  0
SECTION
  2
HEADER
  9
$ACADVER
  1
AC1015
  9
$ACADMAINTVER
 70
6
  9
$DWGCODEPAGE
  3
ANSI_932
  9
$INSBASE
 10
0.0
 20
0.0
 30
0.0
  9
$EXTMIN
 10
0.0
 20
0.0
 30
0.0
  9
$EXTMAX
 10
0.0
 20
0.0
 30
0.0
  9
$LIMMIN
 10
0.0
 20
0.0
  9
$LIMMAX
 10
12.0
 20
9.0
  9
$ORTHOMODE
 70
0
  9
$REGENMODE
 70
1
  9
$FILLMODE
 70
1
  9
$QTEXTMODE
 70
0
  9
$MIRRTEXT
 70
1
  9
$LTSCALE
 40
1.0
  9
$ATTMODE
 70
1
  9
$TEXTSIZE
 40
0.2
  9
$TRACEWID
 40
1.0
  9
$TEXTSTYLE
  7
STANDARD
  9
$CLAYER
  8
__
  9
$CELTYPE
  6
ByLayer
  9
$CECOLOR
 62
256
  9
$CELTSCALE
 40
1.0
  9
$DISPSILH
 70
0
  9
$DIMSCALE
 40
1.0
  9
$DIMASZ
 40
0.18
  9
$DIMEXO
 40
0.0625
  9
$DIMDLI
 40
0.38
  9
$DIMRND
 40
0.0
  9
$DIMDLE
 40
0.0
  9
$DIMEXE
 40
0.18
  9
$DIMTP
 40
0.0
  9
$DIMTM
 40
0.0
  9
$DIMTXT
 40
0.18
  9
$DIMCEN
 40
0.09
  9
$DIMTSZ
 40
0.0
  9
$DIMTOL
 70
0
  9
$DIMLIM
 70
0
  9
$DIMTIH
 70
1
  9
$DIMTOH
 70
1
  9
$DIMSE1
 70
0
  9
$DIMSE2
 70
0
  9
$DIMTAD
 70
0
  9
$DIMZIN
 70
0
  9
$DIMBLK
  1

  9
$DIMASO
 70
1
  9
$DIMSHO
 70
1
  9
$DIMPOST
  1

  9
$DIMAPOST
  1

  9
$DIMALT
 70
0
  9
$DIMALTD
 70
2
  9
$DIMALTF
 40
25.4
  9
$DIMLFAC
 40
1.0
  9
$DIMTOFL
 70
0
  9
$DIMTVP
 40
0.0
  9
$DIMTIX
 70
0
  9
$DIMSOXD
 70
0
  9
$DIMSAH
 70
0
  9
$DIMBLK1
  1

  9
$DIMBLK2
  1

  9
$DIMSTYLE
  2
STANDARD
  9
$DIMCLRD
 70
0
  9
$DIMCLRE
 70
0
  9
$DIMCLRT
 70
0
  9
$DIMTFAC
 40
1.0
  9
$DIMGAP
 40
0.09
  9
$DIMJUST
 70
0
  9
$DIMSD1
 70
0
  9
$DIMSD2
 70
0
  9
$DIMTOLJ
 70
1
  9
$DIMTZIN
 70
0
  9
$DIMALTZ
 70
0
  9
$DIMALTTZ
 70
0
  9
$DIMUPT
 70
0
  9
$DIMDEC
 70
4
  9
$DIMTDEC
 70
4
  9
$DIMALTU
 70
2
  9
$DIMALTTD
 70
2
  9
$DIMTXSTY
  7
STANDARD
  9
$DIMAUNIT
 70
0
  9
$DIMADEC
 70
0
  9
$DIMALTRND
 40
0.0
  9
$DIMAZIN
 70
0
  9
$DIMDSEP
 70
46
  9
$DIMATFIT
 70
3
  9
$DIMFRAC
 70
0
  9
$DIMLDRBLK
  1

  9
$DIMLUNIT
 70
2
  9
$DIMLWD
 70
-2
  9
$DIMLWE
 70
-2
  9
$DIMTMOVE
 70
0
  9
$LUNITS
 70
2
  9
$LUPREC
 70
2
  9
$SKETCHINC
 40
0.1
  9
$FILLETRAD
 40
0.5
  9
$AUNITS
 70
0
  9
$AUPREC
 70
2
  9
$MENU
  1
.
  9
$ELEVATION
 40
0.0
  9
$PELEVATION
 40
0.0
  9
$THICKNESS
 40
0.0
  9
$LIMCHECK
 70
0
  9
$CHAMFERA
 40
0.0
  9
$CHAMFERB
 40
0.0
  9
$CHAMFERC
 40
0.0
  9
$CHAMFERD
 40
0.0
  9
$SKPOLY
 70
0
  9
$TDCREATE
 40
2459829.553275463
  9
$TDUCREATE
 40
2459044.413842593
  9
$TDUPDATE
 40
2459829.553275463
  9
$TDUUPDATE
 40
2459045.001064815
  9
$TDINDWG
 40
0.001006956
  9
$TDUSRTIMER
 40
0.0009953819
  9
$USRTIMER
 70
1
  9
$ANGBASE
 50
0.0
  9
$ANGDIR
 70
0
  9
$PDMODE
 70
1
  9
$PDSIZE
 40
-2.0
  9
$PLINEWID
 40
0.0
  9
$SPLFRAME
 70
0
  9
$SPLINETYPE
 70
6
  9
$SPLINESEGS
 70
8
  9
$HANDSEED
  5
10D5
  9
$SURFTAB1
 70
6
  9
$SURFTAB2
 70
6
  9
$SURFTYPE
 70
6
  9
$SURFU
 70
6
  9
$SURFV
 70
6
  9
$UCSBASE
  2

  9
$UCSNAME
  2

  9
$UCSORG
 10
0.0
 20
0.0
 30
0.0
  9
$UCSXDIR
 10
1.0
 20
0.0
 30
0.0
  9
$UCSYDIR
 10
0.0
 20
1.0
 30
0.0
  9
$UCSORTHOREF
  2

  9
$UCSORTHOVIEW
 70
0
  9
$UCSORGTOP
 10
0.0
 20
0.0
 30
0.0
  9
$UCSORGBOTTOM
 10
0.0
 20
0.0
 30
0.0
  9
$UCSORGLEFT
 10
0.0
 20
0.0
 30
0.0
  9
$UCSORGRIGHT
 10
0.0
 20
0.0
 30
0.0
  9
$UCSORGFRONT
 10
0.0
 20
0.0
 30
0.0
  9
$UCSORGBACK
 10
0.0
 20
0.0
 30
0.0
  9
$PUCSBASE
  2

  9
$PUCSNAME
  2

  9
$PUCSORG
 10
0.0
 20
0.0
 30
0.0
  9
$PUCSXDIR
 10
1.0
 20
0.0
 30
0.0
  9
$PUCSYDIR
 10
0.0
 20
1.0
 30
0.0
  9
$PUCSORTHOREF
  2

  9
$PUCSORTHOVIEW
 70
0
  9
$PUCSORGTOP
 10
0.0
 20
0.0
 30
0.0
  9
$PUCSORGBOTTOM
 10
0.0
 20
0.0
 30
0.0
  9
$PUCSORGLEFT
 10
0.0
 20
0.0
 30
0.0
  9
$PUCSORGRIGHT
 10
0.0
 20
0.0
 30
0.0
  9
$PUCSORGFRONT
 10
0.0
 20
0.0
 30
0.0
  9
$PUCSORGBACK
 10
0.0
 20
0.0
 30
0.0
  9
$USERI1
 70
0
  9
$USERI2
 70
0
  9
$USERI3
 70
0
  9
$USERI4
 70
0
  9
$USERI5
 70
0
  9
$USERR1
 40
0.0
  9
$USERR2
 40
0.0
  9
$USERR3
 40
0.0
  9
$USERR4
 40
0.0
  9
$USERR5
 40
0.0
  9
$WORLDVIEW
 70
1
  9
$SHADEDGE
 70
3
  9
$SHADEDIF
 70
70
  9
$TILEMODE
 70
1
  9
$MAXACTVP
 70
64
  9
$PINSBASE
 10
0.0
 20
0.0
 30
0.0
  9
$PLIMCHECK
 70
0
  9
$PEXTMIN
 10
1e+20
 20
1e+20
 30
1e+20
  9
$PEXTMAX
 10
-1e+20
 20
-1e+20
 30
-1e+20
  9
$PLIMMIN
 10
-20.0
 20
-7.5
  9
$PLIMMAX
 10
277.0
 20
202.5
  9
$UNITMODE
 70
0
  9
$VISRETAIN
 70
1
  9
$PLINEGEN
 70
0
  9
$PSLTSCALE
 70
1
  9
$TREEDEPTH
 70
3020
  9
$CMLSTYLE
  2
Standard
  9
$CMLJUST
 70
0
  9
$CMLSCALE
 40
1.0
  9
$PROXYGRAPHICS
 70
1
  9
$MEASUREMENT
 70
0
  9
$CELWEIGHT
370
-1
  9
$ENDCAPS
280
0
  9
$JOINSTYLE
280
0
  9
$LWDISPLAY
290
0
  9
$INSUNITS
 70
0
  9
$HYPERLINKBASE
  1

  9
$STYLESHEET
  1

  9
$XEDIT
290
1
  9
$CEPSNTYPE
380
0
  9
$PSTYLEMODE
290
1
  9
$FINGERPRINTGUID
  2
{4E80F8E6-651B-4615-B353-852CAAAF0DD9}
  9
$VERSIONGUID
  2
{0F462D94-30BE-4FA9-8A54-5902E66327D5}
  9
$EXTNAMES
290
1
  9
$PSVPSCALE
 40
0.0
  9
$OLESTARTUP
290
0
  0
ENDSEC
  0
SECTION
  2
CLASSES
  0
CLASS
  1
ACDBDICTIONARYWDFLT
  2
AcDbDictionaryWithDefault
  3
ObjectDBX Classes
 90
0
280
0
281
0
  0
CLASS
  1
MATERIAL
  2
AcDbMaterial
  3
ObjectDBX Classes
 90
1153
280
0
281
0
  0
CLASS
  1
VISUALSTYLE
  2
AcDbVisualStyle
  3
ObjectDBX Classes
 90
4095
280
0
281
0
  0
CLASS
  1
SCALE
  2
AcDbScale
  3
ObjectDBX Classes
 90
1153
280
0
281
0
  0
CLASS
  1
TABLESTYLE
  2
AcDbTableStyle
  3
ObjectDBX Classes
 90
4095
280
0
281
0
  0
CLASS
  1
MLEADERSTYLE
  2
AcDbMLeaderStyle
  3
ACDB_MLEADERSTYLE_CLASS
 90
4095
280
0
281
0
  0
CLASS
  1
ACDBSECTIONVIEWSTYLE
  2
AcDbSectionViewStyle
  3
ObjectDBX Classes
 90
1025
280
0
281
0
  0
CLASS
  1
ACDBDETAILVIEWSTYLE
  2
AcDbDetailViewStyle
  3
ObjectDBX Classes
 90
1025
280
0
281
0
  0
CLASS
  1
DICTIONARYVAR
  2
AcDbDictionaryVar
  3
ObjectDBX Classes
 90
0
280
0
281
0
  0
CLASS
  1
CELLSTYLEMAP
  2
AcDbCellStyleMap
  3
ObjectDBX Classes
 90
1152
280
0
281
0
  0
CLASS
  1
ACDBPLACEHOLDER
  2
AcDbPlaceHolder
  3
ObjectDBX Classes
 90
0
280
0
281
0
  0
CLASS
  1
LAYOUT
  2
AcDbLayout
  3
ObjectDBX Classes
 90
0
280
0
281
0
  0
CLASS
  1
SUN
  2
AcDbSun
  3
SCENEOE
 90
1153
280
0
281
0
  0
CLASS
  1
MENTALRAYRENDERSETTINGS
  2
AcDbMentalRayRenderSettings
  3
SCENEOE
 90
1024
280
0
281
0
  0
CLASS
  1
RASTERVARIABLES
  2
AcDbRasterVariables
  3
ISM
 90
0
280
0
281
0
  0
ENDSEC
  0
SECTION
  2
TABLES
  0
TABLE
  2
VPORT
  5
9CE
330
0
100
AcDbSymbolTable
 70
1
  0
VPORT
  5
A3A
330
9CE
100
AcDbSymbolTableRecord
100
AcDbViewportTableRecord
  2
*ACTIVE
 70
0
 10
0.0
 20
0.0
 11
1.0
 21
1.0
 12
50.22649720630994
 22
14.7479721186084
 13
0.0
 23
0.0
 14
0.5
 24
0.5
 15
0.5
 25
0.5
 16
0.0
 26
0.0
 36
1.0
 17
0.0
 27
0.0
 37
0.0
 40
167.9470367482983
 41
2.193641618497109
 42
50.0
 43
0.0
 44
0.0
 50
0.0
 51
0.0
 71
0
 72
1000
 73
1
 74
3
 75
0
 76
0
 77
0
 78
0
281
0
 65
1
110
0.0
120
0.0
130
0.0
111
1.0
121
0.0
131
0.0
112
0.0
122
1.0
132
0.0
 79
0
146
0.0
1001
ACAD_NAV_VCDISPLAY
1070
3
  0
ENDTAB
  0
TABLE
  2
LTYPE
  5
9CB
330
0
100
AcDbSymbolTable
 70
3
  0
LTYPE
  5
A3B
330
9CB
100
AcDbSymbolTableRecord
100
AcDbLinetypeTableRecord
  2
BYBLOCK
 70
0
  3

 72
65
 73
0
 40
0.0
  0
LTYPE
  5
A3C
330
9CB
100
AcDbSymbolTableRecord
100
AcDbLinetypeTableRecord
  2
BYLAYER
 70
0
  3

 72
65
 73
0
 40
0.0
  0
LTYPE
  5
A22
330
9CB
100
AcDbSymbolTableRecord
100
AcDbLinetypeTableRecord
  2
CONTINUOUS
 70
0
  3
Solid line
 72
65
 73
0
 40
0.0
  0
ENDTAB
  0
TABLE
  2
LAYER
  5
9C8
330
0
100
AcDbSymbolTable
 70
4
  0
LAYER
  5
A1A
102
{ACAD_XDICTIONARY
360
A49
102
}
330
9C8
100
AcDbSymbolTableRecord
100
AcDbLayerTableRecord
  2
0
 70
0
 62
7
  6
CONTINUOUS
370
-3
390
9D5
  0
LAYER
  5
A39
102
{ACAD_XDICTIONARY
360
A4B
102
}
330
9C8
100
AcDbSymbolTableRecord
100
AcDbLayerTableRecord
  2
__
 70
0
 62
7
  6
CONTINUOUS
370
-3
390
9D5
  0
LAYER
  5
A3D
102
{ACAD_XDICTIONARY
360
A4D
102
}
330
9C8
100
AcDbSymbolTableRecord
100
AcDbLayerTableRecord
  2
_____1
 70
0
 62
7
  6
CONTINUOUS
370
-3
390
9D5
  0
LAYER
  5
A3E
330
9C8
100
AcDbSymbolTableRecord
100
AcDbLayerTableRecord
  2
DEFPOINTS
 70
0
 62
7
  6
CONTINUOUS
290
0
370
-3
390
9D5
  0
ENDTAB
  0
TABLE
  2
STYLE
  5
9C9
330
0
100
AcDbSymbolTable
 70
2
  0
STYLE
  5
A1B
330
9C9
100
AcDbSymbolTableRecord
100
AcDbTextStyleTableRecord
  2
STANDARD
 70
0
 40
0.0
 41
1.0
 50
0.0
 71
0
 42
0.2
  3
txt
  4
BIGFONT.SHX
  0
STYLE
  5
A1F
330
9C9
100
AcDbSymbolTableRecord
100
AcDbTextStyleTableRecord
  2
Annotative
 70
0
 40
0.0
 41
1.0
 50
0.0
 71
0
 42
0.2
  3
txt
  4

1001
AcadAnnotative
1000
AnnotativeData
1002
{
1070
1
1070
1
1002
}
  0
ENDTAB
  0
TABLE
  2
VIEW
  5
9CC
330
0
100
AcDbSymbolTable
 70
0
  0
ENDTAB
  0
TABLE
  2
UCS
  5
9CD
330
0
100
AcDbSymbolTable
 70
0
  0
ENDTAB
  0
TABLE
  2
APPID
  5
9CF
330
0
100
AcDbSymbolTable
 70
8
  0
APPID
  5
A1C
330
9CF
100
AcDbSymbolTableRecord
100
AcDbRegAppTableRecord
  2
ACAD
 70
0
  0
APPID
  5
A23
330
9CF
100
AcDbSymbolTableRecord
100
AcDbRegAppTableRecord
  2
AcadAnnotative
 70
0
  0
APPID
  5
A3F
330
9CF
100
AcDbSymbolTableRecord
100
AcDbRegAppTableRecord
  2
ACCMTRANSPARENCY
 70
0
  0
APPID
  5
A40
330
9CF
100
AcDbSymbolTableRecord
100
AcDbRegAppTableRecord
  2
ACAECLAYERSTANDARD
 70
0
  0
APPID
  5
A59
330
9CF
100
AcDbSymbolTableRecord
100
AcDbRegAppTableRecord
  2
ACAD_NAV_VCDISPLAY
 70
0
  0
APPID
  5
A94
330
9CF
100
AcDbSymbolTableRecord
100
AcDbRegAppTableRecord
  2
ACAD_MLEADERVER
 70
0
  0
APPID
  5
10D1
330
9CF
100
AcDbSymbolTableRecord
100
AcDbRegAppTableRecord
  2
HATCHBACKGROUNDCOLOR
 70
0
  0
APPID
  5
10D2
330
9CF
100
AcDbSymbolTableRecord
100
AcDbRegAppTableRecord
  2
EZDXF
 70
0
  0
ENDTAB
  0
TABLE
  2
DIMSTYLE
  5
9D0
330
0
100
AcDbSymbolTable
 70
2
100
AcDbDimStyleTable
  0
DIMSTYLE
105
A1D
330
9D0
100
AcDbSymbolTableRecord
100
AcDbDimStyleTableRecord
  2
STANDARD
 70
0
  3

  4

 40
1.0
 41
2.5
 42
0.625
 43
3.75
 44
1.25
 45
0.0
 46
0.0
 47
0.0
 48
0.0
140
2.5
141
2.5
142
0.0
143
0.03937007874
144
1.0
145
0.0
146
1.0
147
0.625
148
0.0
 71
0
 72
0
 73
0
 74
0
 75
0
 76
0
 77
1
 78
8
 79
0
170
0
171
3
172
1
173
0
174
0
175
0
176
0
177
0
178
0
179
0
271
2
272
2
273
2
274
3
275
0
276
0
277
2
278
44
279
2
280
0
281
0
282
0
283
0
284
8
285
0
286
0
288
0
289
3
371
-2
372
-2
  0
DIMSTYLE
105
A1E
330
9D0
100
AcDbSymbolTableRecord
100
AcDbDimStyleTableRecord
  2
Annotative
 70
0
  3

  4

 40
1.0
 41
2.5
 42
0.625
 43
3.75
 44
1.25
 45
0.0
 46
0.0
 47
0.0
 48
0.0
140
2.5
141
2.5
142
0.0
143
0.03937007874
144
1.0
145
0.0
146
1.0
147
0.625
148
0.0
 71
0
 72
0
 73
0
 74
0
 75
0
 76
0
 77
1
 78
8
 79
0
170
0
171
3
172
1
173
0
174
0
175
0
176
0
177
0
178
0
179
0
271
0
272
2
273
2
274
3
275
0
276
0
277
2
278
44
279
0
280
0
281
0
282
0
283
0
284
8
285
0
286
0
288
0
289
3
371
-2
372
-2
1001
AcadAnnotative
1000
AnnotativeData
1002
{
1070
1
1070
1
1002
}
  0
ENDTAB
  0
TABLE
  2
BLOCK_RECORD
  5
9C7
330
0
100
AcDbSymbolTable
 70
4
  0
BLOCK_RECORD
  5
A35
330
9C7
100
AcDbSymbolTableRecord
100
AcDbBlockTableRecord
  2
*Model_Space
340
A38
  0
BLOCK_RECORD
  5
A31
330
9C7
100
AcDbSymbolTableRecord
100
AcDbBlockTableRecord
  2
*Paper_Space
340
A34
  0
BLOCK_RECORD
  5
A43
330
9C7
100
AcDbSymbolTableRecord
100
AcDbBlockTableRecord
  2
$MODEL_SPACE
340
0
  0
BLOCK_RECORD
  5
A44
330
9C7
100
AcDbSymbolTableRecord
100
AcDbBlockTableRecord
  2
$PAPER_SPACE
340
0
  0
ENDTAB
  0
ENDSEC
  0
SECTION
  2
BLOCKS
  0
BLOCK
  5
A36
330
A35
100
AcDbEntity
  8
0
100
AcDbBlockBegin
  2
*Model_Space
 70
0
 10
0.0
 20
0.0
 30
0.0
  3
*Model_Space
  1

  0
ENDBLK
  5
A37
330
A35
100
AcDbEntity
  8
0
100
AcDbBlockEnd
  0
BLOCK
  5
A32
330
A31
100
AcDbEntity
 67
1
  8
0
100
AcDbBlockBegin
  2
*Paper_Space
 70
0
 10
0.0
 20
0.0
 30
0.0
  3
*Paper_Space
  1

  0
ENDBLK
  5
A33
330
A31
100
AcDbEntity
 67
1
  8
0
100
AcDbBlockEnd
  0
BLOCK
  5
470
330
A43
100
AcDbEntity
  8
0
100
AcDbBlockBegin
  2
$MODEL_SPACE
 70
0
 10
0.0
 20
0.0
 30
0.0
  3
$MODEL_SPACE
  1

  0
ENDBLK
  5
21
330
A43
100
AcDbEntity
  8
0
100
AcDbBlockEnd
  0
BLOCK
  5
471
330
A44
100
AcDbEntity
  8
0
100
AcDbBlockBegin
  2
$PAPER_SPACE
 70
0
 10
0.0
 20
0.0
 30
0.0
  3
$PAPER_SPACE
  1

  0
ENDBLK
  5
1D
330
A44
100
AcDbEntity
  8
0
100
AcDbBlockEnd
  0
ENDSEC
  0
SECTION
  2
ENTITIES
  0
LINE
  5
A9D
330
A35
100
AcDbEntity
  8
0
100
AcDbLine
 10
42.728
 20
72.873
 30
0.0
 11
42.637
 21
72.795
 31
0.0
  0
LINE
  5
A9E
330
A35
100
AcDbEntity
  8
0
100
AcDbLine
 10
42.661
 20
72.897
 30
0.0
 11
42.728
 21
72.873
 31
0.0
  0
LINE
  5
A9F
330
A35
100
AcDbEntity
  8
0
100
AcDbLine
 10
42.728
 20
72.74
 30
0.0
 11
42.728
 21
72.873
 31
0.0
  0
LINE
  5
AA0
330
A35
100
AcDbEntity
  8
0
100
AcDbLine
 10
42.661
 20
72.764
 30
0.0
 11
42.728
 21
72.74
 31
0.0
  0
LINE
  5
AA1
330
A35
100
AcDbEntity
  8
0
100
AcDbLine
 10
42.504
 20
72.983
 30
0.0
 11
42.504
 21
73.092
 31
0.0
  0
LINE
  5
AA2
330
A35
100
AcDbEntity
  8
0
100
AcDbLine
 10
42.37
 20
73.127
 30
0.0
 11
42.37
 21
73.025
 31
0.0
  0
LINE
  5
AA3
330
A35
100
AcDbEntity
  8
0
100
AcDbLine
 10
42.418
 20
72.904
 30
0.0
 11
42.504
 21
72.982
 31
0.0
  0
LINE
  5
AA4
330
A35
100
AcDbEntity
  8
0
100
AcDbLine
 10
42.418
 20
72.904
 30
0.0
 11
42.418
 21
73.084
 31
0.0
  0
LINE
  5
AA5
330
A35
100
AcDbEntity
  8
0
100
AcDbLine
 10
42.496
 20
73.158
 30
0.0
 11
42.418
 21
73.084
 31
0.0
  0
LINE
  5
AA6
330
A35
100
AcDbEntity
  8
0
100
AcDbLine
 10
42.504
 20
73.092
 30
0.0
 11
42.496
 21
73.158
 31
0.0
  0
LINE
  5
AA7
330
A35
100
AcDbEntity
  8
0
100
AcDbLine
 10
42.496
 20
73.158
 30
0.0
 11
42.37
 21
73.193
 31
0.0
  0
LINE
  5
AA8
330
A35
100
AcDbEntity
  8
0
100
AcDbLine
 10
42.37
 20
73.092
 30
0.0
 11
42.418
 21
73.084
 31
0.0
  0
LINE
  5
AA9
330
A35
100
AcDbEntity
  8
0
100
AcDbLine
 10
42.551
 20
72.795
 30
0.0
 11
42.661
 21
72.764
 31
0.0
  0
LINE
  5
AAA
330
A35
100
AcDbEntity
  8
0
100
AcDbLine
 10
42.661
 20
72.897
 30
0.0
 11
42.551
 21
72.928
 31
0.0
  0
LINE
  5
AAB
330
A35
100
AcDbEntity
  8
0
100
AcDbLine
 10
42.461
 20
72.838
 30
0.0
 11
42.637
 21
72.772
 31
0.0
  0
LINE
  5
AAC
330
A35
100
AcDbEntity
  8
0
100
AcDbLine
 10
42.661
 20
72.42
 30
0.0
 11
42.606
 21
72.366
 31
0.0
  0
LINE
  5
AAD
330
A35
100
AcDbEntity
  8
0
100
AcDbLine
 10
42.496
 20
72.584
 30
0.0
 11
42.504
 21
72.764
 31
0.0
  0
LINE
  5
AAE
330
A35
100
AcDbEntity
  8
0
100
AcDbLine
 10
42.461
 20
72.838
 30
0.0
 11
42.551
 21
72.928
 31
0.0
  0
LINE
  5
AAF
330
A35
100
AcDbEntity
  8
0
100
AcDbLine
 10
42.418
 20
72.686
 30
0.0
 11
42.418
 21
72.608
 31
0.0
  0
LINE
  5
AB0
330
A35
100
AcDbEntity
  8
0
100
AcDbLine
 10
42.37
 20
72.619
 30
0.0
 11
42.496
 21
72.584
 31
0.0
  0
LINE
  5
AB1
330
A35
100
AcDbEntity
  8
0
100
AcDbLine
 10
42.37
 20
72.619
 30
0.0
 11
42.37
 21
72.795
 31
0.0
  0
LINE
  5
AB2
330
A35
100
AcDbEntity
  8
0
100
AcDbLine
 10
42.217
 20
72.897
 30
0.0
 11
42.151
 21
72.904
 31
0.0
  0
LINE
  5
AB3
330
A35
100
AcDbEntity
  8
0
100
AcDbLine
 10
42.429
 20
72.709
 30
0.0
 11
42.516
 21
72.795
 31
0.0
  0
LINE
  5
AB4
330
A35
100
AcDbEntity
  8
0
100
AcDbLine
 10
42.37
 20
73.127
 30
0.0
 11
42.37
 21
73.193
 31
0.0
  0
LINE
  5
AB5
330
A35
100
AcDbEntity
  8
0
100
AcDbLine
 10
42.327
 20
72.861
 30
0.0
 11
42.217
 21
72.897
 31
0.0
  0
LINE
  5
AB6
330
A35
100
AcDbEntity
  8
0
100
AcDbLine
 10
42.217
 20
73.018
 30
0.0
 11
42.327
 21
72.982
 31
0.0
  0
LINE
  5
AB7
330
A35
100
AcDbEntity
  8
0
100
AcDbLine
 10
42.217
 20
73.018
 30
0.0
 11
42.151
 21
73.037
 31
0.0
  0
LINE
  5
AB8
330
A35
100
AcDbEntity
  8
0
100
AcDbLine
 10
42.241
 20
72.299
 30
0.0
 11
42.229
 21
72.287
 31
0.0
  0
LINE
  5
AB9
330
A35
100
AcDbEntity
  8
0
100
AcDbLine
 10
42.151
 20
72.904
 30
0.0
 11
42.151
 21
73.037
 31
0.0
  0
LINE
  5
ABA
330
A35
100
AcDbEntity
  8
0
100
AcDbLine
 10
42.151
 20
72.94
 30
0.0
 11
42.241
 21
72.904
 31
0.0
  0
LINE
  5
ABB
330
A35
100
AcDbEntity
  8
0
100
AcDbLine
 10
42.272
 20
72.916
 30
0.0
 11
42.363
 21
72.994
 31
0.0
  0
LINE
  5
ABC
330
A35
100
AcDbEntity
  8
0
100
AcDbLine
 10
41.828
 20
72.772
 30
0.0
 11
41.816
 21
72.764
 31
0.0
  0
LINE
  5
ABD
330
A35
100
AcDbEntity
  8
0
100
AcDbLine
 10
41.938
 20
73.127
 30
0.0
 11
42.005
 21
73.182
 31
0.0
  0
LINE
  5
ABE
330
A35
100
AcDbEntity
  8
0
100
AcDbLine
 10
42.504
 20
72.994
 30
0.0
 11
42.551
 21
72.928
 31
0.0
  0
LINE
  5
ABF
330
A35
100
AcDbEntity
  8
0
100
AcDbLine
 10
42.37
 20
73.006
 30
0.0
 11
42.382
 21
73.025
 31
0.0
  0
LINE
  5
AC0
330
A35
100
AcDbEntity
  8
0
100
AcDbLine
 10
42.559
 20
72.795
 30
0.0
 11
42.516
 21
72.772
 31
0.0
  0
LINE
  5
AC1
330
A35
100
AcDbEntity
  8
0
100
AcDbLine
 10
42.429
 20
72.709
 30
0.0
 11
42.418
 21
72.686
 31
0.0
  0
LINE
  5
AC2
330
A35
100
AcDbEntity
  8
0
100
AcDbLine
 10
42.418
 20
72.916
 30
0.0
 11
42.461
 21
72.85
 31
0.0
  0
LINE
  5
AC3
330
A35
100
AcDbEntity
  8
0
100
AcDbLine
 10
42.551
 20
72.334
 30
0.0
 11
42.606
 21
72.366
 31
0.0
  0
LINE
  5
AC4
330
A35
100
AcDbEntity
  8
0
100
AcDbLine
 10
42.382
 20
72.807
 30
0.0
 11
42.339
 21
72.873
 31
0.0
  0
LINE
  5
AC5
330
A35
100
AcDbEntity
  8
0
100
AcDbLine
 10
42.339
 20
72.994
 30
0.0
 11
42.37
 21
72.994
 31
0.0
  0
LINE
  5
AC6
330
A35
100
AcDbEntity
  8
0
100
AcDbLine
 10
42.241
 20
72.916
 30
0.0
 11
42.272
 21
72.916
 31
0.0
  0
LINE
  5
AC7
330
A35
100
AcDbEntity
  8
0
100
AcDbLine
 10
42.795
 20
72.74
 30
0.0
 11
42.661
 21
72.42
 31
0.0
  0
LINE
  5
AC8
330
A35
100
AcDbEntity
  8
0
100
AcDbLine
 10
42.65
 20
73.072
 30
0.0
 11
42.795
 21
72.74
 31
0.0
  0
LINE
  5
AC9
330
A35
100
AcDbEntity
  8
0
100
AcDbLine
 10
42.363
 20
73.248
 30
0.0
 11
42.65
 21
73.072
 31
0.0
  0
LINE
  5
ACA
330
A35
100
AcDbEntity
  8
0
100
AcDbLine
 10
42.005
 20
73.182
 30
0.0
 11
42.363
 21
73.248
 31
0.0
  0
LINE
  5
ACB
330
A35
100
AcDbEntity
  8
0
100
AcDbLine
 10
41.883
 20
72.94
 30
0.0
 11
42.005
 21
73.182
 31
0.0
  0
LINE
  5
ACC
330
A35
100
AcDbEntity
  8
0
100
AcDbLine
 10
41.986
 20
72.619
 30
0.0
 11
41.883
 21
72.94
 31
0.0
  0
LINE
  5
ACD
330
A35
100
AcDbEntity
  8
0
100
AcDbLine
 10
42.406
 20
72.342
 30
0.0
 11
41.986
 21
72.619
 31
0.0
  0
LINE
  5
ACE
330
A35
100
AcDbEntity
  8
0
100
AcDbLine
 10
42.661
 20
72.42
 30
0.0
 11
42.406
 21
72.342
 31
0.0
  0
LINE
  5
ACF
330
A35
100
AcDbEntity
  8
0
100
AcDbLine
 10
41.816
 20
72.861
 30
0.0
 11
41.938
 21
73.127
 31
0.0
  0
LINE
  5
AD0
330
A35
100
AcDbEntity
  8
0
100
AcDbLine
 10
41.938
 20
72.522
 30
0.0
 11
41.816
 21
72.861
 31
0.0
  0
LINE
  5
AD1
330
A35
100
AcDbEntity
  8
0
100
AcDbLine
 10
42.241
 20
72.299
 30
0.0
 11
41.938
 21
72.522
 31
0.0
  0
LINE
  5
AD2
330
A35
100
AcDbEntity
  8
0
100
AcDbLine
 10
42.551
 20
72.323
 30
0.0
 11
42.241
 21
72.299
 31
0.0
  0
LINE
  5
AD3
330
A35
100
AcDbEntity
  8
0
100
AcDbLine
 10
8.657
 20
72.807
 30
0.0
 11
8.645
 21
72.904
 31
0.0
  0
LINE
  5
AD4
330
A35
100
AcDbEntity
  8
0
100
AcDbLine
 10
8.802
 20
72.897
 30
0.0
 11
8.814
 21
72.807
 31
0.0
  0
LINE
  5
AD5
330
A35
100
AcDbEntity
  8
0
100
AcDbLine
 10
8.767
 20
72.916
 30
0.0
 11
8.748
 21
73.006
 31
0.0
  0
LINE
  5
AD6
330
A35
100
AcDbEntity
  8
0
100
AcDbLine
 10
8.826
 20
72.971
 30
0.0
 11
8.669
 21
72.83
 31
0.0
  0
LINE
  5
AD7
330
A35
100
AcDbEntity
  8
0
100
AcDbLine
 10
8.292
 20
73.357
 30
0.0
 11
8.158
 21
73.248
 31
0.0
  0
LINE
  5
AD8
330
A35
100
AcDbEntity
  8
0
100
AcDbLine
 10
8.437
 20
73.072
 30
0.0
 11
8.559
 21
73.17
 31
0.0
  0
LINE
  5
AD9
330
A35
100
AcDbEntity
  8
0
100
AcDbLine
 10
8.547
 20
73.17
 30
0.0
 11
8.571
 21
73.092
 31
0.0
  0
LINE
  5
ADA
330
A35
100
AcDbEntity
  8
0
100
AcDbLine
 10
8.571
 20
73.236
 30
0.0
 11
8.535
 21
73.303
 31
0.0
  0
LINE
  5
ADB
330
A35
100
AcDbEntity
  8
0
100
AcDbLine
 10
8.571
 20
73.205
 30
0.0
 11
8.693
 21
73.303
 31
0.0
  0
LINE
  5
ADC
330
A35
100
AcDbEntity
  8
0
100
AcDbLine
 10
8.858
 20
72.983
 30
0.0
 11
8.924
 21
72.959
 31
0.0
  0
LINE
  5
ADD
330
A35
100
AcDbEntity
  8
0
100
AcDbLine
 10
8.748
 20
73.006
 30
0.0
 11
8.669
 21
73.018
 31
0.0
  0
LINE
  5
ADE
330
A35
100
AcDbEntity
  8
0
100
AcDbLine
 10
8.826
 20
73.146
 30
0.0
 11
8.881
 21
73.127
 31
0.0
  0
LINE
  5
ADF
330
A35
100
AcDbEntity
  8
0
100
AcDbLine
 10
8.724
 20
73.225
 30
0.0
 11
8.693
 21
73.303
 31
0.0
  0
LINE
  5
AE0
330
A35
100
AcDbEntity
  8
0
100
AcDbLine
 10
8.881
 20
73.127
 30
0.0
 11
8.748
 21
73.006
 31
0.0
  0
LINE
  5
AE1
330
A35
100
AcDbEntity
  8
0
100
AcDbLine
 10
8.767
 20
72.807
 30
0.0
 11
8.657
 21
72.807
 31
0.0
  0
LINE
  5
AE2
330
A35
100
AcDbEntity
  8
0
100
AcDbLine
 10
8.457
 20
72.983
 30
0.0
 11
8.414
 21
73.146
 31
0.0
  0
LINE
  5
AE3
330
A35
100
AcDbEntity
  8
0
100
AcDbLine
 10
8.693
 20
73.303
 30
0.0
 11
8.535
 21
73.303
 31
0.0
  0
LINE
  5
AE4
330
A35
100
AcDbEntity
  8
0
100
AcDbLine
 10
8.516
 20
73.146
 30
0.0
 11
8.559
 21
73.17
 31
0.0
  0
LINE
  5
AE5
330
A35
100
AcDbEntity
  8
0
100
AcDbLine
 10
8.869
 20
72.983
 30
0.0
 11
8.826
 21
72.971
 31
0.0
  0
LINE
  5
AE6
330
A35
100
AcDbEntity
  8
0
100
AcDbLine
 10
8.924
 20
72.971
 30
0.0
 11
8.881
 21
73.139
 31
0.0
  0
LINE
  5
AE7
330
A35
100
AcDbEntity
  8
0
100
AcDbLine
 10
8.072
 20
72.897
 30
0.0
 11
8.115
 21
72.772
 31
0.0
  0
LINE
  5
AE8
330
A35
100
AcDbEntity
  8
0
100
AcDbLine
 10
8.158
 20
73.248
 30
0.0
 11
8.072
 21
72.897
 31
0.0
  0
LINE
  5
AE9
330
A35
100
AcDbEntity
  8
0
100
AcDbLine
 10
8.669
 20
72.83
 30
0.0
 11
8.657
 21
72.818
 31
0.0
  0
LINE
  5
AEA
330
A35
100
AcDbEntity
  8
0
100
AcDbLine
 10
8.802
 20
72.897
 30
0.0
 11
8.826
 21
72.971
 31
0.0
  0
LINE
  5
AEB
330
A35
100
AcDbEntity
  8
0
100
AcDbLine
 10
8.205
 20
73.006
 30
0.0
 11
8.303
 21
72.783
 31
0.0
  0
LINE
  5
AEC
330
A35
100
AcDbEntity
  8
0
100
AcDbLine
 10
8.292
 20
73.357
 30
0.0
 11
8.205
 21
73.006
 31
0.0
  0
LINE
  5
AED
330
A35
100
AcDbEntity
  8
0
100
AcDbLine
 10
8.425
 20
73.146
 30
0.0
 11
8.516
 21
73.146
 31
0.0
  0
LINE
  5
AEE
330
A35
100
AcDbEntity
  8
0
100
AcDbLine
 10
8.547
 20
72.983
 30
0.0
 11
8.645
 21
72.904
 31
0.0
  0
LINE
  5
AEF
330
A35
100
AcDbEntity
  8
0
100
AcDbLine
 10
8.547
 20
72.983
 30
0.0
 11
8.457
 21
72.983
 31
0.0
  0
LINE
  5
AF0
330
A35
100
AcDbEntity
  8
0
100
AcDbLine
 10
8.571
 20
73.092
 30
0.0
 11
8.669
 21
73.018
 31
0.0
  0
LINE
  5
AF1
330
A35
100
AcDbEntity
  8
0
100
AcDbLine
 10
8.571
 20
73.236
 30
0.0
 11
8.559
 21
73.17
 31
0.0
  0
LINE
  5
AF2
330
A35
100
AcDbEntity
  8
0
100
AcDbLine
 10
8.826
 20
73.146
 30
0.0
 11
8.724
 21
73.225
 31
0.0
  0
LINE
  5
AF3
330
A35
100
AcDbEntity
  8
0
100
AcDbLine
 10
9.003
 20
73.049
 30
0.0
 11
9.023
 21
72.819
 31
0.0
  0
LINE
  5
AF4
330
A35
100
AcDbEntity
  8
0
100
AcDbLine
 10
8.826
 20
73.303
 30
0.0
 11
9.003
 21
73.049
 31
0.0
  0
LINE
  5
AF5
330
A35
100
AcDbEntity
  8
0
100
AcDbLine
 10
8.516
 20
73.435
 30
0.0
 11
8.826
 21
73.303
 31
0.0
  0
LINE
  5
AF6
330
A35
100
AcDbEntity
  8
0
100
AcDbLine
 10
8.292
 20
73.357
 30
0.0
 11
8.516
 21
73.435
 31
0.0
  0
LINE
  5
AF7
330
A35
100
AcDbEntity
  8
0
100
AcDbLine
 10
59.447
 20
51.882
 30
0.0
 11
59.502
 21
51.87
 31
0.0
  0
LINE
  5
AF8
330
A35
100
AcDbEntity
  8
0
100
AcDbLine
 10
60.434
 20
52.921
 30
0.0
 11
60.5
 21
52.909
 31
0.0
  0
LINE
  5
AF9
330
A35
100
AcDbEntity
  8
0
100
AcDbLine
 10
60.445
 20
53.007
 30
0.0
 11
59.211
 21
51.949
 31
0.0
  0
LINE
  5
AFA
330
A35
100
AcDbEntity
  8
0
100
AcDbLine
 10
55.101
 20
52.929
 30
0.0
 11
55.09
 21
52.929
 31
0.0
  0
LINE
  5
AFB
330
A35
100
AcDbEntity
  8
0
100
AcDbLine
 10
55.101
 20
52.929
 30
0.0
 11
56.032
 21
53.726
 31
0.0
  0
LINE
  5
AFC
330
A35
100
AcDbEntity
  8
0
100
AcDbLine
 10
52.826
 20
53.163
 30
0.0
 11
51.895
 21
52.367
 31
0.0
  0
LINE
  5
AFD
330
A35
100
AcDbEntity
  8
0
100
AcDbLine
 10
58.481
 20
52.058
 30
0.0
 11
59.125
 21
51.929
 31
0.0
  0
LINE
  5
AFE
330
A35
100
AcDbEntity
  8
0
100
AcDbLine
 10
56.276
 20
52.699
 30
0.0
 11
55.101
 21
52.929
 31
0.0
  0
LINE
  5
AFF
330
A35
100
AcDbEntity
  8
0
100
AcDbLine
 10
60.445
 20
53.019
 30
0.0
 11
60.41
 21
53.042
 31
0.0
  0
LINE
  5
B00
330
A35
100
AcDbEntity
  8
0
100
AcDbLine
 10
60.445
 20
53.062
 30
0.0
 11
59.766
 21
53.237
 31
0.0
  0
LINE
  5
B01
330
A35
100
AcDbEntity
  8
0
100
AcDbLine
 10
60.41
 20
53.042
 30
0.0
 11
59.777
 21
53.175
 31
0.0
  0
LINE
  5
B02
330
A35
100
AcDbEntity
  8
0
100
AcDbLine
 10
60.41
 20
53.108
 30
0.0
 11
60.41
 21
53.042
 31
0.0
  0
LINE
  5
B03
330
A35
100
AcDbEntity
  8
0
100
AcDbLine
 10
60.445
 20
53.062
 30
0.0
 11
60.445
 21
53.019
 31
0.0
  0
LINE
  5
B04
330
A35
100
AcDbEntity
  8
0
100
AcDbLine
 10
59.777
 20
53.175
 30
0.0
 11
59.766
 21
53.237
 31
0.0
  0
LINE
  5
B05
330
A35
100
AcDbEntity
  8
0
100
AcDbLine
 10
56.021
 20
53.792
 30
0.0
 11
55.985
 21
53.792
 31
0.0
  0
LINE
  5
B06
330
A35
100
AcDbEntity
  8
0
100
AcDbLine
 10
56.021
 20
53.726
 30
0.0
 11
56.032
 21
53.726
 31
0.0
  0
LINE
  5
B07
330
A35
100
AcDbEntity
  8
0
100
AcDbLine
 10
57.196
 20
53.558
 30
0.0
 11
57.196
 21
53.491
 31
0.0
  0
LINE
  5
B08
330
A35
100
AcDbEntity
  8
0
100
AcDbLine
 10
57.196
 20
53.558
 30
0.0
 11
59.766
 21
53.237
 31
0.0
  0
LINE
  5
B09
330
A35
100
AcDbEntity
  8
0
100
AcDbLine
 10
57.195
 20
53.491
 30
0.0
 11
56.032
 21
53.726
 31
0.0
  0
LINE
  5
B0A
330
A35
100
AcDbEntity
  8
0
100
AcDbLine
 10
59.777
 20
53.175
 30
0.0
 11
57.195
 21
53.491
 31
0.0
  0
LINE
  5
B0B
330
A35
100
AcDbEntity
  8
0
100
AcDbLine
 10
56.021
 20
53.792
 30
0.0
 11
57.195
 21
53.558
 31
0.0
  0
LINE
  5
B0C
330
A35
100
AcDbEntity
  8
0
100
AcDbLine
 10
56.276
 20
52.699
 30
0.0
 11
58.481
 21
52.058
 31
0.0
  0
LINE
  5
B0D
330
A35
100
AcDbEntity
  8
0
100
AcDbLine
 10
55.09
 20
52.929
 30
0.0
 11
51.895
 21
52.367
 31
0.0
  0
LINE
  5
B0E
330
A35
100
AcDbEntity
  8
0
100
AcDbLine
 10
52.826
 20
53.163
 30
0.0
 11
56.021
 21
53.726
 31
0.0
  0
LINE
  5
B0F
330
A35
100
AcDbEntity
  8
0
100
AcDbLine
 10
55.985
 20
53.792
 30
0.0
 11
52.795
 21
53.23
 31
0.0
  0
LINE
  5
B10
330
A35
100
AcDbEntity
  8
0
100
AcDbLine
 10
52.539
 20
53.206
 30
0.0
 11
51.62
 21
52.413
 31
0.0
  0
LINE
  5
B11
330
A35
100
AcDbEntity
  8
0
100
AcDbLine
 10
59.302
 20
51.949
 30
0.0
 11
59.447
 21
51.882
 31
0.0
  0
LINE
  5
B12
330
A35
100
AcDbEntity
  8
0
100
AcDbLine
 10
60.434
 20
52.929
 30
0.0
 11
60.445
 21
53.007
 31
0.0
  0
LINE
  5
B13
330
A35
100
AcDbEntity
  8
0
100
AcDbLine
 10
59.801
 20
51.972
 30
0.0
 11
59.447
 21
51.882
 31
0.0
  0
LINE
  5
B14
330
A35
100
AcDbEntity
  8
0
100
AcDbLine
 10
59.978
 20
52.124
 30
0.0
 11
59.801
 21
51.972
 31
0.0
  0
LINE
  5
B15
330
A35
100
AcDbEntity
  8
0
100
AcDbLine
 10
60.434
 20
52.921
 30
0.0
 11
59.978
 21
52.124
 31
0.0
  0
LINE
  5
B16
330
A35
100
AcDbEntity
  8
0
100
AcDbLine
 10
60.5
 20
52.909
 30
0.0
 11
60.445
 21
53.062
 31
0.0
  0
LINE
  5
B17
330
A35
100
AcDbEntity
  8
0
100
AcDbLine
 10
51.62
 20
52.413
 30
0.0
 11
51.895
 21
52.367
 31
0.0
  0
LINE
  5
B18
330
A35
100
AcDbEntity
  8
0
100
AcDbLine
 10
59.302
 20
51.949
 30
0.0
 11
59.125
 21
51.929
 31
0.0
  0
LINE
  5
B19
330
A35
100
AcDbEntity
  8
0
100
AcDbLine
 10
52.539
 20
53.206
 30
0.0
 11
52.826
 21
53.163
 31
0.0
  0
LINE
  5
B1A
330
A35
100
AcDbEntity
  8
0
100
AcDbLine
 10
52.551
 20
53.261
 30
0.0
 11
52.795
 21
53.23
 31
0.0
  0
LINE
  5
B1B
330
A35
100
AcDbEntity
  8
0
100
AcDbLine
 10
51.608
 20
53.503
 30
0.0
 11
50.708
 21
53.569
 31
0.0
  0
LINE
  5
B1C
330
A35
100
AcDbEntity
  8
0
100
AcDbLine
 10
52.539
 20
53.206
 30
0.0
 11
51.608
 21
53.503
 31
0.0
  0
LINE
  5
B1D
330
A35
100
AcDbEntity
  8
0
100
AcDbLine
 10
51.62
 20
53.569
 30
0.0
 11
50.72
 21
53.636
 31
0.0
  0
LINE
  5
B1E
330
A35
100
AcDbEntity
  8
0
100
AcDbLine
 10
52.551
 20
53.261
 30
0.0
 11
51.62
 21
53.569
 31
0.0
  0
LINE
  5
B1F
330
A35
100
AcDbEntity
  8
0
100
AcDbLine
 10
59.679
 20
51.87
 30
0.0
 11
59.502
 21
51.87
 31
0.0
  0
LINE
  5
B20
330
A35
100
AcDbEntity
  8
0
100
AcDbLine
 10
60.044
 20
52.105
 30
0.0
 11
59.679
 21
51.87
 31
0.0
  0
LINE
  5
B21
330
A35
100
AcDbEntity
  8
0
100
AcDbLine
 10
60.5
 20
52.909
 30
0.0
 11
60.044
 21
52.105
 31
0.0
  0
LINE
  5
B22
330
A35
100
AcDbEntity
  8
0
100
AcDbLine
 10
51.62
 20
52.413
 30
0.0
 11
50.378
 21
52.753
 31
0.0
  0
LINE
  5
B23
330
A35
100
AcDbEntity
  8
0
100
AcDbLine
 10
25.353
 20
52.921
 30
0.0
 11
25.345
 21
52.921
 31
0.0
  0
LINE
  5
B24
330
A35
100
AcDbEntity
  8
0
100
AcDbLine
 10
26.284
 20
51.87
 30
0.0
 11
26.351
 21
51.882
 31
0.0
  0
LINE
  5
B25
330
A35
100
AcDbEntity
  8
0
100
AcDbLine
 10
26.673
 20
51.929
 30
0.0
 11
27.306
 21
52.058
 31
0.0
  0
LINE
  5
B26
330
A35
100
AcDbEntity
  8
0
100
AcDbLine
 10
26.575
 20
51.949
 30
0.0
 11
25.345
 21
53.007
 31
0.0
  0
LINE
  5
B27
330
A35
100
AcDbEntity
  8
0
100
AcDbLine
 10
25.345
 20
53.007
 30
0.0
 11
25.345
 21
53.019
 31
0.0
  0
LINE
  5
B28
330
A35
100
AcDbEntity
  8
0
100
AcDbLine
 10
26.02
 20
53.175
 30
0.0
 11
28.591
 21
53.491
 31
0.0
  0
LINE
  5
B29
330
A35
100
AcDbEntity
  8
0
100
AcDbLine
 10
28.591
 20
53.558
 30
0.0
 11
26.02
 21
53.237
 31
0.0
  0
LINE
  5
B2A
330
A35
100
AcDbEntity
  8
0
100
AcDbLine
 10
25.388
 20
53.108
 30
0.0
 11
25.345
 21
53.019
 31
0.0
  0
LINE
  5
B2B
330
A35
100
AcDbEntity
  8
0
100
AcDbLine
 10
26.02
 20
53.175
 30
0.0
 11
26.02
 21
53.237
 31
0.0
  0
LINE
  5
B2C
330
A35
100
AcDbEntity
  8
0
100
AcDbLine
 10
25.376
 20
53.042
 30
0.0
 11
26.02
 21
53.175
 31
0.0
  0
LINE
  5
B2D
330
A35
100
AcDbEntity
  8
0
100
AcDbLine
 10
25.388
 20
53.108
 30
0.0
 11
25.376
 21
53.042
 31
0.0
  0
LINE
  5
B2E
330
A35
100
AcDbEntity
  8
0
100
AcDbLine
 10
26.02
 20
53.237
 30
0.0
 11
25.388
 21
53.108
 31
0.0
  0
LINE
  5
B2F
330
A35
100
AcDbEntity
  8
0
100
AcDbLine
 10
25.376
 20
53.042
 30
0.0
 11
25.345
 21
53.007
 31
0.0
  0
LINE
  5
B30
330
A35
100
AcDbEntity
  8
0
100
AcDbLine
 10
29.514
 20
52.699
 30
0.0
 11
30.689
 21
52.929
 31
0.0
  0
LINE
  5
B31
330
A35
100
AcDbEntity
  8
0
100
AcDbLine
 10
33.247
 20
53.206
 30
0.0
 11
34.17
 21
52.413
 31
0.0
  0
LINE
  5
B32
330
A35
100
AcDbEntity
  8
0
100
AcDbLine
 10
30.697
 20
52.929
 30
0.0
 11
30.689
 21
52.929
 31
0.0
  0
LINE
  5
B33
330
A35
100
AcDbEntity
  8
0
100
AcDbLine
 10
30.697
 20
52.929
 30
0.0
 11
29.777
 21
53.726
 31
0.0
  0
LINE
  5
B34
330
A35
100
AcDbEntity
  8
0
100
AcDbLine
 10
29.777
 20
53.726
 30
0.0
 11
29.765
 21
53.726
 31
0.0
  0
LINE
  5
B35
330
A35
100
AcDbEntity
  8
0
100
AcDbLine
 10
28.591
 20
53.491
 30
0.0
 11
29.765
 21
53.726
 31
0.0
  0
LINE
  5
B36
330
A35
100
AcDbEntity
  8
0
100
AcDbLine
 10
28.591
 20
53.558
 30
0.0
 11
28.591
 21
53.491
 31
0.0
  0
LINE
  5
B37
330
A35
100
AcDbEntity
  8
0
100
AcDbLine
 10
29.765
 20
53.792
 30
0.0
 11
29.801
 21
53.792
 31
0.0
  0
LINE
  5
B38
330
A35
100
AcDbEntity
  8
0
100
AcDbLine
 10
29.765
 20
53.792
 30
0.0
 11
28.591
 21
53.558
 31
0.0
  0
LINE
  5
B39
330
A35
100
AcDbEntity
  8
0
100
AcDbLine
 10
29.514
 20
52.699
 30
0.0
 11
27.306
 21
52.058
 31
0.0
  0
LINE
  5
B3A
330
A35
100
AcDbEntity
  8
0
100
AcDbLine
 10
29.777
 20
53.726
 30
0.0
 11
32.972
 21
53.163
 31
0.0
  0
LINE
  5
B3B
330
A35
100
AcDbEntity
  8
0
100
AcDbLine
 10
33.891
 20
52.367
 30
0.0
 11
30.697
 21
52.929
 31
0.0
  0
LINE
  5
B3C
330
A35
100
AcDbEntity
  8
0
100
AcDbLine
 10
29.801
 20
53.792
 30
0.0
 11
32.991
 21
53.23
 31
0.0
  0
LINE
  5
B3D
330
A35
100
AcDbEntity
  8
0
100
AcDbLine
 10
25.345
 20
52.921
 30
0.0
 11
25.29
 21
52.909
 31
0.0
  0
LINE
  5
B3E
330
A35
100
AcDbEntity
  8
0
100
AcDbLine
 10
32.972
 20
53.163
 30
0.0
 11
33.891
 21
52.367
 31
0.0
  0
LINE
  5
B3F
330
A35
100
AcDbEntity
  8
0
100
AcDbLine
 10
26.351
 20
51.894
 30
0.0
 11
26.496
 21
51.949
 31
0.0
  0
LINE
  5
B40
330
A35
100
AcDbEntity
  8
0
100
AcDbLine
 10
25.353
 20
53.007
 30
0.0
 11
25.365
 21
52.929
 31
0.0
  0
LINE
  5
B41
330
A35
100
AcDbEntity
  8
0
100
AcDbLine
 10
25.809
 20
52.124
 30
0.0
 11
25.353
 21
52.921
 31
0.0
  0
LINE
  5
B42
330
A35
100
AcDbEntity
  8
0
100
AcDbLine
 10
25.997
 20
51.972
 30
0.0
 11
25.809
 21
52.124
 31
0.0
  0
LINE
  5
B43
330
A35
100
AcDbEntity
  8
0
100
AcDbLine
 10
26.351
 20
51.882
 30
0.0
 11
25.997
 21
51.972
 31
0.0
  0
LINE
  5
B44
330
A35
100
AcDbEntity
  8
0
100
AcDbLine
 10
26.575
 20
51.949
 30
0.0
 11
26.673
 21
51.929
 31
0.0
  0
LINE
  5
B45
330
A35
100
AcDbEntity
  8
0
100
AcDbLine
 10
26.496
 20
51.949
 30
0.0
 11
26.575
 21
51.949
 31
0.0
  0
LINE
  5
B46
330
A35
100
AcDbEntity
  8
0
100
AcDbLine
 10
34.17
 20
52.413
 30
0.0
 11
35.412
 21
52.753
 31
0.0
  0
LINE
  5
B47
330
A35
100
AcDbEntity
  8
0
100
AcDbLine
 10
34.178
 20
53.503
 30
0.0
 11
35.089
 21
53.569
 31
0.0
  0
LINE
  5
B48
330
A35
100
AcDbEntity
  8
0
100
AcDbLine
 10
33.247
 20
53.206
 30
0.0
 11
34.178
 21
53.503
 31
0.0
  0
LINE
  5
B49
330
A35
100
AcDbEntity
  8
0
100
AcDbLine
 10
25.29
 20
52.909
 30
0.0
 11
25.353
 21
53.062
 31
0.0
  0
LINE
  5
B4A
330
A35
100
AcDbEntity
  8
0
100
AcDbLine
 10
25.742
 20
52.105
 30
0.0
 11
25.29
 21
52.909
 31
0.0
  0
LINE
  5
B4B
330
A35
100
AcDbEntity
  8
0
100
AcDbLine
 10
26.107
 20
51.87
 30
0.0
 11
25.742
 21
52.105
 31
0.0
  0
LINE
  5
B4C
330
A35
100
AcDbEntity
  8
0
100
AcDbLine
 10
26.284
 20
51.87
 30
0.0
 11
26.107
 21
51.87
 31
0.0
  0
LINE
  5
B4D
330
A35
100
AcDbEntity
  8
0
100
AcDbLine
 10
34.17
 20
52.413
 30
0.0
 11
33.891
 21
52.367
 31
0.0
  0
LINE
  5
B4E
330
A35
100
AcDbEntity
  8
0
100
AcDbLine
 10
33.247
 20
53.206
 30
0.0
 11
32.972
 21
53.163
 31
0.0
  0
LINE
  5
B4F
330
A35
100
AcDbEntity
  8
0
100
AcDbLine
 10
33.239
 20
53.261
 30
0.0
 11
32.991
 21
53.23
 31
0.0
  0
LINE
  5
B50
330
A35
100
AcDbEntity
  8
0
100
AcDbLine
 10
34.17
 20
53.569
 30
0.0
 11
35.078
 21
53.636
 31
0.0
  0
LINE
  5
B51
330
A35
100
AcDbEntity
  8
0
100
AcDbLine
 10
33.239
 20
53.261
 30
0.0
 11
34.17
 21
53.569
 31
0.0
  0
LINE
  5
B52
330
A35
100
AcDbEntity
  8
0
100
AcDbLine
 10
45.066
 20
56.073
 30
0.0
 11
44.724
 21
56.393
 31
0.0
  0
LINE
  5
B53
330
A35
100
AcDbEntity
  8
0
100
AcDbLine
 10
45.199
 20
55.686
 30
0.0
 11
45.066
 21
56.073
 31
0.0
  0
LINE
  5
B54
330
A35
100
AcDbEntity
  8
0
100
AcDbLine
 10
45.066
 20
55.288
 30
0.0
 11
45.199
 21
55.686
 31
0.0
  0
LINE
  5
B55
330
A35
100
AcDbEntity
  8
0
100
AcDbLine
 10
44.901
 20
55.112
 30
0.0
 11
45.066
 21
55.288
 31
0.0
  0
LINE
  5
B56
330
A35
100
AcDbEntity
  8
0
100
AcDbLine
 10
44.245
 20
54.749
 30
0.0
 11
44.901
 21
55.112
 31
0.0
  0
LINE
  5
B57
330
A35
100
AcDbEntity
  8
0
100
AcDbLine
 10
42.893
 20
54.542
 30
0.0
 11
44.245
 21
54.749
 31
0.0
  0
LINE
  5
B58
330
A35
100
AcDbEntity
  8
0
100
AcDbLine
 10
41.541
 20
54.749
 30
0.0
 11
42.893
 21
54.542
 31
0.0
  0
LINE
  5
B59
330
A35
100
AcDbEntity
  8
0
100
AcDbLine
 10
40.72
 20
55.288
 30
0.0
 11
41.541
 21
54.749
 31
0.0
  0
LINE
  5
B5A
330
A35
100
AcDbEntity
  8
0
100
AcDbLine
 10
40.587
 20
55.686
 30
0.0
 11
40.72
 21
55.288
 31
0.0
  0
LINE
  5
B5B
330
A35
100
AcDbEntity
  8
0
100
AcDbLine
 10
40.622
 20
55.885
 30
0.0
 11
40.587
 21
55.686
 31
0.0
  0
LINE
  5
B5C
330
A35
100
AcDbEntity
  8
0
100
AcDbLine
 10
41.074
 20
56.393
 30
0.0
 11
40.622
 21
55.885
 31
0.0
  0
LINE
  5
B5D
330
A35
100
AcDbEntity
  8
0
100
AcDbLine
 10
44.956
 20
55.928
 30
0.0
 11
44.481
 21
56.424
 31
0.0
  0
LINE
  5
B5E
330
A35
100
AcDbEntity
  8
0
100
AcDbLine
 10
44.956
 20
55.565
 30
0.0
 11
44.956
 21
55.928
 31
0.0
  0
LINE
  5
B5F
330
A35
100
AcDbEntity
  8
0
100
AcDbLine
 10
44.7
 20
55.225
 30
0.0
 11
44.956
 21
55.565
 31
0.0
  0
LINE
  5
B60
330
A35
100
AcDbEntity
  8
0
100
AcDbLine
 10
44.123
 20
54.905
 30
0.0
 11
44.7
 21
55.225
 31
0.0
  0
LINE
  5
B61
330
A35
100
AcDbEntity
  8
0
100
AcDbLine
 10
42.893
 20
54.706
 30
0.0
 11
44.123
 21
54.905
 31
0.0
  0
LINE
  5
B62
330
A35
100
AcDbEntity
  8
0
100
AcDbLine
 10
41.675
 20
54.905
 30
0.0
 11
42.893
 21
54.706
 31
0.0
  0
LINE
  5
B63
330
A35
100
AcDbEntity
  8
0
100
AcDbLine
 10
41.086
 20
55.225
 30
0.0
 11
41.675
 21
54.905
 31
0.0
  0
LINE
  5
B64
330
A35
100
AcDbEntity
  8
0
100
AcDbLine
 10
40.83
 20
55.565
 30
0.0
 11
41.086
 21
55.225
 31
0.0
  0
LINE
  5
B65
330
A35
100
AcDbEntity
  8
0
100
AcDbLine
 10
40.83
 20
55.928
 30
0.0
 11
40.83
 21
55.565
 31
0.0
  0
LINE
  5
B66
330
A35
100
AcDbEntity
  8
0
100
AcDbLine
 10
41.309
 20
56.424
 30
0.0
 11
40.83
 21
55.928
 31
0.0
  0
LINE
  5
B67
330
A35
100
AcDbEntity
  8
0
100
AcDbLine
 10
41.541
 20
71.241
 30
0.0
 11
41.75
 21
71.174
 31
0.0
  0
LINE
  5
B68
330
A35
100
AcDbEntity
  8
0
100
AcDbLine
 10
41.986
 20
71.901
 30
0.0
 11
42.229
 21
71.838
 31
0.0
  0
LINE
  5
B69
330
A35
100
AcDbEntity
  8
0
100
AcDbLine
 10
41.706
 20
71.253
 30
0.0
 11
41.706
 21
71.186
 31
0.0
  0
LINE
  5
B6A
330
A35
100
AcDbEntity
  8
0
100
AcDbLine
 10
40.665
 20
71.483
 30
0.0
 11
40.665
 21
62.18
 31
0.0
  0
LINE
  5
B6B
330
A35
100
AcDbEntity
  8
0
100
AcDbLine
 10
40.476
 20
62.157
 30
0.0
 11
40.476
 21
71.463
 31
0.0
  0
LINE
  5
B6C
330
A35
100
AcDbEntity
  8
0
100
AcDbLine
 10
36.697
 20
58.896
 30
0.0
 11
36.551
 21
58.771
 31
0.0
  0
LINE
  5
B6D
330
A35
100
AcDbEntity
  8
0
100
AcDbLine
 10
36.532
 20
58.74
 30
0.0
 11
36.532
 21
68.042
 31
0.0
  0
LINE
  5
B6E
330
A35
100
AcDbEntity
  8
0
100
AcDbLine
 10
37.706
 20
59.677
 30
0.0
 11
37.274
 21
59.302
 31
0.0
  0
LINE
  5
B6F
330
A35
100
AcDbEntity
  8
0
100
AcDbLine
 10
37.16
 20
59.302
 30
0.0
 11
37.706
 21
59.767
 31
0.0
  0
LINE
  5
B70
330
A35
100
AcDbEntity
  8
0
100
AcDbLine
 10
40.665
 20
61.497
 30
0.0
 11
40.665
 21
62.126
 31
0.0
  0
LINE
  5
B71
330
A35
100
AcDbEntity
  8
0
100
AcDbLine
 10
40.708
 20
61.528
 30
0.0
 11
40.665
 21
61.497
 31
0.0
  0
LINE
  5
B72
330
A35
100
AcDbEntity
  8
0
100
AcDbLine
 10
40.708
 20
62.169
 30
0.0
 11
40.665
 21
62.18
 31
0.0
  0
LINE
  5
B73
330
A35
100
AcDbEntity
  8
0
100
AcDbLine
 10
40.708
 20
62.169
 30
0.0
 11
40.665
 21
62.126
 31
0.0
  0
LINE
  5
B74
330
A35
100
AcDbEntity
  8
0
100
AcDbLine
 10
40.708
 20
62.169
 30
0.0
 11
40.708
 21
61.528
 31
0.0
  0
LINE
  5
B75
330
A35
100
AcDbEntity
  8
0
100
AcDbLine
 10
40.665
 20
62.126
 30
0.0
 11
40.622
 21
62.134
 31
0.0
  0
LINE
  5
B76
330
A35
100
AcDbEntity
  8
0
100
AcDbLine
 10
38.017
 20
61.122
 30
0.0
 11
37.895
 21
61.154
 31
0.0
  0
LINE
  5
B77
330
A35
100
AcDbEntity
  8
0
100
AcDbLine
 10
38.072
 20
61.77
 30
0.0
 11
38.194
 21
61.739
 31
0.0
  0
LINE
  5
B78
330
A35
100
AcDbEntity
  8
0
100
AcDbLine
 10
37.16
 20
67.812
 30
0.0
 11
37.085
 21
67.835
 31
0.0
  0
LINE
  5
B79
330
A35
100
AcDbEntity
  8
0
100
AcDbLine
 10
37.239
 20
67.89
 30
0.0
 11
37.317
 21
67.859
 31
0.0
  0
LINE
  5
B7A
330
A35
100
AcDbEntity
  8
0
100
AcDbLine
 10
36.964
 20
68.429
 30
0.0
 11
36.551
 21
68.077
 31
0.0
  0
LINE
  5
B7B
330
A35
100
AcDbEntity
  8
0
100
AcDbLine
 10
36.964
 20
68.12
 30
0.0
 11
36.964
 21
68.597
 31
0.0
  0
LINE
  5
B7C
330
A35
100
AcDbEntity
  8
0
100
AcDbLine
 10
39.812
 20
70.491
 30
0.0
 11
39.812
 21
70.889
 31
0.0
  0
LINE
  5
B7D
330
A35
100
AcDbEntity
  8
0
100
AcDbLine
 10
39.734
 20
70.987
 30
0.0
 11
39.734
 21
70.514
 31
0.0
  0
LINE
  5
B7E
330
A35
100
AcDbEntity
  8
0
100
AcDbLine
 10
39.534
 20
69.776
 30
0.0
 11
39.455
 21
69.796
 31
0.0
  0
LINE
  5
B7F
330
A35
100
AcDbEntity
  8
0
100
AcDbLine
 10
39.734
 20
70.514
 30
0.0
 11
39.812
 21
70.491
 31
0.0
  0
LINE
  5
B80
330
A35
100
AcDbEntity
  8
0
100
AcDbLine
 10
39.812
 20
70.889
 30
0.0
 11
40.476
 21
71.463
 31
0.0
  0
LINE
  5
B81
330
A35
100
AcDbEntity
  8
0
100
AcDbLine
 10
40.555
 20
62.134
 30
0.0
 11
38.437
 21
60.306
 31
0.0
  0
LINE
  5
B82
330
A35
100
AcDbEntity
  8
0
100
AcDbLine
 10
37.317
 20
67.859
 30
0.0
 11
39.534
 21
69.776
 31
0.0
  0
LINE
  5
B83
330
A35
100
AcDbEntity
  8
0
100
AcDbLine
 10
39.455
 20
69.796
 30
0.0
 11
37.239
 21
67.89
 31
0.0
  0
LINE
  5
B84
330
A35
100
AcDbEntity
  8
0
100
AcDbLine
 10
40.476
 20
62.157
 30
0.0
 11
38.194
 21
60.185
 31
0.0
  0
LINE
  5
B85
330
A35
100
AcDbEntity
  8
0
100
AcDbLine
 10
36.972
 20
68.652
 30
0.0
 11
39.745
 21
71.03
 31
0.0
  0
LINE
  5
B86
330
A35
100
AcDbEntity
  8
0
100
AcDbLine
 10
41.75
 20
71.174
 30
0.0
 11
41.75
 21
71.276
 31
0.0
  0
LINE
  5
B87
330
A35
100
AcDbEntity
  8
0
100
AcDbLine
 10
42.472
 20
71.53
 30
0.0
 11
42.472
 21
67.14
 31
0.0
  0
LINE
  5
B88
330
A35
100
AcDbEntity
  8
0
100
AcDbLine
 10
41.376
 20
71.284
 30
0.0
 11
40.665
 21
71.483
 31
0.0
  0
LINE
  5
B89
330
A35
100
AcDbEntity
  8
0
100
AcDbLine
 10
36.972
 20
68.652
 30
0.0
 11
36.952
 21
68.605
 31
0.0
  0
LINE
  5
B8A
330
A35
100
AcDbEntity
  8
0
100
AcDbLine
 10
39.745
 20
71.042
 30
0.0
 11
39.722
 21
70.999
 31
0.0
  0
LINE
  5
B8B
330
A35
100
AcDbEntity
  8
0
100
AcDbLine
 10
42.472
 20
71.53
 30
0.0
 11
42.229
 21
71.838
 31
0.0
  0
LINE
  5
B8C
330
A35
100
AcDbEntity
  8
0
100
AcDbLine
 10
41.93
 20
71.912
 30
0.0
 11
41.986
 21
71.901
 31
0.0
  0
LINE
  5
B8D
330
A35
100
AcDbEntity
  8
0
100
AcDbLine
 10
36.532
 20
58.74
 30
0.0
 11
36.551
 21
58.771
 31
0.0
  0
LINE
  5
B8E
330
A35
100
AcDbEntity
  8
0
100
AcDbLine
 10
36.586
 20
58.685
 30
0.0
 11
36.532
 21
58.74
 31
0.0
  0
LINE
  5
B8F
330
A35
100
AcDbEntity
  8
0
100
AcDbLine
 10
38.115
 20
61.431
 30
0.0
 11
37.895
 21
61.154
 31
0.0
  0
LINE
  5
B90
330
A35
100
AcDbEntity
  8
0
100
AcDbLine
 10
38.146
 20
61.649
 30
0.0
 11
38.115
 21
61.431
 31
0.0
  0
LINE
  5
B91
330
A35
100
AcDbEntity
  8
0
100
AcDbLine
 10
38.072
 20
61.77
 30
0.0
 11
38.146
 21
61.649
 31
0.0
  0
LINE
  5
B92
330
A35
100
AcDbEntity
  8
0
100
AcDbLine
 10
37.981
 20
61.739
 30
0.0
 11
38.072
 21
61.77
 31
0.0
  0
LINE
  5
B93
330
A35
100
AcDbEntity
  8
0
100
AcDbLine
 10
40.622
 20
62.134
 30
0.0
 11
40.555
 21
62.134
 31
0.0
  0
LINE
  5
B94
330
A35
100
AcDbEntity
  8
0
100
AcDbLine
 10
40.476
 20
62.157
 30
0.0
 11
40.665
 21
62.18
 31
0.0
  0
LINE
  5
B95
330
A35
100
AcDbEntity
  8
0
100
AcDbLine
 10
40.697
 20
61.298
 30
0.0
 11
40.665
 21
61.497
 31
0.0
  0
LINE
  5
B96
330
A35
100
AcDbEntity
  8
0
100
AcDbLine
 10
40.909
 20
61.013
 30
0.0
 11
40.697
 21
61.298
 31
0.0
  0
LINE
  5
B97
330
A35
100
AcDbEntity
  8
0
100
AcDbLine
 10
40.744
 20
61.341
 30
0.0
 11
40.708
 21
61.528
 31
0.0
  0
LINE
  5
B98
330
A35
100
AcDbEntity
  8
0
100
AcDbLine
 10
40.999
 20
61.013
 30
0.0
 11
40.744
 21
61.341
 31
0.0
  0
LINE
  5
B99
330
A35
100
AcDbEntity
  8
0
100
AcDbLine
 10
38.237
 20
61.388
 30
0.0
 11
38.017
 21
61.122
 31
0.0
  0
LINE
  5
B9A
330
A35
100
AcDbEntity
  8
0
100
AcDbLine
 10
38.194
 20
61.739
 30
0.0
 11
38.237
 21
61.388
 31
0.0
  0
LINE
  5
B9B
330
A35
100
AcDbEntity
  8
0
100
AcDbLine
 10
38.724
 20
64.582
 30
0.0
 11
38.834
 21
64.625
 31
0.0
  0
LINE
  5
B9C
330
A35
100
AcDbEntity
  8
0
100
AcDbLine
 10
38.614
 20
64.34
 30
0.0
 11
38.724
 21
64.582
 31
0.0
  0
LINE
  5
B9D
330
A35
100
AcDbEntity
  8
0
100
AcDbLine
 10
38.657
 20
64.008
 30
0.0
 11
38.614
 21
64.34
 31
0.0
  0
LINE
  5
B9E
330
A35
100
AcDbEntity
  8
0
100
AcDbLine
 10
38.693
 20
64.317
 30
0.0
 11
38.869
 21
64.606
 31
0.0
  0
LINE
  5
B9F
330
A35
100
AcDbEntity
  8
0
100
AcDbLine
 10
38.704
 20
64.008
 30
0.0
 11
38.693
 21
64.317
 31
0.0
  0
LINE
  5
BA0
330
A35
100
AcDbEntity
  8
0
100
AcDbLine
 10
38.881
 20
64.285
 30
0.0
 11
38.657
 21
64.008
 31
0.0
  0
LINE
  5
BA1
330
A35
100
AcDbEntity
  8
0
100
AcDbLine
 10
38.834
 20
64.625
 30
0.0
 11
38.881
 21
64.285
 31
0.0
  0
LINE
  5
BA2
330
A35
100
AcDbEntity
  8
0
100
AcDbLine
 10
36.532
 20
68.042
 30
0.0
 11
36.551
 21
68.077
 31
0.0
  0
LINE
  5
BA3
330
A35
100
AcDbEntity
  8
0
100
AcDbLine
 10
37.16
 20
67.812
 30
0.0
 11
37.317
 21
67.859
 31
0.0
  0
LINE
  5
BA4
330
A35
100
AcDbEntity
  8
0
100
AcDbLine
 10
37.085
 20
67.835
 30
0.0
 11
37.239
 21
67.89
 31
0.0
  0
LINE
  5
BA5
330
A35
100
AcDbEntity
  8
0
100
AcDbLine
 10
36.964
 20
68.12
 30
0.0
 11
37.085
 21
67.835
 31
0.0
  0
LINE
  5
BA6
330
A35
100
AcDbEntity
  8
0
100
AcDbLine
 10
39.745
 20
71.03
 30
0.0
 11
39.812
 21
71.042
 31
0.0
  0
LINE
  5
BA7
330
A35
100
AcDbEntity
  8
0
100
AcDbLine
 10
39.643
 20
70.104
 30
0.0
 11
39.734
 21
70.514
 31
0.0
  0
LINE
  5
BA8
330
A35
100
AcDbEntity
  8
0
100
AcDbLine
 10
39.455
 20
69.796
 30
0.0
 11
39.643
 21
70.104
 31
0.0
  0
LINE
  5
BA9
330
A35
100
AcDbEntity
  8
0
100
AcDbLine
 10
40.476
 20
71.463
 30
0.0
 11
40.665
 21
71.483
 31
0.0
  0
LINE
  5
BAA
330
A35
100
AcDbEntity
  8
0
100
AcDbLine
 10
39.887
 20
70.956
 30
0.0
 11
39.812
 21
71.042
 31
0.0
  0
LINE
  5
BAB
330
A35
100
AcDbEntity
  8
0
100
AcDbLine
 10
39.734
 20
70.085
 30
0.0
 11
39.812
 21
70.491
 31
0.0
  0
LINE
  5
BAC
330
A35
100
AcDbEntity
  8
0
100
AcDbLine
 10
39.534
 20
69.776
 30
0.0
 11
39.734
 21
70.085
 31
0.0
  0
LINE
  5
BAD
330
A35
100
AcDbEntity
  8
0
100
AcDbLine
 10
37.895
 20
61.154
 30
0.0
 11
37.848
 21
61.22
 31
0.0
  0
LINE
  5
BAE
330
A35
100
AcDbEntity
  8
0
100
AcDbLine
 10
37.993
 20
57.307
 30
0.0
 11
37.993
 21
57.295
 31
0.0
  0
LINE
  5
BAF
330
A35
100
AcDbEntity
  8
0
100
AcDbLine
 10
37.993
 20
57.307
 30
0.0
 11
37.993
 21
57.342
 31
0.0
  0
LINE
  5
BB0
330
A35
100
AcDbEntity
  8
0
100
AcDbLine
 10
47.75
 20
57.592
 30
0.0
 11
47.75
 21
57.65
 31
0.0
  0
LINE
  5
BB1
330
A35
100
AcDbEntity
  8
0
100
AcDbLine
 10
47.75
 20
57.592
 30
0.0
 11
47.75
 21
57.584
 31
0.0
  0
LINE
  5
BB2
330
A35
100
AcDbEntity
  8
0
100
AcDbLine
 10
47.007
 20
58.619
 30
0.0
 11
47.007
 21
58.662
 31
0.0
  0
LINE
  5
BB3
330
A35
100
AcDbEntity
  8
0
100
AcDbLine
 10
40.818
 20
59.501
 30
0.0
 11
41.042
 21
59.544
 31
0.0
  0
LINE
  5
BB4
330
A35
100
AcDbEntity
  8
0
100
AcDbLine
 10
45.82
 20
59.291
 30
0.0
 11
45.82
 21
59.236
 31
0.0
  0
LINE
  5
BB5
330
A35
100
AcDbEntity
  8
0
100
AcDbLine
 10
46.308
 20
59.084
 30
0.0
 11
46.308
 21
59.037
 31
0.0
  0
LINE
  5
BB6
330
A35
100
AcDbEntity
  8
0
100
AcDbLine
 10
39.09
 20
58.873
 30
0.0
 11
39.09
 21
58.83
 31
0.0
  0
LINE
  5
BB7
330
A35
100
AcDbEntity
  8
0
100
AcDbLine
 10
38.327
 20
58.213
 30
0.0
 11
38.327
 21
58.166
 31
0.0
  0
LINE
  5
BB8
330
A35
100
AcDbEntity
  8
0
100
AcDbLine
 10
39.046
 20
58.795
 30
0.0
 11
39.046
 21
58.818
 31
0.0
  0
LINE
  5
BB9
330
A35
100
AcDbEntity
  8
0
100
AcDbLine
 10
44.822
 20
59.521
 30
0.0
 11
44.822
 21
59.58
 31
0.0
  0
LINE
  5
BBA
330
A35
100
AcDbEntity
  8
0
100
AcDbLine
 10
46.308
 20
59.037
 30
0.0
 11
45.832
 21
59.248
 31
0.0
  0
LINE
  5
BBB
330
A35
100
AcDbEntity
  8
0
100
AcDbLine
 10
46.308
 20
59.084
 30
0.0
 11
45.832
 21
59.291
 31
0.0
  0
LINE
  5
BBC
330
A35
100
AcDbEntity
  8
0
100
AcDbLine
 10
44.834
 20
59.533
 30
0.0
 11
44.567
 21
59.58
 31
0.0
  0
LINE
  5
BBD
330
A35
100
AcDbEntity
  8
0
100
AcDbLine
 10
38.037
 20
57.639
 30
0.0
 11
37.993
 21
57.342
 31
0.0
  0
LINE
  5
BBE
330
A35
100
AcDbEntity
  8
0
100
AcDbLine
 10
38.327
 20
58.213
 30
0.0
 11
38.037
 21
57.639
 31
0.0
  0
LINE
  5
BBF
330
A35
100
AcDbEntity
  8
0
100
AcDbLine
 10
38.146
 20
57.892
 30
0.0
 11
37.993
 21
57.342
 31
0.0
  0
LINE
  5
BC0
330
A35
100
AcDbEntity
  8
0
100
AcDbLine
 10
38.327
 20
58.166
 30
0.0
 11
38.146
 21
57.892
 31
0.0
  0
LINE
  5
BC1
330
A35
100
AcDbEntity
  8
0
100
AcDbLine
 10
47.494
 20
58.135
 30
0.0
 11
47.007
 21
58.619
 31
0.0
  0
LINE
  5
BC2
330
A35
100
AcDbEntity
  8
0
100
AcDbLine
 10
47.75
 20
57.592
 30
0.0
 11
47.494
 21
58.135
 31
0.0
  0
LINE
  5
BC3
330
A35
100
AcDbEntity
  8
0
100
AcDbLine
 10
47.494
 20
58.177
 30
0.0
 11
47.75
 21
57.65
 31
0.0
  0
LINE
  5
BC4
330
A35
100
AcDbEntity
  8
0
100
AcDbLine
 10
47.007
 20
58.662
 30
0.0
 11
47.494
 21
58.177
 31
0.0
  0
LINE
  5
BC5
330
A35
100
AcDbEntity
  8
0
100
AcDbLine
 10
46.885
 20
58.709
 30
0.0
 11
47.007
 21
58.662
 31
0.0
  0
LINE
  5
BC6
330
A35
100
AcDbEntity
  8
0
100
AcDbLine
 10
39.6
 20
59.091
 30
0.0
 11
39.09
 21
58.83
 31
0.0
  0
LINE
  5
BC7
330
A35
100
AcDbEntity
  8
0
100
AcDbLine
 10
40.818
 20
59.501
 30
0.0
 11
39.6
 21
59.091
 31
0.0
  0
LINE
  5
BC8
330
A35
100
AcDbEntity
  8
0
100
AcDbLine
 10
40.178
 20
59.369
 30
0.0
 11
40.818
 21
59.544
 31
0.0
  0
LINE
  5
BC9
330
A35
100
AcDbEntity
  8
0
100
AcDbLine
 10
39.09
 20
58.873
 30
0.0
 11
40.178
 21
59.369
 31
0.0
  0
LINE
  5
BCA
330
A35
100
AcDbEntity
  8
0
100
AcDbLine
 10
45.655
 20
59.302
 30
0.0
 11
45.82
 21
59.291
 31
0.0
  0
LINE
  5
BCB
330
A35
100
AcDbEntity
  8
0
100
AcDbLine
 10
46.308
 20
59.084
 30
0.0
 11
46.362
 21
59.017
 31
0.0
  0
LINE
  5
BCC
330
A35
100
AcDbEntity
  8
0
100
AcDbLine
 10
39.046
 20
58.818
 30
0.0
 11
39.09
 21
58.873
 31
0.0
  0
LINE
  5
BCD
330
A35
100
AcDbEntity
  8
0
100
AcDbLine
 10
38.402
 20
58.256
 30
0.0
 11
38.327
 21
58.213
 31
0.0
  0
LINE
  5
BCE
330
A35
100
AcDbEntity
  8
0
100
AcDbLine
 10
44.5
 20
59.646
 30
0.0
 11
44.822
 21
59.58
 31
0.0
  0
LINE
  5
BCF
330
A35
100
AcDbEntity
  8
0
100
AcDbLine
 10
44.932
 20
59.501
 30
0.0
 11
44.822
 21
59.579
 31
0.0
  0
LINE
  5
BD0
330
A35
100
AcDbEntity
  8
0
100
AcDbLine
 10
44.5
 20
59.587
 30
0.0
 11
44.567
 21
59.579
 31
0.0
  0
LINE
  5
BD1
330
A35
100
AcDbEntity
  8
0
100
AcDbLine
 10
41.706
 20
72.045
 30
0.0
 11
41.706
 21
71.948
 31
0.0
  0
LINE
  5
BD2
330
A35
100
AcDbEntity
  8
0
100
AcDbLine
 10
41.62
 20
71.858
 30
0.0
 11
41.62
 21
72.034
 31
0.0
  0
LINE
  5
BD3
330
A35
100
AcDbEntity
  8
0
100
AcDbLine
 10
41.207
 20
72.135
 30
0.0
 11
41.129
 21
72.08
 31
0.0
  0
LINE
  5
BD4
330
A35
100
AcDbEntity
  8
0
100
AcDbLine
 10
41.573
 20
72.088
 30
0.0
 11
41.573
 21
71.979
 31
0.0
  0
LINE
  5
BD5
330
A35
100
AcDbEntity
  8
0
100
AcDbLine
 10
41.62
 20
72.034
 30
0.0
 11
41.573
 21
72.045
 31
0.0
  0
LINE
  5
BD6
330
A35
100
AcDbEntity
  8
0
100
AcDbLine
 10
41.695
 20
72.112
 30
0.0
 11
41.62
 21
72.034
 31
0.0
  0
LINE
  5
BD7
330
A35
100
AcDbEntity
  8
0
100
AcDbLine
 10
41.706
 20
72.045
 30
0.0
 11
41.695
 21
72.112
 31
0.0
  0
LINE
  5
BD8
330
A35
100
AcDbEntity
  8
0
100
AcDbLine
 10
41.573
 20
72.147
 30
0.0
 11
41.695
 21
72.112
 31
0.0
  0
LINE
  5
BD9
330
A35
100
AcDbEntity
  8
0
100
AcDbLine
 10
41.573
 20
72.088
 30
0.0
 11
41.573
 21
72.147
 31
0.0
  0
LINE
  5
BDA
330
A35
100
AcDbEntity
  8
0
100
AcDbLine
 10
41.75
 20
71.748
 30
0.0
 11
41.864
 21
71.725
 31
0.0
  0
LINE
  5
BDB
330
A35
100
AcDbEntity
  8
0
100
AcDbLine
 10
41.573
 20
71.651
 30
0.0
 11
41.573
 21
71.573
 31
0.0
  0
LINE
  5
BDC
330
A35
100
AcDbEntity
  8
0
100
AcDbLine
 10
41.695
 20
71.538
 30
0.0
 11
41.706
 21
71.616
 31
0.0
  0
LINE
  5
BDD
330
A35
100
AcDbEntity
  8
0
100
AcDbLine
 10
41.695
 20
71.538
 30
0.0
 11
41.573
 21
71.573
 31
0.0
  0
LINE
  5
BDE
330
A35
100
AcDbEntity
  8
0
100
AcDbLine
 10
41.628
 20
71.67
 30
0.0
 11
41.718
 21
71.748
 31
0.0
  0
LINE
  5
BDF
330
A35
100
AcDbEntity
  8
0
100
AcDbLine
 10
41.663
 20
71.803
 30
0.0
 11
41.84
 21
71.748
 31
0.0
  0
LINE
  5
BE0
330
A35
100
AcDbEntity
  8
0
100
AcDbLine
 10
41.706
 20
71.713
 30
0.0
 11
41.706
 21
71.616
 31
0.0
  0
LINE
  5
BE1
330
A35
100
AcDbEntity
  8
0
100
AcDbLine
 10
41.75
 20
71.881
 30
0.0
 11
41.864
 21
71.846
 31
0.0
  0
LINE
  5
BE2
330
A35
100
AcDbEntity
  8
0
100
AcDbLine
 10
41.75
 20
71.881
 30
0.0
 11
41.663
 21
71.803
 31
0.0
  0
LINE
  5
BE3
330
A35
100
AcDbEntity
  8
0
100
AcDbLine
 10
41.62
 20
71.858
 30
0.0
 11
41.706
 21
71.948
 31
0.0
  0
LINE
  5
BE4
330
A35
100
AcDbEntity
  8
0
100
AcDbLine
 10
41.62
 20
71.639
 30
0.0
 11
41.62
 21
71.561
 31
0.0
  0
LINE
  5
BE5
330
A35
100
AcDbEntity
  8
0
100
AcDbLine
 10
41.53
 20
71.815
 30
0.0
 11
41.42
 21
71.846
 31
0.0
  0
LINE
  5
BE6
330
A35
100
AcDbEntity
  8
0
100
AcDbLine
 10
41.573
 20
71.76
 30
0.0
 11
41.573
 21
71.651
 31
0.0
  0
LINE
  5
BE7
330
A35
100
AcDbEntity
  8
0
100
AcDbLine
 10
41.439
 20
71.869
 30
0.0
 11
41.353
 21
71.893
 31
0.0
  0
LINE
  5
BE8
330
A35
100
AcDbEntity
  8
0
100
AcDbLine
 10
41.42
 20
71.979
 30
0.0
 11
41.53
 21
71.948
 31
0.0
  0
LINE
  5
BE9
330
A35
100
AcDbEntity
  8
0
100
AcDbLine
 10
41.561
 20
71.948
 30
0.0
 11
41.474
 21
71.869
 31
0.0
  0
LINE
  5
BEA
330
A35
100
AcDbEntity
  8
0
100
AcDbLine
 10
41.42
 20
71.979
 30
0.0
 11
41.353
 21
71.99
 31
0.0
  0
LINE
  5
BEB
330
A35
100
AcDbEntity
  8
0
100
AcDbLine
 10
41.353
 20
71.858
 30
0.0
 11
41.42
 21
71.846
 31
0.0
  0
LINE
  5
BEC
330
A35
100
AcDbEntity
  8
0
100
AcDbLine
 10
41.353
 20
71.858
 30
0.0
 11
41.353
 21
71.99
 31
0.0
  0
LINE
  5
BED
330
A35
100
AcDbEntity
  8
0
100
AcDbLine
 10
41.019
 20
71.725
 30
0.0
 11
40.999
 21
71.713
 31
0.0
  0
LINE
  5
BEE
330
A35
100
AcDbEntity
  8
0
100
AcDbLine
 10
41.84
 20
71.725
 30
0.0
 11
41.84
 21
71.748
 31
0.0
  0
LINE
  5
BEF
330
A35
100
AcDbEntity
  8
0
100
AcDbLine
 10
41.864
 20
71.846
 30
0.0
 11
41.919
 21
71.694
 31
0.0
  0
LINE
  5
BF0
330
A35
100
AcDbEntity
  8
0
100
AcDbLine
 10
41.864
 20
71.385
 30
0.0
 11
41.797
 21
71.319
 31
0.0
  0
LINE
  5
BF1
330
A35
100
AcDbEntity
  8
0
100
AcDbLine
 10
41.919
 20
71.694
 30
0.0
 11
41.864
 21
71.725
 31
0.0
  0
LINE
  5
BF2
330
A35
100
AcDbEntity
  8
0
100
AcDbLine
 10
41.84
 20
71.748
 30
0.0
 11
41.919
 21
71.827
 31
0.0
  0
LINE
  5
BF3
330
A35
100
AcDbEntity
  8
0
100
AcDbLine
 10
41.75
 20
71.284
 30
0.0
 11
41.808
 21
71.319
 31
0.0
  0
LINE
  5
BF4
330
A35
100
AcDbEntity
  8
0
100
AcDbLine
 10
41.75
 20
71.76
 30
0.0
 11
41.718
 21
71.76
 31
0.0
  0
LINE
  5
BF5
330
A35
100
AcDbEntity
  8
0
100
AcDbLine
 10
41.73
 20
71.748
 30
0.0
 11
41.718
 21
71.725
 31
0.0
  0
LINE
  5
BF6
330
A35
100
AcDbEntity
  8
0
100
AcDbLine
 10
41.706
 20
71.948
 30
0.0
 11
41.75
 21
71.881
 31
0.0
  0
LINE
  5
BF7
330
A35
100
AcDbEntity
  8
0
100
AcDbLine
 10
41.561
 20
71.959
 30
0.0
 11
41.573
 21
71.979
 31
0.0
  0
LINE
  5
BF8
330
A35
100
AcDbEntity
  8
0
100
AcDbLine
 10
41.62
 20
71.869
 30
0.0
 11
41.663
 21
71.803
 31
0.0
  0
LINE
  5
BF9
330
A35
100
AcDbEntity
  8
0
100
AcDbLine
 10
41.628
 20
71.67
 30
0.0
 11
41.62
 21
71.651
 31
0.0
  0
LINE
  5
BFA
330
A35
100
AcDbEntity
  8
0
100
AcDbLine
 10
41.585
 20
71.76
 30
0.0
 11
41.541
 21
71.827
 31
0.0
  0
LINE
  5
BFB
330
A35
100
AcDbEntity
  8
0
100
AcDbLine
 10
41.53
 20
71.959
 30
0.0
 11
41.561
 21
71.959
 31
0.0
  0
LINE
  5
BFC
330
A35
100
AcDbEntity
  8
0
100
AcDbLine
 10
41.439
 20
71.869
 30
0.0
 11
41.474
 21
71.869
 31
0.0
  0
LINE
  5
BFD
330
A35
100
AcDbEntity
  8
0
100
AcDbLine
 10
41.986
 20
71.725
 30
0.0
 11
41.864
 21
71.385
 31
0.0
  0
LINE
  5
BFE
330
A35
100
AcDbEntity
  8
0
100
AcDbLine
 10
41.852
 20
72.034
 30
0.0
 11
41.986
 21
71.725
 31
0.0
  0
LINE
  5
BFF
330
A35
100
AcDbEntity
  8
0
100
AcDbLine
 10
41.561
 20
72.213
 30
0.0
 11
41.852
 21
72.034
 31
0.0
  0
LINE
  5
C00
330
A35
100
AcDbEntity
  8
0
100
AcDbLine
 10
41.207
 20
72.135
 30
0.0
 11
41.561
 21
72.213
 31
0.0
  0
LINE
  5
C01
330
A35
100
AcDbEntity
  8
0
100
AcDbLine
 10
41.086
 20
71.893
 30
0.0
 11
41.207
 21
72.135
 31
0.0
  0
LINE
  5
C02
330
A35
100
AcDbEntity
  8
0
100
AcDbLine
 10
41.188
 20
71.573
 30
0.0
 11
41.086
 21
71.893
 31
0.0
  0
LINE
  5
C03
330
A35
100
AcDbEntity
  8
0
100
AcDbLine
 10
41.608
 20
71.296
 30
0.0
 11
41.188
 21
71.573
 31
0.0
  0
LINE
  5
C04
330
A35
100
AcDbEntity
  8
0
100
AcDbLine
 10
41.864
 20
71.385
 30
0.0
 11
41.608
 21
71.296
 31
0.0
  0
LINE
  5
C05
330
A35
100
AcDbEntity
  8
0
100
AcDbLine
 10
41.019
 20
71.815
 30
0.0
 11
41.129
 21
72.08
 31
0.0
  0
LINE
  5
C06
330
A35
100
AcDbEntity
  8
0
100
AcDbLine
 10
41.14
 20
71.471
 30
0.0
 11
41.019
 21
71.815
 31
0.0
  0
LINE
  5
C07
330
A35
100
AcDbEntity
  8
0
100
AcDbLine
 10
41.439
 20
71.264
 30
0.0
 11
41.14
 21
71.471
 31
0.0
  0
LINE
  5
C08
330
A35
100
AcDbEntity
  8
0
100
AcDbLine
 10
41.742
 20
71.276
 30
0.0
 11
41.439
 21
71.264
 31
0.0
  0
LINE
  5
C09
330
A35
100
AcDbEntity
  8
0
100
AcDbLine
 10
40.952
 20
71.651
 30
0.0
 11
40.975
 21
71.397
 31
0.0
  0
LINE
  5
C0A
330
A35
100
AcDbEntity
  8
0
100
AcDbLine
 10
40.999
 20
71.713
 30
0.0
 11
40.952
 21
71.651
 31
0.0
  0
LINE
  5
C0B
330
A35
100
AcDbEntity
  8
0
100
AcDbLine
 10
40.964
 20
71.405
 30
0.0
 11
40.952
 21
71.651
 31
0.0
  0
LINE
  5
C0C
330
A35
100
AcDbEntity
  8
0
100
AcDbLine
 10
41.973
 20
58.256
 30
0.0
 11
41.973
 21
57.959
 31
0.0
  0
LINE
  5
C0D
330
A35
100
AcDbEntity
  8
0
100
AcDbLine
 10
43.813
 20
57.959
 30
0.0
 11
43.813
 21
58.256
 31
0.0
  0
LINE
  5
C0E
330
A35
100
AcDbEntity
  8
0
100
AcDbLine
 10
43.813
 20
60.712
 30
0.0
 11
41.973
 21
60.712
 31
0.0
  0
LINE
  5
C0F
330
A35
100
AcDbEntity
  8
0
100
AcDbLine
 10
41.695
 20
67.14
 30
0.0
 11
44.091
 21
67.14
 31
0.0
  0
LINE
  5
C10
330
A35
100
AcDbEntity
  8
0
100
AcDbLine
 10
41.695
 20
67.062
 30
0.0
 11
41.663
 21
67.05
 31
0.0
  0
LINE
  5
C11
330
A35
100
AcDbEntity
  8
0
100
AcDbLine
 10
41.663
 20
67.05
 30
0.0
 11
41.742
 21
67.05
 31
0.0
  0
LINE
  5
C12
330
A35
100
AcDbEntity
  8
0
100
AcDbLine
 10
44.048
 20
67.05
 30
0.0
 11
44.123
 21
67.05
 31
0.0
  0
LINE
  5
C13
330
A35
100
AcDbEntity
  8
0
100
AcDbLine
 10
41.596
 20
67.019
 30
0.0
 11
41.596
 21
66.59
 31
0.0
  0
LINE
  5
C14
330
A35
100
AcDbEntity
  8
0
100
AcDbLine
 10
41.596
 20
67.019
 30
0.0
 11
41.663
 21
67.05
 31
0.0
  0
LINE
  5
C15
330
A35
100
AcDbEntity
  8
0
100
AcDbLine
 10
41.663
 20
67.117
 30
0.0
 11
41.596
 21
67.019
 31
0.0
  0
LINE
  5
C16
330
A35
100
AcDbEntity
  8
0
100
AcDbLine
 10
41.663
 20
67.05
 30
0.0
 11
41.663
 21
67.117
 31
0.0
  0
LINE
  5
C17
330
A35
100
AcDbEntity
  8
0
100
AcDbLine
 10
44.123
 20
67.05
 30
0.0
 11
44.19
 21
67.019
 31
0.0
  0
LINE
  5
C18
330
A35
100
AcDbEntity
  8
0
100
AcDbLine
 10
41.596
 20
66.59
 30
0.0
 11
41.973
 21
65.012
 31
0.0
  0
LINE
  5
C19
330
A35
100
AcDbEntity
  8
0
100
AcDbLine
 10
41.973
 20
64.231
 30
0.0
 11
43.813
 21
64.231
 31
0.0
  0
LINE
  5
C1A
330
A35
100
AcDbEntity
  8
0
100
AcDbLine
 10
43.813
 20
60.911
 30
0.0
 11
41.973
 21
60.911
 31
0.0
  0
LINE
  5
C1B
330
A35
100
AcDbEntity
  8
0
100
AcDbLine
 10
41.973
 20
64.243
 30
0.0
 11
43.813
 21
64.243
 31
0.0
  0
LINE
  5
C1C
330
A35
100
AcDbEntity
  8
0
100
AcDbLine
 10
41.973
 20
64.231
 30
0.0
 11
41.973
 21
60.911
 31
0.0
  0
LINE
  5
C1D
330
A35
100
AcDbEntity
  8
0
100
AcDbLine
 10
44.19
 20
67.019
 30
0.0
 11
44.19
 21
67.074
 31
0.0
  0
LINE
  5
C1E
330
A35
100
AcDbEntity
  8
0
100
AcDbLine
 10
44.123
 20
67.074
 30
0.0
 11
44.123
 21
67.05
 31
0.0
  0
LINE
  5
C1F
330
A35
100
AcDbEntity
  8
0
100
AcDbLine
 10
44.123
 20
67.074
 30
0.0
 11
44.19
 21
67.074
 31
0.0
  0
LINE
  5
C20
330
A35
100
AcDbEntity
  8
0
100
AcDbLine
 10
44.123
 20
67.05
 30
0.0
 11
44.091
 21
67.062
 31
0.0
  0
LINE
  5
C21
330
A35
100
AcDbEntity
  8
0
100
AcDbLine
 10
43.813
 20
60.712
 30
0.0
 11
43.813
 21
58.287
 31
0.0
  0
LINE
  5
C22
330
A35
100
AcDbEntity
  8
0
100
AcDbLine
 10
43.813
 20
60.712
 30
0.0
 11
43.813
 21
60.911
 31
0.0
  0
LINE
  5
C23
330
A35
100
AcDbEntity
  8
0
100
AcDbLine
 10
43.813
 20
64.243
 30
0.0
 11
43.813
 21
65.012
 31
0.0
  0
LINE
  5
C24
330
A35
100
AcDbEntity
  8
0
100
AcDbLine
 10
43.813
 20
64.231
 30
0.0
 11
43.813
 21
60.911
 31
0.0
  0
LINE
  5
C25
330
A35
100
AcDbEntity
  8
0
100
AcDbLine
 10
44.036
 20
67.062
 30
0.0
 11
44.036
 21
67.085
 31
0.0
  0
LINE
  5
C26
330
A35
100
AcDbEntity
  8
0
100
AcDbLine
 10
44.036
 20
67.062
 30
0.0
 11
44.036
 21
67.05
 31
0.0
  0
LINE
  5
C27
330
A35
100
AcDbEntity
  8
0
100
AcDbLine
 10
41.761
 20
67.062
 30
0.0
 11
41.761
 21
67.085
 31
0.0
  0
LINE
  5
C28
330
A35
100
AcDbEntity
  8
0
100
AcDbLine
 10
41.761
 20
67.062
 30
0.0
 11
41.761
 21
67.05
 31
0.0
  0
LINE
  5
C29
330
A35
100
AcDbEntity
  8
0
100
AcDbLine
 10
44.19
 20
66.59
 30
0.0
 11
43.813
 21
65.012
 31
0.0
  0
LINE
  5
C2A
330
A35
100
AcDbEntity
  8
0
100
AcDbLine
 10
44.19
 20
67.019
 30
0.0
 11
44.19
 21
66.59
 31
0.0
  0
LINE
  5
C2B
330
A35
100
AcDbEntity
  8
0
100
AcDbLine
 10
41.973
 20
65.012
 30
0.0
 11
41.973
 21
64.243
 31
0.0
  0
LINE
  5
C2C
330
A35
100
AcDbEntity
  8
0
100
AcDbLine
 10
41.973
 20
60.911
 30
0.0
 11
41.973
 21
60.712
 31
0.0
  0
LINE
  5
C2D
330
A35
100
AcDbEntity
  8
0
100
AcDbLine
 10
41.973
 20
60.119
 30
0.0
 11
41.785
 21
60.119
 31
0.0
  0
LINE
  5
C2E
330
A35
100
AcDbEntity
  8
0
100
AcDbLine
 10
43.813
 20
58.256
 30
0.0
 11
43.848
 21
58.256
 31
0.0
  0
LINE
  5
C2F
330
A35
100
AcDbEntity
  8
0
100
AcDbLine
 10
43.86
 20
58.287
 30
0.0
 11
43.813
 21
58.287
 31
0.0
  0
LINE
  5
C30
330
A35
100
AcDbEntity
  8
0
100
AcDbLine
 10
41.973
 20
58.256
 30
0.0
 11
41.938
 21
58.256
 31
0.0
  0
LINE
  5
C31
330
A35
100
AcDbEntity
  8
0
100
AcDbLine
 10
41.973
 20
58.256
 30
0.0
 11
41.938
 21
58.287
 31
0.0
  0
LINE
  5
C32
330
A35
100
AcDbEntity
  8
0
100
AcDbLine
 10
43.813
 20
64.231
 30
0.0
 11
43.813
 21
64.243
 31
0.0
  0
LINE
  5
C33
330
A35
100
AcDbEntity
  8
0
100
AcDbLine
 10
43.813
 20
60.119
 30
0.0
 11
44.001
 21
60.119
 31
0.0
  0
LINE
  5
C34
330
A35
100
AcDbEntity
  8
0
100
AcDbLine
 10
44.19
 20
59.955
 30
0.0
 11
44.19
 21
59.896
 31
0.0
  0
LINE
  5
C35
330
A35
100
AcDbEntity
  8
0
100
AcDbLine
 10
43.813
 20
58.287
 30
0.0
 11
43.813
 21
58.256
 31
0.0
  0
LINE
  5
C36
330
A35
100
AcDbEntity
  8
0
100
AcDbLine
 10
41.973
 20
64.231
 30
0.0
 11
41.973
 21
64.243
 31
0.0
  0
LINE
  5
C37
330
A35
100
AcDbEntity
  8
0
100
AcDbLine
 10
41.973
 20
60.712
 30
0.0
 11
41.973
 21
58.287
 31
0.0
  0
LINE
  5
C38
330
A35
100
AcDbEntity
  8
0
100
AcDbLine
 10
41.596
 20
59.896
 30
0.0
 11
41.596
 21
59.955
 31
0.0
  0
LINE
  5
C39
330
A35
100
AcDbEntity
  8
0
100
AcDbLine
 10
41.695
 20
67.14
 30
0.0
 11
41.663
 21
67.117
 31
0.0
  0
LINE
  5
C3A
330
A35
100
AcDbEntity
  8
0
100
AcDbLine
 10
41.761
 20
67.05
 30
0.0
 11
41.695
 21
67.062
 31
0.0
  0
LINE
  5
C3B
330
A35
100
AcDbEntity
  8
0
100
AcDbLine
 10
41.761
 20
67.085
 30
0.0
 11
41.695
 21
67.14
 31
0.0
  0
LINE
  5
C3C
330
A35
100
AcDbEntity
  8
0
100
AcDbLine
 10
41.596
 20
59.955
 30
0.0
 11
41.785
 21
60.119
 31
0.0
  0
LINE
  5
C3D
330
A35
100
AcDbEntity
  8
0
100
AcDbLine
 10
44.036
 20
67.05
 30
0.0
 11
44.091
 21
67.062
 31
0.0
  0
LINE
  5
C3E
330
A35
100
AcDbEntity
  8
0
100
AcDbLine
 10
44.091
 20
67.14
 30
0.0
 11
44.123
 21
67.117
 31
0.0
  0
LINE
  5
C3F
330
A35
100
AcDbEntity
  8
0
100
AcDbLine
 10
44.036
 20
67.085
 30
0.0
 11
44.091
 21
67.14
 31
0.0
  0
LINE
  5
C40
330
A35
100
AcDbEntity
  8
0
100
AcDbLine
 10
43.301
 20
66.777
 30
0.0
 11
44.036
 21
67.085
 31
0.0
  0
LINE
  5
C41
330
A35
100
AcDbEntity
  8
0
100
AcDbLine
 10
42.893
 20
66.734
 30
0.0
 11
43.301
 21
66.777
 31
0.0
  0
LINE
  5
C42
330
A35
100
AcDbEntity
  8
0
100
AcDbLine
 10
42.485
 20
66.777
 30
0.0
 11
42.893
 21
66.734
 31
0.0
  0
LINE
  5
C43
330
A35
100
AcDbEntity
  8
0
100
AcDbLine
 10
41.761
 20
67.085
 30
0.0
 11
42.485
 21
66.777
 31
0.0
  0
LINE
  5
C44
330
A35
100
AcDbEntity
  8
0
100
AcDbLine
 10
43.691
 20
66.855
 30
0.0
 11
44.036
 21
67.05
 31
0.0
  0
LINE
  5
C45
330
A35
100
AcDbEntity
  8
0
100
AcDbLine
 10
42.893
 20
66.687
 30
0.0
 11
43.691
 21
66.855
 31
0.0
  0
LINE
  5
C46
330
A35
100
AcDbEntity
  8
0
100
AcDbLine
 10
42.095
 20
66.855
 30
0.0
 11
42.893
 21
66.687
 31
0.0
  0
LINE
  5
C47
330
A35
100
AcDbEntity
  8
0
100
AcDbLine
 10
41.761
 20
67.05
 30
0.0
 11
42.095
 21
66.855
 31
0.0
  0
LINE
  5
C48
330
A35
100
AcDbEntity
  8
0
100
AcDbLine
 10
41.652
 20
58.334
 30
0.0
 11
41.706
 21
58.299
 31
0.0
  0
LINE
  5
C49
330
A35
100
AcDbEntity
  8
0
100
AcDbLine
 10
41.628
 20
58.334
 30
0.0
 11
41.706
 21
58.267
 31
0.0
  0
LINE
  5
C4A
330
A35
100
AcDbEntity
  8
0
100
AcDbLine
 10
44.135
 20
58.334
 30
0.0
 11
44.08
 21
58.299
 31
0.0
  0
LINE
  5
C4B
330
A35
100
AcDbEntity
  8
0
100
AcDbLine
 10
44.17
 20
58.334
 30
0.0
 11
44.08
 21
58.267
 31
0.0
  0
LINE
  5
C4C
330
A35
100
AcDbEntity
  8
0
100
AcDbLine
 10
44.19
 20
59.955
 30
0.0
 11
44.001
 21
60.119
 31
0.0
  0
LINE
  5
C4D
330
A35
100
AcDbEntity
  8
0
100
AcDbLine
 10
37.561
 20
61.673
 30
0.0
 11
37.659
 21
61.739
 31
0.0
  0
LINE
  5
C4E
330
A35
100
AcDbEntity
  8
0
100
AcDbLine
 10
37.561
 20
61.419
 30
0.0
 11
37.561
 21
61.396
 31
0.0
  0
LINE
  5
C4F
330
A35
100
AcDbEntity
  8
0
100
AcDbLine
 10
37.561
 20
61.419
 30
0.0
 11
37.518
 21
61.517
 31
0.0
  0
LINE
  5
C50
330
A35
100
AcDbEntity
  8
0
100
AcDbLine
 10
37.561
 20
61.396
 30
0.0
 11
37.584
 21
61.353
 31
0.0
  0
LINE
  5
C51
330
A35
100
AcDbEntity
  8
0
100
AcDbLine
 10
37.592
 20
61.364
 30
0.0
 11
37.604
 21
61.364
 31
0.0
  0
LINE
  5
C52
330
A35
100
AcDbEntity
  8
0
100
AcDbLine
 10
37.726
 20
61.255
 30
0.0
 11
37.749
 21
61.243
 31
0.0
  0
LINE
  5
C53
330
A35
100
AcDbEntity
  8
0
100
AcDbLine
 10
37.738
 20
61.329
 30
0.0
 11
37.726
 21
61.329
 31
0.0
  0
LINE
  5
C54
330
A35
100
AcDbEntity
  8
0
100
AcDbLine
 10
37.781
 20
61.727
 30
0.0
 11
37.706
 21
61.751
 31
0.0
  0
LINE
  5
C55
330
A35
100
AcDbEntity
  8
0
100
AcDbLine
 10
38.072
 20
61.727
 30
0.0
 11
38.091
 21
61.716
 31
0.0
  0
LINE
  5
C56
330
A35
100
AcDbEntity
  8
0
100
AcDbLine
 10
37.962
 20
61.759
 30
0.0
 11
37.938
 21
61.759
 31
0.0
  0
LINE
  5
C57
330
A35
100
AcDbEntity
  8
0
100
AcDbLine
 10
38.005
 20
61.673
 30
0.0
 11
38.037
 21
61.661
 31
0.0
  0
LINE
  5
C58
330
A35
100
AcDbEntity
  8
0
100
AcDbLine
 10
37.915
 20
61.696
 30
0.0
 11
37.871
 21
61.704
 31
0.0
  0
LINE
  5
C59
330
A35
100
AcDbEntity
  8
0
100
AcDbLine
 10
37.836
 20
61.794
 30
0.0
 11
37.816
 21
61.806
 31
0.0
  0
LINE
  5
C5A
330
A35
100
AcDbEntity
  8
0
100
AcDbLine
 10
37.848
 20
61.208
 30
0.0
 11
37.871
 21
61.208
 31
0.0
  0
LINE
  5
C5B
330
A35
100
AcDbEntity
  8
0
100
AcDbLine
 10
37.781
 20
61.388
 30
0.0
 11
37.86
 21
61.618
 31
0.0
  0
LINE
  5
C5C
330
A35
100
AcDbEntity
  8
0
100
AcDbLine
 10
37.518
 20
61.517
 30
0.0
 11
37.561
 21
61.673
 31
0.0
  0
LINE
  5
C5D
330
A35
100
AcDbEntity
  8
0
100
AcDbLine
 10
37.604
 20
61.63
 30
0.0
 11
37.518
 21
61.517
 31
0.0
  0
LINE
  5
C5E
330
A35
100
AcDbEntity
  8
0
100
AcDbLine
 10
38.037
 20
61.45
 30
0.0
 11
37.86
 21
61.286
 31
0.0
  0
LINE
  5
C5F
330
A35
100
AcDbEntity
  8
0
100
AcDbLine
 10
38.037
 20
61.661
 30
0.0
 11
38.037
 21
61.45
 31
0.0
  0
LINE
  5
C60
330
A35
100
AcDbEntity
  8
0
100
AcDbLine
 10
37.592
 20
61.364
 30
0.0
 11
37.561
 21
61.396
 31
0.0
  0
LINE
  5
C61
330
A35
100
AcDbEntity
  8
0
100
AcDbLine
 10
37.671
 20
61.341
 30
0.0
 11
37.561
 21
61.396
 31
0.0
  0
LINE
  5
C62
330
A35
100
AcDbEntity
  8
0
100
AcDbLine
 10
37.848
 20
61.618
 30
0.0
 11
37.671
 21
61.341
 31
0.0
  0
LINE
  5
C63
330
A35
100
AcDbEntity
  8
0
100
AcDbLine
 10
37.561
 20
61.673
 30
0.0
 11
37.604
 21
61.63
 31
0.0
  0
LINE
  5
C64
330
A35
100
AcDbEntity
  8
0
100
AcDbLine
 10
37.659
 20
61.298
 30
0.0
 11
37.584
 21
61.353
 31
0.0
  0
LINE
  5
C65
330
A35
100
AcDbEntity
  8
0
100
AcDbLine
 10
37.781
 20
61.388
 30
0.0
 11
37.659
 21
61.298
 31
0.0
  0
LINE
  5
C66
330
A35
100
AcDbEntity
  8
0
100
AcDbLine
 10
37.781
 20
61.517
 30
0.0
 11
37.604
 21
61.364
 31
0.0
  0
LINE
  5
C67
330
A35
100
AcDbEntity
  8
0
100
AcDbLine
 10
37.781
 20
61.727
 30
0.0
 11
37.781
 21
61.517
 31
0.0
  0
LINE
  5
C68
330
A35
100
AcDbEntity
  8
0
100
AcDbLine
 10
37.738
 20
61.54
 30
0.0
 11
37.604
 21
61.364
 31
0.0
  0
LINE
  5
C69
330
A35
100
AcDbEntity
  8
0
100
AcDbLine
 10
37.706
 20
61.751
 30
0.0
 11
37.738
 21
61.54
 31
0.0
  0
LINE
  5
C6A
330
A35
100
AcDbEntity
  8
0
100
AcDbLine
 10
37.871
 20
61.407
 30
0.0
 11
37.738
 21
61.329
 31
0.0
  0
LINE
  5
C6B
330
A35
100
AcDbEntity
  8
0
100
AcDbLine
 10
37.915
 20
61.696
 30
0.0
 11
37.871
 21
61.407
 31
0.0
  0
LINE
  5
C6C
330
A35
100
AcDbEntity
  8
0
100
AcDbLine
 10
37.95
 20
61.474
 30
0.0
 11
37.726
 21
61.255
 31
0.0
  0
LINE
  5
C6D
330
A35
100
AcDbEntity
  8
0
100
AcDbLine
 10
37.938
 20
61.759
 30
0.0
 11
37.95
 21
61.474
 31
0.0
  0
LINE
  5
C6E
330
A35
100
AcDbEntity
  8
0
100
AcDbLine
 10
37.659
 20
61.739
 30
0.0
 11
37.706
 21
61.751
 31
0.0
  0
LINE
  5
C6F
330
A35
100
AcDbEntity
  8
0
100
AcDbLine
 10
37.726
 20
61.255
 30
0.0
 11
37.671
 21
61.298
 31
0.0
  0
LINE
  5
C70
330
A35
100
AcDbEntity
  8
0
100
AcDbLine
 10
37.726
 20
61.751
 30
0.0
 11
37.816
 21
61.806
 31
0.0
  0
LINE
  5
C71
330
A35
100
AcDbEntity
  8
0
100
AcDbLine
 10
37.848
 20
61.208
 30
0.0
 11
37.805
 21
61.255
 31
0.0
  0
LINE
  5
C72
330
A35
100
AcDbEntity
  8
0
100
AcDbLine
 10
37.836
 20
61.794
 30
0.0
 11
37.781
 21
61.388
 31
0.0
  0
LINE
  5
C73
330
A35
100
AcDbEntity
  8
0
100
AcDbLine
 10
38.005
 20
61.696
 30
0.0
 11
38.072
 21
61.727
 31
0.0
  0
LINE
  5
C74
330
A35
100
AcDbEntity
  8
0
100
AcDbLine
 10
37.871
 20
61.727
 30
0.0
 11
37.938
 21
61.759
 31
0.0
  0
LINE
  5
C75
330
A35
100
AcDbEntity
  8
0
100
AcDbLine
 10
37.816
 20
61.806
 30
0.0
 11
37.848
 21
61.618
 31
0.0
  0
LINE
  5
C76
330
A35
100
AcDbEntity
  8
0
100
AcDbLine
 10
38.083
 20
61.442
 30
0.0
 11
37.848
 21
61.208
 31
0.0
  0
LINE
  5
C77
330
A35
100
AcDbEntity
  8
0
100
AcDbLine
 10
38.072
 20
61.727
 30
0.0
 11
38.083
 21
61.442
 31
0.0
  0
LINE
  5
C78
330
A35
100
AcDbEntity
  8
0
100
AcDbLine
 10
38.048
 20
61.329
 30
0.0
 11
37.871
 21
61.208
 31
0.0
  0
LINE
  5
C79
330
A35
100
AcDbEntity
  8
0
100
AcDbLine
 10
38.139
 20
61.618
 30
0.0
 11
38.048
 21
61.329
 31
0.0
  0
LINE
  5
C7A
330
A35
100
AcDbEntity
  8
0
100
AcDbLine
 10
38.091
 20
61.716
 30
0.0
 11
38.139
 21
61.618
 31
0.0
  0
LINE
  5
C7B
330
A35
100
AcDbEntity
  8
0
100
AcDbLine
 10
37.97
 20
61.474
 30
0.0
 11
37.749
 21
61.243
 31
0.0
  0
LINE
  5
C7C
330
A35
100
AcDbEntity
  8
0
100
AcDbLine
 10
37.962
 20
61.759
 30
0.0
 11
37.97
 21
61.474
 31
0.0
  0
LINE
  5
C7D
330
A35
100
AcDbEntity
  8
0
100
AcDbLine
 10
48.991
 20
56.526
 30
0.0
 11
49.259
 21
56.756
 31
0.0
  0
LINE
  5
C7E
330
A35
100
AcDbEntity
  8
0
100
AcDbLine
 10
41.973
 20
60.372
 30
0.0
 11
40.744
 21
60.372
 31
0.0
  0
LINE
  5
C7F
330
A35
100
AcDbEntity
  8
0
100
AcDbLine
 10
38.48
 20
58.342
 30
0.0
 11
37.427
 21
58.642
 31
0.0
  0
LINE
  5
C80
330
A35
100
AcDbEntity
  8
0
100
AcDbLine
 10
49.357
 20
57.978
 30
0.0
 11
49.357
 21
57.342
 31
0.0
  0
LINE
  5
C81
330
A35
100
AcDbEntity
  8
0
100
AcDbLine
 10
41.231
 20
57.9
 30
0.0
 11
41.231
 21
59.435
 31
0.0
  0
LINE
  5
C82
330
A35
100
AcDbEntity
  8
0
100
AcDbLine
 10
40.009
 20
60.857
 30
0.0
 11
40.009
 21
61.661
 31
0.0
  0
LINE
  5
C83
330
A35
100
AcDbEntity
  8
0
100
AcDbLine
 10
40.001
 20
61.649
 30
0.0
 11
40.001
 21
60.845
 31
0.0
  0
LINE
  5
C84
330
A35
100
AcDbEntity
  8
0
100
AcDbLine
 10
48.968
 20
70.921
 30
0.0
 11
49.07
 21
70.921
 31
0.0
  0
LINE
  5
C85
330
A35
100
AcDbEntity
  8
0
100
AcDbLine
 10
48.968
 20
71.659
 30
0.0
 11
48.968
 21
71.67
 31
0.0
  0
LINE
  5
C86
330
A35
100
AcDbEntity
  8
0
100
AcDbLine
 10
45.199
 20
73.193
 30
0.0
 11
45.199
 21
60.978
 31
0.0
  0
LINE
  5
C87
330
A35
100
AcDbEntity
  8
0
100
AcDbLine
 10
45.565
 20
60.9
 30
0.0
 11
45.565
 21
73.271
 31
0.0
  0
LINE
  5
C88
330
A35
100
AcDbEntity
  8
0
100
AcDbLine
 10
47.373
 20
72.213
 30
0.0
 11
48.182
 21
72.444
 31
0.0
  0
LINE
  5
C89
330
A35
100
AcDbEntity
  8
0
100
AcDbLine
 10
40.453
 20
62.048
 30
0.0
 11
40.453
 21
60.954
 31
0.0
  0
LINE
  5
C8A
330
A35
100
AcDbEntity
  8
0
100
AcDbLine
 10
43.801
 20
71.748
 30
0.0
 11
43.946
 21
71.881
 31
0.0
  0
LINE
  5
C8B
330
A35
100
AcDbEntity
  8
0
100
AcDbLine
 10
48.347
 20
71.651
 30
0.0
 11
48.826
 21
71.713
 31
0.0
  0
LINE
  5
C8C
330
A35
100
AcDbEntity
  8
0
100
AcDbLine
 10
45.887
 20
73.545
 30
0.0
 11
45.565
 21
73.271
 31
0.0
  0
LINE
  5
C8D
330
A35
100
AcDbEntity
  8
0
100
AcDbLine
 10
46.087
 20
72.53
 30
0.0
 11
47.184
 21
73.072
 31
0.0
  0
LINE
  5
C8E
330
A35
100
AcDbEntity
  8
0
100
AcDbLine
 10
44.256
 20
73.104
 30
0.0
 11
44.17
 21
73.756
 31
0.0
  0
LINE
  5
C8F
330
A35
100
AcDbEntity
  8
0
100
AcDbLine
 10
43.946
 20
73.744
 30
0.0
 11
43.946
 21
67.14
 31
0.0
  0
LINE
  5
C90
330
A35
100
AcDbEntity
  8
0
100
AcDbLine
 10
44.17
 20
66.511
 30
0.0
 11
44.17
 21
61.013
 31
0.0
  0
LINE
  5
C91
330
A35
100
AcDbEntity
  8
0
100
AcDbLine
 10
40.331
 20
60.923
 30
0.0
 11
40.331
 21
61.938
 31
0.0
  0
LINE
  5
C92
330
A35
100
AcDbEntity
  8
0
100
AcDbLine
 10
44.414
 20
61.013
 30
0.0
 11
44.414
 21
73.072
 31
0.0
  0
LINE
  5
C93
330
A35
100
AcDbEntity
  8
0
100
AcDbLine
 10
44.17
 20
73.756
 30
0.0
 11
44.17
 21
67.085
 31
0.0
  0
LINE
  5
C94
330
A35
100
AcDbEntity
  8
0
100
AcDbLine
 10
40.453
 20
71.44
 30
0.0
 11
40.453
 21
72.643
 31
0.0
  0
LINE
  5
C95
330
A35
100
AcDbEntity
  8
0
100
AcDbLine
 10
40.331
 20
72.764
 30
0.0
 11
40.331
 21
71.342
 31
0.0
  0
LINE
  5
C96
330
A35
100
AcDbEntity
  8
0
100
AcDbLine
 10
40.001
 20
72.873
 30
0.0
 11
39.612
 21
72.983
 31
0.0
  0
LINE
  5
C97
330
A35
100
AcDbEntity
  8
0
100
AcDbLine
 10
40.001
 20
73.018
 30
0.0
 11
40.001
 21
71.042
 31
0.0
  0
LINE
  5
C98
330
A35
100
AcDbEntity
  8
0
100
AcDbLine
 10
36.539
 20
56.756
 30
0.0
 11
36.795
 21
56.526
 31
0.0
  0
LINE
  5
C99
330
A35
100
AcDbEntity
  8
0
100
AcDbLine
 10
45.054
 20
60.372
 30
0.0
 11
45.054
 21
61.013
 31
0.0
  0
LINE
  5
C9A
330
A35
100
AcDbEntity
  8
0
100
AcDbLine
 10
43.203
 20
71.241
 30
0.0
 11
43.325
 21
71.342
 31
0.0
  0
LINE
  5
C9B
330
A35
100
AcDbEntity
  8
0
100
AcDbLine
 10
42.881
 20
71.229
 30
0.0
 11
42.881
 21
67.14
 31
0.0
  0
LINE
  5
C9C
330
A35
100
AcDbEntity
  8
0
100
AcDbLine
 10
42.795
 20
67.14
 30
0.0
 11
42.795
 21
71.264
 31
0.0
  0
LINE
  5
C9D
330
A35
100
AcDbEntity
  8
0
100
AcDbLine
 10
41.973
 20
61.013
 30
0.0
 11
40.744
 21
61.013
 31
0.0
  0
LINE
  5
C9E
330
A35
100
AcDbEntity
  8
0
100
AcDbLine
 10
42.795
 20
71.264
 30
0.0
 11
42.748
 21
71.35
 31
0.0
  0
LINE
  5
C9F
330
A35
100
AcDbEntity
  8
0
100
AcDbLine
 10
36.429
 20
57.978
 30
0.0
 11
36.429
 21
57.342
 31
0.0
  0
LINE
  5
CA0
330
A35
100
AcDbEntity
  8
0
100
AcDbLine
 10
37.706
 20
59.205
 30
0.0
 11
37.706
 21
59.83
 31
0.0
  0
LINE
  5
CA1
330
A35
100
AcDbEntity
  8
0
100
AcDbLine
 10
37.427
 20
59.279
 30
0.0
 11
37.706
 21
59.205
 31
0.0
  0
LINE
  5
CA2
330
A35
100
AcDbEntity
  8
0
100
AcDbLine
 10
37.317
 20
59.302
 30
0.0
 11
37.317
 21
59.333
 31
0.0
  0
LINE
  5
CA3
330
A35
100
AcDbEntity
  8
0
100
AcDbLine
 10
37.427
 20
59.279
 30
0.0
 11
37.427
 21
58.642
 31
0.0
  0
LINE
  5
CA4
330
A35
100
AcDbEntity
  8
0
100
AcDbLine
 10
40.744
 20
60.372
 30
0.0
 11
40.744
 21
61.013
 31
0.0
  0
LINE
  5
CA5
330
A35
100
AcDbEntity
  8
0
100
AcDbLine
 10
36.905
 20
59.193
 30
0.0
 11
36.905
 21
58.553
 31
0.0
  0
LINE
  5
CA6
330
A35
100
AcDbEntity
  8
0
100
AcDbLine
 10
39.447
 20
70.799
 30
0.0
 11
37.671
 21
71.307
 31
0.0
  0
LINE
  5
CA7
330
A35
100
AcDbEntity
  8
0
100
AcDbLine
 10
36.642
 20
70.526
 30
0.0
 11
36.642
 21
68.156
 31
0.0
  0
LINE
  5
CA8
330
A35
100
AcDbEntity
  8
0
100
AcDbLine
 10
37.317
 20
68.937
 30
0.0
 11
37.317
 21
70.756
 31
0.0
  0
LINE
  5
CA9
330
A35
100
AcDbEntity
  8
0
100
AcDbLine
 10
37.262
 20
70.788
 30
0.0
 11
37.105
 21
70.835
 31
0.0
  0
LINE
  5
CAA
330
A35
100
AcDbEntity
  8
0
100
AcDbLine
 10
37.317
 20
70.514
 30
0.0
 11
37.506
 21
70.46
 31
0.0
  0
LINE
  5
CAB
330
A35
100
AcDbEntity
  8
0
100
AcDbLine
 10
36.983
 20
70.823
 30
0.0
 11
36.653
 21
70.546
 31
0.0
  0
LINE
  5
CAC
330
A35
100
AcDbEntity
  8
0
100
AcDbLine
 10
36.983
 20
70.823
 30
0.0
 11
36.983
 21
68.652
 31
0.0
  0
LINE
  5
CAD
330
A35
100
AcDbEntity
  8
0
100
AcDbLine
 10
43.813
 20
60.372
 30
0.0
 11
45.054
 21
60.372
 31
0.0
  0
LINE
  5
CAE
330
A35
100
AcDbEntity
  8
0
100
AcDbLine
 10
41.93
 20
59.83
 30
0.0
 11
41.93
 21
59.755
 31
0.0
  0
LINE
  5
CAF
330
A35
100
AcDbEntity
  8
0
100
AcDbLine
 10
42.748
 20
67.14
 30
0.0
 11
42.748
 21
71.374
 31
0.0
  0
LINE
  5
CB0
330
A35
100
AcDbEntity
  8
0
100
AcDbLine
 10
43.813
 20
61.013
 30
0.0
 11
45.054
 21
61.013
 31
0.0
  0
LINE
  5
CB1
330
A35
100
AcDbEntity
  8
0
100
AcDbLine
 10
43.946
 20
61.013
 30
0.0
 11
43.946
 21
65.562
 31
0.0
  0
LINE
  5
CB2
330
A35
100
AcDbEntity
  8
0
100
AcDbLine
 10
38.956
 20
58.74
 30
0.0
 11
37.895
 21
59.037
 31
0.0
  0
LINE
  5
CB3
330
A35
100
AcDbEntity
  8
0
100
AcDbLine
 10
48.347
 20
72.401
 30
0.0
 11
48.335
 21
72.432
 31
0.0
  0
LINE
  5
CB4
330
A35
100
AcDbEntity
  8
0
100
AcDbLine
 10
39.467
 20
72.971
 30
0.0
 11
39.455
 21
72.94
 31
0.0
  0
LINE
  5
CB5
330
A35
100
AcDbEntity
  8
0
100
AcDbLine
 10
43.105
 20
71.217
 30
0.0
 11
42.893
 21
71.241
 31
0.0
  0
LINE
  5
CB6
330
A35
100
AcDbEntity
  8
0
100
AcDbLine
 10
37.526
 20
71.296
 30
0.0
 11
37.518
 21
71.264
 31
0.0
  0
LINE
  5
CB7
330
A35
100
AcDbEntity
  8
0
100
AcDbLine
 10
36.653
 20
70.546
 30
0.0
 11
36.642
 21
70.526
 31
0.0
  0
LINE
  5
CB8
330
A35
100
AcDbEntity
  8
0
100
AcDbLine
 10
47.895
 20
57.229
 30
0.0
 11
48.127
 21
57.029
 31
0.0
  0
LINE
  5
CB9
330
A35
100
AcDbEntity
  8
0
100
AcDbLine
 10
37.706
 20
59.205
 30
0.0
 11
37.781
 21
59.314
 31
0.0
  0
LINE
  5
CBA
330
A35
100
AcDbEntity
  8
0
100
AcDbLine
 10
36.551
 20
57.959
 30
0.0
 11
36.905
 21
58.553
 31
0.0
  0
LINE
  5
CBB
330
A35
100
AcDbEntity
  8
0
100
AcDbLine
 10
36.429
 20
57.342
 30
0.0
 11
36.551
 21
57.959
 31
0.0
  0
LINE
  5
CBC
330
A35
100
AcDbEntity
  8
0
100
AcDbLine
 10
47.793
 20
57.252
 30
0.0
 11
47.895
 21
57.229
 31
0.0
  0
LINE
  5
CBD
330
A35
100
AcDbEntity
  8
0
100
AcDbLine
 10
37.895
 20
59.037
 30
0.0
 11
37.706
 21
59.205
 31
0.0
  0
LINE
  5
CBE
330
A35
100
AcDbEntity
  8
0
100
AcDbLine
 10
37.129
 20
58.65
 30
0.0
 11
37.427
 21
58.642
 31
0.0
  0
LINE
  5
CBF
330
A35
100
AcDbEntity
  8
0
100
AcDbLine
 10
36.905
 20
58.553
 30
0.0
 11
37.129
 21
58.65
 31
0.0
  0
LINE
  5
CC0
330
A35
100
AcDbEntity
  8
0
100
AcDbLine
 10
39.412
 20
60.052
 30
0.0
 11
40.744
 21
60.372
 31
0.0
  0
LINE
  5
CC1
330
A35
100
AcDbEntity
  8
0
100
AcDbLine
 10
37.781
 20
59.314
 30
0.0
 11
39.412
 21
60.052
 31
0.0
  0
LINE
  5
CC2
330
A35
100
AcDbEntity
  8
0
100
AcDbLine
 10
48.127
 20
57.029
 30
0.0
 11
48.115
 21
56.986
 31
0.0
  0
LINE
  5
CC3
330
A35
100
AcDbEntity
  8
0
100
AcDbLine
 10
49.357
 20
57.342
 30
0.0
 11
49.259
 21
56.756
 31
0.0
  0
LINE
  5
CC4
330
A35
100
AcDbEntity
  8
0
100
AcDbLine
 10
39.447
 20
70.78
 30
0.0
 11
39.447
 21
72.94
 31
0.0
  0
LINE
  5
CC5
330
A35
100
AcDbEntity
  8
0
100
AcDbLine
 10
39.612
 20
61.321
 30
0.0
 11
39.612
 21
60.747
 31
0.0
  0
LINE
  5
CC6
330
A35
100
AcDbEntity
  8
0
100
AcDbLine
 10
49.18
 20
70.866
 30
0.0
 11
49.07
 21
70.921
 31
0.0
  0
LINE
  5
CC7
330
A35
100
AcDbEntity
  8
0
100
AcDbLine
 10
48.968
 20
71.659
 30
0.0
 11
48.968
 21
59.084
 31
0.0
  0
LINE
  5
CC8
330
A35
100
AcDbEntity
  8
0
100
AcDbLine
 10
47.184
 20
73.072
 30
0.0
 11
47.184
 21
60.384
 31
0.0
  0
LINE
  5
CC9
330
A35
100
AcDbEntity
  8
0
100
AcDbLine
 10
46.087
 20
73.522
 30
0.0
 11
46.087
 21
68.21
 31
0.0
  0
LINE
  5
CCA
330
A35
100
AcDbEntity
  8
0
100
AcDbLine
 10
45.887
 20
73.545
 30
0.0
 11
45.887
 21
60.825
 31
0.0
  0
LINE
  5
CCB
330
A35
100
AcDbEntity
  8
0
100
AcDbLine
 10
48.182
 20
72.444
 30
0.0
 11
48.182
 21
59.822
 31
0.0
  0
LINE
  5
CCC
330
A35
100
AcDbEntity
  8
0
100
AcDbLine
 10
47.373
 20
73.037
 30
0.0
 11
47.373
 21
60.294
 31
0.0
  0
LINE
  5
CCD
330
A35
100
AcDbEntity
  8
0
100
AcDbLine
 10
48.826
 20
71.713
 30
0.0
 11
48.826
 21
59.259
 31
0.0
  0
LINE
  5
CCE
330
A35
100
AcDbEntity
  8
0
100
AcDbLine
 10
48.347
 20
72.401
 30
0.0
 11
48.347
 21
59.701
 31
0.0
  0
LINE
  5
CCF
330
A35
100
AcDbEntity
  8
0
100
AcDbLine
 10
44.256
 20
73.104
 30
0.0
 11
44.414
 21
73.072
 31
0.0
  0
LINE
  5
CD0
330
A35
100
AcDbEntity
  8
0
100
AcDbLine
 10
45.199
 20
73.193
 30
0.0
 11
45.565
 21
73.271
 31
0.0
  0
LINE
  5
CD1
330
A35
100
AcDbEntity
  8
0
100
AcDbLine
 10
45.199
 20
73.193
 30
0.0
 11
44.414
 21
73.072
 31
0.0
  0
LINE
  5
CD2
330
A35
100
AcDbEntity
  8
0
100
AcDbLine
 10
47.341
 20
73.072
 30
0.0
 11
47.184
 21
73.072
 31
0.0
  0
LINE
  5
CD3
330
A35
100
AcDbEntity
  8
0
100
AcDbLine
 10
46.087
 20
73.522
 30
0.0
 11
46.032
 21
73.568
 31
0.0
  0
LINE
  5
CD4
330
A35
100
AcDbEntity
  8
0
100
AcDbLine
 10
48.335
 20
72.42
 30
0.0
 11
48.182
 21
72.444
 31
0.0
  0
LINE
  5
CD5
330
A35
100
AcDbEntity
  8
0
100
AcDbLine
 10
48.968
 20
71.67
 30
0.0
 11
48.826
 21
71.713
 31
0.0
  0
LINE
  5
CD6
330
A35
100
AcDbEntity
  8
0
100
AcDbLine
 10
47.373
 20
73.037
 30
0.0
 11
47.341
 21
73.072
 31
0.0
  0
LINE
  5
CD7
330
A35
100
AcDbEntity
  8
0
100
AcDbLine
 10
46.033
 20
73.568
 30
0.0
 11
45.887
 21
73.545
 31
0.0
  0
LINE
  5
CD8
330
A35
100
AcDbEntity
  8
0
100
AcDbLine
 10
44.048
 20
73.799
 30
0.0
 11
44.17
 21
73.756
 31
0.0
  0
LINE
  5
CD9
330
A35
100
AcDbEntity
  8
0
100
AcDbLine
 10
43.946
 20
73.744
 30
0.0
 11
44.048
 21
73.799
 31
0.0
  0
LINE
  5
CDA
330
A35
100
AcDbEntity
  8
0
100
AcDbLine
 10
49.18
 20
70.866
 30
0.0
 11
49.18
 21
58.74
 31
0.0
  0
LINE
  5
CDB
330
A35
100
AcDbEntity
  8
0
100
AcDbLine
 10
39.612
 20
72.983
 30
0.0
 11
39.612
 21
70.921
 31
0.0
  0
LINE
  5
CDC
330
A35
100
AcDbEntity
  8
0
100
AcDbLine
 10
49.325
 20
57.67
 30
0.0
 11
49.357
 21
57.342
 31
0.0
  0
LINE
  5
CDD
330
A35
100
AcDbEntity
  8
0
100
AcDbLine
 10
49.058
 20
58.31
 30
0.0
 11
49.325
 21
57.67
 31
0.0
  0
LINE
  5
CDE
330
A35
100
AcDbEntity
  8
0
100
AcDbLine
 10
48.536
 20
58.916
 30
0.0
 11
49.058
 21
58.31
 31
0.0
  0
LINE
  5
CDF
330
A35
100
AcDbEntity
  8
0
100
AcDbLine
 10
48.17
 20
59.193
 30
0.0
 11
48.536
 21
58.916
 31
0.0
  0
LINE
  5
CE0
330
A35
100
AcDbEntity
  8
0
100
AcDbLine
 10
47.671
 20
59.501
 30
0.0
 11
48.17
 21
59.193
 31
0.0
  0
LINE
  5
CE1
330
A35
100
AcDbEntity
  8
0
100
AcDbLine
 10
46.473
 20
60.017
 30
0.0
 11
47.671
 21
59.501
 31
0.0
  0
LINE
  5
CE2
330
A35
100
AcDbEntity
  8
0
100
AcDbLine
 10
45.054
 20
60.372
 30
0.0
 11
46.473
 21
60.017
 31
0.0
  0
LINE
  5
CE3
330
A35
100
AcDbEntity
  8
0
100
AcDbLine
 10
39.612
 20
72.983
 30
0.0
 11
39.467
 21
72.959
 31
0.0
  0
LINE
  5
CE4
330
A35
100
AcDbEntity
  8
0
100
AcDbLine
 10
46.087
 20
68.21
 30
0.0
 11
46.087
 21
60.767
 31
0.0
  0
LINE
  5
CE5
330
A35
100
AcDbEntity
  8
0
100
AcDbLine
 10
43.203
 20
71.241
 30
0.0
 11
43.093
 21
71.217
 31
0.0
  0
LINE
  5
CE6
330
A35
100
AcDbEntity
  8
0
100
AcDbLine
 10
42.881
 20
71.229
 30
0.0
 11
42.795
 21
71.264
 31
0.0
  0
LINE
  5
CE7
330
A35
100
AcDbEntity
  8
0
100
AcDbLine
 10
36.539
 20
56.756
 30
0.0
 11
36.429
 21
57.342
 31
0.0
  0
LINE
  5
CE8
330
A35
100
AcDbEntity
  8
0
100
AcDbLine
 10
36.551
 20
58.596
 30
0.0
 11
36.905
 21
59.193
 31
0.0
  0
LINE
  5
CE9
330
A35
100
AcDbEntity
  8
0
100
AcDbLine
 10
36.429
 20
57.978
 30
0.0
 11
36.551
 21
58.596
 31
0.0
  0
LINE
  5
CEA
330
A35
100
AcDbEntity
  8
0
100
AcDbLine
 10
37.706
 20
59.83
 30
0.0
 11
37.781
 21
59.955
 31
0.0
  0
LINE
  5
CEB
330
A35
100
AcDbEntity
  8
0
100
AcDbLine
 10
37.506
 20
69.101
 30
0.0
 11
37.506
 21
71.264
 31
0.0
  0
LINE
  5
CEC
330
A35
100
AcDbEntity
  8
0
100
AcDbLine
 10
37.506
 20
59.259
 30
0.0
 11
37.506
 21
59.501
 31
0.0
  0
LINE
  5
CED
330
A35
100
AcDbEntity
  8
0
100
AcDbLine
 10
37.129
 20
59.291
 30
0.0
 11
37.427
 21
59.279
 31
0.0
  0
LINE
  5
CEE
330
A35
100
AcDbEntity
  8
0
100
AcDbLine
 10
36.905
 20
59.193
 30
0.0
 11
37.129
 21
59.291
 31
0.0
  0
LINE
  5
CEF
330
A35
100
AcDbEntity
  8
0
100
AcDbLine
 10
39.447
 20
60.693
 30
0.0
 11
39.447
 21
61.177
 31
0.0
  0
LINE
  5
CF0
330
A35
100
AcDbEntity
  8
0
100
AcDbLine
 10
37.671
 20
71.307
 30
0.0
 11
37.671
 21
69.245
 31
0.0
  0
LINE
  5
CF1
330
A35
100
AcDbEntity
  8
0
100
AcDbLine
 10
37.671
 20
71.307
 30
0.0
 11
37.526
 21
71.295
 31
0.0
  0
LINE
  5
CF2
330
A35
100
AcDbEntity
  8
0
100
AcDbLine
 10
37.317
 20
70.756
 30
0.0
 11
37.262
 21
70.788
 31
0.0
  0
LINE
  5
CF3
330
A35
100
AcDbEntity
  8
0
100
AcDbLine
 10
37.105
 20
70.835
 30
0.0
 11
36.983
 21
70.823
 31
0.0
  0
LINE
  5
CF4
330
A35
100
AcDbEntity
  8
0
100
AcDbLine
 10
38.814
 20
60.47
 30
0.0
 11
40.744
 21
61.013
 31
0.0
  0
LINE
  5
CF5
330
A35
100
AcDbEntity
  8
0
100
AcDbLine
 10
37.781
 20
59.955
 30
0.0
 11
38.814
 21
60.47
 31
0.0
  0
LINE
  5
CF6
330
A35
100
AcDbEntity
  8
0
100
AcDbLine
 10
49.325
 20
58.31
 30
0.0
 11
49.357
 21
57.978
 31
0.0
  0
LINE
  5
CF7
330
A35
100
AcDbEntity
  8
0
100
AcDbLine
 10
49.058
 20
58.951
 30
0.0
 11
49.325
 21
58.31
 31
0.0
  0
LINE
  5
CF8
330
A35
100
AcDbEntity
  8
0
100
AcDbLine
 10
48.536
 20
59.556
 30
0.0
 11
49.058
 21
58.951
 31
0.0
  0
LINE
  5
CF9
330
A35
100
AcDbEntity
  8
0
100
AcDbLine
 10
48.17
 20
59.83
 30
0.0
 11
48.536
 21
59.556
 31
0.0
  0
LINE
  5
CFA
330
A35
100
AcDbEntity
  8
0
100
AcDbLine
 10
47.671
 20
60.142
 30
0.0
 11
48.17
 21
59.83
 31
0.0
  0
LINE
  5
CFB
330
A35
100
AcDbEntity
  8
0
100
AcDbLine
 10
46.473
 20
60.657
 30
0.0
 11
47.671
 21
60.142
 31
0.0
  0
LINE
  5
CFC
330
A35
100
AcDbEntity
  8
0
100
AcDbLine
 10
45.054
 20
61.013
 30
0.0
 11
46.473
 21
60.657
 31
0.0
  0
LINE
  5
CFD
330
A35
100
AcDbEntity
  8
0
100
AcDbLine
 10
5.852
 20
67.792
 30
0.0
 11
5.887
 21
67.679
 31
0.0
  0
LINE
  5
CFE
330
A35
100
AcDbEntity
  8
0
100
AcDbLine
 10
5.852
 20
67.703
 30
0.0
 11
5.832
 21
67.769
 31
0.0
  0
LINE
  5
CFF
330
A35
100
AcDbEntity
  8
0
100
AcDbLine
 10
5.93
 20
67.781
 30
0.0
 11
5.973
 21
67.66
 31
0.0
  0
LINE
  5
D00
330
A35
100
AcDbEntity
  8
0
100
AcDbLine
 10
5.942
 20
67.781
 30
0.0
 11
5.852
 21
67.8
 31
0.0
  0
LINE
  5
D01
330
A35
100
AcDbEntity
  8
0
100
AcDbLine
 10
5.852
 20
67.703
 30
0.0
 11
5.765
 21
67.714
 31
0.0
  0
LINE
  5
D02
330
A35
100
AcDbEntity
  8
0
100
AcDbLine
 10
5.82
 20
67.648
 30
0.0
 11
5.875
 21
67.671
 31
0.0
  0
LINE
  5
D03
330
A35
100
AcDbEntity
  8
0
100
AcDbLine
 10
6.032
 20
67.679
 30
0.0
 11
6.154
 21
67.726
 31
0.0
  0
LINE
  5
D04
330
A35
100
AcDbEntity
  8
0
100
AcDbLine
 10
6.032
 20
67.679
 30
0.0
 11
5.973
 21
67.66
 31
0.0
  0
LINE
  5
D05
330
A35
100
AcDbEntity
  8
0
100
AcDbLine
 10
6.032
 20
67.679
 30
0.0
 11
5.997
 21
67.781
 31
0.0
  0
LINE
  5
D06
330
A35
100
AcDbEntity
  8
0
100
AcDbLine
 10
6.209
 20
67.835
 30
0.0
 11
6.252
 21
67.902
 31
0.0
  0
LINE
  5
D07
330
A35
100
AcDbEntity
  8
0
100
AcDbLine
 10
6.198
 20
67.89
 30
0.0
 11
6.209
 21
67.835
 31
0.0
  0
LINE
  5
D08
330
A35
100
AcDbEntity
  8
0
100
AcDbLine
 10
6.198
 20
67.8
 30
0.0
 11
6.174
 21
67.89
 31
0.0
  0
LINE
  5
D09
330
A35
100
AcDbEntity
  8
0
100
AcDbLine
 10
6.221
 20
67.746
 30
0.0
 11
6.154
 21
67.726
 31
0.0
  0
LINE
  5
D0A
330
A35
100
AcDbEntity
  8
0
100
AcDbLine
 10
6.064
 20
67.824
 30
0.0
 11
6.099
 21
67.89
 31
0.0
  0
LINE
  5
D0B
330
A35
100
AcDbEntity
  8
0
100
AcDbLine
 10
6.174
 20
67.89
 30
0.0
 11
6.221
 21
67.745
 31
0.0
  0
LINE
  5
D0C
330
A35
100
AcDbEntity
  8
0
100
AcDbLine
 10
6.154
 20
67.726
 30
0.0
 11
6.099
 21
67.878
 31
0.0
  0
LINE
  5
D0D
330
A35
100
AcDbEntity
  8
0
100
AcDbLine
 10
6.241
 20
67.8
 30
0.0
 11
6.307
 21
67.835
 31
0.0
  0
LINE
  5
D0E
330
A35
100
AcDbEntity
  8
0
100
AcDbLine
 10
5.777
 20
67.714
 30
0.0
 11
5.864
 21
67.8
 31
0.0
  0
LINE
  5
D0F
330
A35
100
AcDbEntity
  8
0
100
AcDbLine
 10
5.82
 20
67.648
 30
0.0
 11
5.973
 21
67.66
 31
0.0
  0
LINE
  5
D10
330
A35
100
AcDbEntity
  8
0
100
AcDbLine
 10
5.742
 20
67.648
 30
0.0
 11
5.985
 21
67.671
 31
0.0
  0
LINE
  5
D11
330
A35
100
AcDbEntity
  8
0
100
AcDbLine
 10
5.973
 20
67.671
 30
0.0
 11
6.221
 21
67.757
 31
0.0
  0
LINE
  5
D12
330
A35
100
AcDbEntity
  8
0
100
AcDbLine
 10
6.221
 20
67.746
 30
0.0
 11
6.307
 21
67.835
 31
0.0
  0
LINE
  5
D13
330
A35
100
AcDbEntity
  8
0
100
AcDbLine
 10
6.221
 20
67.746
 30
0.0
 11
6.363
 21
67.847
 31
0.0
  0
LINE
  5
D14
330
A35
100
AcDbEntity
  8
0
100
AcDbLine
 10
6.099
 20
67.89
 30
0.0
 11
6.252
 21
67.902
 31
0.0
  0
LINE
  5
D15
330
A35
100
AcDbEntity
  8
0
100
AcDbLine
 10
5.608
 20
67.714
 30
0.0
 11
5.742
 21
67.636
 31
0.0
  0
LINE
  5
D16
330
A35
100
AcDbEntity
  8
0
100
AcDbLine
 10
5.742
 20
67.636
 30
0.0
 11
5.588
 21
67.691
 31
0.0
  0
LINE
  5
D17
330
A35
100
AcDbEntity
  8
0
100
AcDbLine
 10
6.064
 20
67.824
 30
0.0
 11
5.942
 21
67.781
 31
0.0
  0
LINE
  5
D18
330
A35
100
AcDbEntity
  8
0
100
AcDbLine
 10
5.852
 20
67.703
 30
0.0
 11
5.875
 21
67.671
 31
0.0
  0
LINE
  5
D19
330
A35
100
AcDbEntity
  8
0
100
AcDbLine
 10
6.198
 20
67.8
 30
0.0
 11
6.209
 21
67.835
 31
0.0
  0
LINE
  5
D1A
330
A35
100
AcDbEntity
  8
0
100
AcDbLine
 10
6.241
 20
67.8
 30
0.0
 11
6.198
 21
67.8
 31
0.0
  0
LINE
  5
D1B
330
A35
100
AcDbEntity
  8
0
100
AcDbLine
 10
6.363
 20
67.847
 30
0.0
 11
6.417
 21
67.98
 31
0.0
  0
LINE
  5
D1C
330
A35
100
AcDbEntity
  8
0
100
AcDbLine
 10
6.363
 20
67.847
 30
0.0
 11
6.453
 21
67.98
 31
0.0
  0
LINE
  5
D1D
330
A35
100
AcDbEntity
  8
0
100
AcDbLine
 10
10.92
 20
72.354
 30
0.0
 11
10.865
 21
72.522
 31
0.0
  0
LINE
  5
D1E
330
A35
100
AcDbEntity
  8
0
100
AcDbLine
 10
11.019
 20
72.026
 30
0.0
 11
10.976
 21
72.19
 31
0.0
  0
LINE
  5
D1F
330
A35
100
AcDbEntity
  8
0
100
AcDbLine
 10
11.164
 20
72.795
 30
0.0
 11
10.842
 21
72.772
 31
0.0
  0
LINE
  5
D20
330
A35
100
AcDbEntity
  8
0
100
AcDbLine
 10
11.129
 20
71.682
 30
0.0
 11
11.243
 21
71.694
 31
0.0
  0
LINE
  5
D21
330
A35
100
AcDbEntity
  8
0
100
AcDbLine
 10
12.638
 20
71.737
 30
0.0
 11
12.594
 21
72.057
 31
0.0
  0
LINE
  5
D22
330
A35
100
AcDbEntity
  8
0
100
AcDbLine
 10
11.529
 20
71.694
 30
0.0
 11
11.541
 21
71.584
 31
0.0
  0
LINE
  5
D23
330
A35
100
AcDbEntity
  8
0
100
AcDbLine
 10
11.553
 20
71.592
 30
0.0
 11
11.573
 21
71.506
 31
0.0
  0
LINE
  5
D24
330
A35
100
AcDbEntity
  8
0
100
AcDbLine
 10
12.484
 20
72.366
 30
0.0
 11
12.594
 21
72.057
 31
0.0
  0
LINE
  5
D25
330
A35
100
AcDbEntity
  8
0
100
AcDbLine
 10
12.241
 20
72.596
 30
0.0
 11
12.484
 21
72.366
 31
0.0
  0
LINE
  5
D26
330
A35
100
AcDbEntity
  8
0
100
AcDbLine
 10
11.687
 20
72.783
 30
0.0
 11
12.241
 21
72.596
 31
0.0
  0
LINE
  5
D27
330
A35
100
AcDbEntity
  8
0
100
AcDbLine
 10
11.188
 20
72.795
 30
0.0
 11
11.687
 21
72.783
 31
0.0
  0
LINE
  5
D28
330
A35
100
AcDbEntity
  8
0
100
AcDbLine
 10
11.141
 20
72.522
 30
0.0
 11
10.842
 21
72.772
 31
0.0
  0
LINE
  5
D29
330
A35
100
AcDbEntity
  8
0
100
AcDbLine
 10
11.207
 20
72.147
 30
0.0
 11
11.141
 21
72.522
 31
0.0
  0
LINE
  5
D2A
330
A35
100
AcDbEntity
  8
0
100
AcDbLine
 10
11.097
 20
71.791
 30
0.0
 11
11.207
 21
72.147
 31
0.0
  0
LINE
  5
D2B
330
A35
100
AcDbEntity
  8
0
100
AcDbLine
 10
11.188
 20
72.795
 30
0.0
 11
11.164
 21
72.795
 31
0.0
  0
LINE
  5
D2C
330
A35
100
AcDbEntity
  8
0
100
AcDbLine
 10
10.842
 20
72.772
 30
0.0
 11
10.787
 21
72.752
 31
0.0
  0
LINE
  5
D2D
330
A35
100
AcDbEntity
  8
0
100
AcDbLine
 10
11.651
 20
71.67
 30
0.0
 11
11.243
 21
71.694
 31
0.0
  0
LINE
  5
D2E
330
A35
100
AcDbEntity
  8
0
100
AcDbLine
 10
12.618
 20
71.948
 30
0.0
 11
12.661
 21
71.948
 31
0.0
  0
LINE
  5
D2F
330
A35
100
AcDbEntity
  8
0
100
AcDbLine
 10
11.761
 20
71.155
 30
0.0
 11
11.541
 21
71.584
 31
0.0
  0
LINE
  5
D30
330
A35
100
AcDbEntity
  8
0
100
AcDbLine
 10
8.524
 20
74.041
 30
0.0
 11
8.559
 21
73.908
 31
0.0
  0
LINE
  5
D31
330
A35
100
AcDbEntity
  8
0
100
AcDbLine
 10
7.804
 20
73.877
 30
0.0
 11
7.738
 21
74.076
 31
0.0
  0
LINE
  5
D32
330
A35
100
AcDbEntity
  8
0
100
AcDbLine
 10
8.115
 20
73.889
 30
0.0
 11
8.158
 21
73.744
 31
0.0
  0
LINE
  5
D33
330
A35
100
AcDbEntity
  8
0
100
AcDbLine
 10
8.036
 20
73.732
 30
0.0
 11
8.017
 21
73.811
 31
0.0
  0
LINE
  5
D34
330
A35
100
AcDbEntity
  8
0
100
AcDbLine
 10
7.981
 20
73.732
 30
0.0
 11
7.938
 21
73.889
 31
0.0
  0
LINE
  5
D35
330
A35
100
AcDbEntity
  8
0
100
AcDbLine
 10
7.981
 20
73.732
 30
0.0
 11
8.158
 21
73.744
 31
0.0
  0
LINE
  5
D36
330
A35
100
AcDbEntity
  8
0
100
AcDbLine
 10
7.938
 20
73.889
 30
0.0
 11
7.804
 21
73.877
 31
0.0
  0
LINE
  5
D37
330
A35
100
AcDbEntity
  8
0
100
AcDbLine
 10
8.115
 20
73.889
 30
0.0
 11
8.681
 21
73.92
 31
0.0
  0
LINE
  5
D38
330
A35
100
AcDbEntity
  8
0
100
AcDbLine
 10
8.017
 20
73.811
 30
0.0
 11
8.115
 21
73.889
 31
0.0
  0
LINE
  5
D39
330
A35
100
AcDbEntity
  8
0
100
AcDbLine
 10
6.154
 20
72.643
 30
0.0
 11
5.73
 21
73.943
 31
0.0
  0
LINE
  5
D3A
330
A35
100
AcDbEntity
  8
0
100
AcDbLine
 10
7.518
 20
74.615
 30
0.0
 11
7.573
 21
74.451
 31
0.0
  0
LINE
  5
D3B
330
A35
100
AcDbEntity
  8
0
100
AcDbLine
 10
7.305
 20
74.427
 30
0.0
 11
7.518
 21
74.615
 31
0.0
  0
LINE
  5
D3C
330
A35
100
AcDbEntity
  8
0
100
AcDbLine
 10
5.498
 20
73.853
 30
0.0
 11
5.176
 21
73.787
 31
0.0
  0
LINE
  5
D3D
330
A35
100
AcDbEntity
  8
0
100
AcDbLine
 10
5.231
 20
73.623
 30
0.0
 11
6.064
 21
74.338
 31
0.0
  0
LINE
  5
D3E
330
A35
100
AcDbEntity
  8
0
100
AcDbLine
 10
5.73
 20
73.943
 30
0.0
 11
5.176
 21
73.467
 31
0.0
  0
LINE
  5
D3F
330
A35
100
AcDbEntity
  8
0
100
AcDbLine
 10
7.038
 20
74.404
 30
0.0
 11
7.329
 21
73.49
 31
0.0
  0
LINE
  5
D40
330
A35
100
AcDbEntity
  8
0
100
AcDbLine
 10
8.048
 20
74.084
 30
0.0
 11
8.626
 21
74.119
 31
0.0
  0
LINE
  5
D41
330
A35
100
AcDbEntity
  8
0
100
AcDbLine
 10
8.524
 20
74.041
 30
0.0
 11
7.95
 21
74.01
 31
0.0
  0
LINE
  5
D42
330
A35
100
AcDbEntity
  8
0
100
AcDbLine
 10
8.524
 20
74.041
 30
0.0
 11
8.626
 21
74.119
 31
0.0
  0
LINE
  5
D43
330
A35
100
AcDbEntity
  8
0
100
AcDbLine
 10
8.048
 20
74.084
 30
0.0
 11
7.95
 21
74.01
 31
0.0
  0
LINE
  5
D44
330
A35
100
AcDbEntity
  8
0
100
AcDbLine
 10
8.005
 20
74.24
 30
0.0
 11
7.903
 21
74.162
 31
0.0
  0
LINE
  5
D45
330
A35
100
AcDbEntity
  8
0
100
AcDbLine
 10
8.048
 20
74.084
 30
0.0
 11
8.005
 21
74.24
 31
0.0
  0
LINE
  5
D46
330
A35
100
AcDbEntity
  8
0
100
AcDbLine
 10
7.871
 20
74.084
 30
0.0
 11
7.738
 21
74.076
 31
0.0
  0
LINE
  5
D47
330
A35
100
AcDbEntity
  8
0
100
AcDbLine
 10
7.871
 20
74.084
 30
0.0
 11
7.828
 21
74.228
 31
0.0
  0
LINE
  5
D48
330
A35
100
AcDbEntity
  8
0
100
AcDbLine
 10
7.848
 20
74.15
 30
0.0
 11
7.95
 21
74.01
 31
0.0
  0
LINE
  5
D49
330
A35
100
AcDbEntity
  8
0
100
AcDbLine
 10
7.773
 20
73.998
 30
0.0
 11
7.761
 21
73.998
 31
0.0
  0
LINE
  5
D4A
330
A35
100
AcDbEntity
  8
0
100
AcDbLine
 10
7.773
 20
73.998
 30
0.0
 11
7.871
 21
74.084
 31
0.0
  0
LINE
  5
D4B
330
A35
100
AcDbEntity
  8
0
100
AcDbLine
 10
5.852
 20
73.943
 30
0.0
 11
6.119
 21
74.174
 31
0.0
  0
LINE
  5
D4C
330
A35
100
AcDbEntity
  8
0
100
AcDbLine
 10
6.964
 20
74.064
 30
0.0
 11
5.852
 21
73.943
 31
0.0
  0
LINE
  5
D4D
330
A35
100
AcDbEntity
  8
0
100
AcDbLine
 10
7.828
 20
74.228
 30
0.0
 11
8.005
 21
74.24
 31
0.0
  0
LINE
  5
D4E
330
A35
100
AcDbEntity
  8
0
100
AcDbLine
 10
6.905
 20
74.228
 30
0.0
 11
6.119
 21
74.174
 31
0.0
  0
LINE
  5
D4F
330
A35
100
AcDbEntity
  8
0
100
AcDbLine
 10
6.885
 20
74.283
 30
0.0
 11
7.038
 21
74.404
 31
0.0
  0
LINE
  5
D50
330
A35
100
AcDbEntity
  8
0
100
AcDbLine
 10
6.064
 20
74.338
 30
0.0
 11
7.573
 21
74.451
 31
0.0
  0
LINE
  5
D51
330
A35
100
AcDbEntity
  8
0
100
AcDbLine
 10
6.119
 20
74.174
 30
0.0
 11
6.064
 21
74.338
 31
0.0
  0
LINE
  5
D52
330
A35
100
AcDbEntity
  8
0
100
AcDbLine
 10
5.852
 20
73.943
 30
0.0
 11
6.708
 21
71.295
 31
0.0
  0
LINE
  5
D53
330
A35
100
AcDbEntity
  8
0
100
AcDbLine
 10
9.203
 20
73.314
 30
0.0
 11
9.156
 21
73.467
 31
0.0
  0
LINE
  5
D54
330
A35
100
AcDbEntity
  8
0
100
AcDbLine
 10
8.681
 20
73.92
 30
0.0
 11
8.626
 21
74.119
 31
0.0
  0
LINE
  5
D55
330
A35
100
AcDbEntity
  8
0
100
AcDbLine
 10
7.518
 20
74.615
 30
0.0
 11
10.123
 21
74.791
 31
0.0
  0
LINE
  5
D56
330
A35
100
AcDbEntity
  8
0
100
AcDbLine
 10
9.977
 20
74.548
 30
0.0
 11
7.038
 21
74.404
 31
0.0
  0
LINE
  5
D57
330
A35
100
AcDbEntity
  8
0
100
AcDbLine
 10
5.176
 20
73.787
 30
0.0
 11
5.231
 21
73.623
 31
0.0
  0
LINE
  5
D58
330
A35
100
AcDbEntity
  8
0
100
AcDbLine
 10
5.176
 20
73.787
 30
0.0
 11
4.767
 21
73.435
 31
0.0
  0
LINE
  5
D59
330
A35
100
AcDbEntity
  8
0
100
AcDbLine
 10
6.885
 20
74.283
 30
0.0
 11
7.184
 21
73.369
 31
0.0
  0
LINE
  5
D5A
330
A35
100
AcDbEntity
  8
0
100
AcDbLine
 10
7.573
 20
72.752
 30
0.0
 11
10.508
 21
72.897
 31
0.0
  0
LINE
  5
D5B
330
A35
100
AcDbEntity
  8
0
100
AcDbLine
 10
10.001
 20
73.4
 30
0.0
 11
9.203
 21
73.314
 31
0.0
  0
LINE
  5
D5C
330
A35
100
AcDbEntity
  8
0
100
AcDbLine
 10
10.508
 20
72.897
 30
0.0
 11
10.811
 21
71.99
 31
0.0
  0
LINE
  5
D5D
330
A35
100
AcDbEntity
  8
0
100
AcDbLine
 10
5.176
 20
73.467
 30
0.0
 11
5.6
 21
72.166
 31
0.0
  0
LINE
  5
D5E
330
A35
100
AcDbEntity
  8
0
100
AcDbLine
 10
5.864
 20
73.522
 30
0.0
 11
5.176
 21
73.467
 31
0.0
  0
LINE
  5
D5F
330
A35
100
AcDbEntity
  8
0
100
AcDbLine
 10
4.901
 20
73.025
 30
0.0
 11
4.81
 21
72.951
 31
0.0
  0
LINE
  5
D60
330
A35
100
AcDbEntity
  8
0
100
AcDbLine
 10
4.901
 20
73.025
 30
0.0
 11
4.767
 21
73.435
 31
0.0
  0
LINE
  5
D61
330
A35
100
AcDbEntity
  8
0
100
AcDbLine
 10
5.663
 20
71.967
 30
0.0
 11
6.363
 21
72.014
 31
0.0
  0
LINE
  5
D62
330
A35
100
AcDbEntity
  8
0
100
AcDbLine
 10
6.221
 20
72.444
 30
0.0
 11
5.663
 21
71.967
 31
0.0
  0
LINE
  5
D63
330
A35
100
AcDbEntity
  8
0
100
AcDbLine
 10
5.6
 20
72.166
 30
0.0
 11
6.154
 21
72.643
 31
0.0
  0
LINE
  5
D64
330
A35
100
AcDbEntity
  8
0
100
AcDbLine
 10
8.535
 20
72.584
 30
0.0
 11
8.359
 21
72.576
 31
0.0
  0
LINE
  5
D65
330
A35
100
AcDbEntity
  8
0
100
AcDbLine
 10
8.437
 20
72.51
 30
0.0
 11
8.535
 21
72.584
 31
0.0
  0
LINE
  5
D66
330
A35
100
AcDbEntity
  8
0
100
AcDbLine
 10
9.203
 20
73.314
 30
0.0
 11
9.4
 21
73.479
 31
0.0
  0
LINE
  5
D67
330
A35
100
AcDbEntity
  8
0
100
AcDbLine
 10
8.535
 20
72.584
 30
0.0
 11
8.59
 21
72.444
 31
0.0
  0
LINE
  5
D68
330
A35
100
AcDbEntity
  8
0
100
AcDbLine
 10
7.329
 20
73.49
 30
0.0
 11
7.184
 21
73.369
 31
0.0
  0
LINE
  5
D69
330
A35
100
AcDbEntity
  8
0
100
AcDbLine
 10
7.329
 20
73.49
 30
0.0
 11
10.276
 21
73.635
 31
0.0
  0
LINE
  5
D6A
330
A35
100
AcDbEntity
  8
0
100
AcDbLine
 10
9.4
 20
73.479
 30
0.0
 11
7.184
 21
73.369
 31
0.0
  0
LINE
  5
D6B
330
A35
100
AcDbEntity
  8
0
100
AcDbLine
 10
8.359
 20
72.576
 30
0.0
 11
8.414
 21
72.432
 31
0.0
  0
LINE
  5
D6C
330
A35
100
AcDbEntity
  8
0
100
AcDbLine
 10
7.573
 20
72.752
 30
0.0
 11
7.427
 21
72.631
 31
0.0
  0
LINE
  5
D6D
330
A35
100
AcDbEntity
  8
0
100
AcDbLine
 10
7.871
 20
71.838
 30
0.0
 11
7.573
 21
72.752
 31
0.0
  0
LINE
  5
D6E
330
A35
100
AcDbEntity
  8
0
100
AcDbLine
 10
8.06
 20
73.26
 30
0.0
 11
8.115
 21
73.303
 31
0.0
  0
LINE
  5
D6F
330
A35
100
AcDbEntity
  8
0
100
AcDbLine
 10
5.663
 20
71.967
 30
0.0
 11
6.099
 21
70.659
 31
0.0
  0
LINE
  5
D70
330
A35
100
AcDbEntity
  8
0
100
AcDbLine
 10
7.726
 20
71.713
 30
0.0
 11
7.427
 21
72.631
 31
0.0
  0
LINE
  5
D71
330
A35
100
AcDbEntity
  8
0
100
AcDbLine
 10
4.81
 20
72.951
 30
0.0
 11
5.62
 21
70.471
 31
0.0
  0
LINE
  5
D72
330
A35
100
AcDbEntity
  8
0
100
AcDbLine
 10
11.195
 20
71.483
 30
0.0
 11
10.123
 21
74.791
 31
0.0
  0
LINE
  5
D73
330
A35
100
AcDbEntity
  8
0
100
AcDbLine
 10
10.087
 20
73.479
 30
0.0
 11
10.276
 21
72.885
 31
0.0
  0
LINE
  5
D74
330
A35
100
AcDbEntity
  8
0
100
AcDbLine
 10
10.276
 20
73.635
 30
0.0
 11
9.977
 21
74.548
 31
0.0
  0
LINE
  5
D75
330
A35
100
AcDbEntity
  8
0
100
AcDbLine
 10
10.001
 20
73.4
 30
0.0
 11
10.276
 21
73.635
 31
0.0
  0
LINE
  5
D76
330
A35
100
AcDbEntity
  8
0
100
AcDbLine
 10
10.166
 20
72.873
 30
0.0
 11
10.001
 21
73.4
 31
0.0
  0
LINE
  5
D77
330
A35
100
AcDbEntity
  8
0
100
AcDbLine
 10
5.722
 20
70.546
 30
0.0
 11
5.852
 21
70.14
 31
0.0
  0
LINE
  5
D78
330
A35
100
AcDbEntity
  8
0
100
AcDbLine
 10
5.62
 20
70.471
 30
0.0
 11
5.722
 21
70.546
 31
0.0
  0
LINE
  5
D79
330
A35
100
AcDbEntity
  8
0
100
AcDbLine
 10
5.742
 20
70.479
 30
0.0
 11
5.62
 21
70.471
 31
0.0
  0
LINE
  5
D7A
330
A35
100
AcDbEntity
  8
0
100
AcDbLine
 10
8.005
 20
70.284
 30
0.0
 11
8.913
 21
71.065
 31
0.0
  0
LINE
  5
D7B
330
A35
100
AcDbEntity
  8
0
100
AcDbLine
 10
5.852
 20
70.14
 30
0.0
 11
6.252
 21
70.479
 31
0.0
  0
LINE
  5
D7C
330
A35
100
AcDbEntity
  8
0
100
AcDbLine
 10
8.005
 20
70.284
 30
0.0
 11
5.852
 21
70.14
 31
0.0
  0
LINE
  5
D7D
330
A35
100
AcDbEntity
  8
0
100
AcDbLine
 10
7.038
 20
71.362
 30
0.0
 11
6.983
 21
71.53
 31
0.0
  0
LINE
  5
D7E
330
A35
100
AcDbEntity
  8
0
100
AcDbLine
 10
6.209
 20
70.647
 30
0.0
 11
6.252
 21
70.479
 31
0.0
  0
LINE
  5
D7F
330
A35
100
AcDbEntity
  8
0
100
AcDbLine
 10
6.209
 20
70.647
 30
0.0
 11
7.038
 21
71.362
 31
0.0
  0
LINE
  5
D80
330
A35
100
AcDbEntity
  8
0
100
AcDbLine
 10
6.983
 20
71.53
 30
0.0
 11
6.708
 21
71.296
 31
0.0
  0
LINE
  5
D81
330
A35
100
AcDbEntity
  8
0
100
AcDbLine
 10
6.653
 20
71.143
 30
0.0
 11
6.099
 21
70.659
 31
0.0
  0
LINE
  5
D82
330
A35
100
AcDbEntity
  8
0
100
AcDbLine
 10
6.653
 20
71.143
 30
0.0
 11
6.221
 21
72.444
 31
0.0
  0
LINE
  5
D83
330
A35
100
AcDbEntity
  8
0
100
AcDbLine
 10
7.038
 20
71.362
 30
0.0
 11
8.535
 21
71.471
 31
0.0
  0
LINE
  5
D84
330
A35
100
AcDbEntity
  8
0
100
AcDbLine
 10
8.005
 20
71.01
 30
0.0
 11
6.209
 21
70.647
 31
0.0
  0
LINE
  5
D85
330
A35
100
AcDbEntity
  8
0
100
AcDbLine
 10
8.315
 20
72.342
 30
0.0
 11
8.414
 21
72.432
 31
0.0
  0
LINE
  5
D86
330
A35
100
AcDbEntity
  8
0
100
AcDbLine
 10
8.492
 20
72.354
 30
0.0
 11
8.59
 21
72.444
 31
0.0
  0
LINE
  5
D87
330
A35
100
AcDbEntity
  8
0
100
AcDbLine
 10
8.645
 20
72.244
 30
0.0
 11
8.559
 21
72.155
 31
0.0
  0
LINE
  5
D88
330
A35
100
AcDbEntity
  8
0
100
AcDbLine
 10
8.315
 20
72.342
 30
0.0
 11
8.303
 21
72.342
 31
0.0
  0
LINE
  5
D89
330
A35
100
AcDbEntity
  8
0
100
AcDbLine
 10
8.559
 20
72.155
 30
0.0
 11
8.583
 21
72.08
 31
0.0
  0
LINE
  5
D8A
330
A35
100
AcDbEntity
  8
0
100
AcDbLine
 10
8.06
 20
70.842
 30
0.0
 11
6.252
 21
70.479
 31
0.0
  0
LINE
  5
D8B
330
A35
100
AcDbEntity
  8
0
100
AcDbLine
 10
8.005
 20
71.01
 30
0.0
 11
8.06
 21
70.842
 31
0.0
  0
LINE
  5
D8C
330
A35
100
AcDbEntity
  8
0
100
AcDbLine
 10
8.59
 20
71.307
 30
0.0
 11
8.535
 21
71.471
 31
0.0
  0
LINE
  5
D8D
330
A35
100
AcDbEntity
  8
0
100
AcDbLine
 10
10.355
 20
70.967
 30
0.0
 11
10.598
 21
71.186
 31
0.0
  0
LINE
  5
D8E
330
A35
100
AcDbEntity
  8
0
100
AcDbLine
 10
8.535
 20
71.471
 30
0.0
 11
8.005
 21
71.01
 31
0.0
  0
LINE
  5
D8F
330
A35
100
AcDbEntity
  8
0
100
AcDbLine
 10
8.06
 20
70.842
 30
0.0
 11
8.59
 21
71.307
 31
0.0
  0
LINE
  5
D90
330
A35
100
AcDbEntity
  8
0
100
AcDbLine
 10
8.913
 20
71.065
 30
0.0
 11
10.865
 21
71.198
 31
0.0
  0
LINE
  5
D91
330
A35
100
AcDbEntity
  8
0
100
AcDbLine
 10
10.355
 20
70.967
 30
0.0
 11
9.07
 21
70.877
 31
0.0
  0
LINE
  5
D92
330
A35
100
AcDbEntity
  8
0
100
AcDbLine
 10
8.414
 20
72.432
 30
0.0
 11
8.28
 21
72.42
 31
0.0
  0
LINE
  5
D93
330
A35
100
AcDbEntity
  8
0
100
AcDbLine
 10
9.058
 20
72.389
 30
0.0
 11
9.101
 21
72.268
 31
0.0
  0
LINE
  5
D94
330
A35
100
AcDbEntity
  8
0
100
AcDbLine
 10
8.492
 20
72.354
 30
0.0
 11
9.058
 21
72.389
 31
0.0
  0
LINE
  5
D95
330
A35
100
AcDbEntity
  8
0
100
AcDbLine
 10
8.347
 20
72.221
 30
0.0
 11
8.28
 21
72.42
 31
0.0
  0
LINE
  5
D96
330
A35
100
AcDbEntity
  8
0
100
AcDbLine
 10
8.645
 20
72.244
 30
0.0
 11
9.223
 21
72.268
 31
0.0
  0
LINE
  5
D97
330
A35
100
AcDbEntity
  8
0
100
AcDbLine
 10
8.48
 20
72.233
 30
0.0
 11
8.347
 21
72.221
 31
0.0
  0
LINE
  5
D98
330
A35
100
AcDbEntity
  8
0
100
AcDbLine
 10
8.48
 20
72.233
 30
0.0
 11
8.524
 21
72.08
 31
0.0
  0
LINE
  5
D99
330
A35
100
AcDbEntity
  8
0
100
AcDbLine
 10
8.704
 20
72.088
 30
0.0
 11
8.645
 21
72.244
 31
0.0
  0
LINE
  5
D9A
330
A35
100
AcDbEntity
  8
0
100
AcDbLine
 10
8.704
 20
72.088
 30
0.0
 11
8.524
 21
72.08
 31
0.0
  0
LINE
  5
D9B
330
A35
100
AcDbEntity
  8
0
100
AcDbLine
 10
10.63
 20
71.827
 30
0.0
 11
10.811
 21
71.99
 31
0.0
  0
LINE
  5
D9C
330
A35
100
AcDbEntity
  8
0
100
AcDbLine
 10
9.934
 20
71.827
 30
0.0
 11
9.824
 21
71.725
 31
0.0
  0
LINE
  5
D9D
330
A35
100
AcDbEntity
  8
0
100
AcDbLine
 10
10.575
 20
71.78
 30
0.0
 11
10.63
 21
71.827
 31
0.0
  0
LINE
  5
D9E
330
A35
100
AcDbEntity
  8
0
100
AcDbLine
 10
9.722
 20
71.725
 30
0.0
 11
9.698
 21
71.815
 31
0.0
  0
LINE
  5
D9F
330
A35
100
AcDbEntity
  8
0
100
AcDbLine
 10
7.871
 20
71.838
 30
0.0
 11
7.726
 21
71.713
 31
0.0
  0
LINE
  5
DA0
330
A35
100
AcDbEntity
  8
0
100
AcDbLine
 10
6.983
 20
71.53
 30
0.0
 11
10.63
 21
71.827
 31
0.0
  0
LINE
  5
DA1
330
A35
100
AcDbEntity
  8
0
100
AcDbLine
 10
11.195
 20
71.483
 30
0.0
 11
8.59
 21
71.307
 31
0.0
  0
LINE
  5
DA2
330
A35
100
AcDbEntity
  8
0
100
AcDbLine
 10
7.726
 20
71.713
 30
0.0
 11
9.934
 21
71.827
 31
0.0
  0
LINE
  5
DA3
330
A35
100
AcDbEntity
  8
0
100
AcDbLine
 10
10.811
 20
71.99
 30
0.0
 11
7.871
 21
71.838
 31
0.0
  0
LINE
  5
DA4
330
A35
100
AcDbEntity
  8
0
100
AcDbLine
 10
9.478
 20
70.721
 30
0.0
 11
9.71
 21
70.921
 31
0.0
  0
LINE
  5
DA5
330
A35
100
AcDbEntity
  8
0
100
AcDbLine
 10
9.478
 20
70.721
 30
0.0
 11
8.846
 21
70.678
 31
0.0
  0
LINE
  5
DA6
330
A35
100
AcDbEntity
  8
0
100
AcDbLine
 10
8.626
 20
70.491
 30
0.0
 11
8.213
 21
70.471
 31
0.0
  0
LINE
  5
DA7
330
A35
100
AcDbEntity
  8
0
100
AcDbLine
 10
8.626
 20
70.491
 30
0.0
 11
9.07
 21
70.877
 31
0.0
  0
LINE
  5
DA8
330
A35
100
AcDbEntity
  8
0
100
AcDbLine
 10
10.865
 20
71.198
 30
0.0
 11
11.195
 21
71.483
 31
0.0
  0
LINE
  5
DA9
330
A35
100
AcDbEntity
  8
0
100
AcDbLine
 10
8.437
 20
72.51
 30
0.0
 11
8.394
 21
72.51
 31
0.0
  0
LINE
  5
DAA
330
A35
100
AcDbEntity
  8
0
100
AcDbLine
 10
9.156
 20
72.463
 30
0.0
 11
9.223
 21
72.268
 31
0.0
  0
LINE
  5
DAB
330
A35
100
AcDbEntity
  8
0
100
AcDbLine
 10
8.59
 20
72.444
 30
0.0
 11
9.156
 21
72.463
 31
0.0
  0
LINE
  5
DAC
330
A35
100
AcDbEntity
  8
0
100
AcDbLine
 10
8.492
 20
72.354
 30
0.0
 11
8.437
 21
72.51
 31
0.0
  0
LINE
  5
DAD
330
A35
100
AcDbEntity
  8
0
100
AcDbLine
 10
9.058
 20
72.389
 30
0.0
 11
9.156
 21
72.463
 31
0.0
  0
LINE
  5
DAE
330
A35
100
AcDbEntity
  8
0
100
AcDbLine
 10
8.115
 20
73.303
 30
0.0
 11
8.327
 21
73.381
 31
0.0
  0
LINE
  5
DAF
330
A35
100
AcDbEntity
  8
0
100
AcDbLine
 10
7.938
 20
72.983
 30
0.0
 11
8.06
 21
73.26
 31
0.0
  0
LINE
  5
DB0
330
A35
100
AcDbEntity
  8
0
100
AcDbLine
 10
7.969
 20
72.772
 30
0.0
 11
7.938
 21
72.983
 31
0.0
  0
LINE
  5
DB1
330
A35
100
AcDbEntity
  8
0
100
AcDbLine
 10
7.993
 20
73.025
 30
0.0
 11
8.115
 21
73.303
 31
0.0
  0
LINE
  5
DB2
330
A35
100
AcDbEntity
  8
0
100
AcDbLine
 10
8.06
 20
72.772
 30
0.0
 11
7.993
 21
73.025
 31
0.0
  0
LINE
  5
DB3
330
A35
100
AcDbEntity
  8
0
100
AcDbLine
 10
10.288
 20
69.753
 30
0.0
 11
10.221
 21
69.796
 31
0.0
  0
LINE
  5
DB4
330
A35
100
AcDbEntity
  8
0
100
AcDbLine
 10
10.288
 20
69.917
 30
0.0
 11
10.221
 21
69.952
 31
0.0
  0
LINE
  5
DB5
330
A35
100
AcDbEntity
  8
0
100
AcDbLine
 10
10.221
 20
69.952
 30
0.0
 11
10.068
 21
69.819
 31
0.0
  0
LINE
  5
DB6
330
A35
100
AcDbEntity
  8
0
100
AcDbLine
 10
10.154
 20
69.796
 30
0.0
 11
10.288
 21
69.917
 31
0.0
  0
LINE
  5
DB7
330
A35
100
AcDbEntity
  8
0
100
AcDbLine
 10
10.299
 20
69.487
 30
0.0
 11
10.166
 21
69.378
 31
0.0
  0
LINE
  5
DB8
330
A35
100
AcDbEntity
  8
0
100
AcDbLine
 10
10.154
 20
69.796
 30
0.0
 11
10.068
 21
69.819
 31
0.0
  0
LINE
  5
DB9
330
A35
100
AcDbEntity
  8
0
100
AcDbLine
 10
9.989
 20
69.917
 30
0.0
 11
10.142
 21
70.05
 31
0.0
  0
LINE
  5
DBA
330
A35
100
AcDbEntity
  8
0
100
AcDbLine
 10
10.134
 20
70.128
 30
0.0
 11
9.989
 21
69.995
 31
0.0
  0
LINE
  5
DBB
330
A35
100
AcDbEntity
  8
0
100
AcDbLine
 10
10.142
 20
70.05
 30
0.0
 11
10.134
 21
70.128
 31
0.0
  0
LINE
  5
DBC
330
A35
100
AcDbEntity
  8
0
100
AcDbLine
 10
10.154
 20
69.796
 30
0.0
 11
10.154
 21
69.765
 31
0.0
  0
LINE
  5
DBD
330
A35
100
AcDbEntity
  8
0
100
AcDbLine
 10
10.166
 20
69.788
 30
0.0
 11
10.044
 21
69.675
 31
0.0
  0
LINE
  5
DBE
330
A35
100
AcDbEntity
  8
0
100
AcDbLine
 10
9.989
 20
70.097
 30
0.0
 11
9.977
 21
70.171
 31
0.0
  0
LINE
  5
DBF
330
A35
100
AcDbEntity
  8
0
100
AcDbLine
 10
9.667
 20
70.206
 30
0.0
 11
9.545
 21
70.097
 31
0.0
  0
LINE
  5
DC0
330
A35
100
AcDbEntity
  8
0
100
AcDbLine
 10
9.812
 20
70.05
 30
0.0
 11
9.899
 21
70.038
 31
0.0
  0
LINE
  5
DC1
330
A35
100
AcDbEntity
  8
0
100
AcDbLine
 10
9.989
 20
69.995
 30
0.0
 11
9.989
 21
69.917
 31
0.0
  0
LINE
  5
DC2
330
A35
100
AcDbEntity
  8
0
100
AcDbLine
 10
9.989
 20
69.995
 30
0.0
 11
9.922
 21
70.018
 31
0.0
  0
LINE
  5
DC3
330
A35
100
AcDbEntity
  8
0
100
AcDbLine
 10
9.965
 20
70.05
 30
0.0
 11
9.812
 21
69.917
 31
0.0
  0
LINE
  5
DC4
330
A35
100
AcDbEntity
  8
0
100
AcDbLine
 10
9.812
 20
69.897
 30
0.0
 11
9.899
 21
69.886
 31
0.0
  0
LINE
  5
DC5
330
A35
100
AcDbEntity
  8
0
100
AcDbLine
 10
10.288
 20
69.765
 30
0.0
 11
10.288
 21
69.917
 31
0.0
  0
LINE
  5
DC6
330
A35
100
AcDbEntity
  8
0
100
AcDbLine
 10
10.221
 20
69.796
 30
0.0
 11
10.166
 21
69.796
 31
0.0
  0
LINE
  5
DC7
330
A35
100
AcDbEntity
  8
0
100
AcDbLine
 10
10.134
 20
70.128
 30
0.0
 11
9.977
 21
70.171
 31
0.0
  0
LINE
  5
DC8
330
A35
100
AcDbEntity
  8
0
100
AcDbLine
 10
10.134
 20
69.655
 30
0.0
 11
9.977
 21
69.698
 31
0.0
  0
LINE
  5
DC9
330
A35
100
AcDbEntity
  8
0
100
AcDbLine
 10
9.977
 20
70.061
 30
0.0
 11
9.989
 21
70.104
 31
0.0
  0
LINE
  5
DCA
330
A35
100
AcDbEntity
  8
0
100
AcDbLine
 10
9.812
 20
69.909
 30
0.0
 11
9.812
 21
70.061
 31
0.0
  0
LINE
  5
DCB
330
A35
100
AcDbEntity
  8
0
100
AcDbLine
 10
9.989
 20
69.788
 30
0.0
 11
9.899
 21
69.897
 31
0.0
  0
LINE
  5
DCC
330
A35
100
AcDbEntity
  8
0
100
AcDbLine
 10
9.977
 20
69.433
 30
0.0
 11
10.299
 21
69.487
 31
0.0
  0
LINE
  5
DCD
330
A35
100
AcDbEntity
  8
0
100
AcDbLine
 10
10.221
 20
69.952
 30
0.0
 11
10.142
 21
70.05
 31
0.0
  0
LINE
  5
DCE
330
A35
100
AcDbEntity
  8
0
100
AcDbLine
 10
10.142
 20
69.729
 30
0.0
 11
10.134
 21
69.643
 31
0.0
  0
LINE
  5
DCF
330
A35
100
AcDbEntity
  8
0
100
AcDbLine
 10
10.142
 20
69.729
 30
0.0
 11
10.166
 21
69.788
 31
0.0
  0
LINE
  5
DD0
330
A35
100
AcDbEntity
  8
0
100
AcDbLine
 10
9.856
 20
69.323
 30
0.0
 11
10.166
 21
69.378
 31
0.0
  0
LINE
  5
DD1
330
A35
100
AcDbEntity
  8
0
100
AcDbLine
 10
9.6
 20
69.788
 30
0.0
 11
9.977
 21
69.433
 31
0.0
  0
LINE
  5
DD2
330
A35
100
AcDbEntity
  8
0
100
AcDbLine
 10
9.588
 20
70.097
 30
0.0
 11
9.6
 21
69.788
 31
0.0
  0
LINE
  5
DD3
330
A35
100
AcDbEntity
  8
0
100
AcDbLine
 10
9.667
 20
70.206
 30
0.0
 11
9.588
 21
70.097
 31
0.0
  0
LINE
  5
DD4
330
A35
100
AcDbEntity
  8
0
100
AcDbLine
 10
9.965
 20
70.05
 30
0.0
 11
9.899
 21
70.038
 31
0.0
  0
LINE
  5
DD5
330
A35
100
AcDbEntity
  8
0
100
AcDbLine
 10
9.989
 20
69.917
 30
0.0
 11
10.068
 21
69.819
 31
0.0
  0
LINE
  5
DD6
330
A35
100
AcDbEntity
  8
0
100
AcDbLine
 10
9.478
 20
69.675
 30
0.0
 11
9.856
 21
69.323
 31
0.0
  0
LINE
  5
DD7
330
A35
100
AcDbEntity
  8
0
100
AcDbLine
 10
9.455
 20
69.983
 30
0.0
 11
9.478
 21
69.675
 31
0.0
  0
LINE
  5
DD8
330
A35
100
AcDbEntity
  8
0
100
AcDbLine
 10
9.545
 20
70.097
 30
0.0
 11
9.455
 21
69.983
 31
0.0
  0
LINE
  5
DD9
330
A35
100
AcDbEntity
  8
0
100
AcDbLine
 10
10.41
 20
69.776
 30
0.0
 11
10.299
 21
69.487
 31
0.0
  0
LINE
  5
DDA
330
A35
100
AcDbEntity
  8
0
100
AcDbLine
 10
10.276
 20
70.097
 30
0.0
 11
10.41
 21
69.776
 31
0.0
  0
LINE
  5
DDB
330
A35
100
AcDbEntity
  8
0
100
AcDbLine
 10
10.009
 20
70.272
 30
0.0
 11
10.276
 21
70.097
 31
0.0
  0
LINE
  5
DDC
330
A35
100
AcDbEntity
  8
0
100
AcDbLine
 10
9.667
 20
70.206
 30
0.0
 11
10.009
 21
70.272
 31
0.0
  0
LINE
  5
DDD
330
A35
100
AcDbEntity
  8
0
100
AcDbLine
 10
9.977
 20
69.686
 30
0.0
 11
9.989
 21
69.788
 31
0.0
  0
LINE
  5
DDE
330
A35
100
AcDbEntity
  8
0
100
AcDbLine
 10
36.983
 20
73.193
 30
0.0
 11
39.333
 21
73.357
 31
0.0
  0
LINE
  5
DDF
330
A35
100
AcDbEntity
  8
0
100
AcDbLine
 10
39.333
 20
73.357
 30
0.0
 11
39.388
 21
73.412
 31
0.0
  0
LINE
  5
DE0
330
A35
100
AcDbEntity
  8
0
100
AcDbLine
 10
39.699
 20
73.236
 30
0.0
 11
39.758
 21
73.279
 31
0.0
  0
LINE
  5
DE1
330
A35
100
AcDbEntity
  8
0
100
AcDbLine
 10
43.781
 20
71.651
 30
0.0
 11
43.738
 21
71.506
 31
0.0
  0
LINE
  5
DE2
330
A35
100
AcDbEntity
  8
0
100
AcDbLine
 10
43.215
 20
72.662
 30
0.0
 11
43.082
 21
73.061
 31
0.0
  0
LINE
  5
DE3
330
A35
100
AcDbEntity
  8
0
100
AcDbLine
 10
37.039
 20
73.248
 30
0.0
 11
36.983
 21
73.193
 31
0.0
  0
LINE
  5
DE4
330
A35
100
AcDbEntity
  8
0
100
AcDbLine
 10
40.367
 20
72.74
 30
0.0
 11
40.422
 21
72.783
 31
0.0
  0
LINE
  5
DE5
330
A35
100
AcDbEntity
  8
0
100
AcDbLine
 10
40.61
 20
72.401
 30
0.0
 11
40.653
 21
72.268
 31
0.0
  0
LINE
  5
DE6
330
A35
100
AcDbEntity
  8
0
100
AcDbLine
 10
40.61
 20
72.401
 30
0.0
 11
40.665
 21
72.444
 31
0.0
  0
LINE
  5
DE7
330
A35
100
AcDbEntity
  8
0
100
AcDbLine
 10
40.665
 20
72.444
 30
0.0
 11
40.708
 21
72.311
 31
0.0
  0
LINE
  5
DE8
330
A35
100
AcDbEntity
  8
0
100
AcDbLine
 10
43.612
 20
71.362
 30
0.0
 11
43.671
 21
71.416
 31
0.0
  0
LINE
  5
DE9
330
A35
100
AcDbEntity
  8
0
100
AcDbLine
 10
43.337
 20
71.416
 30
0.0
 11
43.282
 21
71.374
 31
0.0
  0
LINE
  5
DEA
330
A35
100
AcDbEntity
  8
0
100
AcDbLine
 10
43.038
 20
71.592
 30
0.0
 11
42.991
 21
71.538
 31
0.0
  0
LINE
  5
DEB
330
A35
100
AcDbEntity
  8
0
100
AcDbLine
 10
40.708
 20
72.311
 30
0.0
 11
40.653
 21
72.268
 31
0.0
  0
LINE
  5
DEC
330
A35
100
AcDbEntity
  8
0
100
AcDbLine
 10
42.991
 20
71.538
 30
0.0
 11
43.282
 21
71.374
 31
0.0
  0
LINE
  5
DED
330
A35
100
AcDbEntity
  8
0
100
AcDbLine
 10
42.936
 20
71.495
 30
0.0
 11
42.991
 21
71.538
 31
0.0
  0
LINE
  5
DEE
330
A35
100
AcDbEntity
  8
0
100
AcDbLine
 10
43.337
 20
71.416
 30
0.0
 11
43.038
 21
71.592
 31
0.0
  0
LINE
  5
DEF
330
A35
100
AcDbEntity
  8
0
100
AcDbLine
 10
43.282
 20
72.287
 30
0.0
 11
43.569
 21
72.112
 31
0.0
  0
LINE
  5
DF0
330
A35
100
AcDbEntity
  8
0
100
AcDbLine
 10
40.422
 20
72.783
 30
0.0
 11
39.758
 21
73.279
 31
0.0
  0
LINE
  5
DF1
330
A35
100
AcDbEntity
  8
0
100
AcDbLine
 10
39.699
 20
73.236
 30
0.0
 11
40.367
 21
72.74
 31
0.0
  0
LINE
  5
DF2
330
A35
100
AcDbEntity
  8
0
100
AcDbLine
 10
39.899
 20
75.728
 30
0.0
 11
39.868
 21
75.826
 31
0.0
  0
LINE
  5
DF3
330
A35
100
AcDbEntity
  8
0
100
AcDbLine
 10
36.775
 20
73.092
 30
0.0
 11
35.498
 21
70.999
 31
0.0
  0
LINE
  5
DF4
330
A35
100
AcDbEntity
  8
0
100
AcDbLine
 10
39.899
 20
75.728
 30
0.0
 11
42.673
 21
73.635
 31
0.0
  0
LINE
  5
DF5
330
A35
100
AcDbEntity
  8
0
100
AcDbLine
 10
39.765
 20
75.915
 30
0.0
 11
33.105
 21
75.451
 31
0.0
  0
LINE
  5
DF6
330
A35
100
AcDbEntity
  8
0
100
AcDbLine
 10
34.457
 20
69.964
 30
0.0
 11
35.467
 21
70.038
 31
0.0
  0
LINE
  5
DF7
330
A35
100
AcDbEntity
  8
0
100
AcDbLine
 10
35.832
 20
69.909
 30
0.0
 11
36.496
 21
69.413
 31
0.0
  0
LINE
  5
DF8
330
A35
100
AcDbEntity
  8
0
100
AcDbLine
 10
12.661
 20
71.155
 30
0.0
 11
12.626
 21
71.108
 31
0.0
  0
LINE
  5
DF9
330
A35
100
AcDbEntity
  8
0
100
AcDbLine
 10
5.722
 20
69.542
 30
0.0
 11
4.469
 21
73.357
 31
0.0
  0
LINE
  5
DFA
330
A35
100
AcDbEntity
  8
0
100
AcDbLine
 10
5.266
 20
70.69
 30
0.0
 11
5.663
 21
69.499
 31
0.0
  0
LINE
  5
DFB
330
A35
100
AcDbEntity
  8
0
100
AcDbLine
 10
5.077
 20
71.276
 30
0.0
 11
4.413
 21
73.314
 31
0.0
  0
LINE
  5
DFC
330
A35
100
AcDbEntity
  8
0
100
AcDbLine
 10
4.378
 20
73.459
 30
0.0
 11
4.822
 21
73.49
 31
0.0
  0
LINE
  5
DFD
330
A35
100
AcDbEntity
  8
0
100
AcDbLine
 10
5.077
 20
71.276
 30
0.0
 11
5.266
 21
70.69
 31
0.0
  0
LINE
  5
DFE
330
A35
100
AcDbEntity
  8
0
100
AcDbLine
 10
4.39
 20
73.346
 30
0.0
 11
4.367
 21
73.334
 31
0.0
  0
LINE
  5
DFF
330
A35
100
AcDbEntity
  8
0
100
AcDbLine
 10
4.367
 20
73.334
 30
0.0
 11
4.378
 21
73.346
 31
0.0
  0
LINE
  5
E00
330
A35
100
AcDbEntity
  8
0
100
AcDbLine
 10
4.335
 20
73.435
 30
0.0
 11
0.531
 21
70.159
 31
0.0
  0
LINE
  5
E01
330
A35
100
AcDbEntity
  8
0
100
AcDbLine
 10
1.553
 20
70.218
 30
0.0
 11
4.578
 21
72.818
 31
0.0
  0
LINE
  5
E02
330
A35
100
AcDbEntity
  8
0
100
AcDbLine
 10
4.367
 20
73.334
 30
0.0
 11
0.567
 21
70.061
 31
0.0
  0
LINE
  5
E03
330
A35
100
AcDbEntity
  8
0
100
AcDbLine
 10
37.039
 20
73.248
 30
0.0
 11
39.388
 21
73.412
 31
0.0
  0
LINE
  5
E04
330
A35
100
AcDbEntity
  8
0
100
AcDbLine
 10
13.058
 20
74.064
 30
0.0
 11
10.421
 21
73.877
 31
0.0
  0
LINE
  5
E05
330
A35
100
AcDbEntity
  8
0
100
AcDbLine
 10
35.345
 20
70.823
 30
0.0
 11
35.4
 21
70.877
 31
0.0
  0
LINE
  5
E06
330
A35
100
AcDbEntity
  8
0
100
AcDbLine
 10
35.832
 20
69.909
 30
0.0
 11
35.777
 21
69.862
 31
0.0
  0
LINE
  5
E07
330
A35
100
AcDbEntity
  8
0
100
AcDbLine
 10
36.441
 20
69.366
 30
0.0
 11
36.496
 21
69.413
 31
0.0
  0
LINE
  5
E08
330
A35
100
AcDbEntity
  8
0
100
AcDbLine
 10
36.441
 20
69.366
 30
0.0
 11
35.777
 21
69.862
 31
0.0
  0
LINE
  5
E09
330
A35
100
AcDbEntity
  8
0
100
AcDbLine
 10
35.467
 20
70.038
 30
0.0
 11
35.412
 21
69.983
 31
0.0
  0
LINE
  5
E0A
330
A35
100
AcDbEntity
  8
0
100
AcDbLine
 10
35.412
 20
69.983
 30
0.0
 11
34.402
 21
69.917
 31
0.0
  0
LINE
  5
E0B
330
A35
100
AcDbEntity
  8
0
100
AcDbLine
 10
40.775
 20
72.123
 30
0.0
 11
40.83
 21
72.178
 31
0.0
  0
LINE
  5
E0C
330
A35
100
AcDbEntity
  8
0
100
AcDbLine
 10
40.83
 20
72.178
 30
0.0
 11
41.097
 21
72.045
 31
0.0
  0
LINE
  5
E0D
330
A35
100
AcDbEntity
  8
0
100
AcDbLine
 10
41.054
 20
71.99
 30
0.0
 11
40.775
 21
72.123
 31
0.0
  0
LINE
  5
E0E
330
A35
100
AcDbEntity
  8
0
100
AcDbLine
 10
37.506
 20
71.198
 30
0.0
 11
36.221
 21
72.178
 31
0.0
  0
LINE
  5
E0F
330
A35
100
AcDbEntity
  8
0
100
AcDbLine
 10
10.708
 20
69.046
 30
0.0
 11
6.74
 21
68.773
 31
0.0
  0
LINE
  5
E10
330
A35
100
AcDbEntity
  8
0
100
AcDbLine
 10
6.685
 20
68.73
 30
0.0
 11
10.72
 21
69.003
 31
0.0
  0
LINE
  5
E11
330
A35
100
AcDbEntity
  8
0
100
AcDbLine
 10
1.742
 20
66.125
 30
0.0
 11
0.5
 21
69.94
 31
0.0
  0
LINE
  5
E12
330
A35
100
AcDbEntity
  8
0
100
AcDbLine
 10
6.685
 20
68.73
 30
0.0
 11
6.74
 21
68.773
 31
0.0
  0
LINE
  5
E13
330
A35
100
AcDbEntity
  8
0
100
AcDbLine
 10
5.722
 20
69.542
 30
0.0
 11
5.663
 21
69.499
 31
0.0
  0
LINE
  5
E14
330
A35
100
AcDbEntity
  8
0
100
AcDbLine
 10
6.441
 20
69.675
 30
0.0
 11
6.539
 21
69.686
 31
0.0
  0
LINE
  5
E15
330
A35
100
AcDbEntity
  8
0
100
AcDbLine
 10
6.441
 20
69.675
 30
0.0
 11
6.284
 21
70.171
 31
0.0
  0
LINE
  5
E16
330
A35
100
AcDbEntity
  8
0
100
AcDbLine
 10
7.549
 20
69.753
 30
0.0
 11
7.651
 21
69.765
 31
0.0
  0
LINE
  5
E17
330
A35
100
AcDbEntity
  8
0
100
AcDbLine
 10
4.81
 20
69.765
 30
0.0
 11
4.567
 21
69.741
 31
0.0
  0
LINE
  5
E18
330
A35
100
AcDbEntity
  8
0
100
AcDbLine
 10
7.463
 20
69.909
 30
0.0
 11
7.506
 21
69.753
 31
0.0
  0
LINE
  5
E19
330
A35
100
AcDbEntity
  8
0
100
AcDbLine
 10
7.549
 20
69.753
 30
0.0
 11
6.539
 21
69.686
 31
0.0
  0
LINE
  5
E1A
330
A35
100
AcDbEntity
  8
0
100
AcDbLine
 10
7.671
 20
69.862
 30
0.0
 11
7.506
 21
70.358
 31
0.0
  0
LINE
  5
E1B
330
A35
100
AcDbEntity
  8
0
100
AcDbLine
 10
1.31
 20
70.03
 30
0.0
 11
1.31
 21
70.038
 31
0.0
  0
LINE
  5
E1C
330
A35
100
AcDbEntity
  8
0
100
AcDbLine
 10
1.317
 20
70.116
 30
0.0
 11
1.329
 21
70.128
 31
0.0
  0
LINE
  5
E1D
330
A35
100
AcDbEntity
  8
0
100
AcDbLine
 10
1.317
 20
70.116
 30
0.0
 11
0.567
 21
70.061
 31
0.0
  0
LINE
  5
E1E
330
A35
100
AcDbEntity
  8
0
100
AcDbLine
 10
1.553
 20
70.218
 30
0.0
 11
1.73
 21
70.097
 31
0.0
  0
LINE
  5
E1F
330
A35
100
AcDbEntity
  8
0
100
AcDbLine
 10
0.555
 20
69.983
 30
0.0
 11
1.796
 21
66.172
 31
0.0
  0
LINE
  5
E20
330
A35
100
AcDbEntity
  8
0
100
AcDbLine
 10
12.661
 20
71.155
 30
0.0
 11
12.681
 21
71.163
 31
0.0
  0
LINE
  5
E21
330
A35
100
AcDbEntity
  8
0
100
AcDbLine
 10
6.685
 20
65.617
 30
0.0
 11
2.771
 21
65.356
 31
0.0
  0
LINE
  5
E22
330
A35
100
AcDbEntity
  8
0
100
AcDbLine
 10
2.826
 20
65.398
 30
0.0
 11
6.661
 21
65.664
 31
0.0
  0
LINE
  5
E23
330
A35
100
AcDbEntity
  8
0
100
AcDbLine
 10
2.826
 20
65.398
 30
0.0
 11
2.771
 21
65.356
 31
0.0
  0
LINE
  5
E24
330
A35
100
AcDbEntity
  8
0
100
AcDbLine
 10
1.797
 20
66.172
 30
0.0
 11
1.742
 21
66.125
 31
0.0
  0
LINE
  5
E25
330
A35
100
AcDbEntity
  8
0
100
AcDbLine
 10
43.679
 20
71.416
 30
0.0
 11
43.746
 21
71.518
 31
0.0
  0
LINE
  5
E26
330
A35
100
AcDbEntity
  8
0
100
AcDbLine
 10
43.282
 20
72.287
 30
0.0
 11
43.215
 21
72.674
 31
0.0
  0
LINE
  5
E27
330
A35
100
AcDbEntity
  8
0
100
AcDbLine
 10
40.653
 20
72.276
 30
0.0
 11
40.775
 21
72.135
 31
0.0
  0
LINE
  5
E28
330
A35
100
AcDbEntity
  8
0
100
AcDbLine
 10
40.708
 20
72.323
 30
0.0
 11
40.83
 21
72.178
 31
0.0
  0
LINE
  5
E29
330
A35
100
AcDbEntity
  8
0
100
AcDbLine
 10
4.367
 20
73.467
 30
0.0
 11
4.335
 21
73.447
 31
0.0
  0
LINE
  5
E2A
330
A35
100
AcDbEntity
  8
0
100
AcDbLine
 10
36.842
 20
73.17
 30
0.0
 11
36.775
 21
73.092
 31
0.0
  0
LINE
  5
E2B
330
A35
100
AcDbEntity
  8
0
100
AcDbLine
 10
35.4
 20
70.877
 30
0.0
 11
35.51
 21
70.999
 31
0.0
  0
LINE
  5
E2C
330
A35
100
AcDbEntity
  8
0
100
AcDbLine
 10
12.681
 20
71.174
 30
0.0
 11
12.759
 21
71.217
 31
0.0
  0
LINE
  5
E2D
330
A35
100
AcDbEntity
  8
0
100
AcDbLine
 10
39.333
 20
73.357
 30
0.0
 11
39.699
 21
73.236
 31
0.0
  0
LINE
  5
E2E
330
A35
100
AcDbEntity
  8
0
100
AcDbLine
 10
42.673
 20
73.635
 30
0.0
 11
43.082
 21
73.061
 31
0.0
  0
LINE
  5
E2F
330
A35
100
AcDbEntity
  8
0
100
AcDbLine
 10
43.757
 20
71.901
 30
0.0
 11
43.781
 21
71.651
 31
0.0
  0
LINE
  5
E30
330
A35
100
AcDbEntity
  8
0
100
AcDbLine
 10
43.569
 20
72.112
 30
0.0
 11
43.757
 21
71.901
 31
0.0
  0
LINE
  5
E31
330
A35
100
AcDbEntity
  8
0
100
AcDbLine
 10
36.818
 20
73.139
 30
0.0
 11
36.983
 21
73.193
 31
0.0
  0
LINE
  5
E32
330
A35
100
AcDbEntity
  8
0
100
AcDbLine
 10
43.671
 20
71.416
 30
0.0
 11
43.337
 21
71.416
 31
0.0
  0
LINE
  5
E33
330
A35
100
AcDbEntity
  8
0
100
AcDbLine
 10
43.612
 20
71.362
 30
0.0
 11
43.282
 21
71.374
 31
0.0
  0
LINE
  5
E34
330
A35
100
AcDbEntity
  8
0
100
AcDbLine
 10
42.029
 20
72.311
 30
0.0
 11
41.808
 21
72.565
 31
0.0
  0
LINE
  5
E35
330
A35
100
AcDbEntity
  8
0
100
AcDbLine
 10
42.241
 20
72.299
 30
0.0
 11
42.029
 21
72.311
 31
0.0
  0
LINE
  5
E36
330
A35
100
AcDbEntity
  8
0
100
AcDbLine
 10
40.422
 20
72.783
 30
0.0
 11
40.665
 21
72.444
 31
0.0
  0
LINE
  5
E37
330
A35
100
AcDbEntity
  8
0
100
AcDbLine
 10
40.367
 20
72.74
 30
0.0
 11
40.61
 21
72.401
 31
0.0
  0
LINE
  5
E38
330
A35
100
AcDbEntity
  8
0
100
AcDbLine
 10
39.765
 20
75.915
 30
0.0
 11
39.868
 21
75.826
 31
0.0
  0
LINE
  5
E39
330
A35
100
AcDbEntity
  8
0
100
AcDbLine
 10
41.808
 20
72.565
 30
0.0
 11
41.816
 21
72.783
 31
0.0
  0
LINE
  5
E3A
330
A35
100
AcDbEntity
  8
0
100
AcDbLine
 10
35.467
 20
70.038
 30
0.0
 11
35.832
 21
69.909
 31
0.0
  0
LINE
  5
E3B
330
A35
100
AcDbEntity
  8
0
100
AcDbLine
 10
4.413
 20
73.314
 30
0.0
 11
4.378
 21
73.346
 31
0.0
  0
LINE
  5
E3C
330
A35
100
AcDbEntity
  8
0
100
AcDbLine
 10
4.378
 20
73.459
 30
0.0
 11
4.469
 21
73.357
 31
0.0
  0
LINE
  5
E3D
330
A35
100
AcDbEntity
  8
0
100
AcDbLine
 10
36.842
 20
73.17
 30
0.0
 11
37.039
 21
73.248
 31
0.0
  0
LINE
  5
E3E
330
A35
100
AcDbEntity
  8
0
100
AcDbLine
 10
39.388
 20
73.412
 30
0.0
 11
39.758
 21
73.279
 31
0.0
  0
LINE
  5
E3F
330
A35
100
AcDbEntity
  8
0
100
AcDbLine
 10
42.936
 20
71.495
 30
0.0
 11
42.472
 21
71.296
 31
0.0
  0
LINE
  5
E40
330
A35
100
AcDbEntity
  8
0
100
AcDbLine
 10
42.991
 20
71.538
 30
0.0
 11
42.472
 21
71.342
 31
0.0
  0
LINE
  5
E41
330
A35
100
AcDbEntity
  8
0
100
AcDbLine
 10
36.496
 20
69.413
 30
0.0
 11
36.642
 21
69.269
 31
0.0
  0
LINE
  5
E42
330
A35
100
AcDbEntity
  8
0
100
AcDbLine
 10
36.441
 20
69.366
 30
0.0
 11
36.642
 21
69.136
 31
0.0
  0
LINE
  5
E43
330
A35
100
AcDbEntity
  8
0
100
AcDbLine
 10
35.345
 20
70.823
 30
0.0
 11
35.176
 21
70.721
 31
0.0
  0
LINE
  5
E44
330
A35
100
AcDbEntity
  8
0
100
AcDbLine
 10
35.4
 20
70.877
 30
0.0
 11
35.164
 21
70.756
 31
0.0
  0
LINE
  5
E45
330
A35
100
AcDbEntity
  8
0
100
AcDbLine
 10
35.412
 20
69.983
 30
0.0
 11
35.777
 21
69.862
 31
0.0
  0
LINE
  5
E46
330
A35
100
AcDbEntity
  8
0
100
AcDbLine
 10
6.075
 20
68.925
 30
0.0
 11
5.663
 21
69.499
 31
0.0
  0
LINE
  5
E47
330
A35
100
AcDbEntity
  8
0
100
AcDbLine
 10
6.685
 20
68.73
 30
0.0
 11
6.075
 21
68.925
 31
0.0
  0
LINE
  5
E48
330
A35
100
AcDbEntity
  8
0
100
AcDbLine
 10
6.131
 20
68.972
 30
0.0
 11
5.722
 21
69.542
 31
0.0
  0
LINE
  5
E49
330
A35
100
AcDbEntity
  8
0
100
AcDbLine
 10
6.74
 20
68.773
 30
0.0
 11
6.131
 21
68.972
 31
0.0
  0
LINE
  5
E4A
330
A35
100
AcDbEntity
  8
0
100
AcDbLine
 10
0.5
 20
69.94
 30
0.0
 11
0.531
 21
70.159
 31
0.0
  0
LINE
  5
E4B
330
A35
100
AcDbEntity
  8
0
100
AcDbLine
 10
7.651
 20
69.765
 30
0.0
 11
7.671
 21
69.862
 31
0.0
  0
LINE
  5
E4C
330
A35
100
AcDbEntity
  8
0
100
AcDbLine
 10
7.561
 20
69.831
 30
0.0
 11
7.549
 21
69.753
 31
0.0
  0
LINE
  5
E4D
330
A35
100
AcDbEntity
  8
0
100
AcDbLine
 10
7.038
 20
70.436
 30
0.0
 11
6.284
 21
70.171
 31
0.0
  0
LINE
  5
E4E
330
A35
100
AcDbEntity
  8
0
100
AcDbLine
 10
7.361
 20
70.448
 30
0.0
 11
7.038
 21
70.436
 31
0.0
  0
LINE
  5
E4F
330
A35
100
AcDbEntity
  8
0
100
AcDbLine
 10
7.506
 20
70.358
 30
0.0
 11
7.361
 21
70.448
 31
0.0
  0
LINE
  5
E50
330
A35
100
AcDbEntity
  8
0
100
AcDbLine
 10
1.31
 20
70.03
 30
0.0
 11
1.475
 21
69.874
 31
0.0
  0
LINE
  5
E51
330
A35
100
AcDbEntity
  8
0
100
AcDbLine
 10
0.567
 20
70.061
 30
0.0
 11
0.555
 21
69.983
 31
0.0
  0
LINE
  5
E52
330
A35
100
AcDbEntity
  8
0
100
AcDbLine
 10
1.317
 20
70.116
 30
0.0
 11
1.31
 21
70.038
 31
0.0
  0
LINE
  5
E53
330
A35
100
AcDbEntity
  8
0
100
AcDbLine
 10
1.553
 20
70.218
 30
0.0
 11
1.329
 21
70.128
 31
0.0
  0
LINE
  5
E54
330
A35
100
AcDbEntity
  8
0
100
AcDbLine
 10
7.196
 20
69.952
 30
0.0
 11
6.441
 21
69.675
 31
0.0
  0
LINE
  5
E55
330
A35
100
AcDbEntity
  8
0
100
AcDbLine
 10
7.518
 20
69.952
 30
0.0
 11
7.196
 21
69.952
 31
0.0
  0
LINE
  5
E56
330
A35
100
AcDbEntity
  8
0
100
AcDbLine
 10
7.671
 20
69.862
 30
0.0
 11
7.518
 21
69.952
 31
0.0
  0
LINE
  5
E57
330
A35
100
AcDbEntity
  8
0
100
AcDbLine
 10
7.172
 20
69.909
 30
0.0
 11
7.561
 21
69.831
 31
0.0
  0
LINE
  5
E58
330
A35
100
AcDbEntity
  8
0
100
AcDbLine
 10
6.539
 20
69.686
 30
0.0
 11
7.172
 21
69.909
 31
0.0
  0
LINE
  5
E59
330
A35
100
AcDbEntity
  8
0
100
AcDbLine
 10
12.814
 20
71.651
 30
0.0
 11
12.606
 21
72.002
 31
0.0
  0
LINE
  5
E5A
330
A35
100
AcDbEntity
  8
0
100
AcDbLine
 10
12.728
 20
71.186
 30
0.0
 11
12.814
 21
71.651
 31
0.0
  0
LINE
  5
E5B
330
A35
100
AcDbEntity
  8
0
100
AcDbLine
 10
12.661
 20
71.155
 30
0.0
 11
12.638
 21
71.108
 31
0.0
  0
LINE
  5
E5C
330
A35
100
AcDbEntity
  8
0
100
AcDbLine
 10
11.961
 20
71.065
 30
0.0
 11
11.883
 21
71.108
 31
0.0
  0
LINE
  5
E5D
330
A35
100
AcDbEntity
  8
0
100
AcDbLine
 10
11.498
 20
71.374
 30
0.0
 11
11.883
 21
71.108
 31
0.0
  0
LINE
  5
E5E
330
A35
100
AcDbEntity
  8
0
100
AcDbLine
 10
11.329
 20
71.694
 30
0.0
 11
11.498
 21
71.374
 31
0.0
  0
LINE
  5
E5F
330
A35
100
AcDbEntity
  8
0
100
AcDbLine
 10
12.869
 20
71.682
 30
0.0
 11
12.583
 21
72.123
 31
0.0
  0
LINE
  5
E60
330
A35
100
AcDbEntity
  8
0
100
AcDbLine
 10
12.893
 20
71.506
 30
0.0
 11
12.869
 21
71.682
 31
0.0
  0
LINE
  5
E61
330
A35
100
AcDbEntity
  8
0
100
AcDbLine
 10
12.748
 20
71.21
 30
0.0
 11
12.893
 21
71.506
 31
0.0
  0
LINE
  5
E62
330
A35
100
AcDbEntity
  8
0
100
AcDbLine
 10
2.205
 20
65.598
 30
0.0
 11
1.796
 21
66.172
 31
0.0
  0
LINE
  5
E63
330
A35
100
AcDbEntity
  8
0
100
AcDbLine
 10
2.826
 20
65.398
 30
0.0
 11
2.205
 21
65.598
 31
0.0
  0
LINE
  5
E64
330
A35
100
AcDbEntity
  8
0
100
AcDbLine
 10
2.15
 20
65.555
 30
0.0
 11
1.742
 21
66.125
 31
0.0
  0
LINE
  5
E65
330
A35
100
AcDbEntity
  8
0
100
AcDbLine
 10
2.351
 20
65.43
 30
0.0
 11
2.15
 21
65.555
 31
0.0
  0
LINE
  5
E66
330
A35
100
AcDbEntity
  8
0
100
AcDbLine
 10
2.771
 20
65.356
 30
0.0
 11
2.351
 21
65.43
 31
0.0
  0
LINE
  5
E67
330
A35
100
AcDbEntity
  8
0
100
AcDbLine
 10
33.879
 20
74.701
 30
0.0
 11
35.164
 21
70.78
 31
0.0
  0
LINE
  5
E68
330
A35
100
AcDbEntity
  8
0
100
AcDbLine
 10
13.148
 20
71.959
 30
0.0
 11
12.748
 21
73.193
 31
0.0
  0
LINE
  5
E69
330
A35
100
AcDbEntity
  8
0
100
AcDbLine
 10
12.795
 20
73.236
 30
0.0
 11
13.191
 21
72.002
 31
0.0
  0
LINE
  5
E6A
330
A35
100
AcDbEntity
  8
0
100
AcDbLine
 10
13.282
 20
74.119
 30
0.0
 11
32.861
 21
75.474
 31
0.0
  0
LINE
  5
E6B
330
A35
100
AcDbEntity
  8
0
100
AcDbLine
 10
12.936
 20
73.986
 30
0.0
 11
12.893
 21
73.943
 31
0.0
  0
LINE
  5
E6C
330
A35
100
AcDbEntity
  8
0
100
AcDbLine
 10
12.795
 20
73.236
 30
0.0
 11
12.748
 21
73.193
 31
0.0
  0
LINE
  5
E6D
330
A35
100
AcDbEntity
  8
0
100
AcDbLine
 10
31.121
 20
67.14
 30
0.0
 11
31.286
 21
67.261
 31
0.0
  0
LINE
  5
E6E
330
A35
100
AcDbEntity
  8
0
100
AcDbLine
 10
35.089
 20
70.514
 30
0.0
 11
35.231
 21
70.756
 31
0.0
  0
LINE
  5
E6F
330
A35
100
AcDbEntity
  8
0
100
AcDbLine
 10
35.089
 20
70.514
 30
0.0
 11
35.078
 21
70.503
 31
0.0
  0
LINE
  5
E70
330
A35
100
AcDbEntity
  8
0
100
AcDbLine
 10
33.117
 20
71.694
 30
0.0
 11
32.316
 21
71.639
 31
0.0
  0
LINE
  5
E71
330
A35
100
AcDbEntity
  8
0
100
AcDbLine
 10
35.078
 20
70.503
 30
0.0
 11
31.329
 21
67.273
 31
0.0
  0
LINE
  5
E72
330
A35
100
AcDbEntity
  8
0
100
AcDbLine
 10
6.85
 20
65.555
 30
0.0
 11
6.818
 21
65.555
 31
0.0
  0
LINE
  5
E73
330
A35
100
AcDbEntity
  8
0
100
AcDbLine
 10
6.661
 20
65.676
 30
0.0
 11
6.52
 21
66.125
 31
0.0
  0
LINE
  5
E74
330
A35
100
AcDbEntity
  8
0
100
AcDbLine
 10
10.763
 20
69.081
 30
0.0
 11
10.696
 21
69.081
 31
0.0
  0
LINE
  5
E75
330
A35
100
AcDbEntity
  8
0
100
AcDbLine
 10
10.755
 20
69.124
 30
0.0
 11
10.068
 21
69.081
 31
0.0
  0
LINE
  5
E76
330
A35
100
AcDbEntity
  8
0
100
AcDbLine
 10
10.598
 20
68.784
 30
0.0
 11
10.732
 21
68.894
 31
0.0
  0
LINE
  5
E77
330
A35
100
AcDbEntity
  8
0
100
AcDbLine
 10
10.598
 20
68.784
 30
0.0
 11
10.555
 21
68.773
 31
0.0
  0
LINE
  5
E78
330
A35
100
AcDbEntity
  8
0
100
AcDbLine
 10
10.598
 20
68.784
 30
0.0
 11
10.531
 21
68.859
 31
0.0
  0
LINE
  5
E79
330
A35
100
AcDbEntity
  8
0
100
AcDbLine
 10
10.567
 20
68.859
 30
0.0
 11
10.708
 21
68.98
 31
0.0
  0
LINE
  5
E7A
330
A35
100
AcDbEntity
  8
0
100
AcDbLine
 10
10.72
 20
69.038
 30
0.0
 11
10.021
 21
69.038
 31
0.0
  0
LINE
  5
E7B
330
A35
100
AcDbEntity
  8
0
100
AcDbLine
 10
10.021
 20
69.038
 30
0.0
 11
10.068
 21
69.081
 31
0.0
  0
LINE
  5
E7C
330
A35
100
AcDbEntity
  8
0
100
AcDbLine
 10
10.378
 20
68.98
 30
0.0
 11
10.398
 21
68.894
 31
0.0
  0
LINE
  5
E7D
330
A35
100
AcDbEntity
  8
0
100
AcDbLine
 10
10.477
 20
68.894
 30
0.0
 11
10.453
 21
68.98
 31
0.0
  0
LINE
  5
E7E
330
A35
100
AcDbEntity
  8
0
100
AcDbLine
 10
10.319
 20
70.448
 30
0.0
 11
9.635
 21
70.393
 31
0.0
  0
LINE
  5
E7F
330
A35
100
AcDbEntity
  8
0
100
AcDbLine
 10
9.247
 20
68.905
 30
0.0
 11
6.586
 21
66.613
 31
0.0
  0
LINE
  5
E80
330
A35
100
AcDbEntity
  8
0
100
AcDbLine
 10
6.661
 20
65.676
 30
0.0
 11
10.398
 21
68.894
 31
0.0
  0
LINE
  5
E81
330
A35
100
AcDbEntity
  8
0
100
AcDbLine
 10
9.325
 20
70.249
 30
0.0
 11
9.368
 21
70.292
 31
0.0
  0
LINE
  5
E82
330
A35
100
AcDbEntity
  8
0
100
AcDbLine
 10
10.61
 20
70.975
 30
0.0
 11
12.716
 21
71.12
 31
0.0
  0
LINE
  5
E83
330
A35
100
AcDbEntity
  8
0
100
AcDbLine
 10
34.999
 20
70.479
 30
0.0
 11
35.133
 21
70.592
 31
0.0
  0
LINE
  5
E84
330
A35
100
AcDbEntity
  8
0
100
AcDbLine
 10
35.023
 20
70.479
 30
0.0
 11
34.999
 21
70.479
 31
0.0
  0
LINE
  5
E85
330
A35
100
AcDbEntity
  8
0
100
AcDbLine
 10
10.41
 20
70.889
 30
0.0
 11
10.355
 21
70.854
 31
0.0
  0
LINE
  5
E86
330
A35
100
AcDbEntity
  8
0
100
AcDbLine
 10
13.148
 20
71.959
 30
0.0
 11
13.191
 21
72.002
 31
0.0
  0
LINE
  5
E87
330
A35
100
AcDbEntity
  8
0
100
AcDbLine
 10
10.763
 20
69.081
 30
0.0
 11
35.164
 21
70.78
 31
0.0
  0
LINE
  5
E88
330
A35
100
AcDbEntity
  8
0
100
AcDbLine
 10
6.72
 20
65.543
 30
0.0
 11
6.653
 21
65.543
 31
0.0
  0
LINE
  5
E89
330
A35
100
AcDbEntity
  8
0
100
AcDbLine
 10
6.653
 20
65.543
 30
0.0
 11
6.63
 21
65.617
 31
0.0
  0
LINE
  5
E8A
330
A35
100
AcDbEntity
  8
0
100
AcDbLine
 10
6.563
 20
65.617
 30
0.0
 11
6.606
 21
65.496
 31
0.0
  0
LINE
  5
E8B
330
A35
100
AcDbEntity
  8
0
100
AcDbLine
 10
6.685
 20
65.519
 30
0.0
 11
6.751
 21
65.574
 31
0.0
  0
LINE
  5
E8C
330
A35
100
AcDbEntity
  8
0
100
AcDbLine
 10
6.685
 20
65.519
 30
0.0
 11
6.673
 21
65.519
 31
0.0
  0
LINE
  5
E8D
330
A35
100
AcDbEntity
  8
0
100
AcDbLine
 10
6.72
 20
65.43
 30
0.0
 11
6.85
 21
65.555
 31
0.0
  0
LINE
  5
E8E
330
A35
100
AcDbEntity
  8
0
100
AcDbLine
 10
6.685
 20
65.422
 30
0.0
 11
31.086
 21
67.117
 31
0.0
  0
LINE
  5
E8F
330
A35
100
AcDbEntity
  8
0
100
AcDbLine
 10
31.121
 20
67.14
 30
0.0
 11
6.72
 21
65.43
 31
0.0
  0
LINE
  5
E90
330
A35
100
AcDbEntity
  8
0
100
AcDbLine
 10
31.286
 20
67.261
 30
0.0
 11
31.341
 21
67.285
 31
0.0
  0
LINE
  5
E91
330
A35
100
AcDbEntity
  8
0
100
AcDbLine
 10
35.023
 20
70.479
 30
0.0
 11
35.078
 21
70.503
 31
0.0
  0
LINE
  5
E92
330
A35
100
AcDbEntity
  8
0
100
AcDbLine
 10
31.086
 20
67.117
 30
0.0
 11
31.121
 21
67.128
 31
0.0
  0
LINE
  5
E93
330
A35
100
AcDbEntity
  8
0
100
AcDbLine
 10
6.685
 20
65.422
 30
0.0
 11
6.72
 21
65.43
 31
0.0
  0
LINE
  5
E94
330
A35
100
AcDbEntity
  8
0
100
AcDbLine
 10
13.282
 20
74.119
 30
0.0
 11
12.936
 21
73.986
 31
0.0
  0
LINE
  5
E95
330
A35
100
AcDbEntity
  8
0
100
AcDbLine
 10
33.471
 20
75.275
 30
0.0
 11
33.879
 21
74.701
 31
0.0
  0
LINE
  5
E96
330
A35
100
AcDbEntity
  8
0
100
AcDbLine
 10
32.861
 20
75.474
 30
0.0
 11
33.471
 21
75.275
 31
0.0
  0
LINE
  5
E97
330
A35
100
AcDbEntity
  8
0
100
AcDbLine
 10
12.759
 20
73.666
 30
0.0
 11
12.795
 21
73.236
 31
0.0
  0
LINE
  5
E98
330
A35
100
AcDbEntity
  8
0
100
AcDbLine
 10
12.936
 20
73.986
 30
0.0
 11
12.759
 21
73.666
 31
0.0
  0
LINE
  5
E99
330
A35
100
AcDbEntity
  8
0
100
AcDbLine
 10
12.716
 20
73.623
 30
0.0
 11
12.748
 21
73.193
 31
0.0
  0
LINE
  5
E9A
330
A35
100
AcDbEntity
  8
0
100
AcDbLine
 10
12.893
 20
73.943
 30
0.0
 11
12.716
 21
73.623
 31
0.0
  0
LINE
  5
E9B
330
A35
100
AcDbEntity
  8
0
100
AcDbLine
 10
35.164
 20
70.78
 30
0.0
 11
35.133
 21
70.592
 31
0.0
  0
LINE
  5
E9C
330
A35
100
AcDbEntity
  8
0
100
AcDbLine
 10
32.893
 20
72.002
 30
0.0
 11
33.117
 21
71.694
 31
0.0
  0
LINE
  5
E9D
330
A35
100
AcDbEntity
  8
0
100
AcDbLine
 10
32.559
 20
72.1
 30
0.0
 11
32.893
 21
72.002
 31
0.0
  0
LINE
  5
E9E
330
A35
100
AcDbEntity
  8
0
100
AcDbLine
 10
32.327
 20
71.936
 30
0.0
 11
32.559
 21
72.1
 31
0.0
  0
LINE
  5
E9F
330
A35
100
AcDbEntity
  8
0
100
AcDbLine
 10
32.316
 20
71.639
 30
0.0
 11
32.327
 21
71.936
 31
0.0
  0
LINE
  5
EA0
330
A35
100
AcDbEntity
  8
0
100
AcDbLine
 10
10.763
 20
69.081
 30
0.0
 11
10.732
 21
68.894
 31
0.0
  0
LINE
  5
EA1
330
A35
100
AcDbEntity
  8
0
100
AcDbLine
 10
10.72
 20
69.038
 30
0.0
 11
10.708
 21
68.98
 31
0.0
  0
LINE
  5
EA2
330
A35
100
AcDbEntity
  8
0
100
AcDbLine
 10
10.477
 20
68.894
 30
0.0
 11
10.531
 21
68.859
 31
0.0
  0
LINE
  5
EA3
330
A35
100
AcDbEntity
  8
0
100
AcDbLine
 10
10.555
 20
68.773
 30
0.0
 11
10.398
 21
68.894
 31
0.0
  0
LINE
  5
EA4
330
A35
100
AcDbEntity
  8
0
100
AcDbLine
 10
9.655
 20
69.19
 30
0.0
 11
10.068
 21
69.081
 31
0.0
  0
LINE
  5
EA5
330
A35
100
AcDbEntity
  8
0
100
AcDbLine
 10
9.325
 20
69.534
 30
0.0
 11
9.655
 21
69.19
 31
0.0
  0
LINE
  5
EA6
330
A35
100
AcDbEntity
  8
0
100
AcDbLine
 10
9.211
 20
69.952
 30
0.0
 11
9.325
 21
69.534
 31
0.0
  0
LINE
  5
EA7
330
A35
100
AcDbEntity
  8
0
100
AcDbLine
 10
9.368
 20
70.292
 30
0.0
 11
9.211
 21
69.952
 31
0.0
  0
LINE
  5
EA8
330
A35
100
AcDbEntity
  8
0
100
AcDbLine
 10
6.508
 20
66.488
 30
0.0
 11
6.586
 21
66.613
 31
0.0
  0
LINE
  5
EA9
330
A35
100
AcDbEntity
  8
0
100
AcDbLine
 10
6.52
 20
66.125
 30
0.0
 11
6.508
 21
66.488
 31
0.0
  0
LINE
  5
EAA
330
A35
100
AcDbEntity
  8
0
100
AcDbLine
 10
9.635
 20
70.393
 30
0.0
 11
9.368
 21
70.292
 31
0.0
  0
LINE
  5
EAB
330
A35
100
AcDbEntity
  8
0
100
AcDbLine
 10
9.612
 20
69.148
 30
0.0
 11
10.021
 21
69.038
 31
0.0
  0
LINE
  5
EAC
330
A35
100
AcDbEntity
  8
0
100
AcDbLine
 10
9.278
 20
69.487
 30
0.0
 11
9.612
 21
69.148
 31
0.0
  0
LINE
  5
EAD
330
A35
100
AcDbEntity
  8
0
100
AcDbLine
 10
9.168
 20
69.917
 30
0.0
 11
9.278
 21
69.487
 31
0.0
  0
LINE
  5
EAE
330
A35
100
AcDbEntity
  8
0
100
AcDbLine
 10
9.325
 20
70.249
 30
0.0
 11
9.168
 21
69.917
 31
0.0
  0
LINE
  5
EAF
330
A35
100
AcDbEntity
  8
0
100
AcDbLine
 10
10.319
 20
70.78
 30
0.0
 11
10.41
 21
70.889
 31
0.0
  0
LINE
  5
EB0
330
A35
100
AcDbEntity
  8
0
100
AcDbLine
 10
10.319
 20
70.448
 30
0.0
 11
10.319
 21
70.78
 31
0.0
  0
LINE
  5
EB1
330
A35
100
AcDbEntity
  8
0
100
AcDbLine
 10
10.256
 20
70.436
 30
0.0
 11
10.355
 21
70.854
 31
0.0
  0
LINE
  5
EB2
330
A35
100
AcDbEntity
  8
0
100
AcDbLine
 10
10.41
 20
70.889
 30
0.0
 11
10.61
 21
70.975
 31
0.0
  0
LINE
  5
EB3
330
A35
100
AcDbEntity
  8
0
100
AcDbLine
 10
13.05
 20
71.253
 30
0.0
 11
12.716
 21
71.12
 31
0.0
  0
LINE
  5
EB4
330
A35
100
AcDbEntity
  8
0
100
AcDbLine
 10
13.191
 20
71.549
 30
0.0
 11
13.026
 21
71.229
 31
0.0
  0
LINE
  5
EB5
330
A35
100
AcDbEntity
  8
0
100
AcDbLine
 10
13.148
 20
71.959
 30
0.0
 11
13.191
 21
71.549
 31
0.0
  0
LINE
  5
EB6
330
A35
100
AcDbEntity
  8
0
100
AcDbLine
 10
13.227
 20
71.573
 30
0.0
 11
13.05
 21
71.253
 31
0.0
  0
LINE
  5
EB7
330
A35
100
AcDbEntity
  8
0
100
AcDbLine
 10
13.191
 20
72.002
 30
0.0
 11
13.227
 21
71.573
 31
0.0
  0
LINE
  5
EB8
330
A35
100
AcDbEntity
  8
0
100
AcDbLine
 10
6.685
 20
65.422
 30
0.0
 11
6.606
 21
65.496
 31
0.0
  0
LINE
  5
EB9
330
A35
100
AcDbEntity
  8
0
100
AcDbLine
 10
6.818
 20
65.555
 30
0.0
 11
6.661
 21
65.676
 31
0.0
  0
LINE
  5
EBA
330
A35
100
AcDbEntity
  8
0
100
AcDbLine
 10
6.673
 20
65.519
 30
0.0
 11
6.653
 21
65.543
 31
0.0
  0
LINE
  5
EBB
330
A35
100
AcDbEntity
  8
0
100
AcDbLine
 10
1.364
 20
68.417
 30
0.0
 11
4.602
 21
71.21
 31
0.0
  0
LINE
  5
EBC
330
A35
100
AcDbEntity
  8
0
100
AcDbLine
 10
4.677
 20
70.69
 30
0.0
 11
3.745
 21
69.897
 31
0.0
  0
LINE
  5
EBD
330
A35
100
AcDbEntity
  8
0
100
AcDbLine
 10
4.669
 20
70.6
 30
0.0
 11
5.109
 21
69.71
 31
0.0
  0
LINE
  5
EBE
330
A35
100
AcDbEntity
  8
0
100
AcDbLine
 10
5.077
 20
71.276
 30
0.0
 11
4.724
 21
71.253
 31
0.0
  0
LINE
  5
EBF
330
A35
100
AcDbEntity
  8
0
100
AcDbLine
 10
4.7
 20
71.131
 30
0.0
 11
4.912
 21
71.143
 31
0.0
  0
LINE
  5
EC0
330
A35
100
AcDbEntity
  8
0
100
AcDbLine
 10
4.987
 20
70.721
 30
0.0
 11
4.712
 21
70.714
 31
0.0
  0
LINE
  5
EC1
330
A35
100
AcDbEntity
  8
0
100
AcDbLine
 10
5.254
 20
70.569
 30
0.0
 11
5.309
 21
70.581
 31
0.0
  0
LINE
  5
EC2
330
A35
100
AcDbEntity
  8
0
100
AcDbLine
 10
5.144
 20
70.647
 30
0.0
 11
5.011
 21
71.065
 31
0.0
  0
LINE
  5
EC3
330
A35
100
AcDbEntity
  8
0
100
AcDbLine
 10
5.254
 20
70.569
 30
0.0
 11
5.156
 21
70.479
 31
0.0
  0
LINE
  5
EC4
330
A35
100
AcDbEntity
  8
0
100
AcDbLine
 10
5.042
 20
70.557
 30
0.0
 11
5.144
 21
70.647
 31
0.0
  0
LINE
  5
EC5
330
A35
100
AcDbEntity
  8
0
100
AcDbLine
 10
5.042
 20
70.557
 30
0.0
 11
4.987
 21
70.721
 31
0.0
  0
LINE
  5
EC6
330
A35
100
AcDbEntity
  8
0
100
AcDbLine
 10
4.732
 20
72.334
 30
0.0
 11
4.378
 21
72.311
 31
0.0
  0
LINE
  5
EC7
330
A35
100
AcDbEntity
  8
0
100
AcDbLine
 10
4.378
 20
72.311
 30
0.0
 11
4.724
 21
71.253
 31
0.0
  0
LINE
  5
EC8
330
A35
100
AcDbEntity
  8
0
100
AcDbLine
 10
4.602
 20
71.21
 30
0.0
 11
4.256
 21
72.256
 31
0.0
  0
LINE
  5
EC9
330
A35
100
AcDbEntity
  8
0
100
AcDbLine
 10
4.256
 20
72.256
 30
0.0
 11
1.019
 21
69.476
 31
0.0
  0
LINE
  5
ECA
330
A35
100
AcDbEntity
  8
0
100
AcDbLine
 10
1.785
 20
68.277
 30
0.0
 11
5.011
 21
71.065
 31
0.0
  0
LINE
  5
ECB
330
A35
100
AcDbEntity
  8
0
100
AcDbLine
 10
6.928
 20
68.156
 30
0.0
 11
7.671
 21
68.792
 31
0.0
  0
LINE
  5
ECC
330
A35
100
AcDbEntity
  8
0
100
AcDbLine
 10
6.995
 20
68.749
 30
0.0
 11
6.795
 21
68.562
 31
0.0
  0
LINE
  5
ECD
330
A35
100
AcDbEntity
  8
0
100
AcDbLine
 10
6.63
 20
67.988
 30
0.0
 11
6.618
 21
67.757
 31
0.0
  0
LINE
  5
ECE
330
A35
100
AcDbEntity
  8
0
100
AcDbLine
 10
6.983
 20
68.034
 30
0.0
 11
7.883
 21
68.804
 31
0.0
  0
LINE
  5
ECF
330
A35
100
AcDbEntity
  8
0
100
AcDbLine
 10
2.248
 20
68.089
 30
0.0
 11
2.241
 21
68.077
 31
0.0
  0
LINE
  5
ED0
330
A35
100
AcDbEntity
  8
0
100
AcDbLine
 10
1.785
 20
68.21
 30
0.0
 11
1.761
 21
68.253
 31
0.0
  0
LINE
  5
ED1
330
A35
100
AcDbEntity
  8
0
100
AcDbLine
 10
1.663
 20
68.343
 30
0.0
 11
1.439
 21
68.331
 31
0.0
  0
LINE
  5
ED2
330
A35
100
AcDbEntity
  8
0
100
AcDbLine
 10
1.353
 20
68.398
 30
0.0
 11
1.007
 21
69.456
 31
0.0
  0
LINE
  5
ED3
330
A35
100
AcDbEntity
  8
0
100
AcDbLine
 10
1.627
 20
67.999
 30
0.0
 11
2.072
 21
67.097
 31
0.0
  0
LINE
  5
ED4
330
A35
100
AcDbEntity
  8
0
100
AcDbLine
 10
1.64
 20
68.089
 30
0.0
 11
2.571
 21
68.882
 31
0.0
  0
LINE
  5
ED5
330
A35
100
AcDbEntity
  8
0
100
AcDbLine
 10
2.861
 20
67.406
 30
0.0
 11
2.881
 21
67.406
 31
0.0
  0
LINE
  5
ED6
330
A35
100
AcDbEntity
  8
0
100
AcDbLine
 10
2.861
 20
67.406
 30
0.0
 11
2.96
 21
67.492
 31
0.0
  0
LINE
  5
ED7
330
A35
100
AcDbEntity
  8
0
100
AcDbLine
 10
2.991
 20
67.492
 30
0.0
 11
2.881
 21
67.406
 31
0.0
  0
LINE
  5
ED8
330
A35
100
AcDbEntity
  8
0
100
AcDbLine
 10
2.881
 20
67.371
 30
0.0
 11
2.916
 21
67.371
 31
0.0
  0
LINE
  5
ED9
330
A35
100
AcDbEntity
  8
0
100
AcDbLine
 10
2.936
 20
67.339
 30
0.0
 11
3.07
 21
67.461
 31
0.0
  0
LINE
  5
EDA
330
A35
100
AcDbEntity
  8
0
100
AcDbLine
 10
3.105
 20
67.539
 30
0.0
 11
2.916
 21
67.371
 31
0.0
  0
LINE
  5
EDB
330
A35
100
AcDbEntity
  8
0
100
AcDbLine
 10
3.093
 20
67.472
 30
0.0
 11
3.302
 21
67.484
 31
0.0
  0
LINE
  5
EDC
330
A35
100
AcDbEntity
  8
0
100
AcDbLine
 10
3.215
 20
67.582
 30
0.0
 11
3.093
 21
67.472
 31
0.0
  0
LINE
  5
EDD
330
A35
100
AcDbEntity
  8
0
100
AcDbLine
 10
3.07
 20
67.461
 30
0.0
 11
3.282
 21
67.472
 31
0.0
  0
LINE
  5
EDE
330
A35
100
AcDbEntity
  8
0
100
AcDbLine
 10
3.191
 20
67.582
 30
0.0
 11
2.916
 21
67.339
 31
0.0
  0
LINE
  5
EDF
330
A35
100
AcDbEntity
  8
0
100
AcDbLine
 10
2.881
 20
67.371
 30
0.0
 11
3.07
 21
67.539
 31
0.0
  0
LINE
  5
EE0
330
A35
100
AcDbEntity
  8
0
100
AcDbLine
 10
3.093
 20
67.835
 30
0.0
 11
2.174
 21
67.031
 31
0.0
  0
LINE
  5
EE1
330
A35
100
AcDbEntity
  8
0
100
AcDbLine
 10
2.692
 20
68.991
 30
0.0
 11
3.624
 21
69.788
 31
0.0
  0
LINE
  5
EE2
330
A35
100
AcDbEntity
  8
0
100
AcDbLine
 10
3.738
 20
69.808
 30
0.0
 11
4.178
 21
68.917
 31
0.0
  0
LINE
  5
EE3
330
A35
100
AcDbEntity
  8
0
100
AcDbLine
 10
4.056
 20
68.804
 30
0.0
 11
3.612
 21
69.698
 31
0.0
  0
LINE
  5
EE4
330
A35
100
AcDbEntity
  8
0
100
AcDbLine
 10
3.302
 20
68.991
 30
0.0
 11
3.294
 21
68.98
 31
0.0
  0
LINE
  5
EE5
330
A35
100
AcDbEntity
  8
0
100
AcDbLine
 10
3.302
 20
68.991
 30
0.0
 11
3.769
 21
69.027
 31
0.0
  0
LINE
  5
EE6
330
A35
100
AcDbEntity
  8
0
100
AcDbLine
 10
3.769
 20
69.015
 30
0.0
 11
3.294
 21
68.98
 31
0.0
  0
LINE
  5
EE7
330
A35
100
AcDbEntity
  8
0
100
AcDbLine
 10
4.866
 20
68.87
 30
0.0
 11
4.889
 21
68.894
 31
0.0
  0
LINE
  5
EE8
330
A35
100
AcDbEntity
  8
0
100
AcDbLine
 10
4.854
 20
68.894
 30
0.0
 11
4.866
 21
68.87
 31
0.0
  0
LINE
  5
EE9
330
A35
100
AcDbEntity
  8
0
100
AcDbLine
 10
4.28
 20
68.851
 30
0.0
 11
5.199
 21
69.643
 31
0.0
  0
LINE
  5
EEA
330
A35
100
AcDbEntity
  8
0
100
AcDbLine
 10
3.302
 20
67.484
 30
0.0
 11
3.282
 21
67.472
 31
0.0
  0
LINE
  5
EEB
330
A35
100
AcDbEntity
  8
0
100
AcDbLine
 10
3.093
 20
67.835
 30
0.0
 11
3.914
 21
67.89
 31
0.0
  0
LINE
  5
EEC
330
A35
100
AcDbEntity
  8
0
100
AcDbLine
 10
5.298
 20
67.437
 30
0.0
 11
5.345
 21
67.449
 31
0.0
  0
LINE
  5
EED
330
A35
100
AcDbEntity
  8
0
100
AcDbLine
 10
5.254
 20
67.406
 30
0.0
 11
6.343
 21
67.484
 31
0.0
  0
LINE
  5
EEE
330
A35
100
AcDbEntity
  8
0
100
AcDbLine
 10
6.284
 20
67.472
 30
0.0
 11
5.243
 21
67.394
 31
0.0
  0
LINE
  5
EEF
330
A35
100
AcDbEntity
  8
0
100
AcDbLine
 10
5.345
 20
67.449
 30
0.0
 11
5.333
 21
67.472
 31
0.0
  0
LINE
  5
EF0
330
A35
100
AcDbEntity
  8
0
100
AcDbLine
 10
5.345
 20
67.484
 30
0.0
 11
5.345
 21
67.449
 31
0.0
  0
LINE
  5
EF1
330
A35
100
AcDbEntity
  8
0
100
AcDbLine
 10
5.486
 20
67.437
 30
0.0
 11
5.51
 21
67.492
 31
0.0
  0
LINE
  5
EF2
330
A35
100
AcDbEntity
  8
0
100
AcDbLine
 10
5.486
 20
67.437
 30
0.0
 11
5.498
 21
67.613
 31
0.0
  0
LINE
  5
EF3
330
A35
100
AcDbEntity
  8
0
100
AcDbLine
 10
6.032
 20
67.527
 30
0.0
 11
6.04
 21
67.484
 31
0.0
  0
LINE
  5
EF4
330
A35
100
AcDbEntity
  8
0
100
AcDbLine
 10
5.797
 20
67.878
 30
0.0
 11
5.899
 21
67.921
 31
0.0
  0
LINE
  5
EF5
330
A35
100
AcDbEntity
  8
0
100
AcDbLine
 10
6.04
 20
67.484
 30
0.0
 11
5.486
 21
67.437
 31
0.0
  0
LINE
  5
EF6
330
A35
100
AcDbEntity
  8
0
100
AcDbLine
 10
6.032
 20
67.527
 30
0.0
 11
6.563
 21
67.781
 31
0.0
  0
LINE
  5
EF7
330
A35
100
AcDbEntity
  8
0
100
AcDbLine
 10
5.51
 20
67.492
 30
0.0
 11
6.032
 21
67.527
 31
0.0
  0
LINE
  5
EF8
330
A35
100
AcDbEntity
  8
0
100
AcDbLine
 10
6.343
 20
67.484
 30
0.0
 11
5.753
 21
66.976
 31
0.0
  0
LINE
  5
EF9
330
A35
100
AcDbEntity
  8
0
100
AcDbLine
 10
5.655
 20
67.05
 30
0.0
 11
6.119
 21
67.461
 31
0.0
  0
LINE
  5
EFA
330
A35
100
AcDbEntity
  8
0
100
AcDbLine
 10
5.51
 20
67.418
 30
0.0
 11
5.643
 21
67.031
 31
0.0
  0
LINE
  5
EFB
330
A35
100
AcDbEntity
  8
0
100
AcDbLine
 10
5.533
 20
66.875
 30
0.0
 11
5.353
 21
67.406
 31
0.0
  0
LINE
  5
EFC
330
A35
100
AcDbEntity
  8
0
100
AcDbLine
 10
2.716
 20
68.109
 30
0.0
 11
2.241
 21
68.077
 31
0.0
  0
LINE
  5
EFD
330
A35
100
AcDbEntity
  8
0
100
AcDbLine
 10
2.339
 20
67.921
 30
0.0
 11
2.704
 21
67.945
 31
0.0
  0
LINE
  5
EFE
330
A35
100
AcDbEntity
  8
0
100
AcDbLine
 10
3.191
 20
67.582
 30
0.0
 11
3.215
 21
67.582
 31
0.0
  0
LINE
  5
EFF
330
A35
100
AcDbEntity
  8
0
100
AcDbLine
 10
3.105
 20
67.539
 30
0.0
 11
3.07
 21
67.539
 31
0.0
  0
LINE
  5
F00
330
A35
100
AcDbEntity
  8
0
100
AcDbLine
 10
2.991
 20
67.492
 30
0.0
 11
2.96
 21
67.492
 31
0.0
  0
LINE
  5
F01
330
A35
100
AcDbEntity
  8
0
100
AcDbLine
 10
2.339
 20
67.921
 30
0.0
 11
2.327
 21
67.914
 31
0.0
  0
LINE
  5
F02
330
A35
100
AcDbEntity
  8
0
100
AcDbLine
 10
2.248
 20
68.089
 30
0.0
 11
2.716
 21
68.12
 31
0.0
  0
LINE
  5
F03
330
A35
100
AcDbEntity
  8
0
100
AcDbLine
 10
2.692
 20
68.905
 30
0.0
 11
2.606
 21
68.894
 31
0.0
  0
LINE
  5
F04
330
A35
100
AcDbEntity
  8
0
100
AcDbLine
 10
2.559
 20
68.792
 30
0.0
 11
3.003
 21
67.89
 31
0.0
  0
LINE
  5
F05
330
A35
100
AcDbEntity
  8
0
100
AcDbLine
 10
3.392
 20
68.827
 30
0.0
 11
3.757
 21
68.859
 31
0.0
  0
LINE
  5
F06
330
A35
100
AcDbEntity
  8
0
100
AcDbLine
 10
3.392
 20
68.827
 30
0.0
 11
3.38
 21
68.816
 31
0.0
  0
LINE
  5
F07
330
A35
100
AcDbEntity
  8
0
100
AcDbLine
 10
3.801
 20
67.98
 30
0.0
 11
3.812
 21
67.968
 31
0.0
  0
LINE
  5
F08
330
A35
100
AcDbEntity
  8
0
100
AcDbLine
 10
3.812
 20
67.968
 30
0.0
 11
3.836
 21
67.98
 31
0.0
  0
LINE
  5
F09
330
A35
100
AcDbEntity
  8
0
100
AcDbLine
 10
4.048
 20
67.999
 30
0.0
 11
3.227
 21
67.945
 31
0.0
  0
LINE
  5
F0A
330
A35
100
AcDbEntity
  8
0
100
AcDbLine
 10
4.28
 20
68.851
 30
0.0
 11
5.101
 21
68.905
 31
0.0
  0
LINE
  5
F0B
330
A35
100
AcDbEntity
  8
0
100
AcDbLine
 10
4.457
 20
68.452
 30
0.0
 11
3.989
 21
68.417
 31
0.0
  0
LINE
  5
F0C
330
A35
100
AcDbEntity
  8
0
100
AcDbLine
 10
4.048
 20
67.999
 30
0.0
 11
3.914
 21
67.89
 31
0.0
  0
LINE
  5
F0D
330
A35
100
AcDbEntity
  8
0
100
AcDbLine
 10
3.958
 20
68.398
 30
0.0
 11
3.989
 21
68.417
 31
0.0
  0
LINE
  5
F0E
330
A35
100
AcDbEntity
  8
0
100
AcDbLine
 10
3.958
 20
68.398
 30
0.0
 11
4.311
 21
68.417
 31
0.0
  0
LINE
  5
F0F
330
A35
100
AcDbEntity
  8
0
100
AcDbLine
 10
4.001
 20
68.343
 30
0.0
 11
4.359
 21
68.363
 31
0.0
  0
LINE
  5
F10
330
A35
100
AcDbEntity
  8
0
100
AcDbLine
 10
4.421
 20
68.417
 30
0.0
 11
4.001
 21
68.343
 31
0.0
  0
LINE
  5
F11
330
A35
100
AcDbEntity
  8
0
100
AcDbLine
 10
4.311
 20
68.417
 30
0.0
 11
3.891
 21
68.331
 31
0.0
  0
LINE
  5
F12
330
A35
100
AcDbEntity
  8
0
100
AcDbLine
 10
4.146
 20
68.738
 30
0.0
 11
4.968
 21
68.792
 31
0.0
  0
LINE
  5
F13
330
A35
100
AcDbEntity
  8
0
100
AcDbLine
 10
4.323
 20
68.343
 30
0.0
 11
3.891
 21
68.331
 31
0.0
  0
LINE
  5
F14
330
A35
100
AcDbEntity
  8
0
100
AcDbLine
 10
4.968
 20
68.792
 30
0.0
 11
5.101
 21
68.905
 31
0.0
  0
LINE
  5
F15
330
A35
100
AcDbEntity
  8
0
100
AcDbLine
 10
5.522
 20
67.636
 30
0.0
 11
5.51
 21
67.492
 31
0.0
  0
LINE
  5
F16
330
A35
100
AcDbEntity
  8
0
100
AcDbLine
 10
4.457
 20
68.452
 30
0.0
 11
4.421
 21
68.417
 31
0.0
  0
LINE
  5
F17
330
A35
100
AcDbEntity
  8
0
100
AcDbLine
 10
4.359
 20
68.363
 30
0.0
 11
4.323
 21
68.343
 31
0.0
  0
LINE
  5
F18
330
A35
100
AcDbEntity
  8
0
100
AcDbLine
 10
5.655
 20
67.746
 30
0.0
 11
6.075
 21
67.945
 31
0.0
  0
LINE
  5
F19
330
A35
100
AcDbEntity
  8
0
100
AcDbLine
 10
5.899
 20
67.956
 30
0.0
 11
6.983
 21
68.034
 31
0.0
  0
LINE
  5
F1A
330
A35
100
AcDbEntity
  8
0
100
AcDbLine
 10
6.928
 20
68.156
 30
0.0
 11
6.052
 21
68.089
 31
0.0
  0
LINE
  5
F1B
330
A35
100
AcDbEntity
  8
0
100
AcDbLine
 10
5.899
 20
67.921
 30
0.0
 11
5.852
 21
67.921
 31
0.0
  0
LINE
  5
F1C
330
A35
100
AcDbEntity
  8
0
100
AcDbLine
 10
5.985
 20
67.66
 30
0.0
 11
6.032
 21
67.527
 31
0.0
  0
LINE
  5
F1D
330
A35
100
AcDbEntity
  8
0
100
AcDbLine
 10
6.563
 20
67.781
 30
0.0
 11
6.618
 21
67.757
 31
0.0
  0
LINE
  5
F1E
330
A35
100
AcDbEntity
  8
0
100
AcDbLine
 10
6.563
 20
67.781
 30
0.0
 11
6.508
 21
67.98
 31
0.0
  0
LINE
  5
F1F
330
A35
100
AcDbEntity
  8
0
100
AcDbLine
 10
6.586
 20
67.988
 30
0.0
 11
6.563
 21
67.781
 31
0.0
  0
LINE
  5
F20
330
A35
100
AcDbEntity
  8
0
100
AcDbLine
 10
6.928
 20
68.156
 30
0.0
 11
6.795
 21
68.562
 31
0.0
  0
LINE
  5
F21
330
A35
100
AcDbEntity
  8
0
100
AcDbLine
 10
6.63
 20
67.988
 30
0.0
 11
6.075
 21
67.945
 31
0.0
  0
LINE
  5
F22
330
A35
100
AcDbEntity
  8
0
100
AcDbLine
 10
6.586
 20
68.55
 30
0.0
 11
6.795
 21
68.562
 31
0.0
  0
LINE
  5
F23
330
A35
100
AcDbEntity
  8
0
100
AcDbLine
 10
6.618
 20
67.757
 30
0.0
 11
6.04
 21
67.484
 31
0.0
  0
LINE
  5
F24
330
A35
100
AcDbEntity
  8
0
100
AcDbLine
 10
4.146
 20
68.738
 30
0.0
 11
3.227
 21
67.945
 31
0.0
  0
LINE
  5
F25
330
A35
100
AcDbEntity
  8
0
100
AcDbLine
 10
3.125
 20
67.999
 30
0.0
 11
2.681
 21
68.905
 31
0.0
  0
LINE
  5
F26
330
A35
100
AcDbEntity
  8
0
100
AcDbLine
 10
4.901
 20
69.202
 30
0.0
 11
5.034
 21
69.323
 31
0.0
  0
LINE
  5
F27
330
A35
100
AcDbEntity
  8
0
100
AcDbLine
 10
5.054
 20
69.3
 30
0.0
 11
4.901
 21
69.202
 31
0.0
  0
LINE
  5
F28
330
A35
100
AcDbEntity
  8
0
100
AcDbLine
 10
5.51
 20
69.354
 30
0.0
 11
5.034
 21
69.323
 31
0.0
  0
LINE
  5
F29
330
A35
100
AcDbEntity
  8
0
100
AcDbLine
 10
5.054
 20
69.3
 30
0.0
 11
5.51
 21
69.354
 31
0.0
  0
LINE
  5
F2A
330
A35
100
AcDbEntity
  8
0
100
AcDbLine
 10
5.199
 20
69.643
 30
0.0
 11
5.608
 21
69.675
 31
0.0
  0
LINE
  5
F2B
330
A35
100
AcDbEntity
  8
0
100
AcDbLine
 10
4.347
 20
69.886
 30
0.0
 11
4.822
 21
69.929
 31
0.0
  0
LINE
  5
F2C
330
A35
100
AcDbEntity
  8
0
100
AcDbLine
 10
4.822
 20
69.917
 30
0.0
 11
4.347
 21
69.886
 31
0.0
  0
LINE
  5
F2D
330
A35
100
AcDbEntity
  8
0
100
AcDbLine
 10
3.745
 20
69.808
 30
0.0
 11
3.659
 21
69.796
 31
0.0
  0
LINE
  5
F2E
330
A35
100
AcDbEntity
  8
0
100
AcDbLine
 10
4.433
 20
69.729
 30
0.0
 11
4.81
 21
69.765
 31
0.0
  0
LINE
  5
F2F
330
A35
100
AcDbEntity
  8
0
100
AcDbLine
 10
5.156
 20
70.479
 30
0.0
 11
5.333
 21
70.503
 31
0.0
  0
LINE
  5
F30
330
A35
100
AcDbEntity
  8
0
100
AcDbLine
 10
8.571
 20
68.851
 30
0.0
 11
6.284
 21
66.875
 31
0.0
  0
LINE
  5
F31
330
A35
100
AcDbEntity
  8
0
100
AcDbLine
 10
6.795
 20
68.73
 30
0.0
 11
4.178
 21
66.48
 31
0.0
  0
LINE
  5
F32
330
A35
100
AcDbEntity
  8
0
100
AcDbLine
 10
4.146
 20
66.469
 30
0.0
 11
6.775
 21
68.73
 31
0.0
  0
LINE
  5
F33
330
A35
100
AcDbEntity
  8
0
100
AcDbLine
 10
5.71
 20
69.366
 30
0.0
 11
2.972
 21
67.007
 31
0.0
  0
LINE
  5
F34
330
A35
100
AcDbEntity
  8
0
100
AcDbLine
 10
3.137
 20
66.48
 30
0.0
 11
6.021
 21
68.972
 31
0.0
  0
LINE
  5
F35
330
A35
100
AcDbEntity
  8
0
100
AcDbLine
 10
6.131
 20
68.894
 30
0.0
 11
3.239
 21
66.402
 31
0.0
  0
LINE
  5
F36
330
A35
100
AcDbEntity
  8
0
100
AcDbLine
 10
7.317
 20
69.741
 30
0.0
 11
7.262
 21
69.909
 31
0.0
  0
LINE
  5
F37
330
A35
100
AcDbEntity
  8
0
100
AcDbLine
 10
2.771
 20
67.074
 30
0.0
 11
2.771
 21
67.062
 31
0.0
  0
LINE
  5
F38
330
A35
100
AcDbEntity
  8
0
100
AcDbLine
 10
2.991
 20
67.097
 30
0.0
 11
2.174
 21
67.031
 31
0.0
  0
LINE
  5
F39
330
A35
100
AcDbEntity
  8
0
100
AcDbLine
 10
2.916
 20
67.339
 30
0.0
 11
2.936
 21
67.339
 31
0.0
  0
LINE
  5
F3A
330
A35
100
AcDbEntity
  8
0
100
AcDbLine
 10
5.62
 20
66.808
 30
0.0
 11
6.229
 21
66.855
 31
0.0
  0
LINE
  5
F3B
330
A35
100
AcDbEntity
  8
0
100
AcDbLine
 10
4.146
 20
66.469
 30
0.0
 11
3.239
 21
66.402
 31
0.0
  0
LINE
  5
F3C
330
A35
100
AcDbEntity
  8
0
100
AcDbLine
 10
3.215
 20
66.39
 30
0.0
 11
4.123
 21
66.457
 31
0.0
  0
LINE
  5
F3D
330
A35
100
AcDbEntity
  8
0
100
AcDbLine
 10
5.753
 20
66.976
 30
0.0
 11
5.832
 21
66.988
 31
0.0
  0
LINE
  5
F3E
330
A35
100
AcDbEntity
  8
0
100
AcDbLine
 10
5.777
 20
66.976
 30
0.0
 11
5.73
 21
66.964
 31
0.0
  0
LINE
  5
F3F
330
A35
100
AcDbEntity
  8
0
100
AcDbLine
 10
5.832
 20
66.988
 30
0.0
 11
5.643
 21
66.82
 31
0.0
  0
LINE
  5
F40
330
A35
100
AcDbEntity
  8
0
100
AcDbLine
 10
5.541
 20
66.898
 30
0.0
 11
5.655
 21
66.996
 31
0.0
  0
LINE
  5
F41
330
A35
100
AcDbEntity
  8
0
100
AcDbLine
 10
2.948
 20
66.996
 30
0.0
 11
2.869
 21
66.996
 31
0.0
  0
LINE
  5
F42
330
A35
100
AcDbEntity
  8
0
100
AcDbLine
 10
2.893
 20
67.007
 30
0.0
 11
2.972
 21
67.007
 31
0.0
  0
LINE
  5
F43
330
A35
100
AcDbEntity
  8
0
100
AcDbLine
 10
2.893
 20
67.007
 30
0.0
 11
2.991
 21
67.097
 31
0.0
  0
LINE
  5
F44
330
A35
100
AcDbEntity
  8
0
100
AcDbLine
 10
2.972
 20
67.007
 30
0.0
 11
3.137
 21
66.48
 31
0.0
  0
LINE
  5
F45
330
A35
100
AcDbEntity
  8
0
100
AcDbLine
 10
3.125
 20
66.457
 30
0.0
 11
2.948
 21
66.996
 31
0.0
  0
LINE
  5
F46
330
A35
100
AcDbEntity
  8
0
100
AcDbLine
 10
4.712
 20
70.714
 30
0.0
 11
4.677
 21
70.702
 31
0.0
  0
LINE
  5
F47
330
A35
100
AcDbEntity
  8
0
100
AcDbLine
 10
1.353
 20
68.398
 30
0.0
 11
1.451
 21
68.343
 31
0.0
  0
LINE
  5
F48
330
A35
100
AcDbEntity
  8
0
100
AcDbLine
 10
6.284
 20
67.472
 30
0.0
 11
6.343
 21
67.484
 31
0.0
  0
LINE
  5
F49
330
A35
100
AcDbEntity
  8
0
100
AcDbLine
 10
2.606
 20
68.894
 30
0.0
 11
2.571
 21
68.882
 31
0.0
  0
LINE
  5
F4A
330
A35
100
AcDbEntity
  8
0
100
AcDbLine
 10
3.659
 20
69.808
 30
0.0
 11
3.624
 21
69.796
 31
0.0
  0
LINE
  5
F4B
330
A35
100
AcDbEntity
  8
0
100
AcDbLine
 10
2.771
 20
67.05
 30
0.0
 11
2.869
 21
66.996
 31
0.0
  0
LINE
  5
F4C
330
A35
100
AcDbEntity
  8
0
100
AcDbLine
 10
3.125
 20
66.457
 30
0.0
 11
3.227
 21
66.402
 31
0.0
  0
LINE
  5
F4D
330
A35
100
AcDbEntity
  8
0
100
AcDbLine
 10
3.215
 20
66.402
 30
0.0
 11
3.239
 21
66.414
 31
0.0
  0
LINE
  5
F4E
330
A35
100
AcDbEntity
  8
0
100
AcDbLine
 10
4.123
 20
66.469
 30
0.0
 11
4.146
 21
66.48
 31
0.0
  0
LINE
  5
F4F
330
A35
100
AcDbEntity
  8
0
100
AcDbLine
 10
4.146
 20
66.469
 30
0.0
 11
4.178
 21
66.48
 31
0.0
  0
LINE
  5
F50
330
A35
100
AcDbEntity
  8
0
100
AcDbLine
 10
4.135
 20
66.469
 30
0.0
 11
4.189
 21
66.488
 31
0.0
  0
LINE
  5
F51
330
A35
100
AcDbEntity
  8
0
100
AcDbLine
 10
5.62
 20
66.82
 30
0.0
 11
5.643
 21
66.832
 31
0.0
  0
LINE
  5
F52
330
A35
100
AcDbEntity
  8
0
100
AcDbLine
 10
5.643
 20
67.031
 30
0.0
 11
5.742
 21
66.976
 31
0.0
  0
LINE
  5
F53
330
A35
100
AcDbEntity
  8
0
100
AcDbLine
 10
5.777
 20
66.976
 30
0.0
 11
5.832
 21
66.988
 31
0.0
  0
LINE
  5
F54
330
A35
100
AcDbEntity
  8
0
100
AcDbLine
 10
5.73
 20
66.976
 30
0.0
 11
5.753
 21
66.988
 31
0.0
  0
LINE
  5
F55
330
A35
100
AcDbEntity
  8
0
100
AcDbLine
 10
6.229
 20
66.863
 30
0.0
 11
6.284
 21
66.886
 31
0.0
  0
LINE
  5
F56
330
A35
100
AcDbEntity
  8
0
100
AcDbLine
 10
5.533
 20
66.875
 30
0.0
 11
5.632
 21
66.82
 31
0.0
  0
LINE
  5
F57
330
A35
100
AcDbEntity
  8
0
100
AcDbLine
 10
2.869
 20
66.996
 30
0.0
 11
2.893
 21
67.007
 31
0.0
  0
LINE
  5
F58
330
A35
100
AcDbEntity
  8
0
100
AcDbLine
 10
4.602
 20
71.21
 30
0.0
 11
4.724
 21
71.253
 31
0.0
  0
LINE
  5
F59
330
A35
100
AcDbEntity
  8
0
100
AcDbLine
 10
4.602
 20
71.21
 30
0.0
 11
4.7
 21
71.131
 31
0.0
  0
LINE
  5
F5A
330
A35
100
AcDbEntity
  8
0
100
AcDbLine
 10
5.011
 20
71.065
 30
0.0
 11
4.912
 21
71.143
 31
0.0
  0
LINE
  5
F5B
330
A35
100
AcDbEntity
  8
0
100
AcDbLine
 10
5.077
 20
71.276
 30
0.0
 11
5.011
 21
71.065
 31
0.0
  0
LINE
  5
F5C
330
A35
100
AcDbEntity
  8
0
100
AcDbLine
 10
4.724
 20
71.253
 30
0.0
 11
4.7
 21
71.131
 31
0.0
  0
LINE
  5
F5D
330
A35
100
AcDbEntity
  8
0
100
AcDbLine
 10
5.077
 20
71.276
 30
0.0
 11
4.912
 21
71.143
 31
0.0
  0
LINE
  5
F5E
330
A35
100
AcDbEntity
  8
0
100
AcDbLine
 10
4.677
 20
70.69
 30
0.0
 11
4.669
 21
70.6
 31
0.0
  0
LINE
  5
F5F
330
A35
100
AcDbEntity
  8
0
100
AcDbLine
 10
5.266
 20
70.69
 30
0.0
 11
5.254
 21
70.569
 31
0.0
  0
LINE
  5
F60
330
A35
100
AcDbEntity
  8
0
100
AcDbLine
 10
5.266
 20
70.69
 30
0.0
 11
5.144
 21
70.647
 31
0.0
  0
LINE
  5
F61
330
A35
100
AcDbEntity
  8
0
100
AcDbLine
 10
5.156
 20
70.479
 30
0.0
 11
5.042
 21
70.557
 31
0.0
  0
LINE
  5
F62
330
A35
100
AcDbEntity
  8
0
100
AcDbLine
 10
5.254
 20
70.569
 30
0.0
 11
5.144
 21
70.647
 31
0.0
  0
LINE
  5
F63
330
A35
100
AcDbEntity
  8
0
100
AcDbLine
 10
4.256
 20
72.256
 30
0.0
 11
4.378
 21
72.311
 31
0.0
  0
LINE
  5
F64
330
A35
100
AcDbEntity
  8
0
100
AcDbLine
 10
2.248
 20
68.386
 30
0.0
 11
2.406
 21
68.519
 31
0.0
  0
LINE
  5
F65
330
A35
100
AcDbEntity
  8
0
100
AcDbLine
 10
2.248
 20
68.089
 30
0.0
 11
2.248
 21
68.386
 31
0.0
  0
LINE
  5
F66
330
A35
100
AcDbEntity
  8
0
100
AcDbLine
 10
2.327
 20
67.613
 30
0.0
 11
2.186
 21
67.484
 31
0.0
  0
LINE
  5
F67
330
A35
100
AcDbEntity
  8
0
100
AcDbLine
 10
2.327
 20
67.914
 30
0.0
 11
2.327
 21
67.613
 31
0.0
  0
LINE
  5
F68
330
A35
100
AcDbEntity
  8
0
100
AcDbLine
 10
2.028
 20
68.199
 30
0.0
 11
2.241
 21
68.077
 31
0.0
  0
LINE
  5
F69
330
A35
100
AcDbEntity
  8
0
100
AcDbLine
 10
1.883
 20
68.089
 30
0.0
 11
2.028
 21
68.198
 31
0.0
  0
LINE
  5
F6A
330
A35
100
AcDbEntity
  8
0
100
AcDbLine
 10
1.875
 20
67.824
 30
0.0
 11
1.883
 21
68.089
 31
0.0
  0
LINE
  5
F6B
330
A35
100
AcDbEntity
  8
0
100
AcDbLine
 10
1.997
 20
67.57
 30
0.0
 11
1.875
 21
67.824
 31
0.0
  0
LINE
  5
F6C
330
A35
100
AcDbEntity
  8
0
100
AcDbLine
 10
2.186
 20
67.484
 30
0.0
 11
1.997
 21
67.57
 31
0.0
  0
LINE
  5
F6D
330
A35
100
AcDbEntity
  8
0
100
AcDbLine
 10
1.761
 20
68.253
 30
0.0
 11
1.785
 21
68.277
 31
0.0
  0
LINE
  5
F6E
330
A35
100
AcDbEntity
  8
0
100
AcDbLine
 10
1.64
 20
68.089
 30
0.0
 11
1.627
 21
67.999
 31
0.0
  0
LINE
  5
F6F
330
A35
100
AcDbEntity
  8
0
100
AcDbLine
 10
1.353
 20
68.398
 30
0.0
 11
1.364
 21
68.417
 31
0.0
  0
LINE
  5
F70
330
A35
100
AcDbEntity
  8
0
100
AcDbLine
 10
1.761
 20
68.253
 30
0.0
 11
1.663
 21
68.343
 31
0.0
  0
LINE
  5
F71
330
A35
100
AcDbEntity
  8
0
100
AcDbLine
 10
2.807
 20
67.328
 30
0.0
 11
2.893
 21
67.316
 31
0.0
  0
LINE
  5
F72
330
A35
100
AcDbEntity
  8
0
100
AcDbLine
 10
2.747
 20
67.394
 30
0.0
 11
2.807
 21
67.328
 31
0.0
  0
LINE
  5
F73
330
A35
100
AcDbEntity
  8
0
100
AcDbLine
 10
2.916
 20
67.515
 30
0.0
 11
2.747
 21
67.394
 31
0.0
  0
LINE
  5
F74
330
A35
100
AcDbEntity
  8
0
100
AcDbLine
 10
3.325
 20
67.605
 30
0.0
 11
2.916
 21
67.515
 31
0.0
  0
LINE
  5
F75
330
A35
100
AcDbEntity
  8
0
100
AcDbLine
 10
3.337
 20
67.484
 30
0.0
 11
3.325
 21
67.605
 31
0.0
  0
LINE
  5
F76
330
A35
100
AcDbEntity
  8
0
100
AcDbLine
 10
2.893
 20
67.316
 30
0.0
 11
3.337
 21
67.484
 31
0.0
  0
LINE
  5
F77
330
A35
100
AcDbEntity
  8
0
100
AcDbLine
 10
2.783
 20
67.304
 30
0.0
 11
2.881
 21
67.304
 31
0.0
  0
LINE
  5
F78
330
A35
100
AcDbEntity
  8
0
100
AcDbLine
 10
2.716
 20
67.339
 30
0.0
 11
2.783
 21
67.304
 31
0.0
  0
LINE
  5
F79
330
A35
100
AcDbEntity
  8
0
100
AcDbLine
 10
2.759
 20
67.437
 30
0.0
 11
2.716
 21
67.339
 31
0.0
  0
LINE
  5
F7A
330
A35
100
AcDbEntity
  8
0
100
AcDbLine
 10
3.246
 20
67.625
 30
0.0
 11
2.759
 21
67.437
 31
0.0
  0
LINE
  5
F7B
330
A35
100
AcDbEntity
  8
0
100
AcDbLine
 10
3.404
 20
67.593
 30
0.0
 11
3.246
 21
67.625
 31
0.0
  0
LINE
  5
F7C
330
A35
100
AcDbEntity
  8
0
100
AcDbLine
 10
3.369
 20
67.484
 30
0.0
 11
3.404
 21
67.593
 31
0.0
  0
LINE
  5
F7D
330
A35
100
AcDbEntity
  8
0
100
AcDbLine
 10
2.881
 20
67.304
 30
0.0
 11
3.369
 21
67.484
 31
0.0
  0
LINE
  5
F7E
330
A35
100
AcDbEntity
  8
0
100
AcDbLine
 10
3.302
 20
69.288
 30
0.0
 11
3.459
 21
69.433
 31
0.0
  0
LINE
  5
F7F
330
A35
100
AcDbEntity
  8
0
100
AcDbLine
 10
3.302
 20
68.991
 30
0.0
 11
3.302
 21
69.288
 31
0.0
  0
LINE
  5
F80
330
A35
100
AcDbEntity
  8
0
100
AcDbLine
 10
4.146
 20
68.738
 30
0.0
 11
4.056
 21
68.804
 31
0.0
  0
LINE
  5
F81
330
A35
100
AcDbEntity
  8
0
100
AcDbLine
 10
3.745
 20
68.816
 30
0.0
 11
3.604
 21
68.706
 31
0.0
  0
LINE
  5
F82
330
A35
100
AcDbEntity
  8
0
100
AcDbLine
 10
3.757
 20
69.081
 30
0.0
 11
3.745
 21
68.816
 31
0.0
  0
LINE
  5
F83
330
A35
100
AcDbEntity
  8
0
100
AcDbLine
 10
3.636
 20
69.335
 30
0.0
 11
3.757
 21
69.081
 31
0.0
  0
LINE
  5
F84
330
A35
100
AcDbEntity
  8
0
100
AcDbLine
 10
3.459
 20
69.433
 30
0.0
 11
3.636
 21
69.335
 31
0.0
  0
LINE
  5
F85
330
A35
100
AcDbEntity
  8
0
100
AcDbLine
 10
2.551
 20
67.792
 30
0.0
 11
2.339
 21
67.921
 31
0.0
  0
LINE
  5
F86
330
A35
100
AcDbEntity
  8
0
100
AcDbLine
 10
3.081
 20
69.112
 30
0.0
 11
3.294
 21
68.98
 31
0.0
  0
LINE
  5
F87
330
A35
100
AcDbEntity
  8
0
100
AcDbLine
 10
2.936
 20
68.991
 30
0.0
 11
3.081
 21
69.112
 31
0.0
  0
LINE
  5
F88
330
A35
100
AcDbEntity
  8
0
100
AcDbLine
 10
2.928
 20
68.73
 30
0.0
 11
2.936
 21
68.991
 31
0.0
  0
LINE
  5
F89
330
A35
100
AcDbEntity
  8
0
100
AcDbLine
 10
3.05
 20
68.476
 30
0.0
 11
2.928
 21
68.73
 31
0.0
  0
LINE
  5
F8A
330
A35
100
AcDbEntity
  8
0
100
AcDbLine
 10
3.239
 20
68.386
 30
0.0
 11
3.05
 21
68.476
 31
0.0
  0
LINE
  5
F8B
330
A35
100
AcDbEntity
  8
0
100
AcDbLine
 10
2.692
 20
68.991
 30
0.0
 11
2.681
 21
68.905
 31
0.0
  0
LINE
  5
F8C
330
A35
100
AcDbEntity
  8
0
100
AcDbLine
 10
3.227
 20
67.945
 30
0.0
 11
3.125
 21
67.999
 31
0.0
  0
LINE
  5
F8D
330
A35
100
AcDbEntity
  8
0
100
AcDbLine
 10
3.093
 20
67.835
 30
0.0
 11
3.003
 21
67.89
 31
0.0
  0
LINE
  5
F8E
330
A35
100
AcDbEntity
  8
0
100
AcDbLine
 10
2.571
 20
68.882
 30
0.0
 11
2.559
 21
68.792
 31
0.0
  0
LINE
  5
F8F
330
A35
100
AcDbEntity
  8
0
100
AcDbLine
 10
2.692
 20
67.914
 30
0.0
 11
2.551
 21
67.792
 31
0.0
  0
LINE
  5
F90
330
A35
100
AcDbEntity
  8
0
100
AcDbLine
 10
2.704
 20
68.175
 30
0.0
 11
2.692
 21
67.914
 31
0.0
  0
LINE
  5
F91
330
A35
100
AcDbEntity
  8
0
100
AcDbLine
 10
2.582
 20
68.429
 30
0.0
 11
2.704
 21
68.175
 31
0.0
  0
LINE
  5
F92
330
A35
100
AcDbEntity
  8
0
100
AcDbLine
 10
2.406
 20
68.519
 30
0.0
 11
2.582
 21
68.429
 31
0.0
  0
LINE
  5
F93
330
A35
100
AcDbEntity
  8
0
100
AcDbLine
 10
3.812
 20
67.968
 30
0.0
 11
3.914
 21
67.89
 31
0.0
  0
LINE
  5
F94
330
A35
100
AcDbEntity
  8
0
100
AcDbLine
 10
3.604
 20
68.706
 30
0.0
 11
3.392
 21
68.827
 31
0.0
  0
LINE
  5
F95
330
A35
100
AcDbEntity
  8
0
100
AcDbLine
 10
3.38
 20
68.519
 30
0.0
 11
3.239
 21
68.386
 31
0.0
  0
LINE
  5
F96
330
A35
100
AcDbEntity
  8
0
100
AcDbLine
 10
3.38
 20
68.816
 30
0.0
 11
3.38
 21
68.519
 31
0.0
  0
LINE
  5
F97
330
A35
100
AcDbEntity
  8
0
100
AcDbLine
 10
4.28
 20
68.851
 30
0.0
 11
4.178
 21
68.917
 31
0.0
  0
LINE
  5
F98
330
A35
100
AcDbEntity
  8
0
100
AcDbLine
 10
4.866
 20
68.87
 30
0.0
 11
4.968
 21
68.792
 31
0.0
  0
LINE
  5
F99
330
A35
100
AcDbEntity
  8
0
100
AcDbLine
 10
6.983
 20
68.034
 30
0.0
 11
6.928
 21
68.156
 31
0.0
  0
LINE
  5
F9A
330
A35
100
AcDbEntity
  8
0
100
AcDbLine
 10
5.199
 20
69.643
 30
0.0
 11
5.109
 21
69.71
 31
0.0
  0
LINE
  5
F9B
330
A35
100
AcDbEntity
  8
0
100
AcDbLine
 10
1.007
 20
69.456
 30
0.0
 11
1.019
 21
69.476
 31
0.0
  0
LINE
  5
F9C
330
A35
100
AcDbEntity
  8
0
100
AcDbLine
 10
4.657
 20
69.608
 30
0.0
 11
4.445
 21
69.741
 31
0.0
  0
LINE
  5
F9D
330
A35
100
AcDbEntity
  8
0
100
AcDbLine
 10
4.433
 20
69.433
 30
0.0
 11
4.292
 21
69.288
 31
0.0
  0
LINE
  5
F9E
330
A35
100
AcDbEntity
  8
0
100
AcDbLine
 10
4.433
 20
69.729
 30
0.0
 11
4.433
 21
69.433
 31
0.0
  0
LINE
  5
F9F
330
A35
100
AcDbEntity
  8
0
100
AcDbLine
 10
3.745
 20
69.897
 30
0.0
 11
3.738
 21
69.808
 31
0.0
  0
LINE
  5
FA0
330
A35
100
AcDbEntity
  8
0
100
AcDbLine
 10
4.359
 20
70.194
 30
0.0
 11
4.512
 21
70.339
 31
0.0
  0
LINE
  5
FA1
330
A35
100
AcDbEntity
  8
0
100
AcDbLine
 10
4.359
 20
69.897
 30
0.0
 11
4.359
 21
70.194
 31
0.0
  0
LINE
  5
FA2
330
A35
100
AcDbEntity
  8
0
100
AcDbLine
 10
3.624
 20
69.788
 30
0.0
 11
3.612
 21
69.698
 31
0.0
  0
LINE
  5
FA3
330
A35
100
AcDbEntity
  8
0
100
AcDbLine
 10
4.135
 20
70.018
 30
0.0
 11
4.347
 21
69.886
 31
0.0
  0
LINE
  5
FA4
330
A35
100
AcDbEntity
  8
0
100
AcDbLine
 10
3.989
 20
69.897
 30
0.0
 11
4.135
 21
70.018
 31
0.0
  0
LINE
  5
FA5
330
A35
100
AcDbEntity
  8
0
100
AcDbLine
 10
3.981
 20
69.643
 30
0.0
 11
3.989
 21
69.897
 31
0.0
  0
LINE
  5
FA6
330
A35
100
AcDbEntity
  8
0
100
AcDbLine
 10
4.103
 20
69.39
 30
0.0
 11
3.981
 21
69.643
 31
0.0
  0
LINE
  5
FA7
330
A35
100
AcDbEntity
  8
0
100
AcDbLine
 10
4.292
 20
69.288
 30
0.0
 11
4.103
 21
69.39
 31
0.0
  0
LINE
  5
FA8
330
A35
100
AcDbEntity
  8
0
100
AcDbLine
 10
4.799
 20
69.729
 30
0.0
 11
4.657
 21
69.608
 31
0.0
  0
LINE
  5
FA9
330
A35
100
AcDbEntity
  8
0
100
AcDbLine
 10
4.81
 20
69.983
 30
0.0
 11
4.799
 21
69.729
 31
0.0
  0
LINE
  5
FAA
330
A35
100
AcDbEntity
  8
0
100
AcDbLine
 10
4.689
 20
70.237
 30
0.0
 11
4.81
 21
69.983
 31
0.0
  0
LINE
  5
FAB
330
A35
100
AcDbEntity
  8
0
100
AcDbLine
 10
4.512
 20
70.339
 30
0.0
 11
4.689
 21
70.237
 31
0.0
  0
LINE
  5
FAC
330
A35
100
AcDbEntity
  8
0
100
AcDbLine
 10
2.893
 20
67.007
 30
0.0
 11
2.795
 21
67.074
 31
0.0
  0
LINE
  5
FAD
330
A35
100
AcDbEntity
  8
0
100
AcDbLine
 10
2.174
 20
67.031
 30
0.0
 11
2.072
 21
67.097
 31
0.0
  0
LINE
  5
FAE
330
A35
100
AcDbEntity
  8
0
100
AcDbLine
 10
2.771
 20
67.062
 30
0.0
 11
2.783
 21
67.074
 31
0.0
  0
LINE
  5
FAF
330
A35
100
AcDbEntity
  8
0
100
AcDbLine
 10
3.125
 20
66.457
 30
0.0
 11
3.137
 21
66.48
 31
0.0
  0
LINE
  5
FB0
330
A35
100
AcDbEntity
  8
0
100
AcDbLine
 10
3.239
 20
66.402
 30
0.0
 11
3.137
 21
66.48
 31
0.0
  0
LINE
  5
FB1
330
A35
100
AcDbEntity
  8
0
100
AcDbLine
 10
5.655
 20
67.05
 30
0.0
 11
5.643
 21
67.031
 31
0.0
  0
LINE
  5
FB2
330
A35
100
AcDbEntity
  8
0
100
AcDbLine
 10
5.533
 20
66.875
 30
0.0
 11
5.541
 21
66.898
 31
0.0
  0
LINE
  5
FB3
330
A35
100
AcDbEntity
  8
0
100
AcDbLine
 10
2.972
 20
67.007
 30
0.0
 11
2.948
 21
66.996
 31
0.0
  0
LINE
  5
FB4
330
A35
100
AcDbEntity
  8
0
100
AcDbLine
 10
50.744
 20
53.823
 30
0.0
 11
50.744
 21
53.921
 31
0.0
  0
LINE
  5
FB5
330
A35
100
AcDbEntity
  8
0
100
AcDbLine
 10
37.993
 20
57.295
 30
0.0
 11
37.993
 21
57.131
 31
0.0
  0
LINE
  5
FB6
330
A35
100
AcDbEntity
  8
0
100
AcDbLine
 10
41.919
 20
59.841
 30
0.0
 11
41.919
 21
57.959
 31
0.0
  0
LINE
  5
FB7
330
A35
100
AcDbEntity
  8
0
100
AcDbLine
 10
43.867
 20
57.959
 30
0.0
 11
43.867
 21
59.841
 31
0.0
  0
LINE
  5
FB8
330
A35
100
AcDbEntity
  8
0
100
AcDbLine
 10
41.938
 20
58.22
 30
0.0
 11
41.938
 21
57.959
 31
0.0
  0
LINE
  5
FB9
330
A35
100
AcDbEntity
  8
0
100
AcDbLine
 10
41.317
 20
57.9
 30
0.0
 11
41.353
 21
58.377
 31
0.0
  0
LINE
  5
FBA
330
A35
100
AcDbEntity
  8
0
100
AcDbLine
 10
41.718
 20
58.334
 30
0.0
 11
41.687
 21
57.935
 31
0.0
  0
LINE
  5
FBB
330
A35
100
AcDbEntity
  8
0
100
AcDbLine
 10
41.596
 20
57.935
 30
0.0
 11
41.596
 21
58.334
 31
0.0
  0
LINE
  5
FBC
330
A35
100
AcDbEntity
  8
0
100
AcDbLine
 10
41.73
 20
58.576
 30
0.0
 11
41.73
 21
57.947
 31
0.0
  0
LINE
  5
FBD
330
A35
100
AcDbEntity
  8
0
100
AcDbLine
 10
41.553
 20
57.924
 30
0.0
 11
41.573
 21
58.334
 31
0.0
  0
LINE
  5
FBE
330
A35
100
AcDbEntity
  8
0
100
AcDbLine
 10
43.848
 20
58.22
 30
0.0
 11
43.848
 21
57.959
 31
0.0
  0
LINE
  5
FBF
330
A35
100
AcDbEntity
  8
0
100
AcDbLine
 10
44.056
 20
57.947
 30
0.0
 11
44.056
 21
58.576
 31
0.0
  0
LINE
  5
FC0
330
A35
100
AcDbEntity
  8
0
100
AcDbLine
 10
44.08
 20
58.334
 30
0.0
 11
44.103
 21
57.935
 31
0.0
  0
LINE
  5
FC1
330
A35
100
AcDbEntity
  8
0
100
AcDbLine
 10
44.19
 20
57.935
 30
0.0
 11
44.201
 21
58.334
 31
0.0
  0
LINE
  5
FC2
330
A35
100
AcDbEntity
  8
0
100
AcDbLine
 10
44.213
 20
58.334
 30
0.0
 11
44.245
 21
57.924
 31
0.0
  0
LINE
  5
FC3
330
A35
100
AcDbEntity
  8
0
100
AcDbLine
 10
44.481
 20
57.9
 30
0.0
 11
44.445
 21
58.377
 31
0.0
  0
LINE
  5
FC4
330
A35
100
AcDbEntity
  8
0
100
AcDbLine
 10
44.535
 20
58.275
 30
0.0
 11
44.524
 21
57.9
 31
0.0
  0
LINE
  5
FC5
330
A35
100
AcDbEntity
  8
0
100
AcDbLine
 10
44.555
 20
57.9
 30
0.0
 11
44.555
 21
58.201
 31
0.0
  0
LINE
  5
FC6
330
A35
100
AcDbEntity
  8
0
100
AcDbLine
 10
44.555
 20
58.201
 30
0.0
 11
44.567
 21
57.892
 31
0.0
  0
LINE
  5
FC7
330
A35
100
AcDbEntity
  8
0
100
AcDbLine
 10
47.793
 20
57.307
 30
0.0
 11
47.793
 21
57.131
 31
0.0
  0
LINE
  5
FC8
330
A35
100
AcDbEntity
  8
0
100
AcDbLine
 10
35.042
 20
53.921
 30
0.0
 11
35.054
 21
53.823
 31
0.0
  0
LINE
  5
FC9
330
A35
100
AcDbEntity
  8
0
100
AcDbLine
 10
41.219
 20
59.58
 30
0.0
 11
41.286
 21
59.587
 31
0.0
  0
LINE
  5
FCA
330
A35
100
AcDbEntity
  8
0
100
AcDbLine
 10
43.86
 20
59.755
 30
0.0
 11
43.86
 21
59.83
 31
0.0
  0
LINE
  5
FCB
330
A35
100
AcDbEntity
  8
0
100
AcDbLine
 10
44.233
 20
60.083
 30
0.0
 11
44.457
 21
60.083
 31
0.0
  0
LINE
  5
FCC
330
A35
100
AcDbEntity
  8
0
100
AcDbLine
 10
44.17
 20
59.841
 30
0.0
 11
43.867
 21
59.841
 31
0.0
  0
LINE
  5
FCD
330
A35
100
AcDbEntity
  8
0
100
AcDbLine
 10
44.17
 20
59.841
 30
0.0
 11
44.17
 21
58.576
 31
0.0
  0
LINE
  5
FCE
330
A35
100
AcDbEntity
  8
0
100
AcDbLine
 10
44.445
 20
58.377
 30
0.0
 11
44.445
 21
59.986
 31
0.0
  0
LINE
  5
FCF
330
A35
100
AcDbEntity
  8
0
100
AcDbLine
 10
44.445
 20
59.986
 30
0.0
 11
44.457
 21
60.083
 31
0.0
  0
LINE
  5
FD0
330
A35
100
AcDbEntity
  8
0
100
AcDbLine
 10
44.524
 20
59.447
 30
0.0
 11
44.457
 21
60.083
 31
0.0
  0
LINE
  5
FD1
330
A35
100
AcDbEntity
  8
0
100
AcDbLine
 10
44.213
 20
59.896
 30
0.0
 11
43.867
 21
59.896
 31
0.0
  0
LINE
  5
FD2
330
A35
100
AcDbEntity
  8
0
100
AcDbLine
 10
43.867
 20
59.896
 30
0.0
 11
43.867
 21
59.841
 31
0.0
  0
LINE
  5
FD3
330
A35
100
AcDbEntity
  8
0
100
AcDbLine
 10
44.213
 20
59.896
 30
0.0
 11
44.233
 21
60.083
 31
0.0
  0
LINE
  5
FD4
330
A35
100
AcDbEntity
  8
0
100
AcDbLine
 10
43.86
 20
59.755
 30
0.0
 11
43.86
 21
58.334
 31
0.0
  0
LINE
  5
FD5
330
A35
100
AcDbEntity
  8
0
100
AcDbLine
 10
41.585
 20
59.896
 30
0.0
 11
41.573
 21
59.896
 31
0.0
  0
LINE
  5
FD6
330
A35
100
AcDbEntity
  8
0
100
AcDbLine
 10
41.919
 20
59.841
 30
0.0
 11
41.919
 21
59.896
 31
0.0
  0
LINE
  5
FD7
330
A35
100
AcDbEntity
  8
0
100
AcDbLine
 10
41.93
 20
59.755
 30
0.0
 11
41.93
 21
58.334
 31
0.0
  0
LINE
  5
FD8
330
A35
100
AcDbEntity
  8
0
100
AcDbLine
 10
44.056
 20
58.576
 30
0.0
 11
44.08
 21
58.334
 31
0.0
  0
LINE
  5
FD9
330
A35
100
AcDbEntity
  8
0
100
AcDbLine
 10
41.73
 20
58.576
 30
0.0
 11
41.718
 21
58.334
 31
0.0
  0
LINE
  5
FDA
330
A35
100
AcDbEntity
  8
0
100
AcDbLine
 10
44.08
 20
58.334
 30
0.0
 11
44.213
 21
58.334
 31
0.0
  0
LINE
  5
FDB
330
A35
100
AcDbEntity
  8
0
100
AcDbLine
 10
43.848
 20
58.22
 30
0.0
 11
43.813
 21
58.22
 31
0.0
  0
LINE
  5
FDC
330
A35
100
AcDbEntity
  8
0
100
AcDbLine
 10
41.938
 20
58.22
 30
0.0
 11
41.93
 21
58.334
 31
0.0
  0
LINE
  5
FDD
330
A35
100
AcDbEntity
  8
0
100
AcDbLine
 10
41.718
 20
58.334
 30
0.0
 11
41.573
 21
58.334
 31
0.0
  0
LINE
  5
FDE
330
A35
100
AcDbEntity
  8
0
100
AcDbLine
 10
41.938
 20
58.22
 30
0.0
 11
41.973
 21
58.22
 31
0.0
  0
LINE
  5
FDF
330
A35
100
AcDbEntity
  8
0
100
AcDbLine
 10
44.524
 20
58.521
 30
0.0
 11
44.567
 21
58.509
 31
0.0
  0
LINE
  5
FE0
330
A35
100
AcDbEntity
  8
0
100
AcDbLine
 10
41.73
 20
58.576
 30
0.0
 11
41.628
 21
58.576
 31
0.0
  0
LINE
  5
FE1
330
A35
100
AcDbEntity
  8
0
100
AcDbLine
 10
43.86
 20
58.334
 30
0.0
 11
43.848
 21
58.22
 31
0.0
  0
LINE
  5
FE2
330
A35
100
AcDbEntity
  8
0
100
AcDbLine
 10
44.056
 20
58.576
 30
0.0
 11
44.17
 21
58.576
 31
0.0
  0
LINE
  5
FE3
330
A35
100
AcDbEntity
  8
0
100
AcDbLine
 10
44.524
 20
58.287
 30
0.0
 11
44.535
 21
58.275
 31
0.0
  0
LINE
  5
FE4
330
A35
100
AcDbEntity
  8
0
100
AcDbLine
 10
41.573
 20
59.896
 30
0.0
 11
41.561
 21
60.083
 31
0.0
  0
LINE
  5
FE5
330
A35
100
AcDbEntity
  8
0
100
AcDbLine
 10
41.341
 20
60.083
 30
0.0
 11
41.353
 21
59.986
 31
0.0
  0
LINE
  5
FE6
330
A35
100
AcDbEntity
  8
0
100
AcDbLine
 10
41.341
 20
60.083
 30
0.0
 11
41.561
 21
60.083
 31
0.0
  0
LINE
  5
FE7
330
A35
100
AcDbEntity
  8
0
100
AcDbLine
 10
41.573
 20
59.896
 30
0.0
 11
41.919
 21
59.896
 31
0.0
  0
LINE
  5
FE8
330
A35
100
AcDbEntity
  8
0
100
AcDbLine
 10
41.919
 20
59.896
 30
0.0
 11
41.585
 21
59.896
 31
0.0
  0
LINE
  5
FE9
330
A35
100
AcDbEntity
  8
0
100
AcDbLine
 10
41.353
 20
59.986
 30
0.0
 11
41.353
 21
58.377
 31
0.0
  0
LINE
  5
FEA
330
A35
100
AcDbEntity
  8
0
100
AcDbLine
 10
41.628
 20
59.841
 30
0.0
 11
41.919
 21
59.841
 31
0.0
  0
LINE
  5
FEB
330
A35
100
AcDbEntity
  8
0
100
AcDbLine
 10
41.628
 20
59.841
 30
0.0
 11
41.628
 21
58.576
 31
0.0
  0
LINE
  5
FEC
330
A35
100
AcDbEntity
  8
0
100
AcDbLine
 10
41.274
 20
59.466
 30
0.0
 11
41.341
 21
60.083
 31
0.0
  0
LINE
  5
FED
330
A35
100
AcDbEntity
  8
0
100
AcDbLine
 10
46.009
 20
57.9
 30
0.0
 11
45.663
 21
58.088
 31
0.0
  0
LINE
  5
FEE
330
A35
100
AcDbEntity
  8
0
100
AcDbLine
 10
45.412
 20
57.99
 30
0.0
 11
45.553
 21
57.892
 31
0.0
  0
LINE
  5
FEF
330
A35
100
AcDbEntity
  8
0
100
AcDbLine
 10
45.542
 20
59.357
 30
0.0
 11
45.655
 21
59.302
 31
0.0
  0
LINE
  5
FF0
330
A35
100
AcDbEntity
  8
0
100
AcDbLine
 10
45.023
 20
59.49
 30
0.0
 11
45.164
 21
59.466
 31
0.0
  0
LINE
  5
FF1
330
A35
100
AcDbEntity
  8
0
100
AcDbLine
 10
45.034
 20
58.365
 30
0.0
 11
45.164
 21
58.334
 31
0.0
  0
LINE
  5
FF2
330
A35
100
AcDbEntity
  8
0
100
AcDbLine
 10
45.377
 20
58.275
 30
0.0
 11
45.164
 21
58.334
 31
0.0
  0
LINE
  5
FF3
330
A35
100
AcDbEntity
  8
0
100
AcDbLine
 10
45.133
 20
58.111
 30
0.0
 11
45.164
 21
58.322
 31
0.0
  0
LINE
  5
FF4
330
A35
100
AcDbEntity
  8
0
100
AcDbLine
 10
45.553
 20
58.166
 30
0.0
 11
45.388
 21
58.267
 31
0.0
  0
LINE
  5
FF5
330
A35
100
AcDbEntity
  8
0
100
AcDbLine
 10
45.034
 20
58.365
 30
0.0
 11
44.567
 21
58.521
 31
0.0
  0
LINE
  5
FF6
330
A35
100
AcDbEntity
  8
0
100
AcDbLine
 10
44.956
 20
58.154
 30
0.0
 11
45.145
 21
58.099
 31
0.0
  0
LINE
  5
FF7
330
A35
100
AcDbEntity
  8
0
100
AcDbLine
 10
44.555
 20
58.201
 30
0.0
 11
44.535
 21
58.275
 31
0.0
  0
LINE
  5
FF8
330
A35
100
AcDbEntity
  8
0
100
AcDbLine
 10
44.944
 20
58.154
 30
0.0
 11
44.524
 21
58.287
 31
0.0
  0
LINE
  5
FF9
330
A35
100
AcDbEntity
  8
0
100
AcDbLine
 10
45.023
 20
59.49
 30
0.0
 11
44.834
 21
59.533
 31
0.0
  0
LINE
  5
FFA
330
A35
100
AcDbEntity
  8
0
100
AcDbLine
 10
45.553
 20
58.177
 30
0.0
 11
45.663
 21
58.088
 31
0.0
  0
LINE
  5
FFB
330
A35
100
AcDbEntity
  8
0
100
AcDbLine
 10
48.779
 20
56.635
 30
0.0
 11
46.818
 21
57.428
 31
0.0
  0
LINE
  5
FFC
330
A35
100
AcDbEntity
  8
0
100
AcDbLine
 10
49.758
 20
55.952
 30
0.0
 11
48.779
 21
56.635
 31
0.0
  0
LINE
  5
FFD
330
A35
100
AcDbEntity
  8
0
100
AcDbLine
 10
50.52
 20
54.971
 30
0.0
 11
49.758
 21
55.952
 31
0.0
  0
LINE
  5
FFE
330
A35
100
AcDbEntity
  8
0
100
AcDbLine
 10
50.665
 20
54.628
 30
0.0
 11
50.52
 21
54.971
 31
0.0
  0
LINE
  5
FFF
330
A35
100
AcDbEntity
  8
0
100
AcDbLine
 10
50.744
 20
53.921
 30
0.0
 11
50.665
 21
54.628
 31
0.0
  0
LINE
  5
1000
330
A35
100
AcDbEntity
  8
0
100
AcDbLine
 10
45.82
 20
59.236
 30
0.0
 11
45.655
 21
59.302
 31
0.0
  0
LINE
  5
1001
330
A35
100
AcDbEntity
  8
0
100
AcDbLine
 10
45.71
 20
57.791
 30
0.0
 11
45.608
 21
57.748
 31
0.0
  0
LINE
  5
1002
330
A35
100
AcDbEntity
  8
0
100
AcDbLine
 10
45.71
 20
57.791
 30
0.0
 11
45.997
 21
57.892
 31
0.0
  0
LINE
  5
1003
330
A35
100
AcDbEntity
  8
0
100
AcDbLine
 10
47.793
 20
57.307
 30
0.0
 11
47.75
 21
57.584
 31
0.0
  0
LINE
  5
1004
330
A35
100
AcDbEntity
  8
0
100
AcDbLine
 10
45.553
 20
57.881
 30
0.0
 11
45.71
 21
57.791
 31
0.0
  0
LINE
  5
1005
330
A35
100
AcDbEntity
  8
0
100
AcDbLine
 10
45.997
 20
57.67
 30
0.0
 11
45.997
 21
57.892
 31
0.0
  0
LINE
  5
1006
330
A35
100
AcDbEntity
  8
0
100
AcDbLine
 10
45.043
 20
57.9
 30
0.0
 11
45.278
 21
57.803
 31
0.0
  0
LINE
  5
1007
330
A35
100
AcDbEntity
  8
0
100
AcDbLine
 10
44.878
 20
57.857
 30
0.0
 11
45.043
 21
57.9
 31
0.0
  0
LINE
  5
1008
330
A35
100
AcDbEntity
  8
0
100
AcDbLine
 10
39.911
 20
56.061
 30
0.0
 11
39.977
 21
56.151
 31
0.0
  0
LINE
  5
1009
330
A35
100
AcDbEntity
  8
0
100
AcDbLine
 10
39.789
 20
55.686
 30
0.0
 11
39.911
 21
56.061
 31
0.0
  0
LINE
  5
100A
330
A35
100
AcDbEntity
  8
0
100
AcDbLine
 10
49.758
 20
55.952
 30
0.0
 11
50.209
 21
55.467
 31
0.0
  0
LINE
  5
100B
330
A35
100
AcDbEntity
  8
0
100
AcDbLine
 10
49.035
 20
56.502
 30
0.0
 11
49.758
 21
55.952
 31
0.0
  0
LINE
  5
100C
330
A35
100
AcDbEntity
  8
0
100
AcDbLine
 10
47.184
 20
57.35
 30
0.0
 11
49.035
 21
56.502
 31
0.0
  0
LINE
  5
100D
330
A35
100
AcDbEntity
  8
0
100
AcDbLine
 10
45.608
 20
57.748
 30
0.0
 11
47.184
 21
57.35
 31
0.0
  0
LINE
  5
100E
330
A35
100
AcDbEntity
  8
0
100
AcDbLine
 10
44.724
 20
57.881
 30
0.0
 11
45.608
 21
57.748
 31
0.0
  0
LINE
  5
100F
330
A35
100
AcDbEntity
  8
0
100
AcDbLine
 10
42.893
 20
57.99
 30
0.0
 11
44.724
 21
57.881
 31
0.0
  0
LINE
  5
1010
330
A35
100
AcDbEntity
  8
0
100
AcDbLine
 10
40.94
 20
57.857
 30
0.0
 11
42.893
 21
57.99
 31
0.0
  0
LINE
  5
1011
330
A35
100
AcDbEntity
  8
0
100
AcDbLine
 10
39.612
 20
57.627
 30
0.0
 11
40.94
 21
57.857
 31
0.0
  0
LINE
  5
1012
330
A35
100
AcDbEntity
  8
0
100
AcDbLine
 10
38.614
 20
57.35
 30
0.0
 11
39.612
 21
57.627
 31
0.0
  0
LINE
  5
1013
330
A35
100
AcDbEntity
  8
0
100
AcDbLine
 10
37.317
 20
56.822
 30
0.0
 11
38.614
 21
57.35
 31
0.0
  0
LINE
  5
1014
330
A35
100
AcDbEntity
  8
0
100
AcDbLine
 10
36.763
 20
56.502
 30
0.0
 11
37.317
 21
56.822
 31
0.0
  0
LINE
  5
1015
330
A35
100
AcDbEntity
  8
0
100
AcDbLine
 10
36.143
 20
56.049
 30
0.0
 11
36.763
 21
56.502
 31
0.0
  0
LINE
  5
1016
330
A35
100
AcDbEntity
  8
0
100
AcDbLine
 10
35.577
 20
55.456
 30
0.0
 11
36.143
 21
56.049
 31
0.0
  0
LINE
  5
1017
330
A35
100
AcDbEntity
  8
0
100
AcDbLine
 10
47.836
 20
55.167
 30
0.0
 11
47.007
 21
55.709
 31
0.0
  0
LINE
  5
1018
330
A35
100
AcDbEntity
  8
0
100
AcDbLine
 10
48.139
 20
54.858
 30
0.0
 11
47.836
 21
55.167
 31
0.0
  0
LINE
  5
1019
330
A35
100
AcDbEntity
  8
0
100
AcDbLine
 10
48.371
 20
54.55
 30
0.0
 11
48.139
 21
54.858
 31
0.0
  0
LINE
  5
101A
330
A35
100
AcDbEntity
  8
0
100
AcDbLine
 10
48.602
 20
53.89
 30
0.0
 11
48.371
 21
54.55
 31
0.0
  0
LINE
  5
101B
330
A35
100
AcDbEntity
  8
0
100
AcDbLine
 10
48.504
 20
53.206
 30
0.0
 11
48.602
 21
53.89
 31
0.0
  0
LINE
  5
101C
330
A35
100
AcDbEntity
  8
0
100
AcDbLine
 10
48.335
 20
52.874
 30
0.0
 11
48.504
 21
53.206
 31
0.0
  0
LINE
  5
101D
330
A35
100
AcDbEntity
  8
0
100
AcDbLine
 10
48.091
 20
52.554
 30
0.0
 11
48.335
 21
52.874
 31
0.0
  0
LINE
  5
101E
330
A35
100
AcDbEntity
  8
0
100
AcDbLine
 10
47.396
 20
51.984
 30
0.0
 11
48.091
 21
52.554
 31
0.0
  0
LINE
  5
101F
330
A35
100
AcDbEntity
  8
0
100
AcDbLine
 10
45.887
 20
51.32
 30
0.0
 11
47.396
 21
51.984
 31
0.0
  0
LINE
  5
1020
330
A35
100
AcDbEntity
  8
0
100
AcDbLine
 10
44.414
 20
51.0
 30
0.0
 11
45.887
 21
51.32
 31
0.0
  0
LINE
  5
1021
330
A35
100
AcDbEntity
  8
0
100
AcDbLine
 10
43.526
 20
50.914
 30
0.0
 11
44.414
 21
51.0
 31
0.0
  0
LINE
  5
1022
330
A35
100
AcDbEntity
  8
0
100
AcDbLine
 10
41.742
 20
50.957
 30
0.0
 11
43.526
 21
50.914
 31
0.0
  0
LINE
  5
1023
330
A35
100
AcDbEntity
  8
0
100
AcDbLine
 10
40.044
 20
51.277
 30
0.0
 11
41.742
 21
50.957
 31
0.0
  0
LINE
  5
1024
330
A35
100
AcDbEntity
  8
0
100
AcDbLine
 10
41.486
 20
50.871
 30
0.0
 11
39.934
 21
51.179
 31
0.0
  0
LINE
  5
1025
330
A35
100
AcDbEntity
  8
0
100
AcDbLine
 10
43.149
 20
50.793
 30
0.0
 11
41.486
 21
50.871
 31
0.0
  0
LINE
  5
1026
330
A35
100
AcDbEntity
  8
0
100
AcDbLine
 10
43.982
 20
50.836
 30
0.0
 11
43.149
 21
50.793
 31
0.0
  0
LINE
  5
1027
330
A35
100
AcDbEntity
  8
0
100
AcDbLine
 10
45.565
 20
51.101
 30
0.0
 11
43.982
 21
50.836
 31
0.0
  0
LINE
  5
1028
330
A35
100
AcDbEntity
  8
0
100
AcDbLine
 10
46.928
 20
51.574
 30
0.0
 11
45.565
 21
51.101
 31
0.0
  0
LINE
  5
1029
330
A35
100
AcDbEntity
  8
0
100
AcDbLine
 10
47.895
 20
52.159
 30
0.0
 11
46.928
 21
51.574
 31
0.0
  0
LINE
  5
102A
330
A35
100
AcDbEntity
  8
0
100
AcDbLine
 10
48.225
 20
52.456
 30
0.0
 11
47.895
 21
52.159
 31
0.0
  0
LINE
  5
102B
330
A35
100
AcDbEntity
  8
0
100
AcDbLine
 10
48.669
 20
53.085
 30
0.0
 11
48.225
 21
52.456
 31
0.0
  0
LINE
  5
102C
330
A35
100
AcDbEntity
  8
0
100
AcDbLine
 10
48.803
 20
53.757
 30
0.0
 11
48.669
 21
53.085
 31
0.0
  0
LINE
  5
102D
330
A35
100
AcDbEntity
  8
0
100
AcDbLine
 10
35.298
 20
52.952
 30
0.0
 11
35.054
 21
53.823
 31
0.0
  0
LINE
  5
102E
330
A35
100
AcDbEntity
  8
0
100
AcDbLine
 10
35.687
 20
52.39
 30
0.0
 11
35.298
 21
52.952
 31
0.0
  0
LINE
  5
102F
330
A35
100
AcDbEntity
  8
0
100
AcDbLine
 10
36.398
 20
51.73
 30
0.0
 11
35.687
 21
52.39
 31
0.0
  0
LINE
  5
1030
330
A35
100
AcDbEntity
  8
0
100
AcDbLine
 10
37.506
 20
51.078
 30
0.0
 11
36.398
 21
51.73
 31
0.0
  0
LINE
  5
1031
330
A35
100
AcDbEntity
  8
0
100
AcDbLine
 10
38.779
 20
50.582
 30
0.0
 11
37.506
 21
51.078
 31
0.0
  0
LINE
  5
1032
330
A35
100
AcDbEntity
  8
0
100
AcDbLine
 10
40.178
 20
50.242
 30
0.0
 11
38.779
 21
50.582
 31
0.0
  0
LINE
  5
1033
330
A35
100
AcDbEntity
  8
0
100
AcDbLine
 10
42.893
 20
50.0
 30
0.0
 11
40.178
 21
50.242
 31
0.0
  0
LINE
  5
1034
330
A35
100
AcDbEntity
  8
0
100
AcDbLine
 10
44.335
 20
50.062
 30
0.0
 11
42.893
 21
50.0
 31
0.0
  0
LINE
  5
1035
330
A35
100
AcDbEntity
  8
0
100
AcDbLine
 10
45.887
 20
50.297
 30
0.0
 11
44.335
 21
50.062
 31
0.0
  0
LINE
  5
1036
330
A35
100
AcDbEntity
  8
0
100
AcDbLine
 10
47.007
 20
50.582
 30
0.0
 11
45.887
 21
50.297
 31
0.0
  0
LINE
  5
1037
330
A35
100
AcDbEntity
  8
0
100
AcDbLine
 10
48.28
 20
51.078
 30
0.0
 11
47.007
 21
50.582
 31
0.0
  0
LINE
  5
1038
330
A35
100
AcDbEntity
  8
0
100
AcDbLine
 10
49.455
 20
51.773
 30
0.0
 11
48.28
 21
51.078
 31
0.0
  0
LINE
  5
1039
330
A35
100
AcDbEntity
  8
0
100
AcDbLine
 10
50.123
 20
52.402
 30
0.0
 11
49.455
 21
51.773
 31
0.0
  0
LINE
  5
103A
330
A35
100
AcDbEntity
  8
0
100
AcDbLine
 10
50.555
 20
53.097
 30
0.0
 11
50.123
 21
52.402
 31
0.0
  0
LINE
  5
103B
330
A35
100
AcDbEntity
  8
0
100
AcDbLine
 10
50.744
 20
53.823
 30
0.0
 11
50.555
 21
53.097
 31
0.0
  0
LINE
  5
103C
330
A35
100
AcDbEntity
  8
0
100
AcDbLine
 10
38.991
 20
51.664
 30
0.0
 11
40.044
 21
51.277
 31
0.0
  0
LINE
  5
103D
330
A35
100
AcDbEntity
  8
0
100
AcDbLine
 10
38.158
 20
52.148
 30
0.0
 11
38.991
 21
51.664
 31
0.0
  0
LINE
  5
103E
330
A35
100
AcDbEntity
  8
0
100
AcDbLine
 10
37.561
 20
52.71
 30
0.0
 11
38.158
 21
52.148
 31
0.0
  0
LINE
  5
103F
330
A35
100
AcDbEntity
  8
0
100
AcDbLine
 10
37.239
 20
53.339
 30
0.0
 11
37.561
 21
52.71
 31
0.0
  0
LINE
  5
1040
330
A35
100
AcDbEntity
  8
0
100
AcDbLine
 10
37.207
 20
53.987
 30
0.0
 11
37.239
 21
53.339
 31
0.0
  0
LINE
  5
1041
330
A35
100
AcDbEntity
  8
0
100
AcDbLine
 10
37.463
 20
54.616
 30
0.0
 11
37.207
 21
53.987
 31
0.0
  0
LINE
  5
1042
330
A35
100
AcDbEntity
  8
0
100
AcDbLine
 10
37.993
 20
55.19
 30
0.0
 11
37.463
 21
54.616
 31
0.0
  0
LINE
  5
1043
330
A35
100
AcDbEntity
  8
0
100
AcDbLine
 10
38.779
 20
55.709
 30
0.0
 11
37.993
 21
55.19
 31
0.0
  0
LINE
  5
1044
330
A35
100
AcDbEntity
  8
0
100
AcDbLine
 10
37.093
 20
53.151
 30
0.0
 11
36.983
 21
53.757
 31
0.0
  0
LINE
  5
1045
330
A35
100
AcDbEntity
  8
0
100
AcDbLine
 10
37.726
 20
52.292
 30
0.0
 11
37.093
 21
53.151
 31
0.0
  0
LINE
  5
1046
330
A35
100
AcDbEntity
  8
0
100
AcDbLine
 10
38.913
 20
51.554
 30
0.0
 11
37.726
 21
52.292
 31
0.0
  0
LINE
  5
1047
330
A35
100
AcDbEntity
  8
0
100
AcDbLine
 10
39.934
 20
51.179
 30
0.0
 11
38.913
 21
51.554
 31
0.0
  0
LINE
  5
1048
330
A35
100
AcDbEntity
  8
0
100
AcDbLine
 10
47.95
 20
55.135
 30
0.0
 11
47.007
 21
55.709
 31
0.0
  0
LINE
  5
1049
330
A35
100
AcDbEntity
  8
0
100
AcDbLine
 10
48.28
 20
54.815
 30
0.0
 11
47.95
 21
55.135
 31
0.0
  0
LINE
  5
104A
330
A35
100
AcDbEntity
  8
0
100
AcDbLine
 10
48.657
 20
54.276
 30
0.0
 11
48.28
 21
54.815
 31
0.0
  0
LINE
  5
104B
330
A35
100
AcDbEntity
  8
0
100
AcDbLine
 10
48.814
 20
53.702
 30
0.0
 11
48.657
 21
54.276
 31
0.0
  0
LINE
  5
104C
330
A35
100
AcDbEntity
  8
0
100
AcDbLine
 10
45.997
 20
55.686
 30
0.0
 11
45.809
 21
56.151
 31
0.0
  0
LINE
  5
104D
330
A35
100
AcDbEntity
  8
0
100
AcDbLine
 10
45.887
 20
56.139
 30
0.0
 11
45.93
 21
56.127
 31
0.0
  0
LINE
  5
104E
330
A35
100
AcDbEntity
  8
0
100
AcDbLine
 10
37.129
 20
54.276
 30
0.0
 11
36.972
 21
53.702
 31
0.0
  0
LINE
  5
104F
330
A35
100
AcDbEntity
  8
0
100
AcDbLine
 10
37.494
 20
54.803
 30
0.0
 11
37.129
 21
54.276
 31
0.0
  0
LINE
  5
1050
330
A35
100
AcDbEntity
  8
0
100
AcDbLine
 10
37.938
 20
55.202
 30
0.0
 11
37.494
 21
54.803
 31
0.0
  0
LINE
  5
1051
330
A35
100
AcDbEntity
  8
0
100
AcDbLine
 10
38.779
 20
55.709
 30
0.0
 11
37.938
 21
55.202
 31
0.0
  0
LINE
  5
1052
330
A35
100
AcDbEntity
  8
0
100
AcDbLine
 10
39.765
 20
56.096
 30
0.0
 11
38.779
 21
55.709
 31
0.0
  0
LINE
  5
1053
330
A35
100
AcDbEntity
  8
0
100
AcDbLine
 10
41.066
 20
56.393
 30
0.0
 11
39.765
 21
56.096
 31
0.0
  0
LINE
  5
1054
330
A35
100
AcDbEntity
  8
0
100
AcDbLine
 10
42.893
 20
56.533
 30
0.0
 11
41.066
 21
56.393
 31
0.0
  0
LINE
  5
1055
330
A35
100
AcDbEntity
  8
0
100
AcDbLine
 10
45.101
 20
56.327
 30
0.0
 11
42.893
 21
56.533
 31
0.0
  0
LINE
  5
1056
330
A35
100
AcDbEntity
  8
0
100
AcDbLine
 10
46.021
 20
56.096
 30
0.0
 11
45.101
 21
56.327
 31
0.0
  0
LINE
  5
1057
330
A35
100
AcDbEntity
  8
0
100
AcDbLine
 10
47.007
 20
55.709
 30
0.0
 11
46.021
 21
56.096
 31
0.0
  0
LINE
  5
1058
330
A35
100
AcDbEntity
  8
0
100
AcDbLine
 10
39.923
 20
55.233
 30
0.0
 11
39.789
 21
55.686
 31
0.0
  0
LINE
  5
1059
330
A35
100
AcDbEntity
  8
0
100
AcDbLine
 10
40.088
 20
55.026
 30
0.0
 11
39.923
 21
55.233
 31
0.0
  0
LINE
  5
105A
330
A35
100
AcDbEntity
  8
0
100
AcDbLine
 10
40.932
 20
54.483
 30
0.0
 11
40.088
 21
55.026
 31
0.0
  0
LINE
  5
105B
330
A35
100
AcDbEntity
  8
0
100
AcDbLine
 10
41.93
 20
54.222
 30
0.0
 11
40.932
 21
54.483
 31
0.0
  0
LINE
  5
105C
330
A35
100
AcDbEntity
  8
0
100
AcDbLine
 10
43.227
 20
54.155
 30
0.0
 11
41.93
 21
54.222
 31
0.0
  0
LINE
  5
105D
330
A35
100
AcDbEntity
  8
0
100
AcDbLine
 10
44.481
 20
54.354
 30
0.0
 11
43.227
 21
54.155
 31
0.0
  0
LINE
  5
105E
330
A35
100
AcDbEntity
  8
0
100
AcDbLine
 10
45.188
 20
54.651
 30
0.0
 11
44.481
 21
54.354
 31
0.0
  0
LINE
  5
105F
330
A35
100
AcDbEntity
  8
0
100
AcDbLine
 10
45.863
 20
55.233
 30
0.0
 11
45.188
 21
54.651
 31
0.0
  0
LINE
  5
1060
330
A35
100
AcDbEntity
  8
0
100
AcDbLine
 10
45.997
 20
55.686
 30
0.0
 11
45.863
 21
55.233
 31
0.0
  0
LINE
  5
1061
330
A35
100
AcDbEntity
  8
0
100
AcDbLine
 10
39.765
 20
55.741
 30
0.0
 11
39.966
 21
56.151
 31
0.0
  0
LINE
  5
1062
330
A35
100
AcDbEntity
  8
0
100
AcDbLine
 10
39.801
 20
55.323
 30
0.0
 11
39.765
 21
55.741
 31
0.0
  0
LINE
  5
1063
330
A35
100
AcDbEntity
  8
0
100
AcDbLine
 10
39.923
 20
55.081
 30
0.0
 11
39.801
 21
55.323
 31
0.0
  0
LINE
  5
1064
330
A35
100
AcDbEntity
  8
0
100
AcDbLine
 10
40.367
 20
54.651
 30
0.0
 11
39.923
 21
55.081
 31
0.0
  0
LINE
  5
1065
330
A35
100
AcDbEntity
  8
0
100
AcDbLine
 10
41.486
 20
54.186
 30
0.0
 11
40.367
 21
54.651
 31
0.0
  0
LINE
  5
1066
330
A35
100
AcDbEntity
  8
0
100
AcDbLine
 10
42.893
 20
54.022
 30
0.0
 11
41.486
 21
54.186
 31
0.0
  0
LINE
  5
1067
330
A35
100
AcDbEntity
  8
0
100
AcDbLine
 10
44.312
 20
54.186
 30
0.0
 11
42.893
 21
54.022
 31
0.0
  0
LINE
  5
1068
330
A35
100
AcDbEntity
  8
0
100
AcDbLine
 10
45.42
 20
54.651
 30
0.0
 11
44.312
 21
54.186
 31
0.0
  0
LINE
  5
1069
330
A35
100
AcDbEntity
  8
0
100
AcDbLine
 10
45.863
 20
55.081
 30
0.0
 11
45.42
 21
54.651
 31
0.0
  0
LINE
  5
106A
330
A35
100
AcDbEntity
  8
0
100
AcDbLine
 10
45.985
 20
55.323
 30
0.0
 11
45.863
 21
55.081
 31
0.0
  0
LINE
  5
106B
330
A35
100
AcDbEntity
  8
0
100
AcDbLine
 10
46.021
 20
55.741
 30
0.0
 11
45.985
 21
55.323
 31
0.0
  0
LINE
  5
106C
330
A35
100
AcDbEntity
  8
0
100
AcDbLine
 10
45.82
 20
56.151
 30
0.0
 11
46.021
 21
55.741
 31
0.0
  0
LINE
  5
106D
330
A35
100
AcDbEntity
  8
0
100
AcDbLine
 10
35.156
 20
54.717
 30
0.0
 11
35.042
 21
53.921
 31
0.0
  0
LINE
  5
106E
330
A35
100
AcDbEntity
  8
0
100
AcDbLine
 10
35.333
 20
55.1
 30
0.0
 11
35.156
 21
54.717
 31
0.0
  0
LINE
  5
106F
330
A35
100
AcDbEntity
  8
0
100
AcDbLine
 10
35.911
 20
55.83
 30
0.0
 11
35.333
 21
55.1
 31
0.0
  0
LINE
  5
1070
330
A35
100
AcDbEntity
  8
0
100
AcDbLine
 10
36.775
 20
56.49
 30
0.0
 11
35.911
 21
55.83
 31
0.0
  0
LINE
  5
1071
330
A35
100
AcDbEntity
  8
0
100
AcDbLine
 10
37.404
 20
56.834
 30
0.0
 11
36.775
 21
56.49
 31
0.0
  0
LINE
  5
1072
330
A35
100
AcDbEntity
  8
0
100
AcDbLine
 10
38.869
 20
57.397
 30
0.0
 11
37.404
 21
56.834
 31
0.0
  0
LINE
  5
1073
330
A35
100
AcDbEntity
  8
0
100
AcDbLine
 10
40.555
 20
57.771
 30
0.0
 11
38.869
 21
57.397
 31
0.0
  0
LINE
  5
1074
330
A35
100
AcDbEntity
  8
0
100
AcDbLine
 10
42.559
 20
57.947
 30
0.0
 11
40.555
 21
57.771
 31
0.0
  0
LINE
  5
1075
330
A35
100
AcDbEntity
  8
0
100
AcDbLine
 10
44.767
 20
57.838
 30
0.0
 11
42.559
 21
57.947
 31
0.0
  0
LINE
  5
1076
330
A35
100
AcDbEntity
  8
0
100
AcDbLine
 10
46.818
 20
57.428
 30
0.0
 11
44.767
 21
57.838
 31
0.0
  0
LINE
  5
1077
330
A35
100
AcDbEntity
  8
0
100
AcDbLine
 10
44.213
 20
56.471
 30
0.0
 11
45.887
 21
56.139
 31
0.0
  0
LINE
  5
1078
330
A35
100
AcDbEntity
  8
0
100
AcDbLine
 10
42.449
 20
56.533
 30
0.0
 11
44.213
 21
56.471
 31
0.0
  0
LINE
  5
1079
330
A35
100
AcDbEntity
  8
0
100
AcDbLine
 10
41.573
 20
56.471
 30
0.0
 11
42.449
 21
56.533
 31
0.0
  0
LINE
  5
107A
330
A35
100
AcDbEntity
  8
0
100
AcDbLine
 10
40.72
 20
56.338
 30
0.0
 11
41.573
 21
56.471
 31
0.0
  0
LINE
  5
107B
330
A35
100
AcDbEntity
  8
0
100
AcDbLine
 10
39.313
 20
55.952
 30
0.0
 11
40.72
 21
56.338
 31
0.0
  0
LINE
  5
107C
330
A35
100
AcDbEntity
  8
0
100
AcDbLine
 10
38.304
 20
55.475
 30
0.0
 11
39.313
 21
55.952
 31
0.0
  0
LINE
  5
107D
330
A35
100
AcDbEntity
  8
0
100
AcDbLine
 10
37.549
 20
54.905
 30
0.0
 11
38.304
 21
55.475
 31
0.0
  0
LINE
  5
107E
330
A35
100
AcDbEntity
  8
0
100
AcDbLine
 10
37.085
 20
54.264
 30
0.0
 11
37.549
 21
54.905
 31
0.0
  0
LINE
  5
107F
330
A35
100
AcDbEntity
  8
0
100
AcDbLine
 10
36.952
 20
53.921
 30
0.0
 11
37.085
 21
54.264
 31
0.0
  0
LINE
  5
1080
330
A35
100
AcDbEntity
  8
0
100
AcDbLine
 10
36.952
 20
53.218
 30
0.0
 11
36.952
 21
53.921
 31
0.0
  0
LINE
  5
1081
330
A35
100
AcDbEntity
  8
0
100
AcDbLine
 10
37.282
 20
52.546
 30
0.0
 11
36.952
 21
53.218
 31
0.0
  0
LINE
  5
1082
330
A35
100
AcDbEntity
  8
0
100
AcDbLine
 10
37.895
 20
51.937
 30
0.0
 11
37.282
 21
52.546
 31
0.0
  0
LINE
  5
1083
330
A35
100
AcDbEntity
  8
0
100
AcDbLine
 10
38.304
 20
51.664
 30
0.0
 11
37.895
 21
51.937
 31
0.0
  0
LINE
  5
1084
330
A35
100
AcDbEntity
  8
0
100
AcDbLine
 10
39.899
 20
50.992
 30
0.0
 11
38.304
 21
51.664
 31
0.0
  0
LINE
  5
1085
330
A35
100
AcDbEntity
  8
0
100
AcDbLine
 10
41.573
 20
50.672
 30
0.0
 11
39.899
 21
50.992
 31
0.0
  0
LINE
  5
1086
330
A35
100
AcDbEntity
  8
0
100
AcDbLine
 10
42.449
 20
50.605
 30
0.0
 11
41.573
 21
50.672
 31
0.0
  0
LINE
  5
1087
330
A35
100
AcDbEntity
  8
0
100
AcDbLine
 10
44.213
 20
50.672
 30
0.0
 11
42.449
 21
50.605
 31
0.0
  0
LINE
  5
1088
330
A35
100
AcDbEntity
  8
0
100
AcDbLine
 10
45.066
 20
50.804
 30
0.0
 11
44.213
 21
50.672
 31
0.0
  0
LINE
  5
1089
330
A35
100
AcDbEntity
  8
0
100
AcDbLine
 10
46.473
 20
51.187
 30
0.0
 11
45.066
 21
50.804
 31
0.0
  0
LINE
  5
108A
330
A35
100
AcDbEntity
  8
0
100
AcDbLine
 10
47.895
 20
51.937
 30
0.0
 11
46.473
 21
51.187
 31
0.0
  0
LINE
  5
108B
330
A35
100
AcDbEntity
  8
0
100
AcDbLine
 10
48.516
 20
52.546
 30
0.0
 11
47.895
 21
51.937
 31
0.0
  0
LINE
  5
108C
330
A35
100
AcDbEntity
  8
0
100
AcDbLine
 10
48.834
 20
53.218
 30
0.0
 11
48.516
 21
52.546
 31
0.0
  0
LINE
  5
108D
330
A35
100
AcDbEntity
  8
0
100
AcDbLine
 10
48.881
 20
53.569
 30
0.0
 11
48.834
 21
53.218
 31
0.0
  0
LINE
  5
108E
330
A35
100
AcDbEntity
  8
0
100
AcDbLine
 10
48.712
 20
54.253
 30
0.0
 11
48.881
 21
53.569
 31
0.0
  0
LINE
  5
108F
330
A35
100
AcDbEntity
  8
0
100
AcDbLine
 10
48.249
 20
54.893
 30
0.0
 11
48.712
 21
54.253
 31
0.0
  0
LINE
  5
1090
330
A35
100
AcDbEntity
  8
0
100
AcDbLine
 10
47.506
 20
55.467
 30
0.0
 11
48.249
 21
54.893
 31
0.0
  0
LINE
  5
1091
330
A35
100
AcDbEntity
  8
0
100
AcDbLine
 10
45.93
 20
56.127
 30
0.0
 11
47.506
 21
55.467
 31
0.0
  0
LINE
  5
1092
330
A35
100
AcDbEntity
  8
0
100
AcDbLine
 10
47.007
 20
58.619
 30
0.0
 11
46.308
 21
59.037
 31
0.0
  0
LINE
  5
1093
330
A35
100
AcDbEntity
  8
0
100
AcDbLine
 10
41.274
 20
59.466
 30
0.0
 11
41.231
 21
59.435
 31
0.0
  0
LINE
  5
1094
330
A35
100
AcDbEntity
  8
0
100
AcDbLine
 10
39.09
 20
58.83
 30
0.0
 11
38.834
 21
58.65
 31
0.0
  0
LINE
  5
1095
330
A35
100
AcDbEntity
  8
0
100
AcDbLine
 10
45.542
 20
59.357
 30
0.0
 11
45.164
 21
59.459
 31
0.0
  0
LINE
  5
1096
330
A35
100
AcDbEntity
  8
0
100
AcDbLine
 10
40.178
 20
59.314
 30
0.0
 11
39.09
 21
58.83
 31
0.0
  0
LINE
  5
1097
330
A35
100
AcDbEntity
  8
0
100
AcDbLine
 10
41.219
 20
59.58
 30
0.0
 11
40.178
 21
59.314
 31
0.0
  0
LINE
  5
1098
330
A35
100
AcDbEntity
  8
0
100
AcDbLine
 10
43.86
 20
59.83
 30
0.0
 11
43.867
 21
59.896
 31
0.0
  0
LINE
  5
1099
330
A35
100
AcDbEntity
  8
0
100
AcDbLine
 10
45.164
 20
59.459
 30
0.0
 11
45.164
 21
58.322
 31
0.0
  0
LINE
  5
109A
330
A35
100
AcDbEntity
  8
0
100
AcDbLine
 10
44.524
 20
59.447
 30
0.0
 11
44.524
 21
58.521
 31
0.0
  0
LINE
  5
109B
330
A35
100
AcDbEntity
  8
0
100
AcDbLine
 10
44.17
 20
59.841
 30
0.0
 11
44.445
 21
59.986
 31
0.0
  0
LINE
  5
109C
330
A35
100
AcDbEntity
  8
0
100
AcDbLine
 10
43.867
 20
59.908
 30
0.0
 11
43.867
 21
59.896
 31
0.0
  0
LINE
  5
109D
330
A35
100
AcDbEntity
  8
0
100
AcDbLine
 10
41.919
 20
59.896
 30
0.0
 11
41.93
 21
59.83
 31
0.0
  0
LINE
  5
109E
330
A35
100
AcDbEntity
  8
0
100
AcDbLine
 10
45.412
 20
57.978
 30
0.0
 11
45.553
 21
58.166
 31
0.0
  0
LINE
  5
109F
330
A35
100
AcDbEntity
  8
0
100
AcDbLine
 10
45.133
 20
58.111
 30
0.0
 11
45.412
 21
57.978
 31
0.0
  0
LINE
  5
10A0
330
A35
100
AcDbEntity
  8
0
100
AcDbLine
 10
44.524
 20
58.287
 30
0.0
 11
44.524
 21
58.521
 31
0.0
  0
LINE
  5
10A1
330
A35
100
AcDbEntity
  8
0
100
AcDbLine
 10
44.17
 20
58.576
 30
0.0
 11
44.445
 21
58.377
 31
0.0
  0
LINE
  5
10A2
330
A35
100
AcDbEntity
  8
0
100
AcDbLine
 10
41.384
 20
58.474
 30
0.0
 11
41.353
 21
58.377
 31
0.0
  0
LINE
  5
10A3
330
A35
100
AcDbEntity
  8
0
100
AcDbLine
 10
41.628
 20
58.576
 30
0.0
 11
41.384
 21
58.474
 31
0.0
  0
LINE
  5
10A4
330
A35
100
AcDbEntity
  8
0
100
AcDbLine
 10
38.504
 20
58.365
 30
0.0
 11
38.327
 21
58.166
 31
0.0
  0
LINE
  5
10A5
330
A35
100
AcDbEntity
  8
0
100
AcDbLine
 10
38.504
 20
58.365
 30
0.0
 11
38.516
 21
58.861
 31
0.0
  0
LINE
  5
10A6
330
A35
100
AcDbEntity
  8
0
100
AcDbLine
 10
38.826
 20
58.771
 30
0.0
 11
38.834
 21
58.65
 31
0.0
  0
LINE
  5
10A7
330
A35
100
AcDbEntity
  8
0
100
AcDbLine
 10
45.553
 20
58.166
 30
0.0
 11
45.542
 21
59.357
 31
0.0
  0
LINE
  5
10A8
330
A35
100
AcDbEntity
  8
0
100
AcDbLine
 10
41.353
 20
59.986
 30
0.0
 11
41.628
 21
59.841
 31
0.0
  0
LINE
  5
10A9
330
A35
100
AcDbEntity
  8
0
100
AcDbLine
 10
47.439
 20
57.01
 30
0.0
 11
46.783
 21
57.217
 31
0.0
  0
LINE
  5
10AA
330
A35
100
AcDbEntity
  8
0
100
AcDbLine
 10
48.602
 20
56.502
 30
0.0
 11
47.439
 21
57.01
 31
0.0
  0
LINE
  5
10AB
330
A35
100
AcDbEntity
  8
0
100
AcDbLine
 10
49.522
 20
55.885
 30
0.0
 11
48.602
 21
56.502
 31
0.0
  0
LINE
  5
10AC
330
A35
100
AcDbEntity
  8
0
100
AcDbLine
 10
50.198
 20
55.202
 30
0.0
 11
49.522
 21
55.885
 31
0.0
  0
LINE
  5
10AD
330
A35
100
AcDbEntity
  8
0
100
AcDbLine
 10
50.575
 20
54.452
 30
0.0
 11
50.198
 21
55.202
 31
0.0
  0
LINE
  5
10AE
330
A35
100
AcDbEntity
  8
0
100
AcDbLine
 10
50.653
 20
53.671
 30
0.0
 11
50.575
 21
54.452
 31
0.0
  0
LINE
  5
10AF
330
A35
100
AcDbEntity
  8
0
100
AcDbLine
 10
50.422
 20
52.921
 30
0.0
 11
50.653
 21
53.671
 31
0.0
  0
LINE
  5
10B0
330
A35
100
AcDbEntity
  8
0
100
AcDbLine
 10
49.899
 20
52.203
 30
0.0
 11
50.422
 21
52.921
 31
0.0
  0
LINE
  5
10B1
330
A35
100
AcDbEntity
  8
0
100
AcDbLine
 10
49.101
 20
51.543
 30
0.0
 11
49.899
 21
52.203
 31
0.0
  0
LINE
  5
10B2
330
A35
100
AcDbEntity
  8
0
100
AcDbLine
 10
47.86
 20
50.902
 30
0.0
 11
49.101
 21
51.543
 31
0.0
  0
LINE
  5
10B3
330
A35
100
AcDbEntity
  8
0
100
AcDbLine
 10
47.062
 20
50.605
 30
0.0
 11
47.86
 21
50.902
 31
0.0
  0
LINE
  5
10B4
330
A35
100
AcDbEntity
  8
0
100
AcDbLine
 10
46.186
 20
50.371
 30
0.0
 11
47.062
 21
50.605
 31
0.0
  0
LINE
  5
10B5
330
A35
100
AcDbEntity
  8
0
100
AcDbLine
 10
44.312
 20
50.074
 30
0.0
 11
46.186
 21
50.371
 31
0.0
  0
LINE
  5
10B6
330
A35
100
AcDbEntity
  8
0
100
AcDbLine
 10
43.325
 20
50.008
 30
0.0
 11
44.312
 21
50.074
 31
0.0
  0
LINE
  5
10B7
330
A35
100
AcDbEntity
  8
0
100
AcDbLine
 10
41.439
 20
50.074
 30
0.0
 11
43.325
 21
50.008
 31
0.0
  0
LINE
  5
10B8
330
A35
100
AcDbEntity
  8
0
100
AcDbLine
 10
39.777
 20
50.328
 30
0.0
 11
41.439
 21
50.074
 31
0.0
  0
LINE
  5
10B9
330
A35
100
AcDbEntity
  8
0
100
AcDbLine
 10
38.28
 20
50.758
 30
0.0
 11
39.777
 21
50.328
 31
0.0
  0
LINE
  5
10BA
330
A35
100
AcDbEntity
  8
0
100
AcDbLine
 10
37.007
 20
51.343
 30
0.0
 11
38.28
 21
50.758
 31
0.0
  0
LINE
  5
10BB
330
A35
100
AcDbEntity
  8
0
100
AcDbLine
 10
36.473
 20
51.695
 30
0.0
 11
37.007
 21
51.343
 31
0.0
  0
LINE
  5
10BC
330
A35
100
AcDbEntity
  8
0
100
AcDbLine
 10
35.73
 20
52.378
 30
0.0
 11
36.473
 21
51.695
 31
0.0
  0
LINE
  5
10BD
330
A35
100
AcDbEntity
  8
0
100
AcDbLine
 10
35.278
 20
53.108
 30
0.0
 11
35.73
 21
52.378
 31
0.0
  0
LINE
  5
10BE
330
A35
100
AcDbEntity
  8
0
100
AcDbLine
 10
35.121
 20
53.866
 30
0.0
 11
35.278
 21
53.108
 31
0.0
  0
LINE
  5
10BF
330
A35
100
AcDbEntity
  8
0
100
AcDbLine
 10
35.278
 20
54.639
 30
0.0
 11
35.121
 21
53.866
 31
0.0
  0
LINE
  5
10C0
330
A35
100
AcDbEntity
  8
0
100
AcDbLine
 10
35.73
 20
55.377
 30
0.0
 11
35.278
 21
54.639
 31
0.0
  0
LINE
  5
10C1
330
A35
100
AcDbEntity
  8
0
100
AcDbLine
 10
36.473
 20
56.049
 30
0.0
 11
35.73
 21
55.377
 31
0.0
  0
LINE
  5
10C2
330
A35
100
AcDbEntity
  8
0
100
AcDbLine
 10
37.463
 20
56.635
 30
0.0
 11
36.473
 21
56.049
 31
0.0
  0
LINE
  5
10C3
330
A35
100
AcDbEntity
  8
0
100
AcDbLine
 10
38.669
 20
57.119
 30
0.0
 11
37.463
 21
56.635
 31
0.0
  0
LINE
  5
10C4
330
A35
100
AcDbEntity
  8
0
100
AcDbLine
 10
40.056
 20
57.471
 30
0.0
 11
38.669
 21
57.119
 31
0.0
  0
LINE
  5
10C5
330
A35
100
AcDbEntity
  8
0
100
AcDbLine
 10
41.176
 20
57.639
 30
0.0
 11
40.056
 21
57.471
 31
0.0
  0
LINE
  5
10C6
330
A35
100
AcDbEntity
  8
0
100
AcDbLine
 10
43.483
 20
57.725
 30
0.0
 11
41.176
 21
57.639
 31
0.0
  0
LINE
  5
10C7
330
A35
100
AcDbEntity
  8
0
100
AcDbLine
 10
45.722
 20
57.471
 30
0.0
 11
43.483
 21
57.725
 31
0.0
  0
LINE
  5
10C8
330
A35
100
AcDbEntity
  8
0
100
AcDbLine
 10
46.783
 20
57.217
 30
0.0
 11
45.722
 21
57.471
 31
0.0
  0
TEXT
  5
10C9
330
A35
100
AcDbEntity
  8
0
100
AcDbText
 10
0.0
 20
95.0
 30
0.0
 40
3.0
  1
ｸﾗｽ100調光30K 一般形MC DLφ75
 11
0.0
 21
95.0
 31
0.0
100
AcDbText
  0
TEXT
  5
10CA
330
A35
100
AcDbEntity
  8
0
100
AcDbText
 10
0.0
 20
10.0
 30
0.0
 40
3.0
  1
三菱 EL-DA0/0(1004LM) AHZ
 11
0.0
 21
10.0
 31
0.0
100
AcDbText
  0
TEXT
  5
10CB
330
A35
100
AcDbEntity
  8
0
100
AcDbText
 10
50.0
 20
35.0
 30
0.0
 40
1.5
  1
ダウンライト 電球色（3000K） Ra85
 11
50.0
 21
35.0
 31
0.0
100
AcDbText
  0
TEXT
  5
10CC
330
A35
100
AcDbEntity
  8
0
100
AcDbText
 10
50.0
 20
32.0
 30
0.0
 40
1.5
  1
100V～242V共用タイプ
 11
50.0
 21
32.0
 31
0.0
100
AcDbText
  0
TEXT
  5
10CD
330
A35
100
AcDbEntity
  8
0
100
AcDbText
 10
50.0
 20
29.0
 30
0.0
 40
1.5
  1
初期照度補正付連続調光5～100%
 11
50.0
 21
29.0
 31
0.0
100
AcDbText
  0
TEXT
  5
10CE
330
A35
100
AcDbEntity
  8
0
100
AcDbText
 10
50.0
 20
26.0
 30
0.0
 40
1.5
  1
光源寿命：40,000時間（光束維持率85%）
 11
50.0
 21
26.0
 31
0.0
100
AcDbText
  0
TEXT
  5
10CF
330
A35
100
AcDbEntity
  8
0
100
AcDbText
 10
50.0
 20
23.0
 30
0.0
 40
1.5
  1
光束：980lm 消費電力：8.4W 消費効率：116.6lm/W
 11
50.0
 21
23.0
 31
0.0
100
AcDbText
  0
TEXT
  5
10D0
330
A35
100
AcDbEntity
  8
0
100
AcDbText
 10
50.0
 20
20.0
 30
0.0
 40
1.5
  1
埋込穴：75
 11
50.0
 21
20.0
 31
0.0
100
AcDbText
  0
VIEWPORT
  5
45B
102
{ACAD_XDICTIONARY
360
A5E
102
}
330
A31
100
AcDbEntity
 67
1
  8
0
100
AcDbViewport
 10
128.5
 20
97.5
 30
0.0
 40
314.226
 41
222.18
 68
1
 69
1
 12
0.0
 22
0.0
 13
0.0
 23
0.0
 14
10.0
 24
10.0
 15
10.0
 25
10.0
 16
0.0
 26
0.0
 36
0.0
 17
0.0
 27
0.0
 37
0.0
 42
50.0
 43
0.0
 44
0.0
 45
1.0
 50
0.0
 51
0.0
 72
100
 90
32768
  1

281
0
 71
0
 74
0
110
0.0
120
0.0
130
0.0
111
1.0
121
0.0
131
0.0
112
0.0
122
1.0
132
0.0
 79
0
146
0.0
  0
ENDSEC
  0
SECTION
  2
OBJECTS
  0
DICTIONARY
  5
9D2
330
0
100
AcDbDictionary
281
1
  3
ACAD_CIP_PREVIOUS_PRODUCT_INFO
350
A48
  3
ACAD_COLOR
350
A28
  3
ACAD_DETAILVIEWSTYLE
350
A2F
  3
ACAD_GROUP
350
9D3
  3
ACAD_LAYOUT
350
A27
  3
ACAD_MATERIAL
350
9D6
  3
ACAD_MLEADERSTYLE
350
A2B
  3
ACAD_MLINESTYLE
350
A24
  3
ACAD_PLOTSETTINGS
350
A26
  3
ACAD_PLOTSTYLENAME
350
9D4
  3
ACAD_SCALELIST
350
A08
  3
ACAD_SECTIONVIEWSTYLE
350
A2D
  3
ACAD_TABLESTYLE
350
A29
  3
ACAD_VISUALSTYLE
350
9EF
  3
ACDB_RECOMPOSE_DATA
350
A5C
  3
AcDbVariableDictionary
350
A4F
  3
DWGPROPS
350
A5D
  3
EZDXF_META
350
10D3
  0
DICTIONARY
  5
A49
330
A1A
100
AcDbDictionary
280
1
281
1
  3
ADSK_XREC_LAYER_RECONCILED
360
A4A
  0
DICTIONARY
  5
A4B
330
A39
100
AcDbDictionary
280
1
281
1
  3
ADSK_XREC_LAYER_RECONCILED
360
A4C
  0
DICTIONARY
  5
A4D
330
A3D
100
AcDbDictionary
280
1
281
1
  3
ADSK_XREC_LAYER_RECONCILED
360
A4E
  0
DICTIONARY
  5
A5E
330
45B
100
AcDbDictionary
280
1
281
1
  3
ACAD_XREC_ROUNDTRIP
360
A5F
  0
XRECORD
  5
A48
102
{ACAD_REACTORS
330
9D2
102
}
330
9D2
100
AcDbXrecord
280
1
300
ACDLT
300
2019
300
87085ACDLT_2019_0F
  0
DICTIONARY
  5
A28
102
{ACAD_REACTORS
330
9D2
102
}
330
9D2
100
AcDbDictionary
281
1
  0
DICTIONARY
  5
A2F
102
{ACAD_REACTORS
330
9D2
102
}
330
9D2
100
AcDbDictionary
281
1
  3
Imperial24
350
A30
  0
DICTIONARY
  5
9D3
102
{ACAD_REACTORS
330
9D2
102
}
330
9D2
100
AcDbDictionary
281
1
  0
DICTIONARY
  5
A27
102
{ACAD_REACTORS
330
9D2
102
}
330
9D2
100
AcDbDictionary
281
1
  3
Model
350
A38
  3
レイアウト1
350
A34
  0
DICTIONARY
  5
9D6
102
{ACAD_REACTORS
330
9D2
102
}
330
9D2
100
AcDbDictionary
281
1
  3
ByBlock
350
9DF
  3
ByLayer
350
9D7
  3
Global
350
9E7
  0
DICTIONARY
  5
A2B
102
{ACAD_REACTORS
330
9D2
102
}
330
9D2
100
AcDbDictionary
281
1
  3
Standard
350
A2C
  0
DICTIONARY
  5
A24
102
{ACAD_REACTORS
330
9D2
102
}
330
9D2
100
AcDbDictionary
281
1
  3
Standard
350
A25
  0
DICTIONARY
  5
A26
102
{ACAD_REACTORS
330
9D2
102
}
330
9D2
100
AcDbDictionary
281
1
  0
ACDBDICTIONARYWDFLT
  5
9D4
102
{ACAD_REACTORS
330
9D2
102
}
330
9D2
100
AcDbDictionary
281
1
  3
Normal
350
9D5
100
AcDbDictionaryWithDefault
340
9D5
  0
DICTIONARY
  5
A08
102
{ACAD_REACTORS
330
9D2
102
}
330
9D2
100
AcDbDictionary
281
1
  3
A0
350
A09
  3
A1
350
A0A
  3
A2
350
A0B
  3
A3
350
A0C
  3
A4
350
A0D
  3
A5
350
A0E
  3
A6
350
A0F
  3
A7
350
A10
  3
A8
350
A11
  3
A9
350
A12
  3
B0
350
A13
  3
B1
350
A14
  3
B2
350
A15
  3
B3
350
A16
  3
B4
350
A17
  3
B5
350
A18
  3
B6
350
A19
  0
DICTIONARY
  5
A2D
102
{ACAD_REACTORS
330
9D2
102
}
330
9D2
100
AcDbDictionary
281
1
  3
Imperial24
350
A2E
  0
DICTIONARY
  5
A29
102
{ACAD_REACTORS
330
9D2
102
}
330
9D2
100
AcDbDictionary
281
1
  3
Standard
350
A2A
  0
DICTIONARY
  5
9EF
102
{ACAD_REACTORS
330
9D2
102
}
330
9D2
100
AcDbDictionary
281
1
  3
2dWireframe
350
9F5
  3
Basic
350
9F4
  3
Brighten
350
9FB
  3
ColorChange
350
9FF
  3
Conceptual
350
9F8
  3
Dim
350
9FA
  3
EdgeColorOff
350
A07
  3
Facepattern
350
9FE
  3
Flat
350
9F0
  3
FlatWithEdges
350
9F1
  3
Gouraud
350
9F2
  3
GouraudWithEdges
350
9F3
  3
Hidden
350
9F7
  3
JitterOff
350
A05
  3
Linepattern
350
9FD
  3
OverhangOff
350
A06
  3
Realistic
350
9F9
  3
Shaded
350
A04
  3
Shaded with edges
350
A03
  3
Shades of Gray
350
A00
  3
Sketchy
350
A01
  3
Thicken
350
9FC
  3
Wireframe
350
9F6
  3
X-Ray
350
A02
  0
XRECORD
  5
A5C
102
{ACAD_REACTORS
330
9D2
102
}
330
9D2
100
AcDbXrecord
280
1
 90
1
330
A2A
  0
DICTIONARY
  5
A4F
102
{ACAD_REACTORS
330
9D2
102
}
330
9D2
100
AcDbDictionary
281
1
  3
CANNOSCALE
350
A54
  3
CMLEADERSTYLE
350
A51
  3
CTABLESTYLE
350
A50
  3
CVIEWDETAILSTYLE
350
A52
  3
CVIEWSECTIONSTYLE
350
A53
  3
DIMASSOC
350
A57
  3
INDEXCTL
350
A56
  3
SORTENTS
350
A55
  3
XCLIPFRAME
350
A58
  0
XRECORD
  5
A5D
102
{ACAD_REACTORS
330
9D2
102
}
330
9D2
100
AcDbXrecord
280
1
  1
DWGPROPS COOKIE
  2

  3

  4

  6

  7

  8
1992517
  9

300
=
301
=
302
=
303
=
304
=
305
=
306
=
307
=
308
=
309
=
 40
0.0010069560185185
 41
2459044.788842593
 42
2459045.376064815
  1

 90
0
  0
XRECORD
  5
A4A
102
{ACAD_REACTORS
330
A49
102
}
330
A49
100
AcDbXrecord
280
1
290
1
  0
XRECORD
  5
A4C
102
{ACAD_REACTORS
330
A4B
102
}
330
A4B
100
AcDbXrecord
280
1
290
1
  0
XRECORD
  5
A4E
102
{ACAD_REACTORS
330
A4D
102
}
330
A4D
100
AcDbXrecord
280
1
290
1
  0
XRECORD
  5
A5F
102
{ACAD_REACTORS
330
A5E
102
}
330
A5E
100
AcDbXrecord
280
1
102
SHADEPLOT
 70
0
  0
ACDBDETAILVIEWSTYLE
  5
A30
102
{ACAD_XDICTIONARY
360
A97
102
}
102
{ACAD_REACTORS
330
A2F
102
}
330
A2F
100
AcDbModelDocViewStyle
 70
0
  3
Imperial24
290
0
100
AcDbDetailViewStyle
 70
0
 71
0
 90
3
 71
1
340
A1B
 40
0.24
340
0
 40
0.24
300

 40
0.36
280
3
 71
2
340
A22
 90
25
 71
3
340
A1B
 40
0.24
 90
1
 40
0.75
 90
1
300
%<\AcVar ViewType \f "%tc1">% %<\AcVar ViewDetailId>%\PSCALE %<\AcVar ViewScale \f "%sn">%
 71
4
340
A22
 90
25
340
A22
 90
25
280
0
  0
LAYOUT
  5
A38
102
{ACAD_XDICTIONARY
360
A9B
102
}
102
{ACAD_REACTORS
330
A27
102
}
330
A27
100
AcDbPlotSettings
  1

  2
LBP8720
  4

  6

 40
0.0
 41
0.0
 42
0.0
 43
0.0
 44
0.0
 45
0.0
 46
0.0
 47
0.0
 48
0.0
 49
0.0
140
0.0
141
0.0
142
1.0
143
1.0
 70
1712
 72
0
 73
0
 74
0
  7

 75
0
 76
0
 77
2
 78
300
147
1.0
148
0.0
149
0.0
100
AcDbLayout
  1
Model
 70
1
 71
0
 10
0.0
 20
0.0
 11
12.0
 21
9.0
 12
0.0
 22
0.0
 32
0.0
 14
0.0
 24
0.0
 34
0.0
 15
0.0
 25
0.0
 35
0.0
146
0.0
 13
0.0
 23
0.0
 33
0.0
 16
1.0
 26
0.0
 36
0.0
 17
0.0
 27
1.0
 37
0.0
 76
0
330
A35
331
A3A
  0
LAYOUT
  5
A34
102
{ACAD_XDICTIONARY
360
A99
102
}
102
{ACAD_REACTORS
330
A27
102
}
330
A27
100
AcDbPlotSettings
  1

  2
LBP8720
  4

  6

 40
0.0
 41
0.0
 42
0.0
 43
0.0
 44
0.0
 45
0.0
 46
0.0
 47
0.0
 48
0.0
 49
0.0
140
0.0
141
0.0
142
1.0
143
1.0
 70
688
 72
0
 73
0
 74
5
  7

 75
16
 76
0
 77
2
 78
300
147
1.0
148
0.0
149
0.0
100
AcDbLayout
  1
レイアウト1
 70
1
 71
1
 10
-20.0
 20
-7.5
 11
277.0
 21
202.5
 12
0.0
 22
0.0
 32
0.0
 14
1e+20
 24
1e+20
 34
1e+20
 15
-1e+20
 25
-1e+20
 35
-1e+20
146
0.0
 13
0.0
 23
0.0
 33
0.0
 16
1.0
 26
0.0
 36
0.0
 17
0.0
 27
1.0
 37
0.0
 76
0
330
A31
331
45B
  0
MATERIAL
  5
9DF
102
{ACAD_XDICTIONARY
360
9E0
102
}
102
{ACAD_REACTORS
330
9D6
102
}
330
9D6
100
AcDbMaterial
  1
ByBlock
  2

 70
0
 40
1.0
 71
0
 41
1.0
 91
-1023410177
 42
1.0
 72
0
  3

 73
1
 74
1
 75
1
 43
0.0208333333333333
 43
0.0
 43
0.0
 43
0.0
 43
0.0
 43
0.0208333333333333
 43
0.0
 43
0.0
 43
0.0
 43
0.0
 43
1.0
 43
0.0
 43
0.0
 43
0.0
 43
0.0
 43
1.0
 44
0.5
 73
0
 45
1.0
 46
1.0
 77
0
  4

 78
1
 79
1
170
1
 47
0.0208333333333333
 47
0.0
 47
0.0
 47
0.0
 47
0.0
 47
0.0208333333333333
 47
0.0
 47
0.0
 47
0.0
 47
0.0
 47
1.0
 47
0.0
 47
0.0
 47
0.0
 47
0.0
 47
1.0
 48
1.0
171
0
  6

172
1
173
1
174
1
 49
0.0208333333333333
 49
0.0
 49
0.0
 49
0.0
 49
0.0
 49
0.0208333333333333
 49
0.0
 49
0.0
 49
0.0
 49
0.0
 49
1.0
 49
0.0
 49
0.0
 49
0.0
 49
0.0
 49
1.0
140
1.0
141
1.0
175
0
  7

176
1
177
1
178
1
142
0.0208333333333333
142
0.0
142
0.0
142
0.0
142
0.0
142
0.0208333333333333
142
0.0
142
0.0
142
0.0
142
0.0
142
1.0
142
0.0
142
0.0
142
0.0
142
0.0
142
1.0
143
1.0
179
0
  8

270
1
271
1
272
1
144
0.0208333333333333
144
0.0
144
0.0
144
0.0
144
0.0
144
0.0208333333333333
144
0.0
144
0.0
144
0.0
144
0.0
144
1.0
144
0.0
144
0.0
144
0.0
144
0.0
144
1.0
145
1.0
146
1.0
273
1
  9

274
1
275
1
276
1
147
0.0208333333333333
147
0.0
147
0.0
147
0.0
147
0.0
147
0.0208333333333333
147
0.0
147
0.0
147
0.0
147
0.0
147
1.0
147
0.0
147
0.0
147
0.0
147
0.0
147
1.0
 42
1.0
 72
1
  3

 73
1
 74
1
 75
1
 94
63
  0
MATERIAL
  5
9D7
102
{ACAD_XDICTIONARY
360
9D8
102
}
102
{ACAD_REACTORS
330
9D6
102
}
330
9D6
100
AcDbMaterial
  1
ByLayer
  2

 70
0
 40
1.0
 71
0
 41
1.0
 91
-1023410177
 42
1.0
 72
0
  3

 73
1
 74
1
 75
1
 43
0.0208333333333333
 43
0.0
 43
0.0
 43
0.0
 43
0.0
 43
0.0208333333333333
 43
0.0
 43
0.0
 43
0.0
 43
0.0
 43
1.0
 43
0.0
 43
0.0
 43
0.0
 43
0.0
 43
1.0
 44
0.5
 73
0
 45
1.0
 46
1.0
 77
0
  4

 78
1
 79
1
170
1
 47
0.0208333333333333
 47
0.0
 47
0.0
 47
0.0
 47
0.0
 47
0.0208333333333333
 47
0.0
 47
0.0
 47
0.0
 47
0.0
 47
1.0
 47
0.0
 47
0.0
 47
0.0
 47
0.0
 47
1.0
 48
1.0
171
0
  6

172
1
173
1
174
1
 49
0.0208333333333333
 49
0.0
 49
0.0
 49
0.0
 49
0.0
 49
0.0208333333333333
 49
0.0
 49
0.0
 49
0.0
 49
0.0
 49
1.0
 49
0.0
 49
0.0
 49
0.0
 49
0.0
 49
1.0
140
1.0
141
1.0
175
0
  7

176
1
177
1
178
1
142
0.0208333333333333
142
0.0
142
0.0
142
0.0
142
0.0
142
0.0208333333333333
142
0.0
142
0.0
142
0.0
142
0.0
142
1.0
142
0.0
142
0.0
142
0.0
142
0.0
142
1.0
143
1.0
179
0
  8

270
1
271
1
272
1
144
0.0208333333333333
144
0.0
144
0.0
144
0.0
144
0.0
144
0.0208333333333333
144
0.0
144
0.0
144
0.0
144
0.0
144
1.0
144
0.0
144
0.0
144
0.0
144
0.0
144
1.0
145
1.0
146
1.0
273
1
  9

274
1
275
1
276
1
147
0.0208333333333333
147
0.0
147
0.0
147
0.0
147
0.0
147
0.0208333333333333
147
0.0
147
0.0
147
0.0
147
0.0
147
1.0
147
0.0
147
0.0
147
0.0
147
0.0
147
1.0
 42
1.0
 72
1
  3

 73
1
 74
1
 75
1
 94
63
  0
MATERIAL
  5
9E7
102
{ACAD_XDICTIONARY
360
9E8
102
}
102
{ACAD_REACTORS
330
9D6
102
}
330
9D6
100
AcDbMaterial
  1
Global
  2

 70
0
 40
1.0
 71
0
 41
1.0
 91
-1023410177
 42
1.0
 72
0
  3

 73
1
 74
1
 75
1
 43
0.0208333333333333
 43
0.0
 43
0.0
 43
0.0
 43
0.0
 43
0.0208333333333333
 43
0.0
 43
0.0
 43
0.0
 43
0.0
 43
1.0
 43
0.0
 43
0.0
 43
0.0
 43
0.0
 43
1.0
 44
0.5
 73
0
 45
1.0
 46
1.0
 77
0
  4

 78
1
 79
1
170
1
 47
0.0208333333333333
 47
0.0
 47
0.0
 47
0.0
 47
0.0
 47
0.0208333333333333
 47
0.0
 47
0.0
 47
0.0
 47
0.0
 47
1.0
 47
0.0
 47
0.0
 47
0.0
 47
0.0
 47
1.0
 48
1.0
171
0
  6

172
1
173
1
174
1
 49
0.0208333333333333
 49
0.0
 49
0.0
 49
0.0
 49
0.0
 49
0.0208333333333333
 49
0.0
 49
0.0
 49
0.0
 49
0.0
 49
1.0
 49
0.0
 49
0.0
 49
0.0
 49
0.0
 49
1.0
140
1.0
141
1.0
175
0
  7

176
1
177
1
178
1
142
0.0208333333333333
142
0.0
142
0.0
142
0.0
142
0.0
142
0.0208333333333333
142
0.0
142
0.0
142
0.0
142
0.0
142
1.0
142
0.0
142
0.0
142
0.0
142
0.0
142
1.0
143
1.0
179
0
  8

270
1
271
1
272
1
144
0.0208333333333333
144
0.0
144
0.0
144
0.0
144
0.0
144
0.0208333333333333
144
0.0
144
0.0
144
0.0
144
0.0
144
1.0
144
0.0
144
0.0
144
0.0
144
0.0
144
1.0
145
1.0
146
1.0
273
1
  9

274
1
275
1
276
1
147
0.0208333333333333
147
0.0
147
0.0
147
0.0
147
0.0
147
0.0208333333333333
147
0.0
147
0.0
147
0.0
147
0.0
147
1.0
147
0.0
147
0.0
147
0.0
147
0.0
147
1.0
 42
1.0
 72
1
  3

 73
1
 74
1
 75
1
 94
63
  0
MLEADERSTYLE
  5
A2C
102
{ACAD_REACTORS
330
A2B
102
}
330
A2B
100
AcDbMLeaderStyle
179
2
170
2
171
1
172
0
 90
2
 40
0.0
 41
0.0
173
1
 91
-1056964608
340
A20
 92
-2
290
1
 42
0.09
291
1
 43
0.36
  3
Standard
 44
0.18
300

342
A1B
174
1
175
1
176
0
178
6
 93
-1056964608
 45
0.18
292
0
297
0
 46
0.18
293
1
 94
-1056964608
 47
1.0
 49
1.0
140
1.0
294
1
141
0.0
177
0
142
1.0
295
0
296
0
143
0.125
271
0
272
9
273
9
1001
ACAD_MLEADERVER
1070
2
  0
MLINESTYLE
  5
A25
102
{ACAD_REACTORS
330
A24
102
}
330
A24
100
AcDbMlineStyle
  2
STANDARD
 70
0
  3

 62
256
 51
90.0
 52
90.0
 71
2
 49
0.5
 62
256
  6
BYLAYER
 49
-0.5
 62
256
  6
BYLAYER
  0
ACDBPLACEHOLDER
  5
9D5
102
{ACAD_REACTORS
330
9D4
102
}
330
9D4
  0
SCALE
  5
A09
102
{ACAD_REACTORS
330
A08
102
}
330
A08
100
AcDbScale
 70
0
300
1:1
140
1.0
141
1.0
290
1
  0
SCALE
  5
A0A
102
{ACAD_REACTORS
330
A08
102
}
330
A08
100
AcDbScale
 70
0
300
1/128" = 1'-0"
140
0.0078125
141
12.0
290
0
  0
SCALE
  5
A0B
102
{ACAD_REACTORS
330
A08
102
}
330
A08
100
AcDbScale
 70
0
300
1/64" = 1'-0"
140
0.015625
141
12.0
290
0
  0
SCALE
  5
A0C
102
{ACAD_REACTORS
330
A08
102
}
330
A08
100
AcDbScale
 70
0
300
1/32" = 1'-0"
140
0.03125
141
12.0
290
0
  0
SCALE
  5
A0D
102
{ACAD_REACTORS
330
A08
102
}
330
A08
100
AcDbScale
 70
0
300
1/16" = 1'-0"
140
0.0625
141
12.0
290
0
  0
SCALE
  5
A0E
102
{ACAD_REACTORS
330
A08
102
}
330
A08
100
AcDbScale
 70
0
300
3/32" = 1'-0"
140
0.09375
141
12.0
290
0
  0
SCALE
  5
A0F
102
{ACAD_REACTORS
330
A08
102
}
330
A08
100
AcDbScale
 70
0
300
1/8" = 1'-0"
140
0.125
141
12.0
290
0
  0
SCALE
  5
A10
102
{ACAD_REACTORS
330
A08
102
}
330
A08
100
AcDbScale
 70
0
300
3/16" = 1'-0"
140
0.1875
141
12.0
290
0
  0
SCALE
  5
A11
102
{ACAD_REACTORS
330
A08
102
}
330
A08
100
AcDbScale
 70
0
300
1/4" = 1'-0"
140
0.25
141
12.0
290
0
  0
SCALE
  5
A12
102
{ACAD_REACTORS
330
A08
102
}
330
A08
100
AcDbScale
 70
0
300
3/8" = 1'-0"
140
0.375
141
12.0
290
0
  0
SCALE
  5
A13
102
{ACAD_REACTORS
330
A08
102
}
330
A08
100
AcDbScale
 70
0
300
1/2" = 1'-0"
140
0.5
141
12.0
290
0
  0
SCALE
  5
A14
102
{ACAD_REACTORS
330
A08
102
}
330
A08
100
AcDbScale
 70
0
300
3/4" = 1'-0"
140
0.75
141
12.0
290
0
  0
SCALE
  5
A15
102
{ACAD_REACTORS
330
A08
102
}
330
A08
100
AcDbScale
 70
0
300
1" = 1'-0"
140
1.0
141
12.0
290
0
  0
SCALE
  5
A16
102
{ACAD_REACTORS
330
A08
102
}
330
A08
100
AcDbScale
 70
0
300
1-1/2" = 1'-0"
140
1.5
141
12.0
290
0
  0
SCALE
  5
A17
102
{ACAD_REACTORS
330
A08
102
}
330
A08
100
AcDbScale
 70
0
300
3" = 1'-0"
140
3.0
141
12.0
290
0
  0
SCALE
  5
A18
102
{ACAD_REACTORS
330
A08
102
}
330
A08
100
AcDbScale
 70
0
300
6" = 1'-0"
140
6.0
141
12.0
290
0
  0
SCALE
  5
A19
102
{ACAD_REACTORS
330
A08
102
}
330
A08
100
AcDbScale
 70
0
300
1'-0" = 1'-0"
140
12.0
141
12.0
290
0
  0
ACDBSECTIONVIEWSTYLE
  5
A2E
102
{ACAD_XDICTIONARY
360
A95
102
}
102
{ACAD_REACTORS
330
A2D
102
}
330
A2D
100
AcDbModelDocViewStyle
 70
0
  3
Imperial24
290
0
100
AcDbSectionViewStyle
 70
0
 71
0
 90
78
 71
1
340
A1B
 40
0.24
340
0
340
0
 40
0.24
300
I, O, Q, S, X, Z
 40
0.48
 90
3
 40
0.18
 90
1
 71
2
340
A22
 90
25
340
A22
 90
50
 40
0.24
 40
0.0
 40
0.24
 71
3
340
A1B
 40
0.24
 90
1
 40
0.75
 90
1
300
%<\AcVar ViewType \f "%tc1">% %<\AcVar ViewSectionStartId>%-%<\AcVar ViewSectionEndId>%\PSCALE %<\AcVar ViewScale \f "%sn">%
 71
4
300
ANSI31
 40
1.0
 90
0
290
0
290
0
 90
6
 40
0.0
 40
1.570796326794896
 40
0.2617993877991494
 40
1.308996938995747
 40
-0.2617993877991494
 40
1.832595714594046
  0
TABLESTYLE
  5
A2A
102
{ACAD_XDICTIONARY
360
A5A
102
}
102
{ACAD_REACTORS
330
A29
102
}
330
A29
100
AcDbTableStyle
  3
Standard
 70
0
 71
0
 40
0.06
 41
0.06
280
0
281
0
  7
STANDARD
140
0.18
170
2
 62
0
 63
7
283
0
274
-2
284
1
 64
0
275
-2
285
1
 65
0
276
-2
286
1
 66
0
277
-2
287
1
 67
0
278
-2
288
1
 68
0
279
-2
289
1
 69
0
  7
STANDARD
140
0.25
170
5
 62
0
 63
7
283
0
274
-2
284
1
 64
0
275
-2
285
1
 65
0
276
-2
286
1
 66
0
277
-2
287
1
 67
0
278
-2
288
1
 68
0
279
-2
289
1
 69
0
  7
STANDARD
140
0.18
170
5
 62
0
 63
7
283
0
274
-2
284
1
 64
0
275
-2
285
1
 65
0
276
-2
286
1
 66
0
277
-2
287
1
 67
0
278
-2
288
1
 68
0
279
-2
289
1
 69
0
  0
VISUALSTYLE
  5
9F5
102
{ACAD_XDICTIONARY
360
A6D
102
}
102
{ACAD_REACTORS
330
9EF
102
}
330
9EF
100
AcDbVisualStyle
  2
2dWireframe
 70
4
 71
0
 72
2
 73
0
 90
0
 40
-0.6
 41
-30.0
 62
5
 63
7
 74
1
 91
4
 64
7
 65
257
 75
1
175
1
 42
1.0
 92
0
 66
257
 43
1.0
 76
1
 77
6
 78
2
 67
7
 79
5
170
0
171
0
290
0
174
0
 93
1
 44
0.0
173
0
291
0
 45
0.0
1001
ACAD
1000
AcDbSavedByObjectVersion
1070
0
  0
VISUALSTYLE
  5
9F4
102
{ACAD_XDICTIONARY
360
A6B
102
}
102
{ACAD_REACTORS
330
9EF
102
}
330
9EF
100
AcDbVisualStyle
  2
Basic
 70
7
 71
1
 72
0
 73
1
 90
0
 40
-0.6
 41
-30.0
 62
5
 63
7
 74
0
 91
4
 64
7
 65
257
 75
1
175
1
 42
1.0
 92
8
 66
7
 43
1.0
 76
1
 77
6
 78
2
 67
7
 79
5
170
0
171
0
290
0
174
0
 93
1
 44
0.0
173
0
291
1
 45
0.0
1001
ACAD
1000
AcDbSavedByObjectVersion
1070
0
  0
VISUALSTYLE
  5
9FB
102
{ACAD_XDICTIONARY
360
A79
102
}
102
{ACAD_REACTORS
330
9EF
102
}
330
9EF
100
AcDbVisualStyle
  2
Brighten
 70
12
 71
2
 72
2
 73
0
 90
0
 40
-0.6
 41
-30.0
 62
5
 63
7
 74
1
 91
4
 64
7
 65
257
 75
1
175
1
 42
1.0
 92
8
 66
7
 43
1.0
 76
1
 77
6
 78
2
 67
7
 79
5
170
0
171
0
290
0
174
0
 93
1
 44
50.0
173
0
291
1
 45
0.0
1001
ACAD
1000
AcDbSavedByObjectVersion
1070
0
  0
VISUALSTYLE
  5
9FF
102
{ACAD_XDICTIONARY
360
A81
102
}
102
{ACAD_REACTORS
330
9EF
102
}
330
9EF
100
AcDbVisualStyle
  2
ColorChange
 70
16
 71
2
 72
2
 73
3
 90
0
 40
-0.6
 41
-30.0
 62
5
 63
8
 74
1
 91
4
 64
7
 65
257
 75
1
175
1
 42
1.0
 92
8
 66
8
 43
1.0
 76
1
 77
6
 78
2
 67
7
 79
5
170
0
171
0
290
0
174
0
 93
1
 44
0.0
173
0
291
1
 45
0.0
1001
ACAD
1000
AcDbSavedByObjectVersion
1070
0
  0
VISUALSTYLE
  5
9F8
102
{ACAD_XDICTIONARY
360
A73
102
}
102
{ACAD_REACTORS
330
9EF
102
}
330
9EF
100
AcDbVisualStyle
  2
Conceptual
 70
9
 71
3
 72
2
 73
0
 90
0
 40
-0.6
 41
-30.0
 62
5
 63
7
 74
2
 91
2
 64
7
 65
257
 75
1
175
1
 42
179.0
 92
8
 66
7
 43
1.0
 76
1
 77
6
 78
2
 67
7
 79
3
170
0
171
0
290
0
174
0
 93
1
 44
0.0
173
0
291
0
 45
0.0
1001
ACAD
1000
AcDbSavedByObjectVersion
1070
0
  0
VISUALSTYLE
  5
9FA
102
{ACAD_XDICTIONARY
360
A77
102
}
102
{ACAD_REACTORS
330
9EF
102
}
330
9EF
100
AcDbVisualStyle
  2
Dim
 70
11
 71
2
 72
2
 73
0
 90
0
 40
-0.6
 41
-30.0
 62
5
 63
7
 74
1
 91
4
 64
7
 65
257
 75
1
175
1
 42
1.0
 92
8
 66
7
 43
1.0
 76
1
 77
6
 78
2
 67
7
 79
5
170
0
171
0
290
0
174
0
 93
1
 44
-50.0
173
0
291
1
 45
0.0
1001
ACAD
1000
AcDbSavedByObjectVersion
1070
0
  0
VISUALSTYLE
  5
A07
102
{ACAD_XDICTIONARY
360
A91
102
}
102
{ACAD_REACTORS
330
9EF
102
}
330
9EF
100
AcDbVisualStyle
  2
EdgeColorOff
 70
22
 71
2
 72
2
 73
0
 90
0
 40
-0.6
 41
-30.0
 62
5
 63
7
 74
1
 91
4
 64
7
 65
257
 75
1
175
1
 42
1.0
 92
8
 66
7
 43
1.0
 76
1
 77
6
 78
2
 67
7
 79
5
170
0
171
0
290
0
174
0
 93
1
 44
0.0
173
0
291
1
 45
0.0
1001
ACAD
1000
AcDbSavedByObjectVersion
1070
0
  0
VISUALSTYLE
  5
9FE
102
{ACAD_XDICTIONARY
360
A7F
102
}
102
{ACAD_REACTORS
330
9EF
102
}
330
9EF
100
AcDbVisualStyle
  2
Facepattern
 70
15
 71
2
 72
2
 73
0
 90
0
 40
-0.6
 41
-30.0
 62
5
 63
7
 74
1
 91
4
 64
7
 65
257
 75
1
175
1
 42
1.0
 92
8
 66
7
 43
1.0
 76
1
 77
6
 78
2
 67
7
 79
5
170
0
171
0
290
0
174
0
 93
1
 44
0.0
173
0
291
1
 45
0.0
1001
ACAD
1000
AcDbSavedByObjectVersion
1070
0
  0
VISUALSTYLE
  5
9F0
102
{ACAD_XDICTIONARY
360
A63
102
}
102
{ACAD_REACTORS
330
9EF
102
}
330
9EF
100
AcDbVisualStyle
  2
Flat
 70
0
 71
2
 72
1
 73
1
 90
2
 40
-0.6
 41
30.0
 62
5
 63
7
 74
0
 91
0
 64
7
 65
257
 75
1
175
1
 42
1.0
 92
8
 66
7
 43
1.0
 76
1
 77
6
 78
2
 67
7
 79
5
170
0
171
0
290
0
174
0
 93
13
 44
0.0
173
0
291
1
 45
0.0
1001
ACAD
1000
AcDbSavedByObjectVersion
1070
0
  0
VISUALSTYLE
  5
9F1
102
{ACAD_XDICTIONARY
360
A65
102
}
102
{ACAD_REACTORS
330
9EF
102
}
330
9EF
100
AcDbVisualStyle
  2
FlatWithEdges
 70
1
 71
2
 72
1
 73
1
 90
2
 40
-0.6
 41
30.0
 62
5
 63
7
 74
1
 91
0
 64
7
 65
257
 75
1
175
1
 42
1.0
 92
0
 66
257
 43
1.0
 76
1
 77
6
 78
2
 67
7
 79
5
170
0
171
0
290
0
174
0
 93
13
 44
0.0
173
0
291
1
 45
0.0
1001
ACAD
1000
AcDbSavedByObjectVersion
1070
0
  0
VISUALSTYLE
  5
9F2
102
{ACAD_XDICTIONARY
360
A67
102
}
102
{ACAD_REACTORS
330
9EF
102
}
330
9EF
100
AcDbVisualStyle
  2
Gouraud
 70
2
 71
2
 72
2
 73
1
 90
2
 40
-0.6
 41
30.0
 62
5
 63
7
 74
0
 91
0
 64
7
 65
257
 75
1
175
1
 42
1.0
 92
0
 66
7
 43
1.0
 76
1
 77
6
 78
2
 67
7
 79
5
170
0
171
0
290
0
174
0
 93
13
 44
0.0
173
0
291
1
 45
0.0
1001
ACAD
1000
AcDbSavedByObjectVersion
1070
0
  0
VISUALSTYLE
  5
9F3
102
{ACAD_XDICTIONARY
360
A69
102
}
102
{ACAD_REACTORS
330
9EF
102
}
330
9EF
100
AcDbVisualStyle
  2
GouraudWithEdges
 70
3
 71
2
 72
2
 73
1
 90
2
 40
-0.6
 41
30.0
 62
5
 63
7
 74
1
 91
0
 64
7
 65
257
 75
1
175
1
 42
1.0
 92
0
 66
257
 43
1.0
 76
1
 77
6
 78
2
 67
7
 79
5
170
0
171
0
290
0
174
0
 93
13
 44
0.0
173
0
291
1
 45
0.0
1001
ACAD
1000
AcDbSavedByObjectVersion
1070
0
  0
VISUALSTYLE
  5
9F7
102
{ACAD_XDICTIONARY
360
A71
102
}
102
{ACAD_REACTORS
330
9EF
102
}
330
9EF
100
AcDbVisualStyle
  2
Hidden
 70
6
 71
1
 72
2
 73
2
 90
0
 40
-0.6
 41
-30.0
 62
5
 63
7
 74
2
 91
2
 64
7
 65
257
 75
2
175
1
 42
40.0
 92
0
 66
257
 43
1.0
 76
1
 77
6
 78
2
 67
7
 79
3
170
0
171
0
290
0
174
0
 93
1
 44
0.0
173
0
291
0
 45
0.0
1001
ACAD
1000
AcDbSavedByObjectVersion
1070
0
  0
VISUALSTYLE
  5
A05
102
{ACAD_XDICTIONARY
360
A8D
102
}
102
{ACAD_REACTORS
330
9EF
102
}
330
9EF
100
AcDbVisualStyle
  2
JitterOff
 70
20
 71
2
 72
2
 73
0
 90
0
 40
-0.6
 41
-30.0
 62
5
 63
7
 74
1
 91
4
 64
7
 65
257
 75
1
175
1
 42
1.0
 92
10
 66
7
 43
1.0
 76
1
 77
6
 78
2
 67
7
 79
5
170
0
171
0
290
0
174
0
 93
1
 44
0.0
173
0
291
1
 45
0.0
1001
ACAD
1000
AcDbSavedByObjectVersion
1070
0
  0
VISUALSTYLE
  5
9FD
102
{ACAD_XDICTIONARY
360
A7D
102
}
102
{ACAD_REACTORS
330
9EF
102
}
330
9EF
100
AcDbVisualStyle
  2
Linepattern
 70
14
 71
2
 72
2
 73
0
 90
0
 40
-0.6
 41
-30.0
 62
5
 63
7
 74
1
 91
4
 64
7
 65
257
 75
7
175
7
 42
1.0
 92
8
 66
7
 43
1.0
 76
1
 77
6
 78
2
 67
7
 79
5
170
0
171
0
290
0
174
0
 93
1
 44
0.0
173
0
291
1
 45
0.0
1001
ACAD
1000
AcDbSavedByObjectVersion
1070
0
  0
VISUALSTYLE
  5
A06
102
{ACAD_XDICTIONARY
360
A8F
102
}
102
{ACAD_REACTORS
330
9EF
102
}
330
9EF
100
AcDbVisualStyle
  2
OverhangOff
 70
21
 71
2
 72
2
 73
0
 90
0
 40
-0.6
 41
-30.0
 62
5
 63
7
 74
1
 91
4
 64
7
 65
257
 75
1
175
1
 42
1.0
 92
9
 66
7
 43
1.0
 76
1
 77
6
 78
2
 67
7
 79
5
170
0
171
0
290
0
174
0
 93
1
 44
0.0
173
0
291
1
 45
0.0
1001
ACAD
1000
AcDbSavedByObjectVersion
1070
0
  0
VISUALSTYLE
  5
9F9
102
{ACAD_XDICTIONARY
360
A75
102
}
102
{ACAD_REACTORS
330
9EF
102
}
330
9EF
100
AcDbVisualStyle
  2
Realistic
 70
8
 71
2
 72
3
 73
0
 90
2
 40
-0.6
 41
30.0
 62
5
 63
7
 74
0
 91
0
 64
7
 65
257
 75
1
175
1
 42
1.0
 92
8
 66
257
 43
1.0
 76
1
 77
6
 78
2
 67
7
 79
3
170
0
171
0
290
0
174
0
 93
13
 44
0.0
173
0
291
0
 45
0.0
1001
ACAD
1000
AcDbSavedByObjectVersion
1070
0
  0
VISUALSTYLE
  5
A04
102
{ACAD_XDICTIONARY
360
A8B
102
}
102
{ACAD_REACTORS
330
9EF
102
}
330
9EF
100
AcDbVisualStyle
  2
Shaded
 70
27
 71
2
 72
2
 73
1
 90
2
 40
-0.6
 41
30.0
 62
5
 63
7
 74
0
 91
4
 64
7
 65
257
 75
1
175
1
 42
1.0
 92
8
 66
257
 43
1.0
 76
1
 77
6
 78
2
 67
8
 79
3
170
0
171
0
290
0
174
0
 93
5
 44
0.0
173
0
291
0
 45
0.0
1001
ACAD
1000
AcDbSavedByObjectVersion
1070
0
  0
VISUALSTYLE
  5
A03
102
{ACAD_XDICTIONARY
360
A89
102
}
102
{ACAD_REACTORS
330
9EF
102
}
330
9EF
100
AcDbVisualStyle
  2
Shaded with edges
 70
26
 71
2
 72
2
 73
1
 90
2
 40
-0.6
 41
30.0
 62
5
 63
7
 74
1
 91
2
 64
7
 65
257
 75
2
175
1
 42
1.0
 92
8
 66
257
 43
1.0
 76
1
 77
6
 78
2
 67
7
 79
3
170
0
171
0
290
0
174
0
 93
5
 44
0.0
173
0
291
0
 45
0.0
1001
ACAD
1000
AcDbSavedByObjectVersion
1070
0
  0
VISUALSTYLE
  5
A00
102
{ACAD_XDICTIONARY
360
A83
102
}
102
{ACAD_REACTORS
330
9EF
102
}
330
9EF
100
AcDbVisualStyle
  2
Shades of Gray
 70
23
 71
2
 72
2
 73
3
 90
0
 40
-0.6
 41
-30.0
 62
5
 63
7
 74
2
 91
2
 64
7
 65
7
 75
1
175
1
 42
40.0
 92
8
 66
7
 43
1.0
 76
1
 77
6
 78
2
 67
7
 79
3
170
0
171
0
290
0
174
0
 93
1
 44
0.0
173
0
291
0
 45
0.0
1001
ACAD
1000
AcDbSavedByObjectVersion
1070
0
  0
VISUALSTYLE
  5
A01
102
{ACAD_XDICTIONARY
360
A85
102
}
102
{ACAD_REACTORS
330
9EF
102
}
330
9EF
100
AcDbVisualStyle
  2
Sketchy
 70
24
 71
1
 72
2
 73
2
 90
0
 40
-0.6
 41
-30.0
 62
5
 63
7
 74
2
 91
2
 64
7
 65
7
 75
1
175
1
 42
40.0
 92
11
 66
7
 43
1.0
 76
1
 77
6
 78
2
 67
7
 79
6
170
0
171
0
290
0
174
0
 93
1
 44
0.0
173
0
291
0
 45
0.0
1001
ACAD
1000
AcDbSavedByObjectVersion
1070
0
  0
VISUALSTYLE
  5
9FC
102
{ACAD_XDICTIONARY
360
A7B
102
}
102
{ACAD_REACTORS
330
9EF
102
}
330
9EF
100
AcDbVisualStyle
  2
Thicken
 70
13
 71
2
 72
2
 73
0
 90
0
 40
-0.6
 41
-30.0
 62
5
 63
7
 74
1
 91
4
 64
7
 65
257
 75
1
175
1
 42
1.0
 92
12
 66
7
 43
1.0
 76
1
 77
6
 78
2
 67
7
 79
5
170
0
171
0
290
0
174
0
 93
1
 44
0.0
173
0
291
1
 45
0.0
1001
ACAD
1000
AcDbSavedByObjectVersion
1070
0
  0
VISUALSTYLE
  5
9F6
102
{ACAD_XDICTIONARY
360
A6F
102
}
102
{ACAD_REACTORS
330
9EF
102
}
330
9EF
100
AcDbVisualStyle
  2
Wireframe
 70
5
 71
0
 72
2
 73
0
 90
0
 40
-0.6
 41
-30.0
 62
5
 63
7
 74
1
 91
4
 64
7
 65
257
 75
1
175
1
 42
1.0
 92
0
 66
257
 43
1.0
 76
1
 77
6
 78
2
 67
7
 79
3
170
0
171
0
290
0
174
0
 93
1
 44
0.0
173
0
291
0
 45
0.0
1001
ACAD
1000
AcDbSavedByObjectVersion
1070
0
  0
VISUALSTYLE
  5
A02
102
{ACAD_XDICTIONARY
360
A87
102
}
102
{ACAD_REACTORS
330
9EF
102
}
330
9EF
100
AcDbVisualStyle
  2
X-Ray
 70
25
 71
2
 72
2
 73
1
 90
1
 40
0.5
 41
-30.0
 62
5
 63
7
 74
1
 91
0
 64
7
 65
257
 75
1
175
1
 42
1.0
 92
8
 66
7
 43
1.0
 76
1
 77
6
 78
2
 67
7
 79
3
170
0
171
0
290
0
174
0
 93
13
 44
0.0
173
0
291
0
 45
0.0
1001
ACAD
1000
AcDbSavedByObjectVersion
1070
0
  0
DICTIONARYVAR
  5
A54
102
{ACAD_REACTORS
330
A4F
102
}
330
A4F
100
DictionaryVariables
280
0
  1
1:1
  0
DICTIONARYVAR
  5
A51
102
{ACAD_REACTORS
330
A4F
102
}
330
A4F
100
DictionaryVariables
280
0
  1
STANDARD
  0
DICTIONARYVAR
  5
A50
102
{ACAD_REACTORS
330
A4F
102
}
330
A4F
100
DictionaryVariables
280
0
  1
STANDARD
  0
DICTIONARYVAR
  5
A52
102
{ACAD_REACTORS
330
A4F
102
}
330
A4F
100
DictionaryVariables
280
0
  1
Imperial24
  0
DICTIONARYVAR
  5
A53
102
{ACAD_REACTORS
330
A4F
102
}
330
A4F
100
DictionaryVariables
280
0
  1
Imperial24
  0
DICTIONARYVAR
  5
A57
102
{ACAD_REACTORS
330
A4F
102
}
330
A4F
100
DictionaryVariables
280
0
  1
1
  0
DICTIONARYVAR
  5
A56
102
{ACAD_REACTORS
330
A4F
102
}
330
A4F
100
DictionaryVariables
280
0
  1
0
  0
DICTIONARYVAR
  5
A55
102
{ACAD_REACTORS
330
A4F
102
}
330
A4F
100
DictionaryVariables
280
0
  1
127
  0
DICTIONARYVAR
  5
A58
102
{ACAD_REACTORS
330
A4F
102
}
330
A4F
100
DictionaryVariables
280
0
  1
2
  0
DICTIONARY
  5
A97
330
A30
100
AcDbDictionary
280
1
281
1
  3
ACAD_XREC_ROUNDTRIP
360
A98
  0
DICTIONARY
  5
A9B
330
A38
100
AcDbDictionary
280
1
281
1
  3
ACAD_XREC_ROUNDTRIP
360
A9C
  0
DICTIONARY
  5
A99
330
A34
100
AcDbDictionary
280
1
281
1
  3
ACAD_XREC_ROUNDTRIP
360
A9A
  0
DICTIONARY
  5
9E0
330
9DF
100
AcDbDictionary
280
1
281
1
  3
ACAD_XREC_ROUNDTRIP
360
A61
  3
BUMPTILE
360
9E2
  3
DIFFUSETILE
360
9E1
  3
OPACITYTILE
360
9E5
  3
REFLECTIONTILE
360
9E4
  3
REFRACTIONTILE
360
9E6
  3
SPECULARTILE
360
9E3
  0
DICTIONARY
  5
9D8
330
9D7
100
AcDbDictionary
280
1
281
1
  3
ACAD_XREC_ROUNDTRIP
360
A60
  3
BUMPTILE
360
9DA
  3
DIFFUSETILE
360
9D9
  3
OPACITYTILE
360
9DD
  3
REFLECTIONTILE
360
9DC
  3
REFRACTIONTILE
360
9DE
  3
SPECULARTILE
360
9DB
  0
DICTIONARY
  5
9E8
330
9E7
100
AcDbDictionary
280
1
281
1
  3
ACAD_XREC_ROUNDTRIP
360
A62
  3
BUMPTILE
360
9EA
  3
DIFFUSETILE
360
9E9
  3
OPACITYTILE
360
9ED
  3
REFLECTIONTILE
360
9EC
  3
REFRACTIONTILE
360
9EE
  3
SPECULARTILE
360
9EB
  0
DICTIONARY
  5
A95
330
A2E
100
AcDbDictionary
280
1
281
1
  3
ACAD_XREC_ROUNDTRIP
360
A96
  0
DICTIONARY
  5
A5A
330
A2A
100
AcDbDictionary
280
1
281
1
  3
ACAD_ROUNDTRIP_2008_TABLESTYLE_CELLSTYLEMAP
360
A5B
  3
ACAD_XREC_ROUNDTRIP
360
A93
  0
DICTIONARY
  5
A6D
330
9F5
100
AcDbDictionary
280
1
281
1
  3
ACAD_XREC_ROUNDTRIP
360
A6E
  0
DICTIONARY
  5
A6B
330
9F4
100
AcDbDictionary
280
1
281
1
  3
ACAD_XREC_ROUNDTRIP
360
A6C
  0
DICTIONARY
  5
A79
330
9FB
100
AcDbDictionary
280
1
281
1
  3
ACAD_XREC_ROUNDTRIP
360
A7A
  0
DICTIONARY
  5
A81
330
9FF
100
AcDbDictionary
280
1
281
1
  3
ACAD_XREC_ROUNDTRIP
360
A82
  0
DICTIONARY
  5
A73
330
9F8
100
AcDbDictionary
280
1
281
1
  3
ACAD_XREC_ROUNDTRIP
360
A74
  0
DICTIONARY
  5
A77
330
9FA
100
AcDbDictionary
280
1
281
1
  3
ACAD_XREC_ROUNDTRIP
360
A78
  0
DICTIONARY
  5
A91
330
A07
100
AcDbDictionary
280
1
281
1
  3
ACAD_XREC_ROUNDTRIP
360
A92
  0
DICTIONARY
  5
A7F
330
9FE
100
AcDbDictionary
280
1
281
1
  3
ACAD_XREC_ROUNDTRIP
360
A80
  0
DICTIONARY
  5
A63
330
9F0
100
AcDbDictionary
280
1
281
1
  3
ACAD_XREC_ROUNDTRIP
360
A64
  0
DICTIONARY
  5
A65
330
9F1
100
AcDbDictionary
280
1
281
1
  3
ACAD_XREC_ROUNDTRIP
360
A66
  0
DICTIONARY
  5
A67
330
9F2
100
AcDbDictionary
280
1
281
1
  3
ACAD_XREC_ROUNDTRIP
360
A68
  0
DICTIONARY
  5
A69
330
9F3
100
AcDbDictionary
280
1
281
1
  3
ACAD_XREC_ROUNDTRIP
360
A6A
  0
DICTIONARY
  5
A71
330
9F7
100
AcDbDictionary
280
1
281
1
  3
ACAD_XREC_ROUNDTRIP
360
A72
  0
DICTIONARY
  5
A8D
330
A05
100
AcDbDictionary
280
1
281
1
  3
ACAD_XREC_ROUNDTRIP
360
A8E
  0
DICTIONARY
  5
A7D
330
9FD
100
AcDbDictionary
280
1
281
1
  3
ACAD_XREC_ROUNDTRIP
360
A7E
  0
DICTIONARY
  5
A8F
330
A06
100
AcDbDictionary
280
1
281
1
  3
ACAD_XREC_ROUNDTRIP
360
A90
  0
DICTIONARY
  5
A75
330
9F9
100
AcDbDictionary
280
1
281
1
  3
ACAD_XREC_ROUNDTRIP
360
A76
  0
DICTIONARY
  5
A8B
330
A04
100
AcDbDictionary
280
1
281
1
  3
ACAD_XREC_ROUNDTRIP
360
A8C
  0
DICTIONARY
  5
A89
330
A03
100
AcDbDictionary
280
1
281
1
  3
ACAD_XREC_ROUNDTRIP
360
A8A
  0
DICTIONARY
  5
A83
330
A00
100
AcDbDictionary
280
1
281
1
  3
ACAD_XREC_ROUNDTRIP
360
A84
  0
DICTIONARY
  5
A85
330
A01
100
AcDbDictionary
280
1
281
1
  3
ACAD_XREC_ROUNDTRIP
360
A86
  0
DICTIONARY
  5
A7B
330
9FC
100
AcDbDictionary
280
1
281
1
  3
ACAD_XREC_ROUNDTRIP
360
A7C
  0
DICTIONARY
  5
A6F
330
9F6
100
AcDbDictionary
280
1
281
1
  3
ACAD_XREC_ROUNDTRIP
360
A70
  0
DICTIONARY
  5
A87
330
A02
100
AcDbDictionary
280
1
281
1
  3
ACAD_XREC_ROUNDTRIP
360
A88
  0
XRECORD
  5
A98
102
{ACAD_REACTORS
330
A97
102
}
330
A97
100
AcDbXrecord
280
1
102
DISPLAYNAME
  1
Imperial24
102
FLAGS
 90
0
  0
XRECORD
  5
A9C
102
{ACAD_REACTORS
330
A9B
102
}
330
A9B
100
AcDbXrecord
280
1
102
SHADEPLOT
 70
0
102
SHADEPLOTRESLEVEL
 70
2
102
SHADEPLOTCUSTOMDPI
 70
300
  0
XRECORD
  5
A9A
102
{ACAD_REACTORS
330
A99
102
}
330
A99
100
AcDbXrecord
280
1
102
SHADEPLOT
 70
0
102
SHADEPLOTRESLEVEL
 70
2
102
SHADEPLOTCUSTOMDPI
 70
300
  0
XRECORD
  5
A61
102
{ACAD_REACTORS
330
9E0
102
}
330
9E0
100
AcDbXrecord
280
1
102
MATERIAL
148
0.0
149
0.0
149
0.0
 93
0
 94
127
282
0
 72
0
 77
0
171
0
175
0
179
0
273
0
  0
XRECORD
  5
9E2
102
{ACAD_REACTORS
330
9E0
102
}
330
9E0
100
AcDbXrecord
280
1
270
1
271
1
  0
XRECORD
  5
9E1
102
{ACAD_REACTORS
330
9E0
102
}
330
9E0
100
AcDbXrecord
280
1
270
1
271
1
  0
XRECORD
  5
9E5
102
{ACAD_REACTORS
330
9E0
102
}
330
9E0
100
AcDbXrecord
280
1
270
1
271
1
  0
XRECORD
  5
9E4
102
{ACAD_REACTORS
330
9E0
102
}
330
9E0
100
AcDbXrecord
280
1
270
1
271
1
  0
XRECORD
  5
9E6
102
{ACAD_REACTORS
330
9E0
102
}
330
9E0
100
AcDbXrecord
280
1
270
1
271
1
  0
XRECORD
  5
9E3
102
{ACAD_REACTORS
330
9E0
102
}
330
9E0
100
AcDbXrecord
280
1
270
1
271
1
  0
XRECORD
  5
A60
102
{ACAD_REACTORS
330
9D8
102
}
330
9D8
100
AcDbXrecord
280
1
102
MATERIAL
148
0.0
149
0.0
149
0.0
 93
0
 94
127
282
0
 72
0
 77
0
171
0
175
0
179
0
273
0
  0
XRECORD
  5
9DA
102
{ACAD_REACTORS
330
9D8
102
}
330
9D8
100
AcDbXrecord
280
1
270
1
271
1
  0
XRECORD
  5
9D9
102
{ACAD_REACTORS
330
9D8
102
}
330
9D8
100
AcDbXrecord
280
1
270
1
271
1
  0
XRECORD
  5
9DD
102
{ACAD_REACTORS
330
9D8
102
}
330
9D8
100
AcDbXrecord
280
1
270
1
271
1
  0
XRECORD
  5
9DC
102
{ACAD_REACTORS
330
9D8
102
}
330
9D8
100
AcDbXrecord
280
1
270
1
271
1
  0
XRECORD
  5
9DE
102
{ACAD_REACTORS
330
9D8
102
}
330
9D8
100
AcDbXrecord
280
1
270
1
271
1
  0
XRECORD
  5
9DB
102
{ACAD_REACTORS
330
9D8
102
}
330
9D8
100
AcDbXrecord
280
1
270
1
271
1
  0
XRECORD
  5
A62
102
{ACAD_REACTORS
330
9E8
102
}
330
9E8
100
AcDbXrecord
280
1
102
MATERIAL
148
0.0
149
0.0
149
0.0
 93
0
 94
127
282
0
 72
0
 77
0
171
0
175
0
179
0
273
0
  0
XRECORD
  5
9EA
102
{ACAD_REACTORS
330
9E8
102
}
330
9E8
100
AcDbXrecord
280
1
270
1
271
1
  0
XRECORD
  5
9E9
102
{ACAD_REACTORS
330
9E8
102
}
330
9E8
100
AcDbXrecord
280
1
270
1
271
1
  0
XRECORD
  5
9ED
102
{ACAD_REACTORS
330
9E8
102
}
330
9E8
100
AcDbXrecord
280
1
270
1
271
1
  0
XRECORD
  5
9EC
102
{ACAD_REACTORS
330
9E8
102
}
330
9E8
100
AcDbXrecord
280
1
270
1
271
1
  0
XRECORD
  5
9EE
102
{ACAD_REACTORS
330
9E8
102
}
330
9E8
100
AcDbXrecord
280
1
270
1
271
1
  0
XRECORD
  5
9EB
102
{ACAD_REACTORS
330
9E8
102
}
330
9E8
100
AcDbXrecord
280
1
270
1
271
1
  0
XRECORD
  5
A96
102
{ACAD_REACTORS
330
A95
102
}
330
A95
100
AcDbXrecord
280
1
102
DISPLAYNAME
  1
Imperial24
102
FLAGS
 90
0
  0
CELLSTYLEMAP
  5
A5B
102
{ACAD_REACTORS
330
A5A
102
}
330
A5A
100
AcDbCellStyleMap
 90
3
300
CELLSTYLE
  1
TABLEFORMAT_BEGIN
 90
5
170
1
 91
0
 92
32768
 62
257
 93
1
300
CONTENTFORMAT
  1
CONTENTFORMAT_BEGIN
 90
0
 91
0
 92
512
 93
0
300

 40
0.0
140
1.0
 94
5
 62
0
340
A1B
144
0.25
309
CONTENTFORMAT_END
171
0
 94
0
309
TABLEFORMAT_END
  1
CELLSTYLE_BEGIN
 90
1
 91
1
300
_TITLE
309
CELLSTYLE_END
300
CELLSTYLE
  1
TABLEFORMAT_BEGIN
 90
5
170
1
 91
0
 92
0
 62
257
 93
1
300
CONTENTFORMAT
  1
CONTENTFORMAT_BEGIN
 90
0
 91
0
 92
512
 93
0
300

 40
0.0
140
1.0
 94
5
 62
0
340
A1B
144
0.18
309
CONTENTFORMAT_END
171
0
 94
0
309
TABLEFORMAT_END
  1
CELLSTYLE_BEGIN
 90
2
 91
1
300
_HEADER
309
CELLSTYLE_END
300
CELLSTYLE
  1
TABLEFORMAT_BEGIN
 90
5
170
1
 91
0
 92
0
 62
257
 93
1
300
CONTENTFORMAT
  1
CONTENTFORMAT_BEGIN
 90
0
 91
0
 92
512
 93
0
300

 40
0.0
140
1.0
 94
2
 62
0
340
A1B
144
0.18
309
CONTENTFORMAT_END
171
0
 94
0
309
TABLEFORMAT_END
  1
CELLSTYLE_BEGIN
 90
3
 91
2
300
_DATA
309
CELLSTYLE_END
  0
XRECORD
  5
A93
102
{ACAD_REACTORS
330
A5A
102
}
330
A5A
100
AcDbXrecord
280
1
102
ACAD_ROUNDTRIP_PRE2007_TABLESTYLE
 90
512
 91
0
  1

 92
512
 93
0
  2

 94
512
 95
0
  3

  0
XRECORD
  5
A6E
102
{ACAD_REACTORS
330
A6D
102
}
330
A6D
100
AcDbXrecord
280
1
102
RTVSPost2010Prop28
280
1
102
RTVSPost2010PropOp28
 70
1
102
RTVSPost2010Prop29
280
1
102
RTVSPost2010PropOp29
 70
1
102
RTVSPost2010Prop30
280
0
102
RTVSPost2010PropOp30
 70
1
102
RTVSPost2010Prop31
280
0
102
RTVSPost2010PropOp31
 70
1
102
RTVSPost2010Prop32
280
0
102
RTVSPost2010PropOp32
 70
1
102
RTVSPost2010Prop33
280
0
102
RTVSPost2010PropOp33
 70
1
102
RTVSPost2010Prop34
280
0
102
RTVSPost2010PropOp34
 70
1
102
RTVSPost2010Prop35
280
0
102
RTVSPost2010PropOp35
 70
1
102
RTVSPost2010Prop36
280
0
102
RTVSPost2010PropOp36
 70
1
102
RTVSPost2010Prop37
 90
50
102
RTVSPost2010PropOp37
 70
1
102
RTVSPost2010Prop38
140
0.0
102
RTVSPost2010PropOp38
 70
1
102
RTVSPost2010Prop39
140
1.0
102
RTVSPost2010PropOp39
 70
1
102
RTVSPost2010Prop40
 90
0
102
RTVSPost2010PropOp40
 70
1
102
RTVSPost2010Prop41ColorIndex
 90
18
102
RTVSPost2010Prop41ColorRGB
 90
0
102
RTVSPost2010PropOp41
 70
1
102
RTVSPost2010Prop42
 90
50
102
RTVSPost2010PropOp42
 70
1
102
RTVSPost2010Prop43
 90
3
102
RTVSPost2010PropOp43
 70
1
102
RTVSPost2010Prop44ColorIndex
 90
5
102
RTVSPost2010Prop44ColorRGB
 90
255
102
RTVSPost2010PropOp44
 70
1
102
RTVSPost2010Prop45
280
0
102
RTVSPost2010PropOp45
 70
1
102
RTVSPost2010Prop46
 90
50
102
RTVSPost2010PropOp46
 70
1
102
RTVSPost2010Prop47
 90
50
102
RTVSPost2010PropOp47
 70
1
102
RTVSPost2010Prop48
 90
50
102
RTVSPost2010PropOp48
 70
1
102
RTVSPost2010Prop49
280
0
102
RTVSPost2010PropOp49
 70
1
102
RTVSPost2010Prop50
 90
50
102
RTVSPost2010PropOp50
 70
1
102
RTVSPost2010Prop51ColorIndex
 90
256
102
RTVSPost2010Prop51ColorRGB
 90
-16777216
102
RTVSPost2010PropOp51
 70
0
102
RTVSPost2010Prop52
140
1.0
102
RTVSPost2010PropOp52
 70
0
102
RTVSPost2010Prop53
 90
2
102
RTVSPost2010PropOp53
 70
1
102
RTVSPost2010Prop54
  1
strokes_ogs.tif
102
RTVSPost2010PropOp54
 70
1
102
RTVSPost2010Prop55
280
0
102
RTVSPost2010PropOp55
 70
1
102
RTVSPost2010Prop56
140
1.0
102
RTVSPost2010PropOp56
 70
1
102
RTVSPost2010Prop57
140
1.0
102
RTVSPost2010PropOp57
 70
1
102
RTVSPropertyOp0
 70
1
102
RTVSPropertyOp1
 70
1
102
RTVSPropertyOp2
 70
1
102
RTVSPropertyOp3
 70
1
102
RTVSPropertyOp4
 70
1
102
RTVSPropertyOp5
 70
1
102
RTVSPropertyOp6
 70
1
102
RTVSPropertyOp7
 70
1
102
RTVSPropertyOp8
 70
1
102
RTVSPropertyOp9
 70
1
102
RTVSPropertyOp10
 70
1
102
RTVSPropertyOp11
 70
1
102
RTVSPropertyOp12
 70
1
102
RTVSPropertyOp13
 70
1
102
RTVSPropertyOp14
 70
1
102
RTVSPropertyOp15
 70
1
102
RTVSPropertyOp16
 70
1
102
RTVSPropertyOp17
 70
1
102
RTVSPropertyOp18
 70
1
102
RTVSPropertyOp19
 70
1
102
RTVSPropertyOp20
 70
1
102
RTVSPropertyOp21
 70
1
102
RTVSPropertyOp22
 70
1
102
RTVSPropertyOp23
 70
1
102
RTVSPropertyOp24
 70
1
102
RTVSPropertyOp25
 70
1
102
RTVSPropertyOp26
 70
1
102
RTVSPropertyOp27
 70
1
102
RTVSPropertyOp28
 70
1
102
RTVSPropertyOp29
 70
1
102
RTVSPropertyOp30
 70
1
102
RTVSPropertyOp31
 70
1
102
RTVSPropertyOp32
 70
1
102
RTVSPropertyOp33
 70
1
102
RTVSPropertyOp34
 70
1
102
RTVSPropertyOp35
 70
1
102
RTVSPropertyOp36
 70
1
102
RTVSPropertyOp37
 70
1
102
RTVSPropertyOp38
 70
1
102
RTVSPropertyOp39
 70
1
102
RTVSPropertyOp40
 70
1
102
RTVSPropertyOp41
 70
1
102
RTVSPropertyOp42
 70
1
102
RTVSPropertyOp43
 70
1
102
RTVSPropertyOp44
 70
1
102
RTVSPropertyOp45
 70
1
102
RTVSPropertyOp46
 70
1
102
RTVSPropertyOp47
 70
1
102
RTVSPropertyOp48
 70
1
102
RTVSPropertyOp49
 70
1
102
RTVSPropertyOp50
 70
1
102
RTVSPropertyOp51
 70
0
102
RTVSPropertyOp52
 70
0
102
RTVSPropertyOp53
 70
1
102
RTVSPropertyOp54
 70
1
102
RTVSPropertyOp55
 70
1
102
RTVSPropertyOp56
 70
1
102
RTVSPropertyOp57
 70
1
102
RTVSPropertyOp58
 70
1
102
RTVSPropertyOp59
 70
1
102
RTVSPropertyOp60
 70
1
102
RTVSPropertyOp61
 70
1
102
RTVSPropertyOp62
 70
1
  0
XRECORD
  5
A6C
102
{ACAD_REACTORS
330
A6B
102
}
330
A6B
100
AcDbXrecord
280
1
102
RTVSPost2010Prop28
280
0
102
RTVSPost2010PropOp28
 70
1
102
RTVSPost2010Prop29
280
1
102
RTVSPost2010PropOp29
 70
1
102
RTVSPost2010Prop30
280
1
102
RTVSPost2010PropOp30
 70
1
102
RTVSPost2010Prop31
280
0
102
RTVSPost2010PropOp31
 70
1
102
RTVSPost2010Prop32
280
0
102
RTVSPost2010PropOp32
 70
1
102
RTVSPost2010Prop33
280
0
102
RTVSPost2010PropOp33
 70
1
102
RTVSPost2010Prop34
280
0
102
RTVSPost2010PropOp34
 70
1
102
RTVSPost2010Prop35
280
0
102
RTVSPost2010PropOp35
 70
1
102
RTVSPost2010Prop36
280
0
102
RTVSPost2010PropOp36
 70
1
102
RTVSPost2010Prop37
 90
50
102
RTVSPost2010PropOp37
 70
1
102
RTVSPost2010Prop38
140
0.0
102
RTVSPost2010PropOp38
 70
1
102
RTVSPost2010Prop39
140
1.0
102
RTVSPost2010PropOp39
 70
1
102
RTVSPost2010Prop40
 90
0
102
RTVSPost2010PropOp40
 70
1
102
RTVSPost2010Prop41ColorIndex
 90
18
102
RTVSPost2010Prop41ColorRGB
 90
0
102
RTVSPost2010PropOp41
 70
1
102
RTVSPost2010Prop42
 90
50
102
RTVSPost2010PropOp42
 70
1
102
RTVSPost2010Prop43
 90
3
102
RTVSPost2010PropOp43
 70
1
102
RTVSPost2010Prop44ColorIndex
 90
5
102
RTVSPost2010Prop44ColorRGB
 90
255
102
RTVSPost2010PropOp44
 70
1
102
RTVSPost2010Prop45
280
0
102
RTVSPost2010PropOp45
 70
1
102
RTVSPost2010Prop46
 90
50
102
RTVSPost2010PropOp46
 70
1
102
RTVSPost2010Prop47
 90
50
102
RTVSPost2010PropOp47
 70
1
102
RTVSPost2010Prop48
 90
50
102
RTVSPost2010PropOp48
 70
1
102
RTVSPost2010Prop49
280
0
102
RTVSPost2010PropOp49
 70
1
102
RTVSPost2010Prop50
 90
50
102
RTVSPost2010PropOp50
 70
1
102
RTVSPost2010Prop51ColorIndex
 90
256
102
RTVSPost2010Prop51ColorRGB
 90
-16777216
102
RTVSPost2010PropOp51
 70
0
102
RTVSPost2010Prop52
140
1.0
102
RTVSPost2010PropOp52
 70
0
102
RTVSPost2010Prop53
 90
2
102
RTVSPost2010PropOp53
 70
1
102
RTVSPost2010Prop54
  1
strokes_ogs.tif
102
RTVSPost2010PropOp54
 70
1
102
RTVSPost2010Prop55
280
0
102
RTVSPost2010PropOp55
 70
1
102
RTVSPost2010Prop56
140
1.0
102
RTVSPost2010PropOp56
 70
1
102
RTVSPost2010Prop57
140
1.0
102
RTVSPost2010PropOp57
 70
1
102
RTVSPropertyOp0
 70
1
102
RTVSPropertyOp1
 70
1
102
RTVSPropertyOp2
 70
1
102
RTVSPropertyOp3
 70
1
102
RTVSPropertyOp4
 70
1
102
RTVSPropertyOp5
 70
1
102
RTVSPropertyOp6
 70
1
102
RTVSPropertyOp7
 70
1
102
RTVSPropertyOp8
 70
1
102
RTVSPropertyOp9
 70
1
102
RTVSPropertyOp10
 70
1
102
RTVSPropertyOp11
 70
1
102
RTVSPropertyOp12
 70
1
102
RTVSPropertyOp13
 70
1
102
RTVSPropertyOp14
 70
1
102
RTVSPropertyOp15
 70
1
102
RTVSPropertyOp16
 70
1
102
RTVSPropertyOp17
 70
1
102
RTVSPropertyOp18
 70
1
102
RTVSPropertyOp19
 70
1
102
RTVSPropertyOp20
 70
1
102
RTVSPropertyOp21
 70
1
102
RTVSPropertyOp22
 70
1
102
RTVSPropertyOp23
 70
1
102
RTVSPropertyOp24
 70
1
102
RTVSPropertyOp25
 70
1
102
RTVSPropertyOp26
 70
1
102
RTVSPropertyOp27
 70
1
102
RTVSPropertyOp28
 70
1
102
RTVSPropertyOp29
 70
1
102
RTVSPropertyOp30
 70
1
102
RTVSPropertyOp31
 70
1
102
RTVSPropertyOp32
 70
1
102
RTVSPropertyOp33
 70
1
102
RTVSPropertyOp34
 70
1
102
RTVSPropertyOp35
 70
1
102
RTVSPropertyOp36
 70
1
102
RTVSPropertyOp37
 70
1
102
RTVSPropertyOp38
 70
1
102
RTVSPropertyOp39
 70
1
102
RTVSPropertyOp40
 70
1
102
RTVSPropertyOp41
 70
1
102
RTVSPropertyOp42
 70
1
102
RTVSPropertyOp43
 70
1
102
RTVSPropertyOp44
 70
1
102
RTVSPropertyOp45
 70
1
102
RTVSPropertyOp46
 70
1
102
RTVSPropertyOp47
 70
1
102
RTVSPropertyOp48
 70
1
102
RTVSPropertyOp49
 70
1
102
RTVSPropertyOp50
 70
1
102
RTVSPropertyOp51
 70
0
102
RTVSPropertyOp52
 70
0
102
RTVSPropertyOp53
 70
1
102
RTVSPropertyOp54
 70
1
102
RTVSPropertyOp55
 70
1
102
RTVSPropertyOp56
 70
1
102
RTVSPropertyOp57
 70
1
102
RTVSPropertyOp58
 70
1
102
RTVSPropertyOp59
 70
1
102
RTVSPropertyOp60
 70
1
102
RTVSPropertyOp61
 70
1
102
RTVSPropertyOp62
 70
1
  0
XRECORD
  5
A7A
102
{ACAD_REACTORS
330
A79
102
}
330
A79
100
AcDbXrecord
280
1
102
RTVSPost2010Prop28
280
0
102
RTVSPost2010PropOp28
 70
1
102
RTVSPost2010Prop29
280
1
102
RTVSPost2010PropOp29
 70
1
102
RTVSPost2010Prop30
280
1
102
RTVSPost2010PropOp30
 70
1
102
RTVSPost2010Prop31
280
0
102
RTVSPost2010PropOp31
 70
1
102
RTVSPost2010Prop32
280
0
102
RTVSPost2010PropOp32
 70
1
102
RTVSPost2010Prop33
280
0
102
RTVSPost2010PropOp33
 70
1
102
RTVSPost2010Prop34
280
0
102
RTVSPost2010PropOp34
 70
1
102
RTVSPost2010Prop35
280
0
102
RTVSPost2010PropOp35
 70
1
102
RTVSPost2010Prop36
280
0
102
RTVSPost2010PropOp36
 70
1
102
RTVSPost2010Prop37
 90
50
102
RTVSPost2010PropOp37
 70
1
102
RTVSPost2010Prop38
140
0.0
102
RTVSPost2010PropOp38
 70
1
102
RTVSPost2010Prop39
140
1.0
102
RTVSPost2010PropOp39
 70
1
102
RTVSPost2010Prop40
 90
0
102
RTVSPost2010PropOp40
 70
1
102
RTVSPost2010Prop41ColorIndex
 90
18
102
RTVSPost2010Prop41ColorRGB
 90
0
102
RTVSPost2010PropOp41
 70
1
102
RTVSPost2010Prop42
 90
50
102
RTVSPost2010PropOp42
 70
1
102
RTVSPost2010Prop43
 90
3
102
RTVSPost2010PropOp43
 70
1
102
RTVSPost2010Prop44ColorIndex
 90
5
102
RTVSPost2010Prop44ColorRGB
 90
255
102
RTVSPost2010PropOp44
 70
1
102
RTVSPost2010Prop45
280
0
102
RTVSPost2010PropOp45
 70
1
102
RTVSPost2010Prop46
 90
50
102
RTVSPost2010PropOp46
 70
1
102
RTVSPost2010Prop47
 90
50
102
RTVSPost2010PropOp47
 70
1
102
RTVSPost2010Prop48
 90
50
102
RTVSPost2010PropOp48
 70
1
102
RTVSPost2010Prop49
280
0
102
RTVSPost2010PropOp49
 70
1
102
RTVSPost2010Prop50
 90
50
102
RTVSPost2010PropOp50
 70
1
102
RTVSPost2010Prop51ColorIndex
 90
256
102
RTVSPost2010Prop51ColorRGB
 90
-16777216
102
RTVSPost2010PropOp51
 70
0
102
RTVSPost2010Prop52
140
1.0
102
RTVSPost2010PropOp52
 70
0
102
RTVSPost2010Prop53
 90
2
102
RTVSPost2010PropOp53
 70
1
102
RTVSPost2010Prop54
  1
strokes_ogs.tif
102
RTVSPost2010PropOp54
 70
1
102
RTVSPost2010Prop55
280
0
102
RTVSPost2010PropOp55
 70
1
102
RTVSPost2010Prop56
140
1.0
102
RTVSPost2010PropOp56
 70
1
102
RTVSPost2010Prop57
140
1.0
102
RTVSPost2010PropOp57
 70
1
102
RTVSPropertyOp0
 70
1
102
RTVSPropertyOp1
 70
1
102
RTVSPropertyOp2
 70
1
102
RTVSPropertyOp3
 70
1
102
RTVSPropertyOp4
 70
1
102
RTVSPropertyOp5
 70
1
102
RTVSPropertyOp6
 70
1
102
RTVSPropertyOp7
 70
1
102
RTVSPropertyOp8
 70
1
102
RTVSPropertyOp9
 70
1
102
RTVSPropertyOp10
 70
1
102
RTVSPropertyOp11
 70
1
102
RTVSPropertyOp12
 70
1
102
RTVSPropertyOp13
 70
1
102
RTVSPropertyOp14
 70
1
102
RTVSPropertyOp15
 70
1
102
RTVSPropertyOp16
 70
1
102
RTVSPropertyOp17
 70
1
102
RTVSPropertyOp18
 70
1
102
RTVSPropertyOp19
 70
1
102
RTVSPropertyOp20
 70
1
102
RTVSPropertyOp21
 70
1
102
RTVSPropertyOp22
 70
1
102
RTVSPropertyOp23
 70
1
102
RTVSPropertyOp24
 70
1
102
RTVSPropertyOp25
 70
1
102
RTVSPropertyOp26
 70
1
102
RTVSPropertyOp27
 70
1
102
RTVSPropertyOp28
 70
1
102
RTVSPropertyOp29
 70
1
102
RTVSPropertyOp30
 70
1
102
RTVSPropertyOp31
 70
1
102
RTVSPropertyOp32
 70
1
102
RTVSPropertyOp33
 70
1
102
RTVSPropertyOp34
 70
1
102
RTVSPropertyOp35
 70
1
102
RTVSPropertyOp36
 70
1
102
RTVSPropertyOp37
 70
1
102
RTVSPropertyOp38
 70
1
102
RTVSPropertyOp39
 70
1
102
RTVSPropertyOp40
 70
1
102
RTVSPropertyOp41
 70
1
102
RTVSPropertyOp42
 70
1
102
RTVSPropertyOp43
 70
1
102
RTVSPropertyOp44
 70
1
102
RTVSPropertyOp45
 70
1
102
RTVSPropertyOp46
 70
1
102
RTVSPropertyOp47
 70
1
102
RTVSPropertyOp48
 70
1
102
RTVSPropertyOp49
 70
1
102
RTVSPropertyOp50
 70
1
102
RTVSPropertyOp51
 70
0
102
RTVSPropertyOp52
 70
0
102
RTVSPropertyOp53
 70
1
102
RTVSPropertyOp54
 70
1
102
RTVSPropertyOp55
 70
1
102
RTVSPropertyOp56
 70
1
102
RTVSPropertyOp57
 70
1
102
RTVSPropertyOp58
 70
1
102
RTVSPropertyOp59
 70
1
102
RTVSPropertyOp60
 70
1
102
RTVSPropertyOp61
 70
1
102
RTVSPropertyOp62
 70
1
  0
XRECORD
  5
A82
102
{ACAD_REACTORS
330
A81
102
}
330
A81
100
AcDbXrecord
280
1
102
RTVSPost2010Prop28
280
0
102
RTVSPost2010PropOp28
 70
1
102
RTVSPost2010Prop29
280
1
102
RTVSPost2010PropOp29
 70
1
102
RTVSPost2010Prop30
280
1
102
RTVSPost2010PropOp30
 70
1
102
RTVSPost2010Prop31
280
0
102
RTVSPost2010PropOp31
 70
1
102
RTVSPost2010Prop32
280
0
102
RTVSPost2010PropOp32
 70
1
102
RTVSPost2010Prop33
280
0
102
RTVSPost2010PropOp33
 70
1
102
RTVSPost2010Prop34
280
0
102
RTVSPost2010PropOp34
 70
1
102
RTVSPost2010Prop35
280
0
102
RTVSPost2010PropOp35
 70
1
102
RTVSPost2010Prop36
280
0
102
RTVSPost2010PropOp36
 70
1
102
RTVSPost2010Prop37
 90
50
102
RTVSPost2010PropOp37
 70
1
102
RTVSPost2010Prop38
140
0.0
102
RTVSPost2010PropOp38
 70
1
102
RTVSPost2010Prop39
140
1.0
102
RTVSPost2010PropOp39
 70
1
102
RTVSPost2010Prop40
 90
0
102
RTVSPost2010PropOp40
 70
1
102
RTVSPost2010Prop41ColorIndex
 90
18
102
RTVSPost2010Prop41ColorRGB
 90
0
102
RTVSPost2010PropOp41
 70
1
102
RTVSPost2010Prop42
 90
50
102
RTVSPost2010PropOp42
 70
1
102
RTVSPost2010Prop43
 90
3
102
RTVSPost2010PropOp43
 70
1
102
RTVSPost2010Prop44ColorIndex
 90
5
102
RTVSPost2010Prop44ColorRGB
 90
255
102
RTVSPost2010PropOp44
 70
1
102
RTVSPost2010Prop45
280
0
102
RTVSPost2010PropOp45
 70
1
102
RTVSPost2010Prop46
 90
50
102
RTVSPost2010PropOp46
 70
1
102
RTVSPost2010Prop47
 90
50
102
RTVSPost2010PropOp47
 70
1
102
RTVSPost2010Prop48
 90
50
102
RTVSPost2010PropOp48
 70
1
102
RTVSPost2010Prop49
280
0
102
RTVSPost2010PropOp49
 70
1
102
RTVSPost2010Prop50
 90
50
102
RTVSPost2010PropOp50
 70
1
102
RTVSPost2010Prop51ColorIndex
 90
256
102
RTVSPost2010Prop51ColorRGB
 90
-16777216
102
RTVSPost2010PropOp51
 70
0
102
RTVSPost2010Prop52
140
1.0
102
RTVSPost2010PropOp52
 70
0
102
RTVSPost2010Prop53
 90
2
102
RTVSPost2010PropOp53
 70
1
102
RTVSPost2010Prop54
  1
strokes_ogs.tif
102
RTVSPost2010PropOp54
 70
1
102
RTVSPost2010Prop55
280
0
102
RTVSPost2010PropOp55
 70
1
102
RTVSPost2010Prop56
140
1.0
102
RTVSPost2010PropOp56
 70
1
102
RTVSPost2010Prop57
140
1.0
102
RTVSPost2010PropOp57
 70
1
102
RTVSPropertyOp0
 70
1
102
RTVSPropertyOp1
 70
1
102
RTVSPropertyOp2
 70
1
102
RTVSPropertyOp3
 70
1
102
RTVSPropertyOp4
 70
1
102
RTVSPropertyOp5
 70
1
102
RTVSPropertyOp6
 70
1
102
RTVSPropertyOp7
 70
1
102
RTVSPropertyOp8
 70
1
102
RTVSPropertyOp9
 70
1
102
RTVSPropertyOp10
 70
1
102
RTVSPropertyOp11
 70
1
102
RTVSPropertyOp12
 70
1
102
RTVSPropertyOp13
 70
1
102
RTVSPropertyOp14
 70
1
102
RTVSPropertyOp15
 70
1
102
RTVSPropertyOp16
 70
1
102
RTVSPropertyOp17
 70
1
102
RTVSPropertyOp18
 70
1
102
RTVSPropertyOp19
 70
1
102
RTVSPropertyOp20
 70
1
102
RTVSPropertyOp21
 70
1
102
RTVSPropertyOp22
 70
1
102
RTVSPropertyOp23
 70
1
102
RTVSPropertyOp24
 70
1
102
RTVSPropertyOp25
 70
1
102
RTVSPropertyOp26
 70
1
102
RTVSPropertyOp27
 70
1
102
RTVSPropertyOp28
 70
1
102
RTVSPropertyOp29
 70
1
102
RTVSPropertyOp30
 70
1
102
RTVSPropertyOp31
 70
1
102
RTVSPropertyOp32
 70
1
102
RTVSPropertyOp33
 70
1
102
RTVSPropertyOp34
 70
1
102
RTVSPropertyOp35
 70
1
102
RTVSPropertyOp36
 70
1
102
RTVSPropertyOp37
 70
1
102
RTVSPropertyOp38
 70
1
102
RTVSPropertyOp39
 70
1
102
RTVSPropertyOp40
 70
1
102
RTVSPropertyOp41
 70
1
102
RTVSPropertyOp42
 70
1
102
RTVSPropertyOp43
 70
1
102
RTVSPropertyOp44
 70
1
102
RTVSPropertyOp45
 70
1
102
RTVSPropertyOp46
 70
1
102
RTVSPropertyOp47
 70
1
102
RTVSPropertyOp48
 70
1
102
RTVSPropertyOp49
 70
1
102
RTVSPropertyOp50
 70
1
102
RTVSPropertyOp51
 70
0
102
RTVSPropertyOp52
 70
0
102
RTVSPropertyOp53
 70
1
102
RTVSPropertyOp54
 70
1
102
RTVSPropertyOp55
 70
1
102
RTVSPropertyOp56
 70
1
102
RTVSPropertyOp57
 70
1
102
RTVSPropertyOp58
 70
1
102
RTVSPropertyOp59
 70
1
102
RTVSPropertyOp60
 70
1
102
RTVSPropertyOp61
 70
1
102
RTVSPropertyOp62
 70
1
  0
XRECORD
  5
A74
102
{ACAD_REACTORS
330
A73
102
}
330
A73
100
AcDbXrecord
280
1
102
RTVSPost2010Prop28
280
0
102
RTVSPost2010PropOp28
 70
1
102
RTVSPost2010Prop29
280
1
102
RTVSPost2010PropOp29
 70
1
102
RTVSPost2010Prop30
280
1
102
RTVSPost2010PropOp30
 70
1
102
RTVSPost2010Prop31
280
0
102
RTVSPost2010PropOp31
 70
1
102
RTVSPost2010Prop32
280
0
102
RTVSPost2010PropOp32
 70
1
102
RTVSPost2010Prop33
280
0
102
RTVSPost2010PropOp33
 70
1
102
RTVSPost2010Prop34
280
0
102
RTVSPost2010PropOp34
 70
1
102
RTVSPost2010Prop35
280
0
102
RTVSPost2010PropOp35
 70
1
102
RTVSPost2010Prop36
280
0
102
RTVSPost2010PropOp36
 70
1
102
RTVSPost2010Prop37
 90
50
102
RTVSPost2010PropOp37
 70
1
102
RTVSPost2010Prop38
140
0.0
102
RTVSPost2010PropOp38
 70
1
102
RTVSPost2010Prop39
140
1.0
102
RTVSPost2010PropOp39
 70
1
102
RTVSPost2010Prop40
 90
0
102
RTVSPost2010PropOp40
 70
1
102
RTVSPost2010Prop41ColorIndex
 90
18
102
RTVSPost2010Prop41ColorRGB
 90
0
102
RTVSPost2010PropOp41
 70
1
102
RTVSPost2010Prop42
 90
50
102
RTVSPost2010PropOp42
 70
1
102
RTVSPost2010Prop43
 90
3
102
RTVSPost2010PropOp43
 70
1
102
RTVSPost2010Prop44ColorIndex
 90
5
102
RTVSPost2010Prop44ColorRGB
 90
255
102
RTVSPost2010PropOp44
 70
1
102
RTVSPost2010Prop45
280
0
102
RTVSPost2010PropOp45
 70
1
102
RTVSPost2010Prop46
 90
50
102
RTVSPost2010PropOp46
 70
1
102
RTVSPost2010Prop47
 90
50
102
RTVSPost2010PropOp47
 70
1
102
RTVSPost2010Prop48
 90
50
102
RTVSPost2010PropOp48
 70
1
102
RTVSPost2010Prop49
280
0
102
RTVSPost2010PropOp49
 70
1
102
RTVSPost2010Prop50
 90
50
102
RTVSPost2010PropOp50
 70
1
102
RTVSPost2010Prop51ColorIndex
 90
256
102
RTVSPost2010Prop51ColorRGB
 90
-16777216
102
RTVSPost2010PropOp51
 70
0
102
RTVSPost2010Prop52
140
1.0
102
RTVSPost2010PropOp52
 70
0
102
RTVSPost2010Prop53
 90
2
102
RTVSPost2010PropOp53
 70
1
102
RTVSPost2010Prop54
  1
strokes_ogs.tif
102
RTVSPost2010PropOp54
 70
1
102
RTVSPost2010Prop55
280
0
102
RTVSPost2010PropOp55
 70
1
102
RTVSPost2010Prop56
140
1.0
102
RTVSPost2010PropOp56
 70
1
102
RTVSPost2010Prop57
140
1.0
102
RTVSPost2010PropOp57
 70
1
102
RTVSPropertyOp0
 70
1
102
RTVSPropertyOp1
 70
1
102
RTVSPropertyOp2
 70
1
102
RTVSPropertyOp3
 70
1
102
RTVSPropertyOp4
 70
1
102
RTVSPropertyOp5
 70
1
102
RTVSPropertyOp6
 70
1
102
RTVSPropertyOp7
 70
1
102
RTVSPropertyOp8
 70
1
102
RTVSPropertyOp9
 70
1
102
RTVSPropertyOp10
 70
1
102
RTVSPropertyOp11
 70
1
102
RTVSPropertyOp12
 70
1
102
RTVSPropertyOp13
 70
1
102
RTVSPropertyOp14
 70
1
102
RTVSPropertyOp15
 70
1
102
RTVSPropertyOp16
 70
1
102
RTVSPropertyOp17
 70
1
102
RTVSPropertyOp18
 70
1
102
RTVSPropertyOp19
 70
1
102
RTVSPropertyOp20
 70
1
102
RTVSPropertyOp21
 70
1
102
RTVSPropertyOp22
 70
1
102
RTVSPropertyOp23
 70
1
102
RTVSPropertyOp24
 70
1
102
RTVSPropertyOp25
 70
1
102
RTVSPropertyOp26
 70
1
102
RTVSPropertyOp27
 70
1
102
RTVSPropertyOp28
 70
1
102
RTVSPropertyOp29
 70
1
102
RTVSPropertyOp30
 70
1
102
RTVSPropertyOp31
 70
1
102
RTVSPropertyOp32
 70
1
102
RTVSPropertyOp33
 70
1
102
RTVSPropertyOp34
 70
1
102
RTVSPropertyOp35
 70
1
102
RTVSPropertyOp36
 70
1
102
RTVSPropertyOp37
 70
1
102
RTVSPropertyOp38
 70
1
102
RTVSPropertyOp39
 70
1
102
RTVSPropertyOp40
 70
1
102
RTVSPropertyOp41
 70
1
102
RTVSPropertyOp42
 70
1
102
RTVSPropertyOp43
 70
1
102
RTVSPropertyOp44
 70
1
102
RTVSPropertyOp45
 70
1
102
RTVSPropertyOp46
 70
1
102
RTVSPropertyOp47
 70
1
102
RTVSPropertyOp48
 70
1
102
RTVSPropertyOp49
 70
1
102
RTVSPropertyOp50
 70
1
102
RTVSPropertyOp51
 70
0
102
RTVSPropertyOp52
 70
0
102
RTVSPropertyOp53
 70
1
102
RTVSPropertyOp54
 70
1
102
RTVSPropertyOp55
 70
1
102
RTVSPropertyOp56
 70
1
102
RTVSPropertyOp57
 70
1
102
RTVSPropertyOp58
 70
1
102
RTVSPropertyOp59
 70
1
102
RTVSPropertyOp60
 70
1
102
RTVSPropertyOp61
 70
1
102
RTVSPropertyOp62
 70
1
  0
XRECORD
  5
A78
102
{ACAD_REACTORS
330
A77
102
}
330
A77
100
AcDbXrecord
280
1
102
RTVSPost2010Prop28
280
0
102
RTVSPost2010PropOp28
 70
1
102
RTVSPost2010Prop29
280
1
102
RTVSPost2010PropOp29
 70
1
102
RTVSPost2010Prop30
280
1
102
RTVSPost2010PropOp30
 70
1
102
RTVSPost2010Prop31
280
0
102
RTVSPost2010PropOp31
 70
1
102
RTVSPost2010Prop32
280
0
102
RTVSPost2010PropOp32
 70
1
102
RTVSPost2010Prop33
280
0
102
RTVSPost2010PropOp33
 70
1
102
RTVSPost2010Prop34
280
0
102
RTVSPost2010PropOp34
 70
1
102
RTVSPost2010Prop35
280
0
102
RTVSPost2010PropOp35
 70
1
102
RTVSPost2010Prop36
280
0
102
RTVSPost2010PropOp36
 70
1
102
RTVSPost2010Prop37
 90
50
102
RTVSPost2010PropOp37
 70
1
102
RTVSPost2010Prop38
140
0.0
102
RTVSPost2010PropOp38
 70
1
102
RTVSPost2010Prop39
140
1.0
102
RTVSPost2010PropOp39
 70
1
102
RTVSPost2010Prop40
 90
0
102
RTVSPost2010PropOp40
 70
1
102
RTVSPost2010Prop41ColorIndex
 90
18
102
RTVSPost2010Prop41ColorRGB
 90
0
102
RTVSPost2010PropOp41
 70
1
102
RTVSPost2010Prop42
 90
50
102
RTVSPost2010PropOp42
 70
1
102
RTVSPost2010Prop43
 90
3
102
RTVSPost2010PropOp43
 70
1
102
RTVSPost2010Prop44ColorIndex
 90
5
102
RTVSPost2010Prop44ColorRGB
 90
255
102
RTVSPost2010PropOp44
 70
1
102
RTVSPost2010Prop45
280
0
102
RTVSPost2010PropOp45
 70
1
102
RTVSPost2010Prop46
 90
50
102
RTVSPost2010PropOp46
 70
1
102
RTVSPost2010Prop47
 90
50
102
RTVSPost2010PropOp47
 70
1
102
RTVSPost2010Prop48
 90
50
102
RTVSPost2010PropOp48
 70
1
102
RTVSPost2010Prop49
280
0
102
RTVSPost2010PropOp49
 70
1
102
RTVSPost2010Prop50
 90
50
102
RTVSPost2010PropOp50
 70
1
102
RTVSPost2010Prop51ColorIndex
 90
256
102
RTVSPost2010Prop51ColorRGB
 90
-16777216
102
RTVSPost2010PropOp51
 70
0
102
RTVSPost2010Prop52
140
1.0
102
RTVSPost2010PropOp52
 70
0
102
RTVSPost2010Prop53
 90
2
102
RTVSPost2010PropOp53
 70
1
102
RTVSPost2010Prop54
  1
strokes_ogs.tif
102
RTVSPost2010PropOp54
 70
1
102
RTVSPost2010Prop55
280
0
102
RTVSPost2010PropOp55
 70
1
102
RTVSPost2010Prop56
140
1.0
102
RTVSPost2010PropOp56
 70
1
102
RTVSPost2010Prop57
140
1.0
102
RTVSPost2010PropOp57
 70
1
102
RTVSPropertyOp0
 70
1
102
RTVSPropertyOp1
 70
1
102
RTVSPropertyOp2
 70
1
102
RTVSPropertyOp3
 70
1
102
RTVSPropertyOp4
 70
1
102
RTVSPropertyOp5
 70
1
102
RTVSPropertyOp6
 70
1
102
RTVSPropertyOp7
 70
1
102
RTVSPropertyOp8
 70
1
102
RTVSPropertyOp9
 70
1
102
RTVSPropertyOp10
 70
1
102
RTVSPropertyOp11
 70
1
102
RTVSPropertyOp12
 70
1
102
RTVSPropertyOp13
 70
1
102
RTVSPropertyOp14
 70
1
102
RTVSPropertyOp15
 70
1
102
RTVSPropertyOp16
 70
1
102
RTVSPropertyOp17
 70
1
102
RTVSPropertyOp18
 70
1
102
RTVSPropertyOp19
 70
1
102
RTVSPropertyOp20
 70
1
102
RTVSPropertyOp21
 70
1
102
RTVSPropertyOp22
 70
1
102
RTVSPropertyOp23
 70
1
102
RTVSPropertyOp24
 70
1
102
RTVSPropertyOp25
 70
1
102
RTVSPropertyOp26
 70
1
102
RTVSPropertyOp27
 70
1
102
RTVSPropertyOp28
 70
1
102
RTVSPropertyOp29
 70
1
102
RTVSPropertyOp30
 70
1
102
RTVSPropertyOp31
 70
1
102
RTVSPropertyOp32
 70
1
102
RTVSPropertyOp33
 70
1
102
RTVSPropertyOp34
 70
1
102
RTVSPropertyOp35
 70
1
102
RTVSPropertyOp36
 70
1
102
RTVSPropertyOp37
 70
1
102
RTVSPropertyOp38
 70
1
102
RTVSPropertyOp39
 70
1
102
RTVSPropertyOp40
 70
1
102
RTVSPropertyOp41
 70
1
102
RTVSPropertyOp42
 70
1
102
RTVSPropertyOp43
 70
1
102
RTVSPropertyOp44
 70
1
102
RTVSPropertyOp45
 70
1
102
RTVSPropertyOp46
 70
1
102
RTVSPropertyOp47
 70
1
102
RTVSPropertyOp48
 70
1
102
RTVSPropertyOp49
 70
1
102
RTVSPropertyOp50
 70
1
102
RTVSPropertyOp51
 70
0
102
RTVSPropertyOp52
 70
0
102
RTVSPropertyOp53
 70
1
102
RTVSPropertyOp54
 70
1
102
RTVSPropertyOp55
 70
1
102
RTVSPropertyOp56
 70
1
102
RTVSPropertyOp57
 70
1
102
RTVSPropertyOp58
 70
1
102
RTVSPropertyOp59
 70
1
102
RTVSPropertyOp60
 70
1
102
RTVSPropertyOp61
 70
1
102
RTVSPropertyOp62
 70
1
  0
XRECORD
  5
A92
102
{ACAD_REACTORS
330
A91
102
}
330
A91
100
AcDbXrecord
280
1
102
RTVSPost2010Prop28
280
0
102
RTVSPost2010PropOp28
 70
1
102
RTVSPost2010Prop29
280
1
102
RTVSPost2010PropOp29
 70
1
102
RTVSPost2010Prop30
280
1
102
RTVSPost2010PropOp30
 70
1
102
RTVSPost2010Prop31
280
0
102
RTVSPost2010PropOp31
 70
1
102
RTVSPost2010Prop32
280
0
102
RTVSPost2010PropOp32
 70
1
102
RTVSPost2010Prop33
280
0
102
RTVSPost2010PropOp33
 70
1
102
RTVSPost2010Prop34
280
0
102
RTVSPost2010PropOp34
 70
1
102
RTVSPost2010Prop35
280
0
102
RTVSPost2010PropOp35
 70
1
102
RTVSPost2010Prop36
280
0
102
RTVSPost2010PropOp36
 70
1
102
RTVSPost2010Prop37
 90
50
102
RTVSPost2010PropOp37
 70
0
102
RTVSPost2010Prop38
140
0.0
102
RTVSPost2010PropOp38
 70
0
102
RTVSPost2010Prop39
140
1.0
102
RTVSPost2010PropOp39
 70
0
102
RTVSPost2010Prop40
 90
0
102
RTVSPost2010PropOp40
 70
0
102
RTVSPost2010Prop41ColorIndex
 90
18
102
RTVSPost2010Prop41ColorRGB
 90
0
102
RTVSPost2010PropOp41
 70
0
102
RTVSPost2010Prop42
 90
50
102
RTVSPost2010PropOp42
 70
0
102
RTVSPost2010Prop43
 90
3
102
RTVSPost2010PropOp43
 70
0
102
RTVSPost2010Prop44ColorIndex
 90
5
102
RTVSPost2010Prop44ColorRGB
 90
255
102
RTVSPost2010PropOp44
 70
0
102
RTVSPost2010Prop45
280
0
102
RTVSPost2010PropOp45
 70
1
102
RTVSPost2010Prop46
 90
50
102
RTVSPost2010PropOp46
 70
0
102
RTVSPost2010Prop47
 90
50
102
RTVSPost2010PropOp47
 70
0
102
RTVSPost2010Prop48
 90
50
102
RTVSPost2010PropOp48
 70
0
102
RTVSPost2010Prop49
280
0
102
RTVSPost2010PropOp49
 70
1
102
RTVSPost2010Prop50
 90
50
102
RTVSPost2010PropOp50
 70
0
102
RTVSPost2010Prop51ColorIndex
 90
256
102
RTVSPost2010Prop51ColorRGB
 90
-16777216
102
RTVSPost2010PropOp51
 70
0
102
RTVSPost2010Prop52
140
1.0
102
RTVSPost2010PropOp52
 70
0
102
RTVSPost2010Prop53
 90
2
102
RTVSPost2010PropOp53
 70
0
102
RTVSPost2010Prop54
  1
strokes_ogs.tif
102
RTVSPost2010PropOp54
 70
0
102
RTVSPost2010Prop55
280
0
102
RTVSPost2010PropOp55
 70
1
102
RTVSPost2010Prop56
140
1.0
102
RTVSPost2010PropOp56
 70
0
102
RTVSPost2010Prop57
140
1.0
102
RTVSPost2010PropOp57
 70
0
102
RTVSPropertyOp0
 70
0
102
RTVSPropertyOp1
 70
0
102
RTVSPropertyOp2
 70
0
102
RTVSPropertyOp3
 70
0
102
RTVSPropertyOp4
 70
0
102
RTVSPropertyOp5
 70
0
102
RTVSPropertyOp6
 70
0
102
RTVSPropertyOp7
 70
0
102
RTVSPropertyOp8
 70
0
102
RTVSPropertyOp9
 70
0
102
RTVSPropertyOp10
 70
0
102
RTVSPropertyOp11
 70
0
102
RTVSPropertyOp12
 70
0
102
RTVSPropertyOp13
 70
0
102
RTVSPropertyOp14
 70
2
102
RTVSPropertyOp15
 70
0
102
RTVSPropertyOp16
 70
0
102
RTVSPropertyOp17
 70
0
102
RTVSPropertyOp18
 70
0
102
RTVSPropertyOp19
 70
0
102
RTVSPropertyOp20
 70
0
102
RTVSPropertyOp21
 70
0
102
RTVSPropertyOp22
 70
0
102
RTVSPropertyOp23
 70
0
102
RTVSPropertyOp24
 70
0
102
RTVSPropertyOp25
 70
0
102
RTVSPropertyOp26
 70
0
102
RTVSPropertyOp27
 70
0
102
RTVSPropertyOp28
 70
1
102
RTVSPropertyOp29
 70
1
102
RTVSPropertyOp30
 70
1
102
RTVSPropertyOp31
 70
1
102
RTVSPropertyOp32
 70
1
102
RTVSPropertyOp33
 70
1
102
RTVSPropertyOp34
 70
1
102
RTVSPropertyOp35
 70
1
102
RTVSPropertyOp36
 70
1
102
RTVSPropertyOp37
 70
0
102
RTVSPropertyOp38
 70
0
102
RTVSPropertyOp39
 70
0
102
RTVSPropertyOp40
 70
0
102
RTVSPropertyOp41
 70
0
102
RTVSPropertyOp42
 70
0
102
RTVSPropertyOp43
 70
0
102
RTVSPropertyOp44
 70
0
102
RTVSPropertyOp45
 70
1
102
RTVSPropertyOp46
 70
0
102
RTVSPropertyOp47
 70
0
102
RTVSPropertyOp48
 70
0
102
RTVSPropertyOp49
 70
1
102
RTVSPropertyOp50
 70
0
102
RTVSPropertyOp51
 70
0
102
RTVSPropertyOp52
 70
0
102
RTVSPropertyOp53
 70
0
102
RTVSPropertyOp54
 70
0
102
RTVSPropertyOp55
 70
1
102
RTVSPropertyOp56
 70
0
102
RTVSPropertyOp57
 70
0
102
RTVSPropertyOp58
 70
0
102
RTVSPropertyOp59
 70
0
102
RTVSPropertyOp60
 70
0
102
RTVSPropertyOp61
 70
0
102
RTVSPropertyOp62
 70
0
  0
XRECORD
  5
A80
102
{ACAD_REACTORS
330
A7F
102
}
330
A7F
100
AcDbXrecord
280
1
102
RTVSPost2010Prop28
280
0
102
RTVSPost2010PropOp28
 70
1
102
RTVSPost2010Prop29
280
1
102
RTVSPost2010PropOp29
 70
1
102
RTVSPost2010Prop30
280
1
102
RTVSPost2010PropOp30
 70
1
102
RTVSPost2010Prop31
280
0
102
RTVSPost2010PropOp31
 70
1
102
RTVSPost2010Prop32
280
0
102
RTVSPost2010PropOp32
 70
1
102
RTVSPost2010Prop33
280
0
102
RTVSPost2010PropOp33
 70
1
102
RTVSPost2010Prop34
280
0
102
RTVSPost2010PropOp34
 70
1
102
RTVSPost2010Prop35
280
0
102
RTVSPost2010PropOp35
 70
1
102
RTVSPost2010Prop36
280
0
102
RTVSPost2010PropOp36
 70
1
102
RTVSPost2010Prop37
 90
50
102
RTVSPost2010PropOp37
 70
1
102
RTVSPost2010Prop38
140
0.0
102
RTVSPost2010PropOp38
 70
1
102
RTVSPost2010Prop39
140
1.0
102
RTVSPost2010PropOp39
 70
1
102
RTVSPost2010Prop40
 90
0
102
RTVSPost2010PropOp40
 70
1
102
RTVSPost2010Prop41ColorIndex
 90
18
102
RTVSPost2010Prop41ColorRGB
 90
0
102
RTVSPost2010PropOp41
 70
1
102
RTVSPost2010Prop42
 90
50
102
RTVSPost2010PropOp42
 70
1
102
RTVSPost2010Prop43
 90
3
102
RTVSPost2010PropOp43
 70
1
102
RTVSPost2010Prop44ColorIndex
 90
5
102
RTVSPost2010Prop44ColorRGB
 90
255
102
RTVSPost2010PropOp44
 70
1
102
RTVSPost2010Prop45
280
0
102
RTVSPost2010PropOp45
 70
1
102
RTVSPost2010Prop46
 90
50
102
RTVSPost2010PropOp46
 70
1
102
RTVSPost2010Prop47
 90
50
102
RTVSPost2010PropOp47
 70
1
102
RTVSPost2010Prop48
 90
50
102
RTVSPost2010PropOp48
 70
1
102
RTVSPost2010Prop49
280
0
102
RTVSPost2010PropOp49
 70
1
102
RTVSPost2010Prop50
 90
50
102
RTVSPost2010PropOp50
 70
1
102
RTVSPost2010Prop51ColorIndex
 90
256
102
RTVSPost2010Prop51ColorRGB
 90
-16777216
102
RTVSPost2010PropOp51
 70
0
102
RTVSPost2010Prop52
140
1.0
102
RTVSPost2010PropOp52
 70
0
102
RTVSPost2010Prop53
 90
2
102
RTVSPost2010PropOp53
 70
1
102
RTVSPost2010Prop54
  1
strokes_ogs.tif
102
RTVSPost2010PropOp54
 70
1
102
RTVSPost2010Prop55
280
0
102
RTVSPost2010PropOp55
 70
1
102
RTVSPost2010Prop56
140
1.0
102
RTVSPost2010PropOp56
 70
1
102
RTVSPost2010Prop57
140
1.0
102
RTVSPost2010PropOp57
 70
1
102
RTVSPropertyOp0
 70
1
102
RTVSPropertyOp1
 70
1
102
RTVSPropertyOp2
 70
1
102
RTVSPropertyOp3
 70
1
102
RTVSPropertyOp4
 70
1
102
RTVSPropertyOp5
 70
1
102
RTVSPropertyOp6
 70
1
102
RTVSPropertyOp7
 70
1
102
RTVSPropertyOp8
 70
1
102
RTVSPropertyOp9
 70
1
102
RTVSPropertyOp10
 70
1
102
RTVSPropertyOp11
 70
1
102
RTVSPropertyOp12
 70
1
102
RTVSPropertyOp13
 70
1
102
RTVSPropertyOp14
 70
1
102
RTVSPropertyOp15
 70
1
102
RTVSPropertyOp16
 70
1
102
RTVSPropertyOp17
 70
1
102
RTVSPropertyOp18
 70
1
102
RTVSPropertyOp19
 70
1
102
RTVSPropertyOp20
 70
1
102
RTVSPropertyOp21
 70
1
102
RTVSPropertyOp22
 70
1
102
RTVSPropertyOp23
 70
1
102
RTVSPropertyOp24
 70
1
102
RTVSPropertyOp25
 70
1
102
RTVSPropertyOp26
 70
1
102
RTVSPropertyOp27
 70
1
102
RTVSPropertyOp28
 70
1
102
RTVSPropertyOp29
 70
1
102
RTVSPropertyOp30
 70
1
102
RTVSPropertyOp31
 70
1
102
RTVSPropertyOp32
 70
1
102
RTVSPropertyOp33
 70
1
102
RTVSPropertyOp34
 70
1
102
RTVSPropertyOp35
 70
1
102
RTVSPropertyOp36
 70
1
102
RTVSPropertyOp37
 70
1
102
RTVSPropertyOp38
 70
1
102
RTVSPropertyOp39
 70
1
102
RTVSPropertyOp40
 70
1
102
RTVSPropertyOp41
 70
1
102
RTVSPropertyOp42
 70
1
102
RTVSPropertyOp43
 70
1
102
RTVSPropertyOp44
 70
1
102
RTVSPropertyOp45
 70
1
102
RTVSPropertyOp46
 70
1
102
RTVSPropertyOp47
 70
1
102
RTVSPropertyOp48
 70
1
102
RTVSPropertyOp49
 70
1
102
RTVSPropertyOp50
 70
1
102
RTVSPropertyOp51
 70
0
102
RTVSPropertyOp52
 70
0
102
RTVSPropertyOp53
 70
1
102
RTVSPropertyOp54
 70
1
102
RTVSPropertyOp55
 70
1
102
RTVSPropertyOp56
 70
1
102
RTVSPropertyOp57
 70
1
102
RTVSPropertyOp58
 70
1
102
RTVSPropertyOp59
 70
1
102
RTVSPropertyOp60
 70
1
102
RTVSPropertyOp61
 70
1
102
RTVSPropertyOp62
 70
1
  0
XRECORD
  5
A64
102
{ACAD_REACTORS
330
A63
102
}
330
A63
100
AcDbXrecord
280
1
102
RTVSPost2010Prop28
280
0
102
RTVSPost2010PropOp28
 70
1
102
RTVSPost2010Prop29
280
1
102
RTVSPost2010PropOp29
 70
1
102
RTVSPost2010Prop30
280
1
102
RTVSPost2010PropOp30
 70
1
102
RTVSPost2010Prop31
280
0
102
RTVSPost2010PropOp31
 70
1
102
RTVSPost2010Prop32
280
0
102
RTVSPost2010PropOp32
 70
1
102
RTVSPost2010Prop33
280
0
102
RTVSPost2010PropOp33
 70
1
102
RTVSPost2010Prop34
280
0
102
RTVSPost2010PropOp34
 70
1
102
RTVSPost2010Prop35
280
0
102
RTVSPost2010PropOp35
 70
1
102
RTVSPost2010Prop36
280
0
102
RTVSPost2010PropOp36
 70
1
102
RTVSPost2010Prop37
 90
50
102
RTVSPost2010PropOp37
 70
1
102
RTVSPost2010Prop38
140
0.0
102
RTVSPost2010PropOp38
 70
1
102
RTVSPost2010Prop39
140
1.0
102
RTVSPost2010PropOp39
 70
1
102
RTVSPost2010Prop40
 90
0
102
RTVSPost2010PropOp40
 70
1
102
RTVSPost2010Prop41ColorIndex
 90
18
102
RTVSPost2010Prop41ColorRGB
 90
0
102
RTVSPost2010PropOp41
 70
1
102
RTVSPost2010Prop42
 90
50
102
RTVSPost2010PropOp42
 70
1
102
RTVSPost2010Prop43
 90
3
102
RTVSPost2010PropOp43
 70
1
102
RTVSPost2010Prop44ColorIndex
 90
5
102
RTVSPost2010Prop44ColorRGB
 90
255
102
RTVSPost2010PropOp44
 70
1
102
RTVSPost2010Prop45
280
0
102
RTVSPost2010PropOp45
 70
1
102
RTVSPost2010Prop46
 90
50
102
RTVSPost2010PropOp46
 70
1
102
RTVSPost2010Prop47
 90
50
102
RTVSPost2010PropOp47
 70
1
102
RTVSPost2010Prop48
 90
50
102
RTVSPost2010PropOp48
 70
1
102
RTVSPost2010Prop49
280
0
102
RTVSPost2010PropOp49
 70
1
102
RTVSPost2010Prop50
 90
50
102
RTVSPost2010PropOp50
 70
1
102
RTVSPost2010Prop51ColorIndex
 90
256
102
RTVSPost2010Prop51ColorRGB
 90
-16777216
102
RTVSPost2010PropOp51
 70
0
102
RTVSPost2010Prop52
140
1.0
102
RTVSPost2010PropOp52
 70
0
102
RTVSPost2010Prop53
 90
2
102
RTVSPost2010PropOp53
 70
1
102
RTVSPost2010Prop54
  1
strokes_ogs.tif
102
RTVSPost2010PropOp54
 70
1
102
RTVSPost2010Prop55
280
0
102
RTVSPost2010PropOp55
 70
1
102
RTVSPost2010Prop56
140
1.0
102
RTVSPost2010PropOp56
 70
1
102
RTVSPost2010Prop57
140
1.0
102
RTVSPost2010PropOp57
 70
1
102
RTVSPropertyOp0
 70
1
102
RTVSPropertyOp1
 70
1
102
RTVSPropertyOp2
 70
1
102
RTVSPropertyOp3
 70
1
102
RTVSPropertyOp4
 70
1
102
RTVSPropertyOp5
 70
1
102
RTVSPropertyOp6
 70
1
102
RTVSPropertyOp7
 70
1
102
RTVSPropertyOp8
 70
1
102
RTVSPropertyOp9
 70
1
102
RTVSPropertyOp10
 70
1
102
RTVSPropertyOp11
 70
1
102
RTVSPropertyOp12
 70
1
102
RTVSPropertyOp13
 70
1
102
RTVSPropertyOp14
 70
1
102
RTVSPropertyOp15
 70
1
102
RTVSPropertyOp16
 70
1
102
RTVSPropertyOp17
 70
1
102
RTVSPropertyOp18
 70
1
102
RTVSPropertyOp19
 70
1
102
RTVSPropertyOp20
 70
1
102
RTVSPropertyOp21
 70
1
102
RTVSPropertyOp22
 70
1
102
RTVSPropertyOp23
 70
1
102
RTVSPropertyOp24
 70
1
102
RTVSPropertyOp25
 70
1
102
RTVSPropertyOp26
 70
1
102
RTVSPropertyOp27
 70
1
102
RTVSPropertyOp28
 70
1
102
RTVSPropertyOp29
 70
1
102
RTVSPropertyOp30
 70
1
102
RTVSPropertyOp31
 70
1
102
RTVSPropertyOp32
 70
1
102
RTVSPropertyOp33
 70
1
102
RTVSPropertyOp34
 70
1
102
RTVSPropertyOp35
 70
1
102
RTVSPropertyOp36
 70
1
102
RTVSPropertyOp37
 70
1
102
RTVSPropertyOp38
 70
1
102
RTVSPropertyOp39
 70
1
102
RTVSPropertyOp40
 70
1
102
RTVSPropertyOp41
 70
1
102
RTVSPropertyOp42
 70
1
102
RTVSPropertyOp43
 70
1
102
RTVSPropertyOp44
 70
1
102
RTVSPropertyOp45
 70
1
102
RTVSPropertyOp46
 70
1
102
RTVSPropertyOp47
 70
1
102
RTVSPropertyOp48
 70
1
102
RTVSPropertyOp49
 70
1
102
RTVSPropertyOp50
 70
1
102
RTVSPropertyOp51
 70
0
102
RTVSPropertyOp52
 70
0
102
RTVSPropertyOp53
 70
1
102
RTVSPropertyOp54
 70
1
102
RTVSPropertyOp55
 70
1
102
RTVSPropertyOp56
 70
1
102
RTVSPropertyOp57
 70
1
102
RTVSPropertyOp58
 70
1
102
RTVSPropertyOp59
 70
1
102
RTVSPropertyOp60
 70
1
102
RTVSPropertyOp61
 70
1
102
RTVSPropertyOp62
 70
1
  0
XRECORD
  5
A66
102
{ACAD_REACTORS
330
A65
102
}
330
A65
100
AcDbXrecord
280
1
102
RTVSPost2010Prop28
280
0
102
RTVSPost2010PropOp28
 70
1
102
RTVSPost2010Prop29
280
1
102
RTVSPost2010PropOp29
 70
1
102
RTVSPost2010Prop30
280
1
102
RTVSPost2010PropOp30
 70
1
102
RTVSPost2010Prop31
280
0
102
RTVSPost2010PropOp31
 70
1
102
RTVSPost2010Prop32
280
0
102
RTVSPost2010PropOp32
 70
1
102
RTVSPost2010Prop33
280
0
102
RTVSPost2010PropOp33
 70
1
102
RTVSPost2010Prop34
280
0
102
RTVSPost2010PropOp34
 70
1
102
RTVSPost2010Prop35
280
0
102
RTVSPost2010PropOp35
 70
1
102
RTVSPost2010Prop36
280
0
102
RTVSPost2010PropOp36
 70
1
102
RTVSPost2010Prop37
 90
50
102
RTVSPost2010PropOp37
 70
1
102
RTVSPost2010Prop38
140
0.0
102
RTVSPost2010PropOp38
 70
1
102
RTVSPost2010Prop39
140
1.0
102
RTVSPost2010PropOp39
 70
1
102
RTVSPost2010Prop40
 90
0
102
RTVSPost2010PropOp40
 70
1
102
RTVSPost2010Prop41ColorIndex
 90
18
102
RTVSPost2010Prop41ColorRGB
 90
0
102
RTVSPost2010PropOp41
 70
1
102
RTVSPost2010Prop42
 90
50
102
RTVSPost2010PropOp42
 70
1
102
RTVSPost2010Prop43
 90
3
102
RTVSPost2010PropOp43
 70
1
102
RTVSPost2010Prop44ColorIndex
 90
5
102
RTVSPost2010Prop44ColorRGB
 90
255
102
RTVSPost2010PropOp44
 70
1
102
RTVSPost2010Prop45
280
0
102
RTVSPost2010PropOp45
 70
1
102
RTVSPost2010Prop46
 90
50
102
RTVSPost2010PropOp46
 70
1
102
RTVSPost2010Prop47
 90
50
102
RTVSPost2010PropOp47
 70
1
102
RTVSPost2010Prop48
 90
50
102
RTVSPost2010PropOp48
 70
1
102
RTVSPost2010Prop49
280
0
102
RTVSPost2010PropOp49
 70
1
102
RTVSPost2010Prop50
 90
50
102
RTVSPost2010PropOp50
 70
1
102
RTVSPost2010Prop51ColorIndex
 90
256
102
RTVSPost2010Prop51ColorRGB
 90
-16777216
102
RTVSPost2010PropOp51
 70
0
102
RTVSPost2010Prop52
140
1.0
102
RTVSPost2010PropOp52
 70
0
102
RTVSPost2010Prop53
 90
2
102
RTVSPost2010PropOp53
 70
1
102
RTVSPost2010Prop54
  1
strokes_ogs.tif
102
RTVSPost2010PropOp54
 70
1
102
RTVSPost2010Prop55
280
0
102
RTVSPost2010PropOp55
 70
1
102
RTVSPost2010Prop56
140
1.0
102
RTVSPost2010PropOp56
 70
1
102
RTVSPost2010Prop57
140
1.0
102
RTVSPost2010PropOp57
 70
1
102
RTVSPropertyOp0
 70
1
102
RTVSPropertyOp1
 70
1
102
RTVSPropertyOp2
 70
1
102
RTVSPropertyOp3
 70
1
102
RTVSPropertyOp4
 70
1
102
RTVSPropertyOp5
 70
1
102
RTVSPropertyOp6
 70
1
102
RTVSPropertyOp7
 70
1
102
RTVSPropertyOp8
 70
1
102
RTVSPropertyOp9
 70
1
102
RTVSPropertyOp10
 70
1
102
RTVSPropertyOp11
 70
1
102
RTVSPropertyOp12
 70
1
102
RTVSPropertyOp13
 70
1
102
RTVSPropertyOp14
 70
1
102
RTVSPropertyOp15
 70
1
102
RTVSPropertyOp16
 70
1
102
RTVSPropertyOp17
 70
1
102
RTVSPropertyOp18
 70
1
102
RTVSPropertyOp19
 70
1
102
RTVSPropertyOp20
 70
1
102
RTVSPropertyOp21
 70
1
102
RTVSPropertyOp22
 70
1
102
RTVSPropertyOp23
 70
1
102
RTVSPropertyOp24
 70
1
102
RTVSPropertyOp25
 70
1
102
RTVSPropertyOp26
 70
1
102
RTVSPropertyOp27
 70
1
102
RTVSPropertyOp28
 70
1
102
RTVSPropertyOp29
 70
1
102
RTVSPropertyOp30
 70
1
102
RTVSPropertyOp31
 70
1
102
RTVSPropertyOp32
 70
1
102
RTVSPropertyOp33
 70
1
102
RTVSPropertyOp34
 70
1
102
RTVSPropertyOp35
 70
1
102
RTVSPropertyOp36
 70
1
102
RTVSPropertyOp37
 70
1
102
RTVSPropertyOp38
 70
1
102
RTVSPropertyOp39
 70
1
102
RTVSPropertyOp40
 70
1
102
RTVSPropertyOp41
 70
1
102
RTVSPropertyOp42
 70
1
102
RTVSPropertyOp43
 70
1
102
RTVSPropertyOp44
 70
1
102
RTVSPropertyOp45
 70
1
102
RTVSPropertyOp46
 70
1
102
RTVSPropertyOp47
 70
1
102
RTVSPropertyOp48
 70
1
102
RTVSPropertyOp49
 70
1
102
RTVSPropertyOp50
 70
1
102
RTVSPropertyOp51
 70
0
102
RTVSPropertyOp52
 70
0
102
RTVSPropertyOp53
 70
1
102
RTVSPropertyOp54
 70
1
102
RTVSPropertyOp55
 70
1
102
RTVSPropertyOp56
 70
1
102
RTVSPropertyOp57
 70
1
102
RTVSPropertyOp58
 70
1
102
RTVSPropertyOp59
 70
1
102
RTVSPropertyOp60
 70
1
102
RTVSPropertyOp61
 70
1
102
RTVSPropertyOp62
 70
1
  0
XRECORD
  5
A68
102
{ACAD_REACTORS
330
A67
102
}
330
A67
100
AcDbXrecord
280
1
102
RTVSPost2010Prop28
280
0
102
RTVSPost2010PropOp28
 70
1
102
RTVSPost2010Prop29
280
1
102
RTVSPost2010PropOp29
 70
1
102
RTVSPost2010Prop30
280
1
102
RTVSPost2010PropOp30
 70
1
102
RTVSPost2010Prop31
280
0
102
RTVSPost2010PropOp31
 70
1
102
RTVSPost2010Prop32
280
0
102
RTVSPost2010PropOp32
 70
1
102
RTVSPost2010Prop33
280
0
102
RTVSPost2010PropOp33
 70
1
102
RTVSPost2010Prop34
280
0
102
RTVSPost2010PropOp34
 70
1
102
RTVSPost2010Prop35
280
0
102
RTVSPost2010PropOp35
 70
1
102
RTVSPost2010Prop36
280
0
102
RTVSPost2010PropOp36
 70
1
102
RTVSPost2010Prop37
 90
50
102
RTVSPost2010PropOp37
 70
1
102
RTVSPost2010Prop38
140
0.0
102
RTVSPost2010PropOp38
 70
1
102
RTVSPost2010Prop39
140
1.0
102
RTVSPost2010PropOp39
 70
1
102
RTVSPost2010Prop40
 90
0
102
RTVSPost2010PropOp40
 70
1
102
RTVSPost2010Prop41ColorIndex
 90
18
102
RTVSPost2010Prop41ColorRGB
 90
0
102
RTVSPost2010PropOp41
 70
1
102
RTVSPost2010Prop42
 90
50
102
RTVSPost2010PropOp42
 70
1
102
RTVSPost2010Prop43
 90
3
102
RTVSPost2010PropOp43
 70
1
102
RTVSPost2010Prop44ColorIndex
 90
5
102
RTVSPost2010Prop44ColorRGB
 90
255
102
RTVSPost2010PropOp44
 70
1
102
RTVSPost2010Prop45
280
0
102
RTVSPost2010PropOp45
 70
1
102
RTVSPost2010Prop46
 90
50
102
RTVSPost2010PropOp46
 70
1
102
RTVSPost2010Prop47
 90
50
102
RTVSPost2010PropOp47
 70
1
102
RTVSPost2010Prop48
 90
50
102
RTVSPost2010PropOp48
 70
1
102
RTVSPost2010Prop49
280
0
102
RTVSPost2010PropOp49
 70
1
102
RTVSPost2010Prop50
 90
50
102
RTVSPost2010PropOp50
 70
1
102
RTVSPost2010Prop51ColorIndex
 90
256
102
RTVSPost2010Prop51ColorRGB
 90
-16777216
102
RTVSPost2010PropOp51
 70
0
102
RTVSPost2010Prop52
140
1.0
102
RTVSPost2010PropOp52
 70
0
102
RTVSPost2010Prop53
 90
2
102
RTVSPost2010PropOp53
 70
1
102
RTVSPost2010Prop54
  1
strokes_ogs.tif
102
RTVSPost2010PropOp54
 70
1
102
RTVSPost2010Prop55
280
0
102
RTVSPost2010PropOp55
 70
1
102
RTVSPost2010Prop56
140
1.0
102
RTVSPost2010PropOp56
 70
1
102
RTVSPost2010Prop57
140
1.0
102
RTVSPost2010PropOp57
 70
1
102
RTVSPropertyOp0
 70
1
102
RTVSPropertyOp1
 70
1
102
RTVSPropertyOp2
 70
1
102
RTVSPropertyOp3
 70
1
102
RTVSPropertyOp4
 70
1
102
RTVSPropertyOp5
 70
1
102
RTVSPropertyOp6
 70
1
102
RTVSPropertyOp7
 70
1
102
RTVSPropertyOp8
 70
1
102
RTVSPropertyOp9
 70
1
102
RTVSPropertyOp10
 70
1
102
RTVSPropertyOp11
 70
1
102
RTVSPropertyOp12
 70
1
102
RTVSPropertyOp13
 70
1
102
RTVSPropertyOp14
 70
1
102
RTVSPropertyOp15
 70
1
102
RTVSPropertyOp16
 70
1
102
RTVSPropertyOp17
 70
1
102
RTVSPropertyOp18
 70
1
102
RTVSPropertyOp19
 70
1
102
RTVSPropertyOp20
 70
1
102
RTVSPropertyOp21
 70
1
102
RTVSPropertyOp22
 70
1
102
RTVSPropertyOp23
 70
1
102
RTVSPropertyOp24
 70
1
102
RTVSPropertyOp25
 70
1
102
RTVSPropertyOp26
 70
1
102
RTVSPropertyOp27
 70
1
102
RTVSPropertyOp28
 70
1
102
RTVSPropertyOp29
 70
1
102
RTVSPropertyOp30
 70
1
102
RTVSPropertyOp31
 70
1
102
RTVSPropertyOp32
 70
1
102
RTVSPropertyOp33
 70
1
102
RTVSPropertyOp34
 70
1
102
RTVSPropertyOp35
 70
1
102
RTVSPropertyOp36
 70
1
102
RTVSPropertyOp37
 70
1
102
RTVSPropertyOp38
 70
1
102
RTVSPropertyOp39
 70
1
102
RTVSPropertyOp40
 70
1
102
RTVSPropertyOp41
 70
1
102
RTVSPropertyOp42
 70
1
102
RTVSPropertyOp43
 70
1
102
RTVSPropertyOp44
 70
1
102
RTVSPropertyOp45
 70
1
102
RTVSPropertyOp46
 70
1
102
RTVSPropertyOp47
 70
1
102
RTVSPropertyOp48
 70
1
102
RTVSPropertyOp49
 70
1
102
RTVSPropertyOp50
 70
1
102
RTVSPropertyOp51
 70
0
102
RTVSPropertyOp52
 70
0
102
RTVSPropertyOp53
 70
1
102
RTVSPropertyOp54
 70
1
102
RTVSPropertyOp55
 70
1
102
RTVSPropertyOp56
 70
1
102
RTVSPropertyOp57
 70
1
102
RTVSPropertyOp58
 70
1
102
RTVSPropertyOp59
 70
1
102
RTVSPropertyOp60
 70
1
102
RTVSPropertyOp61
 70
1
102
RTVSPropertyOp62
 70
1
  0
XRECORD
  5
A6A
102
{ACAD_REACTORS
330
A69
102
}
330
A69
100
AcDbXrecord
280
1
102
RTVSPost2010Prop28
280
0
102
RTVSPost2010PropOp28
 70
1
102
RTVSPost2010Prop29
280
1
102
RTVSPost2010PropOp29
 70
1
102
RTVSPost2010Prop30
280
1
102
RTVSPost2010PropOp30
 70
1
102
RTVSPost2010Prop31
280
0
102
RTVSPost2010PropOp31
 70
1
102
RTVSPost2010Prop32
280
0
102
RTVSPost2010PropOp32
 70
1
102
RTVSPost2010Prop33
280
0
102
RTVSPost2010PropOp33
 70
1
102
RTVSPost2010Prop34
280
0
102
RTVSPost2010PropOp34
 70
1
102
RTVSPost2010Prop35
280
0
102
RTVSPost2010PropOp35
 70
1
102
RTVSPost2010Prop36
280
0
102
RTVSPost2010PropOp36
 70
1
102
RTVSPost2010Prop37
 90
50
102
RTVSPost2010PropOp37
 70
1
102
RTVSPost2010Prop38
140
0.0
102
RTVSPost2010PropOp38
 70
1
102
RTVSPost2010Prop39
140
1.0
102
RTVSPost2010PropOp39
 70
1
102
RTVSPost2010Prop40
 90
0
102
RTVSPost2010PropOp40
 70
1
102
RTVSPost2010Prop41ColorIndex
 90
18
102
RTVSPost2010Prop41ColorRGB
 90
0
102
RTVSPost2010PropOp41
 70
1
102
RTVSPost2010Prop42
 90
50
102
RTVSPost2010PropOp42
 70
1
102
RTVSPost2010Prop43
 90
3
102
RTVSPost2010PropOp43
 70
1
102
RTVSPost2010Prop44ColorIndex
 90
5
102
RTVSPost2010Prop44ColorRGB
 90
255
102
RTVSPost2010PropOp44
 70
1
102
RTVSPost2010Prop45
280
0
102
RTVSPost2010PropOp45
 70
1
102
RTVSPost2010Prop46
 90
50
102
RTVSPost2010PropOp46
 70
1
102
RTVSPost2010Prop47
 90
50
102
RTVSPost2010PropOp47
 70
1
102
RTVSPost2010Prop48
 90
50
102
RTVSPost2010PropOp48
 70
1
102
RTVSPost2010Prop49
280
0
102
RTVSPost2010PropOp49
 70
1
102
RTVSPost2010Prop50
 90
50
102
RTVSPost2010PropOp50
 70
1
102
RTVSPost2010Prop51ColorIndex
 90
256
102
RTVSPost2010Prop51ColorRGB
 90
-16777216
102
RTVSPost2010PropOp51
 70
0
102
RTVSPost2010Prop52
140
1.0
102
RTVSPost2010PropOp52
 70
0
102
RTVSPost2010Prop53
 90
2
102
RTVSPost2010PropOp53
 70
1
102
RTVSPost2010Prop54
  1
strokes_ogs.tif
102
RTVSPost2010PropOp54
 70
1
102
RTVSPost2010Prop55
280
0
102
RTVSPost2010PropOp55
 70
1
102
RTVSPost2010Prop56
140
1.0
102
RTVSPost2010PropOp56
 70
1
102
RTVSPost2010Prop57
140
1.0
102
RTVSPost2010PropOp57
 70
1
102
RTVSPropertyOp0
 70
1
102
RTVSPropertyOp1
 70
1
102
RTVSPropertyOp2
 70
1
102
RTVSPropertyOp3
 70
1
102
RTVSPropertyOp4
 70
1
102
RTVSPropertyOp5
 70
1
102
RTVSPropertyOp6
 70
1
102
RTVSPropertyOp7
 70
1
102
RTVSPropertyOp8
 70
1
102
RTVSPropertyOp9
 70
1
102
RTVSPropertyOp10
 70
1
102
RTVSPropertyOp11
 70
1
102
RTVSPropertyOp12
 70
1
102
RTVSPropertyOp13
 70
1
102
RTVSPropertyOp14
 70
1
102
RTVSPropertyOp15
 70
1
102
RTVSPropertyOp16
 70
1
102
RTVSPropertyOp17
 70
1
102
RTVSPropertyOp18
 70
1
102
RTVSPropertyOp19
 70
1
102
RTVSPropertyOp20
 70
1
102
RTVSPropertyOp21
 70
1
102
RTVSPropertyOp22
 70
1
102
RTVSPropertyOp23
 70
1
102
RTVSPropertyOp24
 70
1
102
RTVSPropertyOp25
 70
1
102
RTVSPropertyOp26
 70
1
102
RTVSPropertyOp27
 70
1
102
RTVSPropertyOp28
 70
1
102
RTVSPropertyOp29
 70
1
102
RTVSPropertyOp30
 70
1
102
RTVSPropertyOp31
 70
1
102
RTVSPropertyOp32
 70
1
102
RTVSPropertyOp33
 70
1
102
RTVSPropertyOp34
 70
1
102
RTVSPropertyOp35
 70
1
102
RTVSPropertyOp36
 70
1
102
RTVSPropertyOp37
 70
1
102
RTVSPropertyOp38
 70
1
102
RTVSPropertyOp39
 70
1
102
RTVSPropertyOp40
 70
1
102
RTVSPropertyOp41
 70
1
102
RTVSPropertyOp42
 70
1
102
RTVSPropertyOp43
 70
1
102
RTVSPropertyOp44
 70
1
102
RTVSPropertyOp45
 70
1
102
RTVSPropertyOp46
 70
1
102
RTVSPropertyOp47
 70
1
102
RTVSPropertyOp48
 70
1
102
RTVSPropertyOp49
 70
1
102
RTVSPropertyOp50
 70
1
102
RTVSPropertyOp51
 70
0
102
RTVSPropertyOp52
 70
0
102
RTVSPropertyOp53
 70
1
102
RTVSPropertyOp54
 70
1
102
RTVSPropertyOp55
 70
1
102
RTVSPropertyOp56
 70
1
102
RTVSPropertyOp57
 70
1
102
RTVSPropertyOp58
 70
1
102
RTVSPropertyOp59
 70
1
102
RTVSPropertyOp60
 70
1
102
RTVSPropertyOp61
 70
1
102
RTVSPropertyOp62
 70
1
  0
XRECORD
  5
A72
102
{ACAD_REACTORS
330
A71
102
}
330
A71
100
AcDbXrecord
280
1
102
RTVSPost2010Prop28
280
0
102
RTVSPost2010PropOp28
 70
1
102
RTVSPost2010Prop29
280
1
102
RTVSPost2010PropOp29
 70
1
102
RTVSPost2010Prop30
280
1
102
RTVSPost2010PropOp30
 70
1
102
RTVSPost2010Prop31
280
0
102
RTVSPost2010PropOp31
 70
1
102
RTVSPost2010Prop32
280
0
102
RTVSPost2010PropOp32
 70
1
102
RTVSPost2010Prop33
280
0
102
RTVSPost2010PropOp33
 70
1
102
RTVSPost2010Prop34
280
0
102
RTVSPost2010PropOp34
 70
1
102
RTVSPost2010Prop35
280
0
102
RTVSPost2010PropOp35
 70
1
102
RTVSPost2010Prop36
280
0
102
RTVSPost2010PropOp36
 70
1
102
RTVSPost2010Prop37
 90
50
102
RTVSPost2010PropOp37
 70
1
102
RTVSPost2010Prop38
140
0.0
102
RTVSPost2010PropOp38
 70
1
102
RTVSPost2010Prop39
140
1.0
102
RTVSPost2010PropOp39
 70
1
102
RTVSPost2010Prop40
 90
0
102
RTVSPost2010PropOp40
 70
1
102
RTVSPost2010Prop41ColorIndex
 90
18
102
RTVSPost2010Prop41ColorRGB
 90
0
102
RTVSPost2010PropOp41
 70
1
102
RTVSPost2010Prop42
 90
50
102
RTVSPost2010PropOp42
 70
1
102
RTVSPost2010Prop43
 90
3
102
RTVSPost2010PropOp43
 70
1
102
RTVSPost2010Prop44ColorIndex
 90
5
102
RTVSPost2010Prop44ColorRGB
 90
255
102
RTVSPost2010PropOp44
 70
1
102
RTVSPost2010Prop45
280
0
102
RTVSPost2010PropOp45
 70
1
102
RTVSPost2010Prop46
 90
50
102
RTVSPost2010PropOp46
 70
1
102
RTVSPost2010Prop47
 90
50
102
RTVSPost2010PropOp47
 70
1
102
RTVSPost2010Prop48
 90
50
102
RTVSPost2010PropOp48
 70
1
102
RTVSPost2010Prop49
280
0
102
RTVSPost2010PropOp49
 70
1
102
RTVSPost2010Prop50
 90
50
102
RTVSPost2010PropOp50
 70
1
102
RTVSPost2010Prop51ColorIndex
 90
256
102
RTVSPost2010Prop51ColorRGB
 90
-16777216
102
RTVSPost2010PropOp51
 70
0
102
RTVSPost2010Prop52
140
1.0
102
RTVSPost2010PropOp52
 70
0
102
RTVSPost2010Prop53
 90
2
102
RTVSPost2010PropOp53
 70
1
102
RTVSPost2010Prop54
  1
strokes_ogs.tif
102
RTVSPost2010PropOp54
 70
1
102
RTVSPost2010Prop55
280
0
102
RTVSPost2010PropOp55
 70
1
102
RTVSPost2010Prop56
140
1.0
102
RTVSPost2010PropOp56
 70
1
102
RTVSPost2010Prop57
140
1.0
102
RTVSPost2010PropOp57
 70
1
102
RTVSPropertyOp0
 70
1
102
RTVSPropertyOp1
 70
1
102
RTVSPropertyOp2
 70
1
102
RTVSPropertyOp3
 70
1
102
RTVSPropertyOp4
 70
1
102
RTVSPropertyOp5
 70
1
102
RTVSPropertyOp6
 70
1
102
RTVSPropertyOp7
 70
1
102
RTVSPropertyOp8
 70
1
102
RTVSPropertyOp9
 70
1
102
RTVSPropertyOp10
 70
1
102
RTVSPropertyOp11
 70
1
102
RTVSPropertyOp12
 70
1
102
RTVSPropertyOp13
 70
1
102
RTVSPropertyOp14
 70
1
102
RTVSPropertyOp15
 70
1
102
RTVSPropertyOp16
 70
1
102
RTVSPropertyOp17
 70
1
102
RTVSPropertyOp18
 70
1
102
RTVSPropertyOp19
 70
1
102
RTVSPropertyOp20
 70
1
102
RTVSPropertyOp21
 70
1
102
RTVSPropertyOp22
 70
1
102
RTVSPropertyOp23
 70
1
102
RTVSPropertyOp24
 70
1
102
RTVSPropertyOp25
 70
1
102
RTVSPropertyOp26
 70
1
102
RTVSPropertyOp27
 70
1
102
RTVSPropertyOp28
 70
1
102
RTVSPropertyOp29
 70
1
102
RTVSPropertyOp30
 70
1
102
RTVSPropertyOp31
 70
1
102
RTVSPropertyOp32
 70
1
102
RTVSPropertyOp33
 70
1
102
RTVSPropertyOp34
 70
1
102
RTVSPropertyOp35
 70
1
102
RTVSPropertyOp36
 70
1
102
RTVSPropertyOp37
 70
1
102
RTVSPropertyOp38
 70
1
102
RTVSPropertyOp39
 70
1
102
RTVSPropertyOp40
 70
1
102
RTVSPropertyOp41
 70
1
102
RTVSPropertyOp42
 70
1
102
RTVSPropertyOp43
 70
1
102
RTVSPropertyOp44
 70
1
102
RTVSPropertyOp45
 70
1
102
RTVSPropertyOp46
 70
1
102
RTVSPropertyOp47
 70
1
102
RTVSPropertyOp48
 70
1
102
RTVSPropertyOp49
 70
1
102
RTVSPropertyOp50
 70
1
102
RTVSPropertyOp51
 70
0
102
RTVSPropertyOp52
 70
0
102
RTVSPropertyOp53
 70
1
102
RTVSPropertyOp54
 70
1
102
RTVSPropertyOp55
 70
1
102
RTVSPropertyOp56
 70
1
102
RTVSPropertyOp57
 70
1
102
RTVSPropertyOp58
 70
1
102
RTVSPropertyOp59
 70
1
102
RTVSPropertyOp60
 70
1
102
RTVSPropertyOp61
 70
1
102
RTVSPropertyOp62
 70
1
  0
XRECORD
  5
A8E
102
{ACAD_REACTORS
330
A8D
102
}
330
A8D
100
AcDbXrecord
280
1
102
RTVSPost2010Prop28
280
0
102
RTVSPost2010PropOp28
 70
1
102
RTVSPost2010Prop29
280
1
102
RTVSPost2010PropOp29
 70
1
102
RTVSPost2010Prop30
280
1
102
RTVSPost2010PropOp30
 70
1
102
RTVSPost2010Prop31
280
0
102
RTVSPost2010PropOp31
 70
1
102
RTVSPost2010Prop32
280
0
102
RTVSPost2010PropOp32
 70
1
102
RTVSPost2010Prop33
280
0
102
RTVSPost2010PropOp33
 70
1
102
RTVSPost2010Prop34
280
0
102
RTVSPost2010PropOp34
 70
1
102
RTVSPost2010Prop35
280
0
102
RTVSPost2010PropOp35
 70
1
102
RTVSPost2010Prop36
280
0
102
RTVSPost2010PropOp36
 70
1
102
RTVSPost2010Prop37
 90
50
102
RTVSPost2010PropOp37
 70
0
102
RTVSPost2010Prop38
140
0.0
102
RTVSPost2010PropOp38
 70
0
102
RTVSPost2010Prop39
140
1.0
102
RTVSPost2010PropOp39
 70
0
102
RTVSPost2010Prop40
 90
0
102
RTVSPost2010PropOp40
 70
0
102
RTVSPost2010Prop41ColorIndex
 90
18
102
RTVSPost2010Prop41ColorRGB
 90
0
102
RTVSPost2010PropOp41
 70
0
102
RTVSPost2010Prop42
 90
50
102
RTVSPost2010PropOp42
 70
0
102
RTVSPost2010Prop43
 90
3
102
RTVSPost2010PropOp43
 70
0
102
RTVSPost2010Prop44ColorIndex
 90
5
102
RTVSPost2010Prop44ColorRGB
 90
255
102
RTVSPost2010PropOp44
 70
0
102
RTVSPost2010Prop45
280
0
102
RTVSPost2010PropOp45
 70
1
102
RTVSPost2010Prop46
 90
50
102
RTVSPost2010PropOp46
 70
0
102
RTVSPost2010Prop47
 90
50
102
RTVSPost2010PropOp47
 70
0
102
RTVSPost2010Prop48
 90
50
102
RTVSPost2010PropOp48
 70
0
102
RTVSPost2010Prop49
280
0
102
RTVSPost2010PropOp49
 70
1
102
RTVSPost2010Prop50
 90
50
102
RTVSPost2010PropOp50
 70
0
102
RTVSPost2010Prop51ColorIndex
 90
256
102
RTVSPost2010Prop51ColorRGB
 90
-16777216
102
RTVSPost2010PropOp51
 70
0
102
RTVSPost2010Prop52
140
1.0
102
RTVSPost2010PropOp52
 70
0
102
RTVSPost2010Prop53
 90
2
102
RTVSPost2010PropOp53
 70
0
102
RTVSPost2010Prop54
  1
strokes_ogs.tif
102
RTVSPost2010PropOp54
 70
0
102
RTVSPost2010Prop55
280
0
102
RTVSPost2010PropOp55
 70
1
102
RTVSPost2010Prop56
140
1.0
102
RTVSPost2010PropOp56
 70
0
102
RTVSPost2010Prop57
140
1.0
102
RTVSPost2010PropOp57
 70
0
102
RTVSPropertyOp0
 70
0
102
RTVSPropertyOp1
 70
0
102
RTVSPropertyOp2
 70
0
102
RTVSPropertyOp3
 70
0
102
RTVSPropertyOp4
 70
0
102
RTVSPropertyOp5
 70
0
102
RTVSPropertyOp6
 70
0
102
RTVSPropertyOp7
 70
0
102
RTVSPropertyOp8
 70
0
102
RTVSPropertyOp9
 70
0
102
RTVSPropertyOp10
 70
0
102
RTVSPropertyOp11
 70
0
102
RTVSPropertyOp12
 70
0
102
RTVSPropertyOp13
 70
0
102
RTVSPropertyOp14
 70
2
102
RTVSPropertyOp15
 70
0
102
RTVSPropertyOp16
 70
0
102
RTVSPropertyOp17
 70
0
102
RTVSPropertyOp18
 70
0
102
RTVSPropertyOp19
 70
0
102
RTVSPropertyOp20
 70
0
102
RTVSPropertyOp21
 70
0
102
RTVSPropertyOp22
 70
0
102
RTVSPropertyOp23
 70
0
102
RTVSPropertyOp24
 70
0
102
RTVSPropertyOp25
 70
0
102
RTVSPropertyOp26
 70
0
102
RTVSPropertyOp27
 70
0
102
RTVSPropertyOp28
 70
1
102
RTVSPropertyOp29
 70
1
102
RTVSPropertyOp30
 70
1
102
RTVSPropertyOp31
 70
1
102
RTVSPropertyOp32
 70
1
102
RTVSPropertyOp33
 70
1
102
RTVSPropertyOp34
 70
1
102
RTVSPropertyOp35
 70
1
102
RTVSPropertyOp36
 70
1
102
RTVSPropertyOp37
 70
0
102
RTVSPropertyOp38
 70
0
102
RTVSPropertyOp39
 70
0
102
RTVSPropertyOp40
 70
0
102
RTVSPropertyOp41
 70
0
102
RTVSPropertyOp42
 70
0
102
RTVSPropertyOp43
 70
0
102
RTVSPropertyOp44
 70
0
102
RTVSPropertyOp45
 70
1
102
RTVSPropertyOp46
 70
0
102
RTVSPropertyOp47
 70
0
102
RTVSPropertyOp48
 70
0
102
RTVSPropertyOp49
 70
1
102
RTVSPropertyOp50
 70
0
102
RTVSPropertyOp51
 70
0
102
RTVSPropertyOp52
 70
0
102
RTVSPropertyOp53
 70
0
102
RTVSPropertyOp54
 70
0
102
RTVSPropertyOp55
 70
1
102
RTVSPropertyOp56
 70
0
102
RTVSPropertyOp57
 70
0
102
RTVSPropertyOp58
 70
0
102
RTVSPropertyOp59
 70
0
102
RTVSPropertyOp60
 70
0
102
RTVSPropertyOp61
 70
0
102
RTVSPropertyOp62
 70
0
  0
XRECORD
  5
A7E
102
{ACAD_REACTORS
330
A7D
102
}
330
A7D
100
AcDbXrecord
280
1
102
RTVSPost2010Prop28
280
0
102
RTVSPost2010PropOp28
 70
1
102
RTVSPost2010Prop29
280
1
102
RTVSPost2010PropOp29
 70
1
102
RTVSPost2010Prop30
280
1
102
RTVSPost2010PropOp30
 70
1
102
RTVSPost2010Prop31
280
0
102
RTVSPost2010PropOp31
 70
1
102
RTVSPost2010Prop32
280
0
102
RTVSPost2010PropOp32
 70
1
102
RTVSPost2010Prop33
280
0
102
RTVSPost2010PropOp33
 70
1
102
RTVSPost2010Prop34
280
0
102
RTVSPost2010PropOp34
 70
1
102
RTVSPost2010Prop35
280
0
102
RTVSPost2010PropOp35
 70
1
102
RTVSPost2010Prop36
280
0
102
RTVSPost2010PropOp36
 70
1
102
RTVSPost2010Prop37
 90
50
102
RTVSPost2010PropOp37
 70
1
102
RTVSPost2010Prop38
140
0.0
102
RTVSPost2010PropOp38
 70
1
102
RTVSPost2010Prop39
140
1.0
102
RTVSPost2010PropOp39
 70
1
102
RTVSPost2010Prop40
 90
0
102
RTVSPost2010PropOp40
 70
1
102
RTVSPost2010Prop41ColorIndex
 90
18
102
RTVSPost2010Prop41ColorRGB
 90
0
102
RTVSPost2010PropOp41
 70
1
102
RTVSPost2010Prop42
 90
50
102
RTVSPost2010PropOp42
 70
1
102
RTVSPost2010Prop43
 90
3
102
RTVSPost2010PropOp43
 70
1
102
RTVSPost2010Prop44ColorIndex
 90
5
102
RTVSPost2010Prop44ColorRGB
 90
255
102
RTVSPost2010PropOp44
 70
1
102
RTVSPost2010Prop45
280
0
102
RTVSPost2010PropOp45
 70
1
102
RTVSPost2010Prop46
 90
50
102
RTVSPost2010PropOp46
 70
1
102
RTVSPost2010Prop47
 90
50
102
RTVSPost2010PropOp47
 70
1
102
RTVSPost2010Prop48
 90
50
102
RTVSPost2010PropOp48
 70
1
102
RTVSPost2010Prop49
280
0
102
RTVSPost2010PropOp49
 70
1
102
RTVSPost2010Prop50
 90
50
102
RTVSPost2010PropOp50
 70
1
102
RTVSPost2010Prop51ColorIndex
 90
256
102
RTVSPost2010Prop51ColorRGB
 90
-16777216
102
RTVSPost2010PropOp51
 70
0
102
RTVSPost2010Prop52
140
1.0
102
RTVSPost2010PropOp52
 70
0
102
RTVSPost2010Prop53
 90
2
102
RTVSPost2010PropOp53
 70
1
102
RTVSPost2010Prop54
  1
strokes_ogs.tif
102
RTVSPost2010PropOp54
 70
1
102
RTVSPost2010Prop55
280
0
102
RTVSPost2010PropOp55
 70
1
102
RTVSPost2010Prop56
140
1.0
102
RTVSPost2010PropOp56
 70
1
102
RTVSPost2010Prop57
140
1.0
102
RTVSPost2010PropOp57
 70
1
102
RTVSPropertyOp0
 70
1
102
RTVSPropertyOp1
 70
1
102
RTVSPropertyOp2
 70
1
102
RTVSPropertyOp3
 70
1
102
RTVSPropertyOp4
 70
1
102
RTVSPropertyOp5
 70
1
102
RTVSPropertyOp6
 70
1
102
RTVSPropertyOp7
 70
1
102
RTVSPropertyOp8
 70
1
102
RTVSPropertyOp9
 70
1
102
RTVSPropertyOp10
 70
1
102
RTVSPropertyOp11
 70
1
102
RTVSPropertyOp12
 70
1
102
RTVSPropertyOp13
 70
1
102
RTVSPropertyOp14
 70
1
102
RTVSPropertyOp15
 70
1
102
RTVSPropertyOp16
 70
1
102
RTVSPropertyOp17
 70
1
102
RTVSPropertyOp18
 70
1
102
RTVSPropertyOp19
 70
1
102
RTVSPropertyOp20
 70
1
102
RTVSPropertyOp21
 70
1
102
RTVSPropertyOp22
 70
1
102
RTVSPropertyOp23
 70
1
102
RTVSPropertyOp24
 70
1
102
RTVSPropertyOp25
 70
1
102
RTVSPropertyOp26
 70
1
102
RTVSPropertyOp27
 70
1
102
RTVSPropertyOp28
 70
1
102
RTVSPropertyOp29
 70
1
102
RTVSPropertyOp30
 70
1
102
RTVSPropertyOp31
 70
1
102
RTVSPropertyOp32
 70
1
102
RTVSPropertyOp33
 70
1
102
RTVSPropertyOp34
 70
1
102
RTVSPropertyOp35
 70
1
102
RTVSPropertyOp36
 70
1
102
RTVSPropertyOp37
 70
1
102
RTVSPropertyOp38
 70
1
102
RTVSPropertyOp39
 70
1
102
RTVSPropertyOp40
 70
1
102
RTVSPropertyOp41
 70
1
102
RTVSPropertyOp42
 70
1
102
RTVSPropertyOp43
 70
1
102
RTVSPropertyOp44
 70
1
102
RTVSPropertyOp45
 70
1
102
RTVSPropertyOp46
 70
1
102
RTVSPropertyOp47
 70
1
102
RTVSPropertyOp48
 70
1
102
RTVSPropertyOp49
 70
1
102
RTVSPropertyOp50
 70
1
102
RTVSPropertyOp51
 70
0
102
RTVSPropertyOp52
 70
0
102
RTVSPropertyOp53
 70
1
102
RTVSPropertyOp54
 70
1
102
RTVSPropertyOp55
 70
1
102
RTVSPropertyOp56
 70
1
102
RTVSPropertyOp57
 70
1
102
RTVSPropertyOp58
 70
1
102
RTVSPropertyOp59
 70
1
102
RTVSPropertyOp60
 70
1
102
RTVSPropertyOp61
 70
1
102
RTVSPropertyOp62
 70
1
  0
XRECORD
  5
A90
102
{ACAD_REACTORS
330
A8F
102
}
330
A8F
100
AcDbXrecord
280
1
102
RTVSPost2010Prop28
280
0
102
RTVSPost2010PropOp28
 70
1
102
RTVSPost2010Prop29
280
1
102
RTVSPost2010PropOp29
 70
1
102
RTVSPost2010Prop30
280
1
102
RTVSPost2010PropOp30
 70
1
102
RTVSPost2010Prop31
280
0
102
RTVSPost2010PropOp31
 70
1
102
RTVSPost2010Prop32
280
0
102
RTVSPost2010PropOp32
 70
1
102
RTVSPost2010Prop33
280
0
102
RTVSPost2010PropOp33
 70
1
102
RTVSPost2010Prop34
280
0
102
RTVSPost2010PropOp34
 70
1
102
RTVSPost2010Prop35
280
0
102
RTVSPost2010PropOp35
 70
1
102
RTVSPost2010Prop36
280
0
102
RTVSPost2010PropOp36
 70
1
102
RTVSPost2010Prop37
 90
50
102
RTVSPost2010PropOp37
 70
0
102
RTVSPost2010Prop38
140
0.0
102
RTVSPost2010PropOp38
 70
0
102
RTVSPost2010Prop39
140
1.0
102
RTVSPost2010PropOp39
 70
0
102
RTVSPost2010Prop40
 90
0
102
RTVSPost2010PropOp40
 70
0
102
RTVSPost2010Prop41ColorIndex
 90
18
102
RTVSPost2010Prop41ColorRGB
 90
0
102
RTVSPost2010PropOp41
 70
0
102
RTVSPost2010Prop42
 90
50
102
RTVSPost2010PropOp42
 70
0
102
RTVSPost2010Prop43
 90
3
102
RTVSPost2010PropOp43
 70
0
102
RTVSPost2010Prop44ColorIndex
 90
5
102
RTVSPost2010Prop44ColorRGB
 90
255
102
RTVSPost2010PropOp44
 70
0
102
RTVSPost2010Prop45
280
0
102
RTVSPost2010PropOp45
 70
1
102
RTVSPost2010Prop46
 90
50
102
RTVSPost2010PropOp46
 70
0
102
RTVSPost2010Prop47
 90
50
102
RTVSPost2010PropOp47
 70
0
102
RTVSPost2010Prop48
 90
50
102
RTVSPost2010PropOp48
 70
0
102
RTVSPost2010Prop49
280
0
102
RTVSPost2010PropOp49
 70
1
102
RTVSPost2010Prop50
 90
50
102
RTVSPost2010PropOp50
 70
0
102
RTVSPost2010Prop51ColorIndex
 90
256
102
RTVSPost2010Prop51ColorRGB
 90
-16777216
102
RTVSPost2010PropOp51
 70
0
102
RTVSPost2010Prop52
140
1.0
102
RTVSPost2010PropOp52
 70
0
102
RTVSPost2010Prop53
 90
2
102
RTVSPost2010PropOp53
 70
0
102
RTVSPost2010Prop54
  1
strokes_ogs.tif
102
RTVSPost2010PropOp54
 70
0
102
RTVSPost2010Prop55
280
0
102
RTVSPost2010PropOp55
 70
1
102
RTVSPost2010Prop56
140
1.0
102
RTVSPost2010PropOp56
 70
0
102
RTVSPost2010Prop57
140
1.0
102
RTVSPost2010PropOp57
 70
0
102
RTVSPropertyOp0
 70
0
102
RTVSPropertyOp1
 70
0
102
RTVSPropertyOp2
 70
0
102
RTVSPropertyOp3
 70
0
102
RTVSPropertyOp4
 70
0
102
RTVSPropertyOp5
 70
0
102
RTVSPropertyOp6
 70
0
102
RTVSPropertyOp7
 70
0
102
RTVSPropertyOp8
 70
0
102
RTVSPropertyOp9
 70
0
102
RTVSPropertyOp10
 70
0
102
RTVSPropertyOp11
 70
0
102
RTVSPropertyOp12
 70
0
102
RTVSPropertyOp13
 70
0
102
RTVSPropertyOp14
 70
2
102
RTVSPropertyOp15
 70
0
102
RTVSPropertyOp16
 70
0
102
RTVSPropertyOp17
 70
0
102
RTVSPropertyOp18
 70
0
102
RTVSPropertyOp19
 70
0
102
RTVSPropertyOp20
 70
0
102
RTVSPropertyOp21
 70
0
102
RTVSPropertyOp22
 70
0
102
RTVSPropertyOp23
 70
0
102
RTVSPropertyOp24
 70
0
102
RTVSPropertyOp25
 70
0
102
RTVSPropertyOp26
 70
0
102
RTVSPropertyOp27
 70
0
102
RTVSPropertyOp28
 70
1
102
RTVSPropertyOp29
 70
1
102
RTVSPropertyOp30
 70
1
102
RTVSPropertyOp31
 70
1
102
RTVSPropertyOp32
 70
1
102
RTVSPropertyOp33
 70
1
102
RTVSPropertyOp34
 70
1
102
RTVSPropertyOp35
 70
1
102
RTVSPropertyOp36
 70
1
102
RTVSPropertyOp37
 70
0
102
RTVSPropertyOp38
 70
0
102
RTVSPropertyOp39
 70
0
102
RTVSPropertyOp40
 70
0
102
RTVSPropertyOp41
 70
0
102
RTVSPropertyOp42
 70
0
102
RTVSPropertyOp43
 70
0
102
RTVSPropertyOp44
 70
0
102
RTVSPropertyOp45
 70
1
102
RTVSPropertyOp46
 70
0
102
RTVSPropertyOp47
 70
0
102
RTVSPropertyOp48
 70
0
102
RTVSPropertyOp49
 70
1
102
RTVSPropertyOp50
 70
0
102
RTVSPropertyOp51
 70
0
102
RTVSPropertyOp52
 70
0
102
RTVSPropertyOp53
 70
0
102
RTVSPropertyOp54
 70
0
102
RTVSPropertyOp55
 70
1
102
RTVSPropertyOp56
 70
0
102
RTVSPropertyOp57
 70
0
102
RTVSPropertyOp58
 70
0
102
RTVSPropertyOp59
 70
0
102
RTVSPropertyOp60
 70
0
102
RTVSPropertyOp61
 70
0
102
RTVSPropertyOp62
 70
0
  0
XRECORD
  5
A76
102
{ACAD_REACTORS
330
A75
102
}
330
A75
100
AcDbXrecord
280
1
102
RTVSPost2010Prop28
280
0
102
RTVSPost2010PropOp28
 70
1
102
RTVSPost2010Prop29
280
1
102
RTVSPost2010PropOp29
 70
1
102
RTVSPost2010Prop30
280
1
102
RTVSPost2010PropOp30
 70
1
102
RTVSPost2010Prop31
280
0
102
RTVSPost2010PropOp31
 70
1
102
RTVSPost2010Prop32
280
0
102
RTVSPost2010PropOp32
 70
1
102
RTVSPost2010Prop33
280
0
102
RTVSPost2010PropOp33
 70
1
102
RTVSPost2010Prop34
280
0
102
RTVSPost2010PropOp34
 70
1
102
RTVSPost2010Prop35
280
0
102
RTVSPost2010PropOp35
 70
1
102
RTVSPost2010Prop36
280
0
102
RTVSPost2010PropOp36
 70
1
102
RTVSPost2010Prop37
 90
50
102
RTVSPost2010PropOp37
 70
1
102
RTVSPost2010Prop38
140
0.0
102
RTVSPost2010PropOp38
 70
1
102
RTVSPost2010Prop39
140
1.0
102
RTVSPost2010PropOp39
 70
1
102
RTVSPost2010Prop40
 90
0
102
RTVSPost2010PropOp40
 70
1
102
RTVSPost2010Prop41ColorIndex
 90
18
102
RTVSPost2010Prop41ColorRGB
 90
0
102
RTVSPost2010PropOp41
 70
1
102
RTVSPost2010Prop42
 90
50
102
RTVSPost2010PropOp42
 70
1
102
RTVSPost2010Prop43
 90
3
102
RTVSPost2010PropOp43
 70
1
102
RTVSPost2010Prop44ColorIndex
 90
5
102
RTVSPost2010Prop44ColorRGB
 90
255
102
RTVSPost2010PropOp44
 70
1
102
RTVSPost2010Prop45
280
0
102
RTVSPost2010PropOp45
 70
1
102
RTVSPost2010Prop46
 90
50
102
RTVSPost2010PropOp46
 70
1
102
RTVSPost2010Prop47
 90
50
102
RTVSPost2010PropOp47
 70
1
102
RTVSPost2010Prop48
 90
50
102
RTVSPost2010PropOp48
 70
1
102
RTVSPost2010Prop49
280
0
102
RTVSPost2010PropOp49
 70
1
102
RTVSPost2010Prop50
 90
50
102
RTVSPost2010PropOp50
 70
1
102
RTVSPost2010Prop51ColorIndex
 90
256
102
RTVSPost2010Prop51ColorRGB
 90
-16777216
102
RTVSPost2010PropOp51
 70
0
102
RTVSPost2010Prop52
140
1.0
102
RTVSPost2010PropOp52
 70
0
102
RTVSPost2010Prop53
 90
2
102
RTVSPost2010PropOp53
 70
1
102
RTVSPost2010Prop54
  1
strokes_ogs.tif
102
RTVSPost2010PropOp54
 70
1
102
RTVSPost2010Prop55
280
0
102
RTVSPost2010PropOp55
 70
1
102
RTVSPost2010Prop56
140
1.0
102
RTVSPost2010PropOp56
 70
1
102
RTVSPost2010Prop57
140
1.0
102
RTVSPost2010PropOp57
 70
1
102
RTVSPropertyOp0
 70
1
102
RTVSPropertyOp1
 70
1
102
RTVSPropertyOp2
 70
1
102
RTVSPropertyOp3
 70
1
102
RTVSPropertyOp4
 70
1
102
RTVSPropertyOp5
 70
1
102
RTVSPropertyOp6
 70
1
102
RTVSPropertyOp7
 70
1
102
RTVSPropertyOp8
 70
1
102
RTVSPropertyOp9
 70
1
102
RTVSPropertyOp10
 70
1
102
RTVSPropertyOp11
 70
1
102
RTVSPropertyOp12
 70
1
102
RTVSPropertyOp13
 70
1
102
RTVSPropertyOp14
 70
1
102
RTVSPropertyOp15
 70
1
102
RTVSPropertyOp16
 70
1
102
RTVSPropertyOp17
 70
1
102
RTVSPropertyOp18
 70
1
102
RTVSPropertyOp19
 70
1
102
RTVSPropertyOp20
 70
1
102
RTVSPropertyOp21
 70
1
102
RTVSPropertyOp22
 70
1
102
RTVSPropertyOp23
 70
1
102
RTVSPropertyOp24
 70
1
102
RTVSPropertyOp25
 70
1
102
RTVSPropertyOp26
 70
1
102
RTVSPropertyOp27
 70
1
102
RTVSPropertyOp28
 70
1
102
RTVSPropertyOp29
 70
1
102
RTVSPropertyOp30
 70
1
102
RTVSPropertyOp31
 70
1
102
RTVSPropertyOp32
 70
1
102
RTVSPropertyOp33
 70
1
102
RTVSPropertyOp34
 70
1
102
RTVSPropertyOp35
 70
1
102
RTVSPropertyOp36
 70
1
102
RTVSPropertyOp37
 70
1
102
RTVSPropertyOp38
 70
1
102
RTVSPropertyOp39
 70
1
102
RTVSPropertyOp40
 70
1
102
RTVSPropertyOp41
 70
1
102
RTVSPropertyOp42
 70
1
102
RTVSPropertyOp43
 70
1
102
RTVSPropertyOp44
 70
1
102
RTVSPropertyOp45
 70
1
102
RTVSPropertyOp46
 70
1
102
RTVSPropertyOp47
 70
1
102
RTVSPropertyOp48
 70
1
102
RTVSPropertyOp49
 70
1
102
RTVSPropertyOp50
 70
1
102
RTVSPropertyOp51
 70
0
102
RTVSPropertyOp52
 70
0
102
RTVSPropertyOp53
 70
1
102
RTVSPropertyOp54
 70
1
102
RTVSPropertyOp55
 70
1
102
RTVSPropertyOp56
 70
1
102
RTVSPropertyOp57
 70
1
102
RTVSPropertyOp58
 70
1
102
RTVSPropertyOp59
 70
1
102
RTVSPropertyOp60
 70
1
102
RTVSPropertyOp61
 70
1
102
RTVSPropertyOp62
 70
1
  0
XRECORD
  5
A8C
102
{ACAD_REACTORS
330
A8B
102
}
330
A8B
100
AcDbXrecord
280
1
102
RTVSPost2010Prop28
280
0
102
RTVSPost2010PropOp28
 70
1
102
RTVSPost2010Prop29
280
1
102
RTVSPost2010PropOp29
 70
1
102
RTVSPost2010Prop30
280
1
102
RTVSPost2010PropOp30
 70
1
102
RTVSPost2010Prop31
280
0
102
RTVSPost2010PropOp31
 70
1
102
RTVSPost2010Prop32
280
0
102
RTVSPost2010PropOp32
 70
1
102
RTVSPost2010Prop33
280
0
102
RTVSPost2010PropOp33
 70
1
102
RTVSPost2010Prop34
280
0
102
RTVSPost2010PropOp34
 70
1
102
RTVSPost2010Prop35
280
0
102
RTVSPost2010PropOp35
 70
1
102
RTVSPost2010Prop36
280
0
102
RTVSPost2010PropOp36
 70
1
102
RTVSPost2010Prop37
 90
50
102
RTVSPost2010PropOp37
 70
1
102
RTVSPost2010Prop38
140
0.0
102
RTVSPost2010PropOp38
 70
1
102
RTVSPost2010Prop39
140
1.0
102
RTVSPost2010PropOp39
 70
1
102
RTVSPost2010Prop40
 90
0
102
RTVSPost2010PropOp40
 70
1
102
RTVSPost2010Prop41ColorIndex
 90
18
102
RTVSPost2010Prop41ColorRGB
 90
0
102
RTVSPost2010PropOp41
 70
1
102
RTVSPost2010Prop42
 90
50
102
RTVSPost2010PropOp42
 70
1
102
RTVSPost2010Prop43
 90
3
102
RTVSPost2010PropOp43
 70
1
102
RTVSPost2010Prop44ColorIndex
 90
5
102
RTVSPost2010Prop44ColorRGB
 90
255
102
RTVSPost2010PropOp44
 70
1
102
RTVSPost2010Prop45
280
0
102
RTVSPost2010PropOp45
 70
1
102
RTVSPost2010Prop46
 90
50
102
RTVSPost2010PropOp46
 70
1
102
RTVSPost2010Prop47
 90
50
102
RTVSPost2010PropOp47
 70
1
102
RTVSPost2010Prop48
 90
50
102
RTVSPost2010PropOp48
 70
1
102
RTVSPost2010Prop49
280
0
102
RTVSPost2010PropOp49
 70
1
102
RTVSPost2010Prop50
 90
50
102
RTVSPost2010PropOp50
 70
1
102
RTVSPost2010Prop51ColorIndex
 90
256
102
RTVSPost2010Prop51ColorRGB
 90
-16777216
102
RTVSPost2010PropOp51
 70
0
102
RTVSPost2010Prop52
140
1.0
102
RTVSPost2010PropOp52
 70
0
102
RTVSPost2010Prop53
 90
2
102
RTVSPost2010PropOp53
 70
1
102
RTVSPost2010Prop54
  1
strokes_ogs.tif
102
RTVSPost2010PropOp54
 70
1
102
RTVSPost2010Prop55
280
0
102
RTVSPost2010PropOp55
 70
1
102
RTVSPost2010Prop56
140
1.0
102
RTVSPost2010PropOp56
 70
1
102
RTVSPost2010Prop57
140
1.0
102
RTVSPost2010PropOp57
 70
1
102
RTVSPropertyOp0
 70
1
102
RTVSPropertyOp1
 70
1
102
RTVSPropertyOp2
 70
1
102
RTVSPropertyOp3
 70
1
102
RTVSPropertyOp4
 70
1
102
RTVSPropertyOp5
 70
1
102
RTVSPropertyOp6
 70
1
102
RTVSPropertyOp7
 70
1
102
RTVSPropertyOp8
 70
1
102
RTVSPropertyOp9
 70
1
102
RTVSPropertyOp10
 70
1
102
RTVSPropertyOp11
 70
1
102
RTVSPropertyOp12
 70
1
102
RTVSPropertyOp13
 70
1
102
RTVSPropertyOp14
 70
1
102
RTVSPropertyOp15
 70
1
102
RTVSPropertyOp16
 70
1
102
RTVSPropertyOp17
 70
1
102
RTVSPropertyOp18
 70
1
102
RTVSPropertyOp19
 70
1
102
RTVSPropertyOp20
 70
1
102
RTVSPropertyOp21
 70
1
102
RTVSPropertyOp22
 70
1
102
RTVSPropertyOp23
 70
1
102
RTVSPropertyOp24
 70
1
102
RTVSPropertyOp25
 70
1
102
RTVSPropertyOp26
 70
1
102
RTVSPropertyOp27
 70
1
102
RTVSPropertyOp28
 70
1
102
RTVSPropertyOp29
 70
1
102
RTVSPropertyOp30
 70
1
102
RTVSPropertyOp31
 70
1
102
RTVSPropertyOp32
 70
1
102
RTVSPropertyOp33
 70
1
102
RTVSPropertyOp34
 70
1
102
RTVSPropertyOp35
 70
1
102
RTVSPropertyOp36
 70
1
102
RTVSPropertyOp37
 70
1
102
RTVSPropertyOp38
 70
1
102
RTVSPropertyOp39
 70
1
102
RTVSPropertyOp40
 70
1
102
RTVSPropertyOp41
 70
1
102
RTVSPropertyOp42
 70
1
102
RTVSPropertyOp43
 70
1
102
RTVSPropertyOp44
 70
1
102
RTVSPropertyOp45
 70
1
102
RTVSPropertyOp46
 70
1
102
RTVSPropertyOp47
 70
1
102
RTVSPropertyOp48
 70
1
102
RTVSPropertyOp49
 70
1
102
RTVSPropertyOp50
 70
1
102
RTVSPropertyOp51
 70
0
102
RTVSPropertyOp52
 70
0
102
RTVSPropertyOp53
 70
1
102
RTVSPropertyOp54
 70
1
102
RTVSPropertyOp55
 70
1
102
RTVSPropertyOp56
 70
1
102
RTVSPropertyOp57
 70
1
102
RTVSPropertyOp58
 70
1
102
RTVSPropertyOp59
 70
1
102
RTVSPropertyOp60
 70
1
102
RTVSPropertyOp61
 70
1
102
RTVSPropertyOp62
 70
1
  0
XRECORD
  5
A8A
102
{ACAD_REACTORS
330
A89
102
}
330
A89
100
AcDbXrecord
280
1
102
RTVSPost2010Prop28
280
0
102
RTVSPost2010PropOp28
 70
1
102
RTVSPost2010Prop29
280
1
102
RTVSPost2010PropOp29
 70
1
102
RTVSPost2010Prop30
280
1
102
RTVSPost2010PropOp30
 70
1
102
RTVSPost2010Prop31
280
0
102
RTVSPost2010PropOp31
 70
1
102
RTVSPost2010Prop32
280
0
102
RTVSPost2010PropOp32
 70
1
102
RTVSPost2010Prop33
280
0
102
RTVSPost2010PropOp33
 70
1
102
RTVSPost2010Prop34
280
0
102
RTVSPost2010PropOp34
 70
1
102
RTVSPost2010Prop35
280
0
102
RTVSPost2010PropOp35
 70
1
102
RTVSPost2010Prop36
280
0
102
RTVSPost2010PropOp36
 70
1
102
RTVSPost2010Prop37
 90
50
102
RTVSPost2010PropOp37
 70
1
102
RTVSPost2010Prop38
140
0.0
102
RTVSPost2010PropOp38
 70
1
102
RTVSPost2010Prop39
140
1.0
102
RTVSPost2010PropOp39
 70
1
102
RTVSPost2010Prop40
 90
0
102
RTVSPost2010PropOp40
 70
1
102
RTVSPost2010Prop41ColorIndex
 90
18
102
RTVSPost2010Prop41ColorRGB
 90
0
102
RTVSPost2010PropOp41
 70
1
102
RTVSPost2010Prop42
 90
50
102
RTVSPost2010PropOp42
 70
1
102
RTVSPost2010Prop43
 90
3
102
RTVSPost2010PropOp43
 70
1
102
RTVSPost2010Prop44ColorIndex
 90
5
102
RTVSPost2010Prop44ColorRGB
 90
255
102
RTVSPost2010PropOp44
 70
1
102
RTVSPost2010Prop45
280
0
102
RTVSPost2010PropOp45
 70
1
102
RTVSPost2010Prop46
 90
50
102
RTVSPost2010PropOp46
 70
1
102
RTVSPost2010Prop47
 90
50
102
RTVSPost2010PropOp47
 70
1
102
RTVSPost2010Prop48
 90
50
102
RTVSPost2010PropOp48
 70
1
102
RTVSPost2010Prop49
280
0
102
RTVSPost2010PropOp49
 70
1
102
RTVSPost2010Prop50
 90
50
102
RTVSPost2010PropOp50
 70
1
102
RTVSPost2010Prop51ColorIndex
 90
256
102
RTVSPost2010Prop51ColorRGB
 90
-16777216
102
RTVSPost2010PropOp51
 70
0
102
RTVSPost2010Prop52
140
1.0
102
RTVSPost2010PropOp52
 70
0
102
RTVSPost2010Prop53
 90
2
102
RTVSPost2010PropOp53
 70
1
102
RTVSPost2010Prop54
  1
strokes_ogs.tif
102
RTVSPost2010PropOp54
 70
1
102
RTVSPost2010Prop55
280
0
102
RTVSPost2010PropOp55
 70
1
102
RTVSPost2010Prop56
140
1.0
102
RTVSPost2010PropOp56
 70
1
102
RTVSPost2010Prop57
140
1.0
102
RTVSPost2010PropOp57
 70
1
102
RTVSPropertyOp0
 70
1
102
RTVSPropertyOp1
 70
1
102
RTVSPropertyOp2
 70
1
102
RTVSPropertyOp3
 70
1
102
RTVSPropertyOp4
 70
1
102
RTVSPropertyOp5
 70
1
102
RTVSPropertyOp6
 70
1
102
RTVSPropertyOp7
 70
1
102
RTVSPropertyOp8
 70
1
102
RTVSPropertyOp9
 70
1
102
RTVSPropertyOp10
 70
1
102
RTVSPropertyOp11
 70
1
102
RTVSPropertyOp12
 70
1
102
RTVSPropertyOp13
 70
1
102
RTVSPropertyOp14
 70
1
102
RTVSPropertyOp15
 70
1
102
RTVSPropertyOp16
 70
1
102
RTVSPropertyOp17
 70
1
102
RTVSPropertyOp18
 70
1
102
RTVSPropertyOp19
 70
1
102
RTVSPropertyOp20
 70
1
102
RTVSPropertyOp21
 70
1
102
RTVSPropertyOp22
 70
1
102
RTVSPropertyOp23
 70
1
102
RTVSPropertyOp24
 70
1
102
RTVSPropertyOp25
 70
1
102
RTVSPropertyOp26
 70
1
102
RTVSPropertyOp27
 70
1
102
RTVSPropertyOp28
 70
1
102
RTVSPropertyOp29
 70
1
102
RTVSPropertyOp30
 70
1
102
RTVSPropertyOp31
 70
1
102
RTVSPropertyOp32
 70
1
102
RTVSPropertyOp33
 70
1
102
RTVSPropertyOp34
 70
1
102
RTVSPropertyOp35
 70
1
102
RTVSPropertyOp36
 70
1
102
RTVSPropertyOp37
 70
1
102
RTVSPropertyOp38
 70
1
102
RTVSPropertyOp39
 70
1
102
RTVSPropertyOp40
 70
1
102
RTVSPropertyOp41
 70
1
102
RTVSPropertyOp42
 70
1
102
RTVSPropertyOp43
 70
1
102
RTVSPropertyOp44
 70
1
102
RTVSPropertyOp45
 70
1
102
RTVSPropertyOp46
 70
1
102
RTVSPropertyOp47
 70
1
102
RTVSPropertyOp48
 70
1
102
RTVSPropertyOp49
 70
1
102
RTVSPropertyOp50
 70
1
102
RTVSPropertyOp51
 70
0
102
RTVSPropertyOp52
 70
0
102
RTVSPropertyOp53
 70
1
102
RTVSPropertyOp54
 70
1
102
RTVSPropertyOp55
 70
1
102
RTVSPropertyOp56
 70
1
102
RTVSPropertyOp57
 70
1
102
RTVSPropertyOp58
 70
1
102
RTVSPropertyOp59
 70
1
102
RTVSPropertyOp60
 70
1
102
RTVSPropertyOp61
 70
1
102
RTVSPropertyOp62
 70
1
  0
XRECORD
  5
A84
102
{ACAD_REACTORS
330
A83
102
}
330
A83
100
AcDbXrecord
280
1
102
RTVSPost2010Prop28
280
0
102
RTVSPost2010PropOp28
 70
1
102
RTVSPost2010Prop29
280
1
102
RTVSPost2010PropOp29
 70
1
102
RTVSPost2010Prop30
280
1
102
RTVSPost2010PropOp30
 70
1
102
RTVSPost2010Prop31
280
0
102
RTVSPost2010PropOp31
 70
1
102
RTVSPost2010Prop32
280
0
102
RTVSPost2010PropOp32
 70
1
102
RTVSPost2010Prop33
280
0
102
RTVSPost2010PropOp33
 70
1
102
RTVSPost2010Prop34
280
0
102
RTVSPost2010PropOp34
 70
1
102
RTVSPost2010Prop35
280
0
102
RTVSPost2010PropOp35
 70
1
102
RTVSPost2010Prop36
280
0
102
RTVSPost2010PropOp36
 70
1
102
RTVSPost2010Prop37
 90
50
102
RTVSPost2010PropOp37
 70
1
102
RTVSPost2010Prop38
140
0.0
102
RTVSPost2010PropOp38
 70
1
102
RTVSPost2010Prop39
140
1.0
102
RTVSPost2010PropOp39
 70
1
102
RTVSPost2010Prop40
 90
0
102
RTVSPost2010PropOp40
 70
1
102
RTVSPost2010Prop41ColorIndex
 90
18
102
RTVSPost2010Prop41ColorRGB
 90
0
102
RTVSPost2010PropOp41
 70
1
102
RTVSPost2010Prop42
 90
50
102
RTVSPost2010PropOp42
 70
1
102
RTVSPost2010Prop43
 90
3
102
RTVSPost2010PropOp43
 70
1
102
RTVSPost2010Prop44ColorIndex
 90
5
102
RTVSPost2010Prop44ColorRGB
 90
255
102
RTVSPost2010PropOp44
 70
1
102
RTVSPost2010Prop45
280
0
102
RTVSPost2010PropOp45
 70
1
102
RTVSPost2010Prop46
 90
50
102
RTVSPost2010PropOp46
 70
1
102
RTVSPost2010Prop47
 90
50
102
RTVSPost2010PropOp47
 70
1
102
RTVSPost2010Prop48
 90
50
102
RTVSPost2010PropOp48
 70
1
102
RTVSPost2010Prop49
280
0
102
RTVSPost2010PropOp49
 70
1
102
RTVSPost2010Prop50
 90
50
102
RTVSPost2010PropOp50
 70
1
102
RTVSPost2010Prop51ColorIndex
 90
256
102
RTVSPost2010Prop51ColorRGB
 90
-16777216
102
RTVSPost2010PropOp51
 70
0
102
RTVSPost2010Prop52
140
1.0
102
RTVSPost2010PropOp52
 70
0
102
RTVSPost2010Prop53
 90
2
102
RTVSPost2010PropOp53
 70
1
102
RTVSPost2010Prop54
  1
strokes_ogs.tif
102
RTVSPost2010PropOp54
 70
1
102
RTVSPost2010Prop55
280
0
102
RTVSPost2010PropOp55
 70
1
102
RTVSPost2010Prop56
140
1.0
102
RTVSPost2010PropOp56
 70
1
102
RTVSPost2010Prop57
140
1.0
102
RTVSPost2010PropOp57
 70
1
102
RTVSPropertyOp0
 70
1
102
RTVSPropertyOp1
 70
1
102
RTVSPropertyOp2
 70
1
102
RTVSPropertyOp3
 70
1
102
RTVSPropertyOp4
 70
1
102
RTVSPropertyOp5
 70
1
102
RTVSPropertyOp6
 70
1
102
RTVSPropertyOp7
 70
1
102
RTVSPropertyOp8
 70
1
102
RTVSPropertyOp9
 70
1
102
RTVSPropertyOp10
 70
1
102
RTVSPropertyOp11
 70
1
102
RTVSPropertyOp12
 70
1
102
RTVSPropertyOp13
 70
1
102
RTVSPropertyOp14
 70
1
102
RTVSPropertyOp15
 70
1
102
RTVSPropertyOp16
 70
1
102
RTVSPropertyOp17
 70
1
102
RTVSPropertyOp18
 70
1
102
RTVSPropertyOp19
 70
1
102
RTVSPropertyOp20
 70
1
102
RTVSPropertyOp21
 70
1
102
RTVSPropertyOp22
 70
1
102
RTVSPropertyOp23
 70
1
102
RTVSPropertyOp24
 70
1
102
RTVSPropertyOp25
 70
1
102
RTVSPropertyOp26
 70
1
102
RTVSPropertyOp27
 70
1
102
RTVSPropertyOp28
 70
1
102
RTVSPropertyOp29
 70
1
102
RTVSPropertyOp30
 70
1
102
RTVSPropertyOp31
 70
1
102
RTVSPropertyOp32
 70
1
102
RTVSPropertyOp33
 70
1
102
RTVSPropertyOp34
 70
1
102
RTVSPropertyOp35
 70
1
102
RTVSPropertyOp36
 70
1
102
RTVSPropertyOp37
 70
1
102
RTVSPropertyOp38
 70
1
102
RTVSPropertyOp39
 70
1
102
RTVSPropertyOp40
 70
1
102
RTVSPropertyOp41
 70
1
102
RTVSPropertyOp42
 70
1
102
RTVSPropertyOp43
 70
1
102
RTVSPropertyOp44
 70
1
102
RTVSPropertyOp45
 70
1
102
RTVSPropertyOp46
 70
1
102
RTVSPropertyOp47
 70
1
102
RTVSPropertyOp48
 70
1
102
RTVSPropertyOp49
 70
1
102
RTVSPropertyOp50
 70
1
102
RTVSPropertyOp51
 70
0
102
RTVSPropertyOp52
 70
0
102
RTVSPropertyOp53
 70
1
102
RTVSPropertyOp54
 70
1
102
RTVSPropertyOp55
 70
1
102
RTVSPropertyOp56
 70
1
102
RTVSPropertyOp57
 70
1
102
RTVSPropertyOp58
 70
1
102
RTVSPropertyOp59
 70
1
102
RTVSPropertyOp60
 70
1
102
RTVSPropertyOp61
 70
1
102
RTVSPropertyOp62
 70
1
  0
XRECORD
  5
A86
102
{ACAD_REACTORS
330
A85
102
}
330
A85
100
AcDbXrecord
280
1
102
RTVSPost2010Prop28
280
0
102
RTVSPost2010PropOp28
 70
1
102
RTVSPost2010Prop29
280
1
102
RTVSPost2010PropOp29
 70
1
102
RTVSPost2010Prop30
280
1
102
RTVSPost2010PropOp30
 70
1
102
RTVSPost2010Prop31
280
0
102
RTVSPost2010PropOp31
 70
1
102
RTVSPost2010Prop32
280
0
102
RTVSPost2010PropOp32
 70
1
102
RTVSPost2010Prop33
280
0
102
RTVSPost2010PropOp33
 70
1
102
RTVSPost2010Prop34
280
0
102
RTVSPost2010PropOp34
 70
1
102
RTVSPost2010Prop35
280
0
102
RTVSPost2010PropOp35
 70
1
102
RTVSPost2010Prop36
280
0
102
RTVSPost2010PropOp36
 70
1
102
RTVSPost2010Prop37
 90
50
102
RTVSPost2010PropOp37
 70
1
102
RTVSPost2010Prop38
140
0.0
102
RTVSPost2010PropOp38
 70
1
102
RTVSPost2010Prop39
140
1.0
102
RTVSPost2010PropOp39
 70
1
102
RTVSPost2010Prop40
 90
0
102
RTVSPost2010PropOp40
 70
1
102
RTVSPost2010Prop41ColorIndex
 90
18
102
RTVSPost2010Prop41ColorRGB
 90
0
102
RTVSPost2010PropOp41
 70
1
102
RTVSPost2010Prop42
 90
50
102
RTVSPost2010PropOp42
 70
1
102
RTVSPost2010Prop43
 90
3
102
RTVSPost2010PropOp43
 70
1
102
RTVSPost2010Prop44ColorIndex
 90
5
102
RTVSPost2010Prop44ColorRGB
 90
255
102
RTVSPost2010PropOp44
 70
1
102
RTVSPost2010Prop45
280
0
102
RTVSPost2010PropOp45
 70
1
102
RTVSPost2010Prop46
 90
50
102
RTVSPost2010PropOp46
 70
1
102
RTVSPost2010Prop47
 90
50
102
RTVSPost2010PropOp47
 70
1
102
RTVSPost2010Prop48
 90
50
102
RTVSPost2010PropOp48
 70
1
102
RTVSPost2010Prop49
280
0
102
RTVSPost2010PropOp49
 70
1
102
RTVSPost2010Prop50
 90
50
102
RTVSPost2010PropOp50
 70
1
102
RTVSPost2010Prop51ColorIndex
 90
256
102
RTVSPost2010Prop51ColorRGB
 90
-16777216
102
RTVSPost2010PropOp51
 70
0
102
RTVSPost2010Prop52
140
1.0
102
RTVSPost2010PropOp52
 70
0
102
RTVSPost2010Prop53
 90
2
102
RTVSPost2010PropOp53
 70
1
102
RTVSPost2010Prop54
  1
strokes_ogs.tif
102
RTVSPost2010PropOp54
 70
1
102
RTVSPost2010Prop55
280
0
102
RTVSPost2010PropOp55
 70
1
102
RTVSPost2010Prop56
140
1.0
102
RTVSPost2010PropOp56
 70
1
102
RTVSPost2010Prop57
140
1.0
102
RTVSPost2010PropOp57
 70
1
102
RTVSPropertyOp0
 70
1
102
RTVSPropertyOp1
 70
1
102
RTVSPropertyOp2
 70
1
102
RTVSPropertyOp3
 70
1
102
RTVSPropertyOp4
 70
1
102
RTVSPropertyOp5
 70
1
102
RTVSPropertyOp6
 70
1
102
RTVSPropertyOp7
 70
1
102
RTVSPropertyOp8
 70
1
102
RTVSPropertyOp9
 70
1
102
RTVSPropertyOp10
 70
1
102
RTVSPropertyOp11
 70
1
102
RTVSPropertyOp12
 70
1
102
RTVSPropertyOp13
 70
1
102
RTVSPropertyOp14
 70
1
102
RTVSPropertyOp15
 70
1
102
RTVSPropertyOp16
 70
1
102
RTVSPropertyOp17
 70
1
102
RTVSPropertyOp18
 70
1
102
RTVSPropertyOp19
 70
1
102
RTVSPropertyOp20
 70
1
102
RTVSPropertyOp21
 70
1
102
RTVSPropertyOp22
 70
1
102
RTVSPropertyOp23
 70
1
102
RTVSPropertyOp24
 70
1
102
RTVSPropertyOp25
 70
1
102
RTVSPropertyOp26
 70
1
102
RTVSPropertyOp27
 70
1
102
RTVSPropertyOp28
 70
1
102
RTVSPropertyOp29
 70
1
102
RTVSPropertyOp30
 70
1
102
RTVSPropertyOp31
 70
1
102
RTVSPropertyOp32
 70
1
102
RTVSPropertyOp33
 70
1
102
RTVSPropertyOp34
 70
1
102
RTVSPropertyOp35
 70
1
102
RTVSPropertyOp36
 70
1
102
RTVSPropertyOp37
 70
1
102
RTVSPropertyOp38
 70
1
102
RTVSPropertyOp39
 70
1
102
RTVSPropertyOp40
 70
1
102
RTVSPropertyOp41
 70
1
102
RTVSPropertyOp42
 70
1
102
RTVSPropertyOp43
 70
1
102
RTVSPropertyOp44
 70
1
102
RTVSPropertyOp45
 70
1
102
RTVSPropertyOp46
 70
1
102
RTVSPropertyOp47
 70
1
102
RTVSPropertyOp48
 70
1
102
RTVSPropertyOp49
 70
1
102
RTVSPropertyOp50
 70
1
102
RTVSPropertyOp51
 70
0
102
RTVSPropertyOp52
 70
0
102
RTVSPropertyOp53
 70
1
102
RTVSPropertyOp54
 70
1
102
RTVSPropertyOp55
 70
1
102
RTVSPropertyOp56
 70
1
102
RTVSPropertyOp57
 70
1
102
RTVSPropertyOp58
 70
1
102
RTVSPropertyOp59
 70
1
102
RTVSPropertyOp60
 70
1
102
RTVSPropertyOp61
 70
1
102
RTVSPropertyOp62
 70
1
  0
XRECORD
  5
A7C
102
{ACAD_REACTORS
330
A7B
102
}
330
A7B
100
AcDbXrecord
280
1
102
RTVSPost2010Prop28
280
0
102
RTVSPost2010PropOp28
 70
1
102
RTVSPost2010Prop29
280
1
102
RTVSPost2010PropOp29
 70
1
102
RTVSPost2010Prop30
280
1
102
RTVSPost2010PropOp30
 70
1
102
RTVSPost2010Prop31
280
0
102
RTVSPost2010PropOp31
 70
1
102
RTVSPost2010Prop32
280
0
102
RTVSPost2010PropOp32
 70
1
102
RTVSPost2010Prop33
280
0
102
RTVSPost2010PropOp33
 70
1
102
RTVSPost2010Prop34
280
0
102
RTVSPost2010PropOp34
 70
1
102
RTVSPost2010Prop35
280
0
102
RTVSPost2010PropOp35
 70
1
102
RTVSPost2010Prop36
280
0
102
RTVSPost2010PropOp36
 70
1
102
RTVSPost2010Prop37
 90
50
102
RTVSPost2010PropOp37
 70
1
102
RTVSPost2010Prop38
140
0.0
102
RTVSPost2010PropOp38
 70
1
102
RTVSPost2010Prop39
140
1.0
102
RTVSPost2010PropOp39
 70
1
102
RTVSPost2010Prop40
 90
0
102
RTVSPost2010PropOp40
 70
1
102
RTVSPost2010Prop41ColorIndex
 90
18
102
RTVSPost2010Prop41ColorRGB
 90
0
102
RTVSPost2010PropOp41
 70
1
102
RTVSPost2010Prop42
 90
50
102
RTVSPost2010PropOp42
 70
1
102
RTVSPost2010Prop43
 90
3
102
RTVSPost2010PropOp43
 70
1
102
RTVSPost2010Prop44ColorIndex
 90
5
102
RTVSPost2010Prop44ColorRGB
 90
255
102
RTVSPost2010PropOp44
 70
1
102
RTVSPost2010Prop45
280
0
102
RTVSPost2010PropOp45
 70
1
102
RTVSPost2010Prop46
 90
50
102
RTVSPost2010PropOp46
 70
1
102
RTVSPost2010Prop47
 90
50
102
RTVSPost2010PropOp47
 70
1
102
RTVSPost2010Prop48
 90
50
102
RTVSPost2010PropOp48
 70
1
102
RTVSPost2010Prop49
280
0
102
RTVSPost2010PropOp49
 70
1
102
RTVSPost2010Prop50
 90
50
102
RTVSPost2010PropOp50
 70
1
102
RTVSPost2010Prop51ColorIndex
 90
256
102
RTVSPost2010Prop51ColorRGB
 90
-16777216
102
RTVSPost2010PropOp51
 70
0
102
RTVSPost2010Prop52
140
1.0
102
RTVSPost2010PropOp52
 70
0
102
RTVSPost2010Prop53
 90
2
102
RTVSPost2010PropOp53
 70
1
102
RTVSPost2010Prop54
  1
strokes_ogs.tif
102
RTVSPost2010PropOp54
 70
1
102
RTVSPost2010Prop55
280
0
102
RTVSPost2010PropOp55
 70
1
102
RTVSPost2010Prop56
140
1.0
102
RTVSPost2010PropOp56
 70
1
102
RTVSPost2010Prop57
140
1.0
102
RTVSPost2010PropOp57
 70
1
102
RTVSPropertyOp0
 70
1
102
RTVSPropertyOp1
 70
1
102
RTVSPropertyOp2
 70
1
102
RTVSPropertyOp3
 70
1
102
RTVSPropertyOp4
 70
1
102
RTVSPropertyOp5
 70
1
102
RTVSPropertyOp6
 70
1
102
RTVSPropertyOp7
 70
1
102
RTVSPropertyOp8
 70
1
102
RTVSPropertyOp9
 70
1
102
RTVSPropertyOp10
 70
1
102
RTVSPropertyOp11
 70
1
102
RTVSPropertyOp12
 70
1
102
RTVSPropertyOp13
 70
1
102
RTVSPropertyOp14
 70
1
102
RTVSPropertyOp15
 70
1
102
RTVSPropertyOp16
 70
1
102
RTVSPropertyOp17
 70
1
102
RTVSPropertyOp18
 70
1
102
RTVSPropertyOp19
 70
1
102
RTVSPropertyOp20
 70
1
102
RTVSPropertyOp21
 70
1
102
RTVSPropertyOp22
 70
1
102
RTVSPropertyOp23
 70
1
102
RTVSPropertyOp24
 70
1
102
RTVSPropertyOp25
 70
1
102
RTVSPropertyOp26
 70
1
102
RTVSPropertyOp27
 70
1
102
RTVSPropertyOp28
 70
1
102
RTVSPropertyOp29
 70
1
102
RTVSPropertyOp30
 70
1
102
RTVSPropertyOp31
 70
1
102
RTVSPropertyOp32
 70
1
102
RTVSPropertyOp33
 70
1
102
RTVSPropertyOp34
 70
1
102
RTVSPropertyOp35
 70
1
102
RTVSPropertyOp36
 70
1
102
RTVSPropertyOp37
 70
1
102
RTVSPropertyOp38
 70
1
102
RTVSPropertyOp39
 70
1
102
RTVSPropertyOp40
 70
1
102
RTVSPropertyOp41
 70
1
102
RTVSPropertyOp42
 70
1
102
RTVSPropertyOp43
 70
1
102
RTVSPropertyOp44
 70
1
102
RTVSPropertyOp45
 70
1
102
RTVSPropertyOp46
 70
1
102
RTVSPropertyOp47
 70
1
102
RTVSPropertyOp48
 70
1
102
RTVSPropertyOp49
 70
1
102
RTVSPropertyOp50
 70
1
102
RTVSPropertyOp51
 70
0
102
RTVSPropertyOp52
 70
0
102
RTVSPropertyOp53
 70
1
102
RTVSPropertyOp54
 70
1
102
RTVSPropertyOp55
 70
1
102
RTVSPropertyOp56
 70
1
102
RTVSPropertyOp57
 70
1
102
RTVSPropertyOp58
 70
1
102
RTVSPropertyOp59
 70
1
102
RTVSPropertyOp60
 70
1
102
RTVSPropertyOp61
 70
1
102
RTVSPropertyOp62
 70
1
  0
XRECORD
  5
A70
102
{ACAD_REACTORS
330
A6F
102
}
330
A6F
100
AcDbXrecord
280
1
102
RTVSPost2010Prop28
280
0
102
RTVSPost2010PropOp28
 70
1
102
RTVSPost2010Prop29
280
1
102
RTVSPost2010PropOp29
 70
1
102
RTVSPost2010Prop30
280
1
102
RTVSPost2010PropOp30
 70
1
102
RTVSPost2010Prop31
280
0
102
RTVSPost2010PropOp31
 70
1
102
RTVSPost2010Prop32
280
0
102
RTVSPost2010PropOp32
 70
1
102
RTVSPost2010Prop33
280
0
102
RTVSPost2010PropOp33
 70
1
102
RTVSPost2010Prop34
280
0
102
RTVSPost2010PropOp34
 70
1
102
RTVSPost2010Prop35
280
0
102
RTVSPost2010PropOp35
 70
1
102
RTVSPost2010Prop36
280
0
102
RTVSPost2010PropOp36
 70
1
102
RTVSPost2010Prop37
 90
50
102
RTVSPost2010PropOp37
 70
1
102
RTVSPost2010Prop38
140
0.0
102
RTVSPost2010PropOp38
 70
1
102
RTVSPost2010Prop39
140
1.0
102
RTVSPost2010PropOp39
 70
1
102
RTVSPost2010Prop40
 90
0
102
RTVSPost2010PropOp40
 70
1
102
RTVSPost2010Prop41ColorIndex
 90
18
102
RTVSPost2010Prop41ColorRGB
 90
0
102
RTVSPost2010PropOp41
 70
1
102
RTVSPost2010Prop42
 90
50
102
RTVSPost2010PropOp42
 70
1
102
RTVSPost2010Prop43
 90
3
102
RTVSPost2010PropOp43
 70
1
102
RTVSPost2010Prop44ColorIndex
 90
5
102
RTVSPost2010Prop44ColorRGB
 90
255
102
RTVSPost2010PropOp44
 70
1
102
RTVSPost2010Prop45
280
0
102
RTVSPost2010PropOp45
 70
1
102
RTVSPost2010Prop46
 90
50
102
RTVSPost2010PropOp46
 70
1
102
RTVSPost2010Prop47
 90
50
102
RTVSPost2010PropOp47
 70
1
102
RTVSPost2010Prop48
 90
50
102
RTVSPost2010PropOp48
 70
1
102
RTVSPost2010Prop49
280
0
102
RTVSPost2010PropOp49
 70
1
102
RTVSPost2010Prop50
 90
50
102
RTVSPost2010PropOp50
 70
1
102
RTVSPost2010Prop51ColorIndex
 90
256
102
RTVSPost2010Prop51ColorRGB
 90
-16777216
102
RTVSPost2010PropOp51
 70
0
102
RTVSPost2010Prop52
140
1.0
102
RTVSPost2010PropOp52
 70
0
102
RTVSPost2010Prop53
 90
2
102
RTVSPost2010PropOp53
 70
1
102
RTVSPost2010Prop54
  1
strokes_ogs.tif
102
RTVSPost2010PropOp54
 70
1
102
RTVSPost2010Prop55
280
0
102
RTVSPost2010PropOp55
 70
1
102
RTVSPost2010Prop56
140
1.0
102
RTVSPost2010PropOp56
 70
1
102
RTVSPost2010Prop57
140
1.0
102
RTVSPost2010PropOp57
 70
1
102
RTVSPropertyOp0
 70
1
102
RTVSPropertyOp1
 70
1
102
RTVSPropertyOp2
 70
1
102
RTVSPropertyOp3
 70
1
102
RTVSPropertyOp4
 70
1
102
RTVSPropertyOp5
 70
1
102
RTVSPropertyOp6
 70
1
102
RTVSPropertyOp7
 70
1
102
RTVSPropertyOp8
 70
1
102
RTVSPropertyOp9
 70
1
102
RTVSPropertyOp10
 70
1
102
RTVSPropertyOp11
 70
1
102
RTVSPropertyOp12
 70
1
102
RTVSPropertyOp13
 70
1
102
RTVSPropertyOp14
 70
1
102
RTVSPropertyOp15
 70
1
102
RTVSPropertyOp16
 70
1
102
RTVSPropertyOp17
 70
1
102
RTVSPropertyOp18
 70
1
102
RTVSPropertyOp19
 70
1
102
RTVSPropertyOp20
 70
1
102
RTVSPropertyOp21
 70
1
102
RTVSPropertyOp22
 70
1
102
RTVSPropertyOp23
 70
1
102
RTVSPropertyOp24
 70
1
102
RTVSPropertyOp25
 70
1
102
RTVSPropertyOp26
 70
1
102
RTVSPropertyOp27
 70
1
102
RTVSPropertyOp28
 70
1
102
RTVSPropertyOp29
 70
1
102
RTVSPropertyOp30
 70
1
102
RTVSPropertyOp31
 70
1
102
RTVSPropertyOp32
 70
1
102
RTVSPropertyOp33
 70
1
102
RTVSPropertyOp34
 70
1
102
RTVSPropertyOp35
 70
1
102
RTVSPropertyOp36
 70
1
102
RTVSPropertyOp37
 70
1
102
RTVSPropertyOp38
 70
1
102
RTVSPropertyOp39
 70
1
102
RTVSPropertyOp40
 70
1
102
RTVSPropertyOp41
 70
1
102
RTVSPropertyOp42
 70
1
102
RTVSPropertyOp43
 70
1
102
RTVSPropertyOp44
 70
1
102
RTVSPropertyOp45
 70
1
102
RTVSPropertyOp46
 70
1
102
RTVSPropertyOp47
 70
1
102
RTVSPropertyOp48
 70
1
102
RTVSPropertyOp49
 70
1
102
RTVSPropertyOp50
 70
1
102
RTVSPropertyOp51
 70
0
102
RTVSPropertyOp52
 70
0
102
RTVSPropertyOp53
 70
1
102
RTVSPropertyOp54
 70
1
102
RTVSPropertyOp55
 70
1
102
RTVSPropertyOp56
 70
1
102
RTVSPropertyOp57
 70
1
102
RTVSPropertyOp58
 70
1
102
RTVSPropertyOp59
 70
1
102
RTVSPropertyOp60
 70
1
102
RTVSPropertyOp61
 70
1
102
RTVSPropertyOp62
 70
1
  0
XRECORD
  5
A88
102
{ACAD_REACTORS
330
A87
102
}
330
A87
100
AcDbXrecord
280
1
102
RTVSPost2010Prop28
280
0
102
RTVSPost2010PropOp28
 70
1
102
RTVSPost2010Prop29
280
1
102
RTVSPost2010PropOp29
 70
1
102
RTVSPost2010Prop30
280
1
102
RTVSPost2010PropOp30
 70
1
102
RTVSPost2010Prop31
280
0
102
RTVSPost2010PropOp31
 70
1
102
RTVSPost2010Prop32
280
0
102
RTVSPost2010PropOp32
 70
1
102
RTVSPost2010Prop33
280
0
102
RTVSPost2010PropOp33
 70
1
102
RTVSPost2010Prop34
280
0
102
RTVSPost2010PropOp34
 70
1
102
RTVSPost2010Prop35
280
0
102
RTVSPost2010PropOp35
 70
1
102
RTVSPost2010Prop36
280
0
102
RTVSPost2010PropOp36
 70
1
102
RTVSPost2010Prop37
 90
50
102
RTVSPost2010PropOp37
 70
1
102
RTVSPost2010Prop38
140
0.0
102
RTVSPost2010PropOp38
 70
1
102
RTVSPost2010Prop39
140
1.0
102
RTVSPost2010PropOp39
 70
1
102
RTVSPost2010Prop40
 90
0
102
RTVSPost2010PropOp40
 70
1
102
RTVSPost2010Prop41ColorIndex
 90
18
102
RTVSPost2010Prop41ColorRGB
 90
0
102
RTVSPost2010PropOp41
 70
1
102
RTVSPost2010Prop42
 90
50
102
RTVSPost2010PropOp42
 70
1
102
RTVSPost2010Prop43
 90
3
102
RTVSPost2010PropOp43
 70
1
102
RTVSPost2010Prop44ColorIndex
 90
5
102
RTVSPost2010Prop44ColorRGB
 90
255
102
RTVSPost2010PropOp44
 70
1
102
RTVSPost2010Prop45
280
0
102
RTVSPost2010PropOp45
 70
1
102
RTVSPost2010Prop46
 90
50
102
RTVSPost2010PropOp46
 70
1
102
RTVSPost2010Prop47
 90
50
102
RTVSPost2010PropOp47
 70
1
102
RTVSPost2010Prop48
 90
50
102
RTVSPost2010PropOp48
 70
1
102
RTVSPost2010Prop49
280
0
102
RTVSPost2010PropOp49
 70
1
102
RTVSPost2010Prop50
 90
50
102
RTVSPost2010PropOp50
 70
1
102
RTVSPost2010Prop51ColorIndex
 90
256
102
RTVSPost2010Prop51ColorRGB
 90
-16777216
102
RTVSPost2010PropOp51
 70
0
102
RTVSPost2010Prop52
140
1.0
102
RTVSPost2010PropOp52
 70
0
102
RTVSPost2010Prop53
 90
2
102
RTVSPost2010PropOp53
 70
1
102
RTVSPost2010Prop54
  1
strokes_ogs.tif
102
RTVSPost2010PropOp54
 70
1
102
RTVSPost2010Prop55
280
0
102
RTVSPost2010PropOp55
 70
1
102
RTVSPost2010Prop56
140
1.0
102
RTVSPost2010PropOp56
 70
1
102
RTVSPost2010Prop57
140
1.0
102
RTVSPost2010PropOp57
 70
1
102
RTVSPropertyOp0
 70
1
102
RTVSPropertyOp1
 70
1
102
RTVSPropertyOp2
 70
1
102
RTVSPropertyOp3
 70
1
102
RTVSPropertyOp4
 70
1
102
RTVSPropertyOp5
 70
1
102
RTVSPropertyOp6
 70
1
102
RTVSPropertyOp7
 70
1
102
RTVSPropertyOp8
 70
1
102
RTVSPropertyOp9
 70
1
102
RTVSPropertyOp10
 70
1
102
RTVSPropertyOp11
 70
1
102
RTVSPropertyOp12
 70
1
102
RTVSPropertyOp13
 70
1
102
RTVSPropertyOp14
 70
1
102
RTVSPropertyOp15
 70
1
102
RTVSPropertyOp16
 70
1
102
RTVSPropertyOp17
 70
1
102
RTVSPropertyOp18
 70
1
102
RTVSPropertyOp19
 70
1
102
RTVSPropertyOp20
 70
1
102
RTVSPropertyOp21
 70
1
102
RTVSPropertyOp22
 70
1
102
RTVSPropertyOp23
 70
1
102
RTVSPropertyOp24
 70
1
102
RTVSPropertyOp25
 70
1
102
RTVSPropertyOp26
 70
1
102
RTVSPropertyOp27
 70
1
102
RTVSPropertyOp28
 70
1
102
RTVSPropertyOp29
 70
1
102
RTVSPropertyOp30
 70
1
102
RTVSPropertyOp31
 70
1
102
RTVSPropertyOp32
 70
1
102
RTVSPropertyOp33
 70
1
102
RTVSPropertyOp34
 70
1
102
RTVSPropertyOp35
 70
1
102
RTVSPropertyOp36
 70
1
102
RTVSPropertyOp37
 70
1
102
RTVSPropertyOp38
 70
1
102
RTVSPropertyOp39
 70
1
102
RTVSPropertyOp40
 70
1
102
RTVSPropertyOp41
 70
1
102
RTVSPropertyOp42
 70
1
102
RTVSPropertyOp43
 70
1
102
RTVSPropertyOp44
 70
1
102
RTVSPropertyOp45
 70
1
102
RTVSPropertyOp46
 70
1
102
RTVSPropertyOp47
 70
1
102
RTVSPropertyOp48
 70
1
102
RTVSPropertyOp49
 70
1
102
RTVSPropertyOp50
 70
1
102
RTVSPropertyOp51
 70
0
102
RTVSPropertyOp52
 70
0
102
RTVSPropertyOp53
 70
1
102
RTVSPropertyOp54
 70
1
102
RTVSPropertyOp55
 70
1
102
RTVSPropertyOp56
 70
1
102
RTVSPropertyOp57
 70
1
102
RTVSPropertyOp58
 70
1
102
RTVSPropertyOp59
 70
1
102
RTVSPropertyOp60
 70
1
102
RTVSPropertyOp61
 70
1
102
RTVSPropertyOp62
 70
1
  0
DICTIONARY
  5
10D3
330
9D2
100
AcDbDictionary
281
1
  3
WRITTEN_BY_EZDXF
350
10D4
  0
DICTIONARYVAR
  5
10D4
330
10D3
100
DictionaryVariables
280
0
  1
0.16.4 @ 2022-09-06T04:16:43.400241+00:00
  0
ENDSEC
  0
EOF
