  0
SECTION
  2
HEADER
  9
$ACADVER
  1
AC1015
  9
$ACADMAINTVER
 70
6
  9
$DWGCODEPAGE
  3
ANSI_932
  9
$INSBASE
 10
0.0
 20
0.0
 30
0.0
  9
$EXTMIN
 10
0.0
 20
0.0
 30
0.0
  9
$EXTMAX
 10
0.0
 20
0.0
 30
0.0
  9
$LIMMIN
 10
0.0
 20
0.0
  9
$LIMMAX
 10
12.0
 20
9.0
  9
$ORTHOMODE
 70
0
  9
$REGENMODE
 70
1
  9
$FILLMODE
 70
1
  9
$QTEXTMODE
 70
0
  9
$MIRRTEXT
 70
1
  9
$LTSCALE
 40
1.0
  9
$ATTMODE
 70
1
  9
$TEXTSIZE
 40
0.2
  9
$TRACEWID
 40
1.0
  9
$TEXTSTYLE
  7
STANDARD
  9
$CLAYER
  8
__
  9
$CELTYPE
  6
ByLayer
  9
$CECOLOR
 62
256
  9
$CELTSCALE
 40
1.0
  9
$DISPSILH
 70
0
  9
$DIMSCALE
 40
1.0
  9
$DIMASZ
 40
0.18
  9
$DIMEXO
 40
0.0625
  9
$DIMDLI
 40
0.38
  9
$DIMRND
 40
0.0
  9
$DIMDLE
 40
0.0
  9
$DIMEXE
 40
0.18
  9
$DIMTP
 40
0.0
  9
$DIMTM
 40
0.0
  9
$DIMTXT
 40
0.18
  9
$DIMCEN
 40
0.09
  9
$DIMTSZ
 40
0.0
  9
$DIMTOL
 70
0
  9
$DIMLIM
 70
0
  9
$DIMTIH
 70
1
  9
$DIMTOH
 70
1
  9
$DIMSE1
 70
0
  9
$DIMSE2
 70
0
  9
$DIMTAD
 70
0
  9
$DIMZIN
 70
0
  9
$DIMBLK
  1

  9
$DIMASO
 70
1
  9
$DIMSHO
 70
1
  9
$DIMPOST
  1

  9
$DIMAPOST
  1

  9
$DIMALT
 70
0
  9
$DIMALTD
 70
2
  9
$DIMALTF
 40
25.4
  9
$DIMLFAC
 40
1.0
  9
$DIMTOFL
 70
0
  9
$DIMTVP
 40
0.0
  9
$DIMTIX
 70
0
  9
$DIMSOXD
 70
0
  9
$DIMSAH
 70
0
  9
$DIMBLK1
  1

  9
$DIMBLK2
  1

  9
$DIMSTYLE
  2
STANDARD
  9
$DIMCLRD
 70
0
  9
$DIMCLRE
 70
0
  9
$DIMCLRT
 70
0
  9
$DIMTFAC
 40
1.0
  9
$DIMGAP
 40
0.09
  9
$DIMJUST
 70
0
  9
$DIMSD1
 70
0
  9
$DIMSD2
 70
0
  9
$DIMTOLJ
 70
1
  9
$DIMTZIN
 70
0
  9
$DIMALTZ
 70
0
  9
$DIMALTTZ
 70
0
  9
$DIMUPT
 70
0
  9
$DIMDEC
 70
4
  9
$DIMTDEC
 70
4
  9
$DIMALTU
 70
2
  9
$DIMALTTD
 70
2
  9
$DIMTXSTY
  7
STANDARD
  9
$DIMAUNIT
 70
0
  9
$DIMADEC
 70
0
  9
$DIMALTRND
 40
0.0
  9
$DIMAZIN
 70
0
  9
$DIMDSEP
 70
46
  9
$DIMATFIT
 70
3
  9
$DIMFRAC
 70
0
  9
$DIMLDRBLK
  1

  9
$DIMLUNIT
 70
2
  9
$DIMLWD
 70
-2
  9
$DIMLWE
 70
-2
  9
$DIMTMOVE
 70
0
  9
$LUNITS
 70
2
  9
$LUPREC
 70
2
  9
$SKETCHINC
 40
0.1
  9
$FILLETRAD
 40
0.5
  9
$AUNITS
 70
0
  9
$AUPREC
 70
2
  9
$MENU
  1
.
  9
$ELEVATION
 40
0.0
  9
$PELEVATION
 40
0.0
  9
$THICKNESS
 40
0.0
  9
$LIMCHECK
 70
0
  9
$CHAMFERA
 40
0.0
  9
$CHAMFERB
 40
0.0
  9
$CHAMFERC
 40
0.0
  9
$CHAMFERD
 40
0.0
  9
$SKPOLY
 70
0
  9
$TDCREATE
 40
2459829.553101852
  9
$TDUCREATE
 40
2459044.413842593
  9
$TDUPDATE
 40
2459829.553101852
  9
$TDUUPDATE
 40
2459045.001064815
  9
$TDINDWG
 40
0.001006956
  9
$TDUSRTIMER
 40
0.0009953819
  9
$USRTIMER
 70
1
  9
$ANGBASE
 50
0.0
  9
$ANGDIR
 70
0
  9
$PDMODE
 70
1
  9
$PDSIZE
 40
-2.0
  9
$PLINEWID
 40
0.0
  9
$SPLFRAME
 70
0
  9
$SPLINETYPE
 70
6
  9
$SPLINESEGS
 70
8
  9
$HANDSEED
  5
10D0
  9
$SURFTAB1
 70
6
  9
$SURFTAB2
 70
6
  9
$SURFTYPE
 70
6
  9
$SURFU
 70
6
  9
$SURFV
 70
6
  9
$UCSBASE
  2

  9
$UCSNAME
  2

  9
$UCSORG
 10
0.0
 20
0.0
 30
0.0
  9
$UCSXDIR
 10
1.0
 20
0.0
 30
0.0
  9
$UCSYDIR
 10
0.0
 20
1.0
 30
0.0
  9
$UCSORTHOREF
  2

  9
$UCSORTHOVIEW
 70
0
  9
$UCSORGTOP
 10
0.0
 20
0.0
 30
0.0
  9
$UCSORGBOTTOM
 10
0.0
 20
0.0
 30
0.0
  9
$UCSORGLEFT
 10
0.0
 20
0.0
 30
0.0
  9
$UCSORGRIGHT
 10
0.0
 20
0.0
 30
0.0
  9
$UCSORGFRONT
 10
0.0
 20
0.0
 30
0.0
  9
$UCSORGBACK
 10
0.0
 20
0.0
 30
0.0
  9
$PUCSBASE
  2

  9
$PUCSNAME
  2

  9
$PUCSORG
 10
0.0
 20
0.0
 30
0.0
  9
$PUCSXDIR
 10
1.0
 20
0.0
 30
0.0
  9
$PUCSYDIR
 10
0.0
 20
1.0
 30
0.0
  9
$PUCSORTHOREF
  2

  9
$PUCSORTHOVIEW
 70
0
  9
$PUCSORGTOP
 10
0.0
 20
0.0
 30
0.0
  9
$PUCSORGBOTTOM
 10
0.0
 20
0.0
 30
0.0
  9
$PUCSORGLEFT
 10
0.0
 20
0.0
 30
0.0
  9
$PUCSORGRIGHT
 10
0.0
 20
0.0
 30
0.0
  9
$PUCSORGFRONT
 10
0.0
 20
0.0
 30
0.0
  9
$PUCSORGBACK
 10
0.0
 20
0.0
 30
0.0
  9
$USERI1
 70
0
  9
$USERI2
 70
0
  9
$USERI3
 70
0
  9
$USERI4
 70
0
  9
$USERI5
 70
0
  9
$USERR1
 40
0.0
  9
$USERR2
 40
0.0
  9
$USERR3
 40
0.0
  9
$USERR4
 40
0.0
  9
$USERR5
 40
0.0
  9
$WORLDVIEW
 70
1
  9
$SHADEDGE
 70
3
  9
$SHADEDIF
 70
70
  9
$TILEMODE
 70
1
  9
$MAXACTVP
 70
64
  9
$PINSBASE
 10
0.0
 20
0.0
 30
0.0
  9
$PLIMCHECK
 70
0
  9
$PEXTMIN
 10
1e+20
 20
1e+20
 30
1e+20
  9
$PEXTMAX
 10
-1e+20
 20
-1e+20
 30
-1e+20
  9
$PLIMMIN
 10
-20.0
 20
-7.5
  9
$PLIMMAX
 10
277.0
 20
202.5
  9
$UNITMODE
 70
0
  9
$VISRETAIN
 70
1
  9
$PLINEGEN
 70
0
  9
$PSLTSCALE
 70
1
  9
$TREEDEPTH
 70
3020
  9
$CMLSTYLE
  2
Standard
  9
$CMLJUST
 70
0
  9
$CMLSCALE
 40
1.0
  9
$PROXYGRAPHICS
 70
1
  9
$MEASUREMENT
 70
0
  9
$CELWEIGHT
370
-1
  9
$ENDCAPS
280
0
  9
$JOINSTYLE
280
0
  9
$LWDISPLAY
290
0
  9
$INSUNITS
 70
0
  9
$HYPERLINKBASE
  1

  9
$STYLESHEET
  1

  9
$XEDIT
290
1
  9
$CEPSNTYPE
380
0
  9
$PSTYLEMODE
290
1
  9
$FINGERPRINTGUID
  2
{4275FC59-A10E-4E5D-859F-492F0E796C6B}
  9
$VERSIONGUID
  2
{A4141076-A711-4DE4-B233-375657F2FF0C}
  9
$EXTNAMES
290
1
  9
$PSVPSCALE
 40
0.0
  9
$OLESTARTUP
290
0
  0
ENDSEC
  0
SECTION
  2
CLASSES
  0
CLASS
  1
ACDBDICTIONARYWDFLT
  2
AcDbDictionaryWithDefault
  3
ObjectDBX Classes
 90
0
280
0
281
0
  0
CLASS
  1
MATERIAL
  2
AcDbMaterial
  3
ObjectDBX Classes
 90
1153
280
0
281
0
  0
CLASS
  1
VISUALSTYLE
  2
AcDbVisualStyle
  3
ObjectDBX Classes
 90
4095
280
0
281
0
  0
CLASS
  1
SCALE
  2
AcDbScale
  3
ObjectDBX Classes
 90
1153
280
0
281
0
  0
CLASS
  1
TABLESTYLE
  2
AcDbTableStyle
  3
ObjectDBX Classes
 90
4095
280
0
281
0
  0
CLASS
  1
MLEADERSTYLE
  2
AcDbMLeaderStyle
  3
ACDB_MLEADERSTYLE_CLASS
 90
4095
280
0
281
0
  0
CLASS
  1
ACDBSECTIONVIEWSTYLE
  2
AcDbSectionViewStyle
  3
ObjectDBX Classes
 90
1025
280
0
281
0
  0
CLASS
  1
ACDBDETAILVIEWSTYLE
  2
AcDbDetailViewStyle
  3
ObjectDBX Classes
 90
1025
280
0
281
0
  0
CLASS
  1
DICTIONARYVAR
  2
AcDbDictionaryVar
  3
ObjectDBX Classes
 90
0
280
0
281
0
  0
CLASS
  1
CELLSTYLEMAP
  2
AcDbCellStyleMap
  3
ObjectDBX Classes
 90
1152
280
0
281
0
  0
CLASS
  1
ACDBPLACEHOLDER
  2
AcDbPlaceHolder
  3
ObjectDBX Classes
 90
0
280
0
281
0
  0
CLASS
  1
LAYOUT
  2
AcDbLayout
  3
ObjectDBX Classes
 90
0
280
0
281
0
  0
CLASS
  1
SUN
  2
AcDbSun
  3
SCENEOE
 90
1153
280
0
281
0
  0
CLASS
  1
MENTALRAYRENDERSETTINGS
  2
AcDbMentalRayRenderSettings
  3
SCENEOE
 90
1024
280
0
281
0
  0
CLASS
  1
RASTERVARIABLES
  2
AcDbRasterVariables
  3
ISM
 90
0
280
0
281
0
  0
ENDSEC
  0
SECTION
  2
TABLES
  0
TABLE
  2
VPORT
  5
9CE
330
0
100
AcDbSymbolTable
 70
1
  0
VPORT
  5
A3A
330
9CE
100
AcDbSymbolTableRecord
100
AcDbViewportTableRecord
  2
*ACTIVE
 70
0
 10
0.0
 20
0.0
 11
1.0
 21
1.0
 12
50.22649720630994
 22
14.7479721186084
 13
0.0
 23
0.0
 14
0.5
 24
0.5
 15
0.5
 25
0.5
 16
0.0
 26
0.0
 36
1.0
 17
0.0
 27
0.0
 37
0.0
 40
167.9470367482983
 41
2.193641618497109
 42
50.0
 43
0.0
 44
0.0
 50
0.0
 51
0.0
 71
0
 72
1000
 73
1
 74
3
 75
0
 76
0
 77
0
 78
0
281
0
 65
1
110
0.0
120
0.0
130
0.0
111
1.0
121
0.0
131
0.0
112
0.0
122
1.0
132
0.0
 79
0
146
0.0
1001
ACAD_NAV_VCDISPLAY
1070
3
  0
ENDTAB
  0
TABLE
  2
LTYPE
  5
9CB
330
0
100
AcDbSymbolTable
 70
3
  0
LTYPE
  5
A3B
330
9CB
100
AcDbSymbolTableRecord
100
AcDbLinetypeTableRecord
  2
BYBLOCK
 70
0
  3

 72
65
 73
0
 40
0.0
  0
LTYPE
  5
A3C
330
9CB
100
AcDbSymbolTableRecord
100
AcDbLinetypeTableRecord
  2
BYLAYER
 70
0
  3

 72
65
 73
0
 40
0.0
  0
LTYPE
  5
A22
330
9CB
100
AcDbSymbolTableRecord
100
AcDbLinetypeTableRecord
  2
CONTINUOUS
 70
0
  3
Solid line
 72
65
 73
0
 40
0.0
  0
ENDTAB
  0
TABLE
  2
LAYER
  5
9C8
330
0
100
AcDbSymbolTable
 70
4
  0
LAYER
  5
A1A
102
{ACAD_XDICTIONARY
360
A49
102
}
330
9C8
100
AcDbSymbolTableRecord
100
AcDbLayerTableRecord
  2
0
 70
0
 62
7
  6
CONTINUOUS
370
-3
390
9D5
  0
LAYER
  5
A39
102
{ACAD_XDICTIONARY
360
A4B
102
}
330
9C8
100
AcDbSymbolTableRecord
100
AcDbLayerTableRecord
  2
__
 70
0
 62
7
  6
CONTINUOUS
370
-3
390
9D5
  0
LAYER
  5
A3D
102
{ACAD_XDICTIONARY
360
A4D
102
}
330
9C8
100
AcDbSymbolTableRecord
100
AcDbLayerTableRecord
  2
_____1
 70
0
 62
7
  6
CONTINUOUS
370
-3
390
9D5
  0
LAYER
  5
A3E
330
9C8
100
AcDbSymbolTableRecord
100
AcDbLayerTableRecord
  2
DEFPOINTS
 70
0
 62
7
  6
CONTINUOUS
290
0
370
-3
390
9D5
  0
ENDTAB
  0
TABLE
  2
STYLE
  5
9C9
330
0
100
AcDbSymbolTable
 70
2
  0
STYLE
  5
A1B
330
9C9
100
AcDbSymbolTableRecord
100
AcDbTextStyleTableRecord
  2
STANDARD
 70
0
 40
0.0
 41
1.0
 50
0.0
 71
0
 42
0.2
  3
txt
  4
BIGFONT.SHX
  0
STYLE
  5
A1F
330
9C9
100
AcDbSymbolTableRecord
100
AcDbTextStyleTableRecord
  2
Annotative
 70
0
 40
0.0
 41
1.0
 50
0.0
 71
0
 42
0.2
  3
txt
  4

1001
AcadAnnotative
1000
AnnotativeData
1002
{
1070
1
1070
1
1002
}
  0
ENDTAB
  0
TABLE
  2
VIEW
  5
9CC
330
0
100
AcDbSymbolTable
 70
0
  0
ENDTAB
  0
TABLE
  2
UCS
  5
9CD
330
0
100
AcDbSymbolTable
 70
0
  0
ENDTAB
  0
TABLE
  2
APPID
  5
9CF
330
0
100
AcDbSymbolTable
 70
8
  0
APPID
  5
A1C
330
9CF
100
AcDbSymbolTableRecord
100
AcDbRegAppTableRecord
  2
ACAD
 70
0
  0
APPID
  5
A23
330
9CF
100
AcDbSymbolTableRecord
100
AcDbRegAppTableRecord
  2
AcadAnnotative
 70
0
  0
APPID
  5
A3F
330
9CF
100
AcDbSymbolTableRecord
100
AcDbRegAppTableRecord
  2
ACCMTRANSPARENCY
 70
0
  0
APPID
  5
A40
330
9CF
100
AcDbSymbolTableRecord
100
AcDbRegAppTableRecord
  2
ACAECLAYERSTANDARD
 70
0
  0
APPID
  5
A59
330
9CF
100
AcDbSymbolTableRecord
100
AcDbRegAppTableRecord
  2
ACAD_NAV_VCDISPLAY
 70
0
  0
APPID
  5
A94
330
9CF
100
AcDbSymbolTableRecord
100
AcDbRegAppTableRecord
  2
ACAD_MLEADERVER
 70
0
  0
APPID
  5
10CC
330
9CF
100
AcDbSymbolTableRecord
100
AcDbRegAppTableRecord
  2
HATCHBACKGROUNDCOLOR
 70
0
  0
APPID
  5
10CD
330
9CF
100
AcDbSymbolTableRecord
100
AcDbRegAppTableRecord
  2
EZDXF
 70
0
  0
ENDTAB
  0
TABLE
  2
DIMSTYLE
  5
9D0
330
0
100
AcDbSymbolTable
 70
2
100
AcDbDimStyleTable
  0
DIMSTYLE
105
A1D
330
9D0
100
AcDbSymbolTableRecord
100
AcDbDimStyleTableRecord
  2
STANDARD
 70
0
  3

  4

 40
1.0
 41
2.5
 42
0.625
 43
3.75
 44
1.25
 45
0.0
 46
0.0
 47
0.0
 48
0.0
140
2.5
141
2.5
142
0.0
143
0.03937007874
144
1.0
145
0.0
146
1.0
147
0.625
148
0.0
 71
0
 72
0
 73
0
 74
0
 75
0
 76
0
 77
1
 78
8
 79
0
170
0
171
3
172
1
173
0
174
0
175
0
176
0
177
0
178
0
179
0
271
2
272
2
273
2
274
3
275
0
276
0
277
2
278
44
279
2
280
0
281
0
282
0
283
0
284
8
285
0
286
0
288
0
289
3
371
-2
372
-2
  0
DIMSTYLE
105
A1E
330
9D0
100
AcDbSymbolTableRecord
100
AcDbDimStyleTableRecord
  2
Annotative
 70
0
  3

  4

 40
1.0
 41
2.5
 42
0.625
 43
3.75
 44
1.25
 45
0.0
 46
0.0
 47
0.0
 48
0.0
140
2.5
141
2.5
142
0.0
143
0.03937007874
144
1.0
145
0.0
146
1.0
147
0.625
148
0.0
 71
0
 72
0
 73
0
 74
0
 75
0
 76
0
 77
1
 78
8
 79
0
170
0
171
3
172
1
173
0
174
0
175
0
176
0
177
0
178
0
179
0
271
0
272
2
273
2
274
3
275
0
276
0
277
2
278
44
279
0
280
0
281
0
282
0
283
0
284
8
285
0
286
0
288
0
289
3
371
-2
372
-2
1001
AcadAnnotative
1000
AnnotativeData
1002
{
1070
1
1070
1
1002
}
  0
ENDTAB
  0
TABLE
  2
BLOCK_RECORD
  5
9C7
330
0
100
AcDbSymbolTable
 70
4
  0
BLOCK_RECORD
  5
A35
330
9C7
100
AcDbSymbolTableRecord
100
AcDbBlockTableRecord
  2
*Model_Space
340
A38
  0
BLOCK_RECORD
  5
A31
330
9C7
100
AcDbSymbolTableRecord
100
AcDbBlockTableRecord
  2
*Paper_Space
340
A34
  0
BLOCK_RECORD
  5
A43
330
9C7
100
AcDbSymbolTableRecord
100
AcDbBlockTableRecord
  2
$MODEL_SPACE
340
0
  0
BLOCK_RECORD
  5
A44
330
9C7
100
AcDbSymbolTableRecord
100
AcDbBlockTableRecord
  2
$PAPER_SPACE
340
0
  0
ENDTAB
  0
ENDSEC
  0
SECTION
  2
BLOCKS
  0
BLOCK
  5
A36
330
A35
100
AcDbEntity
  8
0
100
AcDbBlockBegin
  2
*Model_Space
 70
0
 10
0.0
 20
0.0
 30
0.0
  3
*Model_Space
  1

  0
ENDBLK
  5
A37
330
A35
100
AcDbEntity
  8
0
100
AcDbBlockEnd
  0
BLOCK
  5
A32
330
A31
100
AcDbEntity
 67
1
  8
0
100
AcDbBlockBegin
  2
*Paper_Space
 70
0
 10
0.0
 20
0.0
 30
0.0
  3
*Paper_Space
  1

  0
ENDBLK
  5
A33
330
A31
100
AcDbEntity
 67
1
  8
0
100
AcDbBlockEnd
  0
BLOCK
  5
470
330
A43
100
AcDbEntity
  8
0
100
AcDbBlockBegin
  2
$MODEL_SPACE
 70
0
 10
0.0
 20
0.0
 30
0.0
  3
$MODEL_SPACE
  1

  0
ENDBLK
  5
21
330
A43
100
AcDbEntity
  8
0
100
AcDbBlockEnd
  0
BLOCK
  5
471
330
A44
100
AcDbEntity
  8
0
100
AcDbBlockBegin
  2
$PAPER_SPACE
 70
0
 10
0.0
 20
0.0
 30
0.0
  3
$PAPER_SPACE
  1

  0
ENDBLK
  5
1D
330
A44
100
AcDbEntity
  8
0
100
AcDbBlockEnd
  0
ENDSEC
  0
SECTION
  2
ENTITIES
  0
LINE
  5
A9D
330
A35
100
AcDbEntity
  8
0
100
AcDbLine
 10
58.916
 20
51.748
 30
0.0
 11
58.985
 21
51.736
 31
0.0
  0
LINE
  5
A9E
330
A35
100
AcDbEntity
  8
0
100
AcDbLine
 10
59.931
 20
52.826
 30
0.0
 11
60.0
 21
52.802
 31
0.0
  0
LINE
  5
A9F
330
A35
100
AcDbEntity
  8
0
100
AcDbLine
 10
58.585
 20
51.793
 30
0.0
 11
57.921
 21
51.929
 31
0.0
  0
LINE
  5
AA0
330
A35
100
AcDbEntity
  8
0
100
AcDbLine
 10
58.678
 20
51.817
 30
0.0
 11
59.944
 21
52.906
 31
0.0
  0
LINE
  5
AA1
330
A35
100
AcDbEntity
  8
0
100
AcDbLine
 10
59.944
 20
52.906
 30
0.0
 11
59.944
 21
52.926
 31
0.0
  0
LINE
  5
AA2
330
A35
100
AcDbEntity
  8
0
100
AcDbLine
 10
59.944
 20
52.906
 30
0.0
 11
59.907
 21
52.938
 31
0.0
  0
LINE
  5
AA3
330
A35
100
AcDbEntity
  8
0
100
AcDbLine
 10
59.944
 20
52.975
 30
0.0
 11
59.248
 21
53.143
 31
0.0
  0
LINE
  5
AA4
330
A35
100
AcDbEntity
  8
0
100
AcDbLine
 10
59.907
 20
52.938
 30
0.0
 11
59.26
 21
53.075
 31
0.0
  0
LINE
  5
AA5
330
A35
100
AcDbEntity
  8
0
100
AcDbLine
 10
59.907
 20
53.007
 30
0.0
 11
59.907
 21
52.938
 31
0.0
  0
LINE
  5
AA6
330
A35
100
AcDbEntity
  8
0
100
AcDbLine
 10
59.944
 20
52.975
 30
0.0
 11
59.944
 21
52.926
 31
0.0
  0
LINE
  5
AA7
330
A35
100
AcDbEntity
  8
0
100
AcDbLine
 10
54.443
 20
52.826
 30
0.0
 11
54.431
 21
52.826
 31
0.0
  0
LINE
  5
AA8
330
A35
100
AcDbEntity
  8
0
100
AcDbLine
 10
54.443
 20
52.826
 30
0.0
 11
55.653
 21
52.589
 31
0.0
  0
LINE
  5
AA9
330
A35
100
AcDbEntity
  8
0
100
AcDbLine
 10
51.807
 20
53.107
 30
0.0
 11
50.86
 21
52.291
 31
0.0
  0
LINE
  5
AAA
330
A35
100
AcDbEntity
  8
0
100
AcDbLine
 10
59.26
 20
53.075
 30
0.0
 11
59.248
 21
53.143
 31
0.0
  0
LINE
  5
AAB
330
A35
100
AcDbEntity
  8
0
100
AcDbLine
 10
55.402
 20
53.642
 30
0.0
 11
55.39
 21
53.642
 31
0.0
  0
LINE
  5
AAC
330
A35
100
AcDbEntity
  8
0
100
AcDbLine
 10
56.599
 20
53.473
 30
0.0
 11
56.611
 21
53.405
 31
0.0
  0
LINE
  5
AAD
330
A35
100
AcDbEntity
  8
0
100
AcDbLine
 10
56.599
 20
53.473
 30
0.0
 11
55.357
 21
53.71
 31
0.0
  0
LINE
  5
AAE
330
A35
100
AcDbEntity
  8
0
100
AcDbLine
 10
56.599
 20
53.473
 30
0.0
 11
59.248
 21
53.143
 31
0.0
  0
LINE
  5
AAF
330
A35
100
AcDbEntity
  8
0
100
AcDbLine
 10
56.611
 20
53.405
 30
0.0
 11
55.402
 21
53.642
 31
0.0
  0
LINE
  5
AB0
330
A35
100
AcDbEntity
  8
0
100
AcDbLine
 10
59.26
 20
53.075
 30
0.0
 11
56.611
 21
53.405
 31
0.0
  0
LINE
  5
AB1
330
A35
100
AcDbEntity
  8
0
100
AcDbLine
 10
55.39
 20
53.642
 30
0.0
 11
54.431
 21
52.826
 31
0.0
  0
LINE
  5
AB2
330
A35
100
AcDbEntity
  8
0
100
AcDbLine
 10
52.102
 20
53.063
 30
0.0
 11
51.155
 21
52.247
 31
0.0
  0
LINE
  5
AB3
330
A35
100
AcDbEntity
  8
0
100
AcDbLine
 10
55.653
 20
52.589
 30
0.0
 11
57.921
 21
51.929
 31
0.0
  0
LINE
  5
AB4
330
A35
100
AcDbEntity
  8
0
100
AcDbLine
 10
55.39
 20
53.642
 30
0.0
 11
52.102
 21
53.063
 31
0.0
  0
LINE
  5
AB5
330
A35
100
AcDbEntity
  8
0
100
AcDbLine
 10
51.155
 20
52.247
 30
0.0
 11
54.431
 21
52.826
 31
0.0
  0
LINE
  5
AB6
330
A35
100
AcDbEntity
  8
0
100
AcDbLine
 10
55.357
 20
53.71
 30
0.0
 11
52.069
 21
53.131
 31
0.0
  0
LINE
  5
AB7
330
A35
100
AcDbEntity
  8
0
100
AcDbLine
 10
58.779
 20
51.817
 30
0.0
 11
58.929
 21
51.748
 31
0.0
  0
LINE
  5
AB8
330
A35
100
AcDbEntity
  8
0
100
AcDbLine
 10
59.944
 20
52.826
 30
0.0
 11
59.956
 21
52.906
 31
0.0
  0
LINE
  5
AB9
330
A35
100
AcDbEntity
  8
0
100
AcDbLine
 10
59.28
 20
51.837
 30
0.0
 11
58.916
 21
51.748
 31
0.0
  0
LINE
  5
ABA
330
A35
100
AcDbEntity
  8
0
100
AcDbLine
 10
59.462
 20
51.998
 30
0.0
 11
59.28
 21
51.837
 31
0.0
  0
LINE
  5
ABB
330
A35
100
AcDbEntity
  8
0
100
AcDbLine
 10
59.931
 20
52.826
 30
0.0
 11
59.462
 21
51.998
 31
0.0
  0
LINE
  5
ABC
330
A35
100
AcDbEntity
  8
0
100
AcDbLine
 10
60.0
 20
52.802
 30
0.0
 11
59.944
 21
52.975
 31
0.0
  0
LINE
  5
ABD
330
A35
100
AcDbEntity
  8
0
100
AcDbLine
 10
58.767
 20
51.817
 30
0.0
 11
58.678
 21
51.817
 31
0.0
  0
LINE
  5
ABE
330
A35
100
AcDbEntity
  8
0
100
AcDbLine
 10
50.86
 20
52.291
 30
0.0
 11
51.155
 21
52.247
 31
0.0
  0
LINE
  5
ABF
330
A35
100
AcDbEntity
  8
0
100
AcDbLine
 10
58.678
 20
51.817
 30
0.0
 11
58.585
 21
51.793
 31
0.0
  0
LINE
  5
AC0
330
A35
100
AcDbEntity
  8
0
100
AcDbLine
 10
51.807
 20
53.107
 30
0.0
 11
52.102
 21
53.063
 31
0.0
  0
LINE
  5
AC1
330
A35
100
AcDbEntity
  8
0
100
AcDbLine
 10
49.983
 20
52.589
 30
0.0
 11
49.137
 21
52.677
 31
0.0
  0
LINE
  5
AC2
330
A35
100
AcDbEntity
  8
0
100
AcDbLine
 10
50.86
 20
52.291
 30
0.0
 11
49.983
 21
52.589
 31
0.0
  0
LINE
  5
AC3
330
A35
100
AcDbEntity
  8
0
100
AcDbLine
 10
51.819
 20
53.164
 30
0.0
 11
52.069
 21
53.131
 31
0.0
  0
LINE
  5
AC4
330
A35
100
AcDbEntity
  8
0
100
AcDbLine
 10
49.877
 20
53.485
 30
0.0
 11
49.445
 21
53.417
 31
0.0
  0
LINE
  5
AC5
330
A35
100
AcDbEntity
  8
0
100
AcDbLine
 10
50.824
 20
53.425
 30
0.0
 11
49.877
 21
53.485
 31
0.0
  0
LINE
  5
AC6
330
A35
100
AcDbEntity
  8
0
100
AcDbLine
 10
51.807
 20
53.107
 30
0.0
 11
50.824
 21
53.425
 31
0.0
  0
LINE
  5
AC7
330
A35
100
AcDbEntity
  8
0
100
AcDbLine
 10
50.371
 20
53.549
 30
0.0
 11
49.457
 21
53.493
 31
0.0
  0
LINE
  5
AC8
330
A35
100
AcDbEntity
  8
0
100
AcDbLine
 10
50.836
 20
53.485
 30
0.0
 11
50.371
 21
53.549
 31
0.0
  0
LINE
  5
AC9
330
A35
100
AcDbEntity
  8
0
100
AcDbLine
 10
51.819
 20
53.164
 30
0.0
 11
50.836
 21
53.485
 31
0.0
  0
LINE
  5
ACA
330
A35
100
AcDbEntity
  8
0
100
AcDbLine
 10
59.349
 20
51.825
 30
0.0
 11
58.985
 21
51.737
 31
0.0
  0
LINE
  5
ACB
330
A35
100
AcDbEntity
  8
0
100
AcDbLine
 10
59.531
 20
51.986
 30
0.0
 11
59.349
 21
51.825
 31
0.0
  0
LINE
  5
ACC
330
A35
100
AcDbEntity
  8
0
100
AcDbLine
 10
60.0
 20
52.802
 30
0.0
 11
59.531
 21
51.986
 31
0.0
  0
LINE
  5
ACD
330
A35
100
AcDbEntity
  8
0
100
AcDbLine
 10
42.76
 20
56.443
 30
0.0
 11
41.0
 21
56.443
 31
0.0
  0
LINE
  5
ACE
330
A35
100
AcDbEntity
  8
0
100
AcDbLine
 10
10.855
 20
73.261
 30
0.0
 11
10.547
 21
73.193
 31
0.0
  0
LINE
  5
ACF
330
A35
100
AcDbEntity
  8
0
100
AcDbLine
 10
12.347
 20
72.67
 30
0.0
 11
12.359
 21
72.409
 31
0.0
  0
LINE
  5
AD0
330
A35
100
AcDbEntity
  8
0
100
AcDbLine
 10
11.118
 20
72.16
 30
0.0
 11
11.037
 21
72.136
 31
0.0
  0
LINE
  5
AD1
330
A35
100
AcDbEntity
  8
0
100
AcDbLine
 10
11.263
 20
72.192
 30
0.0
 11
11.275
 21
72.16
 31
0.0
  0
LINE
  5
AD2
330
A35
100
AcDbEntity
  8
0
100
AcDbLine
 10
10.887
 20
73.273
 30
0.0
 11
10.855
 21
73.261
 31
0.0
  0
LINE
  5
AD3
330
A35
100
AcDbEntity
  8
0
100
AcDbLine
 10
11.15
 20
73.144
 30
0.0
 11
10.887
 21
73.273
 31
0.0
  0
LINE
  5
AD4
330
A35
100
AcDbEntity
  8
0
100
AcDbLine
 10
11.32
 20
72.783
 30
0.0
 11
11.15
 21
73.144
 31
0.0
  0
LINE
  5
AD5
330
A35
100
AcDbEntity
  8
0
100
AcDbLine
 10
11.32
 20
72.377
 30
0.0
 11
11.32
 21
72.783
 31
0.0
  0
LINE
  5
AD6
330
A35
100
AcDbEntity
  8
0
100
AcDbLine
 10
11.118
 20
72.16
 30
0.0
 11
11.32
 21
72.377
 31
0.0
  0
LINE
  5
AD7
330
A35
100
AcDbEntity
  8
0
100
AcDbLine
 10
10.774
 20
73.124
 30
0.0
 11
10.547
 21
73.193
 31
0.0
  0
LINE
  5
AD8
330
A35
100
AcDbEntity
  8
0
100
AcDbLine
 10
10.956
 20
72.887
 30
0.0
 11
10.774
 21
73.124
 31
0.0
  0
LINE
  5
AD9
330
A35
100
AcDbEntity
  8
0
100
AcDbLine
 10
11.037
 20
72.453
 30
0.0
 11
10.956
 21
72.887
 31
0.0
  0
LINE
  5
ADA
330
A35
100
AcDbEntity
  8
0
100
AcDbLine
 10
10.98
 20
72.248
 30
0.0
 11
11.037
 21
72.453
 31
0.0
  0
LINE
  5
ADB
330
A35
100
AcDbEntity
  8
0
100
AcDbLine
 10
12.234
 20
73.0
 30
0.0
 11
12.347
 21
72.67
 31
0.0
  0
LINE
  5
ADC
330
A35
100
AcDbEntity
  8
0
100
AcDbLine
 10
11.971
 20
73.237
 30
0.0
 11
12.234
 21
73.0
 31
0.0
  0
LINE
  5
ADD
330
A35
100
AcDbEntity
  8
0
100
AcDbLine
 10
11.583
 20
73.337
 30
0.0
 11
11.971
 21
73.237
 31
0.0
  0
LINE
  5
ADE
330
A35
100
AcDbEntity
  8
0
100
AcDbLine
 10
10.887
 20
73.273
 30
0.0
 11
11.583
 21
73.337
 31
0.0
  0
LINE
  5
ADF
330
A35
100
AcDbEntity
  8
0
100
AcDbLine
 10
11.506
 20
72.204
 30
0.0
 11
11.118
 21
72.16
 31
0.0
  0
LINE
  5
AE0
330
A35
100
AcDbEntity
  8
0
100
AcDbLine
 10
11.332
 20
71.999
 30
0.0
 11
11.251
 21
72.184
 31
0.0
  0
LINE
  5
AE1
330
A35
100
AcDbEntity
  8
0
100
AcDbLine
 10
11.619
 20
71.762
 30
0.0
 11
11.332
 21
71.999
 31
0.0
  0
LINE
  5
AE2
330
A35
100
AcDbEntity
  8
0
100
AcDbLine
 10
34.473
 20
74.632
 30
0.0
 11
34.473
 21
74.656
 31
0.0
  0
LINE
  5
AE3
330
A35
100
AcDbEntity
  8
0
100
AcDbLine
 10
34.404
 20
74.575
 30
0.0
 11
34.522
 21
74.7
 31
0.0
  0
LINE
  5
AE4
330
A35
100
AcDbEntity
  8
0
100
AcDbLine
 10
34.453
 20
74.6
 30
0.0
 11
30.595
 21
71.287
 31
0.0
  0
LINE
  5
AE5
330
A35
100
AcDbEntity
  8
0
100
AcDbLine
 10
31.622
 20
79.523
 30
0.0
 11
12.634
 21
75.13
 31
0.0
  0
LINE
  5
AE6
330
A35
100
AcDbEntity
  8
0
100
AcDbLine
 10
34.554
 20
74.849
 30
0.0
 11
34.566
 21
74.873
 31
0.0
  0
LINE
  5
AE7
330
A35
100
AcDbEntity
  8
0
100
AcDbLine
 10
34.542
 20
74.881
 30
0.0
 11
32.73
 21
78.852
 31
0.0
  0
LINE
  5
AE8
330
A35
100
AcDbEntity
  8
0
100
AcDbLine
 10
12.848
 20
72.875
 30
0.0
 11
12.804
 21
72.827
 31
0.0
  0
LINE
  5
AE9
330
A35
100
AcDbEntity
  8
0
100
AcDbLine
 10
12.848
 20
72.875
 30
0.0
 11
12.278
 21
74.121
 31
0.0
  0
LINE
  5
AEA
330
A35
100
AcDbEntity
  8
0
100
AcDbLine
 10
12.234
 20
74.089
 30
0.0
 11
12.804
 21
72.827
 31
0.0
  0
LINE
  5
AEB
330
A35
100
AcDbEntity
  8
0
100
AcDbLine
 10
12.339
 20
74.973
 30
0.0
 11
12.396
 21
75.005
 31
0.0
  0
LINE
  5
AEC
330
A35
100
AcDbEntity
  8
0
100
AcDbLine
 10
31.634
 20
75.371
 30
0.0
 11
32.41
 21
75.54
 31
0.0
  0
LINE
  5
AED
330
A35
100
AcDbEntity
  8
0
100
AcDbLine
 10
12.278
 20
74.121
 30
0.0
 11
12.234
 21
74.089
 31
0.0
  0
LINE
  5
AEE
330
A35
100
AcDbEntity
  8
0
100
AcDbLine
 10
30.388
 20
71.139
 30
0.0
 11
30.558
 21
71.263
 31
0.0
  0
LINE
  5
AEF
330
A35
100
AcDbEntity
  8
0
100
AcDbLine
 10
12.497
 20
71.866
 30
0.0
 11
10.454
 21
71.4
 31
0.0
  0
LINE
  5
AF0
330
A35
100
AcDbEntity
  8
0
100
AcDbLine
 10
10.875
 20
69.414
 30
0.0
 11
34.542
 21
74.881
 31
0.0
  0
LINE
  5
AF1
330
A35
100
AcDbEntity
  8
0
100
AcDbLine
 10
30.388
 20
71.139
 30
0.0
 11
30.364
 21
71.127
 31
0.0
  0
LINE
  5
AF2
330
A35
100
AcDbEntity
  8
0
100
AcDbLine
 10
9.395
 20
70.548
 30
0.0
 11
9.346
 21
70.504
 31
0.0
  0
LINE
  5
AF3
330
A35
100
AcDbEntity
  8
0
100
AcDbLine
 10
6.459
 20
66.339
 30
0.0
 11
6.665
 21
65.885
 31
0.0
  0
LINE
  5
AF4
330
A35
100
AcDbEntity
  8
0
100
AcDbLine
 10
9.589
 20
70.64
 30
0.0
 11
10.248
 21
70.797
 31
0.0
  0
LINE
  5
AF5
330
A35
100
AcDbEntity
  8
0
100
AcDbLine
 10
10.555
 20
69.29
 30
0.0
 11
10.592
 21
69.221
 31
0.0
  0
LINE
  5
AF6
330
A35
100
AcDbEntity
  8
0
100
AcDbLine
 10
10.511
 20
69.197
 30
0.0
 11
10.479
 21
69.278
 31
0.0
  0
LINE
  5
AF7
330
A35
100
AcDbEntity
  8
0
100
AcDbLine
 10
10.147
 20
69.266
 30
0.0
 11
10.806
 21
69.414
 31
0.0
  0
LINE
  5
AF8
330
A35
100
AcDbEntity
  8
0
100
AcDbLine
 10
10.855
 20
69.458
 30
0.0
 11
10.204
 21
69.31
 31
0.0
  0
LINE
  5
AF9
330
A35
100
AcDbEntity
  8
0
100
AcDbLine
 10
10.681
 20
69.097
 30
0.0
 11
10.681
 21
69.185
 31
0.0
  0
LINE
  5
AFA
330
A35
100
AcDbEntity
  8
0
100
AcDbLine
 10
10.717
 20
69.109
 30
0.0
 11
10.867
 21
69.233
 31
0.0
  0
LINE
  5
AFB
330
A35
100
AcDbEntity
  8
0
100
AcDbLine
 10
10.681
 20
69.185
 30
0.0
 11
10.648
 21
69.185
 31
0.0
  0
LINE
  5
AFC
330
A35
100
AcDbEntity
  8
0
100
AcDbLine
 10
10.875
 20
69.414
 30
0.0
 11
10.83
 21
69.378
 31
0.0
  0
LINE
  5
AFD
330
A35
100
AcDbEntity
  8
0
100
AcDbLine
 10
10.818
 20
69.31
 30
0.0
 11
10.681
 21
69.185
 31
0.0
  0
LINE
  5
AFE
330
A35
100
AcDbEntity
  8
0
100
AcDbLine
 10
10.204
 20
69.31
 30
0.0
 11
10.147
 21
69.266
 31
0.0
  0
LINE
  5
AFF
330
A35
100
AcDbEntity
  8
0
100
AcDbLine
 10
10.511
 20
69.197
 30
0.0
 11
6.665
 21
65.885
 31
0.0
  0
LINE
  5
B00
330
A35
100
AcDbEntity
  8
0
100
AcDbLine
 10
6.495
 20
66.838
 30
0.0
 11
8.901
 21
68.916
 31
0.0
  0
LINE
  5
B01
330
A35
100
AcDbEntity
  8
0
100
AcDbLine
 10
6.871
 20
65.793
 30
0.0
 11
6.827
 21
65.781
 31
0.0
  0
LINE
  5
B02
330
A35
100
AcDbEntity
  8
0
100
AcDbLine
 10
6.871
 20
65.793
 30
0.0
 11
6.721
 21
65.668
 31
0.0
  0
LINE
  5
B03
330
A35
100
AcDbEntity
  8
0
100
AcDbLine
 10
6.677
 20
65.749
 30
0.0
 11
6.746
 21
65.793
 31
0.0
  0
LINE
  5
B04
330
A35
100
AcDbEntity
  8
0
100
AcDbLine
 10
6.734
 20
65.793
 30
0.0
 11
6.645
 21
65.773
 31
0.0
  0
LINE
  5
B05
330
A35
100
AcDbEntity
  8
0
100
AcDbLine
 10
6.596
 20
65.724
 30
0.0
 11
6.552
 21
65.829
 31
0.0
  0
LINE
  5
B06
330
A35
100
AcDbEntity
  8
0
100
AcDbLine
 10
6.608
 20
65.841
 30
0.0
 11
6.645
 21
65.773
 31
0.0
  0
LINE
  5
B07
330
A35
100
AcDbEntity
  8
0
100
AcDbLine
 10
6.701
 20
65.656
 30
0.0
 11
6.721
 21
65.668
 31
0.0
  0
LINE
  5
B08
330
A35
100
AcDbEntity
  8
0
100
AcDbLine
 10
6.701
 20
65.656
 30
0.0
 11
30.364
 21
71.127
 31
0.0
  0
LINE
  5
B09
330
A35
100
AcDbEntity
  8
0
100
AcDbLine
 10
34.453
 20
74.6
 30
0.0
 11
34.473
 21
74.632
 31
0.0
  0
LINE
  5
B0A
330
A35
100
AcDbEntity
  8
0
100
AcDbLine
 10
34.417
 20
74.587
 30
0.0
 11
34.453
 21
74.612
 31
0.0
  0
LINE
  5
B0B
330
A35
100
AcDbEntity
  8
0
100
AcDbLine
 10
12.509
 20
71.874
 30
0.0
 11
12.747
 21
71.991
 31
0.0
  0
LINE
  5
B0C
330
A35
100
AcDbEntity
  8
0
100
AcDbLine
 10
12.634
 20
75.13
 30
0.0
 11
12.396
 21
75.018
 31
0.0
  0
LINE
  5
B0D
330
A35
100
AcDbEntity
  8
0
100
AcDbLine
 10
30.57
 20
71.275
 30
0.0
 11
30.607
 21
71.296
 31
0.0
  0
LINE
  5
B0E
330
A35
100
AcDbEntity
  8
0
100
AcDbLine
 10
10.454
 20
71.4
 30
0.0
 11
10.41
 21
71.388
 31
0.0
  0
LINE
  5
B0F
330
A35
100
AcDbEntity
  8
0
100
AcDbLine
 10
9.589
 20
70.648
 30
0.0
 11
9.395
 21
70.548
 31
0.0
  0
LINE
  5
B10
330
A35
100
AcDbEntity
  8
0
100
AcDbLine
 10
34.542
 20
74.881
 30
0.0
 11
34.522
 21
74.7
 31
0.0
  0
LINE
  5
B11
330
A35
100
AcDbEntity
  8
0
100
AcDbLine
 10
32.249
 20
79.387
 30
0.0
 11
32.73
 21
78.852
 31
0.0
  0
LINE
  5
B12
330
A35
100
AcDbEntity
  8
0
100
AcDbLine
 10
31.622
 20
79.523
 30
0.0
 11
32.249
 21
79.387
 31
0.0
  0
LINE
  5
B13
330
A35
100
AcDbEntity
  8
0
100
AcDbLine
 10
12.897
 20
72.353
 30
0.0
 11
12.723
 21
71.967
 31
0.0
  0
LINE
  5
B14
330
A35
100
AcDbEntity
  8
0
100
AcDbLine
 10
12.804
 20
72.827
 30
0.0
 11
12.897
 21
72.353
 31
0.0
  0
LINE
  5
B15
330
A35
100
AcDbEntity
  8
0
100
AcDbLine
 10
12.941
 20
72.377
 30
0.0
 11
12.747
 21
71.991
 31
0.0
  0
LINE
  5
B16
330
A35
100
AcDbEntity
  8
0
100
AcDbLine
 10
12.848
 20
72.875
 30
0.0
 11
12.941
 21
72.377
 31
0.0
  0
LINE
  5
B17
330
A35
100
AcDbEntity
  8
0
100
AcDbLine
 10
32.156
 20
75.825
 30
0.0
 11
32.41
 21
75.54
 31
0.0
  0
LINE
  5
B18
330
A35
100
AcDbEntity
  8
0
100
AcDbLine
 10
31.836
 20
75.902
 30
0.0
 11
32.156
 21
75.825
 31
0.0
  0
LINE
  5
B19
330
A35
100
AcDbEntity
  8
0
100
AcDbLine
 10
31.61
 20
75.733
 30
0.0
 11
31.836
 21
75.902
 31
0.0
  0
LINE
  5
B1A
330
A35
100
AcDbEntity
  8
0
100
AcDbLine
 10
31.634
 20
75.371
 30
0.0
 11
31.61
 21
75.733
 31
0.0
  0
LINE
  5
B1B
330
A35
100
AcDbEntity
  8
0
100
AcDbLine
 10
12.145
 20
74.587
 30
0.0
 11
12.234
 21
74.089
 31
0.0
  0
LINE
  5
B1C
330
A35
100
AcDbEntity
  8
0
100
AcDbLine
 10
12.339
 20
74.973
 30
0.0
 11
12.145
 21
74.587
 31
0.0
  0
LINE
  5
B1D
330
A35
100
AcDbEntity
  8
0
100
AcDbLine
 10
12.189
 20
74.62
 30
0.0
 11
12.278
 21
74.121
 31
0.0
  0
LINE
  5
B1E
330
A35
100
AcDbEntity
  8
0
100
AcDbLine
 10
12.396
 20
75.005
 30
0.0
 11
12.189
 21
74.62
 31
0.0
  0
LINE
  5
B1F
330
A35
100
AcDbEntity
  8
0
100
AcDbLine
 10
6.414
 20
66.713
 30
0.0
 11
6.495
 21
66.838
 31
0.0
  0
LINE
  5
B20
330
A35
100
AcDbEntity
  8
0
100
AcDbLine
 10
6.459
 20
66.339
 30
0.0
 11
6.414
 21
66.713
 31
0.0
  0
LINE
  5
B21
330
A35
100
AcDbEntity
  8
0
100
AcDbLine
 10
10.192
 20
70.97
 30
0.0
 11
10.26
 21
71.275
 31
0.0
  0
LINE
  5
B22
330
A35
100
AcDbEntity
  8
0
100
AcDbLine
 10
10.248
 20
70.797
 30
0.0
 11
10.192
 21
70.97
 31
0.0
  0
LINE
  5
B23
330
A35
100
AcDbEntity
  8
0
100
AcDbLine
 10
10.147
 20
70.97
 30
0.0
 11
10.248
 21
71.263
 31
0.0
  0
LINE
  5
B24
330
A35
100
AcDbEntity
  8
0
100
AcDbLine
 10
10.192
 20
70.785
 30
0.0
 11
10.147
 21
70.97
 31
0.0
  0
LINE
  5
B25
330
A35
100
AcDbEntity
  8
0
100
AcDbLine
 10
10.592
 20
69.221
 30
0.0
 11
10.648
 21
69.185
 31
0.0
  0
LINE
  5
B26
330
A35
100
AcDbEntity
  8
0
100
AcDbLine
 10
10.681
 20
69.097
 30
0.0
 11
10.511
 21
69.197
 31
0.0
  0
LINE
  5
B27
330
A35
100
AcDbEntity
  8
0
100
AcDbLine
 10
10.83
 20
69.378
 30
0.0
 11
10.818
 21
69.31
 31
0.0
  0
LINE
  5
B28
330
A35
100
AcDbEntity
  8
0
100
AcDbLine
 10
10.875
 20
69.414
 30
0.0
 11
10.867
 21
69.233
 31
0.0
  0
LINE
  5
B29
330
A35
100
AcDbEntity
  8
0
100
AcDbLine
 10
9.714
 20
69.334
 30
0.0
 11
10.147
 21
69.266
 31
0.0
  0
LINE
  5
B2A
330
A35
100
AcDbEntity
  8
0
100
AcDbLine
 10
9.326
 20
69.676
 30
0.0
 11
9.714
 21
69.334
 31
0.0
  0
LINE
  5
B2B
330
A35
100
AcDbEntity
  8
0
100
AcDbLine
 10
9.188
 20
70.138
 30
0.0
 11
9.326
 21
69.676
 31
0.0
  0
LINE
  5
B2C
330
A35
100
AcDbEntity
  8
0
100
AcDbLine
 10
9.346
 20
70.504
 30
0.0
 11
9.188
 21
70.138
 31
0.0
  0
LINE
  5
B2D
330
A35
100
AcDbEntity
  8
0
100
AcDbLine
 10
9.759
 20
69.366
 30
0.0
 11
10.204
 21
69.31
 31
0.0
  0
LINE
  5
B2E
330
A35
100
AcDbEntity
  8
0
100
AcDbLine
 10
9.382
 20
69.72
 30
0.0
 11
9.759
 21
69.366
 31
0.0
  0
LINE
  5
B2F
330
A35
100
AcDbEntity
  8
0
100
AcDbLine
 10
9.233
 20
70.174
 30
0.0
 11
9.382
 21
69.72
 31
0.0
  0
LINE
  5
B30
330
A35
100
AcDbEntity
  8
0
100
AcDbLine
 10
9.395
 20
70.548
 30
0.0
 11
9.233
 21
70.174
 31
0.0
  0
LINE
  5
B31
330
A35
100
AcDbEntity
  8
0
100
AcDbLine
 10
6.827
 20
65.781
 30
0.0
 11
6.665
 21
65.885
 31
0.0
  0
LINE
  5
B32
330
A35
100
AcDbEntity
  8
0
100
AcDbLine
 10
6.701
 20
65.656
 30
0.0
 11
6.596
 21
65.724
 31
0.0
  0
LINE
  5
B33
330
A35
100
AcDbEntity
  8
0
100
AcDbLine
 10
6.677
 20
65.749
 30
0.0
 11
6.645
 21
65.773
 31
0.0
  0
LINE
  5
B34
330
A35
100
AcDbEntity
  8
0
100
AcDbLine
 10
8.457
 20
73.35
 30
0.0
 11
8.501
 21
73.281
 31
0.0
  0
LINE
  5
B35
330
A35
100
AcDbEntity
  8
0
100
AcDbLine
 10
8.457
 20
73.35
 30
0.0
 11
8.311
 21
73.317
 31
0.0
  0
LINE
  5
B36
330
A35
100
AcDbEntity
  8
0
100
AcDbLine
 10
8.343
 20
73.261
 30
0.0
 11
8.457
 21
73.35
 31
0.0
  0
LINE
  5
B37
330
A35
100
AcDbEntity
  8
0
100
AcDbLine
 10
8.105
 20
73.398
 30
0.0
 11
7.967
 21
73.281
 31
0.0
  0
LINE
  5
B38
330
A35
100
AcDbEntity
  8
0
100
AcDbLine
 10
8.525
 20
73.088
 30
0.0
 11
8.582
 21
72.964
 31
0.0
  0
LINE
  5
B39
330
A35
100
AcDbEntity
  8
0
100
AcDbLine
 10
8.675
 20
73.032
 30
0.0
 11
8.687
 21
73.044
 31
0.0
  0
LINE
  5
B3A
330
A35
100
AcDbEntity
  8
0
100
AcDbLine
 10
8.355
 20
73.249
 30
0.0
 11
8.311
 21
73.317
 31
0.0
  0
LINE
  5
B3B
330
A35
100
AcDbEntity
  8
0
100
AcDbLine
 10
8.618
 20
73.213
 30
0.0
 11
8.675
 21
73.213
 31
0.0
  0
LINE
  5
B3C
330
A35
100
AcDbEntity
  8
0
100
AcDbLine
 10
8.687
 20
73.044
 30
0.0
 11
8.756
 21
73.056
 31
0.0
  0
LINE
  5
B3D
330
A35
100
AcDbEntity
  8
0
100
AcDbLine
 10
8.675
 20
73.213
 30
0.0
 11
8.525
 21
73.088
 31
0.0
  0
LINE
  5
B3E
330
A35
100
AcDbEntity
  8
0
100
AcDbLine
 10
8.457
 20
73.08
 30
0.0
 11
8.618
 21
73.213
 31
0.0
  0
LINE
  5
B3F
330
A35
100
AcDbEntity
  8
0
100
AcDbLine
 10
8.675
 20
73.032
 30
0.0
 11
8.513
 21
72.895
 31
0.0
  0
LINE
  5
B40
330
A35
100
AcDbEntity
  8
0
100
AcDbLine
 10
8.457
 20
73.08
 30
0.0
 11
8.525
 21
73.088
 31
0.0
  0
LINE
  5
B41
330
A35
100
AcDbEntity
  8
0
100
AcDbLine
 10
8.355
 20
73.157
 30
0.0
 11
8.319
 21
73.144
 31
0.0
  0
LINE
  5
B42
330
A35
100
AcDbEntity
  8
0
100
AcDbLine
 10
8.343
 20
73.144
 30
0.0
 11
8.501
 21
73.281
 31
0.0
  0
LINE
  5
B43
330
A35
100
AcDbEntity
  8
0
100
AcDbLine
 10
8.355
 20
73.157
 30
0.0
 11
8.25
 21
73.08
 31
0.0
  0
LINE
  5
B44
330
A35
100
AcDbEntity
  8
0
100
AcDbLine
 10
8.687
 20
72.851
 30
0.0
 11
8.651
 21
72.943
 31
0.0
  0
LINE
  5
B45
330
A35
100
AcDbEntity
  8
0
100
AcDbLine
 10
8.538
 20
72.819
 30
0.0
 11
8.687
 21
72.851
 31
0.0
  0
LINE
  5
B46
330
A35
100
AcDbEntity
  8
0
100
AcDbLine
 10
8.513
 20
72.907
 30
0.0
 11
8.538
 21
72.819
 31
0.0
  0
LINE
  5
B47
330
A35
100
AcDbEntity
  8
0
100
AcDbLine
 10
8.756
 20
73.056
 30
0.0
 11
8.675
 21
73.225
 31
0.0
  0
LINE
  5
B48
330
A35
100
AcDbEntity
  8
0
100
AcDbLine
 10
8.311
 20
72.951
 30
0.0
 11
8.23
 21
73.124
 31
0.0
  0
LINE
  5
B49
330
A35
100
AcDbEntity
  8
0
100
AcDbLine
 10
8.72
 20
73.281
 30
0.0
 11
8.857
 21
72.851
 31
0.0
  0
LINE
  5
B4A
330
A35
100
AcDbEntity
  8
0
100
AcDbLine
 10
8.331
 20
73.474
 30
0.0
 11
8.72
 21
73.281
 31
0.0
  0
LINE
  5
B4B
330
A35
100
AcDbEntity
  8
0
100
AcDbLine
 10
8.105
 20
73.398
 30
0.0
 11
8.161
 21
73.442
 31
0.0
  0
LINE
  5
B4C
330
A35
100
AcDbEntity
  8
0
100
AcDbLine
 10
7.991
 20
73.112
 30
0.0
 11
8.206
 21
72.714
 31
0.0
  0
LINE
  5
B4D
330
A35
100
AcDbEntity
  8
0
100
AcDbLine
 10
8.105
 20
73.398
 30
0.0
 11
7.991
 21
73.112
 31
0.0
  0
LINE
  5
B4E
330
A35
100
AcDbEntity
  8
0
100
AcDbLine
 10
8.651
 20
72.943
 30
0.0
 11
8.675
 21
73.032
 31
0.0
  0
LINE
  5
B4F
330
A35
100
AcDbEntity
  8
0
100
AcDbLine
 10
8.618
 20
73.213
 30
0.0
 11
8.501
 21
73.281
 31
0.0
  0
LINE
  5
B50
330
A35
100
AcDbEntity
  8
0
100
AcDbLine
 10
8.343
 20
73.144
 30
0.0
 11
8.457
 21
73.08
 31
0.0
  0
LINE
  5
B51
330
A35
100
AcDbEntity
  8
0
100
AcDbLine
 10
7.911
 20
72.819
 30
0.0
 11
8.012
 21
72.67
 31
0.0
  0
LINE
  5
B52
330
A35
100
AcDbEntity
  8
0
100
AcDbLine
 10
8.242
 20
73.112
 30
0.0
 11
8.319
 21
73.144
 31
0.0
  0
LINE
  5
B53
330
A35
100
AcDbEntity
  8
0
100
AcDbLine
 10
8.4
 20
72.976
 30
0.0
 11
8.311
 21
72.951
 31
0.0
  0
LINE
  5
B54
330
A35
100
AcDbEntity
  8
0
100
AcDbLine
 10
8.4
 20
72.976
 30
0.0
 11
8.513
 21
72.907
 31
0.0
  0
LINE
  5
B55
330
A35
100
AcDbEntity
  8
0
100
AcDbLine
 10
8.355
 20
73.249
 30
0.0
 11
8.355
 21
73.157
 31
0.0
  0
LINE
  5
B56
330
A35
100
AcDbEntity
  8
0
100
AcDbLine
 10
7.862
 20
73.0
 30
0.0
 11
7.911
 21
72.819
 31
0.0
  0
LINE
  5
B57
330
A35
100
AcDbEntity
  8
0
100
AcDbLine
 10
7.967
 20
73.281
 30
0.0
 11
7.862
 21
73.0
 31
0.0
  0
LINE
  5
B58
330
A35
100
AcDbEntity
  8
0
100
AcDbLine
 10
7.692
 20
74.214
 30
0.0
 11
7.522
 21
74.169
 31
0.0
  0
LINE
  5
B59
330
A35
100
AcDbEntity
  8
0
100
AcDbLine
 10
7.591
 20
74.121
 30
0.0
 11
7.692
 21
74.214
 31
0.0
  0
LINE
  5
B5A
330
A35
100
AcDbEntity
  8
0
100
AcDbLine
 10
7.591
 20
74.121
 30
0.0
 11
7.555
 21
74.109
 31
0.0
  0
LINE
  5
B5B
330
A35
100
AcDbEntity
  8
0
100
AcDbLine
 10
7.591
 20
74.121
 30
0.0
 11
7.66
 21
73.976
 31
0.0
  0
LINE
  5
B5C
330
A35
100
AcDbEntity
  8
0
100
AcDbLine
 10
7.591
 20
74.021
 30
0.0
 11
7.522
 21
74.169
 31
0.0
  0
LINE
  5
B5D
330
A35
100
AcDbEntity
  8
0
100
AcDbLine
 10
7.134
 20
74.575
 30
0.0
 11
6.839
 21
74.314
 31
0.0
  0
LINE
  5
B5E
330
A35
100
AcDbEntity
  8
0
100
AcDbLine
 10
7.203
 20
74.407
 30
0.0
 11
7.134
 21
74.575
 31
0.0
  0
LINE
  5
B5F
330
A35
100
AcDbEntity
  8
0
100
AcDbLine
 10
6.734
 20
74.234
 30
0.0
 11
9.577
 21
74.837
 31
0.0
  0
LINE
  5
B60
330
A35
100
AcDbEntity
  8
0
100
AcDbLine
 10
7.158
 20
73.317
 30
0.0
 11
6.734
 21
74.234
 31
0.0
  0
LINE
  5
B61
330
A35
100
AcDbEntity
  8
0
100
AcDbLine
 10
9.998
 20
73.916
 30
0.0
 11
7.158
 21
73.317
 31
0.0
  0
LINE
  5
B62
330
A35
100
AcDbEntity
  8
0
100
AcDbLine
 10
6.584
 20
74.109
 30
0.0
 11
6.996
 21
73.193
 31
0.0
  0
LINE
  5
B63
330
A35
100
AcDbEntity
  8
0
100
AcDbLine
 10
6.584
 20
74.109
 30
0.0
 11
6.734
 21
74.234
 31
0.0
  0
LINE
  5
B64
330
A35
100
AcDbEntity
  8
0
100
AcDbLine
 10
7.203
 20
74.407
 30
0.0
 11
5.743
 21
74.065
 31
0.0
  0
LINE
  5
B65
330
A35
100
AcDbEntity
  8
0
100
AcDbLine
 10
5.82
 20
73.896
 30
0.0
 11
6.596
 21
74.077
 31
0.0
  0
LINE
  5
B66
330
A35
100
AcDbEntity
  8
0
100
AcDbLine
 10
6.653
 20
73.952
 30
0.0
 11
5.549
 21
73.659
 31
0.0
  0
LINE
  5
B67
330
A35
100
AcDbEntity
  8
0
100
AcDbLine
 10
7.134
 20
74.575
 30
0.0
 11
9.654
 21
75.154
 31
0.0
  0
LINE
  5
B68
330
A35
100
AcDbEntity
  8
0
100
AcDbLine
 10
9.714
 20
73.679
 30
0.0
 11
9.973
 21
73.088
 31
0.0
  0
LINE
  5
B69
330
A35
100
AcDbEntity
  8
0
100
AcDbLine
 10
10.103
 20
73.124
 30
0.0
 11
9.803
 21
73.76
 31
0.0
  0
LINE
  5
B6A
330
A35
100
AcDbEntity
  8
0
100
AcDbLine
 10
11.174
 20
71.806
 30
0.0
 11
8.651
 21
71.227
 31
0.0
  0
LINE
  5
B6B
330
A35
100
AcDbEntity
  8
0
100
AcDbLine
 10
8.95
 20
73.474
 30
0.0
 11
8.889
 21
73.591
 31
0.0
  0
LINE
  5
B6C
330
A35
100
AcDbEntity
  8
0
100
AcDbLine
 10
8.319
 20
74.178
 30
0.0
 11
8.218
 21
74.089
 31
0.0
  0
LINE
  5
B6D
330
A35
100
AcDbEntity
  8
0
100
AcDbLine
 10
8.319
 20
74.178
 30
0.0
 11
8.412
 21
73.976
 31
0.0
  0
LINE
  5
B6E
330
A35
100
AcDbEntity
  8
0
100
AcDbLine
 10
7.761
 20
74.053
 30
0.0
 11
7.692
 21
74.214
 31
0.0
  0
LINE
  5
B6F
330
A35
100
AcDbEntity
  8
0
100
AcDbLine
 10
7.761
 20
74.053
 30
0.0
 11
8.319
 21
74.178
 31
0.0
  0
LINE
  5
B70
330
A35
100
AcDbEntity
  8
0
100
AcDbLine
 10
9.998
 20
73.916
 30
0.0
 11
9.577
 21
74.837
 31
0.0
  0
LINE
  5
B71
330
A35
100
AcDbEntity
  8
0
100
AcDbLine
 10
9.714
 20
73.679
 30
0.0
 11
9.998
 21
73.916
 31
0.0
  0
LINE
  5
B72
330
A35
100
AcDbEntity
  8
0
100
AcDbLine
 10
8.95
 20
73.474
 30
0.0
 11
9.714
 21
73.679
 31
0.0
  0
LINE
  5
B73
330
A35
100
AcDbEntity
  8
0
100
AcDbLine
 10
10.83
 20
71.512
 30
0.0
 11
8.938
 21
71.082
 31
0.0
  0
LINE
  5
B74
330
A35
100
AcDbEntity
  8
0
100
AcDbLine
 10
10.285
 20
71.275
 30
0.0
 11
10.466
 21
71.432
 31
0.0
  0
LINE
  5
B75
330
A35
100
AcDbEntity
  8
0
100
AcDbLine
 10
10.341
 20
73.169
 30
0.0
 11
7.498
 21
72.558
 31
0.0
  0
LINE
  5
B76
330
A35
100
AcDbEntity
  8
0
100
AcDbLine
 10
10.762
 20
72.248
 30
0.0
 11
10.341
 21
73.169
 31
0.0
  0
LINE
  5
B77
330
A35
100
AcDbEntity
  8
0
100
AcDbLine
 10
8.424
 20
72.308
 30
0.0
 11
8.982
 21
72.421
 31
0.0
  0
LINE
  5
B78
330
A35
100
AcDbEntity
  8
0
100
AcDbLine
 10
9.083
 20
72.509
 30
0.0
 11
8.525
 21
72.385
 31
0.0
  0
LINE
  5
B79
330
A35
100
AcDbEntity
  8
0
100
AcDbLine
 10
9.083
 20
72.509
 30
0.0
 11
9.176
 21
72.308
 31
0.0
  0
LINE
  5
B7A
330
A35
100
AcDbEntity
  8
0
100
AcDbLine
 10
8.982
 20
72.421
 30
0.0
 11
9.083
 21
72.509
 31
0.0
  0
LINE
  5
B7B
330
A35
100
AcDbEntity
  8
0
100
AcDbLine
 10
9.051
 20
72.272
 30
0.0
 11
8.982
 21
72.421
 31
0.0
  0
LINE
  5
B7C
330
A35
100
AcDbEntity
  8
0
100
AcDbLine
 10
9.654
 20
71.922
 30
0.0
 11
9.69
 21
71.842
 31
0.0
  0
LINE
  5
B7D
330
A35
100
AcDbEntity
  8
0
100
AcDbLine
 10
10.499
 20
72.023
 30
0.0
 11
10.592
 21
72.047
 31
0.0
  0
LINE
  5
B7E
330
A35
100
AcDbEntity
  8
0
100
AcDbLine
 10
10.567
 20
72.091
 30
0.0
 11
10.762
 21
72.248
 31
0.0
  0
LINE
  5
B7F
330
A35
100
AcDbEntity
  8
0
100
AcDbLine
 10
9.909
 20
71.979
 30
0.0
 11
9.771
 21
71.854
 31
0.0
  0
LINE
  5
B80
330
A35
100
AcDbEntity
  8
0
100
AcDbLine
 10
9.176
 20
72.308
 30
0.0
 11
8.618
 21
72.184
 31
0.0
  0
LINE
  5
B81
330
A35
100
AcDbEntity
  8
0
100
AcDbLine
 10
10.83
 20
71.512
 30
0.0
 11
11.174
 21
71.806
 31
0.0
  0
LINE
  5
B82
330
A35
100
AcDbEntity
  8
0
100
AcDbLine
 10
9.909
 20
71.979
 30
0.0
 11
7.761
 21
71.512
 31
0.0
  0
LINE
  5
B83
330
A35
100
AcDbEntity
  8
0
100
AcDbLine
 10
8.821
 20
71.637
 30
0.0
 11
10.592
 21
72.047
 31
0.0
  0
LINE
  5
B84
330
A35
100
AcDbEntity
  8
0
100
AcDbLine
 10
10.762
 20
72.248
 30
0.0
 11
7.911
 21
71.637
 31
0.0
  0
LINE
  5
B85
330
A35
100
AcDbEntity
  8
0
100
AcDbLine
 10
8.821
 20
71.637
 30
0.0
 11
7.041
 21
71.227
 31
0.0
  0
LINE
  5
B86
330
A35
100
AcDbEntity
  8
0
100
AcDbLine
 10
11.174
 20
71.806
 30
0.0
 11
9.654
 21
75.154
 31
0.0
  0
LINE
  5
B87
330
A35
100
AcDbEntity
  8
0
100
AcDbLine
 10
9.14
 20
73.647
 30
0.0
 11
8.95
 21
73.474
 31
0.0
  0
LINE
  5
B88
330
A35
100
AcDbEntity
  8
0
100
AcDbLine
 10
9.14
 20
73.647
 30
0.0
 11
6.996
 21
73.193
 31
0.0
  0
LINE
  5
B89
330
A35
100
AcDbEntity
  8
0
100
AcDbLine
 10
8.938
 20
71.082
 30
0.0
 11
7.999
 21
70.275
 31
0.0
  0
LINE
  5
B8A
330
A35
100
AcDbEntity
  8
0
100
AcDbLine
 10
9.382
 20
70.97
 30
0.0
 11
9.552
 21
71.103
 31
0.0
  0
LINE
  5
B8B
330
A35
100
AcDbEntity
  8
0
100
AcDbLine
 10
8.881
 20
70.841
 30
0.0
 11
9.382
 21
70.97
 31
0.0
  0
LINE
  5
B8C
330
A35
100
AcDbEntity
  8
0
100
AcDbLine
 10
9.039
 20
70.99
 30
0.0
 11
8.582
 21
70.592
 31
0.0
  0
LINE
  5
B8D
330
A35
100
AcDbEntity
  8
0
100
AcDbLine
 10
9.039
 20
70.99
 30
0.0
 11
10.285
 21
71.275
 31
0.0
  0
LINE
  5
B8E
330
A35
100
AcDbEntity
  8
0
100
AcDbLine
 10
4.396
 20
73.136
 30
0.0
 11
4.59
 21
72.714
 31
0.0
  0
LINE
  5
B8F
330
A35
100
AcDbEntity
  8
0
100
AcDbLine
 10
4.817
 20
73.498
 30
0.0
 11
4.396
 21
73.136
 31
0.0
  0
LINE
  5
B90
330
A35
100
AcDbEntity
  8
0
100
AcDbLine
 10
5.913
 20
69.8
 30
0.0
 11
5.731
 21
70.206
 31
0.0
  0
LINE
  5
B91
330
A35
100
AcDbEntity
  8
0
100
AcDbLine
 10
6.333
 20
70.15
 30
0.0
 11
5.913
 21
69.8
 31
0.0
  0
LINE
  5
B92
330
A35
100
AcDbEntity
  8
0
100
AcDbLine
 10
6.257
 20
70.323
 30
0.0
 11
6.333
 21
70.15
 31
0.0
  0
LINE
  5
B93
330
A35
100
AcDbEntity
  8
0
100
AcDbLine
 10
5.913
 20
69.8
 30
0.0
 11
7.999
 21
70.275
 31
0.0
  0
LINE
  5
B94
330
A35
100
AcDbEntity
  8
0
100
AcDbLine
 10
8.105
 20
70.753
 30
0.0
 11
6.333
 21
70.15
 31
0.0
  0
LINE
  5
B95
330
A35
100
AcDbEntity
  8
0
100
AcDbLine
 10
4.485
 20
72.634
 30
0.0
 11
4.59
 21
72.714
 31
0.0
  0
LINE
  5
B96
330
A35
100
AcDbEntity
  8
0
100
AcDbLine
 10
5.625
 20
70.13
 30
0.0
 11
5.755
 21
70.162
 31
0.0
  0
LINE
  5
B97
330
A35
100
AcDbEntity
  8
0
100
AcDbLine
 10
4.485
 20
72.634
 30
0.0
 11
5.625
 21
70.13
 31
0.0
  0
LINE
  5
B98
330
A35
100
AcDbEntity
  8
0
100
AcDbLine
 10
5.731
 20
70.206
 30
0.0
 11
5.625
 21
70.13
 31
0.0
  0
LINE
  5
B99
330
A35
100
AcDbEntity
  8
0
100
AcDbLine
 10
8.105
 20
70.753
 30
0.0
 11
8.651
 21
71.227
 31
0.0
  0
LINE
  5
B9A
330
A35
100
AcDbEntity
  8
0
100
AcDbLine
 10
5.444
 20
71.854
 30
0.0
 11
4.841
 21
73.169
 31
0.0
  0
LINE
  5
B9B
330
A35
100
AcDbEntity
  8
0
100
AcDbLine
 10
6.713
 20
70.821
 30
0.0
 11
6.139
 21
70.331
 31
0.0
  0
LINE
  5
B9C
330
A35
100
AcDbEntity
  8
0
100
AcDbLine
 10
6.107
 20
72.148
 30
0.0
 11
6.713
 21
70.821
 31
0.0
  0
LINE
  5
B9D
330
A35
100
AcDbEntity
  8
0
100
AcDbLine
 10
6.257
 20
70.323
 30
0.0
 11
7.11
 21
71.058
 31
0.0
  0
LINE
  5
B9E
330
A35
100
AcDbEntity
  8
0
100
AcDbLine
 10
6.139
 20
70.331
 30
0.0
 11
5.537
 21
71.649
 31
0.0
  0
LINE
  5
B9F
330
A35
100
AcDbEntity
  8
0
100
AcDbLine
 10
4.841
 20
73.169
 30
0.0
 11
5.411
 21
73.667
 31
0.0
  0
LINE
  5
BA0
330
A35
100
AcDbEntity
  8
0
100
AcDbLine
 10
5.561
 20
73.337
 30
0.0
 11
4.841
 21
73.169
 31
0.0
  0
LINE
  5
BA1
330
A35
100
AcDbEntity
  8
0
100
AcDbLine
 10
4.817
 20
73.498
 30
0.0
 11
5.262
 21
73.647
 31
0.0
  0
LINE
  5
BA2
330
A35
100
AcDbEntity
  8
0
100
AcDbLine
 10
4.886
 20
73.329
 30
0.0
 11
5.743
 21
74.065
 31
0.0
  0
LINE
  5
BA3
330
A35
100
AcDbEntity
  8
0
100
AcDbLine
 10
4.817
 20
73.498
 30
0.0
 11
4.886
 21
73.329
 31
0.0
  0
LINE
  5
BA4
330
A35
100
AcDbEntity
  8
0
100
AcDbLine
 10
8.024
 20
70.922
 30
0.0
 11
8.105
 21
70.753
 31
0.0
  0
LINE
  5
BA5
330
A35
100
AcDbEntity
  8
0
100
AcDbLine
 10
8.299
 20
70.524
 30
0.0
 11
8.582
 21
70.592
 31
0.0
  0
LINE
  5
BA6
330
A35
100
AcDbEntity
  8
0
100
AcDbLine
 10
8.218
 20
74.089
 30
0.0
 11
7.66
 21
73.976
 31
0.0
  0
LINE
  5
BA7
330
A35
100
AcDbEntity
  8
0
100
AcDbLine
 10
8.287
 20
73.952
 30
0.0
 11
8.218
 21
74.089
 31
0.0
  0
LINE
  5
BA8
330
A35
100
AcDbEntity
  8
0
100
AcDbLine
 10
5.82
 20
73.896
 30
0.0
 11
5.743
 21
74.065
 31
0.0
  0
LINE
  5
BA9
330
A35
100
AcDbEntity
  8
0
100
AcDbLine
 10
7.466
 20
73.997
 30
0.0
 11
7.591
 21
74.021
 31
0.0
  0
LINE
  5
BAA
330
A35
100
AcDbEntity
  8
0
100
AcDbLine
 10
7.466
 20
73.997
 30
0.0
 11
7.555
 21
73.792
 31
0.0
  0
LINE
  5
BAB
330
A35
100
AcDbEntity
  8
0
100
AcDbLine
 10
7.498
 20
73.94
 30
0.0
 11
7.591
 21
74.021
 31
0.0
  0
LINE
  5
BAC
330
A35
100
AcDbEntity
  8
0
100
AcDbLine
 10
7.68
 20
73.816
 30
0.0
 11
7.749
 21
73.667
 31
0.0
  0
LINE
  5
BAD
330
A35
100
AcDbEntity
  8
0
100
AcDbLine
 10
7.923
 20
73.703
 30
0.0
 11
7.854
 21
73.86
 31
0.0
  0
LINE
  5
BAE
330
A35
100
AcDbEntity
  8
0
100
AcDbLine
 10
5.82
 20
73.896
 30
0.0
 11
5.549
 21
73.659
 31
0.0
  0
LINE
  5
BAF
330
A35
100
AcDbEntity
  8
0
100
AcDbLine
 10
7.749
 20
73.772
 30
0.0
 11
7.854
 21
73.86
 31
0.0
  0
LINE
  5
BB0
330
A35
100
AcDbEntity
  8
0
100
AcDbLine
 10
7.68
 20
73.816
 30
0.0
 11
7.555
 21
73.792
 31
0.0
  0
LINE
  5
BB1
330
A35
100
AcDbEntity
  8
0
100
AcDbLine
 10
7.854
 20
73.86
 30
0.0
 11
8.412
 21
73.976
 31
0.0
  0
LINE
  5
BB2
330
A35
100
AcDbEntity
  8
0
100
AcDbLine
 10
7.911
 20
71.637
 30
0.0
 11
7.761
 21
71.512
 31
0.0
  0
LINE
  5
BB3
330
A35
100
AcDbEntity
  8
0
100
AcDbLine
 10
7.041
 20
71.227
 30
0.0
 11
7.11
 21
71.058
 31
0.0
  0
LINE
  5
BB4
330
A35
100
AcDbEntity
  8
0
100
AcDbLine
 10
7.041
 20
71.227
 30
0.0
 11
6.77
 21
70.99
 31
0.0
  0
LINE
  5
BB5
330
A35
100
AcDbEntity
  8
0
100
AcDbLine
 10
8.57
 20
71.4
 30
0.0
 11
7.11
 21
71.058
 31
0.0
  0
LINE
  5
BB6
330
A35
100
AcDbEntity
  8
0
100
AcDbLine
 10
8.024
 20
70.922
 30
0.0
 11
8.57
 21
71.4
 31
0.0
  0
LINE
  5
BB7
330
A35
100
AcDbEntity
  8
0
100
AcDbLine
 10
7.66
 20
73.976
 30
0.0
 11
7.761
 21
74.053
 31
0.0
  0
LINE
  5
BB8
330
A35
100
AcDbEntity
  8
0
100
AcDbLine
 10
8.457
 20
72.533
 30
0.0
 11
8.525
 21
72.385
 31
0.0
  0
LINE
  5
BB9
330
A35
100
AcDbEntity
  8
0
100
AcDbLine
 10
7.923
 20
73.703
 30
0.0
 11
7.749
 21
73.667
 31
0.0
  0
LINE
  5
BBA
330
A35
100
AcDbEntity
  8
0
100
AcDbLine
 10
7.797
 20
73.679
 30
0.0
 11
7.749
 21
73.772
 31
0.0
  0
LINE
  5
BBB
330
A35
100
AcDbEntity
  8
0
100
AcDbLine
 10
7.498
 20
72.558
 30
0.0
 11
7.34
 21
72.433
 31
0.0
  0
LINE
  5
BBC
330
A35
100
AcDbEntity
  8
0
100
AcDbLine
 10
6.996
 20
73.193
 30
0.0
 11
7.158
 21
73.317
 31
0.0
  0
LINE
  5
BBD
330
A35
100
AcDbEntity
  8
0
100
AcDbLine
 10
8.319
 20
72.124
 30
0.0
 11
8.444
 21
72.148
 31
0.0
  0
LINE
  5
BBE
330
A35
100
AcDbEntity
  8
0
100
AcDbLine
 10
8.287
 20
72.501
 30
0.0
 11
8.457
 21
72.533
 31
0.0
  0
LINE
  5
BBF
330
A35
100
AcDbEntity
  8
0
100
AcDbLine
 10
8.355
 20
72.353
 30
0.0
 11
8.25
 21
72.272
 31
0.0
  0
LINE
  5
BC0
330
A35
100
AcDbEntity
  8
0
100
AcDbLine
 10
8.355
 20
72.353
 30
0.0
 11
8.287
 21
72.501
 31
0.0
  0
LINE
  5
BC1
330
A35
100
AcDbEntity
  8
0
100
AcDbLine
 10
6.014
 20
72.34
 30
0.0
 11
5.444
 21
71.854
 31
0.0
  0
LINE
  5
BC2
330
A35
100
AcDbEntity
  8
0
100
AcDbLine
 10
5.537
 20
71.649
 30
0.0
 11
6.257
 21
71.818
 31
0.0
  0
LINE
  5
BC3
330
A35
100
AcDbEntity
  8
0
100
AcDbLine
 10
6.107
 20
72.148
 30
0.0
 11
5.537
 21
71.649
 31
0.0
  0
LINE
  5
BC4
330
A35
100
AcDbEntity
  8
0
100
AcDbLine
 10
7.862
 20
73.293
 30
0.0
 11
7.923
 21
73.337
 31
0.0
  0
LINE
  5
BC5
330
A35
100
AcDbEntity
  8
0
100
AcDbLine
 10
7.498
 20
72.558
 30
0.0
 11
7.911
 21
71.637
 31
0.0
  0
LINE
  5
BC6
330
A35
100
AcDbEntity
  8
0
100
AcDbLine
 10
8.319
 20
72.124
 30
0.0
 11
8.25
 21
72.272
 31
0.0
  0
LINE
  5
BC7
330
A35
100
AcDbEntity
  8
0
100
AcDbLine
 10
8.424
 20
72.308
 30
0.0
 11
8.355
 21
72.453
 31
0.0
  0
LINE
  5
BC8
330
A35
100
AcDbEntity
  8
0
100
AcDbLine
 10
8.424
 20
72.308
 30
0.0
 11
8.525
 21
72.385
 31
0.0
  0
LINE
  5
BC9
330
A35
100
AcDbEntity
  8
0
100
AcDbLine
 10
8.355
 20
72.453
 30
0.0
 11
8.311
 21
72.441
 31
0.0
  0
LINE
  5
BCA
330
A35
100
AcDbEntity
  8
0
100
AcDbLine
 10
8.355
 20
72.453
 30
0.0
 11
8.457
 21
72.533
 31
0.0
  0
LINE
  5
BCB
330
A35
100
AcDbEntity
  8
0
100
AcDbLine
 10
8.444
 20
72.148
 30
0.0
 11
8.513
 21
71.999
 31
0.0
  0
LINE
  5
BCC
330
A35
100
AcDbEntity
  8
0
100
AcDbLine
 10
8.513
 20
72.103
 30
0.0
 11
8.618
 21
72.184
 31
0.0
  0
LINE
  5
BCD
330
A35
100
AcDbEntity
  8
0
100
AcDbLine
 10
8.513
 20
72.103
 30
0.0
 11
8.562
 21
72.011
 31
0.0
  0
LINE
  5
BCE
330
A35
100
AcDbEntity
  8
0
100
AcDbLine
 10
8.687
 20
72.035
 30
0.0
 11
8.618
 21
72.184
 31
0.0
  0
LINE
  5
BCF
330
A35
100
AcDbEntity
  8
0
100
AcDbLine
 10
8.687
 20
72.035
 30
0.0
 11
8.513
 21
71.999
 31
0.0
  0
LINE
  5
BD0
330
A35
100
AcDbEntity
  8
0
100
AcDbLine
 10
8.57
 20
71.4
 30
0.0
 11
8.651
 21
71.227
 31
0.0
  0
LINE
  5
BD1
330
A35
100
AcDbEntity
  8
0
100
AcDbLine
 10
7.761
 20
71.512
 30
0.0
 11
7.34
 21
72.433
 31
0.0
  0
LINE
  5
BD2
330
A35
100
AcDbEntity
  8
0
100
AcDbLine
 10
6.014
 20
72.34
 30
0.0
 11
5.411
 21
73.667
 31
0.0
  0
LINE
  5
BD3
330
A35
100
AcDbEntity
  8
0
100
AcDbLine
 10
6.257
 20
70.323
 30
0.0
 11
8.024
 21
70.922
 31
0.0
  0
LINE
  5
BD4
330
A35
100
AcDbEntity
  8
0
100
AcDbLine
 10
6.77
 20
70.99
 30
0.0
 11
5.549
 21
73.659
 31
0.0
  0
LINE
  5
BD5
330
A35
100
AcDbEntity
  8
0
100
AcDbLine
 10
7.923
 20
73.337
 30
0.0
 11
8.137
 21
73.418
 31
0.0
  0
LINE
  5
BD6
330
A35
100
AcDbEntity
  8
0
100
AcDbLine
 10
7.737
 20
73.0
 30
0.0
 11
7.862
 21
73.293
 31
0.0
  0
LINE
  5
BD7
330
A35
100
AcDbEntity
  8
0
100
AcDbLine
 10
7.854
 20
72.634
 30
0.0
 11
7.737
 21
73.0
 31
0.0
  0
LINE
  5
BD8
330
A35
100
AcDbEntity
  8
0
100
AcDbLine
 10
7.797
 20
73.032
 30
0.0
 11
7.923
 21
73.337
 31
0.0
  0
LINE
  5
BD9
330
A35
100
AcDbEntity
  8
0
100
AcDbLine
 10
7.943
 20
72.658
 30
0.0
 11
7.797
 21
73.032
 31
0.0
  0
LINE
  5
BDA
330
A35
100
AcDbEntity
  8
0
100
AcDbLine
 10
36.62
 20
66.677
 30
0.0
 11
36.54
 21
66.701
 31
0.0
  0
LINE
  5
BDB
330
A35
100
AcDbEntity
  8
0
100
AcDbLine
 10
36.564
 20
66.191
 30
0.0
 11
36.584
 21
66.179
 31
0.0
  0
LINE
  5
BDC
330
A35
100
AcDbEntity
  8
0
100
AcDbLine
 10
36.572
 20
66.259
 30
0.0
 11
36.564
 21
66.271
 31
0.0
  0
LINE
  5
BDD
330
A35
100
AcDbEntity
  8
0
100
AcDbLine
 10
36.39
 20
66.621
 30
0.0
 11
36.495
 21
66.689
 31
0.0
  0
LINE
  5
BDE
330
A35
100
AcDbEntity
  8
0
100
AcDbLine
 10
36.426
 20
66.303
 30
0.0
 11
36.438
 21
66.303
 31
0.0
  0
LINE
  5
BDF
330
A35
100
AcDbEntity
  8
0
100
AcDbLine
 10
36.414
 20
66.291
 30
0.0
 11
36.345
 21
66.464
 31
0.0
  0
LINE
  5
BE0
330
A35
100
AcDbEntity
  8
0
100
AcDbLine
 10
36.653
 20
66.745
 30
0.0
 11
36.677
 21
66.745
 31
0.0
  0
LINE
  5
BE1
330
A35
100
AcDbEntity
  8
0
100
AcDbLine
 10
36.847
 20
66.621
 30
0.0
 11
36.884
 21
66.613
 31
0.0
  0
LINE
  5
BE2
330
A35
100
AcDbEntity
  8
0
100
AcDbLine
 10
36.71
 20
66.146
 30
0.0
 11
36.697
 21
66.146
 31
0.0
  0
LINE
  5
BE3
330
A35
100
AcDbEntity
  8
0
100
AcDbLine
 10
36.803
 20
66.713
 30
0.0
 11
36.79
 21
66.713
 31
0.0
  0
LINE
  5
BE4
330
A35
100
AcDbEntity
  8
0
100
AcDbLine
 10
36.758
 20
66.645
 30
0.0
 11
36.722
 21
66.657
 31
0.0
  0
LINE
  5
BE5
330
A35
100
AcDbEntity
  8
0
100
AcDbLine
 10
36.916
 20
66.677
 30
0.0
 11
36.94
 21
66.669
 31
0.0
  0
LINE
  5
BE6
330
A35
100
AcDbEntity
  8
0
100
AcDbLine
 10
36.62
 20
66.327
 30
0.0
 11
36.697
 21
66.564
 31
0.0
  0
LINE
  5
BE7
330
A35
100
AcDbEntity
  8
0
100
AcDbLine
 10
36.71
 20
66.352
 30
0.0
 11
36.572
 21
66.259
 31
0.0
  0
LINE
  5
BE8
330
A35
100
AcDbEntity
  8
0
100
AcDbLine
 10
36.758
 20
66.645
 30
0.0
 11
36.71
 21
66.352
 31
0.0
  0
LINE
  5
BE9
330
A35
100
AcDbEntity
  8
0
100
AcDbLine
 10
36.746
 20
66.315
 30
0.0
 11
36.564
 21
66.191
 31
0.0
  0
LINE
  5
BEA
330
A35
100
AcDbEntity
  8
0
100
AcDbLine
 10
36.79
 20
66.713
 30
0.0
 11
36.746
 21
66.315
 31
0.0
  0
LINE
  5
BEB
330
A35
100
AcDbEntity
  8
0
100
AcDbLine
 10
36.815
 20
66.408
 30
0.0
 11
36.584
 21
66.179
 31
0.0
  0
LINE
  5
BEC
330
A35
100
AcDbEntity
  8
0
100
AcDbLine
 10
36.803
 20
66.713
 30
0.0
 11
36.815
 21
66.408
 31
0.0
  0
LINE
  5
BED
330
A35
100
AcDbEntity
  8
0
100
AcDbLine
 10
36.527
 20
66.235
 30
0.0
 11
36.414
 21
66.291
 31
0.0
  0
LINE
  5
BEE
330
A35
100
AcDbEntity
  8
0
100
AcDbLine
 10
36.62
 20
66.327
 30
0.0
 11
36.527
 21
66.235
 31
0.0
  0
LINE
  5
BEF
330
A35
100
AcDbEntity
  8
0
100
AcDbLine
 10
36.552
 20
66.303
 30
0.0
 11
36.39
 21
66.339
 31
0.0
  0
LINE
  5
BF0
330
A35
100
AcDbEntity
  8
0
100
AcDbLine
 10
36.689
 20
66.564
 30
0.0
 11
36.552
 21
66.303
 31
0.0
  0
LINE
  5
BF1
330
A35
100
AcDbEntity
  8
0
100
AcDbLine
 10
36.677
 20
66.745
 30
0.0
 11
36.62
 21
66.327
 31
0.0
  0
LINE
  5
BF2
330
A35
100
AcDbEntity
  8
0
100
AcDbLine
 10
36.572
 20
66.701
 30
0.0
 11
36.653
 21
66.745
 31
0.0
  0
LINE
  5
BF3
330
A35
100
AcDbEntity
  8
0
100
AcDbLine
 10
36.62
 20
66.464
 30
0.0
 11
36.438
 21
66.303
 31
0.0
  0
LINE
  5
BF4
330
A35
100
AcDbEntity
  8
0
100
AcDbLine
 10
36.62
 20
66.677
 30
0.0
 11
36.62
 21
66.464
 31
0.0
  0
LINE
  5
BF5
330
A35
100
AcDbEntity
  8
0
100
AcDbLine
 10
36.345
 20
66.464
 30
0.0
 11
36.39
 21
66.621
 31
0.0
  0
LINE
  5
BF6
330
A35
100
AcDbEntity
  8
0
100
AcDbLine
 10
36.495
 20
66.689
 30
0.0
 11
36.54
 21
66.701
 31
0.0
  0
LINE
  5
BF7
330
A35
100
AcDbEntity
  8
0
100
AcDbLine
 10
36.564
 20
66.191
 30
0.0
 11
36.503
 21
66.235
 31
0.0
  0
LINE
  5
BF8
330
A35
100
AcDbEntity
  8
0
100
AcDbLine
 10
36.572
 20
66.476
 30
0.0
 11
36.438
 21
66.303
 31
0.0
  0
LINE
  5
BF9
330
A35
100
AcDbEntity
  8
0
100
AcDbLine
 10
36.54
 20
66.701
 30
0.0
 11
36.572
 21
66.476
 31
0.0
  0
LINE
  5
BFA
330
A35
100
AcDbEntity
  8
0
100
AcDbLine
 10
36.426
 20
66.303
 30
0.0
 11
36.39
 21
66.339
 31
0.0
  0
LINE
  5
BFB
330
A35
100
AcDbEntity
  8
0
100
AcDbLine
 10
36.426
 20
66.52
 30
0.0
 11
36.345
 21
66.464
 31
0.0
  0
LINE
  5
BFC
330
A35
100
AcDbEntity
  8
0
100
AcDbLine
 10
36.39
 20
66.621
 30
0.0
 11
36.426
 21
66.52
 31
0.0
  0
LINE
  5
BFD
330
A35
100
AcDbEntity
  8
0
100
AcDbLine
 10
36.697
 20
66.146
 30
0.0
 11
36.641
 21
66.191
 31
0.0
  0
LINE
  5
BFE
330
A35
100
AcDbEntity
  8
0
100
AcDbLine
 10
36.928
 20
66.384
 30
0.0
 11
36.697
 21
66.146
 31
0.0
  0
LINE
  5
BFF
330
A35
100
AcDbEntity
  8
0
100
AcDbLine
 10
36.916
 20
66.677
 30
0.0
 11
36.928
 21
66.384
 31
0.0
  0
LINE
  5
C00
330
A35
100
AcDbEntity
  8
0
100
AcDbLine
 10
36.94
 20
66.372
 30
0.0
 11
36.71
 21
66.146
 31
0.0
  0
LINE
  5
C01
330
A35
100
AcDbEntity
  8
0
100
AcDbLine
 10
36.94
 20
66.669
 30
0.0
 11
36.94
 21
66.372
 31
0.0
  0
LINE
  5
C02
330
A35
100
AcDbEntity
  8
0
100
AcDbLine
 10
36.653
 20
66.745
 30
0.0
 11
36.689
 21
66.564
 31
0.0
  0
LINE
  5
C03
330
A35
100
AcDbEntity
  8
0
100
AcDbLine
 10
36.884
 20
66.396
 30
0.0
 11
36.697
 21
66.227
 31
0.0
  0
LINE
  5
C04
330
A35
100
AcDbEntity
  8
0
100
AcDbLine
 10
36.884
 20
66.613
 30
0.0
 11
36.884
 21
66.396
 31
0.0
  0
LINE
  5
C05
330
A35
100
AcDbEntity
  8
0
100
AcDbLine
 10
36.71
 20
66.677
 30
0.0
 11
36.79
 21
66.713
 31
0.0
  0
LINE
  5
C06
330
A35
100
AcDbEntity
  8
0
100
AcDbLine
 10
42.44
 20
76.798
 30
0.0
 11
42.383
 21
76.754
 31
0.0
  0
LINE
  5
C07
330
A35
100
AcDbEntity
  8
0
100
AcDbLine
 10
42.383
 20
76.754
 30
0.0
 11
42.084
 21
76.891
 31
0.0
  0
LINE
  5
C08
330
A35
100
AcDbEntity
  8
0
100
AcDbLine
 10
42.129
 20
76.947
 30
0.0
 11
42.44
 21
76.798
 31
0.0
  0
LINE
  5
C09
330
A35
100
AcDbEntity
  8
0
100
AcDbLine
 10
42.141
 20
78.105
 30
0.0
 11
41.959
 21
78.515
 31
0.0
  0
LINE
  5
C0A
330
A35
100
AcDbEntity
  8
0
100
AcDbLine
 10
42.747
 20
76.822
 30
0.0
 11
42.691
 21
76.778
 31
0.0
  0
LINE
  5
C0B
330
A35
100
AcDbEntity
  8
0
100
AcDbLine
 10
42.816
 20
76.959
 30
0.0
 11
42.849
 21
77.116
 31
0.0
  0
LINE
  5
C0C
330
A35
100
AcDbEntity
  8
0
100
AcDbLine
 10
42.577
 20
77.57
 30
0.0
 11
42.258
 21
77.719
 31
0.0
  0
LINE
  5
C0D
330
A35
100
AcDbEntity
  8
0
100
AcDbLine
 10
1.383
 20
69.72
 30
0.0
 11
1.076
 21
69.913
 31
0.0
  0
LINE
  5
C0E
330
A35
100
AcDbEntity
  8
0
100
AcDbLine
 10
3.984
 20
73.0
 30
0.0
 11
4.008
 21
73.012
 31
0.0
  0
LINE
  5
C0F
330
A35
100
AcDbEntity
  8
0
100
AcDbLine
 10
3.996
 20
73.012
 30
0.0
 11
3.984
 21
73.0
 31
0.0
  0
LINE
  5
C10
330
A35
100
AcDbEntity
  8
0
100
AcDbLine
 10
0.813
 20
69.8
 30
0.0
 11
0.801
 21
69.8
 31
0.0
  0
LINE
  5
C11
330
A35
100
AcDbEntity
  8
0
100
AcDbLine
 10
0.789
 20
69.72
 30
0.0
 11
0.801
 21
69.708
 31
0.0
  0
LINE
  5
C12
330
A35
100
AcDbEntity
  8
0
100
AcDbLine
 10
1.027
 20
69.913
 30
0.0
 11
1.052
 21
69.913
 31
0.0
  0
LINE
  5
C13
330
A35
100
AcDbEntity
  8
0
100
AcDbLine
 10
0.789
 20
69.72
 30
0.0
 11
0.061
 21
69.551
 31
0.0
  0
LINE
  5
C14
330
A35
100
AcDbEntity
  8
0
100
AcDbLine
 10
0.069
 20
69.627
 30
0.0
 11
0.801
 21
69.8
 31
0.0
  0
LINE
  5
C15
330
A35
100
AcDbEntity
  8
0
100
AcDbLine
 10
0.024
 20
69.732
 30
0.0
 11
3.939
 21
73.1
 31
0.0
  0
LINE
  5
C16
330
A35
100
AcDbEntity
  8
0
100
AcDbLine
 10
3.984
 20
73.0
 30
0.0
 11
0.069
 21
69.627
 31
0.0
  0
LINE
  5
C17
330
A35
100
AcDbEntity
  8
0
100
AcDbLine
 10
1.052
 20
69.913
 30
0.0
 11
1.076
 21
69.913
 31
0.0
  0
LINE
  5
C18
330
A35
100
AcDbEntity
  8
0
100
AcDbLine
 10
1.027
 20
69.913
 30
0.0
 11
4.19
 21
72.634
 31
0.0
  0
LINE
  5
C19
330
A35
100
AcDbEntity
  8
0
100
AcDbLine
 10
1.27
 20
69.627
 30
0.0
 11
1.019
 21
69.571
 31
0.0
  0
LINE
  5
C1A
330
A35
100
AcDbEntity
  8
0
100
AcDbLine
 10
38.23
 20
78.273
 30
0.0
 11
38.287
 21
78.322
 31
0.0
  0
LINE
  5
C1B
330
A35
100
AcDbEntity
  8
0
100
AcDbLine
 10
38.287
 20
78.322
 30
0.0
 11
36.014
 21
77.799
 31
0.0
  0
LINE
  5
C1C
330
A35
100
AcDbEntity
  8
0
100
AcDbLine
 10
36.014
 20
77.799
 30
0.0
 11
35.957
 21
77.743
 31
0.0
  0
LINE
  5
C1D
330
A35
100
AcDbEntity
  8
0
100
AcDbLine
 10
35.957
 20
77.743
 30
0.0
 11
38.23
 21
78.273
 31
0.0
  0
LINE
  5
C1E
330
A35
100
AcDbEntity
  8
0
100
AcDbLine
 10
34.667
 20
74.961
 30
0.0
 11
34.611
 21
74.917
 31
0.0
  0
LINE
  5
C1F
330
A35
100
AcDbEntity
  8
0
100
AcDbLine
 10
39.678
 20
77.309
 30
0.0
 11
39.734
 21
77.357
 31
0.0
  0
LINE
  5
C20
330
A35
100
AcDbEntity
  8
0
100
AcDbLine
 10
35.351
 20
74.338
 30
0.0
 11
35.294
 21
74.294
 31
0.0
  0
LINE
  5
C21
330
A35
100
AcDbEntity
  8
0
100
AcDbLine
 10
34.635
 20
74.768
 30
0.0
 11
34.578
 21
74.724
 31
0.0
  0
LINE
  5
C22
330
A35
100
AcDbEntity
  8
0
100
AcDbLine
 10
34.635
 20
74.768
 30
0.0
 11
35.351
 21
74.338
 31
0.0
  0
LINE
  5
C23
330
A35
100
AcDbEntity
  8
0
100
AcDbLine
 10
35.294
 20
74.294
 30
0.0
 11
34.578
 21
74.724
 31
0.0
  0
LINE
  5
C24
330
A35
100
AcDbEntity
  8
0
100
AcDbLine
 10
39.815
 20
77.184
 30
0.0
 11
39.872
 21
77.232
 31
0.0
  0
LINE
  5
C25
330
A35
100
AcDbEntity
  8
0
100
AcDbLine
 10
39.872
 20
77.232
 30
0.0
 11
39.973
 21
77.196
 31
0.0
  0
LINE
  5
C26
330
A35
100
AcDbEntity
  8
0
100
AcDbLine
 10
36.345
 20
76.244
 30
0.0
 11
35.456
 21
76.778
 31
0.0
  0
LINE
  5
C27
330
A35
100
AcDbEntity
  8
0
100
AcDbLine
 10
35.775
 20
77.594
 30
0.0
 11
34.829
 21
75.19
 31
0.0
  0
LINE
  5
C28
330
A35
100
AcDbEntity
  8
0
100
AcDbLine
 10
12.404
 20
71.886
 30
0.0
 11
12.396
 21
71.874
 31
0.0
  0
LINE
  5
C29
330
A35
100
AcDbEntity
  8
0
100
AcDbLine
 10
12.404
 20
71.886
 30
0.0
 11
12.452
 21
71.922
 31
0.0
  0
LINE
  5
C2A
330
A35
100
AcDbEntity
  8
0
100
AcDbLine
 10
12.521
 20
75.086
 30
0.0
 11
9.953
 21
74.495
 31
0.0
  0
LINE
  5
C2B
330
A35
100
AcDbEntity
  8
0
100
AcDbLine
 10
11.138
 20
72.115
 30
0.0
 11
11.263
 21
72.136
 31
0.0
  0
LINE
  5
C2C
330
A35
100
AcDbEntity
  8
0
100
AcDbLine
 10
4.521
 20
73.249
 30
0.0
 11
3.972
 21
73.112
 31
0.0
  0
LINE
  5
C2D
330
A35
100
AcDbEntity
  8
0
100
AcDbLine
 10
31.747
 20
79.536
 30
0.0
 11
38.295
 21
81.043
 31
0.0
  0
LINE
  5
C2E
330
A35
100
AcDbEntity
  8
0
100
AcDbLine
 10
6.964
 20
68.494
 30
0.0
 11
6.903
 21
68.45
 31
0.0
  0
LINE
  5
C2F
330
A35
100
AcDbEntity
  8
0
100
AcDbLine
 10
5.856
 20
69.165
 30
0.0
 11
5.799
 21
69.117
 31
0.0
  0
LINE
  5
C30
330
A35
100
AcDbEntity
  8
0
100
AcDbLine
 10
6.54
 20
69.414
 30
0.0
 11
6.633
 21
69.434
 31
0.0
  0
LINE
  5
C31
330
A35
100
AcDbEntity
  8
0
100
AcDbLine
 10
7.624
 20
69.664
 30
0.0
 11
7.716
 21
69.688
 31
0.0
  0
LINE
  5
C32
330
A35
100
AcDbEntity
  8
0
100
AcDbLine
 10
7.737
 20
69.776
 30
0.0
 11
7.51
 21
70.287
 31
0.0
  0
LINE
  5
C33
330
A35
100
AcDbEntity
  8
0
100
AcDbLine
 10
6.964
 20
68.494
 30
0.0
 11
10.818
 21
69.39
 31
0.0
  0
LINE
  5
C34
330
A35
100
AcDbEntity
  8
0
100
AcDbLine
 10
10.83
 20
69.358
 30
0.0
 11
6.903
 21
68.45
 31
0.0
  0
LINE
  5
C35
330
A35
100
AcDbEntity
  8
0
100
AcDbLine
 10
6.665
 20
65.885
 30
0.0
 11
2.936
 21
65.021
 31
0.0
  0
LINE
  5
C36
330
A35
100
AcDbEntity
  8
0
100
AcDbLine
 10
2.936
 20
65.021
 30
0.0
 11
2.876
 21
64.977
 31
0.0
  0
LINE
  5
C37
330
A35
100
AcDbEntity
  8
0
100
AcDbLine
 10
1.816
 20
65.692
 30
0.0
 11
1.759
 21
65.648
 31
0.0
  0
LINE
  5
C38
330
A35
100
AcDbEntity
  8
0
100
AcDbLine
 10
2.876
 20
64.977
 30
0.0
 11
6.677
 21
65.861
 31
0.0
  0
LINE
  5
C39
330
A35
100
AcDbEntity
  8
0
100
AcDbLine
 10
7.567
 20
69.651
 30
0.0
 11
7.522
 21
69.776
 31
0.0
  0
LINE
  5
C3A
330
A35
100
AcDbEntity
  8
0
100
AcDbLine
 10
6.54
 20
69.414
 30
0.0
 11
6.333
 21
69.889
 31
0.0
  0
LINE
  5
C3B
330
A35
100
AcDbEntity
  8
0
100
AcDbLine
 10
6.633
 20
69.434
 30
0.0
 11
7.624
 21
69.664
 31
0.0
  0
LINE
  5
C3C
330
A35
100
AcDbEntity
  8
0
100
AcDbLine
 10
5.856
 20
69.165
 30
0.0
 11
4.097
 21
73.02
 31
0.0
  0
LINE
  5
C3D
330
A35
100
AcDbEntity
  8
0
100
AcDbLine
 10
4.04
 20
72.976
 30
0.0
 11
5.799
 21
69.117
 31
0.0
  0
LINE
  5
C3E
330
A35
100
AcDbEntity
  8
0
100
AcDbLine
 10
1.759
 20
65.648
 30
0.0
 11
0.0
 21
69.503
 31
0.0
  0
LINE
  5
C3F
330
A35
100
AcDbEntity
  8
0
100
AcDbLine
 10
0.061
 20
69.551
 30
0.0
 11
1.816
 21
65.692
 31
0.0
  0
LINE
  5
C40
330
A35
100
AcDbEntity
  8
0
100
AcDbLine
 10
39.678
 20
77.494
 30
0.0
 11
39.734
 21
77.357
 31
0.0
  0
LINE
  5
C41
330
A35
100
AcDbEntity
  8
0
100
AcDbLine
 10
39.815
 20
77.184
 30
0.0
 11
39.953
 21
77.128
 31
0.0
  0
LINE
  5
C42
330
A35
100
AcDbEntity
  8
0
100
AcDbLine
 10
41.927
 20
76.734
 30
0.0
 11
41.983
 21
76.778
 31
0.0
  0
LINE
  5
C43
330
A35
100
AcDbEntity
  8
0
100
AcDbLine
 10
38.42
 20
80.954
 30
0.0
 11
38.307
 21
80.93
 31
0.0
  0
LINE
  5
C44
330
A35
100
AcDbEntity
  8
0
100
AcDbLine
 10
38.663
 20
78.241
 30
0.0
 11
39.379
 21
77.811
 31
0.0
  0
LINE
  5
C45
330
A35
100
AcDbEntity
  8
0
100
AcDbLine
 10
38.663
 20
78.241
 30
0.0
 11
38.606
 21
78.197
 31
0.0
  0
LINE
  5
C46
330
A35
100
AcDbEntity
  8
0
100
AcDbLine
 10
39.621
 20
77.437
 30
0.0
 11
39.678
 21
77.494
 31
0.0
  0
LINE
  5
C47
330
A35
100
AcDbEntity
  8
0
100
AcDbLine
 10
39.621
 20
77.437
 30
0.0
 11
39.678
 21
77.309
 31
0.0
  0
LINE
  5
C48
330
A35
100
AcDbEntity
  8
0
100
AcDbLine
 10
38.469
 20
80.85
 30
0.0
 11
38.42
 21
80.954
 31
0.0
  0
LINE
  5
C49
330
A35
100
AcDbEntity
  8
0
100
AcDbLine
 10
39.379
 20
77.811
 30
0.0
 11
39.322
 21
77.763
 31
0.0
  0
LINE
  5
C4A
330
A35
100
AcDbEntity
  8
0
100
AcDbLine
 10
39.322
 20
77.763
 30
0.0
 11
38.606
 21
78.197
 31
0.0
  0
LINE
  5
C4B
330
A35
100
AcDbEntity
  8
0
100
AcDbLine
 10
38.469
 20
80.85
 30
0.0
 11
41.469
 21
79.045
 31
0.0
  0
LINE
  5
C4C
330
A35
100
AcDbEntity
  8
0
100
AcDbLine
 10
41.983
 20
76.778
 30
0.0
 11
42.129
 21
76.947
 31
0.0
  0
LINE
  5
C4D
330
A35
100
AcDbEntity
  8
0
100
AcDbLine
 10
42.266
 20
77.719
 30
0.0
 11
42.141
 21
78.105
 31
0.0
  0
LINE
  5
C4E
330
A35
100
AcDbEntity
  8
0
100
AcDbLine
 10
3.972
 20
73.124
 30
0.0
 11
3.939
 21
73.112
 31
0.0
  0
LINE
  5
C4F
330
A35
100
AcDbEntity
  8
0
100
AcDbLine
 10
35.957
 20
77.755
 30
0.0
 11
35.844
 21
77.695
 31
0.0
  0
LINE
  5
C50
330
A35
100
AcDbEntity
  8
0
100
AcDbLine
 10
35.864
 20
77.731
 30
0.0
 11
35.775
 21
77.594
 31
0.0
  0
LINE
  5
C51
330
A35
100
AcDbEntity
  8
0
100
AcDbLine
 10
36.014
 20
77.799
 30
0.0
 11
35.876
 21
77.731
 31
0.0
  0
LINE
  5
C52
330
A35
100
AcDbEntity
  8
0
100
AcDbLine
 10
34.542
 20
74.873
 30
0.0
 11
34.611
 21
74.917
 31
0.0
  0
LINE
  5
C53
330
A35
100
AcDbEntity
  8
0
100
AcDbLine
 10
34.679
 20
74.973
 30
0.0
 11
34.829
 21
75.19
 31
0.0
  0
LINE
  5
C54
330
A35
100
AcDbEntity
  8
0
100
AcDbLine
 10
34.542
 20
74.881
 30
0.0
 11
34.667
 21
74.961
 31
0.0
  0
LINE
  5
C55
330
A35
100
AcDbEntity
  8
0
100
AcDbLine
 10
35.456
 20
74.178
 30
0.0
 11
35.294
 21
74.294
 31
0.0
  0
LINE
  5
C56
330
A35
100
AcDbEntity
  8
0
100
AcDbLine
 10
35.456
 20
74.282
 30
0.0
 11
35.351
 21
74.35
 31
0.0
  0
LINE
  5
C57
330
A35
100
AcDbEntity
  8
0
100
AcDbLine
 10
41.959
 20
78.515
 30
0.0
 11
41.482
 21
79.057
 31
0.0
  0
LINE
  5
C58
330
A35
100
AcDbEntity
  8
0
100
AcDbLine
 10
39.678
 20
77.502
 30
0.0
 11
39.379
 21
77.819
 31
0.0
  0
LINE
  5
C59
330
A35
100
AcDbEntity
  8
0
100
AcDbLine
 10
39.621
 20
77.445
 30
0.0
 11
39.322
 21
77.763
 31
0.0
  0
LINE
  5
C5A
330
A35
100
AcDbEntity
  8
0
100
AcDbLine
 10
41.012
 20
77.57
 30
0.0
 11
40.786
 21
77.787
 31
0.0
  0
LINE
  5
C5B
330
A35
100
AcDbEntity
  8
0
100
AcDbLine
 10
41.219
 20
77.562
 30
0.0
 11
41.012
 21
77.57
 31
0.0
  0
LINE
  5
C5C
330
A35
100
AcDbEntity
  8
0
100
AcDbLine
 10
42.747
 20
76.822
 30
0.0
 11
42.44
 21
76.798
 31
0.0
  0
LINE
  5
C5D
330
A35
100
AcDbEntity
  8
0
100
AcDbLine
 10
42.691
 20
76.778
 30
0.0
 11
42.383
 21
76.754
 31
0.0
  0
LINE
  5
C5E
330
A35
100
AcDbEntity
  8
0
100
AcDbLine
 10
42.816
 20
76.959
 30
0.0
 11
42.747
 21
76.822
 31
0.0
  0
LINE
  5
C5F
330
A35
100
AcDbEntity
  8
0
100
AcDbLine
 10
42.792
 20
77.377
 30
0.0
 11
42.849
 21
77.116
 31
0.0
  0
LINE
  5
C60
330
A35
100
AcDbEntity
  8
0
100
AcDbLine
 10
42.577
 20
77.57
 30
0.0
 11
42.792
 21
77.377
 31
0.0
  0
LINE
  5
C61
330
A35
100
AcDbEntity
  8
0
100
AcDbLine
 10
3.972
 20
73.112
 30
0.0
 11
4.097
 21
73.02
 31
0.0
  0
LINE
  5
C62
330
A35
100
AcDbEntity
  8
0
100
AcDbLine
 10
4.04
 20
72.976
 30
0.0
 11
3.996
 21
73.012
 31
0.0
  0
LINE
  5
C63
330
A35
100
AcDbEntity
  8
0
100
AcDbLine
 10
0.801
 20
69.8
 30
0.0
 11
0.789
 21
69.72
 31
0.0
  0
LINE
  5
C64
330
A35
100
AcDbEntity
  8
0
100
AcDbLine
 10
0.069
 20
69.627
 30
0.0
 11
0.061
 21
69.551
 31
0.0
  0
LINE
  5
C65
330
A35
100
AcDbEntity
  8
0
100
AcDbLine
 10
1.027
 20
69.913
 30
0.0
 11
0.813
 21
69.8
 31
0.0
  0
LINE
  5
C66
330
A35
100
AcDbEntity
  8
0
100
AcDbLine
 10
0.801
 20
69.708
 30
0.0
 11
1.019
 21
69.571
 31
0.0
  0
LINE
  5
C67
330
A35
100
AcDbEntity
  8
0
100
AcDbLine
 10
39.678
 20
77.309
 30
0.0
 11
39.815
 21
77.184
 31
0.0
  0
LINE
  5
C68
330
A35
100
AcDbEntity
  8
0
100
AcDbLine
 10
38.23
 20
78.273
 30
0.0
 11
38.606
 21
78.197
 31
0.0
  0
LINE
  5
C69
330
A35
100
AcDbEntity
  8
0
100
AcDbLine
 10
38.287
 20
78.322
 30
0.0
 11
38.663
 21
78.241
 31
0.0
  0
LINE
  5
C6A
330
A35
100
AcDbEntity
  8
0
100
AcDbLine
 10
34.554
 20
74.736
 30
0.0
 11
34.578
 21
74.724
 31
0.0
  0
LINE
  5
C6B
330
A35
100
AcDbEntity
  8
0
100
AcDbLine
 10
34.554
 20
74.813
 30
0.0
 11
34.635
 21
74.768
 31
0.0
  0
LINE
  5
C6C
330
A35
100
AcDbEntity
  8
0
100
AcDbLine
 10
11.457
 20
71.818
 30
0.0
 11
11.676
 21
71.75
 31
0.0
  0
LINE
  5
C6D
330
A35
100
AcDbEntity
  8
0
100
AcDbLine
 10
11.118
 20
72.16
 30
0.0
 11
11.457
 21
71.818
 31
0.0
  0
LINE
  5
C6E
330
A35
100
AcDbEntity
  8
0
100
AcDbLine
 10
12.396
 20
71.874
 30
0.0
 11
12.359
 21
71.842
 31
0.0
  0
LINE
  5
C6F
330
A35
100
AcDbEntity
  8
0
100
AcDbLine
 10
12.452
 20
71.931
 30
0.0
 11
12.452
 21
71.922
 31
0.0
  0
LINE
  5
C70
330
A35
100
AcDbEntity
  8
0
100
AcDbLine
 10
12.452
 20
71.931
 30
0.0
 11
12.464
 21
71.943
 31
0.0
  0
LINE
  5
C71
330
A35
100
AcDbEntity
  8
0
100
AcDbLine
 10
12.452
 20
71.922
 30
0.0
 11
12.404
 21
71.854
 31
0.0
  0
LINE
  5
C72
330
A35
100
AcDbEntity
  8
0
100
AcDbLine
 10
12.553
 20
72.216
 30
0.0
 11
12.339
 21
72.726
 31
0.0
  0
LINE
  5
C73
330
A35
100
AcDbEntity
  8
0
100
AcDbLine
 10
12.404
 20
71.886
 30
0.0
 11
12.553
 21
72.216
 31
0.0
  0
LINE
  5
C74
330
A35
100
AcDbEntity
  8
0
100
AcDbLine
 10
12.578
 20
72.465
 30
0.0
 11
12.303
 21
72.863
 31
0.0
  0
LINE
  5
C75
330
A35
100
AcDbEntity
  8
0
100
AcDbLine
 10
12.61
 20
72.26
 30
0.0
 11
12.578
 21
72.465
 31
0.0
  0
LINE
  5
C76
330
A35
100
AcDbEntity
  8
0
100
AcDbLine
 10
12.464
 20
71.943
 30
0.0
 11
12.61
 21
72.26
 31
0.0
  0
LINE
  5
C77
330
A35
100
AcDbEntity
  8
0
100
AcDbLine
 10
11.777
 20
71.705
 30
0.0
 11
11.676
 21
71.75
 31
0.0
  0
LINE
  5
C78
330
A35
100
AcDbEntity
  8
0
100
AcDbLine
 10
6.277
 20
68.574
 30
0.0
 11
5.799
 21
69.117
 31
0.0
  0
LINE
  5
C79
330
A35
100
AcDbEntity
  8
0
100
AcDbLine
 10
6.495
 20
68.47
 30
0.0
 11
6.277
 21
68.574
 31
0.0
  0
LINE
  5
C7A
330
A35
100
AcDbEntity
  8
0
100
AcDbLine
 10
6.903
 20
68.45
 30
0.0
 11
6.495
 21
68.47
 31
0.0
  0
LINE
  5
C7B
330
A35
100
AcDbEntity
  8
0
100
AcDbLine
 10
6.333
 20
68.618
 30
0.0
 11
5.856
 21
69.165
 31
0.0
  0
LINE
  5
C7C
330
A35
100
AcDbEntity
  8
0
100
AcDbLine
 10
6.964
 20
68.494
 30
0.0
 11
6.333
 21
68.618
 31
0.0
  0
LINE
  5
C7D
330
A35
100
AcDbEntity
  8
0
100
AcDbLine
 10
7.636
 20
69.732
 30
0.0
 11
7.624
 21
69.664
 31
0.0
  0
LINE
  5
C7E
330
A35
100
AcDbEntity
  8
0
100
AcDbLine
 10
7.284
 20
69.764
 30
0.0
 11
6.54
 21
69.414
 31
0.0
  0
LINE
  5
C7F
330
A35
100
AcDbEntity
  8
0
100
AcDbLine
 10
7.737
 20
69.776
 30
0.0
 11
7.284
 21
69.764
 31
0.0
  0
LINE
  5
C80
330
A35
100
AcDbEntity
  8
0
100
AcDbLine
 10
7.26
 20
69.72
 30
0.0
 11
7.636
 21
69.732
 31
0.0
  0
LINE
  5
C81
330
A35
100
AcDbEntity
  8
0
100
AcDbLine
 10
6.633
 20
69.434
 30
0.0
 11
7.26
 21
69.72
 31
0.0
  0
LINE
  5
C82
330
A35
100
AcDbEntity
  8
0
100
AcDbLine
 10
7.716
 20
69.688
 30
0.0
 11
7.737
 21
69.776
 31
0.0
  0
LINE
  5
C83
330
A35
100
AcDbEntity
  8
0
100
AcDbLine
 10
2.249
 20
65.101
 30
0.0
 11
1.759
 21
65.648
 31
0.0
  0
LINE
  5
C84
330
A35
100
AcDbEntity
  8
0
100
AcDbLine
 10
2.876
 20
64.977
 30
0.0
 11
2.249
 21
65.101
 31
0.0
  0
LINE
  5
C85
330
A35
100
AcDbEntity
  8
0
100
AcDbLine
 10
2.305
 20
65.146
 30
0.0
 11
1.816
 21
65.692
 31
0.0
  0
LINE
  5
C86
330
A35
100
AcDbEntity
  8
0
100
AcDbLine
 10
2.936
 20
65.021
 30
0.0
 11
2.305
 21
65.146
 31
0.0
  0
LINE
  5
C87
330
A35
100
AcDbEntity
  8
0
100
AcDbLine
 10
0.0
 20
69.503
 30
0.0
 11
0.024
 21
69.732
 31
0.0
  0
LINE
  5
C88
330
A35
100
AcDbEntity
  8
0
100
AcDbLine
 10
38.295
 20
81.043
 30
0.0
 11
38.42
 21
80.954
 31
0.0
  0
LINE
  5
C89
330
A35
100
AcDbEntity
  8
0
100
AcDbLine
 10
40.786
 20
77.787
 30
0.0
 11
40.786
 21
78.06
 31
0.0
  0
LINE
  5
C8A
330
A35
100
AcDbEntity
  8
0
100
AcDbLine
 10
39.734
 20
77.357
 30
0.0
 11
39.872
 21
77.232
 31
0.0
  0
LINE
  5
C8B
330
A35
100
AcDbEntity
  8
0
100
AcDbLine
 10
41.927
 20
76.734
 30
0.0
 11
41.445
 21
76.529
 31
0.0
  0
LINE
  5
C8C
330
A35
100
AcDbEntity
  8
0
100
AcDbLine
 10
41.983
 20
76.778
 30
0.0
 11
41.445
 21
76.573
 31
0.0
  0
LINE
  5
C8D
330
A35
100
AcDbEntity
  8
0
100
AcDbLine
 10
41.356
 20
78.072
 30
0.0
 11
41.356
 21
77.968
 31
0.0
  0
LINE
  5
C8E
330
A35
100
AcDbEntity
  8
0
100
AcDbLine
 10
41.482
 20
78.434
 30
0.0
 11
41.344
 21
78.478
 31
0.0
  0
LINE
  5
C8F
330
A35
100
AcDbEntity
  8
0
100
AcDbLine
 10
41.356
 20
78.41
 30
0.0
 11
41.356
 21
78.297
 31
0.0
  0
LINE
  5
C90
330
A35
100
AcDbEntity
  8
0
100
AcDbLine
 10
41.389
 20
78.366
 30
0.0
 11
41.356
 21
78.378
 31
0.0
  0
LINE
  5
C91
330
A35
100
AcDbEntity
  8
0
100
AcDbLine
 10
41.49
 20
78.06
 30
0.0
 11
41.401
 21
77.98
 31
0.0
  0
LINE
  5
C92
330
A35
100
AcDbEntity
  8
0
100
AcDbLine
 10
41.433
 20
78.117
 30
0.0
 11
41.526
 21
78.205
 31
0.0
  0
LINE
  5
C93
330
A35
100
AcDbEntity
  8
0
100
AcDbLine
 10
41.482
 20
78.265
 30
0.0
 11
41.388
 21
78.185
 31
0.0
  0
LINE
  5
C94
330
A35
100
AcDbEntity
  8
0
100
AcDbLine
 10
41.389
 20
78.366
 30
0.0
 11
41.482
 21
78.434
 31
0.0
  0
LINE
  5
C95
330
A35
100
AcDbEntity
  8
0
100
AcDbLine
 10
41.389
 20
78.366
 30
0.0
 11
41.389
 21
78.185
 31
0.0
  0
LINE
  5
C96
330
A35
100
AcDbEntity
  8
0
100
AcDbLine
 10
41.356
 20
78.41
 30
0.0
 11
41.344
 21
78.478
 31
0.0
  0
LINE
  5
C97
330
A35
100
AcDbEntity
  8
0
100
AcDbLine
 10
41.482
 20
77.924
 30
0.0
 11
41.482
 21
77.855
 31
0.0
  0
LINE
  5
C98
330
A35
100
AcDbEntity
  8
0
100
AcDbLine
 10
41.482
 20
77.924
 30
0.0
 11
41.482
 21
78.036
 31
0.0
  0
LINE
  5
C99
330
A35
100
AcDbEntity
  8
0
100
AcDbLine
 10
41.708
 20
78.012
 30
0.0
 11
41.708
 21
78.141
 31
0.0
  0
LINE
  5
C9A
330
A35
100
AcDbEntity
  8
0
100
AcDbLine
 10
41.639
 20
78.036
 30
0.0
 11
41.526
 21
78.072
 31
0.0
  0
LINE
  5
C9B
330
A35
100
AcDbEntity
  8
0
100
AcDbLine
 10
41.652
 20
77.687
 30
0.0
 11
41.583
 21
77.63
 31
0.0
  0
LINE
  5
C9C
330
A35
100
AcDbEntity
  8
0
100
AcDbLine
 10
41.615
 20
78.048
 30
0.0
 11
41.615
 21
78.072
 31
0.0
  0
LINE
  5
C9D
330
A35
100
AcDbEntity
  8
0
100
AcDbLine
 10
41.639
 20
78.036
 30
0.0
 11
41.708
 21
78.012
 31
0.0
  0
LINE
  5
C9E
330
A35
100
AcDbEntity
  8
0
100
AcDbLine
 10
41.708
 20
78.141
 30
0.0
 11
41.639
 21
78.173
 31
0.0
  0
LINE
  5
C9F
330
A35
100
AcDbEntity
  8
0
100
AcDbLine
 10
41.708
 20
78.141
 30
0.0
 11
41.615
 21
78.072
 31
0.0
  0
LINE
  5
CA0
330
A35
100
AcDbEntity
  8
0
100
AcDbLine
 10
41.639
 20
78.173
 30
0.0
 11
41.526
 21
78.205
 31
0.0
  0
LINE
  5
CA1
330
A35
100
AcDbEntity
  8
0
100
AcDbLine
 10
41.482
 20
78.378
 30
0.0
 11
41.482
 21
78.434
 31
0.0
  0
LINE
  5
CA2
330
A35
100
AcDbEntity
  8
0
100
AcDbLine
 10
41.482
 20
78.378
 30
0.0
 11
41.482
 21
78.265
 31
0.0
  0
LINE
  5
CA3
330
A35
100
AcDbEntity
  8
0
100
AcDbLine
 10
41.433
 20
78.117
 30
0.0
 11
41.615
 21
78.072
 31
0.0
  0
LINE
  5
CA4
330
A35
100
AcDbEntity
  8
0
100
AcDbLine
 10
41.295
 20
78.265
 30
0.0
 11
41.194
 21
78.297
 31
0.0
  0
LINE
  5
CA5
330
A35
100
AcDbEntity
  8
0
100
AcDbLine
 10
41.194
 20
78.173
 30
0.0
 11
41.295
 21
78.141
 31
0.0
  0
LINE
  5
CA6
330
A35
100
AcDbEntity
  8
0
100
AcDbLine
 10
41.239
 20
78.197
 30
0.0
 11
41.344
 21
78.273
 31
0.0
  0
LINE
  5
CA7
330
A35
100
AcDbEntity
  8
0
100
AcDbLine
 10
41.113
 20
78.309
 30
0.0
 11
41.113
 21
78.185
 31
0.0
  0
LINE
  5
CA8
330
A35
100
AcDbEntity
  8
0
100
AcDbLine
 10
41.194
 20
78.298
 30
0.0
 11
41.113
 21
78.309
 31
0.0
  0
LINE
  5
CA9
330
A35
100
AcDbEntity
  8
0
100
AcDbLine
 10
41.113
 20
78.205
 30
0.0
 11
41.206
 21
78.185
 31
0.0
  0
LINE
  5
CAA
330
A35
100
AcDbEntity
  8
0
100
AcDbLine
 10
41.194
 20
78.173
 30
0.0
 11
41.113
 21
78.185
 31
0.0
  0
LINE
  5
CAB
330
A35
100
AcDbEntity
  8
0
100
AcDbLine
 10
40.786
 20
78.048
 30
0.0
 11
40.774
 21
78.036
 31
0.0
  0
LINE
  5
CAC
330
A35
100
AcDbEntity
  8
0
100
AcDbLine
 10
40.899
 20
78.41
 30
0.0
 11
40.968
 21
78.466
 31
0.0
  0
LINE
  5
CAD
330
A35
100
AcDbEntity
  8
0
100
AcDbLine
 10
41.389
 20
77.956
 30
0.0
 11
41.389
 21
77.879
 31
0.0
  0
LINE
  5
CAE
330
A35
100
AcDbEntity
  8
0
100
AcDbLine
 10
41.344
 20
77.887
 30
0.0
 11
41.356
 21
77.968
 31
0.0
  0
LINE
  5
CAF
330
A35
100
AcDbEntity
  8
0
100
AcDbLine
 10
41.344
 20
77.887
 30
0.0
 11
41.482
 21
77.855
 31
0.0
  0
LINE
  5
CB0
330
A35
100
AcDbEntity
  8
0
100
AcDbLine
 10
41.206
 20
77.562
 30
0.0
 11
41.194
 21
77.55
 31
0.0
  0
LINE
  5
CB1
330
A35
100
AcDbEntity
  8
0
100
AcDbLine
 10
41.356
 20
78.08
 30
0.0
 11
41.308
 21
78.149
 31
0.0
  0
LINE
  5
CB2
330
A35
100
AcDbEntity
  8
0
100
AcDbLine
 10
41.344
 20
78.286
 30
0.0
 11
41.356
 21
78.309
 31
0.0
  0
LINE
  5
CB3
330
A35
100
AcDbEntity
  8
0
100
AcDbLine
 10
41.389
 20
78.185
 30
0.0
 11
41.433
 21
78.117
 31
0.0
  0
LINE
  5
CB4
330
A35
100
AcDbEntity
  8
0
100
AcDbLine
 10
41.401
 20
77.98
 30
0.0
 11
41.388
 21
77.956
 31
0.0
  0
LINE
  5
CB5
330
A35
100
AcDbEntity
  8
0
100
AcDbLine
 10
41.502
 20
78.06
 30
0.0
 11
41.49
 21
78.036
 31
0.0
  0
LINE
  5
CB6
330
A35
100
AcDbEntity
  8
0
100
AcDbLine
 10
41.538
 20
78.072
 30
0.0
 11
41.502
 21
78.072
 31
0.0
  0
LINE
  5
CB7
330
A35
100
AcDbEntity
  8
0
100
AcDbLine
 10
41.482
 20
78.273
 30
0.0
 11
41.526
 21
78.205
 31
0.0
  0
LINE
  5
CB8
330
A35
100
AcDbEntity
  8
0
100
AcDbLine
 10
41.526
 20
77.594
 30
0.0
 11
41.583
 21
77.63
 31
0.0
  0
LINE
  5
CB9
330
A35
100
AcDbEntity
  8
0
100
AcDbLine
 10
41.308
 20
78.273
 30
0.0
 11
41.344
 21
78.273
 31
0.0
  0
LINE
  5
CBA
330
A35
100
AcDbEntity
  8
0
100
AcDbLine
 10
41.206
 20
78.197
 30
0.0
 11
41.239
 21
78.197
 31
0.0
  0
LINE
  5
CBB
330
A35
100
AcDbEntity
  8
0
100
AcDbLine
 10
41.777
 20
78.036
 30
0.0
 11
41.652
 21
77.687
 31
0.0
  0
LINE
  5
CBC
330
A35
100
AcDbEntity
  8
0
100
AcDbLine
 10
41.627
 20
78.354
 30
0.0
 11
41.777
 21
78.036
 31
0.0
  0
LINE
  5
CBD
330
A35
100
AcDbEntity
  8
0
100
AcDbLine
 10
41.332
 20
78.535
 30
0.0
 11
41.627
 21
78.354
 31
0.0
  0
LINE
  5
CBE
330
A35
100
AcDbEntity
  8
0
100
AcDbLine
 10
40.968
 20
78.466
 30
0.0
 11
41.332
 21
78.535
 31
0.0
  0
LINE
  5
CBF
330
A35
100
AcDbEntity
  8
0
100
AcDbLine
 10
40.851
 20
78.205
 30
0.0
 11
40.968
 21
78.466
 31
0.0
  0
LINE
  5
CC0
330
A35
100
AcDbEntity
  8
0
100
AcDbLine
 10
40.944
 20
77.887
 30
0.0
 11
40.851
 21
78.205
 31
0.0
  0
LINE
  5
CC1
330
A35
100
AcDbEntity
  8
0
100
AcDbLine
 10
41.219
 20
77.65
 30
0.0
 11
40.944
 21
77.887
 31
0.0
  0
LINE
  5
CC2
330
A35
100
AcDbEntity
  8
0
100
AcDbLine
 10
41.652
 20
77.687
 30
0.0
 11
41.219
 21
77.65
 31
0.0
  0
LINE
  5
CC3
330
A35
100
AcDbEntity
  8
0
100
AcDbLine
 10
40.774
 20
78.129
 30
0.0
 11
40.899
 21
78.41
 31
0.0
  0
LINE
  5
CC4
330
A35
100
AcDbEntity
  8
0
100
AcDbLine
 10
40.899
 20
77.787
 30
0.0
 11
40.774
 21
78.129
 31
0.0
  0
LINE
  5
CC5
330
A35
100
AcDbEntity
  8
0
100
AcDbLine
 10
41.206
 20
77.562
 30
0.0
 11
40.899
 21
77.787
 31
0.0
  0
LINE
  5
CC6
330
A35
100
AcDbEntity
  8
0
100
AcDbLine
 10
41.526
 20
77.582
 30
0.0
 11
41.206
 21
77.562
 31
0.0
  0
LINE
  5
CC7
330
A35
100
AcDbEntity
  8
0
100
AcDbLine
 10
40.649
 20
77.369
 30
0.0
 11
40.523
 21
77.401
 31
0.0
  0
LINE
  5
CC8
330
A35
100
AcDbEntity
  8
0
100
AcDbLine
 10
40.147
 20
77.389
 30
0.0
 11
40.078
 21
77.333
 31
0.0
  0
LINE
  5
CC9
330
A35
100
AcDbEntity
  8
0
100
AcDbLine
 10
40.293
 20
77.244
 30
0.0
 11
40.361
 21
77.232
 31
0.0
  0
LINE
  5
CCA
330
A35
100
AcDbEntity
  8
0
100
AcDbLine
 10
40.386
 20
77.116
 30
0.0
 11
40.293
 21
77.14
 31
0.0
  0
LINE
  5
CCB
330
A35
100
AcDbEntity
  8
0
100
AcDbLine
 10
40.361
 20
77.232
 30
0.0
 11
40.475
 21
77.196
 31
0.0
  0
LINE
  5
CCC
330
A35
100
AcDbEntity
  8
0
100
AcDbLine
 10
40.293
 20
77.244
 30
0.0
 11
40.361
 21
77.096
 31
0.0
  0
LINE
  5
CCD
330
A35
100
AcDbEntity
  8
0
100
AcDbLine
 10
40.818
 20
77.096
 30
0.0
 11
40.887
 21
77.072
 31
0.0
  0
LINE
  5
CCE
330
A35
100
AcDbEntity
  8
0
100
AcDbLine
 10
40.511
 20
77.196
 30
0.0
 11
40.418
 21
77.116
 31
0.0
  0
LINE
  5
CCF
330
A35
100
AcDbEntity
  8
0
100
AcDbLine
 10
40.705
 20
77.128
 30
0.0
 11
40.818
 21
77.096
 31
0.0
  0
LINE
  5
CD0
330
A35
100
AcDbEntity
  8
0
100
AcDbLine
 10
40.475
 20
77.059
 30
0.0
 11
40.361
 21
77.096
 31
0.0
  0
LINE
  5
CD1
330
A35
100
AcDbEntity
  8
0
100
AcDbLine
 10
40.523
 20
77.333
 30
0.0
 11
40.523
 21
77.401
 31
0.0
  0
LINE
  5
CD2
330
A35
100
AcDbEntity
  8
0
100
AcDbLine
 10
40.523
 20
77.301
 30
0.0
 11
40.568
 21
77.288
 31
0.0
  0
LINE
  5
CD3
330
A35
100
AcDbEntity
  8
0
100
AcDbLine
 10
40.649
 20
77.369
 30
0.0
 11
40.568
 21
77.288
 31
0.0
  0
LINE
  5
CD4
330
A35
100
AcDbEntity
  8
0
100
AcDbLine
 10
40.657
 20
77.301
 30
0.0
 11
40.649
 21
77.369
 31
0.0
  0
LINE
  5
CD5
330
A35
100
AcDbEntity
  8
0
100
AcDbLine
 10
40.705
 20
77.128
 30
0.0
 11
40.612
 21
77.051
 31
0.0
  0
LINE
  5
CD6
330
A35
100
AcDbEntity
  8
0
100
AcDbLine
 10
40.657
 20
77.184
 30
0.0
 11
40.657
 21
77.301
 31
0.0
  0
LINE
  5
CD7
330
A35
100
AcDbEntity
  8
0
100
AcDbLine
 10
40.523
 20
77.333
 30
0.0
 11
40.523
 21
77.232
 31
0.0
  0
LINE
  5
CD8
330
A35
100
AcDbEntity
  8
0
100
AcDbLine
 10
40.568
 20
77.288
 30
0.0
 11
40.568
 21
77.108
 31
0.0
  0
LINE
  5
CD9
330
A35
100
AcDbEntity
  8
0
100
AcDbLine
 10
40.568
 20
77.108
 30
0.0
 11
40.657
 21
77.184
 31
0.0
  0
LINE
  5
CDA
330
A35
100
AcDbEntity
  8
0
100
AcDbLine
 10
39.961
 20
76.971
 30
0.0
 11
39.928
 21
76.959
 31
0.0
  0
LINE
  5
CDB
330
A35
100
AcDbEntity
  8
0
100
AcDbLine
 10
40.887
 20
77.072
 30
0.0
 11
40.887
 21
76.935
 31
0.0
  0
LINE
  5
CDC
330
A35
100
AcDbEntity
  8
0
100
AcDbLine
 10
40.794
 20
76.991
 30
0.0
 11
40.887
 21
77.072
 31
0.0
  0
LINE
  5
CDD
330
A35
100
AcDbEntity
  8
0
100
AcDbLine
 10
40.794
 20
76.971
 30
0.0
 11
40.794
 21
76.991
 31
0.0
  0
LINE
  5
CDE
330
A35
100
AcDbEntity
  8
0
100
AcDbLine
 10
40.818
 20
76.971
 30
0.0
 11
40.887
 21
76.935
 31
0.0
  0
LINE
  5
CDF
330
A35
100
AcDbEntity
  8
0
100
AcDbLine
 10
40.818
 20
76.971
 30
0.0
 11
40.705
 21
76.991
 31
0.0
  0
LINE
  5
CE0
330
A35
100
AcDbEntity
  8
0
100
AcDbLine
 10
40.649
 20
76.778
 30
0.0
 11
40.523
 21
76.81
 31
0.0
  0
LINE
  5
CE1
330
A35
100
AcDbEntity
  8
0
100
AcDbLine
 10
40.649
 20
76.778
 30
0.0
 11
40.657
 21
76.858
 31
0.0
  0
LINE
  5
CE2
330
A35
100
AcDbEntity
  8
0
100
AcDbLine
 10
40.818
 20
76.617
 30
0.0
 11
40.762
 21
76.549
 31
0.0
  0
LINE
  5
CE3
330
A35
100
AcDbEntity
  8
0
100
AcDbLine
 10
40.794
 20
76.991
 30
0.0
 11
40.612
 21
77.051
 31
0.0
  0
LINE
  5
CE4
330
A35
100
AcDbEntity
  8
0
100
AcDbLine
 10
40.523
 20
77.003
 30
0.0
 11
40.523
 21
76.891
 31
0.0
  0
LINE
  5
CE5
330
A35
100
AcDbEntity
  8
0
100
AcDbLine
 10
40.58
 20
76.915
 30
0.0
 11
40.669
 21
76.991
 31
0.0
  0
LINE
  5
CE6
330
A35
100
AcDbEntity
  8
0
100
AcDbLine
 10
40.568
 20
76.879
 30
0.0
 11
40.568
 21
76.798
 31
0.0
  0
LINE
  5
CE7
330
A35
100
AcDbEntity
  8
0
100
AcDbLine
 10
40.523
 20
76.81
 30
0.0
 11
40.523
 21
76.891
 31
0.0
  0
LINE
  5
CE8
330
A35
100
AcDbEntity
  8
0
100
AcDbLine
 10
40.657
 20
76.858
 30
0.0
 11
40.657
 21
76.959
 31
0.0
  0
LINE
  5
CE9
330
A35
100
AcDbEntity
  8
0
100
AcDbLine
 10
40.523
 20
77.208
 30
0.0
 11
40.531
 21
77.232
 31
0.0
  0
LINE
  5
CEA
330
A35
100
AcDbEntity
  8
0
100
AcDbLine
 10
40.487
 20
77.196
 30
0.0
 11
40.523
 21
77.196
 31
0.0
  0
LINE
  5
CEB
330
A35
100
AcDbEntity
  8
0
100
AcDbLine
 10
40.386
 20
77.116
 30
0.0
 11
40.418
 21
77.116
 31
0.0
  0
LINE
  5
CEC
330
A35
100
AcDbEntity
  8
0
100
AcDbLine
 10
40.568
 20
77.116
 30
0.0
 11
40.612
 21
77.051
 31
0.0
  0
LINE
  5
CED
330
A35
100
AcDbEntity
  8
0
100
AcDbLine
 10
40.657
 20
77.196
 30
0.0
 11
40.705
 21
77.128
 31
0.0
  0
LINE
  5
CEE
330
A35
100
AcDbEntity
  8
0
100
AcDbLine
 10
40.531
 20
77.003
 30
0.0
 11
40.487
 21
77.072
 31
0.0
  0
LINE
  5
CEF
330
A35
100
AcDbEntity
  8
0
100
AcDbLine
 10
40.705
 20
76.517
 30
0.0
 11
40.762
 21
76.549
 31
0.0
  0
LINE
  5
CF0
330
A35
100
AcDbEntity
  8
0
100
AcDbLine
 10
40.717
 20
77.003
 30
0.0
 11
40.681
 21
77.003
 31
0.0
  0
LINE
  5
CF1
330
A35
100
AcDbEntity
  8
0
100
AcDbLine
 10
40.58
 20
76.915
 30
0.0
 11
40.568
 21
76.891
 31
0.0
  0
LINE
  5
CF2
330
A35
100
AcDbEntity
  8
0
100
AcDbLine
 10
40.681
 20
76.991
 30
0.0
 11
40.669
 21
76.971
 31
0.0
  0
LINE
  5
CF3
330
A35
100
AcDbEntity
  8
0
100
AcDbLine
 10
40.944
 20
76.959
 30
0.0
 11
40.818
 21
76.617
 31
0.0
  0
LINE
  5
CF4
330
A35
100
AcDbEntity
  8
0
100
AcDbLine
 10
40.806
 20
77.276
 30
0.0
 11
40.944
 21
76.959
 31
0.0
  0
LINE
  5
CF5
330
A35
100
AcDbEntity
  8
0
100
AcDbLine
 10
40.511
 20
77.469
 30
0.0
 11
40.806
 21
77.276
 31
0.0
  0
LINE
  5
CF6
330
A35
100
AcDbEntity
  8
0
100
AcDbLine
 10
40.147
 20
77.389
 30
0.0
 11
40.511
 21
77.469
 31
0.0
  0
LINE
  5
CF7
330
A35
100
AcDbEntity
  8
0
100
AcDbLine
 10
39.892
 20
76.641
 30
0.0
 11
39.884
 21
76.891
 31
0.0
  0
LINE
  5
CF8
330
A35
100
AcDbEntity
  8
0
100
AcDbLine
 10
39.884
 20
76.891
 30
0.0
 11
39.904
 21
76.629
 31
0.0
  0
LINE
  5
CF9
330
A35
100
AcDbEntity
  8
0
100
AcDbLine
 10
39.884
 20
76.891
 30
0.0
 11
39.928
 21
76.959
 31
0.0
  0
LINE
  5
CFA
330
A35
100
AcDbEntity
  8
0
100
AcDbLine
 10
40.017
 20
77.14
 30
0.0
 11
40.147
 21
77.389
 31
0.0
  0
LINE
  5
CFB
330
A35
100
AcDbEntity
  8
0
100
AcDbLine
 10
40.123
 20
76.81
 30
0.0
 11
40.017
 21
77.14
 31
0.0
  0
LINE
  5
CFC
330
A35
100
AcDbEntity
  8
0
100
AcDbLine
 10
40.556
 20
76.529
 30
0.0
 11
40.123
 21
76.81
 31
0.0
  0
LINE
  5
CFD
330
A35
100
AcDbEntity
  8
0
100
AcDbLine
 10
40.818
 20
76.617
 30
0.0
 11
40.556
 21
76.529
 31
0.0
  0
LINE
  5
CFE
330
A35
100
AcDbEntity
  8
0
100
AcDbLine
 10
39.953
 20
77.059
 30
0.0
 11
40.078
 21
77.333
 31
0.0
  0
LINE
  5
CFF
330
A35
100
AcDbEntity
  8
0
100
AcDbLine
 10
40.078
 20
76.71
 30
0.0
 11
39.953
 21
77.059
 31
0.0
  0
LINE
  5
D00
330
A35
100
AcDbEntity
  8
0
100
AcDbLine
 10
40.386
 20
76.481
 30
0.0
 11
40.078
 21
76.71
 31
0.0
  0
LINE
  5
D01
330
A35
100
AcDbEntity
  8
0
100
AcDbLine
 10
40.705
 20
76.505
 30
0.0
 11
40.386
 21
76.481
 31
0.0
  0
LINE
  5
D02
330
A35
100
AcDbEntity
  8
0
100
AcDbLine
 10
42.962
 20
67.449
 30
0.0
 11
42.962
 21
79.045
 31
0.0
  0
LINE
  5
D03
330
A35
100
AcDbEntity
  8
0
100
AcDbLine
 10
43.192
 20
79.057
 30
0.0
 11
43.281
 21
78.39
 31
0.0
  0
LINE
  5
D04
330
A35
100
AcDbEntity
  8
0
100
AcDbLine
 10
44.628
 20
78.559
 30
0.0
 11
44.959
 21
78.844
 31
0.0
  0
LINE
  5
D05
330
A35
100
AcDbEntity
  8
0
100
AcDbLine
 10
43.192
 20
66.806
 30
0.0
 11
43.192
 21
65.929
 31
0.0
  0
LINE
  5
D06
330
A35
100
AcDbEntity
  8
0
100
AcDbLine
 10
43.192
 20
67.404
 30
0.0
 11
43.192
 21
79.057
 31
0.0
  0
LINE
  5
D07
330
A35
100
AcDbEntity
  8
0
100
AcDbLine
 10
48.543
 20
62.822
 30
0.0
 11
48.543
 21
62.163
 31
0.0
  0
LINE
  5
D08
330
A35
100
AcDbEntity
  8
0
100
AcDbLine
 10
48.429
 20
61.552
 30
0.0
 11
46.945
 21
60.278
 31
0.0
  0
LINE
  5
D09
330
A35
100
AcDbEntity
  8
0
100
AcDbLine
 10
40.774
 20
65.929
 30
0.0
 11
39.666
 21
65.929
 31
0.0
  0
LINE
  5
D0A
330
A35
100
AcDbEntity
  8
0
100
AcDbLine
 10
39.666
 20
65.282
 30
0.0
 11
40.932
 21
65.282
 31
0.0
  0
LINE
  5
D0B
330
A35
100
AcDbEntity
  8
0
100
AcDbLine
 10
48.134
 20
76.143
 30
0.0
 11
48.235
 21
76.143
 31
0.0
  0
LINE
  5
D0C
330
A35
100
AcDbEntity
  8
0
100
AcDbLine
 10
47.985
 20
76.947
 30
0.0
 11
47.495
 21
76.891
 31
0.0
  0
LINE
  5
D0D
330
A35
100
AcDbEntity
  8
0
100
AcDbLine
 10
48.134
 20
76.915
 30
0.0
 11
48.134
 21
76.903
 31
0.0
  0
LINE
  5
D0E
330
A35
100
AcDbEntity
  8
0
100
AcDbLine
 10
47.321
 20
77.707
 30
0.0
 11
46.488
 21
77.469
 31
0.0
  0
LINE
  5
D0F
330
A35
100
AcDbEntity
  8
0
100
AcDbLine
 10
44.106
 20
65.929
 30
0.0
 11
42.986
 21
65.929
 31
0.0
  0
LINE
  5
D10
330
A35
100
AcDbEntity
  8
0
100
AcDbLine
 10
42.837
 20
65.282
 30
0.0
 11
44.106
 21
65.282
 31
0.0
  0
LINE
  5
D11
330
A35
100
AcDbEntity
  8
0
100
AcDbLine
 10
42.828
 20
77.003
 30
0.0
 11
42.962
 21
77.128
 31
0.0
  0
LINE
  5
D12
330
A35
100
AcDbEntity
  8
0
100
AcDbLine
 10
42.197
 20
76.473
 30
0.0
 11
42.197
 21
67.449
 31
0.0
  0
LINE
  5
D13
330
A35
100
AcDbEntity
  8
0
100
AcDbLine
 10
42.197
 20
76.473
 30
0.0
 11
42.497
 21
76.722
 31
0.0
  0
LINE
  5
D14
330
A35
100
AcDbEntity
  8
0
100
AcDbLine
 10
44.264
 20
78.478
 30
0.0
 11
44.264
 21
65.909
 31
0.0
  0
LINE
  5
D15
330
A35
100
AcDbEntity
  8
0
100
AcDbLine
 10
44.106
 20
65.929
 30
0.0
 11
44.106
 21
65.282
 31
0.0
  0
LINE
  5
D16
330
A35
100
AcDbEntity
  8
0
100
AcDbLine
 10
45.178
 20
77.799
 30
0.0
 11
46.294
 21
78.354
 31
0.0
  0
LINE
  5
D17
330
A35
100
AcDbEntity
  8
0
100
AcDbLine
 10
35.444
 20
75.721
 30
0.0
 11
35.444
 21
73.293
 31
0.0
  0
LINE
  5
D18
330
A35
100
AcDbEntity
  8
0
100
AcDbLine
 10
35.719
 20
64.068
 30
0.0
 11
35.719
 21
63.413
 31
0.0
  0
LINE
  5
D19
330
A35
100
AcDbEntity
  8
0
100
AcDbLine
 10
35.468
 20
75.757
 30
0.0
 11
35.8
 21
76.039
 31
0.0
  0
LINE
  5
D1A
330
A35
100
AcDbEntity
  8
0
100
AcDbLine
 10
36.264
 20
64.161
 30
0.0
 11
36.552
 21
64.068
 31
0.0
  0
LINE
  5
D1B
330
A35
100
AcDbEntity
  8
0
100
AcDbLine
 10
36.264
 20
64.161
 30
0.0
 11
36.264
 21
63.502
 31
0.0
  0
LINE
  5
D1C
330
A35
100
AcDbEntity
  8
0
100
AcDbLine
 10
35.225
 20
62.822
 30
0.0
 11
35.225
 21
62.163
 31
0.0
  0
LINE
  5
D1D
330
A35
100
AcDbEntity
  8
0
100
AcDbLine
 10
36.552
 20
64.068
 30
0.0
 11
36.552
 21
64.728
 31
0.0
  0
LINE
  5
D1E
330
A35
100
AcDbEntity
  8
0
100
AcDbLine
 10
36.633
 20
64.84
 30
0.0
 11
36.633
 21
64.193
 31
0.0
  0
LINE
  5
D1F
330
A35
100
AcDbEntity
  8
0
100
AcDbLine
 10
36.345
 20
75.665
 30
0.0
 11
36.139
 21
75.721
 31
0.0
  0
LINE
  5
D20
330
A35
100
AcDbEntity
  8
0
100
AcDbLine
 10
36.139
 20
64.217
 30
0.0
 11
36.139
 21
64.181
 31
0.0
  0
LINE
  5
D21
330
A35
100
AcDbEntity
  8
0
100
AcDbLine
 10
36.095
 20
76.006
 30
0.0
 11
35.925
 21
76.051
 31
0.0
  0
LINE
  5
D22
330
A35
100
AcDbEntity
  8
0
100
AcDbLine
 10
36.264
 20
63.502
 30
0.0
 11
37.336
 21
63.196
 31
0.0
  0
LINE
  5
D23
330
A35
100
AcDbEntity
  8
0
100
AcDbLine
 10
37.83
 20
63.594
 30
0.0
 11
36.734
 21
63.912
 31
0.0
  0
LINE
  5
D24
330
A35
100
AcDbEntity
  8
0
100
AcDbLine
 10
35.342
 20
61.552
 30
0.0
 11
36.823
 21
60.278
 31
0.0
  0
LINE
  5
D25
330
A35
100
AcDbEntity
  8
0
100
AcDbLine
 10
35.8
 20
73.804
 30
0.0
 11
35.8
 21
76.039
 31
0.0
  0
LINE
  5
D26
330
A35
100
AcDbEntity
  8
0
100
AcDbLine
 10
36.139
 20
75.97
 30
0.0
 11
36.139
 21
74.101
 31
0.0
  0
LINE
  5
D27
330
A35
100
AcDbEntity
  8
0
100
AcDbLine
 10
36.515
 20
76.541
 30
0.0
 11
38.343
 21
76.018
 31
0.0
  0
LINE
  5
D28
330
A35
100
AcDbEntity
  8
0
100
AcDbLine
 10
41.733
 20
76.605
 30
0.0
 11
41.733
 21
67.449
 31
0.0
  0
LINE
  5
D29
330
A35
100
AcDbEntity
  8
0
100
AcDbLine
 10
38.901
 20
66.601
 30
0.0
 11
38.901
 21
65.773
 31
0.0
  0
LINE
  5
D2A
330
A35
100
AcDbEntity
  8
0
100
AcDbLine
 10
38.901
 20
76.268
 30
0.0
 11
38.901
 21
78.024
 31
0.0
  0
LINE
  5
D2B
330
A35
100
AcDbEntity
  8
0
100
AcDbLine
 10
39.245
 20
66.894
 30
0.0
 11
39.245
 21
65.849
 31
0.0
  0
LINE
  5
D2C
330
A35
100
AcDbEntity
  8
0
100
AcDbLine
 10
41.777
 20
76.493
 30
0.0
 11
41.733
 21
76.585
 31
0.0
  0
LINE
  5
D2D
330
A35
100
AcDbEntity
  8
0
100
AcDbLine
 10
39.379
 20
76.674
 30
0.0
 11
39.379
 21
77.731
 31
0.0
  0
LINE
  5
D2E
330
A35
100
AcDbEntity
  8
0
100
AcDbLine
 10
39.666
 20
65.929
 30
0.0
 11
39.666
 21
65.282
 31
0.0
  0
LINE
  5
D2F
330
A35
100
AcDbEntity
  8
0
100
AcDbLine
 10
42.096
 20
76.448
 30
0.0
 11
41.878
 21
76.473
 31
0.0
  0
LINE
  5
D30
330
A35
100
AcDbEntity
  8
0
100
AcDbLine
 10
47.495
 20
77.662
 30
0.0
 11
47.483
 21
77.695
 31
0.0
  0
LINE
  5
D31
330
A35
100
AcDbEntity
  8
0
100
AcDbLine
 10
46.456
 20
78.354
 30
0.0
 11
46.294
 21
78.354
 31
0.0
  0
LINE
  5
D32
330
A35
100
AcDbEntity
  8
0
100
AcDbLine
 10
35.468
 20
75.757
 30
0.0
 11
35.456
 21
75.733
 31
0.0
  0
LINE
  5
D33
330
A35
100
AcDbEntity
  8
0
100
AcDbLine
 10
36.357
 20
76.529
 30
0.0
 11
36.345
 21
76.493
 31
0.0
  0
LINE
  5
D34
330
A35
100
AcDbEntity
  8
0
100
AcDbLine
 10
38.355
 20
78.253
 30
0.0
 11
38.343
 21
78.217
 31
0.0
  0
LINE
  5
D35
330
A35
100
AcDbEntity
  8
0
100
AcDbLine
 10
42.962
 20
79.045
 30
0.0
 11
43.192
 21
79.057
 31
0.0
  0
LINE
  5
D36
330
A35
100
AcDbEntity
  8
0
100
AcDbLine
 10
44.264
 20
78.478
 30
0.0
 11
44.628
 21
78.559
 31
0.0
  0
LINE
  5
D37
330
A35
100
AcDbEntity
  8
0
100
AcDbLine
 10
44.959
 20
78.844
 30
0.0
 11
44.959
 21
65.749
 31
0.0
  0
LINE
  5
D38
330
A35
100
AcDbEntity
  8
0
100
AcDbLine
 10
45.178
 20
78.82
 30
0.0
 11
44.959
 21
78.844
 31
0.0
  0
LINE
  5
D39
330
A35
100
AcDbEntity
  8
0
100
AcDbLine
 10
45.178
 20
78.82
 30
0.0
 11
45.178
 21
73.35
 31
0.0
  0
LINE
  5
D3A
330
A35
100
AcDbEntity
  8
0
100
AcDbLine
 10
48.51
 20
63.16
 30
0.0
 11
48.543
 21
62.822
 31
0.0
  0
LINE
  5
D3B
330
A35
100
AcDbEntity
  8
0
100
AcDbLine
 10
48.223
 20
63.819
 30
0.0
 11
48.51
 21
63.16
 31
0.0
  0
LINE
  5
D3C
330
A35
100
AcDbEntity
  8
0
100
AcDbLine
 10
47.69
 20
64.442
 30
0.0
 11
48.223
 21
63.819
 31
0.0
  0
LINE
  5
D3D
330
A35
100
AcDbEntity
  8
0
100
AcDbLine
 10
47.321
 20
64.728
 30
0.0
 11
47.69
 21
64.442
 31
0.0
  0
LINE
  5
D3E
330
A35
100
AcDbEntity
  8
0
100
AcDbLine
 10
46.217
 20
65.331
 30
0.0
 11
47.321
 21
64.728
 31
0.0
  0
LINE
  5
D3F
330
A35
100
AcDbEntity
  8
0
100
AcDbLine
 10
44.106
 20
65.929
 30
0.0
 11
46.217
 21
65.331
 31
0.0
  0
LINE
  5
D40
330
A35
100
AcDbEntity
  8
0
100
AcDbLine
 10
48.543
 20
62.163
 30
0.0
 11
48.429
 21
61.552
 31
0.0
  0
LINE
  5
D41
330
A35
100
AcDbEntity
  8
0
100
AcDbLine
 10
48.51
 20
62.505
 30
0.0
 11
48.543
 21
62.163
 31
0.0
  0
LINE
  5
D42
330
A35
100
AcDbEntity
  8
0
100
AcDbLine
 10
48.223
 20
63.16
 30
0.0
 11
48.51
 21
62.505
 31
0.0
  0
LINE
  5
D43
330
A35
100
AcDbEntity
  8
0
100
AcDbLine
 10
47.69
 20
63.787
 30
0.0
 11
48.223
 21
63.16
 31
0.0
  0
LINE
  5
D44
330
A35
100
AcDbEntity
  8
0
100
AcDbLine
 10
47.321
 20
64.068
 30
0.0
 11
47.69
 21
63.787
 31
0.0
  0
LINE
  5
D45
330
A35
100
AcDbEntity
  8
0
100
AcDbLine
 10
46.217
 20
64.671
 30
0.0
 11
47.321
 21
64.068
 31
0.0
  0
LINE
  5
D46
330
A35
100
AcDbEntity
  8
0
100
AcDbLine
 10
45.566
 20
64.921
 30
0.0
 11
46.217
 21
64.671
 31
0.0
  0
LINE
  5
D47
330
A35
100
AcDbEntity
  8
0
100
AcDbLine
 10
44.106
 20
65.282
 30
0.0
 11
45.566
 21
64.921
 31
0.0
  0
LINE
  5
D48
330
A35
100
AcDbEntity
  8
0
100
AcDbLine
 10
48.349
 20
76.087
 30
0.0
 11
48.235
 21
76.143
 31
0.0
  0
LINE
  5
D49
330
A35
100
AcDbEntity
  8
0
100
AcDbLine
 10
48.349
 20
76.087
 30
0.0
 11
48.349
 21
63.602
 31
0.0
  0
LINE
  5
D4A
330
A35
100
AcDbEntity
  8
0
100
AcDbLine
 10
48.134
 20
76.915
 30
0.0
 11
47.985
 21
76.947
 31
0.0
  0
LINE
  5
D4B
330
A35
100
AcDbEntity
  8
0
100
AcDbLine
 10
47.985
 20
76.947
 30
0.0
 11
47.985
 21
64.137
 31
0.0
  0
LINE
  5
D4C
330
A35
100
AcDbEntity
  8
0
100
AcDbLine
 10
48.134
 20
76.903
 30
0.0
 11
48.134
 21
63.956
 31
0.0
  0
LINE
  5
D4D
330
A35
100
AcDbEntity
  8
0
100
AcDbLine
 10
47.164
 20
61.697
 30
0.0
 11
46.925
 21
61.616
 31
0.0
  0
LINE
  5
D4E
330
A35
100
AcDbEntity
  8
0
100
AcDbLine
 10
47.265
 20
61.846
 30
0.0
 11
47.164
 21
61.697
 31
0.0
  0
LINE
  5
D4F
330
A35
100
AcDbEntity
  8
0
100
AcDbLine
 10
47.026
 20
62.051
 30
0.0
 11
47.265
 21
61.846
 31
0.0
  0
LINE
  5
D50
330
A35
100
AcDbEntity
  8
0
100
AcDbLine
 10
47.483
 20
77.687
 30
0.0
 11
47.321
 21
77.707
 31
0.0
  0
LINE
  5
D51
330
A35
100
AcDbEntity
  8
0
100
AcDbLine
 10
47.321
 20
77.707
 30
0.0
 11
47.321
 21
64.716
 31
0.0
  0
LINE
  5
D52
330
A35
100
AcDbEntity
  8
0
100
AcDbLine
 10
47.495
 20
77.662
 30
0.0
 11
47.495
 21
64.591
 31
0.0
  0
LINE
  5
D53
330
A35
100
AcDbEntity
  8
0
100
AcDbLine
 10
46.925
 20
62.071
 30
0.0
 11
47.026
 21
62.051
 31
0.0
  0
LINE
  5
D54
330
A35
100
AcDbEntity
  8
0
100
AcDbLine
 10
46.488
 20
78.309
 30
0.0
 11
46.456
 21
78.354
 31
0.0
  0
LINE
  5
D55
330
A35
100
AcDbEntity
  8
0
100
AcDbLine
 10
46.488
 20
78.309
 30
0.0
 11
46.488
 21
65.206
 31
0.0
  0
LINE
  5
D56
330
A35
100
AcDbEntity
  8
0
100
AcDbLine
 10
44.264
 20
78.478
 30
0.0
 11
43.443
 21
78.354
 31
0.0
  0
LINE
  5
D57
330
A35
100
AcDbEntity
  8
0
100
AcDbLine
 10
43.281
 20
78.39
 30
0.0
 11
43.443
 21
78.354
 31
0.0
  0
LINE
  5
D58
330
A35
100
AcDbEntity
  8
0
100
AcDbLine
 10
42.197
 20
76.473
 30
0.0
 11
42.084
 21
76.448
 31
0.0
  0
LINE
  5
D59
330
A35
100
AcDbEntity
  8
0
100
AcDbLine
 10
46.294
 20
78.354
 30
0.0
 11
46.294
 21
65.294
 31
0.0
  0
LINE
  5
D5A
330
A35
100
AcDbEntity
  8
0
100
AcDbLine
 10
45.178
 20
73.35
 30
0.0
 11
45.178
 21
65.692
 31
0.0
  0
LINE
  5
D5B
330
A35
100
AcDbEntity
  8
0
100
AcDbLine
 10
35.925
 20
76.051
 30
0.0
 11
35.8
 21
76.039
 31
0.0
  0
LINE
  5
D5C
330
A35
100
AcDbEntity
  8
0
100
AcDbLine
 10
35.945
 20
63.514
 30
0.0
 11
36.264
 21
63.502
 31
0.0
  0
LINE
  5
D5D
330
A35
100
AcDbEntity
  8
0
100
AcDbLine
 10
35.719
 20
63.413
 30
0.0
 11
35.945
 21
63.514
 31
0.0
  0
LINE
  5
D5E
330
A35
100
AcDbEntity
  8
0
100
AcDbLine
 10
35.945
 20
64.173
 30
0.0
 11
36.264
 21
64.161
 31
0.0
  0
LINE
  5
D5F
330
A35
100
AcDbEntity
  8
0
100
AcDbLine
 10
35.719
 20
64.068
 30
0.0
 11
35.945
 21
64.173
 31
0.0
  0
LINE
  5
D60
330
A35
100
AcDbEntity
  8
0
100
AcDbLine
 10
35.342
 20
61.552
 30
0.0
 11
35.225
 21
62.163
 31
0.0
  0
LINE
  5
D61
330
A35
100
AcDbEntity
  8
0
100
AcDbLine
 10
36.552
 20
64.728
 30
0.0
 11
36.633
 21
64.84
 31
0.0
  0
LINE
  5
D62
330
A35
100
AcDbEntity
  8
0
100
AcDbLine
 10
36.552
 20
64.068
 30
0.0
 11
36.633
 21
64.193
 31
0.0
  0
LINE
  5
D63
330
A35
100
AcDbEntity
  8
0
100
AcDbLine
 10
36.734
 20
63.912
 30
0.0
 11
36.552
 21
64.068
 31
0.0
  0
LINE
  5
D64
330
A35
100
AcDbEntity
  8
0
100
AcDbLine
 10
36.345
 20
74.27
 30
0.0
 11
36.345
 21
76.493
 31
0.0
  0
LINE
  5
D65
330
A35
100
AcDbEntity
  8
0
100
AcDbLine
 10
36.357
 20
64.398
 30
0.0
 11
36.357
 21
64.125
 31
0.0
  0
LINE
  5
D66
330
A35
100
AcDbEntity
  8
0
100
AcDbLine
 10
36.139
 20
75.97
 30
0.0
 11
36.095
 21
76.006
 31
0.0
  0
LINE
  5
D67
330
A35
100
AcDbEntity
  8
0
100
AcDbLine
 10
36.515
 20
76.541
 30
0.0
 11
36.357
 21
76.517
 31
0.0
  0
LINE
  5
D68
330
A35
100
AcDbEntity
  8
0
100
AcDbLine
 10
36.515
 20
64.535
 30
0.0
 11
36.515
 21
64.081
 31
0.0
  0
LINE
  5
D69
330
A35
100
AcDbEntity
  8
0
100
AcDbLine
 10
35.351
 20
63.457
 30
0.0
 11
35.719
 21
64.068
 31
0.0
  0
LINE
  5
D6A
330
A35
100
AcDbEntity
  8
0
100
AcDbLine
 10
35.225
 20
62.822
 30
0.0
 11
35.351
 21
63.457
 31
0.0
  0
LINE
  5
D6B
330
A35
100
AcDbEntity
  8
0
100
AcDbLine
 10
35.351
 20
62.798
 30
0.0
 11
35.719
 21
63.413
 31
0.0
  0
LINE
  5
D6C
330
A35
100
AcDbEntity
  8
0
100
AcDbLine
 10
35.225
 20
62.163
 30
0.0
 11
35.351
 21
62.798
 31
0.0
  0
LINE
  5
D6D
330
A35
100
AcDbEntity
  8
0
100
AcDbLine
 10
36.515
 20
76.541
 30
0.0
 11
36.515
 21
74.419
 31
0.0
  0
LINE
  5
D6E
330
A35
100
AcDbEntity
  8
0
100
AcDbLine
 10
36.345
 20
64.137
 30
0.0
 11
36.345
 21
64.386
 31
0.0
  0
LINE
  5
D6F
330
A35
100
AcDbEntity
  8
0
100
AcDbLine
 10
37.692
 20
65.387
 30
0.0
 11
39.666
 21
65.929
 31
0.0
  0
LINE
  5
D70
330
A35
100
AcDbEntity
  8
0
100
AcDbLine
 10
36.633
 20
64.84
 30
0.0
 11
37.692
 21
65.387
 31
0.0
  0
LINE
  5
D71
330
A35
100
AcDbEntity
  8
0
100
AcDbLine
 10
38.295
 20
64.953
 30
0.0
 11
39.666
 21
65.282
 31
0.0
  0
LINE
  5
D72
330
A35
100
AcDbEntity
  8
0
100
AcDbLine
 10
36.633
 20
64.193
 30
0.0
 11
38.295
 21
64.953
 31
0.0
  0
LINE
  5
D73
330
A35
100
AcDbEntity
  8
0
100
AcDbLine
 10
41.87
 20
76.461
 30
0.0
 11
41.777
 21
76.493
 31
0.0
  0
LINE
  5
D74
330
A35
100
AcDbEntity
  8
0
100
AcDbLine
 10
38.343
 20
75.994
 30
0.0
 11
38.343
 21
78.205
 31
0.0
  0
LINE
  5
D75
330
A35
100
AcDbEntity
  8
0
100
AcDbLine
 10
38.513
 20
78.241
 30
0.0
 11
38.513
 21
76.143
 31
0.0
  0
LINE
  5
D76
330
A35
100
AcDbEntity
  8
0
100
AcDbLine
 10
38.513
 20
66.259
 30
0.0
 11
38.513
 21
65.668
 31
0.0
  0
LINE
  5
D77
330
A35
100
AcDbEntity
  8
0
100
AcDbLine
 10
38.432
 20
78.265
 30
0.0
 11
38.355
 21
78.241
 31
0.0
  0
LINE
  5
D78
330
A35
100
AcDbEntity
  8
0
100
AcDbLine
 10
38.343
 20
65.612
 30
0.0
 11
38.343
 21
66.11
 31
0.0
  0
LINE
  5
D79
330
A35
100
AcDbEntity
  8
0
100
AcDbLine
 10
46.877
 20
62.424
 30
0.0
 11
46.877
 21
62.481
 31
0.0
  0
LINE
  5
D7A
330
A35
100
AcDbEntity
  8
0
100
AcDbLine
 10
46.877
 20
62.424
 30
0.0
 11
46.889
 21
62.412
 31
0.0
  0
LINE
  5
D7B
330
A35
100
AcDbEntity
  8
0
100
AcDbLine
 10
43.237
 20
64.478
 30
0.0
 11
43.237
 21
64.498
 31
0.0
  0
LINE
  5
D7C
330
A35
100
AcDbEntity
  8
0
100
AcDbLine
 10
43.237
 20
64.498
 30
0.0
 11
43.217
 21
64.478
 31
0.0
  0
LINE
  5
D7D
330
A35
100
AcDbEntity
  8
0
100
AcDbLine
 10
43.455
 20
64.491
 30
0.0
 11
43.455
 21
64.547
 31
0.0
  0
LINE
  5
D7E
330
A35
100
AcDbEntity
  8
0
100
AcDbLine
 10
45.453
 20
63.888
 30
0.0
 11
45.453
 21
63.875
 31
0.0
  0
LINE
  5
D7F
330
A35
100
AcDbEntity
  8
0
100
AcDbLine
 10
44.903
 20
64.117
 30
0.0
 11
44.903
 21
64.173
 31
0.0
  0
LINE
  5
D80
330
A35
100
AcDbEntity
  8
0
100
AcDbLine
 10
45.393
 20
63.956
 30
0.0
 11
45.393
 21
63.912
 31
0.0
  0
LINE
  5
D81
330
A35
100
AcDbEntity
  8
0
100
AcDbLine
 10
46.112
 20
63.526
 30
0.0
 11
46.112
 21
63.478
 31
0.0
  0
LINE
  5
D82
330
A35
100
AcDbEntity
  8
0
100
AcDbLine
 10
43.876
 20
64.41
 30
0.0
 11
43.876
 21
64.466
 31
0.0
  0
LINE
  5
D83
330
A35
100
AcDbEntity
  8
0
100
AcDbLine
 10
37.919
 20
63.682
 30
0.0
 11
37.919
 21
63.662
 31
0.0
  0
LINE
  5
D84
330
A35
100
AcDbEntity
  8
0
100
AcDbLine
 10
37.967
 20
63.682
 30
0.0
 11
37.967
 21
63.739
 31
0.0
  0
LINE
  5
D85
330
A35
100
AcDbEntity
  8
0
100
AcDbLine
 10
36.847
 20
62.131
 30
0.0
 11
36.847
 21
62.107
 31
0.0
  0
LINE
  5
D86
330
A35
100
AcDbEntity
  8
0
100
AcDbLine
 10
36.847
 20
62.131
 30
0.0
 11
36.847
 21
62.163
 31
0.0
  0
LINE
  5
D87
330
A35
100
AcDbEntity
  8
0
100
AcDbLine
 10
37.179
 20
63.003
 30
0.0
 11
37.179
 21
63.059
 31
0.0
  0
LINE
  5
D88
330
A35
100
AcDbEntity
  8
0
100
AcDbLine
 10
39.747
 20
64.374
 30
0.0
 11
39.973
 21
64.434
 31
0.0
  0
LINE
  5
D89
330
A35
100
AcDbEntity
  8
0
100
AcDbLine
 10
45.393
 20
63.912
 30
0.0
 11
44.903
 21
64.125
 31
0.0
  0
LINE
  5
D8A
330
A35
100
AcDbEntity
  8
0
100
AcDbLine
 10
45.393
 20
63.956
 30
0.0
 11
44.903
 21
64.173
 31
0.0
  0
LINE
  5
D8B
330
A35
100
AcDbEntity
  8
0
100
AcDbLine
 10
43.876
 20
64.422
 30
0.0
 11
43.601
 21
64.466
 31
0.0
  0
LINE
  5
D8C
330
A35
100
AcDbEntity
  8
0
100
AcDbLine
 10
46.614
 20
63.027
 30
0.0
 11
46.877
 21
62.481
 31
0.0
  0
LINE
  5
D8D
330
A35
100
AcDbEntity
  8
0
100
AcDbLine
 10
46.112
 20
63.526
 30
0.0
 11
46.614
 21
63.027
 31
0.0
  0
LINE
  5
D8E
330
A35
100
AcDbEntity
  8
0
100
AcDbLine
 10
46.614
 20
62.979
 30
0.0
 11
46.112
 21
63.478
 31
0.0
  0
LINE
  5
D8F
330
A35
100
AcDbEntity
  8
0
100
AcDbLine
 10
46.877
 20
62.424
 30
0.0
 11
46.614
 21
62.979
 31
0.0
  0
LINE
  5
D90
330
A35
100
AcDbEntity
  8
0
100
AcDbLine
 10
43.455
 20
64.547
 30
0.0
 11
43.876
 21
64.466
 31
0.0
  0
LINE
  5
D91
330
A35
100
AcDbEntity
  8
0
100
AcDbLine
 10
43.455
 20
64.491
 30
0.0
 11
43.281
 21
64.478
 31
0.0
  0
LINE
  5
D92
330
A35
100
AcDbEntity
  8
0
100
AcDbLine
 10
43.455
 20
64.491
 30
0.0
 11
43.601
 21
64.466
 31
0.0
  0
LINE
  5
D93
330
A35
100
AcDbEntity
  8
0
100
AcDbLine
 10
43.455
 20
64.547
 30
0.0
 11
43.237
 21
64.498
 31
0.0
  0
LINE
  5
D94
330
A35
100
AcDbEntity
  8
0
100
AcDbLine
 10
44.721
 20
64.181
 30
0.0
 11
44.903
 21
64.173
 31
0.0
  0
LINE
  5
D95
330
A35
100
AcDbEntity
  8
0
100
AcDbLine
 10
45.393
 20
63.956
 30
0.0
 11
45.453
 21
63.888
 31
0.0
  0
LINE
  5
D96
330
A35
100
AcDbEntity
  8
0
100
AcDbLine
 10
45.987
 20
63.57
 30
0.0
 11
46.112
 21
63.526
 31
0.0
  0
LINE
  5
D97
330
A35
100
AcDbEntity
  8
0
100
AcDbLine
 10
43.989
 20
64.386
 30
0.0
 11
43.876
 21
64.466
 31
0.0
  0
LINE
  5
D98
330
A35
100
AcDbEntity
  8
0
100
AcDbLine
 10
37.919
 20
63.682
 30
0.0
 11
37.967
 21
63.739
 31
0.0
  0
LINE
  5
D99
330
A35
100
AcDbEntity
  8
0
100
AcDbLine
 10
37.259
 20
63.104
 30
0.0
 11
37.179
 21
63.059
 31
0.0
  0
LINE
  5
D9A
330
A35
100
AcDbEntity
  8
0
100
AcDbLine
 10
36.997
 20
62.73
 30
0.0
 11
36.847
 21
62.163
 31
0.0
  0
LINE
  5
D9B
330
A35
100
AcDbEntity
  8
0
100
AcDbLine
 10
37.179
 20
63.003
 30
0.0
 11
36.997
 21
62.73
 31
0.0
  0
LINE
  5
D9C
330
A35
100
AcDbEntity
  8
0
100
AcDbLine
 10
36.884
 20
62.469
 30
0.0
 11
36.847
 21
62.163
 31
0.0
  0
LINE
  5
D9D
330
A35
100
AcDbEntity
  8
0
100
AcDbLine
 10
37.179
 20
63.059
 30
0.0
 11
36.884
 21
62.469
 31
0.0
  0
LINE
  5
D9E
330
A35
100
AcDbEntity
  8
0
100
AcDbLine
 10
38.489
 20
63.968
 30
0.0
 11
37.967
 21
63.682
 31
0.0
  0
LINE
  5
D9F
330
A35
100
AcDbEntity
  8
0
100
AcDbLine
 10
39.747
 20
64.374
 30
0.0
 11
38.489
 21
63.968
 31
0.0
  0
LINE
  5
DA0
330
A35
100
AcDbEntity
  8
0
100
AcDbLine
 10
38.489
 20
64.012
 30
0.0
 11
39.747
 21
64.434
 31
0.0
  0
LINE
  5
DA1
330
A35
100
AcDbEntity
  8
0
100
AcDbLine
 10
37.967
 20
63.739
 30
0.0
 11
38.489
 21
64.012
 31
0.0
  0
LINE
  5
DA2
330
A35
100
AcDbEntity
  8
0
100
AcDbLine
 10
40.932
 20
61.05
 30
0.0
 11
42.837
 21
61.05
 31
0.0
  0
LINE
  5
DA3
330
A35
100
AcDbEntity
  8
0
100
AcDbLine
 10
42.837
 20
60.837
 30
0.0
 11
40.932
 21
60.837
 31
0.0
  0
LINE
  5
DA4
330
A35
100
AcDbEntity
  8
0
100
AcDbLine
 10
43.079
 20
67.372
 30
0.0
 11
43.148
 21
67.372
 31
0.0
  0
LINE
  5
DA5
330
A35
100
AcDbEntity
  8
0
100
AcDbLine
 10
43.112
 20
67.449
 30
0.0
 11
40.657
 21
67.449
 31
0.0
  0
LINE
  5
DA6
330
A35
100
AcDbEntity
  8
0
100
AcDbLine
 10
40.932
 20
64.466
 30
0.0
 11
42.837
 21
64.466
 31
0.0
  0
LINE
  5
DA7
330
A35
100
AcDbEntity
  8
0
100
AcDbLine
 10
43.148
 20
67.372
 30
0.0
 11
43.112
 21
67.372
 31
0.0
  0
LINE
  5
DA8
330
A35
100
AcDbEntity
  8
0
100
AcDbLine
 10
43.148
 20
67.372
 30
0.0
 11
43.148
 21
67.381
 31
0.0
  0
LINE
  5
DA9
330
A35
100
AcDbEntity
  8
0
100
AcDbLine
 10
43.148
 20
67.372
 30
0.0
 11
43.217
 21
67.324
 31
0.0
  0
LINE
  5
DAA
330
A35
100
AcDbEntity
  8
0
100
AcDbLine
 10
43.148
 20
67.381
 30
0.0
 11
43.148
 21
67.429
 31
0.0
  0
LINE
  5
DAB
330
A35
100
AcDbEntity
  8
0
100
AcDbLine
 10
43.217
 20
67.381
 30
0.0
 11
43.217
 21
66.894
 31
0.0
  0
LINE
  5
DAC
330
A35
100
AcDbEntity
  8
0
100
AcDbLine
 10
43.217
 20
67.381
 30
0.0
 11
43.148
 21
67.429
 31
0.0
  0
LINE
  5
DAD
330
A35
100
AcDbEntity
  8
0
100
AcDbLine
 10
43.055
 20
67.372
 30
0.0
 11
43.055
 21
67.36
 31
0.0
  0
LINE
  5
DAE
330
A35
100
AcDbEntity
  8
0
100
AcDbLine
 10
43.055
 20
67.372
 30
0.0
 11
43.055
 21
67.404
 31
0.0
  0
LINE
  5
DAF
330
A35
100
AcDbEntity
  8
0
100
AcDbLine
 10
42.837
 20
65.262
 30
0.0
 11
42.837
 21
64.466
 31
0.0
  0
LINE
  5
DB0
330
A35
100
AcDbEntity
  8
0
100
AcDbLine
 10
42.837
 20
65.262
 30
0.0
 11
43.217
 21
66.894
 31
0.0
  0
LINE
  5
DB1
330
A35
100
AcDbEntity
  8
0
100
AcDbLine
 10
42.837
 20
64.454
 30
0.0
 11
42.837
 21
61.05
 31
0.0
  0
LINE
  5
DB2
330
A35
100
AcDbEntity
  8
0
100
AcDbLine
 10
42.837
 20
64.454
 30
0.0
 11
42.837
 21
64.466
 31
0.0
  0
LINE
  5
DB3
330
A35
100
AcDbEntity
  8
0
100
AcDbLine
 10
42.837
 20
61.05
 30
0.0
 11
42.837
 21
58.341
 31
0.0
  0
LINE
  5
DB4
330
A35
100
AcDbEntity
  8
0
100
AcDbLine
 10
42.837
 20
58.304
 30
0.0
 11
42.837
 21
57.714
 31
0.0
  0
LINE
  5
DB5
330
A35
100
AcDbEntity
  8
0
100
AcDbLine
 10
42.837
 20
58.341
 30
0.0
 11
42.873
 21
58.341
 31
0.0
  0
LINE
  5
DB6
330
A35
100
AcDbEntity
  8
0
100
AcDbLine
 10
42.873
 20
58.304
 30
0.0
 11
42.837
 21
58.341
 31
0.0
  0
LINE
  5
DB7
330
A35
100
AcDbEntity
  8
0
100
AcDbLine
 10
43.217
 20
59.952
 30
0.0
 11
43.217
 21
60.065
 31
0.0
  0
LINE
  5
DB8
330
A35
100
AcDbEntity
  8
0
100
AcDbLine
 10
43.023
 20
60.222
 30
0.0
 11
42.837
 21
60.222
 31
0.0
  0
LINE
  5
DB9
330
A35
100
AcDbEntity
  8
0
100
AcDbLine
 10
40.556
 20
67.381
 30
0.0
 11
40.612
 21
67.429
 31
0.0
  0
LINE
  5
DBA
330
A35
100
AcDbEntity
  8
0
100
AcDbLine
 10
40.556
 20
67.381
 30
0.0
 11
40.556
 21
66.894
 31
0.0
  0
LINE
  5
DBB
330
A35
100
AcDbEntity
  8
0
100
AcDbLine
 10
40.556
 20
67.324
 30
0.0
 11
40.657
 21
67.372
 31
0.0
  0
LINE
  5
DBC
330
A35
100
AcDbEntity
  8
0
100
AcDbLine
 10
40.612
 20
67.372
 30
0.0
 11
40.693
 21
67.372
 31
0.0
  0
LINE
  5
DBD
330
A35
100
AcDbEntity
  8
0
100
AcDbLine
 10
40.612
 20
67.381
 30
0.0
 11
40.612
 21
67.429
 31
0.0
  0
LINE
  5
DBE
330
A35
100
AcDbEntity
  8
0
100
AcDbLine
 10
40.612
 20
67.381
 30
0.0
 11
40.612
 21
67.372
 31
0.0
  0
LINE
  5
DBF
330
A35
100
AcDbEntity
  8
0
100
AcDbLine
 10
40.717
 20
67.372
 30
0.0
 11
40.717
 21
67.36
 31
0.0
  0
LINE
  5
DC0
330
A35
100
AcDbEntity
  8
0
100
AcDbLine
 10
40.717
 20
67.372
 30
0.0
 11
40.717
 21
67.404
 31
0.0
  0
LINE
  5
DC1
330
A35
100
AcDbEntity
  8
0
100
AcDbLine
 10
40.932
 20
65.262
 30
0.0
 11
40.932
 21
61.05
 31
0.0
  0
LINE
  5
DC2
330
A35
100
AcDbEntity
  8
0
100
AcDbLine
 10
40.556
 20
66.894
 30
0.0
 11
40.932
 21
65.262
 31
0.0
  0
LINE
  5
DC3
330
A35
100
AcDbEntity
  8
0
100
AcDbLine
 10
40.932
 20
60.222
 30
0.0
 11
40.738
 21
60.222
 31
0.0
  0
LINE
  5
DC4
330
A35
100
AcDbEntity
  8
0
100
AcDbLine
 10
40.932
 20
60.837
 30
0.0
 11
40.932
 21
61.05
 31
0.0
  0
LINE
  5
DC5
330
A35
100
AcDbEntity
  8
0
100
AcDbLine
 10
40.932
 20
60.837
 30
0.0
 11
40.932
 21
58.341
 31
0.0
  0
LINE
  5
DC6
330
A35
100
AcDbEntity
  8
0
100
AcDbLine
 10
40.932
 20
58.304
 30
0.0
 11
40.932
 21
57.714
 31
0.0
  0
LINE
  5
DC7
330
A35
100
AcDbEntity
  8
0
100
AcDbLine
 10
40.932
 20
58.341
 30
0.0
 11
40.887
 21
58.341
 31
0.0
  0
LINE
  5
DC8
330
A35
100
AcDbEntity
  8
0
100
AcDbLine
 10
40.556
 20
59.952
 30
0.0
 11
40.556
 21
60.065
 31
0.0
  0
LINE
  5
DC9
330
A35
100
AcDbEntity
  8
0
100
AcDbLine
 10
40.932
 20
58.341
 30
0.0
 11
40.899
 21
58.304
 31
0.0
  0
LINE
  5
DCA
330
A35
100
AcDbEntity
  8
0
100
AcDbLine
 10
42.315
 20
67.031
 30
0.0
 11
43.055
 21
67.36
 31
0.0
  0
LINE
  5
DCB
330
A35
100
AcDbEntity
  8
0
100
AcDbLine
 10
41.878
 20
66.987
 30
0.0
 11
42.315
 21
67.031
 31
0.0
  0
LINE
  5
DCC
330
A35
100
AcDbEntity
  8
0
100
AcDbLine
 10
41.057
 20
67.155
 30
0.0
 11
41.878
 21
66.987
 31
0.0
  0
LINE
  5
DCD
330
A35
100
AcDbEntity
  8
0
100
AcDbLine
 10
40.717
 20
67.36
 30
0.0
 11
41.057
 21
67.155
 31
0.0
  0
LINE
  5
DCE
330
A35
100
AcDbEntity
  8
0
100
AcDbLine
 10
42.315
 20
67.075
 30
0.0
 11
43.055
 21
67.404
 31
0.0
  0
LINE
  5
DCF
330
A35
100
AcDbEntity
  8
0
100
AcDbLine
 10
41.878
 20
67.031
 30
0.0
 11
42.315
 21
67.075
 31
0.0
  0
LINE
  5
DD0
330
A35
100
AcDbEntity
  8
0
100
AcDbLine
 10
41.057
 20
67.2
 30
0.0
 11
41.878
 21
67.031
 31
0.0
  0
LINE
  5
DD1
330
A35
100
AcDbEntity
  8
0
100
AcDbLine
 10
40.717
 20
67.404
 30
0.0
 11
41.057
 21
67.2
 31
0.0
  0
LINE
  5
DD2
330
A35
100
AcDbEntity
  8
0
100
AcDbLine
 10
43.112
 20
67.449
 30
0.0
 11
43.148
 21
67.429
 31
0.0
  0
LINE
  5
DD3
330
A35
100
AcDbEntity
  8
0
100
AcDbLine
 10
43.055
 20
67.36
 30
0.0
 11
43.112
 21
67.372
 31
0.0
  0
LINE
  5
DD4
330
A35
100
AcDbEntity
  8
0
100
AcDbLine
 10
43.055
 20
67.404
 30
0.0
 11
43.112
 21
67.449
 31
0.0
  0
LINE
  5
DD5
330
A35
100
AcDbEntity
  8
0
100
AcDbLine
 10
43.136
 20
58.341
 30
0.0
 11
43.099
 21
58.316
 31
0.0
  0
LINE
  5
DD6
330
A35
100
AcDbEntity
  8
0
100
AcDbLine
 10
43.217
 20
60.065
 30
0.0
 11
43.023
 21
60.222
 31
0.0
  0
LINE
  5
DD7
330
A35
100
AcDbEntity
  8
0
100
AcDbLine
 10
40.717
 20
67.36
 30
0.0
 11
40.657
 21
67.372
 31
0.0
  0
LINE
  5
DD8
330
A35
100
AcDbEntity
  8
0
100
AcDbLine
 10
40.717
 20
67.404
 30
0.0
 11
40.612
 21
67.429
 31
0.0
  0
LINE
  5
DD9
330
A35
100
AcDbEntity
  8
0
100
AcDbLine
 10
40.556
 20
60.065
 30
0.0
 11
40.738
 21
60.222
 31
0.0
  0
LINE
  5
DDA
330
A35
100
AcDbEntity
  8
0
100
AcDbLine
 10
40.624
 20
58.341
 30
0.0
 11
40.669
 21
58.316
 31
0.0
  0
LINE
  5
DDB
330
A35
100
AcDbEntity
  8
0
100
AcDbLine
 10
35.512
 20
63.763
 30
0.0
 11
35.351
 21
63.638
 31
0.0
  0
LINE
  5
DDC
330
A35
100
AcDbEntity
  8
0
100
AcDbLine
 10
35.351
 20
73.213
 30
0.0
 11
35.775
 21
73.579
 31
0.0
  0
LINE
  5
DDD
330
A35
100
AcDbEntity
  8
0
100
AcDbLine
 10
35.342
 20
73.181
 30
0.0
 11
35.342
 21
63.602
 31
0.0
  0
LINE
  5
DDE
330
A35
100
AcDbEntity
  8
0
100
AcDbLine
 10
35.775
 20
73.261
 30
0.0
 11
35.775
 21
73.747
 31
0.0
  0
LINE
  5
DDF
330
A35
100
AcDbEntity
  8
0
100
AcDbLine
 10
35.901
 20
72.964
 30
0.0
 11
35.981
 21
72.943
 31
0.0
  0
LINE
  5
DE0
330
A35
100
AcDbEntity
  8
0
100
AcDbLine
 10
36.552
 20
64.659
 30
0.0
 11
35.981
 21
64.173
 31
0.0
  0
LINE
  5
DE1
330
A35
100
AcDbEntity
  8
0
100
AcDbLine
 10
36.095
 20
64.181
 30
0.0
 11
36.552
 21
64.567
 31
0.0
  0
LINE
  5
DE2
330
A35
100
AcDbEntity
  8
0
100
AcDbLine
 10
36.139
 20
72.988
 30
0.0
 11
36.058
 21
73.012
 31
0.0
  0
LINE
  5
DE3
330
A35
100
AcDbEntity
  8
0
100
AcDbLine
 10
36.746
 20
66.09
 30
0.0
 11
36.859
 21
66.054
 31
0.0
  0
LINE
  5
DE4
330
A35
100
AcDbEntity
  8
0
100
AcDbLine
 10
37.041
 20
66.677
 30
0.0
 11
36.928
 21
66.725
 31
0.0
  0
LINE
  5
DE5
330
A35
100
AcDbEntity
  8
0
100
AcDbLine
 10
40.705
 20
76.404
 30
0.0
 11
40.705
 21
76.505
 31
0.0
  0
LINE
  5
DE6
330
A35
100
AcDbEntity
  8
0
100
AcDbLine
 10
40.487
 20
76.461
 30
0.0
 11
40.705
 21
76.404
 31
0.0
  0
LINE
  5
DE7
330
A35
100
AcDbEntity
  8
0
100
AcDbLine
 10
40.657
 20
76.481
 30
0.0
 11
40.657
 21
76.412
 31
0.0
  0
LINE
  5
DE8
330
A35
100
AcDbEntity
  8
0
100
AcDbLine
 10
39.391
 20
76.698
 30
0.0
 11
38.707
 21
76.107
 31
0.0
  0
LINE
  5
DE9
330
A35
100
AcDbEntity
  8
0
100
AcDbLine
 10
39.585
 20
76.722
 30
0.0
 11
39.585
 21
67.143
 31
0.0
  0
LINE
  5
DEA
330
A35
100
AcDbEntity
  8
0
100
AcDbLine
 10
39.391
 20
67.111
 30
0.0
 11
39.391
 21
76.698
 31
0.0
  0
LINE
  5
DEB
330
A35
100
AcDbEntity
  8
0
100
AcDbLine
 10
38.626
 20
76.211
 30
0.0
 11
38.626
 21
75.721
 31
0.0
  0
LINE
  5
DEC
330
A35
100
AcDbEntity
  8
0
100
AcDbLine
 10
38.707
 20
75.689
 30
0.0
 11
38.707
 21
76.107
 31
0.0
  0
LINE
  5
DED
330
A35
100
AcDbEntity
  8
0
100
AcDbLine
 10
41.445
 20
76.766
 30
0.0
 11
41.445
 21
67.449
 31
0.0
  0
LINE
  5
DEE
330
A35
100
AcDbEntity
  8
0
100
AcDbLine
 10
41.194
 20
77.084
 30
0.0
 11
40.956
 21
77.152
 31
0.0
  0
LINE
  5
DEF
330
A35
100
AcDbEntity
  8
0
100
AcDbLine
 10
40.317
 20
76.517
 30
0.0
 11
39.585
 21
76.722
 31
0.0
  0
LINE
  5
DF0
330
A35
100
AcDbEntity
  8
0
100
AcDbLine
 10
39.585
 20
67.087
 30
0.0
 11
39.585
 21
66.428
 31
0.0
  0
LINE
  5
DF1
330
A35
100
AcDbEntity
  8
0
100
AcDbLine
 10
39.585
 20
67.087
 30
0.0
 11
39.54
 21
67.099
 31
0.0
  0
LINE
  5
DF2
330
A35
100
AcDbEntity
  8
0
100
AcDbLine
 10
39.585
 20
67.143
 30
0.0
 11
39.633
 21
66.476
 31
0.0
  0
LINE
  5
DF3
330
A35
100
AcDbEntity
  8
0
100
AcDbLine
 10
39.585
 20
67.087
 30
0.0
 11
39.633
 21
67.131
 31
0.0
  0
LINE
  5
DF4
330
A35
100
AcDbEntity
  8
0
100
AcDbLine
 10
39.633
 20
66.476
 30
0.0
 11
39.585
 21
66.428
 31
0.0
  0
LINE
  5
DF5
330
A35
100
AcDbEntity
  8
0
100
AcDbLine
 10
38.707
 20
75.689
 30
0.0
 11
38.626
 21
75.721
 31
0.0
  0
LINE
  5
DF6
330
A35
100
AcDbEntity
  8
0
100
AcDbLine
 10
38.42
 20
74.949
 30
0.0
 11
38.343
 21
74.985
 31
0.0
  0
LINE
  5
DF7
330
A35
100
AcDbEntity
  8
0
100
AcDbLine
 10
39.484
 20
67.087
 30
0.0
 11
37.304
 21
65.214
 31
0.0
  0
LINE
  5
DF8
330
A35
100
AcDbEntity
  8
0
100
AcDbLine
 10
36.139
 20
72.988
 30
0.0
 11
38.42
 21
74.949
 31
0.0
  0
LINE
  5
DF9
330
A35
100
AcDbEntity
  8
0
100
AcDbLine
 10
38.343
 20
74.985
 30
0.0
 11
36.058
 21
73.012
 31
0.0
  0
LINE
  5
DFA
330
A35
100
AcDbEntity
  8
0
100
AcDbLine
 10
39.391
 20
67.111
 30
0.0
 11
37.041
 21
65.089
 31
0.0
  0
LINE
  5
DFB
330
A35
100
AcDbEntity
  8
0
100
AcDbLine
 10
35.8
 20
73.804
 30
0.0
 11
38.651
 21
76.256
 31
0.0
  0
LINE
  5
DFC
330
A35
100
AcDbEntity
  8
0
100
AcDbLine
 10
35.8
 20
73.804
 30
0.0
 11
35.775
 21
73.76
 31
0.0
  0
LINE
  5
DFD
330
A35
100
AcDbEntity
  8
0
100
AcDbLine
 10
38.651
 20
76.256
 30
0.0
 11
38.626
 21
76.211
 31
0.0
  0
LINE
  5
DFE
330
A35
100
AcDbEntity
  8
0
100
AcDbLine
 10
35.342
 20
73.181
 30
0.0
 11
35.351
 21
73.213
 31
0.0
  0
LINE
  5
DFF
330
A35
100
AcDbEntity
  8
0
100
AcDbLine
 10
35.387
 20
63.546
 30
0.0
 11
35.351
 21
63.638
 31
0.0
  0
LINE
  5
E00
330
A35
100
AcDbEntity
  8
0
100
AcDbLine
 10
35.832
 20
73.012
 30
0.0
 11
36.058
 21
73.012
 31
0.0
  0
LINE
  5
E01
330
A35
100
AcDbEntity
  8
0
100
AcDbLine
 10
35.775
 20
73.261
 30
0.0
 11
35.832
 21
73.012
 31
0.0
  0
LINE
  5
E02
330
A35
100
AcDbEntity
  8
0
100
AcDbLine
 10
35.981
 20
72.943
 30
0.0
 11
36.139
 21
72.988
 31
0.0
  0
LINE
  5
E03
330
A35
100
AcDbEntity
  8
0
100
AcDbLine
 10
36.916
 20
66.247
 30
0.0
 11
36.746
 21
66.09
 31
0.0
  0
LINE
  5
E04
330
A35
100
AcDbEntity
  8
0
100
AcDbLine
 10
36.997
 20
66.484
 30
0.0
 11
36.916
 21
66.247
 31
0.0
  0
LINE
  5
E05
330
A35
100
AcDbEntity
  8
0
100
AcDbLine
 10
36.928
 20
66.725
 30
0.0
 11
36.997
 21
66.484
 31
0.0
  0
LINE
  5
E06
330
A35
100
AcDbEntity
  8
0
100
AcDbLine
 10
36.823
 20
66.689
 30
0.0
 11
36.928
 21
66.725
 31
0.0
  0
LINE
  5
E07
330
A35
100
AcDbEntity
  8
0
100
AcDbLine
 10
36.746
 20
66.09
 30
0.0
 11
36.689
 21
66.159
 31
0.0
  0
LINE
  5
E08
330
A35
100
AcDbEntity
  8
0
100
AcDbLine
 10
37.086
 20
66.327
 30
0.0
 11
36.859
 21
66.054
 31
0.0
  0
LINE
  5
E09
330
A35
100
AcDbEntity
  8
0
100
AcDbLine
 10
37.041
 20
66.677
 30
0.0
 11
37.086
 21
66.327
 31
0.0
  0
LINE
  5
E0A
330
A35
100
AcDbEntity
  8
0
100
AcDbLine
 10
38.651
 20
76.256
 30
0.0
 11
38.707
 21
76.268
 31
0.0
  0
LINE
  5
E0B
330
A35
100
AcDbEntity
  8
0
100
AcDbLine
 10
38.788
 20
76.175
 30
0.0
 11
38.707
 21
76.268
 31
0.0
  0
LINE
  5
E0C
330
A35
100
AcDbEntity
  8
0
100
AcDbLine
 10
40.887
 20
77.164
 30
0.0
 11
40.956
 21
77.152
 31
0.0
  0
LINE
  5
E0D
330
A35
100
AcDbEntity
  8
0
100
AcDbLine
 10
41.413
 20
76.903
 30
0.0
 11
41.194
 21
77.084
 31
0.0
  0
LINE
  5
E0E
330
A35
100
AcDbEntity
  8
0
100
AcDbLine
 10
41.445
 20
76.766
 30
0.0
 11
41.413
 21
76.903
 31
0.0
  0
LINE
  5
E0F
330
A35
100
AcDbEntity
  8
0
100
AcDbLine
 10
39.391
 20
76.698
 30
0.0
 11
39.585
 21
76.722
 31
0.0
  0
LINE
  5
E10
330
A35
100
AcDbEntity
  8
0
100
AcDbLine
 10
39.54
 20
67.099
 30
0.0
 11
39.484
 21
67.087
 31
0.0
  0
LINE
  5
E11
330
A35
100
AcDbEntity
  8
0
100
AcDbLine
 10
39.391
 20
67.111
 30
0.0
 11
39.585
 21
67.143
 31
0.0
  0
LINE
  5
E12
330
A35
100
AcDbEntity
  8
0
100
AcDbLine
 10
39.666
 20
66.271
 30
0.0
 11
39.633
 21
66.476
 31
0.0
  0
LINE
  5
E13
330
A35
100
AcDbEntity
  8
0
100
AcDbLine
 10
39.928
 20
65.929
 30
0.0
 11
39.666
 21
66.271
 31
0.0
  0
LINE
  5
E14
330
A35
100
AcDbEntity
  8
0
100
AcDbLine
 10
39.836
 20
65.929
 30
0.0
 11
39.585
 21
66.428
 31
0.0
  0
LINE
  5
E15
330
A35
100
AcDbEntity
  8
0
100
AcDbLine
 10
37.554
 20
69.346
 30
0.0
 11
37.737
 21
69.639
 31
0.0
  0
LINE
  5
E16
330
A35
100
AcDbEntity
  8
0
100
AcDbLine
 10
37.567
 20
69.028
 30
0.0
 11
37.554
 21
69.346
 31
0.0
  0
LINE
  5
E17
330
A35
100
AcDbEntity
  8
0
100
AcDbLine
 10
37.579
 20
69.04
 30
0.0
 11
37.522
 21
69.028
 31
0.0
  0
LINE
  5
E18
330
A35
100
AcDbEntity
  8
0
100
AcDbLine
 10
37.773
 20
69.434
 30
0.0
 11
37.579
 21
69.04
 31
0.0
  0
LINE
  5
E19
330
A35
100
AcDbEntity
  8
0
100
AcDbLine
 10
37.749
 20
69.627
 30
0.0
 11
37.773
 21
69.434
 31
0.0
  0
LINE
  5
E1A
330
A35
100
AcDbEntity
  8
0
100
AcDbLine
 10
37.648
 20
69.664
 30
0.0
 11
37.749
 21
69.627
 31
0.0
  0
LINE
  5
E1B
330
A35
100
AcDbEntity
  8
0
100
AcDbLine
 10
37.474
 20
69.366
 30
0.0
 11
37.648
 21
69.664
 31
0.0
  0
LINE
  5
E1C
330
A35
100
AcDbEntity
  8
0
100
AcDbLine
 10
37.522
 20
69.028
 30
0.0
 11
37.474
 21
69.366
 31
0.0
  0
LINE
  5
E1D
330
A35
100
AcDbEntity
  8
0
100
AcDbLine
 10
38.537
 20
75.303
 30
0.0
 11
38.626
 21
75.721
 31
0.0
  0
LINE
  5
E1E
330
A35
100
AcDbEntity
  8
0
100
AcDbLine
 10
38.343
 20
74.985
 30
0.0
 11
38.537
 21
75.303
 31
0.0
  0
LINE
  5
E1F
330
A35
100
AcDbEntity
  8
0
100
AcDbLine
 10
38.626
 20
75.267
 30
0.0
 11
38.707
 21
75.689
 31
0.0
  0
LINE
  5
E20
330
A35
100
AcDbEntity
  8
0
100
AcDbLine
 10
38.42
 20
74.949
 30
0.0
 11
38.626
 21
75.267
 31
0.0
  0
LINE
  5
E21
330
A35
100
AcDbEntity
  8
0
100
AcDbLine
 10
10.09
 20
69.913
 30
0.0
 11
10.216
 21
70.025
 31
0.0
  0
LINE
  5
E22
330
A35
100
AcDbEntity
  8
0
100
AcDbLine
 10
10.272
 20
70.025
 30
0.0
 11
10.341
 21
69.993
 31
0.0
  0
LINE
  5
E23
330
A35
100
AcDbEntity
  8
0
100
AcDbLine
 10
10.341
 20
70.162
 30
0.0
 11
10.272
 21
70.198
 31
0.0
  0
LINE
  5
E24
330
A35
100
AcDbEntity
  8
0
100
AcDbLine
 10
10.272
 20
70.198
 30
0.0
 11
10.111
 21
70.061
 31
0.0
  0
LINE
  5
E25
330
A35
100
AcDbEntity
  8
0
100
AcDbLine
 10
10.204
 20
70.037
 30
0.0
 11
10.341
 21
70.162
 31
0.0
  0
LINE
  5
E26
330
A35
100
AcDbEntity
  8
0
100
AcDbLine
 10
10.179
 20
70.367
 30
0.0
 11
10.034
 21
70.242
 31
0.0
  0
LINE
  5
E27
330
A35
100
AcDbEntity
  8
0
100
AcDbLine
 10
10.192
 20
70.299
 30
0.0
 11
10.179
 21
70.367
 31
0.0
  0
LINE
  5
E28
330
A35
100
AcDbEntity
  8
0
100
AcDbLine
 10
10.034
 20
70.343
 30
0.0
 11
10.022
 21
70.423
 31
0.0
  0
LINE
  5
E29
330
A35
100
AcDbEntity
  8
0
100
AcDbLine
 10
9.702
 20
70.456
 30
0.0
 11
9.577
 21
70.343
 31
0.0
  0
LINE
  5
E2A
330
A35
100
AcDbEntity
  8
0
100
AcDbLine
 10
10.204
 20
70.037
 30
0.0
 11
10.204
 21
70.005
 31
0.0
  0
LINE
  5
E2B
330
A35
100
AcDbEntity
  8
0
100
AcDbLine
 10
10.034
 20
70.162
 30
0.0
 11
10.192
 21
70.299
 31
0.0
  0
LINE
  5
E2C
330
A35
100
AcDbEntity
  8
0
100
AcDbLine
 10
9.941
 20
70.287
 30
0.0
 11
9.848
 21
70.299
 31
0.0
  0
LINE
  5
E2D
330
A35
100
AcDbEntity
  8
0
100
AcDbLine
 10
9.848
 20
70.162
 30
0.0
 11
10.01
 21
70.299
 31
0.0
  0
LINE
  5
E2E
330
A35
100
AcDbEntity
  8
0
100
AcDbLine
 10
9.965
 20
70.263
 30
0.0
 11
10.034
 21
70.242
 31
0.0
  0
LINE
  5
E2F
330
A35
100
AcDbEntity
  8
0
100
AcDbLine
 10
9.941
 20
70.13
 30
0.0
 11
9.848
 21
70.138
 31
0.0
  0
LINE
  5
E30
330
A35
100
AcDbEntity
  8
0
100
AcDbLine
 10
10.034
 20
70.162
 30
0.0
 11
10.034
 21
70.242
 31
0.0
  0
LINE
  5
E31
330
A35
100
AcDbEntity
  8
0
100
AcDbLine
 10
10.111
 20
70.061
 30
0.0
 11
10.204
 21
70.037
 31
0.0
  0
LINE
  5
E32
330
A35
100
AcDbEntity
  8
0
100
AcDbLine
 10
10.353
 20
69.72
 30
0.0
 11
10.216
 21
69.607
 31
0.0
  0
LINE
  5
E33
330
A35
100
AcDbEntity
  8
0
100
AcDbLine
 10
10.272
 20
70.037
 30
0.0
 11
10.216
 21
70.037
 31
0.0
  0
LINE
  5
E34
330
A35
100
AcDbEntity
  8
0
100
AcDbLine
 10
10.341
 20
70.005
 30
0.0
 11
10.341
 21
70.162
 31
0.0
  0
LINE
  5
E35
330
A35
100
AcDbEntity
  8
0
100
AcDbLine
 10
10.179
 20
70.379
 30
0.0
 11
10.022
 21
70.423
 31
0.0
  0
LINE
  5
E36
330
A35
100
AcDbEntity
  8
0
100
AcDbLine
 10
9.848
 20
70.15
 30
0.0
 11
9.848
 21
70.311
 31
0.0
  0
LINE
  5
E37
330
A35
100
AcDbEntity
  8
0
100
AcDbLine
 10
10.022
 20
70.311
 30
0.0
 11
10.034
 21
70.355
 31
0.0
  0
LINE
  5
E38
330
A35
100
AcDbEntity
  8
0
100
AcDbLine
 10
10.034
 20
70.025
 30
0.0
 11
9.941
 21
70.138
 31
0.0
  0
LINE
  5
E39
330
A35
100
AcDbEntity
  8
0
100
AcDbLine
 10
10.179
 20
69.889
 30
0.0
 11
10.022
 21
69.937
 31
0.0
  0
LINE
  5
E3A
330
A35
100
AcDbEntity
  8
0
100
AcDbLine
 10
10.272
 20
70.198
 30
0.0
 11
10.192
 21
70.299
 31
0.0
  0
LINE
  5
E3B
330
A35
100
AcDbEntity
  8
0
100
AcDbLine
 10
10.466
 20
70.013
 30
0.0
 11
10.353
 21
69.72
 31
0.0
  0
LINE
  5
E3C
330
A35
100
AcDbEntity
  8
0
100
AcDbLine
 10
10.329
 20
70.343
 30
0.0
 11
10.466
 21
70.013
 31
0.0
  0
LINE
  5
E3D
330
A35
100
AcDbEntity
  8
0
100
AcDbLine
 10
10.054
 20
70.524
 30
0.0
 11
10.329
 21
70.343
 31
0.0
  0
LINE
  5
E3E
330
A35
100
AcDbEntity
  8
0
100
AcDbLine
 10
9.702
 20
70.456
 30
0.0
 11
10.054
 21
70.524
 31
0.0
  0
LINE
  5
E3F
330
A35
100
AcDbEntity
  8
0
100
AcDbLine
 10
10.192
 20
69.969
 30
0.0
 11
10.216
 21
70.025
 31
0.0
  0
LINE
  5
E40
330
A35
100
AcDbEntity
  8
0
100
AcDbLine
 10
9.633
 20
70.025
 30
0.0
 11
10.022
 21
69.664
 31
0.0
  0
LINE
  5
E41
330
A35
100
AcDbEntity
  8
0
100
AcDbLine
 10
9.597
 20
70.198
 30
0.0
 11
9.633
 21
70.025
 31
0.0
  0
LINE
  5
E42
330
A35
100
AcDbEntity
  8
0
100
AcDbLine
 10
9.702
 20
70.456
 30
0.0
 11
9.597
 21
70.198
 31
0.0
  0
LINE
  5
E43
330
A35
100
AcDbEntity
  8
0
100
AcDbLine
 10
10.01
 20
70.299
 30
0.0
 11
9.941
 21
70.287
 31
0.0
  0
LINE
  5
E44
330
A35
100
AcDbEntity
  8
0
100
AcDbLine
 10
10.034
 20
70.162
 30
0.0
 11
10.111
 21
70.061
 31
0.0
  0
LINE
  5
E45
330
A35
100
AcDbEntity
  8
0
100
AcDbLine
 10
10.022
 20
69.925
 30
0.0
 11
10.034
 21
70.013
 31
0.0
  0
LINE
  5
E46
330
A35
100
AcDbEntity
  8
0
100
AcDbLine
 10
9.508
 20
69.913
 30
0.0
 11
9.896
 21
69.551
 31
0.0
  0
LINE
  5
E47
330
A35
100
AcDbEntity
  8
0
100
AcDbLine
 10
9.459
 20
70.082
 30
0.0
 11
9.508
 21
69.913
 31
0.0
  0
LINE
  5
E48
330
A35
100
AcDbEntity
  8
0
100
AcDbLine
 10
9.577
 20
70.343
 30
0.0
 11
9.459
 21
70.082
 31
0.0
  0
LINE
  5
E49
330
A35
100
AcDbEntity
  8
0
100
AcDbLine
 10
10.192
 20
69.969
 30
0.0
 11
10.179
 21
69.881
 31
0.0
  0
LINE
  5
E4A
330
A35
100
AcDbEntity
  8
0
100
AcDbLine
 10
9.896
 20
69.551
 30
0.0
 11
10.216
 21
69.607
 31
0.0
  0
LINE
  5
E4B
330
A35
100
AcDbEntity
  8
0
100
AcDbLine
 10
10.022
 20
69.664
 30
0.0
 11
10.353
 21
69.72
 31
0.0
  0
LINE
  5
E4C
330
A35
100
AcDbEntity
  8
0
100
AcDbLine
 10
5.775
 20
67.778
 30
0.0
 11
5.811
 21
67.71
 31
0.0
  0
LINE
  5
E4D
330
A35
100
AcDbEntity
  8
0
100
AcDbLine
 10
5.88
 20
67.71
 30
0.0
 11
5.925
 21
67.722
 31
0.0
  0
LINE
  5
E4E
330
A35
100
AcDbEntity
  8
0
100
AcDbLine
 10
5.88
 20
67.71
 30
0.0
 11
5.844
 21
67.803
 31
0.0
  0
LINE
  5
E4F
330
A35
100
AcDbEntity
  8
0
100
AcDbLine
 10
5.88
 20
67.71
 30
0.0
 11
5.82
 21
67.69
 31
0.0
  0
LINE
  5
E50
330
A35
100
AcDbEntity
  8
0
100
AcDbLine
 10
5.811
 20
67.803
 30
0.0
 11
5.868
 21
67.803
 31
0.0
  0
LINE
  5
E51
330
A35
100
AcDbEntity
  8
0
100
AcDbLine
 10
5.82
 20
67.69
 30
0.0
 11
5.787
 21
67.702
 31
0.0
  0
LINE
  5
E52
330
A35
100
AcDbEntity
  8
0
100
AcDbLine
 10
5.763
 20
67.722
 30
0.0
 11
5.706
 21
67.722
 31
0.0
  0
LINE
  5
E53
330
A35
100
AcDbEntity
  8
0
100
AcDbLine
 10
6.083
 20
67.939
 30
0.0
 11
6.119
 21
67.871
 31
0.0
  0
LINE
  5
E54
330
A35
100
AcDbEntity
  8
0
100
AcDbLine
 10
6.119
 20
67.827
 30
0.0
 11
6.095
 21
67.815
 31
0.0
  0
LINE
  5
E55
330
A35
100
AcDbEntity
  8
0
100
AcDbLine
 10
6.119
 20
67.827
 30
0.0
 11
6.075
 21
67.939
 31
0.0
  0
LINE
  5
E56
330
A35
100
AcDbEntity
  8
0
100
AcDbLine
 10
6.014
 20
67.927
 30
0.0
 11
5.981
 21
67.859
 31
0.0
  0
LINE
  5
E57
330
A35
100
AcDbEntity
  8
0
100
AcDbLine
 10
6.151
 20
67.871
 30
0.0
 11
6.22
 21
67.915
 31
0.0
  0
LINE
  5
E58
330
A35
100
AcDbEntity
  8
0
100
AcDbLine
 10
6.139
 20
67.835
 30
0.0
 11
6.119
 21
67.827
 31
0.0
  0
LINE
  5
E59
330
A35
100
AcDbEntity
  8
0
100
AcDbLine
 10
6.131
 20
67.895
 30
0.0
 11
6.164
 21
67.959
 31
0.0
  0
LINE
  5
E5A
330
A35
100
AcDbEntity
  8
0
100
AcDbLine
 10
5.937
 20
67.734
 30
0.0
 11
5.925
 21
67.722
 31
0.0
  0
LINE
  5
E5B
330
A35
100
AcDbEntity
  8
0
100
AcDbLine
 10
6.062
 20
67.79
 30
0.0
 11
6.095
 21
67.815
 31
0.0
  0
LINE
  5
E5C
330
A35
100
AcDbEntity
  8
0
100
AcDbLine
 10
5.937
 20
67.734
 30
0.0
 11
5.901
 21
67.815
 31
0.0
  0
LINE
  5
E5D
330
A35
100
AcDbEntity
  8
0
100
AcDbLine
 10
6.006
 20
67.903
 30
0.0
 11
6.062
 21
67.79
 31
0.0
  0
LINE
  5
E5E
330
A35
100
AcDbEntity
  8
0
100
AcDbLine
 10
6.062
 20
67.79
 30
0.0
 11
5.937
 21
67.734
 31
0.0
  0
LINE
  5
E5F
330
A35
100
AcDbEntity
  8
0
100
AcDbLine
 10
5.743
 20
67.69
 30
0.0
 11
5.82
 21
67.702
 31
0.0
  0
LINE
  5
E60
330
A35
100
AcDbEntity
  8
0
100
AcDbLine
 10
5.65
 20
67.678
 30
0.0
 11
5.743
 21
67.69
 31
0.0
  0
LINE
  5
E61
330
A35
100
AcDbEntity
  8
0
100
AcDbLine
 10
6.139
 20
67.847
 30
0.0
 11
6.22
 21
67.915
 31
0.0
  0
LINE
  5
E62
330
A35
100
AcDbEntity
  8
0
100
AcDbLine
 10
6.014
 20
67.927
 30
0.0
 11
6.164
 21
67.959
 31
0.0
  0
LINE
  5
E63
330
A35
100
AcDbEntity
  8
0
100
AcDbLine
 10
6.139
 20
67.847
 30
0.0
 11
6.313
 21
67.995
 31
0.0
  0
LINE
  5
E64
330
A35
100
AcDbEntity
  8
0
100
AcDbLine
 10
5.925
 20
67.734
 30
0.0
 11
5.945
 21
67.746
 31
0.0
  0
LINE
  5
E65
330
A35
100
AcDbEntity
  8
0
100
AcDbLine
 10
6.062
 20
67.803
 30
0.0
 11
6.095
 21
67.815
 31
0.0
  0
LINE
  5
E66
330
A35
100
AcDbEntity
  8
0
100
AcDbLine
 10
5.945
 20
67.734
 30
0.0
 11
6.075
 21
67.803
 31
0.0
  0
LINE
  5
E67
330
A35
100
AcDbEntity
  8
0
100
AcDbLine
 10
4.817
 20
70.821
 30
0.0
 11
4.736
 21
70.841
 31
0.0
  0
LINE
  5
E68
330
A35
100
AcDbEntity
  8
0
100
AcDbLine
 10
5.763
 20
67.722
 30
0.0
 11
5.787
 21
67.702
 31
0.0
  0
LINE
  5
E69
330
A35
100
AcDbEntity
  8
0
100
AcDbLine
 10
6.119
 20
67.871
 30
0.0
 11
6.131
 21
67.895
 31
0.0
  0
LINE
  5
E6A
330
A35
100
AcDbEntity
  8
0
100
AcDbLine
 10
5.981
 20
67.859
 30
0.0
 11
5.868
 21
67.803
 31
0.0
  0
LINE
  5
E6B
330
A35
100
AcDbEntity
  8
0
100
AcDbLine
 10
6.151
 20
67.871
 30
0.0
 11
6.119
 21
67.871
 31
0.0
  0
LINE
  5
E6C
330
A35
100
AcDbEntity
  8
0
100
AcDbLine
 10
6.325
 20
68.007
 30
0.0
 11
6.333
 21
68.028
 31
0.0
  0
LINE
  5
E6D
330
A35
100
AcDbEntity
  8
0
100
AcDbLine
 10
6.301
 20
67.983
 30
0.0
 11
6.333
 21
68.028
 31
0.0
  0
LINE
  5
E6E
330
A35
100
AcDbEntity
  8
0
100
AcDbLine
 10
23.829
 20
52.826
 30
0.0
 11
23.816
 21
52.814
 31
0.0
  0
LINE
  5
E6F
330
A35
100
AcDbEntity
  8
0
100
AcDbLine
 10
24.787
 20
51.737
 30
0.0
 11
24.856
 21
51.748
 31
0.0
  0
LINE
  5
E70
330
A35
100
AcDbEntity
  8
0
100
AcDbLine
 10
25.187
 20
51.793
 30
0.0
 11
25.835
 21
51.929
 31
0.0
  0
LINE
  5
E71
330
A35
100
AcDbEntity
  8
0
100
AcDbLine
 10
24.512
 20
53.075
 30
0.0
 11
27.161
 21
53.405
 31
0.0
  0
LINE
  5
E72
330
A35
100
AcDbEntity
  8
0
100
AcDbLine
 10
27.169
 20
53.473
 30
0.0
 11
24.512
 21
53.143
 31
0.0
  0
LINE
  5
E73
330
A35
100
AcDbEntity
  8
0
100
AcDbLine
 10
28.107
 20
52.589
 30
0.0
 11
29.317
 21
52.826
 31
0.0
  0
LINE
  5
E74
330
A35
100
AcDbEntity
  8
0
100
AcDbLine
 10
28.107
 20
52.589
 30
0.0
 11
25.835
 21
51.929
 31
0.0
  0
LINE
  5
E75
330
A35
100
AcDbEntity
  8
0
100
AcDbLine
 10
23.861
 20
53.007
 30
0.0
 11
23.829
 21
52.975
 31
0.0
  0
LINE
  5
E76
330
A35
100
AcDbEntity
  8
0
100
AcDbLine
 10
23.849
 20
52.938
 30
0.0
 11
23.861
 21
53.007
 31
0.0
  0
LINE
  5
E77
330
A35
100
AcDbEntity
  8
0
100
AcDbLine
 10
24.512
 20
53.075
 30
0.0
 11
24.512
 21
53.143
 31
0.0
  0
LINE
  5
E78
330
A35
100
AcDbEntity
  8
0
100
AcDbLine
 10
24.512
 20
53.075
 30
0.0
 11
23.849
 21
52.938
 31
0.0
  0
LINE
  5
E79
330
A35
100
AcDbEntity
  8
0
100
AcDbLine
 10
23.861
 20
53.007
 30
0.0
 11
24.512
 21
53.143
 31
0.0
  0
LINE
  5
E7A
330
A35
100
AcDbEntity
  8
0
100
AcDbLine
 10
31.666
 20
53.063
 30
0.0
 11
32.612
 21
52.247
 31
0.0
  0
LINE
  5
E7B
330
A35
100
AcDbEntity
  8
0
100
AcDbLine
 10
32.612
 20
52.247
 30
0.0
 11
29.329
 21
52.826
 31
0.0
  0
LINE
  5
E7C
330
A35
100
AcDbEntity
  8
0
100
AcDbLine
 10
25.082
 20
51.817
 30
0.0
 11
23.816
 21
52.906
 31
0.0
  0
LINE
  5
E7D
330
A35
100
AcDbEntity
  8
0
100
AcDbLine
 10
29.317
 20
52.826
 30
0.0
 11
29.329
 21
52.826
 31
0.0
  0
LINE
  5
E7E
330
A35
100
AcDbEntity
  8
0
100
AcDbLine
 10
29.329
 20
52.826
 30
0.0
 11
28.383
 21
53.642
 31
0.0
  0
LINE
  5
E7F
330
A35
100
AcDbEntity
  8
0
100
AcDbLine
 10
28.383
 20
53.642
 30
0.0
 11
28.37
 21
53.642
 31
0.0
  0
LINE
  5
E80
330
A35
100
AcDbEntity
  8
0
100
AcDbLine
 10
28.37
 20
53.71
 30
0.0
 11
28.403
 21
53.71
 31
0.0
  0
LINE
  5
E81
330
A35
100
AcDbEntity
  8
0
100
AcDbLine
 10
27.161
 20
53.405
 30
0.0
 11
28.37
 21
53.642
 31
0.0
  0
LINE
  5
E82
330
A35
100
AcDbEntity
  8
0
100
AcDbLine
 10
27.169
 20
53.473
 30
0.0
 11
27.161
 21
53.405
 31
0.0
  0
LINE
  5
E83
330
A35
100
AcDbEntity
  8
0
100
AcDbLine
 10
28.37
 20
53.71
 30
0.0
 11
27.169
 21
53.473
 31
0.0
  0
LINE
  5
E84
330
A35
100
AcDbEntity
  8
0
100
AcDbLine
 10
31.954
 20
53.107
 30
0.0
 11
32.9
 21
52.291
 31
0.0
  0
LINE
  5
E85
330
A35
100
AcDbEntity
  8
0
100
AcDbLine
 10
31.666
 20
53.063
 30
0.0
 11
28.383
 21
53.642
 31
0.0
  0
LINE
  5
E86
330
A35
100
AcDbEntity
  8
0
100
AcDbLine
 10
28.403
 20
53.71
 30
0.0
 11
31.691
 21
53.131
 31
0.0
  0
LINE
  5
E87
330
A35
100
AcDbEntity
  8
0
100
AcDbLine
 10
23.816
 20
52.814
 30
0.0
 11
23.772
 21
52.802
 31
0.0
  0
LINE
  5
E88
330
A35
100
AcDbEntity
  8
0
100
AcDbLine
 10
23.816
 20
52.906
 30
0.0
 11
23.816
 21
52.926
 31
0.0
  0
LINE
  5
E89
330
A35
100
AcDbEntity
  8
0
100
AcDbLine
 10
23.816
 20
52.906
 30
0.0
 11
23.849
 21
52.938
 31
0.0
  0
LINE
  5
E8A
330
A35
100
AcDbEntity
  8
0
100
AcDbLine
 10
23.829
 20
52.975
 30
0.0
 11
23.816
 21
52.926
 31
0.0
  0
LINE
  5
E8B
330
A35
100
AcDbEntity
  8
0
100
AcDbLine
 10
24.856
 20
51.757
 30
0.0
 11
25.001
 21
51.817
 31
0.0
  0
LINE
  5
E8C
330
A35
100
AcDbEntity
  8
0
100
AcDbLine
 10
23.829
 20
52.906
 30
0.0
 11
23.841
 21
52.826
 31
0.0
  0
LINE
  5
E8D
330
A35
100
AcDbEntity
  8
0
100
AcDbLine
 10
24.294
 20
51.998
 30
0.0
 11
23.829
 21
52.826
 31
0.0
  0
LINE
  5
E8E
330
A35
100
AcDbEntity
  8
0
100
AcDbLine
 10
24.48
 20
51.837
 30
0.0
 11
24.294
 21
51.998
 31
0.0
  0
LINE
  5
E8F
330
A35
100
AcDbEntity
  8
0
100
AcDbLine
 10
24.856
 20
51.748
 30
0.0
 11
24.48
 21
51.837
 31
0.0
  0
LINE
  5
E90
330
A35
100
AcDbEntity
  8
0
100
AcDbLine
 10
25.082
 20
51.817
 30
0.0
 11
25.187
 21
51.793
 31
0.0
  0
LINE
  5
E91
330
A35
100
AcDbEntity
  8
0
100
AcDbLine
 10
31.942
 20
53.164
 30
0.0
 11
31.691
 21
53.131
 31
0.0
  0
LINE
  5
E92
330
A35
100
AcDbEntity
  8
0
100
AcDbLine
 10
31.954
 20
53.107
 30
0.0
 11
31.666
 21
53.063
 31
0.0
  0
LINE
  5
E93
330
A35
100
AcDbEntity
  8
0
100
AcDbLine
 10
32.9
 20
52.291
 30
0.0
 11
32.612
 21
52.247
 31
0.0
  0
LINE
  5
E94
330
A35
100
AcDbEntity
  8
0
100
AcDbLine
 10
25.001
 20
51.817
 30
0.0
 11
25.082
 21
51.817
 31
0.0
  0
LINE
  5
E95
330
A35
100
AcDbEntity
  8
0
100
AcDbLine
 10
33.882
 20
53.485
 30
0.0
 11
34.328
 21
53.417
 31
0.0
  0
LINE
  5
E96
330
A35
100
AcDbEntity
  8
0
100
AcDbLine
 10
32.932
 20
53.425
 30
0.0
 11
33.882
 21
53.485
 31
0.0
  0
LINE
  5
E97
330
A35
100
AcDbEntity
  8
0
100
AcDbLine
 10
31.954
 20
53.107
 30
0.0
 11
32.932
 21
53.425
 31
0.0
  0
LINE
  5
E98
330
A35
100
AcDbEntity
  8
0
100
AcDbLine
 10
33.777
 20
52.589
 30
0.0
 11
34.635
 21
52.677
 31
0.0
  0
LINE
  5
E99
330
A35
100
AcDbEntity
  8
0
100
AcDbLine
 10
32.9
 20
52.291
 30
0.0
 11
33.777
 21
52.589
 31
0.0
  0
LINE
  5
E9A
330
A35
100
AcDbEntity
  8
0
100
AcDbLine
 10
33.401
 20
53.549
 30
0.0
 11
34.315
 21
53.493
 31
0.0
  0
LINE
  5
E9B
330
A35
100
AcDbEntity
  8
0
100
AcDbLine
 10
32.924
 20
53.485
 30
0.0
 11
33.401
 21
53.549
 31
0.0
  0
LINE
  5
E9C
330
A35
100
AcDbEntity
  8
0
100
AcDbLine
 10
31.942
 20
53.164
 30
0.0
 11
32.924
 21
53.485
 31
0.0
  0
LINE
  5
E9D
330
A35
100
AcDbEntity
  8
0
100
AcDbLine
 10
23.772
 20
52.802
 30
0.0
 11
23.829
 21
52.975
 31
0.0
  0
LINE
  5
E9E
330
A35
100
AcDbEntity
  8
0
100
AcDbLine
 10
24.055
 20
52.203
 30
0.0
 11
23.772
 21
52.802
 31
0.0
  0
LINE
  5
E9F
330
A35
100
AcDbEntity
  8
0
100
AcDbLine
 10
24.419
 20
51.825
 30
0.0
 11
24.055
 21
52.203
 31
0.0
  0
LINE
  5
EA0
330
A35
100
AcDbEntity
  8
0
100
AcDbLine
 10
24.787
 20
51.737
 30
0.0
 11
24.419
 21
51.825
 31
0.0
  0
LINE
  5
EA1
330
A35
100
AcDbEntity
  8
0
100
AcDbLine
 10
3.939
 20
71.931
 30
0.0
 11
0.607
 21
69.061
 31
0.0
  0
LINE
  5
EA2
330
A35
100
AcDbEntity
  8
0
100
AcDbLine
 10
1.096
 20
67.995
 30
0.0
 11
4.428
 21
70.853
 31
0.0
  0
LINE
  5
EA3
330
A35
100
AcDbEntity
  8
0
100
AcDbLine
 10
4.534
 20
70.797
 30
0.0
 11
1.213
 21
67.927
 31
0.0
  0
LINE
  5
EA4
330
A35
100
AcDbEntity
  8
0
100
AcDbLine
 10
4.428
 20
70.853
 30
0.0
 11
3.939
 21
71.931
 31
0.0
  0
LINE
  5
EA5
330
A35
100
AcDbEntity
  8
0
100
AcDbLine
 10
2.843
 20
66.725
 30
0.0
 11
3.094
 21
66.179
 31
0.0
  0
LINE
  5
EA6
330
A35
100
AcDbEntity
  8
0
100
AcDbLine
 10
3.082
 20
67.61
 30
0.0
 11
4.028
 21
68.438
 31
0.0
  0
LINE
  5
EA7
330
A35
100
AcDbEntity
  8
0
100
AcDbLine
 10
3.082
 20
67.61
 30
0.0
 11
2.524
 21
68.506
 31
0.0
  0
LINE
  5
EA8
330
A35
100
AcDbEntity
  8
0
100
AcDbLine
 10
2.512
 20
68.518
 30
0.0
 11
2.386
 21
68.482
 31
0.0
  0
LINE
  5
EA9
330
A35
100
AcDbEntity
  8
0
100
AcDbLine
 10
2.386
 20
68.381
 30
0.0
 11
2.944
 21
67.497
 31
0.0
  0
LINE
  5
EAA
330
A35
100
AcDbEntity
  8
0
100
AcDbLine
 10
2.524
 20
68.606
 30
0.0
 11
3.47
 21
69.426
 31
0.0
  0
LINE
  5
EAB
330
A35
100
AcDbEntity
  8
0
100
AcDbLine
 10
3.219
 20
66.134
 30
0.0
 11
3.195
 21
66.134
 31
0.0
  0
LINE
  5
EAC
330
A35
100
AcDbEntity
  8
0
100
AcDbLine
 10
3.195
 20
66.134
 30
0.0
 11
4.077
 21
66.327
 31
0.0
  0
LINE
  5
EAD
330
A35
100
AcDbEntity
  8
0
100
AcDbLine
 10
3.187
 20
68.598
 30
0.0
 11
3.689
 21
68.723
 31
0.0
  0
LINE
  5
EAE
330
A35
100
AcDbEntity
  8
0
100
AcDbLine
 10
3.689
 20
68.711
 30
0.0
 11
3.187
 21
68.598
 31
0.0
  0
LINE
  5
EAF
330
A35
100
AcDbEntity
  8
0
100
AcDbLine
 10
1.521
 20
67.903
 30
0.0
 11
4.853
 21
70.777
 31
0.0
  0
LINE
  5
EB0
330
A35
100
AcDbEntity
  8
0
100
AcDbLine
 10
3.608
 20
69.434
 30
0.0
 11
4.166
 21
68.55
 31
0.0
  0
LINE
  5
EB1
330
A35
100
AcDbEntity
  8
0
100
AcDbLine
 10
3.709
 20
68.538
 30
0.0
 11
3.3
 21
68.45
 31
0.0
  0
LINE
  5
EB2
330
A35
100
AcDbEntity
  8
0
100
AcDbLine
 10
4.028
 20
68.438
 30
0.0
 11
3.47
 21
69.322
 31
0.0
  0
LINE
  5
EB3
330
A35
100
AcDbEntity
  8
0
100
AcDbLine
 10
3.608
 20
69.539
 30
0.0
 11
4.554
 21
70.355
 31
0.0
  0
LINE
  5
EB4
330
A35
100
AcDbEntity
  8
0
100
AcDbLine
 10
4.097
 20
66.339
 30
0.0
 11
4.077
 21
66.327
 31
0.0
  0
LINE
  5
EB5
330
A35
100
AcDbEntity
  8
0
100
AcDbLine
 10
3.972
 20
68.028
 30
0.0
 11
4.303
 21
68.096
 31
0.0
  0
LINE
  5
EB6
330
A35
100
AcDbEntity
  8
0
100
AcDbLine
 10
4.408
 20
68.188
 30
0.0
 11
3.927
 21
68.064
 31
0.0
  0
LINE
  5
EB7
330
A35
100
AcDbEntity
  8
0
100
AcDbLine
 10
3.858
 20
68.007
 30
0.0
 11
4.283
 21
68.076
 31
0.0
  0
LINE
  5
EB8
330
A35
100
AcDbEntity
  8
0
100
AcDbLine
 10
4.271
 20
68.144
 30
0.0
 11
3.858
 21
68.007
 31
0.0
  0
LINE
  5
EB9
330
A35
100
AcDbEntity
  8
0
100
AcDbLine
 10
3.927
 20
68.064
 30
0.0
 11
4.271
 21
68.144
 31
0.0
  0
LINE
  5
EBA
330
A35
100
AcDbEntity
  8
0
100
AcDbLine
 10
4.372
 20
68.164
 30
0.0
 11
3.972
 21
68.028
 31
0.0
  0
LINE
  5
EBB
330
A35
100
AcDbEntity
  8
0
100
AcDbLine
 10
3.3
 20
68.45
 30
0.0
 11
3.288
 21
68.438
 31
0.0
  0
LINE
  5
EBC
330
A35
100
AcDbEntity
  8
0
100
AcDbLine
 10
3.972
 20
67.746
 30
0.0
 11
3.846
 21
67.634
 31
0.0
  0
LINE
  5
EBD
330
A35
100
AcDbEntity
  8
0
100
AcDbLine
 10
4.283
 20
68.076
 30
0.0
 11
4.303
 21
68.096
 31
0.0
  0
LINE
  5
EBE
330
A35
100
AcDbEntity
  8
0
100
AcDbLine
 10
4.372
 20
68.164
 30
0.0
 11
4.408
 21
68.188
 31
0.0
  0
LINE
  5
EBF
330
A35
100
AcDbEntity
  8
0
100
AcDbLine
 10
4.271
 20
68.494
 30
0.0
 11
5.056
 21
68.675
 31
0.0
  0
LINE
  5
EC0
330
A35
100
AcDbEntity
  8
0
100
AcDbLine
 10
4.93
 20
68.562
 30
0.0
 11
4.133
 21
68.381
 31
0.0
  0
LINE
  5
EC1
330
A35
100
AcDbEntity
  8
0
100
AcDbLine
 10
4.271
 20
68.494
 30
0.0
 11
5.217
 21
69.31
 31
0.0
  0
LINE
  5
EC2
330
A35
100
AcDbEntity
  8
0
100
AcDbLine
 10
5.116
 20
69.366
 30
0.0
 11
4.166
 21
68.55
 31
0.0
  0
LINE
  5
EC3
330
A35
100
AcDbEntity
  8
0
100
AcDbLine
 10
4.121
 20
66.352
 30
0.0
 11
4.097
 21
66.339
 31
0.0
  0
LINE
  5
EC4
330
A35
100
AcDbEntity
  8
0
100
AcDbLine
 10
6.2
 20
68.144
 30
0.0
 11
6.839
 21
68.289
 31
0.0
  0
LINE
  5
EC5
330
A35
100
AcDbEntity
  8
0
100
AcDbLine
 10
6.471
 20
67.903
 30
0.0
 11
5.937
 21
67.61
 31
0.0
  0
LINE
  5
EC6
330
A35
100
AcDbEntity
  8
0
100
AcDbLine
 10
5.925
 20
67.915
 30
0.0
 11
6.552
 21
68.088
 31
0.0
  0
LINE
  5
EC7
330
A35
100
AcDbEntity
  8
0
100
AcDbLine
 10
6.895
 20
68.176
 30
0.0
 11
6.006
 21
67.971
 31
0.0
  0
LINE
  5
EC8
330
A35
100
AcDbEntity
  8
0
100
AcDbLine
 10
6.188
 20
67.597
 30
0.0
 11
6.232
 21
67.61
 31
0.0
  0
LINE
  5
EC9
330
A35
100
AcDbEntity
  8
0
100
AcDbLine
 10
5.945
 20
67.565
 30
0.0
 11
6.519
 21
67.883
 31
0.0
  0
LINE
  5
ECA
330
A35
100
AcDbEntity
  8
0
100
AcDbLine
 10
5.512
 20
66.938
 30
0.0
 11
5.5
 21
66.938
 31
0.0
  0
LINE
  5
ECB
330
A35
100
AcDbEntity
  8
0
100
AcDbLine
 10
5.617
 20
67.087
 30
0.0
 11
5.662
 21
67.099
 31
0.0
  0
LINE
  5
ECC
330
A35
100
AcDbEntity
  8
0
100
AcDbLine
 10
5.625
 20
67.087
 30
0.0
 11
5.617
 21
67.087
 31
0.0
  0
LINE
  5
ECD
330
A35
100
AcDbEntity
  8
0
100
AcDbLine
 10
5.706
 20
67.111
 30
0.0
 11
5.512
 21
66.938
 31
0.0
  0
LINE
  5
ECE
330
A35
100
AcDbEntity
  8
0
100
AcDbLine
 10
5.5
 20
66.938
 30
0.0
 11
6.083
 21
67.075
 31
0.0
  0
LINE
  5
ECF
330
A35
100
AcDbEntity
  8
0
100
AcDbLine
 10
5.387
 20
66.987
 30
0.0
 11
5.241
 21
67.316
 31
0.0
  0
LINE
  5
ED0
330
A35
100
AcDbEntity
  8
0
100
AcDbLine
 10
5.399
 20
67.007
 30
0.0
 11
5.524
 21
67.111
 31
0.0
  0
LINE
  5
ED1
330
A35
100
AcDbEntity
  8
0
100
AcDbLine
 10
4.942
 20
68.904
 30
0.0
 11
5.456
 21
69.097
 31
0.0
  0
LINE
  5
ED2
330
A35
100
AcDbEntity
  8
0
100
AcDbLine
 10
5.035
 20
69.017
 30
0.0
 11
5.492
 21
69.117
 31
0.0
  0
LINE
  5
ED3
330
A35
100
AcDbEntity
  8
0
100
AcDbLine
 10
4.942
 20
68.904
 30
0.0
 11
5.035
 21
69.017
 31
0.0
  0
LINE
  5
ED4
330
A35
100
AcDbEntity
  8
0
100
AcDbLine
 10
5.056
 20
68.675
 30
0.0
 11
4.93
 21
68.562
 31
0.0
  0
LINE
  5
ED5
330
A35
100
AcDbEntity
  8
0
100
AcDbLine
 10
5.387
 20
67.404
 30
0.0
 11
5.5
 21
67.131
 31
0.0
  0
LINE
  5
ED6
330
A35
100
AcDbEntity
  8
0
100
AcDbLine
 10
5.662
 20
67.099
 30
0.0
 11
5.706
 21
67.111
 31
0.0
  0
LINE
  5
ED7
330
A35
100
AcDbEntity
  8
0
100
AcDbLine
 10
5.945
 20
67.565
 30
0.0
 11
5.444
 21
67.497
 31
0.0
  0
LINE
  5
ED8
330
A35
100
AcDbEntity
  8
0
100
AcDbLine
 10
5.399
 20
67.441
 30
0.0
 11
5.945
 21
67.565
 31
0.0
  0
LINE
  5
ED9
330
A35
100
AcDbEntity
  8
0
100
AcDbLine
 10
5.423
 20
67.473
 30
0.0
 11
5.399
 21
67.441
 31
0.0
  0
LINE
  5
EDA
330
A35
100
AcDbEntity
  8
0
100
AcDbLine
 10
5.524
 20
67.155
 30
0.0
 11
5.969
 21
67.541
 31
0.0
  0
LINE
  5
EDB
330
A35
100
AcDbEntity
  8
0
100
AcDbLine
 10
6.188
 20
67.597
 30
0.0
 11
5.33
 21
67.393
 31
0.0
  0
LINE
  5
EDC
330
A35
100
AcDbEntity
  8
0
100
AcDbLine
 10
5.399
 20
67.441
 30
0.0
 11
5.411
 21
67.461
 31
0.0
  0
LINE
  5
EDD
330
A35
100
AcDbEntity
  8
0
100
AcDbLine
 10
5.625
 20
67.087
 30
0.0
 11
6.232
 21
67.61
 31
0.0
  0
LINE
  5
EDE
330
A35
100
AcDbEntity
  8
0
100
AcDbLine
 10
6.062
 20
68.743
 30
0.0
 11
3.106
 21
66.203
 31
0.0
  0
LINE
  5
EDF
330
A35
100
AcDbEntity
  8
0
100
AcDbLine
 10
5.456
 20
69.097
 30
0.0
 11
5.492
 21
69.117
 31
0.0
  0
LINE
  5
EE0
330
A35
100
AcDbEntity
  8
0
100
AcDbLine
 10
6.564
 20
68.462
 30
0.0
 11
4.121
 21
66.352
 31
0.0
  0
LINE
  5
EE1
330
A35
100
AcDbEntity
  8
0
100
AcDbLine
 10
3.219
 20
66.134
 30
0.0
 11
6.151
 21
68.663
 31
0.0
  0
LINE
  5
EE2
330
A35
100
AcDbEntity
  8
0
100
AcDbLine
 10
2.888
 20
66.814
 30
0.0
 11
2.103
 21
66.633
 31
0.0
  0
LINE
  5
EE3
330
A35
100
AcDbEntity
  8
0
100
AcDbLine
 10
2.204
 20
67.509
 30
0.0
 11
2.216
 21
67.509
 31
0.0
  0
LINE
  5
EE4
330
A35
100
AcDbEntity
  8
0
100
AcDbLine
 10
2.111
 20
67.678
 30
0.0
 11
2.605
 21
67.79
 31
0.0
  0
LINE
  5
EE5
330
A35
100
AcDbEntity
  8
0
100
AcDbLine
 10
2.111
 20
67.678
 30
0.0
 11
2.605
 21
67.778
 31
0.0
  0
LINE
  5
EE6
330
A35
100
AcDbEntity
  8
0
100
AcDbLine
 10
2.787
 20
66.725
 30
0.0
 11
2.888
 21
66.814
 31
0.0
  0
LINE
  5
EE7
330
A35
100
AcDbEntity
  8
0
100
AcDbLine
 10
2.867
 20
66.737
 30
0.0
 11
2.787
 21
66.725
 31
0.0
  0
LINE
  5
EE8
330
A35
100
AcDbEntity
  8
0
100
AcDbLine
 10
3.187
 20
67.565
 30
0.0
 11
3.972
 21
67.746
 31
0.0
  0
LINE
  5
EE9
330
A35
100
AcDbEntity
  8
0
100
AcDbLine
 10
3.846
 20
67.634
 30
0.0
 11
3.049
 21
67.449
 31
0.0
  0
LINE
  5
EEA
330
A35
100
AcDbEntity
  8
0
100
AcDbLine
 10
3.15
 20
67.256
 30
0.0
 11
3.013
 21
67.143
 31
0.0
  0
LINE
  5
EEB
330
A35
100
AcDbEntity
  8
0
100
AcDbLine
 10
2.867
 20
67.019
 30
0.0
 11
2.831
 21
67.007
 31
0.0
  0
LINE
  5
EEC
330
A35
100
AcDbEntity
  8
0
100
AcDbLine
 10
2.819
 20
67.063
 30
0.0
 11
2.888
 21
67.143
 31
0.0
  0
LINE
  5
EED
330
A35
100
AcDbEntity
  8
0
100
AcDbLine
 10
2.924
 20
67.155
 30
0.0
 11
2.819
 21
67.063
 31
0.0
  0
LINE
  5
EEE
330
A35
100
AcDbEntity
  8
0
100
AcDbLine
 10
2.811
 20
67.031
 30
0.0
 11
2.843
 21
67.043
 31
0.0
  0
LINE
  5
EEF
330
A35
100
AcDbEntity
  8
0
100
AcDbLine
 10
3.005
 20
67.2
 30
0.0
 11
3.037
 21
67.2
 31
0.0
  0
LINE
  5
EF0
330
A35
100
AcDbEntity
  8
0
100
AcDbLine
 10
2.924
 20
67.155
 30
0.0
 11
2.888
 21
67.143
 31
0.0
  0
LINE
  5
EF1
330
A35
100
AcDbEntity
  8
0
100
AcDbLine
 10
3.005
 20
67.131
 30
0.0
 11
2.867
 21
67.019
 31
0.0
  0
LINE
  5
EF2
330
A35
100
AcDbEntity
  8
0
100
AcDbLine
 10
2.843
 20
67.043
 30
0.0
 11
3.037
 21
67.2
 31
0.0
  0
LINE
  5
EF3
330
A35
100
AcDbEntity
  8
0
100
AcDbLine
 10
3.195
 20
67.179
 30
0.0
 11
3.219
 21
67.192
 31
0.0
  0
LINE
  5
EF4
330
A35
100
AcDbEntity
  8
0
100
AcDbLine
 10
3.195
 20
67.179
 30
0.0
 11
3.005
 21
67.131
 31
0.0
  0
LINE
  5
EF5
330
A35
100
AcDbEntity
  8
0
100
AcDbLine
 10
3.013
 20
67.143
 30
0.0
 11
3.219
 21
67.192
 31
0.0
  0
LINE
  5
EF6
330
A35
100
AcDbEntity
  8
0
100
AcDbLine
 10
3.118
 20
67.256
 30
0.0
 11
2.831
 21
67.007
 31
0.0
  0
LINE
  5
EF7
330
A35
100
AcDbEntity
  8
0
100
AcDbLine
 10
2.811
 20
67.031
 30
0.0
 11
3.005
 21
67.2
 31
0.0
  0
LINE
  5
EF8
330
A35
100
AcDbEntity
  8
0
100
AcDbLine
 10
3.118
 20
67.256
 30
0.0
 11
3.15
 21
67.256
 31
0.0
  0
LINE
  5
EF9
330
A35
100
AcDbEntity
  8
0
100
AcDbLine
 10
3.187
 20
67.565
 30
0.0
 11
4.133
 21
68.381
 31
0.0
  0
LINE
  5
EFA
330
A35
100
AcDbEntity
  8
0
100
AcDbLine
 10
3.049
 20
67.449
 30
0.0
 11
2.103
 21
66.633
 31
0.0
  0
LINE
  5
EFB
330
A35
100
AcDbEntity
  8
0
100
AcDbLine
 10
2.867
 20
66.737
 30
0.0
 11
5.743
 21
69.221
 31
0.0
  0
LINE
  5
EFC
330
A35
100
AcDbEntity
  8
0
100
AcDbLine
 10
6.119
 20
67.087
 30
0.0
 11
7.991
 21
68.699
 31
0.0
  0
LINE
  5
EFD
330
A35
100
AcDbEntity
  8
0
100
AcDbLine
 10
2.855
 20
66.737
 30
0.0
 11
2.774
 21
66.713
 31
0.0
  0
LINE
  5
EFE
330
A35
100
AcDbEntity
  8
0
100
AcDbLine
 10
2.774
 20
66.713
 30
0.0
 11
2.787
 21
66.725
 31
0.0
  0
LINE
  5
EFF
330
A35
100
AcDbEntity
  8
0
100
AcDbLine
 10
2.855
 20
66.737
 30
0.0
 11
2.867
 21
66.737
 31
0.0
  0
LINE
  5
F00
330
A35
100
AcDbEntity
  8
0
100
AcDbLine
 10
2.944
 20
67.497
 30
0.0
 11
1.998
 21
66.677
 31
0.0
  0
LINE
  5
F01
330
A35
100
AcDbEntity
  8
0
100
AcDbLine
 10
2.216
 20
67.509
 30
0.0
 11
2.625
 21
67.61
 31
0.0
  0
LINE
  5
F02
330
A35
100
AcDbEntity
  8
0
100
AcDbLine
 10
3.494
 20
69.434
 30
0.0
 11
3.595
 21
69.458
 31
0.0
  0
LINE
  5
F03
330
A35
100
AcDbEntity
  8
0
100
AcDbLine
 10
3.494
 20
69.434
 30
0.0
 11
3.47
 21
69.426
 31
0.0
  0
LINE
  5
F04
330
A35
100
AcDbEntity
  8
0
100
AcDbLine
 10
6.471
 20
67.903
 30
0.0
 11
6.495
 21
68.076
 31
0.0
  0
LINE
  5
F05
330
A35
100
AcDbEntity
  8
0
100
AcDbLine
 10
6.402
 20
68.052
 30
0.0
 11
6.471
 21
67.903
 31
0.0
  0
LINE
  5
F06
330
A35
100
AcDbEntity
  8
0
100
AcDbLine
 10
6.471
 20
67.903
 30
0.0
 11
6.519
 21
67.883
 31
0.0
  0
LINE
  5
F07
330
A35
100
AcDbEntity
  8
0
100
AcDbLine
 10
6.839
 20
68.289
 30
0.0
 11
7.065
 21
68.482
 31
0.0
  0
LINE
  5
F08
330
A35
100
AcDbEntity
  8
0
100
AcDbLine
 10
6.77
 20
68.438
 30
0.0
 11
6.839
 21
68.289
 31
0.0
  0
LINE
  5
F09
330
A35
100
AcDbEntity
  8
0
100
AcDbLine
 10
6.552
 20
68.088
 30
0.0
 11
6.519
 21
67.883
 31
0.0
  0
LINE
  5
F0A
330
A35
100
AcDbEntity
  8
0
100
AcDbLine
 10
6.895
 20
68.176
 30
0.0
 11
7.316
 21
68.538
 31
0.0
  0
LINE
  5
F0B
330
A35
100
AcDbEntity
  8
0
100
AcDbLine
 10
7.353
 20
69.607
 30
0.0
 11
7.284
 21
69.732
 31
0.0
  0
LINE
  5
F0C
330
A35
100
AcDbEntity
  8
0
100
AcDbLine
 10
4.898
 20
71.002
 30
0.0
 11
4.542
 21
70.91
 31
0.0
  0
LINE
  5
F0D
330
A35
100
AcDbEntity
  8
0
100
AcDbLine
 10
4.578
 20
70.367
 30
0.0
 11
4.861
 21
70.435
 31
0.0
  0
LINE
  5
F0E
330
A35
100
AcDbEntity
  8
0
100
AcDbLine
 10
4.736
 20
70.841
 30
0.0
 11
4.534
 21
70.797
 31
0.0
  0
LINE
  5
F0F
330
A35
100
AcDbEntity
  8
0
100
AcDbLine
 10
4.052
 20
71.991
 30
0.0
 11
4.453
 21
72.079
 31
0.0
  0
LINE
  5
F10
330
A35
100
AcDbEntity
  8
0
100
AcDbLine
 10
4.052
 20
71.991
 30
0.0
 11
4.542
 21
70.91
 31
0.0
  0
LINE
  5
F11
330
A35
100
AcDbEntity
  8
0
100
AcDbLine
 10
4.578
 20
70.367
 30
0.0
 11
4.554
 21
70.355
 31
0.0
  0
LINE
  5
F12
330
A35
100
AcDbEntity
  8
0
100
AcDbLine
 10
4.554
 20
70.254
 30
0.0
 11
5.116
 21
69.366
 31
0.0
  0
LINE
  5
F13
330
A35
100
AcDbEntity
  8
0
100
AcDbLine
 10
5.217
 20
69.31
 30
0.0
 11
5.662
 21
69.414
 31
0.0
  0
LINE
  5
F14
330
A35
100
AcDbEntity
  8
0
100
AcDbLine
 10
4.772
 20
69.651
 30
0.0
 11
4.283
 21
69.539
 31
0.0
  0
LINE
  5
F15
330
A35
100
AcDbEntity
  8
0
100
AcDbLine
 10
4.271
 20
69.527
 30
0.0
 11
4.772
 21
69.639
 31
0.0
  0
LINE
  5
F16
330
A35
100
AcDbEntity
  8
0
100
AcDbLine
 10
4.384
 20
69.378
 30
0.0
 11
4.372
 21
69.366
 31
0.0
  0
LINE
  5
F17
330
A35
100
AcDbEntity
  8
0
100
AcDbLine
 10
4.384
 20
69.378
 30
0.0
 11
4.797
 21
69.471
 31
0.0
  0
LINE
  5
F18
330
A35
100
AcDbEntity
  8
0
100
AcDbLine
 10
4.283
 20
69.539
 30
0.0
 11
4.271
 21
69.527
 31
0.0
  0
LINE
  5
F19
330
A35
100
AcDbEntity
  8
0
100
AcDbLine
 10
5.047
 20
70.355
 30
0.0
 11
4.853
 21
70.777
 31
0.0
  0
LINE
  5
F1A
330
A35
100
AcDbEntity
  8
0
100
AcDbLine
 10
4.898
 20
71.002
 30
0.0
 11
5.161
 21
70.411
 31
0.0
  0
LINE
  5
F1B
330
A35
100
AcDbEntity
  8
0
100
AcDbLine
 10
5.262
 20
70.254
 30
0.0
 11
5.286
 21
70.242
 31
0.0
  0
LINE
  5
F1C
330
A35
100
AcDbEntity
  8
0
100
AcDbLine
 10
5.274
 20
70.254
 30
0.0
 11
5.047
 21
70.198
 31
0.0
  0
LINE
  5
F1D
330
A35
100
AcDbEntity
  8
0
100
AcDbLine
 10
5.148
 20
70.287
 30
0.0
 11
5.25
 21
70.311
 31
0.0
  0
LINE
  5
F1E
330
A35
100
AcDbEntity
  8
0
100
AcDbLine
 10
5.205
 20
70.423
 30
0.0
 11
5.161
 21
70.411
 31
0.0
  0
LINE
  5
F1F
330
A35
100
AcDbEntity
  8
0
100
AcDbLine
 10
5.148
 20
70.287
 30
0.0
 11
5.047
 21
70.198
 31
0.0
  0
LINE
  5
F20
330
A35
100
AcDbEntity
  8
0
100
AcDbLine
 10
4.942
 20
70.263
 30
0.0
 11
5.047
 21
70.355
 31
0.0
  0
LINE
  5
F21
330
A35
100
AcDbEntity
  8
0
100
AcDbLine
 10
4.942
 20
70.263
 30
0.0
 11
4.861
 21
70.435
 31
0.0
  0
LINE
  5
F22
330
A35
100
AcDbEntity
  8
0
100
AcDbLine
 10
1.416
 20
67.971
 30
0.0
 11
1.213
 21
67.927
 31
0.0
  0
LINE
  5
F23
330
A35
100
AcDbEntity
  8
0
100
AcDbLine
 10
1.189
 20
67.915
 30
0.0
 11
1.395
 21
67.959
 31
0.0
  0
LINE
  5
F24
330
A35
100
AcDbEntity
  8
0
100
AcDbLine
 10
1.213
 20
67.927
 30
0.0
 11
1.189
 21
67.915
 31
0.0
  0
LINE
  5
F25
330
A35
100
AcDbEntity
  8
0
100
AcDbLine
 10
1.096
 20
67.995
 30
0.0
 11
0.607
 21
69.061
 31
0.0
  0
LINE
  5
F26
330
A35
100
AcDbEntity
  8
0
100
AcDbLine
 10
0.595
 20
69.04
 30
0.0
 11
1.088
 21
67.971
 31
0.0
  0
LINE
  5
F27
330
A35
100
AcDbEntity
  8
0
100
AcDbLine
 10
1.395
 20
67.959
 30
0.0
 11
1.416
 21
67.971
 31
0.0
  0
LINE
  5
F28
330
A35
100
AcDbEntity
  8
0
100
AcDbLine
 10
1.521
 20
67.903
 30
0.0
 11
1.577
 21
67.79
 31
0.0
  0
LINE
  5
F29
330
A35
100
AcDbEntity
  8
0
100
AcDbLine
 10
1.565
 20
67.766
 30
0.0
 11
1.509
 21
67.883
 31
0.0
  0
LINE
  5
F2A
330
A35
100
AcDbEntity
  8
0
100
AcDbLine
 10
5.88
 20
67.71
 30
0.0
 11
5.937
 21
67.61
 31
0.0
  0
LINE
  5
F2B
330
A35
100
AcDbEntity
  8
0
100
AcDbLine
 10
2.386
 20
68.482
 30
0.0
 11
1.44
 21
67.666
 31
0.0
  0
LINE
  5
F2C
330
A35
100
AcDbEntity
  8
0
100
AcDbLine
 10
1.44
 20
67.565
 30
0.0
 11
1.998
 21
66.677
 31
0.0
  0
LINE
  5
F2D
330
A35
100
AcDbEntity
  8
0
100
AcDbLine
 10
4.077
 20
66.339
 30
0.0
 11
4.121
 21
66.36
 31
0.0
  0
LINE
  5
F2E
330
A35
100
AcDbEntity
  8
0
100
AcDbLine
 10
5.387
 20
66.999
 30
0.0
 11
5.5
 21
66.938
 31
0.0
  0
LINE
  5
F2F
330
A35
100
AcDbEntity
  8
0
100
AcDbLine
 10
5.5
 20
67.143
 30
0.0
 11
5.617
 21
67.087
 31
0.0
  0
LINE
  5
F30
330
A35
100
AcDbEntity
  8
0
100
AcDbLine
 10
6.083
 20
67.075
 30
0.0
 11
6.131
 21
67.099
 31
0.0
  0
LINE
  5
F31
330
A35
100
AcDbEntity
  8
0
100
AcDbLine
 10
3.094
 20
66.191
 30
0.0
 11
3.207
 21
66.134
 31
0.0
  0
LINE
  5
F32
330
A35
100
AcDbEntity
  8
0
100
AcDbLine
 10
2.673
 20
66.77
 30
0.0
 11
2.774
 21
66.725
 31
0.0
  0
LINE
  5
F33
330
A35
100
AcDbEntity
  8
0
100
AcDbLine
 10
1.088
 20
67.983
 30
0.0
 11
1.201
 21
67.927
 31
0.0
  0
LINE
  5
F34
330
A35
100
AcDbEntity
  8
0
100
AcDbLine
 10
3.939
 20
71.931
 30
0.0
 11
4.052
 21
71.991
 31
0.0
  0
LINE
  5
F35
330
A35
100
AcDbEntity
  8
0
100
AcDbLine
 10
2.524
 20
68.606
 30
0.0
 11
2.524
 21
68.506
 31
0.0
  0
LINE
  5
F36
330
A35
100
AcDbEntity
  8
0
100
AcDbLine
 10
2.386
 20
68.482
 30
0.0
 11
2.386
 21
68.381
 31
0.0
  0
LINE
  5
F37
330
A35
100
AcDbEntity
  8
0
100
AcDbLine
 10
2.912
 20
68.711
 30
0.0
 11
3.187
 21
68.598
 31
0.0
  0
LINE
  5
F38
330
A35
100
AcDbEntity
  8
0
100
AcDbLine
 10
2.787
 20
68.574
 30
0.0
 11
2.912
 21
68.711
 31
0.0
  0
LINE
  5
F39
330
A35
100
AcDbEntity
  8
0
100
AcDbLine
 10
2.811
 20
68.301
 30
0.0
 11
2.787
 21
68.574
 31
0.0
  0
LINE
  5
F3A
330
A35
100
AcDbEntity
  8
0
100
AcDbLine
 10
2.981
 20
68.064
 30
0.0
 11
2.811
 21
68.301
 31
0.0
  0
LINE
  5
F3B
330
A35
100
AcDbEntity
  8
0
100
AcDbLine
 10
3.187
 20
67.995
 30
0.0
 11
2.981
 21
68.064
 31
0.0
  0
LINE
  5
F3C
330
A35
100
AcDbEntity
  8
0
100
AcDbLine
 10
3.324
 20
68.152
 30
0.0
 11
3.187
 21
67.995
 31
0.0
  0
LINE
  5
F3D
330
A35
100
AcDbEntity
  8
0
100
AcDbLine
 10
3.288
 20
68.438
 30
0.0
 11
3.324
 21
68.152
 31
0.0
  0
LINE
  5
F3E
330
A35
100
AcDbEntity
  8
0
100
AcDbLine
 10
3.163
 20
68.892
 30
0.0
 11
3.3
 21
69.04
 31
0.0
  0
LINE
  5
F3F
330
A35
100
AcDbEntity
  8
0
100
AcDbLine
 10
3.195
 20
68.606
 30
0.0
 11
3.163
 21
68.892
 31
0.0
  0
LINE
  5
F40
330
A35
100
AcDbEntity
  8
0
100
AcDbLine
 10
3.871
 20
69.503
 30
0.0
 11
3.996
 21
69.651
 31
0.0
  0
LINE
  5
F41
330
A35
100
AcDbEntity
  8
0
100
AcDbLine
 10
3.895
 20
69.233
 30
0.0
 11
3.871
 21
69.503
 31
0.0
  0
LINE
  5
F42
330
A35
100
AcDbEntity
  8
0
100
AcDbLine
 10
4.065
 20
68.992
 30
0.0
 11
3.895
 21
69.233
 31
0.0
  0
LINE
  5
F43
330
A35
100
AcDbEntity
  8
0
100
AcDbLine
 10
4.271
 20
68.936
 30
0.0
 11
4.065
 21
68.992
 31
0.0
  0
LINE
  5
F44
330
A35
100
AcDbEntity
  8
0
100
AcDbLine
 10
3.689
 20
68.711
 30
0.0
 11
3.689
 21
68.538
 31
0.0
  0
LINE
  5
F45
330
A35
100
AcDbEntity
  8
0
100
AcDbLine
 10
3.47
 20
69.426
 30
0.0
 11
3.47
 21
69.322
 31
0.0
  0
LINE
  5
F46
330
A35
100
AcDbEntity
  8
0
100
AcDbLine
 10
3.701
 20
68.47
 30
0.0
 11
3.563
 21
68.325
 31
0.0
  0
LINE
  5
F47
330
A35
100
AcDbEntity
  8
0
100
AcDbLine
 10
3.676
 20
68.743
 30
0.0
 11
3.701
 21
68.47
 31
0.0
  0
LINE
  5
F48
330
A35
100
AcDbEntity
  8
0
100
AcDbLine
 10
3.506
 20
68.984
 30
0.0
 11
3.676
 21
68.743
 31
0.0
  0
LINE
  5
F49
330
A35
100
AcDbEntity
  8
0
100
AcDbLine
 10
3.3
 20
69.04
 30
0.0
 11
3.506
 21
68.984
 31
0.0
  0
LINE
  5
F4A
330
A35
100
AcDbEntity
  8
0
100
AcDbLine
 10
4.133
 20
68.381
 30
0.0
 11
4.028
 21
68.438
 31
0.0
  0
LINE
  5
F4B
330
A35
100
AcDbEntity
  8
0
100
AcDbLine
 10
3.563
 20
68.325
 30
0.0
 11
3.3
 21
68.45
 31
0.0
  0
LINE
  5
F4C
330
A35
100
AcDbEntity
  8
0
100
AcDbLine
 10
4.271
 20
68.494
 30
0.0
 11
4.166
 21
68.55
 31
0.0
  0
LINE
  5
F4D
330
A35
100
AcDbEntity
  8
0
100
AcDbLine
 10
4.408
 20
69.085
 30
0.0
 11
4.271
 21
68.936
 31
0.0
  0
LINE
  5
F4E
330
A35
100
AcDbEntity
  8
0
100
AcDbLine
 10
4.372
 20
69.366
 30
0.0
 11
4.408
 21
69.085
 31
0.0
  0
LINE
  5
F4F
330
A35
100
AcDbEntity
  8
0
100
AcDbLine
 10
5.387
 20
66.987
 30
0.0
 11
5.399
 21
67.007
 31
0.0
  0
LINE
  5
F50
330
A35
100
AcDbEntity
  8
0
100
AcDbLine
 10
4.817
 20
68.618
 30
0.0
 11
4.93
 21
68.562
 31
0.0
  0
LINE
  5
F51
330
A35
100
AcDbEntity
  8
0
100
AcDbLine
 10
5.524
 20
67.155
 30
0.0
 11
5.5
 21
67.131
 31
0.0
  0
LINE
  5
F52
330
A35
100
AcDbEntity
  8
0
100
AcDbLine
 10
2.479
 20
67.393
 30
0.0
 11
2.216
 21
67.509
 31
0.0
  0
LINE
  5
F53
330
A35
100
AcDbEntity
  8
0
100
AcDbLine
 10
2.236
 20
67.224
 30
0.0
 11
2.103
 21
67.063
 31
0.0
  0
LINE
  5
F54
330
A35
100
AcDbEntity
  8
0
100
AcDbLine
 10
2.204
 20
67.509
 30
0.0
 11
2.236
 21
67.224
 31
0.0
  0
LINE
  5
F55
330
A35
100
AcDbEntity
  8
0
100
AcDbLine
 10
3.733
 20
67.69
 30
0.0
 11
3.846
 21
67.634
 31
0.0
  0
LINE
  5
F56
330
A35
100
AcDbEntity
  8
0
100
AcDbLine
 10
3.049
 20
67.449
 30
0.0
 11
2.944
 21
67.497
 31
0.0
  0
LINE
  5
F57
330
A35
100
AcDbEntity
  8
0
100
AcDbLine
 10
3.187
 20
67.565
 30
0.0
 11
3.082
 21
67.61
 31
0.0
  0
LINE
  5
F58
330
A35
100
AcDbEntity
  8
0
100
AcDbLine
 10
2.718
 20
66.975
 30
0.0
 11
2.819
 21
66.987
 31
0.0
  0
LINE
  5
F59
330
A35
100
AcDbEntity
  8
0
100
AcDbLine
 10
2.73
 20
67.075
 30
0.0
 11
2.718
 21
66.975
 31
0.0
  0
LINE
  5
F5A
330
A35
100
AcDbEntity
  8
0
100
AcDbLine
 10
3.163
 20
67.28
 30
0.0
 11
2.73
 21
67.075
 31
0.0
  0
LINE
  5
F5B
330
A35
100
AcDbEntity
  8
0
100
AcDbLine
 10
3.276
 20
67.292
 30
0.0
 11
3.163
 21
67.28
 31
0.0
  0
LINE
  5
F5C
330
A35
100
AcDbEntity
  8
0
100
AcDbLine
 10
3.255
 20
67.192
 30
0.0
 11
3.276
 21
67.292
 31
0.0
  0
LINE
  5
F5D
330
A35
100
AcDbEntity
  8
0
100
AcDbLine
 10
2.819
 20
66.987
 30
0.0
 11
3.255
 21
67.192
 31
0.0
  0
LINE
  5
F5E
330
A35
100
AcDbEntity
  8
0
100
AcDbLine
 10
2.706
 20
66.963
 30
0.0
 11
2.799
 21
66.975
 31
0.0
  0
LINE
  5
F5F
330
A35
100
AcDbEntity
  8
0
100
AcDbLine
 10
2.649
 20
67.007
 30
0.0
 11
2.706
 21
66.963
 31
0.0
  0
LINE
  5
F60
330
A35
100
AcDbEntity
  8
0
100
AcDbLine
 10
2.831
 20
67.155
 30
0.0
 11
2.649
 21
67.007
 31
0.0
  0
LINE
  5
F61
330
A35
100
AcDbEntity
  8
0
100
AcDbLine
 10
3.276
 20
67.316
 30
0.0
 11
2.831
 21
67.155
 31
0.0
  0
LINE
  5
F62
330
A35
100
AcDbEntity
  8
0
100
AcDbLine
 10
3.288
 20
67.2
 30
0.0
 11
3.276
 21
67.316
 31
0.0
  0
LINE
  5
F63
330
A35
100
AcDbEntity
  8
0
100
AcDbLine
 10
2.799
 20
66.975
 30
0.0
 11
3.288
 21
67.2
 31
0.0
  0
LINE
  5
F64
330
A35
100
AcDbEntity
  8
0
100
AcDbLine
 10
2.617
 20
67.541
 30
0.0
 11
2.479
 21
67.392
 31
0.0
  0
LINE
  5
F65
330
A35
100
AcDbEntity
  8
0
100
AcDbLine
 10
2.593
 20
67.815
 30
0.0
 11
2.617
 21
67.541
 31
0.0
  0
LINE
  5
F66
330
A35
100
AcDbEntity
  8
0
100
AcDbLine
 10
2.423
 20
68.04
 30
0.0
 11
2.593
 21
67.815
 31
0.0
  0
LINE
  5
F67
330
A35
100
AcDbEntity
  8
0
100
AcDbLine
 10
2.216
 20
68.108
 30
0.0
 11
2.423
 21
68.04
 31
0.0
  0
LINE
  5
F68
330
A35
100
AcDbEntity
  8
0
100
AcDbLine
 10
3.094
 20
66.179
 30
0.0
 11
3.106
 21
66.203
 31
0.0
  0
LINE
  5
F69
330
A35
100
AcDbEntity
  8
0
100
AcDbLine
 10
2.605
 20
67.778
 30
0.0
 11
2.605
 21
67.597
 31
0.0
  0
LINE
  5
F6A
330
A35
100
AcDbEntity
  8
0
100
AcDbLine
 10
1.828
 20
67.778
 30
0.0
 11
2.103
 21
67.666
 31
0.0
  0
LINE
  5
F6B
330
A35
100
AcDbEntity
  8
0
100
AcDbLine
 10
2.103
 20
66.633
 30
0.0
 11
1.998
 21
66.677
 31
0.0
  0
LINE
  5
F6C
330
A35
100
AcDbEntity
  8
0
100
AcDbLine
 10
2.787
 20
66.725
 30
0.0
 11
2.694
 21
66.77
 31
0.0
  0
LINE
  5
F6D
330
A35
100
AcDbEntity
  8
0
100
AcDbLine
 10
2.079
 20
67.951
 30
0.0
 11
2.216
 21
68.108
 31
0.0
  0
LINE
  5
F6E
330
A35
100
AcDbEntity
  8
0
100
AcDbLine
 10
2.111
 20
67.678
 30
0.0
 11
2.079
 21
67.951
 31
0.0
  0
LINE
  5
F6F
330
A35
100
AcDbEntity
  8
0
100
AcDbLine
 10
3.608
 20
69.539
 30
0.0
 11
3.608
 21
69.434
 31
0.0
  0
LINE
  5
F70
330
A35
100
AcDbEntity
  8
0
100
AcDbLine
 10
3.996
 20
69.651
 30
0.0
 11
4.271
 21
69.527
 31
0.0
  0
LINE
  5
F71
330
A35
100
AcDbEntity
  8
0
100
AcDbLine
 10
6.895
 20
68.176
 30
0.0
 11
6.839
 21
68.289
 31
0.0
  0
LINE
  5
F72
330
A35
100
AcDbEntity
  8
0
100
AcDbLine
 10
4.898
 20
71.002
 30
0.0
 11
4.736
 21
70.841
 31
0.0
  0
LINE
  5
F73
330
A35
100
AcDbEntity
  8
0
100
AcDbLine
 10
4.428
 20
70.853
 30
0.0
 11
4.533
 21
70.797
 31
0.0
  0
LINE
  5
F74
330
A35
100
AcDbEntity
  8
0
100
AcDbLine
 10
4.542
 20
70.91
 30
0.0
 11
4.533
 21
70.797
 31
0.0
  0
LINE
  5
F75
330
A35
100
AcDbEntity
  8
0
100
AcDbLine
 10
4.428
 20
70.853
 30
0.0
 11
4.542
 21
70.91
 31
0.0
  0
LINE
  5
F76
330
A35
100
AcDbEntity
  8
0
100
AcDbLine
 10
4.554
 20
70.355
 30
0.0
 11
4.554
 21
70.254
 31
0.0
  0
LINE
  5
F77
330
A35
100
AcDbEntity
  8
0
100
AcDbLine
 10
5.217
 20
69.31
 30
0.0
 11
5.116
 21
69.366
 31
0.0
  0
LINE
  5
F78
330
A35
100
AcDbEntity
  8
0
100
AcDbLine
 10
4.647
 20
69.266
 30
0.0
 11
4.384
 21
69.378
 31
0.0
  0
LINE
  5
F79
330
A35
100
AcDbEntity
  8
0
100
AcDbLine
 10
4.772
 20
69.639
 30
0.0
 11
4.772
 21
69.471
 31
0.0
  0
LINE
  5
F7A
330
A35
100
AcDbEntity
  8
0
100
AcDbLine
 10
4.797
 20
69.527
 30
0.0
 11
4.647
 21
69.266
 31
0.0
  0
LINE
  5
F7B
330
A35
100
AcDbEntity
  8
0
100
AcDbLine
 10
4.59
 20
69.913
 30
0.0
 11
4.797
 21
69.527
 31
0.0
  0
LINE
  5
F7C
330
A35
100
AcDbEntity
  8
0
100
AcDbLine
 10
4.384
 20
69.981
 30
0.0
 11
4.59
 21
69.913
 31
0.0
  0
LINE
  5
F7D
330
A35
100
AcDbEntity
  8
0
100
AcDbLine
 10
4.291
 20
69.925
 30
0.0
 11
4.384
 21
69.981
 31
0.0
  0
LINE
  5
F7E
330
A35
100
AcDbEntity
  8
0
100
AcDbLine
 10
4.283
 20
69.539
 30
0.0
 11
4.291
 21
69.925
 31
0.0
  0
LINE
  5
F7F
330
A35
100
AcDbEntity
  8
0
100
AcDbLine
 10
4.853
 20
70.777
 30
0.0
 11
4.817
 21
70.821
 31
0.0
  0
LINE
  5
F80
330
A35
100
AcDbEntity
  8
0
100
AcDbLine
 10
4.898
 20
71.002
 30
0.0
 11
4.853
 21
70.777
 31
0.0
  0
LINE
  5
F81
330
A35
100
AcDbEntity
  8
0
100
AcDbLine
 10
5.161
 20
70.411
 30
0.0
 11
5.148
 21
70.287
 31
0.0
  0
LINE
  5
F82
330
A35
100
AcDbEntity
  8
0
100
AcDbLine
 10
5.161
 20
70.411
 30
0.0
 11
5.047
 21
70.355
 31
0.0
  0
LINE
  5
F83
330
A35
100
AcDbEntity
  8
0
100
AcDbLine
 10
5.148
 20
70.287
 30
0.0
 11
5.047
 21
70.355
 31
0.0
  0
LINE
  5
F84
330
A35
100
AcDbEntity
  8
0
100
AcDbLine
 10
5.047
 20
70.198
 30
0.0
 11
4.942
 21
70.263
 31
0.0
  0
LINE
  5
F85
330
A35
100
AcDbEntity
  8
0
100
AcDbLine
 10
1.088
 20
67.971
 30
0.0
 11
1.213
 21
67.927
 31
0.0
  0
LINE
  5
F86
330
A35
100
AcDbEntity
  8
0
100
AcDbLine
 10
0.595
 20
69.04
 30
0.0
 11
0.607
 21
69.061
 31
0.0
  0
LINE
  5
F87
330
A35
100
AcDbEntity
  8
0
100
AcDbLine
 10
1.44
 20
67.666
 30
0.0
 11
1.44
 21
67.565
 31
0.0
  0
LINE
  5
F88
330
A35
100
AcDbEntity
  8
0
100
AcDbLine
 10
1.509
 20
67.883
 30
0.0
 11
1.521
 21
67.903
 31
0.0
  0
LINE
  5
F89
330
A35
100
AcDbEntity
  8
0
100
AcDbLine
 10
1.416
 20
67.971
 30
0.0
 11
1.521
 21
67.903
 31
0.0
  0
LINE
  5
F8A
330
A35
100
AcDbEntity
  8
0
100
AcDbLine
 10
1.509
 20
67.883
 30
0.0
 11
1.395
 21
67.959
 31
0.0
  0
LINE
  5
F8B
330
A35
100
AcDbEntity
  8
0
100
AcDbLine
 10
1.703
 20
67.634
 30
0.0
 11
1.828
 21
67.778
 31
0.0
  0
LINE
  5
F8C
330
A35
100
AcDbEntity
  8
0
100
AcDbLine
 10
1.727
 20
67.372
 30
0.0
 11
1.703
 21
67.634
 31
0.0
  0
LINE
  5
F8D
330
A35
100
AcDbEntity
  8
0
100
AcDbLine
 10
1.897
 20
67.131
 30
0.0
 11
1.727
 21
67.372
 31
0.0
  0
LINE
  5
F8E
330
A35
100
AcDbEntity
  8
0
100
AcDbLine
 10
2.103
 20
67.063
 30
0.0
 11
1.897
 21
67.131
 31
0.0
  0
LINE
  5
F8F
330
A35
100
AcDbEntity
  8
0
100
AcDbLine
 10
49.481
 20
53.698
 30
0.0
 11
49.489
 21
53.811
 31
0.0
  0
LINE
  5
F90
330
A35
100
AcDbEntity
  8
0
100
AcDbLine
 10
34.279
 20
53.698
 30
0.0
 11
34.279
 21
53.811
 31
0.0
  0
LINE
  5
F91
330
A35
100
AcDbEntity
  8
0
100
AcDbLine
 10
40.487
 20
57.794
 30
0.0
 11
40.523
 21
58.341
 31
0.0
  0
LINE
  5
F92
330
A35
100
AcDbEntity
  8
0
100
AcDbLine
 10
40.293
 20
58.373
 30
0.0
 11
40.248
 21
57.818
 31
0.0
  0
LINE
  5
F93
330
A35
100
AcDbEntity
  8
0
100
AcDbLine
 10
40.58
 20
58.578
 30
0.0
 11
40.58
 21
59.892
 31
0.0
  0
LINE
  5
F94
330
A35
100
AcDbEntity
  8
0
100
AcDbLine
 10
40.669
 20
58.341
 30
0.0
 11
40.681
 21
58.578
 31
0.0
  0
LINE
  5
F95
330
A35
100
AcDbEntity
  8
0
100
AcDbLine
 10
40.523
 20
58.341
 30
0.0
 11
40.669
 21
58.341
 31
0.0
  0
LINE
  5
F96
330
A35
100
AcDbEntity
  8
0
100
AcDbLine
 10
40.669
 20
58.341
 30
0.0
 11
40.624
 21
57.782
 31
0.0
  0
LINE
  5
F97
330
A35
100
AcDbEntity
  8
0
100
AcDbLine
 10
40.293
 20
58.373
 30
0.0
 11
40.293
 21
60.029
 31
0.0
  0
LINE
  5
F98
330
A35
100
AcDbEntity
  8
0
100
AcDbLine
 10
40.281
 20
60.145
 30
0.0
 11
40.511
 21
60.145
 31
0.0
  0
LINE
  5
F99
330
A35
100
AcDbEntity
  8
0
100
AcDbLine
 10
40.531
 20
59.952
 30
0.0
 11
40.531
 21
59.94
 31
0.0
  0
LINE
  5
F9A
330
A35
100
AcDbEntity
  8
0
100
AcDbLine
 10
40.58
 20
58.578
 30
0.0
 11
40.681
 21
58.578
 31
0.0
  0
LINE
  5
F9B
330
A35
100
AcDbEntity
  8
0
100
AcDbLine
 10
40.293
 20
60.029
 30
0.0
 11
40.28
 21
60.145
 31
0.0
  0
LINE
  5
F9C
330
A35
100
AcDbEntity
  8
0
100
AcDbLine
 10
40.26
 20
64.478
 30
0.0
 11
40.932
 21
64.478
 31
0.0
  0
LINE
  5
F9D
330
A35
100
AcDbEntity
  8
0
100
AcDbLine
 10
40.875
 20
59.892
 30
0.0
 11
40.58
 21
59.892
 31
0.0
  0
LINE
  5
F9E
330
A35
100
AcDbEntity
  8
0
100
AcDbLine
 10
40.531
 20
59.94
 30
0.0
 11
40.875
 21
59.94
 31
0.0
  0
LINE
  5
F9F
330
A35
100
AcDbEntity
  8
0
100
AcDbLine
 10
43.5
 20
64.478
 30
0.0
 11
43.601
 21
64.466
 31
0.0
  0
LINE
  5
FA0
330
A35
100
AcDbEntity
  8
0
100
AcDbLine
 10
43.512
 20
63.297
 30
0.0
 11
43.306
 21
63.297
 31
0.0
  0
LINE
  5
FA1
330
A35
100
AcDbEntity
  8
0
100
AcDbLine
 10
42.861
 20
58.224
 30
0.0
 11
42.861
 21
57.874
 31
0.0
  0
LINE
  5
FA2
330
A35
100
AcDbEntity
  8
0
100
AcDbLine
 10
42.861
 20
58.224
 30
0.0
 11
42.837
 21
58.224
 31
0.0
  0
LINE
  5
FA3
330
A35
100
AcDbEntity
  8
0
100
AcDbLine
 10
40.887
 20
58.341
 30
0.0
 11
40.887
 21
59.872
 31
0.0
  0
LINE
  5
FA4
330
A35
100
AcDbEntity
  8
0
100
AcDbLine
 10
40.875
 20
59.892
 30
0.0
 11
40.875
 21
59.94
 31
0.0
  0
LINE
  5
FA5
330
A35
100
AcDbEntity
  8
0
100
AcDbLine
 10
40.887
 20
58.341
 30
0.0
 11
40.899
 21
57.874
 31
0.0
  0
LINE
  5
FA6
330
A35
100
AcDbEntity
  8
0
100
AcDbLine
 10
44.515
 20
59.498
 30
0.0
 11
44.515
 21
62.276
 31
0.0
  0
LINE
  5
FA7
330
A35
100
AcDbEntity
  8
0
100
AcDbLine
 10
43.593
 20
62.967
 30
0.0
 11
43.593
 21
59.044
 31
0.0
  0
LINE
  5
FA8
330
A35
100
AcDbEntity
  8
0
100
AcDbLine
 10
44.515
 20
62.276
 30
0.0
 11
44.652
 21
62.457
 31
0.0
  0
LINE
  5
FA9
330
A35
100
AcDbEntity
  8
0
100
AcDbLine
 10
44.652
 20
62.457
 30
0.0
 11
44.664
 21
59.044
 31
0.0
  0
LINE
  5
FAA
330
A35
100
AcDbEntity
  8
0
100
AcDbLine
 10
43.544
 20
63.071
 30
0.0
 11
43.512
 21
63.116
 31
0.0
  0
LINE
  5
FAB
330
A35
100
AcDbEntity
  8
0
100
AcDbLine
 10
43.593
 20
62.967
 30
0.0
 11
43.625
 21
62.437
 31
0.0
  0
LINE
  5
FAC
330
A35
100
AcDbEntity
  8
0
100
AcDbLine
 10
43.306
 20
63.297
 30
0.0
 11
43.306
 21
60.145
 31
0.0
  0
LINE
  5
FAD
330
A35
100
AcDbEntity
  8
0
100
AcDbLine
 10
43.237
 20
59.94
 30
0.0
 11
42.885
 21
59.94
 31
0.0
  0
LINE
  5
FAE
330
A35
100
AcDbEntity
  8
0
100
AcDbLine
 10
42.885
 20
59.94
 30
0.0
 11
42.897
 21
59.892
 31
0.0
  0
LINE
  5
FAF
330
A35
100
AcDbEntity
  8
0
100
AcDbLine
 10
42.885
 20
59.872
 30
0.0
 11
42.861
 21
58.224
 31
0.0
  0
LINE
  5
FB0
330
A35
100
AcDbEntity
  8
0
100
AcDbLine
 10
42.861
 20
57.874
 30
0.0
 11
42.849
 21
57.713
 31
0.0
  0
LINE
  5
FB1
330
A35
100
AcDbEntity
  8
0
100
AcDbLine
 10
42.897
 20
59.892
 30
0.0
 11
43.192
 21
59.892
 31
0.0
  0
LINE
  5
FB2
330
A35
100
AcDbEntity
  8
0
100
AcDbLine
 10
43.079
 20
58.578
 30
0.0
 11
43.099
 21
58.341
 31
0.0
  0
LINE
  5
FB3
330
A35
100
AcDbEntity
  8
0
100
AcDbLine
 10
43.079
 20
58.578
 30
0.0
 11
43.192
 21
58.578
 31
0.0
  0
LINE
  5
FB4
330
A35
100
AcDbEntity
  8
0
100
AcDbLine
 10
43.556
 20
58.94
 30
0.0
 11
43.556
 21
59.418
 31
0.0
  0
LINE
  5
FB5
330
A35
100
AcDbEntity
  8
0
100
AcDbLine
 10
43.475
 20
60.029
 30
0.0
 11
43.475
 21
58.373
 31
0.0
  0
LINE
  5
FB6
330
A35
100
AcDbEntity
  8
0
100
AcDbLine
 10
43.487
 20
60.145
 30
0.0
 11
43.261
 21
60.145
 31
0.0
  0
LINE
  5
FB7
330
A35
100
AcDbEntity
  8
0
100
AcDbLine
 10
43.475
 20
60.029
 30
0.0
 11
43.487
 21
60.145
 31
0.0
  0
LINE
  5
FB8
330
A35
100
AcDbEntity
  8
0
100
AcDbLine
 10
43.237
 20
58.341
 30
0.0
 11
43.281
 21
57.794
 31
0.0
  0
LINE
  5
FB9
330
A35
100
AcDbEntity
  8
0
100
AcDbLine
 10
43.099
 20
58.341
 30
0.0
 11
43.136
 21
57.782
 31
0.0
  0
LINE
  5
FBA
330
A35
100
AcDbEntity
  8
0
100
AcDbLine
 10
43.237
 20
58.341
 30
0.0
 11
43.099
 21
58.341
 31
0.0
  0
LINE
  5
FBB
330
A35
100
AcDbEntity
  8
0
100
AcDbLine
 10
43.512
 20
57.818
 30
0.0
 11
43.475
 21
58.373
 31
0.0
  0
LINE
  5
FBC
330
A35
100
AcDbEntity
  8
0
100
AcDbLine
 10
43.192
 20
58.578
 30
0.0
 11
43.192
 21
59.892
 31
0.0
  0
LINE
  5
FBD
330
A35
100
AcDbEntity
  8
0
100
AcDbLine
 10
43.237
 20
59.952
 30
0.0
 11
43.261
 21
60.145
 31
0.0
  0
LINE
  5
FBE
330
A35
100
AcDbEntity
  8
0
100
AcDbLine
 10
43.487
 20
60.145
 30
0.0
 11
43.556
 21
59.418
 31
0.0
  0
LINE
  5
FBF
330
A35
100
AcDbEntity
  8
0
100
AcDbLine
 10
44.515
 20
59.498
 30
0.0
 11
44.664
 21
59.044
 31
0.0
  0
LINE
  5
FC0
330
A35
100
AcDbEntity
  8
0
100
AcDbLine
 10
47.948
 20
56.299
 30
0.0
 11
48.041
 21
56.162
 31
0.0
  0
LINE
  5
FC1
330
A35
100
AcDbEntity
  8
0
100
AcDbLine
 10
47.722
 20
56.367
 30
0.0
 11
47.948
 21
56.299
 31
0.0
  0
LINE
  5
FC2
330
A35
100
AcDbEntity
  8
0
100
AcDbLine
 10
46.925
 20
62.131
 30
0.0
 11
46.982
 21
56.761
 31
0.0
  0
LINE
  5
FC3
330
A35
100
AcDbEntity
  8
0
100
AcDbLine
 10
43.5
 20
64.478
 30
0.0
 11
42.837
 21
64.478
 31
0.0
  0
LINE
  5
FC4
330
A35
100
AcDbEntity
  8
0
100
AcDbLine
 10
42.897
 20
59.892
 30
0.0
 11
42.897
 21
57.706
 31
0.0
  0
LINE
  5
FC5
330
A35
100
AcDbEntity
  8
0
100
AcDbLine
 10
43.079
 20
57.694
 30
0.0
 11
43.079
 21
58.578
 31
0.0
  0
LINE
  5
FC6
330
A35
100
AcDbEntity
  8
0
100
AcDbLine
 10
43.237
 20
59.952
 30
0.0
 11
42.885
 21
59.952
 31
0.0
  0
LINE
  5
FC7
330
A35
100
AcDbEntity
  8
0
100
AcDbLine
 10
43.237
 20
59.94
 30
0.0
 11
43.237
 21
59.952
 31
0.0
  0
LINE
  5
FC8
330
A35
100
AcDbEntity
  8
0
100
AcDbLine
 10
35.808
 20
56.299
 30
0.0
 11
35.731
 21
56.162
 31
0.0
  0
LINE
  5
FC9
330
A35
100
AcDbEntity
  8
0
100
AcDbLine
 10
36.79
 20
56.761
 30
0.0
 11
36.847
 21
62.107
 31
0.0
  0
LINE
  5
FCA
330
A35
100
AcDbEntity
  8
0
100
AcDbLine
 10
36.05
 20
56.367
 30
0.0
 11
35.808
 21
56.299
 31
0.0
  0
LINE
  5
FCB
330
A35
100
AcDbEntity
  8
0
100
AcDbLine
 10
40.167
 20
64.466
 30
0.0
 11
40.26
 21
64.478
 31
0.0
  0
LINE
  5
FCC
330
A35
100
AcDbEntity
  8
0
100
AcDbLine
 10
40.511
 20
60.145
 30
0.0
 11
40.531
 21
59.952
 31
0.0
  0
LINE
  5
FCD
330
A35
100
AcDbEntity
  8
0
100
AcDbLine
 10
40.281
 20
60.145
 30
0.0
 11
40.212
 21
59.506
 31
0.0
  0
LINE
  5
FCE
330
A35
100
AcDbEntity
  8
0
100
AcDbLine
 10
40.875
 20
59.892
 30
0.0
 11
40.875
 21
57.706
 31
0.0
  0
LINE
  5
FCF
330
A35
100
AcDbEntity
  8
0
100
AcDbLine
 10
40.899
 20
58.224
 30
0.0
 11
40.932
 21
58.224
 31
0.0
  0
LINE
  5
FD0
330
A35
100
AcDbEntity
  8
0
100
AcDbLine
 10
40.681
 20
58.578
 30
0.0
 11
40.681
 21
57.694
 31
0.0
  0
LINE
  5
FD1
330
A35
100
AcDbEntity
  8
0
100
AcDbLine
 10
40.531
 20
59.952
 30
0.0
 11
40.887
 21
59.952
 31
0.0
  0
LINE
  5
FD2
330
A35
100
AcDbEntity
  8
0
100
AcDbLine
 10
40.899
 20
57.874
 30
0.0
 11
40.911
 21
57.713
 31
0.0
  0
LINE
  5
FD3
330
A35
100
AcDbEntity
  8
0
100
AcDbLine
 10
44.07
 20
64.374
 30
0.0
 11
44.22
 21
64.354
 31
0.0
  0
LINE
  5
FD4
330
A35
100
AcDbEntity
  8
0
100
AcDbLine
 10
44.608
 20
64.241
 30
0.0
 11
44.721
 21
64.181
 31
0.0
  0
LINE
  5
FD5
330
A35
100
AcDbEntity
  8
0
100
AcDbLine
 10
44.434
 20
63.048
 30
0.0
 11
44.22
 21
63.104
 31
0.0
  0
LINE
  5
FD6
330
A35
100
AcDbEntity
  8
0
100
AcDbLine
 10
44.082
 20
63.14
 30
0.0
 11
44.22
 21
63.104
 31
0.0
  0
LINE
  5
FD7
330
A35
100
AcDbEntity
  8
0
100
AcDbLine
 10
44.082
 20
63.14
 30
0.0
 11
43.601
 21
63.285
 31
0.0
  0
LINE
  5
FD8
330
A35
100
AcDbEntity
  8
0
100
AcDbLine
 10
43.544
 20
63.084
 30
0.0
 11
43.613
 21
63.285
 31
0.0
  0
LINE
  5
FD9
330
A35
100
AcDbEntity
  8
0
100
AcDbLine
 10
43.512
 20
63.116
 30
0.0
 11
43.306
 21
63.297
 31
0.0
  0
LINE
  5
FDA
330
A35
100
AcDbEntity
  8
0
100
AcDbLine
 10
43.601
 20
63.285
 30
0.0
 11
43.512
 21
63.297
 31
0.0
  0
LINE
  5
FDB
330
A35
100
AcDbEntity
  8
0
100
AcDbLine
 10
44.47
 20
62.742
 30
0.0
 11
44.62
 21
62.641
 31
0.0
  0
LINE
  5
FDC
330
A35
100
AcDbEntity
  8
0
100
AcDbLine
 10
44.62
 20
62.935
 30
0.0
 11
44.434
 21
63.048
 31
0.0
  0
LINE
  5
FDD
330
A35
100
AcDbEntity
  8
0
100
AcDbLine
 10
43.989
 20
62.911
 30
0.0
 11
43.544
 21
63.059
 31
0.0
  0
LINE
  5
FDE
330
A35
100
AcDbEntity
  8
0
100
AcDbLine
 10
43.593
 20
62.967
 30
0.0
 11
43.556
 21
63.071
 31
0.0
  0
LINE
  5
FDF
330
A35
100
AcDbEntity
  8
0
100
AcDbLine
 10
45.085
 20
62.662
 30
0.0
 11
44.733
 21
62.855
 31
0.0
  0
LINE
  5
FE0
330
A35
100
AcDbEntity
  8
0
100
AcDbLine
 10
44.183
 20
62.879
 30
0.0
 11
44.22
 21
63.092
 31
0.0
  0
LINE
  5
FE1
330
A35
100
AcDbEntity
  8
0
100
AcDbLine
 10
44.001
 20
62.923
 30
0.0
 11
44.195
 21
62.867
 31
0.0
  0
LINE
  5
FE2
330
A35
100
AcDbEntity
  8
0
100
AcDbLine
 10
44.628
 20
62.947
 30
0.0
 11
44.745
 21
62.855
 31
0.0
  0
LINE
  5
FE3
330
A35
100
AcDbEntity
  8
0
100
AcDbLine
 10
43.661
 20
57.694
 30
0.0
 11
43.237
 21
57.774
 31
0.0
  0
LINE
  5
FE4
330
A35
100
AcDbEntity
  8
0
100
AcDbLine
 10
43.568
 20
58.871
 30
0.0
 11
43.593
 21
59.044
 31
0.0
  0
LINE
  5
FE5
330
A35
100
AcDbEntity
  8
0
100
AcDbLine
 10
43.694
 20
58.759
 30
0.0
 11
43.718
 21
58.907
 31
0.0
  0
LINE
  5
FE6
330
A35
100
AcDbEntity
  8
0
100
AcDbLine
 10
43.681
 20
59.96
 30
0.0
 11
43.625
 21
59.892
 31
0.0
  0
LINE
  5
FE7
330
A35
100
AcDbEntity
  8
0
100
AcDbLine
 10
43.681
 20
59.973
 30
0.0
 11
43.762
 21
59.872
 31
0.0
  0
LINE
  5
FE8
330
A35
100
AcDbEntity
  8
0
100
AcDbLine
 10
45.097
 20
58.079
 30
0.0
 11
45.109
 21
58.023
 31
0.0
  0
LINE
  5
FE9
330
A35
100
AcDbEntity
  8
0
100
AcDbLine
 10
44.07
 20
64.374
 30
0.0
 11
43.876
 21
64.422
 31
0.0
  0
LINE
  5
FEA
330
A35
100
AcDbEntity
  8
0
100
AcDbLine
 10
40.531
 20
57.774
 30
0.0
 11
40.11
 21
57.681
 31
0.0
  0
LINE
  5
FEB
330
A35
100
AcDbEntity
  8
0
100
AcDbLine
 10
40.098
 20
58.429
 30
0.0
 11
40.155
 21
58.485
 31
0.0
  0
LINE
  5
FEC
330
A35
100
AcDbEntity
  8
0
100
AcDbLine
 10
48.543
 20
55.764
 30
0.0
 11
48.976
 21
55.286
 31
0.0
  0
LINE
  5
FED
330
A35
100
AcDbEntity
  8
0
100
AcDbLine
 10
47.823
 20
56.307
 30
0.0
 11
48.543
 21
55.764
 31
0.0
  0
LINE
  5
FEE
330
A35
100
AcDbEntity
  8
0
100
AcDbLine
 10
47.289
 20
56.616
 30
0.0
 11
47.823
 21
56.307
 31
0.0
  0
LINE
  5
FEF
330
A35
100
AcDbEntity
  8
0
100
AcDbLine
 10
46.031
 20
57.127
 30
0.0
 11
47.289
 21
56.616
 31
0.0
  0
LINE
  5
FF0
330
A35
100
AcDbEntity
  8
0
100
AcDbLine
 10
44.24
 20
57.557
 30
0.0
 11
46.031
 21
57.127
 31
0.0
  0
LINE
  5
FF1
330
A35
100
AcDbEntity
  8
0
100
AcDbLine
 10
42.837
 20
57.713
 30
0.0
 11
44.24
 21
57.557
 31
0.0
  0
LINE
  5
FF2
330
A35
100
AcDbEntity
  8
0
100
AcDbLine
 10
41.627
 20
57.738
 30
0.0
 11
42.837
 21
57.713
 31
0.0
  0
LINE
  5
FF3
330
A35
100
AcDbEntity
  8
0
100
AcDbLine
 10
39.516
 20
57.557
 30
0.0
 11
41.627
 21
57.738
 31
0.0
  0
LINE
  5
FF4
330
A35
100
AcDbEntity
  8
0
100
AcDbLine
 10
37.737
 20
57.127
 30
0.0
 11
39.516
 21
57.557
 31
0.0
  0
LINE
  5
FF5
330
A35
100
AcDbEntity
  8
0
100
AcDbLine
 10
35.945
 20
56.307
 30
0.0
 11
37.737
 21
57.127
 31
0.0
  0
LINE
  5
FF6
330
A35
100
AcDbEntity
  8
0
100
AcDbLine
 10
35.1
 20
55.652
 30
0.0
 11
35.945
 21
56.307
 31
0.0
  0
LINE
  5
FF7
330
A35
100
AcDbEntity
  8
0
100
AcDbLine
 10
34.792
 20
55.286
 30
0.0
 11
35.1
 21
55.652
 31
0.0
  0
LINE
  5
FF8
330
A35
100
AcDbEntity
  8
0
100
AcDbLine
 10
34.384
 20
54.562
 30
0.0
 11
34.279
 21
53.811
 31
0.0
  0
LINE
  5
FF9
330
A35
100
AcDbEntity
  8
0
100
AcDbLine
 10
34.792
 20
55.286
 30
0.0
 11
34.384
 21
54.562
 31
0.0
  0
LINE
  5
FFA
330
A35
100
AcDbEntity
  8
0
100
AcDbLine
 10
35.48
 20
55.957
 30
0.0
 11
34.792
 21
55.286
 31
0.0
  0
LINE
  5
FFB
330
A35
100
AcDbEntity
  8
0
100
AcDbLine
 10
36.426
 20
56.56
 30
0.0
 11
35.48
 21
55.957
 31
0.0
  0
LINE
  5
FFC
330
A35
100
AcDbEntity
  8
0
100
AcDbLine
 10
37.179
 20
56.898
 30
0.0
 11
36.426
 21
56.56
 31
0.0
  0
LINE
  5
FFD
330
A35
100
AcDbEntity
  8
0
100
AcDbLine
 10
38.926
 20
57.408
 30
0.0
 11
37.179
 21
56.898
 31
0.0
  0
LINE
  5
FFE
330
A35
100
AcDbEntity
  8
0
100
AcDbLine
 10
40.863
 20
57.669
 30
0.0
 11
38.926
 21
57.408
 31
0.0
  0
LINE
  5
FFF
330
A35
100
AcDbEntity
  8
0
100
AcDbLine
 10
41.878
 20
57.705
 30
0.0
 11
40.863
 21
57.669
 31
0.0
  0
LINE
  5
1000
330
A35
100
AcDbEntity
  8
0
100
AcDbLine
 10
42.905
 20
57.669
 30
0.0
 11
41.878
 21
57.705
 31
0.0
  0
LINE
  5
1001
330
A35
100
AcDbEntity
  8
0
100
AcDbLine
 10
44.846
 20
57.408
 30
0.0
 11
42.905
 21
57.669
 31
0.0
  0
LINE
  5
1002
330
A35
100
AcDbEntity
  8
0
100
AcDbLine
 10
45.748
 20
57.183
 30
0.0
 11
44.846
 21
57.408
 31
0.0
  0
LINE
  5
1003
330
A35
100
AcDbEntity
  8
0
100
AcDbLine
 10
47.346
 20
56.56
 30
0.0
 11
45.748
 21
57.183
 31
0.0
  0
LINE
  5
1004
330
A35
100
AcDbEntity
  8
0
100
AcDbLine
 10
48.292
 20
55.957
 30
0.0
 11
47.346
 21
56.56
 31
0.0
  0
LINE
  5
1005
330
A35
100
AcDbEntity
  8
0
100
AcDbLine
 10
48.976
 20
55.286
 30
0.0
 11
48.292
 21
55.957
 31
0.0
  0
LINE
  5
1006
330
A35
100
AcDbEntity
  8
0
100
AcDbLine
 10
49.376
 20
54.562
 30
0.0
 11
48.976
 21
55.286
 31
0.0
  0
LINE
  5
1007
330
A35
100
AcDbEntity
  8
0
100
AcDbLine
 10
49.489
 20
53.811
 30
0.0
 11
49.376
 21
54.562
 31
0.0
  0
LINE
  5
1008
330
A35
100
AcDbEntity
  8
0
100
AcDbLine
 10
34.53
 20
52.846
 30
0.0
 11
34.279
 21
53.698
 31
0.0
  0
LINE
  5
1009
330
A35
100
AcDbEntity
  8
0
100
AcDbLine
 10
34.954
 20
52.247
 30
0.0
 11
34.53
 21
52.846
 31
0.0
  0
LINE
  5
100A
330
A35
100
AcDbEntity
  8
0
100
AcDbLine
 10
35.626
 20
51.644
 30
0.0
 11
34.954
 21
52.247
 31
0.0
  0
LINE
  5
100B
330
A35
100
AcDbEntity
  8
0
100
AcDbLine
 10
36.471
 20
51.122
 30
0.0
 11
35.626
 21
51.644
 31
0.0
  0
LINE
  5
100C
330
A35
100
AcDbEntity
  8
0
100
AcDbLine
 10
37.724
 20
50.611
 30
0.0
 11
36.471
 21
51.122
 31
0.0
  0
LINE
  5
100D
330
A35
100
AcDbEntity
  8
0
100
AcDbLine
 10
38.707
 20
50.342
 30
0.0
 11
37.724
 21
50.611
 31
0.0
  0
LINE
  5
100E
330
A35
100
AcDbEntity
  8
0
100
AcDbLine
 10
39.985
 20
50.113
 30
0.0
 11
38.707
 21
50.342
 31
0.0
  0
LINE
  5
100F
330
A35
100
AcDbEntity
  8
0
100
AcDbLine
 10
41.878
 20
50.0
 30
0.0
 11
39.985
 21
50.113
 31
0.0
  0
LINE
  5
1010
330
A35
100
AcDbEntity
  8
0
100
AcDbLine
 10
43.205
 20
50.056
 30
0.0
 11
41.878
 21
50.0
 31
0.0
  0
LINE
  5
1011
330
A35
100
AcDbEntity
  8
0
100
AcDbLine
 10
44.709
 20
50.274
 30
0.0
 11
43.205
 21
50.056
 31
0.0
  0
LINE
  5
1012
330
A35
100
AcDbEntity
  8
0
100
AcDbLine
 10
46.023
 20
50.611
 30
0.0
 11
44.709
 21
50.274
 31
0.0
  0
LINE
  5
1013
330
A35
100
AcDbEntity
  8
0
100
AcDbLine
 10
46.901
 20
50.941
 30
0.0
 11
46.023
 21
50.611
 31
0.0
  0
LINE
  5
1014
330
A35
100
AcDbEntity
  8
0
100
AcDbLine
 10
47.835
 20
51.431
 30
0.0
 11
46.901
 21
50.941
 31
0.0
  0
LINE
  5
1015
330
A35
100
AcDbEntity
  8
0
100
AcDbLine
 10
48.818
 20
52.247
 30
0.0
 11
47.835
 21
51.431
 31
0.0
  0
LINE
  5
1016
330
A35
100
AcDbEntity
  8
0
100
AcDbLine
 10
49.239
 20
52.846
 30
0.0
 11
48.818
 21
52.247
 31
0.0
  0
LINE
  5
1017
330
A35
100
AcDbEntity
  8
0
100
AcDbLine
 10
49.481
 20
53.698
 30
0.0
 11
49.239
 21
52.846
 31
0.0
  0
LINE
  5
1018
330
A35
100
AcDbEntity
  8
0
100
AcDbLine
 10
35.945
 20
54.164
 30
0.0
 11
35.8
 21
53.573
 31
0.0
  0
LINE
  5
1019
330
A35
100
AcDbEntity
  8
0
100
AcDbLine
 10
36.321
 20
54.699
 30
0.0
 11
35.945
 21
54.164
 31
0.0
  0
LINE
  5
101A
330
A35
100
AcDbEntity
  8
0
100
AcDbLine
 10
36.859
 20
55.173
 30
0.0
 11
36.321
 21
54.699
 31
0.0
  0
LINE
  5
101B
330
A35
100
AcDbEntity
  8
0
100
AcDbLine
 10
37.83
 20
55.72
 30
0.0
 11
36.859
 21
55.173
 31
0.0
  0
LINE
  5
101C
330
A35
100
AcDbEntity
  8
0
100
AcDbLine
 10
38.614
 20
56.013
 30
0.0
 11
37.83
 21
55.72
 31
0.0
  0
LINE
  5
101D
330
A35
100
AcDbEntity
  8
0
100
AcDbLine
 10
39.953
 20
56.331
 30
0.0
 11
38.614
 21
56.013
 31
0.0
  0
LINE
  5
101E
330
A35
100
AcDbEntity
  8
0
100
AcDbLine
 10
42.129
 20
56.48
 30
0.0
 11
39.953
 21
56.331
 31
0.0
  0
LINE
  5
101F
330
A35
100
AcDbEntity
  8
0
100
AcDbLine
 10
44.151
 20
56.262
 30
0.0
 11
42.129
 21
56.48
 31
0.0
  0
LINE
  5
1020
330
A35
100
AcDbEntity
  8
0
100
AcDbLine
 10
45.223
 20
55.989
 30
0.0
 11
44.151
 21
56.262
 31
0.0
  0
LINE
  5
1021
330
A35
100
AcDbEntity
  8
0
100
AcDbLine
 10
46.225
 20
55.583
 30
0.0
 11
45.223
 21
55.989
 31
0.0
  0
LINE
  5
1022
330
A35
100
AcDbEntity
  8
0
100
AcDbLine
 10
46.662
 20
55.342
 30
0.0
 11
46.225
 21
55.583
 31
0.0
  0
LINE
  5
1023
330
A35
100
AcDbEntity
  8
0
100
AcDbLine
 10
47.426
 20
54.719
 30
0.0
 11
46.662
 21
55.342
 31
0.0
  0
LINE
  5
1024
330
A35
100
AcDbEntity
  8
0
100
AcDbLine
 10
47.815
 20
54.164
 30
0.0
 11
47.426
 21
54.719
 31
0.0
  0
LINE
  5
1025
330
A35
100
AcDbEntity
  8
0
100
AcDbLine
 10
47.973
 20
53.573
 30
0.0
 11
47.815
 21
54.164
 31
0.0
  0
LINE
  5
1026
330
A35
100
AcDbEntity
  8
0
100
AcDbLine
 10
35.913
 20
53.007
 30
0.0
 11
35.8
 21
53.63
 31
0.0
  0
LINE
  5
1027
330
A35
100
AcDbEntity
  8
0
100
AcDbLine
 10
36.564
 20
52.122
 30
0.0
 11
35.913
 21
53.007
 31
0.0
  0
LINE
  5
1028
330
A35
100
AcDbEntity
  8
0
100
AcDbLine
 10
37.328
 20
51.588
 30
0.0
 11
36.564
 21
52.122
 31
0.0
  0
LINE
  5
1029
330
A35
100
AcDbEntity
  8
0
100
AcDbLine
 10
38.845
 20
50.977
 30
0.0
 11
37.328
 21
51.588
 31
0.0
  0
LINE
  5
102A
330
A35
100
AcDbEntity
  8
0
100
AcDbLine
 10
43.237
 20
56.423
 30
0.0
 11
44.959
 21
56.082
 31
0.0
  0
LINE
  5
102B
330
A35
100
AcDbEntity
  8
0
100
AcDbLine
 10
41.425
 20
56.492
 30
0.0
 11
43.237
 21
56.423
 31
0.0
  0
LINE
  5
102C
330
A35
100
AcDbEntity
  8
0
100
AcDbLine
 10
40.523
 20
56.423
 30
0.0
 11
41.425
 21
56.492
 31
0.0
  0
LINE
  5
102D
330
A35
100
AcDbEntity
  8
0
100
AcDbLine
 10
39.641
 20
56.287
 30
0.0
 11
40.523
 21
56.423
 31
0.0
  0
LINE
  5
102E
330
A35
100
AcDbEntity
  8
0
100
AcDbLine
 10
38.125
 20
55.852
 30
0.0
 11
39.641
 21
56.287
 31
0.0
  0
LINE
  5
102F
330
A35
100
AcDbEntity
  8
0
100
AcDbLine
 10
36.997
 20
55.298
 30
0.0
 11
38.125
 21
55.852
 31
0.0
  0
LINE
  5
1030
330
A35
100
AcDbEntity
  8
0
100
AcDbLine
 10
36.564
 20
54.968
 30
0.0
 11
36.997
 21
55.298
 31
0.0
  0
LINE
  5
1031
330
A35
100
AcDbEntity
  8
0
100
AcDbLine
 10
40.293
 20
60.029
 30
0.0
 11
40.58
 21
59.892
 31
0.0
  0
LINE
  5
1032
330
A35
100
AcDbEntity
  8
0
100
AcDbLine
 10
40.487
 20
57.794
 30
0.0
 11
40.531
 21
57.762
 31
0.0
  0
LINE
  5
1033
330
A35
100
AcDbEntity
  8
0
100
AcDbLine
 10
40.43
 20
58.554
 30
0.0
 11
40.58
 21
58.578
 31
0.0
  0
LINE
  5
1034
330
A35
100
AcDbEntity
  8
0
100
AcDbLine
 10
40.293
 20
58.373
 30
0.0
 11
40.43
 21
58.554
 31
0.0
  0
LINE
  5
1035
330
A35
100
AcDbEntity
  8
0
100
AcDbLine
 10
43.601
 20
63.285
 30
0.0
 11
43.601
 21
64.466
 31
0.0
  0
LINE
  5
1036
330
A35
100
AcDbEntity
  8
0
100
AcDbLine
 10
44.22
 20
64.342
 30
0.0
 11
44.22
 21
63.092
 31
0.0
  0
LINE
  5
1037
330
A35
100
AcDbEntity
  8
0
100
AcDbLine
 10
44.62
 20
62.935
 30
0.0
 11
44.608
 21
64.229
 31
0.0
  0
LINE
  5
1038
330
A35
100
AcDbEntity
  8
0
100
AcDbLine
 10
44.608
 20
64.229
 30
0.0
 11
44.22
 21
64.342
 31
0.0
  0
LINE
  5
1039
330
A35
100
AcDbEntity
  8
0
100
AcDbLine
 10
40.887
 20
59.952
 30
0.0
 11
40.875
 21
59.94
 31
0.0
  0
LINE
  5
103A
330
A35
100
AcDbEntity
  8
0
100
AcDbLine
 10
40.887
 20
59.872
 30
0.0
 11
40.887
 21
59.952
 31
0.0
  0
LINE
  5
103B
330
A35
100
AcDbEntity
  8
0
100
AcDbLine
 10
40.932
 20
57.943
 30
0.0
 11
40.899
 21
57.874
 31
0.0
  0
LINE
  5
103C
330
A35
100
AcDbEntity
  8
0
100
AcDbLine
 10
43.136
 20
57.694
 30
0.0
 11
43.136
 21
57.782
 31
0.0
  0
LINE
  5
103D
330
A35
100
AcDbEntity
  8
0
100
AcDbLine
 10
43.864
 20
62.139
 30
0.0
 11
43.625
 21
62.437
 31
0.0
  0
LINE
  5
103E
330
A35
100
AcDbEntity
  8
0
100
AcDbLine
 10
44.094
 20
62.256
 30
0.0
 11
43.969
 21
62.276
 31
0.0
  0
LINE
  5
103F
330
A35
100
AcDbEntity
  8
0
100
AcDbLine
 10
44.232
 20
62.276
 30
0.0
 11
44.094
 21
62.256
 31
0.0
  0
LINE
  5
1040
330
A35
100
AcDbEntity
  8
0
100
AcDbLine
 10
44.365
 20
62.457
 30
0.0
 11
44.232
 21
62.276
 31
0.0
  0
LINE
  5
1041
330
A35
100
AcDbEntity
  8
0
100
AcDbLine
 10
44.333
 20
62.561
 30
0.0
 11
44.365
 21
62.457
 31
0.0
  0
LINE
  5
1042
330
A35
100
AcDbEntity
  8
0
100
AcDbLine
 10
44.094
 20
62.662
 30
0.0
 11
44.333
 21
62.561
 31
0.0
  0
LINE
  5
1043
330
A35
100
AcDbEntity
  8
0
100
AcDbLine
 10
43.864
 20
62.561
 30
0.0
 11
44.094
 21
62.662
 31
0.0
  0
LINE
  5
1044
330
A35
100
AcDbEntity
  8
0
100
AcDbLine
 10
43.864
 20
62.356
 30
0.0
 11
43.864
 21
62.561
 31
0.0
  0
LINE
  5
1045
330
A35
100
AcDbEntity
  8
0
100
AcDbLine
 10
43.969
 20
62.276
 30
0.0
 11
43.864
 21
62.356
 31
0.0
  0
LINE
  5
1046
330
A35
100
AcDbEntity
  8
0
100
AcDbLine
 10
44.183
 20
62.867
 30
0.0
 11
44.47
 21
62.742
 31
0.0
  0
LINE
  5
1047
330
A35
100
AcDbEntity
  8
0
100
AcDbLine
 10
44.288
 20
62.119
 30
0.0
 11
44.515
 21
62.276
 31
0.0
  0
LINE
  5
1048
330
A35
100
AcDbEntity
  8
0
100
AcDbLine
 10
43.864
 20
62.139
 30
0.0
 11
44.288
 21
62.119
 31
0.0
  0
LINE
  5
1049
330
A35
100
AcDbEntity
  8
0
100
AcDbLine
 10
43.544
 20
63.071
 30
0.0
 11
43.544
 21
63.059
 31
0.0
  0
LINE
  5
104A
330
A35
100
AcDbEntity
  8
0
100
AcDbLine
 10
44.47
 20
62.742
 30
0.0
 11
44.62
 21
62.935
 31
0.0
  0
LINE
  5
104B
330
A35
100
AcDbEntity
  8
0
100
AcDbLine
 10
44.79
 20
62.549
 30
0.0
 11
45.073
 21
62.649
 31
0.0
  0
LINE
  5
104C
330
A35
100
AcDbEntity
  8
0
100
AcDbLine
 10
44.79
 20
62.549
 30
0.0
 11
44.652
 21
62.457
 31
0.0
  0
LINE
  5
104D
330
A35
100
AcDbEntity
  8
0
100
AcDbLine
 10
44.62
 20
62.641
 30
0.0
 11
44.79
 21
62.549
 31
0.0
  0
LINE
  5
104E
330
A35
100
AcDbEntity
  8
0
100
AcDbLine
 10
45.097
 20
58.079
 30
0.0
 11
45.073
 21
62.649
 31
0.0
  0
LINE
  5
104F
330
A35
100
AcDbEntity
  8
0
100
AcDbLine
 10
42.885
 20
59.94
 30
0.0
 11
42.885
 21
59.872
 31
0.0
  0
LINE
  5
1050
330
A35
100
AcDbEntity
  8
0
100
AcDbLine
 10
43.649
 20
57.681
 30
0.0
 11
43.681
 21
58.759
 31
0.0
  0
LINE
  5
1051
330
A35
100
AcDbEntity
  8
0
100
AcDbLine
 10
43.512
 20
57.818
 30
0.0
 11
43.649
 21
57.681
 31
0.0
  0
LINE
  5
1052
330
A35
100
AcDbEntity
  8
0
100
AcDbLine
 10
43.237
 20
57.762
 30
0.0
 11
43.281
 21
57.794
 31
0.0
  0
LINE
  5
1053
330
A35
100
AcDbEntity
  8
0
100
AcDbLine
 10
43.249
 20
58.192
 30
0.0
 11
43.237
 21
57.762
 31
0.0
  0
LINE
  5
1054
330
A35
100
AcDbEntity
  8
0
100
AcDbLine
 10
43.568
 20
58.871
 30
0.0
 11
43.556
 21
58.94
 31
0.0
  0
LINE
  5
1055
330
A35
100
AcDbEntity
  8
0
100
AcDbLine
 10
43.681
 20
58.759
 30
0.0
 11
43.568
 21
58.871
 31
0.0
  0
LINE
  5
1056
330
A35
100
AcDbEntity
  8
0
100
AcDbLine
 10
44.515
 20
59.498
 30
0.0
 11
44.252
 21
59.394
 31
0.0
  0
LINE
  5
1057
330
A35
100
AcDbEntity
  8
0
100
AcDbLine
 10
43.706
 20
58.907
 30
0.0
 11
43.738
 21
59.759
 31
0.0
  0
LINE
  5
1058
330
A35
100
AcDbEntity
  8
0
100
AcDbLine
 10
43.625
 20
59.892
 30
0.0
 11
43.593
 21
59.044
 31
0.0
  0
LINE
  5
1059
330
A35
100
AcDbEntity
  8
0
100
AcDbLine
 10
43.888
 20
59.836
 30
0.0
 11
44.013
 21
59.792
 31
0.0
  0
LINE
  5
105A
330
A35
100
AcDbEntity
  8
0
100
AcDbLine
 10
43.762
 20
59.872
 30
0.0
 11
43.888
 21
59.836
 31
0.0
  0
LINE
  5
105B
330
A35
100
AcDbEntity
  8
0
100
AcDbLine
 10
44.013
 20
59.792
 30
0.0
 11
43.762
 21
59.872
 31
0.0
  0
LINE
  5
105C
330
A35
100
AcDbEntity
  8
0
100
AcDbLine
 10
44.115
 20
59.848
 30
0.0
 11
44.013
 21
59.792
 31
0.0
  0
LINE
  5
105D
330
A35
100
AcDbEntity
  8
0
100
AcDbLine
 10
43.192
 20
59.892
 30
0.0
 11
43.475
 21
60.029
 31
0.0
  0
LINE
  5
105E
330
A35
100
AcDbEntity
  8
0
100
AcDbLine
 10
43.738
 20
59.759
 30
0.0
 11
43.762
 21
59.872
 31
0.0
  0
LINE
  5
105F
330
A35
100
AcDbEntity
  8
0
100
AcDbLine
 10
44.664
 20
59.044
 30
0.0
 11
44.402
 21
58.952
 31
0.0
  0
LINE
  5
1060
330
A35
100
AcDbEntity
  8
0
100
AcDbLine
 10
44.115
 20
59.848
 30
0.0
 11
43.681
 21
59.96
 31
0.0
  0
LINE
  5
1061
330
A35
100
AcDbEntity
  8
0
100
AcDbLine
 10
43.431
 20
58.485
 30
0.0
 11
43.475
 21
58.373
 31
0.0
  0
LINE
  5
1062
330
A35
100
AcDbEntity
  8
0
100
AcDbLine
 10
43.192
 20
58.578
 30
0.0
 11
43.431
 21
58.485
 31
0.0
  0
LINE
  5
1063
330
A35
100
AcDbEntity
  8
0
100
AcDbLine
 10
44.252
 20
59.394
 30
0.0
 11
44.402
 21
58.952
 31
0.0
  0
LINE
  5
1064
330
A35
100
AcDbEntity
  8
0
100
AcDbLine
 10
44.013
 20
59.792
 30
0.0
 11
44.252
 21
59.394
 31
0.0
  0
LINE
  5
1065
330
A35
100
AcDbEntity
  8
0
100
AcDbLine
 10
44.515
 20
59.498
 30
0.0
 11
44.115
 21
59.848
 31
0.0
  0
LINE
  5
1066
330
A35
100
AcDbEntity
  8
0
100
AcDbLine
 10
44.858
 20
58.409
 30
0.0
 11
44.664
 21
59.044
 31
0.0
  0
LINE
  5
1067
330
A35
100
AcDbEntity
  8
0
100
AcDbLine
 10
45.097
 20
58.079
 30
0.0
 11
44.858
 21
58.409
 31
0.0
  0
LINE
  5
1068
330
A35
100
AcDbEntity
  8
0
100
AcDbLine
 10
44.709
 20
58.385
 30
0.0
 11
44.402
 21
58.952
 31
0.0
  0
LINE
  5
1069
330
A35
100
AcDbEntity
  8
0
100
AcDbLine
 10
45.109
 20
58.011
 30
0.0
 11
44.709
 21
58.385
 31
0.0
  0
LINE
  5
106A
330
A35
100
AcDbEntity
  8
0
100
AcDbLine
 10
46.282
 20
56.785
 30
0.0
 11
45.643
 21
56.99
 31
0.0
  0
LINE
  5
106B
330
A35
100
AcDbEntity
  8
0
100
AcDbLine
 10
47.402
 20
56.287
 30
0.0
 11
46.282
 21
56.785
 31
0.0
  0
LINE
  5
106C
330
A35
100
AcDbEntity
  8
0
100
AcDbLine
 10
48.304
 20
55.696
 30
0.0
 11
47.402
 21
56.287
 31
0.0
  0
LINE
  5
106D
330
A35
100
AcDbEntity
  8
0
100
AcDbLine
 10
49.182
 20
54.675
 30
0.0
 11
48.304
 21
55.696
 31
0.0
  0
LINE
  5
106E
330
A35
100
AcDbEntity
  8
0
100
AcDbLine
 10
49.4
 20
53.927
 30
0.0
 11
49.182
 21
54.675
 31
0.0
  0
LINE
  5
106F
330
A35
100
AcDbEntity
  8
0
100
AcDbLine
 10
49.331
 20
53.176
 30
0.0
 11
49.4
 21
53.927
 31
0.0
  0
LINE
  5
1070
330
A35
100
AcDbEntity
  8
0
100
AcDbLine
 10
48.968
 20
52.46
 30
0.0
 11
49.331
 21
53.176
 31
0.0
  0
LINE
  5
1071
330
A35
100
AcDbEntity
  8
0
100
AcDbLine
 10
48.316
 20
51.793
 30
0.0
 11
48.968
 21
52.46
 31
0.0
  0
LINE
  5
1072
330
A35
100
AcDbEntity
  8
0
100
AcDbLine
 10
47.402
 20
51.19
 30
0.0
 11
48.316
 21
51.793
 31
0.0
  0
LINE
  5
1073
330
A35
100
AcDbEntity
  8
0
100
AcDbLine
 10
45.918
 20
50.579
 30
0.0
 11
47.402
 21
51.19
 31
0.0
  0
LINE
  5
1074
330
A35
100
AcDbEntity
  8
0
100
AcDbLine
 10
45.073
 20
50.35
 30
0.0
 11
45.918
 21
50.579
 31
0.0
  0
LINE
  5
1075
330
A35
100
AcDbEntity
  8
0
100
AcDbLine
 10
43.261
 20
50.056
 30
0.0
 11
45.073
 21
50.35
 31
0.0
  0
LINE
  5
1076
330
A35
100
AcDbEntity
  8
0
100
AcDbLine
 10
42.302
 20
50.0
 30
0.0
 11
43.261
 21
50.056
 31
0.0
  0
LINE
  5
1077
330
A35
100
AcDbEntity
  8
0
100
AcDbLine
 10
40.475
 20
50.068
 30
0.0
 11
42.302
 21
50.0
 31
0.0
  0
LINE
  5
1078
330
A35
100
AcDbEntity
  8
0
100
AcDbLine
 10
38.125
 20
50.499
 30
0.0
 11
40.475
 21
50.068
 31
0.0
  0
LINE
  5
1079
330
A35
100
AcDbEntity
  8
0
100
AcDbLine
 10
36.766
 20
50.997
 30
0.0
 11
38.125
 21
50.499
 31
0.0
  0
LINE
  5
107A
330
A35
100
AcDbEntity
  8
0
100
AcDbLine
 10
35.662
 20
51.632
 30
0.0
 11
36.766
 21
50.997
 31
0.0
  0
LINE
  5
107B
330
A35
100
AcDbEntity
  8
0
100
AcDbLine
 10
34.942
 20
52.291
 30
0.0
 11
35.662
 21
51.632
 31
0.0
  0
LINE
  5
107C
330
A35
100
AcDbEntity
  8
0
100
AcDbLine
 10
34.497
 20
52.995
 30
0.0
 11
34.942
 21
52.291
 31
0.0
  0
LINE
  5
107D
330
A35
100
AcDbEntity
  8
0
100
AcDbLine
 10
34.348
 20
53.734
 30
0.0
 11
34.497
 21
52.995
 31
0.0
  0
LINE
  5
107E
330
A35
100
AcDbEntity
  8
0
100
AcDbLine
 10
34.497
 20
54.482
 30
0.0
 11
34.348
 21
53.734
 31
0.0
  0
LINE
  5
107F
330
A35
100
AcDbEntity
  8
0
100
AcDbLine
 10
34.986
 20
55.241
 30
0.0
 11
34.497
 21
54.482
 31
0.0
  0
LINE
  5
1080
330
A35
100
AcDbEntity
  8
0
100
AcDbLine
 10
35.363
 20
55.615
 30
0.0
 11
34.986
 21
55.241
 31
0.0
  0
LINE
  5
1081
330
A35
100
AcDbEntity
  8
0
100
AcDbLine
 10
36.357
 20
56.287
 30
0.0
 11
35.363
 21
55.615
 31
0.0
  0
LINE
  5
1082
330
A35
100
AcDbEntity
  8
0
100
AcDbLine
 10
37.635
 20
56.829
 30
0.0
 11
36.357
 21
56.287
 31
0.0
  0
LINE
  5
1083
330
A35
100
AcDbEntity
  8
0
100
AcDbLine
 10
39.128
 20
57.227
 30
0.0
 11
37.635
 21
56.829
 31
0.0
  0
LINE
  5
1084
330
A35
100
AcDbEntity
  8
0
100
AcDbLine
 10
40.212
 20
57.396
 30
0.0
 11
39.128
 21
57.227
 31
0.0
  0
LINE
  5
1085
330
A35
100
AcDbEntity
  8
0
100
AcDbLine
 10
42.44
 20
57.476
 30
0.0
 11
40.212
 21
57.396
 31
0.0
  0
LINE
  5
1086
330
A35
100
AcDbEntity
  8
0
100
AcDbLine
 10
43.544
 20
57.396
 30
0.0
 11
42.44
 21
57.476
 31
0.0
  0
LINE
  5
1087
330
A35
100
AcDbEntity
  8
0
100
AcDbLine
 10
45.643
 20
56.99
 30
0.0
 11
43.544
 21
57.396
 31
0.0
  0
LINE
  5
1088
330
A35
100
AcDbEntity
  8
0
100
AcDbLine
 10
46.925
 20
62.131
 30
0.0
 11
46.889
 21
62.412
 31
0.0
  0
LINE
  5
1089
330
A35
100
AcDbEntity
  8
0
100
AcDbLine
 10
44.959
 20
56.082
 30
0.0
 11
45.906
 21
55.752
 31
0.0
  0
LINE
  5
108A
330
A35
100
AcDbEntity
  8
0
100
AcDbLine
 10
45.942
 20
55.74
 30
0.0
 11
45.906
 21
55.752
 31
0.0
  0
LINE
  5
108B
330
A35
100
AcDbEntity
  8
0
100
AcDbLine
 10
46.112
 20
63.478
 30
0.0
 11
45.393
 21
63.912
 31
0.0
  0
LINE
  5
108C
330
A35
100
AcDbEntity
  8
0
100
AcDbLine
 10
44.903
 20
64.117
 30
0.0
 11
44.721
 21
64.181
 31
0.0
  0
LINE
  5
108D
330
A35
100
AcDbEntity
  8
0
100
AcDbLine
 10
42.861
 20
57.874
 30
0.0
 11
42.837
 21
57.943
 31
0.0
  0
LINE
  5
108E
330
A35
100
AcDbEntity
  8
0
100
AcDbLine
 10
45.906
 20
57.613
 30
0.0
 11
45.109
 21
58.011
 31
0.0
  0
LINE
  5
108F
330
A35
100
AcDbEntity
  8
0
100
AcDbLine
 10
46.719
 20
56.877
 30
0.0
 11
45.906
 21
57.613
 31
0.0
  0
LINE
  5
1090
330
A35
100
AcDbEntity
  8
0
100
AcDbLine
 10
45.942
 20
57.649
 30
0.0
 11
46.751
 21
56.853
 31
0.0
  0
LINE
  5
1091
330
A35
100
AcDbEntity
  8
0
100
AcDbLine
 10
45.097
 20
58.079
 30
0.0
 11
45.942
 21
57.649
 31
0.0
  0
LINE
  5
1092
330
A35
100
AcDbEntity
  8
0
100
AcDbLine
 10
40.568
 20
50.647
 30
0.0
 11
38.845
 21
50.977
 31
0.0
  0
LINE
  5
1093
330
A35
100
AcDbEntity
  8
0
100
AcDbLine
 10
42.383
 20
50.579
 30
0.0
 11
40.568
 21
50.647
 31
0.0
  0
LINE
  5
1094
330
A35
100
AcDbEntity
  8
0
100
AcDbLine
 10
43.281
 20
50.647
 30
0.0
 11
42.383
 21
50.579
 31
0.0
  0
LINE
  5
1095
330
A35
100
AcDbEntity
  8
0
100
AcDbLine
 10
45.004
 20
50.997
 30
0.0
 11
43.281
 21
50.647
 31
0.0
  0
LINE
  5
1096
330
A35
100
AcDbEntity
  8
0
100
AcDbLine
 10
46.136
 20
51.431
 30
0.0
 11
45.004
 21
50.997
 31
0.0
  0
LINE
  5
1097
330
A35
100
AcDbEntity
  8
0
100
AcDbLine
 10
47.358
 20
52.267
 30
0.0
 11
46.136
 21
51.431
 31
0.0
  0
LINE
  5
1098
330
A35
100
AcDbEntity
  8
0
100
AcDbLine
 10
47.815
 20
52.926
 30
0.0
 11
47.358
 21
52.267
 31
0.0
  0
LINE
  5
1099
330
A35
100
AcDbEntity
  8
0
100
AcDbLine
 10
47.973
 20
53.63
 30
0.0
 11
47.815
 21
52.926
 31
0.0
  0
LINE
  5
109A
330
A35
100
AcDbEntity
  8
0
100
AcDbLine
 10
37.36
 20
63.22
 30
0.0
 11
37.179
 21
63.003
 31
0.0
  0
LINE
  5
109B
330
A35
100
AcDbEntity
  8
0
100
AcDbLine
 10
37.373
 20
63.719
 30
0.0
 11
37.373
 21
63.731
 31
0.0
  0
LINE
  5
109C
330
A35
100
AcDbEntity
  8
0
100
AcDbLine
 10
37.36
 20
63.22
 30
0.0
 11
37.373
 21
63.719
 31
0.0
  0
LINE
  5
109D
330
A35
100
AcDbEntity
  8
0
100
AcDbLine
 10
40.167
 20
64.466
 30
0.0
 11
40.155
 21
58.485
 31
0.0
  0
LINE
  5
109E
330
A35
100
AcDbEntity
  8
0
100
AcDbLine
 10
37.704
 20
63.638
 30
0.0
 11
37.704
 21
63.514
 31
0.0
  0
LINE
  5
109F
330
A35
100
AcDbEntity
  8
0
100
AcDbLine
 10
37.967
 20
63.682
 30
0.0
 11
37.704
 21
63.514
 31
0.0
  0
LINE
  5
10A0
330
A35
100
AcDbEntity
  8
0
100
AcDbLine
 10
40.167
 20
64.466
 30
0.0
 11
39.747
 21
64.374
 31
0.0
  0
LINE
  5
10A1
330
A35
100
AcDbEntity
  8
0
100
AcDbLine
 10
40.624
 20
57.782
 30
0.0
 11
40.637
 21
57.694
 31
0.0
  0
LINE
  5
10A2
330
A35
100
AcDbEntity
  8
0
100
AcDbLine
 10
40.531
 20
57.762
 30
0.0
 11
40.511
 21
58.192
 31
0.0
  0
LINE
  5
10A3
330
A35
100
AcDbEntity
  8
0
100
AcDbLine
 10
40.212
 20
58.726
 30
0.0
 11
40.212
 21
59.506
 31
0.0
  0
LINE
  5
10A4
330
A35
100
AcDbEntity
  8
0
100
AcDbLine
 10
40.111
 20
57.681
 30
0.0
 11
40.248
 21
57.818
 31
0.0
  0
LINE
  5
10A5
330
A35
100
AcDbEntity
  8
0
100
AcDbLine
 10
40.212
 20
58.726
 30
0.0
 11
40.155
 21
58.485
 31
0.0
  0
LINE
  5
10A6
330
A35
100
AcDbEntity
  8
0
100
AcDbLine
 10
40.086
 20
58.417
 30
0.0
 11
40.111
 21
57.681
 31
0.0
  0
LINE
  5
10A7
330
A35
100
AcDbEntity
  8
0
100
AcDbLine
 10
37.292
 20
57.171
 30
0.0
 11
37.053
 21
56.877
 31
0.0
  0
LINE
  5
10A8
330
A35
100
AcDbEntity
  8
0
100
AcDbLine
 10
38.0
 20
57.694
 30
0.0
 11
37.292
 21
57.171
 31
0.0
  0
LINE
  5
10A9
330
A35
100
AcDbEntity
  8
0
100
AcDbLine
 10
38.946
 20
58.123
 30
0.0
 11
38.0
 21
57.694
 31
0.0
  0
LINE
  5
10AA
330
A35
100
AcDbEntity
  8
0
100
AcDbLine
 10
40.086
 20
58.417
 30
0.0
 11
38.946
 21
58.123
 31
0.0
  0
LINE
  5
10AB
330
A35
100
AcDbEntity
  8
0
100
AcDbLine
 10
39.051
 20
58.216
 30
0.0
 11
40.155
 21
58.485
 31
0.0
  0
LINE
  5
10AC
330
A35
100
AcDbEntity
  8
0
100
AcDbLine
 10
38.101
 20
57.806
 30
0.0
 11
39.051
 21
58.216
 31
0.0
  0
LINE
  5
10AD
330
A35
100
AcDbEntity
  8
0
100
AcDbLine
 10
37.429
 20
57.34
 30
0.0
 11
38.101
 21
57.806
 31
0.0
  0
LINE
  5
10AE
330
A35
100
AcDbEntity
  8
0
100
AcDbLine
 10
37.009
 20
56.853
 30
0.0
 11
37.429
 21
57.34
 31
0.0
  0
LINE
  5
10AF
330
A35
100
AcDbEntity
  8
0
100
AcDbLine
 10
36.264
 20
54.687
 30
0.0
 11
36.564
 21
54.968
 31
0.0
  0
LINE
  5
10B0
330
A35
100
AcDbEntity
  8
0
100
AcDbLine
 10
35.864
 20
54.072
 30
0.0
 11
36.264
 21
54.687
 31
0.0
  0
LINE
  5
10B1
330
A35
100
AcDbEntity
  8
0
100
AcDbLine
 10
35.763
 20
53.754
 30
0.0
 11
35.864
 21
54.072
 31
0.0
  0
LINE
  5
10B2
330
A35
100
AcDbEntity
  8
0
100
AcDbLine
 10
35.763
 20
53.075
 30
0.0
 11
35.763
 21
53.754
 31
0.0
  0
LINE
  5
10B3
330
A35
100
AcDbEntity
  8
0
100
AcDbLine
 10
35.889
 20
52.721
 30
0.0
 11
35.763
 21
53.075
 31
0.0
  0
LINE
  5
10B4
330
A35
100
AcDbEntity
  8
0
100
AcDbLine
 10
36.378
 20
52.054
 30
0.0
 11
35.889
 21
52.721
 31
0.0
  0
LINE
  5
10B5
330
A35
100
AcDbEntity
  8
0
100
AcDbLine
 10
37.154
 20
51.463
 30
0.0
 11
36.378
 21
52.054
 31
0.0
  0
LINE
  5
10B6
330
A35
100
AcDbEntity
  8
0
100
AcDbLine
 10
38.194
 20
50.977
 30
0.0
 11
37.154
 21
51.463
 31
0.0
  0
LINE
  5
10B7
330
A35
100
AcDbEntity
  8
0
100
AcDbLine
 10
39.641
 20
50.579
 30
0.0
 11
38.194
 21
50.977
 31
0.0
  0
LINE
  5
10B8
330
A35
100
AcDbEntity
  8
0
100
AcDbLine
 10
41.425
 20
50.374
 30
0.0
 11
39.641
 21
50.579
 31
0.0
  0
LINE
  5
10B9
330
A35
100
AcDbEntity
  8
0
100
AcDbLine
 10
43.237
 20
50.442
 30
0.0
 11
41.425
 21
50.374
 31
0.0
  0
LINE
  5
10BA
330
A35
100
AcDbEntity
  8
0
100
AcDbLine
 10
44.959
 20
50.784
 30
0.0
 11
43.237
 21
50.442
 31
0.0
  0
LINE
  5
10BB
330
A35
100
AcDbEntity
  8
0
100
AcDbLine
 10
46.112
 20
51.214
 30
0.0
 11
44.959
 21
50.784
 31
0.0
  0
LINE
  5
10BC
330
A35
100
AcDbEntity
  8
0
100
AcDbLine
 10
47.026
 20
51.748
 30
0.0
 11
46.112
 21
51.214
 31
0.0
  0
LINE
  5
10BD
330
A35
100
AcDbEntity
  8
0
100
AcDbLine
 10
47.665
 20
52.384
 30
0.0
 11
47.026
 21
51.748
 31
0.0
  0
LINE
  5
10BE
330
A35
100
AcDbEntity
  8
0
100
AcDbLine
 10
47.872
 20
52.721
 30
0.0
 11
47.665
 21
52.384
 31
0.0
  0
LINE
  5
10BF
330
A35
100
AcDbEntity
  8
0
100
AcDbLine
 10
48.041
 20
53.425
 30
0.0
 11
47.872
 21
52.721
 31
0.0
  0
LINE
  5
10C0
330
A35
100
AcDbEntity
  8
0
100
AcDbLine
 10
48.009
 20
53.766
 30
0.0
 11
48.041
 21
53.425
 31
0.0
  0
LINE
  5
10C1
330
A35
100
AcDbEntity
  8
0
100
AcDbLine
 10
47.722
 20
54.401
 30
0.0
 11
48.009
 21
53.766
 31
0.0
  0
LINE
  5
10C2
330
A35
100
AcDbEntity
  8
0
100
AcDbLine
 10
47.184
 20
54.992
 30
0.0
 11
47.722
 21
54.401
 31
0.0
  0
LINE
  5
10C3
330
A35
100
AcDbEntity
  8
0
100
AcDbLine
 10
45.942
 20
55.74
 30
0.0
 11
47.184
 21
54.992
 31
0.0
  0
TEXT
  5
10C4
330
A35
100
AcDbEntity
  8
0
100
AcDbText
 10
0.0
 20
95.0
 30
0.0
 40
3.0
  1
ｸﾗｽ150調光40K 深枠MC DLφ75
 11
0.0
 21
95.0
 31
0.0
100
AcDbText
  0
TEXT
  5
10C5
330
A35
100
AcDbEntity
  8
0
100
AcDbText
 10
0.0
 20
10.0
 30
0.0
 40
3.0
  1
三菱 EL-DA1/0(1503WM) AHZ
 11
0.0
 21
10.0
 31
0.0
100
AcDbText
  0
TEXT
  5
10C6
330
A35
100
AcDbEntity
  8
0
100
AcDbText
 10
50.0
 20
35.0
 30
0.0
 40
1.5
  1
ダウンライト 白色（4000K） Ra85
 11
50.0
 21
35.0
 31
0.0
100
AcDbText
  0
TEXT
  5
10C7
330
A35
100
AcDbEntity
  8
0
100
AcDbText
 10
50.0
 20
32.0
 30
0.0
 40
1.5
  1
100V～242V共用タイプ
 11
50.0
 21
32.0
 31
0.0
100
AcDbText
  0
TEXT
  5
10C8
330
A35
100
AcDbEntity
  8
0
100
AcDbText
 10
50.0
 20
29.0
 30
0.0
 40
1.5
  1
初期照度補正付連続調光5～100%
 11
50.0
 21
29.0
 31
0.0
100
AcDbText
  0
TEXT
  5
10C9
330
A35
100
AcDbEntity
  8
0
100
AcDbText
 10
50.0
 20
26.0
 30
0.0
 40
1.5
  1
光源寿命：40,000時間（光束維持率85%）
 11
50.0
 21
26.0
 31
0.0
100
AcDbText
  0
TEXT
  5
10CA
330
A35
100
AcDbEntity
  8
0
100
AcDbText
 10
50.0
 20
23.0
 30
0.0
 40
1.5
  1
光束：1330lm 消費電力：13W 消費効率：102.3lm/W
 11
50.0
 21
23.0
 31
0.0
100
AcDbText
  0
TEXT
  5
10CB
330
A35
100
AcDbEntity
  8
0
100
AcDbText
 10
50.0
 20
20.0
 30
0.0
 40
1.5
  1
埋込穴：75
 11
50.0
 21
20.0
 31
0.0
100
AcDbText
  0
VIEWPORT
  5
45B
102
{ACAD_XDICTIONARY
360
A5E
102
}
330
A31
100
AcDbEntity
 67
1
  8
0
100
AcDbViewport
 10
128.5
 20
97.5
 30
0.0
 40
314.226
 41
222.18
 68
1
 69
1
 12
0.0
 22
0.0
 13
0.0
 23
0.0
 14
10.0
 24
10.0
 15
10.0
 25
10.0
 16
0.0
 26
0.0
 36
0.0
 17
0.0
 27
0.0
 37
0.0
 42
50.0
 43
0.0
 44
0.0
 45
1.0
 50
0.0
 51
0.0
 72
100
 90
32768
  1

281
0
 71
0
 74
0
110
0.0
120
0.0
130
0.0
111
1.0
121
0.0
131
0.0
112
0.0
122
1.0
132
0.0
 79
0
146
0.0
  0
ENDSEC
  0
SECTION
  2
OBJECTS
  0
DICTIONARY
  5
9D2
330
0
100
AcDbDictionary
281
1
  3
ACAD_CIP_PREVIOUS_PRODUCT_INFO
350
A48
  3
ACAD_COLOR
350
A28
  3
ACAD_DETAILVIEWSTYLE
350
A2F
  3
ACAD_GROUP
350
9D3
  3
ACAD_LAYOUT
350
A27
  3
ACAD_MATERIAL
350
9D6
  3
ACAD_MLEADERSTYLE
350
A2B
  3
ACAD_MLINESTYLE
350
A24
  3
ACAD_PLOTSETTINGS
350
A26
  3
ACAD_PLOTSTYLENAME
350
9D4
  3
ACAD_SCALELIST
350
A08
  3
ACAD_SECTIONVIEWSTYLE
350
A2D
  3
ACAD_TABLESTYLE
350
A29
  3
ACAD_VISUALSTYLE
350
9EF
  3
ACDB_RECOMPOSE_DATA
350
A5C
  3
AcDbVariableDictionary
350
A4F
  3
DWGPROPS
350
A5D
  3
EZDXF_META
350
10CE
  0
DICTIONARY
  5
A49
330
A1A
100
AcDbDictionary
280
1
281
1
  3
ADSK_XREC_LAYER_RECONCILED
360
A4A
  0
DICTIONARY
  5
A4B
330
A39
100
AcDbDictionary
280
1
281
1
  3
ADSK_XREC_LAYER_RECONCILED
360
A4C
  0
DICTIONARY
  5
A4D
330
A3D
100
AcDbDictionary
280
1
281
1
  3
ADSK_XREC_LAYER_RECONCILED
360
A4E
  0
DICTIONARY
  5
A5E
330
45B
100
AcDbDictionary
280
1
281
1
  3
ACAD_XREC_ROUNDTRIP
360
A5F
  0
XRECORD
  5
A48
102
{ACAD_REACTORS
330
9D2
102
}
330
9D2
100
AcDbXrecord
280
1
300
ACDLT
300
2019
300
87085ACDLT_2019_0F
  0
DICTIONARY
  5
A28
102
{ACAD_REACTORS
330
9D2
102
}
330
9D2
100
AcDbDictionary
281
1
  0
DICTIONARY
  5
A2F
102
{ACAD_REACTORS
330
9D2
102
}
330
9D2
100
AcDbDictionary
281
1
  3
Imperial24
350
A30
  0
DICTIONARY
  5
9D3
102
{ACAD_REACTORS
330
9D2
102
}
330
9D2
100
AcDbDictionary
281
1
  0
DICTIONARY
  5
A27
102
{ACAD_REACTORS
330
9D2
102
}
330
9D2
100
AcDbDictionary
281
1
  3
Model
350
A38
  3
レイアウト1
350
A34
  0
DICTIONARY
  5
9D6
102
{ACAD_REACTORS
330
9D2
102
}
330
9D2
100
AcDbDictionary
281
1
  3
ByBlock
350
9DF
  3
ByLayer
350
9D7
  3
Global
350
9E7
  0
DICTIONARY
  5
A2B
102
{ACAD_REACTORS
330
9D2
102
}
330
9D2
100
AcDbDictionary
281
1
  3
Standard
350
A2C
  0
DICTIONARY
  5
A24
102
{ACAD_REACTORS
330
9D2
102
}
330
9D2
100
AcDbDictionary
281
1
  3
Standard
350
A25
  0
DICTIONARY
  5
A26
102
{ACAD_REACTORS
330
9D2
102
}
330
9D2
100
AcDbDictionary
281
1
  0
ACDBDICTIONARYWDFLT
  5
9D4
102
{ACAD_REACTORS
330
9D2
102
}
330
9D2
100
AcDbDictionary
281
1
  3
Normal
350
9D5
100
AcDbDictionaryWithDefault
340
9D5
  0
DICTIONARY
  5
A08
102
{ACAD_REACTORS
330
9D2
102
}
330
9D2
100
AcDbDictionary
281
1
  3
A0
350
A09
  3
A1
350
A0A
  3
A2
350
A0B
  3
A3
350
A0C
  3
A4
350
A0D
  3
A5
350
A0E
  3
A6
350
A0F
  3
A7
350
A10
  3
A8
350
A11
  3
A9
350
A12
  3
B0
350
A13
  3
B1
350
A14
  3
B2
350
A15
  3
B3
350
A16
  3
B4
350
A17
  3
B5
350
A18
  3
B6
350
A19
  0
DICTIONARY
  5
A2D
102
{ACAD_REACTORS
330
9D2
102
}
330
9D2
100
AcDbDictionary
281
1
  3
Imperial24
350
A2E
  0
DICTIONARY
  5
A29
102
{ACAD_REACTORS
330
9D2
102
}
330
9D2
100
AcDbDictionary
281
1
  3
Standard
350
A2A
  0
DICTIONARY
  5
9EF
102
{ACAD_REACTORS
330
9D2
102
}
330
9D2
100
AcDbDictionary
281
1
  3
2dWireframe
350
9F5
  3
Basic
350
9F4
  3
Brighten
350
9FB
  3
ColorChange
350
9FF
  3
Conceptual
350
9F8
  3
Dim
350
9FA
  3
EdgeColorOff
350
A07
  3
Facepattern
350
9FE
  3
Flat
350
9F0
  3
FlatWithEdges
350
9F1
  3
Gouraud
350
9F2
  3
GouraudWithEdges
350
9F3
  3
Hidden
350
9F7
  3
JitterOff
350
A05
  3
Linepattern
350
9FD
  3
OverhangOff
350
A06
  3
Realistic
350
9F9
  3
Shaded
350
A04
  3
Shaded with edges
350
A03
  3
Shades of Gray
350
A00
  3
Sketchy
350
A01
  3
Thicken
350
9FC
  3
Wireframe
350
9F6
  3
X-Ray
350
A02
  0
XRECORD
  5
A5C
102
{ACAD_REACTORS
330
9D2
102
}
330
9D2
100
AcDbXrecord
280
1
 90
1
330
A2A
  0
DICTIONARY
  5
A4F
102
{ACAD_REACTORS
330
9D2
102
}
330
9D2
100
AcDbDictionary
281
1
  3
CANNOSCALE
350
A54
  3
CMLEADERSTYLE
350
A51
  3
CTABLESTYLE
350
A50
  3
CVIEWDETAILSTYLE
350
A52
  3
CVIEWSECTIONSTYLE
350
A53
  3
DIMASSOC
350
A57
  3
INDEXCTL
350
A56
  3
SORTENTS
350
A55
  3
XCLIPFRAME
350
A58
  0
XRECORD
  5
A5D
102
{ACAD_REACTORS
330
9D2
102
}
330
9D2
100
AcDbXrecord
280
1
  1
DWGPROPS COOKIE
  2

  3

  4

  6

  7

  8
1992517
  9

300
=
301
=
302
=
303
=
304
=
305
=
306
=
307
=
308
=
309
=
 40
0.0010069560185185
 41
2459044.788842593
 42
2459045.376064815
  1

 90
0
  0
XRECORD
  5
A4A
102
{ACAD_REACTORS
330
A49
102
}
330
A49
100
AcDbXrecord
280
1
290
1
  0
XRECORD
  5
A4C
102
{ACAD_REACTORS
330
A4B
102
}
330
A4B
100
AcDbXrecord
280
1
290
1
  0
XRECORD
  5
A4E
102
{ACAD_REACTORS
330
A4D
102
}
330
A4D
100
AcDbXrecord
280
1
290
1
  0
XRECORD
  5
A5F
102
{ACAD_REACTORS
330
A5E
102
}
330
A5E
100
AcDbXrecord
280
1
102
SHADEPLOT
 70
0
  0
ACDBDETAILVIEWSTYLE
  5
A30
102
{ACAD_XDICTIONARY
360
A97
102
}
102
{ACAD_REACTORS
330
A2F
102
}
330
A2F
100
AcDbModelDocViewStyle
 70
0
  3
Imperial24
290
0
100
AcDbDetailViewStyle
 70
0
 71
0
 90
3
 71
1
340
A1B
 40
0.24
340
0
 40
0.24
300

 40
0.36
280
3
 71
2
340
A22
 90
25
 71
3
340
A1B
 40
0.24
 90
1
 40
0.75
 90
1
300
%<\AcVar ViewType \f "%tc1">% %<\AcVar ViewDetailId>%\PSCALE %<\AcVar ViewScale \f "%sn">%
 71
4
340
A22
 90
25
340
A22
 90
25
280
0
  0
LAYOUT
  5
A38
102
{ACAD_XDICTIONARY
360
A9B
102
}
102
{ACAD_REACTORS
330
A27
102
}
330
A27
100
AcDbPlotSettings
  1

  2
LBP8720
  4

  6

 40
0.0
 41
0.0
 42
0.0
 43
0.0
 44
0.0
 45
0.0
 46
0.0
 47
0.0
 48
0.0
 49
0.0
140
0.0
141
0.0
142
1.0
143
1.0
 70
1712
 72
0
 73
0
 74
0
  7

 75
0
 76
0
 77
2
 78
300
147
1.0
148
0.0
149
0.0
100
AcDbLayout
  1
Model
 70
1
 71
0
 10
0.0
 20
0.0
 11
12.0
 21
9.0
 12
0.0
 22
0.0
 32
0.0
 14
0.0
 24
0.0
 34
0.0
 15
0.0
 25
0.0
 35
0.0
146
0.0
 13
0.0
 23
0.0
 33
0.0
 16
1.0
 26
0.0
 36
0.0
 17
0.0
 27
1.0
 37
0.0
 76
0
330
A35
331
A3A
  0
LAYOUT
  5
A34
102
{ACAD_XDICTIONARY
360
A99
102
}
102
{ACAD_REACTORS
330
A27
102
}
330
A27
100
AcDbPlotSettings
  1

  2
LBP8720
  4

  6

 40
0.0
 41
0.0
 42
0.0
 43
0.0
 44
0.0
 45
0.0
 46
0.0
 47
0.0
 48
0.0
 49
0.0
140
0.0
141
0.0
142
1.0
143
1.0
 70
688
 72
0
 73
0
 74
5
  7

 75
16
 76
0
 77
2
 78
300
147
1.0
148
0.0
149
0.0
100
AcDbLayout
  1
レイアウト1
 70
1
 71
1
 10
-20.0
 20
-7.5
 11
277.0
 21
202.5
 12
0.0
 22
0.0
 32
0.0
 14
1e+20
 24
1e+20
 34
1e+20
 15
-1e+20
 25
-1e+20
 35
-1e+20
146
0.0
 13
0.0
 23
0.0
 33
0.0
 16
1.0
 26
0.0
 36
0.0
 17
0.0
 27
1.0
 37
0.0
 76
0
330
A31
331
45B
  0
MATERIAL
  5
9DF
102
{ACAD_XDICTIONARY
360
9E0
102
}
102
{ACAD_REACTORS
330
9D6
102
}
330
9D6
100
AcDbMaterial
  1
ByBlock
  2

 70
0
 40
1.0
 71
0
 41
1.0
 91
-1023410177
 42
1.0
 72
0
  3

 73
1
 74
1
 75
1
 43
0.0208333333333333
 43
0.0
 43
0.0
 43
0.0
 43
0.0
 43
0.0208333333333333
 43
0.0
 43
0.0
 43
0.0
 43
0.0
 43
1.0
 43
0.0
 43
0.0
 43
0.0
 43
0.0
 43
1.0
 44
0.5
 73
0
 45
1.0
 46
1.0
 77
0
  4

 78
1
 79
1
170
1
 47
0.0208333333333333
 47
0.0
 47
0.0
 47
0.0
 47
0.0
 47
0.0208333333333333
 47
0.0
 47
0.0
 47
0.0
 47
0.0
 47
1.0
 47
0.0
 47
0.0
 47
0.0
 47
0.0
 47
1.0
 48
1.0
171
0
  6

172
1
173
1
174
1
 49
0.0208333333333333
 49
0.0
 49
0.0
 49
0.0
 49
0.0
 49
0.0208333333333333
 49
0.0
 49
0.0
 49
0.0
 49
0.0
 49
1.0
 49
0.0
 49
0.0
 49
0.0
 49
0.0
 49
1.0
140
1.0
141
1.0
175
0
  7

176
1
177
1
178
1
142
0.0208333333333333
142
0.0
142
0.0
142
0.0
142
0.0
142
0.0208333333333333
142
0.0
142
0.0
142
0.0
142
0.0
142
1.0
142
0.0
142
0.0
142
0.0
142
0.0
142
1.0
143
1.0
179
0
  8

270
1
271
1
272
1
144
0.0208333333333333
144
0.0
144
0.0
144
0.0
144
0.0
144
0.0208333333333333
144
0.0
144
0.0
144
0.0
144
0.0
144
1.0
144
0.0
144
0.0
144
0.0
144
0.0
144
1.0
145
1.0
146
1.0
273
1
  9

274
1
275
1
276
1
147
0.0208333333333333
147
0.0
147
0.0
147
0.0
147
0.0
147
0.0208333333333333
147
0.0
147
0.0
147
0.0
147
0.0
147
1.0
147
0.0
147
0.0
147
0.0
147
0.0
147
1.0
 42
1.0
 72
1
  3

 73
1
 74
1
 75
1
 94
63
  0
MATERIAL
  5
9D7
102
{ACAD_XDICTIONARY
360
9D8
102
}
102
{ACAD_REACTORS
330
9D6
102
}
330
9D6
100
AcDbMaterial
  1
ByLayer
  2

 70
0
 40
1.0
 71
0
 41
1.0
 91
-1023410177
 42
1.0
 72
0
  3

 73
1
 74
1
 75
1
 43
0.0208333333333333
 43
0.0
 43
0.0
 43
0.0
 43
0.0
 43
0.0208333333333333
 43
0.0
 43
0.0
 43
0.0
 43
0.0
 43
1.0
 43
0.0
 43
0.0
 43
0.0
 43
0.0
 43
1.0
 44
0.5
 73
0
 45
1.0
 46
1.0
 77
0
  4

 78
1
 79
1
170
1
 47
0.0208333333333333
 47
0.0
 47
0.0
 47
0.0
 47
0.0
 47
0.0208333333333333
 47
0.0
 47
0.0
 47
0.0
 47
0.0
 47
1.0
 47
0.0
 47
0.0
 47
0.0
 47
0.0
 47
1.0
 48
1.0
171
0
  6

172
1
173
1
174
1
 49
0.0208333333333333
 49
0.0
 49
0.0
 49
0.0
 49
0.0
 49
0.0208333333333333
 49
0.0
 49
0.0
 49
0.0
 49
0.0
 49
1.0
 49
0.0
 49
0.0
 49
0.0
 49
0.0
 49
1.0
140
1.0
141
1.0
175
0
  7

176
1
177
1
178
1
142
0.0208333333333333
142
0.0
142
0.0
142
0.0
142
0.0
142
0.0208333333333333
142
0.0
142
0.0
142
0.0
142
0.0
142
1.0
142
0.0
142
0.0
142
0.0
142
0.0
142
1.0
143
1.0
179
0
  8

270
1
271
1
272
1
144
0.0208333333333333
144
0.0
144
0.0
144
0.0
144
0.0
144
0.0208333333333333
144
0.0
144
0.0
144
0.0
144
0.0
144
1.0
144
0.0
144
0.0
144
0.0
144
0.0
144
1.0
145
1.0
146
1.0
273
1
  9

274
1
275
1
276
1
147
0.0208333333333333
147
0.0
147
0.0
147
0.0
147
0.0
147
0.0208333333333333
147
0.0
147
0.0
147
0.0
147
0.0
147
1.0
147
0.0
147
0.0
147
0.0
147
0.0
147
1.0
 42
1.0
 72
1
  3

 73
1
 74
1
 75
1
 94
63
  0
MATERIAL
  5
9E7
102
{ACAD_XDICTIONARY
360
9E8
102
}
102
{ACAD_REACTORS
330
9D6
102
}
330
9D6
100
AcDbMaterial
  1
Global
  2

 70
0
 40
1.0
 71
0
 41
1.0
 91
-1023410177
 42
1.0
 72
0
  3

 73
1
 74
1
 75
1
 43
0.0208333333333333
 43
0.0
 43
0.0
 43
0.0
 43
0.0
 43
0.0208333333333333
 43
0.0
 43
0.0
 43
0.0
 43
0.0
 43
1.0
 43
0.0
 43
0.0
 43
0.0
 43
0.0
 43
1.0
 44
0.5
 73
0
 45
1.0
 46
1.0
 77
0
  4

 78
1
 79
1
170
1
 47
0.0208333333333333
 47
0.0
 47
0.0
 47
0.0
 47
0.0
 47
0.0208333333333333
 47
0.0
 47
0.0
 47
0.0
 47
0.0
 47
1.0
 47
0.0
 47
0.0
 47
0.0
 47
0.0
 47
1.0
 48
1.0
171
0
  6

172
1
173
1
174
1
 49
0.0208333333333333
 49
0.0
 49
0.0
 49
0.0
 49
0.0
 49
0.0208333333333333
 49
0.0
 49
0.0
 49
0.0
 49
0.0
 49
1.0
 49
0.0
 49
0.0
 49
0.0
 49
0.0
 49
1.0
140
1.0
141
1.0
175
0
  7

176
1
177
1
178
1
142
0.0208333333333333
142
0.0
142
0.0
142
0.0
142
0.0
142
0.0208333333333333
142
0.0
142
0.0
142
0.0
142
0.0
142
1.0
142
0.0
142
0.0
142
0.0
142
0.0
142
1.0
143
1.0
179
0
  8

270
1
271
1
272
1
144
0.0208333333333333
144
0.0
144
0.0
144
0.0
144
0.0
144
0.0208333333333333
144
0.0
144
0.0
144
0.0
144
0.0
144
1.0
144
0.0
144
0.0
144
0.0
144
0.0
144
1.0
145
1.0
146
1.0
273
1
  9

274
1
275
1
276
1
147
0.0208333333333333
147
0.0
147
0.0
147
0.0
147
0.0
147
0.0208333333333333
147
0.0
147
0.0
147
0.0
147
0.0
147
1.0
147
0.0
147
0.0
147
0.0
147
0.0
147
1.0
 42
1.0
 72
1
  3

 73
1
 74
1
 75
1
 94
63
  0
MLEADERSTYLE
  5
A2C
102
{ACAD_REACTORS
330
A2B
102
}
330
A2B
100
AcDbMLeaderStyle
179
2
170
2
171
1
172
0
 90
2
 40
0.0
 41
0.0
173
1
 91
-1056964608
340
A20
 92
-2
290
1
 42
0.09
291
1
 43
0.36
  3
Standard
 44
0.18
300

342
A1B
174
1
175
1
176
0
178
6
 93
-1056964608
 45
0.18
292
0
297
0
 46
0.18
293
1
 94
-1056964608
 47
1.0
 49
1.0
140
1.0
294
1
141
0.0
177
0
142
1.0
295
0
296
0
143
0.125
271
0
272
9
273
9
1001
ACAD_MLEADERVER
1070
2
  0
MLINESTYLE
  5
A25
102
{ACAD_REACTORS
330
A24
102
}
330
A24
100
AcDbMlineStyle
  2
STANDARD
 70
0
  3

 62
256
 51
90.0
 52
90.0
 71
2
 49
0.5
 62
256
  6
BYLAYER
 49
-0.5
 62
256
  6
BYLAYER
  0
ACDBPLACEHOLDER
  5
9D5
102
{ACAD_REACTORS
330
9D4
102
}
330
9D4
  0
SCALE
  5
A09
102
{ACAD_REACTORS
330
A08
102
}
330
A08
100
AcDbScale
 70
0
300
1:1
140
1.0
141
1.0
290
1
  0
SCALE
  5
A0A
102
{ACAD_REACTORS
330
A08
102
}
330
A08
100
AcDbScale
 70
0
300
1/128" = 1'-0"
140
0.0078125
141
12.0
290
0
  0
SCALE
  5
A0B
102
{ACAD_REACTORS
330
A08
102
}
330
A08
100
AcDbScale
 70
0
300
1/64" = 1'-0"
140
0.015625
141
12.0
290
0
  0
SCALE
  5
A0C
102
{ACAD_REACTORS
330
A08
102
}
330
A08
100
AcDbScale
 70
0
300
1/32" = 1'-0"
140
0.03125
141
12.0
290
0
  0
SCALE
  5
A0D
102
{ACAD_REACTORS
330
A08
102
}
330
A08
100
AcDbScale
 70
0
300
1/16" = 1'-0"
140
0.0625
141
12.0
290
0
  0
SCALE
  5
A0E
102
{ACAD_REACTORS
330
A08
102
}
330
A08
100
AcDbScale
 70
0
300
3/32" = 1'-0"
140
0.09375
141
12.0
290
0
  0
SCALE
  5
A0F
102
{ACAD_REACTORS
330
A08
102
}
330
A08
100
AcDbScale
 70
0
300
1/8" = 1'-0"
140
0.125
141
12.0
290
0
  0
SCALE
  5
A10
102
{ACAD_REACTORS
330
A08
102
}
330
A08
100
AcDbScale
 70
0
300
3/16" = 1'-0"
140
0.1875
141
12.0
290
0
  0
SCALE
  5
A11
102
{ACAD_REACTORS
330
A08
102
}
330
A08
100
AcDbScale
 70
0
300
1/4" = 1'-0"
140
0.25
141
12.0
290
0
  0
SCALE
  5
A12
102
{ACAD_REACTORS
330
A08
102
}
330
A08
100
AcDbScale
 70
0
300
3/8" = 1'-0"
140
0.375
141
12.0
290
0
  0
SCALE
  5
A13
102
{ACAD_REACTORS
330
A08
102
}
330
A08
100
AcDbScale
 70
0
300
1/2" = 1'-0"
140
0.5
141
12.0
290
0
  0
SCALE
  5
A14
102
{ACAD_REACTORS
330
A08
102
}
330
A08
100
AcDbScale
 70
0
300
3/4" = 1'-0"
140
0.75
141
12.0
290
0
  0
SCALE
  5
A15
102
{ACAD_REACTORS
330
A08
102
}
330
A08
100
AcDbScale
 70
0
300
1" = 1'-0"
140
1.0
141
12.0
290
0
  0
SCALE
  5
A16
102
{ACAD_REACTORS
330
A08
102
}
330
A08
100
AcDbScale
 70
0
300
1-1/2" = 1'-0"
140
1.5
141
12.0
290
0
  0
SCALE
  5
A17
102
{ACAD_REACTORS
330
A08
102
}
330
A08
100
AcDbScale
 70
0
300
3" = 1'-0"
140
3.0
141
12.0
290
0
  0
SCALE
  5
A18
102
{ACAD_REACTORS
330
A08
102
}
330
A08
100
AcDbScale
 70
0
300
6" = 1'-0"
140
6.0
141
12.0
290
0
  0
SCALE
  5
A19
102
{ACAD_REACTORS
330
A08
102
}
330
A08
100
AcDbScale
 70
0
300
1'-0" = 1'-0"
140
12.0
141
12.0
290
0
  0
ACDBSECTIONVIEWSTYLE
  5
A2E
102
{ACAD_XDICTIONARY
360
A95
102
}
102
{ACAD_REACTORS
330
A2D
102
}
330
A2D
100
AcDbModelDocViewStyle
 70
0
  3
Imperial24
290
0
100
AcDbSectionViewStyle
 70
0
 71
0
 90
78
 71
1
340
A1B
 40
0.24
340
0
340
0
 40
0.24
300
I, O, Q, S, X, Z
 40
0.48
 90
3
 40
0.18
 90
1
 71
2
340
A22
 90
25
340
A22
 90
50
 40
0.24
 40
0.0
 40
0.24
 71
3
340
A1B
 40
0.24
 90
1
 40
0.75
 90
1
300
%<\AcVar ViewType \f "%tc1">% %<\AcVar ViewSectionStartId>%-%<\AcVar ViewSectionEndId>%\PSCALE %<\AcVar ViewScale \f "%sn">%
 71
4
300
ANSI31
 40
1.0
 90
0
290
0
290
0
 90
6
 40
0.0
 40
1.570796326794896
 40
0.2617993877991494
 40
1.308996938995747
 40
-0.2617993877991494
 40
1.832595714594046
  0
TABLESTYLE
  5
A2A
102
{ACAD_XDICTIONARY
360
A5A
102
}
102
{ACAD_REACTORS
330
A29
102
}
330
A29
100
AcDbTableStyle
  3
Standard
 70
0
 71
0
 40
0.06
 41
0.06
280
0
281
0
  7
STANDARD
140
0.18
170
2
 62
0
 63
7
283
0
274
-2
284
1
 64
0
275
-2
285
1
 65
0
276
-2
286
1
 66
0
277
-2
287
1
 67
0
278
-2
288
1
 68
0
279
-2
289
1
 69
0
  7
STANDARD
140
0.25
170
5
 62
0
 63
7
283
0
274
-2
284
1
 64
0
275
-2
285
1
 65
0
276
-2
286
1
 66
0
277
-2
287
1
 67
0
278
-2
288
1
 68
0
279
-2
289
1
 69
0
  7
STANDARD
140
0.18
170
5
 62
0
 63
7
283
0
274
-2
284
1
 64
0
275
-2
285
1
 65
0
276
-2
286
1
 66
0
277
-2
287
1
 67
0
278
-2
288
1
 68
0
279
-2
289
1
 69
0
  0
VISUALSTYLE
  5
9F5
102
{ACAD_XDICTIONARY
360
A6D
102
}
102
{ACAD_REACTORS
330
9EF
102
}
330
9EF
100
AcDbVisualStyle
  2
2dWireframe
 70
4
 71
0
 72
2
 73
0
 90
0
 40
-0.6
 41
-30.0
 62
5
 63
7
 74
1
 91
4
 64
7
 65
257
 75
1
175
1
 42
1.0
 92
0
 66
257
 43
1.0
 76
1
 77
6
 78
2
 67
7
 79
5
170
0
171
0
290
0
174
0
 93
1
 44
0.0
173
0
291
0
 45
0.0
1001
ACAD
1000
AcDbSavedByObjectVersion
1070
0
  0
VISUALSTYLE
  5
9F4
102
{ACAD_XDICTIONARY
360
A6B
102
}
102
{ACAD_REACTORS
330
9EF
102
}
330
9EF
100
AcDbVisualStyle
  2
Basic
 70
7
 71
1
 72
0
 73
1
 90
0
 40
-0.6
 41
-30.0
 62
5
 63
7
 74
0
 91
4
 64
7
 65
257
 75
1
175
1
 42
1.0
 92
8
 66
7
 43
1.0
 76
1
 77
6
 78
2
 67
7
 79
5
170
0
171
0
290
0
174
0
 93
1
 44
0.0
173
0
291
1
 45
0.0
1001
ACAD
1000
AcDbSavedByObjectVersion
1070
0
  0
VISUALSTYLE
  5
9FB
102
{ACAD_XDICTIONARY
360
A79
102
}
102
{ACAD_REACTORS
330
9EF
102
}
330
9EF
100
AcDbVisualStyle
  2
Brighten
 70
12
 71
2
 72
2
 73
0
 90
0
 40
-0.6
 41
-30.0
 62
5
 63
7
 74
1
 91
4
 64
7
 65
257
 75
1
175
1
 42
1.0
 92
8
 66
7
 43
1.0
 76
1
 77
6
 78
2
 67
7
 79
5
170
0
171
0
290
0
174
0
 93
1
 44
50.0
173
0
291
1
 45
0.0
1001
ACAD
1000
AcDbSavedByObjectVersion
1070
0
  0
VISUALSTYLE
  5
9FF
102
{ACAD_XDICTIONARY
360
A81
102
}
102
{ACAD_REACTORS
330
9EF
102
}
330
9EF
100
AcDbVisualStyle
  2
ColorChange
 70
16
 71
2
 72
2
 73
3
 90
0
 40
-0.6
 41
-30.0
 62
5
 63
8
 74
1
 91
4
 64
7
 65
257
 75
1
175
1
 42
1.0
 92
8
 66
8
 43
1.0
 76
1
 77
6
 78
2
 67
7
 79
5
170
0
171
0
290
0
174
0
 93
1
 44
0.0
173
0
291
1
 45
0.0
1001
ACAD
1000
AcDbSavedByObjectVersion
1070
0
  0
VISUALSTYLE
  5
9F8
102
{ACAD_XDICTIONARY
360
A73
102
}
102
{ACAD_REACTORS
330
9EF
102
}
330
9EF
100
AcDbVisualStyle
  2
Conceptual
 70
9
 71
3
 72
2
 73
0
 90
0
 40
-0.6
 41
-30.0
 62
5
 63
7
 74
2
 91
2
 64
7
 65
257
 75
1
175
1
 42
179.0
 92
8
 66
7
 43
1.0
 76
1
 77
6
 78
2
 67
7
 79
3
170
0
171
0
290
0
174
0
 93
1
 44
0.0
173
0
291
0
 45
0.0
1001
ACAD
1000
AcDbSavedByObjectVersion
1070
0
  0
VISUALSTYLE
  5
9FA
102
{ACAD_XDICTIONARY
360
A77
102
}
102
{ACAD_REACTORS
330
9EF
102
}
330
9EF
100
AcDbVisualStyle
  2
Dim
 70
11
 71
2
 72
2
 73
0
 90
0
 40
-0.6
 41
-30.0
 62
5
 63
7
 74
1
 91
4
 64
7
 65
257
 75
1
175
1
 42
1.0
 92
8
 66
7
 43
1.0
 76
1
 77
6
 78
2
 67
7
 79
5
170
0
171
0
290
0
174
0
 93
1
 44
-50.0
173
0
291
1
 45
0.0
1001
ACAD
1000
AcDbSavedByObjectVersion
1070
0
  0
VISUALSTYLE
  5
A07
102
{ACAD_XDICTIONARY
360
A91
102
}
102
{ACAD_REACTORS
330
9EF
102
}
330
9EF
100
AcDbVisualStyle
  2
EdgeColorOff
 70
22
 71
2
 72
2
 73
0
 90
0
 40
-0.6
 41
-30.0
 62
5
 63
7
 74
1
 91
4
 64
7
 65
257
 75
1
175
1
 42
1.0
 92
8
 66
7
 43
1.0
 76
1
 77
6
 78
2
 67
7
 79
5
170
0
171
0
290
0
174
0
 93
1
 44
0.0
173
0
291
1
 45
0.0
1001
ACAD
1000
AcDbSavedByObjectVersion
1070
0
  0
VISUALSTYLE
  5
9FE
102
{ACAD_XDICTIONARY
360
A7F
102
}
102
{ACAD_REACTORS
330
9EF
102
}
330
9EF
100
AcDbVisualStyle
  2
Facepattern
 70
15
 71
2
 72
2
 73
0
 90
0
 40
-0.6
 41
-30.0
 62
5
 63
7
 74
1
 91
4
 64
7
 65
257
 75
1
175
1
 42
1.0
 92
8
 66
7
 43
1.0
 76
1
 77
6
 78
2
 67
7
 79
5
170
0
171
0
290
0
174
0
 93
1
 44
0.0
173
0
291
1
 45
0.0
1001
ACAD
1000
AcDbSavedByObjectVersion
1070
0
  0
VISUALSTYLE
  5
9F0
102
{ACAD_XDICTIONARY
360
A63
102
}
102
{ACAD_REACTORS
330
9EF
102
}
330
9EF
100
AcDbVisualStyle
  2
Flat
 70
0
 71
2
 72
1
 73
1
 90
2
 40
-0.6
 41
30.0
 62
5
 63
7
 74
0
 91
0
 64
7
 65
257
 75
1
175
1
 42
1.0
 92
8
 66
7
 43
1.0
 76
1
 77
6
 78
2
 67
7
 79
5
170
0
171
0
290
0
174
0
 93
13
 44
0.0
173
0
291
1
 45
0.0
1001
ACAD
1000
AcDbSavedByObjectVersion
1070
0
  0
VISUALSTYLE
  5
9F1
102
{ACAD_XDICTIONARY
360
A65
102
}
102
{ACAD_REACTORS
330
9EF
102
}
330
9EF
100
AcDbVisualStyle
  2
FlatWithEdges
 70
1
 71
2
 72
1
 73
1
 90
2
 40
-0.6
 41
30.0
 62
5
 63
7
 74
1
 91
0
 64
7
 65
257
 75
1
175
1
 42
1.0
 92
0
 66
257
 43
1.0
 76
1
 77
6
 78
2
 67
7
 79
5
170
0
171
0
290
0
174
0
 93
13
 44
0.0
173
0
291
1
 45
0.0
1001
ACAD
1000
AcDbSavedByObjectVersion
1070
0
  0
VISUALSTYLE
  5
9F2
102
{ACAD_XDICTIONARY
360
A67
102
}
102
{ACAD_REACTORS
330
9EF
102
}
330
9EF
100
AcDbVisualStyle
  2
Gouraud
 70
2
 71
2
 72
2
 73
1
 90
2
 40
-0.6
 41
30.0
 62
5
 63
7
 74
0
 91
0
 64
7
 65
257
 75
1
175
1
 42
1.0
 92
0
 66
7
 43
1.0
 76
1
 77
6
 78
2
 67
7
 79
5
170
0
171
0
290
0
174
0
 93
13
 44
0.0
173
0
291
1
 45
0.0
1001
ACAD
1000
AcDbSavedByObjectVersion
1070
0
  0
VISUALSTYLE
  5
9F3
102
{ACAD_XDICTIONARY
360
A69
102
}
102
{ACAD_REACTORS
330
9EF
102
}
330
9EF
100
AcDbVisualStyle
  2
GouraudWithEdges
 70
3
 71
2
 72
2
 73
1
 90
2
 40
-0.6
 41
30.0
 62
5
 63
7
 74
1
 91
0
 64
7
 65
257
 75
1
175
1
 42
1.0
 92
0
 66
257
 43
1.0
 76
1
 77
6
 78
2
 67
7
 79
5
170
0
171
0
290
0
174
0
 93
13
 44
0.0
173
0
291
1
 45
0.0
1001
ACAD
1000
AcDbSavedByObjectVersion
1070
0
  0
VISUALSTYLE
  5
9F7
102
{ACAD_XDICTIONARY
360
A71
102
}
102
{ACAD_REACTORS
330
9EF
102
}
330
9EF
100
AcDbVisualStyle
  2
Hidden
 70
6
 71
1
 72
2
 73
2
 90
0
 40
-0.6
 41
-30.0
 62
5
 63
7
 74
2
 91
2
 64
7
 65
257
 75
2
175
1
 42
40.0
 92
0
 66
257
 43
1.0
 76
1
 77
6
 78
2
 67
7
 79
3
170
0
171
0
290
0
174
0
 93
1
 44
0.0
173
0
291
0
 45
0.0
1001
ACAD
1000
AcDbSavedByObjectVersion
1070
0
  0
VISUALSTYLE
  5
A05
102
{ACAD_XDICTIONARY
360
A8D
102
}
102
{ACAD_REACTORS
330
9EF
102
}
330
9EF
100
AcDbVisualStyle
  2
JitterOff
 70
20
 71
2
 72
2
 73
0
 90
0
 40
-0.6
 41
-30.0
 62
5
 63
7
 74
1
 91
4
 64
7
 65
257
 75
1
175
1
 42
1.0
 92
10
 66
7
 43
1.0
 76
1
 77
6
 78
2
 67
7
 79
5
170
0
171
0
290
0
174
0
 93
1
 44
0.0
173
0
291
1
 45
0.0
1001
ACAD
1000
AcDbSavedByObjectVersion
1070
0
  0
VISUALSTYLE
  5
9FD
102
{ACAD_XDICTIONARY
360
A7D
102
}
102
{ACAD_REACTORS
330
9EF
102
}
330
9EF
100
AcDbVisualStyle
  2
Linepattern
 70
14
 71
2
 72
2
 73
0
 90
0
 40
-0.6
 41
-30.0
 62
5
 63
7
 74
1
 91
4
 64
7
 65
257
 75
7
175
7
 42
1.0
 92
8
 66
7
 43
1.0
 76
1
 77
6
 78
2
 67
7
 79
5
170
0
171
0
290
0
174
0
 93
1
 44
0.0
173
0
291
1
 45
0.0
1001
ACAD
1000
AcDbSavedByObjectVersion
1070
0
  0
VISUALSTYLE
  5
A06
102
{ACAD_XDICTIONARY
360
A8F
102
}
102
{ACAD_REACTORS
330
9EF
102
}
330
9EF
100
AcDbVisualStyle
  2
OverhangOff
 70
21
 71
2
 72
2
 73
0
 90
0
 40
-0.6
 41
-30.0
 62
5
 63
7
 74
1
 91
4
 64
7
 65
257
 75
1
175
1
 42
1.0
 92
9
 66
7
 43
1.0
 76
1
 77
6
 78
2
 67
7
 79
5
170
0
171
0
290
0
174
0
 93
1
 44
0.0
173
0
291
1
 45
0.0
1001
ACAD
1000
AcDbSavedByObjectVersion
1070
0
  0
VISUALSTYLE
  5
9F9
102
{ACAD_XDICTIONARY
360
A75
102
}
102
{ACAD_REACTORS
330
9EF
102
}
330
9EF
100
AcDbVisualStyle
  2
Realistic
 70
8
 71
2
 72
3
 73
0
 90
2
 40
-0.6
 41
30.0
 62
5
 63
7
 74
0
 91
0
 64
7
 65
257
 75
1
175
1
 42
1.0
 92
8
 66
257
 43
1.0
 76
1
 77
6
 78
2
 67
7
 79
3
170
0
171
0
290
0
174
0
 93
13
 44
0.0
173
0
291
0
 45
0.0
1001
ACAD
1000
AcDbSavedByObjectVersion
1070
0
  0
VISUALSTYLE
  5
A04
102
{ACAD_XDICTIONARY
360
A8B
102
}
102
{ACAD_REACTORS
330
9EF
102
}
330
9EF
100
AcDbVisualStyle
  2
Shaded
 70
27
 71
2
 72
2
 73
1
 90
2
 40
-0.6
 41
30.0
 62
5
 63
7
 74
0
 91
4
 64
7
 65
257
 75
1
175
1
 42
1.0
 92
8
 66
257
 43
1.0
 76
1
 77
6
 78
2
 67
8
 79
3
170
0
171
0
290
0
174
0
 93
5
 44
0.0
173
0
291
0
 45
0.0
1001
ACAD
1000
AcDbSavedByObjectVersion
1070
0
  0
VISUALSTYLE
  5
A03
102
{ACAD_XDICTIONARY
360
A89
102
}
102
{ACAD_REACTORS
330
9EF
102
}
330
9EF
100
AcDbVisualStyle
  2
Shaded with edges
 70
26
 71
2
 72
2
 73
1
 90
2
 40
-0.6
 41
30.0
 62
5
 63
7
 74
1
 91
2
 64
7
 65
257
 75
2
175
1
 42
1.0
 92
8
 66
257
 43
1.0
 76
1
 77
6
 78
2
 67
7
 79
3
170
0
171
0
290
0
174
0
 93
5
 44
0.0
173
0
291
0
 45
0.0
1001
ACAD
1000
AcDbSavedByObjectVersion
1070
0
  0
VISUALSTYLE
  5
A00
102
{ACAD_XDICTIONARY
360
A83
102
}
102
{ACAD_REACTORS
330
9EF
102
}
330
9EF
100
AcDbVisualStyle
  2
Shades of Gray
 70
23
 71
2
 72
2
 73
3
 90
0
 40
-0.6
 41
-30.0
 62
5
 63
7
 74
2
 91
2
 64
7
 65
7
 75
1
175
1
 42
40.0
 92
8
 66
7
 43
1.0
 76
1
 77
6
 78
2
 67
7
 79
3
170
0
171
0
290
0
174
0
 93
1
 44
0.0
173
0
291
0
 45
0.0
1001
ACAD
1000
AcDbSavedByObjectVersion
1070
0
  0
VISUALSTYLE
  5
A01
102
{ACAD_XDICTIONARY
360
A85
102
}
102
{ACAD_REACTORS
330
9EF
102
}
330
9EF
100
AcDbVisualStyle
  2
Sketchy
 70
24
 71
1
 72
2
 73
2
 90
0
 40
-0.6
 41
-30.0
 62
5
 63
7
 74
2
 91
2
 64
7
 65
7
 75
1
175
1
 42
40.0
 92
11
 66
7
 43
1.0
 76
1
 77
6
 78
2
 67
7
 79
6
170
0
171
0
290
0
174
0
 93
1
 44
0.0
173
0
291
0
 45
0.0
1001
ACAD
1000
AcDbSavedByObjectVersion
1070
0
  0
VISUALSTYLE
  5
9FC
102
{ACAD_XDICTIONARY
360
A7B
102
}
102
{ACAD_REACTORS
330
9EF
102
}
330
9EF
100
AcDbVisualStyle
  2
Thicken
 70
13
 71
2
 72
2
 73
0
 90
0
 40
-0.6
 41
-30.0
 62
5
 63
7
 74
1
 91
4
 64
7
 65
257
 75
1
175
1
 42
1.0
 92
12
 66
7
 43
1.0
 76
1
 77
6
 78
2
 67
7
 79
5
170
0
171
0
290
0
174
0
 93
1
 44
0.0
173
0
291
1
 45
0.0
1001
ACAD
1000
AcDbSavedByObjectVersion
1070
0
  0
VISUALSTYLE
  5
9F6
102
{ACAD_XDICTIONARY
360
A6F
102
}
102
{ACAD_REACTORS
330
9EF
102
}
330
9EF
100
AcDbVisualStyle
  2
Wireframe
 70
5
 71
0
 72
2
 73
0
 90
0
 40
-0.6
 41
-30.0
 62
5
 63
7
 74
1
 91
4
 64
7
 65
257
 75
1
175
1
 42
1.0
 92
0
 66
257
 43
1.0
 76
1
 77
6
 78
2
 67
7
 79
3
170
0
171
0
290
0
174
0
 93
1
 44
0.0
173
0
291
0
 45
0.0
1001
ACAD
1000
AcDbSavedByObjectVersion
1070
0
  0
VISUALSTYLE
  5
A02
102
{ACAD_XDICTIONARY
360
A87
102
}
102
{ACAD_REACTORS
330
9EF
102
}
330
9EF
100
AcDbVisualStyle
  2
X-Ray
 70
25
 71
2
 72
2
 73
1
 90
1
 40
0.5
 41
-30.0
 62
5
 63
7
 74
1
 91
0
 64
7
 65
257
 75
1
175
1
 42
1.0
 92
8
 66
7
 43
1.0
 76
1
 77
6
 78
2
 67
7
 79
3
170
0
171
0
290
0
174
0
 93
13
 44
0.0
173
0
291
0
 45
0.0
1001
ACAD
1000
AcDbSavedByObjectVersion
1070
0
  0
DICTIONARYVAR
  5
A54
102
{ACAD_REACTORS
330
A4F
102
}
330
A4F
100
DictionaryVariables
280
0
  1
1:1
  0
DICTIONARYVAR
  5
A51
102
{ACAD_REACTORS
330
A4F
102
}
330
A4F
100
DictionaryVariables
280
0
  1
STANDARD
  0
DICTIONARYVAR
  5
A50
102
{ACAD_REACTORS
330
A4F
102
}
330
A4F
100
DictionaryVariables
280
0
  1
STANDARD
  0
DICTIONARYVAR
  5
A52
102
{ACAD_REACTORS
330
A4F
102
}
330
A4F
100
DictionaryVariables
280
0
  1
Imperial24
  0
DICTIONARYVAR
  5
A53
102
{ACAD_REACTORS
330
A4F
102
}
330
A4F
100
DictionaryVariables
280
0
  1
Imperial24
  0
DICTIONARYVAR
  5
A57
102
{ACAD_REACTORS
330
A4F
102
}
330
A4F
100
DictionaryVariables
280
0
  1
1
  0
DICTIONARYVAR
  5
A56
102
{ACAD_REACTORS
330
A4F
102
}
330
A4F
100
DictionaryVariables
280
0
  1
0
  0
DICTIONARYVAR
  5
A55
102
{ACAD_REACTORS
330
A4F
102
}
330
A4F
100
DictionaryVariables
280
0
  1
127
  0
DICTIONARYVAR
  5
A58
102
{ACAD_REACTORS
330
A4F
102
}
330
A4F
100
DictionaryVariables
280
0
  1
2
  0
DICTIONARY
  5
A97
330
A30
100
AcDbDictionary
280
1
281
1
  3
ACAD_XREC_ROUNDTRIP
360
A98
  0
DICTIONARY
  5
A9B
330
A38
100
AcDbDictionary
280
1
281
1
  3
ACAD_XREC_ROUNDTRIP
360
A9C
  0
DICTIONARY
  5
A99
330
A34
100
AcDbDictionary
280
1
281
1
  3
ACAD_XREC_ROUNDTRIP
360
A9A
  0
DICTIONARY
  5
9E0
330
9DF
100
AcDbDictionary
280
1
281
1
  3
ACAD_XREC_ROUNDTRIP
360
A61
  3
BUMPTILE
360
9E2
  3
DIFFUSETILE
360
9E1
  3
OPACITYTILE
360
9E5
  3
REFLECTIONTILE
360
9E4
  3
REFRACTIONTILE
360
9E6
  3
SPECULARTILE
360
9E3
  0
DICTIONARY
  5
9D8
330
9D7
100
AcDbDictionary
280
1
281
1
  3
ACAD_XREC_ROUNDTRIP
360
A60
  3
BUMPTILE
360
9DA
  3
DIFFUSETILE
360
9D9
  3
OPACITYTILE
360
9DD
  3
REFLECTIONTILE
360
9DC
  3
REFRACTIONTILE
360
9DE
  3
SPECULARTILE
360
9DB
  0
DICTIONARY
  5
9E8
330
9E7
100
AcDbDictionary
280
1
281
1
  3
ACAD_XREC_ROUNDTRIP
360
A62
  3
BUMPTILE
360
9EA
  3
DIFFUSETILE
360
9E9
  3
OPACITYTILE
360
9ED
  3
REFLECTIONTILE
360
9EC
  3
REFRACTIONTILE
360
9EE
  3
SPECULARTILE
360
9EB
  0
DICTIONARY
  5
A95
330
A2E
100
AcDbDictionary
280
1
281
1
  3
ACAD_XREC_ROUNDTRIP
360
A96
  0
DICTIONARY
  5
A5A
330
A2A
100
AcDbDictionary
280
1
281
1
  3
ACAD_ROUNDTRIP_2008_TABLESTYLE_CELLSTYLEMAP
360
A5B
  3
ACAD_XREC_ROUNDTRIP
360
A93
  0
DICTIONARY
  5
A6D
330
9F5
100
AcDbDictionary
280
1
281
1
  3
ACAD_XREC_ROUNDTRIP
360
A6E
  0
DICTIONARY
  5
A6B
330
9F4
100
AcDbDictionary
280
1
281
1
  3
ACAD_XREC_ROUNDTRIP
360
A6C
  0
DICTIONARY
  5
A79
330
9FB
100
AcDbDictionary
280
1
281
1
  3
ACAD_XREC_ROUNDTRIP
360
A7A
  0
DICTIONARY
  5
A81
330
9FF
100
AcDbDictionary
280
1
281
1
  3
ACAD_XREC_ROUNDTRIP
360
A82
  0
DICTIONARY
  5
A73
330
9F8
100
AcDbDictionary
280
1
281
1
  3
ACAD_XREC_ROUNDTRIP
360
A74
  0
DICTIONARY
  5
A77
330
9FA
100
AcDbDictionary
280
1
281
1
  3
ACAD_XREC_ROUNDTRIP
360
A78
  0
DICTIONARY
  5
A91
330
A07
100
AcDbDictionary
280
1
281
1
  3
ACAD_XREC_ROUNDTRIP
360
A92
  0
DICTIONARY
  5
A7F
330
9FE
100
AcDbDictionary
280
1
281
1
  3
ACAD_XREC_ROUNDTRIP
360
A80
  0
DICTIONARY
  5
A63
330
9F0
100
AcDbDictionary
280
1
281
1
  3
ACAD_XREC_ROUNDTRIP
360
A64
  0
DICTIONARY
  5
A65
330
9F1
100
AcDbDictionary
280
1
281
1
  3
ACAD_XREC_ROUNDTRIP
360
A66
  0
DICTIONARY
  5
A67
330
9F2
100
AcDbDictionary
280
1
281
1
  3
ACAD_XREC_ROUNDTRIP
360
A68
  0
DICTIONARY
  5
A69
330
9F3
100
AcDbDictionary
280
1
281
1
  3
ACAD_XREC_ROUNDTRIP
360
A6A
  0
DICTIONARY
  5
A71
330
9F7
100
AcDbDictionary
280
1
281
1
  3
ACAD_XREC_ROUNDTRIP
360
A72
  0
DICTIONARY
  5
A8D
330
A05
100
AcDbDictionary
280
1
281
1
  3
ACAD_XREC_ROUNDTRIP
360
A8E
  0
DICTIONARY
  5
A7D
330
9FD
100
AcDbDictionary
280
1
281
1
  3
ACAD_XREC_ROUNDTRIP
360
A7E
  0
DICTIONARY
  5
A8F
330
A06
100
AcDbDictionary
280
1
281
1
  3
ACAD_XREC_ROUNDTRIP
360
A90
  0
DICTIONARY
  5
A75
330
9F9
100
AcDbDictionary
280
1
281
1
  3
ACAD_XREC_ROUNDTRIP
360
A76
  0
DICTIONARY
  5
A8B
330
A04
100
AcDbDictionary
280
1
281
1
  3
ACAD_XREC_ROUNDTRIP
360
A8C
  0
DICTIONARY
  5
A89
330
A03
100
AcDbDictionary
280
1
281
1
  3
ACAD_XREC_ROUNDTRIP
360
A8A
  0
DICTIONARY
  5
A83
330
A00
100
AcDbDictionary
280
1
281
1
  3
ACAD_XREC_ROUNDTRIP
360
A84
  0
DICTIONARY
  5
A85
330
A01
100
AcDbDictionary
280
1
281
1
  3
ACAD_XREC_ROUNDTRIP
360
A86
  0
DICTIONARY
  5
A7B
330
9FC
100
AcDbDictionary
280
1
281
1
  3
ACAD_XREC_ROUNDTRIP
360
A7C
  0
DICTIONARY
  5
A6F
330
9F6
100
AcDbDictionary
280
1
281
1
  3
ACAD_XREC_ROUNDTRIP
360
A70
  0
DICTIONARY
  5
A87
330
A02
100
AcDbDictionary
280
1
281
1
  3
ACAD_XREC_ROUNDTRIP
360
A88
  0
XRECORD
  5
A98
102
{ACAD_REACTORS
330
A97
102
}
330
A97
100
AcDbXrecord
280
1
102
DISPLAYNAME
  1
Imperial24
102
FLAGS
 90
0
  0
XRECORD
  5
A9C
102
{ACAD_REACTORS
330
A9B
102
}
330
A9B
100
AcDbXrecord
280
1
102
SHADEPLOT
 70
0
102
SHADEPLOTRESLEVEL
 70
2
102
SHADEPLOTCUSTOMDPI
 70
300
  0
XRECORD
  5
A9A
102
{ACAD_REACTORS
330
A99
102
}
330
A99
100
AcDbXrecord
280
1
102
SHADEPLOT
 70
0
102
SHADEPLOTRESLEVEL
 70
2
102
SHADEPLOTCUSTOMDPI
 70
300
  0
XRECORD
  5
A61
102
{ACAD_REACTORS
330
9E0
102
}
330
9E0
100
AcDbXrecord
280
1
102
MATERIAL
148
0.0
149
0.0
149
0.0
 93
0
 94
127
282
0
 72
0
 77
0
171
0
175
0
179
0
273
0
  0
XRECORD
  5
9E2
102
{ACAD_REACTORS
330
9E0
102
}
330
9E0
100
AcDbXrecord
280
1
270
1
271
1
  0
XRECORD
  5
9E1
102
{ACAD_REACTORS
330
9E0
102
}
330
9E0
100
AcDbXrecord
280
1
270
1
271
1
  0
XRECORD
  5
9E5
102
{ACAD_REACTORS
330
9E0
102
}
330
9E0
100
AcDbXrecord
280
1
270
1
271
1
  0
XRECORD
  5
9E4
102
{ACAD_REACTORS
330
9E0
102
}
330
9E0
100
AcDbXrecord
280
1
270
1
271
1
  0
XRECORD
  5
9E6
102
{ACAD_REACTORS
330
9E0
102
}
330
9E0
100
AcDbXrecord
280
1
270
1
271
1
  0
XRECORD
  5
9E3
102
{ACAD_REACTORS
330
9E0
102
}
330
9E0
100
AcDbXrecord
280
1
270
1
271
1
  0
XRECORD
  5
A60
102
{ACAD_REACTORS
330
9D8
102
}
330
9D8
100
AcDbXrecord
280
1
102
MATERIAL
148
0.0
149
0.0
149
0.0
 93
0
 94
127
282
0
 72
0
 77
0
171
0
175
0
179
0
273
0
  0
XRECORD
  5
9DA
102
{ACAD_REACTORS
330
9D8
102
}
330
9D8
100
AcDbXrecord
280
1
270
1
271
1
  0
XRECORD
  5
9D9
102
{ACAD_REACTORS
330
9D8
102
}
330
9D8
100
AcDbXrecord
280
1
270
1
271
1
  0
XRECORD
  5
9DD
102
{ACAD_REACTORS
330
9D8
102
}
330
9D8
100
AcDbXrecord
280
1
270
1
271
1
  0
XRECORD
  5
9DC
102
{ACAD_REACTORS
330
9D8
102
}
330
9D8
100
AcDbXrecord
280
1
270
1
271
1
  0
XRECORD
  5
9DE
102
{ACAD_REACTORS
330
9D8
102
}
330
9D8
100
AcDbXrecord
280
1
270
1
271
1
  0
XRECORD
  5
9DB
102
{ACAD_REACTORS
330
9D8
102
}
330
9D8
100
AcDbXrecord
280
1
270
1
271
1
  0
XRECORD
  5
A62
102
{ACAD_REACTORS
330
9E8
102
}
330
9E8
100
AcDbXrecord
280
1
102
MATERIAL
148
0.0
149
0.0
149
0.0
 93
0
 94
127
282
0
 72
0
 77
0
171
0
175
0
179
0
273
0
  0
XRECORD
  5
9EA
102
{ACAD_REACTORS
330
9E8
102
}
330
9E8
100
AcDbXrecord
280
1
270
1
271
1
  0
XRECORD
  5
9E9
102
{ACAD_REACTORS
330
9E8
102
}
330
9E8
100
AcDbXrecord
280
1
270
1
271
1
  0
XRECORD
  5
9ED
102
{ACAD_REACTORS
330
9E8
102
}
330
9E8
100
AcDbXrecord
280
1
270
1
271
1
  0
XRECORD
  5
9EC
102
{ACAD_REACTORS
330
9E8
102
}
330
9E8
100
AcDbXrecord
280
1
270
1
271
1
  0
XRECORD
  5
9EE
102
{ACAD_REACTORS
330
9E8
102
}
330
9E8
100
AcDbXrecord
280
1
270
1
271
1
  0
XRECORD
  5
9EB
102
{ACAD_REACTORS
330
9E8
102
}
330
9E8
100
AcDbXrecord
280
1
270
1
271
1
  0
XRECORD
  5
A96
102
{ACAD_REACTORS
330
A95
102
}
330
A95
100
AcDbXrecord
280
1
102
DISPLAYNAME
  1
Imperial24
102
FLAGS
 90
0
  0
CELLSTYLEMAP
  5
A5B
102
{ACAD_REACTORS
330
A5A
102
}
330
A5A
100
AcDbCellStyleMap
 90
3
300
CELLSTYLE
  1
TABLEFORMAT_BEGIN
 90
5
170
1
 91
0
 92
32768
 62
257
 93
1
300
CONTENTFORMAT
  1
CONTENTFORMAT_BEGIN
 90
0
 91
0
 92
512
 93
0
300

 40
0.0
140
1.0
 94
5
 62
0
340
A1B
144
0.25
309
CONTENTFORMAT_END
171
0
 94
0
309
TABLEFORMAT_END
  1
CELLSTYLE_BEGIN
 90
1
 91
1
300
_TITLE
309
CELLSTYLE_END
300
CELLSTYLE
  1
TABLEFORMAT_BEGIN
 90
5
170
1
 91
0
 92
0
 62
257
 93
1
300
CONTENTFORMAT
  1
CONTENTFORMAT_BEGIN
 90
0
 91
0
 92
512
 93
0
300

 40
0.0
140
1.0
 94
5
 62
0
340
A1B
144
0.18
309
CONTENTFORMAT_END
171
0
 94
0
309
TABLEFORMAT_END
  1
CELLSTYLE_BEGIN
 90
2
 91
1
300
_HEADER
309
CELLSTYLE_END
300
CELLSTYLE
  1
TABLEFORMAT_BEGIN
 90
5
170
1
 91
0
 92
0
 62
257
 93
1
300
CONTENTFORMAT
  1
CONTENTFORMAT_BEGIN
 90
0
 91
0
 92
512
 93
0
300

 40
0.0
140
1.0
 94
2
 62
0
340
A1B
144
0.18
309
CONTENTFORMAT_END
171
0
 94
0
309
TABLEFORMAT_END
  1
CELLSTYLE_BEGIN
 90
3
 91
2
300
_DATA
309
CELLSTYLE_END
  0
XRECORD
  5
A93
102
{ACAD_REACTORS
330
A5A
102
}
330
A5A
100
AcDbXrecord
280
1
102
ACAD_ROUNDTRIP_PRE2007_TABLESTYLE
 90
512
 91
0
  1

 92
512
 93
0
  2

 94
512
 95
0
  3

  0
XRECORD
  5
A6E
102
{ACAD_REACTORS
330
A6D
102
}
330
A6D
100
AcDbXrecord
280
1
102
RTVSPost2010Prop28
280
1
102
RTVSPost2010PropOp28
 70
1
102
RTVSPost2010Prop29
280
1
102
RTVSPost2010PropOp29
 70
1
102
RTVSPost2010Prop30
280
0
102
RTVSPost2010PropOp30
 70
1
102
RTVSPost2010Prop31
280
0
102
RTVSPost2010PropOp31
 70
1
102
RTVSPost2010Prop32
280
0
102
RTVSPost2010PropOp32
 70
1
102
RTVSPost2010Prop33
280
0
102
RTVSPost2010PropOp33
 70
1
102
RTVSPost2010Prop34
280
0
102
RTVSPost2010PropOp34
 70
1
102
RTVSPost2010Prop35
280
0
102
RTVSPost2010PropOp35
 70
1
102
RTVSPost2010Prop36
280
0
102
RTVSPost2010PropOp36
 70
1
102
RTVSPost2010Prop37
 90
50
102
RTVSPost2010PropOp37
 70
1
102
RTVSPost2010Prop38
140
0.0
102
RTVSPost2010PropOp38
 70
1
102
RTVSPost2010Prop39
140
1.0
102
RTVSPost2010PropOp39
 70
1
102
RTVSPost2010Prop40
 90
0
102
RTVSPost2010PropOp40
 70
1
102
RTVSPost2010Prop41ColorIndex
 90
18
102
RTVSPost2010Prop41ColorRGB
 90
0
102
RTVSPost2010PropOp41
 70
1
102
RTVSPost2010Prop42
 90
50
102
RTVSPost2010PropOp42
 70
1
102
RTVSPost2010Prop43
 90
3
102
RTVSPost2010PropOp43
 70
1
102
RTVSPost2010Prop44ColorIndex
 90
5
102
RTVSPost2010Prop44ColorRGB
 90
255
102
RTVSPost2010PropOp44
 70
1
102
RTVSPost2010Prop45
280
0
102
RTVSPost2010PropOp45
 70
1
102
RTVSPost2010Prop46
 90
50
102
RTVSPost2010PropOp46
 70
1
102
RTVSPost2010Prop47
 90
50
102
RTVSPost2010PropOp47
 70
1
102
RTVSPost2010Prop48
 90
50
102
RTVSPost2010PropOp48
 70
1
102
RTVSPost2010Prop49
280
0
102
RTVSPost2010PropOp49
 70
1
102
RTVSPost2010Prop50
 90
50
102
RTVSPost2010PropOp50
 70
1
102
RTVSPost2010Prop51ColorIndex
 90
256
102
RTVSPost2010Prop51ColorRGB
 90
-16777216
102
RTVSPost2010PropOp51
 70
0
102
RTVSPost2010Prop52
140
1.0
102
RTVSPost2010PropOp52
 70
0
102
RTVSPost2010Prop53
 90
2
102
RTVSPost2010PropOp53
 70
1
102
RTVSPost2010Prop54
  1
strokes_ogs.tif
102
RTVSPost2010PropOp54
 70
1
102
RTVSPost2010Prop55
280
0
102
RTVSPost2010PropOp55
 70
1
102
RTVSPost2010Prop56
140
1.0
102
RTVSPost2010PropOp56
 70
1
102
RTVSPost2010Prop57
140
1.0
102
RTVSPost2010PropOp57
 70
1
102
RTVSPropertyOp0
 70
1
102
RTVSPropertyOp1
 70
1
102
RTVSPropertyOp2
 70
1
102
RTVSPropertyOp3
 70
1
102
RTVSPropertyOp4
 70
1
102
RTVSPropertyOp5
 70
1
102
RTVSPropertyOp6
 70
1
102
RTVSPropertyOp7
 70
1
102
RTVSPropertyOp8
 70
1
102
RTVSPropertyOp9
 70
1
102
RTVSPropertyOp10
 70
1
102
RTVSPropertyOp11
 70
1
102
RTVSPropertyOp12
 70
1
102
RTVSPropertyOp13
 70
1
102
RTVSPropertyOp14
 70
1
102
RTVSPropertyOp15
 70
1
102
RTVSPropertyOp16
 70
1
102
RTVSPropertyOp17
 70
1
102
RTVSPropertyOp18
 70
1
102
RTVSPropertyOp19
 70
1
102
RTVSPropertyOp20
 70
1
102
RTVSPropertyOp21
 70
1
102
RTVSPropertyOp22
 70
1
102
RTVSPropertyOp23
 70
1
102
RTVSPropertyOp24
 70
1
102
RTVSPropertyOp25
 70
1
102
RTVSPropertyOp26
 70
1
102
RTVSPropertyOp27
 70
1
102
RTVSPropertyOp28
 70
1
102
RTVSPropertyOp29
 70
1
102
RTVSPropertyOp30
 70
1
102
RTVSPropertyOp31
 70
1
102
RTVSPropertyOp32
 70
1
102
RTVSPropertyOp33
 70
1
102
RTVSPropertyOp34
 70
1
102
RTVSPropertyOp35
 70
1
102
RTVSPropertyOp36
 70
1
102
RTVSPropertyOp37
 70
1
102
RTVSPropertyOp38
 70
1
102
RTVSPropertyOp39
 70
1
102
RTVSPropertyOp40
 70
1
102
RTVSPropertyOp41
 70
1
102
RTVSPropertyOp42
 70
1
102
RTVSPropertyOp43
 70
1
102
RTVSPropertyOp44
 70
1
102
RTVSPropertyOp45
 70
1
102
RTVSPropertyOp46
 70
1
102
RTVSPropertyOp47
 70
1
102
RTVSPropertyOp48
 70
1
102
RTVSPropertyOp49
 70
1
102
RTVSPropertyOp50
 70
1
102
RTVSPropertyOp51
 70
0
102
RTVSPropertyOp52
 70
0
102
RTVSPropertyOp53
 70
1
102
RTVSPropertyOp54
 70
1
102
RTVSPropertyOp55
 70
1
102
RTVSPropertyOp56
 70
1
102
RTVSPropertyOp57
 70
1
102
RTVSPropertyOp58
 70
1
102
RTVSPropertyOp59
 70
1
102
RTVSPropertyOp60
 70
1
102
RTVSPropertyOp61
 70
1
102
RTVSPropertyOp62
 70
1
  0
XRECORD
  5
A6C
102
{ACAD_REACTORS
330
A6B
102
}
330
A6B
100
AcDbXrecord
280
1
102
RTVSPost2010Prop28
280
0
102
RTVSPost2010PropOp28
 70
1
102
RTVSPost2010Prop29
280
1
102
RTVSPost2010PropOp29
 70
1
102
RTVSPost2010Prop30
280
1
102
RTVSPost2010PropOp30
 70
1
102
RTVSPost2010Prop31
280
0
102
RTVSPost2010PropOp31
 70
1
102
RTVSPost2010Prop32
280
0
102
RTVSPost2010PropOp32
 70
1
102
RTVSPost2010Prop33
280
0
102
RTVSPost2010PropOp33
 70
1
102
RTVSPost2010Prop34
280
0
102
RTVSPost2010PropOp34
 70
1
102
RTVSPost2010Prop35
280
0
102
RTVSPost2010PropOp35
 70
1
102
RTVSPost2010Prop36
280
0
102
RTVSPost2010PropOp36
 70
1
102
RTVSPost2010Prop37
 90
50
102
RTVSPost2010PropOp37
 70
1
102
RTVSPost2010Prop38
140
0.0
102
RTVSPost2010PropOp38
 70
1
102
RTVSPost2010Prop39
140
1.0
102
RTVSPost2010PropOp39
 70
1
102
RTVSPost2010Prop40
 90
0
102
RTVSPost2010PropOp40
 70
1
102
RTVSPost2010Prop41ColorIndex
 90
18
102
RTVSPost2010Prop41ColorRGB
 90
0
102
RTVSPost2010PropOp41
 70
1
102
RTVSPost2010Prop42
 90
50
102
RTVSPost2010PropOp42
 70
1
102
RTVSPost2010Prop43
 90
3
102
RTVSPost2010PropOp43
 70
1
102
RTVSPost2010Prop44ColorIndex
 90
5
102
RTVSPost2010Prop44ColorRGB
 90
255
102
RTVSPost2010PropOp44
 70
1
102
RTVSPost2010Prop45
280
0
102
RTVSPost2010PropOp45
 70
1
102
RTVSPost2010Prop46
 90
50
102
RTVSPost2010PropOp46
 70
1
102
RTVSPost2010Prop47
 90
50
102
RTVSPost2010PropOp47
 70
1
102
RTVSPost2010Prop48
 90
50
102
RTVSPost2010PropOp48
 70
1
102
RTVSPost2010Prop49
280
0
102
RTVSPost2010PropOp49
 70
1
102
RTVSPost2010Prop50
 90
50
102
RTVSPost2010PropOp50
 70
1
102
RTVSPost2010Prop51ColorIndex
 90
256
102
RTVSPost2010Prop51ColorRGB
 90
-16777216
102
RTVSPost2010PropOp51
 70
0
102
RTVSPost2010Prop52
140
1.0
102
RTVSPost2010PropOp52
 70
0
102
RTVSPost2010Prop53
 90
2
102
RTVSPost2010PropOp53
 70
1
102
RTVSPost2010Prop54
  1
strokes_ogs.tif
102
RTVSPost2010PropOp54
 70
1
102
RTVSPost2010Prop55
280
0
102
RTVSPost2010PropOp55
 70
1
102
RTVSPost2010Prop56
140
1.0
102
RTVSPost2010PropOp56
 70
1
102
RTVSPost2010Prop57
140
1.0
102
RTVSPost2010PropOp57
 70
1
102
RTVSPropertyOp0
 70
1
102
RTVSPropertyOp1
 70
1
102
RTVSPropertyOp2
 70
1
102
RTVSPropertyOp3
 70
1
102
RTVSPropertyOp4
 70
1
102
RTVSPropertyOp5
 70
1
102
RTVSPropertyOp6
 70
1
102
RTVSPropertyOp7
 70
1
102
RTVSPropertyOp8
 70
1
102
RTVSPropertyOp9
 70
1
102
RTVSPropertyOp10
 70
1
102
RTVSPropertyOp11
 70
1
102
RTVSPropertyOp12
 70
1
102
RTVSPropertyOp13
 70
1
102
RTVSPropertyOp14
 70
1
102
RTVSPropertyOp15
 70
1
102
RTVSPropertyOp16
 70
1
102
RTVSPropertyOp17
 70
1
102
RTVSPropertyOp18
 70
1
102
RTVSPropertyOp19
 70
1
102
RTVSPropertyOp20
 70
1
102
RTVSPropertyOp21
 70
1
102
RTVSPropertyOp22
 70
1
102
RTVSPropertyOp23
 70
1
102
RTVSPropertyOp24
 70
1
102
RTVSPropertyOp25
 70
1
102
RTVSPropertyOp26
 70
1
102
RTVSPropertyOp27
 70
1
102
RTVSPropertyOp28
 70
1
102
RTVSPropertyOp29
 70
1
102
RTVSPropertyOp30
 70
1
102
RTVSPropertyOp31
 70
1
102
RTVSPropertyOp32
 70
1
102
RTVSPropertyOp33
 70
1
102
RTVSPropertyOp34
 70
1
102
RTVSPropertyOp35
 70
1
102
RTVSPropertyOp36
 70
1
102
RTVSPropertyOp37
 70
1
102
RTVSPropertyOp38
 70
1
102
RTVSPropertyOp39
 70
1
102
RTVSPropertyOp40
 70
1
102
RTVSPropertyOp41
 70
1
102
RTVSPropertyOp42
 70
1
102
RTVSPropertyOp43
 70
1
102
RTVSPropertyOp44
 70
1
102
RTVSPropertyOp45
 70
1
102
RTVSPropertyOp46
 70
1
102
RTVSPropertyOp47
 70
1
102
RTVSPropertyOp48
 70
1
102
RTVSPropertyOp49
 70
1
102
RTVSPropertyOp50
 70
1
102
RTVSPropertyOp51
 70
0
102
RTVSPropertyOp52
 70
0
102
RTVSPropertyOp53
 70
1
102
RTVSPropertyOp54
 70
1
102
RTVSPropertyOp55
 70
1
102
RTVSPropertyOp56
 70
1
102
RTVSPropertyOp57
 70
1
102
RTVSPropertyOp58
 70
1
102
RTVSPropertyOp59
 70
1
102
RTVSPropertyOp60
 70
1
102
RTVSPropertyOp61
 70
1
102
RTVSPropertyOp62
 70
1
  0
XRECORD
  5
A7A
102
{ACAD_REACTORS
330
A79
102
}
330
A79
100
AcDbXrecord
280
1
102
RTVSPost2010Prop28
280
0
102
RTVSPost2010PropOp28
 70
1
102
RTVSPost2010Prop29
280
1
102
RTVSPost2010PropOp29
 70
1
102
RTVSPost2010Prop30
280
1
102
RTVSPost2010PropOp30
 70
1
102
RTVSPost2010Prop31
280
0
102
RTVSPost2010PropOp31
 70
1
102
RTVSPost2010Prop32
280
0
102
RTVSPost2010PropOp32
 70
1
102
RTVSPost2010Prop33
280
0
102
RTVSPost2010PropOp33
 70
1
102
RTVSPost2010Prop34
280
0
102
RTVSPost2010PropOp34
 70
1
102
RTVSPost2010Prop35
280
0
102
RTVSPost2010PropOp35
 70
1
102
RTVSPost2010Prop36
280
0
102
RTVSPost2010PropOp36
 70
1
102
RTVSPost2010Prop37
 90
50
102
RTVSPost2010PropOp37
 70
1
102
RTVSPost2010Prop38
140
0.0
102
RTVSPost2010PropOp38
 70
1
102
RTVSPost2010Prop39
140
1.0
102
RTVSPost2010PropOp39
 70
1
102
RTVSPost2010Prop40
 90
0
102
RTVSPost2010PropOp40
 70
1
102
RTVSPost2010Prop41ColorIndex
 90
18
102
RTVSPost2010Prop41ColorRGB
 90
0
102
RTVSPost2010PropOp41
 70
1
102
RTVSPost2010Prop42
 90
50
102
RTVSPost2010PropOp42
 70
1
102
RTVSPost2010Prop43
 90
3
102
RTVSPost2010PropOp43
 70
1
102
RTVSPost2010Prop44ColorIndex
 90
5
102
RTVSPost2010Prop44ColorRGB
 90
255
102
RTVSPost2010PropOp44
 70
1
102
RTVSPost2010Prop45
280
0
102
RTVSPost2010PropOp45
 70
1
102
RTVSPost2010Prop46
 90
50
102
RTVSPost2010PropOp46
 70
1
102
RTVSPost2010Prop47
 90
50
102
RTVSPost2010PropOp47
 70
1
102
RTVSPost2010Prop48
 90
50
102
RTVSPost2010PropOp48
 70
1
102
RTVSPost2010Prop49
280
0
102
RTVSPost2010PropOp49
 70
1
102
RTVSPost2010Prop50
 90
50
102
RTVSPost2010PropOp50
 70
1
102
RTVSPost2010Prop51ColorIndex
 90
256
102
RTVSPost2010Prop51ColorRGB
 90
-16777216
102
RTVSPost2010PropOp51
 70
0
102
RTVSPost2010Prop52
140
1.0
102
RTVSPost2010PropOp52
 70
0
102
RTVSPost2010Prop53
 90
2
102
RTVSPost2010PropOp53
 70
1
102
RTVSPost2010Prop54
  1
strokes_ogs.tif
102
RTVSPost2010PropOp54
 70
1
102
RTVSPost2010Prop55
280
0
102
RTVSPost2010PropOp55
 70
1
102
RTVSPost2010Prop56
140
1.0
102
RTVSPost2010PropOp56
 70
1
102
RTVSPost2010Prop57
140
1.0
102
RTVSPost2010PropOp57
 70
1
102
RTVSPropertyOp0
 70
1
102
RTVSPropertyOp1
 70
1
102
RTVSPropertyOp2
 70
1
102
RTVSPropertyOp3
 70
1
102
RTVSPropertyOp4
 70
1
102
RTVSPropertyOp5
 70
1
102
RTVSPropertyOp6
 70
1
102
RTVSPropertyOp7
 70
1
102
RTVSPropertyOp8
 70
1
102
RTVSPropertyOp9
 70
1
102
RTVSPropertyOp10
 70
1
102
RTVSPropertyOp11
 70
1
102
RTVSPropertyOp12
 70
1
102
RTVSPropertyOp13
 70
1
102
RTVSPropertyOp14
 70
1
102
RTVSPropertyOp15
 70
1
102
RTVSPropertyOp16
 70
1
102
RTVSPropertyOp17
 70
1
102
RTVSPropertyOp18
 70
1
102
RTVSPropertyOp19
 70
1
102
RTVSPropertyOp20
 70
1
102
RTVSPropertyOp21
 70
1
102
RTVSPropertyOp22
 70
1
102
RTVSPropertyOp23
 70
1
102
RTVSPropertyOp24
 70
1
102
RTVSPropertyOp25
 70
1
102
RTVSPropertyOp26
 70
1
102
RTVSPropertyOp27
 70
1
102
RTVSPropertyOp28
 70
1
102
RTVSPropertyOp29
 70
1
102
RTVSPropertyOp30
 70
1
102
RTVSPropertyOp31
 70
1
102
RTVSPropertyOp32
 70
1
102
RTVSPropertyOp33
 70
1
102
RTVSPropertyOp34
 70
1
102
RTVSPropertyOp35
 70
1
102
RTVSPropertyOp36
 70
1
102
RTVSPropertyOp37
 70
1
102
RTVSPropertyOp38
 70
1
102
RTVSPropertyOp39
 70
1
102
RTVSPropertyOp40
 70
1
102
RTVSPropertyOp41
 70
1
102
RTVSPropertyOp42
 70
1
102
RTVSPropertyOp43
 70
1
102
RTVSPropertyOp44
 70
1
102
RTVSPropertyOp45
 70
1
102
RTVSPropertyOp46
 70
1
102
RTVSPropertyOp47
 70
1
102
RTVSPropertyOp48
 70
1
102
RTVSPropertyOp49
 70
1
102
RTVSPropertyOp50
 70
1
102
RTVSPropertyOp51
 70
0
102
RTVSPropertyOp52
 70
0
102
RTVSPropertyOp53
 70
1
102
RTVSPropertyOp54
 70
1
102
RTVSPropertyOp55
 70
1
102
RTVSPropertyOp56
 70
1
102
RTVSPropertyOp57
 70
1
102
RTVSPropertyOp58
 70
1
102
RTVSPropertyOp59
 70
1
102
RTVSPropertyOp60
 70
1
102
RTVSPropertyOp61
 70
1
102
RTVSPropertyOp62
 70
1
  0
XRECORD
  5
A82
102
{ACAD_REACTORS
330
A81
102
}
330
A81
100
AcDbXrecord
280
1
102
RTVSPost2010Prop28
280
0
102
RTVSPost2010PropOp28
 70
1
102
RTVSPost2010Prop29
280
1
102
RTVSPost2010PropOp29
 70
1
102
RTVSPost2010Prop30
280
1
102
RTVSPost2010PropOp30
 70
1
102
RTVSPost2010Prop31
280
0
102
RTVSPost2010PropOp31
 70
1
102
RTVSPost2010Prop32
280
0
102
RTVSPost2010PropOp32
 70
1
102
RTVSPost2010Prop33
280
0
102
RTVSPost2010PropOp33
 70
1
102
RTVSPost2010Prop34
280
0
102
RTVSPost2010PropOp34
 70
1
102
RTVSPost2010Prop35
280
0
102
RTVSPost2010PropOp35
 70
1
102
RTVSPost2010Prop36
280
0
102
RTVSPost2010PropOp36
 70
1
102
RTVSPost2010Prop37
 90
50
102
RTVSPost2010PropOp37
 70
1
102
RTVSPost2010Prop38
140
0.0
102
RTVSPost2010PropOp38
 70
1
102
RTVSPost2010Prop39
140
1.0
102
RTVSPost2010PropOp39
 70
1
102
RTVSPost2010Prop40
 90
0
102
RTVSPost2010PropOp40
 70
1
102
RTVSPost2010Prop41ColorIndex
 90
18
102
RTVSPost2010Prop41ColorRGB
 90
0
102
RTVSPost2010PropOp41
 70
1
102
RTVSPost2010Prop42
 90
50
102
RTVSPost2010PropOp42
 70
1
102
RTVSPost2010Prop43
 90
3
102
RTVSPost2010PropOp43
 70
1
102
RTVSPost2010Prop44ColorIndex
 90
5
102
RTVSPost2010Prop44ColorRGB
 90
255
102
RTVSPost2010PropOp44
 70
1
102
RTVSPost2010Prop45
280
0
102
RTVSPost2010PropOp45
 70
1
102
RTVSPost2010Prop46
 90
50
102
RTVSPost2010PropOp46
 70
1
102
RTVSPost2010Prop47
 90
50
102
RTVSPost2010PropOp47
 70
1
102
RTVSPost2010Prop48
 90
50
102
RTVSPost2010PropOp48
 70
1
102
RTVSPost2010Prop49
280
0
102
RTVSPost2010PropOp49
 70
1
102
RTVSPost2010Prop50
 90
50
102
RTVSPost2010PropOp50
 70
1
102
RTVSPost2010Prop51ColorIndex
 90
256
102
RTVSPost2010Prop51ColorRGB
 90
-16777216
102
RTVSPost2010PropOp51
 70
0
102
RTVSPost2010Prop52
140
1.0
102
RTVSPost2010PropOp52
 70
0
102
RTVSPost2010Prop53
 90
2
102
RTVSPost2010PropOp53
 70
1
102
RTVSPost2010Prop54
  1
strokes_ogs.tif
102
RTVSPost2010PropOp54
 70
1
102
RTVSPost2010Prop55
280
0
102
RTVSPost2010PropOp55
 70
1
102
RTVSPost2010Prop56
140
1.0
102
RTVSPost2010PropOp56
 70
1
102
RTVSPost2010Prop57
140
1.0
102
RTVSPost2010PropOp57
 70
1
102
RTVSPropertyOp0
 70
1
102
RTVSPropertyOp1
 70
1
102
RTVSPropertyOp2
 70
1
102
RTVSPropertyOp3
 70
1
102
RTVSPropertyOp4
 70
1
102
RTVSPropertyOp5
 70
1
102
RTVSPropertyOp6
 70
1
102
RTVSPropertyOp7
 70
1
102
RTVSPropertyOp8
 70
1
102
RTVSPropertyOp9
 70
1
102
RTVSPropertyOp10
 70
1
102
RTVSPropertyOp11
 70
1
102
RTVSPropertyOp12
 70
1
102
RTVSPropertyOp13
 70
1
102
RTVSPropertyOp14
 70
1
102
RTVSPropertyOp15
 70
1
102
RTVSPropertyOp16
 70
1
102
RTVSPropertyOp17
 70
1
102
RTVSPropertyOp18
 70
1
102
RTVSPropertyOp19
 70
1
102
RTVSPropertyOp20
 70
1
102
RTVSPropertyOp21
 70
1
102
RTVSPropertyOp22
 70
1
102
RTVSPropertyOp23
 70
1
102
RTVSPropertyOp24
 70
1
102
RTVSPropertyOp25
 70
1
102
RTVSPropertyOp26
 70
1
102
RTVSPropertyOp27
 70
1
102
RTVSPropertyOp28
 70
1
102
RTVSPropertyOp29
 70
1
102
RTVSPropertyOp30
 70
1
102
RTVSPropertyOp31
 70
1
102
RTVSPropertyOp32
 70
1
102
RTVSPropertyOp33
 70
1
102
RTVSPropertyOp34
 70
1
102
RTVSPropertyOp35
 70
1
102
RTVSPropertyOp36
 70
1
102
RTVSPropertyOp37
 70
1
102
RTVSPropertyOp38
 70
1
102
RTVSPropertyOp39
 70
1
102
RTVSPropertyOp40
 70
1
102
RTVSPropertyOp41
 70
1
102
RTVSPropertyOp42
 70
1
102
RTVSPropertyOp43
 70
1
102
RTVSPropertyOp44
 70
1
102
RTVSPropertyOp45
 70
1
102
RTVSPropertyOp46
 70
1
102
RTVSPropertyOp47
 70
1
102
RTVSPropertyOp48
 70
1
102
RTVSPropertyOp49
 70
1
102
RTVSPropertyOp50
 70
1
102
RTVSPropertyOp51
 70
0
102
RTVSPropertyOp52
 70
0
102
RTVSPropertyOp53
 70
1
102
RTVSPropertyOp54
 70
1
102
RTVSPropertyOp55
 70
1
102
RTVSPropertyOp56
 70
1
102
RTVSPropertyOp57
 70
1
102
RTVSPropertyOp58
 70
1
102
RTVSPropertyOp59
 70
1
102
RTVSPropertyOp60
 70
1
102
RTVSPropertyOp61
 70
1
102
RTVSPropertyOp62
 70
1
  0
XRECORD
  5
A74
102
{ACAD_REACTORS
330
A73
102
}
330
A73
100
AcDbXrecord
280
1
102
RTVSPost2010Prop28
280
0
102
RTVSPost2010PropOp28
 70
1
102
RTVSPost2010Prop29
280
1
102
RTVSPost2010PropOp29
 70
1
102
RTVSPost2010Prop30
280
1
102
RTVSPost2010PropOp30
 70
1
102
RTVSPost2010Prop31
280
0
102
RTVSPost2010PropOp31
 70
1
102
RTVSPost2010Prop32
280
0
102
RTVSPost2010PropOp32
 70
1
102
RTVSPost2010Prop33
280
0
102
RTVSPost2010PropOp33
 70
1
102
RTVSPost2010Prop34
280
0
102
RTVSPost2010PropOp34
 70
1
102
RTVSPost2010Prop35
280
0
102
RTVSPost2010PropOp35
 70
1
102
RTVSPost2010Prop36
280
0
102
RTVSPost2010PropOp36
 70
1
102
RTVSPost2010Prop37
 90
50
102
RTVSPost2010PropOp37
 70
1
102
RTVSPost2010Prop38
140
0.0
102
RTVSPost2010PropOp38
 70
1
102
RTVSPost2010Prop39
140
1.0
102
RTVSPost2010PropOp39
 70
1
102
RTVSPost2010Prop40
 90
0
102
RTVSPost2010PropOp40
 70
1
102
RTVSPost2010Prop41ColorIndex
 90
18
102
RTVSPost2010Prop41ColorRGB
 90
0
102
RTVSPost2010PropOp41
 70
1
102
RTVSPost2010Prop42
 90
50
102
RTVSPost2010PropOp42
 70
1
102
RTVSPost2010Prop43
 90
3
102
RTVSPost2010PropOp43
 70
1
102
RTVSPost2010Prop44ColorIndex
 90
5
102
RTVSPost2010Prop44ColorRGB
 90
255
102
RTVSPost2010PropOp44
 70
1
102
RTVSPost2010Prop45
280
0
102
RTVSPost2010PropOp45
 70
1
102
RTVSPost2010Prop46
 90
50
102
RTVSPost2010PropOp46
 70
1
102
RTVSPost2010Prop47
 90
50
102
RTVSPost2010PropOp47
 70
1
102
RTVSPost2010Prop48
 90
50
102
RTVSPost2010PropOp48
 70
1
102
RTVSPost2010Prop49
280
0
102
RTVSPost2010PropOp49
 70
1
102
RTVSPost2010Prop50
 90
50
102
RTVSPost2010PropOp50
 70
1
102
RTVSPost2010Prop51ColorIndex
 90
256
102
RTVSPost2010Prop51ColorRGB
 90
-16777216
102
RTVSPost2010PropOp51
 70
0
102
RTVSPost2010Prop52
140
1.0
102
RTVSPost2010PropOp52
 70
0
102
RTVSPost2010Prop53
 90
2
102
RTVSPost2010PropOp53
 70
1
102
RTVSPost2010Prop54
  1
strokes_ogs.tif
102
RTVSPost2010PropOp54
 70
1
102
RTVSPost2010Prop55
280
0
102
RTVSPost2010PropOp55
 70
1
102
RTVSPost2010Prop56
140
1.0
102
RTVSPost2010PropOp56
 70
1
102
RTVSPost2010Prop57
140
1.0
102
RTVSPost2010PropOp57
 70
1
102
RTVSPropertyOp0
 70
1
102
RTVSPropertyOp1
 70
1
102
RTVSPropertyOp2
 70
1
102
RTVSPropertyOp3
 70
1
102
RTVSPropertyOp4
 70
1
102
RTVSPropertyOp5
 70
1
102
RTVSPropertyOp6
 70
1
102
RTVSPropertyOp7
 70
1
102
RTVSPropertyOp8
 70
1
102
RTVSPropertyOp9
 70
1
102
RTVSPropertyOp10
 70
1
102
RTVSPropertyOp11
 70
1
102
RTVSPropertyOp12
 70
1
102
RTVSPropertyOp13
 70
1
102
RTVSPropertyOp14
 70
1
102
RTVSPropertyOp15
 70
1
102
RTVSPropertyOp16
 70
1
102
RTVSPropertyOp17
 70
1
102
RTVSPropertyOp18
 70
1
102
RTVSPropertyOp19
 70
1
102
RTVSPropertyOp20
 70
1
102
RTVSPropertyOp21
 70
1
102
RTVSPropertyOp22
 70
1
102
RTVSPropertyOp23
 70
1
102
RTVSPropertyOp24
 70
1
102
RTVSPropertyOp25
 70
1
102
RTVSPropertyOp26
 70
1
102
RTVSPropertyOp27
 70
1
102
RTVSPropertyOp28
 70
1
102
RTVSPropertyOp29
 70
1
102
RTVSPropertyOp30
 70
1
102
RTVSPropertyOp31
 70
1
102
RTVSPropertyOp32
 70
1
102
RTVSPropertyOp33
 70
1
102
RTVSPropertyOp34
 70
1
102
RTVSPropertyOp35
 70
1
102
RTVSPropertyOp36
 70
1
102
RTVSPropertyOp37
 70
1
102
RTVSPropertyOp38
 70
1
102
RTVSPropertyOp39
 70
1
102
RTVSPropertyOp40
 70
1
102
RTVSPropertyOp41
 70
1
102
RTVSPropertyOp42
 70
1
102
RTVSPropertyOp43
 70
1
102
RTVSPropertyOp44
 70
1
102
RTVSPropertyOp45
 70
1
102
RTVSPropertyOp46
 70
1
102
RTVSPropertyOp47
 70
1
102
RTVSPropertyOp48
 70
1
102
RTVSPropertyOp49
 70
1
102
RTVSPropertyOp50
 70
1
102
RTVSPropertyOp51
 70
0
102
RTVSPropertyOp52
 70
0
102
RTVSPropertyOp53
 70
1
102
RTVSPropertyOp54
 70
1
102
RTVSPropertyOp55
 70
1
102
RTVSPropertyOp56
 70
1
102
RTVSPropertyOp57
 70
1
102
RTVSPropertyOp58
 70
1
102
RTVSPropertyOp59
 70
1
102
RTVSPropertyOp60
 70
1
102
RTVSPropertyOp61
 70
1
102
RTVSPropertyOp62
 70
1
  0
XRECORD
  5
A78
102
{ACAD_REACTORS
330
A77
102
}
330
A77
100
AcDbXrecord
280
1
102
RTVSPost2010Prop28
280
0
102
RTVSPost2010PropOp28
 70
1
102
RTVSPost2010Prop29
280
1
102
RTVSPost2010PropOp29
 70
1
102
RTVSPost2010Prop30
280
1
102
RTVSPost2010PropOp30
 70
1
102
RTVSPost2010Prop31
280
0
102
RTVSPost2010PropOp31
 70
1
102
RTVSPost2010Prop32
280
0
102
RTVSPost2010PropOp32
 70
1
102
RTVSPost2010Prop33
280
0
102
RTVSPost2010PropOp33
 70
1
102
RTVSPost2010Prop34
280
0
102
RTVSPost2010PropOp34
 70
1
102
RTVSPost2010Prop35
280
0
102
RTVSPost2010PropOp35
 70
1
102
RTVSPost2010Prop36
280
0
102
RTVSPost2010PropOp36
 70
1
102
RTVSPost2010Prop37
 90
50
102
RTVSPost2010PropOp37
 70
1
102
RTVSPost2010Prop38
140
0.0
102
RTVSPost2010PropOp38
 70
1
102
RTVSPost2010Prop39
140
1.0
102
RTVSPost2010PropOp39
 70
1
102
RTVSPost2010Prop40
 90
0
102
RTVSPost2010PropOp40
 70
1
102
RTVSPost2010Prop41ColorIndex
 90
18
102
RTVSPost2010Prop41ColorRGB
 90
0
102
RTVSPost2010PropOp41
 70
1
102
RTVSPost2010Prop42
 90
50
102
RTVSPost2010PropOp42
 70
1
102
RTVSPost2010Prop43
 90
3
102
RTVSPost2010PropOp43
 70
1
102
RTVSPost2010Prop44ColorIndex
 90
5
102
RTVSPost2010Prop44ColorRGB
 90
255
102
RTVSPost2010PropOp44
 70
1
102
RTVSPost2010Prop45
280
0
102
RTVSPost2010PropOp45
 70
1
102
RTVSPost2010Prop46
 90
50
102
RTVSPost2010PropOp46
 70
1
102
RTVSPost2010Prop47
 90
50
102
RTVSPost2010PropOp47
 70
1
102
RTVSPost2010Prop48
 90
50
102
RTVSPost2010PropOp48
 70
1
102
RTVSPost2010Prop49
280
0
102
RTVSPost2010PropOp49
 70
1
102
RTVSPost2010Prop50
 90
50
102
RTVSPost2010PropOp50
 70
1
102
RTVSPost2010Prop51ColorIndex
 90
256
102
RTVSPost2010Prop51ColorRGB
 90
-16777216
102
RTVSPost2010PropOp51
 70
0
102
RTVSPost2010Prop52
140
1.0
102
RTVSPost2010PropOp52
 70
0
102
RTVSPost2010Prop53
 90
2
102
RTVSPost2010PropOp53
 70
1
102
RTVSPost2010Prop54
  1
strokes_ogs.tif
102
RTVSPost2010PropOp54
 70
1
102
RTVSPost2010Prop55
280
0
102
RTVSPost2010PropOp55
 70
1
102
RTVSPost2010Prop56
140
1.0
102
RTVSPost2010PropOp56
 70
1
102
RTVSPost2010Prop57
140
1.0
102
RTVSPost2010PropOp57
 70
1
102
RTVSPropertyOp0
 70
1
102
RTVSPropertyOp1
 70
1
102
RTVSPropertyOp2
 70
1
102
RTVSPropertyOp3
 70
1
102
RTVSPropertyOp4
 70
1
102
RTVSPropertyOp5
 70
1
102
RTVSPropertyOp6
 70
1
102
RTVSPropertyOp7
 70
1
102
RTVSPropertyOp8
 70
1
102
RTVSPropertyOp9
 70
1
102
RTVSPropertyOp10
 70
1
102
RTVSPropertyOp11
 70
1
102
RTVSPropertyOp12
 70
1
102
RTVSPropertyOp13
 70
1
102
RTVSPropertyOp14
 70
1
102
RTVSPropertyOp15
 70
1
102
RTVSPropertyOp16
 70
1
102
RTVSPropertyOp17
 70
1
102
RTVSPropertyOp18
 70
1
102
RTVSPropertyOp19
 70
1
102
RTVSPropertyOp20
 70
1
102
RTVSPropertyOp21
 70
1
102
RTVSPropertyOp22
 70
1
102
RTVSPropertyOp23
 70
1
102
RTVSPropertyOp24
 70
1
102
RTVSPropertyOp25
 70
1
102
RTVSPropertyOp26
 70
1
102
RTVSPropertyOp27
 70
1
102
RTVSPropertyOp28
 70
1
102
RTVSPropertyOp29
 70
1
102
RTVSPropertyOp30
 70
1
102
RTVSPropertyOp31
 70
1
102
RTVSPropertyOp32
 70
1
102
RTVSPropertyOp33
 70
1
102
RTVSPropertyOp34
 70
1
102
RTVSPropertyOp35
 70
1
102
RTVSPropertyOp36
 70
1
102
RTVSPropertyOp37
 70
1
102
RTVSPropertyOp38
 70
1
102
RTVSPropertyOp39
 70
1
102
RTVSPropertyOp40
 70
1
102
RTVSPropertyOp41
 70
1
102
RTVSPropertyOp42
 70
1
102
RTVSPropertyOp43
 70
1
102
RTVSPropertyOp44
 70
1
102
RTVSPropertyOp45
 70
1
102
RTVSPropertyOp46
 70
1
102
RTVSPropertyOp47
 70
1
102
RTVSPropertyOp48
 70
1
102
RTVSPropertyOp49
 70
1
102
RTVSPropertyOp50
 70
1
102
RTVSPropertyOp51
 70
0
102
RTVSPropertyOp52
 70
0
102
RTVSPropertyOp53
 70
1
102
RTVSPropertyOp54
 70
1
102
RTVSPropertyOp55
 70
1
102
RTVSPropertyOp56
 70
1
102
RTVSPropertyOp57
 70
1
102
RTVSPropertyOp58
 70
1
102
RTVSPropertyOp59
 70
1
102
RTVSPropertyOp60
 70
1
102
RTVSPropertyOp61
 70
1
102
RTVSPropertyOp62
 70
1
  0
XRECORD
  5
A92
102
{ACAD_REACTORS
330
A91
102
}
330
A91
100
AcDbXrecord
280
1
102
RTVSPost2010Prop28
280
0
102
RTVSPost2010PropOp28
 70
1
102
RTVSPost2010Prop29
280
1
102
RTVSPost2010PropOp29
 70
1
102
RTVSPost2010Prop30
280
1
102
RTVSPost2010PropOp30
 70
1
102
RTVSPost2010Prop31
280
0
102
RTVSPost2010PropOp31
 70
1
102
RTVSPost2010Prop32
280
0
102
RTVSPost2010PropOp32
 70
1
102
RTVSPost2010Prop33
280
0
102
RTVSPost2010PropOp33
 70
1
102
RTVSPost2010Prop34
280
0
102
RTVSPost2010PropOp34
 70
1
102
RTVSPost2010Prop35
280
0
102
RTVSPost2010PropOp35
 70
1
102
RTVSPost2010Prop36
280
0
102
RTVSPost2010PropOp36
 70
1
102
RTVSPost2010Prop37
 90
50
102
RTVSPost2010PropOp37
 70
0
102
RTVSPost2010Prop38
140
0.0
102
RTVSPost2010PropOp38
 70
0
102
RTVSPost2010Prop39
140
1.0
102
RTVSPost2010PropOp39
 70
0
102
RTVSPost2010Prop40
 90
0
102
RTVSPost2010PropOp40
 70
0
102
RTVSPost2010Prop41ColorIndex
 90
18
102
RTVSPost2010Prop41ColorRGB
 90
0
102
RTVSPost2010PropOp41
 70
0
102
RTVSPost2010Prop42
 90
50
102
RTVSPost2010PropOp42
 70
0
102
RTVSPost2010Prop43
 90
3
102
RTVSPost2010PropOp43
 70
0
102
RTVSPost2010Prop44ColorIndex
 90
5
102
RTVSPost2010Prop44ColorRGB
 90
255
102
RTVSPost2010PropOp44
 70
0
102
RTVSPost2010Prop45
280
0
102
RTVSPost2010PropOp45
 70
1
102
RTVSPost2010Prop46
 90
50
102
RTVSPost2010PropOp46
 70
0
102
RTVSPost2010Prop47
 90
50
102
RTVSPost2010PropOp47
 70
0
102
RTVSPost2010Prop48
 90
50
102
RTVSPost2010PropOp48
 70
0
102
RTVSPost2010Prop49
280
0
102
RTVSPost2010PropOp49
 70
1
102
RTVSPost2010Prop50
 90
50
102
RTVSPost2010PropOp50
 70
0
102
RTVSPost2010Prop51ColorIndex
 90
256
102
RTVSPost2010Prop51ColorRGB
 90
-16777216
102
RTVSPost2010PropOp51
 70
0
102
RTVSPost2010Prop52
140
1.0
102
RTVSPost2010PropOp52
 70
0
102
RTVSPost2010Prop53
 90
2
102
RTVSPost2010PropOp53
 70
0
102
RTVSPost2010Prop54
  1
strokes_ogs.tif
102
RTVSPost2010PropOp54
 70
0
102
RTVSPost2010Prop55
280
0
102
RTVSPost2010PropOp55
 70
1
102
RTVSPost2010Prop56
140
1.0
102
RTVSPost2010PropOp56
 70
0
102
RTVSPost2010Prop57
140
1.0
102
RTVSPost2010PropOp57
 70
0
102
RTVSPropertyOp0
 70
0
102
RTVSPropertyOp1
 70
0
102
RTVSPropertyOp2
 70
0
102
RTVSPropertyOp3
 70
0
102
RTVSPropertyOp4
 70
0
102
RTVSPropertyOp5
 70
0
102
RTVSPropertyOp6
 70
0
102
RTVSPropertyOp7
 70
0
102
RTVSPropertyOp8
 70
0
102
RTVSPropertyOp9
 70
0
102
RTVSPropertyOp10
 70
0
102
RTVSPropertyOp11
 70
0
102
RTVSPropertyOp12
 70
0
102
RTVSPropertyOp13
 70
0
102
RTVSPropertyOp14
 70
2
102
RTVSPropertyOp15
 70
0
102
RTVSPropertyOp16
 70
0
102
RTVSPropertyOp17
 70
0
102
RTVSPropertyOp18
 70
0
102
RTVSPropertyOp19
 70
0
102
RTVSPropertyOp20
 70
0
102
RTVSPropertyOp21
 70
0
102
RTVSPropertyOp22
 70
0
102
RTVSPropertyOp23
 70
0
102
RTVSPropertyOp24
 70
0
102
RTVSPropertyOp25
 70
0
102
RTVSPropertyOp26
 70
0
102
RTVSPropertyOp27
 70
0
102
RTVSPropertyOp28
 70
1
102
RTVSPropertyOp29
 70
1
102
RTVSPropertyOp30
 70
1
102
RTVSPropertyOp31
 70
1
102
RTVSPropertyOp32
 70
1
102
RTVSPropertyOp33
 70
1
102
RTVSPropertyOp34
 70
1
102
RTVSPropertyOp35
 70
1
102
RTVSPropertyOp36
 70
1
102
RTVSPropertyOp37
 70
0
102
RTVSPropertyOp38
 70
0
102
RTVSPropertyOp39
 70
0
102
RTVSPropertyOp40
 70
0
102
RTVSPropertyOp41
 70
0
102
RTVSPropertyOp42
 70
0
102
RTVSPropertyOp43
 70
0
102
RTVSPropertyOp44
 70
0
102
RTVSPropertyOp45
 70
1
102
RTVSPropertyOp46
 70
0
102
RTVSPropertyOp47
 70
0
102
RTVSPropertyOp48
 70
0
102
RTVSPropertyOp49
 70
1
102
RTVSPropertyOp50
 70
0
102
RTVSPropertyOp51
 70
0
102
RTVSPropertyOp52
 70
0
102
RTVSPropertyOp53
 70
0
102
RTVSPropertyOp54
 70
0
102
RTVSPropertyOp55
 70
1
102
RTVSPropertyOp56
 70
0
102
RTVSPropertyOp57
 70
0
102
RTVSPropertyOp58
 70
0
102
RTVSPropertyOp59
 70
0
102
RTVSPropertyOp60
 70
0
102
RTVSPropertyOp61
 70
0
102
RTVSPropertyOp62
 70
0
  0
XRECORD
  5
A80
102
{ACAD_REACTORS
330
A7F
102
}
330
A7F
100
AcDbXrecord
280
1
102
RTVSPost2010Prop28
280
0
102
RTVSPost2010PropOp28
 70
1
102
RTVSPost2010Prop29
280
1
102
RTVSPost2010PropOp29
 70
1
102
RTVSPost2010Prop30
280
1
102
RTVSPost2010PropOp30
 70
1
102
RTVSPost2010Prop31
280
0
102
RTVSPost2010PropOp31
 70
1
102
RTVSPost2010Prop32
280
0
102
RTVSPost2010PropOp32
 70
1
102
RTVSPost2010Prop33
280
0
102
RTVSPost2010PropOp33
 70
1
102
RTVSPost2010Prop34
280
0
102
RTVSPost2010PropOp34
 70
1
102
RTVSPost2010Prop35
280
0
102
RTVSPost2010PropOp35
 70
1
102
RTVSPost2010Prop36
280
0
102
RTVSPost2010PropOp36
 70
1
102
RTVSPost2010Prop37
 90
50
102
RTVSPost2010PropOp37
 70
1
102
RTVSPost2010Prop38
140
0.0
102
RTVSPost2010PropOp38
 70
1
102
RTVSPost2010Prop39
140
1.0
102
RTVSPost2010PropOp39
 70
1
102
RTVSPost2010Prop40
 90
0
102
RTVSPost2010PropOp40
 70
1
102
RTVSPost2010Prop41ColorIndex
 90
18
102
RTVSPost2010Prop41ColorRGB
 90
0
102
RTVSPost2010PropOp41
 70
1
102
RTVSPost2010Prop42
 90
50
102
RTVSPost2010PropOp42
 70
1
102
RTVSPost2010Prop43
 90
3
102
RTVSPost2010PropOp43
 70
1
102
RTVSPost2010Prop44ColorIndex
 90
5
102
RTVSPost2010Prop44ColorRGB
 90
255
102
RTVSPost2010PropOp44
 70
1
102
RTVSPost2010Prop45
280
0
102
RTVSPost2010PropOp45
 70
1
102
RTVSPost2010Prop46
 90
50
102
RTVSPost2010PropOp46
 70
1
102
RTVSPost2010Prop47
 90
50
102
RTVSPost2010PropOp47
 70
1
102
RTVSPost2010Prop48
 90
50
102
RTVSPost2010PropOp48
 70
1
102
RTVSPost2010Prop49
280
0
102
RTVSPost2010PropOp49
 70
1
102
RTVSPost2010Prop50
 90
50
102
RTVSPost2010PropOp50
 70
1
102
RTVSPost2010Prop51ColorIndex
 90
256
102
RTVSPost2010Prop51ColorRGB
 90
-16777216
102
RTVSPost2010PropOp51
 70
0
102
RTVSPost2010Prop52
140
1.0
102
RTVSPost2010PropOp52
 70
0
102
RTVSPost2010Prop53
 90
2
102
RTVSPost2010PropOp53
 70
1
102
RTVSPost2010Prop54
  1
strokes_ogs.tif
102
RTVSPost2010PropOp54
 70
1
102
RTVSPost2010Prop55
280
0
102
RTVSPost2010PropOp55
 70
1
102
RTVSPost2010Prop56
140
1.0
102
RTVSPost2010PropOp56
 70
1
102
RTVSPost2010Prop57
140
1.0
102
RTVSPost2010PropOp57
 70
1
102
RTVSPropertyOp0
 70
1
102
RTVSPropertyOp1
 70
1
102
RTVSPropertyOp2
 70
1
102
RTVSPropertyOp3
 70
1
102
RTVSPropertyOp4
 70
1
102
RTVSPropertyOp5
 70
1
102
RTVSPropertyOp6
 70
1
102
RTVSPropertyOp7
 70
1
102
RTVSPropertyOp8
 70
1
102
RTVSPropertyOp9
 70
1
102
RTVSPropertyOp10
 70
1
102
RTVSPropertyOp11
 70
1
102
RTVSPropertyOp12
 70
1
102
RTVSPropertyOp13
 70
1
102
RTVSPropertyOp14
 70
1
102
RTVSPropertyOp15
 70
1
102
RTVSPropertyOp16
 70
1
102
RTVSPropertyOp17
 70
1
102
RTVSPropertyOp18
 70
1
102
RTVSPropertyOp19
 70
1
102
RTVSPropertyOp20
 70
1
102
RTVSPropertyOp21
 70
1
102
RTVSPropertyOp22
 70
1
102
RTVSPropertyOp23
 70
1
102
RTVSPropertyOp24
 70
1
102
RTVSPropertyOp25
 70
1
102
RTVSPropertyOp26
 70
1
102
RTVSPropertyOp27
 70
1
102
RTVSPropertyOp28
 70
1
102
RTVSPropertyOp29
 70
1
102
RTVSPropertyOp30
 70
1
102
RTVSPropertyOp31
 70
1
102
RTVSPropertyOp32
 70
1
102
RTVSPropertyOp33
 70
1
102
RTVSPropertyOp34
 70
1
102
RTVSPropertyOp35
 70
1
102
RTVSPropertyOp36
 70
1
102
RTVSPropertyOp37
 70
1
102
RTVSPropertyOp38
 70
1
102
RTVSPropertyOp39
 70
1
102
RTVSPropertyOp40
 70
1
102
RTVSPropertyOp41
 70
1
102
RTVSPropertyOp42
 70
1
102
RTVSPropertyOp43
 70
1
102
RTVSPropertyOp44
 70
1
102
RTVSPropertyOp45
 70
1
102
RTVSPropertyOp46
 70
1
102
RTVSPropertyOp47
 70
1
102
RTVSPropertyOp48
 70
1
102
RTVSPropertyOp49
 70
1
102
RTVSPropertyOp50
 70
1
102
RTVSPropertyOp51
 70
0
102
RTVSPropertyOp52
 70
0
102
RTVSPropertyOp53
 70
1
102
RTVSPropertyOp54
 70
1
102
RTVSPropertyOp55
 70
1
102
RTVSPropertyOp56
 70
1
102
RTVSPropertyOp57
 70
1
102
RTVSPropertyOp58
 70
1
102
RTVSPropertyOp59
 70
1
102
RTVSPropertyOp60
 70
1
102
RTVSPropertyOp61
 70
1
102
RTVSPropertyOp62
 70
1
  0
XRECORD
  5
A64
102
{ACAD_REACTORS
330
A63
102
}
330
A63
100
AcDbXrecord
280
1
102
RTVSPost2010Prop28
280
0
102
RTVSPost2010PropOp28
 70
1
102
RTVSPost2010Prop29
280
1
102
RTVSPost2010PropOp29
 70
1
102
RTVSPost2010Prop30
280
1
102
RTVSPost2010PropOp30
 70
1
102
RTVSPost2010Prop31
280
0
102
RTVSPost2010PropOp31
 70
1
102
RTVSPost2010Prop32
280
0
102
RTVSPost2010PropOp32
 70
1
102
RTVSPost2010Prop33
280
0
102
RTVSPost2010PropOp33
 70
1
102
RTVSPost2010Prop34
280
0
102
RTVSPost2010PropOp34
 70
1
102
RTVSPost2010Prop35
280
0
102
RTVSPost2010PropOp35
 70
1
102
RTVSPost2010Prop36
280
0
102
RTVSPost2010PropOp36
 70
1
102
RTVSPost2010Prop37
 90
50
102
RTVSPost2010PropOp37
 70
1
102
RTVSPost2010Prop38
140
0.0
102
RTVSPost2010PropOp38
 70
1
102
RTVSPost2010Prop39
140
1.0
102
RTVSPost2010PropOp39
 70
1
102
RTVSPost2010Prop40
 90
0
102
RTVSPost2010PropOp40
 70
1
102
RTVSPost2010Prop41ColorIndex
 90
18
102
RTVSPost2010Prop41ColorRGB
 90
0
102
RTVSPost2010PropOp41
 70
1
102
RTVSPost2010Prop42
 90
50
102
RTVSPost2010PropOp42
 70
1
102
RTVSPost2010Prop43
 90
3
102
RTVSPost2010PropOp43
 70
1
102
RTVSPost2010Prop44ColorIndex
 90
5
102
RTVSPost2010Prop44ColorRGB
 90
255
102
RTVSPost2010PropOp44
 70
1
102
RTVSPost2010Prop45
280
0
102
RTVSPost2010PropOp45
 70
1
102
RTVSPost2010Prop46
 90
50
102
RTVSPost2010PropOp46
 70
1
102
RTVSPost2010Prop47
 90
50
102
RTVSPost2010PropOp47
 70
1
102
RTVSPost2010Prop48
 90
50
102
RTVSPost2010PropOp48
 70
1
102
RTVSPost2010Prop49
280
0
102
RTVSPost2010PropOp49
 70
1
102
RTVSPost2010Prop50
 90
50
102
RTVSPost2010PropOp50
 70
1
102
RTVSPost2010Prop51ColorIndex
 90
256
102
RTVSPost2010Prop51ColorRGB
 90
-16777216
102
RTVSPost2010PropOp51
 70
0
102
RTVSPost2010Prop52
140
1.0
102
RTVSPost2010PropOp52
 70
0
102
RTVSPost2010Prop53
 90
2
102
RTVSPost2010PropOp53
 70
1
102
RTVSPost2010Prop54
  1
strokes_ogs.tif
102
RTVSPost2010PropOp54
 70
1
102
RTVSPost2010Prop55
280
0
102
RTVSPost2010PropOp55
 70
1
102
RTVSPost2010Prop56
140
1.0
102
RTVSPost2010PropOp56
 70
1
102
RTVSPost2010Prop57
140
1.0
102
RTVSPost2010PropOp57
 70
1
102
RTVSPropertyOp0
 70
1
102
RTVSPropertyOp1
 70
1
102
RTVSPropertyOp2
 70
1
102
RTVSPropertyOp3
 70
1
102
RTVSPropertyOp4
 70
1
102
RTVSPropertyOp5
 70
1
102
RTVSPropertyOp6
 70
1
102
RTVSPropertyOp7
 70
1
102
RTVSPropertyOp8
 70
1
102
RTVSPropertyOp9
 70
1
102
RTVSPropertyOp10
 70
1
102
RTVSPropertyOp11
 70
1
102
RTVSPropertyOp12
 70
1
102
RTVSPropertyOp13
 70
1
102
RTVSPropertyOp14
 70
1
102
RTVSPropertyOp15
 70
1
102
RTVSPropertyOp16
 70
1
102
RTVSPropertyOp17
 70
1
102
RTVSPropertyOp18
 70
1
102
RTVSPropertyOp19
 70
1
102
RTVSPropertyOp20
 70
1
102
RTVSPropertyOp21
 70
1
102
RTVSPropertyOp22
 70
1
102
RTVSPropertyOp23
 70
1
102
RTVSPropertyOp24
 70
1
102
RTVSPropertyOp25
 70
1
102
RTVSPropertyOp26
 70
1
102
RTVSPropertyOp27
 70
1
102
RTVSPropertyOp28
 70
1
102
RTVSPropertyOp29
 70
1
102
RTVSPropertyOp30
 70
1
102
RTVSPropertyOp31
 70
1
102
RTVSPropertyOp32
 70
1
102
RTVSPropertyOp33
 70
1
102
RTVSPropertyOp34
 70
1
102
RTVSPropertyOp35
 70
1
102
RTVSPropertyOp36
 70
1
102
RTVSPropertyOp37
 70
1
102
RTVSPropertyOp38
 70
1
102
RTVSPropertyOp39
 70
1
102
RTVSPropertyOp40
 70
1
102
RTVSPropertyOp41
 70
1
102
RTVSPropertyOp42
 70
1
102
RTVSPropertyOp43
 70
1
102
RTVSPropertyOp44
 70
1
102
RTVSPropertyOp45
 70
1
102
RTVSPropertyOp46
 70
1
102
RTVSPropertyOp47
 70
1
102
RTVSPropertyOp48
 70
1
102
RTVSPropertyOp49
 70
1
102
RTVSPropertyOp50
 70
1
102
RTVSPropertyOp51
 70
0
102
RTVSPropertyOp52
 70
0
102
RTVSPropertyOp53
 70
1
102
RTVSPropertyOp54
 70
1
102
RTVSPropertyOp55
 70
1
102
RTVSPropertyOp56
 70
1
102
RTVSPropertyOp57
 70
1
102
RTVSPropertyOp58
 70
1
102
RTVSPropertyOp59
 70
1
102
RTVSPropertyOp60
 70
1
102
RTVSPropertyOp61
 70
1
102
RTVSPropertyOp62
 70
1
  0
XRECORD
  5
A66
102
{ACAD_REACTORS
330
A65
102
}
330
A65
100
AcDbXrecord
280
1
102
RTVSPost2010Prop28
280
0
102
RTVSPost2010PropOp28
 70
1
102
RTVSPost2010Prop29
280
1
102
RTVSPost2010PropOp29
 70
1
102
RTVSPost2010Prop30
280
1
102
RTVSPost2010PropOp30
 70
1
102
RTVSPost2010Prop31
280
0
102
RTVSPost2010PropOp31
 70
1
102
RTVSPost2010Prop32
280
0
102
RTVSPost2010PropOp32
 70
1
102
RTVSPost2010Prop33
280
0
102
RTVSPost2010PropOp33
 70
1
102
RTVSPost2010Prop34
280
0
102
RTVSPost2010PropOp34
 70
1
102
RTVSPost2010Prop35
280
0
102
RTVSPost2010PropOp35
 70
1
102
RTVSPost2010Prop36
280
0
102
RTVSPost2010PropOp36
 70
1
102
RTVSPost2010Prop37
 90
50
102
RTVSPost2010PropOp37
 70
1
102
RTVSPost2010Prop38
140
0.0
102
RTVSPost2010PropOp38
 70
1
102
RTVSPost2010Prop39
140
1.0
102
RTVSPost2010PropOp39
 70
1
102
RTVSPost2010Prop40
 90
0
102
RTVSPost2010PropOp40
 70
1
102
RTVSPost2010Prop41ColorIndex
 90
18
102
RTVSPost2010Prop41ColorRGB
 90
0
102
RTVSPost2010PropOp41
 70
1
102
RTVSPost2010Prop42
 90
50
102
RTVSPost2010PropOp42
 70
1
102
RTVSPost2010Prop43
 90
3
102
RTVSPost2010PropOp43
 70
1
102
RTVSPost2010Prop44ColorIndex
 90
5
102
RTVSPost2010Prop44ColorRGB
 90
255
102
RTVSPost2010PropOp44
 70
1
102
RTVSPost2010Prop45
280
0
102
RTVSPost2010PropOp45
 70
1
102
RTVSPost2010Prop46
 90
50
102
RTVSPost2010PropOp46
 70
1
102
RTVSPost2010Prop47
 90
50
102
RTVSPost2010PropOp47
 70
1
102
RTVSPost2010Prop48
 90
50
102
RTVSPost2010PropOp48
 70
1
102
RTVSPost2010Prop49
280
0
102
RTVSPost2010PropOp49
 70
1
102
RTVSPost2010Prop50
 90
50
102
RTVSPost2010PropOp50
 70
1
102
RTVSPost2010Prop51ColorIndex
 90
256
102
RTVSPost2010Prop51ColorRGB
 90
-16777216
102
RTVSPost2010PropOp51
 70
0
102
RTVSPost2010Prop52
140
1.0
102
RTVSPost2010PropOp52
 70
0
102
RTVSPost2010Prop53
 90
2
102
RTVSPost2010PropOp53
 70
1
102
RTVSPost2010Prop54
  1
strokes_ogs.tif
102
RTVSPost2010PropOp54
 70
1
102
RTVSPost2010Prop55
280
0
102
RTVSPost2010PropOp55
 70
1
102
RTVSPost2010Prop56
140
1.0
102
RTVSPost2010PropOp56
 70
1
102
RTVSPost2010Prop57
140
1.0
102
RTVSPost2010PropOp57
 70
1
102
RTVSPropertyOp0
 70
1
102
RTVSPropertyOp1
 70
1
102
RTVSPropertyOp2
 70
1
102
RTVSPropertyOp3
 70
1
102
RTVSPropertyOp4
 70
1
102
RTVSPropertyOp5
 70
1
102
RTVSPropertyOp6
 70
1
102
RTVSPropertyOp7
 70
1
102
RTVSPropertyOp8
 70
1
102
RTVSPropertyOp9
 70
1
102
RTVSPropertyOp10
 70
1
102
RTVSPropertyOp11
 70
1
102
RTVSPropertyOp12
 70
1
102
RTVSPropertyOp13
 70
1
102
RTVSPropertyOp14
 70
1
102
RTVSPropertyOp15
 70
1
102
RTVSPropertyOp16
 70
1
102
RTVSPropertyOp17
 70
1
102
RTVSPropertyOp18
 70
1
102
RTVSPropertyOp19
 70
1
102
RTVSPropertyOp20
 70
1
102
RTVSPropertyOp21
 70
1
102
RTVSPropertyOp22
 70
1
102
RTVSPropertyOp23
 70
1
102
RTVSPropertyOp24
 70
1
102
RTVSPropertyOp25
 70
1
102
RTVSPropertyOp26
 70
1
102
RTVSPropertyOp27
 70
1
102
RTVSPropertyOp28
 70
1
102
RTVSPropertyOp29
 70
1
102
RTVSPropertyOp30
 70
1
102
RTVSPropertyOp31
 70
1
102
RTVSPropertyOp32
 70
1
102
RTVSPropertyOp33
 70
1
102
RTVSPropertyOp34
 70
1
102
RTVSPropertyOp35
 70
1
102
RTVSPropertyOp36
 70
1
102
RTVSPropertyOp37
 70
1
102
RTVSPropertyOp38
 70
1
102
RTVSPropertyOp39
 70
1
102
RTVSPropertyOp40
 70
1
102
RTVSPropertyOp41
 70
1
102
RTVSPropertyOp42
 70
1
102
RTVSPropertyOp43
 70
1
102
RTVSPropertyOp44
 70
1
102
RTVSPropertyOp45
 70
1
102
RTVSPropertyOp46
 70
1
102
RTVSPropertyOp47
 70
1
102
RTVSPropertyOp48
 70
1
102
RTVSPropertyOp49
 70
1
102
RTVSPropertyOp50
 70
1
102
RTVSPropertyOp51
 70
0
102
RTVSPropertyOp52
 70
0
102
RTVSPropertyOp53
 70
1
102
RTVSPropertyOp54
 70
1
102
RTVSPropertyOp55
 70
1
102
RTVSPropertyOp56
 70
1
102
RTVSPropertyOp57
 70
1
102
RTVSPropertyOp58
 70
1
102
RTVSPropertyOp59
 70
1
102
RTVSPropertyOp60
 70
1
102
RTVSPropertyOp61
 70
1
102
RTVSPropertyOp62
 70
1
  0
XRECORD
  5
A68
102
{ACAD_REACTORS
330
A67
102
}
330
A67
100
AcDbXrecord
280
1
102
RTVSPost2010Prop28
280
0
102
RTVSPost2010PropOp28
 70
1
102
RTVSPost2010Prop29
280
1
102
RTVSPost2010PropOp29
 70
1
102
RTVSPost2010Prop30
280
1
102
RTVSPost2010PropOp30
 70
1
102
RTVSPost2010Prop31
280
0
102
RTVSPost2010PropOp31
 70
1
102
RTVSPost2010Prop32
280
0
102
RTVSPost2010PropOp32
 70
1
102
RTVSPost2010Prop33
280
0
102
RTVSPost2010PropOp33
 70
1
102
RTVSPost2010Prop34
280
0
102
RTVSPost2010PropOp34
 70
1
102
RTVSPost2010Prop35
280
0
102
RTVSPost2010PropOp35
 70
1
102
RTVSPost2010Prop36
280
0
102
RTVSPost2010PropOp36
 70
1
102
RTVSPost2010Prop37
 90
50
102
RTVSPost2010PropOp37
 70
1
102
RTVSPost2010Prop38
140
0.0
102
RTVSPost2010PropOp38
 70
1
102
RTVSPost2010Prop39
140
1.0
102
RTVSPost2010PropOp39
 70
1
102
RTVSPost2010Prop40
 90
0
102
RTVSPost2010PropOp40
 70
1
102
RTVSPost2010Prop41ColorIndex
 90
18
102
RTVSPost2010Prop41ColorRGB
 90
0
102
RTVSPost2010PropOp41
 70
1
102
RTVSPost2010Prop42
 90
50
102
RTVSPost2010PropOp42
 70
1
102
RTVSPost2010Prop43
 90
3
102
RTVSPost2010PropOp43
 70
1
102
RTVSPost2010Prop44ColorIndex
 90
5
102
RTVSPost2010Prop44ColorRGB
 90
255
102
RTVSPost2010PropOp44
 70
1
102
RTVSPost2010Prop45
280
0
102
RTVSPost2010PropOp45
 70
1
102
RTVSPost2010Prop46
 90
50
102
RTVSPost2010PropOp46
 70
1
102
RTVSPost2010Prop47
 90
50
102
RTVSPost2010PropOp47
 70
1
102
RTVSPost2010Prop48
 90
50
102
RTVSPost2010PropOp48
 70
1
102
RTVSPost2010Prop49
280
0
102
RTVSPost2010PropOp49
 70
1
102
RTVSPost2010Prop50
 90
50
102
RTVSPost2010PropOp50
 70
1
102
RTVSPost2010Prop51ColorIndex
 90
256
102
RTVSPost2010Prop51ColorRGB
 90
-16777216
102
RTVSPost2010PropOp51
 70
0
102
RTVSPost2010Prop52
140
1.0
102
RTVSPost2010PropOp52
 70
0
102
RTVSPost2010Prop53
 90
2
102
RTVSPost2010PropOp53
 70
1
102
RTVSPost2010Prop54
  1
strokes_ogs.tif
102
RTVSPost2010PropOp54
 70
1
102
RTVSPost2010Prop55
280
0
102
RTVSPost2010PropOp55
 70
1
102
RTVSPost2010Prop56
140
1.0
102
RTVSPost2010PropOp56
 70
1
102
RTVSPost2010Prop57
140
1.0
102
RTVSPost2010PropOp57
 70
1
102
RTVSPropertyOp0
 70
1
102
RTVSPropertyOp1
 70
1
102
RTVSPropertyOp2
 70
1
102
RTVSPropertyOp3
 70
1
102
RTVSPropertyOp4
 70
1
102
RTVSPropertyOp5
 70
1
102
RTVSPropertyOp6
 70
1
102
RTVSPropertyOp7
 70
1
102
RTVSPropertyOp8
 70
1
102
RTVSPropertyOp9
 70
1
102
RTVSPropertyOp10
 70
1
102
RTVSPropertyOp11
 70
1
102
RTVSPropertyOp12
 70
1
102
RTVSPropertyOp13
 70
1
102
RTVSPropertyOp14
 70
1
102
RTVSPropertyOp15
 70
1
102
RTVSPropertyOp16
 70
1
102
RTVSPropertyOp17
 70
1
102
RTVSPropertyOp18
 70
1
102
RTVSPropertyOp19
 70
1
102
RTVSPropertyOp20
 70
1
102
RTVSPropertyOp21
 70
1
102
RTVSPropertyOp22
 70
1
102
RTVSPropertyOp23
 70
1
102
RTVSPropertyOp24
 70
1
102
RTVSPropertyOp25
 70
1
102
RTVSPropertyOp26
 70
1
102
RTVSPropertyOp27
 70
1
102
RTVSPropertyOp28
 70
1
102
RTVSPropertyOp29
 70
1
102
RTVSPropertyOp30
 70
1
102
RTVSPropertyOp31
 70
1
102
RTVSPropertyOp32
 70
1
102
RTVSPropertyOp33
 70
1
102
RTVSPropertyOp34
 70
1
102
RTVSPropertyOp35
 70
1
102
RTVSPropertyOp36
 70
1
102
RTVSPropertyOp37
 70
1
102
RTVSPropertyOp38
 70
1
102
RTVSPropertyOp39
 70
1
102
RTVSPropertyOp40
 70
1
102
RTVSPropertyOp41
 70
1
102
RTVSPropertyOp42
 70
1
102
RTVSPropertyOp43
 70
1
102
RTVSPropertyOp44
 70
1
102
RTVSPropertyOp45
 70
1
102
RTVSPropertyOp46
 70
1
102
RTVSPropertyOp47
 70
1
102
RTVSPropertyOp48
 70
1
102
RTVSPropertyOp49
 70
1
102
RTVSPropertyOp50
 70
1
102
RTVSPropertyOp51
 70
0
102
RTVSPropertyOp52
 70
0
102
RTVSPropertyOp53
 70
1
102
RTVSPropertyOp54
 70
1
102
RTVSPropertyOp55
 70
1
102
RTVSPropertyOp56
 70
1
102
RTVSPropertyOp57
 70
1
102
RTVSPropertyOp58
 70
1
102
RTVSPropertyOp59
 70
1
102
RTVSPropertyOp60
 70
1
102
RTVSPropertyOp61
 70
1
102
RTVSPropertyOp62
 70
1
  0
XRECORD
  5
A6A
102
{ACAD_REACTORS
330
A69
102
}
330
A69
100
AcDbXrecord
280
1
102
RTVSPost2010Prop28
280
0
102
RTVSPost2010PropOp28
 70
1
102
RTVSPost2010Prop29
280
1
102
RTVSPost2010PropOp29
 70
1
102
RTVSPost2010Prop30
280
1
102
RTVSPost2010PropOp30
 70
1
102
RTVSPost2010Prop31
280
0
102
RTVSPost2010PropOp31
 70
1
102
RTVSPost2010Prop32
280
0
102
RTVSPost2010PropOp32
 70
1
102
RTVSPost2010Prop33
280
0
102
RTVSPost2010PropOp33
 70
1
102
RTVSPost2010Prop34
280
0
102
RTVSPost2010PropOp34
 70
1
102
RTVSPost2010Prop35
280
0
102
RTVSPost2010PropOp35
 70
1
102
RTVSPost2010Prop36
280
0
102
RTVSPost2010PropOp36
 70
1
102
RTVSPost2010Prop37
 90
50
102
RTVSPost2010PropOp37
 70
1
102
RTVSPost2010Prop38
140
0.0
102
RTVSPost2010PropOp38
 70
1
102
RTVSPost2010Prop39
140
1.0
102
RTVSPost2010PropOp39
 70
1
102
RTVSPost2010Prop40
 90
0
102
RTVSPost2010PropOp40
 70
1
102
RTVSPost2010Prop41ColorIndex
 90
18
102
RTVSPost2010Prop41ColorRGB
 90
0
102
RTVSPost2010PropOp41
 70
1
102
RTVSPost2010Prop42
 90
50
102
RTVSPost2010PropOp42
 70
1
102
RTVSPost2010Prop43
 90
3
102
RTVSPost2010PropOp43
 70
1
102
RTVSPost2010Prop44ColorIndex
 90
5
102
RTVSPost2010Prop44ColorRGB
 90
255
102
RTVSPost2010PropOp44
 70
1
102
RTVSPost2010Prop45
280
0
102
RTVSPost2010PropOp45
 70
1
102
RTVSPost2010Prop46
 90
50
102
RTVSPost2010PropOp46
 70
1
102
RTVSPost2010Prop47
 90
50
102
RTVSPost2010PropOp47
 70
1
102
RTVSPost2010Prop48
 90
50
102
RTVSPost2010PropOp48
 70
1
102
RTVSPost2010Prop49
280
0
102
RTVSPost2010PropOp49
 70
1
102
RTVSPost2010Prop50
 90
50
102
RTVSPost2010PropOp50
 70
1
102
RTVSPost2010Prop51ColorIndex
 90
256
102
RTVSPost2010Prop51ColorRGB
 90
-16777216
102
RTVSPost2010PropOp51
 70
0
102
RTVSPost2010Prop52
140
1.0
102
RTVSPost2010PropOp52
 70
0
102
RTVSPost2010Prop53
 90
2
102
RTVSPost2010PropOp53
 70
1
102
RTVSPost2010Prop54
  1
strokes_ogs.tif
102
RTVSPost2010PropOp54
 70
1
102
RTVSPost2010Prop55
280
0
102
RTVSPost2010PropOp55
 70
1
102
RTVSPost2010Prop56
140
1.0
102
RTVSPost2010PropOp56
 70
1
102
RTVSPost2010Prop57
140
1.0
102
RTVSPost2010PropOp57
 70
1
102
RTVSPropertyOp0
 70
1
102
RTVSPropertyOp1
 70
1
102
RTVSPropertyOp2
 70
1
102
RTVSPropertyOp3
 70
1
102
RTVSPropertyOp4
 70
1
102
RTVSPropertyOp5
 70
1
102
RTVSPropertyOp6
 70
1
102
RTVSPropertyOp7
 70
1
102
RTVSPropertyOp8
 70
1
102
RTVSPropertyOp9
 70
1
102
RTVSPropertyOp10
 70
1
102
RTVSPropertyOp11
 70
1
102
RTVSPropertyOp12
 70
1
102
RTVSPropertyOp13
 70
1
102
RTVSPropertyOp14
 70
1
102
RTVSPropertyOp15
 70
1
102
RTVSPropertyOp16
 70
1
102
RTVSPropertyOp17
 70
1
102
RTVSPropertyOp18
 70
1
102
RTVSPropertyOp19
 70
1
102
RTVSPropertyOp20
 70
1
102
RTVSPropertyOp21
 70
1
102
RTVSPropertyOp22
 70
1
102
RTVSPropertyOp23
 70
1
102
RTVSPropertyOp24
 70
1
102
RTVSPropertyOp25
 70
1
102
RTVSPropertyOp26
 70
1
102
RTVSPropertyOp27
 70
1
102
RTVSPropertyOp28
 70
1
102
RTVSPropertyOp29
 70
1
102
RTVSPropertyOp30
 70
1
102
RTVSPropertyOp31
 70
1
102
RTVSPropertyOp32
 70
1
102
RTVSPropertyOp33
 70
1
102
RTVSPropertyOp34
 70
1
102
RTVSPropertyOp35
 70
1
102
RTVSPropertyOp36
 70
1
102
RTVSPropertyOp37
 70
1
102
RTVSPropertyOp38
 70
1
102
RTVSPropertyOp39
 70
1
102
RTVSPropertyOp40
 70
1
102
RTVSPropertyOp41
 70
1
102
RTVSPropertyOp42
 70
1
102
RTVSPropertyOp43
 70
1
102
RTVSPropertyOp44
 70
1
102
RTVSPropertyOp45
 70
1
102
RTVSPropertyOp46
 70
1
102
RTVSPropertyOp47
 70
1
102
RTVSPropertyOp48
 70
1
102
RTVSPropertyOp49
 70
1
102
RTVSPropertyOp50
 70
1
102
RTVSPropertyOp51
 70
0
102
RTVSPropertyOp52
 70
0
102
RTVSPropertyOp53
 70
1
102
RTVSPropertyOp54
 70
1
102
RTVSPropertyOp55
 70
1
102
RTVSPropertyOp56
 70
1
102
RTVSPropertyOp57
 70
1
102
RTVSPropertyOp58
 70
1
102
RTVSPropertyOp59
 70
1
102
RTVSPropertyOp60
 70
1
102
RTVSPropertyOp61
 70
1
102
RTVSPropertyOp62
 70
1
  0
XRECORD
  5
A72
102
{ACAD_REACTORS
330
A71
102
}
330
A71
100
AcDbXrecord
280
1
102
RTVSPost2010Prop28
280
0
102
RTVSPost2010PropOp28
 70
1
102
RTVSPost2010Prop29
280
1
102
RTVSPost2010PropOp29
 70
1
102
RTVSPost2010Prop30
280
1
102
RTVSPost2010PropOp30
 70
1
102
RTVSPost2010Prop31
280
0
102
RTVSPost2010PropOp31
 70
1
102
RTVSPost2010Prop32
280
0
102
RTVSPost2010PropOp32
 70
1
102
RTVSPost2010Prop33
280
0
102
RTVSPost2010PropOp33
 70
1
102
RTVSPost2010Prop34
280
0
102
RTVSPost2010PropOp34
 70
1
102
RTVSPost2010Prop35
280
0
102
RTVSPost2010PropOp35
 70
1
102
RTVSPost2010Prop36
280
0
102
RTVSPost2010PropOp36
 70
1
102
RTVSPost2010Prop37
 90
50
102
RTVSPost2010PropOp37
 70
1
102
RTVSPost2010Prop38
140
0.0
102
RTVSPost2010PropOp38
 70
1
102
RTVSPost2010Prop39
140
1.0
102
RTVSPost2010PropOp39
 70
1
102
RTVSPost2010Prop40
 90
0
102
RTVSPost2010PropOp40
 70
1
102
RTVSPost2010Prop41ColorIndex
 90
18
102
RTVSPost2010Prop41ColorRGB
 90
0
102
RTVSPost2010PropOp41
 70
1
102
RTVSPost2010Prop42
 90
50
102
RTVSPost2010PropOp42
 70
1
102
RTVSPost2010Prop43
 90
3
102
RTVSPost2010PropOp43
 70
1
102
RTVSPost2010Prop44ColorIndex
 90
5
102
RTVSPost2010Prop44ColorRGB
 90
255
102
RTVSPost2010PropOp44
 70
1
102
RTVSPost2010Prop45
280
0
102
RTVSPost2010PropOp45
 70
1
102
RTVSPost2010Prop46
 90
50
102
RTVSPost2010PropOp46
 70
1
102
RTVSPost2010Prop47
 90
50
102
RTVSPost2010PropOp47
 70
1
102
RTVSPost2010Prop48
 90
50
102
RTVSPost2010PropOp48
 70
1
102
RTVSPost2010Prop49
280
0
102
RTVSPost2010PropOp49
 70
1
102
RTVSPost2010Prop50
 90
50
102
RTVSPost2010PropOp50
 70
1
102
RTVSPost2010Prop51ColorIndex
 90
256
102
RTVSPost2010Prop51ColorRGB
 90
-16777216
102
RTVSPost2010PropOp51
 70
0
102
RTVSPost2010Prop52
140
1.0
102
RTVSPost2010PropOp52
 70
0
102
RTVSPost2010Prop53
 90
2
102
RTVSPost2010PropOp53
 70
1
102
RTVSPost2010Prop54
  1
strokes_ogs.tif
102
RTVSPost2010PropOp54
 70
1
102
RTVSPost2010Prop55
280
0
102
RTVSPost2010PropOp55
 70
1
102
RTVSPost2010Prop56
140
1.0
102
RTVSPost2010PropOp56
 70
1
102
RTVSPost2010Prop57
140
1.0
102
RTVSPost2010PropOp57
 70
1
102
RTVSPropertyOp0
 70
1
102
RTVSPropertyOp1
 70
1
102
RTVSPropertyOp2
 70
1
102
RTVSPropertyOp3
 70
1
102
RTVSPropertyOp4
 70
1
102
RTVSPropertyOp5
 70
1
102
RTVSPropertyOp6
 70
1
102
RTVSPropertyOp7
 70
1
102
RTVSPropertyOp8
 70
1
102
RTVSPropertyOp9
 70
1
102
RTVSPropertyOp10
 70
1
102
RTVSPropertyOp11
 70
1
102
RTVSPropertyOp12
 70
1
102
RTVSPropertyOp13
 70
1
102
RTVSPropertyOp14
 70
1
102
RTVSPropertyOp15
 70
1
102
RTVSPropertyOp16
 70
1
102
RTVSPropertyOp17
 70
1
102
RTVSPropertyOp18
 70
1
102
RTVSPropertyOp19
 70
1
102
RTVSPropertyOp20
 70
1
102
RTVSPropertyOp21
 70
1
102
RTVSPropertyOp22
 70
1
102
RTVSPropertyOp23
 70
1
102
RTVSPropertyOp24
 70
1
102
RTVSPropertyOp25
 70
1
102
RTVSPropertyOp26
 70
1
102
RTVSPropertyOp27
 70
1
102
RTVSPropertyOp28
 70
1
102
RTVSPropertyOp29
 70
1
102
RTVSPropertyOp30
 70
1
102
RTVSPropertyOp31
 70
1
102
RTVSPropertyOp32
 70
1
102
RTVSPropertyOp33
 70
1
102
RTVSPropertyOp34
 70
1
102
RTVSPropertyOp35
 70
1
102
RTVSPropertyOp36
 70
1
102
RTVSPropertyOp37
 70
1
102
RTVSPropertyOp38
 70
1
102
RTVSPropertyOp39
 70
1
102
RTVSPropertyOp40
 70
1
102
RTVSPropertyOp41
 70
1
102
RTVSPropertyOp42
 70
1
102
RTVSPropertyOp43
 70
1
102
RTVSPropertyOp44
 70
1
102
RTVSPropertyOp45
 70
1
102
RTVSPropertyOp46
 70
1
102
RTVSPropertyOp47
 70
1
102
RTVSPropertyOp48
 70
1
102
RTVSPropertyOp49
 70
1
102
RTVSPropertyOp50
 70
1
102
RTVSPropertyOp51
 70
0
102
RTVSPropertyOp52
 70
0
102
RTVSPropertyOp53
 70
1
102
RTVSPropertyOp54
 70
1
102
RTVSPropertyOp55
 70
1
102
RTVSPropertyOp56
 70
1
102
RTVSPropertyOp57
 70
1
102
RTVSPropertyOp58
 70
1
102
RTVSPropertyOp59
 70
1
102
RTVSPropertyOp60
 70
1
102
RTVSPropertyOp61
 70
1
102
RTVSPropertyOp62
 70
1
  0
XRECORD
  5
A8E
102
{ACAD_REACTORS
330
A8D
102
}
330
A8D
100
AcDbXrecord
280
1
102
RTVSPost2010Prop28
280
0
102
RTVSPost2010PropOp28
 70
1
102
RTVSPost2010Prop29
280
1
102
RTVSPost2010PropOp29
 70
1
102
RTVSPost2010Prop30
280
1
102
RTVSPost2010PropOp30
 70
1
102
RTVSPost2010Prop31
280
0
102
RTVSPost2010PropOp31
 70
1
102
RTVSPost2010Prop32
280
0
102
RTVSPost2010PropOp32
 70
1
102
RTVSPost2010Prop33
280
0
102
RTVSPost2010PropOp33
 70
1
102
RTVSPost2010Prop34
280
0
102
RTVSPost2010PropOp34
 70
1
102
RTVSPost2010Prop35
280
0
102
RTVSPost2010PropOp35
 70
1
102
RTVSPost2010Prop36
280
0
102
RTVSPost2010PropOp36
 70
1
102
RTVSPost2010Prop37
 90
50
102
RTVSPost2010PropOp37
 70
0
102
RTVSPost2010Prop38
140
0.0
102
RTVSPost2010PropOp38
 70
0
102
RTVSPost2010Prop39
140
1.0
102
RTVSPost2010PropOp39
 70
0
102
RTVSPost2010Prop40
 90
0
102
RTVSPost2010PropOp40
 70
0
102
RTVSPost2010Prop41ColorIndex
 90
18
102
RTVSPost2010Prop41ColorRGB
 90
0
102
RTVSPost2010PropOp41
 70
0
102
RTVSPost2010Prop42
 90
50
102
RTVSPost2010PropOp42
 70
0
102
RTVSPost2010Prop43
 90
3
102
RTVSPost2010PropOp43
 70
0
102
RTVSPost2010Prop44ColorIndex
 90
5
102
RTVSPost2010Prop44ColorRGB
 90
255
102
RTVSPost2010PropOp44
 70
0
102
RTVSPost2010Prop45
280
0
102
RTVSPost2010PropOp45
 70
1
102
RTVSPost2010Prop46
 90
50
102
RTVSPost2010PropOp46
 70
0
102
RTVSPost2010Prop47
 90
50
102
RTVSPost2010PropOp47
 70
0
102
RTVSPost2010Prop48
 90
50
102
RTVSPost2010PropOp48
 70
0
102
RTVSPost2010Prop49
280
0
102
RTVSPost2010PropOp49
 70
1
102
RTVSPost2010Prop50
 90
50
102
RTVSPost2010PropOp50
 70
0
102
RTVSPost2010Prop51ColorIndex
 90
256
102
RTVSPost2010Prop51ColorRGB
 90
-16777216
102
RTVSPost2010PropOp51
 70
0
102
RTVSPost2010Prop52
140
1.0
102
RTVSPost2010PropOp52
 70
0
102
RTVSPost2010Prop53
 90
2
102
RTVSPost2010PropOp53
 70
0
102
RTVSPost2010Prop54
  1
strokes_ogs.tif
102
RTVSPost2010PropOp54
 70
0
102
RTVSPost2010Prop55
280
0
102
RTVSPost2010PropOp55
 70
1
102
RTVSPost2010Prop56
140
1.0
102
RTVSPost2010PropOp56
 70
0
102
RTVSPost2010Prop57
140
1.0
102
RTVSPost2010PropOp57
 70
0
102
RTVSPropertyOp0
 70
0
102
RTVSPropertyOp1
 70
0
102
RTVSPropertyOp2
 70
0
102
RTVSPropertyOp3
 70
0
102
RTVSPropertyOp4
 70
0
102
RTVSPropertyOp5
 70
0
102
RTVSPropertyOp6
 70
0
102
RTVSPropertyOp7
 70
0
102
RTVSPropertyOp8
 70
0
102
RTVSPropertyOp9
 70
0
102
RTVSPropertyOp10
 70
0
102
RTVSPropertyOp11
 70
0
102
RTVSPropertyOp12
 70
0
102
RTVSPropertyOp13
 70
0
102
RTVSPropertyOp14
 70
2
102
RTVSPropertyOp15
 70
0
102
RTVSPropertyOp16
 70
0
102
RTVSPropertyOp17
 70
0
102
RTVSPropertyOp18
 70
0
102
RTVSPropertyOp19
 70
0
102
RTVSPropertyOp20
 70
0
102
RTVSPropertyOp21
 70
0
102
RTVSPropertyOp22
 70
0
102
RTVSPropertyOp23
 70
0
102
RTVSPropertyOp24
 70
0
102
RTVSPropertyOp25
 70
0
102
RTVSPropertyOp26
 70
0
102
RTVSPropertyOp27
 70
0
102
RTVSPropertyOp28
 70
1
102
RTVSPropertyOp29
 70
1
102
RTVSPropertyOp30
 70
1
102
RTVSPropertyOp31
 70
1
102
RTVSPropertyOp32
 70
1
102
RTVSPropertyOp33
 70
1
102
RTVSPropertyOp34
 70
1
102
RTVSPropertyOp35
 70
1
102
RTVSPropertyOp36
 70
1
102
RTVSPropertyOp37
 70
0
102
RTVSPropertyOp38
 70
0
102
RTVSPropertyOp39
 70
0
102
RTVSPropertyOp40
 70
0
102
RTVSPropertyOp41
 70
0
102
RTVSPropertyOp42
 70
0
102
RTVSPropertyOp43
 70
0
102
RTVSPropertyOp44
 70
0
102
RTVSPropertyOp45
 70
1
102
RTVSPropertyOp46
 70
0
102
RTVSPropertyOp47
 70
0
102
RTVSPropertyOp48
 70
0
102
RTVSPropertyOp49
 70
1
102
RTVSPropertyOp50
 70
0
102
RTVSPropertyOp51
 70
0
102
RTVSPropertyOp52
 70
0
102
RTVSPropertyOp53
 70
0
102
RTVSPropertyOp54
 70
0
102
RTVSPropertyOp55
 70
1
102
RTVSPropertyOp56
 70
0
102
RTVSPropertyOp57
 70
0
102
RTVSPropertyOp58
 70
0
102
RTVSPropertyOp59
 70
0
102
RTVSPropertyOp60
 70
0
102
RTVSPropertyOp61
 70
0
102
RTVSPropertyOp62
 70
0
  0
XRECORD
  5
A7E
102
{ACAD_REACTORS
330
A7D
102
}
330
A7D
100
AcDbXrecord
280
1
102
RTVSPost2010Prop28
280
0
102
RTVSPost2010PropOp28
 70
1
102
RTVSPost2010Prop29
280
1
102
RTVSPost2010PropOp29
 70
1
102
RTVSPost2010Prop30
280
1
102
RTVSPost2010PropOp30
 70
1
102
RTVSPost2010Prop31
280
0
102
RTVSPost2010PropOp31
 70
1
102
RTVSPost2010Prop32
280
0
102
RTVSPost2010PropOp32
 70
1
102
RTVSPost2010Prop33
280
0
102
RTVSPost2010PropOp33
 70
1
102
RTVSPost2010Prop34
280
0
102
RTVSPost2010PropOp34
 70
1
102
RTVSPost2010Prop35
280
0
102
RTVSPost2010PropOp35
 70
1
102
RTVSPost2010Prop36
280
0
102
RTVSPost2010PropOp36
 70
1
102
RTVSPost2010Prop37
 90
50
102
RTVSPost2010PropOp37
 70
1
102
RTVSPost2010Prop38
140
0.0
102
RTVSPost2010PropOp38
 70
1
102
RTVSPost2010Prop39
140
1.0
102
RTVSPost2010PropOp39
 70
1
102
RTVSPost2010Prop40
 90
0
102
RTVSPost2010PropOp40
 70
1
102
RTVSPost2010Prop41ColorIndex
 90
18
102
RTVSPost2010Prop41ColorRGB
 90
0
102
RTVSPost2010PropOp41
 70
1
102
RTVSPost2010Prop42
 90
50
102
RTVSPost2010PropOp42
 70
1
102
RTVSPost2010Prop43
 90
3
102
RTVSPost2010PropOp43
 70
1
102
RTVSPost2010Prop44ColorIndex
 90
5
102
RTVSPost2010Prop44ColorRGB
 90
255
102
RTVSPost2010PropOp44
 70
1
102
RTVSPost2010Prop45
280
0
102
RTVSPost2010PropOp45
 70
1
102
RTVSPost2010Prop46
 90
50
102
RTVSPost2010PropOp46
 70
1
102
RTVSPost2010Prop47
 90
50
102
RTVSPost2010PropOp47
 70
1
102
RTVSPost2010Prop48
 90
50
102
RTVSPost2010PropOp48
 70
1
102
RTVSPost2010Prop49
280
0
102
RTVSPost2010PropOp49
 70
1
102
RTVSPost2010Prop50
 90
50
102
RTVSPost2010PropOp50
 70
1
102
RTVSPost2010Prop51ColorIndex
 90
256
102
RTVSPost2010Prop51ColorRGB
 90
-16777216
102
RTVSPost2010PropOp51
 70
0
102
RTVSPost2010Prop52
140
1.0
102
RTVSPost2010PropOp52
 70
0
102
RTVSPost2010Prop53
 90
2
102
RTVSPost2010PropOp53
 70
1
102
RTVSPost2010Prop54
  1
strokes_ogs.tif
102
RTVSPost2010PropOp54
 70
1
102
RTVSPost2010Prop55
280
0
102
RTVSPost2010PropOp55
 70
1
102
RTVSPost2010Prop56
140
1.0
102
RTVSPost2010PropOp56
 70
1
102
RTVSPost2010Prop57
140
1.0
102
RTVSPost2010PropOp57
 70
1
102
RTVSPropertyOp0
 70
1
102
RTVSPropertyOp1
 70
1
102
RTVSPropertyOp2
 70
1
102
RTVSPropertyOp3
 70
1
102
RTVSPropertyOp4
 70
1
102
RTVSPropertyOp5
 70
1
102
RTVSPropertyOp6
 70
1
102
RTVSPropertyOp7
 70
1
102
RTVSPropertyOp8
 70
1
102
RTVSPropertyOp9
 70
1
102
RTVSPropertyOp10
 70
1
102
RTVSPropertyOp11
 70
1
102
RTVSPropertyOp12
 70
1
102
RTVSPropertyOp13
 70
1
102
RTVSPropertyOp14
 70
1
102
RTVSPropertyOp15
 70
1
102
RTVSPropertyOp16
 70
1
102
RTVSPropertyOp17
 70
1
102
RTVSPropertyOp18
 70
1
102
RTVSPropertyOp19
 70
1
102
RTVSPropertyOp20
 70
1
102
RTVSPropertyOp21
 70
1
102
RTVSPropertyOp22
 70
1
102
RTVSPropertyOp23
 70
1
102
RTVSPropertyOp24
 70
1
102
RTVSPropertyOp25
 70
1
102
RTVSPropertyOp26
 70
1
102
RTVSPropertyOp27
 70
1
102
RTVSPropertyOp28
 70
1
102
RTVSPropertyOp29
 70
1
102
RTVSPropertyOp30
 70
1
102
RTVSPropertyOp31
 70
1
102
RTVSPropertyOp32
 70
1
102
RTVSPropertyOp33
 70
1
102
RTVSPropertyOp34
 70
1
102
RTVSPropertyOp35
 70
1
102
RTVSPropertyOp36
 70
1
102
RTVSPropertyOp37
 70
1
102
RTVSPropertyOp38
 70
1
102
RTVSPropertyOp39
 70
1
102
RTVSPropertyOp40
 70
1
102
RTVSPropertyOp41
 70
1
102
RTVSPropertyOp42
 70
1
102
RTVSPropertyOp43
 70
1
102
RTVSPropertyOp44
 70
1
102
RTVSPropertyOp45
 70
1
102
RTVSPropertyOp46
 70
1
102
RTVSPropertyOp47
 70
1
102
RTVSPropertyOp48
 70
1
102
RTVSPropertyOp49
 70
1
102
RTVSPropertyOp50
 70
1
102
RTVSPropertyOp51
 70
0
102
RTVSPropertyOp52
 70
0
102
RTVSPropertyOp53
 70
1
102
RTVSPropertyOp54
 70
1
102
RTVSPropertyOp55
 70
1
102
RTVSPropertyOp56
 70
1
102
RTVSPropertyOp57
 70
1
102
RTVSPropertyOp58
 70
1
102
RTVSPropertyOp59
 70
1
102
RTVSPropertyOp60
 70
1
102
RTVSPropertyOp61
 70
1
102
RTVSPropertyOp62
 70
1
  0
XRECORD
  5
A90
102
{ACAD_REACTORS
330
A8F
102
}
330
A8F
100
AcDbXrecord
280
1
102
RTVSPost2010Prop28
280
0
102
RTVSPost2010PropOp28
 70
1
102
RTVSPost2010Prop29
280
1
102
RTVSPost2010PropOp29
 70
1
102
RTVSPost2010Prop30
280
1
102
RTVSPost2010PropOp30
 70
1
102
RTVSPost2010Prop31
280
0
102
RTVSPost2010PropOp31
 70
1
102
RTVSPost2010Prop32
280
0
102
RTVSPost2010PropOp32
 70
1
102
RTVSPost2010Prop33
280
0
102
RTVSPost2010PropOp33
 70
1
102
RTVSPost2010Prop34
280
0
102
RTVSPost2010PropOp34
 70
1
102
RTVSPost2010Prop35
280
0
102
RTVSPost2010PropOp35
 70
1
102
RTVSPost2010Prop36
280
0
102
RTVSPost2010PropOp36
 70
1
102
RTVSPost2010Prop37
 90
50
102
RTVSPost2010PropOp37
 70
0
102
RTVSPost2010Prop38
140
0.0
102
RTVSPost2010PropOp38
 70
0
102
RTVSPost2010Prop39
140
1.0
102
RTVSPost2010PropOp39
 70
0
102
RTVSPost2010Prop40
 90
0
102
RTVSPost2010PropOp40
 70
0
102
RTVSPost2010Prop41ColorIndex
 90
18
102
RTVSPost2010Prop41ColorRGB
 90
0
102
RTVSPost2010PropOp41
 70
0
102
RTVSPost2010Prop42
 90
50
102
RTVSPost2010PropOp42
 70
0
102
RTVSPost2010Prop43
 90
3
102
RTVSPost2010PropOp43
 70
0
102
RTVSPost2010Prop44ColorIndex
 90
5
102
RTVSPost2010Prop44ColorRGB
 90
255
102
RTVSPost2010PropOp44
 70
0
102
RTVSPost2010Prop45
280
0
102
RTVSPost2010PropOp45
 70
1
102
RTVSPost2010Prop46
 90
50
102
RTVSPost2010PropOp46
 70
0
102
RTVSPost2010Prop47
 90
50
102
RTVSPost2010PropOp47
 70
0
102
RTVSPost2010Prop48
 90
50
102
RTVSPost2010PropOp48
 70
0
102
RTVSPost2010Prop49
280
0
102
RTVSPost2010PropOp49
 70
1
102
RTVSPost2010Prop50
 90
50
102
RTVSPost2010PropOp50
 70
0
102
RTVSPost2010Prop51ColorIndex
 90
256
102
RTVSPost2010Prop51ColorRGB
 90
-16777216
102
RTVSPost2010PropOp51
 70
0
102
RTVSPost2010Prop52
140
1.0
102
RTVSPost2010PropOp52
 70
0
102
RTVSPost2010Prop53
 90
2
102
RTVSPost2010PropOp53
 70
0
102
RTVSPost2010Prop54
  1
strokes_ogs.tif
102
RTVSPost2010PropOp54
 70
0
102
RTVSPost2010Prop55
280
0
102
RTVSPost2010PropOp55
 70
1
102
RTVSPost2010Prop56
140
1.0
102
RTVSPost2010PropOp56
 70
0
102
RTVSPost2010Prop57
140
1.0
102
RTVSPost2010PropOp57
 70
0
102
RTVSPropertyOp0
 70
0
102
RTVSPropertyOp1
 70
0
102
RTVSPropertyOp2
 70
0
102
RTVSPropertyOp3
 70
0
102
RTVSPropertyOp4
 70
0
102
RTVSPropertyOp5
 70
0
102
RTVSPropertyOp6
 70
0
102
RTVSPropertyOp7
 70
0
102
RTVSPropertyOp8
 70
0
102
RTVSPropertyOp9
 70
0
102
RTVSPropertyOp10
 70
0
102
RTVSPropertyOp11
 70
0
102
RTVSPropertyOp12
 70
0
102
RTVSPropertyOp13
 70
0
102
RTVSPropertyOp14
 70
2
102
RTVSPropertyOp15
 70
0
102
RTVSPropertyOp16
 70
0
102
RTVSPropertyOp17
 70
0
102
RTVSPropertyOp18
 70
0
102
RTVSPropertyOp19
 70
0
102
RTVSPropertyOp20
 70
0
102
RTVSPropertyOp21
 70
0
102
RTVSPropertyOp22
 70
0
102
RTVSPropertyOp23
 70
0
102
RTVSPropertyOp24
 70
0
102
RTVSPropertyOp25
 70
0
102
RTVSPropertyOp26
 70
0
102
RTVSPropertyOp27
 70
0
102
RTVSPropertyOp28
 70
1
102
RTVSPropertyOp29
 70
1
102
RTVSPropertyOp30
 70
1
102
RTVSPropertyOp31
 70
1
102
RTVSPropertyOp32
 70
1
102
RTVSPropertyOp33
 70
1
102
RTVSPropertyOp34
 70
1
102
RTVSPropertyOp35
 70
1
102
RTVSPropertyOp36
 70
1
102
RTVSPropertyOp37
 70
0
102
RTVSPropertyOp38
 70
0
102
RTVSPropertyOp39
 70
0
102
RTVSPropertyOp40
 70
0
102
RTVSPropertyOp41
 70
0
102
RTVSPropertyOp42
 70
0
102
RTVSPropertyOp43
 70
0
102
RTVSPropertyOp44
 70
0
102
RTVSPropertyOp45
 70
1
102
RTVSPropertyOp46
 70
0
102
RTVSPropertyOp47
 70
0
102
RTVSPropertyOp48
 70
0
102
RTVSPropertyOp49
 70
1
102
RTVSPropertyOp50
 70
0
102
RTVSPropertyOp51
 70
0
102
RTVSPropertyOp52
 70
0
102
RTVSPropertyOp53
 70
0
102
RTVSPropertyOp54
 70
0
102
RTVSPropertyOp55
 70
1
102
RTVSPropertyOp56
 70
0
102
RTVSPropertyOp57
 70
0
102
RTVSPropertyOp58
 70
0
102
RTVSPropertyOp59
 70
0
102
RTVSPropertyOp60
 70
0
102
RTVSPropertyOp61
 70
0
102
RTVSPropertyOp62
 70
0
  0
XRECORD
  5
A76
102
{ACAD_REACTORS
330
A75
102
}
330
A75
100
AcDbXrecord
280
1
102
RTVSPost2010Prop28
280
0
102
RTVSPost2010PropOp28
 70
1
102
RTVSPost2010Prop29
280
1
102
RTVSPost2010PropOp29
 70
1
102
RTVSPost2010Prop30
280
1
102
RTVSPost2010PropOp30
 70
1
102
RTVSPost2010Prop31
280
0
102
RTVSPost2010PropOp31
 70
1
102
RTVSPost2010Prop32
280
0
102
RTVSPost2010PropOp32
 70
1
102
RTVSPost2010Prop33
280
0
102
RTVSPost2010PropOp33
 70
1
102
RTVSPost2010Prop34
280
0
102
RTVSPost2010PropOp34
 70
1
102
RTVSPost2010Prop35
280
0
102
RTVSPost2010PropOp35
 70
1
102
RTVSPost2010Prop36
280
0
102
RTVSPost2010PropOp36
 70
1
102
RTVSPost2010Prop37
 90
50
102
RTVSPost2010PropOp37
 70
1
102
RTVSPost2010Prop38
140
0.0
102
RTVSPost2010PropOp38
 70
1
102
RTVSPost2010Prop39
140
1.0
102
RTVSPost2010PropOp39
 70
1
102
RTVSPost2010Prop40
 90
0
102
RTVSPost2010PropOp40
 70
1
102
RTVSPost2010Prop41ColorIndex
 90
18
102
RTVSPost2010Prop41ColorRGB
 90
0
102
RTVSPost2010PropOp41
 70
1
102
RTVSPost2010Prop42
 90
50
102
RTVSPost2010PropOp42
 70
1
102
RTVSPost2010Prop43
 90
3
102
RTVSPost2010PropOp43
 70
1
102
RTVSPost2010Prop44ColorIndex
 90
5
102
RTVSPost2010Prop44ColorRGB
 90
255
102
RTVSPost2010PropOp44
 70
1
102
RTVSPost2010Prop45
280
0
102
RTVSPost2010PropOp45
 70
1
102
RTVSPost2010Prop46
 90
50
102
RTVSPost2010PropOp46
 70
1
102
RTVSPost2010Prop47
 90
50
102
RTVSPost2010PropOp47
 70
1
102
RTVSPost2010Prop48
 90
50
102
RTVSPost2010PropOp48
 70
1
102
RTVSPost2010Prop49
280
0
102
RTVSPost2010PropOp49
 70
1
102
RTVSPost2010Prop50
 90
50
102
RTVSPost2010PropOp50
 70
1
102
RTVSPost2010Prop51ColorIndex
 90
256
102
RTVSPost2010Prop51ColorRGB
 90
-16777216
102
RTVSPost2010PropOp51
 70
0
102
RTVSPost2010Prop52
140
1.0
102
RTVSPost2010PropOp52
 70
0
102
RTVSPost2010Prop53
 90
2
102
RTVSPost2010PropOp53
 70
1
102
RTVSPost2010Prop54
  1
strokes_ogs.tif
102
RTVSPost2010PropOp54
 70
1
102
RTVSPost2010Prop55
280
0
102
RTVSPost2010PropOp55
 70
1
102
RTVSPost2010Prop56
140
1.0
102
RTVSPost2010PropOp56
 70
1
102
RTVSPost2010Prop57
140
1.0
102
RTVSPost2010PropOp57
 70
1
102
RTVSPropertyOp0
 70
1
102
RTVSPropertyOp1
 70
1
102
RTVSPropertyOp2
 70
1
102
RTVSPropertyOp3
 70
1
102
RTVSPropertyOp4
 70
1
102
RTVSPropertyOp5
 70
1
102
RTVSPropertyOp6
 70
1
102
RTVSPropertyOp7
 70
1
102
RTVSPropertyOp8
 70
1
102
RTVSPropertyOp9
 70
1
102
RTVSPropertyOp10
 70
1
102
RTVSPropertyOp11
 70
1
102
RTVSPropertyOp12
 70
1
102
RTVSPropertyOp13
 70
1
102
RTVSPropertyOp14
 70
1
102
RTVSPropertyOp15
 70
1
102
RTVSPropertyOp16
 70
1
102
RTVSPropertyOp17
 70
1
102
RTVSPropertyOp18
 70
1
102
RTVSPropertyOp19
 70
1
102
RTVSPropertyOp20
 70
1
102
RTVSPropertyOp21
 70
1
102
RTVSPropertyOp22
 70
1
102
RTVSPropertyOp23
 70
1
102
RTVSPropertyOp24
 70
1
102
RTVSPropertyOp25
 70
1
102
RTVSPropertyOp26
 70
1
102
RTVSPropertyOp27
 70
1
102
RTVSPropertyOp28
 70
1
102
RTVSPropertyOp29
 70
1
102
RTVSPropertyOp30
 70
1
102
RTVSPropertyOp31
 70
1
102
RTVSPropertyOp32
 70
1
102
RTVSPropertyOp33
 70
1
102
RTVSPropertyOp34
 70
1
102
RTVSPropertyOp35
 70
1
102
RTVSPropertyOp36
 70
1
102
RTVSPropertyOp37
 70
1
102
RTVSPropertyOp38
 70
1
102
RTVSPropertyOp39
 70
1
102
RTVSPropertyOp40
 70
1
102
RTVSPropertyOp41
 70
1
102
RTVSPropertyOp42
 70
1
102
RTVSPropertyOp43
 70
1
102
RTVSPropertyOp44
 70
1
102
RTVSPropertyOp45
 70
1
102
RTVSPropertyOp46
 70
1
102
RTVSPropertyOp47
 70
1
102
RTVSPropertyOp48
 70
1
102
RTVSPropertyOp49
 70
1
102
RTVSPropertyOp50
 70
1
102
RTVSPropertyOp51
 70
0
102
RTVSPropertyOp52
 70
0
102
RTVSPropertyOp53
 70
1
102
RTVSPropertyOp54
 70
1
102
RTVSPropertyOp55
 70
1
102
RTVSPropertyOp56
 70
1
102
RTVSPropertyOp57
 70
1
102
RTVSPropertyOp58
 70
1
102
RTVSPropertyOp59
 70
1
102
RTVSPropertyOp60
 70
1
102
RTVSPropertyOp61
 70
1
102
RTVSPropertyOp62
 70
1
  0
XRECORD
  5
A8C
102
{ACAD_REACTORS
330
A8B
102
}
330
A8B
100
AcDbXrecord
280
1
102
RTVSPost2010Prop28
280
0
102
RTVSPost2010PropOp28
 70
1
102
RTVSPost2010Prop29
280
1
102
RTVSPost2010PropOp29
 70
1
102
RTVSPost2010Prop30
280
1
102
RTVSPost2010PropOp30
 70
1
102
RTVSPost2010Prop31
280
0
102
RTVSPost2010PropOp31
 70
1
102
RTVSPost2010Prop32
280
0
102
RTVSPost2010PropOp32
 70
1
102
RTVSPost2010Prop33
280
0
102
RTVSPost2010PropOp33
 70
1
102
RTVSPost2010Prop34
280
0
102
RTVSPost2010PropOp34
 70
1
102
RTVSPost2010Prop35
280
0
102
RTVSPost2010PropOp35
 70
1
102
RTVSPost2010Prop36
280
0
102
RTVSPost2010PropOp36
 70
1
102
RTVSPost2010Prop37
 90
50
102
RTVSPost2010PropOp37
 70
1
102
RTVSPost2010Prop38
140
0.0
102
RTVSPost2010PropOp38
 70
1
102
RTVSPost2010Prop39
140
1.0
102
RTVSPost2010PropOp39
 70
1
102
RTVSPost2010Prop40
 90
0
102
RTVSPost2010PropOp40
 70
1
102
RTVSPost2010Prop41ColorIndex
 90
18
102
RTVSPost2010Prop41ColorRGB
 90
0
102
RTVSPost2010PropOp41
 70
1
102
RTVSPost2010Prop42
 90
50
102
RTVSPost2010PropOp42
 70
1
102
RTVSPost2010Prop43
 90
3
102
RTVSPost2010PropOp43
 70
1
102
RTVSPost2010Prop44ColorIndex
 90
5
102
RTVSPost2010Prop44ColorRGB
 90
255
102
RTVSPost2010PropOp44
 70
1
102
RTVSPost2010Prop45
280
0
102
RTVSPost2010PropOp45
 70
1
102
RTVSPost2010Prop46
 90
50
102
RTVSPost2010PropOp46
 70
1
102
RTVSPost2010Prop47
 90
50
102
RTVSPost2010PropOp47
 70
1
102
RTVSPost2010Prop48
 90
50
102
RTVSPost2010PropOp48
 70
1
102
RTVSPost2010Prop49
280
0
102
RTVSPost2010PropOp49
 70
1
102
RTVSPost2010Prop50
 90
50
102
RTVSPost2010PropOp50
 70
1
102
RTVSPost2010Prop51ColorIndex
 90
256
102
RTVSPost2010Prop51ColorRGB
 90
-16777216
102
RTVSPost2010PropOp51
 70
0
102
RTVSPost2010Prop52
140
1.0
102
RTVSPost2010PropOp52
 70
0
102
RTVSPost2010Prop53
 90
2
102
RTVSPost2010PropOp53
 70
1
102
RTVSPost2010Prop54
  1
strokes_ogs.tif
102
RTVSPost2010PropOp54
 70
1
102
RTVSPost2010Prop55
280
0
102
RTVSPost2010PropOp55
 70
1
102
RTVSPost2010Prop56
140
1.0
102
RTVSPost2010PropOp56
 70
1
102
RTVSPost2010Prop57
140
1.0
102
RTVSPost2010PropOp57
 70
1
102
RTVSPropertyOp0
 70
1
102
RTVSPropertyOp1
 70
1
102
RTVSPropertyOp2
 70
1
102
RTVSPropertyOp3
 70
1
102
RTVSPropertyOp4
 70
1
102
RTVSPropertyOp5
 70
1
102
RTVSPropertyOp6
 70
1
102
RTVSPropertyOp7
 70
1
102
RTVSPropertyOp8
 70
1
102
RTVSPropertyOp9
 70
1
102
RTVSPropertyOp10
 70
1
102
RTVSPropertyOp11
 70
1
102
RTVSPropertyOp12
 70
1
102
RTVSPropertyOp13
 70
1
102
RTVSPropertyOp14
 70
1
102
RTVSPropertyOp15
 70
1
102
RTVSPropertyOp16
 70
1
102
RTVSPropertyOp17
 70
1
102
RTVSPropertyOp18
 70
1
102
RTVSPropertyOp19
 70
1
102
RTVSPropertyOp20
 70
1
102
RTVSPropertyOp21
 70
1
102
RTVSPropertyOp22
 70
1
102
RTVSPropertyOp23
 70
1
102
RTVSPropertyOp24
 70
1
102
RTVSPropertyOp25
 70
1
102
RTVSPropertyOp26
 70
1
102
RTVSPropertyOp27
 70
1
102
RTVSPropertyOp28
 70
1
102
RTVSPropertyOp29
 70
1
102
RTVSPropertyOp30
 70
1
102
RTVSPropertyOp31
 70
1
102
RTVSPropertyOp32
 70
1
102
RTVSPropertyOp33
 70
1
102
RTVSPropertyOp34
 70
1
102
RTVSPropertyOp35
 70
1
102
RTVSPropertyOp36
 70
1
102
RTVSPropertyOp37
 70
1
102
RTVSPropertyOp38
 70
1
102
RTVSPropertyOp39
 70
1
102
RTVSPropertyOp40
 70
1
102
RTVSPropertyOp41
 70
1
102
RTVSPropertyOp42
 70
1
102
RTVSPropertyOp43
 70
1
102
RTVSPropertyOp44
 70
1
102
RTVSPropertyOp45
 70
1
102
RTVSPropertyOp46
 70
1
102
RTVSPropertyOp47
 70
1
102
RTVSPropertyOp48
 70
1
102
RTVSPropertyOp49
 70
1
102
RTVSPropertyOp50
 70
1
102
RTVSPropertyOp51
 70
0
102
RTVSPropertyOp52
 70
0
102
RTVSPropertyOp53
 70
1
102
RTVSPropertyOp54
 70
1
102
RTVSPropertyOp55
 70
1
102
RTVSPropertyOp56
 70
1
102
RTVSPropertyOp57
 70
1
102
RTVSPropertyOp58
 70
1
102
RTVSPropertyOp59
 70
1
102
RTVSPropertyOp60
 70
1
102
RTVSPropertyOp61
 70
1
102
RTVSPropertyOp62
 70
1
  0
XRECORD
  5
A8A
102
{ACAD_REACTORS
330
A89
102
}
330
A89
100
AcDbXrecord
280
1
102
RTVSPost2010Prop28
280
0
102
RTVSPost2010PropOp28
 70
1
102
RTVSPost2010Prop29
280
1
102
RTVSPost2010PropOp29
 70
1
102
RTVSPost2010Prop30
280
1
102
RTVSPost2010PropOp30
 70
1
102
RTVSPost2010Prop31
280
0
102
RTVSPost2010PropOp31
 70
1
102
RTVSPost2010Prop32
280
0
102
RTVSPost2010PropOp32
 70
1
102
RTVSPost2010Prop33
280
0
102
RTVSPost2010PropOp33
 70
1
102
RTVSPost2010Prop34
280
0
102
RTVSPost2010PropOp34
 70
1
102
RTVSPost2010Prop35
280
0
102
RTVSPost2010PropOp35
 70
1
102
RTVSPost2010Prop36
280
0
102
RTVSPost2010PropOp36
 70
1
102
RTVSPost2010Prop37
 90
50
102
RTVSPost2010PropOp37
 70
1
102
RTVSPost2010Prop38
140
0.0
102
RTVSPost2010PropOp38
 70
1
102
RTVSPost2010Prop39
140
1.0
102
RTVSPost2010PropOp39
 70
1
102
RTVSPost2010Prop40
 90
0
102
RTVSPost2010PropOp40
 70
1
102
RTVSPost2010Prop41ColorIndex
 90
18
102
RTVSPost2010Prop41ColorRGB
 90
0
102
RTVSPost2010PropOp41
 70
1
102
RTVSPost2010Prop42
 90
50
102
RTVSPost2010PropOp42
 70
1
102
RTVSPost2010Prop43
 90
3
102
RTVSPost2010PropOp43
 70
1
102
RTVSPost2010Prop44ColorIndex
 90
5
102
RTVSPost2010Prop44ColorRGB
 90
255
102
RTVSPost2010PropOp44
 70
1
102
RTVSPost2010Prop45
280
0
102
RTVSPost2010PropOp45
 70
1
102
RTVSPost2010Prop46
 90
50
102
RTVSPost2010PropOp46
 70
1
102
RTVSPost2010Prop47
 90
50
102
RTVSPost2010PropOp47
 70
1
102
RTVSPost2010Prop48
 90
50
102
RTVSPost2010PropOp48
 70
1
102
RTVSPost2010Prop49
280
0
102
RTVSPost2010PropOp49
 70
1
102
RTVSPost2010Prop50
 90
50
102
RTVSPost2010PropOp50
 70
1
102
RTVSPost2010Prop51ColorIndex
 90
256
102
RTVSPost2010Prop51ColorRGB
 90
-16777216
102
RTVSPost2010PropOp51
 70
0
102
RTVSPost2010Prop52
140
1.0
102
RTVSPost2010PropOp52
 70
0
102
RTVSPost2010Prop53
 90
2
102
RTVSPost2010PropOp53
 70
1
102
RTVSPost2010Prop54
  1
strokes_ogs.tif
102
RTVSPost2010PropOp54
 70
1
102
RTVSPost2010Prop55
280
0
102
RTVSPost2010PropOp55
 70
1
102
RTVSPost2010Prop56
140
1.0
102
RTVSPost2010PropOp56
 70
1
102
RTVSPost2010Prop57
140
1.0
102
RTVSPost2010PropOp57
 70
1
102
RTVSPropertyOp0
 70
1
102
RTVSPropertyOp1
 70
1
102
RTVSPropertyOp2
 70
1
102
RTVSPropertyOp3
 70
1
102
RTVSPropertyOp4
 70
1
102
RTVSPropertyOp5
 70
1
102
RTVSPropertyOp6
 70
1
102
RTVSPropertyOp7
 70
1
102
RTVSPropertyOp8
 70
1
102
RTVSPropertyOp9
 70
1
102
RTVSPropertyOp10
 70
1
102
RTVSPropertyOp11
 70
1
102
RTVSPropertyOp12
 70
1
102
RTVSPropertyOp13
 70
1
102
RTVSPropertyOp14
 70
1
102
RTVSPropertyOp15
 70
1
102
RTVSPropertyOp16
 70
1
102
RTVSPropertyOp17
 70
1
102
RTVSPropertyOp18
 70
1
102
RTVSPropertyOp19
 70
1
102
RTVSPropertyOp20
 70
1
102
RTVSPropertyOp21
 70
1
102
RTVSPropertyOp22
 70
1
102
RTVSPropertyOp23
 70
1
102
RTVSPropertyOp24
 70
1
102
RTVSPropertyOp25
 70
1
102
RTVSPropertyOp26
 70
1
102
RTVSPropertyOp27
 70
1
102
RTVSPropertyOp28
 70
1
102
RTVSPropertyOp29
 70
1
102
RTVSPropertyOp30
 70
1
102
RTVSPropertyOp31
 70
1
102
RTVSPropertyOp32
 70
1
102
RTVSPropertyOp33
 70
1
102
RTVSPropertyOp34
 70
1
102
RTVSPropertyOp35
 70
1
102
RTVSPropertyOp36
 70
1
102
RTVSPropertyOp37
 70
1
102
RTVSPropertyOp38
 70
1
102
RTVSPropertyOp39
 70
1
102
RTVSPropertyOp40
 70
1
102
RTVSPropertyOp41
 70
1
102
RTVSPropertyOp42
 70
1
102
RTVSPropertyOp43
 70
1
102
RTVSPropertyOp44
 70
1
102
RTVSPropertyOp45
 70
1
102
RTVSPropertyOp46
 70
1
102
RTVSPropertyOp47
 70
1
102
RTVSPropertyOp48
 70
1
102
RTVSPropertyOp49
 70
1
102
RTVSPropertyOp50
 70
1
102
RTVSPropertyOp51
 70
0
102
RTVSPropertyOp52
 70
0
102
RTVSPropertyOp53
 70
1
102
RTVSPropertyOp54
 70
1
102
RTVSPropertyOp55
 70
1
102
RTVSPropertyOp56
 70
1
102
RTVSPropertyOp57
 70
1
102
RTVSPropertyOp58
 70
1
102
RTVSPropertyOp59
 70
1
102
RTVSPropertyOp60
 70
1
102
RTVSPropertyOp61
 70
1
102
RTVSPropertyOp62
 70
1
  0
XRECORD
  5
A84
102
{ACAD_REACTORS
330
A83
102
}
330
A83
100
AcDbXrecord
280
1
102
RTVSPost2010Prop28
280
0
102
RTVSPost2010PropOp28
 70
1
102
RTVSPost2010Prop29
280
1
102
RTVSPost2010PropOp29
 70
1
102
RTVSPost2010Prop30
280
1
102
RTVSPost2010PropOp30
 70
1
102
RTVSPost2010Prop31
280
0
102
RTVSPost2010PropOp31
 70
1
102
RTVSPost2010Prop32
280
0
102
RTVSPost2010PropOp32
 70
1
102
RTVSPost2010Prop33
280
0
102
RTVSPost2010PropOp33
 70
1
102
RTVSPost2010Prop34
280
0
102
RTVSPost2010PropOp34
 70
1
102
RTVSPost2010Prop35
280
0
102
RTVSPost2010PropOp35
 70
1
102
RTVSPost2010Prop36
280
0
102
RTVSPost2010PropOp36
 70
1
102
RTVSPost2010Prop37
 90
50
102
RTVSPost2010PropOp37
 70
1
102
RTVSPost2010Prop38
140
0.0
102
RTVSPost2010PropOp38
 70
1
102
RTVSPost2010Prop39
140
1.0
102
RTVSPost2010PropOp39
 70
1
102
RTVSPost2010Prop40
 90
0
102
RTVSPost2010PropOp40
 70
1
102
RTVSPost2010Prop41ColorIndex
 90
18
102
RTVSPost2010Prop41ColorRGB
 90
0
102
RTVSPost2010PropOp41
 70
1
102
RTVSPost2010Prop42
 90
50
102
RTVSPost2010PropOp42
 70
1
102
RTVSPost2010Prop43
 90
3
102
RTVSPost2010PropOp43
 70
1
102
RTVSPost2010Prop44ColorIndex
 90
5
102
RTVSPost2010Prop44ColorRGB
 90
255
102
RTVSPost2010PropOp44
 70
1
102
RTVSPost2010Prop45
280
0
102
RTVSPost2010PropOp45
 70
1
102
RTVSPost2010Prop46
 90
50
102
RTVSPost2010PropOp46
 70
1
102
RTVSPost2010Prop47
 90
50
102
RTVSPost2010PropOp47
 70
1
102
RTVSPost2010Prop48
 90
50
102
RTVSPost2010PropOp48
 70
1
102
RTVSPost2010Prop49
280
0
102
RTVSPost2010PropOp49
 70
1
102
RTVSPost2010Prop50
 90
50
102
RTVSPost2010PropOp50
 70
1
102
RTVSPost2010Prop51ColorIndex
 90
256
102
RTVSPost2010Prop51ColorRGB
 90
-16777216
102
RTVSPost2010PropOp51
 70
0
102
RTVSPost2010Prop52
140
1.0
102
RTVSPost2010PropOp52
 70
0
102
RTVSPost2010Prop53
 90
2
102
RTVSPost2010PropOp53
 70
1
102
RTVSPost2010Prop54
  1
strokes_ogs.tif
102
RTVSPost2010PropOp54
 70
1
102
RTVSPost2010Prop55
280
0
102
RTVSPost2010PropOp55
 70
1
102
RTVSPost2010Prop56
140
1.0
102
RTVSPost2010PropOp56
 70
1
102
RTVSPost2010Prop57
140
1.0
102
RTVSPost2010PropOp57
 70
1
102
RTVSPropertyOp0
 70
1
102
RTVSPropertyOp1
 70
1
102
RTVSPropertyOp2
 70
1
102
RTVSPropertyOp3
 70
1
102
RTVSPropertyOp4
 70
1
102
RTVSPropertyOp5
 70
1
102
RTVSPropertyOp6
 70
1
102
RTVSPropertyOp7
 70
1
102
RTVSPropertyOp8
 70
1
102
RTVSPropertyOp9
 70
1
102
RTVSPropertyOp10
 70
1
102
RTVSPropertyOp11
 70
1
102
RTVSPropertyOp12
 70
1
102
RTVSPropertyOp13
 70
1
102
RTVSPropertyOp14
 70
1
102
RTVSPropertyOp15
 70
1
102
RTVSPropertyOp16
 70
1
102
RTVSPropertyOp17
 70
1
102
RTVSPropertyOp18
 70
1
102
RTVSPropertyOp19
 70
1
102
RTVSPropertyOp20
 70
1
102
RTVSPropertyOp21
 70
1
102
RTVSPropertyOp22
 70
1
102
RTVSPropertyOp23
 70
1
102
RTVSPropertyOp24
 70
1
102
RTVSPropertyOp25
 70
1
102
RTVSPropertyOp26
 70
1
102
RTVSPropertyOp27
 70
1
102
RTVSPropertyOp28
 70
1
102
RTVSPropertyOp29
 70
1
102
RTVSPropertyOp30
 70
1
102
RTVSPropertyOp31
 70
1
102
RTVSPropertyOp32
 70
1
102
RTVSPropertyOp33
 70
1
102
RTVSPropertyOp34
 70
1
102
RTVSPropertyOp35
 70
1
102
RTVSPropertyOp36
 70
1
102
RTVSPropertyOp37
 70
1
102
RTVSPropertyOp38
 70
1
102
RTVSPropertyOp39
 70
1
102
RTVSPropertyOp40
 70
1
102
RTVSPropertyOp41
 70
1
102
RTVSPropertyOp42
 70
1
102
RTVSPropertyOp43
 70
1
102
RTVSPropertyOp44
 70
1
102
RTVSPropertyOp45
 70
1
102
RTVSPropertyOp46
 70
1
102
RTVSPropertyOp47
 70
1
102
RTVSPropertyOp48
 70
1
102
RTVSPropertyOp49
 70
1
102
RTVSPropertyOp50
 70
1
102
RTVSPropertyOp51
 70
0
102
RTVSPropertyOp52
 70
0
102
RTVSPropertyOp53
 70
1
102
RTVSPropertyOp54
 70
1
102
RTVSPropertyOp55
 70
1
102
RTVSPropertyOp56
 70
1
102
RTVSPropertyOp57
 70
1
102
RTVSPropertyOp58
 70
1
102
RTVSPropertyOp59
 70
1
102
RTVSPropertyOp60
 70
1
102
RTVSPropertyOp61
 70
1
102
RTVSPropertyOp62
 70
1
  0
XRECORD
  5
A86
102
{ACAD_REACTORS
330
A85
102
}
330
A85
100
AcDbXrecord
280
1
102
RTVSPost2010Prop28
280
0
102
RTVSPost2010PropOp28
 70
1
102
RTVSPost2010Prop29
280
1
102
RTVSPost2010PropOp29
 70
1
102
RTVSPost2010Prop30
280
1
102
RTVSPost2010PropOp30
 70
1
102
RTVSPost2010Prop31
280
0
102
RTVSPost2010PropOp31
 70
1
102
RTVSPost2010Prop32
280
0
102
RTVSPost2010PropOp32
 70
1
102
RTVSPost2010Prop33
280
0
102
RTVSPost2010PropOp33
 70
1
102
RTVSPost2010Prop34
280
0
102
RTVSPost2010PropOp34
 70
1
102
RTVSPost2010Prop35
280
0
102
RTVSPost2010PropOp35
 70
1
102
RTVSPost2010Prop36
280
0
102
RTVSPost2010PropOp36
 70
1
102
RTVSPost2010Prop37
 90
50
102
RTVSPost2010PropOp37
 70
1
102
RTVSPost2010Prop38
140
0.0
102
RTVSPost2010PropOp38
 70
1
102
RTVSPost2010Prop39
140
1.0
102
RTVSPost2010PropOp39
 70
1
102
RTVSPost2010Prop40
 90
0
102
RTVSPost2010PropOp40
 70
1
102
RTVSPost2010Prop41ColorIndex
 90
18
102
RTVSPost2010Prop41ColorRGB
 90
0
102
RTVSPost2010PropOp41
 70
1
102
RTVSPost2010Prop42
 90
50
102
RTVSPost2010PropOp42
 70
1
102
RTVSPost2010Prop43
 90
3
102
RTVSPost2010PropOp43
 70
1
102
RTVSPost2010Prop44ColorIndex
 90
5
102
RTVSPost2010Prop44ColorRGB
 90
255
102
RTVSPost2010PropOp44
 70
1
102
RTVSPost2010Prop45
280
0
102
RTVSPost2010PropOp45
 70
1
102
RTVSPost2010Prop46
 90
50
102
RTVSPost2010PropOp46
 70
1
102
RTVSPost2010Prop47
 90
50
102
RTVSPost2010PropOp47
 70
1
102
RTVSPost2010Prop48
 90
50
102
RTVSPost2010PropOp48
 70
1
102
RTVSPost2010Prop49
280
0
102
RTVSPost2010PropOp49
 70
1
102
RTVSPost2010Prop50
 90
50
102
RTVSPost2010PropOp50
 70
1
102
RTVSPost2010Prop51ColorIndex
 90
256
102
RTVSPost2010Prop51ColorRGB
 90
-16777216
102
RTVSPost2010PropOp51
 70
0
102
RTVSPost2010Prop52
140
1.0
102
RTVSPost2010PropOp52
 70
0
102
RTVSPost2010Prop53
 90
2
102
RTVSPost2010PropOp53
 70
1
102
RTVSPost2010Prop54
  1
strokes_ogs.tif
102
RTVSPost2010PropOp54
 70
1
102
RTVSPost2010Prop55
280
0
102
RTVSPost2010PropOp55
 70
1
102
RTVSPost2010Prop56
140
1.0
102
RTVSPost2010PropOp56
 70
1
102
RTVSPost2010Prop57
140
1.0
102
RTVSPost2010PropOp57
 70
1
102
RTVSPropertyOp0
 70
1
102
RTVSPropertyOp1
 70
1
102
RTVSPropertyOp2
 70
1
102
RTVSPropertyOp3
 70
1
102
RTVSPropertyOp4
 70
1
102
RTVSPropertyOp5
 70
1
102
RTVSPropertyOp6
 70
1
102
RTVSPropertyOp7
 70
1
102
RTVSPropertyOp8
 70
1
102
RTVSPropertyOp9
 70
1
102
RTVSPropertyOp10
 70
1
102
RTVSPropertyOp11
 70
1
102
RTVSPropertyOp12
 70
1
102
RTVSPropertyOp13
 70
1
102
RTVSPropertyOp14
 70
1
102
RTVSPropertyOp15
 70
1
102
RTVSPropertyOp16
 70
1
102
RTVSPropertyOp17
 70
1
102
RTVSPropertyOp18
 70
1
102
RTVSPropertyOp19
 70
1
102
RTVSPropertyOp20
 70
1
102
RTVSPropertyOp21
 70
1
102
RTVSPropertyOp22
 70
1
102
RTVSPropertyOp23
 70
1
102
RTVSPropertyOp24
 70
1
102
RTVSPropertyOp25
 70
1
102
RTVSPropertyOp26
 70
1
102
RTVSPropertyOp27
 70
1
102
RTVSPropertyOp28
 70
1
102
RTVSPropertyOp29
 70
1
102
RTVSPropertyOp30
 70
1
102
RTVSPropertyOp31
 70
1
102
RTVSPropertyOp32
 70
1
102
RTVSPropertyOp33
 70
1
102
RTVSPropertyOp34
 70
1
102
RTVSPropertyOp35
 70
1
102
RTVSPropertyOp36
 70
1
102
RTVSPropertyOp37
 70
1
102
RTVSPropertyOp38
 70
1
102
RTVSPropertyOp39
 70
1
102
RTVSPropertyOp40
 70
1
102
RTVSPropertyOp41
 70
1
102
RTVSPropertyOp42
 70
1
102
RTVSPropertyOp43
 70
1
102
RTVSPropertyOp44
 70
1
102
RTVSPropertyOp45
 70
1
102
RTVSPropertyOp46
 70
1
102
RTVSPropertyOp47
 70
1
102
RTVSPropertyOp48
 70
1
102
RTVSPropertyOp49
 70
1
102
RTVSPropertyOp50
 70
1
102
RTVSPropertyOp51
 70
0
102
RTVSPropertyOp52
 70
0
102
RTVSPropertyOp53
 70
1
102
RTVSPropertyOp54
 70
1
102
RTVSPropertyOp55
 70
1
102
RTVSPropertyOp56
 70
1
102
RTVSPropertyOp57
 70
1
102
RTVSPropertyOp58
 70
1
102
RTVSPropertyOp59
 70
1
102
RTVSPropertyOp60
 70
1
102
RTVSPropertyOp61
 70
1
102
RTVSPropertyOp62
 70
1
  0
XRECORD
  5
A7C
102
{ACAD_REACTORS
330
A7B
102
}
330
A7B
100
AcDbXrecord
280
1
102
RTVSPost2010Prop28
280
0
102
RTVSPost2010PropOp28
 70
1
102
RTVSPost2010Prop29
280
1
102
RTVSPost2010PropOp29
 70
1
102
RTVSPost2010Prop30
280
1
102
RTVSPost2010PropOp30
 70
1
102
RTVSPost2010Prop31
280
0
102
RTVSPost2010PropOp31
 70
1
102
RTVSPost2010Prop32
280
0
102
RTVSPost2010PropOp32
 70
1
102
RTVSPost2010Prop33
280
0
102
RTVSPost2010PropOp33
 70
1
102
RTVSPost2010Prop34
280
0
102
RTVSPost2010PropOp34
 70
1
102
RTVSPost2010Prop35
280
0
102
RTVSPost2010PropOp35
 70
1
102
RTVSPost2010Prop36
280
0
102
RTVSPost2010PropOp36
 70
1
102
RTVSPost2010Prop37
 90
50
102
RTVSPost2010PropOp37
 70
1
102
RTVSPost2010Prop38
140
0.0
102
RTVSPost2010PropOp38
 70
1
102
RTVSPost2010Prop39
140
1.0
102
RTVSPost2010PropOp39
 70
1
102
RTVSPost2010Prop40
 90
0
102
RTVSPost2010PropOp40
 70
1
102
RTVSPost2010Prop41ColorIndex
 90
18
102
RTVSPost2010Prop41ColorRGB
 90
0
102
RTVSPost2010PropOp41
 70
1
102
RTVSPost2010Prop42
 90
50
102
RTVSPost2010PropOp42
 70
1
102
RTVSPost2010Prop43
 90
3
102
RTVSPost2010PropOp43
 70
1
102
RTVSPost2010Prop44ColorIndex
 90
5
102
RTVSPost2010Prop44ColorRGB
 90
255
102
RTVSPost2010PropOp44
 70
1
102
RTVSPost2010Prop45
280
0
102
RTVSPost2010PropOp45
 70
1
102
RTVSPost2010Prop46
 90
50
102
RTVSPost2010PropOp46
 70
1
102
RTVSPost2010Prop47
 90
50
102
RTVSPost2010PropOp47
 70
1
102
RTVSPost2010Prop48
 90
50
102
RTVSPost2010PropOp48
 70
1
102
RTVSPost2010Prop49
280
0
102
RTVSPost2010PropOp49
 70
1
102
RTVSPost2010Prop50
 90
50
102
RTVSPost2010PropOp50
 70
1
102
RTVSPost2010Prop51ColorIndex
 90
256
102
RTVSPost2010Prop51ColorRGB
 90
-16777216
102
RTVSPost2010PropOp51
 70
0
102
RTVSPost2010Prop52
140
1.0
102
RTVSPost2010PropOp52
 70
0
102
RTVSPost2010Prop53
 90
2
102
RTVSPost2010PropOp53
 70
1
102
RTVSPost2010Prop54
  1
strokes_ogs.tif
102
RTVSPost2010PropOp54
 70
1
102
RTVSPost2010Prop55
280
0
102
RTVSPost2010PropOp55
 70
1
102
RTVSPost2010Prop56
140
1.0
102
RTVSPost2010PropOp56
 70
1
102
RTVSPost2010Prop57
140
1.0
102
RTVSPost2010PropOp57
 70
1
102
RTVSPropertyOp0
 70
1
102
RTVSPropertyOp1
 70
1
102
RTVSPropertyOp2
 70
1
102
RTVSPropertyOp3
 70
1
102
RTVSPropertyOp4
 70
1
102
RTVSPropertyOp5
 70
1
102
RTVSPropertyOp6
 70
1
102
RTVSPropertyOp7
 70
1
102
RTVSPropertyOp8
 70
1
102
RTVSPropertyOp9
 70
1
102
RTVSPropertyOp10
 70
1
102
RTVSPropertyOp11
 70
1
102
RTVSPropertyOp12
 70
1
102
RTVSPropertyOp13
 70
1
102
RTVSPropertyOp14
 70
1
102
RTVSPropertyOp15
 70
1
102
RTVSPropertyOp16
 70
1
102
RTVSPropertyOp17
 70
1
102
RTVSPropertyOp18
 70
1
102
RTVSPropertyOp19
 70
1
102
RTVSPropertyOp20
 70
1
102
RTVSPropertyOp21
 70
1
102
RTVSPropertyOp22
 70
1
102
RTVSPropertyOp23
 70
1
102
RTVSPropertyOp24
 70
1
102
RTVSPropertyOp25
 70
1
102
RTVSPropertyOp26
 70
1
102
RTVSPropertyOp27
 70
1
102
RTVSPropertyOp28
 70
1
102
RTVSPropertyOp29
 70
1
102
RTVSPropertyOp30
 70
1
102
RTVSPropertyOp31
 70
1
102
RTVSPropertyOp32
 70
1
102
RTVSPropertyOp33
 70
1
102
RTVSPropertyOp34
 70
1
102
RTVSPropertyOp35
 70
1
102
RTVSPropertyOp36
 70
1
102
RTVSPropertyOp37
 70
1
102
RTVSPropertyOp38
 70
1
102
RTVSPropertyOp39
 70
1
102
RTVSPropertyOp40
 70
1
102
RTVSPropertyOp41
 70
1
102
RTVSPropertyOp42
 70
1
102
RTVSPropertyOp43
 70
1
102
RTVSPropertyOp44
 70
1
102
RTVSPropertyOp45
 70
1
102
RTVSPropertyOp46
 70
1
102
RTVSPropertyOp47
 70
1
102
RTVSPropertyOp48
 70
1
102
RTVSPropertyOp49
 70
1
102
RTVSPropertyOp50
 70
1
102
RTVSPropertyOp51
 70
0
102
RTVSPropertyOp52
 70
0
102
RTVSPropertyOp53
 70
1
102
RTVSPropertyOp54
 70
1
102
RTVSPropertyOp55
 70
1
102
RTVSPropertyOp56
 70
1
102
RTVSPropertyOp57
 70
1
102
RTVSPropertyOp58
 70
1
102
RTVSPropertyOp59
 70
1
102
RTVSPropertyOp60
 70
1
102
RTVSPropertyOp61
 70
1
102
RTVSPropertyOp62
 70
1
  0
XRECORD
  5
A70
102
{ACAD_REACTORS
330
A6F
102
}
330
A6F
100
AcDbXrecord
280
1
102
RTVSPost2010Prop28
280
0
102
RTVSPost2010PropOp28
 70
1
102
RTVSPost2010Prop29
280
1
102
RTVSPost2010PropOp29
 70
1
102
RTVSPost2010Prop30
280
1
102
RTVSPost2010PropOp30
 70
1
102
RTVSPost2010Prop31
280
0
102
RTVSPost2010PropOp31
 70
1
102
RTVSPost2010Prop32
280
0
102
RTVSPost2010PropOp32
 70
1
102
RTVSPost2010Prop33
280
0
102
RTVSPost2010PropOp33
 70
1
102
RTVSPost2010Prop34
280
0
102
RTVSPost2010PropOp34
 70
1
102
RTVSPost2010Prop35
280
0
102
RTVSPost2010PropOp35
 70
1
102
RTVSPost2010Prop36
280
0
102
RTVSPost2010PropOp36
 70
1
102
RTVSPost2010Prop37
 90
50
102
RTVSPost2010PropOp37
 70
1
102
RTVSPost2010Prop38
140
0.0
102
RTVSPost2010PropOp38
 70
1
102
RTVSPost2010Prop39
140
1.0
102
RTVSPost2010PropOp39
 70
1
102
RTVSPost2010Prop40
 90
0
102
RTVSPost2010PropOp40
 70
1
102
RTVSPost2010Prop41ColorIndex
 90
18
102
RTVSPost2010Prop41ColorRGB
 90
0
102
RTVSPost2010PropOp41
 70
1
102
RTVSPost2010Prop42
 90
50
102
RTVSPost2010PropOp42
 70
1
102
RTVSPost2010Prop43
 90
3
102
RTVSPost2010PropOp43
 70
1
102
RTVSPost2010Prop44ColorIndex
 90
5
102
RTVSPost2010Prop44ColorRGB
 90
255
102
RTVSPost2010PropOp44
 70
1
102
RTVSPost2010Prop45
280
0
102
RTVSPost2010PropOp45
 70
1
102
RTVSPost2010Prop46
 90
50
102
RTVSPost2010PropOp46
 70
1
102
RTVSPost2010Prop47
 90
50
102
RTVSPost2010PropOp47
 70
1
102
RTVSPost2010Prop48
 90
50
102
RTVSPost2010PropOp48
 70
1
102
RTVSPost2010Prop49
280
0
102
RTVSPost2010PropOp49
 70
1
102
RTVSPost2010Prop50
 90
50
102
RTVSPost2010PropOp50
 70
1
102
RTVSPost2010Prop51ColorIndex
 90
256
102
RTVSPost2010Prop51ColorRGB
 90
-16777216
102
RTVSPost2010PropOp51
 70
0
102
RTVSPost2010Prop52
140
1.0
102
RTVSPost2010PropOp52
 70
0
102
RTVSPost2010Prop53
 90
2
102
RTVSPost2010PropOp53
 70
1
102
RTVSPost2010Prop54
  1
strokes_ogs.tif
102
RTVSPost2010PropOp54
 70
1
102
RTVSPost2010Prop55
280
0
102
RTVSPost2010PropOp55
 70
1
102
RTVSPost2010Prop56
140
1.0
102
RTVSPost2010PropOp56
 70
1
102
RTVSPost2010Prop57
140
1.0
102
RTVSPost2010PropOp57
 70
1
102
RTVSPropertyOp0
 70
1
102
RTVSPropertyOp1
 70
1
102
RTVSPropertyOp2
 70
1
102
RTVSPropertyOp3
 70
1
102
RTVSPropertyOp4
 70
1
102
RTVSPropertyOp5
 70
1
102
RTVSPropertyOp6
 70
1
102
RTVSPropertyOp7
 70
1
102
RTVSPropertyOp8
 70
1
102
RTVSPropertyOp9
 70
1
102
RTVSPropertyOp10
 70
1
102
RTVSPropertyOp11
 70
1
102
RTVSPropertyOp12
 70
1
102
RTVSPropertyOp13
 70
1
102
RTVSPropertyOp14
 70
1
102
RTVSPropertyOp15
 70
1
102
RTVSPropertyOp16
 70
1
102
RTVSPropertyOp17
 70
1
102
RTVSPropertyOp18
 70
1
102
RTVSPropertyOp19
 70
1
102
RTVSPropertyOp20
 70
1
102
RTVSPropertyOp21
 70
1
102
RTVSPropertyOp22
 70
1
102
RTVSPropertyOp23
 70
1
102
RTVSPropertyOp24
 70
1
102
RTVSPropertyOp25
 70
1
102
RTVSPropertyOp26
 70
1
102
RTVSPropertyOp27
 70
1
102
RTVSPropertyOp28
 70
1
102
RTVSPropertyOp29
 70
1
102
RTVSPropertyOp30
 70
1
102
RTVSPropertyOp31
 70
1
102
RTVSPropertyOp32
 70
1
102
RTVSPropertyOp33
 70
1
102
RTVSPropertyOp34
 70
1
102
RTVSPropertyOp35
 70
1
102
RTVSPropertyOp36
 70
1
102
RTVSPropertyOp37
 70
1
102
RTVSPropertyOp38
 70
1
102
RTVSPropertyOp39
 70
1
102
RTVSPropertyOp40
 70
1
102
RTVSPropertyOp41
 70
1
102
RTVSPropertyOp42
 70
1
102
RTVSPropertyOp43
 70
1
102
RTVSPropertyOp44
 70
1
102
RTVSPropertyOp45
 70
1
102
RTVSPropertyOp46
 70
1
102
RTVSPropertyOp47
 70
1
102
RTVSPropertyOp48
 70
1
102
RTVSPropertyOp49
 70
1
102
RTVSPropertyOp50
 70
1
102
RTVSPropertyOp51
 70
0
102
RTVSPropertyOp52
 70
0
102
RTVSPropertyOp53
 70
1
102
RTVSPropertyOp54
 70
1
102
RTVSPropertyOp55
 70
1
102
RTVSPropertyOp56
 70
1
102
RTVSPropertyOp57
 70
1
102
RTVSPropertyOp58
 70
1
102
RTVSPropertyOp59
 70
1
102
RTVSPropertyOp60
 70
1
102
RTVSPropertyOp61
 70
1
102
RTVSPropertyOp62
 70
1
  0
XRECORD
  5
A88
102
{ACAD_REACTORS
330
A87
102
}
330
A87
100
AcDbXrecord
280
1
102
RTVSPost2010Prop28
280
0
102
RTVSPost2010PropOp28
 70
1
102
RTVSPost2010Prop29
280
1
102
RTVSPost2010PropOp29
 70
1
102
RTVSPost2010Prop30
280
1
102
RTVSPost2010PropOp30
 70
1
102
RTVSPost2010Prop31
280
0
102
RTVSPost2010PropOp31
 70
1
102
RTVSPost2010Prop32
280
0
102
RTVSPost2010PropOp32
 70
1
102
RTVSPost2010Prop33
280
0
102
RTVSPost2010PropOp33
 70
1
102
RTVSPost2010Prop34
280
0
102
RTVSPost2010PropOp34
 70
1
102
RTVSPost2010Prop35
280
0
102
RTVSPost2010PropOp35
 70
1
102
RTVSPost2010Prop36
280
0
102
RTVSPost2010PropOp36
 70
1
102
RTVSPost2010Prop37
 90
50
102
RTVSPost2010PropOp37
 70
1
102
RTVSPost2010Prop38
140
0.0
102
RTVSPost2010PropOp38
 70
1
102
RTVSPost2010Prop39
140
1.0
102
RTVSPost2010PropOp39
 70
1
102
RTVSPost2010Prop40
 90
0
102
RTVSPost2010PropOp40
 70
1
102
RTVSPost2010Prop41ColorIndex
 90
18
102
RTVSPost2010Prop41ColorRGB
 90
0
102
RTVSPost2010PropOp41
 70
1
102
RTVSPost2010Prop42
 90
50
102
RTVSPost2010PropOp42
 70
1
102
RTVSPost2010Prop43
 90
3
102
RTVSPost2010PropOp43
 70
1
102
RTVSPost2010Prop44ColorIndex
 90
5
102
RTVSPost2010Prop44ColorRGB
 90
255
102
RTVSPost2010PropOp44
 70
1
102
RTVSPost2010Prop45
280
0
102
RTVSPost2010PropOp45
 70
1
102
RTVSPost2010Prop46
 90
50
102
RTVSPost2010PropOp46
 70
1
102
RTVSPost2010Prop47
 90
50
102
RTVSPost2010PropOp47
 70
1
102
RTVSPost2010Prop48
 90
50
102
RTVSPost2010PropOp48
 70
1
102
RTVSPost2010Prop49
280
0
102
RTVSPost2010PropOp49
 70
1
102
RTVSPost2010Prop50
 90
50
102
RTVSPost2010PropOp50
 70
1
102
RTVSPost2010Prop51ColorIndex
 90
256
102
RTVSPost2010Prop51ColorRGB
 90
-16777216
102
RTVSPost2010PropOp51
 70
0
102
RTVSPost2010Prop52
140
1.0
102
RTVSPost2010PropOp52
 70
0
102
RTVSPost2010Prop53
 90
2
102
RTVSPost2010PropOp53
 70
1
102
RTVSPost2010Prop54
  1
strokes_ogs.tif
102
RTVSPost2010PropOp54
 70
1
102
RTVSPost2010Prop55
280
0
102
RTVSPost2010PropOp55
 70
1
102
RTVSPost2010Prop56
140
1.0
102
RTVSPost2010PropOp56
 70
1
102
RTVSPost2010Prop57
140
1.0
102
RTVSPost2010PropOp57
 70
1
102
RTVSPropertyOp0
 70
1
102
RTVSPropertyOp1
 70
1
102
RTVSPropertyOp2
 70
1
102
RTVSPropertyOp3
 70
1
102
RTVSPropertyOp4
 70
1
102
RTVSPropertyOp5
 70
1
102
RTVSPropertyOp6
 70
1
102
RTVSPropertyOp7
 70
1
102
RTVSPropertyOp8
 70
1
102
RTVSPropertyOp9
 70
1
102
RTVSPropertyOp10
 70
1
102
RTVSPropertyOp11
 70
1
102
RTVSPropertyOp12
 70
1
102
RTVSPropertyOp13
 70
1
102
RTVSPropertyOp14
 70
1
102
RTVSPropertyOp15
 70
1
102
RTVSPropertyOp16
 70
1
102
RTVSPropertyOp17
 70
1
102
RTVSPropertyOp18
 70
1
102
RTVSPropertyOp19
 70
1
102
RTVSPropertyOp20
 70
1
102
RTVSPropertyOp21
 70
1
102
RTVSPropertyOp22
 70
1
102
RTVSPropertyOp23
 70
1
102
RTVSPropertyOp24
 70
1
102
RTVSPropertyOp25
 70
1
102
RTVSPropertyOp26
 70
1
102
RTVSPropertyOp27
 70
1
102
RTVSPropertyOp28
 70
1
102
RTVSPropertyOp29
 70
1
102
RTVSPropertyOp30
 70
1
102
RTVSPropertyOp31
 70
1
102
RTVSPropertyOp32
 70
1
102
RTVSPropertyOp33
 70
1
102
RTVSPropertyOp34
 70
1
102
RTVSPropertyOp35
 70
1
102
RTVSPropertyOp36
 70
1
102
RTVSPropertyOp37
 70
1
102
RTVSPropertyOp38
 70
1
102
RTVSPropertyOp39
 70
1
102
RTVSPropertyOp40
 70
1
102
RTVSPropertyOp41
 70
1
102
RTVSPropertyOp42
 70
1
102
RTVSPropertyOp43
 70
1
102
RTVSPropertyOp44
 70
1
102
RTVSPropertyOp45
 70
1
102
RTVSPropertyOp46
 70
1
102
RTVSPropertyOp47
 70
1
102
RTVSPropertyOp48
 70
1
102
RTVSPropertyOp49
 70
1
102
RTVSPropertyOp50
 70
1
102
RTVSPropertyOp51
 70
0
102
RTVSPropertyOp52
 70
0
102
RTVSPropertyOp53
 70
1
102
RTVSPropertyOp54
 70
1
102
RTVSPropertyOp55
 70
1
102
RTVSPropertyOp56
 70
1
102
RTVSPropertyOp57
 70
1
102
RTVSPropertyOp58
 70
1
102
RTVSPropertyOp59
 70
1
102
RTVSPropertyOp60
 70
1
102
RTVSPropertyOp61
 70
1
102
RTVSPropertyOp62
 70
1
  0
DICTIONARY
  5
10CE
330
9D2
100
AcDbDictionary
281
1
  3
WRITTEN_BY_EZDXF
350
10CF
  0
DICTIONARYVAR
  5
10CF
330
10CE
100
DictionaryVariables
280
0
  1
0.16.4 @ 2022-09-06T04:16:28.447177+00:00
  0
ENDSEC
  0
EOF
