  0
SECTION
  2
HEADER
  9
$ACADVER
  1
AC1009
  9
$DWGCODEPAGE
  3
ANSI_932
  9
$INSBASE
 10
0.0
 20
0.0
 30
0.0
  9
$EXTMIN
 10
0
 20
0
 30
0
  9
$EXTMAX
 10
0
 20
0
 30
0
  9
$LIMMIN
 10
0.0
 20
0.0
  9
$LIMMAX
 10
420.0
 20
297.0
  9
$ORTHOMODE
 70
0
  9
$REGENMODE
 70
1
  9
$FILLMODE
 70
1
  9
$DRAGMODE
 70
2
  9
$QTEXTMODE
 70
0
  9
$MIRRTEXT
 70
1
  9
$OSMODE
 70
37
  9
$LTSCALE
 40
25.4
  9
$ATTMODE
 70
1
  9
$TEXTSIZE
 40
0.2
  9
$TRACEWID
 40
1.0
  9
$TEXTSTYLE
  7
STANDARD
  9
$CLAYER
  8
__
  9
$CELTYPE
  6
BYLAYER
  9
$CECOLOR
 62
256
  9
$DIMSCALE
 40
1.0
  9
$DIMASZ
 40
0.18
  9
$DIMEXO
 40
0.0625
  9
$DIMDLI
 40
0.38
  9
$DIMRND
 40
0.0
  9
$DIMDLE
 40
0.0
  9
$DIMEXE
 40
0.18
  9
$DIMTP
 40
0.0
  9
$DIMTM
 40
0.0
  9
$DIMTXT
 40
0.18
  9
$DIMCEN
 40
0.09
  9
$DIMTSZ
 40
0.0
  9
$DIMTOL
 70
0
  9
$DIMLIM
 70
0
  9
$DIMTIH
 70
1
  9
$DIMTOH
 70
1
  9
$DIMSE1
 70
0
  9
$DIMSE2
 70
0
  9
$DIMTAD
 70
0
  9
$DIMZIN
 70
0
  9
$DIMBLK
  1

  9
$DIMASO
 70
1
  9
$DIMSHO
 70
1
  9
$DIMPOST
  1

  9
$DIMAPOST
  1

  9
$DIMALT
 70
0
  9
$DIMALTD
 70
2
  9
$DIMALTF
 40
25.4
  9
$DIMLFAC
 40
1.0
  9
$DIMTOFL
 70
0
  9
$DIMTVP
 40
0.0
  9
$DIMTIX
 70
0
  9
$DIMSOXD
 70
0
  9
$DIMSAH
 70
0
  9
$DIMBLK1
  1

  9
$DIMBLK2
  1

  9
$DIMSTYLE
  2
STANDARD
  9
$DIMCLRD
 70
0
  9
$DIMCLRE
 70
0
  9
$DIMCLRT
 70
0
  9
$DIMTFAC
 40
1.0
  9
$DIMGAP
 40
0.09
  9
$COORDS
 70
1
  9
$ATTDIA
 70
0
  9
$ATTREQ
 70
1
  9
$HANDLING
 70
1
  9
$LUNITS
 70
2
  9
$LUPREC
 70
2
  9
$SKETCHINC
 40
0.1
  9
$FILLETRAD
 40
0.5
  9
$AUNITS
 70
0
  9
$AUPREC
 70
2
  9
$MENU
  1
.
  9
$ELEVATION
 40
0.0
  9
$PELEVATION
 40
0.0
  9
$THICKNESS
 40
0.0
  9
$LIMCHECK
 70
0
  9
$CHAMFERA
 40
0.0
  9
$CHAMFERB
 40
0.0
  9
$SKPOLY
 70
0
  9
$TDCREATE
 40
2460286.4447800927
  9
$TDUPDATE
 40
2460286.4447800927
  9
$TDINDWG
 40
1.16e-08
  9
$TDUSRTIMER
 40
1.16e-08
  9
$USRTIMER
 70
1
  9
$ANGBASE
 50
0.0
  9
$ANGDIR
 70
0
  9
$PDMODE
 70
1
  9
$PDSIZE
 40
-2.0
  9
$PLINEWID
 40
0.0
  9
$SPLFRAME
 70
0
  9
$SPLINETYPE
 70
6
  9
$SPLINESEGS
 70
8
  9
$HANDSEED
  5
6E2
  9
$SURFTAB1
 70
6
  9
$SURFTAB2
 70
6
  9
$SURFTYPE
 70
6
  9
$SURFU
 70
6
  9
$SURFV
 70
6
  9
$UCSNAME
  2

  9
$UCSORG
 10
0.0
 20
0.0
 30
0.0
  9
$UCSXDIR
 10
1.0
 20
0.0
 30
0.0
  9
$UCSYDIR
 10
0.0
 20
1.0
 30
0.0
  9
$PUCSNAME
  2

  9
$PUCSORG
 10
0.0
 20
0.0
 30
0.0
  9
$PUCSXDIR
 10
1.0
 20
0.0
 30
0.0
  9
$PUCSYDIR
 10
0.0
 20
1.0
 30
0.0
  9
$USERI1
 70
0
  9
$USERI2
 70
0
  9
$USERI3
 70
0
  9
$USERI4
 70
0
  9
$USERI5
 70
0
  9
$USERR1
 40
0.0
  9
$USERR2
 40
0.0
  9
$USERR3
 40
0.0
  9
$USERR4
 40
0.0
  9
$USERR5
 40
0.0
  9
$WORLDVIEW
 70
1
  9
$SHADEDGE
 70
3
  9
$SHADEDIF
 70
70
  9
$TILEMODE
 70
1
  9
$MAXACTVP
 70
64
  9
$PLIMCHECK
 70
0
  9
$PEXTMIN
 10
1e+20
 20
1e+20
 30
1e+20
  9
$PEXTMAX
 10
-1e+20
 20
-1e+20
 30
-1e+20
  9
$PLIMMIN
 10
0.0
 20
0.0
  9
$PLIMMAX
 10
420.0
 20
297.0
  9
$UNITMODE
 70
0
  9
$VISRETAIN
 70
1
  9
$PLINEGEN
 70
0
  9
$PSLTSCALE
 70
1
  0
ENDSEC
  0
SECTION
  2
TABLES
  0
TABLE
  2
VPORT
 70
1
  0
VPORT
  5
81
  2
*ACTIVE
 70
0
 10
0.0
 20
0.0
 11
1.0
 21
1.0
 12
0.0
 22
0.0
 13
0.0
 23
0.0
 14
0.5
 24
0.5
 15
0.5
 25
0.5
 16
0.0
 26
0.0
 36
1.0
 17
0.0
 27
0.0
 37
0.0
 40
296.9895
 41
0.7067921032000568
 42
2000.0
 43
0.0
 44
0.0
 50
0.0
 51
0.0
 71
0
 72
100
 73
1
 74
3
 75
0
 76
0
 77
0
 78
0
  0
ENDTAB
  0
TABLE
  2
LTYPE
 70
3
  0
LTYPE
  5
82
  2
CONTINUOUS
 70
0
  3
Solid line
 72
65
 73
0
 40
0.0
  0
LTYPE
  5
AB
  2
ByBlock
 70
0
  3

 72
65
 73
0
 40
0.0
  0
LTYPE
  5
AC
  2
ByLayer
 70
0
  3

 72
65
 73
0
 40
0.0
  0
ENDTAB
  0
TABLE
  2
LAYER
 70
3
  0
LAYER
  5
83
  2
0
 70
0
 62
7
  6
CONTINUOUS
  0
LAYER
  5
84
  2
__
 70
0
 62
7
  6
CONTINUOUS
  0
LAYER
  5
AD
  2
Defpoints
 70
0
 62
7
  6
Continuous
  0
ENDTAB
  0
TABLE
  2
STYLE
 70
1
  0
STYLE
  5
85
  2
STANDARD
 70
0
 40
0.0
 41
1.0
 50
0.0
 71
0
 42
0.2
  3
txt
  4
BIGFONT.SHX
  0
ENDTAB
  0
TABLE
  2
VIEW
 70
0
  0
ENDTAB
  0
TABLE
  2
UCS
 70
0
  0
ENDTAB
  0
TABLE
  2
APPID
 70
5
  0
APPID
  5
86
  2
ACAD
 70
0
  0
APPID
  5
87
  2
ACCMTRANSPARENCY
 70
0
  0
APPID
  5
88
  2
ACAECLAYERSTANDARD
 70
0
  0
APPID
  5
6E0
  2
HATCHBACKGROUNDCOLOR
 70
0
  0
APPID
  5
6E1
  2
EZDXF
 70
0
  0
ENDTAB
  0
TABLE
  2
DIMSTYLE
 70
1
  0
DIMSTYLE
105
89
  2
STANDARD
 70
0
  3

  4

  5

  6

  7

 40
1.0
 41
0.18
 42
0.0625
 43
0.38
 44
0.18
 45
0.0
 46
0.0
 47
0.0
 48
0.0
140
0.18
141
0.09
142
0.0
143
25.4
144
1.0
145
0.0
146
1.0
147
0.09
 71
0
 72
0
 73
1
 74
1
 75
0
 76
0
 77
0
 78
0
170
0
171
2
172
0
173
0
174
0
175
0
176
0
177
0
178
0
  0
ENDTAB
  0
ENDSEC
  0
SECTION
  2
BLOCKS
  0
BLOCK
  5
8A
  8
0
  2
$Model_Space
 70
0
 10
0.0
 20
0.0
 30
0.0
  3
$Model_Space
  1

1001
EZDXF
1000
WRITTEN_BY_EZDXF
1000
0.16.4 @ 2023-12-07T01:40:29.571334+00:00
  0
ENDBLK
  5
21
  8
0
  0
BLOCK
  5
8B
 67
1
  8
0
  2
$Paper_Space
 70
0
 10
0.0
 20
0.0
 30
0.0
  3
$Paper_Space
  1

  0
ENDBLK
  5
1D
 67
1
  8
0
  0
ENDSEC
  0
SECTION
  2
ENTITIES
  0
LINE
  5
AF
  8
0
 10
0.099
 20
69.293
 30
0.0
 11
0.0
 21
69.392
 31
0.0
  0
LINE
  5
B0
  8
0
 10
1.086
 20
67.862
 30
0.0
 11
0.592
 21
68.75
 31
0.0
  0
LINE
  5
B1
  8
0
 10
1.53
 20
67.664
 30
0.0
 11
1.53
 21
67.763
 31
0.0
  0
LINE
  5
B2
  8
0
 10
3.11
 20
66.233
 30
0.0
 11
2.814
 21
66.677
 31
0.0
  0
LINE
  5
B3
  8
0
 10
0.099
 20
69.195
 30
0.0
 11
0.0
 21
69.195
 31
0.0
  0
LINE
  5
B4
  8
0
 10
3.9
 20
72.305
 30
0.0
 11
3.998
 21
72.354
 31
0.0
  0
LINE
  5
B5
  8
0
 10
4.097
 20
72.008
 30
0.0
 11
0.987
 21
69.59
 31
0.0
  0
LINE
  5
B6
  8
0
 10
4.097
 20
72.008
 30
0.0
 11
1.086
 21
69.59
 31
0.0
  0
LINE
  5
B7
  8
0
 10
5.233
 20
67.072
 30
0.0
 11
5.134
 21
67.319
 31
0.0
  0
LINE
  5
B8
  8
0
 10
5.331
 20
67.121
 30
0.0
 11
5.233
 21
67.418
 31
0.0
  0
LINE
  5
B9
  8
0
 10
3.9
 20
71.367
 30
0.0
 11
4.245
 21
70.379
 31
0.0
  0
LINE
  5
BA
  8
0
 10
4.344
 20
70.478
 30
0.0
 11
3.998
 21
71.465
 31
0.0
  0
LINE
  5
BB
  8
0
 10
4.739
 20
70.379
 30
0.0
 11
4.936
 21
69.935
 31
0.0
  0
LINE
  5
BC
  8
0
 10
5.035
 20
70.034
 30
0.0
 11
4.739
 21
70.577
 31
0.0
  0
LINE
  5
BD
  8
0
 10
3.9
 20
72.354
 30
0.0
 11
3.9
 21
72.453
 31
0.0
  0
LINE
  5
BE
  8
0
 10
4.245
 20
70.379
 30
0.0
 11
1.086
 21
67.862
 31
0.0
  0
LINE
  5
BF
  8
0
 10
1.283
 20
67.763
 30
0.0
 11
4.344
 21
70.379
 31
0.0
  0
LINE
  5
C0
  8
0
 10
4.64
 20
70.379
 30
0.0
 11
1.481
 21
67.862
 31
0.0
  0
LINE
  5
C1
  8
0
 10
8.145
 20
73.094
 30
0.0
 11
8.441
 21
73.391
 31
0.0
  0
LINE
  5
C2
  8
0
 10
1.53
 20
67.763
 30
0.0
 11
4.739
 21
70.379
 31
0.0
  0
LINE
  5
C3
  8
0
 10
8.54
 20
73.391
 30
0.0
 11
8.639
 21
73.391
 31
0.0
  0
LINE
  5
C4
  8
0
 10
8.935
 20
73.44
 30
0.0
 11
8.836
 21
73.44
 31
0.0
  0
LINE
  5
C5
  8
0
 10
1.481
 20
67.516
 30
0.0
 11
2.32
 21
68.207
 31
0.0
  0
LINE
  5
C6
  8
0
 10
2.518
 20
68.306
 30
0.0
 11
3.406
 21
69.047
 31
0.0
  0
LINE
  5
C7
  8
0
 10
3.505
 20
69.145
 30
0.0
 11
4.443
 21
69.935
 31
0.0
  0
LINE
  5
C8
  8
0
 10
4.936
 20
69.935
 30
0.0
 11
4.739
 21
69.935
 31
0.0
  0
LINE
  5
C9
  8
0
 10
4.936
 20
69.836
 30
0.0
 11
5.035
 21
69.935
 31
0.0
  0
LINE
  5
CA
  8
0
 10
4.936
 20
69.047
 30
0.0
 11
4.097
 21
68.405
 31
0.0
  0
LINE
  5
CB
  8
0
 10
3.998
 20
68.207
 30
0.0
 11
3.011
 21
67.516
 31
0.0
  0
LINE
  5
CC
  8
0
 10
2.912
 20
67.418
 30
0.0
 11
2.024
 21
66.677
 31
0.0
  0
LINE
  5
CD
  8
0
 10
2.024
 20
66.578
 30
0.0
 11
3.011
 21
67.418
 31
0.0
  0
LINE
  5
CE
  8
0
 10
3.11
 20
67.516
 30
0.0
 11
4.097
 21
68.207
 31
0.0
  0
LINE
  5
CF
  8
0
 10
4.147
 20
68.306
 30
0.0
 11
5.134
 21
69.047
 31
0.0
  0
LINE
  5
D0
  8
0
 10
7.059
 20
69.392
 30
0.0
 11
7.059
 21
69.293
 31
0.0
  0
LINE
  5
D1
  8
0
 10
2.715
 20
66.677
 30
0.0
 11
2.814
 21
66.776
 31
0.0
  0
LINE
  5
D2
  8
0
 10
3.801
 20
67.516
 30
0.0
 11
3.9
 21
67.664
 31
0.0
  0
LINE
  5
D3
  8
0
 10
4.739
 20
68.405
 30
0.0
 11
4.936
 21
68.504
 31
0.0
  0
LINE
  5
D4
  8
0
 10
1.826
 20
65.789
 30
0.0
 11
1.728
 21
65.69
 31
0.0
  0
LINE
  5
D5
  8
0
 10
5.627
 20
68.849
 30
0.0
 11
5.726
 21
68.849
 31
0.0
  0
LINE
  5
D6
  8
0
 10
11.749
 20
73.44
 30
0.0
 11
11.847
 21
73.44
 31
0.0
  0
LINE
  5
D7
  8
0
 10
5.924
 20
68.504
 30
0.0
 11
3.11
 21
66.233
 31
0.0
  0
LINE
  5
D8
  8
0
 10
3.11
 20
66.134
 30
0.0
 11
6.022
 21
68.504
 31
0.0
  0
LINE
  5
D9
  8
0
 10
6.417
 20
68.306
 30
0.0
 11
3.998
 21
66.43
 31
0.0
  0
LINE
  5
DA
  8
0
 10
2.912
 20
65.147
 30
0.0
 11
2.814
 21
65.147
 31
0.0
  0
LINE
  5
DB
  8
0
 10
6.713
 20
68.207
 30
0.0
 11
6.763
 21
68.306
 31
0.0
  0
LINE
  5
DC
  8
0
 10
6.763
 20
68.306
 30
0.0
 11
6.615
 21
68.158
 31
0.0
  0
LINE
  5
DD
  8
0
 10
5.825
 20
67.516
 30
0.0
 11
5.331
 21
67.121
 31
0.0
  0
LINE
  5
DE
  8
0
 10
5.331
 20
67.121
 30
0.0
 11
5.233
 21
67.072
 31
0.0
  0
LINE
  5
DF
  8
0
 10
5.43
 20
67.072
 30
0.0
 11
6.022
 21
67.516
 31
0.0
  0
LINE
  5
E0
  8
0
 10
6.713
 20
68.059
 30
0.0
 11
6.96
 21
68.306
 31
0.0
  0
LINE
  5
E1
  8
0
 10
5.331
 20
66.973
 30
0.0
 11
5.529
 21
67.121
 31
0.0
  0
LINE
  5
E2
  8
0
 10
12.39
 20
72.354
 30
0.0
 11
12.292
 21
72.305
 31
0.0
  0
LINE
  5
E3
  8
0
 10
7.651
 20
68.504
 30
0.0
 11
5.924
 21
67.072
 31
0.0
  0
LINE
  5
E4
  8
0
 10
9.774
 20
69.047
 30
0.0
 11
9.873
 21
69.047
 31
0.0
  0
LINE
  5
E5
  8
0
 10
10.169
 20
69.047
 30
0.0
 11
6.516
 21
65.986
 31
0.0
  0
LINE
  5
E6
  8
0
 10
6.615
 20
65.887
 30
0.0
 11
10.366
 21
68.849
 31
0.0
  0
LINE
  5
E7
  8
0
 10
1.185
 20
67.763
 30
0.0
 11
1.283
 21
67.763
 31
0.0
  0
LINE
  5
E8
  8
0
 10
1.481
 20
67.862
 30
0.0
 11
1.382
 21
67.862
 31
0.0
  0
LINE
  5
E9
  8
0
 10
22.757
 20
54.583
 30
0.0
 11
23.941
 21
53.596
 31
0.0
  0
LINE
  5
EA
  8
0
 10
24.04
 20
53.596
 30
0.0
 11
22.757
 21
54.682
 31
0.0
  0
LINE
  5
EB
  8
0
 10
8.737
 20
73.539
 30
0.0
 11
8.737
 21
73.44
 31
0.0
  0
LINE
  5
EC
  8
0
 10
8.737
 20
73.44
 30
0.0
 11
8.737
 21
73.539
 31
0.0
  0
LINE
  5
ED
  8
0
 10
8.441
 20
73.44
 30
0.0
 11
8.54
 21
73.391
 31
0.0
  0
LINE
  5
EE
  8
0
 10
3.998
 20
66.43
 30
0.0
 11
3.998
 21
66.332
 31
0.0
  0
LINE
  5
EF
  8
0
 10
27.15
 20
55.323
 30
0.0
 11
28.088
 21
54.583
 31
0.0
  0
LINE
  5
F0
  8
0
 10
28.088
 20
54.583
 30
0.0
 11
27.15
 21
55.323
 31
0.0
  0
LINE
  5
F1
  8
0
 10
8.441
 20
73.44
 30
0.0
 11
8.54
 21
73.391
 31
0.0
  0
LINE
  5
F2
  8
0
 10
30.309
 20
54.78
 30
0.0
 11
31.198
 21
54.04
 31
0.0
  0
LINE
  5
F3
  8
0
 10
30.605
 20
54.879
 30
0.0
 11
31.494
 21
54.04
 31
0.0
  0
LINE
  5
F4
  8
0
 10
34.505
 20
77.043
 30
0.0
 11
34.505
 21
76.994
 31
0.0
  0
LINE
  5
F5
  8
0
 10
38.849
 20
61.0
 30
0.0
 11
39.244
 21
61.0
 31
0.0
  0
LINE
  5
F6
  8
0
 10
41.07
 20
61.0
 30
0.0
 11
41.465
 21
61.0
 31
0.0
  0
LINE
  5
F7
  8
0
 10
41.07
 20
61.839
 30
0.0
 11
39.244
 21
61.839
 31
0.0
  0
LINE
  5
F8
  8
0
 10
41.07
 20
61.988
 30
0.0
 11
39.244
 21
61.988
 31
0.0
  0
LINE
  5
F9
  8
0
 10
36.726
 20
77.586
 30
0.0
 11
36.628
 21
77.537
 31
0.0
  0
LINE
  5
FA
  8
0
 10
37.121
 20
77.537
 30
0.0
 11
37.023
 21
77.438
 31
0.0
  0
LINE
  5
FB
  8
0
 10
33.123
 20
74.378
 30
0.0
 11
33.222
 21
74.378
 31
0.0
  0
LINE
  5
FC
  8
0
 10
33.024
 20
74.18
 30
0.0
 11
29.371
 21
71.12
 31
0.0
  0
LINE
  5
FD
  8
0
 10
37.812
 20
77.043
 30
0.0
 11
37.714
 21
77.043
 31
0.0
  0
LINE
  5
FE
  8
0
 10
33.814
 20
73.884
 30
0.0
 11
33.913
 21
73.983
 31
0.0
  0
LINE
  5
FF
  8
0
 10
38.109
 20
76.797
 30
0.0
 11
38.01
 21
76.797
 31
0.0
  0
LINE
  5
100
  8
0
 10
41.762
 20
64.061
 30
0.0
 11
41.564
 21
64.061
 31
0.0
  0
LINE
  5
101
  8
0
 10
34.209
 20
73.391
 30
0.0
 11
36.924
 21
75.612
 31
0.0
  0
LINE
  5
102
  8
0
 10
38.158
 20
76.5
 30
0.0
 11
38.257
 21
76.599
 31
0.0
  0
LINE
  5
103
  8
0
 10
39.639
 20
77.537
 30
0.0
 11
39.54
 21
77.438
 31
0.0
  0
LINE
  5
104
  8
0
 10
39.836
 20
77.537
 30
0.0
 11
39.738
 21
77.438
 31
0.0
  0
LINE
  5
105
  8
0
 10
39.738
 20
77.438
 30
0.0
 11
39.836
 21
77.537
 31
0.0
  0
LINE
  5
106
  8
0
 10
38.849
 20
76.599
 30
0.0
 11
38.75
 21
76.5
 31
0.0
  0
LINE
  5
107
  8
0
 10
39.738
 20
77.241
 30
0.0
 11
39.836
 21
77.34
 31
0.0
  0
LINE
  5
108
  8
0
 10
38.948
 20
76.599
 30
0.0
 11
38.849
 21
76.5
 31
0.0
  0
LINE
  5
109
  8
0
 10
38.948
 20
76.451
 30
0.0
 11
39.047
 21
76.5
 31
0.0
  0
LINE
  5
10A
  8
0
 10
38.849
 20
76.254
 30
0.0
 11
38.948
 21
76.352
 31
0.0
  0
LINE
  5
10B
  8
0
 10
40.725
 20
76.254
 30
0.0
 11
40.725
 21
76.155
 31
0.0
  0
LINE
  5
10C
  8
0
 10
39.244
 20
65.048
 30
0.0
 11
41.07
 21
65.048
 31
0.0
  0
LINE
  5
10D
  8
0
 10
41.07
 20
65.048
 30
0.0
 11
39.244
 21
65.048
 31
0.0
  0
LINE
  5
10E
  8
0
 10
38.948
 20
67.664
 30
0.0
 11
39.047
 21
67.664
 31
0.0
  0
LINE
  5
10F
  8
0
 10
41.268
 20
67.664
 30
0.0
 11
41.367
 21
67.664
 31
0.0
  0
LINE
  5
110
  8
0
 10
39.047
 20
67.664
 30
0.0
 11
41.268
 21
67.664
 31
0.0
  0
LINE
  5
111
  8
0
 10
29.174
 20
71.021
 30
0.0
 11
6.516
 21
65.789
 31
0.0
  0
LINE
  5
112
  8
0
 10
36.134
 20
69.491
 30
0.0
 11
35.838
 21
69.491
 31
0.0
  0
LINE
  5
113
  8
0
 10
36.134
 20
69.491
 30
0.0
 11
35.838
 21
69.59
 31
0.0
  0
LINE
  5
114
  8
0
 10
35.838
 20
69.688
 30
0.0
 11
36.134
 21
69.59
 31
0.0
  0
LINE
  5
115
  8
0
 10
33.814
 20
64.258
 30
0.0
 11
33.814
 21
72.897
 31
0.0
  0
LINE
  5
116
  8
0
 10
34.011
 20
73.094
 30
0.0
 11
34.011
 21
75.266
 31
0.0
  0
LINE
  5
117
  8
0
 10
34.209
 20
64.703
 30
0.0
 11
34.209
 21
64.16
 31
0.0
  0
LINE
  5
118
  8
0
 10
34.308
 20
75.513
 30
0.0
 11
34.308
 21
73.539
 31
0.0
  0
LINE
  5
119
  8
0
 10
34.406
 20
73.637
 30
0.0
 11
34.406
 21
75.513
 31
0.0
  0
LINE
  5
11A
  8
0
 10
34.604
 20
75.513
 30
0.0
 11
34.604
 21
73.736
 31
0.0
  0
LINE
  5
11B
  8
0
 10
34.801
 20
64.258
 30
0.0
 11
34.801
 21
64.801
 31
0.0
  0
LINE
  5
11C
  8
0
 10
34.999
 20
64.801
 30
0.0
 11
34.999
 21
65.147
 31
0.0
  0
LINE
  5
11D
  8
0
 10
34.999
 20
74.082
 30
0.0
 11
34.999
 21
76.007
 31
0.0
  0
LINE
  5
11E
  8
0
 10
35.097
 20
65.443
 30
0.0
 11
35.097
 21
64.9
 31
0.0
  0
LINE
  5
11F
  8
0
 10
6.615
 20
65.986
 30
0.0
 11
6.417
 21
65.887
 31
0.0
  0
LINE
  5
120
  8
0
 10
3.998
 20
66.43
 30
0.0
 11
3.11
 21
66.134
 31
0.0
  0
LINE
  5
121
  8
0
 10
5.924
 20
67.072
 30
0.0
 11
5.331
 21
66.973
 31
0.0
  0
LINE
  5
122
  8
0
 10
5.529
 20
67.121
 30
0.0
 11
5.43
 21
67.072
 31
0.0
  0
LINE
  5
123
  8
0
 10
2.814
 20
66.677
 30
0.0
 11
2.715
 21
66.677
 31
0.0
  0
LINE
  5
124
  8
0
 10
6.022
 20
67.516
 30
0.0
 11
5.233
 21
67.418
 31
0.0
  0
LINE
  5
125
  8
0
 10
5.825
 20
67.862
 30
0.0
 11
6.713
 21
68.059
 31
0.0
  0
LINE
  5
126
  8
0
 10
35.64
 20
63.814
 30
0.0
 11
35.64
 21
63.913
 31
0.0
  0
LINE
  5
127
  8
0
 10
36.924
 20
66.134
 30
0.0
 11
36.924
 21
66.677
 31
0.0
  0
LINE
  5
128
  8
0
 10
36.924
 20
75.612
 30
0.0
 11
36.924
 21
77.537
 31
0.0
  0
LINE
  5
129
  8
0
 10
37.319
 20
66.332
 30
0.0
 11
37.319
 21
67.072
 31
0.0
  0
LINE
  5
12A
  8
0
 10
37.319
 20
75.711
 30
0.0
 11
37.319
 21
77.241
 31
0.0
  0
LINE
  5
12B
  8
0
 10
10.465
 20
69.047
 30
0.0
 11
33.123
 21
74.279
 31
0.0
  0
LINE
  5
12C
  8
0
 10
6.615
 20
68.158
 30
0.0
 11
6.022
 21
68.059
 31
0.0
  0
LINE
  5
12D
  8
0
 10
33.123
 20
74.378
 30
0.0
 11
10.564
 21
69.195
 31
0.0
  0
LINE
  5
12E
  8
0
 10
1.481
 20
67.862
 30
0.0
 11
1.283
 21
67.763
 31
0.0
  0
LINE
  5
12F
  8
0
 10
39.244
 20
59.026
 30
0.0
 11
39.244
 21
59.124
 31
0.0
  0
LINE
  5
130
  8
0
 10
38.849
 20
59.47
 30
0.0
 11
38.849
 21
59.124
 31
0.0
  0
LINE
  5
131
  8
0
 10
38.849
 20
59.124
 30
0.0
 11
38.849
 21
59.026
 31
0.0
  0
LINE
  5
132
  8
0
 10
38.849
 20
59.124
 30
0.0
 11
38.849
 21
59.026
 31
0.0
  0
LINE
  5
133
  8
0
 10
37.615
 20
77.043
 30
0.0
 11
37.615
 21
76.007
 31
0.0
  0
LINE
  5
134
  8
0
 10
37.615
 20
67.319
 30
0.0
 11
37.615
 21
66.332
 31
0.0
  0
LINE
  5
135
  8
0
 10
37.615
 20
64.9
 30
0.0
 11
37.615
 21
64.999
 31
0.0
  0
LINE
  5
136
  8
0
 10
37.714
 20
76.056
 30
0.0
 11
37.714
 21
67.418
 31
0.0
  0
LINE
  5
137
  8
0
 10
37.812
 20
66.332
 30
0.0
 11
37.812
 21
67.418
 31
0.0
  0
LINE
  5
138
  8
0
 10
37.812
 20
76.056
 30
0.0
 11
37.812
 21
77.043
 31
0.0
  0
LINE
  5
139
  8
0
 10
37.911
 20
67.418
 30
0.0
 11
37.911
 21
76.056
 31
0.0
  0
LINE
  5
13A
  8
0
 10
38.01
 20
64.999
 30
0.0
 11
38.01
 21
65.048
 31
0.0
  0
LINE
  5
13B
  8
0
 10
38.652
 20
61.099
 30
0.0
 11
38.652
 21
59.667
 31
0.0
  0
LINE
  5
13C
  8
0
 10
38.849
 20
59.816
 30
0.0
 11
38.849
 21
61.0
 31
0.0
  0
LINE
  5
13D
  8
0
 10
38.553
 20
59.766
 30
0.0
 11
38.553
 21
65.147
 31
0.0
  0
LINE
  5
13E
  8
0
 10
38.553
 20
65.147
 30
0.0
 11
38.553
 21
61.0
 31
0.0
  0
LINE
  5
13F
  8
0
 10
5.035
 20
69.935
 30
0.0
 11
5.134
 21
69.935
 31
0.0
  0
LINE
  5
140
  8
0
 10
0.79
 20
69.392
 30
0.0
 11
0.099
 21
69.195
 31
0.0
  0
LINE
  5
141
  8
0
 10
0.79
 20
69.491
 30
0.0
 11
0.099
 21
69.293
 31
0.0
  0
LINE
  5
142
  8
0
 10
4.344
 20
70.379
 30
0.0
 11
4.64
 21
70.379
 31
0.0
  0
LINE
  5
143
  8
0
 10
4.739
 20
70.577
 30
0.0
 11
4.344
 21
70.478
 31
0.0
  0
LINE
  5
144
  8
0
 10
36.628
 20
74.526
 30
0.0
 11
36.726
 21
74.427
 31
0.0
  0
LINE
  5
145
  8
0
 10
41.762
 20
65.147
 30
0.0
 11
41.762
 21
64.061
 31
0.0
  0
LINE
  5
146
  8
0
 10
41.86
 20
65.147
 30
0.0
 11
41.86
 21
64.061
 31
0.0
  0
LINE
  5
147
  8
0
 10
40.034
 20
76.056
 30
0.0
 11
40.034
 21
67.763
 31
0.0
  0
LINE
  5
148
  8
0
 10
40.133
 20
76.007
 30
0.0
 11
40.133
 21
67.763
 31
0.0
  0
LINE
  5
149
  8
0
 10
40.231
 20
75.908
 30
0.0
 11
40.231
 21
67.763
 31
0.0
  0
LINE
  5
14A
  8
0
 10
40.429
 20
75.908
 30
0.0
 11
40.429
 21
67.763
 31
0.0
  0
LINE
  5
14B
  8
0
 10
40.527
 20
67.763
 30
0.0
 11
40.527
 21
75.908
 31
0.0
  0
LINE
  5
14C
  8
0
 10
41.465
 20
61.0
 30
0.0
 11
41.465
 21
59.816
 31
0.0
  0
LINE
  5
14D
  8
0
 10
41.465
 20
66.43
 30
0.0
 11
41.465
 21
67.121
 31
0.0
  0
LINE
  5
14E
  8
0
 10
41.465
 20
67.664
 30
0.0
 11
41.465
 21
78.228
 31
0.0
  0
LINE
  5
14F
  8
0
 10
41.465
 20
77.586
 30
0.0
 11
41.465
 21
66.43
 31
0.0
  0
LINE
  5
150
  8
0
 10
41.663
 20
66.43
 30
0.0
 11
41.663
 21
77.586
 31
0.0
  0
LINE
  5
151
  8
0
 10
41.663
 20
59.667
 30
0.0
 11
41.663
 21
61.099
 31
0.0
  0
LINE
  5
152
  8
0
 10
41.86
 20
63.271
 30
0.0
 11
41.86
 21
61.0
 31
0.0
  0
LINE
  5
153
  8
0
 10
41.86
 20
65.048
 30
0.0
 11
41.86
 21
65.147
 31
0.0
  0
LINE
  5
154
  8
0
 10
41.762
 20
64.061
 30
0.0
 11
41.762
 21
63.913
 31
0.0
  0
LINE
  5
155
  8
0
 10
41.564
 20
61.198
 30
0.0
 11
41.564
 21
64.061
 31
0.0
  0
LINE
  5
156
  8
0
 10
41.86
 20
63.814
 30
0.0
 11
41.86
 21
60.21
 31
0.0
  0
LINE
  5
157
  8
0
 10
41.465
 20
59.026
 30
0.0
 11
41.465
 21
59.47
 31
0.0
  0
LINE
  5
158
  8
0
 10
41.07
 20
59.124
 30
0.0
 11
41.07
 21
59.026
 31
0.0
  0
LINE
  5
159
  8
0
 10
36.825
 20
79.956
 30
0.0
 11
30.704
 21
78.524
 31
0.0
  0
LINE
  5
15A
  8
0
 10
11.847
 20
74.18
 30
0.0
 11
8.836
 21
73.44
 31
0.0
  0
LINE
  5
15B
  8
0
 10
4.64
 20
72.551
 30
0.0
 11
3.998
 21
72.354
 31
0.0
  0
LINE
  5
15C
  8
0
 10
8.836
 20
73.44
 30
0.0
 11
8.737
 21
73.44
 31
0.0
  0
LINE
  5
15D
  8
0
 10
37.023
 20
75.168
 30
0.0
 11
36.924
 21
75.168
 31
0.0
  0
LINE
  5
15E
  8
0
 10
42.749
 20
60.655
 30
0.0
 11
42.848
 21
60.21
 31
0.0
  0
LINE
  5
15F
  8
0
 10
42.848
 20
64.9
 30
0.0
 11
42.848
 21
63.715
 31
0.0
  0
LINE
  5
160
  8
0
 10
42.946
 20
64.801
 30
0.0
 11
42.946
 21
63.617
 31
0.0
  0
LINE
  5
161
  8
0
 10
42.848
 20
60.21
 30
0.0
 11
42.848
 21
63.271
 31
0.0
  0
LINE
  5
162
  8
0
 10
43.242
 20
63.468
 30
0.0
 11
43.292
 21
59.273
 31
0.0
  0
LINE
  5
163
  8
0
 10
42.255
 20
63.913
 30
0.0
 11
42.255
 21
64.999
 31
0.0
  0
LINE
  5
164
  8
0
 10
42.453
 20
63.913
 30
0.0
 11
42.453
 21
64.999
 31
0.0
  0
LINE
  5
165
  8
0
 10
42.453
 20
66.43
 30
0.0
 11
42.453
 21
77.685
 31
0.0
  0
LINE
  5
166
  8
0
 10
42.749
 20
60.655
 30
0.0
 11
42.749
 21
63.074
 31
0.0
  0
LINE
  5
167
  8
0
 10
42.848
 20
66.332
 30
0.0
 11
42.848
 21
77.784
 31
0.0
  0
LINE
  5
168
  8
0
 10
43.045
 20
64.9
 30
0.0
 11
43.045
 21
64.801
 31
0.0
  0
LINE
  5
169
  8
0
 10
43.144
 20
78.08
 30
0.0
 11
43.144
 21
66.233
 31
0.0
  0
LINE
  5
16A
  8
0
 10
43.292
 20
64.703
 30
0.0
 11
43.292
 21
64.801
 31
0.0
  0
LINE
  5
16B
  8
0
 10
44.378
 20
77.586
 30
0.0
 11
44.378
 21
65.887
 31
0.0
  0
LINE
  5
16C
  8
0
 10
45.464
 20
77.043
 30
0.0
 11
45.464
 21
65.344
 31
0.0
  0
LINE
  5
16D
  8
0
 10
46.007
 20
76.352
 30
0.0
 11
46.007
 21
64.801
 31
0.0
  0
LINE
  5
16E
  8
0
 10
46.303
 20
75.612
 30
0.0
 11
46.303
 21
64.505
 31
0.0
  0
LINE
  5
16F
  8
0
 10
36.233
 20
57.199
 30
0.0
 11
36.332
 21
57.199
 31
0.0
  0
LINE
  5
170
  8
0
 10
32.876
 20
55.521
 30
0.0
 11
32.876
 21
55.422
 31
0.0
  0
LINE
  5
171
  8
0
 10
32.876
 20
55.521
 30
0.0
 11
32.876
 21
55.62
 31
0.0
  0
LINE
  5
172
  8
0
 10
43.391
 20
58.483
 30
0.0
 11
43.785
 21
58.384
 31
0.0
  0
LINE
  5
173
  8
0
 10
43.144
 20
57.594
 30
0.0
 11
43.045
 21
57.594
 31
0.0
  0
LINE
  5
174
  8
0
 10
42.255
 20
63.913
 30
0.0
 11
41.86
 21
64.061
 31
0.0
  0
LINE
  5
175
  8
0
 10
41.959
 20
60.902
 30
0.0
 11
42.156
 21
60.902
 31
0.0
  0
LINE
  5
176
  8
0
 10
42.156
 20
60.902
 30
0.0
 11
42.255
 21
60.902
 31
0.0
  0
LINE
  5
177
  8
0
 10
42.255
 20
63.715
 30
0.0
 11
41.762
 21
63.814
 31
0.0
  0
LINE
  5
178
  8
0
 10
42.946
 20
63.617
 30
0.0
 11
43.242
 21
63.468
 31
0.0
  0
LINE
  5
179
  8
0
 10
42.946
 20
63.37
 30
0.0
 11
42.848
 21
63.468
 31
0.0
  0
LINE
  5
17A
  8
0
 10
45.908
 20
55.866
 30
0.0
 11
45.908
 21
55.768
 31
0.0
  0
LINE
  5
17B
  8
0
 10
47.488
 20
55.62
 30
0.0
 11
47.488
 21
55.521
 31
0.0
  0
LINE
  5
17C
  8
0
 10
47.488
 20
55.521
 30
0.0
 11
47.488
 21
55.422
 31
0.0
  0
LINE
  5
17D
  8
0
 10
41.762
 20
63.814
 30
0.0
 11
41.762
 21
63.913
 31
0.0
  0
LINE
  5
17E
  8
0
 10
35.196
 20
66.43
 30
0.0
 11
35.196
 21
66.529
 31
0.0
  0
LINE
  5
17F
  8
0
 10
41.86
 20
60.21
 30
0.0
 11
41.86
 21
61.0
 31
0.0
  0
LINE
  5
180
  8
0
 10
1.826
 20
65.789
 30
0.0
 11
0.099
 21
69.195
 31
0.0
  0
LINE
  5
181
  8
0
 10
1.086
 20
67.862
 30
0.0
 11
0.592
 21
68.75
 31
0.0
  0
LINE
  5
182
  8
0
 10
5.627
 20
67.664
 30
0.0
 11
5.726
 21
67.664
 31
0.0
  0
LINE
  5
183
  8
0
 10
6.319
 20
67.961
 30
0.0
 11
6.319
 21
67.862
 31
0.0
  0
LINE
  5
184
  8
0
 10
6.417
 20
67.961
 30
0.0
 11
6.319
 21
67.763
 31
0.0
  0
LINE
  5
185
  8
0
 10
2.024
 20
66.677
 30
0.0
 11
1.481
 21
67.516
 31
0.0
  0
LINE
  5
186
  8
0
 10
1.53
 20
67.664
 30
0.0
 11
1.481
 21
67.763
 31
0.0
  0
LINE
  5
187
  8
0
 10
3.011
 20
66.233
 30
0.0
 11
2.814
 21
66.677
 31
0.0
  0
LINE
  5
188
  8
0
 10
2.912
 20
67.072
 30
0.0
 11
2.912
 21
67.121
 31
0.0
  0
LINE
  5
189
  8
0
 10
8.441
 20
73.193
 30
0.0
 11
8.54
 21
73.391
 31
0.0
  0
LINE
  5
18A
  8
0
 10
0.099
 20
69.293
 30
0.0
 11
3.9
 21
72.354
 31
0.0
  0
LINE
  5
18B
  8
0
 10
0.592
 20
68.75
 30
0.0
 11
3.9
 21
71.367
 31
0.0
  0
LINE
  5
18C
  8
0
 10
2.32
 20
68.207
 30
0.0
 11
2.912
 21
67.418
 31
0.0
  0
LINE
  5
18D
  8
0
 10
3.011
 20
67.516
 30
0.0
 11
2.518
 21
68.306
 31
0.0
  0
LINE
  5
18E
  8
0
 10
3.406
 20
69.047
 30
0.0
 11
3.998
 21
68.207
 31
0.0
  0
LINE
  5
18F
  8
0
 10
5.233
 20
66.973
 30
0.0
 11
5.134
 21
67.22
 31
0.0
  0
LINE
  5
190
  8
0
 10
5.233
 20
67.418
 30
0.0
 11
5.331
 21
67.121
 31
0.0
  0
LINE
  5
191
  8
0
 10
6.417
 20
65.986
 30
0.0
 11
6.417
 21
65.887
 31
0.0
  0
LINE
  5
192
  8
0
 10
6.417
 20
65.986
 30
0.0
 11
6.417
 21
65.887
 31
0.0
  0
LINE
  5
193
  8
0
 10
6.22
 20
66.43
 30
0.0
 11
6.516
 21
65.986
 31
0.0
  0
LINE
  5
194
  8
0
 10
5.726
 20
67.664
 30
0.0
 11
5.726
 21
67.516
 31
0.0
  0
LINE
  5
195
  8
0
 10
5.726
 20
67.763
 30
0.0
 11
5.825
 21
67.763
 31
0.0
  0
LINE
  5
196
  8
0
 10
4.739
 20
69.935
 30
0.0
 11
4.739
 21
70.034
 31
0.0
  0
LINE
  5
197
  8
0
 10
3.9
 20
72.305
 30
0.0
 11
5.627
 21
68.849
 31
0.0
  0
LINE
  5
198
  8
0
 10
6.22
 20
67.961
 30
0.0
 11
6.319
 21
67.862
 31
0.0
  0
LINE
  5
199
  8
0
 10
9.577
 20
69.738
 30
0.0
 11
9.577
 21
69.836
 31
0.0
  0
LINE
  5
19A
  8
0
 10
9.675
 20
69.935
 30
0.0
 11
9.675
 21
70.034
 31
0.0
  0
LINE
  5
19B
  8
0
 10
8.046
 20
73.094
 30
0.0
 11
8.441
 21
73.391
 31
0.0
  0
LINE
  5
19C
  8
0
 10
1.481
 20
67.615
 30
0.0
 11
2.32
 21
68.306
 31
0.0
  0
LINE
  5
19D
  8
0
 10
2.518
 20
68.405
 30
0.0
 11
3.406
 21
69.145
 31
0.0
  0
LINE
  5
19E
  8
0
 10
3.505
 20
69.195
 30
0.0
 11
4.443
 21
69.935
 31
0.0
  0
LINE
  5
19F
  8
0
 10
2.123
 20
67.615
 30
0.0
 11
2.024
 21
67.516
 31
0.0
  0
LINE
  5
1A0
  8
0
 10
4.245
 20
69.047
 30
0.0
 11
4.245
 21
69.145
 31
0.0
  0
LINE
  5
1A1
  8
0
 10
4.097
 20
68.405
 30
0.0
 11
3.505
 21
69.145
 31
0.0
  0
LINE
  5
1A2
  8
0
 10
4.443
 20
69.935
 30
0.0
 11
4.936
 21
69.047
 31
0.0
  0
LINE
  5
1A3
  8
0
 10
6.615
 20
68.207
 30
0.0
 11
6.615
 21
68.158
 31
0.0
  0
LINE
  5
1A4
  8
0
 10
7.158
 20
69.293
 30
0.0
 11
7.059
 21
69.392
 31
0.0
  0
LINE
  5
1A5
  8
0
 10
7.355
 20
69.392
 30
0.0
 11
7.256
 21
69.491
 31
0.0
  0
LINE
  5
1A6
  8
0
 10
9.971
 20
69.293
 30
0.0
 11
10.07
 21
69.392
 31
0.0
  0
LINE
  5
1A7
  8
0
 10
4.936
 20
68.75
 30
0.0
 11
4.739
 21
68.701
 31
0.0
  0
LINE
  5
1A8
  8
0
 10
4.936
 20
68.75
 30
0.0
 11
4.838
 21
68.701
 31
0.0
  0
LINE
  5
1A9
  8
0
 10
2.715
 20
67.072
 30
0.0
 11
2.814
 21
67.072
 31
0.0
  0
LINE
  5
1AA
  8
0
 10
4.838
 20
68.701
 30
0.0
 11
4.936
 21
68.75
 31
0.0
  0
LINE
  5
1AB
  8
0
 10
2.814
 20
67.072
 30
0.0
 11
2.715
 21
67.072
 31
0.0
  0
LINE
  5
1AC
  8
0
 10
2.715
 20
67.072
 30
0.0
 11
2.912
 21
67.121
 31
0.0
  0
LINE
  5
1AD
  8
0
 10
2.912
 20
67.121
 30
0.0
 11
2.715
 21
66.973
 31
0.0
  0
LINE
  5
1AE
  8
0
 10
2.912
 20
67.121
 30
0.0
 11
2.814
 21
67.072
 31
0.0
  0
LINE
  5
1AF
  8
0
 10
2.814
 20
67.072
 30
0.0
 11
3.011
 21
67.121
 31
0.0
  0
LINE
  5
1B0
  8
0
 10
3.11
 20
67.121
 30
0.0
 11
2.814
 21
66.973
 31
0.0
  0
LINE
  5
1B1
  8
0
 10
3.11
 20
67.121
 30
0.0
 11
2.912
 21
67.121
 31
0.0
  0
LINE
  5
1B2
  8
0
 10
2.912
 20
67.072
 30
0.0
 11
2.814
 21
66.973
 31
0.0
  0
LINE
  5
1B3
  8
0
 10
3.11
 20
67.121
 30
0.0
 11
2.912
 21
67.072
 31
0.0
  0
LINE
  5
1B4
  8
0
 10
2.814
 20
66.973
 30
0.0
 11
2.912
 21
67.072
 31
0.0
  0
LINE
  5
1B5
  8
0
 10
4.147
 20
68.059
 30
0.0
 11
4.147
 21
67.961
 31
0.0
  0
LINE
  5
1B6
  8
0
 10
2.814
 20
66.677
 30
0.0
 11
5.627
 21
68.948
 31
0.0
  0
LINE
  5
1B7
  8
0
 10
3.998
 20
66.43
 30
0.0
 11
6.417
 21
68.306
 31
0.0
  0
LINE
  5
1B8
  8
0
 10
7.651
 20
68.504
 30
0.0
 11
5.924
 21
67.072
 31
0.0
  0
LINE
  5
1B9
  8
0
 10
8.836
 20
73.44
 30
0.0
 11
8.737
 21
73.44
 31
0.0
  0
LINE
  5
1BA
  8
0
 10
10.169
 20
69.047
 30
0.0
 11
10.268
 21
69.047
 31
0.0
  0
LINE
  5
1BB
  8
0
 10
10.366
 20
68.849
 30
0.0
 11
10.366
 21
68.948
 31
0.0
  0
LINE
  5
1BC
  8
0
 10
10.465
 20
69.195
 30
0.0
 11
10.465
 21
69.145
 31
0.0
  0
LINE
  5
1BD
  8
0
 10
9.478
 20
69.738
 30
0.0
 11
9.675
 21
69.836
 31
0.0
  0
LINE
  5
1BE
  8
0
 10
9.577
 20
69.738
 30
0.0
 11
9.774
 21
69.935
 31
0.0
  0
LINE
  5
1BF
  8
0
 10
9.675
 20
69.688
 30
0.0
 11
9.774
 21
69.738
 31
0.0
  0
LINE
  5
1C0
  8
0
 10
8.54
 20
68.701
 30
0.0
 11
6.319
 21
66.875
 31
0.0
  0
LINE
  5
1C1
  8
0
 10
6.615
 20
65.986
 30
0.0
 11
6.516
 21
65.887
 31
0.0
  0
LINE
  5
1C2
  8
0
 10
10.366
 20
68.948
 30
0.0
 11
10.465
 21
69.145
 31
0.0
  0
LINE
  5
1C3
  8
0
 10
10.465
 20
69.047
 30
0.0
 11
10.366
 21
68.849
 31
0.0
  0
LINE
  5
1C4
  8
0
 10
6.516
 20
65.789
 30
0.0
 11
6.713
 21
65.986
 31
0.0
  0
LINE
  5
1C5
  8
0
 10
5.924
 20
67.862
 30
0.0
 11
5.924
 21
67.763
 31
0.0
  0
LINE
  5
1C6
  8
0
 10
9.231
 20
70.133
 30
0.0
 11
9.33
 21
70.231
 31
0.0
  0
LINE
  5
1C7
  8
0
 10
10.465
 20
69.195
 30
0.0
 11
10.564
 21
69.195
 31
0.0
  0
LINE
  5
1C8
  8
0
 10
6.319
 20
67.862
 30
0.0
 11
5.726
 21
67.516
 31
0.0
  0
LINE
  5
1C9
  8
0
 10
6.319
 20
67.763
 30
0.0
 11
5.726
 21
67.516
 31
0.0
  0
LINE
  5
1CA
  8
0
 10
9.873
 20
69.935
 30
0.0
 11
9.577
 21
69.738
 31
0.0
  0
LINE
  5
1CB
  8
0
 10
24.731
 20
53.793
 30
0.0
 11
24.139
 21
53.596
 31
0.0
  0
LINE
  5
1CC
  8
0
 10
28.088
 20
54.583
 30
0.0
 11
26.953
 21
54.336
 31
0.0
  0
LINE
  5
1CD
  8
0
 10
25.965
 20
55.077
 30
0.0
 11
27.15
 21
55.323
 31
0.0
  0
LINE
  5
1CE
  8
0
 10
27.15
 20
55.422
 30
0.0
 11
25.965
 21
55.126
 31
0.0
  0
LINE
  5
1CF
  8
0
 10
22.757
 20
54.534
 30
0.0
 11
22.757
 21
54.583
 31
0.0
  0
LINE
  5
1D0
  8
0
 10
22.757
 20
54.682
 30
0.0
 11
23.448
 21
54.78
 31
0.0
  0
LINE
  5
1D1
  8
0
 10
23.448
 20
54.879
 30
0.0
 11
22.757
 21
54.682
 31
0.0
  0
LINE
  5
1D2
  8
0
 10
25.965
 20
55.077
 30
0.0
 11
23.448
 21
54.78
 31
0.0
  0
LINE
  5
1D3
  8
0
 10
23.448
 20
54.879
 30
0.0
 11
25.965
 21
55.126
 31
0.0
  0
LINE
  5
1D4
  8
0
 10
31.198
 20
54.04
 30
0.0
 11
28.088
 21
54.583
 31
0.0
  0
LINE
  5
1D5
  8
0
 10
27.15
 20
55.323
 30
0.0
 11
30.309
 21
54.78
 31
0.0
  0
LINE
  5
1D6
  8
0
 10
30.309
 20
54.879
 30
0.0
 11
27.249
 21
55.422
 31
0.0
  0
LINE
  5
1D7
  8
0
 10
1.086
 20
69.59
 30
0.0
 11
1.382
 21
69.392
 31
0.0
  0
LINE
  5
1D8
  8
0
 10
12.292
 20
72.305
 30
0.0
 11
11.749
 21
73.44
 31
0.0
  0
LINE
  5
1D9
  8
0
 10
12.39
 20
72.354
 30
0.0
 11
11.847
 21
73.44
 31
0.0
  0
LINE
  5
1DA
  8
0
 10
5.529
 20
67.121
 30
0.0
 11
5.529
 21
67.072
 31
0.0
  0
LINE
  5
1DB
  8
0
 10
4.147
 20
67.961
 30
0.0
 11
3.801
 21
67.862
 31
0.0
  0
LINE
  5
1DC
  8
0
 10
4.245
 20
68.059
 30
0.0
 11
3.9
 21
67.862
 31
0.0
  0
LINE
  5
1DD
  8
0
 10
3.9
 20
67.862
 30
0.0
 11
4.245
 21
68.059
 31
0.0
  0
LINE
  5
1DE
  8
0
 10
6.319
 20
67.763
 30
0.0
 11
6.319
 21
67.862
 31
0.0
  0
LINE
  5
1DF
  8
0
 10
5.134
 20
69.836
 30
0.0
 11
5.134
 21
69.935
 31
0.0
  0
LINE
  5
1E0
  8
0
 10
41.465
 20
59.569
 30
0.0
 11
41.367
 21
59.569
 31
0.0
  0
LINE
  5
1E1
  8
0
 10
39.047
 20
59.569
 30
0.0
 11
38.849
 21
59.569
 31
0.0
  0
LINE
  5
1E2
  8
0
 10
41.465
 20
59.816
 30
0.0
 11
41.268
 21
59.816
 31
0.0
  0
LINE
  5
1E3
  8
0
 10
39.047
 20
59.816
 30
0.0
 11
38.849
 21
59.816
 31
0.0
  0
LINE
  5
1E4
  8
0
 10
44.575
 20
76.797
 30
0.0
 11
45.464
 21
77.043
 31
0.0
  0
LINE
  5
1E5
  8
0
 10
41.465
 20
61.0
 30
0.0
 11
41.169
 21
61.0
 31
0.0
  0
LINE
  5
1E6
  8
0
 10
38.849
 20
61.0
 30
0.0
 11
39.244
 21
61.0
 31
0.0
  0
LINE
  5
1E7
  8
0
 10
41.465
 20
61.0
 30
0.0
 11
41.07
 21
61.0
 31
0.0
  0
LINE
  5
1E8
  8
0
 10
39.244
 20
61.0
 30
0.0
 11
38.849
 21
61.0
 31
0.0
  0
LINE
  5
1E9
  8
0
 10
38.652
 20
61.198
 30
0.0
 11
38.849
 21
61.198
 31
0.0
  0
LINE
  5
1EA
  8
0
 10
41.465
 20
61.198
 30
0.0
 11
41.663
 21
61.198
 31
0.0
  0
LINE
  5
1EB
  8
0
 10
41.268
 20
61.296
 30
0.0
 11
41.07
 21
61.296
 31
0.0
  0
LINE
  5
1EC
  8
0
 10
39.047
 20
61.296
 30
0.0
 11
39.244
 21
61.296
 31
0.0
  0
LINE
  5
1ED
  8
0
 10
23.448
 20
54.78
 30
0.0
 11
23.448
 21
54.879
 31
0.0
  0
LINE
  5
1EE
  8
0
 10
34.011
 20
75.266
 30
0.0
 11
34.308
 21
75.513
 31
0.0
  0
LINE
  5
1EF
  8
0
 10
29.174
 20
71.021
 30
0.0
 11
29.273
 21
71.12
 31
0.0
  0
LINE
  5
1F0
  8
0
 10
33.024
 20
74.082
 30
0.0
 11
33.123
 21
74.279
 31
0.0
  0
LINE
  5
1F1
  8
0
 10
33.024
 20
74.082
 30
0.0
 11
29.371
 21
71.12
 31
0.0
  0
LINE
  5
1F2
  8
0
 10
43.292
 20
77.043
 30
0.0
 11
44.378
 21
77.586
 31
0.0
  0
LINE
  5
1F3
  8
0
 10
25.965
 20
55.126
 30
0.0
 11
25.965
 21
55.077
 31
0.0
  0
LINE
  5
1F4
  8
0
 10
39.935
 20
77.043
 30
0.0
 11
39.935
 21
76.994
 31
0.0
  0
LINE
  5
1F5
  8
0
 10
39.145
 20
76.056
 30
0.0
 11
39.047
 21
76.007
 31
0.0
  0
LINE
  5
1F6
  8
0
 10
36.924
 20
75.612
 30
0.0
 11
34.209
 21
73.44
 31
0.0
  0
LINE
  5
1F7
  8
0
 10
37.714
 20
76.056
 30
0.0
 11
37.023
 21
75.513
 31
0.0
  0
LINE
  5
1F8
  8
0
 10
33.814
 20
72.897
 30
0.0
 11
34.209
 21
73.193
 31
0.0
  0
LINE
  5
1F9
  8
0
 10
39.738
 20
77.586
 30
0.0
 11
39.836
 21
77.685
 31
0.0
  0
LINE
  5
1FA
  8
0
 10
39.639
 20
77.537
 30
0.0
 11
39.54
 21
77.438
 31
0.0
  0
LINE
  5
1FB
  8
0
 10
38.257
 20
76.352
 30
0.0
 11
38.355
 21
76.352
 31
0.0
  0
LINE
  5
1FC
  8
0
 10
38.849
 20
76.698
 30
0.0
 11
38.948
 21
76.698
 31
0.0
  0
LINE
  5
1FD
  8
0
 10
39.738
 20
77.241
 30
0.0
 11
39.836
 21
77.34
 31
0.0
  0
LINE
  5
1FE
  8
0
 10
38.849
 20
76.599
 30
0.0
 11
38.75
 21
76.5
 31
0.0
  0
LINE
  5
1FF
  8
0
 10
39.935
 20
77.34
 30
0.0
 11
40.034
 21
77.438
 31
0.0
  0
LINE
  5
200
  8
0
 10
38.849
 20
76.352
 30
0.0
 11
39.047
 21
76.352
 31
0.0
  0
LINE
  5
201
  8
0
 10
36.628
 20
74.526
 30
0.0
 11
34.505
 21
72.749
 31
0.0
  0
LINE
  5
202
  8
0
 10
34.505
 20
72.749
 30
0.0
 11
36.726
 21
74.427
 31
0.0
  0
LINE
  5
203
  8
0
 10
39.145
 20
76.352
 30
0.0
 11
39.244
 21
76.451
 31
0.0
  0
LINE
  5
204
  8
0
 10
43.144
 20
78.08
 30
0.0
 11
42.848
 21
77.784
 31
0.0
  0
LINE
  5
205
  8
0
 10
40.527
 20
75.908
 30
0.0
 11
40.774
 21
76.155
 31
0.0
  0
LINE
  5
206
  8
0
 10
41.07
 20
76.451
 30
0.0
 11
41.169
 21
76.5
 31
0.0
  0
LINE
  5
207
  8
0
 10
38.01
 20
65.048
 30
0.0
 11
38.158
 21
65.048
 31
0.0
  0
LINE
  5
208
  8
0
 10
38.553
 20
65.147
 30
0.0
 11
39.244
 21
65.147
 31
0.0
  0
LINE
  5
209
  8
0
 10
41.07
 20
65.147
 30
0.0
 11
41.762
 21
65.147
 31
0.0
  0
LINE
  5
20A
  8
0
 10
42.354
 20
65.789
 30
0.0
 11
41.07
 21
65.789
 31
0.0
  0
LINE
  5
20B
  8
0
 10
39.244
 20
65.789
 30
0.0
 11
38.01
 21
65.789
 31
0.0
  0
LINE
  5
20C
  8
0
 10
38.01
 20
66.43
 30
0.0
 11
39.047
 21
66.43
 31
0.0
  0
LINE
  5
20D
  8
0
 10
41.268
 20
66.43
 30
0.0
 11
42.354
 21
66.43
 31
0.0
  0
LINE
  5
20E
  8
0
 10
9.873
 20
69.59
 30
0.0
 11
9.774
 21
69.688
 31
0.0
  0
LINE
  5
20F
  8
0
 10
33.814
 20
64.16
 30
0.0
 11
33.913
 21
64.16
 31
0.0
  0
LINE
  5
210
  8
0
 10
34.801
 20
64.258
 30
0.0
 11
35.838
 21
63.962
 31
0.0
  0
LINE
  5
211
  8
0
 10
36.233
 20
64.357
 30
0.0
 11
35.196
 21
64.604
 31
0.0
  0
LINE
  5
212
  8
0
 10
34.801
 20
64.801
 30
0.0
 11
35.097
 21
64.801
 31
0.0
  0
LINE
  5
213
  8
0
 10
33.913
 20
62.432
 30
0.0
 11
35.295
 21
61.346
 31
0.0
  0
LINE
  5
214
  8
0
 10
33.024
 20
74.18
 30
0.0
 11
33.123
 21
74.18
 31
0.0
  0
LINE
  5
215
  8
0
 10
33.123
 20
74.378
 30
0.0
 11
33.222
 21
74.378
 31
0.0
  0
LINE
  5
216
  8
0
 10
35.542
 20
69.688
 30
0.0
 11
36.035
 21
69.738
 31
0.0
  0
LINE
  5
217
  8
0
 10
41.367
 20
67.763
 30
0.0
 11
38.948
 21
67.763
 31
0.0
  0
LINE
  5
218
  8
0
 10
35.097
 20
66.529
 30
0.0
 11
35.295
 21
66.43
 31
0.0
  0
LINE
  5
219
  8
0
 10
35.492
 20
66.43
 30
0.0
 11
34.703
 21
66.677
 31
0.0
  0
LINE
  5
21A
  8
0
 10
35.542
 20
66.973
 30
0.0
 11
34.9
 21
67.121
 31
0.0
  0
LINE
  5
21B
  8
0
 10
35.295
 20
67.072
 30
0.0
 11
35.492
 21
67.072
 31
0.0
  0
LINE
  5
21C
  8
0
 10
32.876
 20
55.422
 30
0.0
 11
32.876
 21
55.521
 31
0.0
  0
LINE
  5
21D
  8
0
 10
29.371
 20
71.12
 30
0.0
 11
29.273
 21
71.12
 31
0.0
  0
LINE
  5
21E
  8
0
 10
6.713
 20
65.986
 30
0.0
 11
6.615
 21
65.887
 31
0.0
  0
LINE
  5
21F
  8
0
 10
35.838
 20
69.688
 30
0.0
 11
36.134
 21
69.59
 31
0.0
  0
LINE
  5
220
  8
0
 10
37.812
 20
67.418
 30
0.0
 11
37.911
 21
67.418
 31
0.0
  0
LINE
  5
221
  8
0
 10
33.715
 20
62.975
 30
0.0
 11
33.715
 21
63.617
 31
0.0
  0
LINE
  5
222
  8
0
 10
33.715
 20
64.258
 30
0.0
 11
33.715
 21
72.897
 31
0.0
  0
LINE
  5
223
  8
0
 10
34.011
 20
75.266
 30
0.0
 11
34.011
 21
73.094
 31
0.0
  0
LINE
  5
224
  8
0
 10
34.209
 20
72.897
 30
0.0
 11
34.209
 21
73.391
 31
0.0
  0
LINE
  5
225
  8
0
 10
34.703
 20
75.464
 30
0.0
 11
34.703
 21
73.835
 31
0.0
  0
LINE
  5
226
  8
0
 10
34.703
 20
64.9
 30
0.0
 11
34.703
 21
64.801
 31
0.0
  0
LINE
  5
227
  8
0
 10
34.9
 20
75.908
 30
0.0
 11
34.9
 21
73.884
 31
0.0
  0
LINE
  5
228
  8
0
 10
34.9
 20
65.048
 30
0.0
 11
34.9
 21
64.801
 31
0.0
  0
LINE
  5
229
  8
0
 10
35.097
 20
64.801
 30
0.0
 11
35.097
 21
65.344
 31
0.0
  0
LINE
  5
22A
  8
0
 10
35.394
 20
62.975
 30
0.0
 11
35.295
 21
58.137
 31
0.0
  0
LINE
  5
22B
  8
0
 10
33.814
 20
64.258
 30
0.0
 11
34.011
 21
64.456
 31
0.0
  0
LINE
  5
22C
  8
0
 10
34.505
 20
64.801
 30
0.0
 11
35.097
 21
65.246
 31
0.0
  0
LINE
  5
22D
  8
0
 10
35.492
 20
65.591
 30
0.0
 11
37.714
 21
67.418
 31
0.0
  0
LINE
  5
22E
  8
0
 10
37.812
 20
67.418
 30
0.0
 11
35.739
 21
65.789
 31
0.0
  0
LINE
  5
22F
  8
0
 10
35.097
 20
65.147
 30
0.0
 11
34.604
 21
64.801
 31
0.0
  0
LINE
  5
230
  8
0
 10
33.913
 20
64.357
 30
0.0
 11
33.913
 21
64.258
 31
0.0
  0
LINE
  5
231
  8
0
 10
6.516
 20
65.986
 30
0.0
 11
2.912
 21
65.147
 31
0.0
  0
LINE
  5
232
  8
0
 10
3.998
 20
66.332
 30
0.0
 11
3.11
 21
66.134
 31
0.0
  0
LINE
  5
233
  8
0
 10
5.924
 20
67.072
 30
0.0
 11
5.331
 21
66.973
 31
0.0
  0
LINE
  5
234
  8
0
 10
5.529
 20
67.072
 30
0.0
 11
5.43
 21
67.072
 31
0.0
  0
LINE
  5
235
  8
0
 10
2.715
 20
66.677
 30
0.0
 11
2.814
 21
66.677
 31
0.0
  0
LINE
  5
236
  8
0
 10
2.024
 20
66.578
 30
0.0
 11
2.814
 21
66.776
 31
0.0
  0
LINE
  5
237
  8
0
 10
5.233
 20
67.319
 30
0.0
 11
6.022
 21
67.516
 31
0.0
  0
LINE
  5
238
  8
0
 10
5.726
 20
67.516
 30
0.0
 11
5.233
 21
67.418
 31
0.0
  0
LINE
  5
239
  8
0
 10
5.726
 20
67.516
 30
0.0
 11
5.331
 21
67.418
 31
0.0
  0
LINE
  5
23A
  8
0
 10
2.814
 20
67.072
 30
0.0
 11
2.715
 21
66.973
 31
0.0
  0
LINE
  5
23B
  8
0
 10
3.11
 20
67.121
 30
0.0
 11
2.912
 21
67.072
 31
0.0
  0
LINE
  5
23C
  8
0
 10
3.11
 20
67.121
 30
0.0
 11
2.912
 21
67.072
 31
0.0
  0
LINE
  5
23D
  8
0
 10
3.11
 20
67.121
 30
0.0
 11
2.912
 21
67.072
 31
0.0
  0
LINE
  5
23E
  8
0
 10
2.912
 20
67.121
 30
0.0
 11
2.814
 21
67.072
 31
0.0
  0
LINE
  5
23F
  8
0
 10
3.011
 20
67.121
 30
0.0
 11
2.912
 21
67.121
 31
0.0
  0
LINE
  5
240
  8
0
 10
5.825
 20
67.862
 30
0.0
 11
6.417
 21
67.961
 31
0.0
  0
LINE
  5
241
  8
0
 10
33.024
 20
74.18
 30
0.0
 11
33.024
 21
74.082
 31
0.0
  0
LINE
  5
242
  8
0
 10
35.838
 20
69.491
 30
0.0
 11
36.035
 21
69.392
 31
0.0
  0
LINE
  5
243
  8
0
 10
35.937
 20
69.688
 30
0.0
 11
35.838
 21
69.688
 31
0.0
  0
LINE
  5
244
  8
0
 10
36.035
 20
69.688
 30
0.0
 11
36.134
 21
69.688
 31
0.0
  0
LINE
  5
245
  8
0
 10
36.035
 20
69.738
 30
0.0
 11
36.035
 21
69.688
 31
0.0
  0
LINE
  5
246
  8
0
 10
36.035
 20
69.392
 30
0.0
 11
36.035
 21
69.195
 31
0.0
  0
LINE
  5
247
  8
0
 10
36.726
 20
77.537
 30
0.0
 11
36.726
 21
75.513
 31
0.0
  0
LINE
  5
248
  8
0
 10
36.726
 20
66.578
 30
0.0
 11
36.726
 21
66.134
 31
0.0
  0
LINE
  5
249
  8
0
 10
36.924
 20
75.168
 30
0.0
 11
36.924
 21
75.612
 31
0.0
  0
LINE
  5
24A
  8
0
 10
37.023
 20
75.513
 30
0.0
 11
37.023
 21
75.168
 31
0.0
  0
LINE
  5
24B
  8
0
 10
37.319
 20
77.34
 30
0.0
 11
37.319
 21
75.711
 31
0.0
  0
LINE
  5
24C
  8
0
 10
37.319
 20
67.072
 30
0.0
 11
37.319
 21
66.332
 31
0.0
  0
LINE
  5
24D
  8
0
 10
10.366
 20
68.948
 30
0.0
 11
10.268
 21
68.948
 31
0.0
  0
LINE
  5
24E
  8
0
 10
3.011
 20
67.418
 30
0.0
 11
3.801
 21
67.516
 31
0.0
  0
LINE
  5
24F
  8
0
 10
6.713
 20
68.207
 30
0.0
 11
10.465
 21
69.145
 31
0.0
  0
LINE
  5
250
  8
0
 10
3.11
 20
67.516
 30
0.0
 11
3.9
 21
67.664
 31
0.0
  0
LINE
  5
251
  8
0
 10
10.465
 20
69.195
 30
0.0
 11
9.774
 21
69.047
 31
0.0
  0
LINE
  5
252
  8
0
 10
10.465
 20
69.195
 30
0.0
 11
9.873
 21
69.047
 31
0.0
  0
LINE
  5
253
  8
0
 10
2.616
 20
67.516
 30
0.0
 11
2.221
 21
67.418
 31
0.0
  0
LINE
  5
254
  8
0
 10
3.801
 20
67.862
 30
0.0
 11
4.147
 21
67.961
 31
0.0
  0
LINE
  5
255
  8
0
 10
4.147
 20
67.961
 30
0.0
 11
3.801
 21
67.862
 31
0.0
  0
LINE
  5
256
  8
0
 10
4.147
 20
67.961
 30
0.0
 11
3.9
 21
67.862
 31
0.0
  0
LINE
  5
257
  8
0
 10
3.9
 20
67.961
 30
0.0
 11
4.147
 21
68.059
 31
0.0
  0
LINE
  5
258
  8
0
 10
4.147
 20
68.059
 30
0.0
 11
3.9
 21
67.961
 31
0.0
  0
LINE
  5
259
  8
0
 10
4.245
 20
68.059
 30
0.0
 11
3.9
 21
67.961
 31
0.0
  0
LINE
  5
25A
  8
0
 10
2.518
 20
67.664
 30
0.0
 11
2.024
 21
67.516
 31
0.0
  0
LINE
  5
25B
  8
0
 10
2.123
 20
67.615
 30
0.0
 11
2.518
 21
67.664
 31
0.0
  0
LINE
  5
25C
  8
0
 10
4.097
 20
68.207
 30
0.0
 11
4.739
 21
68.405
 31
0.0
  0
LINE
  5
25D
  8
0
 10
4.147
 20
68.306
 30
0.0
 11
4.936
 21
68.504
 31
0.0
  0
LINE
  5
25E
  8
0
 10
1.382
 20
67.862
 30
0.0
 11
1.185
 21
67.763
 31
0.0
  0
LINE
  5
25F
  8
0
 10
3.702
 20
68.405
 30
0.0
 11
3.209
 21
68.207
 31
0.0
  0
LINE
  5
260
  8
0
 10
4.739
 20
68.701
 30
0.0
 11
4.838
 21
68.701
 31
0.0
  0
LINE
  5
261
  8
0
 10
4.838
 20
68.701
 30
0.0
 11
4.739
 21
68.701
 31
0.0
  0
LINE
  5
262
  8
0
 10
4.936
 20
68.75
 30
0.0
 11
5.331
 21
68.849
 31
0.0
  0
LINE
  5
263
  8
0
 10
5.331
 20
68.849
 30
0.0
 11
4.936
 21
68.75
 31
0.0
  0
LINE
  5
264
  8
0
 10
5.331
 20
68.849
 30
0.0
 11
4.936
 21
68.75
 31
0.0
  0
LINE
  5
265
  8
0
 10
3.604
 20
68.504
 30
0.0
 11
3.11
 21
68.405
 31
0.0
  0
LINE
  5
266
  8
0
 10
3.11
 20
68.405
 30
0.0
 11
3.604
 21
68.504
 31
0.0
  0
LINE
  5
267
  8
0
 10
2.32
 20
68.306
 30
0.0
 11
2.419
 21
68.306
 31
0.0
  0
LINE
  5
268
  8
0
 10
31.099
 20
74.97
 30
0.0
 11
30.309
 21
74.822
 31
0.0
  0
LINE
  5
269
  8
0
 10
5.134
 20
69.047
 30
0.0
 11
5.529
 21
69.145
 31
0.0
  0
LINE
  5
26A
  8
0
 10
4.64
 20
69.195
 30
0.0
 11
4.245
 21
69.145
 31
0.0
  0
LINE
  5
26B
  8
0
 10
9.33
 20
70.281
 30
0.0
 11
9.873
 21
70.379
 31
0.0
  0
LINE
  5
26C
  8
0
 10
4.64
 20
69.293
 30
0.0
 11
4.147
 21
69.195
 31
0.0
  0
LINE
  5
26D
  8
0
 10
4.147
 20
69.195
 30
0.0
 11
4.64
 21
69.392
 31
0.0
  0
LINE
  5
26E
  8
0
 10
3.406
 20
69.145
 30
0.0
 11
3.505
 21
69.195
 31
0.0
  0
LINE
  5
26F
  8
0
 10
45.563
 20
76.254
 30
0.0
 11
46.007
 21
76.352
 31
0.0
  0
LINE
  5
270
  8
0
 10
34.406
 20
72.65
 30
0.0
 11
34.308
 21
72.65
 31
0.0
  0
LINE
  5
271
  8
0
 10
35.492
 20
69.392
 30
0.0
 11
35.64
 21
69.195
 31
0.0
  0
LINE
  5
272
  8
0
 10
33.123
 20
74.378
 30
0.0
 11
31.395
 21
77.981
 31
0.0
  0
LINE
  5
273
  8
0
 10
38.849
 20
61.0
 30
0.0
 11
38.849
 21
61.198
 31
0.0
  0
LINE
  5
274
  8
0
 10
38.652
 20
61.099
 30
0.0
 11
38.652
 21
61.198
 31
0.0
  0
LINE
  5
275
  8
0
 10
39.244
 20
59.569
 30
0.0
 11
39.244
 21
59.47
 31
0.0
  0
LINE
  5
276
  8
0
 10
38.948
 20
59.026
 30
0.0
 11
38.948
 21
59.124
 31
0.0
  0
LINE
  5
277
  8
0
 10
38.948
 20
59.026
 30
0.0
 11
38.948
 21
59.124
 31
0.0
  0
LINE
  5
278
  8
0
 10
39.244
 20
60.902
 30
0.0
 11
39.244
 21
61.0
 31
0.0
  0
LINE
  5
279
  8
0
 10
39.244
 20
59.569
 30
0.0
 11
39.244
 21
60.902
 31
0.0
  0
LINE
  5
27A
  8
0
 10
38.553
 20
60.655
 30
0.0
 11
38.553
 21
59.914
 31
0.0
  0
LINE
  5
27B
  8
0
 10
37.911
 20
67.418
 30
0.0
 11
37.911
 21
66.776
 31
0.0
  0
LINE
  5
27C
  8
0
 10
37.911
 20
67.418
 30
0.0
 11
37.911
 21
66.776
 31
0.0
  0
LINE
  5
27D
  8
0
 10
38.01
 20
65.789
 30
0.0
 11
38.01
 21
66.43
 31
0.0
  0
LINE
  5
27E
  8
0
 10
38.849
 20
76.698
 30
0.0
 11
38.849
 21
76.599
 31
0.0
  0
LINE
  5
27F
  8
0
 10
38.849
 20
76.352
 30
0.0
 11
38.849
 21
76.254
 31
0.0
  0
LINE
  5
280
  8
0
 10
38.849
 20
75.809
 30
0.0
 11
38.849
 21
75.908
 31
0.0
  0
LINE
  5
281
  8
0
 10
38.849
 20
61.0
 30
0.0
 11
38.849
 21
61.099
 31
0.0
  0
LINE
  5
282
  8
0
 10
38.849
 20
67.22
 30
0.0
 11
38.849
 21
67.664
 31
0.0
  0
LINE
  5
283
  8
0
 10
38.849
 20
76.5
 30
0.0
 11
38.849
 21
76.698
 31
0.0
  0
LINE
  5
284
  8
0
 10
38.948
 20
75.908
 30
0.0
 11
38.948
 21
75.809
 31
0.0
  0
LINE
  5
285
  8
0
 10
38.948
 20
67.763
 30
0.0
 11
38.948
 21
67.664
 31
0.0
  0
LINE
  5
286
  8
0
 10
38.948
 20
76.698
 30
0.0
 11
38.948
 21
76.599
 31
0.0
  0
LINE
  5
287
  8
0
 10
38.948
 20
76.352
 30
0.0
 11
38.948
 21
76.254
 31
0.0
  0
LINE
  5
288
  8
0
 10
39.047
 20
59.026
 30
0.0
 11
39.047
 21
59.816
 31
0.0
  0
LINE
  5
289
  8
0
 10
39.244
 20
59.026
 30
0.0
 11
39.244
 21
61.0
 31
0.0
  0
LINE
  5
28A
  8
0
 10
39.244
 20
59.124
 30
0.0
 11
39.244
 21
59.47
 31
0.0
  0
LINE
  5
28B
  8
0
 10
39.244
 20
59.026
 30
0.0
 11
39.244
 21
65.789
 31
0.0
  0
LINE
  5
28C
  8
0
 10
39.639
 20
67.763
 30
0.0
 11
39.639
 21
76.056
 31
0.0
  0
LINE
  5
28D
  8
0
 10
39.639
 20
77.685
 30
0.0
 11
39.639
 21
77.586
 31
0.0
  0
LINE
  5
28E
  8
0
 10
39.639
 20
77.34
 30
0.0
 11
39.639
 21
77.241
 31
0.0
  0
LINE
  5
28F
  8
0
 10
39.738
 20
77.142
 30
0.0
 11
39.738
 21
77.241
 31
0.0
  0
LINE
  5
290
  8
0
 10
39.738
 20
77.438
 30
0.0
 11
39.738
 21
77.586
 31
0.0
  0
LINE
  5
291
  8
0
 10
38.849
 20
59.124
 30
0.0
 11
38.849
 21
59.569
 31
0.0
  0
LINE
  5
292
  8
0
 10
38.553
 20
59.124
 30
0.0
 11
38.652
 21
59.667
 31
0.0
  0
LINE
  5
293
  8
0
 10
38.948
 20
59.124
 30
0.0
 11
39.047
 21
59.816
 31
0.0
  0
LINE
  5
294
  8
0
 10
38.553
 20
60.655
 30
0.0
 11
38.652
 21
61.198
 31
0.0
  0
LINE
  5
295
  8
0
 10
34.209
 20
57.594
 30
0.0
 11
34.308
 21
57.742
 31
0.0
  0
LINE
  5
296
  8
0
 10
34.308
 20
57.742
 30
0.0
 11
34.604
 21
57.742
 31
0.0
  0
LINE
  5
297
  8
0
 10
10.07
 20
70.922
 30
0.0
 11
11.995
 21
71.367
 31
0.0
  0
LINE
  5
298
  8
0
 10
5.134
 20
69.935
 30
0.0
 11
4.936
 21
69.836
 31
0.0
  0
LINE
  5
299
  8
0
 10
4.443
 20
70.034
 30
0.0
 11
4.739
 21
70.034
 31
0.0
  0
LINE
  5
29A
  8
0
 10
1.283
 20
69.293
 30
0.0
 11
0.987
 21
69.293
 31
0.0
  0
LINE
  5
29B
  8
0
 10
34.505
 20
76.994
 30
0.0
 11
36.628
 21
77.537
 31
0.0
  0
LINE
  5
29C
  8
0
 10
4.344
 20
71.564
 30
0.0
 11
3.998
 21
71.465
 31
0.0
  0
LINE
  5
29D
  8
0
 10
46.204
 20
75.612
 30
0.0
 11
46.303
 21
75.612
 31
0.0
  0
LINE
  5
29E
  8
0
 10
34.703
 20
75.266
 30
0.0
 11
34.9
 21
75.168
 31
0.0
  0
LINE
  5
29F
  8
0
 10
34.406
 20
75.513
 30
0.0
 11
34.604
 21
75.513
 31
0.0
  0
LINE
  5
2A0
  8
0
 10
33.913
 20
73.983
 30
0.0
 11
33.222
 21
74.378
 31
0.0
  0
LINE
  5
2A1
  8
0
 10
38.849
 20
67.22
 30
0.0
 11
39.244
 21
65.789
 31
0.0
  0
LINE
  5
2A2
  8
0
 10
41.663
 20
61.198
 30
0.0
 11
41.762
 21
60.556
 31
0.0
  0
LINE
  5
2A3
  8
0
 10
41.169
 20
61.0
 30
0.0
 11
41.07
 21
61.0
 31
0.0
  0
LINE
  5
2A4
  8
0
 10
41.367
 20
59.124
 30
0.0
 11
41.268
 21
59.816
 31
0.0
  0
LINE
  5
2A5
  8
0
 10
41.663
 20
59.667
 30
0.0
 11
41.762
 21
59.124
 31
0.0
  0
LINE
  5
2A6
  8
0
 10
41.86
 20
63.814
 30
0.0
 11
41.86
 21
63.271
 31
0.0
  0
LINE
  5
2A7
  8
0
 10
41.465
 20
59.569
 30
0.0
 11
41.465
 21
59.124
 31
0.0
  0
LINE
  5
2A8
  8
0
 10
39.836
 20
77.586
 30
0.0
 11
39.836
 21
77.537
 31
0.0
  0
LINE
  5
2A9
  8
0
 10
39.836
 20
77.34
 30
0.0
 11
39.836
 21
77.241
 31
0.0
  0
LINE
  5
2AA
  8
0
 10
40.034
 20
76.056
 30
0.0
 11
40.034
 21
67.763
 31
0.0
  0
LINE
  5
2AB
  8
0
 10
41.07
 20
65.789
 30
0.0
 11
41.07
 21
59.026
 31
0.0
  0
LINE
  5
2AC
  8
0
 10
41.07
 20
59.47
 30
0.0
 11
41.07
 21
59.124
 31
0.0
  0
LINE
  5
2AD
  8
0
 10
41.169
 20
59.026
 30
0.0
 11
41.169
 21
61.0
 31
0.0
  0
LINE
  5
2AE
  8
0
 10
41.169
 20
67.763
 30
0.0
 11
41.169
 21
78.228
 31
0.0
  0
LINE
  5
2AF
  8
0
 10
41.268
 20
58.927
 30
0.0
 11
41.268
 21
59.816
 31
0.0
  0
LINE
  5
2B0
  8
0
 10
41.367
 20
67.664
 30
0.0
 11
41.367
 21
67.763
 31
0.0
  0
LINE
  5
2B1
  8
0
 10
41.465
 20
67.664
 30
0.0
 11
41.465
 21
67.22
 31
0.0
  0
LINE
  5
2B2
  8
0
 10
41.465
 20
61.0
 30
0.0
 11
41.465
 21
61.099
 31
0.0
  0
LINE
  5
2B3
  8
0
 10
41.762
 20
60.112
 30
0.0
 11
41.762
 21
60.556
 31
0.0
  0
LINE
  5
2B4
  8
0
 10
41.07
 20
60.902
 30
0.0
 11
41.07
 21
59.569
 31
0.0
  0
LINE
  5
2B5
  8
0
 10
41.07
 20
61.0
 30
0.0
 11
41.07
 21
60.902
 31
0.0
  0
LINE
  5
2B6
  8
0
 10
41.367
 20
59.124
 30
0.0
 11
41.367
 21
58.927
 31
0.0
  0
LINE
  5
2B7
  8
0
 10
41.07
 20
59.47
 30
0.0
 11
41.07
 21
59.569
 31
0.0
  0
LINE
  5
2B8
  8
0
 10
41.07
 20
65.789
 30
0.0
 11
41.465
 21
67.22
 31
0.0
  0
LINE
  5
2B9
  8
0
 10
24.731
 20
53.793
 30
0.0
 11
26.953
 21
54.336
 31
0.0
  0
LINE
  5
2BA
  8
0
 10
30.309
 20
78.623
 30
0.0
 11
12.094
 21
74.378
 31
0.0
  0
LINE
  5
2BB
  8
0
 10
36.726
 20
75.513
 30
0.0
 11
34.999
 21
76.007
 31
0.0
  0
LINE
  5
2BC
  8
0
 10
38.948
 20
75.809
 30
0.0
 11
37.911
 21
76.056
 31
0.0
  0
LINE
  5
2BD
  8
0
 10
38.75
 20
76.5
 30
0.0
 11
38.849
 21
76.451
 31
0.0
  0
LINE
  5
2BE
  8
0
 10
39.047
 20
76.352
 30
0.0
 11
39.145
 21
76.352
 31
0.0
  0
LINE
  5
2BF
  8
0
 10
39.145
 20
76.352
 30
0.0
 11
38.948
 21
76.451
 31
0.0
  0
LINE
  5
2C0
  8
0
 10
38.652
 20
76.5
 30
0.0
 11
38.75
 21
76.5
 31
0.0
  0
LINE
  5
2C1
  8
0
 10
39.441
 20
76.352
 30
0.0
 11
39.244
 21
76.451
 31
0.0
  0
LINE
  5
2C2
  8
0
 10
38.849
 20
76.599
 30
0.0
 11
38.75
 21
76.599
 31
0.0
  0
LINE
  5
2C3
  8
0
 10
39.047
 20
76.5
 30
0.0
 11
39.145
 21
76.5
 31
0.0
  0
LINE
  5
2C4
  8
0
 10
38.158
 20
76.5
 30
0.0
 11
38.355
 21
76.5
 31
0.0
  0
LINE
  5
2C5
  8
0
 10
34.011
 20
76.155
 30
0.0
 11
34.9
 21
75.711
 31
0.0
  0
LINE
  5
2C6
  8
0
 10
38.01
 20
76.797
 30
0.0
 11
38.109
 21
76.698
 31
0.0
  0
LINE
  5
2C7
  8
0
 10
42.354
 20
66.43
 30
0.0
 11
42.354
 21
65.789
 31
0.0
  0
LINE
  5
2C8
  8
0
 10
43.292
 20
78.08
 30
0.0
 11
43.292
 21
66.233
 31
0.0
  0
LINE
  5
2C9
  8
0
 10
41.663
 20
61.099
 30
0.0
 11
41.663
 21
61.198
 31
0.0
  0
LINE
  5
2CA
  8
0
 10
41.465
 20
61.198
 30
0.0
 11
41.465
 21
61.0
 31
0.0
  0
LINE
  5
2CB
  8
0
 10
42.749
 20
63.074
 30
0.0
 11
42.848
 21
63.271
 31
0.0
  0
LINE
  5
2CC
  8
0
 10
46.5
 20
62.432
 30
0.0
 11
45.069
 21
61.346
 31
0.0
  0
LINE
  5
2CD
  8
0
 10
39.54
 20
77.438
 30
0.0
 11
39.639
 21
77.438
 31
0.0
  0
LINE
  5
2CE
  8
0
 10
39.836
 20
77.34
 30
0.0
 11
39.935
 21
77.34
 31
0.0
  0
LINE
  5
2CF
  8
0
 10
39.935
 20
77.34
 30
0.0
 11
39.738
 21
77.438
 31
0.0
  0
LINE
  5
2D0
  8
0
 10
39.441
 20
77.537
 30
0.0
 11
39.54
 21
77.438
 31
0.0
  0
LINE
  5
2D1
  8
0
 10
39.639
 20
77.537
 30
0.0
 11
39.54
 21
77.586
 31
0.0
  0
LINE
  5
2D2
  8
0
 10
39.836
 20
77.537
 30
0.0
 11
39.935
 21
77.438
 31
0.0
  0
LINE
  5
2D3
  8
0
 10
39.639
 20
77.586
 30
0.0
 11
39.738
 21
77.586
 31
0.0
  0
LINE
  5
2D4
  8
0
 10
40.429
 20
76.352
 30
0.0
 11
40.725
 21
76.155
 31
0.0
  0
LINE
  5
2D5
  8
0
 10
37.023
 20
77.438
 30
0.0
 11
37.714
 21
77.043
 31
0.0
  0
LINE
  5
2D6
  8
0
 10
40.034
 20
76.056
 30
0.0
 11
40.133
 21
76.007
 31
0.0
  0
LINE
  5
2D7
  8
0
 10
41.465
 20
78.228
 30
0.0
 11
41.465
 21
77.586
 31
0.0
  0
LINE
  5
2D8
  8
0
 10
45.069
 20
62.975
 30
0.0
 11
45.069
 21
58.137
 31
0.0
  0
LINE
  5
2D9
  8
0
 10
44.575
 20
77.586
 30
0.0
 11
44.575
 21
65.789
 31
0.0
  0
LINE
  5
2DA
  8
0
 10
45.563
 20
76.994
 30
0.0
 11
45.563
 21
65.246
 31
0.0
  0
LINE
  5
2DB
  8
0
 10
46.204
 20
76.352
 30
0.0
 11
46.204
 21
64.604
 31
0.0
  0
LINE
  5
2DC
  8
0
 10
46.402
 20
64.357
 30
0.0
 11
46.402
 21
75.513
 31
0.0
  0
LINE
  5
2DD
  8
0
 10
46.599
 20
62.975
 30
0.0
 11
46.599
 21
63.617
 31
0.0
  0
LINE
  5
2DE
  8
0
 10
47.488
 20
55.422
 30
0.0
 11
47.488
 21
55.521
 31
0.0
  0
LINE
  5
2DF
  8
0
 10
39.244
 20
58.927
 30
0.0
 11
40.034
 21
59.026
 31
0.0
  0
LINE
  5
2E0
  8
0
 10
39.343
 20
59.026
 30
0.0
 11
39.244
 21
59.026
 31
0.0
  0
LINE
  5
2E1
  8
0
 10
39.244
 20
59.026
 30
0.0
 11
38.454
 21
58.927
 31
0.0
  0
LINE
  5
2E2
  8
0
 10
38.454
 20
58.927
 30
0.0
 11
38.849
 21
59.026
 31
0.0
  0
LINE
  5
2E3
  8
0
 10
36.332
 20
57.199
 30
0.0
 11
36.233
 21
57.199
 31
0.0
  0
LINE
  5
2E4
  8
0
 10
38.158
 20
65.048
 30
0.0
 11
38.553
 21
65.147
 31
0.0
  0
LINE
  5
2E5
  8
0
 10
38.158
 20
65.048
 30
0.0
 11
38.01
 21
64.999
 31
0.0
  0
LINE
  5
2E6
  8
0
 10
38.01
 20
64.999
 30
0.0
 11
37.911
 21
64.999
 31
0.0
  0
LINE
  5
2E7
  8
0
 10
37.911
 20
64.999
 30
0.0
 11
37.615
 21
64.9
 31
0.0
  0
LINE
  5
2E8
  8
0
 10
37.615
 20
64.9
 30
0.0
 11
37.911
 21
64.999
 31
0.0
  0
LINE
  5
2E9
  8
0
 10
37.911
 20
64.999
 30
0.0
 11
37.615
 21
64.999
 31
0.0
  0
LINE
  5
2EA
  8
0
 10
33.518
 20
57.051
 30
0.0
 11
33.715
 21
57.199
 31
0.0
  0
LINE
  5
2EB
  8
0
 10
33.715
 20
57.199
 30
0.0
 11
33.518
 21
57.051
 31
0.0
  0
LINE
  5
2EC
  8
0
 10
24.139
 20
53.596
 30
0.0
 11
24.04
 21
53.596
 31
0.0
  0
LINE
  5
2ED
  8
0
 10
33.123
 20
56.508
 30
0.0
 11
33.123
 21
56.607
 31
0.0
  0
LINE
  5
2EE
  8
0
 10
32.876
 20
55.62
 30
0.0
 11
32.876
 21
55.521
 31
0.0
  0
LINE
  5
2EF
  8
0
 10
34.308
 20
55.323
 30
0.0
 11
34.308
 21
55.225
 31
0.0
  0
LINE
  5
2F0
  8
0
 10
40.33
 20
59.026
 30
0.0
 11
40.429
 21
59.026
 31
0.0
  0
LINE
  5
2F1
  8
0
 10
40.33
 20
59.026
 30
0.0
 11
40.034
 21
59.026
 31
0.0
  0
LINE
  5
2F2
  8
0
 10
40.429
 20
59.026
 30
0.0
 11
41.07
 21
58.927
 31
0.0
  0
LINE
  5
2F3
  8
0
 10
40.33
 20
59.026
 30
0.0
 11
40.133
 21
59.026
 31
0.0
  0
LINE
  5
2F4
  8
0
 10
40.133
 20
59.026
 30
0.0
 11
39.343
 21
59.026
 31
0.0
  0
LINE
  5
2F5
  8
0
 10
40.33
 20
59.026
 30
0.0
 11
40.972
 21
59.026
 31
0.0
  0
LINE
  5
2F6
  8
0
 10
40.972
 20
59.026
 30
0.0
 11
41.07
 21
59.026
 31
0.0
  0
LINE
  5
2F7
  8
0
 10
41.07
 20
59.026
 30
0.0
 11
41.86
 21
58.927
 31
0.0
  0
LINE
  5
2F8
  8
0
 10
43.785
 20
58.581
 30
0.0
 11
43.884
 21
58.581
 31
0.0
  0
LINE
  5
2F9
  8
0
 10
43.884
 20
58.581
 30
0.0
 11
43.785
 21
58.581
 31
0.0
  0
LINE
  5
2FA
  8
0
 10
43.144
 20
57.594
 30
0.0
 11
43.045
 21
57.594
 31
0.0
  0
LINE
  5
2FB
  8
0
 10
43.045
 20
57.594
 30
0.0
 11
43.144
 21
57.594
 31
0.0
  0
LINE
  5
2FC
  8
0
 10
41.86
 20
58.927
 30
0.0
 11
41.465
 21
59.026
 31
0.0
  0
LINE
  5
2FD
  8
0
 10
41.959
 20
65.048
 30
0.0
 11
41.86
 21
65.048
 31
0.0
  0
LINE
  5
2FE
  8
0
 10
41.86
 20
65.147
 30
0.0
 11
42.058
 21
65.048
 31
0.0
  0
LINE
  5
2FF
  8
0
 10
41.86
 20
65.147
 30
0.0
 11
42.255
 21
64.999
 31
0.0
  0
LINE
  5
300
  8
0
 10
42.058
 20
65.048
 30
0.0
 11
41.959
 21
65.048
 31
0.0
  0
LINE
  5
301
  8
0
 10
42.946
 20
64.801
 30
0.0
 11
43.045
 21
64.801
 31
0.0
  0
LINE
  5
302
  8
0
 10
43.045
 20
64.801
 30
0.0
 11
43.292
 21
64.703
 31
0.0
  0
LINE
  5
303
  8
0
 10
43.292
 20
64.801
 30
0.0
 11
43.045
 21
64.801
 31
0.0
  0
LINE
  5
304
  8
0
 10
43.045
 20
64.801
 30
0.0
 11
43.292
 21
64.703
 31
0.0
  0
LINE
  5
305
  8
0
 10
44.575
 20
56.952
 30
0.0
 11
44.674
 21
56.854
 31
0.0
  0
LINE
  5
306
  8
0
 10
45.266
 20
53.694
 30
0.0
 11
45.168
 21
53.694
 31
0.0
  0
LINE
  5
307
  8
0
 10
47.29
 20
56.508
 30
0.0
 11
47.192
 21
56.607
 31
0.0
  0
LINE
  5
308
  8
0
 10
47.488
 20
55.62
 30
0.0
 11
47.488
 21
55.521
 31
0.0
  0
LINE
  5
309
  8
0
 10
9.577
 20
69.688
 30
0.0
 11
9.478
 21
69.836
 31
0.0
  0
LINE
  5
30A
  8
0
 10
9.577
 20
70.034
 30
0.0
 11
9.675
 21
70.034
 31
0.0
  0
LINE
  5
30B
  8
0
 10
2.814
 20
66.973
 30
0.0
 11
2.715
 21
66.973
 31
0.0
  0
LINE
  5
30C
  8
0
 10
2.715
 20
66.973
 30
0.0
 11
2.814
 21
66.973
 31
0.0
  0
LINE
  5
30D
  8
0
 10
5.627
 20
67.664
 30
0.0
 11
5.726
 21
67.664
 31
0.0
  0
LINE
  5
30E
  8
0
 10
9.774
 20
69.047
 30
0.0
 11
9.873
 21
69.047
 31
0.0
  0
LINE
  5
30F
  8
0
 10
9.774
 20
69.59
 30
0.0
 11
9.873
 21
69.59
 31
0.0
  0
LINE
  5
310
  8
0
 10
12.39
 20
72.354
 30
0.0
 11
12.39
 21
72.305
 31
0.0
  0
LINE
  5
311
  8
0
 10
12.193
 20
71.465
 30
0.0
 11
12.292
 21
71.564
 31
0.0
  0
LINE
  5
312
  8
0
 10
4.64
 20
72.453
 30
0.0
 11
4.64
 21
72.551
 31
0.0
  0
LINE
  5
313
  8
0
 10
36.134
 20
64.258
 30
0.0
 11
36.233
 21
64.357
 31
0.0
  0
LINE
  5
314
  8
0
 10
35.838
 20
63.962
 30
0.0
 11
35.739
 21
63.913
 31
0.0
  0
LINE
  5
315
  8
0
 10
35.739
 20
63.913
 30
0.0
 11
35.64
 21
63.814
 31
0.0
  0
LINE
  5
316
  8
0
 10
35.64
 20
63.913
 30
0.0
 11
35.64
 21
63.814
 31
0.0
  0
LINE
  5
317
  8
0
 10
35.64
 20
63.814
 30
0.0
 11
35.542
 21
63.814
 31
0.0
  0
LINE
  5
318
  8
0
 10
35.542
 20
63.814
 30
0.0
 11
35.542
 21
63.617
 31
0.0
  0
LINE
  5
319
  8
0
 10
44.871
 20
63.617
 30
0.0
 11
44.871
 21
63.518
 31
0.0
  0
LINE
  5
31A
  8
0
 10
35.492
 20
63.518
 30
0.0
 11
35.492
 21
63.468
 31
0.0
  0
LINE
  5
31B
  8
0
 10
42.156
 20
65.048
 30
0.0
 11
42.255
 21
65.048
 31
0.0
  0
LINE
  5
31C
  8
0
 10
41.465
 20
67.664
 30
0.0
 11
41.367
 21
67.763
 31
0.0
  0
LINE
  5
31D
  8
0
 10
38.948
 20
67.664
 30
0.0
 11
38.849
 21
67.664
 31
0.0
  0
LINE
  5
31E
  8
0
 10
41.367
 20
67.664
 30
0.0
 11
41.465
 21
67.664
 31
0.0
  0
LINE
  5
31F
  8
0
 10
38.948
 20
67.763
 30
0.0
 11
38.849
 21
67.664
 31
0.0
  0
LINE
  5
320
  8
0
 10
35.394
 20
63.172
 30
0.0
 11
35.394
 21
63.074
 31
0.0
  0
LINE
  5
321
  8
0
 10
35.394
 20
62.975
 30
0.0
 11
35.394
 21
63.074
 31
0.0
  0
LINE
  5
322
  8
0
 10
37.911
 20
64.999
 30
0.0
 11
38.01
 21
64.999
 31
0.0
  0
LINE
  5
323
  8
0
 10
39.639
 20
77.241
 30
0.0
 11
39.738
 21
77.142
 31
0.0
  0
LINE
  5
324
  8
0
 10
38.948
 20
76.254
 30
0.0
 11
38.849
 21
76.254
 31
0.0
  0
LINE
  5
325
  8
0
 10
39.639
 20
77.685
 30
0.0
 11
39.738
 21
77.685
 31
0.0
  0
LINE
  5
326
  8
0
 10
38.948
 20
76.698
 30
0.0
 11
38.849
 21
76.797
 31
0.0
  0
LINE
  5
327
  8
0
 10
33.222
 20
74.378
 30
0.0
 11
33.123
 21
74.378
 31
0.0
  0
LINE
  5
328
  8
0
 10
33.123
 20
74.378
 30
0.0
 11
33.222
 21
74.378
 31
0.0
  0
LINE
  5
329
  8
0
 10
36.825
 20
77.537
 30
0.0
 11
36.726
 21
77.537
 31
0.0
  0
LINE
  5
32A
  8
0
 10
1.728
 20
65.69
 30
0.0
 11
0.0
 21
69.195
 31
0.0
  0
LINE
  5
32B
  8
0
 10
8.342
 20
73.193
 30
0.0
 11
8.441
 21
73.391
 31
0.0
  0
LINE
  5
32C
  8
0
 10
0.0
 20
69.392
 30
0.0
 11
3.9
 21
72.453
 31
0.0
  0
LINE
  5
32D
  8
0
 10
3.998
 20
72.354
 30
0.0
 11
5.726
 21
68.849
 31
0.0
  0
LINE
  5
32E
  8
0
 10
6.417
 20
69.145
 30
0.0
 11
6.121
 21
69.59
 31
0.0
  0
LINE
  5
32F
  8
0
 10
7.454
 20
69.491
 30
0.0
 11
7.256
 21
69.935
 31
0.0
  0
LINE
  5
330
  8
0
 10
8.935
 20
73.44
 30
0.0
 11
8.836
 21
73.44
 31
0.0
  0
LINE
  5
331
  8
0
 10
4.64
 20
72.453
 30
0.0
 11
4.936
 21
72.354
 31
0.0
  0
LINE
  5
332
  8
0
 10
33.419
 20
74.723
 30
0.0
 11
34.308
 21
76.895
 31
0.0
  0
LINE
  5
333
  8
0
 10
6.516
 20
65.986
 30
0.0
 11
2.814
 21
65.147
 31
0.0
  0
LINE
  5
334
  8
0
 10
6.763
 20
68.306
 30
0.0
 11
10.465
 21
69.145
 31
0.0
  0
LINE
  5
335
  8
0
 10
7.454
 20
69.392
 30
0.0
 11
6.417
 21
69.145
 31
0.0
  0
LINE
  5
336
  8
0
 10
41.07
 20
76.352
 30
0.0
 11
41.07
 21
76.5
 31
0.0
  0
LINE
  5
337
  8
0
 10
34.505
 20
77.043
 30
0.0
 11
36.726
 21
77.586
 31
0.0
  0
LINE
  5
338
  8
0
 10
33.814
 20
73.884
 30
0.0
 11
33.123
 21
74.279
 31
0.0
  0
LINE
  5
339
  8
0
 10
4.936
 20
72.354
 30
0.0
 11
8.836
 21
73.292
 31
0.0
  0
LINE
  5
33A
  8
0
 10
3.9
 20
72.453
 30
0.0
 11
4.541
 21
72.65
 31
0.0
  0
LINE
  5
33B
  8
0
 10
8.737
 20
73.539
 30
0.0
 11
12.094
 21
74.378
 31
0.0
  0
LINE
  5
33C
  8
0
 10
30.309
 20
78.623
 30
0.0
 11
36.628
 21
80.055
 31
0.0
  0
LINE
  5
33D
  8
0
 10
38.257
 20
76.599
 30
0.0
 11
38.355
 21
76.599
 31
0.0
  0
LINE
  5
33E
  8
0
 10
38.109
 20
76.797
 30
0.0
 11
38.109
 21
76.698
 31
0.0
  0
LINE
  5
33F
  8
0
 10
40.429
 20
76.352
 30
0.0
 11
40.725
 21
76.254
 31
0.0
  0
LINE
  5
340
  8
0
 10
40.774
 20
76.994
 30
0.0
 11
40.527
 21
77.043
 31
0.0
  0
LINE
  5
341
  8
0
 10
37.121
 20
77.537
 30
0.0
 11
37.812
 21
77.043
 31
0.0
  0
LINE
  5
342
  8
0
 10
36.825
 20
79.857
 30
0.0
 11
36.825
 21
79.956
 31
0.0
  0
LINE
  5
343
  8
0
 10
39.738
 20
78.228
 30
0.0
 11
36.825
 21
79.857
 31
0.0
  0
LINE
  5
344
  8
0
 10
40.429
 20
77.438
 30
0.0
 11
40.231
 21
77.784
 31
0.0
  0
LINE
  5
345
  8
0
 10
6.713
 20
68.306
 30
0.0
 11
6.763
 21
68.306
 31
0.0
  0
LINE
  5
346
  8
0
 10
37.023
 20
77.537
 30
0.0
 11
37.121
 21
77.537
 31
0.0
  0
LINE
  5
347
  8
0
 10
38.849
 20
76.797
 30
0.0
 11
38.849
 21
76.698
 31
0.0
  0
LINE
  5
348
  8
0
 10
38.948
 20
76.155
 30
0.0
 11
38.948
 21
76.254
 31
0.0
  0
LINE
  5
349
  8
0
 10
39.047
 20
59.569
 30
0.0
 11
38.948
 21
59.569
 31
0.0
  0
LINE
  5
34A
  8
0
 10
41.465
 20
59.569
 30
0.0
 11
41.367
 21
59.569
 31
0.0
  0
LINE
  5
34B
  8
0
 10
42.058
 20
65.048
 30
0.0
 11
42.156
 21
65.048
 31
0.0
  0
LINE
  5
34C
  8
0
 10
34.9
 20
75.908
 30
0.0
 11
34.9
 21
76.007
 31
0.0
  0
LINE
  5
34D
  8
0
 10
6.615
 20
65.986
 30
0.0
 11
6.516
 21
65.986
 31
0.0
  0
LINE
  5
34E
  8
0
 10
20.265
 20
50.0
 30
0.0
 11
33.942
 21
53.665
 31
0.0
  0
LINE
  5
34F
  8
0
 10
46.724
 20
57.09
 30
0.0
 11
60.0
 21
60.647
 31
0.0
  0
LINE
  5
350
  8
0
 10
9.33
 20
69.688
 30
0.0
 11
9.33
 21
69.59
 31
0.0
  0
LINE
  5
351
  8
0
 10
39.738
 20
57.94
 30
0.0
 11
40.626
 21
57.94
 31
0.0
  0
LINE
  5
352
  8
0
 10
38.652
 20
75.908
 30
0.0
 11
38.75
 21
75.908
 31
0.0
  0
LINE
  5
353
  8
0
 10
35.838
 20
69.688
 30
0.0
 11
35.739
 21
69.688
 31
0.0
  0
LINE
  5
354
  8
0
 10
35.838
 20
69.491
 30
0.0
 11
35.739
 21
69.491
 31
0.0
  0
LINE
  5
355
  8
0
 10
38.948
 20
59.569
 30
0.0
 11
39.047
 21
59.569
 31
0.0
  0
LINE
  5
356
  8
0
 10
1.086
 20
67.862
 30
0.0
 11
1.185
 21
67.763
 31
0.0
  0
LINE
  5
357
  8
0
 10
2.814
 20
65.147
 30
0.0
 11
2.912
 21
65.147
 31
0.0
  0
LINE
  5
358
  8
0
 10
3.998
 20
66.332
 30
0.0
 11
3.998
 21
66.43
 31
0.0
  0
LINE
  5
359
  8
0
 10
3.011
 20
66.233
 30
0.0
 11
3.11
 21
66.134
 31
0.0
  0
LINE
  5
35A
  8
0
 10
9.774
 20
69.59
 30
0.0
 11
9.675
 21
69.738
 31
0.0
  0
LINE
  5
35B
  8
0
 10
9.873
 20
69.59
 30
0.0
 11
9.774
 21
69.738
 31
0.0
  0
LINE
  5
35C
  8
0
 10
9.675
 20
69.836
 30
0.0
 11
9.577
 21
70.034
 31
0.0
  0
LINE
  5
35D
  8
0
 10
9.774
 20
69.935
 30
0.0
 11
9.675
 21
70.034
 31
0.0
  0
LINE
  5
35E
  8
0
 10
9.971
 20
69.738
 30
0.0
 11
9.873
 21
69.935
 31
0.0
  0
LINE
  5
35F
  8
0
 10
5.924
 20
67.862
 30
0.0
 11
6.022
 21
67.862
 31
0.0
  0
LINE
  5
360
  8
0
 10
5.726
 20
67.664
 30
0.0
 11
5.924
 21
67.763
 31
0.0
  0
LINE
  5
361
  8
0
 10
5.331
 20
67.121
 30
0.0
 11
5.43
 21
67.072
 31
0.0
  0
LINE
  5
362
  8
0
 10
5.233
 20
66.973
 30
0.0
 11
5.331
 21
66.973
 31
0.0
  0
LINE
  5
363
  8
0
 10
2.616
 20
66.776
 30
0.0
 11
2.715
 21
66.677
 31
0.0
  0
LINE
  5
364
  8
0
 10
8.639
 20
73.391
 30
0.0
 11
8.639
 21
73.44
 31
0.0
  0
LINE
  5
365
  8
0
 10
11.946
 20
74.279
 30
0.0
 11
11.847
 21
74.18
 31
0.0
  0
LINE
  5
366
  8
0
 10
9.971
 20
70.922
 30
0.0
 11
9.873
 21
70.824
 31
0.0
  0
LINE
  5
367
  8
0
 10
45.069
 20
62.975
 30
0.0
 11
44.97
 21
63.271
 31
0.0
  0
LINE
  5
368
  8
0
 10
38.01
 20
65.048
 30
0.0
 11
38.01
 21
64.999
 31
0.0
  0
LINE
  5
369
  8
0
 10
34.011
 20
73.884
 30
0.0
 11
33.913
 21
73.983
 31
0.0
  0
LINE
  5
36A
  8
0
 10
33.222
 20
74.378
 30
0.0
 11
33.222
 21
74.427
 31
0.0
  0
LINE
  5
36B
  8
0
 10
40.33
 20
76.254
 30
0.0
 11
40.429
 21
76.352
 31
0.0
  0
LINE
  5
36C
  8
0
 10
40.231
 20
76.155
 30
0.0
 11
40.33
 21
76.254
 31
0.0
  0
LINE
  5
36D
  8
0
 10
33.123
 20
74.378
 30
0.0
 11
33.222
 21
74.427
 31
0.0
  0
LINE
  5
36E
  8
0
 10
39.047
 20
77.438
 30
0.0
 11
39.244
 21
77.685
 31
0.0
  0
LINE
  5
36F
  8
0
 10
39.441
 20
77.438
 30
0.0
 11
39.54
 21
77.438
 31
0.0
  0
LINE
  5
370
  8
0
 10
39.441
 20
77.586
 30
0.0
 11
39.441
 21
77.438
 31
0.0
  0
LINE
  5
371
  8
0
 10
39.738
 20
77.142
 30
0.0
 11
39.836
 21
77.142
 31
0.0
  0
LINE
  5
372
  8
0
 10
39.935
 20
77.34
 30
0.0
 11
40.034
 21
77.34
 31
0.0
  0
LINE
  5
373
  8
0
 10
39.639
 20
77.34
 30
0.0
 11
39.639
 21
77.438
 31
0.0
  0
LINE
  5
374
  8
0
 10
39.639
 20
77.537
 30
0.0
 11
39.639
 21
77.586
 31
0.0
  0
LINE
  5
375
  8
0
 10
39.244
 20
77.685
 30
0.0
 11
39.639
 21
77.784
 31
0.0
  0
LINE
  5
376
  8
0
 10
39.935
 20
76.994
 30
0.0
 11
39.639
 21
76.895
 31
0.0
  0
LINE
  5
377
  8
0
 10
39.639
 20
76.895
 30
0.0
 11
39.54
 21
76.895
 31
0.0
  0
LINE
  5
378
  8
0
 10
39.343
 20
77.142
 30
0.0
 11
39.639
 21
76.994
 31
0.0
  0
LINE
  5
379
  8
0
 10
39.54
 20
77.586
 30
0.0
 11
39.441
 21
77.586
 31
0.0
  0
LINE
  5
37A
  8
0
 10
39.836
 20
77.142
 30
0.0
 11
39.836
 21
77.241
 31
0.0
  0
LINE
  5
37B
  8
0
 10
39.639
 20
77.685
 30
0.0
 11
39.54
 21
77.586
 31
0.0
  0
LINE
  5
37C
  8
0
 10
40.034
 20
77.34
 30
0.0
 11
40.034
 21
77.438
 31
0.0
  0
LINE
  5
37D
  8
0
 10
40.034
 20
77.438
 30
0.0
 11
39.935
 21
77.438
 31
0.0
  0
LINE
  5
37E
  8
0
 10
39.836
 20
77.586
 30
0.0
 11
39.836
 21
77.685
 31
0.0
  0
LINE
  5
37F
  8
0
 10
39.836
 20
77.685
 30
0.0
 11
39.738
 21
77.685
 31
0.0
  0
LINE
  5
380
  8
0
 10
39.935
 20
77.438
 30
0.0
 11
39.836
 21
77.586
 31
0.0
  0
LINE
  5
381
  8
0
 10
39.836
 20
77.241
 30
0.0
 11
39.935
 21
77.34
 31
0.0
  0
LINE
  5
382
  8
0
 10
39.54
 20
77.438
 30
0.0
 11
39.639
 21
77.241
 31
0.0
  0
LINE
  5
383
  8
0
 10
39.639
 20
76.994
 30
0.0
 11
39.935
 21
77.043
 31
0.0
  0
LINE
  5
384
  8
0
 10
38.158
 20
76.155
 30
0.0
 11
38.355
 21
75.908
 31
0.0
  0
LINE
  5
385
  8
0
 10
38.553
 20
75.908
 30
0.0
 11
38.75
 21
75.908
 31
0.0
  0
LINE
  5
386
  8
0
 10
38.652
 20
76.5
 30
0.0
 11
38.75
 21
76.5
 31
0.0
  0
LINE
  5
387
  8
0
 10
38.652
 20
76.599
 30
0.0
 11
38.652
 21
76.5
 31
0.0
  0
LINE
  5
388
  8
0
 10
38.948
 20
76.254
 30
0.0
 11
38.948
 21
76.155
 31
0.0
  0
LINE
  5
389
  8
0
 10
39.145
 20
76.352
 30
0.0
 11
39.244
 21
76.352
 31
0.0
  0
LINE
  5
38A
  8
0
 10
38.849
 20
76.352
 30
0.0
 11
38.849
 21
76.451
 31
0.0
  0
LINE
  5
38B
  8
0
 10
38.257
 20
76.352
 30
0.0
 11
38.158
 21
76.155
 31
0.0
  0
LINE
  5
38C
  8
0
 10
38.454
 20
76.698
 30
0.0
 11
38.849
 21
76.797
 31
0.0
  0
LINE
  5
38D
  8
0
 10
39.047
 20
76.007
 30
0.0
 11
38.75
 21
75.908
 31
0.0
  0
LINE
  5
38E
  8
0
 10
38.553
 20
76.155
 30
0.0
 11
38.849
 21
76.007
 31
0.0
  0
LINE
  5
38F
  8
0
 10
38.849
 20
76.254
 30
0.0
 11
38.849
 21
76.352
 31
0.0
  0
LINE
  5
390
  8
0
 10
38.75
 20
76.599
 30
0.0
 11
38.652
 21
76.599
 31
0.0
  0
LINE
  5
391
  8
0
 10
38.849
 20
76.698
 30
0.0
 11
38.75
 21
76.599
 31
0.0
  0
LINE
  5
392
  8
0
 10
39.244
 20
76.352
 30
0.0
 11
39.244
 21
76.451
 31
0.0
  0
LINE
  5
393
  8
0
 10
39.244
 20
76.451
 30
0.0
 11
39.145
 21
76.5
 31
0.0
  0
LINE
  5
394
  8
0
 10
39.145
 20
76.5
 30
0.0
 11
38.948
 21
76.698
 31
0.0
  0
LINE
  5
395
  8
0
 10
38.948
 20
76.599
 30
0.0
 11
39.047
 21
76.5
 31
0.0
  0
LINE
  5
396
  8
0
 10
38.652
 20
75.908
 30
0.0
 11
38.553
 21
75.908
 31
0.0
  0
LINE
  5
397
  8
0
 10
39.047
 20
76.352
 30
0.0
 11
38.948
 21
76.352
 31
0.0
  0
LINE
  5
398
  8
0
 10
38.948
 20
76.254
 30
0.0
 11
39.145
 21
76.352
 31
0.0
  0
LINE
  5
399
  8
0
 10
38.75
 20
76.5
 30
0.0
 11
38.849
 21
76.254
 31
0.0
  0
LINE
  5
39A
  8
0
 10
38.849
 20
76.007
 30
0.0
 11
39.145
 21
76.056
 31
0.0
  0
LINE
  5
39B
  8
0
 10
38.257
 20
76.254
 30
0.0
 11
38.257
 21
76.352
 31
0.0
  0
LINE
  5
39C
  8
0
 10
38.948
 20
76.451
 30
0.0
 11
38.849
 21
76.5
 31
0.0
  0
LINE
  5
39D
  8
0
 10
34.703
 20
66.776
 30
0.0
 11
34.703
 21
66.677
 31
0.0
  0
LINE
  5
39E
  8
0
 10
34.9
 20
67.072
 30
0.0
 11
34.9
 21
67.121
 31
0.0
  0
LINE
  5
39F
  8
0
 10
9.577
 20
69.688
 30
0.0
 11
9.675
 21
69.738
 31
0.0
  0
LINE
  5
3A0
  8
0
 10
9.774
 20
69.738
 30
0.0
 11
9.971
 21
69.738
 31
0.0
  0
LINE
  5
3A1
  8
0
 10
9.478
 20
70.231
 30
0.0
 11
9.33
 21
70.231
 31
0.0
  0
LINE
  5
3A2
  8
0
 10
9.971
 20
69.293
 30
0.0
 11
9.774
 21
69.195
 31
0.0
  0
LINE
  5
3A3
  8
0
 10
9.478
 20
69.836
 30
0.0
 11
9.675
 21
69.836
 31
0.0
  0
LINE
  5
3A4
  8
0
 10
9.873
 20
69.293
 30
0.0
 11
10.07
 21
69.392
 31
0.0
  0
LINE
  5
3A5
  8
0
 10
9.33
 20
69.59
 30
0.0
 11
9.873
 21
69.293
 31
0.0
  0
LINE
  5
3A6
  8
0
 10
9.33
 20
70.231
 30
0.0
 11
9.33
 21
69.589
 31
0.0
  0
LINE
  5
3A7
  8
0
 10
9.774
 20
69.935
 30
0.0
 11
9.873
 21
69.935
 31
0.0
  0
LINE
  5
3A8
  8
0
 10
35.937
 20
69.047
 30
0.0
 11
35.838
 21
69.047
 31
0.0
  0
LINE
  5
3A9
  8
0
 10
36.035
 20
69.195
 30
0.0
 11
35.937
 21
69.047
 31
0.0
  0
LINE
  5
3AA
  8
0
 10
35.542
 20
69.688
 30
0.0
 11
35.492
 21
69.392
 31
0.0
  0
LINE
  5
3AB
  8
0
 10
35.64
 20
69.195
 30
0.0
 11
35.838
 21
69.047
 31
0.0
  0
LINE
  5
3AC
  8
0
 10
35.542
 20
69.392
 30
0.0
 11
35.542
 21
69.688
 31
0.0
  0
LINE
  5
3AD
  8
0
 10
35.739
 20
69.491
 30
0.0
 11
35.838
 21
69.59
 31
0.0
  0
LINE
  5
3AE
  8
0
 10
35.739
 20
69.688
 30
0.0
 11
35.739
 21
69.491
 31
0.0
  0
LINE
  5
3AF
  8
0
 10
35.492
 20
69.392
 30
0.0
 11
35.542
 21
69.392
 31
0.0
  0
LINE
  5
3B0
  8
0
 10
35.838
 20
69.688
 30
0.0
 11
35.739
 21
69.688
 31
0.0
  0
LINE
  5
3B1
  8
0
 10
35.838
 20
69.688
 30
0.0
 11
35.739
 21
69.688
 31
0.0
  0
LINE
  5
3B2
  8
0
 10
35.739
 20
69.491
 30
0.0
 11
35.838
 21
69.491
 31
0.0
  0
LINE
  5
3B3
  8
0
 10
35.838
 20
69.491
 30
0.0
 11
35.838
 21
69.59
 31
0.0
  0
LINE
  5
3B4
  8
0
 10
35.838
 20
69.688
 30
0.0
 11
36.035
 21
69.738
 31
0.0
  0
LINE
  5
3B5
  8
0
 10
36.035
 20
69.195
 30
0.0
 11
35.838
 21
69.491
 31
0.0
  0
LINE
  5
3B6
  8
0
 10
6.022
 20
67.862
 30
0.0
 11
5.825
 21
67.862
 31
0.0
  0
LINE
  5
3B7
  8
0
 10
5.825
 20
67.862
 30
0.0
 11
5.924
 21
67.862
 31
0.0
  0
LINE
  5
3B8
  8
0
 10
5.924
 20
67.862
 30
0.0
 11
6.022
 21
67.862
 31
0.0
  0
LINE
  5
3B9
  8
0
 10
5.924
 20
67.763
 30
0.0
 11
5.825
 21
67.763
 31
0.0
  0
LINE
  5
3BA
  8
0
 10
5.726
 20
67.664
 30
0.0
 11
5.825
 21
67.763
 31
0.0
  0
LINE
  5
3BB
  8
0
 10
39.244
 20
57.841
 30
0.0
 11
41.07
 21
57.841
 31
0.0
  0
LINE
  5
3BC
  8
0
 10
39.244
 20
57.841
 30
0.0
 11
41.07
 21
57.841
 31
0.0
  0
LINE
  5
3BD
  8
0
 10
40.972
 20
57.841
 30
0.0
 11
39.343
 21
57.841
 31
0.0
  0
LINE
  5
3BE
  8
0
 10
41.367
 20
67.664
 30
0.0
 11
41.268
 21
67.664
 31
0.0
  0
LINE
  5
3BF
  8
0
 10
41.465
 20
61.099
 30
0.0
 11
41.268
 21
61.296
 31
0.0
  0
LINE
  5
3C0
  8
0
 10
39.047
 20
61.296
 30
0.0
 11
38.849
 21
61.099
 31
0.0
  0
LINE
  5
3C1
  8
0
 10
39.047
 20
67.664
 30
0.0
 11
38.948
 21
67.664
 31
0.0
  0
LINE
  5
3C2
  8
0
 10
38.948
 20
67.763
 30
0.0
 11
39.047
 21
67.664
 31
0.0
  0
LINE
  5
3C3
  8
0
 10
41.268
 20
67.664
 30
0.0
 11
41.367
 21
67.763
 31
0.0
  0
LINE
  5
3C4
  8
0
 10
41.762
 20
65.147
 30
0.0
 11
41.86
 21
65.147
 31
0.0
  0
LINE
  5
3C5
  8
0
 10
41.663
 20
65.147
 30
0.0
 11
41.762
 21
65.147
 31
0.0
  0
LINE
  5
3C6
  8
0
 10
37.911
 20
64.999
 30
0.0
 11
38.01
 21
64.999
 31
0.0
  0
LINE
  5
3C7
  8
0
 10
35.64
 20
63.913
 30
0.0
 11
35.739
 21
63.913
 31
0.0
  0
LINE
  5
3C8
  8
0
 10
37.615
 20
64.9
 30
0.0
 11
37.615
 21
64.999
 31
0.0
  0
LINE
  5
3C9
  8
0
 10
42.156
 20
65.048
 30
0.0
 11
42.749
 21
65.048
 31
0.0
  0
LINE
  5
3CA
  8
0
 10
42.749
 20
65.048
 30
0.0
 11
43.045
 21
64.9
 31
0.0
  0
LINE
  5
3CB
  8
0
 10
43.045
 20
64.9
 30
0.0
 11
43.045
 21
64.801
 31
0.0
  0
LINE
  5
3CC
  8
0
 10
43.292
 20
64.801
 30
0.0
 11
43.292
 21
64.703
 31
0.0
  0
LINE
  5
3CD
  8
0
 10
44.773
 20
63.617
 30
0.0
 11
44.871
 21
63.518
 31
0.0
  0
LINE
  5
3CE
  8
0
 10
44.871
 20
63.518
 30
0.0
 11
44.97
 21
63.271
 31
0.0
  0
LINE
  5
3CF
  8
0
 10
35.542
 20
63.617
 30
0.0
 11
35.492
 21
63.518
 31
0.0
  0
LINE
  5
3D0
  8
0
 10
35.492
 20
63.468
 30
0.0
 11
35.394
 21
63.172
 31
0.0
  0
LINE
  5
3D1
  8
0
 10
44.97
 20
63.271
 30
0.0
 11
44.871
 21
63.518
 31
0.0
  0
LINE
  5
3D2
  8
0
 10
42.156
 20
65.048
 30
0.0
 11
42.058
 21
65.048
 31
0.0
  0
LINE
  5
3D3
  8
0
 10
42.749
 20
64.999
 30
0.0
 11
42.255
 21
65.048
 31
0.0
  0
LINE
  5
3D4
  8
0
 10
43.045
 20
64.801
 30
0.0
 11
43.045
 21
64.9
 31
0.0
  0
LINE
  5
3D5
  8
0
 10
43.045
 20
64.9
 30
0.0
 11
42.749
 21
64.999
 31
0.0
  0
LINE
  5
3D6
  8
0
 10
23.941
 20
53.596
 30
0.0
 11
24.04
 21
53.596
 31
0.0
  0
LINE
  5
3D7
  8
0
 10
23.744
 20
53.596
 30
0.0
 11
23.941
 21
53.596
 31
0.0
  0
LINE
  5
3D8
  8
0
 10
27.249
 20
55.422
 30
0.0
 11
27.15
 21
55.422
 31
0.0
  0
LINE
  5
3D9
  8
0
 10
30.605
 20
54.879
 30
0.0
 11
30.309
 21
54.879
 31
0.0
  0
LINE
  5
3DA
  8
0
 10
31.494
 20
54.04
 30
0.0
 11
31.198
 21
54.04
 31
0.0
  0
LINE
  5
3DB
  8
0
 10
22.757
 20
54.534
 30
0.0
 11
22.757
 21
54.682
 31
0.0
  0
LINE
  5
3DC
  8
0
 10
30.309
 20
54.78
 30
0.0
 11
30.605
 21
54.879
 31
0.0
  0
LINE
  5
3DD
  8
0
 10
22.757
 20
54.682
 30
0.0
 11
22.757
 21
54.583
 31
0.0
  0
LINE
  5
3DE
  8
0
 10
3.307
 20
67.22
 30
0.0
 11
3.209
 21
67.22
 31
0.0
  0
LINE
  5
3DF
  8
0
 10
3.209
 20
67.22
 30
0.0
 11
3.11
 21
67.22
 31
0.0
  0
LINE
  5
3E0
  8
0
 10
2.616
 20
66.973
 30
0.0
 11
2.715
 21
66.973
 31
0.0
  0
LINE
  5
3E1
  8
0
 10
3.11
 20
67.22
 30
0.0
 11
2.616
 21
66.973
 31
0.0
  0
LINE
  5
3E2
  8
0
 10
3.9
 20
71.367
 30
0.0
 11
3.998
 21
71.465
 31
0.0
  0
LINE
  5
3E3
  8
0
 10
4.443
 20
70.034
 30
0.0
 11
4.443
 21
69.935
 31
0.0
  0
LINE
  5
3E4
  8
0
 10
3.505
 20
69.145
 30
0.0
 11
3.505
 21
69.195
 31
0.0
  0
LINE
  5
3E5
  8
0
 10
4.147
 20
68.306
 30
0.0
 11
4.097
 21
68.405
 31
0.0
  0
LINE
  5
3E6
  8
0
 10
2.518
 20
68.306
 30
0.0
 11
2.518
 21
68.405
 31
0.0
  0
LINE
  5
3E7
  8
0
 10
3.11
 20
67.516
 30
0.0
 11
3.011
 21
67.516
 31
0.0
  0
LINE
  5
3E8
  8
0
 10
1.481
 20
67.516
 30
0.0
 11
1.481
 21
67.615
 31
0.0
  0
LINE
  5
3E9
  8
0
 10
2.024
 20
66.578
 30
0.0
 11
2.024
 21
66.677
 31
0.0
  0
LINE
  5
3EA
  8
0
 10
3.9
 20
69.293
 30
0.0
 11
4.147
 21
69.195
 31
0.0
  0
LINE
  5
3EB
  8
0
 10
4.541
 20
69.047
 30
0.0
 11
4.541
 21
69.491
 31
0.0
  0
LINE
  5
3EC
  8
0
 10
2.518
 20
67.763
 30
0.0
 11
2.221
 21
67.961
 31
0.0
  0
LINE
  5
3ED
  8
0
 10
2.912
 20
68.504
 30
0.0
 11
3.11
 21
68.405
 31
0.0
  0
LINE
  5
3EE
  8
0
 10
4.541
 20
69.491
 30
0.0
 11
4.245
 21
69.688
 31
0.0
  0
LINE
  5
3EF
  8
0
 10
4.245
 20
69.047
 30
0.0
 11
4.147
 21
68.701
 31
0.0
  0
LINE
  5
3F0
  8
0
 10
1.826
 20
67.664
 30
0.0
 11
2.024
 21
67.516
 31
0.0
  0
LINE
  5
3F1
  8
0
 10
1.481
 20
67.763
 30
0.0
 11
1.481
 21
67.862
 31
0.0
  0
LINE
  5
3F2
  8
0
 10
1.481
 20
67.862
 30
0.0
 11
1.382
 21
67.862
 31
0.0
  0
LINE
  5
3F3
  8
0
 10
2.715
 20
66.973
 30
0.0
 11
3.11
 21
67.121
 31
0.0
  0
LINE
  5
3F4
  8
0
 10
3.11
 20
67.121
 30
0.0
 11
3.209
 21
67.22
 31
0.0
  0
LINE
  5
3F5
  8
0
 10
2.715
 20
66.677
 30
0.0
 11
2.616
 21
66.776
 31
0.0
  0
LINE
  5
3F6
  8
0
 10
3.11
 20
66.233
 30
0.0
 11
3.011
 21
66.233
 31
0.0
  0
LINE
  5
3F7
  8
0
 10
3.11
 20
66.134
 30
0.0
 11
3.11
 21
66.233
 31
0.0
  0
LINE
  5
3F8
  8
0
 10
4.245
 20
69.688
 30
0.0
 11
4.245
 21
69.59
 31
0.0
  0
LINE
  5
3F9
  8
0
 10
2.616
 20
66.973
 30
0.0
 11
2.715
 21
66.973
 31
0.0
  0
LINE
  5
3FA
  8
0
 10
4.443
 20
69.935
 30
0.0
 11
4.344
 21
69.935
 31
0.0
  0
LINE
  5
3FB
  8
0
 10
2.123
 20
67.961
 30
0.0
 11
2.123
 21
67.615
 31
0.0
  0
LINE
  5
3FC
  8
0
 10
2.221
 20
67.418
 30
0.0
 11
2.419
 21
67.319
 31
0.0
  0
LINE
  5
3FD
  8
0
 10
1.53
 20
67.763
 30
0.0
 11
1.481
 21
67.862
 31
0.0
  0
LINE
  5
3FE
  8
0
 10
3.307
 20
67.22
 30
0.0
 11
3.209
 21
67.121
 31
0.0
  0
LINE
  5
3FF
  8
0
 10
3.209
 20
67.121
 30
0.0
 11
3.11
 21
67.072
 31
0.0
  0
LINE
  5
400
  8
0
 10
1.283
 20
67.763
 30
0.0
 11
1.086
 21
67.862
 31
0.0
  0
LINE
  5
401
  8
0
 10
2.518
 20
67.664
 30
0.0
 11
2.518
 21
67.516
 31
0.0
  0
LINE
  5
402
  8
0
 10
3.209
 20
68.75
 30
0.0
 11
3.11
 21
68.405
 31
0.0
  0
LINE
  5
403
  8
0
 10
3.209
 20
68.207
 30
0.0
 11
3.505
 21
68.158
 31
0.0
  0
LINE
  5
404
  8
0
 10
3.406
 20
69.145
 30
0.0
 11
3.406
 21
69.047
 31
0.0
  0
LINE
  5
405
  8
0
 10
3.604
 20
68.504
 30
0.0
 11
3.604
 21
68.306
 31
0.0
  0
LINE
  5
406
  8
0
 10
3.209
 20
67.22
 30
0.0
 11
3.11
 21
67.22
 31
0.0
  0
LINE
  5
407
  8
0
 10
3.209
 20
67.22
 30
0.0
 11
3.11
 21
67.22
 31
0.0
  0
LINE
  5
408
  8
0
 10
2.814
 20
66.973
 30
0.0
 11
3.307
 21
67.22
 31
0.0
  0
LINE
  5
409
  8
0
 10
4.245
 20
69.59
 30
0.0
 11
4.147
 21
69.195
 31
0.0
  0
LINE
  5
40A
  8
0
 10
4.245
 20
69.145
 30
0.0
 11
4.541
 21
69.047
 31
0.0
  0
LINE
  5
40B
  8
0
 10
4.344
 20
70.379
 30
0.0
 11
4.344
 21
70.478
 31
0.0
  0
LINE
  5
40C
  8
0
 10
4.245
 20
70.379
 30
0.0
 11
4.344
 21
70.379
 31
0.0
  0
LINE
  5
40D
  8
0
 10
4.344
 20
70.478
 30
0.0
 11
4.245
 21
70.379
 31
0.0
  0
LINE
  5
40E
  8
0
 10
2.221
 20
67.961
 30
0.0
 11
2.123
 21
67.961
 31
0.0
  0
LINE
  5
40F
  8
0
 10
4.64
 20
70.379
 30
0.0
 11
4.739
 21
70.577
 31
0.0
  0
LINE
  5
410
  8
0
 10
4.64
 20
69.293
 30
0.0
 11
4.64
 21
69.195
 31
0.0
  0
LINE
  5
411
  8
0
 10
4.64
 20
70.379
 30
0.0
 11
4.739
 21
70.379
 31
0.0
  0
LINE
  5
412
  8
0
 10
2.32
 20
68.306
 30
0.0
 11
2.32
 21
68.207
 31
0.0
  0
LINE
  5
413
  8
0
 10
4.739
 20
70.577
 30
0.0
 11
4.739
 21
70.379
 31
0.0
  0
LINE
  5
414
  8
0
 10
5.233
 20
67.072
 30
0.0
 11
5.233
 21
66.973
 31
0.0
  0
LINE
  5
415
  8
0
 10
5.331
 20
66.973
 30
0.0
 11
5.233
 21
67.072
 31
0.0
  0
LINE
  5
416
  8
0
 10
4.936
 20
69.935
 30
0.0
 11
5.035
 21
69.935
 31
0.0
  0
LINE
  5
417
  8
0
 10
5.035
 20
70.034
 30
0.0
 11
4.936
 21
69.935
 31
0.0
  0
LINE
  5
418
  8
0
 10
5.035
 20
69.935
 30
0.0
 11
5.035
 21
70.034
 31
0.0
  0
LINE
  5
419
  8
0
 10
1.481
 20
67.763
 30
0.0
 11
1.53
 21
67.763
 31
0.0
  0
LINE
  5
41A
  8
0
 10
5.43
 20
67.072
 30
0.0
 11
5.331
 21
67.121
 31
0.0
  0
LINE
  5
41B
  8
0
 10
4.936
 20
69.047
 30
0.0
 11
5.134
 21
69.047
 31
0.0
  0
LINE
  5
41C
  8
0
 10
4.936
 20
69.836
 30
0.0
 11
4.739
 21
69.935
 31
0.0
  0
LINE
  5
41D
  8
0
 10
3.11
 20
67.22
 30
0.0
 11
2.616
 21
66.973
 31
0.0
  0
LINE
  5
41E
  8
0
 10
6.615
 20
68.158
 30
0.0
 11
6.713
 21
68.059
 31
0.0
  0
LINE
  5
41F
  8
0
 10
2.715
 20
66.973
 30
0.0
 11
2.616
 21
66.973
 31
0.0
  0
LINE
  5
420
  8
0
 10
3.11
 20
67.22
 30
0.0
 11
3.011
 21
67.22
 31
0.0
  0
LINE
  5
421
  8
0
 10
2.814
 20
67.121
 30
0.0
 11
2.616
 21
66.973
 31
0.0
  0
LINE
  5
422
  8
0
 10
3.998
 20
68.207
 30
0.0
 11
4.097
 21
68.207
 31
0.0
  0
LINE
  5
423
  8
0
 10
3.801
 20
67.516
 30
0.0
 11
3.702
 21
67.615
 31
0.0
  0
LINE
  5
424
  8
0
 10
2.912
 20
67.418
 30
0.0
 11
3.011
 21
67.418
 31
0.0
  0
LINE
  5
425
  8
0
 10
36.035
 20
69.688
 30
0.0
 11
36.134
 21
69.59
 31
0.0
  0
LINE
  5
426
  8
0
 10
37.023
 20
75.612
 30
0.0
 11
36.924
 21
75.612
 31
0.0
  0
LINE
  5
427
  8
0
 10
37.121
 20
75.513
 30
0.0
 11
37.023
 21
75.612
 31
0.0
  0
LINE
  5
428
  8
0
 10
35.295
 20
67.072
 30
0.0
 11
35.196
 21
67.072
 31
0.0
  0
LINE
  5
429
  8
0
 10
34.209
 20
73.391
 30
0.0
 11
34.209
 21
73.44
 31
0.0
  0
LINE
  5
42A
  8
0
 10
33.715
 20
72.897
 30
0.0
 11
33.814
 21
72.897
 31
0.0
  0
LINE
  5
42B
  8
0
 10
37.714
 20
76.056
 30
0.0
 11
37.911
 21
76.056
 31
0.0
  0
LINE
  5
42C
  8
0
 10
33.715
 20
64.258
 30
0.0
 11
33.814
 21
64.16
 31
0.0
  0
LINE
  5
42D
  8
0
 10
33.814
 20
64.258
 30
0.0
 11
33.913
 21
64.258
 31
0.0
  0
LINE
  5
42E
  8
0
 10
38.01
 20
66.43
 30
0.0
 11
37.911
 21
66.776
 31
0.0
  0
LINE
  5
42F
  8
0
 10
39.639
 20
76.056
 30
0.0
 11
39.441
 21
76.352
 31
0.0
  0
LINE
  5
430
  8
0
 10
34.209
 20
72.897
 30
0.0
 11
34.308
 21
72.65
 31
0.0
  0
LINE
  5
431
  8
0
 10
37.911
 20
67.418
 30
0.0
 11
37.714
 21
67.418
 31
0.0
  0
LINE
  5
432
  8
0
 10
33.913
 20
64.258
 30
0.0
 11
33.814
 21
64.258
 31
0.0
  0
LINE
  5
433
  8
0
 10
37.023
 20
75.168
 30
0.0
 11
36.726
 21
74.427
 31
0.0
  0
LINE
  5
434
  8
0
 10
33.814
 20
64.258
 30
0.0
 11
33.715
 21
64.258
 31
0.0
  0
LINE
  5
435
  8
0
 10
35.492
 20
67.072
 30
0.0
 11
35.492
 21
66.875
 31
0.0
  0
LINE
  5
436
  8
0
 10
34.505
 20
72.749
 30
0.0
 11
34.406
 21
72.65
 31
0.0
  0
LINE
  5
437
  8
0
 10
35.394
 20
66.43
 30
0.0
 11
35.196
 21
66.43
 31
0.0
  0
LINE
  5
438
  8
0
 10
35.394
 20
67.072
 30
0.0
 11
35.492
 21
67.072
 31
0.0
  0
LINE
  5
439
  8
0
 10
35.492
 20
67.072
 30
0.0
 11
35.394
 21
66.43
 31
0.0
  0
LINE
  5
43A
  8
0
 10
37.911
 20
66.776
 30
0.0
 11
38.109
 21
66.43
 31
0.0
  0
LINE
  5
43B
  8
0
 10
34.308
 20
72.65
 30
0.0
 11
34.505
 21
72.749
 31
0.0
  0
LINE
  5
43C
  8
0
 10
35.394
 20
66.529
 30
0.0
 11
35.295
 21
66.43
 31
0.0
  0
LINE
  5
43D
  8
0
 10
35.492
 20
66.875
 30
0.0
 11
35.394
 21
66.529
 31
0.0
  0
LINE
  5
43E
  8
0
 10
35.394
 20
66.875
 30
0.0
 11
35.295
 21
67.072
 31
0.0
  0
LINE
  5
43F
  8
0
 10
42.551
 20
63.271
 30
0.0
 11
42.453
 21
63.468
 31
0.0
  0
LINE
  5
440
  8
0
 10
35.394
 20
62.975
 30
0.0
 11
35.64
 21
63.814
 31
0.0
  0
LINE
  5
441
  8
0
 10
43.884
 20
58.581
 30
0.0
 11
44.97
 21
58.236
 31
0.0
  0
LINE
  5
442
  8
0
 10
46.599
 20
57.199
 30
0.0
 11
46.994
 21
56.854
 31
0.0
  0
LINE
  5
443
  8
0
 10
46.994
 20
56.854
 30
0.0
 11
47.192
 21
56.607
 31
0.0
  0
LINE
  5
444
  8
0
 10
47.29
 20
56.508
 30
0.0
 11
47.488
 21
55.62
 31
0.0
  0
LINE
  5
445
  8
0
 10
45.661
 20
56.064
 30
0.0
 11
44.674
 21
56.854
 31
0.0
  0
LINE
  5
446
  8
0
 10
32.876
 20
55.62
 30
0.0
 11
33.123
 21
56.508
 31
0.0
  0
LINE
  5
447
  8
0
 10
33.123
 20
56.607
 30
0.0
 11
33.419
 21
56.854
 31
0.0
  0
LINE
  5
448
  8
0
 10
33.419
 20
56.854
 30
0.0
 11
33.518
 21
57.051
 31
0.0
  0
LINE
  5
449
  8
0
 10
41.07
 20
58.927
 30
0.0
 11
43.785
 21
58.581
 31
0.0
  0
LINE
  5
44A
  8
0
 10
43.785
 20
58.581
 30
0.0
 11
41.86
 21
58.927
 31
0.0
  0
LINE
  5
44B
  8
0
 10
33.518
 20
57.051
 30
0.0
 11
33.419
 21
56.854
 31
0.0
  0
LINE
  5
44C
  8
0
 10
44.871
 20
63.518
 30
0.0
 11
44.97
 21
63.271
 31
0.0
  0
LINE
  5
44D
  8
0
 10
42.848
 20
64.9
 30
0.0
 11
42.946
 21
64.801
 31
0.0
  0
LINE
  5
44E
  8
0
 10
42.453
 20
64.999
 30
0.0
 11
42.848
 21
64.9
 31
0.0
  0
LINE
  5
44F
  8
0
 10
42.255
 20
64.999
 30
0.0
 11
42.453
 21
64.999
 31
0.0
  0
LINE
  5
450
  8
0
 10
41.762
 20
65.147
 30
0.0
 11
41.86
 21
65.147
 31
0.0
  0
LINE
  5
451
  8
0
 10
36.233
 20
64.357
 30
0.0
 11
37.615
 21
64.9
 31
0.0
  0
LINE
  5
452
  8
0
 10
35.838
 20
64.456
 30
0.0
 11
35.838
 21
63.962
 31
0.0
  0
LINE
  5
453
  8
0
 10
42.749
 20
63.074
 30
0.0
 11
42.058
 21
62.975
 31
0.0
  0
LINE
  5
454
  8
0
 10
41.86
 20
61.0
 30
0.0
 11
42.058
 21
61.0
 31
0.0
  0
LINE
  5
455
  8
0
 10
42.058
 20
61.0
 30
0.0
 11
42.354
 21
60.902
 31
0.0
  0
LINE
  5
456
  8
0
 10
42.354
 20
60.902
 30
0.0
 11
42.749
 21
60.655
 31
0.0
  0
LINE
  5
457
  8
0
 10
41.762
 20
60.112
 30
0.0
 11
41.762
 21
60.013
 31
0.0
  0
LINE
  5
458
  8
0
 10
41.762
 20
60.013
 30
0.0
 11
41.86
 21
60.21
 31
0.0
  0
LINE
  5
459
  8
0
 10
41.762
 20
63.814
 30
0.0
 11
41.762
 21
63.913
 31
0.0
  0
LINE
  5
45A
  8
0
 10
41.762
 20
63.913
 30
0.0
 11
41.564
 21
64.061
 31
0.0
  0
LINE
  5
45B
  8
0
 10
41.663
 20
61.099
 30
0.0
 11
41.465
 21
61.0
 31
0.0
  0
LINE
  5
45C
  8
0
 10
42.058
 20
63.271
 30
0.0
 11
42.156
 21
63.074
 31
0.0
  0
LINE
  5
45D
  8
0
 10
41.86
 20
58.927
 30
0.0
 11
41.762
 21
59.124
 31
0.0
  0
LINE
  5
45E
  8
0
 10
41.663
 20
59.667
 30
0.0
 11
41.465
 21
59.816
 31
0.0
  0
LINE
  5
45F
  8
0
 10
41.762
 20
60.112
 30
0.0
 11
41.762
 21
59.124
 31
0.0
  0
LINE
  5
460
  8
0
 10
41.762
 20
60.013
 30
0.0
 11
41.86
 21
59.914
 31
0.0
  0
LINE
  5
461
  8
0
 10
41.86
 20
59.914
 30
0.0
 11
41.959
 21
60.112
 31
0.0
  0
LINE
  5
462
  8
0
 10
41.959
 20
60.112
 30
0.0
 11
41.86
 21
60.21
 31
0.0
  0
LINE
  5
463
  8
0
 10
41.959
 20
60.852
 30
0.0
 11
41.86
 21
61.0
 31
0.0
  0
LINE
  5
464
  8
0
 10
41.959
 20
60.902
 30
0.0
 11
41.86
 21
61.0
 31
0.0
  0
LINE
  5
465
  8
0
 10
42.255
 20
60.902
 30
0.0
 11
42.058
 21
60.902
 31
0.0
  0
LINE
  5
466
  8
0
 10
42.058
 20
60.902
 30
0.0
 11
41.959
 21
60.902
 31
0.0
  0
LINE
  5
467
  8
0
 10
42.255
 20
60.902
 30
0.0
 11
42.354
 21
60.902
 31
0.0
  0
LINE
  5
468
  8
0
 10
42.65
 20
60.112
 30
0.0
 11
42.848
 21
60.21
 31
0.0
  0
LINE
  5
469
  8
0
 10
42.749
 20
60.655
 30
0.0
 11
42.453
 21
60.556
 31
0.0
  0
LINE
  5
46A
  8
0
 10
43.242
 20
63.468
 30
0.0
 11
42.946
 21
63.37
 31
0.0
  0
LINE
  5
46B
  8
0
 10
42.848
 20
60.21
 30
0.0
 11
43.292
 21
59.273
 31
0.0
  0
LINE
  5
46C
  8
0
 10
42.946
 20
63.617
 30
0.0
 11
42.848
 21
63.468
 31
0.0
  0
LINE
  5
46D
  8
0
 10
42.848
 20
63.715
 30
0.0
 11
42.946
 21
63.617
 31
0.0
  0
LINE
  5
46E
  8
0
 10
42.65
 20
63.518
 30
0.0
 11
42.848
 21
63.468
 31
0.0
  0
LINE
  5
46F
  8
0
 10
42.848
 20
63.715
 30
0.0
 11
42.65
 21
63.518
 31
0.0
  0
LINE
  5
470
  8
0
 10
42.453
 20
63.913
 30
0.0
 11
42.354
 21
63.617
 31
0.0
  0
LINE
  5
471
  8
0
 10
42.453
 20
63.913
 30
0.0
 11
42.65
 21
63.814
 31
0.0
  0
LINE
  5
472
  8
0
 10
42.65
 20
63.814
 30
0.0
 11
42.848
 21
63.715
 31
0.0
  0
LINE
  5
473
  8
0
 10
42.255
 20
63.913
 30
0.0
 11
42.453
 21
63.913
 31
0.0
  0
LINE
  5
474
  8
0
 10
42.255
 20
63.715
 30
0.0
 11
42.354
 21
63.617
 31
0.0
  0
LINE
  5
475
  8
0
 10
42.255
 20
63.913
 30
0.0
 11
42.255
 21
63.715
 31
0.0
  0
LINE
  5
476
  8
0
 10
41.762
 20
63.814
 30
0.0
 11
41.86
 21
63.814
 31
0.0
  0
LINE
  5
477
  8
0
 10
41.86
 20
63.271
 30
0.0
 11
42.058
 21
62.975
 31
0.0
  0
LINE
  5
478
  8
0
 10
42.848
 20
63.271
 30
0.0
 11
42.946
 21
63.37
 31
0.0
  0
LINE
  5
479
  8
0
 10
42.65
 20
63.518
 30
0.0
 11
42.354
 21
63.617
 31
0.0
  0
LINE
  5
47A
  8
0
 10
41.762
 20
63.913
 30
0.0
 11
41.86
 21
64.061
 31
0.0
  0
LINE
  5
47B
  8
0
 10
41.762
 20
64.061
 30
0.0
 11
41.86
 21
64.061
 31
0.0
  0
LINE
  5
47C
  8
0
 10
45.266
 20
53.694
 30
0.0
 11
45.464
 21
53.892
 31
0.0
  0
LINE
  5
47D
  8
0
 10
46.106
 20
55.323
 30
0.0
 11
45.908
 21
55.866
 31
0.0
  0
LINE
  5
47E
  8
0
 10
44.082
 20
57.199
 30
0.0
 11
43.144
 21
57.594
 31
0.0
  0
LINE
  5
47F
  8
0
 10
41.86
 20
59.914
 30
0.0
 11
41.86
 21
58.927
 31
0.0
  0
LINE
  5
480
  8
0
 10
41.959
 20
60.852
 30
0.0
 11
41.959
 21
60.112
 31
0.0
  0
LINE
  5
481
  8
0
 10
41.959
 20
60.902
 30
0.0
 11
41.959
 21
60.852
 31
0.0
  0
LINE
  5
482
  8
0
 10
42.453
 20
60.556
 30
0.0
 11
42.255
 21
60.902
 31
0.0
  0
LINE
  5
483
  8
0
 10
42.65
 20
60.112
 30
0.0
 11
42.453
 21
60.556
 31
0.0
  0
LINE
  5
484
  8
0
 10
43.144
 20
57.594
 30
0.0
 11
44.082
 21
57.199
 31
0.0
  0
LINE
  5
485
  8
0
 10
45.908
 20
55.768
 30
0.0
 11
46.106
 21
55.323
 31
0.0
  0
LINE
  5
486
  8
0
 10
34.703
 20
56.064
 30
0.0
 11
35.492
 21
56.755
 31
0.0
  0
LINE
  5
487
  8
0
 10
39.244
 20
59.124
 30
0.0
 11
39.244
 21
59.223
 31
0.0
  0
LINE
  5
488
  8
0
 10
41.07
 20
59.223
 30
0.0
 11
41.07
 21
59.124
 31
0.0
  0
LINE
  5
489
  8
0
 10
41.465
 20
59.124
 30
0.0
 11
41.465
 21
59.026
 31
0.0
  0
LINE
  5
48A
  8
0
 10
38.454
 20
58.927
 30
0.0
 11
38.454
 21
59.667
 31
0.0
  0
LINE
  5
48B
  8
0
 10
38.454
 20
59.667
 30
0.0
 11
38.553
 21
59.766
 31
0.0
  0
LINE
  5
48C
  8
0
 10
36.134
 20
64.258
 30
0.0
 11
36.134
 21
64.357
 31
0.0
  0
LINE
  5
48D
  8
0
 10
38.553
 20
59.766
 30
0.0
 11
38.553
 21
59.914
 31
0.0
  0
LINE
  5
48E
  8
0
 10
38.553
 20
59.124
 30
0.0
 11
38.553
 21
59.914
 31
0.0
  0
LINE
  5
48F
  8
0
 10
38.849
 20
59.026
 30
0.0
 11
38.849
 21
59.124
 31
0.0
  0
LINE
  5
490
  8
0
 10
38.553
 20
59.124
 30
0.0
 11
38.454
 21
58.927
 31
0.0
  0
LINE
  5
491
  8
0
 10
38.849
 20
59.816
 30
0.0
 11
38.652
 21
59.667
 31
0.0
  0
LINE
  5
492
  8
0
 10
38.849
 20
61.0
 30
0.0
 11
38.652
 21
61.099
 31
0.0
  0
LINE
  5
493
  8
0
 10
42.156
 20
63.074
 30
0.0
 11
42.354
 21
63.074
 31
0.0
  0
LINE
  5
494
  8
0
 10
42.354
 20
63.074
 30
0.0
 11
42.551
 21
63.271
 31
0.0
  0
LINE
  5
495
  8
0
 10
46.5
 20
62.432
 30
0.0
 11
46.599
 21
62.975
 31
0.0
  0
LINE
  5
496
  8
0
 10
45.168
 20
62.925
 30
0.0
 11
45.365
 21
62.728
 31
0.0
  0
LINE
  5
497
  8
0
 10
45.069
 20
62.925
 30
0.0
 11
45.168
 21
62.925
 31
0.0
  0
LINE
  5
498
  8
0
 10
34.209
 20
64.703
 30
0.0
 11
34.801
 21
64.801
 31
0.0
  0
LINE
  5
499
  8
0
 10
41.169
 20
78.228
 30
0.0
 11
41.268
 21
78.327
 31
0.0
  0
LINE
  5
49A
  8
0
 10
33.715
 20
62.975
 30
0.0
 11
33.913
 21
62.432
 31
0.0
  0
LINE
  5
49B
  8
0
 10
35.097
 20
65.344
 30
0.0
 11
35.097
 21
65.443
 31
0.0
  0
LINE
  5
49C
  8
0
 10
35.097
 20
64.801
 30
0.0
 11
35.196
 21
64.604
 31
0.0
  0
LINE
  5
49D
  8
0
 10
34.604
 20
75.513
 30
0.0
 11
34.703
 21
75.464
 31
0.0
  0
LINE
  5
49E
  8
0
 10
34.308
 20
75.513
 30
0.0
 11
34.406
 21
75.513
 31
0.0
  0
LINE
  5
49F
  8
0
 10
34.9
 20
76.007
 30
0.0
 11
34.999
 21
76.007
 31
0.0
  0
LINE
  5
4A0
  8
0
 10
36.726
 20
77.537
 30
0.0
 11
36.825
 21
77.537
 31
0.0
  0
LINE
  5
4A1
  8
0
 10
46.303
 20
75.612
 30
0.0
 11
46.402
 21
75.513
 31
0.0
  0
LINE
  5
4A2
  8
0
 10
40.133
 20
76.007
 30
0.0
 11
40.231
 21
75.908
 31
0.0
  0
LINE
  5
4A3
  8
0
 10
40.231
 20
75.908
 30
0.0
 11
40.429
 21
75.908
 31
0.0
  0
LINE
  5
4A4
  8
0
 10
46.007
 20
76.352
 30
0.0
 11
46.204
 21
76.352
 31
0.0
  0
LINE
  5
4A5
  8
0
 10
40.429
 20
75.908
 30
0.0
 11
40.527
 21
75.908
 31
0.0
  0
LINE
  5
4A6
  8
0
 10
41.268
 20
78.327
 30
0.0
 11
41.465
 21
78.228
 31
0.0
  0
LINE
  5
4A7
  8
0
 10
45.563
 20
77.043
 30
0.0
 11
45.563
 21
76.994
 31
0.0
  0
LINE
  5
4A8
  8
0
 10
45.464
 20
77.043
 30
0.0
 11
45.563
 21
77.043
 31
0.0
  0
LINE
  5
4A9
  8
0
 10
41.465
 20
77.586
 30
0.0
 11
41.663
 21
77.586
 31
0.0
  0
LINE
  5
4AA
  8
0
 10
41.663
 20
77.586
 30
0.0
 11
42.453
 21
77.685
 31
0.0
  0
LINE
  5
4AB
  8
0
 10
42.453
 20
77.685
 30
0.0
 11
42.848
 21
77.784
 31
0.0
  0
LINE
  5
4AC
  8
0
 10
43.144
 20
78.08
 30
0.0
 11
43.292
 21
78.08
 31
0.0
  0
LINE
  5
4AD
  8
0
 10
44.378
 20
77.586
 30
0.0
 11
44.575
 21
77.586
 31
0.0
  0
LINE
  5
4AE
  8
0
 10
34.801
 20
64.258
 30
0.0
 11
34.209
 21
64.16
 31
0.0
  0
LINE
  5
4AF
  8
0
 10
45.365
 20
62.728
 30
0.0
 11
45.069
 21
62.531
 31
0.0
  0
LINE
  5
4B0
  8
0
 10
35.097
 20
64.9
 30
0.0
 11
35.097
 21
64.801
 31
0.0
  0
LINE
  5
4B1
  8
0
 10
30.309
 20
75.168
 30
0.0
 11
30.309
 21
74.822
 31
0.0
  0
LINE
  5
4B2
  8
0
 10
9.873
 20
70.379
 30
0.0
 11
9.774
 21
70.478
 31
0.0
  0
LINE
  5
4B3
  8
0
 10
9.774
 20
70.478
 30
0.0
 11
9.873
 21
70.824
 31
0.0
  0
LINE
  5
4B4
  8
0
 10
10.07
 20
70.922
 30
0.0
 11
9.971
 21
70.922
 31
0.0
  0
LINE
  5
4B5
  8
0
 10
12.094
 20
74.378
 30
0.0
 11
11.946
 21
74.279
 31
0.0
  0
LINE
  5
4B6
  8
0
 10
9.33
 20
70.281
 30
0.0
 11
9.132
 21
70.231
 31
0.0
  0
LINE
  5
4B7
  8
0
 10
33.123
 20
74.378
 30
0.0
 11
33.123
 21
74.279
 31
0.0
  0
LINE
  5
4B8
  8
0
 10
6.417
 20
65.887
 30
0.0
 11
6.516
 21
65.789
 31
0.0
  0
LINE
  5
4B9
  8
0
 10
6.615
 20
65.887
 30
0.0
 11
6.615
 21
65.986
 31
0.0
  0
LINE
  5
4BA
  8
0
 10
10.268
 20
68.948
 30
0.0
 11
10.268
 21
69.047
 31
0.0
  0
LINE
  5
4BB
  8
0
 10
12.292
 20
71.564
 30
0.0
 11
12.292
 21
72.305
 31
0.0
  0
LINE
  5
4BC
  8
0
 10
12.193
 20
71.465
 30
0.0
 11
11.995
 21
71.367
 31
0.0
  0
LINE
  5
4BD
  8
0
 10
6.319
 20
66.875
 30
0.0
 11
6.22
 21
66.43
 31
0.0
  0
LINE
  5
4BE
  8
0
 10
10.465
 20
69.047
 30
0.0
 11
10.564
 21
69.195
 31
0.0
  0
LINE
  5
4BF
  8
0
 10
11.847
 20
74.18
 30
0.0
 11
11.847
 21
73.44
 31
0.0
  0
LINE
  5
4C0
  8
0
 10
9.132
 20
70.231
 30
0.0
 11
9.034
 21
70.132
 31
0.0
  0
LINE
  5
4C1
  8
0
 10
9.873
 20
70.824
 30
0.0
 11
9.873
 21
70.379
 31
0.0
  0
LINE
  5
4C2
  8
0
 10
6.516
 20
65.887
 30
0.0
 11
6.417
 21
65.887
 31
0.0
  0
LINE
  5
4C3
  8
0
 10
10.169
 20
69.047
 30
0.0
 11
10.366
 21
68.849
 31
0.0
  0
LINE
  5
4C4
  8
0
 10
8.836
 20
73.292
 30
0.0
 11
8.836
 21
73.391
 31
0.0
  0
LINE
  5
4C5
  8
0
 10
8.836
 20
73.391
 30
0.0
 11
8.836
 21
73.44
 31
0.0
  0
LINE
  5
4C6
  8
0
 10
0.79
 20
69.392
 30
0.0
 11
0.79
 21
69.491
 31
0.0
  0
LINE
  5
4C7
  8
0
 10
3.9
 20
72.354
 30
0.0
 11
3.9
 21
72.305
 31
0.0
  0
LINE
  5
4C8
  8
0
 10
0.987
 20
69.293
 30
0.0
 11
0.79
 21
69.392
 31
0.0
  0
LINE
  5
4C9
  8
0
 10
38.158
 20
76.5
 30
0.0
 11
38.109
 21
76.599
 31
0.0
  0
LINE
  5
4CA
  8
0
 10
38.109
 20
76.599
 30
0.0
 11
38.109
 21
76.698
 31
0.0
  0
LINE
  5
4CB
  8
0
 10
39.639
 20
76.007
 30
0.0
 11
40.231
 21
76.155
 31
0.0
  0
LINE
  5
4CC
  8
0
 10
40.725
 20
76.155
 30
0.0
 11
40.774
 21
76.155
 31
0.0
  0
LINE
  5
4CD
  8
0
 10
40.774
 20
76.155
 30
0.0
 11
40.873
 21
76.254
 31
0.0
  0
LINE
  5
4CE
  8
0
 10
8.54
 20
73.44
 30
0.0
 11
8.441
 21
73.44
 31
0.0
  0
LINE
  5
4CF
  8
0
 10
34.505
 20
76.994
 30
0.0
 11
34.406
 21
76.994
 31
0.0
  0
LINE
  5
4D0
  8
0
 10
37.023
 20
77.438
 30
0.0
 11
36.825
 21
77.537
 31
0.0
  0
LINE
  5
4D1
  8
0
 10
36.726
 20
77.537
 30
0.0
 11
36.628
 21
77.537
 31
0.0
  0
LINE
  5
4D2
  8
0
 10
38.01
 20
76.797
 30
0.0
 11
37.714
 21
77.043
 31
0.0
  0
LINE
  5
4D3
  8
0
 10
1.086
 20
69.59
 30
0.0
 11
0.987
 21
69.59
 31
0.0
  0
LINE
  5
4D4
  8
0
 10
0.79
 20
69.491
 30
0.0
 11
0.889
 21
69.491
 31
0.0
  0
LINE
  5
4D5
  8
0
 10
0.889
 20
69.491
 30
0.0
 11
0.987
 21
69.59
 31
0.0
  0
LINE
  5
4D6
  8
0
 10
0.099
 20
69.195
 30
0.0
 11
0.099
 21
69.293
 31
0.0
  0
LINE
  5
4D7
  8
0
 10
8.441
 20
73.44
 30
0.0
 11
8.441
 21
73.391
 31
0.0
  0
LINE
  5
4D8
  8
0
 10
8.54
 20
73.391
 30
0.0
 11
8.639
 21
73.391
 31
0.0
  0
LINE
  5
4D9
  8
0
 10
8.737
 20
73.44
 30
0.0
 11
8.639
 21
73.44
 31
0.0
  0
LINE
  5
4DA
  8
0
 10
36.825
 20
79.956
 30
0.0
 11
36.628
 21
80.055
 31
0.0
  0
LINE
  5
4DB
  8
0
 10
7.454
 20
69.491
 30
0.0
 11
7.454
 21
69.392
 31
0.0
  0
LINE
  5
4DC
  8
0
 10
0.0
 20
69.195
 30
0.0
 11
0.0
 21
69.392
 31
0.0
  0
LINE
  5
4DD
  8
0
 10
39.047
 20
77.34
 30
0.0
 11
39.047
 21
77.241
 31
0.0
  0
LINE
  5
4DE
  8
0
 10
39.047
 20
77.241
 30
0.0
 11
39.145
 21
77.043
 31
0.0
  0
LINE
  5
4DF
  8
0
 10
40.972
 20
76.254
 30
0.0
 11
41.07
 21
76.352
 31
0.0
  0
LINE
  5
4E0
  8
0
 10
33.222
 20
74.427
 30
0.0
 11
33.419
 21
74.723
 31
0.0
  0
LINE
  5
4E1
  8
0
 10
6.862
 20
71.12
 30
0.0
 11
6.763
 21
71.12
 31
0.0
  0
LINE
  5
4E2
  8
0
 10
6.763
 20
71.12
 30
0.0
 11
6.615
 21
71.367
 31
0.0
  0
LINE
  5
4E3
  8
0
 10
34.011
 20
73.835
 30
0.0
 11
33.814
 21
73.884
 31
0.0
  0
LINE
  5
4E4
  8
0
 10
4.541
 20
72.65
 30
0.0
 11
4.64
 21
72.551
 31
0.0
  0
LINE
  5
4E5
  8
0
 10
8.737
 20
73.539
 30
0.0
 11
8.639
 21
73.539
 31
0.0
  0
LINE
  5
4E6
  8
0
 10
8.639
 20
73.539
 30
0.0
 11
8.54
 21
73.44
 31
0.0
  0
LINE
  5
4E7
  8
0
 10
6.615
 20
71.367
 30
0.0
 11
6.862
 21
71.219
 31
0.0
  0
LINE
  5
4E8
  8
0
 10
6.862
 20
71.219
 30
0.0
 11
6.862
 21
71.12
 31
0.0
  0
LINE
  5
4E9
  8
0
 10
34.308
 20
76.895
 30
0.0
 11
34.406
 21
76.994
 31
0.0
  0
LINE
  5
4EA
  8
0
 10
4.64
 20
72.551
 30
0.0
 11
4.936
 21
72.354
 31
0.0
  0
LINE
  5
4EB
  8
0
 10
8.836
 20
73.292
 30
0.0
 11
8.836
 21
73.391
 31
0.0
  0
LINE
  5
4EC
  8
0
 10
40.231
 20
77.784
 30
0.0
 11
39.738
 21
78.228
 31
0.0
  0
LINE
  5
4ED
  8
0
 10
40.527
 20
77.043
 30
0.0
 11
40.429
 21
77.438
 31
0.0
  0
LINE
  5
4EE
  8
0
 10
39.145
 20
77.043
 30
0.0
 11
39.54
 21
76.895
 31
0.0
  0
LINE
  5
4EF
  8
0
 10
34.406
 20
76.994
 30
0.0
 11
34.505
 21
77.043
 31
0.0
  0
LINE
  5
4F0
  8
0
 10
6.862
 20
71.12
 30
0.0
 11
6.96
 21
71.12
 31
0.0
  0
LINE
  5
4F1
  8
0
 10
6.96
 20
71.12
 30
0.0
 11
6.96
 21
71.219
 31
0.0
  0
LINE
  5
4F2
  8
0
 10
6.96
 20
71.219
 30
0.0
 11
6.713
 21
71.465
 31
0.0
  0
LINE
  5
4F3
  8
0
 10
6.713
 20
71.465
 30
0.0
 11
6.615
 21
71.367
 31
0.0
  0
LINE
  5
4F4
  8
0
 10
3.9
 20
72.453
 30
0.0
 11
3.998
 21
72.354
 31
0.0
  0
LINE
  5
4F5
  8
0
 10
8.836
 20
73.391
 30
0.0
 11
8.935
 21
73.391
 31
0.0
  0
LINE
  5
4F6
  8
0
 10
8.935
 20
73.391
 30
0.0
 11
8.935
 21
73.44
 31
0.0
  0
LINE
  5
4F7
  8
0
 10
36.726
 20
77.586
 30
0.0
 11
36.924
 21
77.537
 31
0.0
  0
LINE
  5
4F8
  8
0
 10
36.924
 20
77.537
 30
0.0
 11
37.023
 21
77.537
 31
0.0
  0
LINE
  5
4F9
  8
0
 10
37.812
 20
77.043
 30
0.0
 11
38.109
 21
76.797
 31
0.0
  0
LINE
  5
4FA
  8
0
 10
40.725
 20
76.254
 30
0.0
 11
40.774
 21
76.254
 31
0.0
  0
LINE
  5
4FB
  8
0
 10
40.774
 20
76.254
 30
0.0
 11
40.972
 21
76.254
 31
0.0
  0
LINE
  5
4FC
  8
0
 10
39.639
 20
76.007
 30
0.0
 11
40.231
 21
76.155
 31
0.0
  0
LINE
  5
4FD
  8
0
 10
38.109
 20
76.698
 30
0.0
 11
38.158
 21
76.599
 31
0.0
  0
LINE
  5
4FE
  8
0
 10
38.158
 20
76.599
 30
0.0
 11
38.257
 21
76.599
 31
0.0
  0
LINE
  5
4FF
  8
0
 10
8.836
 20
73.44
 30
0.0
 11
8.737
 21
73.539
 31
0.0
  0
LINE
  5
500
  8
0
 10
6.96
 20
71.021
 30
0.0
 11
6.862
 21
71.021
 31
0.0
  0
LINE
  5
501
  8
0
 10
6.862
 20
71.021
 30
0.0
 11
6.763
 21
71.021
 31
0.0
  0
LINE
  5
502
  8
0
 10
6.763
 20
71.021
 30
0.0
 11
6.516
 21
71.317
 31
0.0
  0
LINE
  5
503
  8
0
 10
6.516
 20
71.317
 30
0.0
 11
6.516
 21
71.367
 31
0.0
  0
LINE
  5
504
  8
0
 10
6.516
 20
71.367
 30
0.0
 11
6.516
 21
71.564
 31
0.0
  0
LINE
  5
505
  8
0
 10
6.516
 20
71.564
 30
0.0
 11
6.713
 21
71.663
 31
0.0
  0
POLYLINE
  5
506
  8
0
 66
1
 10
0.0
 20
0.0
 30
0.0
 70
0
  0
VERTEX
  5
508
  8
0
 10
39.54
 20
76.895
 30
0.0
 70
0
  0
VERTEX
  5
509
  8
0
 10
39.145
 20
77.142
 30
0.0
 70
0
  0
VERTEX
  5
50A
  8
0
 10
39.047
 20
77.438
 30
0.0
 70
0
  0
SEQEND
  5
507
  8
0
  0
POLYLINE
  5
50B
  8
0
 66
1
 10
0.0
 20
0.0
 30
0.0
 70
0
  0
VERTEX
  5
50D
  8
0
 10
39.639
 20
77.784
 30
0.0
 70
0
  0
VERTEX
  5
50E
  8
0
 10
40.034
 20
77.586
 30
0.0
 70
0
  0
VERTEX
  5
50F
  8
0
 10
39.935
 20
77.043
 30
0.0
 70
0
  0
SEQEND
  5
50C
  8
0
  0
POLYLINE
  5
510
  8
0
 66
1
 10
0.0
 20
0.0
 30
0.0
 70
0
  0
VERTEX
  5
512
  8
0
 10
39.244
 20
77.685
 30
0.0
 70
0
  0
VERTEX
  5
513
  8
0
 10
39.145
 20
77.34
 30
0.0
 70
0
  0
VERTEX
  5
514
  8
0
 10
39.343
 20
77.142
 30
0.0
 70
0
  0
SEQEND
  5
511
  8
0
  0
POLYLINE
  5
515
  8
0
 66
1
 10
0.0
 20
0.0
 30
0.0
 70
0
  0
VERTEX
  5
517
  8
0
 10
38.75
 20
75.908
 30
0.0
 70
0
  0
VERTEX
  5
518
  8
0
 10
38.355
 20
76.155
 30
0.0
 70
0
  0
VERTEX
  5
519
  8
0
 10
38.257
 20
76.451
 30
0.0
 70
0
  0
VERTEX
  5
51A
  8
0
 10
38.454
 20
76.698
 30
0.0
 70
0
  0
SEQEND
  5
516
  8
0
  0
POLYLINE
  5
51B
  8
0
 66
1
 10
0.0
 20
0.0
 30
0.0
 70
0
  0
VERTEX
  5
51D
  8
0
 10
38.849
 20
76.797
 30
0.0
 70
0
  0
VERTEX
  5
51E
  8
0
 10
39.244
 20
76.599
 30
0.0
 70
0
  0
VERTEX
  5
51F
  8
0
 10
39.145
 20
76.056
 30
0.0
 70
0
  0
SEQEND
  5
51C
  8
0
  0
POLYLINE
  5
520
  8
0
 66
1
 10
0.0
 20
0.0
 30
0.0
 70
0
  0
VERTEX
  5
522
  8
0
 10
38.454
 20
76.698
 30
0.0
 70
0
  0
VERTEX
  5
523
  8
0
 10
38.355
 20
76.352
 30
0.0
 70
0
  0
VERTEX
  5
524
  8
0
 10
38.553
 20
76.155
 30
0.0
 70
0
  0
SEQEND
  5
521
  8
0
  0
POLYLINE
  5
525
  8
0
 66
1
 10
0.0
 20
0.0
 30
0.0
 70
0
  0
VERTEX
  5
527
  8
0
 10
38.454
 20
75.908
 30
0.0
 70
0
  0
VERTEX
  5
528
  8
0
 10
38.257
 20
76.007
 30
0.0
 70
0
  0
VERTEX
  5
529
  8
0
 10
38.257
 20
76.254
 30
0.0
 70
0
  0
SEQEND
  5
526
  8
0
  0
POLYLINE
  5
52A
  8
0
 66
1
 10
0.0
 20
0.0
 30
0.0
 70
0
  0
VERTEX
  5
52C
  8
0
 10
34.9
 20
67.121
 30
0.0
 70
0
  0
VERTEX
  5
52D
  8
0
 10
34.703
 20
67.072
 30
0.0
 70
0
  0
VERTEX
  5
52E
  8
0
 10
34.703
 20
66.776
 30
0.0
 70
0
  0
SEQEND
  5
52B
  8
0
  0
POLYLINE
  5
52F
  8
0
 66
1
 10
0.0
 20
0.0
 30
0.0
 70
0
  0
VERTEX
  5
531
  8
0
 10
34.703
 20
66.677
 30
0.0
 70
0
  0
VERTEX
  5
532
  8
0
 10
34.9
 20
66.677
 30
0.0
 70
0
  0
VERTEX
  5
533
  8
0
 10
34.9
 20
67.072
 30
0.0
 70
0
  0
SEQEND
  5
530
  8
0
  0
POLYLINE
  5
534
  8
0
 66
1
 10
0.0
 20
0.0
 30
0.0
 70
0
  0
VERTEX
  5
536
  8
0
 10
10.07
 20
69.392
 30
0.0
 70
0
  0
VERTEX
  5
537
  8
0
 10
10.07
 20
70.034
 30
0.0
 70
0
  0
VERTEX
  5
538
  8
0
 10
9.478
 20
70.231
 30
0.0
 70
0
  0
SEQEND
  5
535
  8
0
  0
POLYLINE
  5
539
  8
0
 66
1
 10
0.0
 20
0.0
 30
0.0
 70
0
  0
VERTEX
  5
53B
  8
0
 10
9.231
 20
70.133
 30
0.0
 70
0
  0
VERTEX
  5
53C
  8
0
 10
9.231
 20
69.392
 30
0.0
 70
0
  0
VERTEX
  5
53D
  8
0
 10
9.774
 20
69.195
 30
0.0
 70
0
  0
SEQEND
  5
53A
  8
0
  0
POLYLINE
  5
53E
  8
0
 66
1
 10
0.0
 20
0.0
 30
0.0
 70
0
  0
VERTEX
  5
540
  8
0
 10
9.478
 20
70.231
 30
0.0
 70
0
  0
VERTEX
  5
541
  8
0
 10
9.231
 20
70.034
 30
0.0
 70
0
  0
VERTEX
  5
542
  8
0
 10
9.33
 20
69.688
 30
0.0
 70
0
  0
SEQEND
  5
53F
  8
0
  0
POLYLINE
  5
543
  8
0
 66
1
 10
0.0
 20
0.0
 30
0.0
 70
0
  0
VERTEX
  5
545
  8
0
 10
9.33
 20
69.59
 30
0.0
 70
0
  0
VERTEX
  5
546
  8
0
 10
9.577
 20
69.293
 30
0.0
 70
0
  0
VERTEX
  5
547
  8
0
 10
9.873
 20
69.293
 30
0.0
 70
0
  0
SEQEND
  5
544
  8
0
  0
POLYLINE
  5
548
  8
0
 66
1
 10
0.0
 20
0.0
 30
0.0
 70
0
  0
VERTEX
  5
54A
  8
0
 10
9.873
 20
69.293
 30
0.0
 70
0
  0
VERTEX
  5
54B
  8
0
 10
10.169
 20
69.491
 30
0.0
 70
0
  0
VERTEX
  5
54C
  8
0
 10
10.169
 20
69.836
 30
0.0
 70
0
  0
VERTEX
  5
54D
  8
0
 10
9.774
 20
70.231
 30
0.0
 70
0
  0
VERTEX
  5
54E
  8
0
 10
9.478
 20
70.231
 30
0.0
 70
0
  0
SEQEND
  5
549
  8
0
  0
POLYLINE
  5
54F
  8
0
 66
1
 10
0.0
 20
0.0
 30
0.0
 70
0
  0
VERTEX
  5
551
  8
0
 10
41.268
 20
67.664
 30
0.0
 70
0
  0
VERTEX
  5
552
  8
0
 10
40.429
 20
67.319
 30
0.0
 70
0
  0
VERTEX
  5
553
  8
0
 10
39.54
 20
67.418
 30
0.0
 70
0
  0
VERTEX
  5
554
  8
0
 10
39.047
 20
67.664
 30
0.0
 70
0
  0
SEQEND
  5
550
  8
0
  0
POLYLINE
  5
555
  8
0
 66
1
 10
0.0
 20
0.0
 30
0.0
 70
0
  0
VERTEX
  5
557
  8
0
 10
39.047
 20
67.664
 30
0.0
 70
0
  0
VERTEX
  5
558
  8
0
 10
39.639
 20
67.418
 30
0.0
 70
0
  0
VERTEX
  5
559
  8
0
 10
40.725
 20
67.418
 30
0.0
 70
0
  0
VERTEX
  5
55A
  8
0
 10
41.268
 20
67.664
 30
0.0
 70
0
  0
SEQEND
  5
556
  8
0
  0
POLYLINE
  5
55B
  8
0
 66
1
 10
0.0
 20
0.0
 30
0.0
 70
0
  0
VERTEX
  5
55D
  8
0
 10
35.394
 20
62.975
 30
0.0
 70
0
  0
VERTEX
  5
55E
  8
0
 10
35.394
 20
63.468
 30
0.0
 70
0
  0
VERTEX
  5
55F
  8
0
 10
35.64
 20
63.814
 30
0.0
 70
0
  0
SEQEND
  5
55C
  8
0
  0
POLYLINE
  5
560
  8
0
 66
1
 10
0.0
 20
0.0
 30
0.0
 70
0
  0
VERTEX
  5
562
  8
0
 10
23.744
 20
53.596
 30
0.0
 70
0
  0
VERTEX
  5
563
  8
0
 10
23.349
 20
53.596
 30
0.0
 70
0
  0
VERTEX
  5
564
  8
0
 10
22.757
 20
54.534
 30
0.0
 70
0
  0
SEQEND
  5
561
  8
0
  0
POLYLINE
  5
565
  8
0
 66
1
 10
0.0
 20
0.0
 30
0.0
 70
0
  0
VERTEX
  5
567
  8
0
 10
32.926
 20
55.126
 30
0.0
 70
0
  0
VERTEX
  5
568
  8
0
 10
31.593
 20
55.225
 30
0.0
 70
0
  0
VERTEX
  5
569
  8
0
 10
30.605
 20
54.879
 30
0.0
 70
0
  0
SEQEND
  5
566
  8
0
  0
POLYLINE
  5
56A
  8
0
 66
1
 10
0.0
 20
0.0
 30
0.0
 70
0
  0
VERTEX
  5
56C
  8
0
 10
33.222
 20
54.435
 30
0.0
 70
0
  0
VERTEX
  5
56D
  8
0
 10
32.086
 20
54.336
 30
0.0
 70
0
  0
VERTEX
  5
56E
  8
0
 10
31.494
 20
54.04
 30
0.0
 70
0
  0
SEQEND
  5
56B
  8
0
  0
POLYLINE
  5
56F
  8
0
 66
1
 10
0.0
 20
0.0
 30
0.0
 70
0
  0
VERTEX
  5
571
  8
0
 10
30.605
 20
54.879
 30
0.0
 70
0
  0
VERTEX
  5
572
  8
0
 10
31.593
 20
55.126
 30
0.0
 70
0
  0
VERTEX
  5
573
  8
0
 10
32.925
 20
55.077
 30
0.0
 70
0
  0
SEQEND
  5
570
  8
0
  0
POLYLINE
  5
574
  8
0
 66
1
 10
0.0
 20
0.0
 30
0.0
 70
0
  0
VERTEX
  5
576
  8
0
 10
22.757
 20
54.583
 30
0.0
 70
0
  0
VERTEX
  5
577
  8
0
 10
23.152
 20
53.892
 30
0.0
 70
0
  0
VERTEX
  5
578
  8
0
 10
23.448
 20
53.596
 30
0.0
 70
0
  0
VERTEX
  5
579
  8
0
 10
23.744
 20
53.596
 30
0.0
 70
0
  0
SEQEND
  5
575
  8
0
  0
POLYLINE
  5
57A
  8
0
 66
1
 10
0.0
 20
0.0
 30
0.0
 70
0
  0
VERTEX
  5
57C
  8
0
 10
2.221
 20
67.418
 30
0.0
 70
0
  0
VERTEX
  5
57D
  8
0
 10
2.221
 20
67.072
 30
0.0
 70
0
  0
VERTEX
  5
57E
  8
0
 10
2.024
 20
67.072
 30
0.0
 70
0
  0
SEQEND
  5
57B
  8
0
  0
POLYLINE
  5
57F
  8
0
 66
1
 10
0.0
 20
0.0
 30
0.0
 70
0
  0
VERTEX
  5
581
  8
0
 10
3.505
 20
68.602
 30
0.0
 70
0
  0
VERTEX
  5
582
  8
0
 10
3.505
 20
68.75
 30
0.0
 70
0
  0
VERTEX
  5
583
  8
0
 10
3.209
 20
68.75
 30
0.0
 70
0
  0
SEQEND
  5
580
  8
0
  0
POLYLINE
  5
584
  8
0
 66
1
 10
0.0
 20
0.0
 30
0.0
 70
0
  0
VERTEX
  5
586
  8
0
 10
3.505
 20
68.158
 30
0.0
 70
0
  0
VERTEX
  5
587
  8
0
 10
3.702
 20
68.306
 30
0.0
 70
0
  0
VERTEX
  5
588
  8
0
 10
3.505
 20
68.602
 30
0.0
 70
0
  0
SEQEND
  5
585
  8
0
  0
POLYLINE
  5
589
  8
0
 66
1
 10
0.0
 20
0.0
 30
0.0
 70
0
  0
VERTEX
  5
58B
  8
0
 10
3.209
 20
68.207
 30
0.0
 70
0
  0
VERTEX
  5
58C
  8
0
 10
3.307
 20
67.961
 30
0.0
 70
0
  0
VERTEX
  5
58D
  8
0
 10
3.11
 20
67.862
 30
0.0
 70
0
  0
SEQEND
  5
58A
  8
0
  0
POLYLINE
  5
58E
  8
0
 66
1
 10
0.0
 20
0.0
 30
0.0
 70
0
  0
VERTEX
  5
590
  8
0
 10
2.419
 20
67.319
 30
0.0
 70
0
  0
VERTEX
  5
591
  8
0
 10
2.616
 20
67.516
 30
0.0
 70
0
  0
VERTEX
  5
592
  8
0
 10
2.518
 20
67.763
 30
0.0
 70
0
  0
SEQEND
  5
58F
  8
0
  0
POLYLINE
  5
593
  8
0
 66
1
 10
0.0
 20
0.0
 30
0.0
 70
0
  0
VERTEX
  5
595
  8
0
 10
4.147
 20
68.701
 30
0.0
 70
0
  0
VERTEX
  5
596
  8
0
 10
3.801
 20
68.948
 30
0.0
 70
0
  0
VERTEX
  5
597
  8
0
 10
3.9
 20
69.293
 30
0.0
 70
0
  0
SEQEND
  5
594
  8
0
  0
POLYLINE
  5
598
  8
0
 66
1
 10
0.0
 20
0.0
 30
0.0
 70
0
  0
VERTEX
  5
59A
  8
0
 10
3.11
 20
67.862
 30
0.0
 70
0
  0
VERTEX
  5
59B
  8
0
 10
2.912
 20
67.862
 30
0.0
 70
0
  0
VERTEX
  5
59C
  8
0
 10
2.715
 20
68.158
 30
0.0
 70
0
  0
VERTEX
  5
59D
  8
0
 10
2.715
 20
68.405
 30
0.0
 70
0
  0
VERTEX
  5
59E
  8
0
 10
2.912
 20
68.504
 30
0.0
 70
0
  0
SEQEND
  5
599
  8
0
  0
POLYLINE
  5
59F
  8
0
 66
1
 10
0.0
 20
0.0
 30
0.0
 70
0
  0
VERTEX
  5
5A1
  8
0
 10
2.024
 20
67.072
 30
0.0
 70
0
  0
VERTEX
  5
5A2
  8
0
 10
1.629
 20
67.319
 30
0.0
 70
0
  0
VERTEX
  5
5A3
  8
0
 10
1.629
 20
67.615
 30
0.0
 70
0
  0
VERTEX
  5
5A4
  8
0
 10
1.826
 20
67.664
 30
0.0
 70
0
  0
SEQEND
  5
5A0
  8
0
  0
POLYLINE
  5
5A5
  8
0
 66
1
 10
0.0
 20
0.0
 30
0.0
 70
0
  0
VERTEX
  5
5A7
  8
0
 10
35.097
 20
66.529
 30
0.0
 70
0
  0
VERTEX
  5
5A8
  8
0
 10
35.295
 20
66.529
 30
0.0
 70
0
  0
VERTEX
  5
5A9
  8
0
 10
35.394
 20
66.875
 30
0.0
 70
0
  0
SEQEND
  5
5A6
  8
0
  0
POLYLINE
  5
5AA
  8
0
 66
1
 10
0.0
 20
0.0
 30
0.0
 70
0
  0
VERTEX
  5
5AC
  8
0
 10
36.628
 20
74.526
 30
0.0
 70
0
  0
VERTEX
  5
5AD
  8
0
 10
36.924
 20
74.822
 30
0.0
 70
0
  0
VERTEX
  5
5AE
  8
0
 10
36.924
 20
75.168
 30
0.0
 70
0
  0
SEQEND
  5
5AB
  8
0
  0
POLYLINE
  5
5AF
  8
0
 66
1
 10
0.0
 20
0.0
 30
0.0
 70
0
  0
VERTEX
  5
5B1
  8
0
 10
43.045
 20
57.594
 30
0.0
 70
0
  0
VERTEX
  5
5B2
  8
0
 10
40.527
 20
57.94
 30
0.0
 70
0
  0
VERTEX
  5
5B3
  8
0
 10
37.319
 20
57.594
 30
0.0
 70
0
  0
VERTEX
  5
5B4
  8
0
 10
35.097
 20
56.607
 30
0.0
 70
0
  0
VERTEX
  5
5B5
  8
0
 10
34.505
 20
55.965
 30
0.0
 70
0
  0
VERTEX
  5
5B6
  8
0
 10
34.308
 20
55.225
 30
0.0
 70
0
  0
SEQEND
  5
5B0
  8
0
  0
POLYLINE
  5
5B7
  8
0
 66
1
 10
0.0
 20
0.0
 30
0.0
 70
0
  0
VERTEX
  5
5B9
  8
0
 10
44.97
 20
58.236
 30
0.0
 70
0
  0
VERTEX
  5
5BA
  8
0
 10
46.204
 20
57.594
 30
0.0
 70
0
  0
VERTEX
  5
5BB
  8
0
 10
46.599
 20
57.199
 30
0.0
 70
0
  0
SEQEND
  5
5B8
  8
0
  0
POLYLINE
  5
5BC
  8
0
 66
1
 10
0.0
 20
0.0
 30
0.0
 70
0
  0
VERTEX
  5
5BE
  8
0
 10
36.529
 20
52.51
 30
0.0
 70
0
  0
VERTEX
  5
5BF
  8
0
 10
38.948
 20
52.065
 30
0.0
 70
0
  0
VERTEX
  5
5C0
  8
0
 10
41.268
 20
52.065
 30
0.0
 70
0
  0
VERTEX
  5
5C1
  8
0
 10
43.983
 20
52.51
 30
0.0
 70
0
  0
VERTEX
  5
5C2
  8
0
 10
46.106
 20
53.448
 30
0.0
 70
0
  0
VERTEX
  5
5C3
  8
0
 10
46.994
 20
54.237
 30
0.0
 70
0
  0
VERTEX
  5
5C4
  8
0
 10
47.389
 20
54.879
 30
0.0
 70
0
  0
VERTEX
  5
5C5
  8
0
 10
47.488
 20
55.422
 30
0.0
 70
0
  0
SEQEND
  5
5BD
  8
0
  0
POLYLINE
  5
5C6
  8
0
 66
1
 10
0.0
 20
0.0
 30
0.0
 70
0
  0
VERTEX
  5
5C8
  8
0
 10
32.876
 20
55.422
 30
0.0
 70
0
  0
VERTEX
  5
5C9
  8
0
 10
33.024
 20
54.583
 30
0.0
 70
0
  0
VERTEX
  5
5CA
  8
0
 10
34.11
 20
53.497
 30
0.0
 70
0
  0
VERTEX
  5
5CB
  8
0
 10
36.529
 20
52.51
 30
0.0
 70
0
  0
SEQEND
  5
5C7
  8
0
  0
POLYLINE
  5
5CC
  8
0
 66
1
 10
0.0
 20
0.0
 30
0.0
 70
0
  0
VERTEX
  5
5CE
  8
0
 10
33.715
 20
57.199
 30
0.0
 70
0
  0
VERTEX
  5
5CF
  8
0
 10
34.999
 20
58.038
 30
0.0
 70
0
  0
VERTEX
  5
5D0
  8
0
 10
36.134
 20
58.483
 30
0.0
 70
0
  0
VERTEX
  5
5D1
  8
0
 10
38.257
 20
58.927
 30
0.0
 70
0
  0
VERTEX
  5
5D2
  8
0
 10
39.244
 20
58.927
 30
0.0
 70
0
  0
SEQEND
  5
5CD
  8
0
  0
POLYLINE
  5
5D3
  8
0
 66
1
 10
0.0
 20
0.0
 30
0.0
 70
0
  0
VERTEX
  5
5D5
  8
0
 10
46.599
 20
57.199
 30
0.0
 70
0
  0
VERTEX
  5
5D6
  8
0
 10
46.402
 20
57.495
 30
0.0
 70
0
  0
VERTEX
  5
5D7
  8
0
 10
45.464
 20
58.038
 30
0.0
 70
0
  0
VERTEX
  5
5D8
  8
0
 10
43.884
 20
58.581
 30
0.0
 70
0
  0
SEQEND
  5
5D4
  8
0
  0
POLYLINE
  5
5D9
  8
0
 66
1
 10
0.0
 20
0.0
 30
0.0
 70
0
  0
VERTEX
  5
5DB
  8
0
 10
38.454
 20
58.927
 30
0.0
 70
0
  0
VERTEX
  5
5DC
  8
0
 10
36.035
 20
58.483
 30
0.0
 70
0
  0
VERTEX
  5
5DD
  8
0
 10
35.097
 20
58.137
 30
0.0
 70
0
  0
VERTEX
  5
5DE
  8
0
 10
33.715
 20
57.199
 30
0.0
 70
0
  0
SEQEND
  5
5DA
  8
0
  0
POLYLINE
  5
5DF
  8
0
 66
1
 10
0.0
 20
0.0
 30
0.0
 70
0
  0
VERTEX
  5
5E1
  8
0
 10
42.453
 20
63.468
 30
0.0
 70
0
  0
VERTEX
  5
5E2
  8
0
 10
42.058
 20
63.468
 30
0.0
 70
0
  0
VERTEX
  5
5E3
  8
0
 10
42.058
 20
63.271
 30
0.0
 70
0
  0
SEQEND
  5
5E0
  8
0
  0
POLYLINE
  5
5E4
  8
0
 66
1
 10
0.0
 20
0.0
 30
0.0
 70
0
  0
VERTEX
  5
5E6
  8
0
 10
43.292
 20
64.703
 30
0.0
 70
0
  0
VERTEX
  5
5E7
  8
0
 10
43.983
 20
64.456
 30
0.0
 70
0
  0
VERTEX
  5
5E8
  8
0
 10
44.871
 20
63.617
 30
0.0
 70
0
  0
SEQEND
  5
5E5
  8
0
  0
POLYLINE
  5
5E9
  8
0
 66
1
 10
0.0
 20
0.0
 30
0.0
 70
0
  0
VERTEX
  5
5EB
  8
0
 10
35.542
 20
58.285
 30
0.0
 70
0
  0
VERTEX
  5
5EC
  8
0
 10
36.825
 20
59.223
 30
0.0
 70
0
  0
VERTEX
  5
5ED
  8
0
 10
38.454
 20
59.667
 30
0.0
 70
0
  0
SEQEND
  5
5EA
  8
0
  0
POLYLINE
  5
5EE
  8
0
 66
1
 10
0.0
 20
0.0
 30
0.0
 70
0
  0
VERTEX
  5
5F0
  8
0
 10
36.529
 20
52.51
 30
0.0
 70
0
  0
VERTEX
  5
5F1
  8
0
 10
34.209
 20
53.497
 30
0.0
 70
0
  0
VERTEX
  5
5F2
  8
0
 10
33.123
 20
54.583
 30
0.0
 70
0
  0
VERTEX
  5
5F3
  8
0
 10
32.925
 20
55.077
 30
0.0
 70
0
  0
VERTEX
  5
5F4
  8
0
 10
33.024
 20
56.113
 30
0.0
 70
0
  0
VERTEX
  5
5F5
  8
0
 10
34.011
 20
57.199
 30
0.0
 70
0
  0
SEQEND
  5
5EF
  8
0
  0
POLYLINE
  5
5F6
  8
0
 66
1
 10
0.0
 20
0.0
 30
0.0
 70
0
  0
VERTEX
  5
5F8
  8
0
 10
34.011
 20
57.199
 30
0.0
 70
0
  0
VERTEX
  5
5F9
  8
0
 10
35.64
 20
58.137
 30
0.0
 70
0
  0
VERTEX
  5
5FA
  8
0
 10
38.158
 20
58.68
 30
0.0
 70
0
  0
VERTEX
  5
5FB
  8
0
 10
40.873
 20
58.828
 30
0.0
 70
0
  0
VERTEX
  5
5FC
  8
0
 10
43.391
 20
58.483
 30
0.0
 70
0
  0
SEQEND
  5
5F7
  8
0
  0
POLYLINE
  5
5FD
  8
0
 66
1
 10
0.0
 20
0.0
 30
0.0
 70
0
  0
VERTEX
  5
5FF
  8
0
 10
43.785
 20
58.384
 30
0.0
 70
0
  0
VERTEX
  5
600
  8
0
 10
45.168
 20
57.94
 30
0.0
 70
0
  0
VERTEX
  5
601
  8
0
 10
46.303
 20
57.199
 30
0.0
 70
0
  0
SEQEND
  5
5FE
  8
0
  0
POLYLINE
  5
602
  8
0
 66
1
 10
0.0
 20
0.0
 30
0.0
 70
0
  0
VERTEX
  5
604
  8
0
 10
46.303
 20
57.199
 30
0.0
 70
0
  0
VERTEX
  5
605
  8
0
 10
47.192
 20
56.311
 30
0.0
 70
0
  0
VERTEX
  5
606
  8
0
 10
47.389
 20
55.866
 30
0.0
 70
0
  0
VERTEX
  5
607
  8
0
 10
47.389
 20
55.077
 30
0.0
 70
0
  0
VERTEX
  5
608
  8
0
 10
46.797
 20
53.991
 30
0.0
 70
0
  0
VERTEX
  5
609
  8
0
 10
45.365
 20
53.053
 30
0.0
 70
0
  0
VERTEX
  5
60A
  8
0
 10
43.884
 20
52.51
 30
0.0
 70
0
  0
VERTEX
  5
60B
  8
0
 10
41.268
 20
52.065
 30
0.0
 70
0
  0
VERTEX
  5
60C
  8
0
 10
39.145
 20
52.065
 30
0.0
 70
0
  0
VERTEX
  5
60D
  8
0
 10
36.529
 20
52.51
 30
0.0
 70
0
  0
SEQEND
  5
603
  8
0
  0
POLYLINE
  5
60E
  8
0
 66
1
 10
0.0
 20
0.0
 30
0.0
 70
0
  0
VERTEX
  5
610
  8
0
 10
43.292
 20
59.273
 30
0.0
 70
0
  0
VERTEX
  5
611
  8
0
 10
44.082
 20
58.927
 30
0.0
 70
0
  0
VERTEX
  5
612
  8
0
 10
44.871
 20
58.285
 30
0.0
 70
0
  0
SEQEND
  5
60F
  8
0
  0
POLYLINE
  5
613
  8
0
 66
1
 10
0.0
 20
0.0
 30
0.0
 70
0
  0
VERTEX
  5
615
  8
0
 10
43.045
 20
57.594
 30
0.0
 70
0
  0
VERTEX
  5
616
  8
0
 10
40.873
 20
57.94
 30
0.0
 70
0
  0
VERTEX
  5
617
  8
0
 10
39.54
 20
57.94
 30
0.0
 70
0
  0
VERTEX
  5
618
  8
0
 10
37.714
 20
57.693
 30
0.0
 70
0
  0
VERTEX
  5
619
  8
0
 10
36.332
 20
57.199
 30
0.0
 70
0
  0
SEQEND
  5
614
  8
0
  0
POLYLINE
  5
61A
  8
0
 66
1
 10
0.0
 20
0.0
 30
0.0
 70
0
  0
VERTEX
  5
61C
  8
0
 10
45.464
 20
53.892
 30
0.0
 70
0
  0
VERTEX
  5
61D
  8
0
 10
45.859
 20
54.237
 30
0.0
 70
0
  0
VERTEX
  5
61E
  8
0
 10
46.106
 20
55.323
 30
0.0
 70
0
  0
SEQEND
  5
61B
  8
0
  0
POLYLINE
  5
61F
  8
0
 66
1
 10
0.0
 20
0.0
 30
0.0
 70
0
  0
VERTEX
  5
621
  8
0
 10
45.908
 20
55.866
 30
0.0
 70
0
  0
VERTEX
  5
622
  8
0
 10
45.266
 20
56.607
 30
0.0
 70
0
  0
VERTEX
  5
623
  8
0
 10
44.082
 20
57.199
 30
0.0
 70
0
  0
SEQEND
  5
620
  8
0
  0
POLYLINE
  5
624
  8
0
 66
1
 10
0.0
 20
0.0
 30
0.0
 70
0
  0
VERTEX
  5
626
  8
0
 10
43.292
 20
59.273
 30
0.0
 70
0
  0
VERTEX
  5
627
  8
0
 10
42.749
 20
59.766
 30
0.0
 70
0
  0
VERTEX
  5
628
  8
0
 10
42.65
 20
60.112
 30
0.0
 70
0
  0
SEQEND
  5
625
  8
0
  0
POLYLINE
  5
629
  8
0
 66
1
 10
0.0
 20
0.0
 30
0.0
 70
0
  0
VERTEX
  5
62B
  8
0
 10
44.082
 20
57.199
 30
0.0
 70
0
  0
VERTEX
  5
62C
  8
0
 10
45.266
 20
56.607
 30
0.0
 70
0
  0
VERTEX
  5
62D
  8
0
 10
45.908
 20
55.866
 30
0.0
 70
0
  0
SEQEND
  5
62A
  8
0
  0
POLYLINE
  5
62E
  8
0
 66
1
 10
0.0
 20
0.0
 30
0.0
 70
0
  0
VERTEX
  5
630
  8
0
 10
45.168
 20
53.694
 30
0.0
 70
0
  0
VERTEX
  5
631
  8
0
 10
44.378
 20
53.151
 30
0.0
 70
0
  0
VERTEX
  5
632
  8
0
 10
42.156
 20
52.51
 30
0.0
 70
0
  0
VERTEX
  5
633
  8
0
 10
38.158
 20
52.51
 30
0.0
 70
0
  0
VERTEX
  5
634
  8
0
 10
37.22
 20
52.806
 30
0.0
 70
0
  0
SEQEND
  5
62F
  8
0
  0
POLYLINE
  5
635
  8
0
 66
1
 10
0.0
 20
0.0
 30
0.0
 70
0
  0
VERTEX
  5
637
  8
0
 10
36.332
 20
57.199
 30
0.0
 70
0
  0
VERTEX
  5
638
  8
0
 10
37.714
 20
57.693
 30
0.0
 70
0
  0
VERTEX
  5
639
  8
0
 10
39.54
 20
57.94
 30
0.0
 70
0
  0
VERTEX
  5
63A
  8
0
 10
40.873
 20
57.94
 30
0.0
 70
0
  0
VERTEX
  5
63B
  8
0
 10
43.045
 20
57.594
 30
0.0
 70
0
  0
SEQEND
  5
636
  8
0
  0
POLYLINE
  5
63C
  8
0
 66
1
 10
0.0
 20
0.0
 30
0.0
 70
0
  0
VERTEX
  5
63E
  8
0
 10
37.319
 20
53.053
 30
0.0
 70
0
  0
VERTEX
  5
63F
  8
0
 10
35.838
 20
53.596
 30
0.0
 70
0
  0
VERTEX
  5
640
  8
0
 10
34.9
 20
54.336
 30
0.0
 70
0
  0
VERTEX
  5
641
  8
0
 10
34.505
 20
55.077
 30
0.0
 70
0
  0
VERTEX
  5
642
  8
0
 10
34.703
 20
56.064
 30
0.0
 70
0
  0
SEQEND
  5
63D
  8
0
  0
POLYLINE
  5
643
  8
0
 66
1
 10
0.0
 20
0.0
 30
0.0
 70
0
  0
VERTEX
  5
645
  8
0
 10
38.652
 20
57.742
 30
0.0
 70
0
  0
VERTEX
  5
646
  8
0
 10
39.935
 20
57.594
 30
0.0
 70
0
  0
VERTEX
  5
647
  8
0
 10
41.762
 20
57.742
 30
0.0
 70
0
  0
SEQEND
  5
644
  8
0
  0
POLYLINE
  5
648
  8
0
 66
1
 10
0.0
 20
0.0
 30
0.0
 70
0
  0
VERTEX
  5
64A
  8
0
 10
45.661
 20
56.064
 30
0.0
 70
0
  0
VERTEX
  5
64B
  8
0
 10
45.859
 20
55.669
 30
0.0
 70
0
  0
VERTEX
  5
64C
  8
0
 10
45.661
 20
54.583
 30
0.0
 70
0
  0
VERTEX
  5
64D
  8
0
 10
44.674
 20
53.694
 30
0.0
 70
0
  0
VERTEX
  5
64E
  8
0
 10
43.242
 20
53.053
 30
0.0
 70
0
  0
VERTEX
  5
64F
  8
0
 10
41.07
 20
52.707
 30
0.0
 70
0
  0
VERTEX
  5
650
  8
0
 10
39.145
 20
52.707
 30
0.0
 70
0
  0
VERTEX
  5
651
  8
0
 10
37.319
 20
53.053
 30
0.0
 70
0
  0
SEQEND
  5
649
  8
0
  0
POLYLINE
  5
652
  8
0
 66
1
 10
0.0
 20
0.0
 30
0.0
 70
0
  0
VERTEX
  5
654
  8
0
 10
44.871
 20
58.236
 30
0.0
 70
0
  0
VERTEX
  5
655
  8
0
 10
43.884
 20
59.124
 30
0.0
 70
0
  0
VERTEX
  5
656
  8
0
 10
43.292
 20
59.273
 30
0.0
 70
0
  0
SEQEND
  5
653
  8
0
  0
POLYLINE
  5
657
  8
0
 66
1
 10
0.0
 20
0.0
 30
0.0
 70
0
  0
VERTEX
  5
659
  8
0
 10
37.22
 20
52.806
 30
0.0
 70
0
  0
VERTEX
  5
65A
  8
0
 10
36.134
 20
53.151
 30
0.0
 70
0
  0
VERTEX
  5
65B
  8
0
 10
35.196
 20
53.793
 30
0.0
 70
0
  0
SEQEND
  5
658
  8
0
  0
POLYLINE
  5
65C
  8
0
 66
1
 10
0.0
 20
0.0
 30
0.0
 70
0
  0
VERTEX
  5
65E
  8
0
 10
35.196
 20
53.793
 30
0.0
 70
0
  0
VERTEX
  5
65F
  8
0
 10
34.406
 20
54.583
 30
0.0
 70
0
  0
VERTEX
  5
660
  8
0
 10
34.308
 20
55.225
 30
0.0
 70
0
  0
SEQEND
  5
65D
  8
0
  0
POLYLINE
  5
661
  8
0
 66
1
 10
0.0
 20
0.0
 30
0.0
 70
0
  0
VERTEX
  5
663
  8
0
 10
38.553
 20
59.766
 30
0.0
 70
0
  0
VERTEX
  5
664
  8
0
 10
36.726
 20
59.223
 30
0.0
 70
0
  0
VERTEX
  5
665
  8
0
 10
35.838
 20
58.68
 30
0.0
 70
0
  0
VERTEX
  5
666
  8
0
 10
35.492
 20
58.236
 30
0.0
 70
0
  0
SEQEND
  5
662
  8
0
  0
POLYLINE
  5
667
  8
0
 66
1
 10
0.0
 20
0.0
 30
0.0
 70
0
  0
VERTEX
  5
669
  8
0
 10
42.354
 20
66.43
 30
0.0
 70
0
  0
VERTEX
  5
66A
  8
0
 10
43.884
 20
66.085
 30
0.0
 70
0
  0
VERTEX
  5
66B
  8
0
 10
45.365
 20
65.443
 30
0.0
 70
0
  0
VERTEX
  5
66C
  8
0
 10
46.303
 20
64.505
 30
0.0
 70
0
  0
VERTEX
  5
66D
  8
0
 10
46.599
 20
63.617
 30
0.0
 70
0
  0
SEQEND
  5
668
  8
0
  0
POLYLINE
  5
66E
  8
0
 66
1
 10
0.0
 20
0.0
 30
0.0
 70
0
  0
VERTEX
  5
670
  8
0
 10
35.097
 20
65.443
 30
0.0
 70
0
  0
VERTEX
  5
671
  8
0
 10
36.134
 20
65.986
 30
0.0
 70
0
  0
VERTEX
  5
672
  8
0
 10
38.01
 20
66.43
 30
0.0
 70
0
  0
SEQEND
  5
66F
  8
0
  0
POLYLINE
  5
673
  8
0
 66
1
 10
0.0
 20
0.0
 30
0.0
 70
0
  0
VERTEX
  5
675
  8
0
 10
33.715
 20
63.617
 30
0.0
 70
0
  0
VERTEX
  5
676
  8
0
 10
33.913
 20
64.357
 30
0.0
 70
0
  0
VERTEX
  5
677
  8
0
 10
34.209
 20
64.703
 30
0.0
 70
0
  0
SEQEND
  5
674
  8
0
  0
POLYLINE
  5
678
  8
0
 66
1
 10
0.0
 20
0.0
 30
0.0
 70
0
  0
VERTEX
  5
67A
  8
0
 10
34.209
 20
64.16
 30
0.0
 70
0
  0
VERTEX
  5
67B
  8
0
 10
33.913
 20
63.814
 30
0.0
 70
0
  0
VERTEX
  5
67C
  8
0
 10
33.715
 20
62.975
 30
0.0
 70
0
  0
SEQEND
  5
679
  8
0
  0
POLYLINE
  5
67D
  8
0
 66
1
 10
0.0
 20
0.0
 30
0.0
 70
0
  0
VERTEX
  5
67F
  8
0
 10
38.01
 20
65.789
 30
0.0
 70
0
  0
VERTEX
  5
680
  8
0
 10
36.529
 20
65.542
 30
0.0
 70
0
  0
VERTEX
  5
681
  8
0
 10
35.097
 20
64.9
 30
0.0
 70
0
  0
SEQEND
  5
67E
  8
0
  0
POLYLINE
  5
682
  8
0
 66
1
 10
0.0
 20
0.0
 30
0.0
 70
0
  0
VERTEX
  5
684
  8
0
 10
46.599
 20
62.975
 30
0.0
 70
0
  0
VERTEX
  5
685
  8
0
 10
46.402
 20
63.814
 30
0.0
 70
0
  0
VERTEX
  5
686
  8
0
 10
45.168
 20
64.999
 30
0.0
 70
0
  0
VERTEX
  5
687
  8
0
 10
44.082
 20
65.443
 30
0.0
 70
0
  0
VERTEX
  5
688
  8
0
 10
42.354
 20
65.789
 30
0.0
 70
0
  0
SEQEND
  5
683
  8
0
  0
POLYLINE
  5
689
  8
0
 66
1
 10
0.0
 20
0.0
 30
0.0
 70
0
  0
VERTEX
  5
68B
  8
0
 10
9.774
 20
69.047
 30
0.0
 70
0
  0
VERTEX
  5
68C
  8
0
 10
9.478
 20
69.047
 30
0.0
 70
0
  0
VERTEX
  5
68D
  8
0
 10
8.935
 20
69.491
 30
0.0
 70
0
  0
VERTEX
  5
68E
  8
0
 10
9.034
 20
70.133
 30
0.0
 70
0
  0
SEQEND
  5
68A
  8
0
  0
POLYLINE
  5
68F
  8
0
 66
1
 10
0.0
 20
0.0
 30
0.0
 70
0
  0
VERTEX
  5
691
  8
0
 10
11.749
 20
73.44
 30
0.0
 70
0
  0
VERTEX
  5
692
  8
0
 10
11.749
 20
74.18
 30
0.0
 70
0
  0
VERTEX
  5
693
  8
0
 10
11.946
 20
74.279
 30
0.0
 70
0
  0
SEQEND
  5
690
  8
0
  0
POLYLINE
  5
694
  8
0
 66
1
 10
0.0
 20
0.0
 30
0.0
 70
0
  0
VERTEX
  5
696
  8
0
 10
31.395
 20
77.981
 30
0.0
 70
0
  0
VERTEX
  5
697
  8
0
 10
31.198
 20
78.327
 30
0.0
 70
0
  0
VERTEX
  5
698
  8
0
 10
30.309
 20
78.623
 30
0.0
 70
0
  0
SEQEND
  5
695
  8
0
  0
POLYLINE
  5
699
  8
0
 66
1
 10
0.0
 20
0.0
 30
0.0
 70
0
  0
VERTEX
  5
69B
  8
0
 10
9.034
 20
70.133
 30
0.0
 70
0
  0
VERTEX
  5
69C
  8
0
 10
9.034
 20
69.491
 30
0.0
 70
0
  0
VERTEX
  5
69D
  8
0
 10
9.379
 20
69.145
 30
0.0
 70
0
  0
VERTEX
  5
69E
  8
0
 10
9.774
 20
69.047
 30
0.0
 70
0
  0
SEQEND
  5
69A
  8
0
  0
POLYLINE
  5
69F
  8
0
 66
1
 10
0.0
 20
0.0
 30
0.0
 70
0
  0
VERTEX
  5
6A1
  8
0
 10
31.099
 20
74.97
 30
0.0
 70
0
  0
VERTEX
  5
6A2
  8
0
 10
30.803
 20
75.266
 30
0.0
 70
0
  0
VERTEX
  5
6A3
  8
0
 10
30.309
 20
75.168
 30
0.0
 70
0
  0
SEQEND
  5
6A0
  8
0
  0
POLYLINE
  5
6A4
  8
0
 66
1
 10
0.0
 20
0.0
 30
0.0
 70
0
  0
VERTEX
  5
6A6
  8
0
 10
12.39
 20
72.305
 30
0.0
 70
0
  0
VERTEX
  5
6A7
  8
0
 10
12.489
 20
71.762
 30
0.0
 70
0
  0
VERTEX
  5
6A8
  8
0
 10
12.292
 20
71.564
 30
0.0
 70
0
  0
SEQEND
  5
6A5
  8
0
  0
POLYLINE
  5
6A9
  8
0
 66
1
 10
0.0
 20
0.0
 30
0.0
 70
0
  0
VERTEX
  5
6AB
  8
0
 10
6.713
 20
68.207
 30
0.0
 70
0
  0
VERTEX
  5
6AC
  8
0
 10
6.022
 20
68.405
 30
0.0
 70
0
  0
VERTEX
  5
6AD
  8
0
 10
5.627
 20
68.849
 30
0.0
 70
0
  0
SEQEND
  5
6AA
  8
0
  0
POLYLINE
  5
6AE
  8
0
 66
1
 10
0.0
 20
0.0
 30
0.0
 70
0
  0
VERTEX
  5
6B0
  8
0
 10
6.417
 20
69.145
 30
0.0
 70
0
  0
VERTEX
  5
6B1
  8
0
 10
7.158
 20
69.491
 30
0.0
 70
0
  0
VERTEX
  5
6B2
  8
0
 10
7.355
 20
69.392
 30
0.0
 70
0
  0
SEQEND
  5
6AF
  8
0
  0
POLYLINE
  5
6B3
  8
0
 66
1
 10
0.0
 20
0.0
 30
0.0
 70
0
  0
VERTEX
  5
6B5
  8
0
 10
1.826
 20
65.789
 30
0.0
 70
0
  0
VERTEX
  5
6B6
  8
0
 10
2.123
 20
65.344
 30
0.0
 70
0
  0
VERTEX
  5
6B7
  8
0
 10
2.814
 20
65.147
 30
0.0
 70
0
  0
SEQEND
  5
6B4
  8
0
  0
POLYLINE
  5
6B8
  8
0
 66
1
 10
0.0
 20
0.0
 30
0.0
 70
0
  0
VERTEX
  5
6BA
  8
0
 10
2.814
 20
65.147
 30
0.0
 70
0
  0
VERTEX
  5
6BB
  8
0
 10
2.32
 20
65.147
 30
0.0
 70
0
  0
VERTEX
  5
6BC
  8
0
 10
1.728
 20
65.69
 30
0.0
 70
0
  0
SEQEND
  5
6B9
  8
0
  0
POLYLINE
  5
6BD
  8
0
 66
1
 10
0.0
 20
0.0
 30
0.0
 70
0
  0
VERTEX
  5
6BF
  8
0
 10
41.07
 20
76.5
 30
0.0
 70
0
  0
VERTEX
  5
6C0
  8
0
 10
41.07
 20
76.797
 30
0.0
 70
0
  0
VERTEX
  5
6C1
  8
0
 10
40.774
 20
76.994
 30
0.0
 70
0
  0
SEQEND
  5
6BE
  8
0
  0
POLYLINE
  5
6C2
  8
0
 66
1
 10
0.0
 20
0.0
 30
0.0
 70
0
  0
VERTEX
  5
6C4
  8
0
 10
6.121
 20
69.59
 30
0.0
 70
0
  0
VERTEX
  5
6C5
  8
0
 10
6.763
 20
69.935
 30
0.0
 70
0
  0
VERTEX
  5
6C6
  8
0
 10
7.256
 20
69.935
 30
0.0
 70
0
  0
SEQEND
  5
6C3
  8
0
  0
POLYLINE
  5
6C7
  8
0
 66
1
 10
0.0
 20
0.0
 30
0.0
 70
0
  0
VERTEX
  5
6C9
  8
0
 10
5.726
 20
68.849
 30
0.0
 70
0
  0
VERTEX
  5
6CA
  8
0
 10
6.121
 20
68.405
 30
0.0
 70
0
  0
VERTEX
  5
6CB
  8
0
 10
6.713
 20
68.306
 30
0.0
 70
0
  0
SEQEND
  5
6C8
  8
0
  0
POLYLINE
  5
6CC
  8
0
 66
1
 10
0.0
 20
0.0
 30
0.0
 70
0
  0
VERTEX
  5
6CE
  8
0
 10
6.713
 20
71.663
 30
0.0
 70
0
  0
VERTEX
  5
6CF
  8
0
 10
6.96
 20
71.663
 30
0.0
 70
0
  0
VERTEX
  5
6D0
  8
0
 10
7.158
 20
71.367
 30
0.0
 70
0
  0
VERTEX
  5
6D1
  8
0
 10
7.158
 20
71.12
 30
0.0
 70
0
  0
VERTEX
  5
6D2
  8
0
 10
6.96
 20
71.021
 30
0.0
 70
0
  0
SEQEND
  5
6CD
  8
0
  0
POLYLINE
  5
6D3
  8
0
 66
1
 10
0.0
 20
0.0
 30
0.0
 70
0
  0
VERTEX
  5
6D5
  8
0
 10
6.417
 20
69.145
 30
0.0
 70
0
  0
VERTEX
  5
6D6
  8
0
 10
6.763
 20
69.392
 30
0.0
 70
0
  0
VERTEX
  5
6D7
  8
0
 10
7.454
 20
69.491
 30
0.0
 70
0
  0
SEQEND
  5
6D4
  8
0
  0
TEXT
  5
6D8
  8
0
 10
0.0
 20
10.0
 30
0.0
 40
3.0
  1
三菱 EL-DA1/0(2013LM) AHN
 11
0.0
 21
10.0
 31
0.0
  0
TEXT
  5
6D9
  8
0
 10
0.0
 20
95.0
 30
0.0
 40
3.0
  1
ｸﾗｽ200 30K 深枠MC DLφ75
 11
0.0
 21
95.0
 31
0.0
  0
TEXT
  5
6DA
  8
0
 10
50.0
 20
35.0
 30
0.0
 40
1.5
  1
ダウンライト 電球色（3000K） Ra83
 11
50.0
 21
35.0
 31
0.0
  0
TEXT
  5
6DB
  8
0
 10
50.0
 20
32.0
 30
0.0
 40
1.5
  1
100V～242V共用タイプ
 11
50.0
 21
32.0
 31
0.0
  0
TEXT
  5
6DC
  8
0
 10
50.0
 20
29.0
 30
0.0
 40
1.5
  1
固定出力
 11
50.0
 21
29.0
 31
0.0
  0
TEXT
  5
6DD
  8
0
 10
50.0
 20
26.0
 30
0.0
 40
1.5
  1
光源寿命：40,000時間（光束維持率85%）
 11
50.0
 21
26.0
 31
0.0
  0
TEXT
  5
6DE
  8
0
 10
50.0
 20
23.0
 30
0.0
 40
1.5
  1
光束：1580lm 消費電力：16W 消費効率：98.7lm/W
 11
50.0
 21
23.0
 31
0.0
  0
TEXT
  5
6DF
  8
0
 10
50.0
 20
20.0
 30
0.0
 40
1.5
  1
埋込穴：75
 11
50.0
 21
20.0
 31
0.0
  0
VIEWPORT
  5
76
 67
1
  8
0
 10
128.5
 20
97.5
 30
0.0
 40
314.226
 41
222.18
 68
1
 69
1
1001
ACAD
1000
MVIEW
1002
{
1070
16
1010
0.0
1020
0.0
1030
0.0
1010
0.0
1020
0.0
1030
0.0
1040
0
1040
1
1040
0.0
1040
0.0
1040
50
1040
0
1040
0
1070
0
1070
100
1070
0
1070
0
1070
0
1070
0
1070
0
1070
0
1040
0
1040
0.0
1040
0.0
1040
10.0
1040
10.0
1040
10.0
1040
10.0
1070
0
1002
{
1002
}
1002
}
  0
ENDSEC
  0
EOF
