  0
SECTION
  2
HEADER
  9
$ACADVER
  1
AC1015
  9
$ACADMAINTVER
 70
6
  9
$DWGCODEPAGE
  3
ANSI_932
  9
$INSBASE
 10
0.0
 20
0.0
 30
0.0
  9
$EXTMIN
 10
0.0
 20
0.0
 30
0.0
  9
$EXTMAX
 10
0.0
 20
0.0
 30
0.0
  9
$LIMMIN
 10
0.0
 20
0.0
  9
$LIMMAX
 10
12.0
 20
9.0
  9
$ORTHOMODE
 70
0
  9
$REGENMODE
 70
1
  9
$FILLMODE
 70
1
  9
$QTEXTMODE
 70
0
  9
$MIRRTEXT
 70
1
  9
$LTSCALE
 40
1.0
  9
$ATTMODE
 70
1
  9
$TEXTSIZE
 40
0.2
  9
$TRACEWID
 40
1.0
  9
$TEXTSTYLE
  7
STANDARD
  9
$CLAYER
  8
__
  9
$CELTYPE
  6
ByLayer
  9
$CECOLOR
 62
256
  9
$CELTSCALE
 40
1.0
  9
$DISPSILH
 70
0
  9
$DIMSCALE
 40
1.0
  9
$DIMASZ
 40
0.18
  9
$DIMEXO
 40
0.0625
  9
$DIMDLI
 40
0.38
  9
$DIMRND
 40
0.0
  9
$DIMDLE
 40
0.0
  9
$DIMEXE
 40
0.18
  9
$DIMTP
 40
0.0
  9
$DIMTM
 40
0.0
  9
$DIMTXT
 40
0.18
  9
$DIMCEN
 40
0.09
  9
$DIMTSZ
 40
0.0
  9
$DIMTOL
 70
0
  9
$DIMLIM
 70
0
  9
$DIMTIH
 70
1
  9
$DIMTOH
 70
1
  9
$DIMSE1
 70
0
  9
$DIMSE2
 70
0
  9
$DIMTAD
 70
0
  9
$DIMZIN
 70
0
  9
$DIMBLK
  1

  9
$DIMASO
 70
1
  9
$DIMSHO
 70
1
  9
$DIMPOST
  1

  9
$DIMAPOST
  1

  9
$DIMALT
 70
0
  9
$DIMALTD
 70
2
  9
$DIMALTF
 40
25.4
  9
$DIMLFAC
 40
1.0
  9
$DIMTOFL
 70
0
  9
$DIMTVP
 40
0.0
  9
$DIMTIX
 70
0
  9
$DIMSOXD
 70
0
  9
$DIMSAH
 70
0
  9
$DIMBLK1
  1

  9
$DIMBLK2
  1

  9
$DIMSTYLE
  2
STANDARD
  9
$DIMCLRD
 70
0
  9
$DIMCLRE
 70
0
  9
$DIMCLRT
 70
0
  9
$DIMTFAC
 40
1.0
  9
$DIMGAP
 40
0.09
  9
$DIMJUST
 70
0
  9
$DIMSD1
 70
0
  9
$DIMSD2
 70
0
  9
$DIMTOLJ
 70
1
  9
$DIMTZIN
 70
0
  9
$DIMALTZ
 70
0
  9
$DIMALTTZ
 70
0
  9
$DIMUPT
 70
0
  9
$DIMDEC
 70
4
  9
$DIMTDEC
 70
4
  9
$DIMALTU
 70
2
  9
$DIMALTTD
 70
2
  9
$DIMTXSTY
  7
STANDARD
  9
$DIMAUNIT
 70
0
  9
$DIMADEC
 70
0
  9
$DIMALTRND
 40
0.0
  9
$DIMAZIN
 70
0
  9
$DIMDSEP
 70
46
  9
$DIMATFIT
 70
3
  9
$DIMFRAC
 70
0
  9
$DIMLDRBLK
  1

  9
$DIMLUNIT
 70
2
  9
$DIMLWD
 70
-2
  9
$DIMLWE
 70
-2
  9
$DIMTMOVE
 70
0
  9
$LUNITS
 70
2
  9
$LUPREC
 70
2
  9
$SKETCHINC
 40
0.1
  9
$FILLETRAD
 40
0.5
  9
$AUNITS
 70
0
  9
$AUPREC
 70
2
  9
$MENU
  1
.
  9
$ELEVATION
 40
0.0
  9
$PELEVATION
 40
0.0
  9
$THICKNESS
 40
0.0
  9
$LIMCHECK
 70
0
  9
$CHAMFERA
 40
0.0
  9
$CHAMFERB
 40
0.0
  9
$CHAMFERC
 40
0.0
  9
$CHAMFERD
 40
0.0
  9
$SKPOLY
 70
0
  9
$TDCREATE
 40
2459829.552662037
  9
$TDUCREATE
 40
2459044.413842593
  9
$TDUPDATE
 40
2459829.5526736113
  9
$TDUUPDATE
 40
2459045.001064815
  9
$TDINDWG
 40
0.001006956
  9
$TDUSRTIMER
 40
0.0009953819
  9
$USRTIMER
 70
1
  9
$ANGBASE
 50
0.0
  9
$ANGDIR
 70
0
  9
$PDMODE
 70
1
  9
$PDSIZE
 40
-2.0
  9
$PLINEWID
 40
0.0
  9
$SPLFRAME
 70
0
  9
$SPLINETYPE
 70
6
  9
$SPLINESEGS
 70
8
  9
$HANDSEED
  5
10FD
  9
$SURFTAB1
 70
6
  9
$SURFTAB2
 70
6
  9
$SURFTYPE
 70
6
  9
$SURFU
 70
6
  9
$SURFV
 70
6
  9
$UCSBASE
  2

  9
$UCSNAME
  2

  9
$UCSORG
 10
0.0
 20
0.0
 30
0.0
  9
$UCSXDIR
 10
1.0
 20
0.0
 30
0.0
  9
$UCSYDIR
 10
0.0
 20
1.0
 30
0.0
  9
$UCSORTHOREF
  2

  9
$UCSORTHOVIEW
 70
0
  9
$UCSORGTOP
 10
0.0
 20
0.0
 30
0.0
  9
$UCSORGBOTTOM
 10
0.0
 20
0.0
 30
0.0
  9
$UCSORGLEFT
 10
0.0
 20
0.0
 30
0.0
  9
$UCSORGRIGHT
 10
0.0
 20
0.0
 30
0.0
  9
$UCSORGFRONT
 10
0.0
 20
0.0
 30
0.0
  9
$UCSORGBACK
 10
0.0
 20
0.0
 30
0.0
  9
$PUCSBASE
  2

  9
$PUCSNAME
  2

  9
$PUCSORG
 10
0.0
 20
0.0
 30
0.0
  9
$PUCSXDIR
 10
1.0
 20
0.0
 30
0.0
  9
$PUCSYDIR
 10
0.0
 20
1.0
 30
0.0
  9
$PUCSORTHOREF
  2

  9
$PUCSORTHOVIEW
 70
0
  9
$PUCSORGTOP
 10
0.0
 20
0.0
 30
0.0
  9
$PUCSORGBOTTOM
 10
0.0
 20
0.0
 30
0.0
  9
$PUCSORGLEFT
 10
0.0
 20
0.0
 30
0.0
  9
$PUCSORGRIGHT
 10
0.0
 20
0.0
 30
0.0
  9
$PUCSORGFRONT
 10
0.0
 20
0.0
 30
0.0
  9
$PUCSORGBACK
 10
0.0
 20
0.0
 30
0.0
  9
$USERI1
 70
0
  9
$USERI2
 70
0
  9
$USERI3
 70
0
  9
$USERI4
 70
0
  9
$USERI5
 70
0
  9
$USERR1
 40
0.0
  9
$USERR2
 40
0.0
  9
$USERR3
 40
0.0
  9
$USERR4
 40
0.0
  9
$USERR5
 40
0.0
  9
$WORLDVIEW
 70
1
  9
$SHADEDGE
 70
3
  9
$SHADEDIF
 70
70
  9
$TILEMODE
 70
1
  9
$MAXACTVP
 70
64
  9
$PINSBASE
 10
0.0
 20
0.0
 30
0.0
  9
$PLIMCHECK
 70
0
  9
$PEXTMIN
 10
1e+20
 20
1e+20
 30
1e+20
  9
$PEXTMAX
 10
-1e+20
 20
-1e+20
 30
-1e+20
  9
$PLIMMIN
 10
-20.0
 20
-7.5
  9
$PLIMMAX
 10
277.0
 20
202.5
  9
$UNITMODE
 70
0
  9
$VISRETAIN
 70
1
  9
$PLINEGEN
 70
0
  9
$PSLTSCALE
 70
1
  9
$TREEDEPTH
 70
3020
  9
$CMLSTYLE
  2
Standard
  9
$CMLJUST
 70
0
  9
$CMLSCALE
 40
1.0
  9
$PROXYGRAPHICS
 70
1
  9
$MEASUREMENT
 70
0
  9
$CELWEIGHT
370
-1
  9
$ENDCAPS
280
0
  9
$JOINSTYLE
280
0
  9
$LWDISPLAY
290
0
  9
$INSUNITS
 70
0
  9
$HYPERLINKBASE
  1

  9
$STYLESHEET
  1

  9
$XEDIT
290
1
  9
$CEPSNTYPE
380
0
  9
$PSTYLEMODE
290
1
  9
$FINGERPRINTGUID
  2
{263195D4-3983-44F5-A0C5-D4FE6CB90057}
  9
$VERSIONGUID
  2
{DC618086-BF2A-4B2D-B3FC-B707FB13DCF6}
  9
$EXTNAMES
290
1
  9
$PSVPSCALE
 40
0.0
  9
$OLESTARTUP
290
0
  0
ENDSEC
  0
SECTION
  2
CLASSES
  0
CLASS
  1
ACDBDICTIONARYWDFLT
  2
AcDbDictionaryWithDefault
  3
ObjectDBX Classes
 90
0
280
0
281
0
  0
CLASS
  1
MATERIAL
  2
AcDbMaterial
  3
ObjectDBX Classes
 90
1153
280
0
281
0
  0
CLASS
  1
VISUALSTYLE
  2
AcDbVisualStyle
  3
ObjectDBX Classes
 90
4095
280
0
281
0
  0
CLASS
  1
SCALE
  2
AcDbScale
  3
ObjectDBX Classes
 90
1153
280
0
281
0
  0
CLASS
  1
TABLESTYLE
  2
AcDbTableStyle
  3
ObjectDBX Classes
 90
4095
280
0
281
0
  0
CLASS
  1
MLEADERSTYLE
  2
AcDbMLeaderStyle
  3
ACDB_MLEADERSTYLE_CLASS
 90
4095
280
0
281
0
  0
CLASS
  1
ACDBSECTIONVIEWSTYLE
  2
AcDbSectionViewStyle
  3
ObjectDBX Classes
 90
1025
280
0
281
0
  0
CLASS
  1
ACDBDETAILVIEWSTYLE
  2
AcDbDetailViewStyle
  3
ObjectDBX Classes
 90
1025
280
0
281
0
  0
CLASS
  1
DICTIONARYVAR
  2
AcDbDictionaryVar
  3
ObjectDBX Classes
 90
0
280
0
281
0
  0
CLASS
  1
CELLSTYLEMAP
  2
AcDbCellStyleMap
  3
ObjectDBX Classes
 90
1152
280
0
281
0
  0
CLASS
  1
ACDBPLACEHOLDER
  2
AcDbPlaceHolder
  3
ObjectDBX Classes
 90
0
280
0
281
0
  0
CLASS
  1
LAYOUT
  2
AcDbLayout
  3
ObjectDBX Classes
 90
0
280
0
281
0
  0
CLASS
  1
SUN
  2
AcDbSun
  3
SCENEOE
 90
1153
280
0
281
0
  0
CLASS
  1
MENTALRAYRENDERSETTINGS
  2
AcDbMentalRayRenderSettings
  3
SCENEOE
 90
1024
280
0
281
0
  0
CLASS
  1
RASTERVARIABLES
  2
AcDbRasterVariables
  3
ISM
 90
0
280
0
281
0
  0
ENDSEC
  0
SECTION
  2
TABLES
  0
TABLE
  2
VPORT
  5
9CE
330
0
100
AcDbSymbolTable
 70
1
  0
VPORT
  5
A3A
330
9CE
100
AcDbSymbolTableRecord
100
AcDbViewportTableRecord
  2
*ACTIVE
 70
0
 10
0.0
 20
0.0
 11
1.0
 21
1.0
 12
50.22649720630994
 22
14.7479721186084
 13
0.0
 23
0.0
 14
0.5
 24
0.5
 15
0.5
 25
0.5
 16
0.0
 26
0.0
 36
1.0
 17
0.0
 27
0.0
 37
0.0
 40
167.9470367482983
 41
2.193641618497109
 42
50.0
 43
0.0
 44
0.0
 50
0.0
 51
0.0
 71
0
 72
1000
 73
1
 74
3
 75
0
 76
0
 77
0
 78
0
281
0
 65
1
110
0.0
120
0.0
130
0.0
111
1.0
121
0.0
131
0.0
112
0.0
122
1.0
132
0.0
 79
0
146
0.0
1001
ACAD_NAV_VCDISPLAY
1070
3
  0
ENDTAB
  0
TABLE
  2
LTYPE
  5
9CB
330
0
100
AcDbSymbolTable
 70
3
  0
LTYPE
  5
A3B
330
9CB
100
AcDbSymbolTableRecord
100
AcDbLinetypeTableRecord
  2
BYBLOCK
 70
0
  3

 72
65
 73
0
 40
0.0
  0
LTYPE
  5
A3C
330
9CB
100
AcDbSymbolTableRecord
100
AcDbLinetypeTableRecord
  2
BYLAYER
 70
0
  3

 72
65
 73
0
 40
0.0
  0
LTYPE
  5
A22
330
9CB
100
AcDbSymbolTableRecord
100
AcDbLinetypeTableRecord
  2
CONTINUOUS
 70
0
  3
Solid line
 72
65
 73
0
 40
0.0
  0
ENDTAB
  0
TABLE
  2
LAYER
  5
9C8
330
0
100
AcDbSymbolTable
 70
4
  0
LAYER
  5
A1A
102
{ACAD_XDICTIONARY
360
A49
102
}
330
9C8
100
AcDbSymbolTableRecord
100
AcDbLayerTableRecord
  2
0
 70
0
 62
7
  6
CONTINUOUS
370
-3
390
9D5
  0
LAYER
  5
A39
102
{ACAD_XDICTIONARY
360
A4B
102
}
330
9C8
100
AcDbSymbolTableRecord
100
AcDbLayerTableRecord
  2
__
 70
0
 62
7
  6
CONTINUOUS
370
-3
390
9D5
  0
LAYER
  5
A3D
102
{ACAD_XDICTIONARY
360
A4D
102
}
330
9C8
100
AcDbSymbolTableRecord
100
AcDbLayerTableRecord
  2
_____1
 70
0
 62
7
  6
CONTINUOUS
370
-3
390
9D5
  0
LAYER
  5
A3E
330
9C8
100
AcDbSymbolTableRecord
100
AcDbLayerTableRecord
  2
DEFPOINTS
 70
0
 62
7
  6
CONTINUOUS
290
0
370
-3
390
9D5
  0
ENDTAB
  0
TABLE
  2
STYLE
  5
9C9
330
0
100
AcDbSymbolTable
 70
2
  0
STYLE
  5
A1B
330
9C9
100
AcDbSymbolTableRecord
100
AcDbTextStyleTableRecord
  2
STANDARD
 70
0
 40
0.0
 41
1.0
 50
0.0
 71
0
 42
0.2
  3
txt
  4
BIGFONT.SHX
  0
STYLE
  5
A1F
330
9C9
100
AcDbSymbolTableRecord
100
AcDbTextStyleTableRecord
  2
Annotative
 70
0
 40
0.0
 41
1.0
 50
0.0
 71
0
 42
0.2
  3
txt
  4

1001
AcadAnnotative
1000
AnnotativeData
1002
{
1070
1
1070
1
1002
}
  0
ENDTAB
  0
TABLE
  2
VIEW
  5
9CC
330
0
100
AcDbSymbolTable
 70
0
  0
ENDTAB
  0
TABLE
  2
UCS
  5
9CD
330
0
100
AcDbSymbolTable
 70
0
  0
ENDTAB
  0
TABLE
  2
APPID
  5
9CF
330
0
100
AcDbSymbolTable
 70
8
  0
APPID
  5
A1C
330
9CF
100
AcDbSymbolTableRecord
100
AcDbRegAppTableRecord
  2
ACAD
 70
0
  0
APPID
  5
A23
330
9CF
100
AcDbSymbolTableRecord
100
AcDbRegAppTableRecord
  2
AcadAnnotative
 70
0
  0
APPID
  5
A3F
330
9CF
100
AcDbSymbolTableRecord
100
AcDbRegAppTableRecord
  2
ACCMTRANSPARENCY
 70
0
  0
APPID
  5
A40
330
9CF
100
AcDbSymbolTableRecord
100
AcDbRegAppTableRecord
  2
ACAECLAYERSTANDARD
 70
0
  0
APPID
  5
A59
330
9CF
100
AcDbSymbolTableRecord
100
AcDbRegAppTableRecord
  2
ACAD_NAV_VCDISPLAY
 70
0
  0
APPID
  5
A94
330
9CF
100
AcDbSymbolTableRecord
100
AcDbRegAppTableRecord
  2
ACAD_MLEADERVER
 70
0
  0
APPID
  5
10F9
330
9CF
100
AcDbSymbolTableRecord
100
AcDbRegAppTableRecord
  2
HATCHBACKGROUNDCOLOR
 70
0
  0
APPID
  5
10FA
330
9CF
100
AcDbSymbolTableRecord
100
AcDbRegAppTableRecord
  2
EZDXF
 70
0
  0
ENDTAB
  0
TABLE
  2
DIMSTYLE
  5
9D0
330
0
100
AcDbSymbolTable
 70
2
100
AcDbDimStyleTable
  0
DIMSTYLE
105
A1D
330
9D0
100
AcDbSymbolTableRecord
100
AcDbDimStyleTableRecord
  2
STANDARD
 70
0
  3

  4

 40
1.0
 41
2.5
 42
0.625
 43
3.75
 44
1.25
 45
0.0
 46
0.0
 47
0.0
 48
0.0
140
2.5
141
2.5
142
0.0
143
0.03937007874
144
1.0
145
0.0
146
1.0
147
0.625
148
0.0
 71
0
 72
0
 73
0
 74
0
 75
0
 76
0
 77
1
 78
8
 79
0
170
0
171
3
172
1
173
0
174
0
175
0
176
0
177
0
178
0
179
0
271
2
272
2
273
2
274
3
275
0
276
0
277
2
278
44
279
2
280
0
281
0
282
0
283
0
284
8
285
0
286
0
288
0
289
3
371
-2
372
-2
  0
DIMSTYLE
105
A1E
330
9D0
100
AcDbSymbolTableRecord
100
AcDbDimStyleTableRecord
  2
Annotative
 70
0
  3

  4

 40
1.0
 41
2.5
 42
0.625
 43
3.75
 44
1.25
 45
0.0
 46
0.0
 47
0.0
 48
0.0
140
2.5
141
2.5
142
0.0
143
0.03937007874
144
1.0
145
0.0
146
1.0
147
0.625
148
0.0
 71
0
 72
0
 73
0
 74
0
 75
0
 76
0
 77
1
 78
8
 79
0
170
0
171
3
172
1
173
0
174
0
175
0
176
0
177
0
178
0
179
0
271
0
272
2
273
2
274
3
275
0
276
0
277
2
278
44
279
0
280
0
281
0
282
0
283
0
284
8
285
0
286
0
288
0
289
3
371
-2
372
-2
1001
AcadAnnotative
1000
AnnotativeData
1002
{
1070
1
1070
1
1002
}
  0
ENDTAB
  0
TABLE
  2
BLOCK_RECORD
  5
9C7
330
0
100
AcDbSymbolTable
 70
4
  0
BLOCK_RECORD
  5
A35
330
9C7
100
AcDbSymbolTableRecord
100
AcDbBlockTableRecord
  2
*Model_Space
340
A38
  0
BLOCK_RECORD
  5
A31
330
9C7
100
AcDbSymbolTableRecord
100
AcDbBlockTableRecord
  2
*Paper_Space
340
A34
  0
BLOCK_RECORD
  5
A43
330
9C7
100
AcDbSymbolTableRecord
100
AcDbBlockTableRecord
  2
$MODEL_SPACE
340
0
  0
BLOCK_RECORD
  5
A44
330
9C7
100
AcDbSymbolTableRecord
100
AcDbBlockTableRecord
  2
$PAPER_SPACE
340
0
  0
ENDTAB
  0
ENDSEC
  0
SECTION
  2
BLOCKS
  0
BLOCK
  5
A36
330
A35
100
AcDbEntity
  8
0
100
AcDbBlockBegin
  2
*Model_Space
 70
0
 10
0.0
 20
0.0
 30
0.0
  3
*Model_Space
  1

  0
ENDBLK
  5
A37
330
A35
100
AcDbEntity
  8
0
100
AcDbBlockEnd
  0
BLOCK
  5
A32
330
A31
100
AcDbEntity
 67
1
  8
0
100
AcDbBlockBegin
  2
*Paper_Space
 70
0
 10
0.0
 20
0.0
 30
0.0
  3
*Paper_Space
  1

  0
ENDBLK
  5
A33
330
A31
100
AcDbEntity
 67
1
  8
0
100
AcDbBlockEnd
  0
BLOCK
  5
470
330
A43
100
AcDbEntity
  8
0
100
AcDbBlockBegin
  2
$MODEL_SPACE
 70
0
 10
0.0
 20
0.0
 30
0.0
  3
$MODEL_SPACE
  1

  0
ENDBLK
  5
21
330
A43
100
AcDbEntity
  8
0
100
AcDbBlockEnd
  0
BLOCK
  5
471
330
A44
100
AcDbEntity
  8
0
100
AcDbBlockBegin
  2
$PAPER_SPACE
 70
0
 10
0.0
 20
0.0
 30
0.0
  3
$PAPER_SPACE
  1

  0
ENDBLK
  5
1D
330
A44
100
AcDbEntity
  8
0
100
AcDbBlockEnd
  0
ENDSEC
  0
SECTION
  2
ENTITIES
  0
LINE
  5
A9D
330
A35
100
AcDbEntity
  8
0
100
AcDbLine
 10
4.936
 20
54.896
 30
0.0
 11
15.805
 21
58.852
 31
0.0
  0
LINE
  5
A9E
330
A35
100
AcDbEntity
  8
0
100
AcDbLine
 10
47.414
 20
70.357
 30
0.0
 11
58.368
 21
74.344
 31
0.0
  0
LINE
  5
A9F
330
A35
100
AcDbEntity
  8
0
100
AcDbLine
 10
7.593
 20
67.031
 30
0.0
 11
7.593
 21
67.149
 31
0.0
  0
LINE
  5
AA0
330
A35
100
AcDbEntity
  8
0
100
AcDbLine
 10
32.352
 20
53.746
 30
0.0
 11
38.906
 21
58.72
 31
0.0
  0
LINE
  5
AA1
330
A35
100
AcDbEntity
  8
0
100
AcDbLine
 10
14.675
 20
72.475
 30
0.0
 11
14.675
 21
72.534
 31
0.0
  0
LINE
  5
AA2
330
A35
100
AcDbEntity
  8
0
100
AcDbLine
 10
14.675
 20
72.475
 30
0.0
 11
7.593
 21
67.031
 31
0.0
  0
LINE
  5
AA3
330
A35
100
AcDbEntity
  8
0
100
AcDbLine
 10
14.675
 20
72.475
 30
0.0
 11
14.793
 21
72.358
 31
0.0
  0
LINE
  5
AA4
330
A35
100
AcDbEntity
  8
0
100
AcDbLine
 10
7.593
 20
67.031
 30
0.0
 11
32.352
 21
53.746
 31
0.0
  0
LINE
  5
AA5
330
A35
100
AcDbEntity
  8
0
100
AcDbLine
 10
25.971
 20
81.197
 30
0.0
 11
26.089
 21
81.138
 31
0.0
  0
LINE
  5
AA6
330
A35
100
AcDbEntity
  8
0
100
AcDbLine
 10
26.265
 20
81.431
 30
0.0
 11
50.787
 21
68.144
 31
0.0
  0
LINE
  5
AA7
330
A35
100
AcDbEntity
  8
0
100
AcDbLine
 10
48.915
 20
68.788
 30
0.0
 11
48.915
 21
68.847
 31
0.0
  0
LINE
  5
AA8
330
A35
100
AcDbEntity
  8
0
100
AcDbLine
 10
50.671
 20
68.085
 30
0.0
 11
50.671
 21
68.085
 31
0.0
  0
LINE
  5
AA9
330
A35
100
AcDbEntity
  8
0
100
AcDbLine
 10
48.915
 20
68.847
 30
0.0
 11
26.089
 21
81.138
 31
0.0
  0
LINE
  5
AAA
330
A35
100
AcDbEntity
  8
0
100
AcDbLine
 10
26.03
 20
81.197
 30
0.0
 11
26.146
 21
81.254
 31
0.0
  0
LINE
  5
AAB
330
A35
100
AcDbEntity
  8
0
100
AcDbLine
 10
26.03
 20
81.197
 30
0.0
 11
26.03
 21
81.197
 31
0.0
  0
LINE
  5
AAC
330
A35
100
AcDbEntity
  8
0
100
AcDbLine
 10
26.499
 20
81.548
 30
0.0
 11
26.499
 21
81.548
 31
0.0
  0
LINE
  5
AAD
330
A35
100
AcDbEntity
  8
0
100
AcDbLine
 10
26.03
 20
81.254
 30
0.0
 11
26.03
 21
81.197
 31
0.0
  0
LINE
  5
AAE
330
A35
100
AcDbEntity
  8
0
100
AcDbLine
 10
26.146
 20
81.313
 30
0.0
 11
50.671
 21
68.085
 31
0.0
  0
LINE
  5
AAF
330
A35
100
AcDbEntity
  8
0
100
AcDbLine
 10
26.556
 20
81.607
 30
0.0
 11
51.081
 21
68.379
 31
0.0
  0
LINE
  5
AB0
330
A35
100
AcDbEntity
  8
0
100
AcDbLine
 10
26.381
 20
81.489
 30
0.0
 11
26.381
 21
81.489
 31
0.0
  0
LINE
  5
AB1
330
A35
100
AcDbEntity
  8
0
100
AcDbLine
 10
51.14
 20
68.085
 30
0.0
 11
26.381
 21
81.489
 31
0.0
  0
LINE
  5
AB2
330
A35
100
AcDbEntity
  8
0
100
AcDbLine
 10
50.671
 20
68.085
 30
0.0
 11
50.906
 21
67.91
 31
0.0
  0
LINE
  5
AB3
330
A35
100
AcDbEntity
  8
0
100
AcDbLine
 10
50.787
 20
67.793
 30
0.0
 11
48.915
 21
68.788
 31
0.0
  0
LINE
  5
AB4
330
A35
100
AcDbEntity
  8
0
100
AcDbLine
 10
51.081
 20
68.379
 30
0.0
 11
51.315
 21
68.262
 31
0.0
  0
LINE
  5
AB5
330
A35
100
AcDbEntity
  8
0
100
AcDbLine
 10
50.787
 20
68.085
 30
0.0
 11
50.787
 21
67.969
 31
0.0
  0
LINE
  5
AB6
330
A35
100
AcDbEntity
  8
0
100
AcDbLine
 10
51.197
 20
68.085
 30
0.0
 11
51.256
 21
68.144
 31
0.0
  0
LINE
  5
AB7
330
A35
100
AcDbEntity
  8
0
100
AcDbLine
 10
51.197
 20
68.085
 30
0.0
 11
51.14
 21
68.085
 31
0.0
  0
LINE
  5
AB8
330
A35
100
AcDbEntity
  8
0
100
AcDbLine
 10
50.906
 20
67.91
 30
0.0
 11
50.787
 21
67.793
 31
0.0
  0
LINE
  5
AB9
330
A35
100
AcDbEntity
  8
0
100
AcDbLine
 10
50.787
 20
68.144
 30
0.0
 11
50.906
 21
68.262
 31
0.0
  0
LINE
  5
ABA
330
A35
100
AcDbEntity
  8
0
100
AcDbLine
 10
51.315
 20
68.262
 30
0.0
 11
51.315
 21
68.495
 31
0.0
  0
LINE
  5
ABB
330
A35
100
AcDbEntity
  8
0
100
AcDbLine
 10
26.499
 20
81.548
 30
0.0
 11
26.556
 21
81.664
 31
0.0
  0
LINE
  5
ABC
330
A35
100
AcDbEntity
  8
0
100
AcDbLine
 10
51.315
 20
68.203
 30
0.0
 11
51.315
 21
68.262
 31
0.0
  0
LINE
  5
ABD
330
A35
100
AcDbEntity
  8
0
100
AcDbLine
 10
50.787
 20
68.144
 30
0.0
 11
50.787
 21
68.085
 31
0.0
  0
LINE
  5
ABE
330
A35
100
AcDbEntity
  8
0
100
AcDbLine
 10
51.315
 20
68.495
 30
0.0
 11
51.315
 21
68.495
 31
0.0
  0
LINE
  5
ABF
330
A35
100
AcDbEntity
  8
0
100
AcDbLine
 10
50.906
 20
67.91
 30
0.0
 11
50.906
 21
67.91
 31
0.0
  0
LINE
  5
AC0
330
A35
100
AcDbEntity
  8
0
100
AcDbLine
 10
50.787
 20
67.793
 30
0.0
 11
50.787
 21
67.793
 31
0.0
  0
LINE
  5
AC1
330
A35
100
AcDbEntity
  8
0
100
AcDbLine
 10
25.971
 20
81.197
 30
0.0
 11
26.03
 21
81.197
 31
0.0
  0
LINE
  5
AC2
330
A35
100
AcDbEntity
  8
0
100
AcDbLine
 10
26.146
 20
81.254
 30
0.0
 11
26.146
 21
81.254
 31
0.0
  0
LINE
  5
AC3
330
A35
100
AcDbEntity
  8
0
100
AcDbLine
 10
26.146
 20
81.313
 30
0.0
 11
26.146
 21
81.254
 31
0.0
  0
LINE
  5
AC4
330
A35
100
AcDbEntity
  8
0
100
AcDbLine
 10
4.725
 20
64.867
 30
0.0
 11
4.725
 21
64.867
 31
0.0
  0
LINE
  5
AC5
330
A35
100
AcDbEntity
  8
0
100
AcDbLine
 10
5.135
 20
65.217
 30
0.0
 11
5.135
 21
65.217
 31
0.0
  0
LINE
  5
AC6
330
A35
100
AcDbEntity
  8
0
100
AcDbLine
 10
4.783
 20
64.926
 30
0.0
 11
29.601
 21
51.638
 31
0.0
  0
LINE
  5
AC7
330
A35
100
AcDbEntity
  8
0
100
AcDbLine
 10
29.835
 20
51.757
 30
0.0
 11
5.076
 21
65.101
 31
0.0
  0
LINE
  5
AC8
330
A35
100
AcDbEntity
  8
0
100
AcDbLine
 10
5.076
 20
65.101
 30
0.0
 11
5.135
 21
65.217
 31
0.0
  0
LINE
  5
AC9
330
A35
100
AcDbEntity
  8
0
100
AcDbLine
 10
5.194
 20
65.217
 30
0.0
 11
5.194
 21
65.217
 31
0.0
  0
LINE
  5
ACA
330
A35
100
AcDbEntity
  8
0
100
AcDbLine
 10
4.666
 20
64.867
 30
0.0
 11
28.078
 21
52.224
 31
0.0
  0
LINE
  5
ACB
330
A35
100
AcDbEntity
  8
0
100
AcDbLine
 10
4.725
 20
64.867
 30
0.0
 11
4.783
 21
64.926
 31
0.0
  0
LINE
  5
ACC
330
A35
100
AcDbEntity
  8
0
100
AcDbLine
 10
4.725
 20
64.867
 30
0.0
 11
4.666
 21
64.867
 31
0.0
  0
LINE
  5
ACD
330
A35
100
AcDbEntity
  8
0
100
AcDbLine
 10
29.951
 20
51.932
 30
0.0
 11
29.951
 21
51.932
 31
0.0
  0
LINE
  5
ACE
330
A35
100
AcDbEntity
  8
0
100
AcDbLine
 10
29.601
 20
51.873
 30
0.0
 11
29.483
 21
51.814
 31
0.0
  0
LINE
  5
ACF
330
A35
100
AcDbEntity
  8
0
100
AcDbLine
 10
29.835
 20
51.757
 30
0.0
 11
29.951
 21
51.873
 31
0.0
  0
LINE
  5
AD0
330
A35
100
AcDbEntity
  8
0
100
AcDbLine
 10
29.425
 20
51.757
 30
0.0
 11
29.425
 21
51.697
 31
0.0
  0
LINE
  5
AD1
330
A35
100
AcDbEntity
  8
0
100
AcDbLine
 10
29.601
 20
51.522
 30
0.0
 11
29.483
 21
51.463
 31
0.0
  0
LINE
  5
AD2
330
A35
100
AcDbEntity
  8
0
100
AcDbLine
 10
28.372
 20
52.048
 30
0.0
 11
28.078
 21
52.224
 31
0.0
  0
LINE
  5
AD3
330
A35
100
AcDbEntity
  8
0
100
AcDbLine
 10
28.372
 20
52.048
 30
0.0
 11
29.425
 21
51.463
 31
0.0
  0
LINE
  5
AD4
330
A35
100
AcDbEntity
  8
0
100
AcDbLine
 10
5.194
 20
65.217
 30
0.0
 11
5.194
 21
65.276
 31
0.0
  0
LINE
  5
AD5
330
A35
100
AcDbEntity
  8
0
100
AcDbLine
 10
29.951
 20
51.873
 30
0.0
 11
30.01
 21
51.932
 31
0.0
  0
LINE
  5
AD6
330
A35
100
AcDbEntity
  8
0
100
AcDbLine
 10
29.483
 20
51.814
 30
0.0
 11
29.483
 21
51.757
 31
0.0
  0
LINE
  5
AD7
330
A35
100
AcDbEntity
  8
0
100
AcDbLine
 10
29.601
 20
51.638
 30
0.0
 11
29.601
 21
51.522
 31
0.0
  0
LINE
  5
AD8
330
A35
100
AcDbEntity
  8
0
100
AcDbLine
 10
29.425
 20
51.463
 30
0.0
 11
29.483
 21
51.463
 31
0.0
  0
LINE
  5
AD9
330
A35
100
AcDbEntity
  8
0
100
AcDbLine
 10
4.666
 20
64.867
 30
0.0
 11
4.666
 21
64.867
 31
0.0
  0
LINE
  5
ADA
330
A35
100
AcDbEntity
  8
0
100
AcDbLine
 10
4.783
 20
64.926
 30
0.0
 11
4.783
 21
64.926
 31
0.0
  0
LINE
  5
ADB
330
A35
100
AcDbEntity
  8
0
100
AcDbLine
 10
5.076
 20
65.158
 30
0.0
 11
5.076
 21
65.101
 31
0.0
  0
LINE
  5
ADC
330
A35
100
AcDbEntity
  8
0
100
AcDbLine
 10
5.076
 20
65.158
 30
0.0
 11
5.076
 21
65.158
 31
0.0
  0
LINE
  5
ADD
330
A35
100
AcDbEntity
  8
0
100
AcDbLine
 10
50.143
 20
71.364
 30
0.0
 11
50.086
 21
71.421
 31
0.0
  0
LINE
  5
ADE
330
A35
100
AcDbEntity
  8
0
100
AcDbLine
 10
50.73
 20
67.853
 30
0.0
 11
48.271
 21
66.096
 31
0.0
  0
LINE
  5
ADF
330
A35
100
AcDbEntity
  8
0
100
AcDbLine
 10
25.68
 20
80.787
 30
0.0
 11
25.68
 21
80.787
 31
0.0
  0
LINE
  5
AE0
330
A35
100
AcDbEntity
  8
0
100
AcDbLine
 10
25.737
 20
81.313
 30
0.0
 11
25.855
 21
81.431
 31
0.0
  0
LINE
  5
AE1
330
A35
100
AcDbEntity
  8
0
100
AcDbLine
 10
25.737
 20
81.313
 30
0.0
 11
25.68
 21
81.313
 31
0.0
  0
LINE
  5
AE2
330
A35
100
AcDbEntity
  8
0
100
AcDbLine
 10
26.089
 20
81.138
 30
0.0
 11
25.68
 21
80.844
 31
0.0
  0
LINE
  5
AE3
330
A35
100
AcDbEntity
  8
0
100
AcDbLine
 10
25.68
 20
80.787
 30
0.0
 11
26.089
 21
81.138
 31
0.0
  0
LINE
  5
AE4
330
A35
100
AcDbEntity
  8
0
100
AcDbLine
 10
25.912
 20
84.533
 30
0.0
 11
25.855
 21
84.533
 31
0.0
  0
LINE
  5
AE5
330
A35
100
AcDbEntity
  8
0
100
AcDbLine
 10
25.68
 20
84.474
 30
0.0
 11
25.68
 21
84.474
 31
0.0
  0
LINE
  5
AE6
330
A35
100
AcDbEntity
  8
0
100
AcDbLine
 10
25.912
 20
84.533
 30
0.0
 11
25.912
 21
83.714
 31
0.0
  0
LINE
  5
AE7
330
A35
100
AcDbEntity
  8
0
100
AcDbLine
 10
25.912
 20
83.771
 30
0.0
 11
25.912
 21
84.533
 31
0.0
  0
LINE
  5
AE8
330
A35
100
AcDbEntity
  8
0
100
AcDbLine
 10
25.912
 20
84.358
 30
0.0
 11
26.381
 21
84.124
 31
0.0
  0
LINE
  5
AE9
330
A35
100
AcDbEntity
  8
0
100
AcDbLine
 10
25.68
 20
84.415
 30
0.0
 11
25.68
 21
84.474
 31
0.0
  0
LINE
  5
AEA
330
A35
100
AcDbEntity
  8
0
100
AcDbLine
 10
25.68
 20
84.415
 30
0.0
 11
25.68
 21
84.415
 31
0.0
  0
LINE
  5
AEB
330
A35
100
AcDbEntity
  8
0
100
AcDbLine
 10
25.621
 20
84.474
 30
0.0
 11
25.621
 21
84.415
 31
0.0
  0
LINE
  5
AEC
330
A35
100
AcDbEntity
  8
0
100
AcDbLine
 10
25.68
 20
84.474
 30
0.0
 11
25.737
 21
84.474
 31
0.0
  0
LINE
  5
AED
330
A35
100
AcDbEntity
  8
0
100
AcDbLine
 10
25.093
 20
84.24
 30
0.0
 11
25.093
 21
84.181
 31
0.0
  0
LINE
  5
AEE
330
A35
100
AcDbEntity
  8
0
100
AcDbLine
 10
25.68
 20
80.787
 30
0.0
 11
50.203
 21
67.559
 31
0.0
  0
LINE
  5
AEF
330
A35
100
AcDbEntity
  8
0
100
AcDbLine
 10
50.143
 20
71.421
 30
0.0
 11
49.968
 21
71.364
 31
0.0
  0
LINE
  5
AF0
330
A35
100
AcDbEntity
  8
0
100
AcDbLine
 10
50.203
 20
67.559
 30
0.0
 11
50.612
 21
67.91
 31
0.0
  0
LINE
  5
AF1
330
A35
100
AcDbEntity
  8
0
100
AcDbLine
 10
26.089
 20
81.138
 30
0.0
 11
26.146
 21
81.138
 31
0.0
  0
LINE
  5
AF2
330
A35
100
AcDbEntity
  8
0
100
AcDbLine
 10
50.612
 20
67.91
 30
0.0
 11
50.671
 21
67.91
 31
0.0
  0
LINE
  5
AF3
330
A35
100
AcDbEntity
  8
0
100
AcDbLine
 10
50.203
 20
67.559
 30
0.0
 11
50.203
 21
67.559
 31
0.0
  0
LINE
  5
AF4
330
A35
100
AcDbEntity
  8
0
100
AcDbLine
 10
24.626
 20
83.83
 30
0.0
 11
24.626
 21
83.83
 31
0.0
  0
LINE
  5
AF5
330
A35
100
AcDbEntity
  8
0
100
AcDbLine
 10
25.621
 20
84.415
 30
0.0
 11
25.68
 21
84.415
 31
0.0
  0
LINE
  5
AF6
330
A35
100
AcDbEntity
  8
0
100
AcDbLine
 10
25.737
 20
84.005
 30
0.0
 11
25.737
 21
83.949
 31
0.0
  0
LINE
  5
AF7
330
A35
100
AcDbEntity
  8
0
100
AcDbLine
 10
25.796
 20
84.005
 30
0.0
 11
25.737
 21
83.889
 31
0.0
  0
LINE
  5
AF8
330
A35
100
AcDbEntity
  8
0
100
AcDbLine
 10
25.68
 20
84.474
 30
0.0
 11
25.621
 21
84.474
 31
0.0
  0
LINE
  5
AF9
330
A35
100
AcDbEntity
  8
0
100
AcDbLine
 10
25.68
 20
80.844
 30
0.0
 11
25.68
 21
80.844
 31
0.0
  0
LINE
  5
AFA
330
A35
100
AcDbEntity
  8
0
100
AcDbLine
 10
23.805
 20
79.381
 30
0.0
 11
24.157
 21
79.675
 31
0.0
  0
LINE
  5
AFB
330
A35
100
AcDbEntity
  8
0
100
AcDbLine
 10
24.157
 20
79.616
 30
0.0
 11
23.805
 21
79.381
 31
0.0
  0
LINE
  5
AFC
330
A35
100
AcDbEntity
  8
0
100
AcDbLine
 10
23.805
 20
79.381
 30
0.0
 11
23.805
 21
79.381
 31
0.0
  0
LINE
  5
AFD
330
A35
100
AcDbEntity
  8
0
100
AcDbLine
 10
23.748
 20
79.381
 30
0.0
 11
23.748
 21
79.381
 31
0.0
  0
LINE
  5
AFE
330
A35
100
AcDbEntity
  8
0
100
AcDbLine
 10
23.982
 20
79.559
 30
0.0
 11
23.982
 21
79.559
 31
0.0
  0
LINE
  5
AFF
330
A35
100
AcDbEntity
  8
0
100
AcDbLine
 10
24.157
 20
79.675
 30
0.0
 11
24.157
 21
79.675
 31
0.0
  0
LINE
  5
B00
330
A35
100
AcDbEntity
  8
0
100
AcDbLine
 10
24.216
 20
79.734
 30
0.0
 11
48.739
 21
66.446
 31
0.0
  0
LINE
  5
B01
330
A35
100
AcDbEntity
  8
0
100
AcDbLine
 10
48.68
 20
68.379
 30
0.0
 11
48.68
 21
68.379
 31
0.0
  0
LINE
  5
B02
330
A35
100
AcDbEntity
  8
0
100
AcDbLine
 10
48.68
 20
67.265
 30
0.0
 11
48.739
 21
67.265
 31
0.0
  0
LINE
  5
B03
330
A35
100
AcDbEntity
  8
0
100
AcDbLine
 10
48.68
 20
67.265
 30
0.0
 11
48.68
 21
67.265
 31
0.0
  0
LINE
  5
B04
330
A35
100
AcDbEntity
  8
0
100
AcDbLine
 10
48.739
 20
67.265
 30
0.0
 11
48.739
 21
66.446
 31
0.0
  0
LINE
  5
B05
330
A35
100
AcDbEntity
  8
0
100
AcDbLine
 10
48.68
 20
67.265
 30
0.0
 11
48.739
 21
68.32
 31
0.0
  0
LINE
  5
B06
330
A35
100
AcDbEntity
  8
0
100
AcDbLine
 10
48.271
 20
66.096
 30
0.0
 11
23.748
 21
79.381
 31
0.0
  0
LINE
  5
B07
330
A35
100
AcDbEntity
  8
0
100
AcDbLine
 10
48.33
 20
66.155
 30
0.0
 11
48.68
 21
66.389
 31
0.0
  0
LINE
  5
B08
330
A35
100
AcDbEntity
  8
0
100
AcDbLine
 10
24.157
 20
79.616
 30
0.0
 11
24.216
 21
79.734
 31
0.0
  0
LINE
  5
B09
330
A35
100
AcDbEntity
  8
0
100
AcDbLine
 10
48.739
 20
68.32
 30
0.0
 11
48.68
 21
68.379
 31
0.0
  0
LINE
  5
B0A
330
A35
100
AcDbEntity
  8
0
100
AcDbLine
 10
48.739
 20
67.265
 30
0.0
 11
48.68
 21
67.325
 31
0.0
  0
LINE
  5
B0B
330
A35
100
AcDbEntity
  8
0
100
AcDbLine
 10
48.68
 20
66.389
 30
0.0
 11
48.739
 21
66.446
 31
0.0
  0
LINE
  5
B0C
330
A35
100
AcDbEntity
  8
0
100
AcDbLine
 10
48.271
 20
66.096
 30
0.0
 11
48.33
 21
66.155
 31
0.0
  0
LINE
  5
B0D
330
A35
100
AcDbEntity
  8
0
100
AcDbLine
 10
23.748
 20
79.381
 30
0.0
 11
25.68
 21
80.844
 31
0.0
  0
LINE
  5
B0E
330
A35
100
AcDbEntity
  8
0
100
AcDbLine
 10
23.805
 20
79.381
 30
0.0
 11
23.748
 21
79.381
 31
0.0
  0
LINE
  5
B0F
330
A35
100
AcDbEntity
  8
0
100
AcDbLine
 10
25.912
 20
84.533
 30
0.0
 11
25.912
 21
84.533
 31
0.0
  0
LINE
  5
B10
330
A35
100
AcDbEntity
  8
0
100
AcDbLine
 10
25.855
 20
84.533
 30
0.0
 11
25.796
 21
84.533
 31
0.0
  0
LINE
  5
B11
330
A35
100
AcDbEntity
  8
0
100
AcDbLine
 10
25.621
 20
84.649
 30
0.0
 11
25.562
 21
84.649
 31
0.0
  0
LINE
  5
B12
330
A35
100
AcDbEntity
  8
0
100
AcDbLine
 10
25.796
 20
84.533
 30
0.0
 11
25.562
 21
84.358
 31
0.0
  0
LINE
  5
B13
330
A35
100
AcDbEntity
  8
0
100
AcDbLine
 10
25.621
 20
84.358
 30
0.0
 11
25.621
 21
84.649
 31
0.0
  0
LINE
  5
B14
330
A35
100
AcDbEntity
  8
0
100
AcDbLine
 10
25.562
 20
84.649
 30
0.0
 11
25.562
 21
84.358
 31
0.0
  0
LINE
  5
B15
330
A35
100
AcDbEntity
  8
0
100
AcDbLine
 10
25.502
 20
84.649
 30
0.0
 11
25.562
 21
84.649
 31
0.0
  0
LINE
  5
B16
330
A35
100
AcDbEntity
  8
0
100
AcDbLine
 10
25.327
 20
84.415
 30
0.0
 11
25.152
 21
84.299
 31
0.0
  0
LINE
  5
B17
330
A35
100
AcDbEntity
  8
0
100
AcDbLine
 10
24.626
 20
83.889
 30
0.0
 11
24.626
 21
83.83
 31
0.0
  0
LINE
  5
B18
330
A35
100
AcDbEntity
  8
0
100
AcDbLine
 10
25.796
 20
84.065
 30
0.0
 11
25.737
 21
83.889
 31
0.0
  0
LINE
  5
B19
330
A35
100
AcDbEntity
  8
0
100
AcDbLine
 10
25.796
 20
84.005
 30
0.0
 11
25.796
 21
84.065
 31
0.0
  0
LINE
  5
B1A
330
A35
100
AcDbEntity
  8
0
100
AcDbLine
 10
23.63
 20
79.381
 30
0.0
 11
23.748
 21
79.381
 31
0.0
  0
LINE
  5
B1B
330
A35
100
AcDbEntity
  8
0
100
AcDbLine
 10
5.836
 20
68.554
 30
0.0
 11
5.486
 21
68.085
 31
0.0
  0
LINE
  5
B1C
330
A35
100
AcDbEntity
  8
0
100
AcDbLine
 10
5.836
 20
69.491
 30
0.0
 11
5.895
 21
69.666
 31
0.0
  0
LINE
  5
B1D
330
A35
100
AcDbEntity
  8
0
100
AcDbLine
 10
5.836
 20
69.138
 30
0.0
 11
5.836
 21
68.554
 31
0.0
  0
LINE
  5
B1E
330
A35
100
AcDbEntity
  8
0
100
AcDbLine
 10
5.836
 20
69.138
 30
0.0
 11
5.836
 21
69.491
 31
0.0
  0
LINE
  5
B1F
330
A35
100
AcDbEntity
  8
0
100
AcDbLine
 10
6.657
 20
69.081
 30
0.0
 11
6.657
 21
68.963
 31
0.0
  0
LINE
  5
B20
330
A35
100
AcDbEntity
  8
0
100
AcDbLine
 10
13.152
 20
74.056
 30
0.0
 11
13.211
 21
74.056
 31
0.0
  0
LINE
  5
B21
330
A35
100
AcDbEntity
  8
0
100
AcDbLine
 10
17.016
 20
76.982
 30
0.0
 11
17.016
 21
77.041
 31
0.0
  0
LINE
  5
B22
330
A35
100
AcDbEntity
  8
0
100
AcDbLine
 10
17.016
 20
76.982
 30
0.0
 11
17.016
 21
76.924
 31
0.0
  0
LINE
  5
B23
330
A35
100
AcDbEntity
  8
0
100
AcDbLine
 10
13.152
 20
74.056
 30
0.0
 11
6.657
 21
69.022
 31
0.0
  0
LINE
  5
B24
330
A35
100
AcDbEntity
  8
0
100
AcDbLine
 10
6.714
 20
69.138
 30
0.0
 11
6.774
 21
70.251
 31
0.0
  0
LINE
  5
B25
330
A35
100
AcDbEntity
  8
0
100
AcDbLine
 10
6.714
 20
70.545
 30
0.0
 11
6.774
 21
70.602
 31
0.0
  0
LINE
  5
B26
330
A35
100
AcDbEntity
  8
0
100
AcDbLine
 10
6.714
 20
70.545
 30
0.0
 11
6.774
 21
70.545
 31
0.0
  0
LINE
  5
B27
330
A35
100
AcDbEntity
  8
0
100
AcDbLine
 10
6.714
 20
70.545
 30
0.0
 11
6.714
 21
70.545
 31
0.0
  0
LINE
  5
B28
330
A35
100
AcDbEntity
  8
0
100
AcDbLine
 10
6.714
 20
70.251
 30
0.0
 11
6.598
 21
70.135
 31
0.0
  0
LINE
  5
B29
330
A35
100
AcDbEntity
  8
0
100
AcDbLine
 10
6.598
 20
70.017
 30
0.0
 11
6.714
 21
70.192
 31
0.0
  0
LINE
  5
B2A
330
A35
100
AcDbEntity
  8
0
100
AcDbLine
 10
6.598
 20
70.135
 30
0.0
 11
6.598
 21
70.017
 31
0.0
  0
LINE
  5
B2B
330
A35
100
AcDbEntity
  8
0
100
AcDbLine
 10
6.714
 20
70.311
 30
0.0
 11
5.895
 21
69.666
 31
0.0
  0
LINE
  5
B2C
330
A35
100
AcDbEntity
  8
0
100
AcDbLine
 10
13.152
 20
74.056
 30
0.0
 11
6.657
 21
69.081
 31
0.0
  0
LINE
  5
B2D
330
A35
100
AcDbEntity
  8
0
100
AcDbLine
 10
17.016
 20
76.982
 30
0.0
 11
23.63
 21
82.017
 31
0.0
  0
LINE
  5
B2E
330
A35
100
AcDbEntity
  8
0
100
AcDbLine
 10
23.572
 20
82.017
 30
0.0
 11
17.016
 21
77.041
 31
0.0
  0
LINE
  5
B2F
330
A35
100
AcDbEntity
  8
0
100
AcDbLine
 10
23.572
 20
82.017
 30
0.0
 11
23.689
 21
82.017
 31
0.0
  0
LINE
  5
B30
330
A35
100
AcDbEntity
  8
0
100
AcDbLine
 10
23.805
 20
83.714
 30
0.0
 11
6.774
 21
70.602
 31
0.0
  0
LINE
  5
B31
330
A35
100
AcDbEntity
  8
0
100
AcDbLine
 10
6.714
 20
70.545
 30
0.0
 11
23.63
 21
83.537
 31
0.0
  0
LINE
  5
B32
330
A35
100
AcDbEntity
  8
0
100
AcDbLine
 10
23.689
 20
83.537
 30
0.0
 11
23.689
 21
83.48
 31
0.0
  0
LINE
  5
B33
330
A35
100
AcDbEntity
  8
0
100
AcDbLine
 10
23.63
 20
83.537
 30
0.0
 11
23.805
 21
83.655
 31
0.0
  0
LINE
  5
B34
330
A35
100
AcDbEntity
  8
0
100
AcDbLine
 10
24.157
 20
83.83
 30
0.0
 11
24.274
 21
83.771
 31
0.0
  0
LINE
  5
B35
330
A35
100
AcDbEntity
  8
0
100
AcDbLine
 10
24.157
 20
83.83
 30
0.0
 11
24.039
 21
83.596
 31
0.0
  0
LINE
  5
B36
330
A35
100
AcDbEntity
  8
0
100
AcDbLine
 10
24.039
 20
83.771
 30
0.0
 11
24.039
 21
83.83
 31
0.0
  0
LINE
  5
B37
330
A35
100
AcDbEntity
  8
0
100
AcDbLine
 10
24.039
 20
83.771
 30
0.0
 11
24.039
 21
83.596
 31
0.0
  0
LINE
  5
B38
330
A35
100
AcDbEntity
  8
0
100
AcDbLine
 10
23.982
 20
83.655
 30
0.0
 11
23.923
 21
83.596
 31
0.0
  0
LINE
  5
B39
330
A35
100
AcDbEntity
  8
0
100
AcDbLine
 10
23.864
 20
83.655
 30
0.0
 11
23.805
 21
83.596
 31
0.0
  0
LINE
  5
B3A
330
A35
100
AcDbEntity
  8
0
100
AcDbLine
 10
23.805
 20
83.655
 30
0.0
 11
23.805
 21
83.714
 31
0.0
  0
LINE
  5
B3B
330
A35
100
AcDbEntity
  8
0
100
AcDbLine
 10
23.805
 20
83.655
 30
0.0
 11
23.805
 21
83.596
 31
0.0
  0
LINE
  5
B3C
330
A35
100
AcDbEntity
  8
0
100
AcDbLine
 10
23.805
 20
83.714
 30
0.0
 11
23.805
 21
83.714
 31
0.0
  0
LINE
  5
B3D
330
A35
100
AcDbEntity
  8
0
100
AcDbLine
 10
23.63
 20
83.537
 30
0.0
 11
23.689
 21
83.537
 31
0.0
  0
LINE
  5
B3E
330
A35
100
AcDbEntity
  8
0
100
AcDbLine
 10
23.864
 20
83.596
 30
0.0
 11
23.864
 21
83.655
 31
0.0
  0
LINE
  5
B3F
330
A35
100
AcDbEntity
  8
0
100
AcDbLine
 10
23.923
 20
83.596
 30
0.0
 11
23.864
 21
83.596
 31
0.0
  0
LINE
  5
B40
330
A35
100
AcDbEntity
  8
0
100
AcDbLine
 10
23.805
 20
83.596
 30
0.0
 11
23.689
 21
83.537
 31
0.0
  0
LINE
  5
B41
330
A35
100
AcDbEntity
  8
0
100
AcDbLine
 10
25.502
 20
84.649
 30
0.0
 11
25.562
 21
84.59
 31
0.0
  0
LINE
  5
B42
330
A35
100
AcDbEntity
  8
0
100
AcDbLine
 10
25.502
 20
84.649
 30
0.0
 11
24.274
 21
83.771
 31
0.0
  0
LINE
  5
B43
330
A35
100
AcDbEntity
  8
0
100
AcDbLine
 10
25.327
 20
84.358
 30
0.0
 11
25.327
 21
84.533
 31
0.0
  0
LINE
  5
B44
330
A35
100
AcDbEntity
  8
0
100
AcDbLine
 10
25.093
 20
84.358
 30
0.0
 11
25.093
 21
84.181
 31
0.0
  0
LINE
  5
B45
330
A35
100
AcDbEntity
  8
0
100
AcDbLine
 10
25.152
 20
84.299
 30
0.0
 11
25.093
 21
84.358
 31
0.0
  0
LINE
  5
B46
330
A35
100
AcDbEntity
  8
0
100
AcDbLine
 10
25.562
 20
84.59
 30
0.0
 11
25.562
 21
83.655
 31
0.0
  0
LINE
  5
B47
330
A35
100
AcDbEntity
  8
0
100
AcDbLine
 10
25.093
 20
84.358
 30
0.0
 11
25.327
 21
84.533
 31
0.0
  0
LINE
  5
B48
330
A35
100
AcDbEntity
  8
0
100
AcDbLine
 10
25.327
 20
84.474
 30
0.0
 11
25.152
 21
84.299
 31
0.0
  0
LINE
  5
B49
330
A35
100
AcDbEntity
  8
0
100
AcDbLine
 10
25.093
 20
84.181
 30
0.0
 11
25.327
 21
84.358
 31
0.0
  0
LINE
  5
B4A
330
A35
100
AcDbEntity
  8
0
100
AcDbLine
 10
25.502
 20
83.655
 30
0.0
 11
25.796
 21
83.83
 31
0.0
  0
LINE
  5
B4B
330
A35
100
AcDbEntity
  8
0
100
AcDbLine
 10
25.502
 20
84.649
 30
0.0
 11
25.502
 21
83.655
 31
0.0
  0
LINE
  5
B4C
330
A35
100
AcDbEntity
  8
0
100
AcDbLine
 10
25.855
 20
83.771
 30
0.0
 11
25.855
 21
83.655
 31
0.0
  0
LINE
  5
B4D
330
A35
100
AcDbEntity
  8
0
100
AcDbLine
 10
25.855
 20
83.771
 30
0.0
 11
25.796
 21
83.83
 31
0.0
  0
LINE
  5
B4E
330
A35
100
AcDbEntity
  8
0
100
AcDbLine
 10
25.855
 20
83.771
 30
0.0
 11
25.912
 21
83.714
 31
0.0
  0
LINE
  5
B4F
330
A35
100
AcDbEntity
  8
0
100
AcDbLine
 10
24.274
 20
83.771
 30
0.0
 11
24.274
 21
83.771
 31
0.0
  0
LINE
  5
B50
330
A35
100
AcDbEntity
  8
0
100
AcDbLine
 10
24.039
 20
83.655
 30
0.0
 11
23.982
 21
83.655
 31
0.0
  0
LINE
  5
B51
330
A35
100
AcDbEntity
  8
0
100
AcDbLine
 10
24.567
 20
83.889
 30
0.0
 11
24.683
 21
84.005
 31
0.0
  0
LINE
  5
B52
330
A35
100
AcDbEntity
  8
0
100
AcDbLine
 10
24.626
 20
83.83
 30
0.0
 11
24.683
 21
83.949
 31
0.0
  0
LINE
  5
B53
330
A35
100
AcDbEntity
  8
0
100
AcDbLine
 10
24.683
 20
84.005
 30
0.0
 11
24.626
 21
83.83
 31
0.0
  0
LINE
  5
B54
330
A35
100
AcDbEntity
  8
0
100
AcDbLine
 10
25.152
 20
84.299
 30
0.0
 11
25.211
 21
84.299
 31
0.0
  0
LINE
  5
B55
330
A35
100
AcDbEntity
  8
0
100
AcDbLine
 10
23.864
 20
83.655
 30
0.0
 11
23.864
 21
83.655
 31
0.0
  0
LINE
  5
B56
330
A35
100
AcDbEntity
  8
0
100
AcDbLine
 10
24.626
 20
83.83
 30
0.0
 11
24.567
 21
83.889
 31
0.0
  0
LINE
  5
B57
330
A35
100
AcDbEntity
  8
0
100
AcDbLine
 10
23.805
 20
83.714
 30
0.0
 11
23.923
 21
83.596
 31
0.0
  0
LINE
  5
B58
330
A35
100
AcDbEntity
  8
0
100
AcDbLine
 10
12.51
 20
73.822
 30
0.0
 11
12.568
 21
73.997
 31
0.0
  0
LINE
  5
B59
330
A35
100
AcDbEntity
  8
0
100
AcDbLine
 10
12.51
 20
73.822
 30
0.0
 11
12.51
 21
73.822
 31
0.0
  0
LINE
  5
B5A
330
A35
100
AcDbEntity
  8
0
100
AcDbLine
 10
12.568
 20
73.822
 30
0.0
 11
12.627
 21
73.938
 31
0.0
  0
LINE
  5
B5B
330
A35
100
AcDbEntity
  8
0
100
AcDbLine
 10
6.774
 20
70.602
 30
0.0
 11
6.774
 21
70.602
 31
0.0
  0
LINE
  5
B5C
330
A35
100
AcDbEntity
  8
0
100
AcDbLine
 10
6.714
 20
70.135
 30
0.0
 11
6.598
 21
70.135
 31
0.0
  0
LINE
  5
B5D
330
A35
100
AcDbEntity
  8
0
100
AcDbLine
 10
6.833
 20
69.666
 30
0.0
 11
6.89
 21
69.842
 31
0.0
  0
LINE
  5
B5E
330
A35
100
AcDbEntity
  8
0
100
AcDbLine
 10
18.186
 20
78.211
 30
0.0
 11
18.129
 21
78.096
 31
0.0
  0
LINE
  5
B5F
330
A35
100
AcDbEntity
  8
0
100
AcDbLine
 10
18.186
 20
78.271
 30
0.0
 11
18.07
 21
78.096
 31
0.0
  0
LINE
  5
B60
330
A35
100
AcDbEntity
  8
0
100
AcDbLine
 10
17.485
 20
77.684
 30
0.0
 11
17.426
 21
77.508
 31
0.0
  0
LINE
  5
B61
330
A35
100
AcDbEntity
  8
0
100
AcDbLine
 10
17.367
 20
77.627
 30
0.0
 11
17.367
 21
77.508
 31
0.0
  0
LINE
  5
B62
330
A35
100
AcDbEntity
  8
0
100
AcDbLine
 10
17.895
 20
78.737
 30
0.0
 11
17.719
 21
78.446
 31
0.0
  0
LINE
  5
B63
330
A35
100
AcDbEntity
  8
0
100
AcDbLine
 10
15.494
 20
75.988
 30
0.0
 11
15.26
 21
75.695
 31
0.0
  0
LINE
  5
B64
330
A35
100
AcDbEntity
  8
0
100
AcDbLine
 10
15.494
 20
75.988
 30
0.0
 11
15.203
 21
75.636
 31
0.0
  0
LINE
  5
B65
330
A35
100
AcDbEntity
  8
0
100
AcDbLine
 10
13.211
 20
74.348
 30
0.0
 11
13.33
 21
74.466
 31
0.0
  0
LINE
  5
B66
330
A35
100
AcDbEntity
  8
0
100
AcDbLine
 10
13.211
 20
74.407
 30
0.0
 11
13.33
 21
74.525
 31
0.0
  0
LINE
  5
B67
330
A35
100
AcDbEntity
  8
0
100
AcDbLine
 10
13.211
 20
74.29
 30
0.0
 11
13.211
 21
74.348
 31
0.0
  0
LINE
  5
B68
330
A35
100
AcDbEntity
  8
0
100
AcDbLine
 10
13.211
 20
74.29
 30
0.0
 11
13.211
 21
74.407
 31
0.0
  0
LINE
  5
B69
330
A35
100
AcDbEntity
  8
0
100
AcDbLine
 10
13.33
 20
74.525
 30
0.0
 11
13.211
 21
74.29
 31
0.0
  0
LINE
  5
B6A
330
A35
100
AcDbEntity
  8
0
100
AcDbLine
 10
6.89
 20
69.666
 30
0.0
 11
6.89
 21
69.783
 31
0.0
  0
LINE
  5
B6B
330
A35
100
AcDbEntity
  8
0
100
AcDbLine
 10
6.833
 20
69.666
 30
0.0
 11
6.833
 21
69.666
 31
0.0
  0
LINE
  5
B6C
330
A35
100
AcDbEntity
  8
0
100
AcDbLine
 10
6.13
 20
69.783
 30
0.0
 11
6.07
 21
69.666
 31
0.0
  0
LINE
  5
B6D
330
A35
100
AcDbEntity
  8
0
100
AcDbLine
 10
6.13
 20
69.666
 30
0.0
 11
6.13
 21
69.783
 31
0.0
  0
LINE
  5
B6E
330
A35
100
AcDbEntity
  8
0
100
AcDbLine
 10
23.864
 20
82.777
 30
0.0
 11
23.805
 21
82.66
 31
0.0
  0
LINE
  5
B6F
330
A35
100
AcDbEntity
  8
0
100
AcDbLine
 10
23.864
 20
82.777
 30
0.0
 11
23.748
 21
82.66
 31
0.0
  0
LINE
  5
B70
330
A35
100
AcDbEntity
  8
0
100
AcDbLine
 10
23.805
 20
82.133
 30
0.0
 11
23.805
 21
82.133
 31
0.0
  0
LINE
  5
B71
330
A35
100
AcDbEntity
  8
0
100
AcDbLine
 10
6.657
 20
69.081
 30
0.0
 11
6.657
 21
69.081
 31
0.0
  0
LINE
  5
B72
330
A35
100
AcDbEntity
  8
0
100
AcDbLine
 10
13.152
 20
74.056
 30
0.0
 11
13.211
 21
74.115
 31
0.0
  0
LINE
  5
B73
330
A35
100
AcDbEntity
  8
0
100
AcDbLine
 10
16.841
 20
76.924
 30
0.0
 11
17.016
 21
77.041
 31
0.0
  0
LINE
  5
B74
330
A35
100
AcDbEntity
  8
0
100
AcDbLine
 10
13.211
 20
74.173
 30
0.0
 11
6.657
 21
69.081
 31
0.0
  0
LINE
  5
B75
330
A35
100
AcDbEntity
  8
0
100
AcDbLine
 10
6.657
 20
70.311
 30
0.0
 11
6.657
 21
70.427
 31
0.0
  0
LINE
  5
B76
330
A35
100
AcDbEntity
  8
0
100
AcDbLine
 10
6.774
 20
70.251
 30
0.0
 11
6.833
 21
70.367
 31
0.0
  0
LINE
  5
B77
330
A35
100
AcDbEntity
  8
0
100
AcDbLine
 10
6.714
 20
70.251
 30
0.0
 11
6.657
 21
70.311
 31
0.0
  0
LINE
  5
B78
330
A35
100
AcDbEntity
  8
0
100
AcDbLine
 10
16.841
 20
76.924
 30
0.0
 11
23.805
 21
82.073
 31
0.0
  0
LINE
  5
B79
330
A35
100
AcDbEntity
  8
0
100
AcDbLine
 10
23.805
 20
82.133
 30
0.0
 11
23.63
 21
82.073
 31
0.0
  0
LINE
  5
B7A
330
A35
100
AcDbEntity
  8
0
100
AcDbLine
 10
23.572
 20
82.017
 30
0.0
 11
23.63
 21
82.073
 31
0.0
  0
LINE
  5
B7B
330
A35
100
AcDbEntity
  8
0
100
AcDbLine
 10
13.68
 20
75.519
 30
0.0
 11
6.833
 21
70.367
 31
0.0
  0
LINE
  5
B7C
330
A35
100
AcDbEntity
  8
0
100
AcDbLine
 10
6.657
 20
70.427
 30
0.0
 11
23.63
 21
83.48
 31
0.0
  0
LINE
  5
B7D
330
A35
100
AcDbEntity
  8
0
100
AcDbLine
 10
23.864
 20
83.361
 30
0.0
 11
13.68
 21
75.519
 31
0.0
  0
LINE
  5
B7E
330
A35
100
AcDbEntity
  8
0
100
AcDbLine
 10
23.63
 20
83.48
 30
0.0
 11
23.864
 21
83.421
 31
0.0
  0
LINE
  5
B7F
330
A35
100
AcDbEntity
  8
0
100
AcDbLine
 10
23.805
 20
83.421
 30
0.0
 11
23.805
 21
83.48
 31
0.0
  0
LINE
  5
B80
330
A35
100
AcDbEntity
  8
0
100
AcDbLine
 10
23.805
 20
83.421
 30
0.0
 11
23.864
 21
83.421
 31
0.0
  0
LINE
  5
B81
330
A35
100
AcDbEntity
  8
0
100
AcDbLine
 10
23.805
 20
83.421
 30
0.0
 11
23.63
 21
83.48
 31
0.0
  0
LINE
  5
B82
330
A35
100
AcDbEntity
  8
0
100
AcDbLine
 10
23.63
 20
83.421
 30
0.0
 11
6.657
 21
70.427
 31
0.0
  0
LINE
  5
B83
330
A35
100
AcDbEntity
  8
0
100
AcDbLine
 10
23.923
 20
82.192
 30
0.0
 11
23.923
 21
83.361
 31
0.0
  0
LINE
  5
B84
330
A35
100
AcDbEntity
  8
0
100
AcDbLine
 10
23.864
 20
83.361
 30
0.0
 11
23.864
 21
82.192
 31
0.0
  0
LINE
  5
B85
330
A35
100
AcDbEntity
  8
0
100
AcDbLine
 10
6.774
 20
70.251
 30
0.0
 11
6.714
 21
70.311
 31
0.0
  0
LINE
  5
B86
330
A35
100
AcDbEntity
  8
0
100
AcDbLine
 10
23.864
 20
82.777
 30
0.0
 11
23.864
 21
82.835
 31
0.0
  0
LINE
  5
B87
330
A35
100
AcDbEntity
  8
0
100
AcDbLine
 10
12.451
 20
73.822
 30
0.0
 11
12.568
 21
73.997
 31
0.0
  0
LINE
  5
B88
330
A35
100
AcDbEntity
  8
0
100
AcDbLine
 10
6.833
 20
69.725
 30
0.0
 11
6.89
 21
69.842
 31
0.0
  0
LINE
  5
B89
330
A35
100
AcDbEntity
  8
0
100
AcDbLine
 10
17.952
 20
78.68
 30
0.0
 11
17.895
 21
78.737
 31
0.0
  0
LINE
  5
B8A
330
A35
100
AcDbEntity
  8
0
100
AcDbLine
 10
18.186
 20
78.152
 30
0.0
 11
18.186
 21
78.211
 31
0.0
  0
LINE
  5
B8B
330
A35
100
AcDbEntity
  8
0
100
AcDbLine
 10
17.542
 20
77.743
 30
0.0
 11
17.542
 21
77.802
 31
0.0
  0
LINE
  5
B8C
330
A35
100
AcDbEntity
  8
0
100
AcDbLine
 10
17.719
 20
78.387
 30
0.0
 11
17.952
 21
78.68
 31
0.0
  0
LINE
  5
B8D
330
A35
100
AcDbEntity
  8
0
100
AcDbLine
 10
17.31
 20
77.451
 30
0.0
 11
17.542
 21
77.743
 31
0.0
  0
LINE
  5
B8E
330
A35
100
AcDbEntity
  8
0
100
AcDbLine
 10
17.542
 20
77.802
 30
0.0
 11
17.31
 21
77.451
 31
0.0
  0
LINE
  5
B8F
330
A35
100
AcDbEntity
  8
0
100
AcDbLine
 10
17.895
 20
78.737
 30
0.0
 11
17.719
 21
78.387
 31
0.0
  0
LINE
  5
B90
330
A35
100
AcDbEntity
  8
0
100
AcDbLine
 10
17.952
 20
78.737
 30
0.0
 11
17.719
 21
78.387
 31
0.0
  0
LINE
  5
B91
330
A35
100
AcDbEntity
  8
0
100
AcDbLine
 10
15.494
 20
75.929
 30
0.0
 11
15.437
 21
75.988
 31
0.0
  0
LINE
  5
B92
330
A35
100
AcDbEntity
  8
0
100
AcDbLine
 10
15.437
 20
75.988
 30
0.0
 11
15.143
 21
75.636
 31
0.0
  0
LINE
  5
B93
330
A35
100
AcDbEntity
  8
0
100
AcDbLine
 10
13.095
 20
74.29
 30
0.0
 11
13.33
 21
74.641
 31
0.0
  0
LINE
  5
B94
330
A35
100
AcDbEntity
  8
0
100
AcDbLine
 10
13.152
 20
74.29
 30
0.0
 11
13.387
 21
74.641
 31
0.0
  0
LINE
  5
B95
330
A35
100
AcDbEntity
  8
0
100
AcDbLine
 10
13.33
 20
74.641
 30
0.0
 11
13.152
 21
74.29
 31
0.0
  0
LINE
  5
B96
330
A35
100
AcDbEntity
  8
0
100
AcDbLine
 10
13.152
 20
74.232
 30
0.0
 11
13.095
 21
74.29
 31
0.0
  0
LINE
  5
B97
330
A35
100
AcDbEntity
  8
0
100
AcDbLine
 10
6.833
 20
69.666
 30
0.0
 11
6.833
 21
69.725
 31
0.0
  0
LINE
  5
B98
330
A35
100
AcDbEntity
  8
0
100
AcDbLine
 10
23.805
 20
82.717
 30
0.0
 11
23.748
 21
82.66
 31
0.0
  0
LINE
  5
B99
330
A35
100
AcDbEntity
  8
0
100
AcDbLine
 10
23.864
 20
82.835
 30
0.0
 11
23.748
 21
82.66
 31
0.0
  0
LINE
  5
B9A
330
A35
100
AcDbEntity
  8
0
100
AcDbLine
 10
32.293
 20
53.746
 30
0.0
 11
29.892
 21
51.932
 31
0.0
  0
LINE
  5
B9B
330
A35
100
AcDbEntity
  8
0
100
AcDbLine
 10
32.293
 20
53.746
 30
0.0
 11
32.234
 21
53.746
 31
0.0
  0
LINE
  5
B9C
330
A35
100
AcDbEntity
  8
0
100
AcDbLine
 10
29.892
 20
51.932
 30
0.0
 11
29.892
 21
51.989
 31
0.0
  0
LINE
  5
B9D
330
A35
100
AcDbEntity
  8
0
100
AcDbLine
 10
7.242
 20
66.74
 30
0.0
 11
7.652
 21
66.974
 31
0.0
  0
LINE
  5
B9E
330
A35
100
AcDbEntity
  8
0
100
AcDbLine
 10
7.242
 20
66.74
 30
0.0
 11
7.652
 21
67.031
 31
0.0
  0
LINE
  5
B9F
330
A35
100
AcDbEntity
  8
0
100
AcDbLine
 10
31.824
 20
53.452
 30
0.0
 11
32.234
 21
53.746
 31
0.0
  0
LINE
  5
BA0
330
A35
100
AcDbEntity
  8
0
100
AcDbLine
 10
7.242
 20
66.74
 30
0.0
 11
31.824
 21
53.452
 31
0.0
  0
LINE
  5
BA1
330
A35
100
AcDbEntity
  8
0
100
AcDbLine
 10
7.652
 20
66.974
 30
0.0
 11
7.652
 21
67.031
 31
0.0
  0
LINE
  5
BA2
330
A35
100
AcDbEntity
  8
0
100
AcDbLine
 10
32.234
 20
53.746
 30
0.0
 11
32.234
 21
53.805
 31
0.0
  0
LINE
  5
BA3
330
A35
100
AcDbEntity
  8
0
100
AcDbLine
 10
31.824
 20
53.452
 30
0.0
 11
31.824
 21
53.452
 31
0.0
  0
LINE
  5
BA4
330
A35
100
AcDbEntity
  8
0
100
AcDbLine
 10
7.242
 20
66.74
 30
0.0
 11
7.242
 21
66.74
 31
0.0
  0
LINE
  5
BA5
330
A35
100
AcDbEntity
  8
0
100
AcDbLine
 10
5.31
 20
65.276
 30
0.0
 11
5.31
 21
65.217
 31
0.0
  0
LINE
  5
BA6
330
A35
100
AcDbEntity
  8
0
100
AcDbLine
 10
5.545
 20
69.022
 30
0.0
 11
5.836
 21
69.197
 31
0.0
  0
LINE
  5
BA7
330
A35
100
AcDbEntity
  8
0
100
AcDbLine
 10
5.545
 20
69.022
 30
0.0
 11
5.486
 21
68.262
 31
0.0
  0
LINE
  5
BA8
330
A35
100
AcDbEntity
  8
0
100
AcDbLine
 10
7.242
 20
66.74
 30
0.0
 11
5.31
 21
65.276
 31
0.0
  0
LINE
  5
BA9
330
A35
100
AcDbEntity
  8
0
100
AcDbLine
 10
5.545
 20
65.921
 30
0.0
 11
5.72
 21
65.978
 31
0.0
  0
LINE
  5
BAA
330
A35
100
AcDbEntity
  8
0
100
AcDbLine
 10
6.657
 20
70.135
 30
0.0
 11
6.714
 21
70.251
 31
0.0
  0
LINE
  5
BAB
330
A35
100
AcDbEntity
  8
0
100
AcDbLine
 10
7.593
 20
67.149
 30
0.0
 11
7.652
 21
67.09
 31
0.0
  0
LINE
  5
BAC
330
A35
100
AcDbEntity
  8
0
100
AcDbLine
 10
7.652
 20
67.031
 30
0.0
 11
7.652
 21
67.031
 31
0.0
  0
LINE
  5
BAD
330
A35
100
AcDbEntity
  8
0
100
AcDbLine
 10
7.593
 20
67.09
 30
0.0
 11
7.652
 21
67.031
 31
0.0
  0
LINE
  5
BAE
330
A35
100
AcDbEntity
  8
0
100
AcDbLine
 10
5.545
 20
68.495
 30
0.0
 11
5.661
 21
68.613
 31
0.0
  0
LINE
  5
BAF
330
A35
100
AcDbEntity
  8
0
100
AcDbLine
 10
5.545
 20
68.495
 30
0.0
 11
5.604
 21
68.554
 31
0.0
  0
LINE
  5
BB0
330
A35
100
AcDbEntity
  8
0
100
AcDbLine
 10
5.545
 20
68.437
 30
0.0
 11
5.545
 21
68.495
 31
0.0
  0
LINE
  5
BB1
330
A35
100
AcDbEntity
  8
0
100
AcDbLine
 10
5.604
 20
68.495
 30
0.0
 11
5.545
 21
68.437
 31
0.0
  0
LINE
  5
BB2
330
A35
100
AcDbEntity
  8
0
100
AcDbLine
 10
5.251
 20
65.217
 30
0.0
 11
5.31
 21
65.217
 31
0.0
  0
LINE
  5
BB3
330
A35
100
AcDbEntity
  8
0
100
AcDbLine
 10
5.194
 20
65.276
 30
0.0
 11
5.251
 21
65.217
 31
0.0
  0
LINE
  5
BB4
330
A35
100
AcDbEntity
  8
0
100
AcDbLine
 10
5.31
 20
65.393
 30
0.0
 11
5.31
 21
65.393
 31
0.0
  0
LINE
  5
BB5
330
A35
100
AcDbEntity
  8
0
100
AcDbLine
 10
5.72
 20
65.511
 30
0.0
 11
5.72
 21
65.568
 31
0.0
  0
LINE
  5
BB6
330
A35
100
AcDbEntity
  8
0
100
AcDbLine
 10
5.486
 20
65.393
 30
0.0
 11
5.486
 21
65.393
 31
0.0
  0
LINE
  5
BB7
330
A35
100
AcDbEntity
  8
0
100
AcDbLine
 10
5.72
 20
65.511
 30
0.0
 11
5.369
 21
65.217
 31
0.0
  0
LINE
  5
BB8
330
A35
100
AcDbEntity
  8
0
100
AcDbLine
 10
5.369
 20
65.276
 30
0.0
 11
5.72
 21
65.511
 31
0.0
  0
LINE
  5
BB9
330
A35
100
AcDbEntity
  8
0
100
AcDbLine
 10
5.31
 20
65.276
 30
0.0
 11
5.369
 21
65.276
 31
0.0
  0
LINE
  5
BBA
330
A35
100
AcDbEntity
  8
0
100
AcDbLine
 10
5.31
 20
65.217
 30
0.0
 11
5.31
 21
65.217
 31
0.0
  0
LINE
  5
BBB
330
A35
100
AcDbEntity
  8
0
100
AcDbLine
 10
5.779
 20
69.197
 30
0.0
 11
5.779
 21
69.197
 31
0.0
  0
LINE
  5
BBC
330
A35
100
AcDbEntity
  8
0
100
AcDbLine
 10
5.779
 20
69.256
 30
0.0
 11
5.836
 21
69.256
 31
0.0
  0
LINE
  5
BBD
330
A35
100
AcDbEntity
  8
0
100
AcDbLine
 10
5.779
 20
69.256
 30
0.0
 11
5.836
 21
69.197
 31
0.0
  0
LINE
  5
BBE
330
A35
100
AcDbEntity
  8
0
100
AcDbLine
 10
5.779
 20
69.197
 30
0.0
 11
5.779
 21
69.138
 31
0.0
  0
LINE
  5
BBF
330
A35
100
AcDbEntity
  8
0
100
AcDbLine
 10
5.779
 20
69.197
 30
0.0
 11
5.779
 21
69.256
 31
0.0
  0
LINE
  5
BC0
330
A35
100
AcDbEntity
  8
0
100
AcDbLine
 10
5.72
 20
69.197
 30
0.0
 11
5.72
 21
69.138
 31
0.0
  0
LINE
  5
BC1
330
A35
100
AcDbEntity
  8
0
100
AcDbLine
 10
5.72
 20
65.978
 30
0.0
 11
5.72
 21
66.037
 31
0.0
  0
LINE
  5
BC2
330
A35
100
AcDbEntity
  8
0
100
AcDbLine
 10
5.31
 20
65.217
 30
0.0
 11
29.892
 21
51.989
 31
0.0
  0
LINE
  5
BC3
330
A35
100
AcDbEntity
  8
0
100
AcDbLine
 10
30.302
 20
52.342
 30
0.0
 11
5.779
 21
65.568
 31
0.0
  0
LINE
  5
BC4
330
A35
100
AcDbEntity
  8
0
100
AcDbLine
 10
30.302
 20
54.272
 30
0.0
 11
30.302
 21
52.808
 31
0.0
  0
LINE
  5
BC5
330
A35
100
AcDbEntity
  8
0
100
AcDbLine
 10
30.302
 20
52.283
 30
0.0
 11
29.892
 21
51.989
 31
0.0
  0
LINE
  5
BC6
330
A35
100
AcDbEntity
  8
0
100
AcDbLine
 10
30.302
 20
52.342
 30
0.0
 11
30.302
 21
52.808
 31
0.0
  0
LINE
  5
BC7
330
A35
100
AcDbEntity
  8
0
100
AcDbLine
 10
5.72
 20
65.511
 30
0.0
 11
5.779
 21
65.627
 31
0.0
  0
LINE
  5
BC8
330
A35
100
AcDbEntity
  8
0
100
AcDbLine
 10
5.779
 20
69.256
 30
0.0
 11
5.72
 21
69.197
 31
0.0
  0
LINE
  5
BC9
330
A35
100
AcDbEntity
  8
0
100
AcDbLine
 10
30.302
 20
52.808
 30
0.0
 11
30.302
 21
52.867
 31
0.0
  0
LINE
  5
BCA
330
A35
100
AcDbEntity
  8
0
100
AcDbLine
 10
30.302
 20
52.283
 30
0.0
 11
30.302
 21
52.342
 31
0.0
  0
LINE
  5
BCB
330
A35
100
AcDbEntity
  8
0
100
AcDbLine
 10
29.892
 20
51.989
 30
0.0
 11
29.892
 21
51.989
 31
0.0
  0
LINE
  5
BCC
330
A35
100
AcDbEntity
  8
0
100
AcDbLine
 10
6.07
 20
69.666
 30
0.0
 11
6.07
 21
69.666
 31
0.0
  0
LINE
  5
BCD
330
A35
100
AcDbEntity
  8
0
100
AcDbLine
 10
5.604
 20
68.437
 30
0.0
 11
5.661
 21
68.613
 31
0.0
  0
LINE
  5
BCE
330
A35
100
AcDbEntity
  8
0
100
AcDbLine
 10
5.369
 20
65.217
 30
0.0
 11
5.31
 21
65.217
 31
0.0
  0
LINE
  5
BCF
330
A35
100
AcDbEntity
  8
0
100
AcDbLine
 10
13.211
 20
74.173
 30
0.0
 11
13.211
 21
73.471
 31
0.0
  0
LINE
  5
BD0
330
A35
100
AcDbEntity
  8
0
100
AcDbLine
 10
16.957
 20
76.164
 30
0.0
 11
16.9
 21
76.104
 31
0.0
  0
LINE
  5
BD1
330
A35
100
AcDbEntity
  8
0
100
AcDbLine
 10
16.841
 20
76.164
 30
0.0
 11
16.9
 21
76.164
 31
0.0
  0
LINE
  5
BD2
330
A35
100
AcDbEntity
  8
0
100
AcDbLine
 10
16.782
 20
76.164
 30
0.0
 11
16.782
 21
76.864
 31
0.0
  0
LINE
  5
BD3
330
A35
100
AcDbEntity
  8
0
100
AcDbLine
 10
16.841
 20
76.864
 30
0.0
 11
16.841
 21
76.164
 31
0.0
  0
LINE
  5
BD4
330
A35
100
AcDbEntity
  8
0
100
AcDbLine
 10
16.841
 20
76.864
 30
0.0
 11
16.841
 21
76.864
 31
0.0
  0
LINE
  5
BD5
330
A35
100
AcDbEntity
  8
0
100
AcDbLine
 10
16.841
 20
76.924
 30
0.0
 11
16.957
 21
76.864
 31
0.0
  0
LINE
  5
BD6
330
A35
100
AcDbEntity
  8
0
100
AcDbLine
 10
16.782
 20
76.924
 30
0.0
 11
13.211
 21
74.173
 31
0.0
  0
LINE
  5
BD7
330
A35
100
AcDbEntity
  8
0
100
AcDbLine
 10
13.33
 20
73.412
 30
0.0
 11
16.9
 21
76.104
 31
0.0
  0
LINE
  5
BD8
330
A35
100
AcDbEntity
  8
0
100
AcDbLine
 10
16.841
 20
76.164
 30
0.0
 11
17.426
 21
76.573
 31
0.0
  0
LINE
  5
BD9
330
A35
100
AcDbEntity
  8
0
100
AcDbLine
 10
16.841
 20
76.864
 30
0.0
 11
16.9
 21
76.864
 31
0.0
  0
LINE
  5
BDA
330
A35
100
AcDbEntity
  8
0
100
AcDbLine
 10
17.719
 20
78.387
 30
0.0
 11
17.719
 21
78.446
 31
0.0
  0
LINE
  5
BDB
330
A35
100
AcDbEntity
  8
0
100
AcDbLine
 10
16.957
 20
76.164
 30
0.0
 11
16.841
 21
76.164
 31
0.0
  0
LINE
  5
BDC
330
A35
100
AcDbEntity
  8
0
100
AcDbLine
 10
16.9
 20
76.164
 30
0.0
 11
16.957
 21
76.164
 31
0.0
  0
LINE
  5
BDD
330
A35
100
AcDbEntity
  8
0
100
AcDbLine
 10
13.211
 20
74.232
 30
0.0
 11
13.211
 21
74.173
 31
0.0
  0
LINE
  5
BDE
330
A35
100
AcDbEntity
  8
0
100
AcDbLine
 10
16.782
 20
76.924
 30
0.0
 11
16.782
 21
76.924
 31
0.0
  0
LINE
  5
BDF
330
A35
100
AcDbEntity
  8
0
100
AcDbLine
 10
16.9
 20
76.104
 30
0.0
 11
16.782
 21
76.164
 31
0.0
  0
LINE
  5
BE0
330
A35
100
AcDbEntity
  8
0
100
AcDbLine
 10
16.782
 20
76.924
 30
0.0
 11
16.841
 21
76.924
 31
0.0
  0
LINE
  5
BE1
330
A35
100
AcDbEntity
  8
0
100
AcDbLine
 10
16.841
 20
76.164
 30
0.0
 11
16.841
 21
76.164
 31
0.0
  0
LINE
  5
BE2
330
A35
100
AcDbEntity
  8
0
100
AcDbLine
 10
13.33
 20
73.412
 30
0.0
 11
13.211
 21
73.471
 31
0.0
  0
LINE
  5
BE3
330
A35
100
AcDbEntity
  8
0
100
AcDbLine
 10
39.375
 20
58.429
 30
0.0
 11
39.316
 21
58.486
 31
0.0
  0
LINE
  5
BE4
330
A35
100
AcDbEntity
  8
0
100
AcDbLine
 10
39.375
 20
58.429
 30
0.0
 11
39.375
 21
58.429
 31
0.0
  0
LINE
  5
BE5
330
A35
100
AcDbEntity
  8
0
100
AcDbLine
 10
41.072
 20
60.477
 30
0.0
 11
41.248
 21
60.593
 31
0.0
  0
LINE
  5
BE6
330
A35
100
AcDbEntity
  8
0
100
AcDbLine
 10
41.072
 20
60.477
 30
0.0
 11
41.072
 21
60.477
 31
0.0
  0
LINE
  5
BE7
330
A35
100
AcDbEntity
  8
0
100
AcDbLine
 10
41.072
 20
60.418
 30
0.0
 11
41.013
 21
60.477
 31
0.0
  0
LINE
  5
BE8
330
A35
100
AcDbEntity
  8
0
100
AcDbLine
 10
41.013
 20
60.536
 30
0.0
 11
41.189
 21
60.652
 31
0.0
  0
LINE
  5
BE9
330
A35
100
AcDbEntity
  8
0
100
AcDbLine
 10
41.072
 20
60.418
 30
0.0
 11
41.131
 21
60.359
 31
0.0
  0
LINE
  5
BEA
330
A35
100
AcDbEntity
  8
0
100
AcDbLine
 10
41.189
 20
59.892
 30
0.0
 11
41.189
 21
59.892
 31
0.0
  0
LINE
  5
BEB
330
A35
100
AcDbEntity
  8
0
100
AcDbLine
 10
41.248
 20
59.833
 30
0.0
 11
41.248
 21
59.892
 31
0.0
  0
LINE
  5
BEC
330
A35
100
AcDbEntity
  8
0
100
AcDbLine
 10
41.248
 20
60.593
 30
0.0
 11
41.248
 21
60.652
 31
0.0
  0
LINE
  5
BED
330
A35
100
AcDbEntity
  8
0
100
AcDbLine
 10
41.131
 20
60.652
 30
0.0
 11
41.189
 21
60.652
 31
0.0
  0
LINE
  5
BEE
330
A35
100
AcDbEntity
  8
0
100
AcDbLine
 10
41.131
 20
60.477
 30
0.0
 11
41.131
 21
60.477
 31
0.0
  0
LINE
  5
BEF
330
A35
100
AcDbEntity
  8
0
100
AcDbLine
 10
41.013
 20
60.536
 30
0.0
 11
41.013
 21
60.536
 31
0.0
  0
LINE
  5
BF0
330
A35
100
AcDbEntity
  8
0
100
AcDbLine
 10
41.189
 20
59.892
 30
0.0
 11
41.248
 21
59.949
 31
0.0
  0
LINE
  5
BF1
330
A35
100
AcDbEntity
  8
0
100
AcDbLine
 10
41.248
 20
59.892
 30
0.0
 11
41.307
 21
59.892
 31
0.0
  0
LINE
  5
BF2
330
A35
100
AcDbEntity
  8
0
100
AcDbLine
 10
41.072
 20
60.418
 30
0.0
 11
41.189
 21
59.949
 31
0.0
  0
LINE
  5
BF3
330
A35
100
AcDbEntity
  8
0
100
AcDbLine
 10
41.189
 20
59.892
 30
0.0
 11
40.897
 21
59.774
 31
0.0
  0
LINE
  5
BF4
330
A35
100
AcDbEntity
  8
0
100
AcDbLine
 10
41.248
 20
59.833
 30
0.0
 11
40.487
 21
59.364
 31
0.0
  0
LINE
  5
BF5
330
A35
100
AcDbEntity
  8
0
100
AcDbLine
 10
41.131
 20
60.359
 30
0.0
 11
41.307
 21
59.892
 31
0.0
  0
LINE
  5
BF6
330
A35
100
AcDbEntity
  8
0
100
AcDbLine
 10
41.013
 20
60.477
 30
0.0
 11
41.013
 21
60.477
 31
0.0
  0
LINE
  5
BF7
330
A35
100
AcDbEntity
  8
0
100
AcDbLine
 10
41.072
 20
60.418
 30
0.0
 11
41.072
 21
60.477
 31
0.0
  0
LINE
  5
BF8
330
A35
100
AcDbEntity
  8
0
100
AcDbLine
 10
40.897
 20
59.774
 30
0.0
 11
40.838
 21
59.715
 31
0.0
  0
LINE
  5
BF9
330
A35
100
AcDbEntity
  8
0
100
AcDbLine
 10
39.784
 20
58.955
 30
0.0
 11
39.668
 21
58.896
 31
0.0
  0
LINE
  5
BFA
330
A35
100
AcDbEntity
  8
0
100
AcDbLine
 10
40.369
 20
59.423
 30
0.0
 11
40.019
 21
59.13
 31
0.0
  0
LINE
  5
BFB
330
A35
100
AcDbEntity
  8
0
100
AcDbLine
 10
40.487
 20
59.364
 30
0.0
 11
39.375
 21
58.429
 31
0.0
  0
LINE
  5
BFC
330
A35
100
AcDbEntity
  8
0
100
AcDbLine
 10
40.487
 20
59.54
 30
0.0
 11
40.369
 21
59.423
 31
0.0
  0
LINE
  5
BFD
330
A35
100
AcDbEntity
  8
0
100
AcDbLine
 10
40.838
 20
59.715
 30
0.0
 11
40.722
 21
59.658
 31
0.0
  0
LINE
  5
BFE
330
A35
100
AcDbEntity
  8
0
100
AcDbLine
 10
39.668
 20
58.896
 30
0.0
 11
39.316
 21
58.429
 31
0.0
  0
LINE
  5
BFF
330
A35
100
AcDbEntity
  8
0
100
AcDbLine
 10
16.666
 20
73.118
 30
0.0
 11
16.666
 21
73.118
 31
0.0
  0
LINE
  5
C00
330
A35
100
AcDbEntity
  8
0
100
AcDbLine
 10
16.548
 20
73.763
 30
0.0
 11
16.607
 21
73.881
 31
0.0
  0
LINE
  5
C01
330
A35
100
AcDbEntity
  8
0
100
AcDbLine
 10
16.489
 20
73.706
 30
0.0
 11
16.548
 21
73.646
 31
0.0
  0
LINE
  5
C02
330
A35
100
AcDbEntity
  8
0
100
AcDbLine
 10
16.372
 20
73.763
 30
0.0
 11
16.372
 21
73.763
 31
0.0
  0
LINE
  5
C03
330
A35
100
AcDbEntity
  8
0
100
AcDbLine
 10
16.431
 20
73.822
 30
0.0
 11
16.548
 21
73.763
 31
0.0
  0
LINE
  5
C04
330
A35
100
AcDbEntity
  8
0
100
AcDbLine
 10
15.846
 20
73.471
 30
0.0
 11
15.846
 21
73.412
 31
0.0
  0
LINE
  5
C05
330
A35
100
AcDbEntity
  8
0
100
AcDbLine
 10
14.85
 20
72.652
 30
0.0
 11
14.85
 21
72.593
 31
0.0
  0
LINE
  5
C06
330
A35
100
AcDbEntity
  8
0
100
AcDbLine
 10
14.85
 20
72.652
 30
0.0
 11
14.85
 21
72.652
 31
0.0
  0
LINE
  5
C07
330
A35
100
AcDbEntity
  8
0
100
AcDbLine
 10
14.85
 20
72.593
 30
0.0
 11
14.85
 21
72.534
 31
0.0
  0
LINE
  5
C08
330
A35
100
AcDbEntity
  8
0
100
AcDbLine
 10
14.734
 20
72.534
 30
0.0
 11
14.734
 21
72.534
 31
0.0
  0
LINE
  5
C09
330
A35
100
AcDbEntity
  8
0
100
AcDbLine
 10
14.675
 20
71.715
 30
0.0
 11
14.734
 21
71.715
 31
0.0
  0
LINE
  5
C0A
330
A35
100
AcDbEntity
  8
0
100
AcDbLine
 10
14.85
 20
72.475
 30
0.0
 11
14.85
 21
72.534
 31
0.0
  0
LINE
  5
C0B
330
A35
100
AcDbEntity
  8
0
100
AcDbLine
 10
14.85
 20
72.475
 30
0.0
 11
14.85
 21
72.475
 31
0.0
  0
LINE
  5
C0C
330
A35
100
AcDbEntity
  8
0
100
AcDbLine
 10
14.793
 20
72.475
 30
0.0
 11
14.734
 21
72.534
 31
0.0
  0
LINE
  5
C0D
330
A35
100
AcDbEntity
  8
0
100
AcDbLine
 10
14.793
 20
71.715
 30
0.0
 11
14.793
 21
71.715
 31
0.0
  0
LINE
  5
C0E
330
A35
100
AcDbEntity
  8
0
100
AcDbLine
 10
14.675
 20
71.715
 30
0.0
 11
14.675
 21
71.715
 31
0.0
  0
LINE
  5
C0F
330
A35
100
AcDbEntity
  8
0
100
AcDbLine
 10
16.666
 20
73.118
 30
0.0
 11
16.723
 21
73.178
 31
0.0
  0
LINE
  5
C10
330
A35
100
AcDbEntity
  8
0
100
AcDbLine
 10
16.607
 20
73.881
 30
0.0
 11
16.666
 21
73.881
 31
0.0
  0
LINE
  5
C11
330
A35
100
AcDbEntity
  8
0
100
AcDbLine
 10
16.548
 20
73.763
 30
0.0
 11
16.548
 21
73.706
 31
0.0
  0
LINE
  5
C12
330
A35
100
AcDbEntity
  8
0
100
AcDbLine
 10
14.793
 20
71.715
 30
0.0
 11
14.734
 21
71.715
 31
0.0
  0
LINE
  5
C13
330
A35
100
AcDbEntity
  8
0
100
AcDbLine
 10
14.793
 20
72.475
 30
0.0
 11
14.85
 21
72.475
 31
0.0
  0
LINE
  5
C14
330
A35
100
AcDbEntity
  8
0
100
AcDbLine
 10
15.084
 20
72.008
 30
0.0
 11
15.143
 21
72.065
 31
0.0
  0
LINE
  5
C15
330
A35
100
AcDbEntity
  8
0
100
AcDbLine
 10
14.793
 20
71.715
 30
0.0
 11
15.084
 21
72.008
 31
0.0
  0
LINE
  5
C16
330
A35
100
AcDbEntity
  8
0
100
AcDbLine
 10
14.85
 20
72.475
 30
0.0
 11
14.675
 21
71.715
 31
0.0
  0
LINE
  5
C17
330
A35
100
AcDbEntity
  8
0
100
AcDbLine
 10
15.143
 20
72.065
 30
0.0
 11
16.197
 21
72.884
 31
0.0
  0
LINE
  5
C18
330
A35
100
AcDbEntity
  8
0
100
AcDbLine
 10
14.85
 20
72.593
 30
0.0
 11
14.85
 21
72.593
 31
0.0
  0
LINE
  5
C19
330
A35
100
AcDbEntity
  8
0
100
AcDbLine
 10
16.197
 20
72.884
 30
0.0
 11
16.666
 21
73.118
 31
0.0
  0
LINE
  5
C1A
330
A35
100
AcDbEntity
  8
0
100
AcDbLine
 10
16.548
 20
73.646
 30
0.0
 11
16.723
 21
73.118
 31
0.0
  0
LINE
  5
C1B
330
A35
100
AcDbEntity
  8
0
100
AcDbLine
 10
16.489
 20
73.706
 30
0.0
 11
16.489
 21
73.706
 31
0.0
  0
LINE
  5
C1C
330
A35
100
AcDbEntity
  8
0
100
AcDbLine
 10
39.316
 20
58.429
 30
0.0
 11
14.793
 21
71.715
 31
0.0
  0
LINE
  5
C1D
330
A35
100
AcDbEntity
  8
0
100
AcDbLine
 10
16.548
 20
73.646
 30
0.0
 11
41.013
 21
60.418
 31
0.0
  0
LINE
  5
C1E
330
A35
100
AcDbEntity
  8
0
100
AcDbLine
 10
40.838
 20
59.715
 30
0.0
 11
16.256
 21
72.943
 31
0.0
  0
LINE
  5
C1F
330
A35
100
AcDbEntity
  8
0
100
AcDbLine
 10
15.143
 20
72.065
 30
0.0
 11
39.668
 21
58.896
 31
0.0
  0
LINE
  5
C20
330
A35
100
AcDbEntity
  8
0
100
AcDbLine
 10
39.316
 20
58.429
 30
0.0
 11
39.316
 21
58.429
 31
0.0
  0
LINE
  5
C21
330
A35
100
AcDbEntity
  8
0
100
AcDbLine
 10
40.253
 20
59.364
 30
0.0
 11
15.728
 21
72.534
 31
0.0
  0
LINE
  5
C22
330
A35
100
AcDbEntity
  8
0
100
AcDbLine
 10
16.607
 20
73.938
 30
0.0
 11
41.072
 21
60.711
 31
0.0
  0
LINE
  5
C23
330
A35
100
AcDbEntity
  8
0
100
AcDbLine
 10
41.072
 20
60.652
 30
0.0
 11
41.072
 21
60.652
 31
0.0
  0
LINE
  5
C24
330
A35
100
AcDbEntity
  8
0
100
AcDbLine
 10
41.013
 20
60.536
 30
0.0
 11
41.072
 21
60.652
 31
0.0
  0
LINE
  5
C25
330
A35
100
AcDbEntity
  8
0
100
AcDbLine
 10
41.189
 20
59.892
 30
0.0
 11
16.666
 21
73.118
 31
0.0
  0
LINE
  5
C26
330
A35
100
AcDbEntity
  8
0
100
AcDbLine
 10
41.013
 20
60.418
 30
0.0
 11
41.189
 21
59.892
 31
0.0
  0
LINE
  5
C27
330
A35
100
AcDbEntity
  8
0
100
AcDbLine
 10
40.722
 20
59.658
 30
0.0
 11
40.253
 21
59.364
 31
0.0
  0
LINE
  5
C28
330
A35
100
AcDbEntity
  8
0
100
AcDbLine
 10
41.013
 20
60.536
 30
0.0
 11
41.013
 21
60.418
 31
0.0
  0
LINE
  5
C29
330
A35
100
AcDbEntity
  8
0
100
AcDbLine
 10
41.072
 20
60.652
 30
0.0
 11
41.072
 21
60.711
 31
0.0
  0
LINE
  5
C2A
330
A35
100
AcDbEntity
  8
0
100
AcDbLine
 10
40.253
 20
59.364
 30
0.0
 11
39.784
 21
58.955
 31
0.0
  0
LINE
  5
C2B
330
A35
100
AcDbEntity
  8
0
100
AcDbLine
 10
15.084
 20
72.008
 30
0.0
 11
15.494
 21
72.358
 31
0.0
  0
LINE
  5
C2C
330
A35
100
AcDbEntity
  8
0
100
AcDbLine
 10
16.197
 20
72.884
 30
0.0
 11
16.372
 21
73.002
 31
0.0
  0
LINE
  5
C2D
330
A35
100
AcDbEntity
  8
0
100
AcDbLine
 10
15.963
 20
72.709
 30
0.0
 11
16.197
 21
72.884
 31
0.0
  0
LINE
  5
C2E
330
A35
100
AcDbEntity
  8
0
100
AcDbLine
 10
23.63
 20
79.324
 30
0.0
 11
16.607
 21
73.997
 31
0.0
  0
LINE
  5
C2F
330
A35
100
AcDbEntity
  8
0
100
AcDbLine
 10
48.33
 20
65.978
 30
0.0
 11
23.63
 21
79.324
 31
0.0
  0
LINE
  5
C30
330
A35
100
AcDbEntity
  8
0
100
AcDbLine
 10
23.63
 20
79.324
 30
0.0
 11
23.63
 21
79.381
 31
0.0
  0
LINE
  5
C31
330
A35
100
AcDbEntity
  8
0
100
AcDbLine
 10
24.039
 20
79.616
 30
0.0
 11
24.039
 21
79.616
 31
0.0
  0
LINE
  5
C32
330
A35
100
AcDbEntity
  8
0
100
AcDbLine
 10
41.307
 20
60.593
 30
0.0
 11
48.33
 21
66.037
 31
0.0
  0
LINE
  5
C33
330
A35
100
AcDbEntity
  8
0
100
AcDbLine
 10
16.607
 20
73.938
 30
0.0
 11
41.307
 21
60.593
 31
0.0
  0
LINE
  5
C34
330
A35
100
AcDbEntity
  8
0
100
AcDbLine
 10
53.422
 20
69.022
 30
0.0
 11
28.547
 21
50.0
 31
0.0
  0
LINE
  5
C35
330
A35
100
AcDbEntity
  8
0
100
AcDbLine
 10
41.189
 20
60.243
 30
0.0
 11
53.013
 21
69.256
 31
0.0
  0
LINE
  5
C36
330
A35
100
AcDbEntity
  8
0
100
AcDbLine
 10
28.488
 20
50.0
 30
0.0
 11
28.429
 21
50.059
 31
0.0
  0
LINE
  5
C37
330
A35
100
AcDbEntity
  8
0
100
AcDbLine
 10
48.33
 20
65.978
 30
0.0
 11
50.787
 21
67.793
 31
0.0
  0
LINE
  5
C38
330
A35
100
AcDbEntity
  8
0
100
AcDbLine
 10
50.906
 20
67.91
 30
0.0
 11
51.14
 21
68.144
 31
0.0
  0
LINE
  5
C39
330
A35
100
AcDbEntity
  8
0
100
AcDbLine
 10
41.307
 20
60.593
 30
0.0
 11
41.072
 21
60.418
 31
0.0
  0
LINE
  5
C3A
330
A35
100
AcDbEntity
  8
0
100
AcDbLine
 10
50.787
 20
68.085
 30
0.0
 11
50.965
 21
68.262
 31
0.0
  0
LINE
  5
C3B
330
A35
100
AcDbEntity
  8
0
100
AcDbLine
 10
50.965
 20
68.262
 30
0.0
 11
50.787
 21
68.144
 31
0.0
  0
LINE
  5
C3C
330
A35
100
AcDbEntity
  8
0
100
AcDbLine
 10
39.259
 20
58.545
 30
0.0
 11
28.488
 21
50.294
 31
0.0
  0
LINE
  5
C3D
330
A35
100
AcDbEntity
  8
0
100
AcDbLine
 10
29.425
 20
51.757
 30
0.0
 11
29.601
 21
51.873
 31
0.0
  0
LINE
  5
C3E
330
A35
100
AcDbEntity
  8
0
100
AcDbLine
 10
39.609
 20
58.661
 30
0.0
 11
41.072
 21
59.774
 31
0.0
  0
LINE
  5
C3F
330
A35
100
AcDbEntity
  8
0
100
AcDbLine
 10
53.422
 20
69.316
 30
0.0
 11
53.422
 21
69.081
 31
0.0
  0
LINE
  5
C40
330
A35
100
AcDbEntity
  8
0
100
AcDbLine
 10
53.422
 20
69.081
 30
0.0
 11
53.422
 21
69.081
 31
0.0
  0
LINE
  5
C41
330
A35
100
AcDbEntity
  8
0
100
AcDbLine
 10
53.481
 20
69.081
 30
0.0
 11
53.481
 21
69.316
 31
0.0
  0
LINE
  5
C42
330
A35
100
AcDbEntity
  8
0
100
AcDbLine
 10
28.547
 20
50.234
 30
0.0
 11
28.547
 21
50.175
 31
0.0
  0
LINE
  5
C43
330
A35
100
AcDbEntity
  8
0
100
AcDbLine
 10
52.838
 20
69.666
 30
0.0
 11
51.315
 21
68.495
 31
0.0
  0
LINE
  5
C44
330
A35
100
AcDbEntity
  8
0
100
AcDbLine
 10
53.304
 20
69.138
 30
0.0
 11
41.248
 21
59.949
 31
0.0
  0
LINE
  5
C45
330
A35
100
AcDbEntity
  8
0
100
AcDbLine
 10
28.547
 20
51.932
 30
0.0
 11
28.254
 21
51.697
 31
0.0
  0
LINE
  5
C46
330
A35
100
AcDbEntity
  8
0
100
AcDbLine
 10
41.248
 20
60.068
 30
0.0
 11
53.422
 21
69.373
 31
0.0
  0
LINE
  5
C47
330
A35
100
AcDbEntity
  8
0
100
AcDbLine
 10
32.352
 20
53.746
 30
0.0
 11
29.951
 21
51.932
 31
0.0
  0
LINE
  5
C48
330
A35
100
AcDbEntity
  8
0
100
AcDbLine
 10
29.248
 20
51.638
 30
0.0
 11
27.903
 21
50.585
 31
0.0
  0
LINE
  5
C49
330
A35
100
AcDbEntity
  8
0
100
AcDbLine
 10
28.195
 20
51.757
 30
0.0
 11
28.137
 21
51.757
 31
0.0
  0
LINE
  5
C4A
330
A35
100
AcDbEntity
  8
0
100
AcDbLine
 10
28.078
 20
51.814
 30
0.0
 11
28.078
 21
52.224
 31
0.0
  0
LINE
  5
C4B
330
A35
100
AcDbEntity
  8
0
100
AcDbLine
 10
28.372
 20
52.048
 30
0.0
 11
28.078
 21
51.814
 31
0.0
  0
LINE
  5
C4C
330
A35
100
AcDbEntity
  8
0
100
AcDbLine
 10
28.254
 20
50.526
 30
0.0
 11
27.962
 21
50.234
 31
0.0
  0
LINE
  5
C4D
330
A35
100
AcDbEntity
  8
0
100
AcDbLine
 10
27.903
 20
50.351
 30
0.0
 11
29.425
 21
51.522
 31
0.0
  0
LINE
  5
C4E
330
A35
100
AcDbEntity
  8
0
100
AcDbLine
 10
27.903
 20
50.585
 30
0.0
 11
27.903
 21
50.351
 31
0.0
  0
LINE
  5
C4F
330
A35
100
AcDbEntity
  8
0
100
AcDbLine
 10
29.601
 20
51.638
 30
0.0
 11
29.835
 21
51.757
 31
0.0
  0
LINE
  5
C50
330
A35
100
AcDbEntity
  8
0
100
AcDbLine
 10
52.838
 20
69.373
 30
0.0
 11
52.838
 21
69.373
 31
0.0
  0
LINE
  5
C51
330
A35
100
AcDbEntity
  8
0
100
AcDbLine
 10
52.954
 20
69.316
 30
0.0
 11
53.013
 21
69.316
 31
0.0
  0
LINE
  5
C52
330
A35
100
AcDbEntity
  8
0
100
AcDbLine
 10
52.838
 20
69.666
 30
0.0
 11
52.838
 21
69.666
 31
0.0
  0
LINE
  5
C53
330
A35
100
AcDbEntity
  8
0
100
AcDbLine
 10
53.129
 20
69.548
 30
0.0
 11
53.129
 21
69.548
 31
0.0
  0
LINE
  5
C54
330
A35
100
AcDbEntity
  8
0
100
AcDbLine
 10
52.838
 20
69.432
 30
0.0
 11
51.315
 21
68.262
 31
0.0
  0
LINE
  5
C55
330
A35
100
AcDbEntity
  8
0
100
AcDbLine
 10
53.013
 20
69.256
 30
0.0
 11
53.013
 21
69.256
 31
0.0
  0
LINE
  5
C56
330
A35
100
AcDbEntity
  8
0
100
AcDbLine
 10
53.013
 20
69.316
 30
0.0
 11
52.838
 21
69.316
 31
0.0
  0
LINE
  5
C57
330
A35
100
AcDbEntity
  8
0
100
AcDbLine
 10
52.838
 20
69.373
 30
0.0
 11
53.013
 21
69.316
 31
0.0
  0
LINE
  5
C58
330
A35
100
AcDbEntity
  8
0
100
AcDbLine
 10
53.013
 20
69.256
 30
0.0
 11
52.838
 21
69.316
 31
0.0
  0
LINE
  5
C59
330
A35
100
AcDbEntity
  8
0
100
AcDbLine
 10
53.304
 20
69.138
 30
0.0
 11
53.304
 21
69.138
 31
0.0
  0
LINE
  5
C5A
330
A35
100
AcDbEntity
  8
0
100
AcDbLine
 10
53.304
 20
69.081
 30
0.0
 11
53.422
 21
69.022
 31
0.0
  0
LINE
  5
C5B
330
A35
100
AcDbEntity
  8
0
100
AcDbLine
 10
53.129
 20
69.548
 30
0.0
 11
52.895
 21
69.373
 31
0.0
  0
LINE
  5
C5C
330
A35
100
AcDbEntity
  8
0
100
AcDbLine
 10
28.254
 20
51.697
 30
0.0
 11
28.254
 21
50.878
 31
0.0
  0
LINE
  5
C5D
330
A35
100
AcDbEntity
  8
0
100
AcDbLine
 10
39.081
 20
58.604
 30
0.0
 11
28.078
 21
50.234
 31
0.0
  0
LINE
  5
C5E
330
A35
100
AcDbEntity
  8
0
100
AcDbLine
 10
28.372
 20
50.41
 30
0.0
 11
28.488
 21
50.294
 31
0.0
  0
LINE
  5
C5F
330
A35
100
AcDbEntity
  8
0
100
AcDbLine
 10
28.078
 20
50.234
 30
0.0
 11
27.962
 21
50.234
 31
0.0
  0
LINE
  5
C60
330
A35
100
AcDbEntity
  8
0
100
AcDbLine
 10
28.078
 20
50.234
 30
0.0
 11
28.078
 21
50.234
 31
0.0
  0
LINE
  5
C61
330
A35
100
AcDbEntity
  8
0
100
AcDbLine
 10
28.429
 20
50.116
 30
0.0
 11
39.316
 21
58.429
 31
0.0
  0
LINE
  5
C62
330
A35
100
AcDbEntity
  8
0
100
AcDbLine
 10
27.962
 20
50.644
 30
0.0
 11
27.903
 21
50.585
 31
0.0
  0
LINE
  5
C63
330
A35
100
AcDbEntity
  8
0
100
AcDbLine
 10
53.422
 20
69.022
 30
0.0
 11
53.481
 21
69.081
 31
0.0
  0
LINE
  5
C64
330
A35
100
AcDbEntity
  8
0
100
AcDbLine
 10
28.547
 20
50.234
 30
0.0
 11
28.488
 21
50.294
 31
0.0
  0
LINE
  5
C65
330
A35
100
AcDbEntity
  8
0
100
AcDbLine
 10
28.254
 20
51.697
 30
0.0
 11
28.195
 21
51.757
 31
0.0
  0
LINE
  5
C66
330
A35
100
AcDbEntity
  8
0
100
AcDbLine
 10
28.078
 20
51.873
 30
0.0
 11
28.137
 21
51.757
 31
0.0
  0
LINE
  5
C67
330
A35
100
AcDbEntity
  8
0
100
AcDbLine
 10
53.422
 20
69.316
 30
0.0
 11
53.422
 21
69.373
 31
0.0
  0
LINE
  5
C68
330
A35
100
AcDbEntity
  8
0
100
AcDbLine
 10
52.838
 20
69.432
 30
0.0
 11
52.895
 21
69.373
 31
0.0
  0
LINE
  5
C69
330
A35
100
AcDbEntity
  8
0
100
AcDbLine
 10
53.07
 20
69.548
 30
0.0
 11
53.129
 21
69.548
 31
0.0
  0
LINE
  5
C6A
330
A35
100
AcDbEntity
  8
0
100
AcDbLine
 10
52.838
 20
69.432
 30
0.0
 11
52.838
 21
69.316
 31
0.0
  0
LINE
  5
C6B
330
A35
100
AcDbEntity
  8
0
100
AcDbLine
 10
53.304
 20
69.138
 30
0.0
 11
53.304
 21
69.081
 31
0.0
  0
LINE
  5
C6C
330
A35
100
AcDbEntity
  8
0
100
AcDbLine
 10
53.013
 20
69.316
 30
0.0
 11
53.013
 21
69.256
 31
0.0
  0
LINE
  5
C6D
330
A35
100
AcDbEntity
  8
0
100
AcDbLine
 10
53.188
 20
69.491
 30
0.0
 11
53.129
 21
69.548
 31
0.0
  0
LINE
  5
C6E
330
A35
100
AcDbEntity
  8
0
100
AcDbLine
 10
27.903
 20
50.351
 30
0.0
 11
27.962
 21
50.234
 31
0.0
  0
LINE
  5
C6F
330
A35
100
AcDbEntity
  8
0
100
AcDbLine
 10
53.422
 20
69.022
 30
0.0
 11
53.422
 21
69.022
 31
0.0
  0
LINE
  5
C70
330
A35
100
AcDbEntity
  8
0
100
AcDbLine
 10
53.481
 20
69.316
 30
0.0
 11
53.422
 21
69.373
 31
0.0
  0
LINE
  5
C71
330
A35
100
AcDbEntity
  8
0
100
AcDbLine
 10
28.429
 20
50.116
 30
0.0
 11
28.429
 21
50.059
 31
0.0
  0
LINE
  5
C72
330
A35
100
AcDbEntity
  8
0
100
AcDbLine
 10
28.547
 20
50.0
 30
0.0
 11
28.488
 21
50.0
 31
0.0
  0
LINE
  5
C73
330
A35
100
AcDbEntity
  8
0
100
AcDbLine
 10
3.087
 20
63.989
 30
0.0
 11
5.545
 21
65.921
 31
0.0
  0
LINE
  5
C74
330
A35
100
AcDbEntity
  8
0
100
AcDbLine
 10
4.783
 20
64.926
 30
0.0
 11
4.666
 21
64.867
 31
0.0
  0
LINE
  5
C75
330
A35
100
AcDbEntity
  8
0
100
AcDbLine
 10
3.087
 20
63.695
 30
0.0
 11
3.028
 21
63.754
 31
0.0
  0
LINE
  5
C76
330
A35
100
AcDbEntity
  8
0
100
AcDbLine
 10
3.144
 20
63.695
 30
0.0
 11
4.666
 21
64.867
 31
0.0
  0
LINE
  5
C77
330
A35
100
AcDbEntity
  8
0
100
AcDbLine
 10
5.31
 20
65.393
 30
0.0
 11
3.087
 21
63.695
 31
0.0
  0
LINE
  5
C78
330
A35
100
AcDbEntity
  8
0
100
AcDbLine
 10
3.087
 20
63.989
 30
0.0
 11
2.91
 21
64.105
 31
0.0
  0
LINE
  5
C79
330
A35
100
AcDbEntity
  8
0
100
AcDbLine
 10
3.144
 20
63.989
 30
0.0
 11
3.144
 21
63.93
 31
0.0
  0
LINE
  5
C7A
330
A35
100
AcDbEntity
  8
0
100
AcDbLine
 10
2.5
 20
64.339
 30
0.0
 11
27.434
 21
83.361
 31
0.0
  0
LINE
  5
C7B
330
A35
100
AcDbEntity
  8
0
100
AcDbLine
 10
27.434
 20
83.127
 30
0.0
 11
2.5
 21
64.048
 31
0.0
  0
LINE
  5
C7C
330
A35
100
AcDbEntity
  8
0
100
AcDbLine
 10
2.5
 20
64.048
 30
0.0
 11
2.5
 21
64.282
 31
0.0
  0
LINE
  5
C7D
330
A35
100
AcDbEntity
  8
0
100
AcDbLine
 10
4.783
 20
64.926
 30
0.0
 11
15.025
 21
72.768
 31
0.0
  0
LINE
  5
C7E
330
A35
100
AcDbEntity
  8
0
100
AcDbLine
 10
5.72
 20
66.037
 30
0.0
 11
25.68
 21
81.313
 31
0.0
  0
LINE
  5
C7F
330
A35
100
AcDbEntity
  8
0
100
AcDbLine
 10
16.666
 20
74.056
 30
0.0
 11
16.548
 21
73.938
 31
0.0
  0
LINE
  5
C80
330
A35
100
AcDbEntity
  8
0
100
AcDbLine
 10
15.963
 20
73.528
 30
0.0
 11
15.846
 21
73.412
 31
0.0
  0
LINE
  5
C81
330
A35
100
AcDbEntity
  8
0
100
AcDbLine
 10
15.787
 20
73.412
 30
0.0
 11
15.26
 21
72.943
 31
0.0
  0
LINE
  5
C82
330
A35
100
AcDbEntity
  8
0
100
AcDbLine
 10
15.787
 20
73.412
 30
0.0
 11
15.846
 21
73.412
 31
0.0
  0
LINE
  5
C83
330
A35
100
AcDbEntity
  8
0
100
AcDbLine
 10
15.025
 20
72.768
 30
0.0
 11
26.03
 21
81.197
 31
0.0
  0
LINE
  5
C84
330
A35
100
AcDbEntity
  8
0
100
AcDbLine
 10
7.652
 20
67.208
 30
0.0
 11
5.31
 21
65.393
 31
0.0
  0
LINE
  5
C85
330
A35
100
AcDbEntity
  8
0
100
AcDbLine
 10
13.211
 20
73.997
 30
0.0
 11
2.677
 21
65.921
 31
0.0
  0
LINE
  5
C86
330
A35
100
AcDbEntity
  8
0
100
AcDbLine
 10
2.677
 20
65.511
 30
0.0
 11
13.211
 21
73.646
 31
0.0
  0
LINE
  5
C87
330
A35
100
AcDbEntity
  8
0
100
AcDbLine
 10
15.963
 20
73.528
 30
0.0
 11
16.548
 21
73.938
 31
0.0
  0
LINE
  5
C88
330
A35
100
AcDbEntity
  8
0
100
AcDbLine
 10
27.844
 20
82.835
 30
0.0
 11
2.969
 21
63.754
 31
0.0
  0
LINE
  5
C89
330
A35
100
AcDbEntity
  8
0
100
AcDbLine
 10
2.677
 20
63.93
 30
0.0
 11
27.61
 21
83.011
 31
0.0
  0
LINE
  5
C8A
330
A35
100
AcDbEntity
  8
0
100
AcDbLine
 10
27.844
 20
84.415
 30
0.0
 11
27.844
 21
84.824
 31
0.0
  0
LINE
  5
C8B
330
A35
100
AcDbEntity
  8
0
100
AcDbLine
 10
27.728
 20
84.474
 30
0.0
 11
27.844
 21
84.824
 31
0.0
  0
LINE
  5
C8C
330
A35
100
AcDbEntity
  8
0
100
AcDbLine
 10
27.844
 20
84.415
 30
0.0
 11
27.844
 21
84.415
 31
0.0
  0
LINE
  5
C8D
330
A35
100
AcDbEntity
  8
0
100
AcDbLine
 10
15.26
 20
72.943
 30
0.0
 11
7.652
 21
67.208
 31
0.0
  0
LINE
  5
C8E
330
A35
100
AcDbEntity
  8
0
100
AcDbLine
 10
16.841
 20
76.398
 30
0.0
 11
27.553
 21
84.59
 31
0.0
  0
LINE
  5
C8F
330
A35
100
AcDbEntity
  8
0
100
AcDbLine
 10
27.61
 20
84.649
 30
0.0
 11
27.844
 21
84.884
 31
0.0
  0
LINE
  5
C90
330
A35
100
AcDbEntity
  8
0
100
AcDbLine
 10
27.728
 20
84.474
 30
0.0
 11
27.728
 21
84.474
 31
0.0
  0
LINE
  5
C91
330
A35
100
AcDbEntity
  8
0
100
AcDbLine
 10
27.669
 20
84.533
 30
0.0
 11
27.61
 21
84.59
 31
0.0
  0
LINE
  5
C92
330
A35
100
AcDbEntity
  8
0
100
AcDbLine
 10
27.61
 20
84.533
 30
0.0
 11
27.669
 21
84.533
 31
0.0
  0
LINE
  5
C93
330
A35
100
AcDbEntity
  8
0
100
AcDbLine
 10
27.61
 20
84.59
 30
0.0
 11
27.61
 21
84.943
 31
0.0
  0
LINE
  5
C94
330
A35
100
AcDbEntity
  8
0
100
AcDbLine
 10
27.553
 20
85.0
 30
0.0
 11
27.553
 21
84.59
 31
0.0
  0
LINE
  5
C95
330
A35
100
AcDbEntity
  8
0
100
AcDbLine
 10
2.793
 20
65.393
 30
0.0
 11
2.793
 21
64.514
 31
0.0
  0
LINE
  5
C96
330
A35
100
AcDbEntity
  8
0
100
AcDbLine
 10
2.793
 20
65.393
 30
0.0
 11
13.271
 21
73.412
 31
0.0
  0
LINE
  5
C97
330
A35
100
AcDbEntity
  8
0
100
AcDbLine
 10
25.855
 20
81.431
 30
0.0
 11
28.019
 21
83.07
 31
0.0
  0
LINE
  5
C98
330
A35
100
AcDbEntity
  8
0
100
AcDbLine
 10
28.019
 20
82.777
 30
0.0
 11
26.146
 21
81.313
 31
0.0
  0
LINE
  5
C99
330
A35
100
AcDbEntity
  8
0
100
AcDbLine
 10
27.728
 20
84.299
 30
0.0
 11
27.728
 21
84.474
 31
0.0
  0
LINE
  5
C9A
330
A35
100
AcDbEntity
  8
0
100
AcDbLine
 10
27.728
 20
84.474
 30
0.0
 11
27.728
 21
84.415
 31
0.0
  0
LINE
  5
C9B
330
A35
100
AcDbEntity
  8
0
100
AcDbLine
 10
27.728
 20
84.474
 30
0.0
 11
27.728
 21
83.245
 31
0.0
  0
LINE
  5
C9C
330
A35
100
AcDbEntity
  8
0
100
AcDbLine
 10
27.669
 20
84.474
 30
0.0
 11
17.426
 21
76.573
 31
0.0
  0
LINE
  5
C9D
330
A35
100
AcDbEntity
  8
0
100
AcDbLine
 10
27.669
 20
83.245
 30
0.0
 11
27.669
 21
84.474
 31
0.0
  0
LINE
  5
C9E
330
A35
100
AcDbEntity
  8
0
100
AcDbLine
 10
27.61
 20
85.0
 30
0.0
 11
16.841
 21
76.748
 31
0.0
  0
LINE
  5
C9F
330
A35
100
AcDbEntity
  8
0
100
AcDbLine
 10
27.61
 20
85.0
 30
0.0
 11
27.61
 21
84.943
 31
0.0
  0
LINE
  5
CA0
330
A35
100
AcDbEntity
  8
0
100
AcDbLine
 10
27.553
 20
85.0
 30
0.0
 11
27.61
 21
85.0
 31
0.0
  0
LINE
  5
CA1
330
A35
100
AcDbEntity
  8
0
100
AcDbLine
 10
2.793
 20
65.452
 30
0.0
 11
2.734
 21
65.511
 31
0.0
  0
LINE
  5
CA2
330
A35
100
AcDbEntity
  8
0
100
AcDbLine
 10
2.677
 20
65.511
 30
0.0
 11
2.677
 21
65.921
 31
0.0
  0
LINE
  5
CA3
330
A35
100
AcDbEntity
  8
0
100
AcDbLine
 10
2.677
 20
63.93
 30
0.0
 11
2.559
 21
63.989
 31
0.0
  0
LINE
  5
CA4
330
A35
100
AcDbEntity
  8
0
100
AcDbLine
 10
26.03
 20
81.197
 30
0.0
 11
26.146
 21
81.313
 31
0.0
  0
LINE
  5
CA5
330
A35
100
AcDbEntity
  8
0
100
AcDbLine
 10
28.019
 20
82.777
 30
0.0
 11
28.019
 21
82.777
 31
0.0
  0
LINE
  5
CA6
330
A35
100
AcDbEntity
  8
0
100
AcDbLine
 10
27.903
 20
82.835
 30
0.0
 11
27.844
 21
82.835
 31
0.0
  0
LINE
  5
CA7
330
A35
100
AcDbEntity
  8
0
100
AcDbLine
 10
27.728
 20
83.245
 30
0.0
 11
27.493
 21
83.07
 31
0.0
  0
LINE
  5
CA8
330
A35
100
AcDbEntity
  8
0
100
AcDbLine
 10
27.553
 20
83.011
 30
0.0
 11
27.61
 21
83.011
 31
0.0
  0
LINE
  5
CA9
330
A35
100
AcDbEntity
  8
0
100
AcDbLine
 10
27.553
 20
83.011
 30
0.0
 11
27.553
 21
83.011
 31
0.0
  0
LINE
  5
CAA
330
A35
100
AcDbEntity
  8
0
100
AcDbLine
 10
27.728
 20
83.186
 30
0.0
 11
28.019
 21
83.07
 31
0.0
  0
LINE
  5
CAB
330
A35
100
AcDbEntity
  8
0
100
AcDbLine
 10
28.019
 20
83.011
 30
0.0
 11
28.019
 21
82.777
 31
0.0
  0
LINE
  5
CAC
330
A35
100
AcDbEntity
  8
0
100
AcDbLine
 10
27.434
 20
83.361
 30
0.0
 11
27.434
 21
83.361
 31
0.0
  0
LINE
  5
CAD
330
A35
100
AcDbEntity
  8
0
100
AcDbLine
 10
27.434
 20
83.07
 30
0.0
 11
27.553
 21
83.011
 31
0.0
  0
LINE
  5
CAE
330
A35
100
AcDbEntity
  8
0
100
AcDbLine
 10
27.434
 20
83.127
 30
0.0
 11
27.434
 21
83.361
 31
0.0
  0
LINE
  5
CAF
330
A35
100
AcDbEntity
  8
0
100
AcDbLine
 10
27.434
 20
83.07
 30
0.0
 11
27.434
 21
83.361
 31
0.0
  0
LINE
  5
CB0
330
A35
100
AcDbEntity
  8
0
100
AcDbLine
 10
27.434
 20
83.07
 30
0.0
 11
27.434
 21
83.07
 31
0.0
  0
LINE
  5
CB1
330
A35
100
AcDbEntity
  8
0
100
AcDbLine
 10
27.669
 20
83.245
 30
0.0
 11
27.669
 21
83.245
 31
0.0
  0
LINE
  5
CB2
330
A35
100
AcDbEntity
  8
0
100
AcDbLine
 10
27.728
 20
83.245
 30
0.0
 11
27.728
 21
83.245
 31
0.0
  0
LINE
  5
CB3
330
A35
100
AcDbEntity
  8
0
100
AcDbLine
 10
2.559
 20
64.339
 30
0.0
 11
2.5
 21
64.339
 31
0.0
  0
LINE
  5
CB4
330
A35
100
AcDbEntity
  8
0
100
AcDbLine
 10
2.852
 20
65.452
 30
0.0
 11
2.793
 21
65.452
 31
0.0
  0
LINE
  5
CB5
330
A35
100
AcDbEntity
  8
0
100
AcDbLine
 10
2.677
 20
65.568
 30
0.0
 11
2.677
 21
65.511
 31
0.0
  0
LINE
  5
CB6
330
A35
100
AcDbEntity
  8
0
100
AcDbLine
 10
27.903
 20
84.824
 30
0.0
 11
27.844
 21
84.884
 31
0.0
  0
LINE
  5
CB7
330
A35
100
AcDbEntity
  8
0
100
AcDbLine
 10
27.844
 20
84.824
 30
0.0
 11
27.844
 21
84.884
 31
0.0
  0
LINE
  5
CB8
330
A35
100
AcDbEntity
  8
0
100
AcDbLine
 10
27.61
 20
84.59
 30
0.0
 11
27.61
 21
84.59
 31
0.0
  0
LINE
  5
CB9
330
A35
100
AcDbEntity
  8
0
100
AcDbLine
 10
27.553
 20
84.59
 30
0.0
 11
27.61
 21
84.533
 31
0.0
  0
LINE
  5
CBA
330
A35
100
AcDbEntity
  8
0
100
AcDbLine
 10
27.728
 20
84.474
 30
0.0
 11
27.669
 21
84.533
 31
0.0
  0
LINE
  5
CBB
330
A35
100
AcDbEntity
  8
0
100
AcDbLine
 10
3.144
 20
63.989
 30
0.0
 11
3.087
 21
63.989
 31
0.0
  0
LINE
  5
CBC
330
A35
100
AcDbEntity
  8
0
100
AcDbLine
 10
28.019
 20
82.777
 30
0.0
 11
28.078
 21
82.777
 31
0.0
  0
LINE
  5
CBD
330
A35
100
AcDbEntity
  8
0
100
AcDbLine
 10
28.019
 20
83.07
 30
0.0
 11
28.019
 21
83.07
 31
0.0
  0
LINE
  5
CBE
330
A35
100
AcDbEntity
  8
0
100
AcDbLine
 10
27.669
 20
83.245
 30
0.0
 11
27.785
 21
83.245
 31
0.0
  0
LINE
  5
CBF
330
A35
100
AcDbEntity
  8
0
100
AcDbLine
 10
27.434
 20
83.421
 30
0.0
 11
27.434
 21
83.361
 31
0.0
  0
LINE
  5
CC0
330
A35
100
AcDbEntity
  8
0
100
AcDbLine
 10
27.434
 20
83.127
 30
0.0
 11
27.493
 21
83.07
 31
0.0
  0
LINE
  5
CC1
330
A35
100
AcDbEntity
  8
0
100
AcDbLine
 10
27.669
 20
83.304
 30
0.0
 11
27.669
 21
83.304
 31
0.0
  0
LINE
  5
CC2
330
A35
100
AcDbEntity
  8
0
100
AcDbLine
 10
27.434
 20
83.127
 30
0.0
 11
27.434
 21
83.07
 31
0.0
  0
LINE
  5
CC3
330
A35
100
AcDbEntity
  8
0
100
AcDbLine
 10
28.019
 20
83.011
 30
0.0
 11
28.019
 21
83.07
 31
0.0
  0
LINE
  5
CC4
330
A35
100
AcDbEntity
  8
0
100
AcDbLine
 10
27.728
 20
83.186
 30
0.0
 11
27.728
 21
83.245
 31
0.0
  0
LINE
  5
CC5
330
A35
100
AcDbEntity
  8
0
100
AcDbLine
 10
27.669
 20
83.245
 30
0.0
 11
27.728
 21
83.245
 31
0.0
  0
LINE
  5
CC6
330
A35
100
AcDbEntity
  8
0
100
AcDbLine
 10
27.61
 20
85.0
 30
0.0
 11
27.61
 21
85.0
 31
0.0
  0
LINE
  5
CC7
330
A35
100
AcDbEntity
  8
0
100
AcDbLine
 10
2.5
 20
64.048
 30
0.0
 11
2.559
 21
63.989
 31
0.0
  0
LINE
  5
CC8
330
A35
100
AcDbEntity
  8
0
100
AcDbLine
 10
2.969
 20
63.754
 30
0.0
 11
3.028
 21
63.754
 31
0.0
  0
LINE
  5
CC9
330
A35
100
AcDbEntity
  8
0
100
AcDbLine
 10
3.144
 20
63.695
 30
0.0
 11
3.087
 21
63.695
 31
0.0
  0
LINE
  5
CCA
330
A35
100
AcDbEntity
  8
0
100
AcDbLine
 10
47.687
 20
70.456
 30
0.0
 11
26.731
 21
81.782
 31
0.0
  0
LINE
  5
CCB
330
A35
100
AcDbEntity
  8
0
100
AcDbLine
 10
27.434
 20
82.308
 30
0.0
 11
48.768
 21
70.849
 31
0.0
  0
LINE
  5
CCC
330
A35
100
AcDbEntity
  8
0
100
AcDbLine
 10
48.941
 20
70.912
 30
0.0
 11
27.61
 21
82.426
 31
0.0
  0
LINE
  5
CCD
330
A35
100
AcDbEntity
  8
0
100
AcDbLine
 10
27.903
 20
82.66
 30
0.0
 11
49.332
 21
71.055
 31
0.0
  0
LINE
  5
CCE
330
A35
100
AcDbEntity
  8
0
100
AcDbLine
 10
50.063
 20
71.321
 30
0.0
 11
27.728
 21
83.361
 31
0.0
  0
LINE
  5
CCF
330
A35
100
AcDbEntity
  8
0
100
AcDbLine
 10
50.143
 20
71.421
 30
0.0
 11
50.143
 21
71.35
 31
0.0
  0
LINE
  5
CD0
330
A35
100
AcDbEntity
  8
0
100
AcDbLine
 10
26.405
 20
81.501
 30
0.0
 11
26.406
 21
81.501
 31
0.0
  0
LINE
  5
CD1
330
A35
100
AcDbEntity
  8
0
100
AcDbLine
 10
27.434
 20
83.418
 30
0.0
 11
27.434
 21
83.364
 31
0.0
  0
LINE
  5
CD2
330
A35
100
AcDbEntity
  8
0
100
AcDbLine
 10
27.434
 20
83.419
 30
0.0
 11
27.434
 21
83.418
 31
0.0
  0
LINE
  5
CD3
330
A35
100
AcDbEntity
  8
0
100
AcDbLine
 10
27.434
 20
83.363
 30
0.0
 11
27.434
 21
83.364
 31
0.0
  0
LINE
  5
CD4
330
A35
100
AcDbEntity
  8
0
100
AcDbLine
 10
27.59
 20
83.284
 30
0.0
 11
27.587
 21
83.286
 31
0.0
  0
LINE
  5
CD5
330
A35
100
AcDbEntity
  8
0
100
AcDbLine
 10
27.436
 20
83.361
 30
0.0
 11
27.435
 21
83.361
 31
0.0
  0
LINE
  5
CD6
330
A35
100
AcDbEntity
  8
0
100
AcDbLine
 10
27.435
 20
83.361
 30
0.0
 11
27.435
 21
83.361
 31
0.0
  0
LINE
  5
CD7
330
A35
100
AcDbEntity
  8
0
100
AcDbLine
 10
27.476
 20
83.341
 30
0.0
 11
27.474
 21
83.342
 31
0.0
  0
LINE
  5
CD8
330
A35
100
AcDbEntity
  8
0
100
AcDbLine
 10
27.587
 20
83.286
 30
0.0
 11
27.577
 21
83.29
 31
0.0
  0
LINE
  5
CD9
330
A35
100
AcDbEntity
  8
0
100
AcDbLine
 10
27.436
 20
83.361
 30
0.0
 11
27.437
 21
83.36
 31
0.0
  0
LINE
  5
CDA
330
A35
100
AcDbEntity
  8
0
100
AcDbLine
 10
27.437
 20
83.36
 30
0.0
 11
27.438
 21
83.36
 31
0.0
  0
LINE
  5
CDB
330
A35
100
AcDbEntity
  8
0
100
AcDbLine
 10
27.438
 20
83.36
 30
0.0
 11
27.439
 21
83.359
 31
0.0
  0
LINE
  5
CDC
330
A35
100
AcDbEntity
  8
0
100
AcDbLine
 10
27.474
 20
83.342
 30
0.0
 11
27.471
 21
83.343
 31
0.0
  0
LINE
  5
CDD
330
A35
100
AcDbEntity
  8
0
100
AcDbLine
 10
27.577
 20
83.29
 30
0.0
 11
27.574
 21
83.292
 31
0.0
  0
LINE
  5
CDE
330
A35
100
AcDbEntity
  8
0
100
AcDbLine
 10
27.574
 20
83.292
 30
0.0
 11
27.571
 21
83.293
 31
0.0
  0
LINE
  5
CDF
330
A35
100
AcDbEntity
  8
0
100
AcDbLine
 10
27.571
 20
83.293
 30
0.0
 11
27.568
 21
83.295
 31
0.0
  0
LINE
  5
CE0
330
A35
100
AcDbEntity
  8
0
100
AcDbLine
 10
27.568
 20
83.295
 30
0.0
 11
27.565
 21
83.297
 31
0.0
  0
LINE
  5
CE1
330
A35
100
AcDbEntity
  8
0
100
AcDbLine
 10
27.443
 20
83.357
 30
0.0
 11
27.442
 21
83.357
 31
0.0
  0
LINE
  5
CE2
330
A35
100
AcDbEntity
  8
0
100
AcDbLine
 10
27.565
 20
83.297
 30
0.0
 11
27.559
 21
83.3
 31
0.0
  0
LINE
  5
CE3
330
A35
100
AcDbEntity
  8
0
100
AcDbLine
 10
27.469
 20
83.344
 30
0.0
 11
27.467
 21
83.345
 31
0.0
  0
LINE
  5
CE4
330
A35
100
AcDbEntity
  8
0
100
AcDbLine
 10
27.656
 20
83.251
 30
0.0
 11
27.658
 21
83.251
 31
0.0
  0
LINE
  5
CE5
330
A35
100
AcDbEntity
  8
0
100
AcDbLine
 10
27.442
 20
83.357
 30
0.0
 11
27.44
 21
83.359
 31
0.0
  0
LINE
  5
CE6
330
A35
100
AcDbEntity
  8
0
100
AcDbLine
 10
27.464
 20
83.346
 30
0.0
 11
27.462
 21
83.347
 31
0.0
  0
LINE
  5
CE7
330
A35
100
AcDbEntity
  8
0
100
AcDbLine
 10
27.661
 20
83.249
 30
0.0
 11
27.662
 21
83.249
 31
0.0
  0
LINE
  5
CE8
330
A35
100
AcDbEntity
  8
0
100
AcDbLine
 10
27.556
 20
83.301
 30
0.0
 11
27.546
 21
83.306
 31
0.0
  0
LINE
  5
CE9
330
A35
100
AcDbEntity
  8
0
100
AcDbLine
 10
27.546
 20
83.306
 30
0.0
 11
27.543
 21
83.308
 31
0.0
  0
LINE
  5
CEA
330
A35
100
AcDbEntity
  8
0
100
AcDbLine
 10
27.543
 20
83.308
 30
0.0
 11
27.54
 21
83.309
 31
0.0
  0
LINE
  5
CEB
330
A35
100
AcDbEntity
  8
0
100
AcDbLine
 10
27.462
 20
83.347
 30
0.0
 11
27.46
 21
83.348
 31
0.0
  0
LINE
  5
CEC
330
A35
100
AcDbEntity
  8
0
100
AcDbLine
 10
27.464
 20
83.346
 30
0.0
 11
27.467
 21
83.345
 31
0.0
  0
LINE
  5
CED
330
A35
100
AcDbEntity
  8
0
100
AcDbLine
 10
27.54
 20
83.309
 30
0.0
 11
27.533
 21
83.312
 31
0.0
  0
LINE
  5
CEE
330
A35
100
AcDbEntity
  8
0
100
AcDbLine
 10
27.469
 20
83.344
 30
0.0
 11
27.471
 21
83.343
 31
0.0
  0
LINE
  5
CEF
330
A35
100
AcDbEntity
  8
0
100
AcDbLine
 10
27.533
 20
83.312
 30
0.0
 11
27.53
 21
83.314
 31
0.0
  0
LINE
  5
CF0
330
A35
100
AcDbEntity
  8
0
100
AcDbLine
 10
27.53
 20
83.314
 30
0.0
 11
27.527
 21
83.315
 31
0.0
  0
LINE
  5
CF1
330
A35
100
AcDbEntity
  8
0
100
AcDbLine
 10
27.46
 20
83.348
 30
0.0
 11
27.458
 21
83.349
 31
0.0
  0
LINE
  5
CF2
330
A35
100
AcDbEntity
  8
0
100
AcDbLine
 10
27.668
 20
83.246
 30
0.0
 11
27.668
 21
83.245
 31
0.0
  0
LINE
  5
CF3
330
A35
100
AcDbEntity
  8
0
100
AcDbLine
 10
27.527
 20
83.315
 30
0.0
 11
27.521
 21
83.318
 31
0.0
  0
LINE
  5
CF4
330
A35
100
AcDbEntity
  8
0
100
AcDbLine
 10
27.481
 20
83.338
 30
0.0
 11
27.486
 21
83.335
 31
0.0
  0
LINE
  5
CF5
330
A35
100
AcDbEntity
  8
0
100
AcDbLine
 10
27.521
 20
83.318
 30
0.0
 11
27.518
 21
83.32
 31
0.0
  0
LINE
  5
CF6
330
A35
100
AcDbEntity
  8
0
100
AcDbLine
 10
27.486
 20
83.335
 30
0.0
 11
27.498
 21
83.33
 31
0.0
  0
LINE
  5
CF7
330
A35
100
AcDbEntity
  8
0
100
AcDbLine
 10
27.458
 20
83.349
 30
0.0
 11
27.456
 21
83.35
 31
0.0
  0
LINE
  5
CF8
330
A35
100
AcDbEntity
  8
0
100
AcDbLine
 10
27.456
 20
83.35
 30
0.0
 11
27.454
 21
83.351
 31
0.0
  0
LINE
  5
CF9
330
A35
100
AcDbEntity
  8
0
100
AcDbLine
 10
27.512
 20
83.323
 30
0.0
 11
27.509
 21
83.324
 31
0.0
  0
LINE
  5
CFA
330
A35
100
AcDbEntity
  8
0
100
AcDbLine
 10
27.668
 20
83.246
 30
0.0
 11
27.668
 21
83.246
 31
0.0
  0
LINE
  5
CFB
330
A35
100
AcDbEntity
  8
0
100
AcDbLine
 10
27.668
 20
83.246
 30
0.0
 11
27.667
 21
83.246
 31
0.0
  0
LINE
  5
CFC
330
A35
100
AcDbEntity
  8
0
100
AcDbLine
 10
27.667
 20
83.246
 30
0.0
 11
27.666
 21
83.246
 31
0.0
  0
LINE
  5
CFD
330
A35
100
AcDbEntity
  8
0
100
AcDbLine
 10
27.666
 20
83.246
 30
0.0
 11
27.666
 21
83.247
 31
0.0
  0
LINE
  5
CFE
330
A35
100
AcDbEntity
  8
0
100
AcDbLine
 10
27.666
 20
83.247
 30
0.0
 11
27.665
 21
83.247
 31
0.0
  0
LINE
  5
CFF
330
A35
100
AcDbEntity
  8
0
100
AcDbLine
 10
27.512
 20
83.323
 30
0.0
 11
27.518
 21
83.32
 31
0.0
  0
LINE
  5
D00
330
A35
100
AcDbEntity
  8
0
100
AcDbLine
 10
27.665
 20
83.247
 30
0.0
 11
27.662
 21
83.249
 31
0.0
  0
LINE
  5
D01
330
A35
100
AcDbEntity
  8
0
100
AcDbLine
 10
27.509
 20
83.324
 30
0.0
 11
27.506
 21
83.326
 31
0.0
  0
LINE
  5
D02
330
A35
100
AcDbEntity
  8
0
100
AcDbLine
 10
27.506
 20
83.326
 30
0.0
 11
27.5
 21
83.329
 31
0.0
  0
LINE
  5
D03
330
A35
100
AcDbEntity
  8
0
100
AcDbLine
 10
27.454
 20
83.351
 30
0.0
 11
27.452
 21
83.352
 31
0.0
  0
LINE
  5
D04
330
A35
100
AcDbEntity
  8
0
100
AcDbLine
 10
27.661
 20
83.249
 30
0.0
 11
27.659
 21
83.25
 31
0.0
  0
LINE
  5
D05
330
A35
100
AcDbEntity
  8
0
100
AcDbLine
 10
27.659
 20
83.25
 30
0.0
 11
27.658
 21
83.251
 31
0.0
  0
LINE
  5
D06
330
A35
100
AcDbEntity
  8
0
100
AcDbLine
 10
27.5
 20
83.329
 30
0.0
 11
27.498
 21
83.33
 31
0.0
  0
LINE
  5
D07
330
A35
100
AcDbEntity
  8
0
100
AcDbLine
 10
27.656
 20
83.251
 30
0.0
 11
27.655
 21
83.252
 31
0.0
  0
LINE
  5
D08
330
A35
100
AcDbEntity
  8
0
100
AcDbLine
 10
27.452
 20
83.352
 30
0.0
 11
27.451
 21
83.353
 31
0.0
  0
LINE
  5
D09
330
A35
100
AcDbEntity
  8
0
100
AcDbLine
 10
27.655
 20
83.252
 30
0.0
 11
27.652
 21
83.254
 31
0.0
  0
LINE
  5
D0A
330
A35
100
AcDbEntity
  8
0
100
AcDbLine
 10
27.652
 20
83.254
 30
0.0
 11
27.65
 21
83.255
 31
0.0
  0
LINE
  5
D0B
330
A35
100
AcDbEntity
  8
0
100
AcDbLine
 10
27.65
 20
83.255
 30
0.0
 11
27.648
 21
83.256
 31
0.0
  0
LINE
  5
D0C
330
A35
100
AcDbEntity
  8
0
100
AcDbLine
 10
27.556
 20
83.301
 30
0.0
 11
27.559
 21
83.3
 31
0.0
  0
LINE
  5
D0D
330
A35
100
AcDbEntity
  8
0
100
AcDbLine
 10
27.648
 20
83.256
 30
0.0
 11
27.646
 21
83.257
 31
0.0
  0
LINE
  5
D0E
330
A35
100
AcDbEntity
  8
0
100
AcDbLine
 10
27.451
 20
83.353
 30
0.0
 11
27.449
 21
83.354
 31
0.0
  0
LINE
  5
D0F
330
A35
100
AcDbEntity
  8
0
100
AcDbLine
 10
27.646
 20
83.257
 30
0.0
 11
27.642
 21
83.258
 31
0.0
  0
LINE
  5
D10
330
A35
100
AcDbEntity
  8
0
100
AcDbLine
 10
27.642
 20
83.258
 30
0.0
 11
27.64
 21
83.26
 31
0.0
  0
LINE
  5
D11
330
A35
100
AcDbEntity
  8
0
100
AcDbLine
 10
27.64
 20
83.26
 30
0.0
 11
27.635
 21
83.262
 31
0.0
  0
LINE
  5
D12
330
A35
100
AcDbEntity
  8
0
100
AcDbLine
 10
27.449
 20
83.354
 30
0.0
 11
27.447
 21
83.355
 31
0.0
  0
LINE
  5
D13
330
A35
100
AcDbEntity
  8
0
100
AcDbLine
 10
27.447
 20
83.355
 30
0.0
 11
27.446
 21
83.356
 31
0.0
  0
LINE
  5
D14
330
A35
100
AcDbEntity
  8
0
100
AcDbLine
 10
27.633
 20
83.263
 30
0.0
 11
27.631
 21
83.264
 31
0.0
  0
LINE
  5
D15
330
A35
100
AcDbEntity
  8
0
100
AcDbLine
 10
27.631
 20
83.264
 30
0.0
 11
27.628
 21
83.265
 31
0.0
  0
LINE
  5
D16
330
A35
100
AcDbEntity
  8
0
100
AcDbLine
 10
27.446
 20
83.356
 30
0.0
 11
27.443
 21
83.357
 31
0.0
  0
LINE
  5
D17
330
A35
100
AcDbEntity
  8
0
100
AcDbLine
 10
27.628
 20
83.265
 30
0.0
 11
27.623
 21
83.268
 31
0.0
  0
LINE
  5
D18
330
A35
100
AcDbEntity
  8
0
100
AcDbLine
 10
27.623
 20
83.268
 30
0.0
 11
27.621
 21
83.269
 31
0.0
  0
LINE
  5
D19
330
A35
100
AcDbEntity
  8
0
100
AcDbLine
 10
27.596
 20
83.281
 30
0.0
 11
27.598
 21
83.28
 31
0.0
  0
LINE
  5
D1A
330
A35
100
AcDbEntity
  8
0
100
AcDbLine
 10
27.598
 20
83.28
 30
0.0
 11
27.601
 21
83.279
 31
0.0
  0
LINE
  5
D1B
330
A35
100
AcDbEntity
  8
0
100
AcDbLine
 10
27.621
 20
83.269
 30
0.0
 11
27.618
 21
83.27
 31
0.0
  0
LINE
  5
D1C
330
A35
100
AcDbEntity
  8
0
100
AcDbLine
 10
27.44
 20
83.359
 30
0.0
 11
27.439
 21
83.359
 31
0.0
  0
LINE
  5
D1D
330
A35
100
AcDbEntity
  8
0
100
AcDbLine
 10
27.615
 20
83.272
 30
0.0
 11
27.613
 21
83.273
 31
0.0
  0
LINE
  5
D1E
330
A35
100
AcDbEntity
  8
0
100
AcDbLine
 10
27.613
 20
83.273
 30
0.0
 11
27.61
 21
83.274
 31
0.0
  0
LINE
  5
D1F
330
A35
100
AcDbEntity
  8
0
100
AcDbLine
 10
27.61
 20
83.274
 30
0.0
 11
27.607
 21
83.276
 31
0.0
  0
LINE
  5
D20
330
A35
100
AcDbEntity
  8
0
100
AcDbLine
 10
27.615
 20
83.272
 30
0.0
 11
27.618
 21
83.27
 31
0.0
  0
LINE
  5
D21
330
A35
100
AcDbEntity
  8
0
100
AcDbLine
 10
27.607
 20
83.276
 30
0.0
 11
27.604
 21
83.277
 31
0.0
  0
LINE
  5
D22
330
A35
100
AcDbEntity
  8
0
100
AcDbLine
 10
27.604
 20
83.277
 30
0.0
 11
27.601
 21
83.279
 31
0.0
  0
LINE
  5
D23
330
A35
100
AcDbEntity
  8
0
100
AcDbLine
 10
27.481
 20
83.338
 30
0.0
 11
27.479
 21
83.339
 31
0.0
  0
LINE
  5
D24
330
A35
100
AcDbEntity
  8
0
100
AcDbLine
 10
27.479
 20
83.339
 30
0.0
 11
27.476
 21
83.341
 31
0.0
  0
LINE
  5
D25
330
A35
100
AcDbEntity
  8
0
100
AcDbLine
 10
27.596
 20
83.281
 30
0.0
 11
27.592
 21
83.283
 31
0.0
  0
LINE
  5
D26
330
A35
100
AcDbEntity
  8
0
100
AcDbLine
 10
27.592
 20
83.283
 30
0.0
 11
27.59
 21
83.284
 31
0.0
  0
LINE
  5
D27
330
A35
100
AcDbEntity
  8
0
100
AcDbLine
 10
27.633
 20
83.263
 30
0.0
 11
27.635
 21
83.262
 31
0.0
  0
LINE
  5
D28
330
A35
100
AcDbEntity
  8
0
100
AcDbLine
 10
27.435
 20
83.069
 30
0.0
 11
27.435
 21
83.07
 31
0.0
  0
LINE
  5
D29
330
A35
100
AcDbEntity
  8
0
100
AcDbLine
 10
27.436
 20
83.069
 30
0.0
 11
27.435
 21
83.07
 31
0.0
  0
LINE
  5
D2A
330
A35
100
AcDbEntity
  8
0
100
AcDbLine
 10
27.436
 20
83.069
 30
0.0
 11
27.436
 21
83.069
 31
0.0
  0
LINE
  5
D2B
330
A35
100
AcDbEntity
  8
0
100
AcDbLine
 10
27.446
 20
83.064
 30
0.0
 11
27.447
 21
83.064
 31
0.0
  0
LINE
  5
D2C
330
A35
100
AcDbEntity
  8
0
100
AcDbLine
 10
27.531
 20
83.022
 30
0.0
 11
27.526
 21
83.024
 31
0.0
  0
LINE
  5
D2D
330
A35
100
AcDbEntity
  8
0
100
AcDbLine
 10
27.448
 20
83.063
 30
0.0
 11
27.449
 21
83.063
 31
0.0
  0
LINE
  5
D2E
330
A35
100
AcDbEntity
  8
0
100
AcDbLine
 10
27.449
 20
83.063
 30
0.0
 11
27.451
 21
83.062
 31
0.0
  0
LINE
  5
D2F
330
A35
100
AcDbEntity
  8
0
100
AcDbLine
 10
27.548
 20
83.013
 30
0.0
 11
27.549
 21
83.013
 31
0.0
  0
LINE
  5
D30
330
A35
100
AcDbEntity
  8
0
100
AcDbLine
 10
27.45
 20
83.062
 30
0.0
 11
27.453
 21
83.061
 31
0.0
  0
LINE
  5
D31
330
A35
100
AcDbEntity
  8
0
100
AcDbLine
 10
27.549
 20
83.013
 30
0.0
 11
27.55
 21
83.013
 31
0.0
  0
LINE
  5
D32
330
A35
100
AcDbEntity
  8
0
100
AcDbLine
 10
27.454
 20
83.06
 30
0.0
 11
27.455
 21
83.059
 31
0.0
  0
LINE
  5
D33
330
A35
100
AcDbEntity
  8
0
100
AcDbLine
 10
27.548
 20
83.013
 30
0.0
 11
27.548
 21
83.013
 31
0.0
  0
LINE
  5
D34
330
A35
100
AcDbEntity
  8
0
100
AcDbLine
 10
27.548
 20
83.013
 30
0.0
 11
27.547
 21
83.014
 31
0.0
  0
LINE
  5
D35
330
A35
100
AcDbEntity
  8
0
100
AcDbLine
 10
27.547
 20
83.014
 30
0.0
 11
27.546
 21
83.014
 31
0.0
  0
LINE
  5
D36
330
A35
100
AcDbEntity
  8
0
100
AcDbLine
 10
27.455
 20
83.06
 30
0.0
 11
27.457
 21
83.059
 31
0.0
  0
LINE
  5
D37
330
A35
100
AcDbEntity
  8
0
100
AcDbLine
 10
27.545
 20
83.015
 30
0.0
 11
27.544
 21
83.015
 31
0.0
  0
LINE
  5
D38
330
A35
100
AcDbEntity
  8
0
100
AcDbLine
 10
27.544
 20
83.015
 30
0.0
 11
27.544
 21
83.016
 31
0.0
  0
LINE
  5
D39
330
A35
100
AcDbEntity
  8
0
100
AcDbLine
 10
27.544
 20
83.016
 30
0.0
 11
27.543
 21
83.016
 31
0.0
  0
LINE
  5
D3A
330
A35
100
AcDbEntity
  8
0
100
AcDbLine
 10
27.464
 20
83.055
 30
0.0
 11
27.463
 21
83.056
 31
0.0
  0
LINE
  5
D3B
330
A35
100
AcDbEntity
  8
0
100
AcDbLine
 10
27.55
 20
83.013
 30
0.0
 11
27.55
 21
83.012
 31
0.0
  0
LINE
  5
D3C
330
A35
100
AcDbEntity
  8
0
100
AcDbLine
 10
27.55
 20
83.012
 30
0.0
 11
27.551
 21
83.012
 31
0.0
  0
LINE
  5
D3D
330
A35
100
AcDbEntity
  8
0
100
AcDbLine
 10
27.461
 20
83.057
 30
0.0
 11
27.462
 21
83.056
 31
0.0
  0
LINE
  5
D3E
330
A35
100
AcDbEntity
  8
0
100
AcDbLine
 10
27.541
 20
83.017
 30
0.0
 11
27.537
 21
83.019
 31
0.0
  0
LINE
  5
D3F
330
A35
100
AcDbEntity
  8
0
100
AcDbLine
 10
27.538
 20
83.019
 30
0.0
 11
27.536
 21
83.019
 31
0.0
  0
LINE
  5
D40
330
A35
100
AcDbEntity
  8
0
100
AcDbLine
 10
27.536
 20
83.019
 30
0.0
 11
27.535
 21
83.02
 31
0.0
  0
LINE
  5
D41
330
A35
100
AcDbEntity
  8
0
100
AcDbLine
 10
27.462
 20
83.056
 30
0.0
 11
27.465
 21
83.055
 31
0.0
  0
LINE
  5
D42
330
A35
100
AcDbEntity
  8
0
100
AcDbLine
 10
27.534
 20
83.021
 30
0.0
 11
27.532
 21
83.021
 31
0.0
  0
LINE
  5
D43
330
A35
100
AcDbEntity
  8
0
100
AcDbLine
 10
27.464
 20
83.055
 30
0.0
 11
27.465
 21
83.055
 31
0.0
  0
LINE
  5
D44
330
A35
100
AcDbEntity
  8
0
100
AcDbLine
 10
27.531
 20
83.022
 30
0.0
 11
27.53
 21
83.022
 31
0.0
  0
LINE
  5
D45
330
A35
100
AcDbEntity
  8
0
100
AcDbLine
 10
27.53
 20
83.022
 30
0.0
 11
27.528
 21
83.023
 31
0.0
  0
LINE
  5
D46
330
A35
100
AcDbEntity
  8
0
100
AcDbLine
 10
27.528
 20
83.023
 30
0.0
 11
27.525
 21
83.025
 31
0.0
  0
LINE
  5
D47
330
A35
100
AcDbEntity
  8
0
100
AcDbLine
 10
27.527
 20
83.024
 30
0.0
 11
27.525
 21
83.025
 31
0.0
  0
LINE
  5
D48
330
A35
100
AcDbEntity
  8
0
100
AcDbLine
 10
27.525
 20
83.025
 30
0.0
 11
27.524
 21
83.025
 31
0.0
  0
LINE
  5
D49
330
A35
100
AcDbEntity
  8
0
100
AcDbLine
 10
27.55
 20
83.012
 30
0.0
 11
27.551
 21
83.012
 31
0.0
  0
LINE
  5
D4A
330
A35
100
AcDbEntity
  8
0
100
AcDbLine
 10
27.523
 20
83.026
 30
0.0
 11
27.519
 21
83.028
 31
0.0
  0
LINE
  5
D4B
330
A35
100
AcDbEntity
  8
0
100
AcDbLine
 10
27.521
 20
83.027
 30
0.0
 11
27.52
 21
83.028
 31
0.0
  0
LINE
  5
D4C
330
A35
100
AcDbEntity
  8
0
100
AcDbLine
 10
27.467
 20
83.054
 30
0.0
 11
27.468
 21
83.053
 31
0.0
  0
LINE
  5
D4D
330
A35
100
AcDbEntity
  8
0
100
AcDbLine
 10
27.518
 20
83.028
 30
0.0
 11
27.516
 21
83.029
 31
0.0
  0
LINE
  5
D4E
330
A35
100
AcDbEntity
  8
0
100
AcDbLine
 10
27.483
 20
83.046
 30
0.0
 11
27.478
 21
83.048
 31
0.0
  0
LINE
  5
D4F
330
A35
100
AcDbEntity
  8
0
100
AcDbLine
 10
27.515
 20
83.03
 30
0.0
 11
27.513
 21
83.031
 31
0.0
  0
LINE
  5
D50
330
A35
100
AcDbEntity
  8
0
100
AcDbLine
 10
27.47
 20
83.052
 30
0.0
 11
27.472
 21
83.052
 31
0.0
  0
LINE
  5
D51
330
A35
100
AcDbEntity
  8
0
100
AcDbLine
 10
27.512
 20
83.031
 30
0.0
 11
27.51
 21
83.032
 31
0.0
  0
LINE
  5
D52
330
A35
100
AcDbEntity
  8
0
100
AcDbLine
 10
27.479
 20
83.048
 30
0.0
 11
27.477
 21
83.049
 31
0.0
  0
LINE
  5
D53
330
A35
100
AcDbEntity
  8
0
100
AcDbLine
 10
27.472
 20
83.051
 30
0.0
 11
27.475
 21
83.05
 31
0.0
  0
LINE
  5
D54
330
A35
100
AcDbEntity
  8
0
100
AcDbLine
 10
27.507
 20
83.034
 30
0.0
 11
27.505
 21
83.035
 31
0.0
  0
LINE
  5
D55
330
A35
100
AcDbEntity
  8
0
100
AcDbLine
 10
27.474
 20
83.05
 30
0.0
 11
27.477
 21
83.049
 31
0.0
  0
LINE
  5
D56
330
A35
100
AcDbEntity
  8
0
100
AcDbLine
 10
27.476
 20
83.049
 30
0.0
 11
27.478
 21
83.048
 31
0.0
  0
LINE
  5
D57
330
A35
100
AcDbEntity
  8
0
100
AcDbLine
 10
27.526
 20
83.024
 30
0.0
 11
27.524
 21
83.026
 31
0.0
  0
LINE
  5
D58
330
A35
100
AcDbEntity
  8
0
100
AcDbLine
 10
27.524
 20
83.026
 30
0.0
 11
27.522
 21
83.026
 31
0.0
  0
LINE
  5
D59
330
A35
100
AcDbEntity
  8
0
100
AcDbLine
 10
27.449
 20
83.063
 30
0.0
 11
27.446
 21
83.064
 31
0.0
  0
LINE
  5
D5A
330
A35
100
AcDbEntity
  8
0
100
AcDbLine
 10
27.483
 20
83.046
 30
0.0
 11
27.484
 21
83.045
 31
0.0
  0
LINE
  5
D5B
330
A35
100
AcDbEntity
  8
0
100
AcDbLine
 10
27.461
 20
83.056
 30
0.0
 11
27.457
 21
83.059
 31
0.0
  0
LINE
  5
D5C
330
A35
100
AcDbEntity
  8
0
100
AcDbLine
 10
27.475
 20
83.05
 30
0.0
 11
27.474
 21
83.05
 31
0.0
  0
LINE
  5
D5D
330
A35
100
AcDbEntity
  8
0
100
AcDbLine
 10
27.474
 20
83.05
 30
0.0
 11
27.472
 21
83.051
 31
0.0
  0
LINE
  5
D5E
330
A35
100
AcDbEntity
  8
0
100
AcDbLine
 10
27.454
 20
83.06
 30
0.0
 11
27.452
 21
83.061
 31
0.0
  0
LINE
  5
D5F
330
A35
100
AcDbEntity
  8
0
100
AcDbLine
 10
27.455
 20
83.06
 30
0.0
 11
27.453
 21
83.06
 31
0.0
  0
LINE
  5
D60
330
A35
100
AcDbEntity
  8
0
100
AcDbLine
 10
27.552
 20
83.012
 30
0.0
 11
27.551
 21
83.012
 31
0.0
  0
LINE
  5
D61
330
A35
100
AcDbEntity
  8
0
100
AcDbLine
 10
27.552
 20
83.012
 30
0.0
 11
27.551
 21
83.012
 31
0.0
  0
LINE
  5
D62
330
A35
100
AcDbEntity
  8
0
100
AcDbLine
 10
27.484
 20
83.045
 30
0.0
 11
27.482
 21
83.046
 31
0.0
  0
LINE
  5
D63
330
A35
100
AcDbEntity
  8
0
100
AcDbLine
 10
27.472
 20
83.051
 30
0.0
 11
27.47
 21
83.052
 31
0.0
  0
LINE
  5
D64
330
A35
100
AcDbEntity
  8
0
100
AcDbLine
 10
27.55
 20
83.012
 30
0.0
 11
27.55
 21
83.012
 31
0.0
  0
LINE
  5
D65
330
A35
100
AcDbEntity
  8
0
100
AcDbLine
 10
27.55
 20
83.012
 30
0.0
 11
27.549
 21
83.013
 31
0.0
  0
LINE
  5
D66
330
A35
100
AcDbEntity
  8
0
100
AcDbLine
 10
27.549
 20
83.013
 30
0.0
 11
27.548
 21
83.013
 31
0.0
  0
LINE
  5
D67
330
A35
100
AcDbEntity
  8
0
100
AcDbLine
 10
27.516
 20
83.029
 30
0.0
 11
27.514
 21
83.03
 31
0.0
  0
LINE
  5
D68
330
A35
100
AcDbEntity
  8
0
100
AcDbLine
 10
27.548
 20
83.013
 30
0.0
 11
27.547
 21
83.014
 31
0.0
  0
LINE
  5
D69
330
A35
100
AcDbEntity
  8
0
100
AcDbLine
 10
27.473
 20
83.051
 30
0.0
 11
27.471
 21
83.052
 31
0.0
  0
LINE
  5
D6A
330
A35
100
AcDbEntity
  8
0
100
AcDbLine
 10
27.471
 20
83.052
 30
0.0
 11
27.469
 21
83.052
 31
0.0
  0
LINE
  5
D6B
330
A35
100
AcDbEntity
  8
0
100
AcDbLine
 10
27.514
 20
83.03
 30
0.0
 11
27.513
 21
83.031
 31
0.0
  0
LINE
  5
D6C
330
A35
100
AcDbEntity
  8
0
100
AcDbLine
 10
27.468
 20
83.053
 30
0.0
 11
27.466
 21
83.054
 31
0.0
  0
LINE
  5
D6D
330
A35
100
AcDbEntity
  8
0
100
AcDbLine
 10
27.466
 20
83.054
 30
0.0
 11
27.465
 21
83.055
 31
0.0
  0
LINE
  5
D6E
330
A35
100
AcDbEntity
  8
0
100
AcDbLine
 10
27.47
 20
83.052
 30
0.0
 11
27.468
 21
83.053
 31
0.0
  0
LINE
  5
D6F
330
A35
100
AcDbEntity
  8
0
100
AcDbLine
 10
27.463
 20
83.056
 30
0.0
 11
27.462
 21
83.056
 31
0.0
  0
LINE
  5
D70
330
A35
100
AcDbEntity
  8
0
100
AcDbLine
 10
27.463
 20
83.056
 30
0.0
 11
27.46
 21
83.057
 31
0.0
  0
LINE
  5
D71
330
A35
100
AcDbEntity
  8
0
100
AcDbLine
 10
27.46
 20
83.057
 30
0.0
 11
27.457
 21
83.059
 31
0.0
  0
LINE
  5
D72
330
A35
100
AcDbEntity
  8
0
100
AcDbLine
 10
27.506
 20
83.034
 30
0.0
 11
27.483
 21
83.046
 31
0.0
  0
LINE
  5
D73
330
A35
100
AcDbEntity
  8
0
100
AcDbLine
 10
27.458
 20
83.058
 30
0.0
 11
27.456
 21
83.059
 31
0.0
  0
LINE
  5
D74
330
A35
100
AcDbEntity
  8
0
100
AcDbLine
 10
27.456
 20
83.059
 30
0.0
 11
27.455
 21
83.06
 31
0.0
  0
LINE
  5
D75
330
A35
100
AcDbEntity
  8
0
100
AcDbLine
 10
27.511
 20
83.032
 30
0.0
 11
27.512
 21
83.031
 31
0.0
  0
LINE
  5
D76
330
A35
100
AcDbEntity
  8
0
100
AcDbLine
 10
27.511
 20
83.032
 30
0.0
 11
27.514
 21
83.03
 31
0.0
  0
LINE
  5
D77
330
A35
100
AcDbEntity
  8
0
100
AcDbLine
 10
27.454
 20
83.06
 30
0.0
 11
27.451
 21
83.061
 31
0.0
  0
LINE
  5
D78
330
A35
100
AcDbEntity
  8
0
100
AcDbLine
 10
27.451
 20
83.061
 30
0.0
 11
27.45
 21
83.062
 31
0.0
  0
LINE
  5
D79
330
A35
100
AcDbEntity
  8
0
100
AcDbLine
 10
27.545
 20
83.015
 30
0.0
 11
27.544
 21
83.015
 31
0.0
  0
LINE
  5
D7A
330
A35
100
AcDbEntity
  8
0
100
AcDbLine
 10
27.515
 20
83.03
 30
0.0
 11
27.517
 21
83.029
 31
0.0
  0
LINE
  5
D7B
330
A35
100
AcDbEntity
  8
0
100
AcDbLine
 10
27.516
 20
83.029
 30
0.0
 11
27.519
 21
83.028
 31
0.0
  0
LINE
  5
D7C
330
A35
100
AcDbEntity
  8
0
100
AcDbLine
 10
27.518
 20
83.028
 30
0.0
 11
27.52
 21
83.027
 31
0.0
  0
LINE
  5
D7D
330
A35
100
AcDbEntity
  8
0
100
AcDbLine
 10
27.446
 20
83.064
 30
0.0
 11
27.445
 21
83.065
 31
0.0
  0
LINE
  5
D7E
330
A35
100
AcDbEntity
  8
0
100
AcDbLine
 10
27.445
 20
83.065
 30
0.0
 11
27.444
 21
83.065
 31
0.0
  0
LINE
  5
D7F
330
A35
100
AcDbEntity
  8
0
100
AcDbLine
 10
27.52
 20
83.027
 30
0.0
 11
27.522
 21
83.026
 31
0.0
  0
LINE
  5
D80
330
A35
100
AcDbEntity
  8
0
100
AcDbLine
 10
27.522
 20
83.026
 30
0.0
 11
27.524
 21
83.025
 31
0.0
  0
LINE
  5
D81
330
A35
100
AcDbEntity
  8
0
100
AcDbLine
 10
27.523
 20
83.026
 30
0.0
 11
27.524
 21
83.025
 31
0.0
  0
LINE
  5
D82
330
A35
100
AcDbEntity
  8
0
100
AcDbLine
 10
27.511
 20
83.032
 30
0.0
 11
27.506
 21
83.034
 31
0.0
  0
LINE
  5
D83
330
A35
100
AcDbEntity
  8
0
100
AcDbLine
 10
27.443
 20
83.066
 30
0.0
 11
27.439
 21
83.067
 31
0.0
  0
LINE
  5
D84
330
A35
100
AcDbEntity
  8
0
100
AcDbLine
 10
27.543
 20
83.016
 30
0.0
 11
27.542
 21
83.016
 31
0.0
  0
LINE
  5
D85
330
A35
100
AcDbEntity
  8
0
100
AcDbLine
 10
27.469
 20
83.052
 30
0.0
 11
27.467
 21
83.054
 31
0.0
  0
LINE
  5
D86
330
A35
100
AcDbEntity
  8
0
100
AcDbLine
 10
27.541
 20
83.017
 30
0.0
 11
27.54
 21
83.017
 31
0.0
  0
LINE
  5
D87
330
A35
100
AcDbEntity
  8
0
100
AcDbLine
 10
27.438
 20
83.068
 30
0.0
 11
27.436
 21
83.069
 31
0.0
  0
LINE
  5
D88
330
A35
100
AcDbEntity
  8
0
100
AcDbLine
 10
27.506
 20
83.034
 30
0.0
 11
27.505
 21
83.035
 31
0.0
  0
LINE
  5
D89
330
A35
100
AcDbEntity
  8
0
100
AcDbLine
 10
27.531
 20
83.022
 30
0.0
 11
27.533
 21
83.021
 31
0.0
  0
LINE
  5
D8A
330
A35
100
AcDbEntity
  8
0
100
AcDbLine
 10
27.532
 20
83.021
 30
0.0
 11
27.534
 21
83.02
 31
0.0
  0
LINE
  5
D8B
330
A35
100
AcDbEntity
  8
0
100
AcDbLine
 10
27.542
 20
83.017
 30
0.0
 11
27.538
 21
83.018
 31
0.0
  0
LINE
  5
D8C
330
A35
100
AcDbEntity
  8
0
100
AcDbLine
 10
27.439
 20
83.067
 30
0.0
 11
27.438
 21
83.068
 31
0.0
  0
LINE
  5
D8D
330
A35
100
AcDbEntity
  8
0
100
AcDbLine
 10
27.439
 20
83.068
 30
0.0
 11
27.438
 21
83.068
 31
0.0
  0
LINE
  5
D8E
330
A35
100
AcDbEntity
  8
0
100
AcDbLine
 10
27.535
 20
83.02
 30
0.0
 11
27.537
 21
83.019
 31
0.0
  0
LINE
  5
D8F
330
A35
100
AcDbEntity
  8
0
100
AcDbLine
 10
27.538
 20
83.018
 30
0.0
 11
27.537
 21
83.019
 31
0.0
  0
LINE
  5
D90
330
A35
100
AcDbEntity
  8
0
100
AcDbLine
 10
27.467
 20
83.054
 30
0.0
 11
27.465
 21
83.055
 31
0.0
  0
LINE
  5
D91
330
A35
100
AcDbEntity
  8
0
100
AcDbLine
 10
27.536
 20
83.02
 30
0.0
 11
27.534
 21
83.021
 31
0.0
  0
LINE
  5
D92
330
A35
100
AcDbEntity
  8
0
100
AcDbLine
 10
27.535
 20
83.02
 30
0.0
 11
27.533
 21
83.021
 31
0.0
  0
LINE
  5
D93
330
A35
100
AcDbEntity
  8
0
100
AcDbLine
 10
27.541
 20
83.017
 30
0.0
 11
27.542
 21
83.016
 31
0.0
  0
LINE
  5
D94
330
A35
100
AcDbEntity
  8
0
100
AcDbLine
 10
27.542
 20
83.017
 30
0.0
 11
27.543
 21
83.016
 31
0.0
  0
LINE
  5
D95
330
A35
100
AcDbEntity
  8
0
100
AcDbLine
 10
27.436
 20
83.069
 30
0.0
 11
27.436
 21
83.069
 31
0.0
  0
LINE
  5
D96
330
A35
100
AcDbEntity
  8
0
100
AcDbLine
 10
27.436
 20
83.069
 30
0.0
 11
27.438
 21
83.068
 31
0.0
  0
LINE
  5
D97
330
A35
100
AcDbEntity
  8
0
100
AcDbLine
 10
27.437
 20
83.069
 30
0.0
 11
27.437
 21
83.069
 31
0.0
  0
LINE
  5
D98
330
A35
100
AcDbEntity
  8
0
100
AcDbLine
 10
27.437
 20
83.069
 30
0.0
 11
27.438
 21
83.068
 31
0.0
  0
LINE
  5
D99
330
A35
100
AcDbEntity
  8
0
100
AcDbLine
 10
27.438
 20
83.068
 30
0.0
 11
27.439
 21
83.068
 31
0.0
  0
LINE
  5
D9A
330
A35
100
AcDbEntity
  8
0
100
AcDbLine
 10
27.543
 20
83.016
 30
0.0
 11
27.544
 21
83.015
 31
0.0
  0
LINE
  5
D9B
330
A35
100
AcDbEntity
  8
0
100
AcDbLine
 10
27.439
 20
83.068
 30
0.0
 11
27.44
 21
83.067
 31
0.0
  0
LINE
  5
D9C
330
A35
100
AcDbEntity
  8
0
100
AcDbLine
 10
27.466
 20
83.054
 30
0.0
 11
27.464
 21
83.055
 31
0.0
  0
LINE
  5
D9D
330
A35
100
AcDbEntity
  8
0
100
AcDbLine
 10
27.545
 20
83.015
 30
0.0
 11
27.547
 21
83.014
 31
0.0
  0
LINE
  5
D9E
330
A35
100
AcDbEntity
  8
0
100
AcDbLine
 10
27.532
 20
83.021
 30
0.0
 11
27.53
 21
83.022
 31
0.0
  0
LINE
  5
D9F
330
A35
100
AcDbEntity
  8
0
100
AcDbLine
 10
27.546
 20
83.014
 30
0.0
 11
27.547
 21
83.014
 31
0.0
  0
LINE
  5
DA0
330
A35
100
AcDbEntity
  8
0
100
AcDbLine
 10
27.442
 20
83.066
 30
0.0
 11
27.444
 21
83.065
 31
0.0
  0
LINE
  5
DA1
330
A35
100
AcDbEntity
  8
0
100
AcDbLine
 10
27.444
 20
83.065
 30
0.0
 11
27.446
 21
83.064
 31
0.0
  0
LINE
  5
DA2
330
A35
100
AcDbEntity
  8
0
100
AcDbLine
 10
27.445
 20
83.065
 30
0.0
 11
27.45
 21
83.062
 31
0.0
  0
LINE
  5
DA3
330
A35
100
AcDbEntity
  8
0
100
AcDbLine
 10
27.905
 20
82.834
 30
0.0
 11
27.905
 21
82.834
 31
0.0
  0
LINE
  5
DA4
330
A35
100
AcDbEntity
  8
0
100
AcDbLine
 10
27.905
 20
82.834
 30
0.0
 11
27.906
 21
82.834
 31
0.0
  0
LINE
  5
DA5
330
A35
100
AcDbEntity
  8
0
100
AcDbLine
 10
27.905
 20
82.834
 30
0.0
 11
27.905
 21
82.835
 31
0.0
  0
LINE
  5
DA6
330
A35
100
AcDbEntity
  8
0
100
AcDbLine
 10
28.006
 20
82.784
 30
0.0
 11
28.004
 21
82.784
 31
0.0
  0
LINE
  5
DA7
330
A35
100
AcDbEntity
  8
0
100
AcDbLine
 10
27.906
 20
82.834
 30
0.0
 11
27.906
 21
82.834
 31
0.0
  0
LINE
  5
DA8
330
A35
100
AcDbEntity
  8
0
100
AcDbLine
 10
27.904
 20
82.835
 30
0.0
 11
27.905
 21
82.835
 31
0.0
  0
LINE
  5
DA9
330
A35
100
AcDbEntity
  8
0
100
AcDbLine
 10
27.906
 20
82.834
 30
0.0
 11
27.907
 21
82.833
 31
0.0
  0
LINE
  5
DAA
330
A35
100
AcDbEntity
  8
0
100
AcDbLine
 10
27.905
 20
82.834
 30
0.0
 11
27.906
 21
82.834
 31
0.0
  0
LINE
  5
DAB
330
A35
100
AcDbEntity
  8
0
100
AcDbLine
 10
27.907
 20
82.833
 30
0.0
 11
27.908
 21
82.833
 31
0.0
  0
LINE
  5
DAC
330
A35
100
AcDbEntity
  8
0
100
AcDbLine
 10
27.908
 20
82.833
 30
0.0
 11
27.909
 21
82.833
 31
0.0
  0
LINE
  5
DAD
330
A35
100
AcDbEntity
  8
0
100
AcDbLine
 10
27.909
 20
82.833
 30
0.0
 11
27.909
 21
82.832
 31
0.0
  0
LINE
  5
DAE
330
A35
100
AcDbEntity
  8
0
100
AcDbLine
 10
27.909
 20
82.833
 30
0.0
 11
27.91
 21
82.832
 31
0.0
  0
LINE
  5
DAF
330
A35
100
AcDbEntity
  8
0
100
AcDbLine
 10
27.908
 20
82.833
 30
0.0
 11
27.909
 21
82.833
 31
0.0
  0
LINE
  5
DB0
330
A35
100
AcDbEntity
  8
0
100
AcDbLine
 10
27.94
 20
82.817
 30
0.0
 11
27.938
 21
82.817
 31
0.0
  0
LINE
  5
DB1
330
A35
100
AcDbEntity
  8
0
100
AcDbLine
 10
27.911
 20
82.831
 30
0.0
 11
27.912
 21
82.831
 31
0.0
  0
LINE
  5
DB2
330
A35
100
AcDbEntity
  8
0
100
AcDbLine
 10
27.91
 20
82.832
 30
0.0
 11
27.911
 21
82.831
 31
0.0
  0
LINE
  5
DB3
330
A35
100
AcDbEntity
  8
0
100
AcDbLine
 10
27.912
 20
82.831
 30
0.0
 11
27.913
 21
82.83
 31
0.0
  0
LINE
  5
DB4
330
A35
100
AcDbEntity
  8
0
100
AcDbLine
 10
27.993
 20
82.79
 30
0.0
 11
27.991
 21
82.791
 31
0.0
  0
LINE
  5
DB5
330
A35
100
AcDbEntity
  8
0
100
AcDbLine
 10
27.912
 20
82.831
 30
0.0
 11
27.914
 21
82.83
 31
0.0
  0
LINE
  5
DB6
330
A35
100
AcDbEntity
  8
0
100
AcDbLine
 10
28.011
 20
82.781
 30
0.0
 11
28.01
 21
82.781
 31
0.0
  0
LINE
  5
DB7
330
A35
100
AcDbEntity
  8
0
100
AcDbLine
 10
27.914
 20
82.83
 30
0.0
 11
27.918
 21
82.828
 31
0.0
  0
LINE
  5
DB8
330
A35
100
AcDbEntity
  8
0
100
AcDbLine
 10
27.987
 20
82.793
 30
0.0
 11
27.985
 21
82.794
 31
0.0
  0
LINE
  5
DB9
330
A35
100
AcDbEntity
  8
0
100
AcDbLine
 10
28.003
 20
82.785
 30
0.0
 11
28.004
 21
82.784
 31
0.0
  0
LINE
  5
DBA
330
A35
100
AcDbEntity
  8
0
100
AcDbLine
 10
27.919
 20
82.827
 30
0.0
 11
27.92
 21
82.827
 31
0.0
  0
LINE
  5
DBB
330
A35
100
AcDbEntity
  8
0
100
AcDbLine
 10
27.92
 20
82.827
 30
0.0
 11
27.922
 21
82.826
 31
0.0
  0
LINE
  5
DBC
330
A35
100
AcDbEntity
  8
0
100
AcDbLine
 10
28.003
 20
82.785
 30
0.0
 11
28.006
 21
82.784
 31
0.0
  0
LINE
  5
DBD
330
A35
100
AcDbEntity
  8
0
100
AcDbLine
 10
27.922
 20
82.826
 30
0.0
 11
27.924
 21
82.825
 31
0.0
  0
LINE
  5
DBE
330
A35
100
AcDbEntity
  8
0
100
AcDbLine
 10
27.918
 20
82.828
 30
0.0
 11
27.919
 21
82.827
 31
0.0
  0
LINE
  5
DBF
330
A35
100
AcDbEntity
  8
0
100
AcDbLine
 10
27.98
 20
82.796
 30
0.0
 11
27.979
 21
82.797
 31
0.0
  0
LINE
  5
DC0
330
A35
100
AcDbEntity
  8
0
100
AcDbLine
 10
27.919
 20
82.827
 30
0.0
 11
27.921
 21
82.826
 31
0.0
  0
LINE
  5
DC1
330
A35
100
AcDbEntity
  8
0
100
AcDbLine
 10
27.978
 20
82.797
 30
0.0
 11
27.976
 21
82.799
 31
0.0
  0
LINE
  5
DC2
330
A35
100
AcDbEntity
  8
0
100
AcDbLine
 10
27.985
 20
82.794
 30
0.0
 11
27.983
 21
82.795
 31
0.0
  0
LINE
  5
DC3
330
A35
100
AcDbEntity
  8
0
100
AcDbLine
 10
28.007
 20
82.783
 30
0.0
 11
28.008
 21
82.782
 31
0.0
  0
LINE
  5
DC4
330
A35
100
AcDbEntity
  8
0
100
AcDbLine
 10
27.932
 20
82.821
 30
0.0
 11
27.934
 21
82.82
 31
0.0
  0
LINE
  5
DC5
330
A35
100
AcDbEntity
  8
0
100
AcDbLine
 10
28.008
 20
82.782
 30
0.0
 11
28.01
 21
82.781
 31
0.0
  0
LINE
  5
DC6
330
A35
100
AcDbEntity
  8
0
100
AcDbLine
 10
27.971
 20
82.801
 30
0.0
 11
27.969
 21
82.802
 31
0.0
  0
LINE
  5
DC7
330
A35
100
AcDbEntity
  8
0
100
AcDbLine
 10
27.937
 20
82.818
 30
0.0
 11
27.939
 21
82.817
 31
0.0
  0
LINE
  5
DC8
330
A35
100
AcDbEntity
  8
0
100
AcDbLine
 10
28.009
 20
82.782
 30
0.0
 11
28.008
 21
82.782
 31
0.0
  0
LINE
  5
DC9
330
A35
100
AcDbEntity
  8
0
100
AcDbLine
 10
28.01
 20
82.781
 30
0.0
 11
28.011
 21
82.781
 31
0.0
  0
LINE
  5
DCA
330
A35
100
AcDbEntity
  8
0
100
AcDbLine
 10
28.011
 20
82.781
 30
0.0
 11
28.012
 21
82.78
 31
0.0
  0
LINE
  5
DCB
330
A35
100
AcDbEntity
  8
0
100
AcDbLine
 10
28.008
 20
82.782
 30
0.0
 11
28.007
 21
82.783
 31
0.0
  0
LINE
  5
DCC
330
A35
100
AcDbEntity
  8
0
100
AcDbLine
 10
27.93
 20
82.822
 30
0.0
 11
27.932
 21
82.821
 31
0.0
  0
LINE
  5
DCD
330
A35
100
AcDbEntity
  8
0
100
AcDbLine
 10
27.932
 20
82.821
 30
0.0
 11
27.933
 21
82.82
 31
0.0
  0
LINE
  5
DCE
330
A35
100
AcDbEntity
  8
0
100
AcDbLine
 10
27.933
 20
82.82
 30
0.0
 11
27.935
 21
82.819
 31
0.0
  0
LINE
  5
DCF
330
A35
100
AcDbEntity
  8
0
100
AcDbLine
 10
27.935
 20
82.819
 30
0.0
 11
27.936
 21
82.819
 31
0.0
  0
LINE
  5
DD0
330
A35
100
AcDbEntity
  8
0
100
AcDbLine
 10
27.936
 20
82.819
 30
0.0
 11
27.938
 21
82.818
 31
0.0
  0
LINE
  5
DD1
330
A35
100
AcDbEntity
  8
0
100
AcDbLine
 10
28.012
 20
82.78
 30
0.0
 11
28.013
 21
82.78
 31
0.0
  0
LINE
  5
DD2
330
A35
100
AcDbEntity
  8
0
100
AcDbLine
 10
27.939
 20
82.817
 30
0.0
 11
27.941
 21
82.816
 31
0.0
  0
LINE
  5
DD3
330
A35
100
AcDbEntity
  8
0
100
AcDbLine
 10
27.956
 20
82.808
 30
0.0
 11
27.959
 21
82.807
 31
0.0
  0
LINE
  5
DD4
330
A35
100
AcDbEntity
  8
0
100
AcDbLine
 10
28.013
 20
82.78
 30
0.0
 11
28.014
 21
82.779
 31
0.0
  0
LINE
  5
DD5
330
A35
100
AcDbEntity
  8
0
100
AcDbLine
 10
27.942
 20
82.815
 30
0.0
 11
27.944
 21
82.815
 31
0.0
  0
LINE
  5
DD6
330
A35
100
AcDbEntity
  8
0
100
AcDbLine
 10
28.007
 20
82.783
 30
0.0
 11
28.006
 21
82.783
 31
0.0
  0
LINE
  5
DD7
330
A35
100
AcDbEntity
  8
0
100
AcDbLine
 10
27.962
 20
82.805
 30
0.0
 11
27.965
 21
82.804
 31
0.0
  0
LINE
  5
DD8
330
A35
100
AcDbEntity
  8
0
100
AcDbLine
 10
27.944
 20
82.815
 30
0.0
 11
27.957
 21
82.808
 31
0.0
  0
LINE
  5
DD9
330
A35
100
AcDbEntity
  8
0
100
AcDbLine
 10
27.945
 20
82.814
 30
0.0
 11
27.942
 21
82.815
 31
0.0
  0
LINE
  5
DDA
330
A35
100
AcDbEntity
  8
0
100
AcDbLine
 10
28.006
 20
82.783
 30
0.0
 11
28.005
 21
82.784
 31
0.0
  0
LINE
  5
DDB
330
A35
100
AcDbEntity
  8
0
100
AcDbLine
 10
27.943
 20
82.815
 30
0.0
 11
27.941
 21
82.816
 31
0.0
  0
LINE
  5
DDC
330
A35
100
AcDbEntity
  8
0
100
AcDbLine
 10
27.981
 20
82.796
 30
0.0
 11
27.98
 21
82.797
 31
0.0
  0
LINE
  5
DDD
330
A35
100
AcDbEntity
  8
0
100
AcDbLine
 10
28.003
 20
82.785
 30
0.0
 11
28.001
 21
82.786
 31
0.0
  0
LINE
  5
DDE
330
A35
100
AcDbEntity
  8
0
100
AcDbLine
 10
27.936
 20
82.819
 30
0.0
 11
27.934
 21
82.82
 31
0.0
  0
LINE
  5
DDF
330
A35
100
AcDbEntity
  8
0
100
AcDbLine
 10
28.017
 20
82.778
 30
0.0
 11
28.018
 21
82.777
 31
0.0
  0
LINE
  5
DE0
330
A35
100
AcDbEntity
  8
0
100
AcDbLine
 10
27.977
 20
82.798
 30
0.0
 11
27.98
 21
82.797
 31
0.0
  0
LINE
  5
DE1
330
A35
100
AcDbEntity
  8
0
100
AcDbLine
 10
27.98
 20
82.797
 30
0.0
 11
27.982
 21
82.795
 31
0.0
  0
LINE
  5
DE2
330
A35
100
AcDbEntity
  8
0
100
AcDbLine
 10
28.002
 20
82.785
 30
0.0
 11
28.0
 21
82.786
 31
0.0
  0
LINE
  5
DE3
330
A35
100
AcDbEntity
  8
0
100
AcDbLine
 10
27.983
 20
82.795
 30
0.0
 11
27.984
 21
82.794
 31
0.0
  0
LINE
  5
DE4
330
A35
100
AcDbEntity
  8
0
100
AcDbLine
 10
28.0
 20
82.786
 30
0.0
 11
27.999
 21
82.787
 31
0.0
  0
LINE
  5
DE5
330
A35
100
AcDbEntity
  8
0
100
AcDbLine
 10
27.925
 20
82.824
 30
0.0
 11
27.924
 21
82.825
 31
0.0
  0
LINE
  5
DE6
330
A35
100
AcDbEntity
  8
0
100
AcDbLine
 10
27.987
 20
82.793
 30
0.0
 11
27.989
 21
82.792
 31
0.0
  0
LINE
  5
DE7
330
A35
100
AcDbEntity
  8
0
100
AcDbLine
 10
27.98
 20
82.797
 30
0.0
 11
27.978
 21
82.797
 31
0.0
  0
LINE
  5
DE8
330
A35
100
AcDbEntity
  8
0
100
AcDbLine
 10
27.928
 20
82.823
 30
0.0
 11
27.927
 21
82.824
 31
0.0
  0
LINE
  5
DE9
330
A35
100
AcDbEntity
  8
0
100
AcDbLine
 10
27.927
 20
82.824
 30
0.0
 11
27.925
 21
82.824
 31
0.0
  0
LINE
  5
DEA
330
A35
100
AcDbEntity
  8
0
100
AcDbLine
 10
27.93
 20
82.822
 30
0.0
 11
27.923
 21
82.825
 31
0.0
  0
LINE
  5
DEB
330
A35
100
AcDbEntity
  8
0
100
AcDbLine
 10
27.964
 20
82.805
 30
0.0
 11
27.97
 21
82.802
 31
0.0
  0
LINE
  5
DEC
330
A35
100
AcDbEntity
  8
0
100
AcDbLine
 10
27.931
 20
82.821
 30
0.0
 11
27.929
 21
82.822
 31
0.0
  0
LINE
  5
DED
330
A35
100
AcDbEntity
  8
0
100
AcDbLine
 10
27.969
 20
82.802
 30
0.0
 11
27.971
 21
82.801
 31
0.0
  0
LINE
  5
DEE
330
A35
100
AcDbEntity
  8
0
100
AcDbLine
 10
27.999
 20
82.787
 30
0.0
 11
28.001
 21
82.786
 31
0.0
  0
LINE
  5
DEF
330
A35
100
AcDbEntity
  8
0
100
AcDbLine
 10
28.0
 20
82.786
 30
0.0
 11
28.001
 21
82.786
 31
0.0
  0
LINE
  5
DF0
330
A35
100
AcDbEntity
  8
0
100
AcDbLine
 10
28.001
 20
82.786
 30
0.0
 11
28.003
 21
82.785
 31
0.0
  0
LINE
  5
DF1
330
A35
100
AcDbEntity
  8
0
100
AcDbLine
 10
27.919
 20
82.827
 30
0.0
 11
27.918
 21
82.828
 31
0.0
  0
LINE
  5
DF2
330
A35
100
AcDbEntity
  8
0
100
AcDbLine
 10
27.971
 20
82.801
 30
0.0
 11
27.976
 21
82.798
 31
0.0
  0
LINE
  5
DF3
330
A35
100
AcDbEntity
  8
0
100
AcDbLine
 10
28.005
 20
82.784
 30
0.0
 11
28.007
 21
82.783
 31
0.0
  0
LINE
  5
DF4
330
A35
100
AcDbEntity
  8
0
100
AcDbLine
 10
27.932
 20
82.821
 30
0.0
 11
27.931
 21
82.821
 31
0.0
  0
LINE
  5
DF5
330
A35
100
AcDbEntity
  8
0
100
AcDbLine
 10
27.958
 20
82.807
 30
0.0
 11
27.956
 21
82.808
 31
0.0
  0
LINE
  5
DF6
330
A35
100
AcDbEntity
  8
0
100
AcDbLine
 10
27.976
 20
82.799
 30
0.0
 11
27.977
 21
82.798
 31
0.0
  0
LINE
  5
DF7
330
A35
100
AcDbEntity
  8
0
100
AcDbLine
 10
28.0
 20
82.787
 30
0.0
 11
27.993
 21
82.79
 31
0.0
  0
LINE
  5
DF8
330
A35
100
AcDbEntity
  8
0
100
AcDbLine
 10
27.913
 20
82.83
 30
0.0
 11
27.91
 21
82.832
 31
0.0
  0
LINE
  5
DF9
330
A35
100
AcDbEntity
  8
0
100
AcDbLine
 10
28.011
 20
82.781
 30
0.0
 11
28.012
 21
82.78
 31
0.0
  0
LINE
  5
DFA
330
A35
100
AcDbEntity
  8
0
100
AcDbLine
 10
27.938
 20
82.817
 30
0.0
 11
27.935
 21
82.819
 31
0.0
  0
LINE
  5
DFB
330
A35
100
AcDbEntity
  8
0
100
AcDbLine
 10
28.018
 20
82.777
 30
0.0
 11
28.018
 21
82.777
 31
0.0
  0
LINE
  5
DFC
330
A35
100
AcDbEntity
  8
0
100
AcDbLine
 10
27.91
 20
82.832
 30
0.0
 11
27.909
 21
82.832
 31
0.0
  0
LINE
  5
DFD
330
A35
100
AcDbEntity
  8
0
100
AcDbLine
 10
27.981
 20
82.796
 30
0.0
 11
27.984
 21
82.795
 31
0.0
  0
LINE
  5
DFE
330
A35
100
AcDbEntity
  8
0
100
AcDbLine
 10
27.942
 20
82.816
 30
0.0
 11
27.94
 21
82.817
 31
0.0
  0
LINE
  5
DFF
330
A35
100
AcDbEntity
  8
0
100
AcDbLine
 10
27.908
 20
82.833
 30
0.0
 11
27.907
 21
82.833
 31
0.0
  0
LINE
  5
E00
330
A35
100
AcDbEntity
  8
0
100
AcDbLine
 10
27.984
 20
82.794
 30
0.0
 11
27.987
 21
82.793
 31
0.0
  0
LINE
  5
E01
330
A35
100
AcDbEntity
  8
0
100
AcDbLine
 10
27.907
 20
82.833
 30
0.0
 11
27.906
 21
82.834
 31
0.0
  0
LINE
  5
E02
330
A35
100
AcDbEntity
  8
0
100
AcDbLine
 10
28.018
 20
82.777
 30
0.0
 11
28.018
 21
82.777
 31
0.0
  0
LINE
  5
E03
330
A35
100
AcDbEntity
  8
0
100
AcDbLine
 10
28.018
 20
82.777
 30
0.0
 11
28.018
 21
82.777
 31
0.0
  0
LINE
  5
E04
330
A35
100
AcDbEntity
  8
0
100
AcDbLine
 10
27.906
 20
82.834
 30
0.0
 11
27.906
 21
82.834
 31
0.0
  0
LINE
  5
E05
330
A35
100
AcDbEntity
  8
0
100
AcDbLine
 10
28.018
 20
82.777
 30
0.0
 11
28.016
 21
82.778
 31
0.0
  0
LINE
  5
E06
330
A35
100
AcDbEntity
  8
0
100
AcDbLine
 10
27.993
 20
82.79
 30
0.0
 11
27.992
 21
82.79
 31
0.0
  0
LINE
  5
E07
330
A35
100
AcDbEntity
  8
0
100
AcDbLine
 10
27.908
 20
82.833
 30
0.0
 11
27.907
 21
82.833
 31
0.0
  0
LINE
  5
E08
330
A35
100
AcDbEntity
  8
0
100
AcDbLine
 10
27.905
 20
82.834
 30
0.0
 11
27.904
 21
82.835
 31
0.0
  0
LINE
  5
E09
330
A35
100
AcDbEntity
  8
0
100
AcDbLine
 10
27.904
 20
82.835
 30
0.0
 11
27.904
 21
82.835
 31
0.0
  0
LINE
  5
E0A
330
A35
100
AcDbEntity
  8
0
100
AcDbLine
 10
27.91
 20
82.832
 30
0.0
 11
27.91
 21
82.832
 31
0.0
  0
LINE
  5
E0B
330
A35
100
AcDbEntity
  8
0
100
AcDbLine
 10
27.99
 20
82.792
 30
0.0
 11
27.991
 21
82.791
 31
0.0
  0
LINE
  5
E0C
330
A35
100
AcDbEntity
  8
0
100
AcDbLine
 10
27.989
 20
82.792
 30
0.0
 11
27.993
 21
82.79
 31
0.0
  0
LINE
  5
E0D
330
A35
100
AcDbEntity
  8
0
100
AcDbLine
 10
27.965
 20
82.804
 30
0.0
 11
27.963
 21
82.805
 31
0.0
  0
LINE
  5
E0E
330
A35
100
AcDbEntity
  8
0
100
AcDbLine
 10
28.016
 20
82.778
 30
0.0
 11
28.015
 21
82.779
 31
0.0
  0
LINE
  5
E0F
330
A35
100
AcDbEntity
  8
0
100
AcDbLine
 10
28.018
 20
82.777
 30
0.0
 11
28.017
 21
82.778
 31
0.0
  0
LINE
  5
E10
330
A35
100
AcDbEntity
  8
0
100
AcDbLine
 10
28.016
 20
82.778
 30
0.0
 11
28.014
 21
82.779
 31
0.0
  0
LINE
  5
E11
330
A35
100
AcDbEntity
  8
0
100
AcDbLine
 10
27.99
 20
82.791
 30
0.0
 11
27.988
 21
82.792
 31
0.0
  0
LINE
  5
E12
330
A35
100
AcDbEntity
  8
0
100
AcDbLine
 10
27.989
 20
82.792
 30
0.0
 11
27.986
 21
82.794
 31
0.0
  0
LINE
  5
E13
330
A35
100
AcDbEntity
  8
0
100
AcDbLine
 10
27.921
 20
82.826
 30
0.0
 11
27.92
 21
82.827
 31
0.0
  0
LINE
  5
E14
330
A35
100
AcDbEntity
  8
0
100
AcDbLine
 10
28.015
 20
82.779
 30
0.0
 11
28.014
 21
82.779
 31
0.0
  0
LINE
  5
E15
330
A35
100
AcDbEntity
  8
0
100
AcDbLine
 10
28.015
 20
82.779
 30
0.0
 11
28.013
 21
82.78
 31
0.0
  0
LINE
  5
E16
330
A35
100
AcDbEntity
  8
0
100
AcDbLine
 10
27.923
 20
82.825
 30
0.0
 11
27.921
 21
82.826
 31
0.0
  0
LINE
  5
E17
330
A35
100
AcDbEntity
  8
0
100
AcDbLine
 10
28.014
 20
82.779
 30
0.0
 11
28.012
 21
82.78
 31
0.0
  0
LINE
  5
E18
330
A35
100
AcDbEntity
  8
0
100
AcDbLine
 10
27.924
 20
82.825
 30
0.0
 11
27.923
 21
82.825
 31
0.0
  0
LINE
  5
E19
330
A35
100
AcDbEntity
  8
0
100
AcDbLine
 10
27.904
 20
82.835
 30
0.0
 11
27.904
 21
82.835
 31
0.0
  0
LINE
  5
E1A
330
A35
100
AcDbEntity
  8
0
100
AcDbLine
 10
28.01
 20
82.781
 30
0.0
 11
28.009
 21
82.782
 31
0.0
  0
LINE
  5
E1B
330
A35
100
AcDbEntity
  8
0
100
AcDbLine
 10
27.963
 20
82.805
 30
0.0
 11
27.958
 21
82.807
 31
0.0
  0
LINE
  5
E1C
330
A35
100
AcDbEntity
  8
0
100
AcDbLine
 10
27.811
 20
84.901
 30
0.0
 11
27.806
 21
84.903
 31
0.0
  0
LINE
  5
E1D
330
A35
100
AcDbEntity
  8
0
100
AcDbLine
 10
27.678
 20
84.966
 30
0.0
 11
27.676
 21
84.967
 31
0.0
  0
LINE
  5
E1E
330
A35
100
AcDbEntity
  8
0
100
AcDbLine
 10
27.612
 20
84.999
 30
0.0
 11
27.611
 21
84.999
 31
0.0
  0
LINE
  5
E1F
330
A35
100
AcDbEntity
  8
0
100
AcDbLine
 10
27.61
 20
85.0
 30
0.0
 11
27.611
 21
85.0
 31
0.0
  0
LINE
  5
E20
330
A35
100
AcDbEntity
  8
0
100
AcDbLine
 10
27.611
 20
85.0
 30
0.0
 11
27.611
 21
84.999
 31
0.0
  0
LINE
  5
E21
330
A35
100
AcDbEntity
  8
0
100
AcDbLine
 10
27.676
 20
84.967
 30
0.0
 11
27.673
 21
84.969
 31
0.0
  0
LINE
  5
E22
330
A35
100
AcDbEntity
  8
0
100
AcDbLine
 10
27.791
 20
84.91
 30
0.0
 11
27.793
 21
84.909
 31
0.0
  0
LINE
  5
E23
330
A35
100
AcDbEntity
  8
0
100
AcDbLine
 10
27.806
 20
84.903
 30
0.0
 11
27.799
 21
84.907
 31
0.0
  0
LINE
  5
E24
330
A35
100
AcDbEntity
  8
0
100
AcDbLine
 10
27.799
 20
84.907
 30
0.0
 11
27.796
 21
84.908
 31
0.0
  0
LINE
  5
E25
330
A35
100
AcDbEntity
  8
0
100
AcDbLine
 10
27.796
 20
84.908
 30
0.0
 11
27.793
 21
84.909
 31
0.0
  0
LINE
  5
E26
330
A35
100
AcDbEntity
  8
0
100
AcDbLine
 10
27.673
 20
84.969
 30
0.0
 11
27.67
 21
84.97
 31
0.0
  0
LINE
  5
E27
330
A35
100
AcDbEntity
  8
0
100
AcDbLine
 10
27.67
 20
84.97
 30
0.0
 11
27.667
 21
84.972
 31
0.0
  0
LINE
  5
E28
330
A35
100
AcDbEntity
  8
0
100
AcDbLine
 10
27.791
 20
84.91
 30
0.0
 11
27.78
 21
84.916
 31
0.0
  0
LINE
  5
E29
330
A35
100
AcDbEntity
  8
0
100
AcDbLine
 10
27.62
 20
84.995
 30
0.0
 11
27.618
 21
84.996
 31
0.0
  0
LINE
  5
E2A
330
A35
100
AcDbEntity
  8
0
100
AcDbLine
 10
27.665
 20
84.973
 30
0.0
 11
27.662
 21
84.974
 31
0.0
  0
LINE
  5
E2B
330
A35
100
AcDbEntity
  8
0
100
AcDbLine
 10
27.78
 20
84.916
 30
0.0
 11
27.777
 21
84.917
 31
0.0
  0
LINE
  5
E2C
330
A35
100
AcDbEntity
  8
0
100
AcDbLine
 10
27.815
 20
84.898
 30
0.0
 11
27.817
 21
84.897
 31
0.0
  0
LINE
  5
E2D
330
A35
100
AcDbEntity
  8
0
100
AcDbLine
 10
27.777
 20
84.917
 30
0.0
 11
27.774
 21
84.919
 31
0.0
  0
LINE
  5
E2E
330
A35
100
AcDbEntity
  8
0
100
AcDbLine
 10
27.774
 20
84.919
 30
0.0
 11
27.771
 21
84.92
 31
0.0
  0
LINE
  5
E2F
330
A35
100
AcDbEntity
  8
0
100
AcDbLine
 10
27.628
 20
84.991
 30
0.0
 11
27.63
 21
84.99
 31
0.0
  0
LINE
  5
E30
330
A35
100
AcDbEntity
  8
0
100
AcDbLine
 10
27.771
 20
84.92
 30
0.0
 11
27.768
 21
84.922
 31
0.0
  0
LINE
  5
E31
330
A35
100
AcDbEntity
  8
0
100
AcDbLine
 10
27.662
 20
84.974
 30
0.0
 11
27.659
 21
84.976
 31
0.0
  0
LINE
  5
E32
330
A35
100
AcDbEntity
  8
0
100
AcDbLine
 10
27.633
 20
84.988
 30
0.0
 11
27.635
 21
84.987
 31
0.0
  0
LINE
  5
E33
330
A35
100
AcDbEntity
  8
0
100
AcDbLine
 10
27.618
 20
84.996
 30
0.0
 11
27.617
 21
84.996
 31
0.0
  0
LINE
  5
E34
330
A35
100
AcDbEntity
  8
0
100
AcDbLine
 10
27.657
 20
84.977
 30
0.0
 11
27.654
 21
84.978
 31
0.0
  0
LINE
  5
E35
330
A35
100
AcDbEntity
  8
0
100
AcDbLine
 10
27.765
 20
84.923
 30
0.0
 11
27.753
 21
84.929
 31
0.0
  0
LINE
  5
E36
330
A35
100
AcDbEntity
  8
0
100
AcDbLine
 10
27.83
 20
84.891
 30
0.0
 11
27.832
 21
84.89
 31
0.0
  0
LINE
  5
E37
330
A35
100
AcDbEntity
  8
0
100
AcDbLine
 10
27.654
 20
84.978
 30
0.0
 11
27.651
 21
84.979
 31
0.0
  0
LINE
  5
E38
330
A35
100
AcDbEntity
  8
0
100
AcDbLine
 10
27.753
 20
84.929
 30
0.0
 11
27.75
 21
84.931
 31
0.0
  0
LINE
  5
E39
330
A35
100
AcDbEntity
  8
0
100
AcDbLine
 10
27.75
 20
84.931
 30
0.0
 11
27.747
 21
84.932
 31
0.0
  0
LINE
  5
E3A
330
A35
100
AcDbEntity
  8
0
100
AcDbLine
 10
27.747
 20
84.932
 30
0.0
 11
27.743
 21
84.934
 31
0.0
  0
LINE
  5
E3B
330
A35
100
AcDbEntity
  8
0
100
AcDbLine
 10
27.743
 20
84.934
 30
0.0
 11
27.74
 21
84.935
 31
0.0
  0
LINE
  5
E3C
330
A35
100
AcDbEntity
  8
0
100
AcDbLine
 10
27.657
 20
84.977
 30
0.0
 11
27.659
 21
84.976
 31
0.0
  0
LINE
  5
E3D
330
A35
100
AcDbEntity
  8
0
100
AcDbLine
 10
27.651
 20
84.979
 30
0.0
 11
27.649
 21
84.981
 31
0.0
  0
LINE
  5
E3E
330
A35
100
AcDbEntity
  8
0
100
AcDbLine
 10
27.649
 20
84.981
 30
0.0
 11
27.647
 21
84.982
 31
0.0
  0
LINE
  5
E3F
330
A35
100
AcDbEntity
  8
0
100
AcDbLine
 10
27.665
 20
84.973
 30
0.0
 11
27.667
 21
84.972
 31
0.0
  0
LINE
  5
E40
330
A35
100
AcDbEntity
  8
0
100
AcDbLine
 10
27.74
 20
84.935
 30
0.0
 11
27.731
 21
84.94
 31
0.0
  0
LINE
  5
E41
330
A35
100
AcDbEntity
  8
0
100
AcDbLine
 10
27.731
 20
84.94
 30
0.0
 11
27.728
 21
84.942
 31
0.0
  0
LINE
  5
E42
330
A35
100
AcDbEntity
  8
0
100
AcDbLine
 10
27.647
 20
84.982
 30
0.0
 11
27.644
 21
84.983
 31
0.0
  0
LINE
  5
E43
330
A35
100
AcDbEntity
  8
0
100
AcDbLine
 10
27.617
 20
84.996
 30
0.0
 11
27.615
 21
84.997
 31
0.0
  0
LINE
  5
E44
330
A35
100
AcDbEntity
  8
0
100
AcDbLine
 10
27.728
 20
84.942
 30
0.0
 11
27.718
 21
84.946
 31
0.0
  0
LINE
  5
E45
330
A35
100
AcDbEntity
  8
0
100
AcDbLine
 10
27.718
 20
84.946
 30
0.0
 11
27.715
 21
84.948
 31
0.0
  0
LINE
  5
E46
330
A35
100
AcDbEntity
  8
0
100
AcDbLine
 10
27.684
 20
84.963
 30
0.0
 11
27.687
 21
84.962
 31
0.0
  0
LINE
  5
E47
330
A35
100
AcDbEntity
  8
0
100
AcDbLine
 10
27.612
 20
84.999
 30
0.0
 11
27.612
 21
84.999
 31
0.0
  0
LINE
  5
E48
330
A35
100
AcDbEntity
  8
0
100
AcDbLine
 10
27.613
 20
84.998
 30
0.0
 11
27.612
 21
84.999
 31
0.0
  0
LINE
  5
E49
330
A35
100
AcDbEntity
  8
0
100
AcDbLine
 10
27.614
 20
84.998
 30
0.0
 11
27.613
 21
84.998
 31
0.0
  0
LINE
  5
E4A
330
A35
100
AcDbEntity
  8
0
100
AcDbLine
 10
27.615
 20
84.997
 30
0.0
 11
27.614
 21
84.998
 31
0.0
  0
LINE
  5
E4B
330
A35
100
AcDbEntity
  8
0
100
AcDbLine
 10
27.844
 20
84.884
 30
0.0
 11
27.843
 21
84.884
 31
0.0
  0
LINE
  5
E4C
330
A35
100
AcDbEntity
  8
0
100
AcDbLine
 10
27.703
 20
84.954
 30
0.0
 11
27.706
 21
84.952
 31
0.0
  0
LINE
  5
E4D
330
A35
100
AcDbEntity
  8
0
100
AcDbLine
 10
27.843
 20
84.884
 30
0.0
 11
27.843
 21
84.885
 31
0.0
  0
LINE
  5
E4E
330
A35
100
AcDbEntity
  8
0
100
AcDbLine
 10
27.715
 20
84.948
 30
0.0
 11
27.712
 21
84.949
 31
0.0
  0
LINE
  5
E4F
330
A35
100
AcDbEntity
  8
0
100
AcDbLine
 10
27.712
 20
84.949
 30
0.0
 11
27.709
 21
84.951
 31
0.0
  0
LINE
  5
E50
330
A35
100
AcDbEntity
  8
0
100
AcDbLine
 10
27.709
 20
84.951
 30
0.0
 11
27.706
 21
84.952
 31
0.0
  0
LINE
  5
E51
330
A35
100
AcDbEntity
  8
0
100
AcDbLine
 10
27.843
 20
84.885
 30
0.0
 11
27.837
 21
84.887
 31
0.0
  0
LINE
  5
E52
330
A35
100
AcDbEntity
  8
0
100
AcDbLine
 10
27.644
 20
84.983
 30
0.0
 11
27.638
 21
84.986
 31
0.0
  0
LINE
  5
E53
330
A35
100
AcDbEntity
  8
0
100
AcDbLine
 10
27.628
 20
84.991
 30
0.0
 11
27.623
 21
84.994
 31
0.0
  0
LINE
  5
E54
330
A35
100
AcDbEntity
  8
0
100
AcDbLine
 10
27.638
 20
84.986
 30
0.0
 11
27.635
 21
84.987
 31
0.0
  0
LINE
  5
E55
330
A35
100
AcDbEntity
  8
0
100
AcDbLine
 10
27.837
 20
84.887
 30
0.0
 11
27.836
 21
84.888
 31
0.0
  0
LINE
  5
E56
330
A35
100
AcDbEntity
  8
0
100
AcDbLine
 10
27.836
 20
84.888
 30
0.0
 11
27.835
 21
84.889
 31
0.0
  0
LINE
  5
E57
330
A35
100
AcDbEntity
  8
0
100
AcDbLine
 10
27.835
 20
84.889
 30
0.0
 11
27.833
 21
84.889
 31
0.0
  0
LINE
  5
E58
330
A35
100
AcDbEntity
  8
0
100
AcDbLine
 10
27.833
 20
84.889
 30
0.0
 11
27.832
 21
84.89
 31
0.0
  0
LINE
  5
E59
330
A35
100
AcDbEntity
  8
0
100
AcDbLine
 10
27.623
 20
84.994
 30
0.0
 11
27.621
 21
84.994
 31
0.0
  0
LINE
  5
E5A
330
A35
100
AcDbEntity
  8
0
100
AcDbLine
 10
27.83
 20
84.891
 30
0.0
 11
27.827
 21
84.893
 31
0.0
  0
LINE
  5
E5B
330
A35
100
AcDbEntity
  8
0
100
AcDbLine
 10
27.703
 20
84.954
 30
0.0
 11
27.687
 21
84.962
 31
0.0
  0
LINE
  5
E5C
330
A35
100
AcDbEntity
  8
0
100
AcDbLine
 10
27.827
 20
84.893
 30
0.0
 11
27.825
 21
84.893
 31
0.0
  0
LINE
  5
E5D
330
A35
100
AcDbEntity
  8
0
100
AcDbLine
 10
27.825
 20
84.893
 30
0.0
 11
27.823
 21
84.894
 31
0.0
  0
LINE
  5
E5E
330
A35
100
AcDbEntity
  8
0
100
AcDbLine
 10
27.823
 20
84.894
 30
0.0
 11
27.821
 21
84.895
 31
0.0
  0
LINE
  5
E5F
330
A35
100
AcDbEntity
  8
0
100
AcDbLine
 10
27.821
 20
84.895
 30
0.0
 11
27.817
 21
84.897
 31
0.0
  0
LINE
  5
E60
330
A35
100
AcDbEntity
  8
0
100
AcDbLine
 10
27.765
 20
84.923
 30
0.0
 11
27.768
 21
84.922
 31
0.0
  0
LINE
  5
E61
330
A35
100
AcDbEntity
  8
0
100
AcDbLine
 10
27.633
 20
84.988
 30
0.0
 11
27.63
 21
84.99
 31
0.0
  0
LINE
  5
E62
330
A35
100
AcDbEntity
  8
0
100
AcDbLine
 10
27.621
 20
84.994
 30
0.0
 11
27.62
 21
84.995
 31
0.0
  0
LINE
  5
E63
330
A35
100
AcDbEntity
  8
0
100
AcDbLine
 10
27.815
 20
84.898
 30
0.0
 11
27.811
 21
84.901
 31
0.0
  0
LINE
  5
E64
330
A35
100
AcDbEntity
  8
0
100
AcDbLine
 10
27.684
 20
84.963
 30
0.0
 11
27.681
 21
84.964
 31
0.0
  0
LINE
  5
E65
330
A35
100
AcDbEntity
  8
0
100
AcDbLine
 10
27.681
 20
84.964
 30
0.0
 11
27.678
 21
84.966
 31
0.0
  0
LINE
  5
E66
330
A35
100
AcDbEntity
  8
0
100
AcDbLine
 10
53.334
 20
69.417
 30
0.0
 11
53.331
 21
69.419
 31
0.0
  0
LINE
  5
E67
330
A35
100
AcDbEntity
  8
0
100
AcDbLine
 10
53.331
 20
69.419
 30
0.0
 11
53.328
 21
69.421
 31
0.0
  0
LINE
  5
E68
330
A35
100
AcDbEntity
  8
0
100
AcDbLine
 10
53.223
 20
69.474
 30
0.0
 11
53.22
 21
69.475
 31
0.0
  0
LINE
  5
E69
330
A35
100
AcDbEntity
  8
0
100
AcDbLine
 10
53.189
 20
69.491
 30
0.0
 11
53.189
 21
69.491
 31
0.0
  0
LINE
  5
E6A
330
A35
100
AcDbEntity
  8
0
100
AcDbLine
 10
53.189
 20
69.491
 30
0.0
 11
53.189
 21
69.49
 31
0.0
  0
LINE
  5
E6B
330
A35
100
AcDbEntity
  8
0
100
AcDbLine
 10
53.189
 20
69.49
 30
0.0
 11
53.19
 21
69.49
 31
0.0
  0
LINE
  5
E6C
330
A35
100
AcDbEntity
  8
0
100
AcDbLine
 10
53.325
 20
69.422
 30
0.0
 11
53.322
 21
69.424
 31
0.0
  0
LINE
  5
E6D
330
A35
100
AcDbEntity
  8
0
100
AcDbLine
 10
53.398
 20
69.385
 30
0.0
 11
53.4
 21
69.384
 31
0.0
  0
LINE
  5
E6E
330
A35
100
AcDbEntity
  8
0
100
AcDbLine
 10
53.322
 20
69.424
 30
0.0
 11
53.319
 21
69.425
 31
0.0
  0
LINE
  5
E6F
330
A35
100
AcDbEntity
  8
0
100
AcDbLine
 10
53.319
 20
69.425
 30
0.0
 11
53.315
 21
69.427
 31
0.0
  0
LINE
  5
E70
330
A35
100
AcDbEntity
  8
0
100
AcDbLine
 10
53.315
 20
69.427
 30
0.0
 11
53.312
 21
69.428
 31
0.0
  0
LINE
  5
E71
330
A35
100
AcDbEntity
  8
0
100
AcDbLine
 10
53.312
 20
69.428
 30
0.0
 11
53.309
 21
69.43
 31
0.0
  0
LINE
  5
E72
330
A35
100
AcDbEntity
  8
0
100
AcDbLine
 10
53.309
 20
69.43
 30
0.0
 11
53.306
 21
69.432
 31
0.0
  0
LINE
  5
E73
330
A35
100
AcDbEntity
  8
0
100
AcDbLine
 10
53.306
 20
69.432
 30
0.0
 11
53.303
 21
69.433
 31
0.0
  0
LINE
  5
E74
330
A35
100
AcDbEntity
  8
0
100
AcDbLine
 10
53.303
 20
69.433
 30
0.0
 11
53.3
 21
69.435
 31
0.0
  0
LINE
  5
E75
330
A35
100
AcDbEntity
  8
0
100
AcDbLine
 10
53.3
 20
69.435
 30
0.0
 11
53.293
 21
69.438
 31
0.0
  0
LINE
  5
E76
330
A35
100
AcDbEntity
  8
0
100
AcDbLine
 10
53.201
 20
69.484
 30
0.0
 11
53.203
 21
69.484
 31
0.0
  0
LINE
  5
E77
330
A35
100
AcDbEntity
  8
0
100
AcDbLine
 10
53.41
 20
69.379
 30
0.0
 11
53.414
 21
69.377
 31
0.0
  0
LINE
  5
E78
330
A35
100
AcDbEntity
  8
0
100
AcDbLine
 10
53.22
 20
69.475
 30
0.0
 11
53.218
 21
69.476
 31
0.0
  0
LINE
  5
E79
330
A35
100
AcDbEntity
  8
0
100
AcDbLine
 10
53.293
 20
69.438
 30
0.0
 11
53.29
 21
69.439
 31
0.0
  0
LINE
  5
E7A
330
A35
100
AcDbEntity
  8
0
100
AcDbLine
 10
53.29
 20
69.439
 30
0.0
 11
53.287
 21
69.441
 31
0.0
  0
LINE
  5
E7B
330
A35
100
AcDbEntity
  8
0
100
AcDbLine
 10
53.287
 20
69.441
 30
0.0
 11
53.284
 21
69.443
 31
0.0
  0
LINE
  5
E7C
330
A35
100
AcDbEntity
  8
0
100
AcDbLine
 10
53.218
 20
69.476
 30
0.0
 11
53.214
 21
69.478
 31
0.0
  0
LINE
  5
E7D
330
A35
100
AcDbEntity
  8
0
100
AcDbLine
 10
53.419
 20
69.374
 30
0.0
 11
53.42
 21
69.374
 31
0.0
  0
LINE
  5
E7E
330
A35
100
AcDbEntity
  8
0
100
AcDbLine
 10
53.284
 20
69.443
 30
0.0
 11
53.278
 21
69.446
 31
0.0
  0
LINE
  5
E7F
330
A35
100
AcDbEntity
  8
0
100
AcDbLine
 10
53.278
 20
69.446
 30
0.0
 11
53.275
 21
69.447
 31
0.0
  0
LINE
  5
E80
330
A35
100
AcDbEntity
  8
0
100
AcDbLine
 10
53.275
 20
69.447
 30
0.0
 11
53.269
 21
69.45
 31
0.0
  0
LINE
  5
E81
330
A35
100
AcDbEntity
  8
0
100
AcDbLine
 10
53.191
 20
69.49
 30
0.0
 11
53.19
 21
69.49
 31
0.0
  0
LINE
  5
E82
330
A35
100
AcDbEntity
  8
0
100
AcDbLine
 10
53.2
 20
69.485
 30
0.0
 11
53.198
 21
69.486
 31
0.0
  0
LINE
  5
E83
330
A35
100
AcDbEntity
  8
0
100
AcDbLine
 10
53.192
 20
69.489
 30
0.0
 11
53.191
 21
69.49
 31
0.0
  0
LINE
  5
E84
330
A35
100
AcDbEntity
  8
0
100
AcDbLine
 10
53.193
 20
69.488
 30
0.0
 11
53.192
 21
69.489
 31
0.0
  0
LINE
  5
E85
330
A35
100
AcDbEntity
  8
0
100
AcDbLine
 10
53.194
 20
69.488
 30
0.0
 11
53.193
 21
69.488
 31
0.0
  0
LINE
  5
E86
330
A35
100
AcDbEntity
  8
0
100
AcDbLine
 10
53.196
 20
69.487
 30
0.0
 11
53.194
 21
69.488
 31
0.0
  0
LINE
  5
E87
330
A35
100
AcDbEntity
  8
0
100
AcDbLine
 10
53.237
 20
69.466
 30
0.0
 11
53.24
 21
69.465
 31
0.0
  0
LINE
  5
E88
330
A35
100
AcDbEntity
  8
0
100
AcDbLine
 10
53.422
 20
69.373
 30
0.0
 11
53.421
 21
69.373
 31
0.0
  0
LINE
  5
E89
330
A35
100
AcDbEntity
  8
0
100
AcDbLine
 10
53.421
 20
69.373
 30
0.0
 11
53.421
 21
69.374
 31
0.0
  0
LINE
  5
E8A
330
A35
100
AcDbEntity
  8
0
100
AcDbLine
 10
53.421
 20
69.374
 30
0.0
 11
53.42
 21
69.374
 31
0.0
  0
LINE
  5
E8B
330
A35
100
AcDbEntity
  8
0
100
AcDbLine
 10
53.243
 20
69.463
 30
0.0
 11
53.251
 21
69.459
 31
0.0
  0
LINE
  5
E8C
330
A35
100
AcDbEntity
  8
0
100
AcDbLine
 10
53.214
 20
69.478
 30
0.0
 11
53.212
 21
69.479
 31
0.0
  0
LINE
  5
E8D
330
A35
100
AcDbEntity
  8
0
100
AcDbLine
 10
53.419
 20
69.374
 30
0.0
 11
53.419
 21
69.375
 31
0.0
  0
LINE
  5
E8E
330
A35
100
AcDbEntity
  8
0
100
AcDbLine
 10
53.266
 20
69.452
 30
0.0
 11
53.263
 21
69.453
 31
0.0
  0
LINE
  5
E8F
330
A35
100
AcDbEntity
  8
0
100
AcDbLine
 10
53.419
 20
69.375
 30
0.0
 11
53.417
 21
69.376
 31
0.0
  0
LINE
  5
E90
330
A35
100
AcDbEntity
  8
0
100
AcDbLine
 10
53.417
 20
69.376
 30
0.0
 11
53.416
 21
69.376
 31
0.0
  0
LINE
  5
E91
330
A35
100
AcDbEntity
  8
0
100
AcDbLine
 10
53.266
 20
69.452
 30
0.0
 11
53.269
 21
69.45
 31
0.0
  0
LINE
  5
E92
330
A35
100
AcDbEntity
  8
0
100
AcDbLine
 10
53.416
 20
69.376
 30
0.0
 11
53.414
 21
69.377
 31
0.0
  0
LINE
  5
E93
330
A35
100
AcDbEntity
  8
0
100
AcDbLine
 10
53.198
 20
69.486
 30
0.0
 11
53.197
 21
69.487
 31
0.0
  0
LINE
  5
E94
330
A35
100
AcDbEntity
  8
0
100
AcDbLine
 10
53.263
 20
69.453
 30
0.0
 11
53.257
 21
69.456
 31
0.0
  0
LINE
  5
E95
330
A35
100
AcDbEntity
  8
0
100
AcDbLine
 10
53.257
 20
69.456
 30
0.0
 11
53.254
 21
69.458
 31
0.0
  0
LINE
  5
E96
330
A35
100
AcDbEntity
  8
0
100
AcDbLine
 10
53.41
 20
69.379
 30
0.0
 11
53.409
 21
69.38
 31
0.0
  0
LINE
  5
E97
330
A35
100
AcDbEntity
  8
0
100
AcDbLine
 10
53.409
 20
69.38
 30
0.0
 11
53.407
 21
69.381
 31
0.0
  0
LINE
  5
E98
330
A35
100
AcDbEntity
  8
0
100
AcDbLine
 10
53.407
 20
69.381
 30
0.0
 11
53.405
 21
69.382
 31
0.0
  0
LINE
  5
E99
330
A35
100
AcDbEntity
  8
0
100
AcDbLine
 10
53.254
 20
69.458
 30
0.0
 11
53.251
 21
69.459
 31
0.0
  0
LINE
  5
E9A
330
A35
100
AcDbEntity
  8
0
100
AcDbLine
 10
53.212
 20
69.479
 30
0.0
 11
53.208
 21
69.481
 31
0.0
  0
LINE
  5
E9B
330
A35
100
AcDbEntity
  8
0
100
AcDbLine
 10
53.405
 20
69.382
 30
0.0
 11
53.4
 21
69.384
 31
0.0
  0
LINE
  5
E9C
330
A35
100
AcDbEntity
  8
0
100
AcDbLine
 10
53.208
 20
69.481
 30
0.0
 11
53.206
 21
69.482
 31
0.0
  0
LINE
  5
E9D
330
A35
100
AcDbEntity
  8
0
100
AcDbLine
 10
53.398
 20
69.385
 30
0.0
 11
53.396
 21
69.386
 31
0.0
  0
LINE
  5
E9E
330
A35
100
AcDbEntity
  8
0
100
AcDbLine
 10
53.396
 20
69.386
 30
0.0
 11
53.393
 21
69.388
 31
0.0
  0
LINE
  5
E9F
330
A35
100
AcDbEntity
  8
0
100
AcDbLine
 10
53.393
 20
69.388
 30
0.0
 11
53.391
 21
69.389
 31
0.0
  0
LINE
  5
EA0
330
A35
100
AcDbEntity
  8
0
100
AcDbLine
 10
53.391
 20
69.389
 30
0.0
 11
53.389
 21
69.39
 31
0.0
  0
LINE
  5
EA1
330
A35
100
AcDbEntity
  8
0
100
AcDbLine
 10
53.389
 20
69.39
 30
0.0
 11
53.387
 21
69.391
 31
0.0
  0
LINE
  5
EA2
330
A35
100
AcDbEntity
  8
0
100
AcDbLine
 10
53.387
 20
69.391
 30
0.0
 11
53.384
 21
69.392
 31
0.0
  0
LINE
  5
EA3
330
A35
100
AcDbEntity
  8
0
100
AcDbLine
 10
53.384
 20
69.392
 30
0.0
 11
53.382
 21
69.393
 31
0.0
  0
LINE
  5
EA4
330
A35
100
AcDbEntity
  8
0
100
AcDbLine
 10
53.325
 20
69.422
 30
0.0
 11
53.328
 21
69.421
 31
0.0
  0
LINE
  5
EA5
330
A35
100
AcDbEntity
  8
0
100
AcDbLine
 10
53.382
 20
69.393
 30
0.0
 11
53.377
 21
69.396
 31
0.0
  0
LINE
  5
EA6
330
A35
100
AcDbEntity
  8
0
100
AcDbLine
 10
53.206
 20
69.482
 30
0.0
 11
53.204
 21
69.483
 31
0.0
  0
LINE
  5
EA7
330
A35
100
AcDbEntity
  8
0
100
AcDbLine
 10
53.334
 20
69.417
 30
0.0
 11
53.337
 21
69.416
 31
0.0
  0
LINE
  5
EA8
330
A35
100
AcDbEntity
  8
0
100
AcDbLine
 10
53.243
 20
69.463
 30
0.0
 11
53.24
 21
69.465
 31
0.0
  0
LINE
  5
EA9
330
A35
100
AcDbEntity
  8
0
100
AcDbLine
 10
53.204
 20
69.483
 30
0.0
 11
53.203
 21
69.484
 31
0.0
  0
LINE
  5
EAA
330
A35
100
AcDbEntity
  8
0
100
AcDbLine
 10
53.372
 20
69.398
 30
0.0
 11
53.369
 21
69.4
 31
0.0
  0
LINE
  5
EAB
330
A35
100
AcDbEntity
  8
0
100
AcDbLine
 10
53.237
 20
69.466
 30
0.0
 11
53.235
 21
69.467
 31
0.0
  0
LINE
  5
EAC
330
A35
100
AcDbEntity
  8
0
100
AcDbLine
 10
53.235
 20
69.467
 30
0.0
 11
53.232
 21
69.469
 31
0.0
  0
LINE
  5
EAD
330
A35
100
AcDbEntity
  8
0
100
AcDbLine
 10
53.197
 20
69.487
 30
0.0
 11
53.196
 21
69.487
 31
0.0
  0
LINE
  5
EAE
330
A35
100
AcDbEntity
  8
0
100
AcDbLine
 10
53.355
 20
69.407
 30
0.0
 11
53.358
 21
69.405
 31
0.0
  0
LINE
  5
EAF
330
A35
100
AcDbEntity
  8
0
100
AcDbLine
 10
53.361
 20
69.404
 30
0.0
 11
53.358
 21
69.405
 31
0.0
  0
LINE
  5
EB0
330
A35
100
AcDbEntity
  8
0
100
AcDbLine
 10
53.232
 20
69.469
 30
0.0
 11
53.227
 21
69.471
 31
0.0
  0
LINE
  5
EB1
330
A35
100
AcDbEntity
  8
0
100
AcDbLine
 10
53.355
 20
69.407
 30
0.0
 11
53.352
 21
69.408
 31
0.0
  0
LINE
  5
EB2
330
A35
100
AcDbEntity
  8
0
100
AcDbLine
 10
53.361
 20
69.404
 30
0.0
 11
53.369
 21
69.4
 31
0.0
  0
LINE
  5
EB3
330
A35
100
AcDbEntity
  8
0
100
AcDbLine
 10
53.352
 20
69.408
 30
0.0
 11
53.349
 21
69.41
 31
0.0
  0
LINE
  5
EB4
330
A35
100
AcDbEntity
  8
0
100
AcDbLine
 10
53.372
 20
69.398
 30
0.0
 11
53.374
 21
69.397
 31
0.0
  0
LINE
  5
EB5
330
A35
100
AcDbEntity
  8
0
100
AcDbLine
 10
53.374
 20
69.397
 30
0.0
 11
53.377
 21
69.396
 31
0.0
  0
LINE
  5
EB6
330
A35
100
AcDbEntity
  8
0
100
AcDbLine
 10
53.349
 20
69.41
 30
0.0
 11
53.346
 21
69.411
 31
0.0
  0
LINE
  5
EB7
330
A35
100
AcDbEntity
  8
0
100
AcDbLine
 10
53.201
 20
69.484
 30
0.0
 11
53.2
 21
69.485
 31
0.0
  0
LINE
  5
EB8
330
A35
100
AcDbEntity
  8
0
100
AcDbLine
 10
53.346
 20
69.411
 30
0.0
 11
53.34
 21
69.414
 31
0.0
  0
LINE
  5
EB9
330
A35
100
AcDbEntity
  8
0
100
AcDbLine
 10
53.34
 20
69.414
 30
0.0
 11
53.337
 21
69.416
 31
0.0
  0
LINE
  5
EBA
330
A35
100
AcDbEntity
  8
0
100
AcDbLine
 10
53.227
 20
69.471
 30
0.0
 11
53.223
 21
69.474
 31
0.0
  0
LINE
  5
EBB
330
A35
100
AcDbEntity
  8
0
100
AcDbLine
 10
53.306
 20
69.138
 30
0.0
 11
53.305
 21
69.138
 31
0.0
  0
LINE
  5
EBC
330
A35
100
AcDbEntity
  8
0
100
AcDbLine
 10
53.306
 20
69.137
 30
0.0
 11
53.305
 21
69.138
 31
0.0
  0
LINE
  5
EBD
330
A35
100
AcDbEntity
  8
0
100
AcDbLine
 10
53.307
 20
69.137
 30
0.0
 11
53.306
 21
69.137
 31
0.0
  0
LINE
  5
EBE
330
A35
100
AcDbEntity
  8
0
100
AcDbLine
 10
53.307
 20
69.137
 30
0.0
 11
53.307
 21
69.137
 31
0.0
  0
LINE
  5
EBF
330
A35
100
AcDbEntity
  8
0
100
AcDbLine
 10
53.422
 20
69.082
 30
0.0
 11
53.421
 21
69.082
 31
0.0
  0
LINE
  5
EC0
330
A35
100
AcDbEntity
  8
0
100
AcDbLine
 10
53.406
 20
69.09
 30
0.0
 11
53.403
 21
69.091
 31
0.0
  0
LINE
  5
EC1
330
A35
100
AcDbEntity
  8
0
100
AcDbLine
 10
53.403
 20
69.091
 30
0.0
 11
53.402
 21
69.091
 31
0.0
  0
LINE
  5
EC2
330
A35
100
AcDbEntity
  8
0
100
AcDbLine
 10
53.421
 20
69.082
 30
0.0
 11
53.42
 21
69.083
 31
0.0
  0
LINE
  5
EC3
330
A35
100
AcDbEntity
  8
0
100
AcDbLine
 10
53.419
 20
69.083
 30
0.0
 11
53.42
 21
69.083
 31
0.0
  0
LINE
  5
EC4
330
A35
100
AcDbEntity
  8
0
100
AcDbLine
 10
53.42
 20
69.083
 30
0.0
 11
53.419
 21
69.083
 31
0.0
  0
LINE
  5
EC5
330
A35
100
AcDbEntity
  8
0
100
AcDbLine
 10
53.42
 20
69.082
 30
0.0
 11
53.418
 21
69.083
 31
0.0
  0
LINE
  5
EC6
330
A35
100
AcDbEntity
  8
0
100
AcDbLine
 10
53.419
 20
69.083
 30
0.0
 11
53.418
 21
69.084
 31
0.0
  0
LINE
  5
EC7
330
A35
100
AcDbEntity
  8
0
100
AcDbLine
 10
53.418
 20
69.084
 30
0.0
 11
53.417
 21
69.084
 31
0.0
  0
LINE
  5
EC8
330
A35
100
AcDbEntity
  8
0
100
AcDbLine
 10
53.417
 20
69.084
 30
0.0
 11
53.416
 21
69.084
 31
0.0
  0
LINE
  5
EC9
330
A35
100
AcDbEntity
  8
0
100
AcDbLine
 10
53.42
 20
69.083
 30
0.0
 11
53.42
 21
69.083
 31
0.0
  0
LINE
  5
ECA
330
A35
100
AcDbEntity
  8
0
100
AcDbLine
 10
53.415
 20
69.085
 30
0.0
 11
53.414
 21
69.085
 31
0.0
  0
LINE
  5
ECB
330
A35
100
AcDbEntity
  8
0
100
AcDbLine
 10
53.414
 20
69.085
 30
0.0
 11
53.412
 21
69.086
 31
0.0
  0
LINE
  5
ECC
330
A35
100
AcDbEntity
  8
0
100
AcDbLine
 10
53.35
 20
69.116
 30
0.0
 11
53.348
 21
69.117
 31
0.0
  0
LINE
  5
ECD
330
A35
100
AcDbEntity
  8
0
100
AcDbLine
 10
53.335
 20
69.123
 30
0.0
 11
53.337
 21
69.123
 31
0.0
  0
LINE
  5
ECE
330
A35
100
AcDbEntity
  8
0
100
AcDbLine
 10
53.337
 20
69.123
 30
0.0
 11
53.338
 21
69.122
 31
0.0
  0
LINE
  5
ECF
330
A35
100
AcDbEntity
  8
0
100
AcDbLine
 10
53.41
 20
69.087
 30
0.0
 11
53.409
 21
69.088
 31
0.0
  0
LINE
  5
ED0
330
A35
100
AcDbEntity
  8
0
100
AcDbLine
 10
53.335
 20
69.124
 30
0.0
 11
53.34
 21
69.121
 31
0.0
  0
LINE
  5
ED1
330
A35
100
AcDbEntity
  8
0
100
AcDbLine
 10
53.409
 20
69.088
 30
0.0
 11
53.407
 21
69.089
 31
0.0
  0
LINE
  5
ED2
330
A35
100
AcDbEntity
  8
0
100
AcDbLine
 10
53.407
 20
69.089
 30
0.0
 11
53.406
 21
69.089
 31
0.0
  0
LINE
  5
ED3
330
A35
100
AcDbEntity
  8
0
100
AcDbLine
 10
53.406
 20
69.089
 30
0.0
 11
53.405
 21
69.09
 31
0.0
  0
LINE
  5
ED4
330
A35
100
AcDbEntity
  8
0
100
AcDbLine
 10
53.405
 20
69.09
 30
0.0
 11
53.403
 21
69.091
 31
0.0
  0
LINE
  5
ED5
330
A35
100
AcDbEntity
  8
0
100
AcDbLine
 10
53.403
 20
69.091
 30
0.0
 11
53.401
 21
69.091
 31
0.0
  0
LINE
  5
ED6
330
A35
100
AcDbEntity
  8
0
100
AcDbLine
 10
53.402
 20
69.091
 30
0.0
 11
53.4
 21
69.092
 31
0.0
  0
LINE
  5
ED7
330
A35
100
AcDbEntity
  8
0
100
AcDbLine
 10
53.34
 20
69.121
 30
0.0
 11
53.341
 21
69.12
 31
0.0
  0
LINE
  5
ED8
330
A35
100
AcDbEntity
  8
0
100
AcDbLine
 10
53.341
 20
69.12
 30
0.0
 11
53.343
 21
69.12
 31
0.0
  0
LINE
  5
ED9
330
A35
100
AcDbEntity
  8
0
100
AcDbLine
 10
53.398
 20
69.093
 30
0.0
 11
53.397
 21
69.094
 31
0.0
  0
LINE
  5
EDA
330
A35
100
AcDbEntity
  8
0
100
AcDbLine
 10
53.399
 20
69.093
 30
0.0
 11
53.395
 21
69.094
 31
0.0
  0
LINE
  5
EDB
330
A35
100
AcDbEntity
  8
0
100
AcDbLine
 10
53.395
 20
69.094
 30
0.0
 11
53.394
 21
69.095
 31
0.0
  0
LINE
  5
EDC
330
A35
100
AcDbEntity
  8
0
100
AcDbLine
 10
53.394
 20
69.095
 30
0.0
 11
53.391
 21
69.096
 31
0.0
  0
LINE
  5
EDD
330
A35
100
AcDbEntity
  8
0
100
AcDbLine
 10
53.4
 20
69.092
 30
0.0
 11
53.398
 21
69.093
 31
0.0
  0
LINE
  5
EDE
330
A35
100
AcDbEntity
  8
0
100
AcDbLine
 10
53.391
 20
69.096
 30
0.0
 11
53.39
 21
69.097
 31
0.0
  0
LINE
  5
EDF
330
A35
100
AcDbEntity
  8
0
100
AcDbLine
 10
53.344
 20
69.119
 30
0.0
 11
53.346
 21
69.118
 31
0.0
  0
LINE
  5
EE0
330
A35
100
AcDbEntity
  8
0
100
AcDbLine
 10
53.388
 20
69.098
 30
0.0
 11
53.386
 21
69.099
 31
0.0
  0
LINE
  5
EE1
330
A35
100
AcDbEntity
  8
0
100
AcDbLine
 10
53.386
 20
69.099
 30
0.0
 11
53.385
 21
69.1
 31
0.0
  0
LINE
  5
EE2
330
A35
100
AcDbEntity
  8
0
100
AcDbLine
 10
53.385
 20
69.1
 30
0.0
 11
53.383
 21
69.1
 31
0.0
  0
LINE
  5
EE3
330
A35
100
AcDbEntity
  8
0
100
AcDbLine
 10
53.346
 20
69.118
 30
0.0
 11
53.348
 21
69.117
 31
0.0
  0
LINE
  5
EE4
330
A35
100
AcDbEntity
  8
0
100
AcDbLine
 10
53.421
 20
69.082
 30
0.0
 11
53.421
 21
69.082
 31
0.0
  0
LINE
  5
EE5
330
A35
100
AcDbEntity
  8
0
100
AcDbLine
 10
53.316
 20
69.133
 30
0.0
 11
53.315
 21
69.133
 31
0.0
  0
LINE
  5
EE6
330
A35
100
AcDbEntity
  8
0
100
AcDbLine
 10
53.332
 20
69.125
 30
0.0
 11
53.327
 21
69.127
 31
0.0
  0
LINE
  5
EE7
330
A35
100
AcDbEntity
  8
0
100
AcDbLine
 10
53.377
 20
69.103
 30
0.0
 11
53.375
 21
69.104
 31
0.0
  0
LINE
  5
EE8
330
A35
100
AcDbEntity
  8
0
100
AcDbLine
 10
53.32
 20
69.131
 30
0.0
 11
53.317
 21
69.132
 31
0.0
  0
LINE
  5
EE9
330
A35
100
AcDbEntity
  8
0
100
AcDbLine
 10
53.327
 20
69.127
 30
0.0
 11
53.326
 21
69.128
 31
0.0
  0
LINE
  5
EEA
330
A35
100
AcDbEntity
  8
0
100
AcDbLine
 10
53.376
 20
69.104
 30
0.0
 11
53.37
 21
69.107
 31
0.0
  0
LINE
  5
EEB
330
A35
100
AcDbEntity
  8
0
100
AcDbLine
 10
53.321
 20
69.13
 30
0.0
 11
53.32
 21
69.131
 31
0.0
  0
LINE
  5
EEC
330
A35
100
AcDbEntity
  8
0
100
AcDbLine
 10
53.354
 20
69.114
 30
0.0
 11
53.361
 21
69.111
 31
0.0
  0
LINE
  5
EED
330
A35
100
AcDbEntity
  8
0
100
AcDbLine
 10
53.401
 20
69.092
 30
0.0
 11
53.395
 21
69.095
 31
0.0
  0
LINE
  5
EEE
330
A35
100
AcDbEntity
  8
0
100
AcDbLine
 10
53.36
 20
69.111
 30
0.0
 11
53.363
 21
69.11
 31
0.0
  0
LINE
  5
EEF
330
A35
100
AcDbEntity
  8
0
100
AcDbLine
 10
53.362
 20
69.111
 30
0.0
 11
53.37
 21
69.107
 31
0.0
  0
LINE
  5
EF0
330
A35
100
AcDbEntity
  8
0
100
AcDbLine
 10
53.396
 20
69.094
 30
0.0
 11
53.393
 21
69.095
 31
0.0
  0
LINE
  5
EF1
330
A35
100
AcDbEntity
  8
0
100
AcDbLine
 10
53.394
 20
69.095
 30
0.0
 11
53.392
 21
69.096
 31
0.0
  0
LINE
  5
EF2
330
A35
100
AcDbEntity
  8
0
100
AcDbLine
 10
53.327
 20
69.127
 30
0.0
 11
53.325
 21
69.129
 31
0.0
  0
LINE
  5
EF3
330
A35
100
AcDbEntity
  8
0
100
AcDbLine
 10
53.369
 20
69.107
 30
0.0
 11
53.371
 21
69.106
 31
0.0
  0
LINE
  5
EF4
330
A35
100
AcDbEntity
  8
0
100
AcDbLine
 10
53.355
 20
69.114
 30
0.0
 11
53.354
 21
69.114
 31
0.0
  0
LINE
  5
EF5
330
A35
100
AcDbEntity
  8
0
100
AcDbLine
 10
53.422
 20
69.082
 30
0.0
 11
53.42
 21
69.082
 31
0.0
  0
LINE
  5
EF6
330
A35
100
AcDbEntity
  8
0
100
AcDbLine
 10
53.363
 20
69.11
 30
0.0
 11
53.361
 21
69.111
 31
0.0
  0
LINE
  5
EF7
330
A35
100
AcDbEntity
  8
0
100
AcDbLine
 10
53.393
 20
69.096
 30
0.0
 11
53.389
 21
69.097
 31
0.0
  0
LINE
  5
EF8
330
A35
100
AcDbEntity
  8
0
100
AcDbLine
 10
53.349
 20
69.117
 30
0.0
 11
53.347
 21
69.118
 31
0.0
  0
LINE
  5
EF9
330
A35
100
AcDbEntity
  8
0
100
AcDbLine
 10
53.347
 20
69.118
 30
0.0
 11
53.345
 21
69.119
 31
0.0
  0
LINE
  5
EFA
330
A35
100
AcDbEntity
  8
0
100
AcDbLine
 10
53.376
 20
69.104
 30
0.0
 11
53.377
 21
69.103
 31
0.0
  0
LINE
  5
EFB
330
A35
100
AcDbEntity
  8
0
100
AcDbLine
 10
53.344
 20
69.119
 30
0.0
 11
53.342
 21
69.12
 31
0.0
  0
LINE
  5
EFC
330
A35
100
AcDbEntity
  8
0
100
AcDbLine
 10
53.342
 20
69.12
 30
0.0
 11
53.339
 21
69.122
 31
0.0
  0
LINE
  5
EFD
330
A35
100
AcDbEntity
  8
0
100
AcDbLine
 10
53.341
 20
69.121
 30
0.0
 11
53.339
 21
69.122
 31
0.0
  0
LINE
  5
EFE
330
A35
100
AcDbEntity
  8
0
100
AcDbLine
 10
53.345
 20
69.119
 30
0.0
 11
53.343
 21
69.119
 31
0.0
  0
LINE
  5
EFF
330
A35
100
AcDbEntity
  8
0
100
AcDbLine
 10
53.387
 20
69.098
 30
0.0
 11
53.384
 21
69.1
 31
0.0
  0
LINE
  5
F00
330
A35
100
AcDbEntity
  8
0
100
AcDbLine
 10
53.38
 20
69.102
 30
0.0
 11
53.382
 21
69.101
 31
0.0
  0
LINE
  5
F01
330
A35
100
AcDbEntity
  8
0
100
AcDbLine
 10
53.337
 20
69.122
 30
0.0
 11
53.333
 21
69.124
 31
0.0
  0
LINE
  5
F02
330
A35
100
AcDbEntity
  8
0
100
AcDbLine
 10
53.333
 20
69.124
 30
0.0
 11
53.332
 21
69.125
 31
0.0
  0
LINE
  5
F03
330
A35
100
AcDbEntity
  8
0
100
AcDbLine
 10
53.332
 20
69.125
 30
0.0
 11
53.33
 21
69.126
 31
0.0
  0
LINE
  5
F04
330
A35
100
AcDbEntity
  8
0
100
AcDbLine
 10
53.33
 20
69.126
 30
0.0
 11
53.329
 21
69.126
 31
0.0
  0
LINE
  5
F05
330
A35
100
AcDbEntity
  8
0
100
AcDbLine
 10
53.331
 20
69.125
 30
0.0
 11
53.328
 21
69.127
 31
0.0
  0
LINE
  5
F06
330
A35
100
AcDbEntity
  8
0
100
AcDbLine
 10
53.328
 20
69.127
 30
0.0
 11
53.326
 21
69.128
 31
0.0
  0
LINE
  5
F07
330
A35
100
AcDbEntity
  8
0
100
AcDbLine
 10
53.326
 20
69.128
 30
0.0
 11
53.325
 21
69.128
 31
0.0
  0
LINE
  5
F08
330
A35
100
AcDbEntity
  8
0
100
AcDbLine
 10
53.382
 20
69.101
 30
0.0
 11
53.384
 21
69.1
 31
0.0
  0
LINE
  5
F09
330
A35
100
AcDbEntity
  8
0
100
AcDbLine
 10
53.324
 20
69.129
 30
0.0
 11
53.322
 21
69.13
 31
0.0
  0
LINE
  5
F0A
330
A35
100
AcDbEntity
  8
0
100
AcDbLine
 10
53.323
 20
69.129
 30
0.0
 11
53.321
 21
69.13
 31
0.0
  0
LINE
  5
F0B
330
A35
100
AcDbEntity
  8
0
100
AcDbLine
 10
53.386
 20
69.099
 30
0.0
 11
53.384
 21
69.1
 31
0.0
  0
LINE
  5
F0C
330
A35
100
AcDbEntity
  8
0
100
AcDbLine
 10
53.419
 20
69.083
 30
0.0
 11
53.418
 21
69.084
 31
0.0
  0
LINE
  5
F0D
330
A35
100
AcDbEntity
  8
0
100
AcDbLine
 10
53.387
 20
69.099
 30
0.0
 11
53.389
 21
69.097
 31
0.0
  0
LINE
  5
F0E
330
A35
100
AcDbEntity
  8
0
100
AcDbLine
 10
53.318
 20
69.132
 30
0.0
 11
53.317
 21
69.132
 31
0.0
  0
LINE
  5
F0F
330
A35
100
AcDbEntity
  8
0
100
AcDbLine
 10
53.317
 20
69.132
 30
0.0
 11
53.316
 21
69.133
 31
0.0
  0
LINE
  5
F10
330
A35
100
AcDbEntity
  8
0
100
AcDbLine
 10
53.388
 20
69.098
 30
0.0
 11
53.39
 21
69.097
 31
0.0
  0
LINE
  5
F11
330
A35
100
AcDbEntity
  8
0
100
AcDbLine
 10
53.315
 20
69.133
 30
0.0
 11
53.312
 21
69.134
 31
0.0
  0
LINE
  5
F12
330
A35
100
AcDbEntity
  8
0
100
AcDbLine
 10
53.418
 20
69.083
 30
0.0
 11
53.417
 21
69.084
 31
0.0
  0
LINE
  5
F13
330
A35
100
AcDbEntity
  8
0
100
AcDbLine
 10
53.343
 20
69.119
 30
0.0
 11
53.342
 21
69.12
 31
0.0
  0
LINE
  5
F14
330
A35
100
AcDbEntity
  8
0
100
AcDbLine
 10
53.383
 20
69.1
 30
0.0
 11
53.381
 21
69.101
 31
0.0
  0
LINE
  5
F15
330
A35
100
AcDbEntity
  8
0
100
AcDbLine
 10
53.381
 20
69.101
 30
0.0
 11
53.38
 21
69.102
 31
0.0
  0
LINE
  5
F16
330
A35
100
AcDbEntity
  8
0
100
AcDbLine
 10
53.415
 20
69.085
 30
0.0
 11
53.413
 21
69.086
 31
0.0
  0
LINE
  5
F17
330
A35
100
AcDbEntity
  8
0
100
AcDbLine
 10
53.309
 20
69.136
 30
0.0
 11
53.308
 21
69.137
 31
0.0
  0
LINE
  5
F18
330
A35
100
AcDbEntity
  8
0
100
AcDbLine
 10
53.309
 20
69.136
 30
0.0
 11
53.308
 21
69.136
 31
0.0
  0
LINE
  5
F19
330
A35
100
AcDbEntity
  8
0
100
AcDbLine
 10
53.309
 20
69.136
 30
0.0
 11
53.307
 21
69.137
 31
0.0
  0
LINE
  5
F1A
330
A35
100
AcDbEntity
  8
0
100
AcDbLine
 10
53.335
 20
69.123
 30
0.0
 11
53.333
 21
69.125
 31
0.0
  0
LINE
  5
F1B
330
A35
100
AcDbEntity
  8
0
100
AcDbLine
 10
53.307
 20
69.137
 30
0.0
 11
53.306
 21
69.137
 31
0.0
  0
LINE
  5
F1C
330
A35
100
AcDbEntity
  8
0
100
AcDbLine
 10
53.381
 20
69.101
 30
0.0
 11
53.376
 21
69.104
 31
0.0
  0
LINE
  5
F1D
330
A35
100
AcDbEntity
  8
0
100
AcDbLine
 10
53.4
 20
69.092
 30
0.0
 11
53.401
 21
69.091
 31
0.0
  0
LINE
  5
F1E
330
A35
100
AcDbEntity
  8
0
100
AcDbLine
 10
53.305
 20
69.138
 30
0.0
 11
53.305
 21
69.138
 31
0.0
  0
LINE
  5
F1F
330
A35
100
AcDbEntity
  8
0
100
AcDbLine
 10
53.308
 20
69.136
 30
0.0
 11
53.307
 21
69.137
 31
0.0
  0
LINE
  5
F20
330
A35
100
AcDbEntity
  8
0
100
AcDbLine
 10
53.412
 20
69.086
 30
0.0
 11
53.411
 21
69.087
 31
0.0
  0
LINE
  5
F21
330
A35
100
AcDbEntity
  8
0
100
AcDbLine
 10
53.411
 20
69.087
 30
0.0
 11
53.41
 21
69.087
 31
0.0
  0
LINE
  5
F22
330
A35
100
AcDbEntity
  8
0
100
AcDbLine
 10
53.31
 20
69.136
 30
0.0
 11
53.309
 21
69.136
 31
0.0
  0
LINE
  5
F23
330
A35
100
AcDbEntity
  8
0
100
AcDbLine
 10
53.404
 20
69.09
 30
0.0
 11
53.405
 21
69.09
 31
0.0
  0
LINE
  5
F24
330
A35
100
AcDbEntity
  8
0
100
AcDbLine
 10
53.405
 20
69.09
 30
0.0
 11
53.407
 21
69.089
 31
0.0
  0
LINE
  5
F25
330
A35
100
AcDbEntity
  8
0
100
AcDbLine
 10
53.406
 20
69.089
 30
0.0
 11
53.408
 21
69.088
 31
0.0
  0
LINE
  5
F26
330
A35
100
AcDbEntity
  8
0
100
AcDbLine
 10
53.408
 20
69.089
 30
0.0
 11
53.41
 21
69.087
 31
0.0
  0
LINE
  5
F27
330
A35
100
AcDbEntity
  8
0
100
AcDbLine
 10
53.334
 20
69.124
 30
0.0
 11
53.331
 21
69.125
 31
0.0
  0
LINE
  5
F28
330
A35
100
AcDbEntity
  8
0
100
AcDbLine
 10
53.305
 20
69.138
 30
0.0
 11
53.305
 21
69.138
 31
0.0
  0
LINE
  5
F29
330
A35
100
AcDbEntity
  8
0
100
AcDbLine
 10
53.316
 20
69.133
 30
0.0
 11
53.314
 21
69.134
 31
0.0
  0
LINE
  5
F2A
330
A35
100
AcDbEntity
  8
0
100
AcDbLine
 10
53.306
 20
69.138
 30
0.0
 11
53.306
 21
69.137
 31
0.0
  0
LINE
  5
F2B
330
A35
100
AcDbEntity
  8
0
100
AcDbLine
 10
53.41
 20
69.087
 30
0.0
 11
53.412
 21
69.087
 31
0.0
  0
LINE
  5
F2C
330
A35
100
AcDbEntity
  8
0
100
AcDbLine
 10
53.307
 20
69.137
 30
0.0
 11
53.307
 21
69.137
 31
0.0
  0
LINE
  5
F2D
330
A35
100
AcDbEntity
  8
0
100
AcDbLine
 10
53.307
 20
69.137
 30
0.0
 11
53.308
 21
69.137
 31
0.0
  0
LINE
  5
F2E
330
A35
100
AcDbEntity
  8
0
100
AcDbLine
 10
53.411
 20
69.087
 30
0.0
 11
53.412
 21
69.086
 31
0.0
  0
LINE
  5
F2F
330
A35
100
AcDbEntity
  8
0
100
AcDbLine
 10
53.412
 20
69.087
 30
0.0
 11
53.413
 21
69.086
 31
0.0
  0
LINE
  5
F30
330
A35
100
AcDbEntity
  8
0
100
AcDbLine
 10
53.309
 20
69.136
 30
0.0
 11
53.31
 21
69.136
 31
0.0
  0
LINE
  5
F31
330
A35
100
AcDbEntity
  8
0
100
AcDbLine
 10
53.355
 20
69.114
 30
0.0
 11
53.353
 21
69.115
 31
0.0
  0
LINE
  5
F32
330
A35
100
AcDbEntity
  8
0
100
AcDbLine
 10
53.309
 20
69.136
 30
0.0
 11
53.313
 21
69.134
 31
0.0
  0
LINE
  5
F33
330
A35
100
AcDbEntity
  8
0
100
AcDbLine
 10
53.339
 20
69.122
 30
0.0
 11
53.337
 21
69.122
 31
0.0
  0
LINE
  5
F34
330
A35
100
AcDbEntity
  8
0
100
AcDbLine
 10
53.371
 20
69.106
 30
0.0
 11
53.37
 21
69.107
 31
0.0
  0
LINE
  5
F35
330
A35
100
AcDbEntity
  8
0
100
AcDbLine
 10
53.313
 20
69.134
 30
0.0
 11
53.314
 21
69.134
 31
0.0
  0
LINE
  5
F36
330
A35
100
AcDbEntity
  8
0
100
AcDbLine
 10
53.314
 20
69.134
 30
0.0
 11
53.315
 21
69.133
 31
0.0
  0
LINE
  5
F37
330
A35
100
AcDbEntity
  8
0
100
AcDbLine
 10
53.315
 20
69.133
 30
0.0
 11
53.316
 21
69.133
 31
0.0
  0
LINE
  5
F38
330
A35
100
AcDbEntity
  8
0
100
AcDbLine
 10
53.415
 20
69.085
 30
0.0
 11
53.417
 21
69.084
 31
0.0
  0
LINE
  5
F39
330
A35
100
AcDbEntity
  8
0
100
AcDbLine
 10
53.317
 20
69.132
 30
0.0
 11
53.318
 21
69.132
 31
0.0
  0
LINE
  5
F3A
330
A35
100
AcDbEntity
  8
0
100
AcDbLine
 10
53.318
 20
69.132
 30
0.0
 11
53.319
 21
69.131
 31
0.0
  0
LINE
  5
F3B
330
A35
100
AcDbEntity
  8
0
100
AcDbLine
 10
53.318
 20
69.131
 30
0.0
 11
53.32
 21
69.13
 31
0.0
  0
LINE
  5
F3C
330
A35
100
AcDbEntity
  8
0
100
AcDbLine
 10
53.32
 20
69.13
 30
0.0
 11
53.322
 21
69.13
 31
0.0
  0
LINE
  5
F3D
330
A35
100
AcDbEntity
  8
0
100
AcDbLine
 10
53.354
 20
69.114
 30
0.0
 11
53.349
 21
69.117
 31
0.0
  0
LINE
  5
F3E
330
A35
100
AcDbEntity
  8
0
100
AcDbLine
 10
53.323
 20
69.129
 30
0.0
 11
53.325
 21
69.128
 31
0.0
  0
LINE
  5
F3F
330
A35
100
AcDbEntity
  8
0
100
AcDbLine
 10
53.323
 20
69.129
 30
0.0
 11
53.325
 21
69.128
 31
0.0
  0
LINE
  5
F40
330
A35
100
AcDbEntity
  8
0
100
AcDbLine
 10
53.417
 20
69.084
 30
0.0
 11
53.418
 21
69.084
 31
0.0
  0
LINE
  5
F41
330
A35
100
AcDbEntity
  8
0
100
AcDbLine
 10
53.327
 20
69.127
 30
0.0
 11
53.328
 21
69.127
 31
0.0
  0
LINE
  5
F42
330
A35
100
AcDbEntity
  8
0
100
AcDbLine
 10
52.837
 20
69.433
 30
0.0
 11
52.837
 21
69.666
 31
0.0
  0
LINE
  5
F43
330
A35
100
AcDbEntity
  8
0
100
AcDbLine
 10
53.014
 20
69.576
 30
0.0
 11
53.009
 21
69.579
 31
0.0
  0
LINE
  5
F44
330
A35
100
AcDbEntity
  8
0
100
AcDbLine
 10
53.025
 20
69.571
 30
0.0
 11
53.03
 21
69.569
 31
0.0
  0
LINE
  5
F45
330
A35
100
AcDbEntity
  8
0
100
AcDbLine
 10
53.009
 20
69.579
 30
0.0
 11
53.006
 21
69.581
 31
0.0
  0
LINE
  5
F46
330
A35
100
AcDbEntity
  8
0
100
AcDbLine
 10
52.838
 20
69.666
 30
0.0
 11
52.838
 21
69.666
 31
0.0
  0
LINE
  5
F47
330
A35
100
AcDbEntity
  8
0
100
AcDbLine
 10
52.838
 20
69.666
 30
0.0
 11
52.839
 21
69.665
 31
0.0
  0
LINE
  5
F48
330
A35
100
AcDbEntity
  8
0
100
AcDbLine
 10
52.839
 20
69.665
 30
0.0
 11
52.839
 21
69.665
 31
0.0
  0
LINE
  5
F49
330
A35
100
AcDbEntity
  8
0
100
AcDbLine
 10
53.006
 20
69.581
 30
0.0
 11
53.003
 21
69.582
 31
0.0
  0
LINE
  5
F4A
330
A35
100
AcDbEntity
  8
0
100
AcDbLine
 10
52.846
 20
69.662
 30
0.0
 11
52.844
 21
69.663
 31
0.0
  0
LINE
  5
F4B
330
A35
100
AcDbEntity
  8
0
100
AcDbLine
 10
53.0
 20
69.584
 30
0.0
 11
52.997
 21
69.585
 31
0.0
  0
LINE
  5
F4C
330
A35
100
AcDbEntity
  8
0
100
AcDbLine
 10
52.9
 20
69.634
 30
0.0
 11
52.892
 21
69.638
 31
0.0
  0
LINE
  5
F4D
330
A35
100
AcDbEntity
  8
0
100
AcDbLine
 10
53.041
 20
69.563
 30
0.0
 11
53.043
 21
69.562
 31
0.0
  0
LINE
  5
F4E
330
A35
100
AcDbEntity
  8
0
100
AcDbLine
 10
52.844
 20
69.663
 30
0.0
 11
52.843
 21
69.663
 31
0.0
  0
LINE
  5
F4F
330
A35
100
AcDbEntity
  8
0
100
AcDbLine
 10
52.85
 20
69.659
 30
0.0
 11
52.849
 21
69.66
 31
0.0
  0
LINE
  5
F50
330
A35
100
AcDbEntity
  8
0
100
AcDbLine
 10
52.892
 20
69.638
 30
0.0
 11
52.887
 21
69.641
 31
0.0
  0
LINE
  5
F51
330
A35
100
AcDbEntity
  8
0
100
AcDbLine
 10
52.991
 20
69.588
 30
0.0
 11
52.979
 21
69.594
 31
0.0
  0
LINE
  5
F52
330
A35
100
AcDbEntity
  8
0
100
AcDbLine
 10
52.887
 20
69.641
 30
0.0
 11
52.884
 21
69.642
 31
0.0
  0
LINE
  5
F53
330
A35
100
AcDbEntity
  8
0
100
AcDbLine
 10
52.979
 20
69.594
 30
0.0
 11
52.976
 21
69.596
 31
0.0
  0
LINE
  5
F54
330
A35
100
AcDbEntity
  8
0
100
AcDbLine
 10
52.976
 20
69.596
 30
0.0
 11
52.973
 21
69.597
 31
0.0
  0
LINE
  5
F55
330
A35
100
AcDbEntity
  8
0
100
AcDbLine
 10
52.85
 20
69.659
 30
0.0
 11
52.855
 21
69.657
 31
0.0
  0
LINE
  5
F56
330
A35
100
AcDbEntity
  8
0
100
AcDbLine
 10
52.973
 20
69.597
 30
0.0
 11
52.97
 21
69.599
 31
0.0
  0
LINE
  5
F57
330
A35
100
AcDbEntity
  8
0
100
AcDbLine
 10
52.97
 20
69.599
 30
0.0
 11
52.967
 21
69.6
 31
0.0
  0
LINE
  5
F58
330
A35
100
AcDbEntity
  8
0
100
AcDbLine
 10
52.857
 20
69.656
 30
0.0
 11
52.865
 21
69.652
 31
0.0
  0
LINE
  5
F59
330
A35
100
AcDbEntity
  8
0
100
AcDbLine
 10
53.059
 20
69.554
 30
0.0
 11
53.061
 21
69.553
 31
0.0
  0
LINE
  5
F5A
330
A35
100
AcDbEntity
  8
0
100
AcDbLine
 10
52.849
 20
69.66
 30
0.0
 11
52.848
 21
69.661
 31
0.0
  0
LINE
  5
F5B
330
A35
100
AcDbEntity
  8
0
100
AcDbLine
 10
52.964
 20
69.602
 30
0.0
 11
52.961
 21
69.604
 31
0.0
  0
LINE
  5
F5C
330
A35
100
AcDbEntity
  8
0
100
AcDbLine
 10
52.881
 20
69.644
 30
0.0
 11
52.876
 21
69.646
 31
0.0
  0
LINE
  5
F5D
330
A35
100
AcDbEntity
  8
0
100
AcDbLine
 10
53.064
 20
69.551
 30
0.0
 11
53.065
 21
69.551
 31
0.0
  0
LINE
  5
F5E
330
A35
100
AcDbEntity
  8
0
100
AcDbLine
 10
52.958
 20
69.605
 30
0.0
 11
52.955
 21
69.607
 31
0.0
  0
LINE
  5
F5F
330
A35
100
AcDbEntity
  8
0
100
AcDbLine
 10
52.955
 20
69.607
 30
0.0
 11
52.951
 21
69.608
 31
0.0
  0
LINE
  5
F60
330
A35
100
AcDbEntity
  8
0
100
AcDbLine
 10
53.067
 20
69.55
 30
0.0
 11
53.068
 21
69.549
 31
0.0
  0
LINE
  5
F61
330
A35
100
AcDbEntity
  8
0
100
AcDbLine
 10
53.068
 20
69.549
 30
0.0
 11
53.068
 21
69.549
 31
0.0
  0
LINE
  5
F62
330
A35
100
AcDbEntity
  8
0
100
AcDbLine
 10
52.881
 20
69.644
 30
0.0
 11
52.884
 21
69.642
 31
0.0
  0
LINE
  5
F63
330
A35
100
AcDbEntity
  8
0
100
AcDbLine
 10
52.951
 20
69.608
 30
0.0
 11
52.948
 21
69.61
 31
0.0
  0
LINE
  5
F64
330
A35
100
AcDbEntity
  8
0
100
AcDbLine
 10
52.948
 20
69.61
 30
0.0
 11
52.945
 21
69.611
 31
0.0
  0
LINE
  5
F65
330
A35
100
AcDbEntity
  8
0
100
AcDbLine
 10
52.84
 20
69.665
 30
0.0
 11
52.839
 21
69.665
 31
0.0
  0
LINE
  5
F66
330
A35
100
AcDbEntity
  8
0
100
AcDbLine
 10
52.945
 20
69.611
 30
0.0
 11
52.942
 21
69.613
 31
0.0
  0
LINE
  5
F67
330
A35
100
AcDbEntity
  8
0
100
AcDbLine
 10
52.843
 20
69.663
 30
0.0
 11
52.84
 21
69.665
 31
0.0
  0
LINE
  5
F68
330
A35
100
AcDbEntity
  8
0
100
AcDbLine
 10
52.942
 20
69.613
 30
0.0
 11
52.939
 21
69.615
 31
0.0
  0
LINE
  5
F69
330
A35
100
AcDbEntity
  8
0
100
AcDbLine
 10
53.069
 20
69.548
 30
0.0
 11
53.069
 21
69.549
 31
0.0
  0
LINE
  5
F6A
330
A35
100
AcDbEntity
  8
0
100
AcDbLine
 10
53.069
 20
69.549
 30
0.0
 11
53.068
 21
69.549
 31
0.0
  0
LINE
  5
F6B
330
A35
100
AcDbEntity
  8
0
100
AcDbLine
 10
52.939
 20
69.615
 30
0.0
 11
52.936
 21
69.616
 31
0.0
  0
LINE
  5
F6C
330
A35
100
AcDbEntity
  8
0
100
AcDbLine
 10
52.909
 20
69.63
 30
0.0
 11
52.912
 21
69.629
 31
0.0
  0
LINE
  5
F6D
330
A35
100
AcDbEntity
  8
0
100
AcDbLine
 10
52.936
 20
69.616
 30
0.0
 11
52.933
 21
69.618
 31
0.0
  0
LINE
  5
F6E
330
A35
100
AcDbEntity
  8
0
100
AcDbLine
 10
52.915
 20
69.627
 30
0.0
 11
52.918
 21
69.625
 31
0.0
  0
LINE
  5
F6F
330
A35
100
AcDbEntity
  8
0
100
AcDbLine
 10
52.918
 20
69.625
 30
0.0
 11
52.93
 21
69.619
 31
0.0
  0
LINE
  5
F70
330
A35
100
AcDbEntity
  8
0
100
AcDbLine
 10
53.067
 20
69.55
 30
0.0
 11
53.066
 21
69.55
 31
0.0
  0
LINE
  5
F71
330
A35
100
AcDbEntity
  8
0
100
AcDbLine
 10
53.066
 20
69.55
 30
0.0
 11
53.065
 21
69.551
 31
0.0
  0
LINE
  5
F72
330
A35
100
AcDbEntity
  8
0
100
AcDbLine
 10
52.933
 20
69.618
 30
0.0
 11
52.93
 21
69.619
 31
0.0
  0
LINE
  5
F73
330
A35
100
AcDbEntity
  8
0
100
AcDbLine
 10
53.064
 20
69.551
 30
0.0
 11
53.063
 21
69.552
 31
0.0
  0
LINE
  5
F74
330
A35
100
AcDbEntity
  8
0
100
AcDbLine
 10
53.063
 20
69.552
 30
0.0
 11
53.061
 21
69.553
 31
0.0
  0
LINE
  5
F75
330
A35
100
AcDbEntity
  8
0
100
AcDbLine
 10
52.857
 20
69.656
 30
0.0
 11
52.855
 21
69.657
 31
0.0
  0
LINE
  5
F76
330
A35
100
AcDbEntity
  8
0
100
AcDbLine
 10
52.876
 20
69.646
 30
0.0
 11
52.874
 21
69.647
 31
0.0
  0
LINE
  5
F77
330
A35
100
AcDbEntity
  8
0
100
AcDbLine
 10
53.059
 20
69.554
 30
0.0
 11
53.058
 21
69.554
 31
0.0
  0
LINE
  5
F78
330
A35
100
AcDbEntity
  8
0
100
AcDbLine
 10
53.058
 20
69.554
 30
0.0
 11
53.056
 21
69.555
 31
0.0
  0
LINE
  5
F79
330
A35
100
AcDbEntity
  8
0
100
AcDbLine
 10
53.056
 20
69.555
 30
0.0
 11
53.055
 21
69.556
 31
0.0
  0
LINE
  5
F7A
330
A35
100
AcDbEntity
  8
0
100
AcDbLine
 10
53.055
 20
69.556
 30
0.0
 11
53.053
 21
69.557
 31
0.0
  0
LINE
  5
F7B
330
A35
100
AcDbEntity
  8
0
100
AcDbLine
 10
53.053
 20
69.557
 30
0.0
 11
53.051
 21
69.558
 31
0.0
  0
LINE
  5
F7C
330
A35
100
AcDbEntity
  8
0
100
AcDbLine
 10
52.958
 20
69.605
 30
0.0
 11
52.961
 21
69.604
 31
0.0
  0
LINE
  5
F7D
330
A35
100
AcDbEntity
  8
0
100
AcDbLine
 10
53.051
 20
69.558
 30
0.0
 11
53.049
 21
69.559
 31
0.0
  0
LINE
  5
F7E
330
A35
100
AcDbEntity
  8
0
100
AcDbLine
 10
52.964
 20
69.602
 30
0.0
 11
52.967
 21
69.6
 31
0.0
  0
LINE
  5
F7F
330
A35
100
AcDbEntity
  8
0
100
AcDbLine
 10
52.874
 20
69.647
 30
0.0
 11
52.872
 21
69.649
 31
0.0
  0
LINE
  5
F80
330
A35
100
AcDbEntity
  8
0
100
AcDbLine
 10
53.049
 20
69.559
 30
0.0
 11
53.045
 21
69.561
 31
0.0
  0
LINE
  5
F81
330
A35
100
AcDbEntity
  8
0
100
AcDbLine
 10
53.045
 20
69.561
 30
0.0
 11
53.043
 21
69.562
 31
0.0
  0
LINE
  5
F82
330
A35
100
AcDbEntity
  8
0
100
AcDbLine
 10
52.872
 20
69.649
 30
0.0
 11
52.867
 21
69.651
 31
0.0
  0
LINE
  5
F83
330
A35
100
AcDbEntity
  8
0
100
AcDbLine
 10
53.041
 20
69.563
 30
0.0
 11
53.039
 21
69.564
 31
0.0
  0
LINE
  5
F84
330
A35
100
AcDbEntity
  8
0
100
AcDbLine
 10
53.039
 20
69.564
 30
0.0
 11
53.037
 21
69.565
 31
0.0
  0
LINE
  5
F85
330
A35
100
AcDbEntity
  8
0
100
AcDbLine
 10
53.037
 20
69.565
 30
0.0
 11
53.034
 21
69.566
 31
0.0
  0
LINE
  5
F86
330
A35
100
AcDbEntity
  8
0
100
AcDbLine
 10
52.848
 20
69.661
 30
0.0
 11
52.846
 21
69.662
 31
0.0
  0
LINE
  5
F87
330
A35
100
AcDbEntity
  8
0
100
AcDbLine
 10
53.034
 20
69.566
 30
0.0
 11
53.03
 21
69.569
 31
0.0
  0
LINE
  5
F88
330
A35
100
AcDbEntity
  8
0
100
AcDbLine
 10
52.991
 20
69.588
 30
0.0
 11
52.997
 21
69.585
 31
0.0
  0
LINE
  5
F89
330
A35
100
AcDbEntity
  8
0
100
AcDbLine
 10
52.915
 20
69.627
 30
0.0
 11
52.912
 21
69.629
 31
0.0
  0
LINE
  5
F8A
330
A35
100
AcDbEntity
  8
0
100
AcDbLine
 10
53.0
 20
69.584
 30
0.0
 11
53.003
 21
69.582
 31
0.0
  0
LINE
  5
F8B
330
A35
100
AcDbEntity
  8
0
100
AcDbLine
 10
52.867
 20
69.651
 30
0.0
 11
52.865
 21
69.652
 31
0.0
  0
LINE
  5
F8C
330
A35
100
AcDbEntity
  8
0
100
AcDbLine
 10
52.909
 20
69.63
 30
0.0
 11
52.906
 21
69.631
 31
0.0
  0
LINE
  5
F8D
330
A35
100
AcDbEntity
  8
0
100
AcDbLine
 10
53.022
 20
69.572
 30
0.0
 11
53.02
 21
69.574
 31
0.0
  0
LINE
  5
F8E
330
A35
100
AcDbEntity
  8
0
100
AcDbLine
 10
52.906
 20
69.631
 30
0.0
 11
52.903
 21
69.633
 31
0.0
  0
LINE
  5
F8F
330
A35
100
AcDbEntity
  8
0
100
AcDbLine
 10
53.017
 20
69.575
 30
0.0
 11
53.014
 21
69.576
 31
0.0
  0
LINE
  5
F90
330
A35
100
AcDbEntity
  8
0
100
AcDbLine
 10
53.017
 20
69.575
 30
0.0
 11
53.02
 21
69.574
 31
0.0
  0
LINE
  5
F91
330
A35
100
AcDbEntity
  8
0
100
AcDbLine
 10
52.903
 20
69.633
 30
0.0
 11
52.9
 21
69.634
 31
0.0
  0
LINE
  5
F92
330
A35
100
AcDbEntity
  8
0
100
AcDbLine
 10
53.022
 20
69.572
 30
0.0
 11
53.025
 21
69.571
 31
0.0
  0
LINE
  5
F93
330
A35
100
AcDbEntity
  8
0
100
AcDbLine
 10
23.904
 20
83.421
 30
0.0
 11
23.904
 21
83.421
 31
0.0
  0
LINE
  5
F94
330
A35
100
AcDbEntity
  8
0
100
AcDbLine
 10
23.923
 20
83.364
 30
0.0
 11
23.923
 21
83.363
 31
0.0
  0
LINE
  5
F95
330
A35
100
AcDbEntity
  8
0
100
AcDbLine
 10
23.905
 20
83.421
 30
0.0
 11
23.904
 21
83.421
 31
0.0
  0
LINE
  5
F96
330
A35
100
AcDbEntity
  8
0
100
AcDbLine
 10
23.906
 20
83.421
 30
0.0
 11
23.905
 21
83.421
 31
0.0
  0
LINE
  5
F97
330
A35
100
AcDbEntity
  8
0
100
AcDbLine
 10
23.907
 20
83.421
 30
0.0
 11
23.906
 21
83.421
 31
0.0
  0
LINE
  5
F98
330
A35
100
AcDbEntity
  8
0
100
AcDbLine
 10
23.907
 20
83.421
 30
0.0
 11
23.907
 21
83.421
 31
0.0
  0
LINE
  5
F99
330
A35
100
AcDbEntity
  8
0
100
AcDbLine
 10
23.908
 20
83.421
 30
0.0
 11
23.907
 21
83.421
 31
0.0
  0
LINE
  5
F9A
330
A35
100
AcDbEntity
  8
0
100
AcDbLine
 10
23.909
 20
83.421
 30
0.0
 11
23.908
 21
83.421
 31
0.0
  0
LINE
  5
F9B
330
A35
100
AcDbEntity
  8
0
100
AcDbLine
 10
23.921
 20
83.421
 30
0.0
 11
23.921
 21
83.421
 31
0.0
  0
LINE
  5
F9C
330
A35
100
AcDbEntity
  8
0
100
AcDbLine
 10
23.91
 20
83.421
 30
0.0
 11
23.909
 21
83.421
 31
0.0
  0
LINE
  5
F9D
330
A35
100
AcDbEntity
  8
0
100
AcDbLine
 10
23.91
 20
83.421
 30
0.0
 11
23.91
 21
83.421
 31
0.0
  0
LINE
  5
F9E
330
A35
100
AcDbEntity
  8
0
100
AcDbLine
 10
23.911
 20
83.421
 30
0.0
 11
23.91
 21
83.421
 31
0.0
  0
LINE
  5
F9F
330
A35
100
AcDbEntity
  8
0
100
AcDbLine
 10
23.912
 20
83.421
 30
0.0
 11
23.911
 21
83.421
 31
0.0
  0
LINE
  5
FA0
330
A35
100
AcDbEntity
  8
0
100
AcDbLine
 10
23.912
 20
83.421
 30
0.0
 11
23.912
 21
83.421
 31
0.0
  0
LINE
  5
FA1
330
A35
100
AcDbEntity
  8
0
100
AcDbLine
 10
23.913
 20
83.421
 30
0.0
 11
23.912
 21
83.421
 31
0.0
  0
LINE
  5
FA2
330
A35
100
AcDbEntity
  8
0
100
AcDbLine
 10
23.914
 20
83.421
 30
0.0
 11
23.913
 21
83.421
 31
0.0
  0
LINE
  5
FA3
330
A35
100
AcDbEntity
  8
0
100
AcDbLine
 10
23.914
 20
83.421
 30
0.0
 11
23.914
 21
83.421
 31
0.0
  0
LINE
  5
FA4
330
A35
100
AcDbEntity
  8
0
100
AcDbLine
 10
23.915
 20
83.421
 30
0.0
 11
23.914
 21
83.421
 31
0.0
  0
LINE
  5
FA5
330
A35
100
AcDbEntity
  8
0
100
AcDbLine
 10
23.915
 20
83.421
 30
0.0
 11
23.915
 21
83.421
 31
0.0
  0
LINE
  5
FA6
330
A35
100
AcDbEntity
  8
0
100
AcDbLine
 10
23.916
 20
83.421
 30
0.0
 11
23.915
 21
83.421
 31
0.0
  0
LINE
  5
FA7
330
A35
100
AcDbEntity
  8
0
100
AcDbLine
 10
23.917
 20
83.421
 30
0.0
 11
23.916
 21
83.421
 31
0.0
  0
LINE
  5
FA8
330
A35
100
AcDbEntity
  8
0
100
AcDbLine
 10
23.917
 20
83.421
 30
0.0
 11
23.917
 21
83.421
 31
0.0
  0
LINE
  5
FA9
330
A35
100
AcDbEntity
  8
0
100
AcDbLine
 10
23.918
 20
83.421
 30
0.0
 11
23.917
 21
83.421
 31
0.0
  0
LINE
  5
FAA
330
A35
100
AcDbEntity
  8
0
100
AcDbLine
 10
23.918
 20
83.421
 30
0.0
 11
23.918
 21
83.421
 31
0.0
  0
LINE
  5
FAB
330
A35
100
AcDbEntity
  8
0
100
AcDbLine
 10
23.919
 20
83.421
 30
0.0
 11
23.918
 21
83.421
 31
0.0
  0
LINE
  5
FAC
330
A35
100
AcDbEntity
  8
0
100
AcDbLine
 10
23.919
 20
83.421
 30
0.0
 11
23.919
 21
83.421
 31
0.0
  0
LINE
  5
FAD
330
A35
100
AcDbEntity
  8
0
100
AcDbLine
 10
23.919
 20
83.421
 30
0.0
 11
23.919
 21
83.421
 31
0.0
  0
LINE
  5
FAE
330
A35
100
AcDbEntity
  8
0
100
AcDbLine
 10
23.92
 20
83.421
 30
0.0
 11
23.919
 21
83.421
 31
0.0
  0
LINE
  5
FAF
330
A35
100
AcDbEntity
  8
0
100
AcDbLine
 10
23.92
 20
83.421
 30
0.0
 11
23.92
 21
83.421
 31
0.0
  0
LINE
  5
FB0
330
A35
100
AcDbEntity
  8
0
100
AcDbLine
 10
23.921
 20
83.421
 30
0.0
 11
23.92
 21
83.421
 31
0.0
  0
LINE
  5
FB1
330
A35
100
AcDbEntity
  8
0
100
AcDbLine
 10
23.923
 20
83.419
 30
0.0
 11
23.923
 21
83.364
 31
0.0
  0
LINE
  5
FB2
330
A35
100
AcDbEntity
  8
0
100
AcDbLine
 10
23.867
 20
83.421
 30
0.0
 11
23.865
 21
83.421
 31
0.0
  0
LINE
  5
FB3
330
A35
100
AcDbEntity
  8
0
100
AcDbLine
 10
23.867
 20
83.421
 30
0.0
 11
23.867
 21
83.421
 31
0.0
  0
LINE
  5
FB4
330
A35
100
AcDbEntity
  8
0
100
AcDbLine
 10
23.868
 20
83.421
 30
0.0
 11
23.867
 21
83.421
 31
0.0
  0
LINE
  5
FB5
330
A35
100
AcDbEntity
  8
0
100
AcDbLine
 10
23.868
 20
83.421
 30
0.0
 11
23.868
 21
83.421
 31
0.0
  0
LINE
  5
FB6
330
A35
100
AcDbEntity
  8
0
100
AcDbLine
 10
23.869
 20
83.421
 30
0.0
 11
23.868
 21
83.421
 31
0.0
  0
LINE
  5
FB7
330
A35
100
AcDbEntity
  8
0
100
AcDbLine
 10
23.869
 20
83.421
 30
0.0
 11
23.869
 21
83.421
 31
0.0
  0
LINE
  5
FB8
330
A35
100
AcDbEntity
  8
0
100
AcDbLine
 10
23.87
 20
83.421
 30
0.0
 11
23.869
 21
83.421
 31
0.0
  0
LINE
  5
FB9
330
A35
100
AcDbEntity
  8
0
100
AcDbLine
 10
23.87
 20
83.421
 30
0.0
 11
23.87
 21
83.421
 31
0.0
  0
LINE
  5
FBA
330
A35
100
AcDbEntity
  8
0
100
AcDbLine
 10
23.871
 20
83.421
 30
0.0
 11
23.87
 21
83.421
 31
0.0
  0
LINE
  5
FBB
330
A35
100
AcDbEntity
  8
0
100
AcDbLine
 10
23.871
 20
83.421
 30
0.0
 11
23.871
 21
83.421
 31
0.0
  0
LINE
  5
FBC
330
A35
100
AcDbEntity
  8
0
100
AcDbLine
 10
23.872
 20
83.421
 30
0.0
 11
23.871
 21
83.421
 31
0.0
  0
LINE
  5
FBD
330
A35
100
AcDbEntity
  8
0
100
AcDbLine
 10
23.873
 20
83.421
 30
0.0
 11
23.872
 21
83.421
 31
0.0
  0
LINE
  5
FBE
330
A35
100
AcDbEntity
  8
0
100
AcDbLine
 10
23.873
 20
83.421
 30
0.0
 11
23.873
 21
83.421
 31
0.0
  0
LINE
  5
FBF
330
A35
100
AcDbEntity
  8
0
100
AcDbLine
 10
23.874
 20
83.421
 30
0.0
 11
23.873
 21
83.421
 31
0.0
  0
LINE
  5
FC0
330
A35
100
AcDbEntity
  8
0
100
AcDbLine
 10
23.875
 20
83.421
 30
0.0
 11
23.874
 21
83.421
 31
0.0
  0
LINE
  5
FC1
330
A35
100
AcDbEntity
  8
0
100
AcDbLine
 10
23.875
 20
83.421
 30
0.0
 11
23.875
 21
83.421
 31
0.0
  0
LINE
  5
FC2
330
A35
100
AcDbEntity
  8
0
100
AcDbLine
 10
23.876
 20
83.421
 30
0.0
 11
23.875
 21
83.421
 31
0.0
  0
LINE
  5
FC3
330
A35
100
AcDbEntity
  8
0
100
AcDbLine
 10
23.876
 20
83.421
 30
0.0
 11
23.876
 21
83.421
 31
0.0
  0
LINE
  5
FC4
330
A35
100
AcDbEntity
  8
0
100
AcDbLine
 10
23.877
 20
83.421
 30
0.0
 11
23.876
 21
83.421
 31
0.0
  0
LINE
  5
FC5
330
A35
100
AcDbEntity
  8
0
100
AcDbLine
 10
23.878
 20
83.421
 30
0.0
 11
23.877
 21
83.421
 31
0.0
  0
LINE
  5
FC6
330
A35
100
AcDbEntity
  8
0
100
AcDbLine
 10
23.879
 20
83.421
 30
0.0
 11
23.878
 21
83.421
 31
0.0
  0
LINE
  5
FC7
330
A35
100
AcDbEntity
  8
0
100
AcDbLine
 10
23.879
 20
83.421
 30
0.0
 11
23.879
 21
83.421
 31
0.0
  0
LINE
  5
FC8
330
A35
100
AcDbEntity
  8
0
100
AcDbLine
 10
23.88
 20
83.421
 30
0.0
 11
23.879
 21
83.421
 31
0.0
  0
LINE
  5
FC9
330
A35
100
AcDbEntity
  8
0
100
AcDbLine
 10
23.881
 20
83.421
 30
0.0
 11
23.88
 21
83.421
 31
0.0
  0
LINE
  5
FCA
330
A35
100
AcDbEntity
  8
0
100
AcDbLine
 10
23.882
 20
83.421
 30
0.0
 11
23.881
 21
83.421
 31
0.0
  0
LINE
  5
FCB
330
A35
100
AcDbEntity
  8
0
100
AcDbLine
 10
23.882
 20
83.421
 30
0.0
 11
23.882
 21
83.421
 31
0.0
  0
LINE
  5
FCC
330
A35
100
AcDbEntity
  8
0
100
AcDbLine
 10
23.883
 20
83.421
 30
0.0
 11
23.882
 21
83.421
 31
0.0
  0
LINE
  5
FCD
330
A35
100
AcDbEntity
  8
0
100
AcDbLine
 10
23.884
 20
83.421
 30
0.0
 11
23.883
 21
83.421
 31
0.0
  0
LINE
  5
FCE
330
A35
100
AcDbEntity
  8
0
100
AcDbLine
 10
23.885
 20
83.421
 30
0.0
 11
23.884
 21
83.421
 31
0.0
  0
LINE
  5
FCF
330
A35
100
AcDbEntity
  8
0
100
AcDbLine
 10
23.886
 20
83.421
 30
0.0
 11
23.885
 21
83.421
 31
0.0
  0
LINE
  5
FD0
330
A35
100
AcDbEntity
  8
0
100
AcDbLine
 10
23.886
 20
83.421
 30
0.0
 11
23.886
 21
83.421
 31
0.0
  0
LINE
  5
FD1
330
A35
100
AcDbEntity
  8
0
100
AcDbLine
 10
23.887
 20
83.421
 30
0.0
 11
23.886
 21
83.421
 31
0.0
  0
LINE
  5
FD2
330
A35
100
AcDbEntity
  8
0
100
AcDbLine
 10
23.888
 20
83.421
 30
0.0
 11
23.887
 21
83.421
 31
0.0
  0
LINE
  5
FD3
330
A35
100
AcDbEntity
  8
0
100
AcDbLine
 10
23.889
 20
83.421
 30
0.0
 11
23.888
 21
83.421
 31
0.0
  0
LINE
  5
FD4
330
A35
100
AcDbEntity
  8
0
100
AcDbLine
 10
23.89
 20
83.421
 30
0.0
 11
23.889
 21
83.421
 31
0.0
  0
LINE
  5
FD5
330
A35
100
AcDbEntity
  8
0
100
AcDbLine
 10
23.891
 20
83.421
 30
0.0
 11
23.89
 21
83.421
 31
0.0
  0
LINE
  5
FD6
330
A35
100
AcDbEntity
  8
0
100
AcDbLine
 10
23.891
 20
83.421
 30
0.0
 11
23.891
 21
83.421
 31
0.0
  0
LINE
  5
FD7
330
A35
100
AcDbEntity
  8
0
100
AcDbLine
 10
23.892
 20
83.421
 30
0.0
 11
23.891
 21
83.421
 31
0.0
  0
LINE
  5
FD8
330
A35
100
AcDbEntity
  8
0
100
AcDbLine
 10
23.893
 20
83.421
 30
0.0
 11
23.892
 21
83.421
 31
0.0
  0
LINE
  5
FD9
330
A35
100
AcDbEntity
  8
0
100
AcDbLine
 10
23.894
 20
83.421
 30
0.0
 11
23.893
 21
83.421
 31
0.0
  0
LINE
  5
FDA
330
A35
100
AcDbEntity
  8
0
100
AcDbLine
 10
23.895
 20
83.421
 30
0.0
 11
23.894
 21
83.421
 31
0.0
  0
LINE
  5
FDB
330
A35
100
AcDbEntity
  8
0
100
AcDbLine
 10
23.896
 20
83.421
 30
0.0
 11
23.895
 21
83.421
 31
0.0
  0
LINE
  5
FDC
330
A35
100
AcDbEntity
  8
0
100
AcDbLine
 10
23.896
 20
83.421
 30
0.0
 11
23.896
 21
83.421
 31
0.0
  0
LINE
  5
FDD
330
A35
100
AcDbEntity
  8
0
100
AcDbLine
 10
23.897
 20
83.421
 30
0.0
 11
23.896
 21
83.421
 31
0.0
  0
LINE
  5
FDE
330
A35
100
AcDbEntity
  8
0
100
AcDbLine
 10
23.898
 20
83.421
 30
0.0
 11
23.897
 21
83.421
 31
0.0
  0
LINE
  5
FDF
330
A35
100
AcDbEntity
  8
0
100
AcDbLine
 10
23.899
 20
83.421
 30
0.0
 11
23.898
 21
83.421
 31
0.0
  0
LINE
  5
FE0
330
A35
100
AcDbEntity
  8
0
100
AcDbLine
 10
23.9
 20
83.421
 30
0.0
 11
23.899
 21
83.421
 31
0.0
  0
LINE
  5
FE1
330
A35
100
AcDbEntity
  8
0
100
AcDbLine
 10
23.9
 20
83.421
 30
0.0
 11
23.9
 21
83.421
 31
0.0
  0
LINE
  5
FE2
330
A35
100
AcDbEntity
  8
0
100
AcDbLine
 10
23.901
 20
83.421
 30
0.0
 11
23.9
 21
83.421
 31
0.0
  0
LINE
  5
FE3
330
A35
100
AcDbEntity
  8
0
100
AcDbLine
 10
23.902
 20
83.421
 30
0.0
 11
23.901
 21
83.421
 31
0.0
  0
LINE
  5
FE4
330
A35
100
AcDbEntity
  8
0
100
AcDbLine
 10
23.903
 20
83.421
 30
0.0
 11
23.902
 21
83.421
 31
0.0
  0
LINE
  5
FE5
330
A35
100
AcDbEntity
  8
0
100
AcDbLine
 10
23.904
 20
83.421
 30
0.0
 11
23.903
 21
83.421
 31
0.0
  0
LINE
  5
FE6
330
A35
100
AcDbEntity
  8
0
100
AcDbLine
 10
25.912
 20
83.714
 30
0.0
 11
25.912
 21
84.533
 31
0.0
  0
LINE
  5
FE7
330
A35
100
AcDbEntity
  8
0
100
AcDbLine
 10
4.731
 20
64.872
 30
0.0
 11
4.731
 21
64.873
 31
0.0
  0
LINE
  5
FE8
330
A35
100
AcDbEntity
  8
0
100
AcDbLine
 10
4.731
 20
64.873
 30
0.0
 11
4.732
 21
64.873
 31
0.0
  0
LINE
  5
FE9
330
A35
100
AcDbEntity
  8
0
100
AcDbLine
 10
4.732
 20
64.873
 30
0.0
 11
4.732
 21
64.874
 31
0.0
  0
LINE
  5
FEA
330
A35
100
AcDbEntity
  8
0
100
AcDbLine
 10
4.757
 20
64.899
 30
0.0
 11
4.758
 21
64.9
 31
0.0
  0
LINE
  5
FEB
330
A35
100
AcDbEntity
  8
0
100
AcDbLine
 10
4.765
 20
64.908
 30
0.0
 11
4.766
 21
64.909
 31
0.0
  0
LINE
  5
FEC
330
A35
100
AcDbEntity
  8
0
100
AcDbLine
 10
4.782
 20
64.926
 30
0.0
 11
4.782
 21
64.925
 31
0.0
  0
LINE
  5
FED
330
A35
100
AcDbEntity
  8
0
100
AcDbLine
 10
4.741
 20
64.883
 30
0.0
 11
4.738
 21
64.88
 31
0.0
  0
LINE
  5
FEE
330
A35
100
AcDbEntity
  8
0
100
AcDbLine
 10
4.734
 20
64.875
 30
0.0
 11
4.734
 21
64.876
 31
0.0
  0
LINE
  5
FEF
330
A35
100
AcDbEntity
  8
0
100
AcDbLine
 10
4.781
 20
64.925
 30
0.0
 11
4.781
 21
64.924
 31
0.0
  0
LINE
  5
FF0
330
A35
100
AcDbEntity
  8
0
100
AcDbLine
 10
4.734
 20
64.876
 30
0.0
 11
4.735
 21
64.876
 31
0.0
  0
LINE
  5
FF1
330
A35
100
AcDbEntity
  8
0
100
AcDbLine
 10
4.781
 20
64.924
 30
0.0
 11
4.78
 21
64.924
 31
0.0
  0
LINE
  5
FF2
330
A35
100
AcDbEntity
  8
0
100
AcDbLine
 10
4.735
 20
64.876
 30
0.0
 11
4.735
 21
64.877
 31
0.0
  0
LINE
  5
FF3
330
A35
100
AcDbEntity
  8
0
100
AcDbLine
 10
4.735
 20
64.877
 30
0.0
 11
4.736
 21
64.878
 31
0.0
  0
LINE
  5
FF4
330
A35
100
AcDbEntity
  8
0
100
AcDbLine
 10
4.766
 20
64.909
 30
0.0
 11
4.767
 21
64.91
 31
0.0
  0
LINE
  5
FF5
330
A35
100
AcDbEntity
  8
0
100
AcDbLine
 10
4.736
 20
64.878
 30
0.0
 11
4.738
 21
64.88
 31
0.0
  0
LINE
  5
FF6
330
A35
100
AcDbEntity
  8
0
100
AcDbLine
 10
4.759
 20
64.902
 30
0.0
 11
4.76
 21
64.903
 31
0.0
  0
LINE
  5
FF7
330
A35
100
AcDbEntity
  8
0
100
AcDbLine
 10
4.738
 20
64.88
 30
0.0
 11
4.738
 21
64.88
 31
0.0
  0
LINE
  5
FF8
330
A35
100
AcDbEntity
  8
0
100
AcDbLine
 10
4.76
 20
64.903
 30
0.0
 11
4.761
 21
64.903
 31
0.0
  0
LINE
  5
FF9
330
A35
100
AcDbEntity
  8
0
100
AcDbLine
 10
4.77
 20
64.914
 30
0.0
 11
4.771
 21
64.914
 31
0.0
  0
LINE
  5
FFA
330
A35
100
AcDbEntity
  8
0
100
AcDbLine
 10
4.734
 20
64.875
 30
0.0
 11
4.732
 21
64.874
 31
0.0
  0
LINE
  5
FFB
330
A35
100
AcDbEntity
  8
0
100
AcDbLine
 10
4.761
 20
64.904
 30
0.0
 11
4.762
 21
64.905
 31
0.0
  0
LINE
  5
FFC
330
A35
100
AcDbEntity
  8
0
100
AcDbLine
 10
4.771
 20
64.914
 30
0.0
 11
4.772
 21
64.915
 31
0.0
  0
LINE
  5
FFD
330
A35
100
AcDbEntity
  8
0
100
AcDbLine
 10
4.776
 20
64.919
 30
0.0
 11
4.775
 21
64.919
 31
0.0
  0
LINE
  5
FFE
330
A35
100
AcDbEntity
  8
0
100
AcDbLine
 10
4.741
 20
64.883
 30
0.0
 11
4.742
 21
64.884
 31
0.0
  0
LINE
  5
FFF
330
A35
100
AcDbEntity
  8
0
100
AcDbLine
 10
4.773
 20
64.916
 30
0.0
 11
4.773
 21
64.917
 31
0.0
  0
LINE
  5
1000
330
A35
100
AcDbEntity
  8
0
100
AcDbLine
 10
4.774
 20
64.917
 30
0.0
 11
4.773
 21
64.917
 31
0.0
  0
LINE
  5
1001
330
A35
100
AcDbEntity
  8
0
100
AcDbLine
 10
4.767
 20
64.91
 30
0.0
 11
4.77
 21
64.913
 31
0.0
  0
LINE
  5
1002
330
A35
100
AcDbEntity
  8
0
100
AcDbLine
 10
4.742
 20
64.884
 30
0.0
 11
4.745
 21
64.887
 31
0.0
  0
LINE
  5
1003
330
A35
100
AcDbEntity
  8
0
100
AcDbLine
 10
4.773
 20
64.916
 30
0.0
 11
4.772
 21
64.915
 31
0.0
  0
LINE
  5
1004
330
A35
100
AcDbEntity
  8
0
100
AcDbLine
 10
4.764
 20
64.907
 30
0.0
 11
4.765
 21
64.908
 31
0.0
  0
LINE
  5
1005
330
A35
100
AcDbEntity
  8
0
100
AcDbLine
 10
4.745
 20
64.887
 30
0.0
 11
4.745
 21
64.888
 31
0.0
  0
LINE
  5
1006
330
A35
100
AcDbEntity
  8
0
100
AcDbLine
 10
4.745
 20
64.888
 30
0.0
 11
4.747
 21
64.889
 31
0.0
  0
LINE
  5
1007
330
A35
100
AcDbEntity
  8
0
100
AcDbLine
 10
4.77
 20
64.913
 30
0.0
 11
4.77
 21
64.914
 31
0.0
  0
LINE
  5
1008
330
A35
100
AcDbEntity
  8
0
100
AcDbLine
 10
4.747
 20
64.889
 30
0.0
 11
4.748
 21
64.89
 31
0.0
  0
LINE
  5
1009
330
A35
100
AcDbEntity
  8
0
100
AcDbLine
 10
4.748
 20
64.89
 30
0.0
 11
4.748
 21
64.891
 31
0.0
  0
LINE
  5
100A
330
A35
100
AcDbEntity
  8
0
100
AcDbLine
 10
4.748
 20
64.891
 30
0.0
 11
4.749
 21
64.891
 31
0.0
  0
LINE
  5
100B
330
A35
100
AcDbEntity
  8
0
100
AcDbLine
 10
4.727
 20
64.868
 30
0.0
 11
4.727
 21
64.868
 31
0.0
  0
LINE
  5
100C
330
A35
100
AcDbEntity
  8
0
100
AcDbLine
 10
4.749
 20
64.891
 30
0.0
 11
4.75
 21
64.892
 31
0.0
  0
LINE
  5
100D
330
A35
100
AcDbEntity
  8
0
100
AcDbLine
 10
4.75
 20
64.892
 30
0.0
 11
4.751
 21
64.893
 31
0.0
  0
LINE
  5
100E
330
A35
100
AcDbEntity
  8
0
100
AcDbLine
 10
4.779
 20
64.923
 30
0.0
 11
4.78
 21
64.924
 31
0.0
  0
LINE
  5
100F
330
A35
100
AcDbEntity
  8
0
100
AcDbLine
 10
4.751
 20
64.893
 30
0.0
 11
4.751
 21
64.894
 31
0.0
  0
LINE
  5
1010
330
A35
100
AcDbEntity
  8
0
100
AcDbLine
 10
4.779
 20
64.922
 30
0.0
 11
4.779
 21
64.923
 31
0.0
  0
LINE
  5
1011
330
A35
100
AcDbEntity
  8
0
100
AcDbLine
 10
4.764
 20
64.907
 30
0.0
 11
4.762
 21
64.905
 31
0.0
  0
LINE
  5
1012
330
A35
100
AcDbEntity
  8
0
100
AcDbLine
 10
4.778
 20
64.922
 30
0.0
 11
4.779
 21
64.922
 31
0.0
  0
LINE
  5
1013
330
A35
100
AcDbEntity
  8
0
100
AcDbLine
 10
4.761
 20
64.904
 30
0.0
 11
4.761
 21
64.903
 31
0.0
  0
LINE
  5
1014
330
A35
100
AcDbEntity
  8
0
100
AcDbLine
 10
4.778
 20
64.921
 30
0.0
 11
4.778
 21
64.922
 31
0.0
  0
LINE
  5
1015
330
A35
100
AcDbEntity
  8
0
100
AcDbLine
 10
4.777
 20
64.921
 30
0.0
 11
4.778
 21
64.921
 31
0.0
  0
LINE
  5
1016
330
A35
100
AcDbEntity
  8
0
100
AcDbLine
 10
4.759
 20
64.902
 30
0.0
 11
4.758
 21
64.901
 31
0.0
  0
LINE
  5
1017
330
A35
100
AcDbEntity
  8
0
100
AcDbLine
 10
4.758
 20
64.901
 30
0.0
 11
4.758
 21
64.9
 31
0.0
  0
LINE
  5
1018
330
A35
100
AcDbEntity
  8
0
100
AcDbLine
 10
4.776
 20
64.919
 30
0.0
 11
4.777
 21
64.921
 31
0.0
  0
LINE
  5
1019
330
A35
100
AcDbEntity
  8
0
100
AcDbLine
 10
4.751
 20
64.894
 30
0.0
 11
4.752
 21
64.895
 31
0.0
  0
LINE
  5
101A
330
A35
100
AcDbEntity
  8
0
100
AcDbLine
 10
4.752
 20
64.895
 30
0.0
 11
4.753
 21
64.895
 31
0.0
  0
LINE
  5
101B
330
A35
100
AcDbEntity
  8
0
100
AcDbLine
 10
4.753
 20
64.895
 30
0.0
 11
4.754
 21
64.896
 31
0.0
  0
LINE
  5
101C
330
A35
100
AcDbEntity
  8
0
100
AcDbLine
 10
4.754
 20
64.896
 30
0.0
 11
4.755
 21
64.897
 31
0.0
  0
LINE
  5
101D
330
A35
100
AcDbEntity
  8
0
100
AcDbLine
 10
4.774
 20
64.917
 30
0.0
 11
4.775
 21
64.919
 31
0.0
  0
LINE
  5
101E
330
A35
100
AcDbEntity
  8
0
100
AcDbLine
 10
4.726
 20
64.868
 30
0.0
 11
4.727
 21
64.868
 31
0.0
  0
LINE
  5
101F
330
A35
100
AcDbEntity
  8
0
100
AcDbLine
 10
4.755
 20
64.897
 30
0.0
 11
4.755
 21
64.898
 31
0.0
  0
LINE
  5
1020
330
A35
100
AcDbEntity
  8
0
100
AcDbLine
 10
4.755
 20
64.898
 30
0.0
 11
4.756
 21
64.899
 31
0.0
  0
LINE
  5
1021
330
A35
100
AcDbEntity
  8
0
100
AcDbLine
 10
4.727
 20
64.868
 30
0.0
 11
4.727
 21
64.869
 31
0.0
  0
LINE
  5
1022
330
A35
100
AcDbEntity
  8
0
100
AcDbLine
 10
4.727
 20
64.869
 30
0.0
 11
4.728
 21
64.869
 31
0.0
  0
LINE
  5
1023
330
A35
100
AcDbEntity
  8
0
100
AcDbLine
 10
4.728
 20
64.869
 30
0.0
 11
4.728
 21
64.869
 31
0.0
  0
LINE
  5
1024
330
A35
100
AcDbEntity
  8
0
100
AcDbLine
 10
4.728
 20
64.869
 30
0.0
 11
4.728
 21
64.87
 31
0.0
  0
LINE
  5
1025
330
A35
100
AcDbEntity
  8
0
100
AcDbLine
 10
4.728
 20
64.87
 30
0.0
 11
4.729
 21
64.87
 31
0.0
  0
LINE
  5
1026
330
A35
100
AcDbEntity
  8
0
100
AcDbLine
 10
4.729
 20
64.87
 30
0.0
 11
4.729
 21
64.871
 31
0.0
  0
LINE
  5
1027
330
A35
100
AcDbEntity
  8
0
100
AcDbLine
 10
4.729
 20
64.871
 30
0.0
 11
4.73
 21
64.871
 31
0.0
  0
LINE
  5
1028
330
A35
100
AcDbEntity
  8
0
100
AcDbLine
 10
4.756
 20
64.899
 30
0.0
 11
4.757
 21
64.899
 31
0.0
  0
LINE
  5
1029
330
A35
100
AcDbEntity
  8
0
100
AcDbLine
 10
4.73
 20
64.871
 30
0.0
 11
4.73
 21
64.872
 31
0.0
  0
LINE
  5
102A
330
A35
100
AcDbEntity
  8
0
100
AcDbLine
 10
4.73
 20
64.872
 30
0.0
 11
4.731
 21
64.872
 31
0.0
  0
LINE
  5
102B
330
A35
100
AcDbEntity
  8
0
100
AcDbLine
 10
5.111
 20
65.194
 30
0.0
 11
5.112
 21
65.194
 31
0.0
  0
LINE
  5
102C
330
A35
100
AcDbEntity
  8
0
100
AcDbLine
 10
5.087
 20
65.17
 30
0.0
 11
5.086
 21
65.169
 31
0.0
  0
LINE
  5
102D
330
A35
100
AcDbEntity
  8
0
100
AcDbLine
 10
5.134
 20
65.216
 30
0.0
 11
5.134
 21
65.216
 31
0.0
  0
LINE
  5
102E
330
A35
100
AcDbEntity
  8
0
100
AcDbLine
 10
5.088
 20
65.17
 30
0.0
 11
5.087
 21
65.17
 31
0.0
  0
LINE
  5
102F
330
A35
100
AcDbEntity
  8
0
100
AcDbLine
 10
5.078
 20
65.161
 30
0.0
 11
5.078
 21
65.161
 31
0.0
  0
LINE
  5
1030
330
A35
100
AcDbEntity
  8
0
100
AcDbLine
 10
5.113
 20
65.195
 30
0.0
 11
5.116
 21
65.198
 31
0.0
  0
LINE
  5
1031
330
A35
100
AcDbEntity
  8
0
100
AcDbLine
 10
5.077
 20
65.159
 30
0.0
 11
5.077
 21
65.16
 31
0.0
  0
LINE
  5
1032
330
A35
100
AcDbEntity
  8
0
100
AcDbLine
 10
5.109
 20
65.191
 30
0.0
 11
5.108
 21
65.19
 31
0.0
  0
LINE
  5
1033
330
A35
100
AcDbEntity
  8
0
100
AcDbLine
 10
5.077
 20
65.16
 30
0.0
 11
5.077
 21
65.16
 31
0.0
  0
LINE
  5
1034
330
A35
100
AcDbEntity
  8
0
100
AcDbLine
 10
5.077
 20
65.16
 30
0.0
 11
5.078
 21
65.16
 31
0.0
  0
LINE
  5
1035
330
A35
100
AcDbEntity
  8
0
100
AcDbLine
 10
5.078
 20
65.16
 30
0.0
 11
5.078
 21
65.161
 31
0.0
  0
LINE
  5
1036
330
A35
100
AcDbEntity
  8
0
100
AcDbLine
 10
5.133
 20
65.216
 30
0.0
 11
5.133
 21
65.215
 31
0.0
  0
LINE
  5
1037
330
A35
100
AcDbEntity
  8
0
100
AcDbLine
 10
5.078
 20
65.161
 30
0.0
 11
5.079
 21
65.161
 31
0.0
  0
LINE
  5
1038
330
A35
100
AcDbEntity
  8
0
100
AcDbLine
 10
5.133
 20
65.215
 30
0.0
 11
5.132
 21
65.215
 31
0.0
  0
LINE
  5
1039
330
A35
100
AcDbEntity
  8
0
100
AcDbLine
 10
5.117
 20
65.2
 30
0.0
 11
5.118
 21
65.2
 31
0.0
  0
LINE
  5
103A
330
A35
100
AcDbEntity
  8
0
100
AcDbLine
 10
5.108
 20
65.19
 30
0.0
 11
5.107
 21
65.19
 31
0.0
  0
LINE
  5
103B
330
A35
100
AcDbEntity
  8
0
100
AcDbLine
 10
5.119
 20
65.201
 30
0.0
 11
5.119
 21
65.202
 31
0.0
  0
LINE
  5
103C
330
A35
100
AcDbEntity
  8
0
100
AcDbLine
 10
5.079
 20
65.161
 30
0.0
 11
5.085
 21
65.168
 31
0.0
  0
LINE
  5
103D
330
A35
100
AcDbEntity
  8
0
100
AcDbLine
 10
5.132
 20
65.215
 30
0.0
 11
5.132
 21
65.214
 31
0.0
  0
LINE
  5
103E
330
A35
100
AcDbEntity
  8
0
100
AcDbLine
 10
5.132
 20
65.214
 30
0.0
 11
5.132
 21
65.214
 31
0.0
  0
LINE
  5
103F
330
A35
100
AcDbEntity
  8
0
100
AcDbLine
 10
5.132
 20
65.214
 30
0.0
 11
5.131
 21
65.213
 31
0.0
  0
LINE
  5
1040
330
A35
100
AcDbEntity
  8
0
100
AcDbLine
 10
5.107
 20
65.19
 30
0.0
 11
5.107
 21
65.189
 31
0.0
  0
LINE
  5
1041
330
A35
100
AcDbEntity
  8
0
100
AcDbLine
 10
5.122
 20
65.205
 30
0.0
 11
5.123
 21
65.205
 31
0.0
  0
LINE
  5
1042
330
A35
100
AcDbEntity
  8
0
100
AcDbLine
 10
5.131
 20
65.213
 30
0.0
 11
5.13
 21
65.213
 31
0.0
  0
LINE
  5
1043
330
A35
100
AcDbEntity
  8
0
100
AcDbLine
 10
5.13
 20
65.213
 30
0.0
 11
5.13
 21
65.212
 31
0.0
  0
LINE
  5
1044
330
A35
100
AcDbEntity
  8
0
100
AcDbLine
 10
5.13
 20
65.212
 30
0.0
 11
5.129
 21
65.212
 31
0.0
  0
LINE
  5
1045
330
A35
100
AcDbEntity
  8
0
100
AcDbLine
 10
5.125
 20
65.207
 30
0.0
 11
5.125
 21
65.208
 31
0.0
  0
LINE
  5
1046
330
A35
100
AcDbEntity
  8
0
100
AcDbLine
 10
5.129
 20
65.212
 30
0.0
 11
5.129
 21
65.211
 31
0.0
  0
LINE
  5
1047
330
A35
100
AcDbEntity
  8
0
100
AcDbLine
 10
5.107
 20
65.189
 30
0.0
 11
5.105
 21
65.187
 31
0.0
  0
LINE
  5
1048
330
A35
100
AcDbEntity
  8
0
100
AcDbLine
 10
5.094
 20
65.177
 30
0.0
 11
5.093
 21
65.176
 31
0.0
  0
LINE
  5
1049
330
A35
100
AcDbEntity
  8
0
100
AcDbLine
 10
5.129
 20
65.211
 30
0.0
 11
5.126
 21
65.208
 31
0.0
  0
LINE
  5
104A
330
A35
100
AcDbEntity
  8
0
100
AcDbLine
 10
5.105
 20
65.187
 30
0.0
 11
5.104
 21
65.187
 31
0.0
  0
LINE
  5
104B
330
A35
100
AcDbEntity
  8
0
100
AcDbLine
 10
5.104
 20
65.187
 30
0.0
 11
5.103
 21
65.186
 31
0.0
  0
LINE
  5
104C
330
A35
100
AcDbEntity
  8
0
100
AcDbLine
 10
5.126
 20
65.208
 30
0.0
 11
5.125
 21
65.208
 31
0.0
  0
LINE
  5
104D
330
A35
100
AcDbEntity
  8
0
100
AcDbLine
 10
5.093
 20
65.176
 30
0.0
 11
5.093
 21
65.175
 31
0.0
  0
LINE
  5
104E
330
A35
100
AcDbEntity
  8
0
100
AcDbLine
 10
5.103
 20
65.186
 30
0.0
 11
5.102
 21
65.184
 31
0.0
  0
LINE
  5
104F
330
A35
100
AcDbEntity
  8
0
100
AcDbLine
 10
5.102
 20
65.184
 30
0.0
 11
5.101
 21
65.183
 31
0.0
  0
LINE
  5
1050
330
A35
100
AcDbEntity
  8
0
100
AcDbLine
 10
5.125
 20
65.207
 30
0.0
 11
5.123
 21
65.205
 31
0.0
  0
LINE
  5
1051
330
A35
100
AcDbEntity
  8
0
100
AcDbLine
 10
5.101
 20
65.183
 30
0.0
 11
5.1
 21
65.183
 31
0.0
  0
LINE
  5
1052
330
A35
100
AcDbEntity
  8
0
100
AcDbLine
 10
5.122
 20
65.205
 30
0.0
 11
5.122
 21
65.204
 31
0.0
  0
LINE
  5
1053
330
A35
100
AcDbEntity
  8
0
100
AcDbLine
 10
5.095
 20
65.177
 30
0.0
 11
5.095
 21
65.178
 31
0.0
  0
LINE
  5
1054
330
A35
100
AcDbEntity
  8
0
100
AcDbLine
 10
5.1
 20
65.183
 30
0.0
 11
5.099
 21
65.182
 31
0.0
  0
LINE
  5
1055
330
A35
100
AcDbEntity
  8
0
100
AcDbLine
 10
5.122
 20
65.204
 30
0.0
 11
5.12
 21
65.203
 31
0.0
  0
LINE
  5
1056
330
A35
100
AcDbEntity
  8
0
100
AcDbLine
 10
5.12
 20
65.203
 30
0.0
 11
5.119
 21
65.202
 31
0.0
  0
LINE
  5
1057
330
A35
100
AcDbEntity
  8
0
100
AcDbLine
 10
5.099
 20
65.182
 30
0.0
 11
5.099
 21
65.181
 31
0.0
  0
LINE
  5
1058
330
A35
100
AcDbEntity
  8
0
100
AcDbLine
 10
5.133
 20
65.216
 30
0.0
 11
5.133
 21
65.216
 31
0.0
  0
LINE
  5
1059
330
A35
100
AcDbEntity
  8
0
100
AcDbLine
 10
5.119
 20
65.201
 30
0.0
 11
5.118
 21
65.2
 31
0.0
  0
LINE
  5
105A
330
A35
100
AcDbEntity
  8
0
100
AcDbLine
 10
5.099
 20
65.181
 30
0.0
 11
5.098
 21
65.18
 31
0.0
  0
LINE
  5
105B
330
A35
100
AcDbEntity
  8
0
100
AcDbLine
 10
5.117
 20
65.2
 30
0.0
 11
5.116
 21
65.199
 31
0.0
  0
LINE
  5
105C
330
A35
100
AcDbEntity
  8
0
100
AcDbLine
 10
5.116
 20
65.199
 30
0.0
 11
5.116
 21
65.198
 31
0.0
  0
LINE
  5
105D
330
A35
100
AcDbEntity
  8
0
100
AcDbLine
 10
5.098
 20
65.18
 30
0.0
 11
5.097
 21
65.18
 31
0.0
  0
LINE
  5
105E
330
A35
100
AcDbEntity
  8
0
100
AcDbLine
 10
5.097
 20
65.18
 30
0.0
 11
5.096
 21
65.179
 31
0.0
  0
LINE
  5
105F
330
A35
100
AcDbEntity
  8
0
100
AcDbLine
 10
5.096
 20
65.179
 30
0.0
 11
5.095
 21
65.178
 31
0.0
  0
LINE
  5
1060
330
A35
100
AcDbEntity
  8
0
100
AcDbLine
 10
5.093
 20
65.175
 30
0.0
 11
5.088
 21
65.17
 31
0.0
  0
LINE
  5
1061
330
A35
100
AcDbEntity
  8
0
100
AcDbLine
 10
5.113
 20
65.195
 30
0.0
 11
5.112
 21
65.194
 31
0.0
  0
LINE
  5
1062
330
A35
100
AcDbEntity
  8
0
100
AcDbLine
 10
5.095
 20
65.177
 30
0.0
 11
5.094
 21
65.177
 31
0.0
  0
LINE
  5
1063
330
A35
100
AcDbEntity
  8
0
100
AcDbLine
 10
5.111
 20
65.194
 30
0.0
 11
5.11
 21
65.193
 31
0.0
  0
LINE
  5
1064
330
A35
100
AcDbEntity
  8
0
100
AcDbLine
 10
5.11
 20
65.193
 30
0.0
 11
5.11
 21
65.192
 31
0.0
  0
LINE
  5
1065
330
A35
100
AcDbEntity
  8
0
100
AcDbLine
 10
5.11
 20
65.192
 30
0.0
 11
5.109
 21
65.191
 31
0.0
  0
LINE
  5
1066
330
A35
100
AcDbEntity
  8
0
100
AcDbLine
 10
5.086
 20
65.168
 30
0.0
 11
5.085
 21
65.168
 31
0.0
  0
LINE
  5
1067
330
A35
100
AcDbEntity
  8
0
100
AcDbLine
 10
5.086
 20
65.169
 30
0.0
 11
5.086
 21
65.168
 31
0.0
  0
LINE
  5
1068
330
A35
100
AcDbEntity
  8
0
100
AcDbLine
 10
26.406
 20
81.501
 30
0.0
 11
26.407
 21
81.502
 31
0.0
  0
LINE
  5
1069
330
A35
100
AcDbEntity
  8
0
100
AcDbLine
 10
26.383
 20
81.49
 30
0.0
 11
26.382
 21
81.489
 31
0.0
  0
LINE
  5
106A
330
A35
100
AcDbEntity
  8
0
100
AcDbLine
 10
26.383
 20
81.49
 30
0.0
 11
26.382
 21
81.489
 31
0.0
  0
LINE
  5
106B
330
A35
100
AcDbEntity
  8
0
100
AcDbLine
 10
26.407
 20
81.502
 30
0.0
 11
26.41
 21
81.503
 31
0.0
  0
LINE
  5
106C
330
A35
100
AcDbEntity
  8
0
100
AcDbLine
 10
26.409
 20
81.503
 30
0.0
 11
26.41
 21
81.504
 31
0.0
  0
LINE
  5
106D
330
A35
100
AcDbEntity
  8
0
100
AcDbLine
 10
26.384
 20
81.491
 30
0.0
 11
26.384
 21
81.49
 31
0.0
  0
LINE
  5
106E
330
A35
100
AcDbEntity
  8
0
100
AcDbLine
 10
26.402
 20
81.5
 30
0.0
 11
26.401
 21
81.499
 31
0.0
  0
LINE
  5
106F
330
A35
100
AcDbEntity
  8
0
100
AcDbLine
 10
26.498
 20
81.548
 30
0.0
 11
26.498
 21
81.547
 31
0.0
  0
LINE
  5
1070
330
A35
100
AcDbEntity
  8
0
100
AcDbLine
 10
26.411
 20
81.504
 30
0.0
 11
26.415
 21
81.506
 31
0.0
  0
LINE
  5
1071
330
A35
100
AcDbEntity
  8
0
100
AcDbLine
 10
26.497
 20
81.547
 30
0.0
 11
26.496
 21
81.546
 31
0.0
  0
LINE
  5
1072
330
A35
100
AcDbEntity
  8
0
100
AcDbLine
 10
26.459
 20
81.528
 30
0.0
 11
26.458
 21
81.527
 31
0.0
  0
LINE
  5
1073
330
A35
100
AcDbEntity
  8
0
100
AcDbLine
 10
26.495
 20
81.546
 30
0.0
 11
26.494
 21
81.546
 31
0.0
  0
LINE
  5
1074
330
A35
100
AcDbEntity
  8
0
100
AcDbLine
 10
26.495
 20
81.546
 30
0.0
 11
26.494
 21
81.545
 31
0.0
  0
LINE
  5
1075
330
A35
100
AcDbEntity
  8
0
100
AcDbLine
 10
26.416
 20
81.507
 30
0.0
 11
26.418
 21
81.507
 31
0.0
  0
LINE
  5
1076
330
A35
100
AcDbEntity
  8
0
100
AcDbLine
 10
26.494
 20
81.545
 30
0.0
 11
26.491
 21
81.544
 31
0.0
  0
LINE
  5
1077
330
A35
100
AcDbEntity
  8
0
100
AcDbLine
 10
26.418
 20
81.507
 30
0.0
 11
26.419
 21
81.508
 31
0.0
  0
LINE
  5
1078
330
A35
100
AcDbEntity
  8
0
100
AcDbLine
 10
26.498
 20
81.547
 30
0.0
 11
26.497
 21
81.547
 31
0.0
  0
LINE
  5
1079
330
A35
100
AcDbEntity
  8
0
100
AcDbLine
 10
26.491
 20
81.544
 30
0.0
 11
26.49
 21
81.543
 31
0.0
  0
LINE
  5
107A
330
A35
100
AcDbEntity
  8
0
100
AcDbLine
 10
26.49
 20
81.543
 30
0.0
 11
26.489
 21
81.543
 31
0.0
  0
LINE
  5
107B
330
A35
100
AcDbEntity
  8
0
100
AcDbLine
 10
26.458
 20
81.527
 30
0.0
 11
26.455
 21
81.526
 31
0.0
  0
LINE
  5
107C
330
A35
100
AcDbEntity
  8
0
100
AcDbLine
 10
26.489
 20
81.543
 30
0.0
 11
26.487
 21
81.542
 31
0.0
  0
LINE
  5
107D
330
A35
100
AcDbEntity
  8
0
100
AcDbLine
 10
26.422
 20
81.509
 30
0.0
 11
26.424
 21
81.51
 31
0.0
  0
LINE
  5
107E
330
A35
100
AcDbEntity
  8
0
100
AcDbLine
 10
26.497
 20
81.547
 30
0.0
 11
26.496
 21
81.547
 31
0.0
  0
LINE
  5
107F
330
A35
100
AcDbEntity
  8
0
100
AcDbLine
 10
26.485
 20
81.541
 30
0.0
 11
26.484
 21
81.54
 31
0.0
  0
LINE
  5
1080
330
A35
100
AcDbEntity
  8
0
100
AcDbLine
 10
26.426
 20
81.511
 30
0.0
 11
26.428
 21
81.512
 31
0.0
  0
LINE
  5
1081
330
A35
100
AcDbEntity
  8
0
100
AcDbLine
 10
26.483
 20
81.54
 30
0.0
 11
26.481
 21
81.539
 31
0.0
  0
LINE
  5
1082
330
A35
100
AcDbEntity
  8
0
100
AcDbLine
 10
26.457
 20
81.527
 30
0.0
 11
26.454
 21
81.526
 31
0.0
  0
LINE
  5
1083
330
A35
100
AcDbEntity
  8
0
100
AcDbLine
 10
26.496
 20
81.546
 30
0.0
 11
26.495
 21
81.546
 31
0.0
  0
LINE
  5
1084
330
A35
100
AcDbEntity
  8
0
100
AcDbLine
 10
26.479
 20
81.538
 30
0.0
 11
26.477
 21
81.537
 31
0.0
  0
LINE
  5
1085
330
A35
100
AcDbEntity
  8
0
100
AcDbLine
 10
26.477
 20
81.537
 30
0.0
 11
26.476
 21
81.536
 31
0.0
  0
LINE
  5
1086
330
A35
100
AcDbEntity
  8
0
100
AcDbLine
 10
26.412
 20
81.505
 30
0.0
 11
26.411
 21
81.504
 31
0.0
  0
LINE
  5
1087
330
A35
100
AcDbEntity
  8
0
100
AcDbLine
 10
26.495
 20
81.546
 30
0.0
 11
26.494
 21
81.545
 31
0.0
  0
LINE
  5
1088
330
A35
100
AcDbEntity
  8
0
100
AcDbLine
 10
26.494
 20
81.545
 30
0.0
 11
26.493
 21
81.545
 31
0.0
  0
LINE
  5
1089
330
A35
100
AcDbEntity
  8
0
100
AcDbLine
 10
26.472
 20
81.534
 30
0.0
 11
26.47
 21
81.534
 31
0.0
  0
LINE
  5
108A
330
A35
100
AcDbEntity
  8
0
100
AcDbLine
 10
26.493
 20
81.545
 30
0.0
 11
26.492
 21
81.544
 31
0.0
  0
LINE
  5
108B
330
A35
100
AcDbEntity
  8
0
100
AcDbLine
 10
26.469
 20
81.533
 30
0.0
 11
26.465
 21
81.531
 31
0.0
  0
LINE
  5
108C
330
A35
100
AcDbEntity
  8
0
100
AcDbLine
 10
26.467
 20
81.532
 30
0.0
 11
26.466
 21
81.531
 31
0.0
  0
LINE
  5
108D
330
A35
100
AcDbEntity
  8
0
100
AcDbLine
 10
26.412
 20
81.504
 30
0.0
 11
26.409
 21
81.503
 31
0.0
  0
LINE
  5
108E
330
A35
100
AcDbEntity
  8
0
100
AcDbLine
 10
26.465
 20
81.531
 30
0.0
 11
26.463
 21
81.53
 31
0.0
  0
LINE
  5
108F
330
A35
100
AcDbEntity
  8
0
100
AcDbLine
 10
26.463
 20
81.53
 30
0.0
 11
26.461
 21
81.529
 31
0.0
  0
LINE
  5
1090
330
A35
100
AcDbEntity
  8
0
100
AcDbLine
 10
26.455
 20
81.526
 30
0.0
 11
26.427
 21
81.512
 31
0.0
  0
LINE
  5
1091
330
A35
100
AcDbEntity
  8
0
100
AcDbLine
 10
26.462
 20
81.529
 30
0.0
 11
26.458
 21
81.527
 31
0.0
  0
LINE
  5
1092
330
A35
100
AcDbEntity
  8
0
100
AcDbLine
 10
26.458
 20
81.527
 30
0.0
 11
26.457
 21
81.527
 31
0.0
  0
LINE
  5
1093
330
A35
100
AcDbEntity
  8
0
100
AcDbLine
 10
26.409
 20
81.503
 30
0.0
 11
26.408
 21
81.502
 31
0.0
  0
LINE
  5
1094
330
A35
100
AcDbEntity
  8
0
100
AcDbLine
 10
26.405
 20
81.501
 30
0.0
 11
26.404
 21
81.5
 31
0.0
  0
LINE
  5
1095
330
A35
100
AcDbEntity
  8
0
100
AcDbLine
 10
26.489
 20
81.543
 30
0.0
 11
26.488
 21
81.542
 31
0.0
  0
LINE
  5
1096
330
A35
100
AcDbEntity
  8
0
100
AcDbLine
 10
26.488
 20
81.543
 30
0.0
 11
26.487
 21
81.542
 31
0.0
  0
LINE
  5
1097
330
A35
100
AcDbEntity
  8
0
100
AcDbLine
 10
26.426
 20
81.512
 30
0.0
 11
26.423
 21
81.51
 31
0.0
  0
LINE
  5
1098
330
A35
100
AcDbEntity
  8
0
100
AcDbLine
 10
26.487
 20
81.542
 30
0.0
 11
26.484
 21
81.541
 31
0.0
  0
LINE
  5
1099
330
A35
100
AcDbEntity
  8
0
100
AcDbLine
 10
26.423
 20
81.51
 30
0.0
 11
26.422
 21
81.509
 31
0.0
  0
LINE
  5
109A
330
A35
100
AcDbEntity
  8
0
100
AcDbLine
 10
26.422
 20
81.509
 30
0.0
 11
26.419
 21
81.508
 31
0.0
  0
LINE
  5
109B
330
A35
100
AcDbEntity
  8
0
100
AcDbLine
 10
26.454
 20
81.525
 30
0.0
 11
26.455
 21
81.526
 31
0.0
  0
LINE
  5
109C
330
A35
100
AcDbEntity
  8
0
100
AcDbLine
 10
26.482
 20
81.539
 30
0.0
 11
26.48
 21
81.538
 31
0.0
  0
LINE
  5
109D
330
A35
100
AcDbEntity
  8
0
100
AcDbLine
 10
26.457
 20
81.527
 30
0.0
 11
26.459
 21
81.528
 31
0.0
  0
LINE
  5
109E
330
A35
100
AcDbEntity
  8
0
100
AcDbLine
 10
26.482
 20
81.539
 30
0.0
 11
26.48
 21
81.538
 31
0.0
  0
LINE
  5
109F
330
A35
100
AcDbEntity
  8
0
100
AcDbLine
 10
26.42
 20
81.509
 30
0.0
 11
26.418
 21
81.508
 31
0.0
  0
LINE
  5
10A0
330
A35
100
AcDbEntity
  8
0
100
AcDbLine
 10
26.462
 20
81.529
 30
0.0
 11
26.463
 21
81.53
 31
0.0
  0
LINE
  5
10A1
330
A35
100
AcDbEntity
  8
0
100
AcDbLine
 10
26.478
 20
81.538
 30
0.0
 11
26.475
 21
81.536
 31
0.0
  0
LINE
  5
10A2
330
A35
100
AcDbEntity
  8
0
100
AcDbLine
 10
26.464
 20
81.531
 30
0.0
 11
26.467
 21
81.532
 31
0.0
  0
LINE
  5
10A3
330
A35
100
AcDbEntity
  8
0
100
AcDbLine
 10
26.467
 20
81.532
 30
0.0
 11
26.468
 21
81.532
 31
0.0
  0
LINE
  5
10A4
330
A35
100
AcDbEntity
  8
0
100
AcDbLine
 10
26.477
 20
81.537
 30
0.0
 11
26.473
 21
81.535
 31
0.0
  0
LINE
  5
10A5
330
A35
100
AcDbEntity
  8
0
100
AcDbLine
 10
26.427
 20
81.512
 30
0.0
 11
26.425
 21
81.511
 31
0.0
  0
LINE
  5
10A6
330
A35
100
AcDbEntity
  8
0
100
AcDbLine
 10
26.468
 20
81.532
 30
0.0
 11
26.471
 21
81.534
 31
0.0
  0
LINE
  5
10A7
330
A35
100
AcDbEntity
  8
0
100
AcDbLine
 10
26.475
 20
81.536
 30
0.0
 11
26.474
 21
81.535
 31
0.0
  0
LINE
  5
10A8
330
A35
100
AcDbEntity
  8
0
100
AcDbLine
 10
26.423
 20
81.51
 30
0.0
 11
26.42
 21
81.509
 31
0.0
  0
LINE
  5
10A9
330
A35
100
AcDbEntity
  8
0
100
AcDbLine
 10
26.472
 20
81.535
 30
0.0
 11
26.474
 21
81.535
 31
0.0
  0
LINE
  5
10AA
330
A35
100
AcDbEntity
  8
0
100
AcDbLine
 10
26.419
 20
81.508
 30
0.0
 11
26.417
 21
81.507
 31
0.0
  0
LINE
  5
10AB
330
A35
100
AcDbEntity
  8
0
100
AcDbLine
 10
26.417
 20
81.507
 30
0.0
 11
26.415
 21
81.506
 31
0.0
  0
LINE
  5
10AC
330
A35
100
AcDbEntity
  8
0
100
AcDbLine
 10
26.474
 20
81.535
 30
0.0
 11
26.475
 21
81.536
 31
0.0
  0
LINE
  5
10AD
330
A35
100
AcDbEntity
  8
0
100
AcDbLine
 10
26.474
 20
81.535
 30
0.0
 11
26.473
 21
81.535
 31
0.0
  0
LINE
  5
10AE
330
A35
100
AcDbEntity
  8
0
100
AcDbLine
 10
26.473
 20
81.535
 30
0.0
 11
26.471
 21
81.534
 31
0.0
  0
LINE
  5
10AF
330
A35
100
AcDbEntity
  8
0
100
AcDbLine
 10
26.411
 20
81.504
 30
0.0
 11
26.41
 21
81.503
 31
0.0
  0
LINE
  5
10B0
330
A35
100
AcDbEntity
  8
0
100
AcDbLine
 10
26.478
 20
81.537
 30
0.0
 11
26.48
 21
81.538
 31
0.0
  0
LINE
  5
10B1
330
A35
100
AcDbEntity
  8
0
100
AcDbLine
 10
26.408
 20
81.503
 30
0.0
 11
26.407
 21
81.502
 31
0.0
  0
LINE
  5
10B2
330
A35
100
AcDbEntity
  8
0
100
AcDbLine
 10
26.478
 20
81.538
 30
0.0
 11
26.48
 21
81.539
 31
0.0
  0
LINE
  5
10B3
330
A35
100
AcDbEntity
  8
0
100
AcDbLine
 10
26.473
 20
81.535
 30
0.0
 11
26.469
 21
81.533
 31
0.0
  0
LINE
  5
10B4
330
A35
100
AcDbEntity
  8
0
100
AcDbLine
 10
26.404
 20
81.501
 30
0.0
 11
26.402
 21
81.5
 31
0.0
  0
LINE
  5
10B5
330
A35
100
AcDbEntity
  8
0
100
AcDbLine
 10
26.482
 20
81.539
 30
0.0
 11
26.483
 21
81.54
 31
0.0
  0
LINE
  5
10B6
330
A35
100
AcDbEntity
  8
0
100
AcDbLine
 10
26.402
 20
81.499
 30
0.0
 11
26.4
 21
81.499
 31
0.0
  0
LINE
  5
10B7
330
A35
100
AcDbEntity
  8
0
100
AcDbLine
 10
26.483
 20
81.54
 30
0.0
 11
26.484
 21
81.54
 31
0.0
  0
LINE
  5
10B8
330
A35
100
AcDbEntity
  8
0
100
AcDbLine
 10
26.482
 20
81.54
 30
0.0
 11
26.485
 21
81.541
 31
0.0
  0
LINE
  5
10B9
330
A35
100
AcDbEntity
  8
0
100
AcDbLine
 10
26.398
 20
81.497
 30
0.0
 11
26.397
 21
81.497
 31
0.0
  0
LINE
  5
10BA
330
A35
100
AcDbEntity
  8
0
100
AcDbLine
 10
26.397
 20
81.497
 30
0.0
 11
26.395
 21
81.496
 31
0.0
  0
LINE
  5
10BB
330
A35
100
AcDbEntity
  8
0
100
AcDbLine
 10
26.485
 20
81.541
 30
0.0
 11
26.486
 21
81.542
 31
0.0
  0
LINE
  5
10BC
330
A35
100
AcDbEntity
  8
0
100
AcDbLine
 10
26.486
 20
81.542
 30
0.0
 11
26.487
 21
81.542
 31
0.0
  0
LINE
  5
10BD
330
A35
100
AcDbEntity
  8
0
100
AcDbLine
 10
26.47
 20
81.533
 30
0.0
 11
26.468
 21
81.533
 31
0.0
  0
LINE
  5
10BE
330
A35
100
AcDbEntity
  8
0
100
AcDbLine
 10
26.392
 20
81.494
 30
0.0
 11
26.391
 21
81.494
 31
0.0
  0
LINE
  5
10BF
330
A35
100
AcDbEntity
  8
0
100
AcDbLine
 10
26.391
 20
81.494
 30
0.0
 11
26.39
 21
81.493
 31
0.0
  0
LINE
  5
10C0
330
A35
100
AcDbEntity
  8
0
100
AcDbLine
 10
26.488
 20
81.543
 30
0.0
 11
26.49
 21
81.543
 31
0.0
  0
LINE
  5
10C1
330
A35
100
AcDbEntity
  8
0
100
AcDbLine
 10
26.389
 20
81.493
 30
0.0
 11
26.388
 21
81.492
 31
0.0
  0
LINE
  5
10C2
330
A35
100
AcDbEntity
  8
0
100
AcDbLine
 10
26.389
 20
81.493
 30
0.0
 11
26.387
 21
81.492
 31
0.0
  0
LINE
  5
10C3
330
A35
100
AcDbEntity
  8
0
100
AcDbLine
 10
26.489
 20
81.543
 30
0.0
 11
26.49
 21
81.544
 31
0.0
  0
LINE
  5
10C4
330
A35
100
AcDbEntity
  8
0
100
AcDbLine
 10
26.49
 20
81.544
 30
0.0
 11
26.491
 21
81.544
 31
0.0
  0
LINE
  5
10C5
330
A35
100
AcDbEntity
  8
0
100
AcDbLine
 10
26.491
 20
81.544
 30
0.0
 11
26.492
 21
81.545
 31
0.0
  0
LINE
  5
10C6
330
A35
100
AcDbEntity
  8
0
100
AcDbLine
 10
26.385
 20
81.491
 30
0.0
 11
26.385
 21
81.491
 31
0.0
  0
LINE
  5
10C7
330
A35
100
AcDbEntity
  8
0
100
AcDbLine
 10
26.385
 20
81.491
 30
0.0
 11
26.383
 21
81.49
 31
0.0
  0
LINE
  5
10C8
330
A35
100
AcDbEntity
  8
0
100
AcDbLine
 10
26.407
 20
81.502
 30
0.0
 11
26.405
 21
81.501
 31
0.0
  0
LINE
  5
10C9
330
A35
100
AcDbEntity
  8
0
100
AcDbLine
 10
26.384
 20
81.49
 30
0.0
 11
26.383
 21
81.49
 31
0.0
  0
LINE
  5
10CA
330
A35
100
AcDbEntity
  8
0
100
AcDbLine
 10
26.383
 20
81.49
 30
0.0
 11
26.382
 21
81.49
 31
0.0
  0
LINE
  5
10CB
330
A35
100
AcDbEntity
  8
0
100
AcDbLine
 10
26.417
 20
81.507
 30
0.0
 11
26.414
 21
81.505
 31
0.0
  0
LINE
  5
10CC
330
A35
100
AcDbEntity
  8
0
100
AcDbLine
 10
26.415
 20
81.506
 30
0.0
 11
26.414
 21
81.505
 31
0.0
  0
LINE
  5
10CD
330
A35
100
AcDbEntity
  8
0
100
AcDbLine
 10
26.382
 20
81.489
 30
0.0
 11
26.381
 21
81.489
 31
0.0
  0
LINE
  5
10CE
330
A35
100
AcDbEntity
  8
0
100
AcDbLine
 10
26.465
 20
81.531
 30
0.0
 11
26.462
 21
81.53
 31
0.0
  0
LINE
  5
10CF
330
A35
100
AcDbEntity
  8
0
100
AcDbLine
 10
26.387
 20
81.492
 30
0.0
 11
26.385
 21
81.491
 31
0.0
  0
LINE
  5
10D0
330
A35
100
AcDbEntity
  8
0
100
AcDbLine
 10
26.495
 20
81.546
 30
0.0
 11
26.496
 21
81.546
 31
0.0
  0
LINE
  5
10D1
330
A35
100
AcDbEntity
  8
0
100
AcDbLine
 10
26.495
 20
81.546
 30
0.0
 11
26.496
 21
81.547
 31
0.0
  0
LINE
  5
10D2
330
A35
100
AcDbEntity
  8
0
100
AcDbLine
 10
26.388
 20
81.492
 30
0.0
 11
26.387
 21
81.492
 31
0.0
  0
LINE
  5
10D3
330
A35
100
AcDbEntity
  8
0
100
AcDbLine
 10
26.496
 20
81.547
 30
0.0
 11
26.497
 21
81.547
 31
0.0
  0
LINE
  5
10D4
330
A35
100
AcDbEntity
  8
0
100
AcDbLine
 10
26.39
 20
81.493
 30
0.0
 11
26.389
 21
81.493
 31
0.0
  0
LINE
  5
10D5
330
A35
100
AcDbEntity
  8
0
100
AcDbLine
 10
26.391
 20
81.494
 30
0.0
 11
26.389
 21
81.493
 31
0.0
  0
LINE
  5
10D6
330
A35
100
AcDbEntity
  8
0
100
AcDbLine
 10
26.497
 20
81.547
 30
0.0
 11
26.497
 21
81.547
 31
0.0
  0
LINE
  5
10D7
330
A35
100
AcDbEntity
  8
0
100
AcDbLine
 10
26.381
 20
81.489
 30
0.0
 11
26.382
 21
81.489
 31
0.0
  0
LINE
  5
10D8
330
A35
100
AcDbEntity
  8
0
100
AcDbLine
 10
26.497
 20
81.547
 30
0.0
 11
26.498
 21
81.547
 31
0.0
  0
LINE
  5
10D9
330
A35
100
AcDbEntity
  8
0
100
AcDbLine
 10
26.383
 20
81.49
 30
0.0
 11
26.383
 21
81.49
 31
0.0
  0
LINE
  5
10DA
330
A35
100
AcDbEntity
  8
0
100
AcDbLine
 10
26.414
 20
81.505
 30
0.0
 11
26.412
 21
81.504
 31
0.0
  0
LINE
  5
10DB
330
A35
100
AcDbEntity
  8
0
100
AcDbLine
 10
26.498
 20
81.547
 30
0.0
 11
26.498
 21
81.548
 31
0.0
  0
LINE
  5
10DC
330
A35
100
AcDbEntity
  8
0
100
AcDbLine
 10
26.384
 20
81.49
 30
0.0
 11
26.385
 21
81.491
 31
0.0
  0
LINE
  5
10DD
330
A35
100
AcDbEntity
  8
0
100
AcDbLine
 10
26.384
 20
81.491
 30
0.0
 11
26.385
 21
81.491
 31
0.0
  0
LINE
  5
10DE
330
A35
100
AcDbEntity
  8
0
100
AcDbLine
 10
26.385
 20
81.491
 30
0.0
 11
26.386
 21
81.492
 31
0.0
  0
LINE
  5
10DF
330
A35
100
AcDbEntity
  8
0
100
AcDbLine
 10
26.386
 20
81.492
 30
0.0
 11
26.387
 21
81.492
 31
0.0
  0
LINE
  5
10E0
330
A35
100
AcDbEntity
  8
0
100
AcDbLine
 10
26.387
 20
81.492
 30
0.0
 11
26.388
 21
81.492
 31
0.0
  0
LINE
  5
10E1
330
A35
100
AcDbEntity
  8
0
100
AcDbLine
 10
26.461
 20
81.529
 30
0.0
 11
26.459
 21
81.528
 31
0.0
  0
LINE
  5
10E2
330
A35
100
AcDbEntity
  8
0
100
AcDbLine
 10
26.395
 20
81.496
 30
0.0
 11
26.392
 21
81.494
 31
0.0
  0
LINE
  5
10E3
330
A35
100
AcDbEntity
  8
0
100
AcDbLine
 10
26.396
 20
81.496
 30
0.0
 11
26.394
 21
81.495
 31
0.0
  0
LINE
  5
10E4
330
A35
100
AcDbEntity
  8
0
100
AcDbLine
 10
26.39
 20
81.494
 30
0.0
 11
26.392
 21
81.494
 31
0.0
  0
LINE
  5
10E5
330
A35
100
AcDbEntity
  8
0
100
AcDbLine
 10
26.391
 20
81.494
 30
0.0
 11
26.393
 21
81.495
 31
0.0
  0
LINE
  5
10E6
330
A35
100
AcDbEntity
  8
0
100
AcDbLine
 10
26.392
 20
81.495
 30
0.0
 11
26.394
 21
81.495
 31
0.0
  0
LINE
  5
10E7
330
A35
100
AcDbEntity
  8
0
100
AcDbLine
 10
26.398
 20
81.497
 30
0.0
 11
26.396
 21
81.496
 31
0.0
  0
LINE
  5
10E8
330
A35
100
AcDbEntity
  8
0
100
AcDbLine
 10
26.398
 20
81.498
 30
0.0
 11
26.397
 21
81.497
 31
0.0
  0
LINE
  5
10E9
330
A35
100
AcDbEntity
  8
0
100
AcDbLine
 10
26.396
 20
81.496
 30
0.0
 11
26.397
 21
81.497
 31
0.0
  0
LINE
  5
10EA
330
A35
100
AcDbEntity
  8
0
100
AcDbLine
 10
26.4
 20
81.498
 30
0.0
 11
26.398
 21
81.497
 31
0.0
  0
LINE
  5
10EB
330
A35
100
AcDbEntity
  8
0
100
AcDbLine
 10
26.398
 20
81.497
 30
0.0
 11
26.4
 21
81.499
 31
0.0
  0
LINE
  5
10EC
330
A35
100
AcDbEntity
  8
0
100
AcDbLine
 10
26.399
 20
81.498
 30
0.0
 11
26.401
 21
81.499
 31
0.0
  0
LINE
  5
10ED
330
A35
100
AcDbEntity
  8
0
100
AcDbLine
 10
26.402
 20
81.499
 30
0.0
 11
26.4
 21
81.498
 31
0.0
  0
LINE
  5
10EE
330
A35
100
AcDbEntity
  8
0
100
AcDbLine
 10
26.402
 20
81.499
 30
0.0
 11
26.403
 21
81.5
 31
0.0
  0
LINE
  5
10EF
330
A35
100
AcDbEntity
  8
0
100
AcDbLine
 10
26.403
 20
81.5
 30
0.0
 11
26.407
 21
81.502
 31
0.0
  0
TEXT
  5
10F0
330
A35
100
AcDbEntity
  8
0
100
AcDbText
 10
0.0
 20
95.0
 30
0.0
 40
3.0
  1
 ｼｽﾃﾑ天井
 11
0.0
 21
95.0
 31
0.0
100
AcDbText
  0
TEXT
  5
10F1
330
A35
100
AcDbEntity
  8
0
100
AcDbText
 10
0.0
 20
10.0
 30
0.0
 40
3.0
  1
三菱 EL-G25120RW/6 AHZ
 11
0.0
 21
10.0
 31
0.0
100
AcDbText
  0
TEXT
  5
10F2
330
A35
100
AcDbEntity
  8
0
100
AcDbText
 10
50.0
 20
35.0
 30
0.0
 40
1.5
  1
白色(4000K)　Ra85
 11
50.0
 21
35.0
 31
0.0
100
AcDbText
  0
TEXT
  5
10F3
330
A35
100
AcDbEntity
  8
0
100
AcDbText
 10
50.0
 20
32.0
 30
0.0
 40
1.5
  1
100V～242V共用タイプ
 11
50.0
 21
32.0
 31
0.0
100
AcDbText
  0
TEXT
  5
10F4
330
A35
100
AcDbEntity
  8
0
100
AcDbText
 10
50.0
 20
29.0
 30
0.0
 40
1.5
  1
連続調光　5～100　初期照度補正
 11
50.0
 21
29.0
 31
0.0
100
AcDbText
  0
TEXT
  5
10F5
330
A35
100
AcDbEntity
  8
0
100
AcDbText
 10
50.0
 20
26.0
 30
0.0
 40
1.5
  1
本体：鋼板 白色塗装仕上
 11
50.0
 21
26.0
 31
0.0
100
AcDbText
  0
TEXT
  5
10F6
330
A35
100
AcDbEntity
  8
0
100
AcDbText
 10
50.0
 20
23.0
 30
0.0
 40
1.5
  1
光源寿命：40,000時間
 11
50.0
 21
23.0
 31
0.0
100
AcDbText
  0
TEXT
  5
10F7
330
A35
100
AcDbEntity
  8
0
100
AcDbText
 10
50.0
 20
20.0
 30
0.0
 40
1.5
  1
光束：2740lm 消費電力：20.4W 消費効率：134.3lm/W
 11
50.0
 21
20.0
 31
0.0
100
AcDbText
  0
TEXT
  5
10F8
330
A35
100
AcDbEntity
  8
0
100
AcDbText
 10
50.0
 20
17.0
 30
0.0
 40
1.5
  1
上方光束は全光束の約15％
 11
50.0
 21
17.0
 31
0.0
100
AcDbText
  0
VIEWPORT
  5
45B
102
{ACAD_XDICTIONARY
360
A5E
102
}
330
A31
100
AcDbEntity
 67
1
  8
0
100
AcDbViewport
 10
128.5
 20
97.5
 30
0.0
 40
314.226
 41
222.18
 68
1
 69
1
 12
0.0
 22
0.0
 13
0.0
 23
0.0
 14
10.0
 24
10.0
 15
10.0
 25
10.0
 16
0.0
 26
0.0
 36
0.0
 17
0.0
 27
0.0
 37
0.0
 42
50.0
 43
0.0
 44
0.0
 45
1.0
 50
0.0
 51
0.0
 72
100
 90
32768
  1

281
0
 71
0
 74
0
110
0.0
120
0.0
130
0.0
111
1.0
121
0.0
131
0.0
112
0.0
122
1.0
132
0.0
 79
0
146
0.0
  0
ENDSEC
  0
SECTION
  2
OBJECTS
  0
DICTIONARY
  5
9D2
330
0
100
AcDbDictionary
281
1
  3
ACAD_CIP_PREVIOUS_PRODUCT_INFO
350
A48
  3
ACAD_COLOR
350
A28
  3
ACAD_DETAILVIEWSTYLE
350
A2F
  3
ACAD_GROUP
350
9D3
  3
ACAD_LAYOUT
350
A27
  3
ACAD_MATERIAL
350
9D6
  3
ACAD_MLEADERSTYLE
350
A2B
  3
ACAD_MLINESTYLE
350
A24
  3
ACAD_PLOTSETTINGS
350
A26
  3
ACAD_PLOTSTYLENAME
350
9D4
  3
ACAD_SCALELIST
350
A08
  3
ACAD_SECTIONVIEWSTYLE
350
A2D
  3
ACAD_TABLESTYLE
350
A29
  3
ACAD_VISUALSTYLE
350
9EF
  3
ACDB_RECOMPOSE_DATA
350
A5C
  3
AcDbVariableDictionary
350
A4F
  3
DWGPROPS
350
A5D
  3
EZDXF_META
350
10FB
  0
DICTIONARY
  5
A49
330
A1A
100
AcDbDictionary
280
1
281
1
  3
ADSK_XREC_LAYER_RECONCILED
360
A4A
  0
DICTIONARY
  5
A4B
330
A39
100
AcDbDictionary
280
1
281
1
  3
ADSK_XREC_LAYER_RECONCILED
360
A4C
  0
DICTIONARY
  5
A4D
330
A3D
100
AcDbDictionary
280
1
281
1
  3
ADSK_XREC_LAYER_RECONCILED
360
A4E
  0
DICTIONARY
  5
A5E
330
45B
100
AcDbDictionary
280
1
281
1
  3
ACAD_XREC_ROUNDTRIP
360
A5F
  0
XRECORD
  5
A48
102
{ACAD_REACTORS
330
9D2
102
}
330
9D2
100
AcDbXrecord
280
1
300
ACDLT
300
2019
300
87085ACDLT_2019_0F
  0
DICTIONARY
  5
A28
102
{ACAD_REACTORS
330
9D2
102
}
330
9D2
100
AcDbDictionary
281
1
  0
DICTIONARY
  5
A2F
102
{ACAD_REACTORS
330
9D2
102
}
330
9D2
100
AcDbDictionary
281
1
  3
Imperial24
350
A30
  0
DICTIONARY
  5
9D3
102
{ACAD_REACTORS
330
9D2
102
}
330
9D2
100
AcDbDictionary
281
1
  0
DICTIONARY
  5
A27
102
{ACAD_REACTORS
330
9D2
102
}
330
9D2
100
AcDbDictionary
281
1
  3
Model
350
A38
  3
レイアウト1
350
A34
  0
DICTIONARY
  5
9D6
102
{ACAD_REACTORS
330
9D2
102
}
330
9D2
100
AcDbDictionary
281
1
  3
ByBlock
350
9DF
  3
ByLayer
350
9D7
  3
Global
350
9E7
  0
DICTIONARY
  5
A2B
102
{ACAD_REACTORS
330
9D2
102
}
330
9D2
100
AcDbDictionary
281
1
  3
Standard
350
A2C
  0
DICTIONARY
  5
A24
102
{ACAD_REACTORS
330
9D2
102
}
330
9D2
100
AcDbDictionary
281
1
  3
Standard
350
A25
  0
DICTIONARY
  5
A26
102
{ACAD_REACTORS
330
9D2
102
}
330
9D2
100
AcDbDictionary
281
1
  0
ACDBDICTIONARYWDFLT
  5
9D4
102
{ACAD_REACTORS
330
9D2
102
}
330
9D2
100
AcDbDictionary
281
1
  3
Normal
350
9D5
100
AcDbDictionaryWithDefault
340
9D5
  0
DICTIONARY
  5
A08
102
{ACAD_REACTORS
330
9D2
102
}
330
9D2
100
AcDbDictionary
281
1
  3
A0
350
A09
  3
A1
350
A0A
  3
A2
350
A0B
  3
A3
350
A0C
  3
A4
350
A0D
  3
A5
350
A0E
  3
A6
350
A0F
  3
A7
350
A10
  3
A8
350
A11
  3
A9
350
A12
  3
B0
350
A13
  3
B1
350
A14
  3
B2
350
A15
  3
B3
350
A16
  3
B4
350
A17
  3
B5
350
A18
  3
B6
350
A19
  0
DICTIONARY
  5
A2D
102
{ACAD_REACTORS
330
9D2
102
}
330
9D2
100
AcDbDictionary
281
1
  3
Imperial24
350
A2E
  0
DICTIONARY
  5
A29
102
{ACAD_REACTORS
330
9D2
102
}
330
9D2
100
AcDbDictionary
281
1
  3
Standard
350
A2A
  0
DICTIONARY
  5
9EF
102
{ACAD_REACTORS
330
9D2
102
}
330
9D2
100
AcDbDictionary
281
1
  3
2dWireframe
350
9F5
  3
Basic
350
9F4
  3
Brighten
350
9FB
  3
ColorChange
350
9FF
  3
Conceptual
350
9F8
  3
Dim
350
9FA
  3
EdgeColorOff
350
A07
  3
Facepattern
350
9FE
  3
Flat
350
9F0
  3
FlatWithEdges
350
9F1
  3
Gouraud
350
9F2
  3
GouraudWithEdges
350
9F3
  3
Hidden
350
9F7
  3
JitterOff
350
A05
  3
Linepattern
350
9FD
  3
OverhangOff
350
A06
  3
Realistic
350
9F9
  3
Shaded
350
A04
  3
Shaded with edges
350
A03
  3
Shades of Gray
350
A00
  3
Sketchy
350
A01
  3
Thicken
350
9FC
  3
Wireframe
350
9F6
  3
X-Ray
350
A02
  0
XRECORD
  5
A5C
102
{ACAD_REACTORS
330
9D2
102
}
330
9D2
100
AcDbXrecord
280
1
 90
1
330
A2A
  0
DICTIONARY
  5
A4F
102
{ACAD_REACTORS
330
9D2
102
}
330
9D2
100
AcDbDictionary
281
1
  3
CANNOSCALE
350
A54
  3
CMLEADERSTYLE
350
A51
  3
CTABLESTYLE
350
A50
  3
CVIEWDETAILSTYLE
350
A52
  3
CVIEWSECTIONSTYLE
350
A53
  3
DIMASSOC
350
A57
  3
INDEXCTL
350
A56
  3
SORTENTS
350
A55
  3
XCLIPFRAME
350
A58
  0
XRECORD
  5
A5D
102
{ACAD_REACTORS
330
9D2
102
}
330
9D2
100
AcDbXrecord
280
1
  1
DWGPROPS COOKIE
  2

  3

  4

  6

  7

  8
1992517
  9

300
=
301
=
302
=
303
=
304
=
305
=
306
=
307
=
308
=
309
=
 40
0.0010069560185185
 41
2459044.788842593
 42
2459045.376064815
  1

 90
0
  0
XRECORD
  5
A4A
102
{ACAD_REACTORS
330
A49
102
}
330
A49
100
AcDbXrecord
280
1
290
1
  0
XRECORD
  5
A4C
102
{ACAD_REACTORS
330
A4B
102
}
330
A4B
100
AcDbXrecord
280
1
290
1
  0
XRECORD
  5
A4E
102
{ACAD_REACTORS
330
A4D
102
}
330
A4D
100
AcDbXrecord
280
1
290
1
  0
XRECORD
  5
A5F
102
{ACAD_REACTORS
330
A5E
102
}
330
A5E
100
AcDbXrecord
280
1
102
SHADEPLOT
 70
0
  0
ACDBDETAILVIEWSTYLE
  5
A30
102
{ACAD_XDICTIONARY
360
A97
102
}
102
{ACAD_REACTORS
330
A2F
102
}
330
A2F
100
AcDbModelDocViewStyle
 70
0
  3
Imperial24
290
0
100
AcDbDetailViewStyle
 70
0
 71
0
 90
3
 71
1
340
A1B
 40
0.24
340
0
 40
0.24
300

 40
0.36
280
3
 71
2
340
A22
 90
25
 71
3
340
A1B
 40
0.24
 90
1
 40
0.75
 90
1
300
%<\AcVar ViewType \f "%tc1">% %<\AcVar ViewDetailId>%\PSCALE %<\AcVar ViewScale \f "%sn">%
 71
4
340
A22
 90
25
340
A22
 90
25
280
0
  0
LAYOUT
  5
A38
102
{ACAD_XDICTIONARY
360
A9B
102
}
102
{ACAD_REACTORS
330
A27
102
}
330
A27
100
AcDbPlotSettings
  1

  2
LBP8720
  4

  6

 40
0.0
 41
0.0
 42
0.0
 43
0.0
 44
0.0
 45
0.0
 46
0.0
 47
0.0
 48
0.0
 49
0.0
140
0.0
141
0.0
142
1.0
143
1.0
 70
1712
 72
0
 73
0
 74
0
  7

 75
0
 76
0
 77
2
 78
300
147
1.0
148
0.0
149
0.0
100
AcDbLayout
  1
Model
 70
1
 71
0
 10
0.0
 20
0.0
 11
12.0
 21
9.0
 12
0.0
 22
0.0
 32
0.0
 14
0.0
 24
0.0
 34
0.0
 15
0.0
 25
0.0
 35
0.0
146
0.0
 13
0.0
 23
0.0
 33
0.0
 16
1.0
 26
0.0
 36
0.0
 17
0.0
 27
1.0
 37
0.0
 76
0
330
A35
331
A3A
  0
LAYOUT
  5
A34
102
{ACAD_XDICTIONARY
360
A99
102
}
102
{ACAD_REACTORS
330
A27
102
}
330
A27
100
AcDbPlotSettings
  1

  2
LBP8720
  4

  6

 40
0.0
 41
0.0
 42
0.0
 43
0.0
 44
0.0
 45
0.0
 46
0.0
 47
0.0
 48
0.0
 49
0.0
140
0.0
141
0.0
142
1.0
143
1.0
 70
688
 72
0
 73
0
 74
5
  7

 75
16
 76
0
 77
2
 78
300
147
1.0
148
0.0
149
0.0
100
AcDbLayout
  1
レイアウト1
 70
1
 71
1
 10
-20.0
 20
-7.5
 11
277.0
 21
202.5
 12
0.0
 22
0.0
 32
0.0
 14
1e+20
 24
1e+20
 34
1e+20
 15
-1e+20
 25
-1e+20
 35
-1e+20
146
0.0
 13
0.0
 23
0.0
 33
0.0
 16
1.0
 26
0.0
 36
0.0
 17
0.0
 27
1.0
 37
0.0
 76
0
330
A31
331
45B
  0
MATERIAL
  5
9DF
102
{ACAD_XDICTIONARY
360
9E0
102
}
102
{ACAD_REACTORS
330
9D6
102
}
330
9D6
100
AcDbMaterial
  1
ByBlock
  2

 70
0
 40
1.0
 71
0
 41
1.0
 91
-1023410177
 42
1.0
 72
0
  3

 73
1
 74
1
 75
1
 43
0.0208333333333333
 43
0.0
 43
0.0
 43
0.0
 43
0.0
 43
0.0208333333333333
 43
0.0
 43
0.0
 43
0.0
 43
0.0
 43
1.0
 43
0.0
 43
0.0
 43
0.0
 43
0.0
 43
1.0
 44
0.5
 73
0
 45
1.0
 46
1.0
 77
0
  4

 78
1
 79
1
170
1
 47
0.0208333333333333
 47
0.0
 47
0.0
 47
0.0
 47
0.0
 47
0.0208333333333333
 47
0.0
 47
0.0
 47
0.0
 47
0.0
 47
1.0
 47
0.0
 47
0.0
 47
0.0
 47
0.0
 47
1.0
 48
1.0
171
0
  6

172
1
173
1
174
1
 49
0.0208333333333333
 49
0.0
 49
0.0
 49
0.0
 49
0.0
 49
0.0208333333333333
 49
0.0
 49
0.0
 49
0.0
 49
0.0
 49
1.0
 49
0.0
 49
0.0
 49
0.0
 49
0.0
 49
1.0
140
1.0
141
1.0
175
0
  7

176
1
177
1
178
1
142
0.0208333333333333
142
0.0
142
0.0
142
0.0
142
0.0
142
0.0208333333333333
142
0.0
142
0.0
142
0.0
142
0.0
142
1.0
142
0.0
142
0.0
142
0.0
142
0.0
142
1.0
143
1.0
179
0
  8

270
1
271
1
272
1
144
0.0208333333333333
144
0.0
144
0.0
144
0.0
144
0.0
144
0.0208333333333333
144
0.0
144
0.0
144
0.0
144
0.0
144
1.0
144
0.0
144
0.0
144
0.0
144
0.0
144
1.0
145
1.0
146
1.0
273
1
  9

274
1
275
1
276
1
147
0.0208333333333333
147
0.0
147
0.0
147
0.0
147
0.0
147
0.0208333333333333
147
0.0
147
0.0
147
0.0
147
0.0
147
1.0
147
0.0
147
0.0
147
0.0
147
0.0
147
1.0
 42
1.0
 72
1
  3

 73
1
 74
1
 75
1
 94
63
  0
MATERIAL
  5
9D7
102
{ACAD_XDICTIONARY
360
9D8
102
}
102
{ACAD_REACTORS
330
9D6
102
}
330
9D6
100
AcDbMaterial
  1
ByLayer
  2

 70
0
 40
1.0
 71
0
 41
1.0
 91
-1023410177
 42
1.0
 72
0
  3

 73
1
 74
1
 75
1
 43
0.0208333333333333
 43
0.0
 43
0.0
 43
0.0
 43
0.0
 43
0.0208333333333333
 43
0.0
 43
0.0
 43
0.0
 43
0.0
 43
1.0
 43
0.0
 43
0.0
 43
0.0
 43
0.0
 43
1.0
 44
0.5
 73
0
 45
1.0
 46
1.0
 77
0
  4

 78
1
 79
1
170
1
 47
0.0208333333333333
 47
0.0
 47
0.0
 47
0.0
 47
0.0
 47
0.0208333333333333
 47
0.0
 47
0.0
 47
0.0
 47
0.0
 47
1.0
 47
0.0
 47
0.0
 47
0.0
 47
0.0
 47
1.0
 48
1.0
171
0
  6

172
1
173
1
174
1
 49
0.0208333333333333
 49
0.0
 49
0.0
 49
0.0
 49
0.0
 49
0.0208333333333333
 49
0.0
 49
0.0
 49
0.0
 49
0.0
 49
1.0
 49
0.0
 49
0.0
 49
0.0
 49
0.0
 49
1.0
140
1.0
141
1.0
175
0
  7

176
1
177
1
178
1
142
0.0208333333333333
142
0.0
142
0.0
142
0.0
142
0.0
142
0.0208333333333333
142
0.0
142
0.0
142
0.0
142
0.0
142
1.0
142
0.0
142
0.0
142
0.0
142
0.0
142
1.0
143
1.0
179
0
  8

270
1
271
1
272
1
144
0.0208333333333333
144
0.0
144
0.0
144
0.0
144
0.0
144
0.0208333333333333
144
0.0
144
0.0
144
0.0
144
0.0
144
1.0
144
0.0
144
0.0
144
0.0
144
0.0
144
1.0
145
1.0
146
1.0
273
1
  9

274
1
275
1
276
1
147
0.0208333333333333
147
0.0
147
0.0
147
0.0
147
0.0
147
0.0208333333333333
147
0.0
147
0.0
147
0.0
147
0.0
147
1.0
147
0.0
147
0.0
147
0.0
147
0.0
147
1.0
 42
1.0
 72
1
  3

 73
1
 74
1
 75
1
 94
63
  0
MATERIAL
  5
9E7
102
{ACAD_XDICTIONARY
360
9E8
102
}
102
{ACAD_REACTORS
330
9D6
102
}
330
9D6
100
AcDbMaterial
  1
Global
  2

 70
0
 40
1.0
 71
0
 41
1.0
 91
-1023410177
 42
1.0
 72
0
  3

 73
1
 74
1
 75
1
 43
0.0208333333333333
 43
0.0
 43
0.0
 43
0.0
 43
0.0
 43
0.0208333333333333
 43
0.0
 43
0.0
 43
0.0
 43
0.0
 43
1.0
 43
0.0
 43
0.0
 43
0.0
 43
0.0
 43
1.0
 44
0.5
 73
0
 45
1.0
 46
1.0
 77
0
  4

 78
1
 79
1
170
1
 47
0.0208333333333333
 47
0.0
 47
0.0
 47
0.0
 47
0.0
 47
0.0208333333333333
 47
0.0
 47
0.0
 47
0.0
 47
0.0
 47
1.0
 47
0.0
 47
0.0
 47
0.0
 47
0.0
 47
1.0
 48
1.0
171
0
  6

172
1
173
1
174
1
 49
0.0208333333333333
 49
0.0
 49
0.0
 49
0.0
 49
0.0
 49
0.0208333333333333
 49
0.0
 49
0.0
 49
0.0
 49
0.0
 49
1.0
 49
0.0
 49
0.0
 49
0.0
 49
0.0
 49
1.0
140
1.0
141
1.0
175
0
  7

176
1
177
1
178
1
142
0.0208333333333333
142
0.0
142
0.0
142
0.0
142
0.0
142
0.0208333333333333
142
0.0
142
0.0
142
0.0
142
0.0
142
1.0
142
0.0
142
0.0
142
0.0
142
0.0
142
1.0
143
1.0
179
0
  8

270
1
271
1
272
1
144
0.0208333333333333
144
0.0
144
0.0
144
0.0
144
0.0
144
0.0208333333333333
144
0.0
144
0.0
144
0.0
144
0.0
144
1.0
144
0.0
144
0.0
144
0.0
144
0.0
144
1.0
145
1.0
146
1.0
273
1
  9

274
1
275
1
276
1
147
0.0208333333333333
147
0.0
147
0.0
147
0.0
147
0.0
147
0.0208333333333333
147
0.0
147
0.0
147
0.0
147
0.0
147
1.0
147
0.0
147
0.0
147
0.0
147
0.0
147
1.0
 42
1.0
 72
1
  3

 73
1
 74
1
 75
1
 94
63
  0
MLEADERSTYLE
  5
A2C
102
{ACAD_REACTORS
330
A2B
102
}
330
A2B
100
AcDbMLeaderStyle
179
2
170
2
171
1
172
0
 90
2
 40
0.0
 41
0.0
173
1
 91
-1056964608
340
A20
 92
-2
290
1
 42
0.09
291
1
 43
0.36
  3
Standard
 44
0.18
300

342
A1B
174
1
175
1
176
0
178
6
 93
-1056964608
 45
0.18
292
0
297
0
 46
0.18
293
1
 94
-1056964608
 47
1.0
 49
1.0
140
1.0
294
1
141
0.0
177
0
142
1.0
295
0
296
0
143
0.125
271
0
272
9
273
9
1001
ACAD_MLEADERVER
1070
2
  0
MLINESTYLE
  5
A25
102
{ACAD_REACTORS
330
A24
102
}
330
A24
100
AcDbMlineStyle
  2
STANDARD
 70
0
  3

 62
256
 51
90.0
 52
90.0
 71
2
 49
0.5
 62
256
  6
BYLAYER
 49
-0.5
 62
256
  6
BYLAYER
  0
ACDBPLACEHOLDER
  5
9D5
102
{ACAD_REACTORS
330
9D4
102
}
330
9D4
  0
SCALE
  5
A09
102
{ACAD_REACTORS
330
A08
102
}
330
A08
100
AcDbScale
 70
0
300
1:1
140
1.0
141
1.0
290
1
  0
SCALE
  5
A0A
102
{ACAD_REACTORS
330
A08
102
}
330
A08
100
AcDbScale
 70
0
300
1/128" = 1'-0"
140
0.0078125
141
12.0
290
0
  0
SCALE
  5
A0B
102
{ACAD_REACTORS
330
A08
102
}
330
A08
100
AcDbScale
 70
0
300
1/64" = 1'-0"
140
0.015625
141
12.0
290
0
  0
SCALE
  5
A0C
102
{ACAD_REACTORS
330
A08
102
}
330
A08
100
AcDbScale
 70
0
300
1/32" = 1'-0"
140
0.03125
141
12.0
290
0
  0
SCALE
  5
A0D
102
{ACAD_REACTORS
330
A08
102
}
330
A08
100
AcDbScale
 70
0
300
1/16" = 1'-0"
140
0.0625
141
12.0
290
0
  0
SCALE
  5
A0E
102
{ACAD_REACTORS
330
A08
102
}
330
A08
100
AcDbScale
 70
0
300
3/32" = 1'-0"
140
0.09375
141
12.0
290
0
  0
SCALE
  5
A0F
102
{ACAD_REACTORS
330
A08
102
}
330
A08
100
AcDbScale
 70
0
300
1/8" = 1'-0"
140
0.125
141
12.0
290
0
  0
SCALE
  5
A10
102
{ACAD_REACTORS
330
A08
102
}
330
A08
100
AcDbScale
 70
0
300
3/16" = 1'-0"
140
0.1875
141
12.0
290
0
  0
SCALE
  5
A11
102
{ACAD_REACTORS
330
A08
102
}
330
A08
100
AcDbScale
 70
0
300
1/4" = 1'-0"
140
0.25
141
12.0
290
0
  0
SCALE
  5
A12
102
{ACAD_REACTORS
330
A08
102
}
330
A08
100
AcDbScale
 70
0
300
3/8" = 1'-0"
140
0.375
141
12.0
290
0
  0
SCALE
  5
A13
102
{ACAD_REACTORS
330
A08
102
}
330
A08
100
AcDbScale
 70
0
300
1/2" = 1'-0"
140
0.5
141
12.0
290
0
  0
SCALE
  5
A14
102
{ACAD_REACTORS
330
A08
102
}
330
A08
100
AcDbScale
 70
0
300
3/4" = 1'-0"
140
0.75
141
12.0
290
0
  0
SCALE
  5
A15
102
{ACAD_REACTORS
330
A08
102
}
330
A08
100
AcDbScale
 70
0
300
1" = 1'-0"
140
1.0
141
12.0
290
0
  0
SCALE
  5
A16
102
{ACAD_REACTORS
330
A08
102
}
330
A08
100
AcDbScale
 70
0
300
1-1/2" = 1'-0"
140
1.5
141
12.0
290
0
  0
SCALE
  5
A17
102
{ACAD_REACTORS
330
A08
102
}
330
A08
100
AcDbScale
 70
0
300
3" = 1'-0"
140
3.0
141
12.0
290
0
  0
SCALE
  5
A18
102
{ACAD_REACTORS
330
A08
102
}
330
A08
100
AcDbScale
 70
0
300
6" = 1'-0"
140
6.0
141
12.0
290
0
  0
SCALE
  5
A19
102
{ACAD_REACTORS
330
A08
102
}
330
A08
100
AcDbScale
 70
0
300
1'-0" = 1'-0"
140
12.0
141
12.0
290
0
  0
ACDBSECTIONVIEWSTYLE
  5
A2E
102
{ACAD_XDICTIONARY
360
A95
102
}
102
{ACAD_REACTORS
330
A2D
102
}
330
A2D
100
AcDbModelDocViewStyle
 70
0
  3
Imperial24
290
0
100
AcDbSectionViewStyle
 70
0
 71
0
 90
78
 71
1
340
A1B
 40
0.24
340
0
340
0
 40
0.24
300
I, O, Q, S, X, Z
 40
0.48
 90
3
 40
0.18
 90
1
 71
2
340
A22
 90
25
340
A22
 90
50
 40
0.24
 40
0.0
 40
0.24
 71
3
340
A1B
 40
0.24
 90
1
 40
0.75
 90
1
300
%<\AcVar ViewType \f "%tc1">% %<\AcVar ViewSectionStartId>%-%<\AcVar ViewSectionEndId>%\PSCALE %<\AcVar ViewScale \f "%sn">%
 71
4
300
ANSI31
 40
1.0
 90
0
290
0
290
0
 90
6
 40
0.0
 40
1.570796326794896
 40
0.2617993877991494
 40
1.308996938995747
 40
-0.2617993877991494
 40
1.832595714594046
  0
TABLESTYLE
  5
A2A
102
{ACAD_XDICTIONARY
360
A5A
102
}
102
{ACAD_REACTORS
330
A29
102
}
330
A29
100
AcDbTableStyle
  3
Standard
 70
0
 71
0
 40
0.06
 41
0.06
280
0
281
0
  7
STANDARD
140
0.18
170
2
 62
0
 63
7
283
0
274
-2
284
1
 64
0
275
-2
285
1
 65
0
276
-2
286
1
 66
0
277
-2
287
1
 67
0
278
-2
288
1
 68
0
279
-2
289
1
 69
0
  7
STANDARD
140
0.25
170
5
 62
0
 63
7
283
0
274
-2
284
1
 64
0
275
-2
285
1
 65
0
276
-2
286
1
 66
0
277
-2
287
1
 67
0
278
-2
288
1
 68
0
279
-2
289
1
 69
0
  7
STANDARD
140
0.18
170
5
 62
0
 63
7
283
0
274
-2
284
1
 64
0
275
-2
285
1
 65
0
276
-2
286
1
 66
0
277
-2
287
1
 67
0
278
-2
288
1
 68
0
279
-2
289
1
 69
0
  0
VISUALSTYLE
  5
9F5
102
{ACAD_XDICTIONARY
360
A6D
102
}
102
{ACAD_REACTORS
330
9EF
102
}
330
9EF
100
AcDbVisualStyle
  2
2dWireframe
 70
4
 71
0
 72
2
 73
0
 90
0
 40
-0.6
 41
-30.0
 62
5
 63
7
 74
1
 91
4
 64
7
 65
257
 75
1
175
1
 42
1.0
 92
0
 66
257
 43
1.0
 76
1
 77
6
 78
2
 67
7
 79
5
170
0
171
0
290
0
174
0
 93
1
 44
0.0
173
0
291
0
 45
0.0
1001
ACAD
1000
AcDbSavedByObjectVersion
1070
0
  0
VISUALSTYLE
  5
9F4
102
{ACAD_XDICTIONARY
360
A6B
102
}
102
{ACAD_REACTORS
330
9EF
102
}
330
9EF
100
AcDbVisualStyle
  2
Basic
 70
7
 71
1
 72
0
 73
1
 90
0
 40
-0.6
 41
-30.0
 62
5
 63
7
 74
0
 91
4
 64
7
 65
257
 75
1
175
1
 42
1.0
 92
8
 66
7
 43
1.0
 76
1
 77
6
 78
2
 67
7
 79
5
170
0
171
0
290
0
174
0
 93
1
 44
0.0
173
0
291
1
 45
0.0
1001
ACAD
1000
AcDbSavedByObjectVersion
1070
0
  0
VISUALSTYLE
  5
9FB
102
{ACAD_XDICTIONARY
360
A79
102
}
102
{ACAD_REACTORS
330
9EF
102
}
330
9EF
100
AcDbVisualStyle
  2
Brighten
 70
12
 71
2
 72
2
 73
0
 90
0
 40
-0.6
 41
-30.0
 62
5
 63
7
 74
1
 91
4
 64
7
 65
257
 75
1
175
1
 42
1.0
 92
8
 66
7
 43
1.0
 76
1
 77
6
 78
2
 67
7
 79
5
170
0
171
0
290
0
174
0
 93
1
 44
50.0
173
0
291
1
 45
0.0
1001
ACAD
1000
AcDbSavedByObjectVersion
1070
0
  0
VISUALSTYLE
  5
9FF
102
{ACAD_XDICTIONARY
360
A81
102
}
102
{ACAD_REACTORS
330
9EF
102
}
330
9EF
100
AcDbVisualStyle
  2
ColorChange
 70
16
 71
2
 72
2
 73
3
 90
0
 40
-0.6
 41
-30.0
 62
5
 63
8
 74
1
 91
4
 64
7
 65
257
 75
1
175
1
 42
1.0
 92
8
 66
8
 43
1.0
 76
1
 77
6
 78
2
 67
7
 79
5
170
0
171
0
290
0
174
0
 93
1
 44
0.0
173
0
291
1
 45
0.0
1001
ACAD
1000
AcDbSavedByObjectVersion
1070
0
  0
VISUALSTYLE
  5
9F8
102
{ACAD_XDICTIONARY
360
A73
102
}
102
{ACAD_REACTORS
330
9EF
102
}
330
9EF
100
AcDbVisualStyle
  2
Conceptual
 70
9
 71
3
 72
2
 73
0
 90
0
 40
-0.6
 41
-30.0
 62
5
 63
7
 74
2
 91
2
 64
7
 65
257
 75
1
175
1
 42
179.0
 92
8
 66
7
 43
1.0
 76
1
 77
6
 78
2
 67
7
 79
3
170
0
171
0
290
0
174
0
 93
1
 44
0.0
173
0
291
0
 45
0.0
1001
ACAD
1000
AcDbSavedByObjectVersion
1070
0
  0
VISUALSTYLE
  5
9FA
102
{ACAD_XDICTIONARY
360
A77
102
}
102
{ACAD_REACTORS
330
9EF
102
}
330
9EF
100
AcDbVisualStyle
  2
Dim
 70
11
 71
2
 72
2
 73
0
 90
0
 40
-0.6
 41
-30.0
 62
5
 63
7
 74
1
 91
4
 64
7
 65
257
 75
1
175
1
 42
1.0
 92
8
 66
7
 43
1.0
 76
1
 77
6
 78
2
 67
7
 79
5
170
0
171
0
290
0
174
0
 93
1
 44
-50.0
173
0
291
1
 45
0.0
1001
ACAD
1000
AcDbSavedByObjectVersion
1070
0
  0
VISUALSTYLE
  5
A07
102
{ACAD_XDICTIONARY
360
A91
102
}
102
{ACAD_REACTORS
330
9EF
102
}
330
9EF
100
AcDbVisualStyle
  2
EdgeColorOff
 70
22
 71
2
 72
2
 73
0
 90
0
 40
-0.6
 41
-30.0
 62
5
 63
7
 74
1
 91
4
 64
7
 65
257
 75
1
175
1
 42
1.0
 92
8
 66
7
 43
1.0
 76
1
 77
6
 78
2
 67
7
 79
5
170
0
171
0
290
0
174
0
 93
1
 44
0.0
173
0
291
1
 45
0.0
1001
ACAD
1000
AcDbSavedByObjectVersion
1070
0
  0
VISUALSTYLE
  5
9FE
102
{ACAD_XDICTIONARY
360
A7F
102
}
102
{ACAD_REACTORS
330
9EF
102
}
330
9EF
100
AcDbVisualStyle
  2
Facepattern
 70
15
 71
2
 72
2
 73
0
 90
0
 40
-0.6
 41
-30.0
 62
5
 63
7
 74
1
 91
4
 64
7
 65
257
 75
1
175
1
 42
1.0
 92
8
 66
7
 43
1.0
 76
1
 77
6
 78
2
 67
7
 79
5
170
0
171
0
290
0
174
0
 93
1
 44
0.0
173
0
291
1
 45
0.0
1001
ACAD
1000
AcDbSavedByObjectVersion
1070
0
  0
VISUALSTYLE
  5
9F0
102
{ACAD_XDICTIONARY
360
A63
102
}
102
{ACAD_REACTORS
330
9EF
102
}
330
9EF
100
AcDbVisualStyle
  2
Flat
 70
0
 71
2
 72
1
 73
1
 90
2
 40
-0.6
 41
30.0
 62
5
 63
7
 74
0
 91
0
 64
7
 65
257
 75
1
175
1
 42
1.0
 92
8
 66
7
 43
1.0
 76
1
 77
6
 78
2
 67
7
 79
5
170
0
171
0
290
0
174
0
 93
13
 44
0.0
173
0
291
1
 45
0.0
1001
ACAD
1000
AcDbSavedByObjectVersion
1070
0
  0
VISUALSTYLE
  5
9F1
102
{ACAD_XDICTIONARY
360
A65
102
}
102
{ACAD_REACTORS
330
9EF
102
}
330
9EF
100
AcDbVisualStyle
  2
FlatWithEdges
 70
1
 71
2
 72
1
 73
1
 90
2
 40
-0.6
 41
30.0
 62
5
 63
7
 74
1
 91
0
 64
7
 65
257
 75
1
175
1
 42
1.0
 92
0
 66
257
 43
1.0
 76
1
 77
6
 78
2
 67
7
 79
5
170
0
171
0
290
0
174
0
 93
13
 44
0.0
173
0
291
1
 45
0.0
1001
ACAD
1000
AcDbSavedByObjectVersion
1070
0
  0
VISUALSTYLE
  5
9F2
102
{ACAD_XDICTIONARY
360
A67
102
}
102
{ACAD_REACTORS
330
9EF
102
}
330
9EF
100
AcDbVisualStyle
  2
Gouraud
 70
2
 71
2
 72
2
 73
1
 90
2
 40
-0.6
 41
30.0
 62
5
 63
7
 74
0
 91
0
 64
7
 65
257
 75
1
175
1
 42
1.0
 92
0
 66
7
 43
1.0
 76
1
 77
6
 78
2
 67
7
 79
5
170
0
171
0
290
0
174
0
 93
13
 44
0.0
173
0
291
1
 45
0.0
1001
ACAD
1000
AcDbSavedByObjectVersion
1070
0
  0
VISUALSTYLE
  5
9F3
102
{ACAD_XDICTIONARY
360
A69
102
}
102
{ACAD_REACTORS
330
9EF
102
}
330
9EF
100
AcDbVisualStyle
  2
GouraudWithEdges
 70
3
 71
2
 72
2
 73
1
 90
2
 40
-0.6
 41
30.0
 62
5
 63
7
 74
1
 91
0
 64
7
 65
257
 75
1
175
1
 42
1.0
 92
0
 66
257
 43
1.0
 76
1
 77
6
 78
2
 67
7
 79
5
170
0
171
0
290
0
174
0
 93
13
 44
0.0
173
0
291
1
 45
0.0
1001
ACAD
1000
AcDbSavedByObjectVersion
1070
0
  0
VISUALSTYLE
  5
9F7
102
{ACAD_XDICTIONARY
360
A71
102
}
102
{ACAD_REACTORS
330
9EF
102
}
330
9EF
100
AcDbVisualStyle
  2
Hidden
 70
6
 71
1
 72
2
 73
2
 90
0
 40
-0.6
 41
-30.0
 62
5
 63
7
 74
2
 91
2
 64
7
 65
257
 75
2
175
1
 42
40.0
 92
0
 66
257
 43
1.0
 76
1
 77
6
 78
2
 67
7
 79
3
170
0
171
0
290
0
174
0
 93
1
 44
0.0
173
0
291
0
 45
0.0
1001
ACAD
1000
AcDbSavedByObjectVersion
1070
0
  0
VISUALSTYLE
  5
A05
102
{ACAD_XDICTIONARY
360
A8D
102
}
102
{ACAD_REACTORS
330
9EF
102
}
330
9EF
100
AcDbVisualStyle
  2
JitterOff
 70
20
 71
2
 72
2
 73
0
 90
0
 40
-0.6
 41
-30.0
 62
5
 63
7
 74
1
 91
4
 64
7
 65
257
 75
1
175
1
 42
1.0
 92
10
 66
7
 43
1.0
 76
1
 77
6
 78
2
 67
7
 79
5
170
0
171
0
290
0
174
0
 93
1
 44
0.0
173
0
291
1
 45
0.0
1001
ACAD
1000
AcDbSavedByObjectVersion
1070
0
  0
VISUALSTYLE
  5
9FD
102
{ACAD_XDICTIONARY
360
A7D
102
}
102
{ACAD_REACTORS
330
9EF
102
}
330
9EF
100
AcDbVisualStyle
  2
Linepattern
 70
14
 71
2
 72
2
 73
0
 90
0
 40
-0.6
 41
-30.0
 62
5
 63
7
 74
1
 91
4
 64
7
 65
257
 75
7
175
7
 42
1.0
 92
8
 66
7
 43
1.0
 76
1
 77
6
 78
2
 67
7
 79
5
170
0
171
0
290
0
174
0
 93
1
 44
0.0
173
0
291
1
 45
0.0
1001
ACAD
1000
AcDbSavedByObjectVersion
1070
0
  0
VISUALSTYLE
  5
A06
102
{ACAD_XDICTIONARY
360
A8F
102
}
102
{ACAD_REACTORS
330
9EF
102
}
330
9EF
100
AcDbVisualStyle
  2
OverhangOff
 70
21
 71
2
 72
2
 73
0
 90
0
 40
-0.6
 41
-30.0
 62
5
 63
7
 74
1
 91
4
 64
7
 65
257
 75
1
175
1
 42
1.0
 92
9
 66
7
 43
1.0
 76
1
 77
6
 78
2
 67
7
 79
5
170
0
171
0
290
0
174
0
 93
1
 44
0.0
173
0
291
1
 45
0.0
1001
ACAD
1000
AcDbSavedByObjectVersion
1070
0
  0
VISUALSTYLE
  5
9F9
102
{ACAD_XDICTIONARY
360
A75
102
}
102
{ACAD_REACTORS
330
9EF
102
}
330
9EF
100
AcDbVisualStyle
  2
Realistic
 70
8
 71
2
 72
3
 73
0
 90
2
 40
-0.6
 41
30.0
 62
5
 63
7
 74
0
 91
0
 64
7
 65
257
 75
1
175
1
 42
1.0
 92
8
 66
257
 43
1.0
 76
1
 77
6
 78
2
 67
7
 79
3
170
0
171
0
290
0
174
0
 93
13
 44
0.0
173
0
291
0
 45
0.0
1001
ACAD
1000
AcDbSavedByObjectVersion
1070
0
  0
VISUALSTYLE
  5
A04
102
{ACAD_XDICTIONARY
360
A8B
102
}
102
{ACAD_REACTORS
330
9EF
102
}
330
9EF
100
AcDbVisualStyle
  2
Shaded
 70
27
 71
2
 72
2
 73
1
 90
2
 40
-0.6
 41
30.0
 62
5
 63
7
 74
0
 91
4
 64
7
 65
257
 75
1
175
1
 42
1.0
 92
8
 66
257
 43
1.0
 76
1
 77
6
 78
2
 67
8
 79
3
170
0
171
0
290
0
174
0
 93
5
 44
0.0
173
0
291
0
 45
0.0
1001
ACAD
1000
AcDbSavedByObjectVersion
1070
0
  0
VISUALSTYLE
  5
A03
102
{ACAD_XDICTIONARY
360
A89
102
}
102
{ACAD_REACTORS
330
9EF
102
}
330
9EF
100
AcDbVisualStyle
  2
Shaded with edges
 70
26
 71
2
 72
2
 73
1
 90
2
 40
-0.6
 41
30.0
 62
5
 63
7
 74
1
 91
2
 64
7
 65
257
 75
2
175
1
 42
1.0
 92
8
 66
257
 43
1.0
 76
1
 77
6
 78
2
 67
7
 79
3
170
0
171
0
290
0
174
0
 93
5
 44
0.0
173
0
291
0
 45
0.0
1001
ACAD
1000
AcDbSavedByObjectVersion
1070
0
  0
VISUALSTYLE
  5
A00
102
{ACAD_XDICTIONARY
360
A83
102
}
102
{ACAD_REACTORS
330
9EF
102
}
330
9EF
100
AcDbVisualStyle
  2
Shades of Gray
 70
23
 71
2
 72
2
 73
3
 90
0
 40
-0.6
 41
-30.0
 62
5
 63
7
 74
2
 91
2
 64
7
 65
7
 75
1
175
1
 42
40.0
 92
8
 66
7
 43
1.0
 76
1
 77
6
 78
2
 67
7
 79
3
170
0
171
0
290
0
174
0
 93
1
 44
0.0
173
0
291
0
 45
0.0
1001
ACAD
1000
AcDbSavedByObjectVersion
1070
0
  0
VISUALSTYLE
  5
A01
102
{ACAD_XDICTIONARY
360
A85
102
}
102
{ACAD_REACTORS
330
9EF
102
}
330
9EF
100
AcDbVisualStyle
  2
Sketchy
 70
24
 71
1
 72
2
 73
2
 90
0
 40
-0.6
 41
-30.0
 62
5
 63
7
 74
2
 91
2
 64
7
 65
7
 75
1
175
1
 42
40.0
 92
11
 66
7
 43
1.0
 76
1
 77
6
 78
2
 67
7
 79
6
170
0
171
0
290
0
174
0
 93
1
 44
0.0
173
0
291
0
 45
0.0
1001
ACAD
1000
AcDbSavedByObjectVersion
1070
0
  0
VISUALSTYLE
  5
9FC
102
{ACAD_XDICTIONARY
360
A7B
102
}
102
{ACAD_REACTORS
330
9EF
102
}
330
9EF
100
AcDbVisualStyle
  2
Thicken
 70
13
 71
2
 72
2
 73
0
 90
0
 40
-0.6
 41
-30.0
 62
5
 63
7
 74
1
 91
4
 64
7
 65
257
 75
1
175
1
 42
1.0
 92
12
 66
7
 43
1.0
 76
1
 77
6
 78
2
 67
7
 79
5
170
0
171
0
290
0
174
0
 93
1
 44
0.0
173
0
291
1
 45
0.0
1001
ACAD
1000
AcDbSavedByObjectVersion
1070
0
  0
VISUALSTYLE
  5
9F6
102
{ACAD_XDICTIONARY
360
A6F
102
}
102
{ACAD_REACTORS
330
9EF
102
}
330
9EF
100
AcDbVisualStyle
  2
Wireframe
 70
5
 71
0
 72
2
 73
0
 90
0
 40
-0.6
 41
-30.0
 62
5
 63
7
 74
1
 91
4
 64
7
 65
257
 75
1
175
1
 42
1.0
 92
0
 66
257
 43
1.0
 76
1
 77
6
 78
2
 67
7
 79
3
170
0
171
0
290
0
174
0
 93
1
 44
0.0
173
0
291
0
 45
0.0
1001
ACAD
1000
AcDbSavedByObjectVersion
1070
0
  0
VISUALSTYLE
  5
A02
102
{ACAD_XDICTIONARY
360
A87
102
}
102
{ACAD_REACTORS
330
9EF
102
}
330
9EF
100
AcDbVisualStyle
  2
X-Ray
 70
25
 71
2
 72
2
 73
1
 90
1
 40
0.5
 41
-30.0
 62
5
 63
7
 74
1
 91
0
 64
7
 65
257
 75
1
175
1
 42
1.0
 92
8
 66
7
 43
1.0
 76
1
 77
6
 78
2
 67
7
 79
3
170
0
171
0
290
0
174
0
 93
13
 44
0.0
173
0
291
0
 45
0.0
1001
ACAD
1000
AcDbSavedByObjectVersion
1070
0
  0
DICTIONARYVAR
  5
A54
102
{ACAD_REACTORS
330
A4F
102
}
330
A4F
100
DictionaryVariables
280
0
  1
1:1
  0
DICTIONARYVAR
  5
A51
102
{ACAD_REACTORS
330
A4F
102
}
330
A4F
100
DictionaryVariables
280
0
  1
STANDARD
  0
DICTIONARYVAR
  5
A50
102
{ACAD_REACTORS
330
A4F
102
}
330
A4F
100
DictionaryVariables
280
0
  1
STANDARD
  0
DICTIONARYVAR
  5
A52
102
{ACAD_REACTORS
330
A4F
102
}
330
A4F
100
DictionaryVariables
280
0
  1
Imperial24
  0
DICTIONARYVAR
  5
A53
102
{ACAD_REACTORS
330
A4F
102
}
330
A4F
100
DictionaryVariables
280
0
  1
Imperial24
  0
DICTIONARYVAR
  5
A57
102
{ACAD_REACTORS
330
A4F
102
}
330
A4F
100
DictionaryVariables
280
0
  1
1
  0
DICTIONARYVAR
  5
A56
102
{ACAD_REACTORS
330
A4F
102
}
330
A4F
100
DictionaryVariables
280
0
  1
0
  0
DICTIONARYVAR
  5
A55
102
{ACAD_REACTORS
330
A4F
102
}
330
A4F
100
DictionaryVariables
280
0
  1
127
  0
DICTIONARYVAR
  5
A58
102
{ACAD_REACTORS
330
A4F
102
}
330
A4F
100
DictionaryVariables
280
0
  1
2
  0
DICTIONARY
  5
A97
330
A30
100
AcDbDictionary
280
1
281
1
  3
ACAD_XREC_ROUNDTRIP
360
A98
  0
DICTIONARY
  5
A9B
330
A38
100
AcDbDictionary
280
1
281
1
  3
ACAD_XREC_ROUNDTRIP
360
A9C
  0
DICTIONARY
  5
A99
330
A34
100
AcDbDictionary
280
1
281
1
  3
ACAD_XREC_ROUNDTRIP
360
A9A
  0
DICTIONARY
  5
9E0
330
9DF
100
AcDbDictionary
280
1
281
1
  3
ACAD_XREC_ROUNDTRIP
360
A61
  3
BUMPTILE
360
9E2
  3
DIFFUSETILE
360
9E1
  3
OPACITYTILE
360
9E5
  3
REFLECTIONTILE
360
9E4
  3
REFRACTIONTILE
360
9E6
  3
SPECULARTILE
360
9E3
  0
DICTIONARY
  5
9D8
330
9D7
100
AcDbDictionary
280
1
281
1
  3
ACAD_XREC_ROUNDTRIP
360
A60
  3
BUMPTILE
360
9DA
  3
DIFFUSETILE
360
9D9
  3
OPACITYTILE
360
9DD
  3
REFLECTIONTILE
360
9DC
  3
REFRACTIONTILE
360
9DE
  3
SPECULARTILE
360
9DB
  0
DICTIONARY
  5
9E8
330
9E7
100
AcDbDictionary
280
1
281
1
  3
ACAD_XREC_ROUNDTRIP
360
A62
  3
BUMPTILE
360
9EA
  3
DIFFUSETILE
360
9E9
  3
OPACITYTILE
360
9ED
  3
REFLECTIONTILE
360
9EC
  3
REFRACTIONTILE
360
9EE
  3
SPECULARTILE
360
9EB
  0
DICTIONARY
  5
A95
330
A2E
100
AcDbDictionary
280
1
281
1
  3
ACAD_XREC_ROUNDTRIP
360
A96
  0
DICTIONARY
  5
A5A
330
A2A
100
AcDbDictionary
280
1
281
1
  3
ACAD_ROUNDTRIP_2008_TABLESTYLE_CELLSTYLEMAP
360
A5B
  3
ACAD_XREC_ROUNDTRIP
360
A93
  0
DICTIONARY
  5
A6D
330
9F5
100
AcDbDictionary
280
1
281
1
  3
ACAD_XREC_ROUNDTRIP
360
A6E
  0
DICTIONARY
  5
A6B
330
9F4
100
AcDbDictionary
280
1
281
1
  3
ACAD_XREC_ROUNDTRIP
360
A6C
  0
DICTIONARY
  5
A79
330
9FB
100
AcDbDictionary
280
1
281
1
  3
ACAD_XREC_ROUNDTRIP
360
A7A
  0
DICTIONARY
  5
A81
330
9FF
100
AcDbDictionary
280
1
281
1
  3
ACAD_XREC_ROUNDTRIP
360
A82
  0
DICTIONARY
  5
A73
330
9F8
100
AcDbDictionary
280
1
281
1
  3
ACAD_XREC_ROUNDTRIP
360
A74
  0
DICTIONARY
  5
A77
330
9FA
100
AcDbDictionary
280
1
281
1
  3
ACAD_XREC_ROUNDTRIP
360
A78
  0
DICTIONARY
  5
A91
330
A07
100
AcDbDictionary
280
1
281
1
  3
ACAD_XREC_ROUNDTRIP
360
A92
  0
DICTIONARY
  5
A7F
330
9FE
100
AcDbDictionary
280
1
281
1
  3
ACAD_XREC_ROUNDTRIP
360
A80
  0
DICTIONARY
  5
A63
330
9F0
100
AcDbDictionary
280
1
281
1
  3
ACAD_XREC_ROUNDTRIP
360
A64
  0
DICTIONARY
  5
A65
330
9F1
100
AcDbDictionary
280
1
281
1
  3
ACAD_XREC_ROUNDTRIP
360
A66
  0
DICTIONARY
  5
A67
330
9F2
100
AcDbDictionary
280
1
281
1
  3
ACAD_XREC_ROUNDTRIP
360
A68
  0
DICTIONARY
  5
A69
330
9F3
100
AcDbDictionary
280
1
281
1
  3
ACAD_XREC_ROUNDTRIP
360
A6A
  0
DICTIONARY
  5
A71
330
9F7
100
AcDbDictionary
280
1
281
1
  3
ACAD_XREC_ROUNDTRIP
360
A72
  0
DICTIONARY
  5
A8D
330
A05
100
AcDbDictionary
280
1
281
1
  3
ACAD_XREC_ROUNDTRIP
360
A8E
  0
DICTIONARY
  5
A7D
330
9FD
100
AcDbDictionary
280
1
281
1
  3
ACAD_XREC_ROUNDTRIP
360
A7E
  0
DICTIONARY
  5
A8F
330
A06
100
AcDbDictionary
280
1
281
1
  3
ACAD_XREC_ROUNDTRIP
360
A90
  0
DICTIONARY
  5
A75
330
9F9
100
AcDbDictionary
280
1
281
1
  3
ACAD_XREC_ROUNDTRIP
360
A76
  0
DICTIONARY
  5
A8B
330
A04
100
AcDbDictionary
280
1
281
1
  3
ACAD_XREC_ROUNDTRIP
360
A8C
  0
DICTIONARY
  5
A89
330
A03
100
AcDbDictionary
280
1
281
1
  3
ACAD_XREC_ROUNDTRIP
360
A8A
  0
DICTIONARY
  5
A83
330
A00
100
AcDbDictionary
280
1
281
1
  3
ACAD_XREC_ROUNDTRIP
360
A84
  0
DICTIONARY
  5
A85
330
A01
100
AcDbDictionary
280
1
281
1
  3
ACAD_XREC_ROUNDTRIP
360
A86
  0
DICTIONARY
  5
A7B
330
9FC
100
AcDbDictionary
280
1
281
1
  3
ACAD_XREC_ROUNDTRIP
360
A7C
  0
DICTIONARY
  5
A6F
330
9F6
100
AcDbDictionary
280
1
281
1
  3
ACAD_XREC_ROUNDTRIP
360
A70
  0
DICTIONARY
  5
A87
330
A02
100
AcDbDictionary
280
1
281
1
  3
ACAD_XREC_ROUNDTRIP
360
A88
  0
XRECORD
  5
A98
102
{ACAD_REACTORS
330
A97
102
}
330
A97
100
AcDbXrecord
280
1
102
DISPLAYNAME
  1
Imperial24
102
FLAGS
 90
0
  0
XRECORD
  5
A9C
102
{ACAD_REACTORS
330
A9B
102
}
330
A9B
100
AcDbXrecord
280
1
102
SHADEPLOT
 70
0
102
SHADEPLOTRESLEVEL
 70
2
102
SHADEPLOTCUSTOMDPI
 70
300
  0
XRECORD
  5
A9A
102
{ACAD_REACTORS
330
A99
102
}
330
A99
100
AcDbXrecord
280
1
102
SHADEPLOT
 70
0
102
SHADEPLOTRESLEVEL
 70
2
102
SHADEPLOTCUSTOMDPI
 70
300
  0
XRECORD
  5
A61
102
{ACAD_REACTORS
330
9E0
102
}
330
9E0
100
AcDbXrecord
280
1
102
MATERIAL
148
0.0
149
0.0
149
0.0
 93
0
 94
127
282
0
 72
0
 77
0
171
0
175
0
179
0
273
0
  0
XRECORD
  5
9E2
102
{ACAD_REACTORS
330
9E0
102
}
330
9E0
100
AcDbXrecord
280
1
270
1
271
1
  0
XRECORD
  5
9E1
102
{ACAD_REACTORS
330
9E0
102
}
330
9E0
100
AcDbXrecord
280
1
270
1
271
1
  0
XRECORD
  5
9E5
102
{ACAD_REACTORS
330
9E0
102
}
330
9E0
100
AcDbXrecord
280
1
270
1
271
1
  0
XRECORD
  5
9E4
102
{ACAD_REACTORS
330
9E0
102
}
330
9E0
100
AcDbXrecord
280
1
270
1
271
1
  0
XRECORD
  5
9E6
102
{ACAD_REACTORS
330
9E0
102
}
330
9E0
100
AcDbXrecord
280
1
270
1
271
1
  0
XRECORD
  5
9E3
102
{ACAD_REACTORS
330
9E0
102
}
330
9E0
100
AcDbXrecord
280
1
270
1
271
1
  0
XRECORD
  5
A60
102
{ACAD_REACTORS
330
9D8
102
}
330
9D8
100
AcDbXrecord
280
1
102
MATERIAL
148
0.0
149
0.0
149
0.0
 93
0
 94
127
282
0
 72
0
 77
0
171
0
175
0
179
0
273
0
  0
XRECORD
  5
9DA
102
{ACAD_REACTORS
330
9D8
102
}
330
9D8
100
AcDbXrecord
280
1
270
1
271
1
  0
XRECORD
  5
9D9
102
{ACAD_REACTORS
330
9D8
102
}
330
9D8
100
AcDbXrecord
280
1
270
1
271
1
  0
XRECORD
  5
9DD
102
{ACAD_REACTORS
330
9D8
102
}
330
9D8
100
AcDbXrecord
280
1
270
1
271
1
  0
XRECORD
  5
9DC
102
{ACAD_REACTORS
330
9D8
102
}
330
9D8
100
AcDbXrecord
280
1
270
1
271
1
  0
XRECORD
  5
9DE
102
{ACAD_REACTORS
330
9D8
102
}
330
9D8
100
AcDbXrecord
280
1
270
1
271
1
  0
XRECORD
  5
9DB
102
{ACAD_REACTORS
330
9D8
102
}
330
9D8
100
AcDbXrecord
280
1
270
1
271
1
  0
XRECORD
  5
A62
102
{ACAD_REACTORS
330
9E8
102
}
330
9E8
100
AcDbXrecord
280
1
102
MATERIAL
148
0.0
149
0.0
149
0.0
 93
0
 94
127
282
0
 72
0
 77
0
171
0
175
0
179
0
273
0
  0
XRECORD
  5
9EA
102
{ACAD_REACTORS
330
9E8
102
}
330
9E8
100
AcDbXrecord
280
1
270
1
271
1
  0
XRECORD
  5
9E9
102
{ACAD_REACTORS
330
9E8
102
}
330
9E8
100
AcDbXrecord
280
1
270
1
271
1
  0
XRECORD
  5
9ED
102
{ACAD_REACTORS
330
9E8
102
}
330
9E8
100
AcDbXrecord
280
1
270
1
271
1
  0
XRECORD
  5
9EC
102
{ACAD_REACTORS
330
9E8
102
}
330
9E8
100
AcDbXrecord
280
1
270
1
271
1
  0
XRECORD
  5
9EE
102
{ACAD_REACTORS
330
9E8
102
}
330
9E8
100
AcDbXrecord
280
1
270
1
271
1
  0
XRECORD
  5
9EB
102
{ACAD_REACTORS
330
9E8
102
}
330
9E8
100
AcDbXrecord
280
1
270
1
271
1
  0
XRECORD
  5
A96
102
{ACAD_REACTORS
330
A95
102
}
330
A95
100
AcDbXrecord
280
1
102
DISPLAYNAME
  1
Imperial24
102
FLAGS
 90
0
  0
CELLSTYLEMAP
  5
A5B
102
{ACAD_REACTORS
330
A5A
102
}
330
A5A
100
AcDbCellStyleMap
 90
3
300
CELLSTYLE
  1
TABLEFORMAT_BEGIN
 90
5
170
1
 91
0
 92
32768
 62
257
 93
1
300
CONTENTFORMAT
  1
CONTENTFORMAT_BEGIN
 90
0
 91
0
 92
512
 93
0
300

 40
0.0
140
1.0
 94
5
 62
0
340
A1B
144
0.25
309
CONTENTFORMAT_END
171
0
 94
0
309
TABLEFORMAT_END
  1
CELLSTYLE_BEGIN
 90
1
 91
1
300
_TITLE
309
CELLSTYLE_END
300
CELLSTYLE
  1
TABLEFORMAT_BEGIN
 90
5
170
1
 91
0
 92
0
 62
257
 93
1
300
CONTENTFORMAT
  1
CONTENTFORMAT_BEGIN
 90
0
 91
0
 92
512
 93
0
300

 40
0.0
140
1.0
 94
5
 62
0
340
A1B
144
0.18
309
CONTENTFORMAT_END
171
0
 94
0
309
TABLEFORMAT_END
  1
CELLSTYLE_BEGIN
 90
2
 91
1
300
_HEADER
309
CELLSTYLE_END
300
CELLSTYLE
  1
TABLEFORMAT_BEGIN
 90
5
170
1
 91
0
 92
0
 62
257
 93
1
300
CONTENTFORMAT
  1
CONTENTFORMAT_BEGIN
 90
0
 91
0
 92
512
 93
0
300

 40
0.0
140
1.0
 94
2
 62
0
340
A1B
144
0.18
309
CONTENTFORMAT_END
171
0
 94
0
309
TABLEFORMAT_END
  1
CELLSTYLE_BEGIN
 90
3
 91
2
300
_DATA
309
CELLSTYLE_END
  0
XRECORD
  5
A93
102
{ACAD_REACTORS
330
A5A
102
}
330
A5A
100
AcDbXrecord
280
1
102
ACAD_ROUNDTRIP_PRE2007_TABLESTYLE
 90
512
 91
0
  1

 92
512
 93
0
  2

 94
512
 95
0
  3

  0
XRECORD
  5
A6E
102
{ACAD_REACTORS
330
A6D
102
}
330
A6D
100
AcDbXrecord
280
1
102
RTVSPost2010Prop28
280
1
102
RTVSPost2010PropOp28
 70
1
102
RTVSPost2010Prop29
280
1
102
RTVSPost2010PropOp29
 70
1
102
RTVSPost2010Prop30
280
0
102
RTVSPost2010PropOp30
 70
1
102
RTVSPost2010Prop31
280
0
102
RTVSPost2010PropOp31
 70
1
102
RTVSPost2010Prop32
280
0
102
RTVSPost2010PropOp32
 70
1
102
RTVSPost2010Prop33
280
0
102
RTVSPost2010PropOp33
 70
1
102
RTVSPost2010Prop34
280
0
102
RTVSPost2010PropOp34
 70
1
102
RTVSPost2010Prop35
280
0
102
RTVSPost2010PropOp35
 70
1
102
RTVSPost2010Prop36
280
0
102
RTVSPost2010PropOp36
 70
1
102
RTVSPost2010Prop37
 90
50
102
RTVSPost2010PropOp37
 70
1
102
RTVSPost2010Prop38
140
0.0
102
RTVSPost2010PropOp38
 70
1
102
RTVSPost2010Prop39
140
1.0
102
RTVSPost2010PropOp39
 70
1
102
RTVSPost2010Prop40
 90
0
102
RTVSPost2010PropOp40
 70
1
102
RTVSPost2010Prop41ColorIndex
 90
18
102
RTVSPost2010Prop41ColorRGB
 90
0
102
RTVSPost2010PropOp41
 70
1
102
RTVSPost2010Prop42
 90
50
102
RTVSPost2010PropOp42
 70
1
102
RTVSPost2010Prop43
 90
3
102
RTVSPost2010PropOp43
 70
1
102
RTVSPost2010Prop44ColorIndex
 90
5
102
RTVSPost2010Prop44ColorRGB
 90
255
102
RTVSPost2010PropOp44
 70
1
102
RTVSPost2010Prop45
280
0
102
RTVSPost2010PropOp45
 70
1
102
RTVSPost2010Prop46
 90
50
102
RTVSPost2010PropOp46
 70
1
102
RTVSPost2010Prop47
 90
50
102
RTVSPost2010PropOp47
 70
1
102
RTVSPost2010Prop48
 90
50
102
RTVSPost2010PropOp48
 70
1
102
RTVSPost2010Prop49
280
0
102
RTVSPost2010PropOp49
 70
1
102
RTVSPost2010Prop50
 90
50
102
RTVSPost2010PropOp50
 70
1
102
RTVSPost2010Prop51ColorIndex
 90
256
102
RTVSPost2010Prop51ColorRGB
 90
-16777216
102
RTVSPost2010PropOp51
 70
0
102
RTVSPost2010Prop52
140
1.0
102
RTVSPost2010PropOp52
 70
0
102
RTVSPost2010Prop53
 90
2
102
RTVSPost2010PropOp53
 70
1
102
RTVSPost2010Prop54
  1
strokes_ogs.tif
102
RTVSPost2010PropOp54
 70
1
102
RTVSPost2010Prop55
280
0
102
RTVSPost2010PropOp55
 70
1
102
RTVSPost2010Prop56
140
1.0
102
RTVSPost2010PropOp56
 70
1
102
RTVSPost2010Prop57
140
1.0
102
RTVSPost2010PropOp57
 70
1
102
RTVSPropertyOp0
 70
1
102
RTVSPropertyOp1
 70
1
102
RTVSPropertyOp2
 70
1
102
RTVSPropertyOp3
 70
1
102
RTVSPropertyOp4
 70
1
102
RTVSPropertyOp5
 70
1
102
RTVSPropertyOp6
 70
1
102
RTVSPropertyOp7
 70
1
102
RTVSPropertyOp8
 70
1
102
RTVSPropertyOp9
 70
1
102
RTVSPropertyOp10
 70
1
102
RTVSPropertyOp11
 70
1
102
RTVSPropertyOp12
 70
1
102
RTVSPropertyOp13
 70
1
102
RTVSPropertyOp14
 70
1
102
RTVSPropertyOp15
 70
1
102
RTVSPropertyOp16
 70
1
102
RTVSPropertyOp17
 70
1
102
RTVSPropertyOp18
 70
1
102
RTVSPropertyOp19
 70
1
102
RTVSPropertyOp20
 70
1
102
RTVSPropertyOp21
 70
1
102
RTVSPropertyOp22
 70
1
102
RTVSPropertyOp23
 70
1
102
RTVSPropertyOp24
 70
1
102
RTVSPropertyOp25
 70
1
102
RTVSPropertyOp26
 70
1
102
RTVSPropertyOp27
 70
1
102
RTVSPropertyOp28
 70
1
102
RTVSPropertyOp29
 70
1
102
RTVSPropertyOp30
 70
1
102
RTVSPropertyOp31
 70
1
102
RTVSPropertyOp32
 70
1
102
RTVSPropertyOp33
 70
1
102
RTVSPropertyOp34
 70
1
102
RTVSPropertyOp35
 70
1
102
RTVSPropertyOp36
 70
1
102
RTVSPropertyOp37
 70
1
102
RTVSPropertyOp38
 70
1
102
RTVSPropertyOp39
 70
1
102
RTVSPropertyOp40
 70
1
102
RTVSPropertyOp41
 70
1
102
RTVSPropertyOp42
 70
1
102
RTVSPropertyOp43
 70
1
102
RTVSPropertyOp44
 70
1
102
RTVSPropertyOp45
 70
1
102
RTVSPropertyOp46
 70
1
102
RTVSPropertyOp47
 70
1
102
RTVSPropertyOp48
 70
1
102
RTVSPropertyOp49
 70
1
102
RTVSPropertyOp50
 70
1
102
RTVSPropertyOp51
 70
0
102
RTVSPropertyOp52
 70
0
102
RTVSPropertyOp53
 70
1
102
RTVSPropertyOp54
 70
1
102
RTVSPropertyOp55
 70
1
102
RTVSPropertyOp56
 70
1
102
RTVSPropertyOp57
 70
1
102
RTVSPropertyOp58
 70
1
102
RTVSPropertyOp59
 70
1
102
RTVSPropertyOp60
 70
1
102
RTVSPropertyOp61
 70
1
102
RTVSPropertyOp62
 70
1
  0
XRECORD
  5
A6C
102
{ACAD_REACTORS
330
A6B
102
}
330
A6B
100
AcDbXrecord
280
1
102
RTVSPost2010Prop28
280
0
102
RTVSPost2010PropOp28
 70
1
102
RTVSPost2010Prop29
280
1
102
RTVSPost2010PropOp29
 70
1
102
RTVSPost2010Prop30
280
1
102
RTVSPost2010PropOp30
 70
1
102
RTVSPost2010Prop31
280
0
102
RTVSPost2010PropOp31
 70
1
102
RTVSPost2010Prop32
280
0
102
RTVSPost2010PropOp32
 70
1
102
RTVSPost2010Prop33
280
0
102
RTVSPost2010PropOp33
 70
1
102
RTVSPost2010Prop34
280
0
102
RTVSPost2010PropOp34
 70
1
102
RTVSPost2010Prop35
280
0
102
RTVSPost2010PropOp35
 70
1
102
RTVSPost2010Prop36
280
0
102
RTVSPost2010PropOp36
 70
1
102
RTVSPost2010Prop37
 90
50
102
RTVSPost2010PropOp37
 70
1
102
RTVSPost2010Prop38
140
0.0
102
RTVSPost2010PropOp38
 70
1
102
RTVSPost2010Prop39
140
1.0
102
RTVSPost2010PropOp39
 70
1
102
RTVSPost2010Prop40
 90
0
102
RTVSPost2010PropOp40
 70
1
102
RTVSPost2010Prop41ColorIndex
 90
18
102
RTVSPost2010Prop41ColorRGB
 90
0
102
RTVSPost2010PropOp41
 70
1
102
RTVSPost2010Prop42
 90
50
102
RTVSPost2010PropOp42
 70
1
102
RTVSPost2010Prop43
 90
3
102
RTVSPost2010PropOp43
 70
1
102
RTVSPost2010Prop44ColorIndex
 90
5
102
RTVSPost2010Prop44ColorRGB
 90
255
102
RTVSPost2010PropOp44
 70
1
102
RTVSPost2010Prop45
280
0
102
RTVSPost2010PropOp45
 70
1
102
RTVSPost2010Prop46
 90
50
102
RTVSPost2010PropOp46
 70
1
102
RTVSPost2010Prop47
 90
50
102
RTVSPost2010PropOp47
 70
1
102
RTVSPost2010Prop48
 90
50
102
RTVSPost2010PropOp48
 70
1
102
RTVSPost2010Prop49
280
0
102
RTVSPost2010PropOp49
 70
1
102
RTVSPost2010Prop50
 90
50
102
RTVSPost2010PropOp50
 70
1
102
RTVSPost2010Prop51ColorIndex
 90
256
102
RTVSPost2010Prop51ColorRGB
 90
-16777216
102
RTVSPost2010PropOp51
 70
0
102
RTVSPost2010Prop52
140
1.0
102
RTVSPost2010PropOp52
 70
0
102
RTVSPost2010Prop53
 90
2
102
RTVSPost2010PropOp53
 70
1
102
RTVSPost2010Prop54
  1
strokes_ogs.tif
102
RTVSPost2010PropOp54
 70
1
102
RTVSPost2010Prop55
280
0
102
RTVSPost2010PropOp55
 70
1
102
RTVSPost2010Prop56
140
1.0
102
RTVSPost2010PropOp56
 70
1
102
RTVSPost2010Prop57
140
1.0
102
RTVSPost2010PropOp57
 70
1
102
RTVSPropertyOp0
 70
1
102
RTVSPropertyOp1
 70
1
102
RTVSPropertyOp2
 70
1
102
RTVSPropertyOp3
 70
1
102
RTVSPropertyOp4
 70
1
102
RTVSPropertyOp5
 70
1
102
RTVSPropertyOp6
 70
1
102
RTVSPropertyOp7
 70
1
102
RTVSPropertyOp8
 70
1
102
RTVSPropertyOp9
 70
1
102
RTVSPropertyOp10
 70
1
102
RTVSPropertyOp11
 70
1
102
RTVSPropertyOp12
 70
1
102
RTVSPropertyOp13
 70
1
102
RTVSPropertyOp14
 70
1
102
RTVSPropertyOp15
 70
1
102
RTVSPropertyOp16
 70
1
102
RTVSPropertyOp17
 70
1
102
RTVSPropertyOp18
 70
1
102
RTVSPropertyOp19
 70
1
102
RTVSPropertyOp20
 70
1
102
RTVSPropertyOp21
 70
1
102
RTVSPropertyOp22
 70
1
102
RTVSPropertyOp23
 70
1
102
RTVSPropertyOp24
 70
1
102
RTVSPropertyOp25
 70
1
102
RTVSPropertyOp26
 70
1
102
RTVSPropertyOp27
 70
1
102
RTVSPropertyOp28
 70
1
102
RTVSPropertyOp29
 70
1
102
RTVSPropertyOp30
 70
1
102
RTVSPropertyOp31
 70
1
102
RTVSPropertyOp32
 70
1
102
RTVSPropertyOp33
 70
1
102
RTVSPropertyOp34
 70
1
102
RTVSPropertyOp35
 70
1
102
RTVSPropertyOp36
 70
1
102
RTVSPropertyOp37
 70
1
102
RTVSPropertyOp38
 70
1
102
RTVSPropertyOp39
 70
1
102
RTVSPropertyOp40
 70
1
102
RTVSPropertyOp41
 70
1
102
RTVSPropertyOp42
 70
1
102
RTVSPropertyOp43
 70
1
102
RTVSPropertyOp44
 70
1
102
RTVSPropertyOp45
 70
1
102
RTVSPropertyOp46
 70
1
102
RTVSPropertyOp47
 70
1
102
RTVSPropertyOp48
 70
1
102
RTVSPropertyOp49
 70
1
102
RTVSPropertyOp50
 70
1
102
RTVSPropertyOp51
 70
0
102
RTVSPropertyOp52
 70
0
102
RTVSPropertyOp53
 70
1
102
RTVSPropertyOp54
 70
1
102
RTVSPropertyOp55
 70
1
102
RTVSPropertyOp56
 70
1
102
RTVSPropertyOp57
 70
1
102
RTVSPropertyOp58
 70
1
102
RTVSPropertyOp59
 70
1
102
RTVSPropertyOp60
 70
1
102
RTVSPropertyOp61
 70
1
102
RTVSPropertyOp62
 70
1
  0
XRECORD
  5
A7A
102
{ACAD_REACTORS
330
A79
102
}
330
A79
100
AcDbXrecord
280
1
102
RTVSPost2010Prop28
280
0
102
RTVSPost2010PropOp28
 70
1
102
RTVSPost2010Prop29
280
1
102
RTVSPost2010PropOp29
 70
1
102
RTVSPost2010Prop30
280
1
102
RTVSPost2010PropOp30
 70
1
102
RTVSPost2010Prop31
280
0
102
RTVSPost2010PropOp31
 70
1
102
RTVSPost2010Prop32
280
0
102
RTVSPost2010PropOp32
 70
1
102
RTVSPost2010Prop33
280
0
102
RTVSPost2010PropOp33
 70
1
102
RTVSPost2010Prop34
280
0
102
RTVSPost2010PropOp34
 70
1
102
RTVSPost2010Prop35
280
0
102
RTVSPost2010PropOp35
 70
1
102
RTVSPost2010Prop36
280
0
102
RTVSPost2010PropOp36
 70
1
102
RTVSPost2010Prop37
 90
50
102
RTVSPost2010PropOp37
 70
1
102
RTVSPost2010Prop38
140
0.0
102
RTVSPost2010PropOp38
 70
1
102
RTVSPost2010Prop39
140
1.0
102
RTVSPost2010PropOp39
 70
1
102
RTVSPost2010Prop40
 90
0
102
RTVSPost2010PropOp40
 70
1
102
RTVSPost2010Prop41ColorIndex
 90
18
102
RTVSPost2010Prop41ColorRGB
 90
0
102
RTVSPost2010PropOp41
 70
1
102
RTVSPost2010Prop42
 90
50
102
RTVSPost2010PropOp42
 70
1
102
RTVSPost2010Prop43
 90
3
102
RTVSPost2010PropOp43
 70
1
102
RTVSPost2010Prop44ColorIndex
 90
5
102
RTVSPost2010Prop44ColorRGB
 90
255
102
RTVSPost2010PropOp44
 70
1
102
RTVSPost2010Prop45
280
0
102
RTVSPost2010PropOp45
 70
1
102
RTVSPost2010Prop46
 90
50
102
RTVSPost2010PropOp46
 70
1
102
RTVSPost2010Prop47
 90
50
102
RTVSPost2010PropOp47
 70
1
102
RTVSPost2010Prop48
 90
50
102
RTVSPost2010PropOp48
 70
1
102
RTVSPost2010Prop49
280
0
102
RTVSPost2010PropOp49
 70
1
102
RTVSPost2010Prop50
 90
50
102
RTVSPost2010PropOp50
 70
1
102
RTVSPost2010Prop51ColorIndex
 90
256
102
RTVSPost2010Prop51ColorRGB
 90
-16777216
102
RTVSPost2010PropOp51
 70
0
102
RTVSPost2010Prop52
140
1.0
102
RTVSPost2010PropOp52
 70
0
102
RTVSPost2010Prop53
 90
2
102
RTVSPost2010PropOp53
 70
1
102
RTVSPost2010Prop54
  1
strokes_ogs.tif
102
RTVSPost2010PropOp54
 70
1
102
RTVSPost2010Prop55
280
0
102
RTVSPost2010PropOp55
 70
1
102
RTVSPost2010Prop56
140
1.0
102
RTVSPost2010PropOp56
 70
1
102
RTVSPost2010Prop57
140
1.0
102
RTVSPost2010PropOp57
 70
1
102
RTVSPropertyOp0
 70
1
102
RTVSPropertyOp1
 70
1
102
RTVSPropertyOp2
 70
1
102
RTVSPropertyOp3
 70
1
102
RTVSPropertyOp4
 70
1
102
RTVSPropertyOp5
 70
1
102
RTVSPropertyOp6
 70
1
102
RTVSPropertyOp7
 70
1
102
RTVSPropertyOp8
 70
1
102
RTVSPropertyOp9
 70
1
102
RTVSPropertyOp10
 70
1
102
RTVSPropertyOp11
 70
1
102
RTVSPropertyOp12
 70
1
102
RTVSPropertyOp13
 70
1
102
RTVSPropertyOp14
 70
1
102
RTVSPropertyOp15
 70
1
102
RTVSPropertyOp16
 70
1
102
RTVSPropertyOp17
 70
1
102
RTVSPropertyOp18
 70
1
102
RTVSPropertyOp19
 70
1
102
RTVSPropertyOp20
 70
1
102
RTVSPropertyOp21
 70
1
102
RTVSPropertyOp22
 70
1
102
RTVSPropertyOp23
 70
1
102
RTVSPropertyOp24
 70
1
102
RTVSPropertyOp25
 70
1
102
RTVSPropertyOp26
 70
1
102
RTVSPropertyOp27
 70
1
102
RTVSPropertyOp28
 70
1
102
RTVSPropertyOp29
 70
1
102
RTVSPropertyOp30
 70
1
102
RTVSPropertyOp31
 70
1
102
RTVSPropertyOp32
 70
1
102
RTVSPropertyOp33
 70
1
102
RTVSPropertyOp34
 70
1
102
RTVSPropertyOp35
 70
1
102
RTVSPropertyOp36
 70
1
102
RTVSPropertyOp37
 70
1
102
RTVSPropertyOp38
 70
1
102
RTVSPropertyOp39
 70
1
102
RTVSPropertyOp40
 70
1
102
RTVSPropertyOp41
 70
1
102
RTVSPropertyOp42
 70
1
102
RTVSPropertyOp43
 70
1
102
RTVSPropertyOp44
 70
1
102
RTVSPropertyOp45
 70
1
102
RTVSPropertyOp46
 70
1
102
RTVSPropertyOp47
 70
1
102
RTVSPropertyOp48
 70
1
102
RTVSPropertyOp49
 70
1
102
RTVSPropertyOp50
 70
1
102
RTVSPropertyOp51
 70
0
102
RTVSPropertyOp52
 70
0
102
RTVSPropertyOp53
 70
1
102
RTVSPropertyOp54
 70
1
102
RTVSPropertyOp55
 70
1
102
RTVSPropertyOp56
 70
1
102
RTVSPropertyOp57
 70
1
102
RTVSPropertyOp58
 70
1
102
RTVSPropertyOp59
 70
1
102
RTVSPropertyOp60
 70
1
102
RTVSPropertyOp61
 70
1
102
RTVSPropertyOp62
 70
1
  0
XRECORD
  5
A82
102
{ACAD_REACTORS
330
A81
102
}
330
A81
100
AcDbXrecord
280
1
102
RTVSPost2010Prop28
280
0
102
RTVSPost2010PropOp28
 70
1
102
RTVSPost2010Prop29
280
1
102
RTVSPost2010PropOp29
 70
1
102
RTVSPost2010Prop30
280
1
102
RTVSPost2010PropOp30
 70
1
102
RTVSPost2010Prop31
280
0
102
RTVSPost2010PropOp31
 70
1
102
RTVSPost2010Prop32
280
0
102
RTVSPost2010PropOp32
 70
1
102
RTVSPost2010Prop33
280
0
102
RTVSPost2010PropOp33
 70
1
102
RTVSPost2010Prop34
280
0
102
RTVSPost2010PropOp34
 70
1
102
RTVSPost2010Prop35
280
0
102
RTVSPost2010PropOp35
 70
1
102
RTVSPost2010Prop36
280
0
102
RTVSPost2010PropOp36
 70
1
102
RTVSPost2010Prop37
 90
50
102
RTVSPost2010PropOp37
 70
1
102
RTVSPost2010Prop38
140
0.0
102
RTVSPost2010PropOp38
 70
1
102
RTVSPost2010Prop39
140
1.0
102
RTVSPost2010PropOp39
 70
1
102
RTVSPost2010Prop40
 90
0
102
RTVSPost2010PropOp40
 70
1
102
RTVSPost2010Prop41ColorIndex
 90
18
102
RTVSPost2010Prop41ColorRGB
 90
0
102
RTVSPost2010PropOp41
 70
1
102
RTVSPost2010Prop42
 90
50
102
RTVSPost2010PropOp42
 70
1
102
RTVSPost2010Prop43
 90
3
102
RTVSPost2010PropOp43
 70
1
102
RTVSPost2010Prop44ColorIndex
 90
5
102
RTVSPost2010Prop44ColorRGB
 90
255
102
RTVSPost2010PropOp44
 70
1
102
RTVSPost2010Prop45
280
0
102
RTVSPost2010PropOp45
 70
1
102
RTVSPost2010Prop46
 90
50
102
RTVSPost2010PropOp46
 70
1
102
RTVSPost2010Prop47
 90
50
102
RTVSPost2010PropOp47
 70
1
102
RTVSPost2010Prop48
 90
50
102
RTVSPost2010PropOp48
 70
1
102
RTVSPost2010Prop49
280
0
102
RTVSPost2010PropOp49
 70
1
102
RTVSPost2010Prop50
 90
50
102
RTVSPost2010PropOp50
 70
1
102
RTVSPost2010Prop51ColorIndex
 90
256
102
RTVSPost2010Prop51ColorRGB
 90
-16777216
102
RTVSPost2010PropOp51
 70
0
102
RTVSPost2010Prop52
140
1.0
102
RTVSPost2010PropOp52
 70
0
102
RTVSPost2010Prop53
 90
2
102
RTVSPost2010PropOp53
 70
1
102
RTVSPost2010Prop54
  1
strokes_ogs.tif
102
RTVSPost2010PropOp54
 70
1
102
RTVSPost2010Prop55
280
0
102
RTVSPost2010PropOp55
 70
1
102
RTVSPost2010Prop56
140
1.0
102
RTVSPost2010PropOp56
 70
1
102
RTVSPost2010Prop57
140
1.0
102
RTVSPost2010PropOp57
 70
1
102
RTVSPropertyOp0
 70
1
102
RTVSPropertyOp1
 70
1
102
RTVSPropertyOp2
 70
1
102
RTVSPropertyOp3
 70
1
102
RTVSPropertyOp4
 70
1
102
RTVSPropertyOp5
 70
1
102
RTVSPropertyOp6
 70
1
102
RTVSPropertyOp7
 70
1
102
RTVSPropertyOp8
 70
1
102
RTVSPropertyOp9
 70
1
102
RTVSPropertyOp10
 70
1
102
RTVSPropertyOp11
 70
1
102
RTVSPropertyOp12
 70
1
102
RTVSPropertyOp13
 70
1
102
RTVSPropertyOp14
 70
1
102
RTVSPropertyOp15
 70
1
102
RTVSPropertyOp16
 70
1
102
RTVSPropertyOp17
 70
1
102
RTVSPropertyOp18
 70
1
102
RTVSPropertyOp19
 70
1
102
RTVSPropertyOp20
 70
1
102
RTVSPropertyOp21
 70
1
102
RTVSPropertyOp22
 70
1
102
RTVSPropertyOp23
 70
1
102
RTVSPropertyOp24
 70
1
102
RTVSPropertyOp25
 70
1
102
RTVSPropertyOp26
 70
1
102
RTVSPropertyOp27
 70
1
102
RTVSPropertyOp28
 70
1
102
RTVSPropertyOp29
 70
1
102
RTVSPropertyOp30
 70
1
102
RTVSPropertyOp31
 70
1
102
RTVSPropertyOp32
 70
1
102
RTVSPropertyOp33
 70
1
102
RTVSPropertyOp34
 70
1
102
RTVSPropertyOp35
 70
1
102
RTVSPropertyOp36
 70
1
102
RTVSPropertyOp37
 70
1
102
RTVSPropertyOp38
 70
1
102
RTVSPropertyOp39
 70
1
102
RTVSPropertyOp40
 70
1
102
RTVSPropertyOp41
 70
1
102
RTVSPropertyOp42
 70
1
102
RTVSPropertyOp43
 70
1
102
RTVSPropertyOp44
 70
1
102
RTVSPropertyOp45
 70
1
102
RTVSPropertyOp46
 70
1
102
RTVSPropertyOp47
 70
1
102
RTVSPropertyOp48
 70
1
102
RTVSPropertyOp49
 70
1
102
RTVSPropertyOp50
 70
1
102
RTVSPropertyOp51
 70
0
102
RTVSPropertyOp52
 70
0
102
RTVSPropertyOp53
 70
1
102
RTVSPropertyOp54
 70
1
102
RTVSPropertyOp55
 70
1
102
RTVSPropertyOp56
 70
1
102
RTVSPropertyOp57
 70
1
102
RTVSPropertyOp58
 70
1
102
RTVSPropertyOp59
 70
1
102
RTVSPropertyOp60
 70
1
102
RTVSPropertyOp61
 70
1
102
RTVSPropertyOp62
 70
1
  0
XRECORD
  5
A74
102
{ACAD_REACTORS
330
A73
102
}
330
A73
100
AcDbXrecord
280
1
102
RTVSPost2010Prop28
280
0
102
RTVSPost2010PropOp28
 70
1
102
RTVSPost2010Prop29
280
1
102
RTVSPost2010PropOp29
 70
1
102
RTVSPost2010Prop30
280
1
102
RTVSPost2010PropOp30
 70
1
102
RTVSPost2010Prop31
280
0
102
RTVSPost2010PropOp31
 70
1
102
RTVSPost2010Prop32
280
0
102
RTVSPost2010PropOp32
 70
1
102
RTVSPost2010Prop33
280
0
102
RTVSPost2010PropOp33
 70
1
102
RTVSPost2010Prop34
280
0
102
RTVSPost2010PropOp34
 70
1
102
RTVSPost2010Prop35
280
0
102
RTVSPost2010PropOp35
 70
1
102
RTVSPost2010Prop36
280
0
102
RTVSPost2010PropOp36
 70
1
102
RTVSPost2010Prop37
 90
50
102
RTVSPost2010PropOp37
 70
1
102
RTVSPost2010Prop38
140
0.0
102
RTVSPost2010PropOp38
 70
1
102
RTVSPost2010Prop39
140
1.0
102
RTVSPost2010PropOp39
 70
1
102
RTVSPost2010Prop40
 90
0
102
RTVSPost2010PropOp40
 70
1
102
RTVSPost2010Prop41ColorIndex
 90
18
102
RTVSPost2010Prop41ColorRGB
 90
0
102
RTVSPost2010PropOp41
 70
1
102
RTVSPost2010Prop42
 90
50
102
RTVSPost2010PropOp42
 70
1
102
RTVSPost2010Prop43
 90
3
102
RTVSPost2010PropOp43
 70
1
102
RTVSPost2010Prop44ColorIndex
 90
5
102
RTVSPost2010Prop44ColorRGB
 90
255
102
RTVSPost2010PropOp44
 70
1
102
RTVSPost2010Prop45
280
0
102
RTVSPost2010PropOp45
 70
1
102
RTVSPost2010Prop46
 90
50
102
RTVSPost2010PropOp46
 70
1
102
RTVSPost2010Prop47
 90
50
102
RTVSPost2010PropOp47
 70
1
102
RTVSPost2010Prop48
 90
50
102
RTVSPost2010PropOp48
 70
1
102
RTVSPost2010Prop49
280
0
102
RTVSPost2010PropOp49
 70
1
102
RTVSPost2010Prop50
 90
50
102
RTVSPost2010PropOp50
 70
1
102
RTVSPost2010Prop51ColorIndex
 90
256
102
RTVSPost2010Prop51ColorRGB
 90
-16777216
102
RTVSPost2010PropOp51
 70
0
102
RTVSPost2010Prop52
140
1.0
102
RTVSPost2010PropOp52
 70
0
102
RTVSPost2010Prop53
 90
2
102
RTVSPost2010PropOp53
 70
1
102
RTVSPost2010Prop54
  1
strokes_ogs.tif
102
RTVSPost2010PropOp54
 70
1
102
RTVSPost2010Prop55
280
0
102
RTVSPost2010PropOp55
 70
1
102
RTVSPost2010Prop56
140
1.0
102
RTVSPost2010PropOp56
 70
1
102
RTVSPost2010Prop57
140
1.0
102
RTVSPost2010PropOp57
 70
1
102
RTVSPropertyOp0
 70
1
102
RTVSPropertyOp1
 70
1
102
RTVSPropertyOp2
 70
1
102
RTVSPropertyOp3
 70
1
102
RTVSPropertyOp4
 70
1
102
RTVSPropertyOp5
 70
1
102
RTVSPropertyOp6
 70
1
102
RTVSPropertyOp7
 70
1
102
RTVSPropertyOp8
 70
1
102
RTVSPropertyOp9
 70
1
102
RTVSPropertyOp10
 70
1
102
RTVSPropertyOp11
 70
1
102
RTVSPropertyOp12
 70
1
102
RTVSPropertyOp13
 70
1
102
RTVSPropertyOp14
 70
1
102
RTVSPropertyOp15
 70
1
102
RTVSPropertyOp16
 70
1
102
RTVSPropertyOp17
 70
1
102
RTVSPropertyOp18
 70
1
102
RTVSPropertyOp19
 70
1
102
RTVSPropertyOp20
 70
1
102
RTVSPropertyOp21
 70
1
102
RTVSPropertyOp22
 70
1
102
RTVSPropertyOp23
 70
1
102
RTVSPropertyOp24
 70
1
102
RTVSPropertyOp25
 70
1
102
RTVSPropertyOp26
 70
1
102
RTVSPropertyOp27
 70
1
102
RTVSPropertyOp28
 70
1
102
RTVSPropertyOp29
 70
1
102
RTVSPropertyOp30
 70
1
102
RTVSPropertyOp31
 70
1
102
RTVSPropertyOp32
 70
1
102
RTVSPropertyOp33
 70
1
102
RTVSPropertyOp34
 70
1
102
RTVSPropertyOp35
 70
1
102
RTVSPropertyOp36
 70
1
102
RTVSPropertyOp37
 70
1
102
RTVSPropertyOp38
 70
1
102
RTVSPropertyOp39
 70
1
102
RTVSPropertyOp40
 70
1
102
RTVSPropertyOp41
 70
1
102
RTVSPropertyOp42
 70
1
102
RTVSPropertyOp43
 70
1
102
RTVSPropertyOp44
 70
1
102
RTVSPropertyOp45
 70
1
102
RTVSPropertyOp46
 70
1
102
RTVSPropertyOp47
 70
1
102
RTVSPropertyOp48
 70
1
102
RTVSPropertyOp49
 70
1
102
RTVSPropertyOp50
 70
1
102
RTVSPropertyOp51
 70
0
102
RTVSPropertyOp52
 70
0
102
RTVSPropertyOp53
 70
1
102
RTVSPropertyOp54
 70
1
102
RTVSPropertyOp55
 70
1
102
RTVSPropertyOp56
 70
1
102
RTVSPropertyOp57
 70
1
102
RTVSPropertyOp58
 70
1
102
RTVSPropertyOp59
 70
1
102
RTVSPropertyOp60
 70
1
102
RTVSPropertyOp61
 70
1
102
RTVSPropertyOp62
 70
1
  0
XRECORD
  5
A78
102
{ACAD_REACTORS
330
A77
102
}
330
A77
100
AcDbXrecord
280
1
102
RTVSPost2010Prop28
280
0
102
RTVSPost2010PropOp28
 70
1
102
RTVSPost2010Prop29
280
1
102
RTVSPost2010PropOp29
 70
1
102
RTVSPost2010Prop30
280
1
102
RTVSPost2010PropOp30
 70
1
102
RTVSPost2010Prop31
280
0
102
RTVSPost2010PropOp31
 70
1
102
RTVSPost2010Prop32
280
0
102
RTVSPost2010PropOp32
 70
1
102
RTVSPost2010Prop33
280
0
102
RTVSPost2010PropOp33
 70
1
102
RTVSPost2010Prop34
280
0
102
RTVSPost2010PropOp34
 70
1
102
RTVSPost2010Prop35
280
0
102
RTVSPost2010PropOp35
 70
1
102
RTVSPost2010Prop36
280
0
102
RTVSPost2010PropOp36
 70
1
102
RTVSPost2010Prop37
 90
50
102
RTVSPost2010PropOp37
 70
1
102
RTVSPost2010Prop38
140
0.0
102
RTVSPost2010PropOp38
 70
1
102
RTVSPost2010Prop39
140
1.0
102
RTVSPost2010PropOp39
 70
1
102
RTVSPost2010Prop40
 90
0
102
RTVSPost2010PropOp40
 70
1
102
RTVSPost2010Prop41ColorIndex
 90
18
102
RTVSPost2010Prop41ColorRGB
 90
0
102
RTVSPost2010PropOp41
 70
1
102
RTVSPost2010Prop42
 90
50
102
RTVSPost2010PropOp42
 70
1
102
RTVSPost2010Prop43
 90
3
102
RTVSPost2010PropOp43
 70
1
102
RTVSPost2010Prop44ColorIndex
 90
5
102
RTVSPost2010Prop44ColorRGB
 90
255
102
RTVSPost2010PropOp44
 70
1
102
RTVSPost2010Prop45
280
0
102
RTVSPost2010PropOp45
 70
1
102
RTVSPost2010Prop46
 90
50
102
RTVSPost2010PropOp46
 70
1
102
RTVSPost2010Prop47
 90
50
102
RTVSPost2010PropOp47
 70
1
102
RTVSPost2010Prop48
 90
50
102
RTVSPost2010PropOp48
 70
1
102
RTVSPost2010Prop49
280
0
102
RTVSPost2010PropOp49
 70
1
102
RTVSPost2010Prop50
 90
50
102
RTVSPost2010PropOp50
 70
1
102
RTVSPost2010Prop51ColorIndex
 90
256
102
RTVSPost2010Prop51ColorRGB
 90
-16777216
102
RTVSPost2010PropOp51
 70
0
102
RTVSPost2010Prop52
140
1.0
102
RTVSPost2010PropOp52
 70
0
102
RTVSPost2010Prop53
 90
2
102
RTVSPost2010PropOp53
 70
1
102
RTVSPost2010Prop54
  1
strokes_ogs.tif
102
RTVSPost2010PropOp54
 70
1
102
RTVSPost2010Prop55
280
0
102
RTVSPost2010PropOp55
 70
1
102
RTVSPost2010Prop56
140
1.0
102
RTVSPost2010PropOp56
 70
1
102
RTVSPost2010Prop57
140
1.0
102
RTVSPost2010PropOp57
 70
1
102
RTVSPropertyOp0
 70
1
102
RTVSPropertyOp1
 70
1
102
RTVSPropertyOp2
 70
1
102
RTVSPropertyOp3
 70
1
102
RTVSPropertyOp4
 70
1
102
RTVSPropertyOp5
 70
1
102
RTVSPropertyOp6
 70
1
102
RTVSPropertyOp7
 70
1
102
RTVSPropertyOp8
 70
1
102
RTVSPropertyOp9
 70
1
102
RTVSPropertyOp10
 70
1
102
RTVSPropertyOp11
 70
1
102
RTVSPropertyOp12
 70
1
102
RTVSPropertyOp13
 70
1
102
RTVSPropertyOp14
 70
1
102
RTVSPropertyOp15
 70
1
102
RTVSPropertyOp16
 70
1
102
RTVSPropertyOp17
 70
1
102
RTVSPropertyOp18
 70
1
102
RTVSPropertyOp19
 70
1
102
RTVSPropertyOp20
 70
1
102
RTVSPropertyOp21
 70
1
102
RTVSPropertyOp22
 70
1
102
RTVSPropertyOp23
 70
1
102
RTVSPropertyOp24
 70
1
102
RTVSPropertyOp25
 70
1
102
RTVSPropertyOp26
 70
1
102
RTVSPropertyOp27
 70
1
102
RTVSPropertyOp28
 70
1
102
RTVSPropertyOp29
 70
1
102
RTVSPropertyOp30
 70
1
102
RTVSPropertyOp31
 70
1
102
RTVSPropertyOp32
 70
1
102
RTVSPropertyOp33
 70
1
102
RTVSPropertyOp34
 70
1
102
RTVSPropertyOp35
 70
1
102
RTVSPropertyOp36
 70
1
102
RTVSPropertyOp37
 70
1
102
RTVSPropertyOp38
 70
1
102
RTVSPropertyOp39
 70
1
102
RTVSPropertyOp40
 70
1
102
RTVSPropertyOp41
 70
1
102
RTVSPropertyOp42
 70
1
102
RTVSPropertyOp43
 70
1
102
RTVSPropertyOp44
 70
1
102
RTVSPropertyOp45
 70
1
102
RTVSPropertyOp46
 70
1
102
RTVSPropertyOp47
 70
1
102
RTVSPropertyOp48
 70
1
102
RTVSPropertyOp49
 70
1
102
RTVSPropertyOp50
 70
1
102
RTVSPropertyOp51
 70
0
102
RTVSPropertyOp52
 70
0
102
RTVSPropertyOp53
 70
1
102
RTVSPropertyOp54
 70
1
102
RTVSPropertyOp55
 70
1
102
RTVSPropertyOp56
 70
1
102
RTVSPropertyOp57
 70
1
102
RTVSPropertyOp58
 70
1
102
RTVSPropertyOp59
 70
1
102
RTVSPropertyOp60
 70
1
102
RTVSPropertyOp61
 70
1
102
RTVSPropertyOp62
 70
1
  0
XRECORD
  5
A92
102
{ACAD_REACTORS
330
A91
102
}
330
A91
100
AcDbXrecord
280
1
102
RTVSPost2010Prop28
280
0
102
RTVSPost2010PropOp28
 70
1
102
RTVSPost2010Prop29
280
1
102
RTVSPost2010PropOp29
 70
1
102
RTVSPost2010Prop30
280
1
102
RTVSPost2010PropOp30
 70
1
102
RTVSPost2010Prop31
280
0
102
RTVSPost2010PropOp31
 70
1
102
RTVSPost2010Prop32
280
0
102
RTVSPost2010PropOp32
 70
1
102
RTVSPost2010Prop33
280
0
102
RTVSPost2010PropOp33
 70
1
102
RTVSPost2010Prop34
280
0
102
RTVSPost2010PropOp34
 70
1
102
RTVSPost2010Prop35
280
0
102
RTVSPost2010PropOp35
 70
1
102
RTVSPost2010Prop36
280
0
102
RTVSPost2010PropOp36
 70
1
102
RTVSPost2010Prop37
 90
50
102
RTVSPost2010PropOp37
 70
0
102
RTVSPost2010Prop38
140
0.0
102
RTVSPost2010PropOp38
 70
0
102
RTVSPost2010Prop39
140
1.0
102
RTVSPost2010PropOp39
 70
0
102
RTVSPost2010Prop40
 90
0
102
RTVSPost2010PropOp40
 70
0
102
RTVSPost2010Prop41ColorIndex
 90
18
102
RTVSPost2010Prop41ColorRGB
 90
0
102
RTVSPost2010PropOp41
 70
0
102
RTVSPost2010Prop42
 90
50
102
RTVSPost2010PropOp42
 70
0
102
RTVSPost2010Prop43
 90
3
102
RTVSPost2010PropOp43
 70
0
102
RTVSPost2010Prop44ColorIndex
 90
5
102
RTVSPost2010Prop44ColorRGB
 90
255
102
RTVSPost2010PropOp44
 70
0
102
RTVSPost2010Prop45
280
0
102
RTVSPost2010PropOp45
 70
1
102
RTVSPost2010Prop46
 90
50
102
RTVSPost2010PropOp46
 70
0
102
RTVSPost2010Prop47
 90
50
102
RTVSPost2010PropOp47
 70
0
102
RTVSPost2010Prop48
 90
50
102
RTVSPost2010PropOp48
 70
0
102
RTVSPost2010Prop49
280
0
102
RTVSPost2010PropOp49
 70
1
102
RTVSPost2010Prop50
 90
50
102
RTVSPost2010PropOp50
 70
0
102
RTVSPost2010Prop51ColorIndex
 90
256
102
RTVSPost2010Prop51ColorRGB
 90
-16777216
102
RTVSPost2010PropOp51
 70
0
102
RTVSPost2010Prop52
140
1.0
102
RTVSPost2010PropOp52
 70
0
102
RTVSPost2010Prop53
 90
2
102
RTVSPost2010PropOp53
 70
0
102
RTVSPost2010Prop54
  1
strokes_ogs.tif
102
RTVSPost2010PropOp54
 70
0
102
RTVSPost2010Prop55
280
0
102
RTVSPost2010PropOp55
 70
1
102
RTVSPost2010Prop56
140
1.0
102
RTVSPost2010PropOp56
 70
0
102
RTVSPost2010Prop57
140
1.0
102
RTVSPost2010PropOp57
 70
0
102
RTVSPropertyOp0
 70
0
102
RTVSPropertyOp1
 70
0
102
RTVSPropertyOp2
 70
0
102
RTVSPropertyOp3
 70
0
102
RTVSPropertyOp4
 70
0
102
RTVSPropertyOp5
 70
0
102
RTVSPropertyOp6
 70
0
102
RTVSPropertyOp7
 70
0
102
RTVSPropertyOp8
 70
0
102
RTVSPropertyOp9
 70
0
102
RTVSPropertyOp10
 70
0
102
RTVSPropertyOp11
 70
0
102
RTVSPropertyOp12
 70
0
102
RTVSPropertyOp13
 70
0
102
RTVSPropertyOp14
 70
2
102
RTVSPropertyOp15
 70
0
102
RTVSPropertyOp16
 70
0
102
RTVSPropertyOp17
 70
0
102
RTVSPropertyOp18
 70
0
102
RTVSPropertyOp19
 70
0
102
RTVSPropertyOp20
 70
0
102
RTVSPropertyOp21
 70
0
102
RTVSPropertyOp22
 70
0
102
RTVSPropertyOp23
 70
0
102
RTVSPropertyOp24
 70
0
102
RTVSPropertyOp25
 70
0
102
RTVSPropertyOp26
 70
0
102
RTVSPropertyOp27
 70
0
102
RTVSPropertyOp28
 70
1
102
RTVSPropertyOp29
 70
1
102
RTVSPropertyOp30
 70
1
102
RTVSPropertyOp31
 70
1
102
RTVSPropertyOp32
 70
1
102
RTVSPropertyOp33
 70
1
102
RTVSPropertyOp34
 70
1
102
RTVSPropertyOp35
 70
1
102
RTVSPropertyOp36
 70
1
102
RTVSPropertyOp37
 70
0
102
RTVSPropertyOp38
 70
0
102
RTVSPropertyOp39
 70
0
102
RTVSPropertyOp40
 70
0
102
RTVSPropertyOp41
 70
0
102
RTVSPropertyOp42
 70
0
102
RTVSPropertyOp43
 70
0
102
RTVSPropertyOp44
 70
0
102
RTVSPropertyOp45
 70
1
102
RTVSPropertyOp46
 70
0
102
RTVSPropertyOp47
 70
0
102
RTVSPropertyOp48
 70
0
102
RTVSPropertyOp49
 70
1
102
RTVSPropertyOp50
 70
0
102
RTVSPropertyOp51
 70
0
102
RTVSPropertyOp52
 70
0
102
RTVSPropertyOp53
 70
0
102
RTVSPropertyOp54
 70
0
102
RTVSPropertyOp55
 70
1
102
RTVSPropertyOp56
 70
0
102
RTVSPropertyOp57
 70
0
102
RTVSPropertyOp58
 70
0
102
RTVSPropertyOp59
 70
0
102
RTVSPropertyOp60
 70
0
102
RTVSPropertyOp61
 70
0
102
RTVSPropertyOp62
 70
0
  0
XRECORD
  5
A80
102
{ACAD_REACTORS
330
A7F
102
}
330
A7F
100
AcDbXrecord
280
1
102
RTVSPost2010Prop28
280
0
102
RTVSPost2010PropOp28
 70
1
102
RTVSPost2010Prop29
280
1
102
RTVSPost2010PropOp29
 70
1
102
RTVSPost2010Prop30
280
1
102
RTVSPost2010PropOp30
 70
1
102
RTVSPost2010Prop31
280
0
102
RTVSPost2010PropOp31
 70
1
102
RTVSPost2010Prop32
280
0
102
RTVSPost2010PropOp32
 70
1
102
RTVSPost2010Prop33
280
0
102
RTVSPost2010PropOp33
 70
1
102
RTVSPost2010Prop34
280
0
102
RTVSPost2010PropOp34
 70
1
102
RTVSPost2010Prop35
280
0
102
RTVSPost2010PropOp35
 70
1
102
RTVSPost2010Prop36
280
0
102
RTVSPost2010PropOp36
 70
1
102
RTVSPost2010Prop37
 90
50
102
RTVSPost2010PropOp37
 70
1
102
RTVSPost2010Prop38
140
0.0
102
RTVSPost2010PropOp38
 70
1
102
RTVSPost2010Prop39
140
1.0
102
RTVSPost2010PropOp39
 70
1
102
RTVSPost2010Prop40
 90
0
102
RTVSPost2010PropOp40
 70
1
102
RTVSPost2010Prop41ColorIndex
 90
18
102
RTVSPost2010Prop41ColorRGB
 90
0
102
RTVSPost2010PropOp41
 70
1
102
RTVSPost2010Prop42
 90
50
102
RTVSPost2010PropOp42
 70
1
102
RTVSPost2010Prop43
 90
3
102
RTVSPost2010PropOp43
 70
1
102
RTVSPost2010Prop44ColorIndex
 90
5
102
RTVSPost2010Prop44ColorRGB
 90
255
102
RTVSPost2010PropOp44
 70
1
102
RTVSPost2010Prop45
280
0
102
RTVSPost2010PropOp45
 70
1
102
RTVSPost2010Prop46
 90
50
102
RTVSPost2010PropOp46
 70
1
102
RTVSPost2010Prop47
 90
50
102
RTVSPost2010PropOp47
 70
1
102
RTVSPost2010Prop48
 90
50
102
RTVSPost2010PropOp48
 70
1
102
RTVSPost2010Prop49
280
0
102
RTVSPost2010PropOp49
 70
1
102
RTVSPost2010Prop50
 90
50
102
RTVSPost2010PropOp50
 70
1
102
RTVSPost2010Prop51ColorIndex
 90
256
102
RTVSPost2010Prop51ColorRGB
 90
-16777216
102
RTVSPost2010PropOp51
 70
0
102
RTVSPost2010Prop52
140
1.0
102
RTVSPost2010PropOp52
 70
0
102
RTVSPost2010Prop53
 90
2
102
RTVSPost2010PropOp53
 70
1
102
RTVSPost2010Prop54
  1
strokes_ogs.tif
102
RTVSPost2010PropOp54
 70
1
102
RTVSPost2010Prop55
280
0
102
RTVSPost2010PropOp55
 70
1
102
RTVSPost2010Prop56
140
1.0
102
RTVSPost2010PropOp56
 70
1
102
RTVSPost2010Prop57
140
1.0
102
RTVSPost2010PropOp57
 70
1
102
RTVSPropertyOp0
 70
1
102
RTVSPropertyOp1
 70
1
102
RTVSPropertyOp2
 70
1
102
RTVSPropertyOp3
 70
1
102
RTVSPropertyOp4
 70
1
102
RTVSPropertyOp5
 70
1
102
RTVSPropertyOp6
 70
1
102
RTVSPropertyOp7
 70
1
102
RTVSPropertyOp8
 70
1
102
RTVSPropertyOp9
 70
1
102
RTVSPropertyOp10
 70
1
102
RTVSPropertyOp11
 70
1
102
RTVSPropertyOp12
 70
1
102
RTVSPropertyOp13
 70
1
102
RTVSPropertyOp14
 70
1
102
RTVSPropertyOp15
 70
1
102
RTVSPropertyOp16
 70
1
102
RTVSPropertyOp17
 70
1
102
RTVSPropertyOp18
 70
1
102
RTVSPropertyOp19
 70
1
102
RTVSPropertyOp20
 70
1
102
RTVSPropertyOp21
 70
1
102
RTVSPropertyOp22
 70
1
102
RTVSPropertyOp23
 70
1
102
RTVSPropertyOp24
 70
1
102
RTVSPropertyOp25
 70
1
102
RTVSPropertyOp26
 70
1
102
RTVSPropertyOp27
 70
1
102
RTVSPropertyOp28
 70
1
102
RTVSPropertyOp29
 70
1
102
RTVSPropertyOp30
 70
1
102
RTVSPropertyOp31
 70
1
102
RTVSPropertyOp32
 70
1
102
RTVSPropertyOp33
 70
1
102
RTVSPropertyOp34
 70
1
102
RTVSPropertyOp35
 70
1
102
RTVSPropertyOp36
 70
1
102
RTVSPropertyOp37
 70
1
102
RTVSPropertyOp38
 70
1
102
RTVSPropertyOp39
 70
1
102
RTVSPropertyOp40
 70
1
102
RTVSPropertyOp41
 70
1
102
RTVSPropertyOp42
 70
1
102
RTVSPropertyOp43
 70
1
102
RTVSPropertyOp44
 70
1
102
RTVSPropertyOp45
 70
1
102
RTVSPropertyOp46
 70
1
102
RTVSPropertyOp47
 70
1
102
RTVSPropertyOp48
 70
1
102
RTVSPropertyOp49
 70
1
102
RTVSPropertyOp50
 70
1
102
RTVSPropertyOp51
 70
0
102
RTVSPropertyOp52
 70
0
102
RTVSPropertyOp53
 70
1
102
RTVSPropertyOp54
 70
1
102
RTVSPropertyOp55
 70
1
102
RTVSPropertyOp56
 70
1
102
RTVSPropertyOp57
 70
1
102
RTVSPropertyOp58
 70
1
102
RTVSPropertyOp59
 70
1
102
RTVSPropertyOp60
 70
1
102
RTVSPropertyOp61
 70
1
102
RTVSPropertyOp62
 70
1
  0
XRECORD
  5
A64
102
{ACAD_REACTORS
330
A63
102
}
330
A63
100
AcDbXrecord
280
1
102
RTVSPost2010Prop28
280
0
102
RTVSPost2010PropOp28
 70
1
102
RTVSPost2010Prop29
280
1
102
RTVSPost2010PropOp29
 70
1
102
RTVSPost2010Prop30
280
1
102
RTVSPost2010PropOp30
 70
1
102
RTVSPost2010Prop31
280
0
102
RTVSPost2010PropOp31
 70
1
102
RTVSPost2010Prop32
280
0
102
RTVSPost2010PropOp32
 70
1
102
RTVSPost2010Prop33
280
0
102
RTVSPost2010PropOp33
 70
1
102
RTVSPost2010Prop34
280
0
102
RTVSPost2010PropOp34
 70
1
102
RTVSPost2010Prop35
280
0
102
RTVSPost2010PropOp35
 70
1
102
RTVSPost2010Prop36
280
0
102
RTVSPost2010PropOp36
 70
1
102
RTVSPost2010Prop37
 90
50
102
RTVSPost2010PropOp37
 70
1
102
RTVSPost2010Prop38
140
0.0
102
RTVSPost2010PropOp38
 70
1
102
RTVSPost2010Prop39
140
1.0
102
RTVSPost2010PropOp39
 70
1
102
RTVSPost2010Prop40
 90
0
102
RTVSPost2010PropOp40
 70
1
102
RTVSPost2010Prop41ColorIndex
 90
18
102
RTVSPost2010Prop41ColorRGB
 90
0
102
RTVSPost2010PropOp41
 70
1
102
RTVSPost2010Prop42
 90
50
102
RTVSPost2010PropOp42
 70
1
102
RTVSPost2010Prop43
 90
3
102
RTVSPost2010PropOp43
 70
1
102
RTVSPost2010Prop44ColorIndex
 90
5
102
RTVSPost2010Prop44ColorRGB
 90
255
102
RTVSPost2010PropOp44
 70
1
102
RTVSPost2010Prop45
280
0
102
RTVSPost2010PropOp45
 70
1
102
RTVSPost2010Prop46
 90
50
102
RTVSPost2010PropOp46
 70
1
102
RTVSPost2010Prop47
 90
50
102
RTVSPost2010PropOp47
 70
1
102
RTVSPost2010Prop48
 90
50
102
RTVSPost2010PropOp48
 70
1
102
RTVSPost2010Prop49
280
0
102
RTVSPost2010PropOp49
 70
1
102
RTVSPost2010Prop50
 90
50
102
RTVSPost2010PropOp50
 70
1
102
RTVSPost2010Prop51ColorIndex
 90
256
102
RTVSPost2010Prop51ColorRGB
 90
-16777216
102
RTVSPost2010PropOp51
 70
0
102
RTVSPost2010Prop52
140
1.0
102
RTVSPost2010PropOp52
 70
0
102
RTVSPost2010Prop53
 90
2
102
RTVSPost2010PropOp53
 70
1
102
RTVSPost2010Prop54
  1
strokes_ogs.tif
102
RTVSPost2010PropOp54
 70
1
102
RTVSPost2010Prop55
280
0
102
RTVSPost2010PropOp55
 70
1
102
RTVSPost2010Prop56
140
1.0
102
RTVSPost2010PropOp56
 70
1
102
RTVSPost2010Prop57
140
1.0
102
RTVSPost2010PropOp57
 70
1
102
RTVSPropertyOp0
 70
1
102
RTVSPropertyOp1
 70
1
102
RTVSPropertyOp2
 70
1
102
RTVSPropertyOp3
 70
1
102
RTVSPropertyOp4
 70
1
102
RTVSPropertyOp5
 70
1
102
RTVSPropertyOp6
 70
1
102
RTVSPropertyOp7
 70
1
102
RTVSPropertyOp8
 70
1
102
RTVSPropertyOp9
 70
1
102
RTVSPropertyOp10
 70
1
102
RTVSPropertyOp11
 70
1
102
RTVSPropertyOp12
 70
1
102
RTVSPropertyOp13
 70
1
102
RTVSPropertyOp14
 70
1
102
RTVSPropertyOp15
 70
1
102
RTVSPropertyOp16
 70
1
102
RTVSPropertyOp17
 70
1
102
RTVSPropertyOp18
 70
1
102
RTVSPropertyOp19
 70
1
102
RTVSPropertyOp20
 70
1
102
RTVSPropertyOp21
 70
1
102
RTVSPropertyOp22
 70
1
102
RTVSPropertyOp23
 70
1
102
RTVSPropertyOp24
 70
1
102
RTVSPropertyOp25
 70
1
102
RTVSPropertyOp26
 70
1
102
RTVSPropertyOp27
 70
1
102
RTVSPropertyOp28
 70
1
102
RTVSPropertyOp29
 70
1
102
RTVSPropertyOp30
 70
1
102
RTVSPropertyOp31
 70
1
102
RTVSPropertyOp32
 70
1
102
RTVSPropertyOp33
 70
1
102
RTVSPropertyOp34
 70
1
102
RTVSPropertyOp35
 70
1
102
RTVSPropertyOp36
 70
1
102
RTVSPropertyOp37
 70
1
102
RTVSPropertyOp38
 70
1
102
RTVSPropertyOp39
 70
1
102
RTVSPropertyOp40
 70
1
102
RTVSPropertyOp41
 70
1
102
RTVSPropertyOp42
 70
1
102
RTVSPropertyOp43
 70
1
102
RTVSPropertyOp44
 70
1
102
RTVSPropertyOp45
 70
1
102
RTVSPropertyOp46
 70
1
102
RTVSPropertyOp47
 70
1
102
RTVSPropertyOp48
 70
1
102
RTVSPropertyOp49
 70
1
102
RTVSPropertyOp50
 70
1
102
RTVSPropertyOp51
 70
0
102
RTVSPropertyOp52
 70
0
102
RTVSPropertyOp53
 70
1
102
RTVSPropertyOp54
 70
1
102
RTVSPropertyOp55
 70
1
102
RTVSPropertyOp56
 70
1
102
RTVSPropertyOp57
 70
1
102
RTVSPropertyOp58
 70
1
102
RTVSPropertyOp59
 70
1
102
RTVSPropertyOp60
 70
1
102
RTVSPropertyOp61
 70
1
102
RTVSPropertyOp62
 70
1
  0
XRECORD
  5
A66
102
{ACAD_REACTORS
330
A65
102
}
330
A65
100
AcDbXrecord
280
1
102
RTVSPost2010Prop28
280
0
102
RTVSPost2010PropOp28
 70
1
102
RTVSPost2010Prop29
280
1
102
RTVSPost2010PropOp29
 70
1
102
RTVSPost2010Prop30
280
1
102
RTVSPost2010PropOp30
 70
1
102
RTVSPost2010Prop31
280
0
102
RTVSPost2010PropOp31
 70
1
102
RTVSPost2010Prop32
280
0
102
RTVSPost2010PropOp32
 70
1
102
RTVSPost2010Prop33
280
0
102
RTVSPost2010PropOp33
 70
1
102
RTVSPost2010Prop34
280
0
102
RTVSPost2010PropOp34
 70
1
102
RTVSPost2010Prop35
280
0
102
RTVSPost2010PropOp35
 70
1
102
RTVSPost2010Prop36
280
0
102
RTVSPost2010PropOp36
 70
1
102
RTVSPost2010Prop37
 90
50
102
RTVSPost2010PropOp37
 70
1
102
RTVSPost2010Prop38
140
0.0
102
RTVSPost2010PropOp38
 70
1
102
RTVSPost2010Prop39
140
1.0
102
RTVSPost2010PropOp39
 70
1
102
RTVSPost2010Prop40
 90
0
102
RTVSPost2010PropOp40
 70
1
102
RTVSPost2010Prop41ColorIndex
 90
18
102
RTVSPost2010Prop41ColorRGB
 90
0
102
RTVSPost2010PropOp41
 70
1
102
RTVSPost2010Prop42
 90
50
102
RTVSPost2010PropOp42
 70
1
102
RTVSPost2010Prop43
 90
3
102
RTVSPost2010PropOp43
 70
1
102
RTVSPost2010Prop44ColorIndex
 90
5
102
RTVSPost2010Prop44ColorRGB
 90
255
102
RTVSPost2010PropOp44
 70
1
102
RTVSPost2010Prop45
280
0
102
RTVSPost2010PropOp45
 70
1
102
RTVSPost2010Prop46
 90
50
102
RTVSPost2010PropOp46
 70
1
102
RTVSPost2010Prop47
 90
50
102
RTVSPost2010PropOp47
 70
1
102
RTVSPost2010Prop48
 90
50
102
RTVSPost2010PropOp48
 70
1
102
RTVSPost2010Prop49
280
0
102
RTVSPost2010PropOp49
 70
1
102
RTVSPost2010Prop50
 90
50
102
RTVSPost2010PropOp50
 70
1
102
RTVSPost2010Prop51ColorIndex
 90
256
102
RTVSPost2010Prop51ColorRGB
 90
-16777216
102
RTVSPost2010PropOp51
 70
0
102
RTVSPost2010Prop52
140
1.0
102
RTVSPost2010PropOp52
 70
0
102
RTVSPost2010Prop53
 90
2
102
RTVSPost2010PropOp53
 70
1
102
RTVSPost2010Prop54
  1
strokes_ogs.tif
102
RTVSPost2010PropOp54
 70
1
102
RTVSPost2010Prop55
280
0
102
RTVSPost2010PropOp55
 70
1
102
RTVSPost2010Prop56
140
1.0
102
RTVSPost2010PropOp56
 70
1
102
RTVSPost2010Prop57
140
1.0
102
RTVSPost2010PropOp57
 70
1
102
RTVSPropertyOp0
 70
1
102
RTVSPropertyOp1
 70
1
102
RTVSPropertyOp2
 70
1
102
RTVSPropertyOp3
 70
1
102
RTVSPropertyOp4
 70
1
102
RTVSPropertyOp5
 70
1
102
RTVSPropertyOp6
 70
1
102
RTVSPropertyOp7
 70
1
102
RTVSPropertyOp8
 70
1
102
RTVSPropertyOp9
 70
1
102
RTVSPropertyOp10
 70
1
102
RTVSPropertyOp11
 70
1
102
RTVSPropertyOp12
 70
1
102
RTVSPropertyOp13
 70
1
102
RTVSPropertyOp14
 70
1
102
RTVSPropertyOp15
 70
1
102
RTVSPropertyOp16
 70
1
102
RTVSPropertyOp17
 70
1
102
RTVSPropertyOp18
 70
1
102
RTVSPropertyOp19
 70
1
102
RTVSPropertyOp20
 70
1
102
RTVSPropertyOp21
 70
1
102
RTVSPropertyOp22
 70
1
102
RTVSPropertyOp23
 70
1
102
RTVSPropertyOp24
 70
1
102
RTVSPropertyOp25
 70
1
102
RTVSPropertyOp26
 70
1
102
RTVSPropertyOp27
 70
1
102
RTVSPropertyOp28
 70
1
102
RTVSPropertyOp29
 70
1
102
RTVSPropertyOp30
 70
1
102
RTVSPropertyOp31
 70
1
102
RTVSPropertyOp32
 70
1
102
RTVSPropertyOp33
 70
1
102
RTVSPropertyOp34
 70
1
102
RTVSPropertyOp35
 70
1
102
RTVSPropertyOp36
 70
1
102
RTVSPropertyOp37
 70
1
102
RTVSPropertyOp38
 70
1
102
RTVSPropertyOp39
 70
1
102
RTVSPropertyOp40
 70
1
102
RTVSPropertyOp41
 70
1
102
RTVSPropertyOp42
 70
1
102
RTVSPropertyOp43
 70
1
102
RTVSPropertyOp44
 70
1
102
RTVSPropertyOp45
 70
1
102
RTVSPropertyOp46
 70
1
102
RTVSPropertyOp47
 70
1
102
RTVSPropertyOp48
 70
1
102
RTVSPropertyOp49
 70
1
102
RTVSPropertyOp50
 70
1
102
RTVSPropertyOp51
 70
0
102
RTVSPropertyOp52
 70
0
102
RTVSPropertyOp53
 70
1
102
RTVSPropertyOp54
 70
1
102
RTVSPropertyOp55
 70
1
102
RTVSPropertyOp56
 70
1
102
RTVSPropertyOp57
 70
1
102
RTVSPropertyOp58
 70
1
102
RTVSPropertyOp59
 70
1
102
RTVSPropertyOp60
 70
1
102
RTVSPropertyOp61
 70
1
102
RTVSPropertyOp62
 70
1
  0
XRECORD
  5
A68
102
{ACAD_REACTORS
330
A67
102
}
330
A67
100
AcDbXrecord
280
1
102
RTVSPost2010Prop28
280
0
102
RTVSPost2010PropOp28
 70
1
102
RTVSPost2010Prop29
280
1
102
RTVSPost2010PropOp29
 70
1
102
RTVSPost2010Prop30
280
1
102
RTVSPost2010PropOp30
 70
1
102
RTVSPost2010Prop31
280
0
102
RTVSPost2010PropOp31
 70
1
102
RTVSPost2010Prop32
280
0
102
RTVSPost2010PropOp32
 70
1
102
RTVSPost2010Prop33
280
0
102
RTVSPost2010PropOp33
 70
1
102
RTVSPost2010Prop34
280
0
102
RTVSPost2010PropOp34
 70
1
102
RTVSPost2010Prop35
280
0
102
RTVSPost2010PropOp35
 70
1
102
RTVSPost2010Prop36
280
0
102
RTVSPost2010PropOp36
 70
1
102
RTVSPost2010Prop37
 90
50
102
RTVSPost2010PropOp37
 70
1
102
RTVSPost2010Prop38
140
0.0
102
RTVSPost2010PropOp38
 70
1
102
RTVSPost2010Prop39
140
1.0
102
RTVSPost2010PropOp39
 70
1
102
RTVSPost2010Prop40
 90
0
102
RTVSPost2010PropOp40
 70
1
102
RTVSPost2010Prop41ColorIndex
 90
18
102
RTVSPost2010Prop41ColorRGB
 90
0
102
RTVSPost2010PropOp41
 70
1
102
RTVSPost2010Prop42
 90
50
102
RTVSPost2010PropOp42
 70
1
102
RTVSPost2010Prop43
 90
3
102
RTVSPost2010PropOp43
 70
1
102
RTVSPost2010Prop44ColorIndex
 90
5
102
RTVSPost2010Prop44ColorRGB
 90
255
102
RTVSPost2010PropOp44
 70
1
102
RTVSPost2010Prop45
280
0
102
RTVSPost2010PropOp45
 70
1
102
RTVSPost2010Prop46
 90
50
102
RTVSPost2010PropOp46
 70
1
102
RTVSPost2010Prop47
 90
50
102
RTVSPost2010PropOp47
 70
1
102
RTVSPost2010Prop48
 90
50
102
RTVSPost2010PropOp48
 70
1
102
RTVSPost2010Prop49
280
0
102
RTVSPost2010PropOp49
 70
1
102
RTVSPost2010Prop50
 90
50
102
RTVSPost2010PropOp50
 70
1
102
RTVSPost2010Prop51ColorIndex
 90
256
102
RTVSPost2010Prop51ColorRGB
 90
-16777216
102
RTVSPost2010PropOp51
 70
0
102
RTVSPost2010Prop52
140
1.0
102
RTVSPost2010PropOp52
 70
0
102
RTVSPost2010Prop53
 90
2
102
RTVSPost2010PropOp53
 70
1
102
RTVSPost2010Prop54
  1
strokes_ogs.tif
102
RTVSPost2010PropOp54
 70
1
102
RTVSPost2010Prop55
280
0
102
RTVSPost2010PropOp55
 70
1
102
RTVSPost2010Prop56
140
1.0
102
RTVSPost2010PropOp56
 70
1
102
RTVSPost2010Prop57
140
1.0
102
RTVSPost2010PropOp57
 70
1
102
RTVSPropertyOp0
 70
1
102
RTVSPropertyOp1
 70
1
102
RTVSPropertyOp2
 70
1
102
RTVSPropertyOp3
 70
1
102
RTVSPropertyOp4
 70
1
102
RTVSPropertyOp5
 70
1
102
RTVSPropertyOp6
 70
1
102
RTVSPropertyOp7
 70
1
102
RTVSPropertyOp8
 70
1
102
RTVSPropertyOp9
 70
1
102
RTVSPropertyOp10
 70
1
102
RTVSPropertyOp11
 70
1
102
RTVSPropertyOp12
 70
1
102
RTVSPropertyOp13
 70
1
102
RTVSPropertyOp14
 70
1
102
RTVSPropertyOp15
 70
1
102
RTVSPropertyOp16
 70
1
102
RTVSPropertyOp17
 70
1
102
RTVSPropertyOp18
 70
1
102
RTVSPropertyOp19
 70
1
102
RTVSPropertyOp20
 70
1
102
RTVSPropertyOp21
 70
1
102
RTVSPropertyOp22
 70
1
102
RTVSPropertyOp23
 70
1
102
RTVSPropertyOp24
 70
1
102
RTVSPropertyOp25
 70
1
102
RTVSPropertyOp26
 70
1
102
RTVSPropertyOp27
 70
1
102
RTVSPropertyOp28
 70
1
102
RTVSPropertyOp29
 70
1
102
RTVSPropertyOp30
 70
1
102
RTVSPropertyOp31
 70
1
102
RTVSPropertyOp32
 70
1
102
RTVSPropertyOp33
 70
1
102
RTVSPropertyOp34
 70
1
102
RTVSPropertyOp35
 70
1
102
RTVSPropertyOp36
 70
1
102
RTVSPropertyOp37
 70
1
102
RTVSPropertyOp38
 70
1
102
RTVSPropertyOp39
 70
1
102
RTVSPropertyOp40
 70
1
102
RTVSPropertyOp41
 70
1
102
RTVSPropertyOp42
 70
1
102
RTVSPropertyOp43
 70
1
102
RTVSPropertyOp44
 70
1
102
RTVSPropertyOp45
 70
1
102
RTVSPropertyOp46
 70
1
102
RTVSPropertyOp47
 70
1
102
RTVSPropertyOp48
 70
1
102
RTVSPropertyOp49
 70
1
102
RTVSPropertyOp50
 70
1
102
RTVSPropertyOp51
 70
0
102
RTVSPropertyOp52
 70
0
102
RTVSPropertyOp53
 70
1
102
RTVSPropertyOp54
 70
1
102
RTVSPropertyOp55
 70
1
102
RTVSPropertyOp56
 70
1
102
RTVSPropertyOp57
 70
1
102
RTVSPropertyOp58
 70
1
102
RTVSPropertyOp59
 70
1
102
RTVSPropertyOp60
 70
1
102
RTVSPropertyOp61
 70
1
102
RTVSPropertyOp62
 70
1
  0
XRECORD
  5
A6A
102
{ACAD_REACTORS
330
A69
102
}
330
A69
100
AcDbXrecord
280
1
102
RTVSPost2010Prop28
280
0
102
RTVSPost2010PropOp28
 70
1
102
RTVSPost2010Prop29
280
1
102
RTVSPost2010PropOp29
 70
1
102
RTVSPost2010Prop30
280
1
102
RTVSPost2010PropOp30
 70
1
102
RTVSPost2010Prop31
280
0
102
RTVSPost2010PropOp31
 70
1
102
RTVSPost2010Prop32
280
0
102
RTVSPost2010PropOp32
 70
1
102
RTVSPost2010Prop33
280
0
102
RTVSPost2010PropOp33
 70
1
102
RTVSPost2010Prop34
280
0
102
RTVSPost2010PropOp34
 70
1
102
RTVSPost2010Prop35
280
0
102
RTVSPost2010PropOp35
 70
1
102
RTVSPost2010Prop36
280
0
102
RTVSPost2010PropOp36
 70
1
102
RTVSPost2010Prop37
 90
50
102
RTVSPost2010PropOp37
 70
1
102
RTVSPost2010Prop38
140
0.0
102
RTVSPost2010PropOp38
 70
1
102
RTVSPost2010Prop39
140
1.0
102
RTVSPost2010PropOp39
 70
1
102
RTVSPost2010Prop40
 90
0
102
RTVSPost2010PropOp40
 70
1
102
RTVSPost2010Prop41ColorIndex
 90
18
102
RTVSPost2010Prop41ColorRGB
 90
0
102
RTVSPost2010PropOp41
 70
1
102
RTVSPost2010Prop42
 90
50
102
RTVSPost2010PropOp42
 70
1
102
RTVSPost2010Prop43
 90
3
102
RTVSPost2010PropOp43
 70
1
102
RTVSPost2010Prop44ColorIndex
 90
5
102
RTVSPost2010Prop44ColorRGB
 90
255
102
RTVSPost2010PropOp44
 70
1
102
RTVSPost2010Prop45
280
0
102
RTVSPost2010PropOp45
 70
1
102
RTVSPost2010Prop46
 90
50
102
RTVSPost2010PropOp46
 70
1
102
RTVSPost2010Prop47
 90
50
102
RTVSPost2010PropOp47
 70
1
102
RTVSPost2010Prop48
 90
50
102
RTVSPost2010PropOp48
 70
1
102
RTVSPost2010Prop49
280
0
102
RTVSPost2010PropOp49
 70
1
102
RTVSPost2010Prop50
 90
50
102
RTVSPost2010PropOp50
 70
1
102
RTVSPost2010Prop51ColorIndex
 90
256
102
RTVSPost2010Prop51ColorRGB
 90
-16777216
102
RTVSPost2010PropOp51
 70
0
102
RTVSPost2010Prop52
140
1.0
102
RTVSPost2010PropOp52
 70
0
102
RTVSPost2010Prop53
 90
2
102
RTVSPost2010PropOp53
 70
1
102
RTVSPost2010Prop54
  1
strokes_ogs.tif
102
RTVSPost2010PropOp54
 70
1
102
RTVSPost2010Prop55
280
0
102
RTVSPost2010PropOp55
 70
1
102
RTVSPost2010Prop56
140
1.0
102
RTVSPost2010PropOp56
 70
1
102
RTVSPost2010Prop57
140
1.0
102
RTVSPost2010PropOp57
 70
1
102
RTVSPropertyOp0
 70
1
102
RTVSPropertyOp1
 70
1
102
RTVSPropertyOp2
 70
1
102
RTVSPropertyOp3
 70
1
102
RTVSPropertyOp4
 70
1
102
RTVSPropertyOp5
 70
1
102
RTVSPropertyOp6
 70
1
102
RTVSPropertyOp7
 70
1
102
RTVSPropertyOp8
 70
1
102
RTVSPropertyOp9
 70
1
102
RTVSPropertyOp10
 70
1
102
RTVSPropertyOp11
 70
1
102
RTVSPropertyOp12
 70
1
102
RTVSPropertyOp13
 70
1
102
RTVSPropertyOp14
 70
1
102
RTVSPropertyOp15
 70
1
102
RTVSPropertyOp16
 70
1
102
RTVSPropertyOp17
 70
1
102
RTVSPropertyOp18
 70
1
102
RTVSPropertyOp19
 70
1
102
RTVSPropertyOp20
 70
1
102
RTVSPropertyOp21
 70
1
102
RTVSPropertyOp22
 70
1
102
RTVSPropertyOp23
 70
1
102
RTVSPropertyOp24
 70
1
102
RTVSPropertyOp25
 70
1
102
RTVSPropertyOp26
 70
1
102
RTVSPropertyOp27
 70
1
102
RTVSPropertyOp28
 70
1
102
RTVSPropertyOp29
 70
1
102
RTVSPropertyOp30
 70
1
102
RTVSPropertyOp31
 70
1
102
RTVSPropertyOp32
 70
1
102
RTVSPropertyOp33
 70
1
102
RTVSPropertyOp34
 70
1
102
RTVSPropertyOp35
 70
1
102
RTVSPropertyOp36
 70
1
102
RTVSPropertyOp37
 70
1
102
RTVSPropertyOp38
 70
1
102
RTVSPropertyOp39
 70
1
102
RTVSPropertyOp40
 70
1
102
RTVSPropertyOp41
 70
1
102
RTVSPropertyOp42
 70
1
102
RTVSPropertyOp43
 70
1
102
RTVSPropertyOp44
 70
1
102
RTVSPropertyOp45
 70
1
102
RTVSPropertyOp46
 70
1
102
RTVSPropertyOp47
 70
1
102
RTVSPropertyOp48
 70
1
102
RTVSPropertyOp49
 70
1
102
RTVSPropertyOp50
 70
1
102
RTVSPropertyOp51
 70
0
102
RTVSPropertyOp52
 70
0
102
RTVSPropertyOp53
 70
1
102
RTVSPropertyOp54
 70
1
102
RTVSPropertyOp55
 70
1
102
RTVSPropertyOp56
 70
1
102
RTVSPropertyOp57
 70
1
102
RTVSPropertyOp58
 70
1
102
RTVSPropertyOp59
 70
1
102
RTVSPropertyOp60
 70
1
102
RTVSPropertyOp61
 70
1
102
RTVSPropertyOp62
 70
1
  0
XRECORD
  5
A72
102
{ACAD_REACTORS
330
A71
102
}
330
A71
100
AcDbXrecord
280
1
102
RTVSPost2010Prop28
280
0
102
RTVSPost2010PropOp28
 70
1
102
RTVSPost2010Prop29
280
1
102
RTVSPost2010PropOp29
 70
1
102
RTVSPost2010Prop30
280
1
102
RTVSPost2010PropOp30
 70
1
102
RTVSPost2010Prop31
280
0
102
RTVSPost2010PropOp31
 70
1
102
RTVSPost2010Prop32
280
0
102
RTVSPost2010PropOp32
 70
1
102
RTVSPost2010Prop33
280
0
102
RTVSPost2010PropOp33
 70
1
102
RTVSPost2010Prop34
280
0
102
RTVSPost2010PropOp34
 70
1
102
RTVSPost2010Prop35
280
0
102
RTVSPost2010PropOp35
 70
1
102
RTVSPost2010Prop36
280
0
102
RTVSPost2010PropOp36
 70
1
102
RTVSPost2010Prop37
 90
50
102
RTVSPost2010PropOp37
 70
1
102
RTVSPost2010Prop38
140
0.0
102
RTVSPost2010PropOp38
 70
1
102
RTVSPost2010Prop39
140
1.0
102
RTVSPost2010PropOp39
 70
1
102
RTVSPost2010Prop40
 90
0
102
RTVSPost2010PropOp40
 70
1
102
RTVSPost2010Prop41ColorIndex
 90
18
102
RTVSPost2010Prop41ColorRGB
 90
0
102
RTVSPost2010PropOp41
 70
1
102
RTVSPost2010Prop42
 90
50
102
RTVSPost2010PropOp42
 70
1
102
RTVSPost2010Prop43
 90
3
102
RTVSPost2010PropOp43
 70
1
102
RTVSPost2010Prop44ColorIndex
 90
5
102
RTVSPost2010Prop44ColorRGB
 90
255
102
RTVSPost2010PropOp44
 70
1
102
RTVSPost2010Prop45
280
0
102
RTVSPost2010PropOp45
 70
1
102
RTVSPost2010Prop46
 90
50
102
RTVSPost2010PropOp46
 70
1
102
RTVSPost2010Prop47
 90
50
102
RTVSPost2010PropOp47
 70
1
102
RTVSPost2010Prop48
 90
50
102
RTVSPost2010PropOp48
 70
1
102
RTVSPost2010Prop49
280
0
102
RTVSPost2010PropOp49
 70
1
102
RTVSPost2010Prop50
 90
50
102
RTVSPost2010PropOp50
 70
1
102
RTVSPost2010Prop51ColorIndex
 90
256
102
RTVSPost2010Prop51ColorRGB
 90
-16777216
102
RTVSPost2010PropOp51
 70
0
102
RTVSPost2010Prop52
140
1.0
102
RTVSPost2010PropOp52
 70
0
102
RTVSPost2010Prop53
 90
2
102
RTVSPost2010PropOp53
 70
1
102
RTVSPost2010Prop54
  1
strokes_ogs.tif
102
RTVSPost2010PropOp54
 70
1
102
RTVSPost2010Prop55
280
0
102
RTVSPost2010PropOp55
 70
1
102
RTVSPost2010Prop56
140
1.0
102
RTVSPost2010PropOp56
 70
1
102
RTVSPost2010Prop57
140
1.0
102
RTVSPost2010PropOp57
 70
1
102
RTVSPropertyOp0
 70
1
102
RTVSPropertyOp1
 70
1
102
RTVSPropertyOp2
 70
1
102
RTVSPropertyOp3
 70
1
102
RTVSPropertyOp4
 70
1
102
RTVSPropertyOp5
 70
1
102
RTVSPropertyOp6
 70
1
102
RTVSPropertyOp7
 70
1
102
RTVSPropertyOp8
 70
1
102
RTVSPropertyOp9
 70
1
102
RTVSPropertyOp10
 70
1
102
RTVSPropertyOp11
 70
1
102
RTVSPropertyOp12
 70
1
102
RTVSPropertyOp13
 70
1
102
RTVSPropertyOp14
 70
1
102
RTVSPropertyOp15
 70
1
102
RTVSPropertyOp16
 70
1
102
RTVSPropertyOp17
 70
1
102
RTVSPropertyOp18
 70
1
102
RTVSPropertyOp19
 70
1
102
RTVSPropertyOp20
 70
1
102
RTVSPropertyOp21
 70
1
102
RTVSPropertyOp22
 70
1
102
RTVSPropertyOp23
 70
1
102
RTVSPropertyOp24
 70
1
102
RTVSPropertyOp25
 70
1
102
RTVSPropertyOp26
 70
1
102
RTVSPropertyOp27
 70
1
102
RTVSPropertyOp28
 70
1
102
RTVSPropertyOp29
 70
1
102
RTVSPropertyOp30
 70
1
102
RTVSPropertyOp31
 70
1
102
RTVSPropertyOp32
 70
1
102
RTVSPropertyOp33
 70
1
102
RTVSPropertyOp34
 70
1
102
RTVSPropertyOp35
 70
1
102
RTVSPropertyOp36
 70
1
102
RTVSPropertyOp37
 70
1
102
RTVSPropertyOp38
 70
1
102
RTVSPropertyOp39
 70
1
102
RTVSPropertyOp40
 70
1
102
RTVSPropertyOp41
 70
1
102
RTVSPropertyOp42
 70
1
102
RTVSPropertyOp43
 70
1
102
RTVSPropertyOp44
 70
1
102
RTVSPropertyOp45
 70
1
102
RTVSPropertyOp46
 70
1
102
RTVSPropertyOp47
 70
1
102
RTVSPropertyOp48
 70
1
102
RTVSPropertyOp49
 70
1
102
RTVSPropertyOp50
 70
1
102
RTVSPropertyOp51
 70
0
102
RTVSPropertyOp52
 70
0
102
RTVSPropertyOp53
 70
1
102
RTVSPropertyOp54
 70
1
102
RTVSPropertyOp55
 70
1
102
RTVSPropertyOp56
 70
1
102
RTVSPropertyOp57
 70
1
102
RTVSPropertyOp58
 70
1
102
RTVSPropertyOp59
 70
1
102
RTVSPropertyOp60
 70
1
102
RTVSPropertyOp61
 70
1
102
RTVSPropertyOp62
 70
1
  0
XRECORD
  5
A8E
102
{ACAD_REACTORS
330
A8D
102
}
330
A8D
100
AcDbXrecord
280
1
102
RTVSPost2010Prop28
280
0
102
RTVSPost2010PropOp28
 70
1
102
RTVSPost2010Prop29
280
1
102
RTVSPost2010PropOp29
 70
1
102
RTVSPost2010Prop30
280
1
102
RTVSPost2010PropOp30
 70
1
102
RTVSPost2010Prop31
280
0
102
RTVSPost2010PropOp31
 70
1
102
RTVSPost2010Prop32
280
0
102
RTVSPost2010PropOp32
 70
1
102
RTVSPost2010Prop33
280
0
102
RTVSPost2010PropOp33
 70
1
102
RTVSPost2010Prop34
280
0
102
RTVSPost2010PropOp34
 70
1
102
RTVSPost2010Prop35
280
0
102
RTVSPost2010PropOp35
 70
1
102
RTVSPost2010Prop36
280
0
102
RTVSPost2010PropOp36
 70
1
102
RTVSPost2010Prop37
 90
50
102
RTVSPost2010PropOp37
 70
0
102
RTVSPost2010Prop38
140
0.0
102
RTVSPost2010PropOp38
 70
0
102
RTVSPost2010Prop39
140
1.0
102
RTVSPost2010PropOp39
 70
0
102
RTVSPost2010Prop40
 90
0
102
RTVSPost2010PropOp40
 70
0
102
RTVSPost2010Prop41ColorIndex
 90
18
102
RTVSPost2010Prop41ColorRGB
 90
0
102
RTVSPost2010PropOp41
 70
0
102
RTVSPost2010Prop42
 90
50
102
RTVSPost2010PropOp42
 70
0
102
RTVSPost2010Prop43
 90
3
102
RTVSPost2010PropOp43
 70
0
102
RTVSPost2010Prop44ColorIndex
 90
5
102
RTVSPost2010Prop44ColorRGB
 90
255
102
RTVSPost2010PropOp44
 70
0
102
RTVSPost2010Prop45
280
0
102
RTVSPost2010PropOp45
 70
1
102
RTVSPost2010Prop46
 90
50
102
RTVSPost2010PropOp46
 70
0
102
RTVSPost2010Prop47
 90
50
102
RTVSPost2010PropOp47
 70
0
102
RTVSPost2010Prop48
 90
50
102
RTVSPost2010PropOp48
 70
0
102
RTVSPost2010Prop49
280
0
102
RTVSPost2010PropOp49
 70
1
102
RTVSPost2010Prop50
 90
50
102
RTVSPost2010PropOp50
 70
0
102
RTVSPost2010Prop51ColorIndex
 90
256
102
RTVSPost2010Prop51ColorRGB
 90
-16777216
102
RTVSPost2010PropOp51
 70
0
102
RTVSPost2010Prop52
140
1.0
102
RTVSPost2010PropOp52
 70
0
102
RTVSPost2010Prop53
 90
2
102
RTVSPost2010PropOp53
 70
0
102
RTVSPost2010Prop54
  1
strokes_ogs.tif
102
RTVSPost2010PropOp54
 70
0
102
RTVSPost2010Prop55
280
0
102
RTVSPost2010PropOp55
 70
1
102
RTVSPost2010Prop56
140
1.0
102
RTVSPost2010PropOp56
 70
0
102
RTVSPost2010Prop57
140
1.0
102
RTVSPost2010PropOp57
 70
0
102
RTVSPropertyOp0
 70
0
102
RTVSPropertyOp1
 70
0
102
RTVSPropertyOp2
 70
0
102
RTVSPropertyOp3
 70
0
102
RTVSPropertyOp4
 70
0
102
RTVSPropertyOp5
 70
0
102
RTVSPropertyOp6
 70
0
102
RTVSPropertyOp7
 70
0
102
RTVSPropertyOp8
 70
0
102
RTVSPropertyOp9
 70
0
102
RTVSPropertyOp10
 70
0
102
RTVSPropertyOp11
 70
0
102
RTVSPropertyOp12
 70
0
102
RTVSPropertyOp13
 70
0
102
RTVSPropertyOp14
 70
2
102
RTVSPropertyOp15
 70
0
102
RTVSPropertyOp16
 70
0
102
RTVSPropertyOp17
 70
0
102
RTVSPropertyOp18
 70
0
102
RTVSPropertyOp19
 70
0
102
RTVSPropertyOp20
 70
0
102
RTVSPropertyOp21
 70
0
102
RTVSPropertyOp22
 70
0
102
RTVSPropertyOp23
 70
0
102
RTVSPropertyOp24
 70
0
102
RTVSPropertyOp25
 70
0
102
RTVSPropertyOp26
 70
0
102
RTVSPropertyOp27
 70
0
102
RTVSPropertyOp28
 70
1
102
RTVSPropertyOp29
 70
1
102
RTVSPropertyOp30
 70
1
102
RTVSPropertyOp31
 70
1
102
RTVSPropertyOp32
 70
1
102
RTVSPropertyOp33
 70
1
102
RTVSPropertyOp34
 70
1
102
RTVSPropertyOp35
 70
1
102
RTVSPropertyOp36
 70
1
102
RTVSPropertyOp37
 70
0
102
RTVSPropertyOp38
 70
0
102
RTVSPropertyOp39
 70
0
102
RTVSPropertyOp40
 70
0
102
RTVSPropertyOp41
 70
0
102
RTVSPropertyOp42
 70
0
102
RTVSPropertyOp43
 70
0
102
RTVSPropertyOp44
 70
0
102
RTVSPropertyOp45
 70
1
102
RTVSPropertyOp46
 70
0
102
RTVSPropertyOp47
 70
0
102
RTVSPropertyOp48
 70
0
102
RTVSPropertyOp49
 70
1
102
RTVSPropertyOp50
 70
0
102
RTVSPropertyOp51
 70
0
102
RTVSPropertyOp52
 70
0
102
RTVSPropertyOp53
 70
0
102
RTVSPropertyOp54
 70
0
102
RTVSPropertyOp55
 70
1
102
RTVSPropertyOp56
 70
0
102
RTVSPropertyOp57
 70
0
102
RTVSPropertyOp58
 70
0
102
RTVSPropertyOp59
 70
0
102
RTVSPropertyOp60
 70
0
102
RTVSPropertyOp61
 70
0
102
RTVSPropertyOp62
 70
0
  0
XRECORD
  5
A7E
102
{ACAD_REACTORS
330
A7D
102
}
330
A7D
100
AcDbXrecord
280
1
102
RTVSPost2010Prop28
280
0
102
RTVSPost2010PropOp28
 70
1
102
RTVSPost2010Prop29
280
1
102
RTVSPost2010PropOp29
 70
1
102
RTVSPost2010Prop30
280
1
102
RTVSPost2010PropOp30
 70
1
102
RTVSPost2010Prop31
280
0
102
RTVSPost2010PropOp31
 70
1
102
RTVSPost2010Prop32
280
0
102
RTVSPost2010PropOp32
 70
1
102
RTVSPost2010Prop33
280
0
102
RTVSPost2010PropOp33
 70
1
102
RTVSPost2010Prop34
280
0
102
RTVSPost2010PropOp34
 70
1
102
RTVSPost2010Prop35
280
0
102
RTVSPost2010PropOp35
 70
1
102
RTVSPost2010Prop36
280
0
102
RTVSPost2010PropOp36
 70
1
102
RTVSPost2010Prop37
 90
50
102
RTVSPost2010PropOp37
 70
1
102
RTVSPost2010Prop38
140
0.0
102
RTVSPost2010PropOp38
 70
1
102
RTVSPost2010Prop39
140
1.0
102
RTVSPost2010PropOp39
 70
1
102
RTVSPost2010Prop40
 90
0
102
RTVSPost2010PropOp40
 70
1
102
RTVSPost2010Prop41ColorIndex
 90
18
102
RTVSPost2010Prop41ColorRGB
 90
0
102
RTVSPost2010PropOp41
 70
1
102
RTVSPost2010Prop42
 90
50
102
RTVSPost2010PropOp42
 70
1
102
RTVSPost2010Prop43
 90
3
102
RTVSPost2010PropOp43
 70
1
102
RTVSPost2010Prop44ColorIndex
 90
5
102
RTVSPost2010Prop44ColorRGB
 90
255
102
RTVSPost2010PropOp44
 70
1
102
RTVSPost2010Prop45
280
0
102
RTVSPost2010PropOp45
 70
1
102
RTVSPost2010Prop46
 90
50
102
RTVSPost2010PropOp46
 70
1
102
RTVSPost2010Prop47
 90
50
102
RTVSPost2010PropOp47
 70
1
102
RTVSPost2010Prop48
 90
50
102
RTVSPost2010PropOp48
 70
1
102
RTVSPost2010Prop49
280
0
102
RTVSPost2010PropOp49
 70
1
102
RTVSPost2010Prop50
 90
50
102
RTVSPost2010PropOp50
 70
1
102
RTVSPost2010Prop51ColorIndex
 90
256
102
RTVSPost2010Prop51ColorRGB
 90
-16777216
102
RTVSPost2010PropOp51
 70
0
102
RTVSPost2010Prop52
140
1.0
102
RTVSPost2010PropOp52
 70
0
102
RTVSPost2010Prop53
 90
2
102
RTVSPost2010PropOp53
 70
1
102
RTVSPost2010Prop54
  1
strokes_ogs.tif
102
RTVSPost2010PropOp54
 70
1
102
RTVSPost2010Prop55
280
0
102
RTVSPost2010PropOp55
 70
1
102
RTVSPost2010Prop56
140
1.0
102
RTVSPost2010PropOp56
 70
1
102
RTVSPost2010Prop57
140
1.0
102
RTVSPost2010PropOp57
 70
1
102
RTVSPropertyOp0
 70
1
102
RTVSPropertyOp1
 70
1
102
RTVSPropertyOp2
 70
1
102
RTVSPropertyOp3
 70
1
102
RTVSPropertyOp4
 70
1
102
RTVSPropertyOp5
 70
1
102
RTVSPropertyOp6
 70
1
102
RTVSPropertyOp7
 70
1
102
RTVSPropertyOp8
 70
1
102
RTVSPropertyOp9
 70
1
102
RTVSPropertyOp10
 70
1
102
RTVSPropertyOp11
 70
1
102
RTVSPropertyOp12
 70
1
102
RTVSPropertyOp13
 70
1
102
RTVSPropertyOp14
 70
1
102
RTVSPropertyOp15
 70
1
102
RTVSPropertyOp16
 70
1
102
RTVSPropertyOp17
 70
1
102
RTVSPropertyOp18
 70
1
102
RTVSPropertyOp19
 70
1
102
RTVSPropertyOp20
 70
1
102
RTVSPropertyOp21
 70
1
102
RTVSPropertyOp22
 70
1
102
RTVSPropertyOp23
 70
1
102
RTVSPropertyOp24
 70
1
102
RTVSPropertyOp25
 70
1
102
RTVSPropertyOp26
 70
1
102
RTVSPropertyOp27
 70
1
102
RTVSPropertyOp28
 70
1
102
RTVSPropertyOp29
 70
1
102
RTVSPropertyOp30
 70
1
102
RTVSPropertyOp31
 70
1
102
RTVSPropertyOp32
 70
1
102
RTVSPropertyOp33
 70
1
102
RTVSPropertyOp34
 70
1
102
RTVSPropertyOp35
 70
1
102
RTVSPropertyOp36
 70
1
102
RTVSPropertyOp37
 70
1
102
RTVSPropertyOp38
 70
1
102
RTVSPropertyOp39
 70
1
102
RTVSPropertyOp40
 70
1
102
RTVSPropertyOp41
 70
1
102
RTVSPropertyOp42
 70
1
102
RTVSPropertyOp43
 70
1
102
RTVSPropertyOp44
 70
1
102
RTVSPropertyOp45
 70
1
102
RTVSPropertyOp46
 70
1
102
RTVSPropertyOp47
 70
1
102
RTVSPropertyOp48
 70
1
102
RTVSPropertyOp49
 70
1
102
RTVSPropertyOp50
 70
1
102
RTVSPropertyOp51
 70
0
102
RTVSPropertyOp52
 70
0
102
RTVSPropertyOp53
 70
1
102
RTVSPropertyOp54
 70
1
102
RTVSPropertyOp55
 70
1
102
RTVSPropertyOp56
 70
1
102
RTVSPropertyOp57
 70
1
102
RTVSPropertyOp58
 70
1
102
RTVSPropertyOp59
 70
1
102
RTVSPropertyOp60
 70
1
102
RTVSPropertyOp61
 70
1
102
RTVSPropertyOp62
 70
1
  0
XRECORD
  5
A90
102
{ACAD_REACTORS
330
A8F
102
}
330
A8F
100
AcDbXrecord
280
1
102
RTVSPost2010Prop28
280
0
102
RTVSPost2010PropOp28
 70
1
102
RTVSPost2010Prop29
280
1
102
RTVSPost2010PropOp29
 70
1
102
RTVSPost2010Prop30
280
1
102
RTVSPost2010PropOp30
 70
1
102
RTVSPost2010Prop31
280
0
102
RTVSPost2010PropOp31
 70
1
102
RTVSPost2010Prop32
280
0
102
RTVSPost2010PropOp32
 70
1
102
RTVSPost2010Prop33
280
0
102
RTVSPost2010PropOp33
 70
1
102
RTVSPost2010Prop34
280
0
102
RTVSPost2010PropOp34
 70
1
102
RTVSPost2010Prop35
280
0
102
RTVSPost2010PropOp35
 70
1
102
RTVSPost2010Prop36
280
0
102
RTVSPost2010PropOp36
 70
1
102
RTVSPost2010Prop37
 90
50
102
RTVSPost2010PropOp37
 70
0
102
RTVSPost2010Prop38
140
0.0
102
RTVSPost2010PropOp38
 70
0
102
RTVSPost2010Prop39
140
1.0
102
RTVSPost2010PropOp39
 70
0
102
RTVSPost2010Prop40
 90
0
102
RTVSPost2010PropOp40
 70
0
102
RTVSPost2010Prop41ColorIndex
 90
18
102
RTVSPost2010Prop41ColorRGB
 90
0
102
RTVSPost2010PropOp41
 70
0
102
RTVSPost2010Prop42
 90
50
102
RTVSPost2010PropOp42
 70
0
102
RTVSPost2010Prop43
 90
3
102
RTVSPost2010PropOp43
 70
0
102
RTVSPost2010Prop44ColorIndex
 90
5
102
RTVSPost2010Prop44ColorRGB
 90
255
102
RTVSPost2010PropOp44
 70
0
102
RTVSPost2010Prop45
280
0
102
RTVSPost2010PropOp45
 70
1
102
RTVSPost2010Prop46
 90
50
102
RTVSPost2010PropOp46
 70
0
102
RTVSPost2010Prop47
 90
50
102
RTVSPost2010PropOp47
 70
0
102
RTVSPost2010Prop48
 90
50
102
RTVSPost2010PropOp48
 70
0
102
RTVSPost2010Prop49
280
0
102
RTVSPost2010PropOp49
 70
1
102
RTVSPost2010Prop50
 90
50
102
RTVSPost2010PropOp50
 70
0
102
RTVSPost2010Prop51ColorIndex
 90
256
102
RTVSPost2010Prop51ColorRGB
 90
-16777216
102
RTVSPost2010PropOp51
 70
0
102
RTVSPost2010Prop52
140
1.0
102
RTVSPost2010PropOp52
 70
0
102
RTVSPost2010Prop53
 90
2
102
RTVSPost2010PropOp53
 70
0
102
RTVSPost2010Prop54
  1
strokes_ogs.tif
102
RTVSPost2010PropOp54
 70
0
102
RTVSPost2010Prop55
280
0
102
RTVSPost2010PropOp55
 70
1
102
RTVSPost2010Prop56
140
1.0
102
RTVSPost2010PropOp56
 70
0
102
RTVSPost2010Prop57
140
1.0
102
RTVSPost2010PropOp57
 70
0
102
RTVSPropertyOp0
 70
0
102
RTVSPropertyOp1
 70
0
102
RTVSPropertyOp2
 70
0
102
RTVSPropertyOp3
 70
0
102
RTVSPropertyOp4
 70
0
102
RTVSPropertyOp5
 70
0
102
RTVSPropertyOp6
 70
0
102
RTVSPropertyOp7
 70
0
102
RTVSPropertyOp8
 70
0
102
RTVSPropertyOp9
 70
0
102
RTVSPropertyOp10
 70
0
102
RTVSPropertyOp11
 70
0
102
RTVSPropertyOp12
 70
0
102
RTVSPropertyOp13
 70
0
102
RTVSPropertyOp14
 70
2
102
RTVSPropertyOp15
 70
0
102
RTVSPropertyOp16
 70
0
102
RTVSPropertyOp17
 70
0
102
RTVSPropertyOp18
 70
0
102
RTVSPropertyOp19
 70
0
102
RTVSPropertyOp20
 70
0
102
RTVSPropertyOp21
 70
0
102
RTVSPropertyOp22
 70
0
102
RTVSPropertyOp23
 70
0
102
RTVSPropertyOp24
 70
0
102
RTVSPropertyOp25
 70
0
102
RTVSPropertyOp26
 70
0
102
RTVSPropertyOp27
 70
0
102
RTVSPropertyOp28
 70
1
102
RTVSPropertyOp29
 70
1
102
RTVSPropertyOp30
 70
1
102
RTVSPropertyOp31
 70
1
102
RTVSPropertyOp32
 70
1
102
RTVSPropertyOp33
 70
1
102
RTVSPropertyOp34
 70
1
102
RTVSPropertyOp35
 70
1
102
RTVSPropertyOp36
 70
1
102
RTVSPropertyOp37
 70
0
102
RTVSPropertyOp38
 70
0
102
RTVSPropertyOp39
 70
0
102
RTVSPropertyOp40
 70
0
102
RTVSPropertyOp41
 70
0
102
RTVSPropertyOp42
 70
0
102
RTVSPropertyOp43
 70
0
102
RTVSPropertyOp44
 70
0
102
RTVSPropertyOp45
 70
1
102
RTVSPropertyOp46
 70
0
102
RTVSPropertyOp47
 70
0
102
RTVSPropertyOp48
 70
0
102
RTVSPropertyOp49
 70
1
102
RTVSPropertyOp50
 70
0
102
RTVSPropertyOp51
 70
0
102
RTVSPropertyOp52
 70
0
102
RTVSPropertyOp53
 70
0
102
RTVSPropertyOp54
 70
0
102
RTVSPropertyOp55
 70
1
102
RTVSPropertyOp56
 70
0
102
RTVSPropertyOp57
 70
0
102
RTVSPropertyOp58
 70
0
102
RTVSPropertyOp59
 70
0
102
RTVSPropertyOp60
 70
0
102
RTVSPropertyOp61
 70
0
102
RTVSPropertyOp62
 70
0
  0
XRECORD
  5
A76
102
{ACAD_REACTORS
330
A75
102
}
330
A75
100
AcDbXrecord
280
1
102
RTVSPost2010Prop28
280
0
102
RTVSPost2010PropOp28
 70
1
102
RTVSPost2010Prop29
280
1
102
RTVSPost2010PropOp29
 70
1
102
RTVSPost2010Prop30
280
1
102
RTVSPost2010PropOp30
 70
1
102
RTVSPost2010Prop31
280
0
102
RTVSPost2010PropOp31
 70
1
102
RTVSPost2010Prop32
280
0
102
RTVSPost2010PropOp32
 70
1
102
RTVSPost2010Prop33
280
0
102
RTVSPost2010PropOp33
 70
1
102
RTVSPost2010Prop34
280
0
102
RTVSPost2010PropOp34
 70
1
102
RTVSPost2010Prop35
280
0
102
RTVSPost2010PropOp35
 70
1
102
RTVSPost2010Prop36
280
0
102
RTVSPost2010PropOp36
 70
1
102
RTVSPost2010Prop37
 90
50
102
RTVSPost2010PropOp37
 70
1
102
RTVSPost2010Prop38
140
0.0
102
RTVSPost2010PropOp38
 70
1
102
RTVSPost2010Prop39
140
1.0
102
RTVSPost2010PropOp39
 70
1
102
RTVSPost2010Prop40
 90
0
102
RTVSPost2010PropOp40
 70
1
102
RTVSPost2010Prop41ColorIndex
 90
18
102
RTVSPost2010Prop41ColorRGB
 90
0
102
RTVSPost2010PropOp41
 70
1
102
RTVSPost2010Prop42
 90
50
102
RTVSPost2010PropOp42
 70
1
102
RTVSPost2010Prop43
 90
3
102
RTVSPost2010PropOp43
 70
1
102
RTVSPost2010Prop44ColorIndex
 90
5
102
RTVSPost2010Prop44ColorRGB
 90
255
102
RTVSPost2010PropOp44
 70
1
102
RTVSPost2010Prop45
280
0
102
RTVSPost2010PropOp45
 70
1
102
RTVSPost2010Prop46
 90
50
102
RTVSPost2010PropOp46
 70
1
102
RTVSPost2010Prop47
 90
50
102
RTVSPost2010PropOp47
 70
1
102
RTVSPost2010Prop48
 90
50
102
RTVSPost2010PropOp48
 70
1
102
RTVSPost2010Prop49
280
0
102
RTVSPost2010PropOp49
 70
1
102
RTVSPost2010Prop50
 90
50
102
RTVSPost2010PropOp50
 70
1
102
RTVSPost2010Prop51ColorIndex
 90
256
102
RTVSPost2010Prop51ColorRGB
 90
-16777216
102
RTVSPost2010PropOp51
 70
0
102
RTVSPost2010Prop52
140
1.0
102
RTVSPost2010PropOp52
 70
0
102
RTVSPost2010Prop53
 90
2
102
RTVSPost2010PropOp53
 70
1
102
RTVSPost2010Prop54
  1
strokes_ogs.tif
102
RTVSPost2010PropOp54
 70
1
102
RTVSPost2010Prop55
280
0
102
RTVSPost2010PropOp55
 70
1
102
RTVSPost2010Prop56
140
1.0
102
RTVSPost2010PropOp56
 70
1
102
RTVSPost2010Prop57
140
1.0
102
RTVSPost2010PropOp57
 70
1
102
RTVSPropertyOp0
 70
1
102
RTVSPropertyOp1
 70
1
102
RTVSPropertyOp2
 70
1
102
RTVSPropertyOp3
 70
1
102
RTVSPropertyOp4
 70
1
102
RTVSPropertyOp5
 70
1
102
RTVSPropertyOp6
 70
1
102
RTVSPropertyOp7
 70
1
102
RTVSPropertyOp8
 70
1
102
RTVSPropertyOp9
 70
1
102
RTVSPropertyOp10
 70
1
102
RTVSPropertyOp11
 70
1
102
RTVSPropertyOp12
 70
1
102
RTVSPropertyOp13
 70
1
102
RTVSPropertyOp14
 70
1
102
RTVSPropertyOp15
 70
1
102
RTVSPropertyOp16
 70
1
102
RTVSPropertyOp17
 70
1
102
RTVSPropertyOp18
 70
1
102
RTVSPropertyOp19
 70
1
102
RTVSPropertyOp20
 70
1
102
RTVSPropertyOp21
 70
1
102
RTVSPropertyOp22
 70
1
102
RTVSPropertyOp23
 70
1
102
RTVSPropertyOp24
 70
1
102
RTVSPropertyOp25
 70
1
102
RTVSPropertyOp26
 70
1
102
RTVSPropertyOp27
 70
1
102
RTVSPropertyOp28
 70
1
102
RTVSPropertyOp29
 70
1
102
RTVSPropertyOp30
 70
1
102
RTVSPropertyOp31
 70
1
102
RTVSPropertyOp32
 70
1
102
RTVSPropertyOp33
 70
1
102
RTVSPropertyOp34
 70
1
102
RTVSPropertyOp35
 70
1
102
RTVSPropertyOp36
 70
1
102
RTVSPropertyOp37
 70
1
102
RTVSPropertyOp38
 70
1
102
RTVSPropertyOp39
 70
1
102
RTVSPropertyOp40
 70
1
102
RTVSPropertyOp41
 70
1
102
RTVSPropertyOp42
 70
1
102
RTVSPropertyOp43
 70
1
102
RTVSPropertyOp44
 70
1
102
RTVSPropertyOp45
 70
1
102
RTVSPropertyOp46
 70
1
102
RTVSPropertyOp47
 70
1
102
RTVSPropertyOp48
 70
1
102
RTVSPropertyOp49
 70
1
102
RTVSPropertyOp50
 70
1
102
RTVSPropertyOp51
 70
0
102
RTVSPropertyOp52
 70
0
102
RTVSPropertyOp53
 70
1
102
RTVSPropertyOp54
 70
1
102
RTVSPropertyOp55
 70
1
102
RTVSPropertyOp56
 70
1
102
RTVSPropertyOp57
 70
1
102
RTVSPropertyOp58
 70
1
102
RTVSPropertyOp59
 70
1
102
RTVSPropertyOp60
 70
1
102
RTVSPropertyOp61
 70
1
102
RTVSPropertyOp62
 70
1
  0
XRECORD
  5
A8C
102
{ACAD_REACTORS
330
A8B
102
}
330
A8B
100
AcDbXrecord
280
1
102
RTVSPost2010Prop28
280
0
102
RTVSPost2010PropOp28
 70
1
102
RTVSPost2010Prop29
280
1
102
RTVSPost2010PropOp29
 70
1
102
RTVSPost2010Prop30
280
1
102
RTVSPost2010PropOp30
 70
1
102
RTVSPost2010Prop31
280
0
102
RTVSPost2010PropOp31
 70
1
102
RTVSPost2010Prop32
280
0
102
RTVSPost2010PropOp32
 70
1
102
RTVSPost2010Prop33
280
0
102
RTVSPost2010PropOp33
 70
1
102
RTVSPost2010Prop34
280
0
102
RTVSPost2010PropOp34
 70
1
102
RTVSPost2010Prop35
280
0
102
RTVSPost2010PropOp35
 70
1
102
RTVSPost2010Prop36
280
0
102
RTVSPost2010PropOp36
 70
1
102
RTVSPost2010Prop37
 90
50
102
RTVSPost2010PropOp37
 70
1
102
RTVSPost2010Prop38
140
0.0
102
RTVSPost2010PropOp38
 70
1
102
RTVSPost2010Prop39
140
1.0
102
RTVSPost2010PropOp39
 70
1
102
RTVSPost2010Prop40
 90
0
102
RTVSPost2010PropOp40
 70
1
102
RTVSPost2010Prop41ColorIndex
 90
18
102
RTVSPost2010Prop41ColorRGB
 90
0
102
RTVSPost2010PropOp41
 70
1
102
RTVSPost2010Prop42
 90
50
102
RTVSPost2010PropOp42
 70
1
102
RTVSPost2010Prop43
 90
3
102
RTVSPost2010PropOp43
 70
1
102
RTVSPost2010Prop44ColorIndex
 90
5
102
RTVSPost2010Prop44ColorRGB
 90
255
102
RTVSPost2010PropOp44
 70
1
102
RTVSPost2010Prop45
280
0
102
RTVSPost2010PropOp45
 70
1
102
RTVSPost2010Prop46
 90
50
102
RTVSPost2010PropOp46
 70
1
102
RTVSPost2010Prop47
 90
50
102
RTVSPost2010PropOp47
 70
1
102
RTVSPost2010Prop48
 90
50
102
RTVSPost2010PropOp48
 70
1
102
RTVSPost2010Prop49
280
0
102
RTVSPost2010PropOp49
 70
1
102
RTVSPost2010Prop50
 90
50
102
RTVSPost2010PropOp50
 70
1
102
RTVSPost2010Prop51ColorIndex
 90
256
102
RTVSPost2010Prop51ColorRGB
 90
-16777216
102
RTVSPost2010PropOp51
 70
0
102
RTVSPost2010Prop52
140
1.0
102
RTVSPost2010PropOp52
 70
0
102
RTVSPost2010Prop53
 90
2
102
RTVSPost2010PropOp53
 70
1
102
RTVSPost2010Prop54
  1
strokes_ogs.tif
102
RTVSPost2010PropOp54
 70
1
102
RTVSPost2010Prop55
280
0
102
RTVSPost2010PropOp55
 70
1
102
RTVSPost2010Prop56
140
1.0
102
RTVSPost2010PropOp56
 70
1
102
RTVSPost2010Prop57
140
1.0
102
RTVSPost2010PropOp57
 70
1
102
RTVSPropertyOp0
 70
1
102
RTVSPropertyOp1
 70
1
102
RTVSPropertyOp2
 70
1
102
RTVSPropertyOp3
 70
1
102
RTVSPropertyOp4
 70
1
102
RTVSPropertyOp5
 70
1
102
RTVSPropertyOp6
 70
1
102
RTVSPropertyOp7
 70
1
102
RTVSPropertyOp8
 70
1
102
RTVSPropertyOp9
 70
1
102
RTVSPropertyOp10
 70
1
102
RTVSPropertyOp11
 70
1
102
RTVSPropertyOp12
 70
1
102
RTVSPropertyOp13
 70
1
102
RTVSPropertyOp14
 70
1
102
RTVSPropertyOp15
 70
1
102
RTVSPropertyOp16
 70
1
102
RTVSPropertyOp17
 70
1
102
RTVSPropertyOp18
 70
1
102
RTVSPropertyOp19
 70
1
102
RTVSPropertyOp20
 70
1
102
RTVSPropertyOp21
 70
1
102
RTVSPropertyOp22
 70
1
102
RTVSPropertyOp23
 70
1
102
RTVSPropertyOp24
 70
1
102
RTVSPropertyOp25
 70
1
102
RTVSPropertyOp26
 70
1
102
RTVSPropertyOp27
 70
1
102
RTVSPropertyOp28
 70
1
102
RTVSPropertyOp29
 70
1
102
RTVSPropertyOp30
 70
1
102
RTVSPropertyOp31
 70
1
102
RTVSPropertyOp32
 70
1
102
RTVSPropertyOp33
 70
1
102
RTVSPropertyOp34
 70
1
102
RTVSPropertyOp35
 70
1
102
RTVSPropertyOp36
 70
1
102
RTVSPropertyOp37
 70
1
102
RTVSPropertyOp38
 70
1
102
RTVSPropertyOp39
 70
1
102
RTVSPropertyOp40
 70
1
102
RTVSPropertyOp41
 70
1
102
RTVSPropertyOp42
 70
1
102
RTVSPropertyOp43
 70
1
102
RTVSPropertyOp44
 70
1
102
RTVSPropertyOp45
 70
1
102
RTVSPropertyOp46
 70
1
102
RTVSPropertyOp47
 70
1
102
RTVSPropertyOp48
 70
1
102
RTVSPropertyOp49
 70
1
102
RTVSPropertyOp50
 70
1
102
RTVSPropertyOp51
 70
0
102
RTVSPropertyOp52
 70
0
102
RTVSPropertyOp53
 70
1
102
RTVSPropertyOp54
 70
1
102
RTVSPropertyOp55
 70
1
102
RTVSPropertyOp56
 70
1
102
RTVSPropertyOp57
 70
1
102
RTVSPropertyOp58
 70
1
102
RTVSPropertyOp59
 70
1
102
RTVSPropertyOp60
 70
1
102
RTVSPropertyOp61
 70
1
102
RTVSPropertyOp62
 70
1
  0
XRECORD
  5
A8A
102
{ACAD_REACTORS
330
A89
102
}
330
A89
100
AcDbXrecord
280
1
102
RTVSPost2010Prop28
280
0
102
RTVSPost2010PropOp28
 70
1
102
RTVSPost2010Prop29
280
1
102
RTVSPost2010PropOp29
 70
1
102
RTVSPost2010Prop30
280
1
102
RTVSPost2010PropOp30
 70
1
102
RTVSPost2010Prop31
280
0
102
RTVSPost2010PropOp31
 70
1
102
RTVSPost2010Prop32
280
0
102
RTVSPost2010PropOp32
 70
1
102
RTVSPost2010Prop33
280
0
102
RTVSPost2010PropOp33
 70
1
102
RTVSPost2010Prop34
280
0
102
RTVSPost2010PropOp34
 70
1
102
RTVSPost2010Prop35
280
0
102
RTVSPost2010PropOp35
 70
1
102
RTVSPost2010Prop36
280
0
102
RTVSPost2010PropOp36
 70
1
102
RTVSPost2010Prop37
 90
50
102
RTVSPost2010PropOp37
 70
1
102
RTVSPost2010Prop38
140
0.0
102
RTVSPost2010PropOp38
 70
1
102
RTVSPost2010Prop39
140
1.0
102
RTVSPost2010PropOp39
 70
1
102
RTVSPost2010Prop40
 90
0
102
RTVSPost2010PropOp40
 70
1
102
RTVSPost2010Prop41ColorIndex
 90
18
102
RTVSPost2010Prop41ColorRGB
 90
0
102
RTVSPost2010PropOp41
 70
1
102
RTVSPost2010Prop42
 90
50
102
RTVSPost2010PropOp42
 70
1
102
RTVSPost2010Prop43
 90
3
102
RTVSPost2010PropOp43
 70
1
102
RTVSPost2010Prop44ColorIndex
 90
5
102
RTVSPost2010Prop44ColorRGB
 90
255
102
RTVSPost2010PropOp44
 70
1
102
RTVSPost2010Prop45
280
0
102
RTVSPost2010PropOp45
 70
1
102
RTVSPost2010Prop46
 90
50
102
RTVSPost2010PropOp46
 70
1
102
RTVSPost2010Prop47
 90
50
102
RTVSPost2010PropOp47
 70
1
102
RTVSPost2010Prop48
 90
50
102
RTVSPost2010PropOp48
 70
1
102
RTVSPost2010Prop49
280
0
102
RTVSPost2010PropOp49
 70
1
102
RTVSPost2010Prop50
 90
50
102
RTVSPost2010PropOp50
 70
1
102
RTVSPost2010Prop51ColorIndex
 90
256
102
RTVSPost2010Prop51ColorRGB
 90
-16777216
102
RTVSPost2010PropOp51
 70
0
102
RTVSPost2010Prop52
140
1.0
102
RTVSPost2010PropOp52
 70
0
102
RTVSPost2010Prop53
 90
2
102
RTVSPost2010PropOp53
 70
1
102
RTVSPost2010Prop54
  1
strokes_ogs.tif
102
RTVSPost2010PropOp54
 70
1
102
RTVSPost2010Prop55
280
0
102
RTVSPost2010PropOp55
 70
1
102
RTVSPost2010Prop56
140
1.0
102
RTVSPost2010PropOp56
 70
1
102
RTVSPost2010Prop57
140
1.0
102
RTVSPost2010PropOp57
 70
1
102
RTVSPropertyOp0
 70
1
102
RTVSPropertyOp1
 70
1
102
RTVSPropertyOp2
 70
1
102
RTVSPropertyOp3
 70
1
102
RTVSPropertyOp4
 70
1
102
RTVSPropertyOp5
 70
1
102
RTVSPropertyOp6
 70
1
102
RTVSPropertyOp7
 70
1
102
RTVSPropertyOp8
 70
1
102
RTVSPropertyOp9
 70
1
102
RTVSPropertyOp10
 70
1
102
RTVSPropertyOp11
 70
1
102
RTVSPropertyOp12
 70
1
102
RTVSPropertyOp13
 70
1
102
RTVSPropertyOp14
 70
1
102
RTVSPropertyOp15
 70
1
102
RTVSPropertyOp16
 70
1
102
RTVSPropertyOp17
 70
1
102
RTVSPropertyOp18
 70
1
102
RTVSPropertyOp19
 70
1
102
RTVSPropertyOp20
 70
1
102
RTVSPropertyOp21
 70
1
102
RTVSPropertyOp22
 70
1
102
RTVSPropertyOp23
 70
1
102
RTVSPropertyOp24
 70
1
102
RTVSPropertyOp25
 70
1
102
RTVSPropertyOp26
 70
1
102
RTVSPropertyOp27
 70
1
102
RTVSPropertyOp28
 70
1
102
RTVSPropertyOp29
 70
1
102
RTVSPropertyOp30
 70
1
102
RTVSPropertyOp31
 70
1
102
RTVSPropertyOp32
 70
1
102
RTVSPropertyOp33
 70
1
102
RTVSPropertyOp34
 70
1
102
RTVSPropertyOp35
 70
1
102
RTVSPropertyOp36
 70
1
102
RTVSPropertyOp37
 70
1
102
RTVSPropertyOp38
 70
1
102
RTVSPropertyOp39
 70
1
102
RTVSPropertyOp40
 70
1
102
RTVSPropertyOp41
 70
1
102
RTVSPropertyOp42
 70
1
102
RTVSPropertyOp43
 70
1
102
RTVSPropertyOp44
 70
1
102
RTVSPropertyOp45
 70
1
102
RTVSPropertyOp46
 70
1
102
RTVSPropertyOp47
 70
1
102
RTVSPropertyOp48
 70
1
102
RTVSPropertyOp49
 70
1
102
RTVSPropertyOp50
 70
1
102
RTVSPropertyOp51
 70
0
102
RTVSPropertyOp52
 70
0
102
RTVSPropertyOp53
 70
1
102
RTVSPropertyOp54
 70
1
102
RTVSPropertyOp55
 70
1
102
RTVSPropertyOp56
 70
1
102
RTVSPropertyOp57
 70
1
102
RTVSPropertyOp58
 70
1
102
RTVSPropertyOp59
 70
1
102
RTVSPropertyOp60
 70
1
102
RTVSPropertyOp61
 70
1
102
RTVSPropertyOp62
 70
1
  0
XRECORD
  5
A84
102
{ACAD_REACTORS
330
A83
102
}
330
A83
100
AcDbXrecord
280
1
102
RTVSPost2010Prop28
280
0
102
RTVSPost2010PropOp28
 70
1
102
RTVSPost2010Prop29
280
1
102
RTVSPost2010PropOp29
 70
1
102
RTVSPost2010Prop30
280
1
102
RTVSPost2010PropOp30
 70
1
102
RTVSPost2010Prop31
280
0
102
RTVSPost2010PropOp31
 70
1
102
RTVSPost2010Prop32
280
0
102
RTVSPost2010PropOp32
 70
1
102
RTVSPost2010Prop33
280
0
102
RTVSPost2010PropOp33
 70
1
102
RTVSPost2010Prop34
280
0
102
RTVSPost2010PropOp34
 70
1
102
RTVSPost2010Prop35
280
0
102
RTVSPost2010PropOp35
 70
1
102
RTVSPost2010Prop36
280
0
102
RTVSPost2010PropOp36
 70
1
102
RTVSPost2010Prop37
 90
50
102
RTVSPost2010PropOp37
 70
1
102
RTVSPost2010Prop38
140
0.0
102
RTVSPost2010PropOp38
 70
1
102
RTVSPost2010Prop39
140
1.0
102
RTVSPost2010PropOp39
 70
1
102
RTVSPost2010Prop40
 90
0
102
RTVSPost2010PropOp40
 70
1
102
RTVSPost2010Prop41ColorIndex
 90
18
102
RTVSPost2010Prop41ColorRGB
 90
0
102
RTVSPost2010PropOp41
 70
1
102
RTVSPost2010Prop42
 90
50
102
RTVSPost2010PropOp42
 70
1
102
RTVSPost2010Prop43
 90
3
102
RTVSPost2010PropOp43
 70
1
102
RTVSPost2010Prop44ColorIndex
 90
5
102
RTVSPost2010Prop44ColorRGB
 90
255
102
RTVSPost2010PropOp44
 70
1
102
RTVSPost2010Prop45
280
0
102
RTVSPost2010PropOp45
 70
1
102
RTVSPost2010Prop46
 90
50
102
RTVSPost2010PropOp46
 70
1
102
RTVSPost2010Prop47
 90
50
102
RTVSPost2010PropOp47
 70
1
102
RTVSPost2010Prop48
 90
50
102
RTVSPost2010PropOp48
 70
1
102
RTVSPost2010Prop49
280
0
102
RTVSPost2010PropOp49
 70
1
102
RTVSPost2010Prop50
 90
50
102
RTVSPost2010PropOp50
 70
1
102
RTVSPost2010Prop51ColorIndex
 90
256
102
RTVSPost2010Prop51ColorRGB
 90
-16777216
102
RTVSPost2010PropOp51
 70
0
102
RTVSPost2010Prop52
140
1.0
102
RTVSPost2010PropOp52
 70
0
102
RTVSPost2010Prop53
 90
2
102
RTVSPost2010PropOp53
 70
1
102
RTVSPost2010Prop54
  1
strokes_ogs.tif
102
RTVSPost2010PropOp54
 70
1
102
RTVSPost2010Prop55
280
0
102
RTVSPost2010PropOp55
 70
1
102
RTVSPost2010Prop56
140
1.0
102
RTVSPost2010PropOp56
 70
1
102
RTVSPost2010Prop57
140
1.0
102
RTVSPost2010PropOp57
 70
1
102
RTVSPropertyOp0
 70
1
102
RTVSPropertyOp1
 70
1
102
RTVSPropertyOp2
 70
1
102
RTVSPropertyOp3
 70
1
102
RTVSPropertyOp4
 70
1
102
RTVSPropertyOp5
 70
1
102
RTVSPropertyOp6
 70
1
102
RTVSPropertyOp7
 70
1
102
RTVSPropertyOp8
 70
1
102
RTVSPropertyOp9
 70
1
102
RTVSPropertyOp10
 70
1
102
RTVSPropertyOp11
 70
1
102
RTVSPropertyOp12
 70
1
102
RTVSPropertyOp13
 70
1
102
RTVSPropertyOp14
 70
1
102
RTVSPropertyOp15
 70
1
102
RTVSPropertyOp16
 70
1
102
RTVSPropertyOp17
 70
1
102
RTVSPropertyOp18
 70
1
102
RTVSPropertyOp19
 70
1
102
RTVSPropertyOp20
 70
1
102
RTVSPropertyOp21
 70
1
102
RTVSPropertyOp22
 70
1
102
RTVSPropertyOp23
 70
1
102
RTVSPropertyOp24
 70
1
102
RTVSPropertyOp25
 70
1
102
RTVSPropertyOp26
 70
1
102
RTVSPropertyOp27
 70
1
102
RTVSPropertyOp28
 70
1
102
RTVSPropertyOp29
 70
1
102
RTVSPropertyOp30
 70
1
102
RTVSPropertyOp31
 70
1
102
RTVSPropertyOp32
 70
1
102
RTVSPropertyOp33
 70
1
102
RTVSPropertyOp34
 70
1
102
RTVSPropertyOp35
 70
1
102
RTVSPropertyOp36
 70
1
102
RTVSPropertyOp37
 70
1
102
RTVSPropertyOp38
 70
1
102
RTVSPropertyOp39
 70
1
102
RTVSPropertyOp40
 70
1
102
RTVSPropertyOp41
 70
1
102
RTVSPropertyOp42
 70
1
102
RTVSPropertyOp43
 70
1
102
RTVSPropertyOp44
 70
1
102
RTVSPropertyOp45
 70
1
102
RTVSPropertyOp46
 70
1
102
RTVSPropertyOp47
 70
1
102
RTVSPropertyOp48
 70
1
102
RTVSPropertyOp49
 70
1
102
RTVSPropertyOp50
 70
1
102
RTVSPropertyOp51
 70
0
102
RTVSPropertyOp52
 70
0
102
RTVSPropertyOp53
 70
1
102
RTVSPropertyOp54
 70
1
102
RTVSPropertyOp55
 70
1
102
RTVSPropertyOp56
 70
1
102
RTVSPropertyOp57
 70
1
102
RTVSPropertyOp58
 70
1
102
RTVSPropertyOp59
 70
1
102
RTVSPropertyOp60
 70
1
102
RTVSPropertyOp61
 70
1
102
RTVSPropertyOp62
 70
1
  0
XRECORD
  5
A86
102
{ACAD_REACTORS
330
A85
102
}
330
A85
100
AcDbXrecord
280
1
102
RTVSPost2010Prop28
280
0
102
RTVSPost2010PropOp28
 70
1
102
RTVSPost2010Prop29
280
1
102
RTVSPost2010PropOp29
 70
1
102
RTVSPost2010Prop30
280
1
102
RTVSPost2010PropOp30
 70
1
102
RTVSPost2010Prop31
280
0
102
RTVSPost2010PropOp31
 70
1
102
RTVSPost2010Prop32
280
0
102
RTVSPost2010PropOp32
 70
1
102
RTVSPost2010Prop33
280
0
102
RTVSPost2010PropOp33
 70
1
102
RTVSPost2010Prop34
280
0
102
RTVSPost2010PropOp34
 70
1
102
RTVSPost2010Prop35
280
0
102
RTVSPost2010PropOp35
 70
1
102
RTVSPost2010Prop36
280
0
102
RTVSPost2010PropOp36
 70
1
102
RTVSPost2010Prop37
 90
50
102
RTVSPost2010PropOp37
 70
1
102
RTVSPost2010Prop38
140
0.0
102
RTVSPost2010PropOp38
 70
1
102
RTVSPost2010Prop39
140
1.0
102
RTVSPost2010PropOp39
 70
1
102
RTVSPost2010Prop40
 90
0
102
RTVSPost2010PropOp40
 70
1
102
RTVSPost2010Prop41ColorIndex
 90
18
102
RTVSPost2010Prop41ColorRGB
 90
0
102
RTVSPost2010PropOp41
 70
1
102
RTVSPost2010Prop42
 90
50
102
RTVSPost2010PropOp42
 70
1
102
RTVSPost2010Prop43
 90
3
102
RTVSPost2010PropOp43
 70
1
102
RTVSPost2010Prop44ColorIndex
 90
5
102
RTVSPost2010Prop44ColorRGB
 90
255
102
RTVSPost2010PropOp44
 70
1
102
RTVSPost2010Prop45
280
0
102
RTVSPost2010PropOp45
 70
1
102
RTVSPost2010Prop46
 90
50
102
RTVSPost2010PropOp46
 70
1
102
RTVSPost2010Prop47
 90
50
102
RTVSPost2010PropOp47
 70
1
102
RTVSPost2010Prop48
 90
50
102
RTVSPost2010PropOp48
 70
1
102
RTVSPost2010Prop49
280
0
102
RTVSPost2010PropOp49
 70
1
102
RTVSPost2010Prop50
 90
50
102
RTVSPost2010PropOp50
 70
1
102
RTVSPost2010Prop51ColorIndex
 90
256
102
RTVSPost2010Prop51ColorRGB
 90
-16777216
102
RTVSPost2010PropOp51
 70
0
102
RTVSPost2010Prop52
140
1.0
102
RTVSPost2010PropOp52
 70
0
102
RTVSPost2010Prop53
 90
2
102
RTVSPost2010PropOp53
 70
1
102
RTVSPost2010Prop54
  1
strokes_ogs.tif
102
RTVSPost2010PropOp54
 70
1
102
RTVSPost2010Prop55
280
0
102
RTVSPost2010PropOp55
 70
1
102
RTVSPost2010Prop56
140
1.0
102
RTVSPost2010PropOp56
 70
1
102
RTVSPost2010Prop57
140
1.0
102
RTVSPost2010PropOp57
 70
1
102
RTVSPropertyOp0
 70
1
102
RTVSPropertyOp1
 70
1
102
RTVSPropertyOp2
 70
1
102
RTVSPropertyOp3
 70
1
102
RTVSPropertyOp4
 70
1
102
RTVSPropertyOp5
 70
1
102
RTVSPropertyOp6
 70
1
102
RTVSPropertyOp7
 70
1
102
RTVSPropertyOp8
 70
1
102
RTVSPropertyOp9
 70
1
102
RTVSPropertyOp10
 70
1
102
RTVSPropertyOp11
 70
1
102
RTVSPropertyOp12
 70
1
102
RTVSPropertyOp13
 70
1
102
RTVSPropertyOp14
 70
1
102
RTVSPropertyOp15
 70
1
102
RTVSPropertyOp16
 70
1
102
RTVSPropertyOp17
 70
1
102
RTVSPropertyOp18
 70
1
102
RTVSPropertyOp19
 70
1
102
RTVSPropertyOp20
 70
1
102
RTVSPropertyOp21
 70
1
102
RTVSPropertyOp22
 70
1
102
RTVSPropertyOp23
 70
1
102
RTVSPropertyOp24
 70
1
102
RTVSPropertyOp25
 70
1
102
RTVSPropertyOp26
 70
1
102
RTVSPropertyOp27
 70
1
102
RTVSPropertyOp28
 70
1
102
RTVSPropertyOp29
 70
1
102
RTVSPropertyOp30
 70
1
102
RTVSPropertyOp31
 70
1
102
RTVSPropertyOp32
 70
1
102
RTVSPropertyOp33
 70
1
102
RTVSPropertyOp34
 70
1
102
RTVSPropertyOp35
 70
1
102
RTVSPropertyOp36
 70
1
102
RTVSPropertyOp37
 70
1
102
RTVSPropertyOp38
 70
1
102
RTVSPropertyOp39
 70
1
102
RTVSPropertyOp40
 70
1
102
RTVSPropertyOp41
 70
1
102
RTVSPropertyOp42
 70
1
102
RTVSPropertyOp43
 70
1
102
RTVSPropertyOp44
 70
1
102
RTVSPropertyOp45
 70
1
102
RTVSPropertyOp46
 70
1
102
RTVSPropertyOp47
 70
1
102
RTVSPropertyOp48
 70
1
102
RTVSPropertyOp49
 70
1
102
RTVSPropertyOp50
 70
1
102
RTVSPropertyOp51
 70
0
102
RTVSPropertyOp52
 70
0
102
RTVSPropertyOp53
 70
1
102
RTVSPropertyOp54
 70
1
102
RTVSPropertyOp55
 70
1
102
RTVSPropertyOp56
 70
1
102
RTVSPropertyOp57
 70
1
102
RTVSPropertyOp58
 70
1
102
RTVSPropertyOp59
 70
1
102
RTVSPropertyOp60
 70
1
102
RTVSPropertyOp61
 70
1
102
RTVSPropertyOp62
 70
1
  0
XRECORD
  5
A7C
102
{ACAD_REACTORS
330
A7B
102
}
330
A7B
100
AcDbXrecord
280
1
102
RTVSPost2010Prop28
280
0
102
RTVSPost2010PropOp28
 70
1
102
RTVSPost2010Prop29
280
1
102
RTVSPost2010PropOp29
 70
1
102
RTVSPost2010Prop30
280
1
102
RTVSPost2010PropOp30
 70
1
102
RTVSPost2010Prop31
280
0
102
RTVSPost2010PropOp31
 70
1
102
RTVSPost2010Prop32
280
0
102
RTVSPost2010PropOp32
 70
1
102
RTVSPost2010Prop33
280
0
102
RTVSPost2010PropOp33
 70
1
102
RTVSPost2010Prop34
280
0
102
RTVSPost2010PropOp34
 70
1
102
RTVSPost2010Prop35
280
0
102
RTVSPost2010PropOp35
 70
1
102
RTVSPost2010Prop36
280
0
102
RTVSPost2010PropOp36
 70
1
102
RTVSPost2010Prop37
 90
50
102
RTVSPost2010PropOp37
 70
1
102
RTVSPost2010Prop38
140
0.0
102
RTVSPost2010PropOp38
 70
1
102
RTVSPost2010Prop39
140
1.0
102
RTVSPost2010PropOp39
 70
1
102
RTVSPost2010Prop40
 90
0
102
RTVSPost2010PropOp40
 70
1
102
RTVSPost2010Prop41ColorIndex
 90
18
102
RTVSPost2010Prop41ColorRGB
 90
0
102
RTVSPost2010PropOp41
 70
1
102
RTVSPost2010Prop42
 90
50
102
RTVSPost2010PropOp42
 70
1
102
RTVSPost2010Prop43
 90
3
102
RTVSPost2010PropOp43
 70
1
102
RTVSPost2010Prop44ColorIndex
 90
5
102
RTVSPost2010Prop44ColorRGB
 90
255
102
RTVSPost2010PropOp44
 70
1
102
RTVSPost2010Prop45
280
0
102
RTVSPost2010PropOp45
 70
1
102
RTVSPost2010Prop46
 90
50
102
RTVSPost2010PropOp46
 70
1
102
RTVSPost2010Prop47
 90
50
102
RTVSPost2010PropOp47
 70
1
102
RTVSPost2010Prop48
 90
50
102
RTVSPost2010PropOp48
 70
1
102
RTVSPost2010Prop49
280
0
102
RTVSPost2010PropOp49
 70
1
102
RTVSPost2010Prop50
 90
50
102
RTVSPost2010PropOp50
 70
1
102
RTVSPost2010Prop51ColorIndex
 90
256
102
RTVSPost2010Prop51ColorRGB
 90
-16777216
102
RTVSPost2010PropOp51
 70
0
102
RTVSPost2010Prop52
140
1.0
102
RTVSPost2010PropOp52
 70
0
102
RTVSPost2010Prop53
 90
2
102
RTVSPost2010PropOp53
 70
1
102
RTVSPost2010Prop54
  1
strokes_ogs.tif
102
RTVSPost2010PropOp54
 70
1
102
RTVSPost2010Prop55
280
0
102
RTVSPost2010PropOp55
 70
1
102
RTVSPost2010Prop56
140
1.0
102
RTVSPost2010PropOp56
 70
1
102
RTVSPost2010Prop57
140
1.0
102
RTVSPost2010PropOp57
 70
1
102
RTVSPropertyOp0
 70
1
102
RTVSPropertyOp1
 70
1
102
RTVSPropertyOp2
 70
1
102
RTVSPropertyOp3
 70
1
102
RTVSPropertyOp4
 70
1
102
RTVSPropertyOp5
 70
1
102
RTVSPropertyOp6
 70
1
102
RTVSPropertyOp7
 70
1
102
RTVSPropertyOp8
 70
1
102
RTVSPropertyOp9
 70
1
102
RTVSPropertyOp10
 70
1
102
RTVSPropertyOp11
 70
1
102
RTVSPropertyOp12
 70
1
102
RTVSPropertyOp13
 70
1
102
RTVSPropertyOp14
 70
1
102
RTVSPropertyOp15
 70
1
102
RTVSPropertyOp16
 70
1
102
RTVSPropertyOp17
 70
1
102
RTVSPropertyOp18
 70
1
102
RTVSPropertyOp19
 70
1
102
RTVSPropertyOp20
 70
1
102
RTVSPropertyOp21
 70
1
102
RTVSPropertyOp22
 70
1
102
RTVSPropertyOp23
 70
1
102
RTVSPropertyOp24
 70
1
102
RTVSPropertyOp25
 70
1
102
RTVSPropertyOp26
 70
1
102
RTVSPropertyOp27
 70
1
102
RTVSPropertyOp28
 70
1
102
RTVSPropertyOp29
 70
1
102
RTVSPropertyOp30
 70
1
102
RTVSPropertyOp31
 70
1
102
RTVSPropertyOp32
 70
1
102
RTVSPropertyOp33
 70
1
102
RTVSPropertyOp34
 70
1
102
RTVSPropertyOp35
 70
1
102
RTVSPropertyOp36
 70
1
102
RTVSPropertyOp37
 70
1
102
RTVSPropertyOp38
 70
1
102
RTVSPropertyOp39
 70
1
102
RTVSPropertyOp40
 70
1
102
RTVSPropertyOp41
 70
1
102
RTVSPropertyOp42
 70
1
102
RTVSPropertyOp43
 70
1
102
RTVSPropertyOp44
 70
1
102
RTVSPropertyOp45
 70
1
102
RTVSPropertyOp46
 70
1
102
RTVSPropertyOp47
 70
1
102
RTVSPropertyOp48
 70
1
102
RTVSPropertyOp49
 70
1
102
RTVSPropertyOp50
 70
1
102
RTVSPropertyOp51
 70
0
102
RTVSPropertyOp52
 70
0
102
RTVSPropertyOp53
 70
1
102
RTVSPropertyOp54
 70
1
102
RTVSPropertyOp55
 70
1
102
RTVSPropertyOp56
 70
1
102
RTVSPropertyOp57
 70
1
102
RTVSPropertyOp58
 70
1
102
RTVSPropertyOp59
 70
1
102
RTVSPropertyOp60
 70
1
102
RTVSPropertyOp61
 70
1
102
RTVSPropertyOp62
 70
1
  0
XRECORD
  5
A70
102
{ACAD_REACTORS
330
A6F
102
}
330
A6F
100
AcDbXrecord
280
1
102
RTVSPost2010Prop28
280
0
102
RTVSPost2010PropOp28
 70
1
102
RTVSPost2010Prop29
280
1
102
RTVSPost2010PropOp29
 70
1
102
RTVSPost2010Prop30
280
1
102
RTVSPost2010PropOp30
 70
1
102
RTVSPost2010Prop31
280
0
102
RTVSPost2010PropOp31
 70
1
102
RTVSPost2010Prop32
280
0
102
RTVSPost2010PropOp32
 70
1
102
RTVSPost2010Prop33
280
0
102
RTVSPost2010PropOp33
 70
1
102
RTVSPost2010Prop34
280
0
102
RTVSPost2010PropOp34
 70
1
102
RTVSPost2010Prop35
280
0
102
RTVSPost2010PropOp35
 70
1
102
RTVSPost2010Prop36
280
0
102
RTVSPost2010PropOp36
 70
1
102
RTVSPost2010Prop37
 90
50
102
RTVSPost2010PropOp37
 70
1
102
RTVSPost2010Prop38
140
0.0
102
RTVSPost2010PropOp38
 70
1
102
RTVSPost2010Prop39
140
1.0
102
RTVSPost2010PropOp39
 70
1
102
RTVSPost2010Prop40
 90
0
102
RTVSPost2010PropOp40
 70
1
102
RTVSPost2010Prop41ColorIndex
 90
18
102
RTVSPost2010Prop41ColorRGB
 90
0
102
RTVSPost2010PropOp41
 70
1
102
RTVSPost2010Prop42
 90
50
102
RTVSPost2010PropOp42
 70
1
102
RTVSPost2010Prop43
 90
3
102
RTVSPost2010PropOp43
 70
1
102
RTVSPost2010Prop44ColorIndex
 90
5
102
RTVSPost2010Prop44ColorRGB
 90
255
102
RTVSPost2010PropOp44
 70
1
102
RTVSPost2010Prop45
280
0
102
RTVSPost2010PropOp45
 70
1
102
RTVSPost2010Prop46
 90
50
102
RTVSPost2010PropOp46
 70
1
102
RTVSPost2010Prop47
 90
50
102
RTVSPost2010PropOp47
 70
1
102
RTVSPost2010Prop48
 90
50
102
RTVSPost2010PropOp48
 70
1
102
RTVSPost2010Prop49
280
0
102
RTVSPost2010PropOp49
 70
1
102
RTVSPost2010Prop50
 90
50
102
RTVSPost2010PropOp50
 70
1
102
RTVSPost2010Prop51ColorIndex
 90
256
102
RTVSPost2010Prop51ColorRGB
 90
-16777216
102
RTVSPost2010PropOp51
 70
0
102
RTVSPost2010Prop52
140
1.0
102
RTVSPost2010PropOp52
 70
0
102
RTVSPost2010Prop53
 90
2
102
RTVSPost2010PropOp53
 70
1
102
RTVSPost2010Prop54
  1
strokes_ogs.tif
102
RTVSPost2010PropOp54
 70
1
102
RTVSPost2010Prop55
280
0
102
RTVSPost2010PropOp55
 70
1
102
RTVSPost2010Prop56
140
1.0
102
RTVSPost2010PropOp56
 70
1
102
RTVSPost2010Prop57
140
1.0
102
RTVSPost2010PropOp57
 70
1
102
RTVSPropertyOp0
 70
1
102
RTVSPropertyOp1
 70
1
102
RTVSPropertyOp2
 70
1
102
RTVSPropertyOp3
 70
1
102
RTVSPropertyOp4
 70
1
102
RTVSPropertyOp5
 70
1
102
RTVSPropertyOp6
 70
1
102
RTVSPropertyOp7
 70
1
102
RTVSPropertyOp8
 70
1
102
RTVSPropertyOp9
 70
1
102
RTVSPropertyOp10
 70
1
102
RTVSPropertyOp11
 70
1
102
RTVSPropertyOp12
 70
1
102
RTVSPropertyOp13
 70
1
102
RTVSPropertyOp14
 70
1
102
RTVSPropertyOp15
 70
1
102
RTVSPropertyOp16
 70
1
102
RTVSPropertyOp17
 70
1
102
RTVSPropertyOp18
 70
1
102
RTVSPropertyOp19
 70
1
102
RTVSPropertyOp20
 70
1
102
RTVSPropertyOp21
 70
1
102
RTVSPropertyOp22
 70
1
102
RTVSPropertyOp23
 70
1
102
RTVSPropertyOp24
 70
1
102
RTVSPropertyOp25
 70
1
102
RTVSPropertyOp26
 70
1
102
RTVSPropertyOp27
 70
1
102
RTVSPropertyOp28
 70
1
102
RTVSPropertyOp29
 70
1
102
RTVSPropertyOp30
 70
1
102
RTVSPropertyOp31
 70
1
102
RTVSPropertyOp32
 70
1
102
RTVSPropertyOp33
 70
1
102
RTVSPropertyOp34
 70
1
102
RTVSPropertyOp35
 70
1
102
RTVSPropertyOp36
 70
1
102
RTVSPropertyOp37
 70
1
102
RTVSPropertyOp38
 70
1
102
RTVSPropertyOp39
 70
1
102
RTVSPropertyOp40
 70
1
102
RTVSPropertyOp41
 70
1
102
RTVSPropertyOp42
 70
1
102
RTVSPropertyOp43
 70
1
102
RTVSPropertyOp44
 70
1
102
RTVSPropertyOp45
 70
1
102
RTVSPropertyOp46
 70
1
102
RTVSPropertyOp47
 70
1
102
RTVSPropertyOp48
 70
1
102
RTVSPropertyOp49
 70
1
102
RTVSPropertyOp50
 70
1
102
RTVSPropertyOp51
 70
0
102
RTVSPropertyOp52
 70
0
102
RTVSPropertyOp53
 70
1
102
RTVSPropertyOp54
 70
1
102
RTVSPropertyOp55
 70
1
102
RTVSPropertyOp56
 70
1
102
RTVSPropertyOp57
 70
1
102
RTVSPropertyOp58
 70
1
102
RTVSPropertyOp59
 70
1
102
RTVSPropertyOp60
 70
1
102
RTVSPropertyOp61
 70
1
102
RTVSPropertyOp62
 70
1
  0
XRECORD
  5
A88
102
{ACAD_REACTORS
330
A87
102
}
330
A87
100
AcDbXrecord
280
1
102
RTVSPost2010Prop28
280
0
102
RTVSPost2010PropOp28
 70
1
102
RTVSPost2010Prop29
280
1
102
RTVSPost2010PropOp29
 70
1
102
RTVSPost2010Prop30
280
1
102
RTVSPost2010PropOp30
 70
1
102
RTVSPost2010Prop31
280
0
102
RTVSPost2010PropOp31
 70
1
102
RTVSPost2010Prop32
280
0
102
RTVSPost2010PropOp32
 70
1
102
RTVSPost2010Prop33
280
0
102
RTVSPost2010PropOp33
 70
1
102
RTVSPost2010Prop34
280
0
102
RTVSPost2010PropOp34
 70
1
102
RTVSPost2010Prop35
280
0
102
RTVSPost2010PropOp35
 70
1
102
RTVSPost2010Prop36
280
0
102
RTVSPost2010PropOp36
 70
1
102
RTVSPost2010Prop37
 90
50
102
RTVSPost2010PropOp37
 70
1
102
RTVSPost2010Prop38
140
0.0
102
RTVSPost2010PropOp38
 70
1
102
RTVSPost2010Prop39
140
1.0
102
RTVSPost2010PropOp39
 70
1
102
RTVSPost2010Prop40
 90
0
102
RTVSPost2010PropOp40
 70
1
102
RTVSPost2010Prop41ColorIndex
 90
18
102
RTVSPost2010Prop41ColorRGB
 90
0
102
RTVSPost2010PropOp41
 70
1
102
RTVSPost2010Prop42
 90
50
102
RTVSPost2010PropOp42
 70
1
102
RTVSPost2010Prop43
 90
3
102
RTVSPost2010PropOp43
 70
1
102
RTVSPost2010Prop44ColorIndex
 90
5
102
RTVSPost2010Prop44ColorRGB
 90
255
102
RTVSPost2010PropOp44
 70
1
102
RTVSPost2010Prop45
280
0
102
RTVSPost2010PropOp45
 70
1
102
RTVSPost2010Prop46
 90
50
102
RTVSPost2010PropOp46
 70
1
102
RTVSPost2010Prop47
 90
50
102
RTVSPost2010PropOp47
 70
1
102
RTVSPost2010Prop48
 90
50
102
RTVSPost2010PropOp48
 70
1
102
RTVSPost2010Prop49
280
0
102
RTVSPost2010PropOp49
 70
1
102
RTVSPost2010Prop50
 90
50
102
RTVSPost2010PropOp50
 70
1
102
RTVSPost2010Prop51ColorIndex
 90
256
102
RTVSPost2010Prop51ColorRGB
 90
-16777216
102
RTVSPost2010PropOp51
 70
0
102
RTVSPost2010Prop52
140
1.0
102
RTVSPost2010PropOp52
 70
0
102
RTVSPost2010Prop53
 90
2
102
RTVSPost2010PropOp53
 70
1
102
RTVSPost2010Prop54
  1
strokes_ogs.tif
102
RTVSPost2010PropOp54
 70
1
102
RTVSPost2010Prop55
280
0
102
RTVSPost2010PropOp55
 70
1
102
RTVSPost2010Prop56
140
1.0
102
RTVSPost2010PropOp56
 70
1
102
RTVSPost2010Prop57
140
1.0
102
RTVSPost2010PropOp57
 70
1
102
RTVSPropertyOp0
 70
1
102
RTVSPropertyOp1
 70
1
102
RTVSPropertyOp2
 70
1
102
RTVSPropertyOp3
 70
1
102
RTVSPropertyOp4
 70
1
102
RTVSPropertyOp5
 70
1
102
RTVSPropertyOp6
 70
1
102
RTVSPropertyOp7
 70
1
102
RTVSPropertyOp8
 70
1
102
RTVSPropertyOp9
 70
1
102
RTVSPropertyOp10
 70
1
102
RTVSPropertyOp11
 70
1
102
RTVSPropertyOp12
 70
1
102
RTVSPropertyOp13
 70
1
102
RTVSPropertyOp14
 70
1
102
RTVSPropertyOp15
 70
1
102
RTVSPropertyOp16
 70
1
102
RTVSPropertyOp17
 70
1
102
RTVSPropertyOp18
 70
1
102
RTVSPropertyOp19
 70
1
102
RTVSPropertyOp20
 70
1
102
RTVSPropertyOp21
 70
1
102
RTVSPropertyOp22
 70
1
102
RTVSPropertyOp23
 70
1
102
RTVSPropertyOp24
 70
1
102
RTVSPropertyOp25
 70
1
102
RTVSPropertyOp26
 70
1
102
RTVSPropertyOp27
 70
1
102
RTVSPropertyOp28
 70
1
102
RTVSPropertyOp29
 70
1
102
RTVSPropertyOp30
 70
1
102
RTVSPropertyOp31
 70
1
102
RTVSPropertyOp32
 70
1
102
RTVSPropertyOp33
 70
1
102
RTVSPropertyOp34
 70
1
102
RTVSPropertyOp35
 70
1
102
RTVSPropertyOp36
 70
1
102
RTVSPropertyOp37
 70
1
102
RTVSPropertyOp38
 70
1
102
RTVSPropertyOp39
 70
1
102
RTVSPropertyOp40
 70
1
102
RTVSPropertyOp41
 70
1
102
RTVSPropertyOp42
 70
1
102
RTVSPropertyOp43
 70
1
102
RTVSPropertyOp44
 70
1
102
RTVSPropertyOp45
 70
1
102
RTVSPropertyOp46
 70
1
102
RTVSPropertyOp47
 70
1
102
RTVSPropertyOp48
 70
1
102
RTVSPropertyOp49
 70
1
102
RTVSPropertyOp50
 70
1
102
RTVSPropertyOp51
 70
0
102
RTVSPropertyOp52
 70
0
102
RTVSPropertyOp53
 70
1
102
RTVSPropertyOp54
 70
1
102
RTVSPropertyOp55
 70
1
102
RTVSPropertyOp56
 70
1
102
RTVSPropertyOp57
 70
1
102
RTVSPropertyOp58
 70
1
102
RTVSPropertyOp59
 70
1
102
RTVSPropertyOp60
 70
1
102
RTVSPropertyOp61
 70
1
102
RTVSPropertyOp62
 70
1
  0
DICTIONARY
  5
10FB
330
9D2
100
AcDbDictionary
281
1
  3
WRITTEN_BY_EZDXF
350
10FC
  0
DICTIONARYVAR
  5
10FC
330
10FB
100
DictionaryVariables
280
0
  1
0.16.4 @ 2022-09-06T04:15:51.031916+00:00
  0
ENDSEC
  0
EOF
