  0
SECTION
  2
HEADER
  9
$ACADVER
  1
AC1015
  9
$ACADMAINTVER
 70
20
  9
$DWGCODEPAGE
  3
dos932
  9
$INSBASE
 10
0
 20
0
 30
0
  9
$EXTMIN
 10
5.46043656207367
 20
-17.821219191295711
 30
0
  9
$EXTMAX
 10
141.77231176263607
 20
95.6596467549028
 30
0
  9
$LIMMIN
 10
0
 20
0
  9
$LIMMAX
 10
297
 20
210
  9
$SNAPMODE
 70
0
  9
$SNAPUNIT
 10
1
 20
1
  9
$SNAPBASE
 10
0
 20
0
  9
$SNAPANG
 50
0
  9
$SNAPSTYLE
 70
0
  9
$SNAPISOPAIR
 70
0
  9
$ORTHOMODE
 70
0
  9
$REGENMODE
 70
1
  9
$FILLMODE
 70
1
  9
$QTEXTMODE
 70
0
  9
$MIRRTEXT
 70
1
  9
$LTSCALE
 40
1
  9
$OSMODE
 70
0
  9
$ATTMODE
 70
1
  9
$TEXTSIZE
 40
0.2
  9
$TRACEWID
 40
0.05
  9
$TEXTSTYLE
  7
STANDARD
  9
$CLAYER
  8
0
  9
$CELTYPE
  6
CONTINUOUS
  9
$CECOLOR
 62
256
  9
$CELTSCALE
 40
1
  9
$DISPSILH
 70
0
  9
$DIMSCALE
 40
1
  9
$DIMASZ
 40
0.18
  9
$DIMEXO
 40
0.0625
  9
$DIMDLI
 40
0.38
  9
$DIMRND
 40
0
  9
$DIMDLE
 40
0
  9
$DIMEXE
 40
0.18
  9
$DIMTP
 40
0
  9
$DIMTM
 40
0
  9
$DIMTXT
 40
0.18
  9
$DIMCEN
 40
0.09
  9
$DIMTSZ
 40
0
  9
$DIMTOL
 70
0
  9
$DIMLIM
 70
0
  9
$DIMTIH
 70
1
  9
$DIMTOH
 70
1
  9
$DIMSE1
 70
0
  9
$DIMSE2
 70
0
  9
$DIMTAD
 70
0
  9
$DIMZIN
 70
0
  9
$DIMBLK
  1

  9
$DIMASO
 70
1
  9
$DIMSHO
 70
1
  9
$DIMPOST
  1

  9
$DIMAPOST
  1

  9
$DIMALT
 70
0
  9
$DIMALTD
 70
2
  9
$DIMALTF
 40
25.4
  9
$DIMLFAC
 40
1
  9
$DIMTOFL
 70
0
  9
$DIMTVP
 40
0
  9
$DIMTIX
 70
0
  9
$DIMSOXD
 70
0
  9
$DIMSAH
 70
0
  9
$DIMBLK1
  1

  9
$DIMBLK2
  1

  9
$DIMSTYLE
  2
STANDARD
  9
$DIMCLRD
 70
0
  9
$DIMCLRE
 70
0
  9
$DIMCLRT
 70
0
  9
$DIMTFAC
 40
1
  9
$DIMGAP
 40
0.09
  9
$DIMJUST
 70
0
  9
$DIMSD1
 70
0
  9
$DIMSD2
 70
0
  9
$DIMTOLJ
 70
1
  9
$DIMTZIN
 70
0
  9
$DIMALTZ
 70
0
  9
$DIMALTTZ
 70
0
  9
$DIMUPT
 70
0
  9
$DIMDEC
 70
4
  9
$DIMTDEC
 70
4
  9
$DIMALTU
 70
2
  9
$DIMALTTD
 70
2
  9
$DIMTXSTY
  7
STANDARD
  9
$DIMAUNIT
 70
0
  9
$DIMADEC
 70
0
  9
$DIMALTRND
 40
0
  9
$DIMAZIN
 70
0
  9
$DIMDSEP
 70
46
  9
$DIMATFIT
 70
3
  9
$DIMFRAC
 70
0
  9
$DIMLDRBLK
  1

  9
$DIMLUNIT
 70
2
  9
$DIMLWD
 70
-2
  9
$DIMLWE
 70
-2
  9
$LUNITS
 70
2
  9
$LUPREC
 70
4
  9
$SKETCHINC
 40
0.1
  9
$FILLETRAD
 40
0
  9
$AUNITS
 70
0
  9
$AUPREC
 70
0
  9
$MENU
  1
acad
  9
$ELEVATION
 40
0
  9
$PELEVATION
 40
0
  9
$THICKNESS
 40
0
  9
$LIMCHECK
 70
0
  9
$CHAMFERA
 40
0
  9
$CHAMFERB
 40
0
  9
$CHAMFERC
 40
0
  9
$CHAMFERD
 40
0
  9
$SKPOLY
 70
0
  9
$TDCREATE
 40
2451691.7194229979
  9
$TDUCREATE
 40
2451691.3444229979
  9
$TDUPDATE
 40
2458431.4412815394
  9
$TDUUPDATE
 40
2458431.0662815394
  9
$TDINDWG
 40
0.039654050925925929
  9
$TDUSRTIMER
 40
0.039653680555555557
  9
$USRTIMER
 70
1
  9
$ANGBASE
 50
0
  9
$ANGDIR
 70
0
  9
$PDMODE
 70
0
  9
$PDSIZE
 40
0
  9
$PLINEWID
 40
0
  9
$SPLFRAME
 70
0
  9
$SPLINETYPE
 70
6
  9
$SPLINESEGS
 70
8
  9
$HANDSEED
  5
1015F
  9
$SURFTAB1
 70
6
  9
$SURFTAB2
 70
6
  9
$SURFTYPE
 70
6
  9
$SURFU
 70
6
  9
$SURFV
 70
6
  9
$UCSORG
 10
0
 20
0
 30
0
  9
$UCSXDIR
 10
1
 20
0
 30
0
  9
$UCSYDIR
 10
0
 20
1
 30
0
  9
$UCSORTHOREF
  2

  9
$UCSORTHOVIEW
 70
0
  9
$UCSORGTOP
 10
0
 20
0
 30
0
  9
$UCSORGBOTTOM
 10
0
 20
0
 30
0
  9
$UCSORGLEFT
 10
0
 20
0
 30
0
  9
$UCSORGRIGHT
 10
0
 20
0
 30
0
  9
$UCSORGFRONT
 10
0
 20
0
 30
0
  9
$UCSORGBACK
 10
0
 20
0
 30
0
  9
$PUCSORG
 10
0
 20
0
 30
0
  9
$PUCSXDIR
 10
1
 20
0
 30
0
  9
$PUCSYDIR
 10
0
 20
1
 30
0
  9
$PUCSORTHOREF
  2

  9
$PUCSORTHOVIEW
 70
0
  9
$PUCSORGTOP
 10
0
 20
0
 30
0
  9
$PUCSORGBOTTOM
 10
0
 20
0
 30
0
  9
$PUCSORGLEFT
 10
0
 20
0
 30
0
  9
$PUCSORGRIGHT
 10
0
 20
0
 30
0
  9
$PUCSORGFRONT
 10
0
 20
0
 30
0
  9
$PUCSORGBACK
 10
0
 20
0
 30
0
  9
$USERI1
 70
0
  9
$USERI2
 70
0
  9
$USERI3
 70
0
  9
$USERI4
 70
0
  9
$USERI5
 70
0
  9
$USERR1
 40
0
  9
$USERR2
 40
0
  9
$USERR3
 40
0
  9
$USERR4
 40
0
  9
$USERR5
 40
0
  9
$WORLDVIEW
 70
1
  9
$SHADEDGE
 70
3
  9
$SHADEDIF
 70
70
  9
$TILEMODE
 70
1
  9
$MAXACTVP
 70
48
  9
$PINSBASE
 10
0
 20
0
 30
0
  9
$PLIMCHECK
 70
0
  9
$PEXTMIN
 10
1E+20
 20
1E+20
 30
1E+20
  9
$PEXTMAX
 10
-1E+20
 20
-1E+20
 30
-1E+20
  9
$PLIMMAX
 10
12
 20
9
  9
$PLIMMIN
 10
0
 20
0
  9
$UNITMODE
 70
0
  9
$VISRETAIN
 70
1
  9
$PLINEGEN
 70
0
  9
$PSLTSCALE
 70
1
  9
$TREEDEPTH
 70
3020
  9
$CMLSTYLE
  2
STANDARD
  9
$CMLJUST
 70
0
  9
$CMLSCALE
 40
1
  9
$PROXYGRAPHICS
 70
1
  9
$MEASUREMENT
 70
0
  9
$CELWEIGHT
370
-1
  9
$ENDCAPS
280
0
  9
$JOINSTYLE
280
0
  9
$LWDISPLAY
290
0
  9
$INSUNITS
 70
0
  9
$HYPERLINKBASE
  1

  9
$XEDIT
290
1
  9
$CEPSNTYPE
380
0
  9
$PSTYLEMODE
290
1
  9
$FINGERPRINTGUID
  2
{6BB2487F-2353-4752-A889-15EB8747534D}
  9
$VERSIONGUID
  2
{0AE95D30-04E0-4D17-AB62-A3D744DA7D17}
  9
$EXTNAMES
290
1
  9
$PSVPSCALE
 40
0
  9
$CSHADOW
280
0
  9
$SHADOWPLANELOCATION
 40
0
  9
$STYLESHEET
  1

  9
$OLESTARTUP
290
     0
  0
ENDSEC
  0
SECTION
  2
CLASSES
  0
CLASS
  1
ACDBDICTIONARYWDFLT
  2
AcDbDictionaryWithDefault
  3
ObjectDBX Classes
 90
0
280
0
281
0
  0
CLASS
  1
MATERIAL
  2
AcDbMaterial
  3
ObjectDBX Classes
 90
1153
280
0
281
0
  0
CLASS
  1
VISUALSTYLE
  2
AcDbVisualStyle
  3
ObjectDBX Classes
 90
4095
280
0
281
0
  0
CLASS
  1
SCALE
  2
AcDbScale
  3
ObjectDBX Classes
 90
1153
280
0
281
0
  0
CLASS
  1
TABLESTYLE
  2
AcDbTableStyle
  3
ObjectDBX Classes
 90
4095
280
0
281
0
  0
CLASS
  1
MLEADERSTYLE
  2
AcDbMLeaderStyle
  3
ACDB_MLEADERSTYLE_CLASS
 90
4095
280
0
281
0
  0
CLASS
  1
DICTIONARYVAR
  2
AcDbDictionaryVar
  3
ObjectDBX Classes
 90
0
280
0
281
0
  0
CLASS
  1
CELLSTYLEMAP
  2
AcDbCellStyleMap
  3
ObjectDBX Classes
 90
1152
280
0
281
0
  0
CLASS
  1
ACDBPLACEHOLDER
  2
AcDbPlaceHolder
  3
ObjectDBX Classes
 90
0
280
0
281
0
  0
CLASS
  1
LAYOUT
  2
AcDbLayout
  3
ObjectDBX Classes
 90
0
280
0
281
0
  0
CLASS
  1
SORTENTSTABLE
  2
AcDbSortentsTable
  3
ObjectDBX Classes
 90
0
280
0
281
0
  0
CLASS
  1
RASTERVARIABLES
  2
AcDbRasterVariables
  3
ISM
 90
0
280
0
281
0
  0
CLASS
  1
IMAGEDEF
  2
AcDbRasterImageDef
  3
ISM
 90
0
280
0
281
0
  0
CLASS
  1
IMAGEDEF_REACTOR
  2
AcDbRasterImageDefReactor
  3
ISM
 90
1
280
0
281
0
  0
CLASS
  1
IMAGE
  2
AcDbRasterImage
  3
ISM
 90
127
280
0
281
1
  0
CLASS
  1
ACAD_EVALUATION_GRAPH
  2
AcDbEvalGraph
  3
ObjectDBX Classes
 90
1153
280
0
281
0
  0
CLASS
  1
BLOCKPOINTPARAMETER
  2
AcDbBlockPointParameter
  3
ObjectDBX Classes
 90
1153
280
0
281
0
  0
CLASS
  1
BLOCKBASEPOINTPARAMETER
  2
AcDbBlockBasepointParameter
  3
ObjectDBX Classes
 90
1153
280
0
281
0
  0
CLASS
  1
BLOCKLOOKUPPARAMETER
  2
AcDbBlockLookupParameter
  3
ObjectDBX Classes
 90
1153
280
0
281
0
  0
CLASS
  1
BLOCKVISIBILITYPARAMETER
  2
AcDbBlockVisibilityParameter
  3
ObjectDBX Classes
 90
1153
280
0
281
0
  0
CLASS
  1
BLOCKPROPERTIESTABLE
  2
AcDbBlockPropertiesTable
  3
ObjectDBX Classes
 90
1153
280
0
281
0
  0
CLASS
  1
BLOCKPOLARPARAMETER
  2
AcDbBlockPolarParameter
  3
ObjectDBX Classes
 90
1153
280
0
281
0
  0
CLASS
  1
BLOCKROTATIONPARAMETER
  2
AcDbBlockRotationParameter
  3
ObjectDBX Classes
 90
1153
280
0
281
0
  0
CLASS
  1
BLOCKLINEARPARAMETER
  2
AcDbBlockLinearParameter
  3
ObjectDBX Classes
 90
1153
280
0
281
0
  0
CLASS
  1
BLOCKXYPARAMETER
  2
AcDbBlockXYParameter
  3
ObjectDBX Classes
 90
1153
280
0
281
0
  0
CLASS
  1
BLOCKFLIPPARAMETER
  2
AcDbBlockFlipParameter
  3
ObjectDBX Classes
 90
1153
280
0
281
0
  0
CLASS
  1
BLOCKALIGNMENTPARAMETER
  2
AcDbBlockAlignmentParameter
  3
ObjectDBX Classes
 90
1153
280
0
281
0
  0
CLASS
  1
BLOCKROTATEACTION
  2
AcDbBlockRotateAction
  3
ObjectDBX Classes
 90
1153
280
0
281
0
  0
CLASS
  1
BLOCKSCALEACTION
  2
AcDbBlockScaleAction
  3
ObjectDBX Classes
 90
1153
280
0
281
0
  0
CLASS
  1
BLOCKARRAYACTION
  2
AcDbBlockArrayAction
  3
ObjectDBX Classes
 90
1153
280
0
281
0
  0
CLASS
  1
BLOCKFLIPACTION
  2
AcDbBlockFlipAction
  3
ObjectDBX Classes
 90
1153
280
0
281
0
  0
CLASS
  1
BLOCKLOOKUPACTION
  2
AcDbBlockLookupAction
  3
ObjectDBX Classes
 90
1153
280
0
281
0
  0
CLASS
  1
BLOCKMOVEACTION
  2
AcDbBlockMoveAction
  3
ObjectDBX Classes
 90
1153
280
0
281
0
  0
CLASS
  1
BLOCKPOLARSTRETCHACTION
  2
AcDbBlockPolarStretchAction
  3
ObjectDBX Classes
 90
1153
280
0
281
0
  0
CLASS
  1
BLOCKSTRETCHACTION
  2
AcDbBlockStretchAction
  3
ObjectDBX Classes
 90
1153
280
0
281
0
  0
CLASS
  1
BLOCKALIGNMENTGRIP
  2
AcDbBlockAlignmentGrip
  3
ObjectDBX Classes
 90
1153
280
0
281
0
  0
CLASS
  1
BLOCKFLIPGRIP
  2
AcDbBlockFlipGrip
  3
ObjectDBX Classes
 90
1153
280
0
281
0
  0
CLASS
  1
ACDB_BLOCKREPRESENTATION_DATA
  2
AcDbBlockRepresentationData
  3
ObjectDBX Classes
 90
1153
280
0
281
0
  0
CLASS
  1
ACDB_DYNAMICBLOCKPURGEPREVENTER_VERSION
  2
AcDbDynamicBlockPurgePreventer
  3
ObjectDBX Classes
 90
1153
280
0
281
0
  0
CLASS
  1
BLOCKLINEARGRIP
  2
AcDbBlockLinearGrip
  3
ObjectDBX Classes
 90
1153
280
0
281
0
  0
CLASS
  1
BLOCKLOOKUPGRIP
  2
AcDbBlockLookupGrip
  3
ObjectDBX Classes
 90
1153
280
0
281
0
  0
CLASS
  1
BLOCKPOLARGRIP
  2
AcDbBlockPolarGrip
  3
ObjectDBX Classes
 90
1153
280
0
281
0
  0
CLASS
  1
BLOCKPROPERTIESTABLEGRIP
  2
AcDbBlockPropertiesTableGrip
  3
ObjectDBX Classes
 90
1153
280
0
281
0
  0
CLASS
  1
BLOCKROTATIONGRIP
  2
AcDbBlockRotationGrip
  3
ObjectDBX Classes
 90
1153
280
0
281
0
  0
CLASS
  1
BLOCKVISIBILITYGRIP
  2
AcDbBlockVisibilityGrip
  3
ObjectDBX Classes
 90
1153
280
0
281
0
  0
CLASS
  1
BLOCKXYGRIP
  2
AcDbBlockXYGrip
  3
ObjectDBX Classes
 90
1153
280
0
281
0
  0
CLASS
  1
BLOCKGRIPLOCATIONCOMPONENT
  2
AcDbBlockGripExpr
  3
ObjectDBX Classes
 90
1153
280
0
281
0
  0
CLASS
  1
ACDB_DYNAMICBLOCKPROXYNODE
  2
AcDbDynamicBlockProxyNode
  3
ObjectDBX Classes
 90
1153
280
0
281
0
  0
ENDSEC
  0
SECTION
  2
TABLES
  0
TABLE
  2
VPORT
  5
FF6E
330
0
100
AcDbSymbolTable
 70
1
  0
VPORT
  5
FFDE
100
AcDbSymbolTableRecord
100
AcDbViewportTableRecord
  2
*ACTIVE
 70
0
 10
0
 20
0
 11
1
 21
1
 12
128.24827158054251
 22
-19.445768024673551
 13
0
 23
0
 14
1
 24
1
 15
0
 25
0
 16
0
 26
0
 36
1
 17
0
 27
0
 37
0
 40
323.15898475989462
 41
1.55688622754491
 42
50
 43
0
 44
0
 50
0
 51
0
 71
0
 72
100
 73
1
 74
1
 75
0
 76
0
 77
0
 78
0
281
0
 65
1
110
0
120
0
130
0
111
1
121
0
131
0
112
0
122
1
132
0
 79
0
146
0
  0
ENDTAB
  0
TABLE
  2
LTYPE
  5
FF6B
100
AcDbSymbolTable
 70
7
  0
LTYPE
  5
FFC8
100
AcDbSymbolTableRecord
100
AcDbLinetypeTableRecord
  2
ByBlock
  3

 70
0
 72
65
 73
0
 40
0
  0
LTYPE
  5
FFC9
100
AcDbSymbolTableRecord
100
AcDbLinetypeTableRecord
  2
ByLayer
  3

 70
0
 72
65
 73
0
 40
0
  0
LTYPE
  5
FFCA
100
AcDbSymbolTableRecord
100
AcDbLinetypeTableRecord
  2
CONTINUOUS
  3
実線
 70
0
 72
65
 73
0
 40
0
  0
LTYPE
  5
FFDF
100
AcDbSymbolTableRecord
100
AcDbLinetypeTableRecord
  2
DASHED
  3
破線
 70
0
 72
65
 73
2
 40
3.8
 49
3
 74
0
 49
-0.8
 74
0
  0
LTYPE
  5
FFE0
100
AcDbSymbolTableRecord
100
AcDbLinetypeTableRecord
  2
DOT
  3
点線
 70
0
 72
65
 73
2
 40
2
 49
1
 74
0
 49
-1
 74
0
  0
LTYPE
  5
FFE1
100
AcDbSymbolTableRecord
100
AcDbLinetypeTableRecord
  2
DASHDOT
  3
一点鎖線
 70
0
 72
65
 73
4
 40
25.6
 49
20
 74
0
 49
-2
 74
0
 49
1.6
 74
0
 49
-2
 74
0
  0
LTYPE
  5
FFE2
100
AcDbSymbolTableRecord
100
AcDbLinetypeTableRecord
  2
DIVIDE
  3
二点鎖線
 70
0
 72
65
 73
6
 40
31.199999999999996
 49
20
 74
0
 49
-2.399999999999999
 74
0
 49
2
 74
0
 49
-2.399999999999999
 74
0
 49
2
 74
0
 49
-2.399999999999999
 74
0
  0
ENDTAB
  0
TABLE
  2
LAYER
  5
FF68
100
AcDbSymbolTable
 70
2
  0
LAYER
  5
FFC2
100
AcDbSymbolTableRecord
100
AcDbLayerTableRecord
 70
0
  2
0
 62
7
  6
CONTINUOUS
370
-3
390
FF75
  0
LAYER
  5
1014F
100
AcDbSymbolTableRecord
100
AcDbLayerTableRecord
 70
0
  2
SPEC
 62
7
  6
CONTINUOUS
370
-3
390
FF75
  0
ENDTAB
  0
TABLE
  2
STYLE
  5
FF69
100
AcDbSymbolTable
 70
6
  0
STYLE
  5
FFC3
100
AcDbSymbolTableRecord
100
AcDbTextStyleTableRecord
  2
STANDARD
 70
0
 40
0
 41
1
 50
0
 71
0
 42
0.2
  3
txt.shx
  4
extfont2.shx
  0
STYLE
  5
FFC7
100
AcDbSymbolTableRecord
100
AcDbTextStyleTableRecord
  2
ANNOTATIVE
 70
0
 40
0
 41
1
 50
0
 71
0
 42
0.2
  3
txt
1001
ACADANNOTATIVE
1000
AnnotativeData
1002
{
1070
1
1070
1
1002
}
  0
STYLE
  5
FFE3
100
AcDbSymbolTableRecord
100
AcDbTextStyleTableRecord
  2
EXCADSTD
 70
0
 40
0
 41
1
 50
0
 71
0
 42
0.2
  3
monotxt
  4
extfont
  0
STYLE
  5
FFE4
100
AcDbSymbolTableRecord
100
AcDbTextStyleTableRecord
  2
EXCADVERT
 70
4
 40
0
 41
1
 50
0
 71
0
 42
0.286885
  3
monotxt
  4
extfont
  0
STYLE
  5
FFE5
100
AcDbSymbolTableRecord
100
AcDbTextStyleTableRecord
  2
EXCADSTD2
 70
0
 40
0
 41
1
 50
0
 71
0
 42
0.2
  3
monotxt
  0
STYLE
  5
FFE6
100
AcDbSymbolTableRecord
100
AcDbTextStyleTableRecord
  2
EXCADVERT2
 70
4
 40
0
 41
1
 50
0
 71
0
 42
0.286885
  3
monotxt
  0
ENDTAB
  0
TABLE
  2
VIEW
  5
FF6C
100
AcDbSymbolTable
 70
0
  0
ENDTAB
  0
TABLE
  2
UCS
  5
FF6D
100
AcDbSymbolTable
 70
0
  0
ENDTAB
  0
TABLE
  2
APPID
  5
FF6F
330
0
100
AcDbSymbolTable
 70
4
  0
APPID
  5
FFC4
100
AcDbSymbolTableRecord
100
AcDbRegAppTableRecord
  2
ACAD
 70
0
  0
APPID
  5
FFCB
100
AcDbSymbolTableRecord
100
AcDbRegAppTableRecord
  2
ACADANNOTATIVE
 70
0
  0
APPID
  5
FFD5
100
AcDbSymbolTableRecord
100
AcDbRegAppTableRecord
  2
ACAD_MLEADERVER
 70
0
  0
APPID
  5
FFE7
100
AcDbSymbolTableRecord
100
AcDbRegAppTableRecord
  2
ACAD_EXEMPT_FROM_CAD_STANDARDS
 70
0
  0
ENDTAB
  0
TABLE
  2
DIMSTYLE
  5
FF70
330
0
100
AcDbSymbolTable
 70
2
100
AcDbDimStyleTable
 71
0
  0
DIMSTYLE
105
FFC5
100
AcDbSymbolTableRecord
100
AcDbDimStyleTableRecord
  2
STANDARD
 70
0
  3

  4

 40
1
 41
0.18
 42
0.0625
 43
0.38
 44
0.18
 45
0
 46
0
 47
0
 48
0
140
0.18
141
0.09
142
0
143
1
144
1
145
0
146
1
147
0.09
148
0
 71
0
 72
0
 73
1
 74
1
 75
0
 76
0
 77
0
 78
0
 79
0
170
0
171
2
172
0
173
0
174
0
175
0
179
0
271
4
272
4
273
2
274
0
275
0
276
0
277
2
278
46
279
2
280
0
281
0
282
0
283
1
284
0
285
0
286
0
288
0
289
0
340
FFC3
371
-2
372
-2
  0
DIMSTYLE
105
FFC6
100
AcDbSymbolTableRecord
100
AcDbDimStyleTableRecord
  2
ANNOTATIVE
 70
0
  3

  4

 40
1
 41
0.18
 42
0.0625
 43
0.38
 44
0.18
 45
0
 46
0
 47
0
 48
0
140
0.18
141
0.09
142
0
143
1
144
1
145
0
146
1
147
0.09
148
0
 71
0
 72
0
 73
1
 74
1
 75
0
 76
0
 77
0
 78
0
 79
0
170
0
171
2
172
0
173
0
174
0
175
0
179
0
271
4
272
4
273
2
274
0
275
0
276
0
277
2
278
46
279
2
280
0
281
0
282
0
283
1
284
0
285
0
286
0
288
0
289
0
340
FFC3
371
-2
372
-2
1001
ACADANNOTATIVE
1000
AnnotativeData
1002
{
1070
1
1070
1
1002
}
  0
ENDTAB
  0
TABLE
  2
BLOCK_RECORD
  5
FF67
330
0
100
AcDbSymbolTable
 70
3
  0
BLOCK_RECORD
  5
FFEB
330
FF67
100
AcDbSymbolTableRecord
100
AcDbBlockTableRecord
  2
$MODEL_SPACE
  0
BLOCK_RECORD
  5
FFED
330
FF67
100
AcDbSymbolTableRecord
100
AcDbBlockTableRecord
  2
$PAPER_SPACE
  0
BLOCK_RECORD
  5
FFEF
330
FF67
100
AcDbSymbolTableRecord
100
AcDbBlockTableRecord
  2
_EX_NORM
  0
BLOCK_RECORD
  5
FFF1
330
FF67
100
AcDbSymbolTableRecord
100
AcDbBlockTableRecord
  2
_EX_BNORM
  0
BLOCK_RECORD
  5
FFF3
330
FF67
100
AcDbSymbolTableRecord
100
AcDbBlockTableRecord
  2
_EX_BCIR
  0
BLOCK_RECORD
  5
FFF5
330
FF67
100
AcDbSymbolTableRecord
100
AcDbBlockTableRecord
  2
_EX_RCIVIL
  0
BLOCK_RECORD
  5
FFF7
330
FF67
100
AcDbSymbolTableRecord
100
AcDbBlockTableRecord
  2
_EX_SLANT
  0
BLOCK_RECORD
  5
FFF9
330
FF67
100
AcDbSymbolTableRecord
100
AcDbBlockTableRecord
  2
_EX_NONE
  0
BLOCK_RECORD
  5
FFFB
330
FF67
100
AcDbSymbolTableRecord
100
AcDbBlockTableRecord
  2
_EX_WCIR
  0
BLOCK_RECORD
  5
FFFD
330
FF67
100
AcDbSymbolTableRecord
100
AcDbBlockTableRecord
  2
_EX_CIVIL
  0
BLOCK_RECORD
  5
10150
330
FF67
100
AcDbSymbolTableRecord
100
AcDbBlockTableRecord
  2
SPECEL-LF-HH4532A2
  0
BLOCK_RECORD
  5
FFDA
330
FF67
100
AcDbSymbolTableRecord
100
AcDbBlockTableRecord
  2
*Model_Space
340
FFDD
  0
BLOCK_RECORD
  5
FFD6
330
FF67
100
AcDbSymbolTableRecord
100
AcDbBlockTableRecord
  2
*Paper_Space
340
FFD9
  0
BLOCK_RECORD
  5
FFFF
330
FF67
100
AcDbSymbolTableRecord
100
AcDbBlockTableRecord
  2
*U10
  0
BLOCK_RECORD
  5
10001
330
FF67
100
AcDbSymbolTableRecord
100
AcDbBlockTableRecord
  2
*U11
  0
BLOCK_RECORD
  5
10003
330
FF67
100
AcDbSymbolTableRecord
100
AcDbBlockTableRecord
  2
*U12
  0
ENDTAB
  0
ENDSEC
  0
SECTION
  2
BLOCKS
  0
BLOCK
  5
FFEC
330
FFEB
100
AcDbEntity
  8
0
100
AcDbBlockBegin
  2
$MODEL_SPACE
 70
0
 10
0
 20
0
 30
0
  3
$MODEL_SPACE
  0
ENDBLK
  5
F2B8
330
FFEB
100
AcDbEntity
  8
0
100
AcDbBlockEnd
  0
BLOCK
  5
FFEE
330
FFED
100
AcDbEntity
  8
0
100
AcDbBlockBegin
  2
$PAPER_SPACE
 70
0
 10
0
 20
0
 30
0
  3
$PAPER_SPACE
  0
ENDBLK
  5
F2B4
330
FFED
100
AcDbEntity
  8
0
100
AcDbBlockEnd
  0
BLOCK
  5
FFF0
330
FFEF
100
AcDbEntity
  8
0
100
AcDbBlockBegin
  2
_EX_NORM
 70
0
 10
0
 20
0
 30
0
  3
_EX_NORM
  0
LINE
  5
2D
330
FFEF
100
AcDbEntity
  8
0
  6
ByBlock
 62
0
100
AcDbLine
 10
0
 20
0
 30
0
 11
-1
 21
0
 31
0
  0
LINE
  5
2E
330
FFEF
100
AcDbEntity
  8
0
  6
ByBlock
 62
0
100
AcDbLine
 10
0
 20
0
 30
0
 11
-0.96076899999999987
 21
0.27735
 31
0
  0
LINE
  5
2F
330
FFEF
100
AcDbEntity
  8
0
  6
ByBlock
 62
0
100
AcDbLine
 10
0
 20
0
 30
0
 11
-0.96076899999999987
 21
-0.27735
 31
0
  0
ENDBLK
  5
30
330
FFEF
100
AcDbEntity
  8
0
100
AcDbBlockEnd
  0
BLOCK
  5
FFF2
330
FFF1
100
AcDbEntity
  8
0
100
AcDbBlockBegin
  2
_EX_BNORM
 70
0
 10
0
 20
0
 30
0
  3
_EX_BNORM
  0
LINE
  5
33
330
FFF1
100
AcDbEntity
  8
0
  6
ByBlock
 62
0
100
AcDbLine
 10
0
 20
0
 30
0
 11
-1
 21
0
 31
0
  0
LINE
  5
34
330
FFF1
100
AcDbEntity
  8
0
  6
ByBlock
 62
0
100
AcDbLine
 10
0
 20
0
 30
0
 11
-0.96076899999999987
 21
0.27735
 31
0
  0
LINE
  5
35
330
FFF1
100
AcDbEntity
  8
0
  6
ByBlock
 62
0
100
AcDbLine
 10
0
 20
0
 30
0
 11
-0.96076899999999987
 21
-0.27735
 31
0
  0
LINE
  5
36
330
FFF1
100
AcDbEntity
  8
0
  6
ByBlock
 62
0
100
AcDbLine
 10
0
 20
0
 30
0
 11
-0.96076899999999987
 21
0.138768
 31
0
  0
LINE
  5
37
330
FFF1
100
AcDbEntity
  8
0
  6
ByBlock
 62
0
100
AcDbLine
 10
0
 20
0
 30
0
 11
-0.96076899999999987
 21
-0.138768
 31
0
  0
LINE
  5
38
330
FFF1
100
AcDbEntity
  8
0
  6
ByBlock
 62
0
100
AcDbLine
 10
-0.96076899999999987
 20
0.27735
 30
0
 11
-0.96076899999999987
 21
-0.27735
 31
0
  0
ENDBLK
  5
39
330
FFF1
100
AcDbEntity
  8
0
100
AcDbBlockEnd
  0
BLOCK
  5
FFF4
330
FFF3
100
AcDbEntity
  8
0
100
AcDbBlockBegin
  2
_EX_BCIR
 70
0
 10
0
 20
0
 30
0
  3
_EX_BCIR
  0
LINE
  5
3C
330
FFF3
100
AcDbEntity
  8
0
  6
ByBlock
 62
0
100
AcDbLine
 10
0
 20
0
 30
0
 11
-1
 21
0
 31
0
  0
CIRCLE
  5
3D
330
FFF3
100
AcDbEntity
  8
0
  6
ByBlock
 62
0
100
AcDbCircle
 10
0
 20
0
 30
0
 40
0.5
  0
CIRCLE
  5
3E
330
FFF3
100
AcDbEntity
  8
0
  6
ByBlock
 62
0
100
AcDbCircle
 10
0
 20
0
 30
0
 40
0.25
  0
ENDBLK
  5
3F
330
FFF3
100
AcDbEntity
  8
0
100
AcDbBlockEnd
  0
BLOCK
  5
FFF6
330
FFF5
100
AcDbEntity
  8
0
100
AcDbBlockBegin
  2
_EX_RCIVIL
 70
0
 10
0
 20
0
 30
0
  3
_EX_RCIVIL
  0
LINE
  5
42
330
FFF5
100
AcDbEntity
  8
0
  6
ByBlock
 62
0
100
AcDbLine
 10
0
 20
0
 30
0
 11
-1
 21
0
 31
0
  0
LINE
  5
43
330
FFF5
100
AcDbEntity
  8
0
  6
ByBlock
 62
0
100
AcDbLine
 10
-1
 20
-0.25
 30
0
 11
0
 21
-0.25
 31
0
  0
LINE
  5
44
330
FFF5
100
AcDbEntity
  8
0
  6
ByBlock
 62
0
100
AcDbLine
 10
-1
 20
-0.125
 30
0
 11
0
 21
-0.125
 31
0
  0
ENDBLK
  5
45
330
FFF5
100
AcDbEntity
  8
0
100
AcDbBlockEnd
  0
BLOCK
  5
FFF8
330
FFF7
100
AcDbEntity
  8
0
100
AcDbBlockBegin
  2
_EX_SLANT
 70
0
 10
0
 20
0
 30
0
  3
_EX_SLANT
  0
LINE
  5
48
330
FFF7
100
AcDbEntity
  8
0
  6
ByBlock
 62
0
100
AcDbLine
 10
0
 20
0
 30
0
 11
-1
 21
0
 31
0
  0
LINE
  5
49
330
FFF7
100
AcDbEntity
  8
0
  6
ByBlock
 62
0
100
AcDbLine
 10
0.70710699999999993
 20
0.70710699999999993
 30
0
 11
-0.70710699999999993
 21
-0.70710699999999993
 31
0
  0
ENDBLK
  5
4A
330
FFF7
100
AcDbEntity
  8
0
100
AcDbBlockEnd
  0
BLOCK
  5
FFFA
330
FFF9
100
AcDbEntity
  8
0
100
AcDbBlockBegin
  2
_EX_NONE
 70
0
 10
0
 20
0
 30
0
  3
_EX_NONE
  0
LINE
  5
4D
330
FFF9
100
AcDbEntity
  8
0
  6
ByBlock
 62
0
100
AcDbLine
 10
0
 20
0
 30
0
 11
-1
 21
0
 31
0
  0
ENDBLK
  5
4E
330
FFF9
100
AcDbEntity
  8
0
100
AcDbBlockEnd
  0
BLOCK
  5
FFFC
330
FFFB
100
AcDbEntity
  8
0
100
AcDbBlockBegin
  2
_EX_WCIR
 70
0
 10
0
 20
0
 30
0
  3
_EX_WCIR
  0
LINE
  5
51
330
FFFB
100
AcDbEntity
  8
0
  6
ByBlock
 62
0
100
AcDbLine
 10
0
 20
0
 30
0
 11
-1
 21
0
 31
0
  0
ENDBLK
  5
52
330
FFFB
100
AcDbEntity
  8
0
100
AcDbBlockEnd
  0
BLOCK
  5
FFFE
330
FFFD
100
AcDbEntity
  8
0
100
AcDbBlockBegin
  2
_EX_CIVIL
 70
0
 10
0
 20
0
 30
0
  3
_EX_CIVIL
  0
LINE
  5
55
330
FFFD
100
AcDbEntity
  8
0
  6
ByBlock
 62
0
100
AcDbLine
 10
0
 20
0
 30
0
 11
-1
 21
0
 31
0
  0
LINE
  5
56
330
FFFD
100
AcDbEntity
  8
0
  6
ByBlock
 62
0
100
AcDbLine
 10
-1
 20
0.25
 30
0
 11
0
 21
0.25
 31
0
  0
LINE
  5
57
330
FFFD
100
AcDbEntity
  8
0
  6
ByBlock
 62
0
100
AcDbLine
 10
-1
 20
0.125
 30
0
 11
0
 21
0.125
 31
0
  0
ENDBLK
  5
58
330
FFFD
100
AcDbEntity
  8
0
100
AcDbBlockEnd
  0
BLOCK
  5
10151
330
10150
100
AcDbEntity
  8
0
100
AcDbBlockBegin
  2
SPECEL-LF-HH4532A2
 70
64
 10
0
 20
0
 30
0
  3
SPECEL-LF-HH4532A2
  0
TEXT
  5
10152
330
10150
100
AcDbEntity
  8
SPEC
100
AcDbText
 10
0
 20
0
 30
0
 40
1.5
  1
蓄電池内蔵形･反射笠付器具 LED光源
  7
STANDARD
100
AcDbText
  0
TEXT
  5
10153
330
10150
100
AcDbEntity
  8
SPEC
100
AcDbText
 10
0
 20
-3
 30
0
 40
1.5
  1
本体:鋼板･塗装亜鉛めっき鋼板白色
  7
STANDARD
100
AcDbText
  0
TEXT
  5
10154
330
10150
100
AcDbEntity
  8
SPEC
100
AcDbText
 10
0
 20
-6
 30
0
 40
1.5
  1
反射板:鋼板･塗装亜鉛めっき鋼板白色
  7
STANDARD
100
AcDbText
  0
TEXT
  5
10155
330
10150
100
AcDbEntity
  8
SPEC
100
AcDbText
 10
0
 20
-9
 30
0
 40
1.5
  1
光束:4770lm 消費電力:42W 消費効率:113.5lm/W
  7
STANDARD
100
AcDbText
  0
TEXT
  5
10156
330
10150
100
AcDbEntity
  8
SPEC
100
AcDbText
 10
0
 20
-12
 30
0
 40
1.5
  1
二種ﾋﾞﾆﾙ絶縁電線 Ni-MH蓄電池
  7
STANDARD
100
AcDbText
  0
ENDBLK
  5
10157
330
10150
100
AcDbEntity
  8
0
100
AcDbBlockEnd
  0
BLOCK
  5
FFDB
330
FFDA
100
AcDbEntity
  8
0
100
AcDbBlockBegin
  2
*Model_Space
 70
0
 10
0
 20
0
 30
0
  3
*Model_Space
  0
ENDBLK
  5
FFDC
330
FFDA
100
AcDbEntity
  8
0
100
AcDbBlockEnd
  0
BLOCK
  5
FFD7
330
FFD6
100
AcDbEntity
  8
0
 67
1
100
AcDbBlockBegin
  2
*Paper_Space
 70
0
 10
0
 20
0
 30
0
  3
*Paper_Space
  0
ENDBLK
  5
FFD8
330
FFD6
100
AcDbEntity
  8
0
100
AcDbBlockEnd
  0
BLOCK
  5
10000
330
FFFF
100
AcDbEntity
  8
0
100
AcDbBlockBegin
  2
*U10
 70
1
 10
0
 20
0
 30
0
  3
*U10
  0
SOLID
  5
E5D8
330
FFFF
100
AcDbEntity
  8
0
  6
CONTINUOUS
 62
7
100
AcDbTrace
 10
9.99008810392635
 20
2.878549791749577
 30
0
 11
9.99008810392635
 21
2.836175117281015
 31
0
 12
10.0321182688464
 22
2.836175117281015
 32
0
 13
10.0321182688464
 23
2.836175117281015
 33
0
  0
SOLID
  5
E5D9
330
FFFF
100
AcDbEntity
  8
0
  6
CONTINUOUS
 62
7
100
AcDbTrace
 10
-9.99008810392635
 20
2.878549791749577
 30
0
 11
-10.0321182688464
 21
2.878549791749577
 31
0
 12
-10.0321182688464
 22
2.836175117281015
 32
0
 13
-10.0321182688464
 23
2.836175117281015
 33
0
210
0
220
0
230
-1
  0
LINE
  5
E5DA
330
FFFF
100
AcDbEntity
  8
0
  6
CONTINUOUS
 62
7
100
AcDbLine
 10
9.99008810392635
 20
2.878549791749577
 30
0
 11
9.99008810392635
 21
2.836175117281015
 31
0
  0
LINE
  5
E5DB
330
FFFF
100
AcDbEntity
  8
0
  6
CONTINUOUS
 62
7
100
AcDbLine
 10
10.0321182688464
 20
2.878549791749577
 30
0
 11
10.0321182688464
 21
2.836175117281015
 31
0
  0
ENDBLK
  5
E5DD
330
FFFF
100
AcDbEntity
  8
0
100
AcDbBlockEnd
  0
BLOCK
  5
10002
330
10001
100
AcDbEntity
  8
0
100
AcDbBlockBegin
  2
*U11
 70
1
 10
0
 20
0
 30
0
  3
*U11
  0
SOLID
  5
E5DF
330
10001
100
AcDbEntity
  8
0
  6
CONTINUOUS
 62
7
100
AcDbTrace
 10
2.878032750402169
 20
3.936538153208911
 30
0
 11
2.878032750402169
 21
3.8941634787403512
 31
0
 12
2.920407424870731
 22
3.8941634787403512
 32
0
 13
2.920407424870731
 23
3.8941634787403512
 33
0
  0
SOLID
  5
E5E0
330
10001
100
AcDbEntity
  8
0
  6
CONTINUOUS
 62
7
100
AcDbTrace
 10
-2.878032750402169
 20
3.936538153208911
 30
0
 11
-2.920407424870731
 21
3.936538153208911
 31
0
 12
-2.920407424870731
 22
3.8941634787403512
 32
0
 13
-2.920407424870731
 23
3.8941634787403512
 33
0
210
0
220
0
230
-1
  0
LINE
  5
E5E1
330
10001
100
AcDbEntity
  8
0
  6
CONTINUOUS
 62
7
100
AcDbLine
 10
2.878032750402169
 20
3.936538153208911
 30
0
 11
2.878032750402169
 21
3.8941634787403512
 31
0
  0
LINE
  5
E5E2
330
10001
100
AcDbEntity
  8
0
  6
CONTINUOUS
 62
7
100
AcDbLine
 10
2.920407424870731
 20
3.936538153208911
 30
0
 11
2.920407424870731
 21
3.8941634787403512
 31
0
  0
ENDBLK
  5
E5E4
330
10001
100
AcDbEntity
  8
0
100
AcDbBlockEnd
  0
BLOCK
  5
10004
330
10003
100
AcDbEntity
  8
0
100
AcDbBlockBegin
  2
*U12
 70
1
 10
0
 20
0
 30
0
  3
*U12
  0
SOLID
  5
E5E6
330
10003
100
AcDbEntity
  8
0
  6
CONTINUOUS
 62
7
100
AcDbTrace
 10
1.2264537659596031
 20
0.97289493623634349
 30
0
 11
1.2264537659596031
 21
0.93017575221924154
 31
0
 12
1.269172949976688
 22
0.93017575221924154
 32
0
 13
1.269172949976688
 23
0.93017575221924154
 33
0
  0
SOLID
  5
E5E7
330
10003
100
AcDbEntity
  8
0
  6
CONTINUOUS
 62
7
100
AcDbTrace
 10
-1.2264537659596031
 20
0.97289493623634349
 30
0
 11
-1.269172949976688
 21
0.97289493623634349
 31
0
 12
-1.269172949976688
 22
0.93017575221924154
 32
0
 13
-1.269172949976688
 23
0.93017575221924154
 33
0
210
0
220
0
230
-1
  0
LINE
  5
E5E8
330
10003
100
AcDbEntity
  8
0
  6
CONTINUOUS
 62
7
100
AcDbLine
 10
1.2264537659596031
 20
0.97289493623634349
 30
0
 11
1.2264537659596031
 21
0.93017575221924154
 31
0
  0
LINE
  5
E5E9
330
10003
100
AcDbEntity
  8
0
  6
CONTINUOUS
 62
7
100
AcDbLine
 10
1.269172949976688
 20
0.97289493623634349
 30
0
 11
1.269172949976688
 21
0.93017575221924154
 31
0
  0
ENDBLK
  5
E5EB
330
10003
100
AcDbEntity
  8
0
100
AcDbBlockEnd
  0
ENDSEC
  0
SECTION
  2
ENTITIES
  0
TEXT
  5
98
330
FFDA
100
AcDbEntity
  8
0
  6
CONTINUOUS
 62
7
100
AcDbText
 10
5
 20
6
 30
0
 40
4.5
  1
三菱 EL-LF-HH4532A/2
  7
EXCADSTD
100
AcDbText
  0
TEXT
  5
99
330
FFDA
100
AcDbEntity
  8
0
  6
CONTINUOUS
 62
7
100
AcDbText
 10
5
 20
90.041093
 30
0
 40
4.5
  1
LDL40 反射笠付非常灯BT付
  7
EXCADSTD
100
AcDbText
  0
LWPOLYLINE
  5
D5BC
330
FFDA
100
AcDbEntity
  8
0
 62
7
100
AcDbPolyline
 90
2
 70
0
 10
76.432001570554092
 20
28.155150501522971
 10
76.432001570554092
 20
28.155150501522971
  0
LWPOLYLINE
  5
D5C0
330
FFDA
100
AcDbEntity
  8
0
 62
7
100
AcDbPolyline
 90
2
 70
0
 10
75.924883515125373
 20
29.170936905348889
 10
75.882164331108243
 20
29.170936905348889
  0
LWPOLYLINE
  5
D5C4
330
FFDA
100
AcDbEntity
  8
0
 62
7
100
AcDbPolyline
 90
2
 70
0
 10
75.712665633233982
 20
28.874486438843149
 10
75.669946449216866
 20
28.831767254826051
  0
LWPOLYLINE
  5
D5C8
330
FFDA
100
AcDbEntity
  8
0
 62
7
100
AcDbPolyline
 90
2
 70
0
 10
75.669946449216866
 20
28.365818090446
 10
75.669946449216866
 20
28.365818090446
  0
LWPOLYLINE
  5
D5CC
330
FFDA
100
AcDbEntity
  8
0
 62
7
100
AcDbPolyline
 90
2
 70
0
 10
75.839445147091155
 20
27.942932619631591
 10
75.882164331108243
 20
27.900213435614489
  0
LWPOLYLINE
  5
D5D0
330
FFDA
100
AcDbEntity
  8
0
 62
7
100
AcDbPolyline
 90
2
 70
0
 10
76.221161726856849
 20
27.773433921757292
 10
76.263880910873922
 20
27.773433921757292
  0
LWPOLYLINE
  5
D5D4
330
FFDA
100
AcDbEntity
  8
0
 62
7
100
AcDbPolyline
 90
2
 70
0
 10
76.305222056696948
 20
29.043812881943168
 10
76.263880910873922
 20
29.043812881943168
  0
LWPOLYLINE
  5
D5D8
330
FFDA
100
AcDbEntity
  8
0
 62
7
100
AcDbPolyline
 90
2
 70
0
 10
76.221161726856849
 20
28.662096302177481
 10
76.221161726856849
 20
28.49276985907747
  0
LWPOLYLINE
  5
D5DC
330
FFDA
100
AcDbEntity
  8
0
 62
7
100
AcDbPolyline
 90
2
 70
0
 10
76.221161726856849
 20
28.451600968028711
 10
76.135723358822645
 20
28.408881784011609
  0
LWPOLYLINE
  5
D5E0
330
FFDA
100
AcDbEntity
  8
0
 62
7
100
AcDbPolyline
 90
2
 70
0
 10
76.17844254283979
 20
28.49276985907747
 10
76.17844254283979
 20
28.662096302177481
  0
LWPOLYLINE
  5
D5E4
330
FFDA
100
AcDbEntity
  8
0
 62
7
100
AcDbPolyline
 90
2
 70
0
 10
76.17844254283979
 20
28.49276985907747
 10
76.094382212999662
 20
28.451600968028711
  0
LWPOLYLINE
  5
D5E8
330
FFDA
100
AcDbEntity
  8
0
 62
7
100
AcDbPolyline
 90
2
 70
0
 10
76.094382212999662
 20
28.620927411128751
 10
76.17844254283979
 20
28.662096302177481
  0
LWPOLYLINE
  5
D5EC
330
FFDA
100
AcDbEntity
  8
0
 62
7
100
AcDbPolyline
 90
2
 70
0
 10
76.17844254283979
 20
28.70481548619458
 10
76.094382212999662
 20
28.662096302177481
  0
LWPOLYLINE
  5
D5F0
330
FFDA
100
AcDbEntity
  8
0
 62
7
100
AcDbPolyline
 90
2
 70
0
 10
76.094382212999662
 20
28.620927411128751
 10
76.094382212999662
 20
28.451600968028711
  0
LWPOLYLINE
  5
D5F4
330
FFDA
100
AcDbEntity
  8
0
 62
7
100
AcDbPolyline
 90
2
 70
0
 10
76.094382212999662
 20
28.451600968028711
 10
76.094382212999662
 20
28.620927411128751
  0
LWPOLYLINE
  5
D5F8
330
FFDA
100
AcDbEntity
  8
0
 62
7
100
AcDbPolyline
 90
2
 70
0
 10
76.008943844965472
 20
28.747534670211682
 10
76.008943844965472
 20
28.747534670211682
  0
LWPOLYLINE
  5
D5FC
330
FFDA
100
AcDbEntity
  8
0
 62
7
100
AcDbPolyline
 90
2
 70
0
 10
75.798104001268143
 20
28.874486438843149
 10
75.798104001268143
 20
28.365818090446
  0
LWPOLYLINE
  5
D600
330
FFDA
100
AcDbEntity
  8
0
 62
7
100
AcDbPolyline
 90
2
 70
0
 10
75.712665633233982
 20
28.365818090446
 10
75.712665633233982
 20
28.874486438843149
  0
LWPOLYLINE
  5
D604
330
FFDA
100
AcDbEntity
  8
0
 62
7
100
AcDbPolyline
 90
2
 70
0
 10
75.669946449216866
 20
28.831767254826051
 10
75.669946449216866
 20
28.365818090446
  0
LWPOLYLINE
  5
D608
330
FFDA
100
AcDbEntity
  8
0
 62
7
100
AcDbPolyline
 90
2
 70
0
 10
75.712665633233982
 20
28.874486438843149
 10
75.798104001268143
 20
28.874486438843149
  0
LWPOLYLINE
  5
D60C
330
FFDA
100
AcDbEntity
  8
0
 62
7
100
AcDbPolyline
 90
2
 70
0
 10
76.008943844965472
 20
28.747534670211682
 10
76.008943844965472
 20
28.747534670211682
  0
LWPOLYLINE
  5
D610
330
FFDA
100
AcDbEntity
  8
0
 62
7
100
AcDbPolyline
 90
2
 70
0
 10
75.712665633233982
 20
28.365818090446
 10
75.669946449216866
 20
28.365818090446
  0
LWPOLYLINE
  5
D614
330
FFDA
100
AcDbEntity
  8
0
 62
7
100
AcDbPolyline
 90
2
 70
0
 10
75.712665633233982
 20
28.365818090446
 10
75.798104001268143
 20
28.365818090446
  0
LWPOLYLINE
  5
D618
330
FFDA
100
AcDbEntity
  8
0
 62
7
100
AcDbPolyline
 90
2
 70
0
 10
76.008943844965472
 20
28.578208227111649
 10
76.008943844965472
 20
28.747534670211682
  0
LWPOLYLINE
  5
D61C
330
FFDA
100
AcDbEntity
  8
0
 62
7
100
AcDbPolyline
 90
2
 70
0
 10
76.008943844965472
 20
28.747534670211682
 10
76.008943844965472
 20
28.578208227111649
  0
LWPOLYLINE
  5
D620
330
FFDA
100
AcDbEntity
  8
0
 62
7
100
AcDbPolyline
 90
2
 70
0
 10
76.432001570554092
 20
28.620927411128751
 10
76.432001570554092
 20
28.155150501522971
  0
LWPOLYLINE
  5
D624
330
FFDA
100
AcDbEntity
  8
0
 62
7
100
AcDbPolyline
 90
2
 70
0
 10
76.221161726856849
 20
28.49276985907747
 10
76.221161726856849
 20
28.451600968028711
  0
LWPOLYLINE
  5
D628
330
FFDA
100
AcDbEntity
  8
0
 62
7
100
AcDbPolyline
 90
2
 70
0
 10
76.135723358822645
 20
28.451600968028711
 10
76.135723358822645
 20
28.451600968028711
  0
LWPOLYLINE
  5
D62C
330
FFDA
100
AcDbEntity
  8
0
 62
7
100
AcDbPolyline
 90
2
 70
0
 10
76.135723358822645
 20
28.451600968028711
 10
76.135723358822645
 20
28.451600968028711
  0
LWPOLYLINE
  5
D630
330
FFDA
100
AcDbEntity
  8
0
 62
7
100
AcDbPolyline
 90
2
 70
0
 10
76.008943844965472
 20
28.53548904309454
 10
76.008943844965472
 20
28.578208227111649
  0
LWPOLYLINE
  5
D634
330
FFDA
100
AcDbEntity
  8
0
 62
7
100
AcDbPolyline
 90
3
 70
0
 10
75.924883515125373
 20
29.170936905348889
 10
76.008943844965472
 20
29.213483834591731
 10
76.051663028982546
 20
29.170936905348889
  0
LWPOLYLINE
  5
D639
330
FFDA
100
AcDbEntity
  8
0
 62
7
100
AcDbPolyline
 90
3
 70
0
 10
76.432001570554092
 20
28.155150501522971
 10
76.390660424731166
 20
27.900213435614489
 10
76.263880910873922
 20
27.773433921757292
  0
LWPOLYLINE
  5
D63E
330
FFDA
100
AcDbEntity
  8
0
 62
7
100
AcDbPolyline
 90
3
 70
0
 10
75.712665633233982
 20
28.874486438843149
 10
75.755384817251041
 20
29.08653206596026
 10
75.924883515125373
 20
29.170936905348889
  0
LWPOLYLINE
  5
D643
330
FFDA
100
AcDbEntity
  8
0
 62
7
100
AcDbPolyline
 90
3
 70
0
 10
75.882164331108243
 20
29.170936905348889
 10
75.755384817251041
 20
29.043812881943168
 10
75.669946449216866
 20
28.831767254826051
  0
LWPOLYLINE
  5
D648
330
FFDA
100
AcDbEntity
  8
0
 62
7
100
AcDbPolyline
 90
3
 70
0
 10
76.008943844965472
 20
28.70481548619458
 10
76.051663028982546
 20
28.70481548619458
 10
76.094382212999662
 20
28.662096302177481
  0
LWPOLYLINE
  5
D64D
330
FFDA
100
AcDbEntity
  8
0
 62
7
100
AcDbPolyline
 90
5
 70
0
 10
75.798104001268143
 20
28.874486438843149
 10
75.839445147091155
 20
29.043812881943168
 10
75.966224660948342
 20
29.170936905348889
 10
76.094382212999662
 20
29.170936905348889
 10
76.305222056696948
 20
29.043812881943168
  0
LWPOLYLINE
  5
D654
330
FFDA
100
AcDbEntity
  8
0
 62
7
100
AcDbPolyline
 90
3
 70
0
 10
75.669946449216866
 20
28.365818090446
 10
75.755384817251041
 20
28.155150501522971
 10
75.882164331108243
 20
27.900213435614489
  0
LWPOLYLINE
  5
D659
330
FFDA
100
AcDbEntity
  8
0
 62
7
100
AcDbPolyline
 90
3
 70
0
 10
76.094382212999662
 20
28.662096302177481
 10
76.051663028982546
 20
28.70481548619458
 10
76.008943844965472
 20
28.70481548619458
  0
LWPOLYLINE
  5
D65E
330
FFDA
100
AcDbEntity
  8
0
 62
7
100
AcDbPolyline
 90
3
 70
0
 10
75.882164331108243
 20
27.900213435614489
 10
76.051663028982546
 20
27.773433921757292
 10
76.221161726856849
 20
27.773433921757292
  0
LWPOLYLINE
  5
D663
330
FFDA
100
AcDbEntity
  8
0
 62
7
100
AcDbPolyline
 90
3
 70
0
 10
76.094382212999662
 20
29.170936905348889
 10
76.17844254283979
 20
29.1282177213318
 10
76.263880910873922
 20
29.043812881943168
  0
LWPOLYLINE
  5
D668
330
FFDA
100
AcDbEntity
  8
0
 62
7
100
AcDbPolyline
 90
2
 70
0
 10
76.221161726856849
 20
28.662096302177481
 10
76.17844254283979
 20
28.662096302177481
  0
LWPOLYLINE
  5
D66C
330
FFDA
100
AcDbEntity
  8
0
 62
7
100
AcDbPolyline
 90
2
 70
0
 10
76.221161726856849
 20
28.747534670211682
 10
76.221161726856849
 20
28.662096302177481
  0
LWPOLYLINE
  5
D670
330
FFDA
100
AcDbEntity
  8
0
 62
7
100
AcDbPolyline
 90
2
 70
0
 10
76.221161726856849
 20
28.451600968028711
 10
76.221161726856849
 20
28.49276985907747
  0
LWPOLYLINE
  5
D674
330
FFDA
100
AcDbEntity
  8
0
 62
7
100
AcDbPolyline
 90
2
 70
0
 10
76.17844254283979
 20
28.49276985907747
 10
76.221161726856849
 20
28.49276985907747
  0
LWPOLYLINE
  5
D678
330
FFDA
100
AcDbEntity
  8
0
 62
7
100
AcDbPolyline
 90
3
 70
0
 10
76.008943844965472
 20
28.747534670211682
 10
76.094382212999662
 20
28.747534670211682
 10
76.17844254283979
 20
28.70481548619458
  0
LWPOLYLINE
  5
D67D
330
FFDA
100
AcDbEntity
  8
0
 62
7
100
AcDbPolyline
 90
2
 70
0
 10
76.221161726856849
 20
28.747534670211682
 10
76.17844254283979
 20
28.70481548619458
  0
LWPOLYLINE
  5
D681
330
FFDA
100
AcDbEntity
  8
0
 62
7
100
AcDbPolyline
 90
2
 70
0
 10
76.17844254283979
 20
28.70481548619458
 10
76.17844254283979
 20
28.662096302177481
  0
LWPOLYLINE
  5
D685
330
FFDA
100
AcDbEntity
  8
0
 62
7
100
AcDbPolyline
 90
2
 70
0
 10
76.094382212999662
 20
28.620927411128751
 10
76.094382212999662
 20
28.620927411128751
  0
LWPOLYLINE
  5
D689
330
FFDA
100
AcDbEntity
  8
0
 62
7
100
AcDbPolyline
 90
2
 70
0
 10
76.094382212999662
 20
28.662096302177481
 10
76.094382212999662
 20
28.620927411128751
  0
LWPOLYLINE
  5
D68D
330
FFDA
100
AcDbEntity
  8
0
 62
7
100
AcDbPolyline
 90
2
 70
0
 10
76.094382212999662
 20
28.408881784011609
 10
76.135723358822645
 20
28.408881784011609
  0
LWPOLYLINE
  5
D691
330
FFDA
100
AcDbEntity
  8
0
 62
7
100
AcDbPolyline
 90
2
 70
0
 10
76.094382212999662
 20
28.451600968028711
 10
76.094382212999662
 20
28.451600968028711
  0
LWPOLYLINE
  5
D695
330
FFDA
100
AcDbEntity
  8
0
 62
7
100
AcDbPolyline
 90
2
 70
0
 10
76.094382212999662
 20
28.662096302177481
 10
76.094382212999662
 20
28.662096302177481
  0
LWPOLYLINE
  5
D699
330
FFDA
100
AcDbEntity
  8
0
 62
7
100
AcDbPolyline
 90
2
 70
0
 10
76.094382212999662
 20
29.170936905348889
 10
76.094382212999662
 20
29.170936905348889
  0
LWPOLYLINE
  5
D69D
330
FFDA
100
AcDbEntity
  8
0
 62
7
100
AcDbPolyline
 90
2
 70
0
 10
76.094382212999662
 20
28.620927411128751
 10
76.094382212999662
 20
28.662096302177481
  0
LWPOLYLINE
  5
D6A1
330
FFDA
100
AcDbEntity
  8
0
 62
7
100
AcDbPolyline
 90
8
 70
0
 10
76.17844254283979
 20
27.98547954887443
 10
76.17844254283979
 20
28.028198732891521
 10
76.221161726856849
 20
28.069884388263041
 10
76.221161726856849
 20
28.239210831363071
 10
76.17844254283979
 20
28.281930015380169
 10
76.17844254283979
 20
28.324649199397271
 10
76.135723358822645
 20
28.365818090446
 10
76.094382212999662
 20
28.408881784011609
  0
LWPOLYLINE
  5
D6AB
330
FFDA
100
AcDbEntity
  8
0
 62
7
100
AcDbPolyline
 90
3
 70
0
 10
76.051663028982546
 20
28.790598363777288
 10
76.094382212999662
 20
28.790598363777288
 10
76.221161726856849
 20
28.747534670211682
  0
LWPOLYLINE
  5
D6B0
330
FFDA
100
AcDbEntity
  8
0
 62
7
100
AcDbPolyline
 90
4
 70
0
 10
76.135723358822645
 20
28.408881784011609
 10
76.221161726856849
 20
28.281930015380169
 10
76.221161726856849
 20
28.069884388263041
 10
76.17844254283979
 20
27.98547954887443
  0
LWPOLYLINE
  5
D6B6
330
FFDA
100
AcDbEntity
  8
0
 62
7
100
AcDbPolyline
 90
5
 70
0
 10
76.221161726856849
 20
28.451600968028711
 10
76.263880910873922
 20
28.324649199397271
 10
76.305222056696948
 20
28.196491647345969
 10
76.263880910873922
 20
28.069884388263041
 10
76.17844254283979
 20
28.028198732891521
  0
LWPOLYLINE
  5
D6BD
330
FFDA
100
AcDbEntity
  8
0
 62
7
100
AcDbPolyline
 90
11
 70
0
 10
76.008943844965472
 20
28.53548904309454
 10
75.966224660948342
 20
28.49276985907747
 10
75.924883515125373
 20
28.49276985907747
 10
75.924883515125373
 20
28.196491647345969
 10
75.966224660948342
 20
28.155150501522971
 10
76.008943844965472
 20
28.069884388263041
 10
76.051663028982546
 20
28.028198732891521
 10
76.094382212999662
 20
28.028198732891521
 10
76.135723358822645
 20
27.98547954887443
 10
76.17844254283979
 20
27.98547954887443
 10
76.17844254283979
 20
28.028198732891521
  0
LWPOLYLINE
  5
D6CA
330
FFDA
100
AcDbEntity
  8
0
 62
7
100
AcDbPolyline
 90
2
 70
0
 10
76.008943844965472
 20
28.747534670211682
 10
76.008943844965472
 20
28.747534670211682
  0
LWPOLYLINE
  5
D6CE
330
FFDA
100
AcDbEntity
  8
0
 62
7
100
AcDbPolyline
 90
2
 70
0
 10
76.008943844965472
 20
28.747534670211682
 10
76.008943844965472
 20
28.747534670211682
  0
LWPOLYLINE
  5
D6D2
330
FFDA
100
AcDbEntity
  8
0
 62
7
100
AcDbPolyline
 90
2
 70
0
 10
76.008943844965472
 20
28.578208227111649
 10
76.008943844965472
 20
28.578208227111649
  0
LWPOLYLINE
  5
D6D6
330
FFDA
100
AcDbEntity
  8
0
 62
7
100
AcDbPolyline
 90
2
 70
0
 10
76.008943844965472
 20
28.53548904309454
 10
76.008943844965472
 20
28.578208227111649
  0
LWPOLYLINE
  5
D6DA
330
FFDA
100
AcDbEntity
  8
0
 62
7
100
AcDbPolyline
 90
3
 70
0
 10
76.008943844965472
 20
28.747534670211682
 10
76.008943844965472
 20
28.790598363777288
 10
76.051663028982546
 20
28.790598363777288
  0
LWPOLYLINE
  5
D6DF
330
FFDA
100
AcDbEntity
  8
0
 62
7
100
AcDbPolyline
 90
3
 70
0
 10
76.051663028982546
 20
28.790598363777288
 10
76.051663028982546
 20
28.747534670211682
 10
76.008943844965472
 20
28.747534670211682
  0
LWPOLYLINE
  5
D6E4
330
FFDA
100
AcDbEntity
  8
0
 62
7
100
AcDbPolyline
 90
2
 70
0
 10
76.094382212999662
 20
29.170936905348889
 10
76.051663028982546
 20
29.170936905348889
  0
LWPOLYLINE
  5
D6E8
330
FFDA
100
AcDbEntity
  8
0
 62
7
100
AcDbPolyline
 90
3
 70
0
 10
75.669946449216866
 20
28.365818090446
 10
75.755384817251041
 20
28.155150501522971
 10
75.839445147091155
 20
27.942932619631591
  0
LWPOLYLINE
  5
D6ED
330
FFDA
100
AcDbEntity
  8
0
 62
7
100
AcDbPolyline
 90
5
 70
0
 10
76.263880910873922
 20
27.773433921757292
 10
76.094382212999662
 20
27.81615310577439
 10
75.924883515125373
 20
27.942932619631591
 10
75.755384817251041
 20
28.155150501522971
 10
75.712665633233982
 20
28.365818090446
  0
LWPOLYLINE
  5
D6F4
330
FFDA
100
AcDbEntity
  8
0
 62
7
100
AcDbPolyline
 90
9
 70
0
 10
76.221161726856849
 20
28.49276985907747
 10
76.347941240714022
 20
28.324649199397271
 10
76.347941240714022
 20
28.11260357228014
 10
76.263880910873922
 20
27.98547954887443
 10
76.094382212999662
 20
27.98547954887443
 10
76.008943844965472
 20
28.069884388263041
 10
75.924883515125373
 20
28.239210831363071
 10
75.924883515125373
 20
28.451600968028711
 10
76.008943844965472
 20
28.578208227111649
  0
LWPOLYLINE
  5
D6FF
330
FFDA
100
AcDbEntity
  8
0
 62
7
100
AcDbPolyline
 90
3
 70
0
 10
76.305222056696948
 20
29.043812881943168
 10
76.390660424731166
 20
28.831767254826051
 10
76.432001570554092
 20
28.620927411128751
  0
LWPOLYLINE
  5
D704
330
FFDA
100
AcDbEntity
  8
0
 62
7
100
AcDbPolyline
 90
7
 70
0
 10
76.432001570554092
 20
28.155150501522971
 10
76.390660424731166
 20
27.942932619631591
 10
76.263880910873922
 20
27.858872289791488
 10
76.094382212999662
 20
27.858872289791488
 10
75.966224660948342
 20
27.98547954887443
 10
75.839445147091155
 20
28.196491647345969
 10
75.798104001268143
 20
28.365818090446
  0
LWPOLYLINE
  5
D70D
330
FFDA
100
AcDbEntity
  8
0
 62
7
100
AcDbPolyline
 90
2
 70
0
 10
76.008943844965472
 20
29.213483834591731
 10
76.008943844965472
 20
38.65321771895055
  0
LWPOLYLINE
  5
D711
330
FFDA
100
AcDbEntity
  8
0
 62
7
100
AcDbPolyline
 90
2
 70
0
 10
76.094382212999662
 20
38.611532063579013
 10
76.094382212999662
 20
29.170936905348889
  0
LWPOLYLINE
  5
D715
330
FFDA
100
AcDbEntity
  8
0
 62
7
100
AcDbPolyline
 90
2
 70
0
 10
76.094382212999662
 20
29.170936905348889
 10
76.094382212999662
 20
29.170936905348889
  0
LWPOLYLINE
  5
D719
330
FFDA
100
AcDbEntity
  8
0
 62
7
100
AcDbPolyline
 90
2
 70
0
 10
76.094382212999662
 20
29.170936905348889
 10
76.051663028982546
 20
29.170936905348889
  0
LWPOLYLINE
  5
D71D
330
FFDA
100
AcDbEntity
  8
0
 62
7
100
AcDbPolyline
 90
2
 70
0
 10
25.80150028112843
 20
56.009436518864952
 10
25.970998979002729
 20
57.6188128747994
  0
LWPOLYLINE
  5
D721
330
FFDA
100
AcDbEntity
  8
0
 62
7
100
AcDbPolyline
 90
2
 70
0
 10
25.67472076727125
 20
56.052155702882033
 10
25.80150028112843
 20
56.009436518864952
  0
LWPOLYLINE
  5
D725
330
FFDA
100
AcDbEntity
  8
0
 62
7
100
AcDbPolyline
 90
2
 70
0
 10
24.40554759050519
 20
54.528217714981793
 10
24.27739003845392
 20
54.613483828241733
  0
LWPOLYLINE
  5
D729
330
FFDA
100
AcDbEntity
  8
0
 62
7
100
AcDbPolyline
 90
2
 70
0
 10
25.251663041682551
 20
56.094874886899127
 10
25.421161739556851
 20
57.745936898205123
  0
LWPOLYLINE
  5
D72D
330
FFDA
100
AcDbEntity
  8
0
 62
7
100
AcDbPolyline
 90
2
 70
0
 10
23.60077328515084
 20
57.026600960884991
 10
23.60077328515084
 20
56.98388177686784
  0
LWPOLYLINE
  5
D731
330
FFDA
100
AcDbEntity
  8
0
 62
7
100
AcDbPolyline
 90
2
 70
0
 10
23.60077328515084
 20
57.026600960884991
 10
23.60077328515084
 20
57.11048903595082
  0
LWPOLYLINE
  5
D735
330
FFDA
100
AcDbEntity
  8
0
 62
7
100
AcDbPolyline
 90
2
 70
0
 10
23.684833614990911
 20
57.06776985193369
 10
23.684833614990911
 20
57.06776985193369
  0
LWPOLYLINE
  5
D739
330
FFDA
100
AcDbEntity
  8
0
 62
7
100
AcDbPolyline
 90
2
 70
0
 10
23.684833614990911
 20
57.06776985193369
 10
23.684833614990911
 20
57.703217714188042
  0
LWPOLYLINE
  5
D73D
330
FFDA
100
AcDbEntity
  8
0
 62
7
100
AcDbPolyline
 90
2
 70
0
 10
23.684833614990911
 20
57.06776985193369
 10
23.811613128848151
 20
55.544865392679021
  0
LWPOLYLINE
  5
D741
330
FFDA
100
AcDbEntity
  8
0
 62
7
100
AcDbPolyline
 90
2
 70
0
 10
23.727552799008041
 20
55.416880095402021
 10
23.60077328515084
 20
56.98388177686784
  0
LWPOLYLINE
  5
D745
330
FFDA
100
AcDbEntity
  8
0
 62
7
100
AcDbPolyline
 90
2
 70
0
 10
25.67472076727125
 20
56.052155702882033
 10
25.80150028112843
 20
57.703217714188042
  0
LWPOLYLINE
  5
D749
330
FFDA
100
AcDbEntity
  8
0
 62
7
100
AcDbPolyline
 90
2
 70
0
 10
25.970998979002729
 20
58.254260737053762
 10
25.970998979002729
 20
58.295429628102511
  0
LWPOLYLINE
  5
D74D
330
FFDA
100
AcDbEntity
  8
0
 62
7
100
AcDbPolyline
 90
2
 70
0
 10
25.970998979002729
 20
58.254260737053762
 10
25.970998979002729
 20
57.703217714188042
  0
LWPOLYLINE
  5
D751
330
FFDA
100
AcDbEntity
  8
0
 62
7
100
AcDbPolyline
 90
2
 70
0
 10
25.80150028112843
 20
57.745936898205123
 10
25.80150028112843
 20
58.33814881211957
  0
LWPOLYLINE
  5
D755
330
FFDA
100
AcDbEntity
  8
0
 62
7
100
AcDbPolyline
 90
2
 70
0
 10
25.421161739556851
 20
57.745936898205123
 10
25.421161739556851
 20
57.745936898205123
  0
LWPOLYLINE
  5
D759
330
FFDA
100
AcDbEntity
  8
0
 62
7
100
AcDbPolyline
 90
2
 70
0
 10
25.421161739556851
 20
57.745936898205123
 10
25.421161739556851
 20
58.33814881211957
  0
LWPOLYLINE
  5
D75D
330
FFDA
100
AcDbEntity
  8
0
 62
7
100
AcDbPolyline
 90
2
 70
0
 10
25.80150028112843
 20
58.33814881211957
 10
25.970998979002729
 20
58.295429628102511
  0
LWPOLYLINE
  5
D761
330
FFDA
100
AcDbEntity
  8
0
 62
7
100
AcDbPolyline
 90
2
 70
0
 10
25.421161739556851
 20
58.33814881211957
 10
25.335723371522651
 20
58.295429628102511
  0
LWPOLYLINE
  5
D765
330
FFDA
100
AcDbEntity
  8
0
 62
7
100
AcDbPolyline
 90
2
 70
0
 10
25.970998979002729
 20
57.703217714188042
 10
25.970998979002729
 20
57.6188128747994
  0
LWPOLYLINE
  5
D769
330
FFDA
100
AcDbEntity
  8
0
 62
7
100
AcDbPolyline
 90
2
 70
0
 10
25.970998979002729
 20
57.703217714188042
 10
25.80150028112843
 20
57.745936898205123
  0
LWPOLYLINE
  5
D76D
330
FFDA
100
AcDbEntity
  8
0
 62
7
100
AcDbPolyline
 90
2
 70
0
 10
25.80150028112843
 20
57.745936898205123
 10
25.80150028112843
 20
57.703217714188042
  0
LWPOLYLINE
  5
D771
330
FFDA
100
AcDbEntity
  8
0
 62
7
100
AcDbPolyline
 90
2
 70
0
 10
23.60077328515084
 20
57.6188128747994
 10
23.60077328515084
 20
57.322534663067941
  0
LWPOLYLINE
  5
D775
330
FFDA
100
AcDbEntity
  8
0
 62
7
100
AcDbPolyline
 90
2
 70
0
 10
23.60077328515084
 20
57.322534663067941
 10
23.60077328515084
 20
57.153208219967887
  0
LWPOLYLINE
  5
D779
330
FFDA
100
AcDbEntity
  8
0
 62
7
100
AcDbPolyline
 90
2
 70
0
 10
23.684833614990911
 20
57.703217714188042
 10
23.727552799008041
 20
57.745936898205123
  0
LWPOLYLINE
  5
D77D
330
FFDA
100
AcDbEntity
  8
0
 62
7
100
AcDbPolyline
 90
3
 70
0
 10
25.251663041682551
 20
56.094874886899127
 10
25.54794125341402
 20
56.094874886899127
 10
25.67472076727125
 20
56.052155702882033
  0
LWPOLYLINE
  5
D782
330
FFDA
100
AcDbEntity
  8
0
 62
7
100
AcDbPolyline
 90
3
 70
0
 10
23.811613128848151
 20
55.544865392679021
 10
23.727552799008041
 20
55.502146208661941
 10
23.727552799008041
 20
55.416880095402021
  0
LWPOLYLINE
  5
D787
330
FFDA
100
AcDbEntity
  8
0
 62
7
100
AcDbPolyline
 90
3
 70
0
 10
23.684833614990911
 20
57.06776985193369
 10
23.60077328515084
 20
57.06776985193369
 10
23.60077328515084
 20
57.026600960884991
  0
LWPOLYLINE
  5
D78C
330
FFDA
100
AcDbEntity
  8
0
 62
7
100
AcDbPolyline
 90
9
 70
0
 10
23.811613128848151
 20
55.544865392679021
 10
23.85433231286521
 20
55.248931690496079
 10
24.02383101073951
 20
55.079260737847513
 10
24.19332970861382
 20
54.951103185796221
 10
24.40554759050519
 20
54.909934294747458
 10
24.6591066182196
 20
54.9938223698133
 10
24.912665645933949
 20
55.163148812913327
 10
25.124883527825379
 20
55.586551048050531
 10
25.251663041682551
 20
56.094874886899127
  0
LWPOLYLINE
  5
D797
330
FFDA
100
AcDbEntity
  8
0
 62
7
100
AcDbPolyline
 90
5
 70
0
 10
24.27739003845392
 20
54.613483828241733
 10
24.107891340579609
 20
54.697544158081818
 10
23.897051496882341
 20
54.8672151107304
 10
23.811613128848151
 20
55.120429628896247
 10
23.727552799008041
 20
55.416880095402021
  0
LWPOLYLINE
  5
D79E
330
FFDA
100
AcDbEntity
  8
0
 62
7
100
AcDbPolyline
 90
7
 70
0
 10
24.40554759050519
 20
54.528217714981793
 10
24.70182580223668
 20
54.528217714981793
 10
24.998104013968138
 20
54.613483828241733
 10
25.335723371522651
 20
54.824151417164707
 10
25.54794125341402
 20
55.163148812913327
 10
25.760159135305461
 20
55.586551048050531
 10
25.80150028112843
 20
56.009436518864952
  0
LWPOLYLINE
  5
D7A7
330
FFDA
100
AcDbEntity
  8
0
 62
7
100
AcDbPolyline
 90
7
 70
0
 10
24.27739003845392
 20
54.613483828241733
 10
24.532327104362381
 20
54.570936898998859
 10
24.869946461916872
 20
54.654824974064681
 10
25.166224673648351
 20
54.909934294747458
 10
25.421161739556851
 20
55.248931690496079
 10
25.590660437431151
 20
55.629270232067647
 10
25.67472076727125
 20
56.052155702882033
  0
LWPOLYLINE
  5
D7B0
330
FFDA
100
AcDbEntity
  8
0
 62
7
100
AcDbPolyline
 90
6
 70
0
 10
25.421161739556851
 20
58.33814881211957
 10
25.463880923573932
 20
58.33814881211957
 10
25.50522206939695
 20
58.380867996136658
 10
25.71743995128833
 20
58.380867996136658
 10
25.760159135305461
 20
58.33814881211957
 10
25.80150028112843
 20
58.33814881211957
  0
LWPOLYLINE
  5
D7B8
330
FFDA
100
AcDbEntity
  8
0
 62
7
100
AcDbPolyline
 90
2
 70
0
 10
25.421161739556851
 20
57.745936898205123
 10
25.80150028112843
 20
57.745936898205123
  0
LWPOLYLINE
  5
D7BC
330
FFDA
100
AcDbEntity
  8
0
 62
7
100
AcDbPolyline
 90
4
 70
0
 10
23.60077328515084
 20
57.6188128747994
 10
23.60077328515084
 20
57.66153205881654
 10
23.643492469167931
 20
57.703217714188042
 10
23.684833614990911
 20
57.703217714188042
  0
LWPOLYLINE
  5
D7C2
330
FFDA
100
AcDbEntity
  8
0
 62
7
100
AcDbPolyline
 90
2
 70
0
 10
26.690334916322911
 20
57.365598356633541
 10
26.522214256642709
 20
55.71315830713349
  0
LWPOLYLINE
  5
D7C6
330
FFDA
100
AcDbEntity
  8
0
 62
7
100
AcDbPolyline
 90
2
 70
0
 10
25.124883527825379
 20
54.2744864324931
 10
24.446888736328219
 20
54.528217714981793
  0
LWPOLYLINE
  5
D7CA
330
FFDA
100
AcDbEntity
  8
0
 62
7
100
AcDbPolyline
 90
2
 70
0
 10
25.84421946514551
 20
56.009436518864952
 10
26.522214256642709
 20
55.71315830713349
  0
LWPOLYLINE
  5
D7CE
330
FFDA
100
AcDbEntity
  8
0
 62
7
100
AcDbPolyline
 90
2
 70
0
 10
26.690334916322911
 20
57.365598356633541
 10
26.690334916322911
 20
57.365598356633541
  0
LWPOLYLINE
  5
D7D2
330
FFDA
100
AcDbEntity
  8
0
 62
7
100
AcDbPolyline
 90
2
 70
0
 10
26.690334916322911
 20
57.365598356633541
 10
26.690334916322911
 20
58.042215109936649
  0
LWPOLYLINE
  5
D7D6
330
FFDA
100
AcDbEntity
  8
0
 62
7
100
AcDbPolyline
 90
2
 70
0
 10
25.970998979002729
 20
58.254260737053762
 10
25.970998979002729
 20
58.254260737053762
  0
LWPOLYLINE
  5
D7DA
330
FFDA
100
AcDbEntity
  8
0
 62
7
100
AcDbPolyline
 90
2
 70
0
 10
26.563555402465681
 20
58.084934293953722
 10
26.563555402465681
 20
58.084934293953722
  0
LWPOLYLINE
  5
D7DE
330
FFDA
100
AcDbEntity
  8
0
 62
7
100
AcDbPolyline
 90
2
 70
0
 10
26.097778492859891
 20
58.254260737053762
 10
26.05643734703694
 20
58.211541553036682
  0
LWPOLYLINE
  5
D7E2
330
FFDA
100
AcDbEntity
  8
0
 62
7
100
AcDbPolyline
 90
2
 70
0
 10
26.05643734703694
 20
58.211541553036682
 10
26.097778492859891
 20
58.254260737053762
  0
LWPOLYLINE
  5
D7E6
330
FFDA
100
AcDbEntity
  8
0
 62
7
100
AcDbPolyline
 90
2
 70
0
 10
26.05643734703694
 20
58.211541553036682
 10
25.970998979002729
 20
58.254260737053762
  0
LWPOLYLINE
  5
D7EA
330
FFDA
100
AcDbEntity
  8
0
 62
7
100
AcDbPolyline
 90
2
 70
0
 10
26.097778492859891
 20
58.254260737053762
 10
26.563555402465681
 20
58.084934293953722
  0
LWPOLYLINE
  5
D7EE
330
FFDA
100
AcDbEntity
  8
0
 62
7
100
AcDbPolyline
 90
2
 70
0
 10
26.6489937704999
 20
57.406767247682282
 10
25.970998979002729
 20
57.703217714188042
  0
LWPOLYLINE
  5
D7F2
330
FFDA
100
AcDbEntity
  8
0
 62
7
100
AcDbPolyline
 90
2
 70
0
 10
26.522214256642709
 20
55.71315830713349
 10
26.522214256642709
 20
55.71315830713349
  0
LWPOLYLINE
  5
D7F6
330
FFDA
100
AcDbEntity
  8
0
 62
7
100
AcDbPolyline
 90
3
 70
0
 10
24.362828406488131
 20
54.570936898998859
 10
24.40554759050519
 20
54.570936898998859
 10
24.446888736328219
 20
54.528217714981793
  0
LWPOLYLINE
  5
D7FB
330
FFDA
100
AcDbEntity
  8
0
 62
7
100
AcDbPolyline
 90
7
 70
0
 10
24.446888736328219
 20
54.528217714981793
 10
24.7431669480597
 20
54.528217714981793
 10
25.039445159791178
 20
54.613483828241733
 10
25.335723371522651
 20
54.8672151107304
 10
25.54794125341402
 20
55.163148812913327
 10
25.760159135305461
 20
55.586551048050531
 10
25.84421946514551
 20
56.009436518864952
  0
LWPOLYLINE
  5
D804
330
FFDA
100
AcDbEntity
  8
0
 62
7
100
AcDbPolyline
 90
10
 70
0
 10
26.522214256642709
 20
55.71315830713349
 10
26.522214256642709
 20
55.502146208661941
 10
26.479495072625578
 20
55.290100581544777
 10
26.394056704591389
 20
55.120429628896247
 10
26.309996374751279
 20
54.909934294747458
 10
26.05643734703694
 20
54.613483828241733
 10
25.9282797949856
 20
54.443812875593139
 10
25.760159135305461
 20
54.358546762333219
 10
25.50522206939695
 20
54.2744864324931
 10
25.124883527825379
 20
54.2744864324931
  0
LWPOLYLINE
  5
D810
330
FFDA
100
AcDbEntity
  8
0
 62
7
100
AcDbPolyline
 90
2
 70
0
 10
26.690334916322911
 20
57.365598356633541
 10
26.6489937704999
 20
57.406767247682282
  0
LWPOLYLINE
  5
D814
330
FFDA
100
AcDbEntity
  8
0
 62
7
100
AcDbPolyline
 90
2
 70
0
 10
27.452390037660169
 20
58.507819764768151
 10
27.58054758971145
 20
56.94081808330224
  0
LWPOLYLINE
  5
D818
330
FFDA
100
AcDbEntity
  8
0
 62
7
100
AcDbPolyline
 90
2
 70
0
 10
27.53782840569437
 20
56.856930008236418
 10
27.41104889183714
 20
58.423931689702322
  0
LWPOLYLINE
  5
D81C
330
FFDA
100
AcDbEntity
  8
0
 62
7
100
AcDbPolyline
 90
2
 70
0
 10
27.452390037660169
 20
59.10054844300538
 10
27.53782840569437
 20
59.14326762702246
  0
LWPOLYLINE
  5
D820
330
FFDA
100
AcDbEntity
  8
0
 62
7
100
AcDbPolyline
 90
2
 70
0
 10
27.452390037660169
 20
59.10054844300538
 10
27.452390037660169
 20
58.507819764768151
  0
LWPOLYLINE
  5
D824
330
FFDA
100
AcDbEntity
  8
0
 62
7
100
AcDbPolyline
 90
2
 70
0
 10
27.452390037660169
 20
58.507819764768151
 10
27.452390037660169
 20
58.507819764768151
  0
LWPOLYLINE
  5
D828
330
FFDA
100
AcDbEntity
  8
0
 62
7
100
AcDbPolyline
 90
2
 70
0
 10
27.41104889183714
 20
58.550538948785231
 10
27.41104889183714
 20
58.423931689702322
  0
LWPOLYLINE
  5
D82C
330
FFDA
100
AcDbEntity
  8
0
 62
7
100
AcDbPolyline
 90
2
 70
0
 10
27.41104889183714
 20
58.761551047256773
 10
27.41104889183714
 20
59.01631585839101
  0
LWPOLYLINE
  5
D830
330
FFDA
100
AcDbEntity
  8
0
 62
7
100
AcDbPolyline
 90
2
 70
0
 10
27.41104889183714
 20
58.423931689702322
 10
27.41104889183714
 20
58.423931689702322
  0
LWPOLYLINE
  5
D834
330
FFDA
100
AcDbEntity
  8
0
 62
7
100
AcDbPolyline
 90
2
 70
0
 10
28.044946461123121
 20
56.052155702882033
 10
28.214445158997421
 20
55.968267627816211
  0
LWPOLYLINE
  5
D838
330
FFDA
100
AcDbEntity
  8
0
 62
7
100
AcDbPolyline
 90
2
 70
0
 10
27.41104889183714
 20
58.550538948785231
 10
27.41104889183714
 20
58.719865391885257
  0
LWPOLYLINE
  5
D83C
330
FFDA
100
AcDbEntity
  8
0
 62
7
100
AcDbPolyline
 90
2
 70
0
 10
29.484996373957529
 20
57.492205615716493
 10
29.611775887814758
 20
57.406767247682282
  0
LWPOLYLINE
  5
D840
330
FFDA
100
AcDbEntity
  8
0
 62
7
100
AcDbPolyline
 90
2
 70
0
 10
29.188718162226049
 20
59.14326762702246
 10
29.188718162226049
 20
59.14326762702246
  0
LWPOLYLINE
  5
D844
330
FFDA
100
AcDbEntity
  8
0
 62
7
100
AcDbPolyline
 90
2
 70
0
 10
29.188718162226049
 20
59.14326762702246
 10
29.188718162226049
 20
59.778198724953988
  0
LWPOLYLINE
  5
D848
330
FFDA
100
AcDbEntity
  8
0
 62
7
100
AcDbPolyline
 90
2
 70
0
 10
29.188718162226049
 20
59.14326762702246
 10
29.145998978208969
 20
58.677146207868169
  0
LWPOLYLINE
  5
D84C
330
FFDA
100
AcDbEntity
  8
0
 62
7
100
AcDbPolyline
 90
2
 70
0
 10
29.103279794191849
 20
59.735479540936922
 10
29.188718162226049
 20
59.778198724953988
  0
LWPOLYLINE
  5
D850
330
FFDA
100
AcDbEntity
  8
0
 62
7
100
AcDbPolyline
 90
2
 70
0
 10
29.611775887814758
 20
59.10054844300538
 10
29.484996373957529
 20
57.492205615716493
  0
LWPOLYLINE
  5
D854
330
FFDA
100
AcDbEntity
  8
0
 62
7
100
AcDbPolyline
 90
2
 70
0
 10
29.06193864836888
 20
57.492205615716493
 10
29.145998978208969
 20
58.677146207868169
  0
LWPOLYLINE
  5
D858
330
FFDA
100
AcDbEntity
  8
0
 62
7
100
AcDbPolyline
 90
2
 70
0
 10
29.611775887814758
 20
59.14326762702246
 10
29.738555401671931
 20
59.10054844300538
  0
LWPOLYLINE
  5
D85C
330
FFDA
100
AcDbEntity
  8
0
 62
7
100
AcDbPolyline
 90
2
 70
0
 10
29.611775887814758
 20
59.14326762702246
 10
29.611775887814758
 20
59.778198724953988
  0
LWPOLYLINE
  5
D860
330
FFDA
100
AcDbEntity
  8
0
 62
7
100
AcDbPolyline
 90
2
 70
0
 10
29.611775887814758
 20
59.14326762702246
 10
29.611775887814758
 20
59.10054844300538
  0
LWPOLYLINE
  5
D864
330
FFDA
100
AcDbEntity
  8
0
 62
7
100
AcDbPolyline
 90
2
 70
0
 10
29.738555401671931
 20
59.692932611694062
 10
29.738555401671931
 20
59.692932611694062
  0
LWPOLYLINE
  5
D868
330
FFDA
100
AcDbEntity
  8
0
 62
7
100
AcDbPolyline
 90
2
 70
0
 10
29.738555401671931
 20
59.692932611694062
 10
29.611775887814758
 20
59.778198724953988
  0
LWPOLYLINE
  5
D86C
330
FFDA
100
AcDbEntity
  8
0
 62
7
100
AcDbPolyline
 90
2
 70
0
 10
27.41104889183714
 20
58.761551047256773
 10
27.41104889183714
 20
58.719865391885257
  0
LWPOLYLINE
  5
D870
330
FFDA
100
AcDbEntity
  8
0
 62
7
100
AcDbPolyline
 90
3
 70
0
 10
27.58054758971145
 20
56.94081808330224
 10
27.53782840569437
 20
56.899649192253491
 10
27.53782840569437
 20
56.856930008236418
  0
LWPOLYLINE
  5
D875
330
FFDA
100
AcDbEntity
  8
0
 62
7
100
AcDbPolyline
 90
3
 70
0
 10
27.41104889183714
 20
59.01631585839101
 10
27.41104889183714
 20
59.10054844300538
 10
27.452390037660169
 20
59.10054844300538
  0
LWPOLYLINE
  5
D87A
330
FFDA
100
AcDbEntity
  8
0
 62
7
100
AcDbPolyline
 90
3
 70
0
 10
27.452390037660169
 20
58.507819764768151
 10
27.41104889183714
 20
58.465100580751027
 10
27.41104889183714
 20
58.423931689702322
  0
LWPOLYLINE
  5
D87F
330
FFDA
100
AcDbEntity
  8
0
 62
7
100
AcDbPolyline
 90
5
 70
0
 10
28.044946461123121
 20
56.052155702882033
 10
27.876825801442919
 20
56.094874886899127
 10
27.70732710356862
 20
56.3072650235648
 10
27.58054758971145
 20
56.560479541730672
 10
27.53782840569437
 20
56.856930008236418
  0
LWPOLYLINE
  5
D886
330
FFDA
100
AcDbEntity
  8
0
 62
7
100
AcDbPolyline
 90
7
 70
0
 10
28.044946461123121
 20
56.052155702882033
 10
28.34122467285459
 20
55.968267627816211
 10
28.638880922780171
 20
56.094874886899127
 10
28.935159134511711
 20
56.3072650235648
 10
29.188718162226049
 20
56.644884381119311
 10
29.358216860100359
 20
57.06776985193369
 10
29.484996373957529
 20
57.492205615716493
  0
LWPOLYLINE
  5
D88F
330
FFDA
100
AcDbEntity
  8
0
 62
7
100
AcDbPolyline
 90
7
 70
0
 10
28.214445158997421
 20
55.968267627816211
 10
28.5107233707289
 20
55.92554844379913
 10
28.80700158246038
 20
56.052155702882033
 10
29.103279794191849
 20
56.264201329999189
 10
29.358216860100359
 20
56.603198725747738
 10
29.527715557974659
 20
56.98388177686784
 10
29.611775887814758
 20
57.406767247682282
  0
LWPOLYLINE
  5
D898
330
FFDA
100
AcDbEntity
  8
0
 62
7
100
AcDbPolyline
 90
3
 70
0
 10
27.41104889183714
 20
59.184436518071209
 10
27.41104889183714
 20
59.14326762702246
 10
27.452390037660169
 20
59.10054844300538
  0
LWPOLYLINE
  5
D89D
330
FFDA
100
AcDbEntity
  8
0
 62
7
100
AcDbPolyline
 90
9
 70
0
 10
27.58054758971145
 20
56.94081808330224
 10
27.664607919551539
 20
56.687603565136378
 10
27.791387433408719
 20
56.475213428470738
 10
28.003605315300149
 20
56.348433914613537
 10
28.214445158997421
 20
56.348433914613537
 10
28.4266630408888
 20
56.433872282647712
 10
28.6802220686032
 20
56.603198725747738
 10
28.935159134511711
 20
57.026600960884991
 10
29.06193864836888
 20
57.492205615716493
  0
LWPOLYLINE
  5
D8A8
330
FFDA
100
AcDbEntity
  8
0
 62
7
100
AcDbPolyline
 90
2
 70
0
 10
29.06193864836888
 20
57.492205615716493
 10
29.484996373957529
 20
57.492205615716493
  0
LWPOLYLINE
  5
D8AC
330
FFDA
100
AcDbEntity
  8
0
 62
7
100
AcDbPolyline
 90
4
 70
0
 10
29.188718162226049
 20
59.14326762702246
 10
29.272778492066148
 20
59.184436518071209
 10
29.484996373957529
 20
59.184436518071209
 10
29.611775887814758
 20
59.14326762702246
  0
LWPOLYLINE
  5
D8B2
330
FFDA
100
AcDbEntity
  8
0
 62
7
100
AcDbPolyline
 90
6
 70
0
 10
29.188718162226049
 20
59.778198724953988
 10
29.272778492066148
 20
59.778198724953988
 10
29.358216860100359
 20
59.819884380325583
 10
29.442277189940452
 20
59.819884380325583
 10
29.484996373957529
 20
59.778198724953988
 10
29.611775887814758
 20
59.778198724953988
  0
LWPOLYLINE
  5
D8BA
330
FFDA
100
AcDbEntity
  8
0
 62
7
100
AcDbPolyline
 90
2
 70
0
 10
28.849720766477521
 20
55.71315830713349
 10
28.214445158997421
 20
55.968267627816211
  0
LWPOLYLINE
  5
D8BE
330
FFDA
100
AcDbEntity
  8
0
 62
7
100
AcDbPolyline
 90
2
 70
0
 10
29.611775887814758
 20
57.406767247682282
 10
29.993492467580442
 20
57.279815479050853
  0
LWPOLYLINE
  5
D8C2
330
FFDA
100
AcDbEntity
  8
0
 62
7
100
AcDbPolyline
 90
2
 70
0
 10
29.611775887814758
 20
57.406767247682282
 10
29.781274585689061
 20
59.057484749439752
  0
LWPOLYLINE
  5
D8C6
330
FFDA
100
AcDbEntity
  8
0
 62
7
100
AcDbPolyline
 90
2
 70
0
 10
30.457891338992109
 20
59.439201329205453
 10
30.457891338992109
 20
59.48226502277106
  0
LWPOLYLINE
  5
D8CA
330
FFDA
100
AcDbEntity
  8
0
 62
7
100
AcDbPolyline
 90
2
 70
0
 10
30.33111182513494
 20
59.48226502277106
 10
29.908054099546231
 20
59.650213427676967
  0
LWPOLYLINE
  5
D8CE
330
FFDA
100
AcDbEntity
  8
0
 62
7
100
AcDbPolyline
 90
2
 70
0
 10
30.33111182513494
 20
59.5234339138198
 10
30.33111182513494
 20
59.48226502277106
  0
LWPOLYLINE
  5
D8D2
330
FFDA
100
AcDbEntity
  8
0
 62
7
100
AcDbPolyline
 90
2
 70
0
 10
30.034833613403411
 20
59.01631585839101
 10
29.781274585689061
 20
59.10054844300538
  0
LWPOLYLINE
  5
D8D6
330
FFDA
100
AcDbEntity
  8
0
 62
7
100
AcDbPolyline
 90
2
 70
0
 10
29.781274585689061
 20
59.057484749439752
 10
30.034833613403411
 20
58.973596674373937
  0
LWPOLYLINE
  5
D8DA
330
FFDA
100
AcDbEntity
  8
0
 62
7
100
AcDbPolyline
 90
2
 70
0
 10
29.781274585689061
 20
59.057484749439752
 10
29.781274585689061
 20
59.10054844300538
  0
LWPOLYLINE
  5
D8DE
330
FFDA
100
AcDbEntity
  8
0
 62
7
100
AcDbPolyline
 90
2
 70
0
 10
29.781274585689061
 20
59.10054844300538
 10
29.781274585689061
 20
59.692932611694062
  0
LWPOLYLINE
  5
D8E2
330
FFDA
100
AcDbEntity
  8
0
 62
7
100
AcDbPolyline
 90
2
 70
0
 10
29.865334915529161
 20
59.650213427676967
 10
29.908054099546231
 20
59.650213427676967
  0
LWPOLYLINE
  5
D8E6
330
FFDA
100
AcDbEntity
  8
0
 62
7
100
AcDbPolyline
 90
2
 70
0
 10
29.908054099546231
 20
59.650213427676967
 10
29.823993769706139
 20
59.650213427676967
  0
LWPOLYLINE
  5
D8EA
330
FFDA
100
AcDbEntity
  8
0
 62
7
100
AcDbPolyline
 90
2
 70
0
 10
29.865334915529161
 20
59.650213427676967
 10
29.781274585689061
 20
59.692932611694062
  0
LWPOLYLINE
  5
D8EE
330
FFDA
100
AcDbEntity
  8
0
 62
7
100
AcDbPolyline
 90
2
 70
0
 10
29.781274585689061
 20
59.692932611694062
 10
29.738555401671931
 20
59.692932611694062
  0
LWPOLYLINE
  5
D8F2
330
FFDA
100
AcDbEntity
  8
0
 62
7
100
AcDbPolyline
 90
2
 70
0
 10
30.457891338992109
 20
59.48226502277106
 10
30.457891338992109
 20
59.439201329205453
  0
LWPOLYLINE
  5
D8F6
330
FFDA
100
AcDbEntity
  8
0
 62
7
100
AcDbPolyline
 90
7
 70
0
 10
28.214445158997421
 20
55.968267627816211
 10
28.5107233707289
 20
55.92554844379913
 10
28.80700158246038
 20
56.052155702882033
 10
29.103279794191849
 20
56.264201329999189
 10
29.358216860100359
 20
56.603198725747738
 10
29.527715557974659
 20
57.026600960884991
 10
29.611775887814758
 20
57.406767247682282
  0
LWPOLYLINE
  5
D8FF
330
FFDA
100
AcDbEntity
  8
0
 62
7
100
AcDbPolyline
 90
3
 70
0
 10
28.130384829157322
 20
56.009436518864952
 10
28.1731040131744
 20
55.968267627816211
 10
28.214445158997421
 20
55.968267627816211
  0
LWPOLYLINE
  5
D904
330
FFDA
100
AcDbEntity
  8
0
 62
7
100
AcDbPolyline
 90
2
 70
0
 10
26.606274586482812
 20
58.126103185002471
 10
26.522214256642709
 20
58.084934293953722
  0
LWPOLYLINE
  5
D908
330
FFDA
100
AcDbEntity
  8
0
 62
7
100
AcDbPolyline
 90
2
 70
0
 10
26.097778492859891
 20
60.540598355839769
 10
26.05643734703694
 20
60.540598355839769
  0
LWPOLYLINE
  5
D90C
330
FFDA
100
AcDbEntity
  8
0
 62
7
100
AcDbPolyline
 90
2
 70
0
 10
26.394056704591389
 20
61.42926073626
 10
26.436775888608508
 20
61.42926073626
  0
LWPOLYLINE
  5
D910
330
FFDA
100
AcDbEntity
  8
0
 62
7
100
AcDbPolyline
 90
2
 70
0
 10
27.02933231207146
 20
59.057484749439752
 10
29.399558005923382
 20
59.946491639408457
  0
LWPOLYLINE
  5
D914
330
FFDA
100
AcDbEntity
  8
0
 62
7
100
AcDbPolyline
 90
2
 70
0
 10
26.394056704591389
 20
58.16882236901953
 10
26.352715558768409
 20
58.16882236901953
  0
LWPOLYLINE
  5
D918
330
FFDA
100
AcDbEntity
  8
0
 62
7
100
AcDbPolyline
 90
2
 70
0
 10
27.621888735534469
 20
59.184436518071209
 10
29.06193864836888
 20
59.735479540936922
  0
LWPOLYLINE
  5
D91C
330
FFDA
100
AcDbEntity
  8
0
 62
7
100
AcDbPolyline
 90
2
 70
0
 10
25.590660437431151
 20
58.550538948785231
 10
23.261775889402251
 20
57.6188128747994
  0
LWPOLYLINE
  5
D920
330
FFDA
100
AcDbEntity
  8
0
 62
7
100
AcDbPolyline
 90
2
 70
0
 10
23.04955800751085
 20
58.084934293953722
 10
24.23604889263089
 20
61.470429627308761
  0
LWPOLYLINE
  5
D924
330
FFDA
100
AcDbEntity
  8
0
 62
7
100
AcDbPolyline
 90
2
 70
0
 10
23.04955800751085
 20
58.042215109936649
 10
23.04955800751085
 20
57.703217714188042
  0
LWPOLYLINE
  5
D928
330
FFDA
100
AcDbEntity
  8
0
 62
7
100
AcDbPolyline
 90
2
 70
0
 10
29.399558005923382
 20
60.115818082508483
 10
29.399558005923382
 20
60.412096294239952
  0
LWPOLYLINE
  5
D92C
330
FFDA
100
AcDbEntity
  8
0
 62
7
100
AcDbPolyline
 90
2
 70
0
 10
29.527715557974659
 20
60.497534662274177
 10
29.527715557974659
 20
60.497534662274177
  0
LWPOLYLINE
  5
D930
330
FFDA
100
AcDbEntity
  8
0
 62
7
100
AcDbPolyline
 90
2
 70
0
 10
29.908054099546231
 20
60.920936897411373
 10
29.611775887814758
 20
61.047544156494318
  0
LWPOLYLINE
  5
D934
330
FFDA
100
AcDbEntity
  8
0
 62
7
100
AcDbPolyline
 90
2
 70
0
 10
29.23143734624318
 20
61.640100579957277
 10
29.23143734624318
 20
61.72553894799146
  0
LWPOLYLINE
  5
D938
330
FFDA
100
AcDbEntity
  8
0
 62
7
100
AcDbPolyline
 90
2
 70
0
 10
30.16161312726064
 20
59.566153097836889
 10
30.20433231127771
 20
59.566153097836889
  0
LWPOLYLINE
  5
D93C
330
FFDA
100
AcDbEntity
  8
0
 62
7
100
AcDbPolyline
 90
2
 70
0
 10
29.654495071831828
 20
60.370927403191281
 10
29.654495071831828
 20
60.370927403191281
  0
LWPOLYLINE
  5
D940
330
FFDA
100
AcDbEntity
  8
0
 62
7
100
AcDbPolyline
 90
2
 70
0
 10
29.611775887814758
 20
60.412096294239952
 10
29.527715557974659
 20
60.412096294239952
  0
LWPOLYLINE
  5
D944
330
FFDA
100
AcDbEntity
  8
0
 62
7
100
AcDbPolyline
 90
2
 70
0
 10
29.527715557974659
 20
60.497534662274177
 10
29.611775887814758
 20
60.4548154782571
  0
LWPOLYLINE
  5
D948
330
FFDA
100
AcDbEntity
  8
0
 62
7
100
AcDbPolyline
 90
2
 70
0
 10
29.654495071831828
 20
60.328208219174151
 10
29.611775887814758
 20
60.328208219174151
  0
LWPOLYLINE
  5
D94C
330
FFDA
100
AcDbEntity
  8
0
 62
7
100
AcDbPolyline
 90
2
 70
0
 10
29.611775887814758
 20
60.328208219174151
 10
29.611775887814758
 20
60.412096294239952
  0
LWPOLYLINE
  5
D950
330
FFDA
100
AcDbEntity
  8
0
 62
7
100
AcDbPolyline
 90
2
 70
0
 10
29.611775887814758
 20
60.328208219174151
 10
29.611775887814758
 20
60.24276985113994
  0
LWPOLYLINE
  5
D954
330
FFDA
100
AcDbEntity
  8
0
 62
7
100
AcDbPolyline
 90
2
 70
0
 10
29.527715557974659
 20
60.28548903515707
 10
29.527715557974659
 20
60.412096294239952
  0
LWPOLYLINE
  5
D958
330
FFDA
100
AcDbEntity
  8
0
 62
7
100
AcDbPolyline
 90
2
 70
0
 10
30.33111182513494
 20
59.5234339138198
 10
30.37383100915202
 20
59.5234339138198
  0
LWPOLYLINE
  5
D95C
330
FFDA
100
AcDbEntity
  8
0
 62
7
100
AcDbPolyline
 90
2
 70
0
 10
30.120271981437611
 20
60.412096294239952
 10
29.950773283563311
 20
60.497534662274177
  0
LWPOLYLINE
  5
D960
330
FFDA
100
AcDbEntity
  8
0
 62
7
100
AcDbPolyline
 90
2
 70
0
 10
30.077552797420541
 20
60.497534662274177
 10
29.823993769706139
 20
60.540598355839769
  0
LWPOLYLINE
  5
D964
330
FFDA
100
AcDbEntity
  8
0
 62
7
100
AcDbPolyline
 90
2
 70
0
 10
28.214445158997421
 20
62.994884379531811
 10
24.32010922247099
 20
61.513148811325827
  0
LWPOLYLINE
  5
D968
330
FFDA
100
AcDbEntity
  8
0
 62
7
100
AcDbPolyline
 90
2
 70
0
 10
28.299883527031628
 20
62.994884379531811
 10
28.214445158997421
 20
62.994884379531811
  0
LWPOLYLINE
  5
D96C
330
FFDA
100
AcDbEntity
  8
0
 62
7
100
AcDbPolyline
 90
2
 70
0
 10
23.04955800751085
 20
58.126103185002471
 10
23.04955800751085
 20
58.042215109936649
  0
LWPOLYLINE
  5
D970
330
FFDA
100
AcDbEntity
  8
0
 62
7
100
AcDbPolyline
 90
2
 70
0
 10
29.399558005923382
 20
60.412096294239952
 10
29.358216860100359
 20
60.4548154782571
  0
LWPOLYLINE
  5
D974
330
FFDA
100
AcDbEntity
  8
0
 62
7
100
AcDbPolyline
 90
3
 70
0
 10
23.04955800751085
 20
57.703217714188042
 10
23.092277191527948
 20
57.6188128747994
 10
23.134996375545061
 20
57.6188128747994
  0
LWPOLYLINE
  5
D979
330
FFDA
100
AcDbEntity
  8
0
 62
7
100
AcDbPolyline
 90
4
 70
0
 10
24.23604889263089
 20
61.470429627308761
 10
24.23604889263089
 20
61.470429627308761
 10
24.27739003845392
 20
61.513148811325827
 10
24.32010922247099
 20
61.513148811325827
  0
LWPOLYLINE
  5
D97F
330
FFDA
100
AcDbEntity
  8
0
 62
7
100
AcDbPolyline
 90
2
 70
0
 10
25.54794125341402
 20
58.380867996136658
 10
25.632001583254119
 20
58.380867996136658
  0
LWPOLYLINE
  5
D983
330
FFDA
100
AcDbEntity
  8
0
 62
7
100
AcDbPolyline
 90
5
 70
0
 10
26.05643734703694
 20
60.540598355839769
 10
26.224558006717132
 20
60.581767246888539
 10
26.394056704591389
 20
60.66720561492275
 10
26.522214256642709
 20
60.920936897411373
 10
26.563555402465681
 20
61.132982524528529
  0
LWPOLYLINE
  5
D98A
330
FFDA
100
AcDbEntity
  8
0
 62
7
100
AcDbPolyline
 90
2
 70
0
 10
26.224558006717132
 20
60.328208219174151
 10
25.970998979002729
 20
60.328208219174151
  0
LWPOLYLINE
  5
D98E
330
FFDA
100
AcDbEntity
  8
0
 62
7
100
AcDbPolyline
 90
7
 70
0
 10
26.479495072625578
 20
61.682819763974408
 10
26.6489937704999
 20
61.513148811325827
 10
26.733054100339992
 20
61.301103184208721
 10
26.733054100339992
 20
61.004824972477181
 10
26.606274586482812
 20
60.751265944762849
 10
26.436775888608508
 20
60.497534662274177
 10
26.224558006717132
 20
60.328208219174151
  0
LWPOLYLINE
  5
D997
330
FFDA
100
AcDbEntity
  8
0
 62
7
100
AcDbPolyline
 90
5
 70
0
 10
26.097778492859891
 20
60.540598355839769
 10
26.267277190734209
 20
60.540598355839769
 10
26.436775888608508
 20
60.66720561492275
 10
26.522214256642709
 20
60.878217713394292
 10
26.606274586482812
 20
61.0902633405114
  0
LWPOLYLINE
  5
D99E
330
FFDA
100
AcDbEntity
  8
0
 62
7
100
AcDbPolyline
 90
6
 70
0
 10
26.394056704591389
 20
61.42926073626
 10
26.224558006717132
 20
61.42926073626
 10
26.05643734703694
 20
61.301103184208721
 10
25.9282797949856
 20
61.0902633405114
 10
25.9282797949856
 20
60.66720561492275
 10
26.05643734703694
 20
60.540598355839769
  0
LWPOLYLINE
  5
D9A6
330
FFDA
100
AcDbEntity
  8
0
 62
7
100
AcDbPolyline
 90
3
 70
0
 10
26.606274586482812
 20
61.0902633405114
 10
26.522214256642709
 20
61.301103184208721
 10
26.436775888608508
 20
61.42926073626
  0
LWPOLYLINE
  5
D9AB
330
FFDA
100
AcDbEntity
  8
0
 62
7
100
AcDbPolyline
 90
3
 70
0
 10
26.563555402465681
 20
61.132982524528529
 10
26.522214256642709
 20
61.34382236822578
 10
26.394056704591389
 20
61.42926073626
  0
LWPOLYLINE
  5
D9B0
330
FFDA
100
AcDbEntity
  8
0
 62
7
100
AcDbPolyline
 90
7
 70
0
 10
25.970998979002729
 20
60.328208219174151
 10
25.80150028112843
 20
60.497534662274177
 10
25.71743995128833
 20
60.793812874005653
 10
25.80150028112843
 20
61.174151415577221
 10
25.970998979002729
 20
61.470429627308761
 10
26.224558006717132
 20
61.640100579957277
 10
26.479495072625578
 20
61.682819763974408
  0
LWPOLYLINE
  5
D9B9
330
FFDA
100
AcDbEntity
  8
0
 62
7
100
AcDbPolyline
 90
7
 70
0
 10
25.970998979002729
 20
60.328208219174151
 10
25.80150028112843
 20
60.497534662274177
 10
25.760159135305461
 20
60.793812874005653
 10
25.80150028112843
 20
61.174151415577221
 10
25.970998979002729
 20
61.470429627308761
 10
26.224558006717132
 20
61.640100579957277
 10
26.479495072625578
 20
61.640100579957277
  0
LWPOLYLINE
  5
D9C2
330
FFDA
100
AcDbEntity
  8
0
 62
7
100
AcDbPolyline
 90
2
 70
0
 10
26.394056704591389
 20
58.16882236901953
 10
26.436775888608508
 20
58.16882236901953
  0
LWPOLYLINE
  5
D9C6
330
FFDA
100
AcDbEntity
  8
0
 62
7
100
AcDbPolyline
 90
2
 70
0
 10
29.399558005923382
 20
60.412096294239952
 10
29.527715557974659
 20
60.412096294239952
  0
LWPOLYLINE
  5
D9CA
330
FFDA
100
AcDbEntity
  8
0
 62
7
100
AcDbPolyline
 90
3
 70
0
 10
29.358216860100359
 20
59.819884380325583
 10
29.399558005923382
 20
59.819884380325583
 10
29.442277189940452
 20
59.819884380325583
  0
LWPOLYLINE
  5
D9CF
330
FFDA
100
AcDbEntity
  8
0
 62
7
100
AcDbPolyline
 90
3
 70
0
 10
29.527715557974659
 20
60.497534662274177
 10
29.484996373957529
 20
60.497534662274177
 10
29.399558005923382
 20
60.4548154782571
  0
LWPOLYLINE
  5
D9D4
330
FFDA
100
AcDbEntity
  8
0
 62
7
100
AcDbPolyline
 90
3
 70
0
 10
29.442277189940452
 20
59.9892108234256
 10
29.399558005923382
 20
60.031930007442639
 10
29.399558005923382
 20
60.115818082508483
  0
LWPOLYLINE
  5
D9D9
330
FFDA
100
AcDbEntity
  8
0
 62
7
100
AcDbPolyline
 90
2
 70
0
 10
29.399558005923382
 20
60.115818082508483
 10
29.527715557974659
 20
60.115818082508483
  0
LWPOLYLINE
  5
D9DD
330
FFDA
100
AcDbEntity
  8
0
 62
7
100
AcDbPolyline
 90
2
 70
0
 10
29.527715557974659
 20
60.412096294239952
 10
29.527715557974659
 20
60.497534662274177
  0
LWPOLYLINE
  5
D9E1
330
FFDA
100
AcDbEntity
  8
0
 62
7
100
AcDbPolyline
 90
2
 70
0
 10
29.527715557974659
 20
60.074649191459741
 10
29.527715557974659
 20
59.9892108234256
  0
LWPOLYLINE
  5
D9E5
330
FFDA
100
AcDbEntity
  8
0
 62
7
100
AcDbPolyline
 90
3
 70
0
 10
29.611775887814758
 20
60.328208219174151
 10
29.611775887814758
 20
60.370927403191281
 10
29.654495071831828
 20
60.370927403191281
  0
LWPOLYLINE
  5
D9EA
330
FFDA
100
AcDbEntity
  8
0
 62
7
100
AcDbPolyline
 90
2
 70
0
 10
29.611775887814758
 20
60.412096294239952
 10
29.611775887814758
 20
60.4548154782571
  0
LWPOLYLINE
  5
D9EE
330
FFDA
100
AcDbEntity
  8
0
 62
7
100
AcDbPolyline
 90
2
 70
0
 10
30.20433231127771
 20
59.566153097836889
 10
30.20433231127771
 20
59.566153097836889
  0
LWPOLYLINE
  5
D9F2
330
FFDA
100
AcDbEntity
  8
0
 62
7
100
AcDbPolyline
 90
2
 70
0
 10
90.275773268482126
 20
35.563483833004227
 10
90.318492452499214
 20
35.520936903761388
  0
LWPOLYLINE
  5
D9F6
330
FFDA
100
AcDbEntity
  8
0
 62
7
100
AcDbPolyline
 90
2
 70
0
 10
90.0222142407677
 20
35.604824978827217
 10
90.0222142407677
 20
35.604824978827217
  0
LWPOLYLINE
  5
D9FA
330
FFDA
100
AcDbEntity
  8
0
 62
7
100
AcDbPolyline
 90
3
 70
0
 10
90.318492452499214
 20
35.520936903761388
 10
90.318492452499214
 20
35.520936903761388
 10
90.275773268482126
 20
35.563483833004227
  0
LWPOLYLINE
  5
D9FF
330
FFDA
100
AcDbEntity
  8
0
 62
7
100
AcDbPolyline
 90
4
 70
0
 10
89.090660421556152
 20
33.743267633372483
 10
89.217439935413324
 20
33.488158312689741
 10
89.428279779110582
 20
33.3615510536068
 10
89.470998963127712
 20
33.319865398235272
  0
LWPOLYLINE
  5
DA05
330
FFDA
100
AcDbEntity
  8
0
 62
7
100
AcDbPolyline
 90
7
 70
0
 10
89.428279779110582
 20
33.277146214218163
 10
89.344219449270554
 20
33.319865398235272
 10
89.260159119430455
 20
33.404270237623876
 10
89.174720751396265
 20
33.530877496706808
 10
89.090660421556152
 20
33.657484755789731
 10
89.047941237539021
 20
33.700548449355381
 10
89.047941237539021
 20
33.743267633372483
  0
LWPOLYLINE
  5
DA0E
330
FFDA
100
AcDbEntity
  8
0
 62
7
100
AcDbPolyline
 90
4
 70
0
 10
90.318492452499214
 20
35.4782177197443
 10
90.233054084464982
 20
35.4782177197443
 10
89.979495056750565
 20
35.520936903761388
 10
89.724557990842129
 20
35.436532064372763
  0
LWPOLYLINE
  5
DA14
330
FFDA
100
AcDbEntity
  8
0
 62
7
100
AcDbPolyline
 90
5
 70
0
 10
89.683216845019075
 20
35.436532064372763
 10
89.724557990842129
 20
35.4782177197443
 10
89.767277174859174
 20
35.4782177197443
 10
89.894056688716375
 20
35.563483833004227
 10
90.0222142407677
 20
35.604824978827217
  0
LWPOLYLINE
  5
DA1B
330
FFDA
100
AcDbEntity
  8
0
 62
7
100
AcDbPolyline
 90
3
 70
0
 10
90.0222142407677
 20
35.604824978827217
 10
90.1489937546249
 20
35.604824978827217
 10
90.275773268482126
 20
35.563483833004227
  0
LWPOLYLINE
  5
DA20
330
FFDA
100
AcDbEntity
  8
0
 62
7
100
AcDbPolyline
 90
2
 70
0
 10
91.2913874175337
 20
36.70587749591305
 10
91.2913874175337
 20
36.663158311895977
  0
LWPOLYLINE
  5
DA24
330
FFDA
100
AcDbEntity
  8
0
 62
7
100
AcDbPolyline
 90
2
 70
0
 10
89.8527155428934
 20
36.45214621342442
 10
89.8099963588763
 20
36.40959928418161
  0
LWPOLYLINE
  5
DA28
330
FFDA
100
AcDbEntity
  8
0
 62
7
100
AcDbPolyline
 90
2
 70
0
 10
91.080547573836441
 20
36.748596679930159
 10
91.544946445248172
 20
36.579270236830148
  0
LWPOLYLINE
  5
DA2C
330
FFDA
100
AcDbEntity
  8
0
 62
7
100
AcDbPolyline
 90
2
 70
0
 10
91.544946445248172
 20
36.579270236830148
 10
91.544946445248172
 20
36.579270236830148
  0
LWPOLYLINE
  5
DA30
330
FFDA
100
AcDbEntity
  8
0
 62
7
100
AcDbPolyline
 90
2
 70
0
 10
91.587665629265231
 20
36.536551052813053
 10
91.6731039972994
 20
36.494865397441522
  0
LWPOLYLINE
  5
DA34
330
FFDA
100
AcDbEntity
  8
0
 62
7
100
AcDbPolyline
 90
2
 70
0
 10
89.556437331161931
 20
35.817215115492871
 10
89.556437331161931
 20
35.817215115492871
  0
LWPOLYLINE
  5
DA38
330
FFDA
100
AcDbEntity
  8
0
 62
7
100
AcDbPolyline
 90
2
 70
0
 10
89.386938633287627
 20
36.240100586307292
 10
89.301500265253424
 20
36.240100586307292
  0
LWPOLYLINE
  5
DA3C
330
FFDA
100
AcDbEntity
  8
0
 62
7
100
AcDbPolyline
 90
2
 70
0
 10
89.470998963127712
 20
36.28281977032438
 10
89.597778476984885
 20
36.325538954341482
  0
LWPOLYLINE
  5
DA40
330
FFDA
100
AcDbEntity
  8
0
 62
7
100
AcDbPolyline
 90
2
 70
0
 10
89.260159119430455
 20
36.19893169525853
 10
89.217439935413324
 20
36.19893169525853
  0
LWPOLYLINE
  5
DA44
330
FFDA
100
AcDbEntity
  8
0
 62
7
100
AcDbPolyline
 90
2
 70
0
 10
88.835723355647659
 20
36.029260742610013
 10
88.835723355647659
 20
35.774151421927257
  0
LWPOLYLINE
  5
DA48
330
FFDA
100
AcDbEntity
  8
0
 62
7
100
AcDbPolyline
 90
2
 70
0
 10
88.7943822098247
 20
35.774151421927257
 10
88.7943822098247
 20
36.029260742610013
  0
LWPOLYLINE
  5
DA4C
330
FFDA
100
AcDbEntity
  8
0
 62
7
100
AcDbPolyline
 90
2
 70
0
 10
91.080547573836441
 20
36.748596679930159
 10
91.080547573836441
 20
36.791315863947283
  0
LWPOLYLINE
  5
DA50
330
FFDA
100
AcDbEntity
  8
0
 62
7
100
AcDbPolyline
 90
2
 70
0
 10
91.6731039972994
 20
36.494865397441522
 10
91.6731039972994
 20
35.901103190558707
  0
LWPOLYLINE
  5
DA54
330
FFDA
100
AcDbEntity
  8
0
 62
7
100
AcDbPolyline
 90
2
 70
0
 10
90.318492452499214
 20
36.113148817675828
 10
90.318492452499214
 20
36.113148817675828
  0
LWPOLYLINE
  5
DA58
330
FFDA
100
AcDbEntity
  8
0
 62
7
100
AcDbPolyline
 90
2
 70
0
 10
90.318492452499214
 20
36.113148817675828
 10
90.318492452499214
 20
36.113148817675828
  0
LWPOLYLINE
  5
DA5C
330
FFDA
100
AcDbEntity
  8
0
 62
7
100
AcDbPolyline
 90
2
 70
0
 10
90.318492452499214
 20
36.113148817675828
 10
90.318492452499214
 20
36.113148817675828
  0
LWPOLYLINE
  5
DA60
330
FFDA
100
AcDbEntity
  8
0
 62
7
100
AcDbPolyline
 90
2
 70
0
 10
90.318492452499214
 20
36.113148817675828
 10
90.275773268482126
 20
36.113148817675828
  0
LWPOLYLINE
  5
DA64
330
FFDA
100
AcDbEntity
  8
0
 62
7
100
AcDbPolyline
 90
2
 70
0
 10
90.318492452499214
 20
36.113148817675828
 10
90.318492452499214
 20
36.113148817675828
  0
LWPOLYLINE
  5
DA68
330
FFDA
100
AcDbEntity
  8
0
 62
7
100
AcDbPolyline
 90
2
 70
0
 10
91.630384813282333
 20
35.901103190558707
 10
91.6731039972994
 20
35.85993429950998
  0
LWPOLYLINE
  5
DA6C
330
FFDA
100
AcDbEntity
  8
0
 62
7
100
AcDbPolyline
 90
2
 70
0
 10
91.6731039972994
 20
35.85993429950998
 10
91.6731039972994
 20
35.901103190558707
  0
LWPOLYLINE
  5
DA70
330
FFDA
100
AcDbEntity
  8
0
 62
7
100
AcDbPolyline
 90
2
 70
0
 10
91.6731039972994
 20
35.901103190558707
 10
91.630384813282333
 20
35.901103190558707
  0
LWPOLYLINE
  5
DA74
330
FFDA
100
AcDbEntity
  8
0
 62
7
100
AcDbPolyline
 90
2
 70
0
 10
91.6731039972994
 20
35.85993429950998
 10
91.630384813282333
 20
35.267205621272751
  0
LWPOLYLINE
  5
DA78
330
FFDA
100
AcDbEntity
  8
0
 62
7
100
AcDbPolyline
 90
2
 70
0
 10
90.952390021785163
 20
36.791315863947283
 10
90.952390021785163
 20
36.791315863947283
  0
LWPOLYLINE
  5
DA7C
330
FFDA
100
AcDbEntity
  8
0
 62
7
100
AcDbPolyline
 90
3
 70
0
 10
88.9638809076989
 20
33.78443652442121
 10
89.090660421556152
 20
33.446817166866737
 10
89.260159119430455
 20
33.19188010095823
  0
LWPOLYLINE
  5
DA81
330
FFDA
100
AcDbEntity
  8
0
 62
7
100
AcDbPolyline
 90
3
 70
0
 10
89.640497661002016
 20
35.4782177197443
 10
89.979495056750565
 20
35.604824978827217
 10
90.275773268482126
 20
35.604824978827217
  0
LWPOLYLINE
  5
DA86
330
FFDA
100
AcDbEntity
  8
0
 62
7
100
AcDbPolyline
 90
3
 70
0
 10
90.0222142407677
 20
35.604824978827217
 10
90.1903349004479
 20
35.604824978827217
 10
90.318492452499214
 20
35.563483833004227
  0
LWPOLYLINE
  5
DA8B
330
FFDA
100
AcDbEntity
  8
0
 62
7
100
AcDbPolyline
 90
2
 70
0
 10
90.0222142407677
 20
35.604824978827217
 10
90.0222142407677
 20
35.604824978827217
  0
LWPOLYLINE
  5
DA8F
330
FFDA
100
AcDbEntity
  8
0
 62
7
100
AcDbPolyline
 90
2
 70
0
 10
90.275773268482126
 20
35.604824978827217
 10
90.318492452499214
 20
35.563483833004227
  0
LWPOLYLINE
  5
DA93
330
FFDA
100
AcDbEntity
  8
0
 62
7
100
AcDbPolyline
 90
6
 70
0
 10
89.217439935413324
 20
33.19188010095823
 10
89.174720751396265
 20
33.234599284975332
 10
89.132001567379135
 20
33.277146214218163
 10
89.005222053521933
 20
33.488158312689741
 10
88.9638809076989
 20
33.743267633372483
 10
88.921161723681848
 20
33.78443652442121
  0
LWPOLYLINE
  5
DA9B
330
FFDA
100
AcDbEntity
  8
0
 62
7
100
AcDbPolyline
 90
3
 70
0
 10
89.386938633287627
 20
33.277146214218163
 10
89.174720751396265
 20
33.446817166866737
 10
89.005222053521933
 20
33.743267633372483
  0
LWPOLYLINE
  5
DAA0
330
FFDA
100
AcDbEntity
  8
0
 62
7
100
AcDbPolyline
 90
3
 70
0
 10
89.428279779110582
 20
33.277146214218163
 10
89.301500265253424
 20
33.319865398235272
 10
89.260159119430455
 20
33.404270237623876
  0
LWPOLYLINE
  5
DAA5
330
FFDA
100
AcDbEntity
  8
0
 62
7
100
AcDbPolyline
 90
4
 70
0
 10
91.418166931390914
 20
33.657484755789731
 10
91.248668233516639
 20
33.319865398235272
 10
90.995109205802237
 20
33.065100587101028
 10
90.995109205802237
 20
33.0239316960523
  0
LWPOLYLINE
  5
DAAB
330
FFDA
100
AcDbEntity
  8
0
 62
7
100
AcDbPolyline
 90
2
 70
0
 10
91.6731039972994
 20
36.536551052813053
 10
91.6731039972994
 20
36.494865397441522
  0
LWPOLYLINE
  5
DAAF
330
FFDA
100
AcDbEntity
  8
0
 62
7
100
AcDbPolyline
 90
2
 70
0
 10
91.6731039972994
 20
36.536551052813053
 10
91.799883511156622
 20
36.45214621342442
  0
LWPOLYLINE
  5
DAB3
330
FFDA
100
AcDbEntity
  8
0
 62
7
100
AcDbPolyline
 90
2
 70
0
 10
91.6731039972994
 20
36.536551052813053
 10
91.630384813282333
 20
36.494865397441522
  0
LWPOLYLINE
  5
DAB7
330
FFDA
100
AcDbEntity
  8
0
 62
7
100
AcDbPolyline
 90
2
 70
0
 10
91.9266630250138
 20
35.732982530878509
 10
91.757164327139492
 20
34.082265029121061
  0
LWPOLYLINE
  5
DABB
330
FFDA
100
AcDbEntity
  8
0
 62
7
100
AcDbPolyline
 90
2
 70
0
 10
91.9266630250138
 20
35.732982530878509
 10
91.9266630250138
 20
35.774151421927257
  0
LWPOLYLINE
  5
DABF
330
FFDA
100
AcDbEntity
  8
0
 62
7
100
AcDbPolyline
 90
2
 70
0
 10
91.883943840996707
 20
35.901103190558707
 10
91.883943840996707
 20
36.113148817675828
  0
LWPOLYLINE
  5
DAC3
330
FFDA
100
AcDbEntity
  8
0
 62
7
100
AcDbPolyline
 90
2
 70
0
 10
91.9266630250138
 20
35.85993429950998
 10
91.9266630250138
 20
35.774151421927257
  0
LWPOLYLINE
  5
DAC7
330
FFDA
100
AcDbEntity
  8
0
 62
7
100
AcDbPolyline
 90
2
 70
0
 10
91.9266630250138
 20
36.07042963365874
 10
91.9266630250138
 20
36.366880100164479
  0
LWPOLYLINE
  5
DACB
330
FFDA
100
AcDbEntity
  8
0
 62
7
100
AcDbPolyline
 90
2
 70
0
 10
91.799883511156622
 20
36.45214621342442
 10
91.799883511156622
 20
35.817215115492871
  0
LWPOLYLINE
  5
DACF
330
FFDA
100
AcDbEntity
  8
0
 62
7
100
AcDbPolyline
 90
2
 70
0
 10
91.587665629265231
 20
34.208872288203992
 10
91.6731039972994
 20
34.16615310418689
  0
LWPOLYLINE
  5
DAD3
330
FFDA
100
AcDbEntity
  8
0
 62
7
100
AcDbPolyline
 90
2
 70
0
 10
91.799883511156622
 20
35.817215115492871
 10
91.6731039972994
 20
35.85993429950998
  0
LWPOLYLINE
  5
DAD7
330
FFDA
100
AcDbEntity
  8
0
 62
7
100
AcDbPolyline
 90
2
 70
0
 10
91.6731039972994
 20
35.901103190558707
 10
91.799883511156622
 20
35.817215115492871
  0
LWPOLYLINE
  5
DADB
330
FFDA
100
AcDbEntity
  8
0
 62
7
100
AcDbPolyline
 90
2
 70
0
 10
91.9266630250138
 20
35.901103190558707
 10
91.9266630250138
 20
35.901103190558707
  0
LWPOLYLINE
  5
DADF
330
FFDA
100
AcDbEntity
  8
0
 62
7
100
AcDbPolyline
 90
2
 70
0
 10
91.9266630250138
 20
36.113148817675828
 10
91.9266630250138
 20
36.113148817675828
  0
LWPOLYLINE
  5
DAE3
330
FFDA
100
AcDbEntity
  8
0
 62
7
100
AcDbPolyline
 90
2
 70
0
 10
91.841224656979563
 20
35.817215115492871
 10
91.841224656979563
 20
35.85993429950998
  0
LWPOLYLINE
  5
DAE7
330
FFDA
100
AcDbEntity
  8
0
 62
7
100
AcDbPolyline
 90
4
 70
0
 10
91.799883511156622
 20
36.45214621342442
 10
91.883943840996707
 20
36.45214621342442
 10
91.883943840996707
 20
36.40959928418161
 10
91.9266630250138
 20
36.366880100164479
  0
LWPOLYLINE
  5
DAED
330
FFDA
100
AcDbEntity
  8
0
 62
7
100
AcDbPolyline
 90
3
 70
0
 10
91.757164327139492
 20
34.082265029121061
 10
91.757164327139492
 20
34.123433920169788
 10
91.6731039972994
 20
34.16615310418689
  0
LWPOLYLINE
  5
DAF2
330
FFDA
100
AcDbEntity
  8
0
 62
7
100
AcDbPolyline
 90
3
 70
0
 10
91.9266630250138
 20
35.732982530878509
 10
91.883943840996707
 20
35.774151421927257
 10
91.799883511156622
 20
35.817215115492871
  0
LWPOLYLINE
  5
DAF7
330
FFDA
100
AcDbEntity
  8
0
 62
7
100
AcDbPolyline
 90
2
 70
0
 10
91.883943840996707
 20
36.07042963365874
 10
91.9266630250138
 20
36.07042963365874
  0
LWPOLYLINE
  5
DAFB
330
FFDA
100
AcDbEntity
  8
0
 62
7
100
AcDbPolyline
 90
3
 70
0
 10
91.9266630250138
 20
35.774151421927257
 10
91.883943840996707
 20
35.817215115492871
 10
91.799883511156622
 20
35.817215115492871
  0
LWPOLYLINE
  5
DB00
330
FFDA
100
AcDbEntity
  8
0
 62
7
100
AcDbPolyline
 90
11
 70
0
 10
91.757164327139492
 20
34.082265029121061
 10
91.757164327139492
 20
33.95376296752125
 10
91.6731039972994
 20
33.743267633372483
 10
91.630384813282333
 20
33.530877496706808
 10
91.544946445248172
 20
33.3615510536068
 10
91.334106601550829
 20
33.065100587101028
 10
91.164607903676526
 20
32.895429634452483
 10
90.952390021785163
 20
32.768822375369552
 10
90.698830994070775
 20
32.684934300303723
 10
90.656111810053687
 20
32.642215116286621
 10
90.529332296196444
 20
32.642215116286621
  0
LWPOLYLINE
  5
DB0D
330
FFDA
100
AcDbEntity
  8
0
 62
7
100
AcDbPolyline
 90
2
 70
0
 10
89.979495056750565
 20
35.267205621272751
 10
89.8099963588763
 20
35.351265951112829
  0
LWPOLYLINE
  5
DB11
330
FFDA
100
AcDbEntity
  8
0
 62
7
100
AcDbPolyline
 90
2
 70
0
 10
89.217439935413324
 20
33.743267633372483
 10
89.386938633287627
 20
33.700548449355381
  0
LWPOLYLINE
  5
DB15
330
FFDA
100
AcDbEntity
  8
0
 62
7
100
AcDbPolyline
 90
2
 70
0
 10
88.9638809076989
 20
33.78443652442121
 10
30.71282840490062
 20
55.586551048050531
  0
LWPOLYLINE
  5
DB19
330
FFDA
100
AcDbEntity
  8
0
 62
7
100
AcDbPolyline
 90
2
 70
0
 10
31.305384828363572
 20
57.322534663067941
 10
89.597778476984885
 20
35.4782177197443
  0
LWPOLYLINE
  5
DB1D
330
FFDA
100
AcDbEntity
  8
0
 62
7
100
AcDbPolyline
 90
9
 70
0
 10
89.597778476984885
 20
35.4782177197443
 10
89.767277174859174
 20
35.351265951112829
 10
89.894056688716375
 20
35.14059836218982
 10
89.894056688716375
 20
34.88548904150705
 10
89.8527155428934
 20
34.419884386675541
 10
89.597778476984885
 20
34.039201335555447
 10
89.386938633287627
 20
33.827155708438312
 10
89.174720751396265
 20
33.743267633372483
 10
88.9638809076989
 20
33.78443652442121
  0
LWPOLYLINE
  5
DB28
330
FFDA
100
AcDbEntity
  8
0
 62
7
100
AcDbPolyline
 90
17
 70
0
 10
89.597778476984885
 20
35.4782177197443
 10
89.683216845019075
 20
35.436532064372763
 10
89.767277174859174
 20
35.393812880355668
 10
89.8527155428934
 20
35.267205621272751
 10
89.894056688716375
 20
35.181767253238547
 10
89.894056688716375
 20
35.054815484607083
 10
89.936775872733463
 20
34.842769857489969
 10
89.894056688716375
 20
34.631930013792669
 10
89.8527155428934
 20
34.419884386675541
 10
89.724557990842129
 20
34.16615310418689
 10
89.640497661002016
 20
34.039201335555447
 10
89.556437331161931
 20
33.95376296752125
 10
89.344219449270554
 20
33.827155708438312
 10
89.301500265253424
 20
33.78443652442121
 10
89.174720751396265
 20
33.743267633372483
 10
89.047941237539021
 20
33.743267633372483
 10
88.9638809076989
 20
33.78443652442121
  0
LWPOLYLINE
  5
DB3B
330
FFDA
100
AcDbEntity
  8
0
 62
7
100
AcDbPolyline
 90
5
 70
0
 10
90.275773268482126
 20
34.589210829775567
 10
90.275773268482126
 20
34.7158180888585
 10
90.233054084464982
 20
34.970927409541247
 10
90.1489937546249
 20
35.14059836218982
 10
89.979495056750565
 20
35.267205621272751
  0
LWPOLYLINE
  5
DB42
330
FFDA
100
AcDbEntity
  8
0
 62
7
100
AcDbPolyline
 90
6
 70
0
 10
89.386938633287627
 20
33.700548449355381
 10
89.597778476984885
 20
33.700548449355381
 10
89.8099963588763
 20
33.743267633372483
 10
89.979495056750565
 20
33.95376296752125
 10
90.0222142407677
 20
33.95376296752125
 10
90.0222142407677
 20
33.996482151538352
  0
LWPOLYLINE
  5
DB4A
330
FFDA
100
AcDbEntity
  8
0
 62
7
100
AcDbPolyline
 90
2
 70
0
 10
91.2913874175337
 20
36.663158311895977
 10
91.248668233516639
 20
36.663158311895977
  0
LWPOLYLINE
  5
DB4E
330
FFDA
100
AcDbEntity
  8
0
 62
7
100
AcDbPolyline
 90
2
 70
0
 10
91.2913874175337
 20
36.663158311895977
 10
91.2913874175337
 20
36.70587749591305
  0
LWPOLYLINE
  5
DB52
330
FFDA
100
AcDbEntity
  8
0
 62
7
100
AcDbPolyline
 90
2
 70
0
 10
91.2913874175337
 20
36.70587749591305
 10
91.248668233516639
 20
36.663158311895977
  0
LWPOLYLINE
  5
DB56
330
FFDA
100
AcDbEntity
  8
0
 62
7
100
AcDbPolyline
 90
2
 70
0
 10
86.7190566895101
 20
36.621817166073
 10
86.7190566895101
 20
36.621817166073
  0
LWPOLYLINE
  5
DB5A
330
FFDA
100
AcDbEntity
  8
0
 62
7
100
AcDbPolyline
 90
2
 70
0
 10
86.7190566895101
 20
36.663158311895977
 10
86.677715543687157
 20
36.621817166073
  0
LWPOLYLINE
  5
DB5E
330
FFDA
100
AcDbEntity
  8
0
 62
7
100
AcDbPolyline
 90
2
 70
0
 10
88.7943822098247
 20
36.029260742610013
 10
88.7943822098247
 20
36.029260742610013
  0
LWPOLYLINE
  5
DB62
330
FFDA
100
AcDbEntity
  8
0
 62
7
100
AcDbPolyline
 90
2
 70
0
 10
88.7943822098247
 20
35.9438223745758
 10
88.708943841790429
 20
35.986541558592911
  0
LWPOLYLINE
  5
DB66
330
FFDA
100
AcDbEntity
  8
0
 62
7
100
AcDbPolyline
 90
2
 70
0
 10
85.026825787155417
 20
34.546491645758472
 10
84.984106603138343
 20
34.546491645758472
  0
LWPOLYLINE
  5
DB6A
330
FFDA
100
AcDbEntity
  8
0
 62
7
100
AcDbPolyline
 90
2
 70
0
 10
91.9266630250138
 20
36.240100586307292
 10
92.222941236745285
 20
36.366880100164479
  0
LWPOLYLINE
  5
DB6E
330
FFDA
100
AcDbEntity
  8
0
 62
7
100
AcDbPolyline
 90
2
 70
0
 10
92.222941236745285
 20
36.366880100164479
 10
91.9266630250138
 20
36.240100586307292
  0
LWPOLYLINE
  5
DB72
330
FFDA
100
AcDbEntity
  8
0
 62
7
100
AcDbPolyline
 90
2
 70
0
 10
91.080547573836441
 20
36.791315863947283
 10
91.080547573836441
 20
36.748596679930159
  0
LWPOLYLINE
  5
DB76
330
FFDA
100
AcDbEntity
  8
0
 62
7
100
AcDbPolyline
 90
2
 70
0
 10
91.9266630250138
 20
37.298433919376038
 10
91.9266630250138
 20
37.298433919376038
  0
LWPOLYLINE
  5
DB7A
330
FFDA
100
AcDbEntity
  8
0
 62
7
100
AcDbPolyline
 90
2
 70
0
 10
91.9266630250138
 20
37.298433919376038
 10
91.6731039972994
 20
37.425213433233239
  0
LWPOLYLINE
  5
DB7E
330
FFDA
100
AcDbEntity
  8
0
 62
7
100
AcDbPolyline
 90
2
 70
0
 10
91.6731039972994
 20
37.764210828981817
 10
91.6731039972994
 20
37.806930012998933
  0
LWPOLYLINE
  5
DB82
330
FFDA
100
AcDbEntity
  8
0
 62
7
100
AcDbPolyline
 90
2
 70
0
 10
91.6731039972994
 20
37.764210828981817
 10
91.460886115408
 20
37.849649197016006
  0
LWPOLYLINE
  5
DB86
330
FFDA
100
AcDbEntity
  8
0
 62
7
100
AcDbPolyline
 90
2
 70
0
 10
91.2913874175337
 20
36.663158311895977
 10
91.334106601550829
 20
36.663158311895977
  0
LWPOLYLINE
  5
DB8A
330
FFDA
100
AcDbEntity
  8
0
 62
7
100
AcDbPolyline
 90
2
 70
0
 10
91.9266630250138
 20
37.298433919376038
 10
91.9266630250138
 20
37.298433919376038
  0
LWPOLYLINE
  5
DB8E
330
FFDA
100
AcDbEntity
  8
0
 62
7
100
AcDbPolyline
 90
3
 70
0
 10
88.708943841790429
 20
37.002155707644562
 10
88.751663025807574
 20
37.002155707644562
 10
88.751663025807574
 20
36.95943652362746
  0
LWPOLYLINE
  5
DB93
330
FFDA
100
AcDbEntity
  8
0
 62
7
100
AcDbPolyline
 90
2
 70
0
 10
22.922778493653649
 20
57.6188128747994
 10
22.88143734783068
 20
57.829824973270931
  0
LWPOLYLINE
  5
DB97
330
FFDA
100
AcDbEntity
  8
0
 62
7
100
AcDbPolyline
 90
2
 70
0
 10
22.88143734783068
 20
57.872544157288068
 10
22.922778493653649
 20
57.6188128747994
  0
LWPOLYLINE
  5
DB9B
330
FFDA
100
AcDbEntity
  8
0
 62
7
100
AcDbPolyline
 90
2
 70
0
 10
29.527715557974659
 20
60.497534662274177
 10
28.299883527031628
 20
63.037603563548892
  0
LWPOLYLINE
  5
DB9F
330
FFDA
100
AcDbEntity
  8
0
 62
7
100
AcDbPolyline
 90
2
 70
0
 10
24.27739003845392
 20
61.513148811325827
 10
24.27739003845392
 20
61.513148811325827
  0
LWPOLYLINE
  5
DBA3
330
FFDA
100
AcDbEntity
  8
0
 62
7
100
AcDbPolyline
 90
2
 70
0
 10
23.04955800751085
 20
57.66153205881654
 10
23.04955800751085
 20
57.66153205881654
  0
LWPOLYLINE
  5
DBA7
330
FFDA
100
AcDbEntity
  8
0
 62
7
100
AcDbPolyline
 90
2
 70
0
 10
24.27739003845392
 20
61.513148811325827
 10
24.27739003845392
 20
61.513148811325827
  0
LWPOLYLINE
  5
DBAB
330
FFDA
100
AcDbEntity
  8
0
 62
7
100
AcDbPolyline
 90
2
 70
0
 10
24.27739003845392
 20
61.513148811325827
 10
24.27739003845392
 20
61.513148811325827
  0
LWPOLYLINE
  5
DBAF
330
FFDA
100
AcDbEntity
  8
0
 62
7
100
AcDbPolyline
 90
2
 70
0
 10
24.23604889263089
 20
61.513148811325827
 10
23.04955800751085
 20
58.126103185002471
  0
LWPOLYLINE
  5
DBB3
330
FFDA
100
AcDbEntity
  8
0
 62
7
100
AcDbPolyline
 90
2
 70
0
 10
23.04955800751085
 20
57.872544157288068
 10
23.04955800751085
 20
57.66153205881654
  0
LWPOLYLINE
  5
DBB7
330
FFDA
100
AcDbEntity
  8
0
 62
7
100
AcDbPolyline
 90
2
 70
0
 10
23.00821686168786
 20
57.829824973270931
 10
23.04955800751085
 20
57.872544157288068
  0
LWPOLYLINE
  5
DBBB
330
FFDA
100
AcDbEntity
  8
0
 62
7
100
AcDbPolyline
 90
2
 70
0
 10
23.00821686168786
 20
57.829824973270931
 10
23.00821686168786
 20
57.66153205881654
  0
LWPOLYLINE
  5
DBBF
330
FFDA
100
AcDbEntity
  8
0
 62
7
100
AcDbPolyline
 90
2
 70
0
 10
23.00821686168786
 20
58.042215109936649
 10
23.00821686168786
 20
58.042215109936649
  0
LWPOLYLINE
  5
DBC3
330
FFDA
100
AcDbEntity
  8
0
 62
7
100
AcDbPolyline
 90
2
 70
0
 10
23.04955800751085
 20
57.872544157288068
 10
23.04955800751085
 20
57.872544157288068
  0
LWPOLYLINE
  5
DBC7
330
FFDA
100
AcDbEntity
  8
0
 62
7
100
AcDbPolyline
 90
2
 70
0
 10
23.04955800751085
 20
58.042215109936649
 10
23.00821686168786
 20
58.042215109936649
  0
LWPOLYLINE
  5
DBCB
330
FFDA
100
AcDbEntity
  8
0
 62
7
100
AcDbPolyline
 90
2
 70
0
 10
91.376825785567917
 20
38.526265950319072
 10
91.503605299425146
 20
38.272534667830413
  0
LWPOLYLINE
  5
DBCF
330
FFDA
100
AcDbEntity
  8
0
 62
7
100
AcDbPolyline
 90
2
 70
0
 10
91.6731039972994
 20
37.34115310339314
 10
91.969382209030883
 20
37.214201334761711
  0
LWPOLYLINE
  5
DBD3
330
FFDA
100
AcDbEntity
  8
0
 62
7
100
AcDbPolyline
 90
2
 70
0
 10
92.01072335485388
 20
37.214201334761711
 10
91.6731039972994
 20
37.34115310339314
  0
LWPOLYLINE
  5
DBD7
330
FFDA
100
AcDbEntity
  8
0
 62
7
100
AcDbPolyline
 90
2
 70
0
 10
92.01072335485388
 20
37.214201334761711
 10
91.6731039972994
 20
37.890818088064741
  0
LWPOLYLINE
  5
DBDB
330
FFDA
100
AcDbEntity
  8
0
 62
7
100
AcDbPolyline
 90
2
 70
0
 10
91.6731039972994
 20
37.890818088064741
 10
91.376825785567917
 20
38.017769856696219
  0
LWPOLYLINE
  5
DBDF
330
FFDA
100
AcDbEntity
  8
0
 62
7
100
AcDbPolyline
 90
2
 70
0
 10
91.6731039972994
 20
37.849649197016006
 10
91.969382209030883
 20
37.257265028327311
  0
LWPOLYLINE
  5
DBE3
330
FFDA
100
AcDbEntity
  8
0
 62
7
100
AcDbPolyline
 90
2
 70
0
 10
91.6731039972994
 20
37.849649197016006
 10
91.376825785567917
 20
37.976600965647457
  0
LWPOLYLINE
  5
DBE7
330
FFDA
100
AcDbEntity
  8
0
 62
7
100
AcDbPolyline
 90
2
 70
0
 10
91.6731039972994
 20
37.849649197016006
 10
91.6731039972994
 20
37.849649197016006
  0
LWPOLYLINE
  5
DBEB
330
FFDA
100
AcDbEntity
  8
0
 62
7
100
AcDbPolyline
 90
2
 70
0
 10
91.6731039972994
 20
37.849649197016006
 10
91.630384813282333
 20
37.806930012998933
  0
LWPOLYLINE
  5
DBEF
330
FFDA
100
AcDbEntity
  8
0
 62
7
100
AcDbPolyline
 90
2
 70
0
 10
91.376825785567917
 20
38.017769856696219
 10
91.6731039972994
 20
37.34115310339314
  0
LWPOLYLINE
  5
DBF3
330
FFDA
100
AcDbEntity
  8
0
 62
7
100
AcDbPolyline
 90
2
 70
0
 10
29.654495071831828
 20
60.4548154782571
 10
29.611775887814758
 20
60.497534662274177
  0
LWPOLYLINE
  5
DBF7
330
FFDA
100
AcDbEntity
  8
0
 62
7
100
AcDbPolyline
 90
2
 70
0
 10
29.569056703797632
 20
60.540598355839769
 10
29.527715557974659
 20
60.540598355839769
  0
LWPOLYLINE
  5
DBFB
330
FFDA
100
AcDbEntity
  8
0
 62
7
100
AcDbPolyline
 90
2
 70
0
 10
29.569056703797632
 20
60.497534662274177
 10
29.611775887814758
 20
60.497534662274177
  0
LWPOLYLINE
  5
DBFF
330
FFDA
100
AcDbEntity
  8
0
 62
7
100
AcDbPolyline
 90
2
 70
0
 10
29.654495071831828
 20
60.540598355839769
 10
31.601663040095051
 20
59.778198724953988
  0
LWPOLYLINE
  5
DC03
330
FFDA
100
AcDbEntity
  8
0
 62
7
100
AcDbPolyline
 90
2
 70
0
 10
29.823993769706139
 20
60.920936897411373
 10
29.823993769706139
 20
61.004824972477181
  0
LWPOLYLINE
  5
DC07
330
FFDA
100
AcDbEntity
  8
0
 62
7
100
AcDbPolyline
 90
2
 70
0
 10
29.527715557974659
 20
60.28548903515707
 10
29.527715557974659
 20
60.115818082508483
  0
LWPOLYLINE
  5
DC0B
330
FFDA
100
AcDbEntity
  8
0
 62
7
100
AcDbPolyline
 90
2
 70
0
 10
29.527715557974659
 20
60.28548903515707
 10
29.527715557974659
 20
60.28548903515707
  0
LWPOLYLINE
  5
DC0F
330
FFDA
100
AcDbEntity
  8
0
 62
7
100
AcDbPolyline
 90
2
 70
0
 10
29.527715557974659
 20
60.497534662274177
 10
29.527715557974659
 20
60.497534662274177
  0
LWPOLYLINE
  5
DC13
330
FFDA
100
AcDbEntity
  8
0
 62
7
100
AcDbPolyline
 90
2
 70
0
 10
29.823993769706139
 20
61.004824972477181
 10
30.16161312726064
 20
60.412096294239952
  0
LWPOLYLINE
  5
DC17
330
FFDA
100
AcDbEntity
  8
0
 62
7
100
AcDbPolyline
 90
2
 70
0
 10
29.823993769706139
 20
61.004824972477181
 10
29.823993769706139
 20
61.004824972477181
  0
LWPOLYLINE
  5
DC1B
330
FFDA
100
AcDbEntity
  8
0
 62
7
100
AcDbPolyline
 90
2
 70
0
 10
29.611775887814758
 20
60.540598355839769
 10
29.569056703797632
 20
60.540598355839769
  0
LWPOLYLINE
  5
DC1F
330
FFDA
100
AcDbEntity
  8
0
 62
7
100
AcDbPolyline
 90
2
 70
0
 10
29.823993769706139
 20
61.0902633405114
 10
29.527715557974659
 20
61.174151415577221
  0
LWPOLYLINE
  5
DC23
330
FFDA
100
AcDbEntity
  8
0
 62
7
100
AcDbPolyline
 90
2
 70
0
 10
29.527715557974659
 20
61.174151415577221
 10
29.908054099546231
 20
60.497534662274177
  0
LWPOLYLINE
  5
DC27
330
FFDA
100
AcDbEntity
  8
0
 62
7
100
AcDbPolyline
 90
2
 70
0
 10
29.823993769706139
 20
61.004824972477181
 10
29.611775887814758
 20
61.0902633405114
  0
LWPOLYLINE
  5
DC2B
330
FFDA
100
AcDbEntity
  8
0
 62
7
100
AcDbPolyline
 90
2
 70
0
 10
29.865334915529161
 20
60.497534662274177
 10
30.16161312726064
 20
60.412096294239952
  0
LWPOLYLINE
  5
DC2F
330
FFDA
100
AcDbEntity
  8
0
 62
7
100
AcDbPolyline
 90
2
 70
0
 10
29.697214255848959
 20
60.412096294239952
 10
29.654495071831828
 20
60.115818082508483
  0
LWPOLYLINE
  5
DC33
330
FFDA
100
AcDbEntity
  8
0
 62
7
100
AcDbPolyline
 90
2
 70
0
 10
29.611775887814758
 20
60.115818082508483
 10
29.654495071831828
 20
60.370927403191281
  0
LWPOLYLINE
  5
DC37
330
FFDA
100
AcDbEntity
  8
0
 62
7
100
AcDbPolyline
 90
2
 70
0
 10
29.358216860100359
 20
61.5558679953429
 10
29.272778492066148
 20
61.809599277831573
  0
LWPOLYLINE
  5
DC3B
330
FFDA
100
AcDbEntity
  8
0
 62
7
100
AcDbPolyline
 90
2
 70
0
 10
29.23143734624318
 20
61.7668800938145
 10
29.358216860100359
 20
61.598931688908579
  0
LWPOLYLINE
  5
DC3F
330
FFDA
100
AcDbEntity
  8
0
 62
7
100
AcDbPolyline
 90
2
 70
0
 10
29.527715557974659
 20
60.540598355839769
 10
28.299883527031628
 20
63.037603563548892
  0
LWPOLYLINE
  5
DC43
330
FFDA
100
AcDbEntity
  8
0
 62
7
100
AcDbPolyline
 90
2
 70
0
 10
29.908054099546231
 20
60.497534662274177
 10
30.20433231127771
 20
60.370927403191281
  0
LWPOLYLINE
  5
DC47
330
FFDA
100
AcDbEntity
  8
0
 62
7
100
AcDbPolyline
 90
2
 70
0
 10
29.569056703797632
 20
60.031930007442639
 10
29.569056703797632
 20
60.031930007442639
  0
LWPOLYLINE
  5
DC4B
330
FFDA
100
AcDbEntity
  8
0
 62
7
100
AcDbPolyline
 90
2
 70
0
 10
29.654495071831828
 20
60.115818082508483
 10
29.738555401671931
 20
60.115818082508483
  0
LWPOLYLINE
  5
DC4F
330
FFDA
100
AcDbEntity
  8
0
 62
7
100
AcDbPolyline
 90
2
 70
0
 10
29.654495071831828
 20
60.412096294239952
 10
29.611775887814758
 20
60.4548154782571
  0
LWPOLYLINE
  5
DC53
330
FFDA
100
AcDbEntity
  8
0
 62
7
100
AcDbPolyline
 90
2
 70
0
 10
29.697214255848959
 20
60.412096294239952
 10
29.993492467580442
 20
60.28548903515707
  0
LWPOLYLINE
  5
DC57
330
FFDA
100
AcDbEntity
  8
0
 62
7
100
AcDbPolyline
 90
2
 70
0
 10
29.611775887814758
 20
60.4548154782571
 10
29.527715557974659
 20
60.497534662274177
  0
LWPOLYLINE
  5
DC5B
330
FFDA
100
AcDbEntity
  8
0
 62
7
100
AcDbPolyline
 90
2
 70
0
 10
29.527715557974659
 20
60.115818082508483
 10
29.611775887814758
 20
60.074649191459741
  0
LWPOLYLINE
  5
DC5F
330
FFDA
100
AcDbEntity
  8
0
 62
7
100
AcDbPolyline
 90
2
 70
0
 10
29.654495071831828
 20
60.24276985113994
 10
29.527715557974659
 20
60.28548903515707
  0
LWPOLYLINE
  5
DC63
330
FFDA
100
AcDbEntity
  8
0
 62
7
100
AcDbPolyline
 90
2
 70
0
 10
29.527715557974659
 20
60.28548903515707
 10
29.527715557974659
 20
60.115818082508483
  0
LWPOLYLINE
  5
DC67
330
FFDA
100
AcDbEntity
  8
0
 62
7
100
AcDbPolyline
 90
2
 70
0
 10
29.654495071831828
 20
60.4548154782571
 10
29.569056703797632
 20
60.497534662274177
  0
LWPOLYLINE
  5
DC6B
330
FFDA
100
AcDbEntity
  8
0
 62
7
100
AcDbPolyline
 90
2
 70
0
 10
30.034833613403411
 20
60.4548154782571
 10
30.034833613403411
 20
60.4548154782571
  0
LWPOLYLINE
  5
DC6F
330
FFDA
100
AcDbEntity
  8
0
 62
7
100
AcDbPolyline
 90
2
 70
0
 10
30.20433231127771
 20
60.370927403191281
 10
29.823993769706139
 20
61.0902633405114
  0
LWPOLYLINE
  5
DC73
330
FFDA
100
AcDbEntity
  8
0
 62
7
100
AcDbPolyline
 90
2
 70
0
 10
28.299883527031628
 20
63.037603563548892
 10
28.299883527031628
 20
63.037603563548892
  0
LWPOLYLINE
  5
DC77
330
FFDA
100
AcDbEntity
  8
0
 62
7
100
AcDbPolyline
 90
2
 70
0
 10
28.299883527031628
 20
63.037603563548892
 10
24.27739003845392
 20
61.513148811325827
  0
LWPOLYLINE
  5
DC7B
330
FFDA
100
AcDbEntity
  8
0
 62
7
100
AcDbPolyline
 90
2
 70
0
 10
24.27739003845392
 20
61.5558679953429
 10
28.299883527031628
 20
63.037603563548892
  0
LWPOLYLINE
  5
DC7F
330
FFDA
100
AcDbEntity
  8
0
 62
7
100
AcDbPolyline
 90
2
 70
0
 10
28.299883527031628
 20
63.037603563548892
 10
91.248668233516639
 20
39.500538953547732
  0
LWPOLYLINE
  5
DC83
330
FFDA
100
AcDbEntity
  8
0
 62
7
100
AcDbPolyline
 90
2
 70
0
 10
22.965497677670751
 20
57.576265945556592
 10
22.922778493653649
 20
57.576265945556592
  0
LWPOLYLINE
  5
DC87
330
FFDA
100
AcDbEntity
  8
0
 62
7
100
AcDbPolyline
 90
2
 70
0
 10
23.00821686168786
 20
58.042215109936649
 10
23.00821686168786
 20
58.084934293953722
  0
LWPOLYLINE
  5
DC8B
330
FFDA
100
AcDbEntity
  8
0
 62
7
100
AcDbPolyline
 90
2
 70
0
 10
91.248668233516639
 20
39.457819769530637
 10
92.435159118636719
 20
37.044874891661657
  0
LWPOLYLINE
  5
DC8F
330
FFDA
100
AcDbEntity
  8
0
 62
7
100
AcDbPolyline
 90
2
 70
0
 10
29.527715557974659
 20
60.540598355839769
 10
29.527715557974659
 20
60.540598355839769
  0
LWPOLYLINE
  5
DC93
330
FFDA
100
AcDbEntity
  8
0
 62
7
100
AcDbPolyline
 90
2
 70
0
 10
29.527715557974659
 20
60.540598355839769
 10
29.569056703797632
 20
60.540598355839769
  0
LWPOLYLINE
  5
DC97
330
FFDA
100
AcDbEntity
  8
0
 62
7
100
AcDbPolyline
 90
2
 70
0
 10
29.272778492066148
 20
61.809599277831573
 10
29.23143734624318
 20
61.7668800938145
  0
LWPOLYLINE
  5
DC9B
330
FFDA
100
AcDbEntity
  8
0
 62
7
100
AcDbPolyline
 90
2
 70
0
 10
28.299883527031628
 20
63.037603563548892
 10
28.299883527031628
 20
63.037603563548892
  0
LWPOLYLINE
  5
DC9F
330
FFDA
100
AcDbEntity
  8
0
 62
7
100
AcDbPolyline
 90
2
 70
0
 10
28.299883527031628
 20
63.037603563548892
 10
28.299883527031628
 20
63.037603563548892
  0
LWPOLYLINE
  5
DCA3
330
FFDA
100
AcDbEntity
  8
0
 62
7
100
AcDbPolyline
 90
2
 70
0
 10
24.27739003845392
 20
61.513148811325827
 10
24.27739003845392
 20
61.513148811325827
  0
LWPOLYLINE
  5
DCA7
330
FFDA
100
AcDbEntity
  8
0
 62
7
100
AcDbPolyline
 90
2
 70
0
 10
22.965497677670751
 20
57.576265945556592
 10
22.922778493653649
 20
57.6188128747994
  0
LWPOLYLINE
  5
DCAB
330
FFDA
100
AcDbEntity
  8
0
 62
7
100
AcDbPolyline
 90
3
 70
0
 10
23.00821686168786
 20
57.66153205881654
 10
23.00821686168786
 20
57.6188128747994
 10
22.965497677670751
 20
57.576265945556592
  0
LWPOLYLINE
  5
DCB0
330
FFDA
100
AcDbEntity
  8
0
 62
7
100
AcDbPolyline
 90
2
 70
0
 10
22.922778493653649
 20
57.576265945556592
 10
22.922778493653649
 20
57.6188128747994
  0
LWPOLYLINE
  5
DCB4
330
FFDA
100
AcDbEntity
  8
0
 62
7
100
AcDbPolyline
 90
4
 70
0
 10
23.04955800751085
 20
57.66153205881654
 10
23.04955800751085
 20
57.6188128747994
 10
23.00821686168786
 20
57.576265945556592
 10
22.922778493653649
 20
57.576265945556592
  0
LWPOLYLINE
  5
DCBA
330
FFDA
100
AcDbEntity
  8
0
 62
7
100
AcDbPolyline
 90
3
 70
0
 10
24.27739003845392
 20
61.5558679953429
 10
24.27739003845392
 20
61.5558679953429
 10
24.23604889263089
 20
61.513148811325827
  0
LWPOLYLINE
  5
DCBF
330
FFDA
100
AcDbEntity
  8
0
 62
7
100
AcDbPolyline
 90
2
 70
0
 10
23.04955800751085
 20
58.126103185002471
 10
23.00821686168786
 20
58.084934293953722
  0
LWPOLYLINE
  5
DCC3
330
FFDA
100
AcDbEntity
  8
0
 62
7
100
AcDbPolyline
 90
3
 70
0
 10
23.04955800751085
 20
58.084934293953722
 10
23.04955800751085
 20
58.042215109936649
 10
23.00821686168786
 20
58.042215109936649
  0
LWPOLYLINE
  5
DCC8
330
FFDA
100
AcDbEntity
  8
0
 62
7
100
AcDbPolyline
 90
5
 70
0
 10
91.544946445248172
 20
38.272534667830413
 10
91.544946445248172
 20
38.31559836139607
 10
91.503605299425146
 20
38.3994864364619
 10
91.418166931390914
 20
38.483546766302
 10
91.376825785567917
 20
38.526265950319072
  0
LWPOLYLINE
  5
DCCF
330
FFDA
100
AcDbEntity
  8
0
 62
7
100
AcDbPolyline
 90
2
 70
0
 10
92.01072335485388
 20
37.214201334761711
 10
91.969382209030883
 20
37.214201334761711
  0
LWPOLYLINE
  5
DCD3
330
FFDA
100
AcDbEntity
  8
0
 62
7
100
AcDbPolyline
 90
2
 70
0
 10
91.6731039972994
 20
37.849649197016006
 10
91.6731039972994
 20
37.890818088064741
  0
LWPOLYLINE
  5
DCD7
330
FFDA
100
AcDbEntity
  8
0
 62
7
100
AcDbPolyline
 90
2
 70
0
 10
91.503605299425146
 20
38.272534667830413
 10
91.544946445248172
 20
38.272534667830413
  0
LWPOLYLINE
  5
DCDB
330
FFDA
100
AcDbEntity
  8
0
 62
7
100
AcDbPolyline
 90
2
 70
0
 10
29.527715557974659
 20
60.497534662274177
 10
29.527715557974659
 20
60.497534662274177
  0
LWPOLYLINE
  5
DCDF
330
FFDA
100
AcDbEntity
  8
0
 62
7
100
AcDbPolyline
 90
3
 70
0
 10
29.823993769706139
 20
61.004824972477181
 10
29.865334915529161
 20
61.047544156494318
 10
29.823993769706139
 20
61.0902633405114
  0
LWPOLYLINE
  5
DCE4
330
FFDA
100
AcDbEntity
  8
0
 62
7
100
AcDbPolyline
 90
2
 70
0
 10
29.654495071831828
 20
60.540598355839769
 10
29.611775887814758
 20
60.540598355839769
  0
LWPOLYLINE
  5
DCE8
330
FFDA
100
AcDbEntity
  8
0
 62
7
100
AcDbPolyline
 90
2
 70
0
 10
29.611775887814758
 20
60.497534662274177
 10
29.611775887814758
 20
60.497534662274177
  0
LWPOLYLINE
  5
DCEC
330
FFDA
100
AcDbEntity
  8
0
 62
7
100
AcDbPolyline
 90
2
 70
0
 10
91.248668233516639
 20
39.500538953547732
 10
91.248668233516639
 20
39.457819769530637
  0
LWPOLYLINE
  5
DCF0
330
FFDA
100
AcDbEntity
  8
0
 62
7
100
AcDbPolyline
 90
3
 70
0
 10
29.654495071831828
 20
60.370927403191281
 10
29.654495071831828
 20
60.4548154782571
 10
29.611775887814758
 20
60.497534662274177
  0
LWPOLYLINE
  5
DCF5
330
FFDA
100
AcDbEntity
  8
0
 62
7
100
AcDbPolyline
 90
3
 70
0
 10
29.697214255848959
 20
60.412096294239952
 10
29.697214255848959
 20
60.497534662274177
 10
29.654495071831828
 20
60.540598355839769
  0
LWPOLYLINE
  5
DCFA
330
FFDA
100
AcDbEntity
  8
0
 62
7
100
AcDbPolyline
 90
3
 70
0
 10
29.569056703797632
 20
60.074649191459741
 10
29.611775887814758
 20
60.074649191459741
 10
29.611775887814758
 20
60.115818082508483
  0
LWPOLYLINE
  5
DCFF
330
FFDA
100
AcDbEntity
  8
0
 62
7
100
AcDbPolyline
 90
5
 70
0
 10
29.569056703797632
 20
60.031930007442639
 10
29.611775887814758
 20
60.031930007442639
 10
29.611775887814758
 20
60.074649191459741
 10
29.654495071831828
 20
60.074649191459741
 10
29.654495071831828
 20
60.115818082508483
  0
LWPOLYLINE
  5
DD06
330
FFDA
100
AcDbEntity
  8
0
 62
7
100
AcDbPolyline
 90
2
 70
0
 10
29.23143734624318
 20
61.7668800938145
 10
29.23143734624318
 20
61.72553894799146
  0
LWPOLYLINE
  5
DD0A
330
FFDA
100
AcDbEntity
  8
0
 62
7
100
AcDbPolyline
 90
5
 70
0
 10
29.358216860100359
 20
61.5558679953429
 10
29.272778492066148
 20
61.598931688908579
 10
29.23143734624318
 20
61.682819763974408
 10
29.188718162226049
 20
61.7668800938145
 10
29.188718162226049
 20
61.809599277831573
  0
LWPOLYLINE
  5
DD11
330
FFDA
100
AcDbEntity
  8
0
 62
7
100
AcDbPolyline
 90
2
 70
0
 10
29.188718162226049
 20
61.809599277831573
 10
29.272778492066148
 20
61.809599277831573
  0
LWPOLYLINE
  5
DD15
330
FFDA
100
AcDbEntity
  8
0
 62
7
100
AcDbPolyline
 90
2
 70
0
 10
30.20433231127771
 20
60.370927403191281
 10
30.16161312726064
 20
60.412096294239952
  0
LWPOLYLINE
  5
DD19
330
FFDA
100
AcDbEntity
  8
0
 62
7
100
AcDbPolyline
 90
2
 70
0
 10
29.527715557974659
 20
60.497534662274177
 10
29.569056703797632
 20
60.497534662274177
  0
LWPOLYLINE
  5
DD1D
330
FFDA
100
AcDbEntity
  8
0
 62
7
100
AcDbPolyline
 90
2
 70
0
 10
29.527715557974659
 20
60.115818082508483
 10
29.569056703797632
 20
60.074649191459741
  0
LWPOLYLINE
  5
DD21
330
FFDA
100
AcDbEntity
  8
0
 62
7
100
AcDbPolyline
 90
3
 70
0
 10
29.527715557974659
 20
60.115818082508483
 10
29.527715557974659
 20
60.074649191459741
 10
29.569056703797632
 20
60.031930007442639
  0
LWPOLYLINE
  5
DD26
330
FFDA
100
AcDbEntity
  8
0
 62
7
100
AcDbPolyline
 90
2
 70
0
 10
28.299883527031628
 20
63.037603563548892
 10
28.299883527031628
 20
63.037603563548892
  0
LWPOLYLINE
  5
DD2A
330
FFDA
100
AcDbEntity
  8
0
 62
7
100
AcDbPolyline
 90
2
 70
0
 10
28.299883527031628
 20
63.037603563548892
 10
28.299883527031628
 20
63.037603563548892
  0
LWPOLYLINE
  5
DD2E
330
FFDA
100
AcDbEntity
  8
0
 62
7
100
AcDbPolyline
 90
5
 70
0
 10
22.88143734783068
 20
57.872544157288068
 10
22.88143734783068
 20
57.915263341305142
 10
22.922778493653649
 20
57.957982525322294
 10
22.922778493653649
 20
57.999151416370971
 10
23.00821686168786
 20
58.042215109936649
  0
LWPOLYLINE
  5
DD35
330
FFDA
100
AcDbEntity
  8
0
 62
7
100
AcDbPolyline
 90
4
 70
0
 10
22.88143734783068
 20
57.829824973270931
 10
22.88143734783068
 20
57.999151416370971
 10
22.922778493653649
 20
58.042215109936649
 10
23.00821686168786
 20
58.042215109936649
  0
LWPOLYLINE
  5
DD3B
330
FFDA
100
AcDbEntity
  8
0
 62
7
100
AcDbPolyline
 90
2
 70
0
 10
76.094382212999662
 20
35.774151421927257
 10
85.153605301012675
 20
32.34593690455516
  0
LWPOLYLINE
  5
DD3F
330
FFDA
100
AcDbEntity
  8
0
 62
7
100
AcDbPolyline
 90
2
 70
0
 10
85.8302220543157
 20
34.039201335555447
 10
76.094382212999662
 20
37.721491644964722
  0
LWPOLYLINE
  5
DD43
330
FFDA
100
AcDbEntity
  8
0
 62
7
100
AcDbPolyline
 90
2
 70
0
 10
76.008943844965472
 20
37.721491644964722
 10
26.606274586482812
 20
56.264201329999189
  0
LWPOLYLINE
  5
DD47
330
FFDA
100
AcDbEntity
  8
0
 62
7
100
AcDbPolyline
 90
2
 70
0
 10
25.970998979002729
 20
54.528217714981793
 10
76.008943844965472
 20
35.774151421927257
  0
LWPOLYLINE
  5
DD4B
330
FFDA
100
AcDbEntity
  8
0
 62
7
100
AcDbPolyline
 90
2
 70
0
 10
85.99972075219
 20
33.91259407647253
 10
86.1692194500643
 20
33.827155708438312
  0
LWPOLYLINE
  5
DD4F
330
FFDA
100
AcDbEntity
  8
0
 62
7
100
AcDbPolyline
 90
2
 70
0
 10
85.619382210618426
 20
32.303217720538051
 10
85.449883512744123
 20
32.34593690455516
  0
LWPOLYLINE
  5
DD53
330
FFDA
100
AcDbEntity
  8
0
 62
7
100
AcDbPolyline
 90
9
 70
0
 10
85.8302220543157
 20
34.039201335555447
 10
85.99972075219
 20
33.95376296752125
 10
86.085159120224191
 20
33.743267633372483
 10
86.126500266047174
 20
33.446817166866737
 10
86.04243993620706
 20
33.0239316960523
 10
85.8302220543157
 20
32.599151422721008
 10
85.619382210618426
 20
32.429824979620989
 10
85.407164328726992
 20
32.34593690455516
 10
85.153605301012675
 20
32.34593690455516
  0
LWPOLYLINE
  5
DD5E
330
FFDA
100
AcDbEntity
  8
0
 62
7
100
AcDbPolyline
 90
15
 70
0
 10
85.8302220543157
 20
34.039201335555447
 10
85.915660422349916
 20
33.996482151538352
 10
85.957001568172856
 20
33.95376296752125
 10
86.04243993620706
 20
33.869874892455407
 10
86.085159120224191
 20
33.743267633372483
 10
86.126500266047174
 20
33.573596680723909
 10
86.1692194500643
 20
33.404270237623876
 10
86.126500266047174
 20
33.150538955135239
 10
86.085159120224191
 20
32.9808680024867
 10
85.957001568172856
 20
32.768822375369552
 10
85.872941238332771
 20
32.642215116286621
 10
85.74616172447557
 20
32.472544163638076
 10
85.5766630266013
 20
32.429824979620989
 10
85.449883512744123
 20
32.34593690455516
 10
85.153605301012675
 20
32.34593690455516
  0
LWPOLYLINE
  5
DD6F
330
FFDA
100
AcDbEntity
  8
0
 62
7
100
AcDbPolyline
 90
7
 70
0
 10
26.606274586482812
 20
56.221482145982058
 10
26.733054100339992
 20
55.968267627816211
 10
26.733054100339992
 20
55.71315830713349
 10
26.6489937704999
 20
55.248931690496079
 10
26.436775888608508
 20
54.8672151107304
 10
26.267277190734209
 20
54.697544158081818
 10
26.05643734703694
 20
54.613483828241733
  0
LWPOLYLINE
  5
DD78
330
FFDA
100
AcDbEntity
  8
0
 62
7
100
AcDbPolyline
 90
5
 70
0
 10
26.563555402465681
 20
56.052155702882033
 10
26.6489937704999
 20
55.71315830713349
 10
26.606274586482812
 20
55.375538949578967
 10
26.436775888608508
 20
55.036541553830432
 10
26.224558006717132
 20
54.782982526116029
  0
LWPOLYLINE
  5
DD7F
330
FFDA
100
AcDbEntity
  8
0
 62
7
100
AcDbPolyline
 90
7
 70
0
 10
26.563555402465681
 20
56.052155702882033
 10
26.606274586482812
 20
55.882484750233523
 10
26.6489937704999
 20
55.71315830713349
 10
26.563555402465681
 20
55.290100581544777
 10
26.352715558768409
 20
54.951103185796221
 10
26.309996374751279
 20
54.8672151107304
 10
26.224558006717132
 20
54.824151417164707
  0
LWPOLYLINE
  5
DD88
330
FFDA
100
AcDbEntity
  8
0
 62
7
100
AcDbPolyline
 90
9
 70
0
 10
85.619382210618426
 20
32.303217720538051
 10
85.788880908492658
 20
32.261532065166513
 10
85.99972075219
 20
32.34593690455516
 10
86.1692194500643
 20
32.515263347655178
 10
86.422778477778664
 20
32.854260743403771
 10
86.508216845812839
 20
33.277146214218163
 10
86.422778477778664
 20
33.530877496706808
 10
86.338718147938536
 20
33.743267633372483
 10
86.1692194500643
 20
33.827155708438312
  0
LWPOLYLINE
  5
DD93
330
FFDA
100
AcDbEntity
  8
0
 62
7
100
AcDbPolyline
 90
2
 70
0
 10
88.073668234310375
 20
33.616315864741011
 10
87.98960790447029
 20
32.684934300303723
  0
LWPOLYLINE
  5
DD97
330
FFDA
100
AcDbEntity
  8
0
 62
7
100
AcDbPolyline
 90
2
 70
0
 10
87.905547574630177
 20
32.72610319135245
 10
87.777390022578928
 20
32.811541559386647
  0
LWPOLYLINE
  5
DD9B
330
FFDA
100
AcDbEntity
  8
0
 62
7
100
AcDbPolyline
 90
2
 70
0
 10
86.508216845812839
 20
31.28760357148639
 10
86.422778477778664
 20
31.330150500729221
  0
LWPOLYLINE
  5
DD9F
330
FFDA
100
AcDbEntity
  8
0
 62
7
100
AcDbPolyline
 90
3
 70
0
 10
87.98960790447029
 20
32.684934300303723
 10
87.946888720453245
 20
32.72610319135245
 10
87.905547574630177
 20
32.72610319135245
  0
LWPOLYLINE
  5
DDA4
330
FFDA
100
AcDbEntity
  8
0
 62
7
100
AcDbPolyline
 90
11
 70
0
 10
87.98960790447029
 20
32.684934300303723
 10
87.946888720453245
 20
32.515263347655178
 10
87.905547574630177
 20
32.303217720538051
 10
87.820109206595987
 20
32.0922056220665
 10
87.777390022578928
 20
31.922534669417931
 10
87.523830994864525
 20
31.626600967234971
 10
87.354332296990208
 20
31.499649198603521
 10
87.143492453292936
 20
31.330150500729221
 10
86.931274571401545
 20
31.244884387469281
 10
86.761775873527228
 20
31.244884387469281
 10
86.508216845812839
 20
31.28760357148639
  0
LWPOLYLINE
  5
DDB1
330
FFDA
100
AcDbEntity
  8
0
 62
7
100
AcDbPolyline
 90
3
 70
0
 10
86.1692194500643
 20
31.795927410335
 10
86.085159120224191
 20
31.753208226317891
 10
86.04243993620706
 20
31.753208226317891
  0
LWPOLYLINE
  5
DDB6
330
FFDA
100
AcDbEntity
  8
0
 62
7
100
AcDbPolyline
 90
2
 70
0
 10
86.508216845812839
 20
34.123433920169788
 10
86.549557991635865
 20
34.123433920169788
  0
LWPOLYLINE
  5
DDBA
330
FFDA
100
AcDbEntity
  8
0
 62
7
100
AcDbPolyline
 90
2
 70
0
 10
85.74616172447557
 20
31.83709630138372
 10
85.74616172447557
 20
31.795927410335
  0
LWPOLYLINE
  5
DDBE
330
FFDA
100
AcDbEntity
  8
0
 62
7
100
AcDbPolyline
 90
2
 70
0
 10
86.1692194500643
 20
31.87981548540083
 10
86.1692194500643
 20
31.87981548540083
  0
LWPOLYLINE
  5
DDC2
330
FFDA
100
AcDbEntity
  8
0
 62
7
100
AcDbPolyline
 90
2
 70
0
 10
85.703442540458525
 20
31.83709630138372
 10
85.660723356441409
 20
31.87981548540083
  0
LWPOLYLINE
  5
DDC6
330
FFDA
100
AcDbEntity
  8
0
 62
7
100
AcDbPolyline
 90
2
 70
0
 10
85.99972075219
 20
31.795927410335
 10
85.99972075219
 20
31.795927410335
  0
LWPOLYLINE
  5
DDCA
330
FFDA
100
AcDbEntity
  8
0
 62
7
100
AcDbPolyline
 90
2
 70
0
 10
85.99972075219
 20
31.795927410335
 10
85.99972075219
 20
31.795927410335
  0
LWPOLYLINE
  5
DDCE
330
FFDA
100
AcDbEntity
  8
0
 62
7
100
AcDbPolyline
 90
2
 70
0
 10
86.634996359670083
 20
34.082265029121061
 10
86.549557991635865
 20
34.123433920169788
  0
LWPOLYLINE
  5
DDD2
330
FFDA
100
AcDbEntity
  8
0
 62
7
100
AcDbPolyline
 90
2
 70
0
 10
86.634996359670083
 20
34.123433920169788
 10
86.677715543687157
 20
34.082265029121061
  0
LWPOLYLINE
  5
DDD6
330
FFDA
100
AcDbEntity
  8
0
 62
7
100
AcDbPolyline
 90
2
 70
0
 10
85.74616172447557
 20
31.795927410335
 10
85.8302220543157
 20
31.795927410335
  0
LWPOLYLINE
  5
DDDA
330
FFDA
100
AcDbEntity
  8
0
 62
7
100
AcDbPolyline
 90
2
 70
0
 10
85.703442540458525
 20
31.87981548540083
 10
85.74616172447557
 20
31.83709630138372
  0
LWPOLYLINE
  5
DDDE
330
FFDA
100
AcDbEntity
  8
0
 62
7
100
AcDbPolyline
 90
2
 70
0
 10
86.253279779904346
 20
34.16615310418689
 10
86.253279779904346
 20
34.16615310418689
  0
LWPOLYLINE
  5
DDE2
330
FFDA
100
AcDbEntity
  8
0
 62
7
100
AcDbPolyline
 90
3
 70
0
 10
86.7190566895101
 20
33.996482151538352
 10
86.634996359670083
 20
34.082265029121061
 10
86.508216845812839
 20
34.123433920169788
  0
LWPOLYLINE
  5
DDE7
330
FFDA
100
AcDbEntity
  8
0
 62
7
100
AcDbPolyline
 90
3
 70
0
 10
86.253279779904346
 20
34.16615310418689
 10
86.381437331955667
 20
34.16615310418689
 10
86.508216845812839
 20
34.123433920169788
  0
LWPOLYLINE
  5
DDEC
330
FFDA
100
AcDbEntity
  8
0
 62
7
100
AcDbPolyline
 90
3
 70
0
 10
85.99972075219
 20
31.795927410335
 10
86.085159120224191
 20
31.83709630138372
 10
86.1692194500643
 20
31.87981548540083
  0
LWPOLYLINE
  5
DDF1
330
FFDA
100
AcDbEntity
  8
0
 62
7
100
AcDbPolyline
 90
3
 70
0
 10
85.957001568172856
 20
31.83709630138372
 10
86.085159120224191
 20
31.87981548540083
 10
86.1692194500643
 20
31.87981548540083
  0
LWPOLYLINE
  5
DDF6
330
FFDA
100
AcDbEntity
  8
0
 62
7
100
AcDbPolyline
 90
6
 70
0
 10
86.847214241561417
 20
33.319865398235272
 10
86.804495057544344
 20
33.657484755789731
 10
86.677715543687157
 20
33.91259407647253
 10
86.422778477778664
 20
34.082265029121061
 10
86.1692194500643
 20
34.123433920169788
 10
85.915660422349916
 20
33.996482151538352
  0
LWPOLYLINE
  5
DDFE
330
FFDA
100
AcDbEntity
  8
0
 62
7
100
AcDbPolyline
 90
4
 70
0
 10
85.872941238332771
 20
34.039201335555447
 10
85.957001568172856
 20
34.039201335555447
 10
86.126500266047174
 20
34.123433920169788
 10
86.253279779904346
 20
34.16615310418689
  0
LWPOLYLINE
  5
DE04
330
FFDA
100
AcDbEntity
  8
0
 62
7
100
AcDbPolyline
 90
3
 70
0
 10
85.660723356441409
 20
31.87981548540083
 10
85.788880908492658
 20
31.83709630138372
 10
85.915660422349916
 20
31.795927410335
  0
LWPOLYLINE
  5
DE09
330
FFDA
100
AcDbEntity
  8
0
 62
7
100
AcDbPolyline
 90
9
 70
0
 10
85.280384814869819
 20
32.34593690455516
 10
85.449883512744123
 20
32.0922056220665
 10
85.619382210618426
 20
31.922534669417931
 10
85.915660422349916
 20
31.922534669417931
 10
86.1692194500643
 20
32.0067672540323
 10
86.422778477778664
 20
32.218812881149432
 10
86.677715543687157
 20
32.557982531672252
 10
86.804495057544344
 20
32.938148818469593
 10
86.847214241561417
 20
33.319865398235272
  0
LWPOLYLINE
  5
DE14
330
FFDA
100
AcDbEntity
  8
0
 62
7
100
AcDbPolyline
 90
6
 70
0
 10
85.660723356441409
 20
31.87981548540083
 10
85.5766630266013
 20
31.922534669417931
 10
85.449883512744123
 20
32.0067672540323
 10
85.3644451447099
 20
32.133546767889491
 10
85.280384814869819
 20
32.261532065166513
 10
85.280384814869819
 20
32.34593690455516
  0
LWPOLYLINE
  5
DE1C
330
FFDA
100
AcDbEntity
  8
0
 62
7
100
AcDbPolyline
 90
2
 70
0
 10
87.058054085258746
 20
33.065100587101028
 10
87.143492453292936
 20
34.462603570692643
  0
LWPOLYLINE
  5
DE20
330
FFDA
100
AcDbEntity
  8
0
 62
7
100
AcDbPolyline
 90
2
 70
0
 10
87.058054085258746
 20
34.505150499935468
 10
86.931274571401545
 20
33.065100587101028
  0
LWPOLYLINE
  5
DE24
330
FFDA
100
AcDbEntity
  8
0
 62
7
100
AcDbPolyline
 90
2
 70
0
 10
87.777390022578928
 20
32.811541559386647
 10
87.862828390613117
 20
34.16615310418689
  0
LWPOLYLINE
  5
DE28
330
FFDA
100
AcDbEntity
  8
0
 62
7
100
AcDbPolyline
 90
2
 70
0
 10
85.619382210618426
 20
34.842769857489969
 10
85.533943842584236
 20
34.801600966441221
  0
LWPOLYLINE
  5
DE2C
330
FFDA
100
AcDbEntity
  8
0
 62
7
100
AcDbPolyline
 90
2
 70
0
 10
85.449883512744123
 20
34.801600966441221
 10
85.449883512744123
 20
34.758881782424112
  0
LWPOLYLINE
  5
DE30
330
FFDA
100
AcDbEntity
  8
0
 62
7
100
AcDbPolyline
 90
2
 70
0
 10
85.660723356441409
 20
34.842769857489969
 10
85.788880908492658
 20
34.928208225524152
  0
LWPOLYLINE
  5
DE34
330
FFDA
100
AcDbEntity
  8
0
 62
7
100
AcDbPolyline
 90
2
 70
0
 10
85.74616172447557
 20
34.419884386675541
 10
85.74616172447557
 20
34.419884386675541
  0
LWPOLYLINE
  5
DE38
330
FFDA
100
AcDbEntity
  8
0
 62
7
100
AcDbPolyline
 90
2
 70
0
 10
85.957001568172856
 20
31.83709630138372
 10
85.957001568172856
 20
31.667769858283719
  0
LWPOLYLINE
  5
DE3C
330
FFDA
100
AcDbEntity
  8
0
 62
7
100
AcDbPolyline
 90
2
 70
0
 10
86.1692194500643
 20
31.753208226317891
 10
86.1692194500643
 20
31.922534669417931
  0
LWPOLYLINE
  5
DE40
330
FFDA
100
AcDbEntity
  8
0
 62
7
100
AcDbPolyline
 90
2
 70
0
 10
86.338718147938536
 20
31.330150500729221
 10
85.619382210618426
 20
31.626600967234971
  0
LWPOLYLINE
  5
DE44
330
FFDA
100
AcDbEntity
  8
0
 62
7
100
AcDbPolyline
 90
2
 70
0
 10
87.058054085258746
 20
33.065100587101028
 10
87.777390022578928
 20
32.811541559386647
  0
LWPOLYLINE
  5
DE48
330
FFDA
100
AcDbEntity
  8
0
 62
7
100
AcDbPolyline
 90
2
 70
0
 10
86.04243993620706
 20
31.795927410335
 10
85.957001568172856
 20
31.83709630138372
  0
LWPOLYLINE
  5
DE4C
330
FFDA
100
AcDbEntity
  8
0
 62
7
100
AcDbPolyline
 90
2
 70
0
 10
86.04243993620706
 20
31.795927410335
 10
86.04243993620706
 20
31.7104890423008
  0
LWPOLYLINE
  5
DE50
330
FFDA
100
AcDbEntity
  8
0
 62
7
100
AcDbPolyline
 90
2
 70
0
 10
85.026825787155417
 20
34.378198731304032
 10
85.026825787155417
 20
34.589210829775567
  0
LWPOLYLINE
  5
DE54
330
FFDA
100
AcDbEntity
  8
0
 62
7
100
AcDbPolyline
 90
2
 70
0
 10
85.026825787155417
 20
34.631930013792669
 10
85.026825787155417
 20
34.378198731304032
  0
LWPOLYLINE
  5
DE58
330
FFDA
100
AcDbEntity
  8
0
 62
7
100
AcDbPolyline
 90
2
 70
0
 10
86.253279779904346
 20
34.16615310418689
 10
86.253279779904346
 20
34.16615310418689
  0
LWPOLYLINE
  5
DE5C
330
FFDA
100
AcDbEntity
  8
0
 62
7
100
AcDbPolyline
 90
3
 70
0
 10
85.872941238332771
 20
34.039201335555447
 10
86.1692194500643
 20
34.16615310418689
 10
86.508216845812839
 20
34.16615310418689
  0
LWPOLYLINE
  5
DE61
330
FFDA
100
AcDbEntity
  8
0
 62
7
100
AcDbPolyline
 90
3
 70
0
 10
86.253279779904346
 20
34.16615310418689
 10
86.381437331955667
 20
34.16615310418689
 10
86.549557991635865
 20
34.123433920169788
  0
LWPOLYLINE
  5
DE66
330
FFDA
100
AcDbEntity
  8
0
 62
7
100
AcDbPolyline
 90
3
 70
0
 10
86.1692194500643
 20
31.753208226317891
 10
86.085159120224191
 20
31.753208226317891
 10
85.957001568172856
 20
31.667769858283719
  0
LWPOLYLINE
  5
DE6B
330
FFDA
100
AcDbEntity
  8
0
 62
7
100
AcDbPolyline
 90
7
 70
0
 10
86.508216845812839
 20
34.16615310418689
 10
86.761775873527228
 20
33.95376296752125
 10
86.931274571401545
 20
33.573596680723909
 10
86.931274571401545
 20
33.065100587101028
 10
86.761775873527228
 20
32.599151422721008
 10
86.508216845812839
 20
32.176265951906572
 10
86.1692194500643
 20
31.922534669417931
  0
LWPOLYLINE
  5
DE74
330
FFDA
100
AcDbEntity
  8
0
 62
7
100
AcDbPolyline
 90
2
 70
0
 10
86.931274571401545
 20
33.065100587101028
 10
87.058054085258746
 20
33.065100587101028
  0
LWPOLYLINE
  5
DE78
330
FFDA
100
AcDbEntity
  8
0
 62
7
100
AcDbPolyline
 90
3
 70
0
 10
85.957001568172856
 20
31.83709630138372
 10
85.788880908492658
 20
31.795927410335
 10
85.619382210618426
 20
31.83709630138372
  0
LWPOLYLINE
  5
DE7D
330
FFDA
100
AcDbEntity
  8
0
 62
7
100
AcDbPolyline
 90
3
 70
0
 10
85.660723356441409
 20
31.83709630138372
 10
85.5766630266013
 20
31.922534669417931
 10
85.449883512744123
 20
32.0067672540323
  0
LWPOLYLINE
  5
DE82
330
FFDA
100
AcDbEntity
  8
0
 62
7
100
AcDbPolyline
 90
7
 70
0
 10
85.619382210618426
 20
31.626600967234971
 10
85.915660422349916
 20
31.583881783217858
 10
86.253279779904346
 20
31.667769858283719
 10
86.508216845812839
 20
31.922534669417931
 10
86.761775873527228
 20
32.261532065166513
 10
86.931274571401545
 20
32.642215116286621
 10
87.058054085258746
 20
33.065100587101028
  0
LWPOLYLINE
  5
DE8B
330
FFDA
100
AcDbEntity
  8
0
 62
7
100
AcDbPolyline
 90
7
 70
0
 10
87.777390022578928
 20
32.811541559386647
 10
87.650610508721684
 20
32.388483833797977
 10
87.4811118108474
 20
31.96559836298357
 10
87.227552783132978
 20
31.626600967234971
 10
86.931274571401545
 20
31.414210830569321
 10
86.634996359670083
 20
31.330150500729221
 10
86.338718147938536
 20
31.330150500729221
  0
LWPOLYLINE
  5
DE94
330
FFDA
100
AcDbEntity
  8
0
 62
7
100
AcDbPolyline
 90
10
 70
0
 10
85.19494644683563
 20
32.34593690455516
 10
85.280384814869819
 20
32.0494864380494
 10
85.449883512744123
 20
31.83709630138372
 10
85.619382210618426
 20
31.667769858283719
 10
85.915660422349916
 20
31.667769858283719
 10
86.1692194500643
 20
31.795927410335
 10
86.4654976617958
 20
32.0067672540323
 10
86.677715543687157
 20
32.303217720538051
 10
86.847214241561417
 20
32.684934300303723
 10
86.931274571401545
 20
33.065100587101028
  0
LWPOLYLINE
  5
DEA0
330
FFDA
100
AcDbEntity
  8
0
 62
7
100
AcDbPolyline
 90
3
 70
0
 10
85.619382210618426
 20
31.83709630138372
 10
85.407164328726992
 20
32.0494864380494
 10
85.19494644683563
 20
32.34593690455516
  0
LWPOLYLINE
  5
DEA5
330
FFDA
100
AcDbEntity
  8
0
 62
7
100
AcDbPolyline
 90
5
 70
0
 10
85.619382210618426
 20
31.626600967234971
 10
85.4912246585671
 20
31.7104890423008
 10
85.323103998886907
 20
31.87981548540083
 10
85.19494644683563
 20
32.0922056220665
 10
85.153605301012675
 20
32.34593690455516
  0
LWPOLYLINE
  5
DEAC
330
FFDA
100
AcDbEntity
  8
0
 62
7
100
AcDbPolyline
 90
2
 70
0
 10
29.527715557974659
 20
55.205867996930408
 10
28.2571643430145
 20
55.67181716131045
  0
LWPOLYLINE
  5
DEB0
330
FFDA
100
AcDbEntity
  8
0
 62
7
100
AcDbPolyline
 90
2
 70
0
 10
30.034833613403411
 20
57.703217714188042
 10
30.034833613403411
 20
59.439201329205453
  0
LWPOLYLINE
  5
DEB4
330
FFDA
100
AcDbEntity
  8
0
 62
7
100
AcDbPolyline
 90
2
 70
0
 10
30.077552797420541
 20
59.439201329205453
 10
30.077552797420541
 20
57.703217714188042
  0
LWPOLYLINE
  5
DEB8
330
FFDA
100
AcDbEntity
  8
0
 62
7
100
AcDbPolyline
 90
2
 70
0
 10
30.077552797420541
 20
59.566153097836889
 10
30.120271981437611
 20
59.566153097836889
  0
LWPOLYLINE
  5
DEBC
330
FFDA
100
AcDbEntity
  8
0
 62
7
100
AcDbPolyline
 90
2
 70
0
 10
30.077552797420541
 20
59.439201329205453
 10
30.034833613403411
 20
59.439201329205453
  0
LWPOLYLINE
  5
DEC0
330
FFDA
100
AcDbEntity
  8
0
 62
7
100
AcDbPolyline
 90
2
 70
0
 10
31.305384828363572
 20
58.254260737053762
 10
31.305384828363572
 20
57.237096295033723
  0
LWPOLYLINE
  5
DEC4
330
FFDA
100
AcDbEntity
  8
0
 62
7
100
AcDbPolyline
 90
2
 70
0
 10
31.85522206780945
 20
58.761551047256773
 10
32.024720765683753
 20
58.8468171605167
  0
LWPOLYLINE
  5
DEC8
330
FFDA
100
AcDbEntity
  8
0
 62
7
100
AcDbPolyline
 90
2
 70
0
 10
32.32099897741525
 20
58.761551047256773
 10
32.4477784912724
 20
58.719865391885257
  0
LWPOLYLINE
  5
DECC
330
FFDA
100
AcDbEntity
  8
0
 62
7
100
AcDbPolyline
 90
2
 70
0
 10
32.533216859306613
 20
58.804270231273883
 10
32.533216859306613
 20
58.042215109936649
  0
LWPOLYLINE
  5
DED0
330
FFDA
100
AcDbEntity
  8
0
 62
7
100
AcDbPolyline
 90
2
 70
0
 10
32.4477784912724
 20
57.999151416370971
 10
32.406437345449433
 20
57.957982525322294
  0
LWPOLYLINE
  5
DED4
330
FFDA
100
AcDbEntity
  8
0
 62
7
100
AcDbPolyline
 90
2
 70
0
 10
32.4477784912724
 20
57.957982525322294
 10
32.490497675289539
 20
57.999151416370971
  0
LWPOLYLINE
  5
DED8
330
FFDA
100
AcDbEntity
  8
0
 62
7
100
AcDbPolyline
 90
2
 70
0
 10
32.32099897741525
 20
58.761551047256773
 10
32.110159133717971
 20
58.8468171605167
  0
LWPOLYLINE
  5
DEDC
330
FFDA
100
AcDbEntity
  8
0
 62
7
100
AcDbPolyline
 90
2
 70
0
 10
31.432164342220741
 20
58.33814881211957
 10
32.4477784912724
 20
57.999151416370971
  0
LWPOLYLINE
  5
DEE0
330
FFDA
100
AcDbEntity
  8
0
 62
7
100
AcDbPolyline
 90
2
 70
0
 10
32.406437345449433
 20
57.957982525322294
 10
31.389445158203682
 20
58.33814881211957
  0
LWPOLYLINE
  5
DEE4
330
FFDA
100
AcDbEntity
  8
0
 62
7
100
AcDbPolyline
 90
2
 70
0
 10
31.389445158203682
 20
58.33814881211957
 10
31.432164342220741
 20
58.33814881211957
  0
LWPOLYLINE
  5
DEE8
330
FFDA
100
AcDbEntity
  8
0
 62
7
100
AcDbPolyline
 90
2
 70
0
 10
31.305384828363572
 20
57.237096295033723
 10
30.077552797420541
 20
57.703217714188042
  0
LWPOLYLINE
  5
DEEC
330
FFDA
100
AcDbEntity
  8
0
 62
7
100
AcDbPolyline
 90
2
 70
0
 10
32.024720765683753
 20
58.888158306339733
 10
32.278279793398092
 20
58.804270231273883
  0
LWPOLYLINE
  5
DEF0
330
FFDA
100
AcDbEntity
  8
0
 62
7
100
AcDbPolyline
 90
2
 70
0
 10
32.024720765683753
 20
58.8468171605167
 10
32.024720765683753
 20
58.8468171605167
  0
LWPOLYLINE
  5
DEF4
330
FFDA
100
AcDbEntity
  8
0
 62
7
100
AcDbPolyline
 90
2
 70
0
 10
32.024720765683753
 20
58.888158306339733
 10
31.85522206780945
 20
58.8468171605167
  0
LWPOLYLINE
  5
DEF8
330
FFDA
100
AcDbEntity
  8
0
 62
7
100
AcDbPolyline
 90
2
 70
0
 10
32.024720765683753
 20
58.8468171605167
 10
32.110159133717971
 20
58.8468171605167
  0
LWPOLYLINE
  5
DEFC
330
FFDA
100
AcDbEntity
  8
0
 62
7
100
AcDbPolyline
 90
2
 70
0
 10
31.516224672060851
 20
59.10054844300538
 10
31.474883526237878
 20
59.10054844300538
  0
LWPOLYLINE
  5
DF00
330
FFDA
100
AcDbEntity
  8
0
 62
7
100
AcDbPolyline
 90
2
 70
0
 10
31.558943856077981
 20
59.01631585839101
 10
31.85522206780945
 20
58.930877490356821
  0
LWPOLYLINE
  5
DF04
330
FFDA
100
AcDbEntity
  8
0
 62
7
100
AcDbPolyline
 90
2
 70
0
 10
31.771161737969351
 20
58.973596674373937
 10
31.558943856077981
 20
59.10054844300538
  0
LWPOLYLINE
  5
DF08
330
FFDA
100
AcDbEntity
  8
0
 62
7
100
AcDbPolyline
 90
2
 70
0
 10
31.558943856077981
 20
59.01631585839101
 10
30.16161312726064
 20
59.566153097836889
  0
LWPOLYLINE
  5
DF0C
330
FFDA
100
AcDbEntity
  8
0
 62
7
100
AcDbPolyline
 90
2
 70
0
 10
32.024720765683753
 20
58.8468171605167
 10
32.024720765683753
 20
58.8468171605167
  0
LWPOLYLINE
  5
DF10
330
FFDA
100
AcDbEntity
  8
0
 62
7
100
AcDbPolyline
 90
5
 70
0
 10
27.748668249391638
 20
56.221482145982058
 10
27.791387433408719
 20
56.137594070916244
 10
27.83410661742586
 20
56.094874886899127
 10
28.003605315300149
 20
55.84131585918476
 10
28.2571643430145
 20
55.67181716131045
  0
LWPOLYLINE
  5
DF17
330
FFDA
100
AcDbEntity
  8
0
 62
7
100
AcDbPolyline
 90
4
 70
0
 10
27.83410661742586
 20
56.137594070916244
 10
27.876825801442919
 20
56.137594070916244
 10
28.044946461123121
 20
55.882484750233523
 10
28.299883527031628
 20
55.71315830713349
  0
LWPOLYLINE
  5
DF1D
330
FFDA
100
AcDbEntity
  8
0
 62
7
100
AcDbPolyline
 90
8
 70
0
 10
28.2571643430145
 20
55.67181716131045
 10
28.5107233707289
 20
55.629270232067647
 10
28.80700158246038
 20
55.67181716131045
 10
29.06193864836888
 20
55.798596675167673
 10
29.484996373957529
 20
56.137594070916244
 10
29.781274585689061
 20
56.603198725747738
 10
29.993492467580442
 20
57.153208219967887
 10
30.077552797420541
 20
57.703217714188042
  0
LWPOLYLINE
  5
DF27
330
FFDA
100
AcDbEntity
  8
0
 62
7
100
AcDbPolyline
 90
7
 70
0
 10
28.299883527031628
 20
55.71315830713349
 10
28.6802220686032
 20
55.67181716131045
 10
29.06193864836888
 20
55.84131585918476
 10
29.442277189940452
 20
56.137594070916244
 10
29.738555401671931
 20
56.644884381119311
 10
29.950773283563311
 20
57.153208219967887
 10
30.034833613403411
 20
57.703217714188042
  0
LWPOLYLINE
  5
DF30
330
FFDA
100
AcDbEntity
  8
0
 62
7
100
AcDbPolyline
 90
8
 70
0
 10
29.527715557974659
 20
55.205867996930408
 10
29.781274585689061
 20
55.163148812913327
 10
30.077552797420541
 20
55.163148812913327
 10
30.33111182513494
 20
55.290100581544777
 10
30.71282840490062
 20
55.67181716131045
 10
31.051825800649169
 20
56.137594070916244
 10
31.262665644346441
 20
56.687603565136378
 10
31.305384828363572
 20
57.237096295033723
  0
LWPOLYLINE
  5
DF3A
330
FFDA
100
AcDbEntity
  8
0
 62
7
100
AcDbPolyline
 90
3
 70
0
 10
30.120271981437611
 20
59.566153097836889
 10
30.077552797420541
 20
59.5234339138198
 10
30.077552797420541
 20
59.439201329205453
  0
LWPOLYLINE
  5
DF3F
330
FFDA
100
AcDbEntity
  8
0
 62
7
100
AcDbPolyline
 90
3
 70
0
 10
30.077552797420541
 20
59.566153097836889
 10
30.034833613403411
 20
59.5234339138198
 10
30.034833613403411
 20
59.439201329205453
  0
LWPOLYLINE
  5
DF44
330
FFDA
100
AcDbEntity
  8
0
 62
7
100
AcDbPolyline
 90
2
 70
0
 10
30.16161312726064
 20
59.566153097836889
 10
30.120271981437611
 20
59.566153097836889
  0
LWPOLYLINE
  5
DF48
330
FFDA
100
AcDbEntity
  8
0
 62
7
100
AcDbPolyline
 90
3
 70
0
 10
32.024720765683753
 20
58.8468171605167
 10
32.024720765683753
 20
58.761551047256773
 10
31.982001581666609
 20
58.719865391885257
  0
LWPOLYLINE
  5
DF4D
330
FFDA
100
AcDbEntity
  8
0
 62
7
100
AcDbPolyline
 90
5
 70
0
 10
32.024720765683753
 20
58.719865391885257
 10
31.982001581666609
 20
58.719865391885257
 10
31.897941251826531
 20
58.761551047256773
 10
31.85522206780945
 20
58.8468171605167
 10
31.85522206780945
 20
58.930877490356821
  0
LWPOLYLINE
  5
DF54
330
FFDA
100
AcDbEntity
  8
0
 62
7
100
AcDbPolyline
 90
3
 70
0
 10
32.110159133717971
 20
58.8468171605167
 10
32.067439949700827
 20
58.761551047256773
 10
32.024720765683753
 20
58.719865391885257
  0
LWPOLYLINE
  5
DF59
330
FFDA
100
AcDbEntity
  8
0
 62
7
100
AcDbPolyline
 90
2
 70
0
 10
32.278279793398092
 20
58.804270231273883
 10
32.32099897741525
 20
58.761551047256773
  0
LWPOLYLINE
  5
DF5D
330
FFDA
100
AcDbEntity
  8
0
 62
7
100
AcDbPolyline
 90
2
 70
0
 10
32.4477784912724
 20
57.957982525322294
 10
32.406437345449433
 20
57.957982525322294
  0
LWPOLYLINE
  5
DF61
330
FFDA
100
AcDbEntity
  8
0
 62
7
100
AcDbPolyline
 90
3
 70
0
 10
32.490497675289539
 20
57.999151416370971
 10
32.4477784912724
 20
57.957982525322294
 10
32.4477784912724
 20
57.999151416370971
  0
LWPOLYLINE
  5
DF66
330
FFDA
100
AcDbEntity
  8
0
 62
7
100
AcDbPolyline
 90
2
 70
0
 10
32.406437345449433
 20
58.719865391885257
 10
32.406437345449433
 20
58.761551047256773
  0
LWPOLYLINE
  5
DF6A
330
FFDA
100
AcDbEntity
  8
0
 62
7
100
AcDbPolyline
 90
2
 70
0
 10
32.4477784912724
 20
58.719865391885257
 10
32.4477784912724
 20
58.804270231273883
  0
LWPOLYLINE
  5
DF6E
330
FFDA
100
AcDbEntity
  8
0
 62
7
100
AcDbPolyline
 90
3
 70
0
 10
32.533216859306613
 20
58.042215109936649
 10
32.533216859306613
 20
57.999151416370971
 10
32.490497675289539
 20
57.999151416370971
  0
LWPOLYLINE
  5
DF73
330
FFDA
100
AcDbEntity
  8
0
 62
7
100
AcDbPolyline
 90
3
 70
0
 10
31.348104012380649
 20
58.33814881211957
 10
31.348104012380649
 20
58.295429628102511
 10
31.305384828363572
 20
58.254260737053762
  0
LWPOLYLINE
  5
DF78
330
FFDA
100
AcDbEntity
  8
0
 62
7
100
AcDbPolyline
 90
2
 70
0
 10
31.389445158203682
 20
58.33814881211957
 10
31.348104012380649
 20
58.33814881211957
  0
LWPOLYLINE
  5
DF7C
330
FFDA
100
AcDbEntity
  8
0
 62
7
100
AcDbPolyline
 90
2
 70
0
 10
31.432164342220741
 20
58.33814881211957
 10
31.348104012380649
 20
58.33814881211957
  0
LWPOLYLINE
  5
DF80
330
FFDA
100
AcDbEntity
  8
0
 62
7
100
AcDbPolyline
 90
2
 70
0
 10
32.024720765683753
 20
58.8468171605167
 10
32.024720765683753
 20
58.8468171605167
  0
LWPOLYLINE
  5
DF84
330
FFDA
100
AcDbEntity
  8
0
 62
7
100
AcDbPolyline
 90
3
 70
0
 10
32.024720765683753
 20
58.888158306339733
 10
32.067439949700827
 20
58.888158306339733
 10
32.110159133717971
 20
58.8468171605167
  0
LWPOLYLINE
  5
DF89
330
FFDA
100
AcDbEntity
  8
0
 62
7
100
AcDbPolyline
 90
2
 70
0
 10
31.516224672060851
 20
59.10054844300538
 10
31.558943856077981
 20
59.10054844300538
  0
LWPOLYLINE
  5
DF8D
330
FFDA
100
AcDbEntity
  8
0
 62
7
100
AcDbPolyline
 90
2
 70
0
 10
31.558943856077981
 20
59.10054844300538
 10
31.558943856077981
 20
59.01631585839101
  0
LWPOLYLINE
  5
DF91
330
FFDA
100
AcDbEntity
  8
0
 62
7
100
AcDbPolyline
 90
2
 70
0
 10
32.024720765683753
 20
58.888158306339733
 10
32.024720765683753
 20
58.888158306339733
  0
LWPOLYLINE
  5
DF95
330
FFDA
100
AcDbEntity
  8
0
 62
7
100
AcDbPolyline
 90
3
 70
0
 10
31.771161737969351
 20
58.973596674373937
 10
31.813880921986431
 20
58.973596674373937
 10
31.85522206780945
 20
58.930877490356821
  0
LWPOLYLINE
  5
DF9A
330
FFDA
100
AcDbEntity
  8
0
 62
7
100
AcDbPolyline
 90
2
 70
0
 10
89.260159119430455
 20
36.663158311895977
 10
89.217439935413324
 20
36.663158311895977
  0
LWPOLYLINE
  5
DF9E
330
FFDA
100
AcDbEntity
  8
0
 62
7
100
AcDbPolyline
 90
2
 70
0
 10
87.607891324704624
 20
36.579270236830148
 10
87.270271967150109
 20
36.45214621342442
  0
LWPOLYLINE
  5
DFA2
330
FFDA
100
AcDbEntity
  8
0
 62
7
100
AcDbPolyline
 90
2
 70
0
 10
88.073668234310375
 20
36.45214621342442
 10
88.116387418327434
 20
36.45214621342442
  0
LWPOLYLINE
  5
DFA6
330
FFDA
100
AcDbEntity
  8
0
 62
7
100
AcDbPolyline
 90
2
 70
0
 10
87.820109206595987
 20
36.45214621342442
 10
87.523830994864525
 20
36.325538954341482
  0
LWPOLYLINE
  5
DFAA
330
FFDA
100
AcDbEntity
  8
0
 62
7
100
AcDbPolyline
 90
2
 70
0
 10
89.260159119430455
 20
36.663158311895977
 10
90.275773268482126
 20
36.325538954341482
  0
LWPOLYLINE
  5
DFAE
330
FFDA
100
AcDbEntity
  8
0
 62
7
100
AcDbPolyline
 90
2
 70
0
 10
87.4811118108474
 20
36.325538954341482
 10
87.4811118108474
 20
36.325538954341482
  0
LWPOLYLINE
  5
DFB2
330
FFDA
100
AcDbEntity
  8
0
 62
7
100
AcDbPolyline
 90
2
 70
0
 10
87.354332296990208
 20
36.663158311895977
 10
87.354332296990208
 20
36.70587749591305
  0
LWPOLYLINE
  5
DFB6
330
FFDA
100
AcDbEntity
  8
0
 62
7
100
AcDbPolyline
 90
2
 70
0
 10
86.97399375541859
 20
36.494865397441522
 10
86.888555387384415
 20
36.536551052813053
  0
LWPOLYLINE
  5
DFBA
330
FFDA
100
AcDbEntity
  8
0
 62
7
100
AcDbPolyline
 90
2
 70
0
 10
87.015334901241658
 20
36.536551052813053
 10
87.354332296990208
 20
36.663158311895977
  0
LWPOLYLINE
  5
DFBE
330
FFDA
100
AcDbEntity
  8
0
 62
7
100
AcDbPolyline
 90
2
 70
0
 10
87.354332296990208
 20
36.70587749591305
 10
87.015334901241658
 20
36.579270236830148
  0
LWPOLYLINE
  5
DFC2
330
FFDA
100
AcDbEntity
  8
0
 62
7
100
AcDbPolyline
 90
2
 70
0
 10
86.97399375541859
 20
36.494865397441522
 10
87.227552783132978
 20
36.40959928418161
  0
LWPOLYLINE
  5
DFC6
330
FFDA
100
AcDbEntity
  8
0
 62
7
100
AcDbPolyline
 90
2
 70
0
 10
87.270271967150109
 20
36.45214621342442
 10
87.015334901241658
 20
36.536551052813053
  0
LWPOLYLINE
  5
DFCA
330
FFDA
100
AcDbEntity
  8
0
 62
7
100
AcDbPolyline
 90
2
 70
0
 10
87.523830994864525
 20
36.663158311895977
 10
87.607891324704624
 20
36.621817166073
  0
LWPOLYLINE
  5
DFCE
330
FFDA
100
AcDbEntity
  8
0
 62
7
100
AcDbPolyline
 90
2
 70
0
 10
87.523830994864525
 20
36.40959928418161
 10
87.820109206595987
 20
36.536551052813053
  0
LWPOLYLINE
  5
DFD2
330
FFDA
100
AcDbEntity
  8
0
 62
7
100
AcDbPolyline
 90
2
 70
0
 10
87.607891324704624
 20
36.663158311895977
 10
87.523830994864525
 20
36.70587749591305
  0
LWPOLYLINE
  5
DFD6
330
FFDA
100
AcDbEntity
  8
0
 62
7
100
AcDbPolyline
 90
2
 70
0
 10
87.523830994864525
 20
36.70587749591305
 10
87.523830994864525
 20
36.663158311895977
  0
LWPOLYLINE
  5
DFDA
330
FFDA
100
AcDbEntity
  8
0
 62
7
100
AcDbPolyline
 90
2
 70
0
 10
87.650610508721684
 20
36.663158311895977
 10
87.650610508721684
 20
36.621817166073
  0
LWPOLYLINE
  5
DFDE
330
FFDA
100
AcDbEntity
  8
0
 62
7
100
AcDbPolyline
 90
2
 70
0
 10
88.073668234310375
 20
36.536551052813053
 10
88.116387418327434
 20
36.494865397441522
  0
LWPOLYLINE
  5
DFE2
330
FFDA
100
AcDbEntity
  8
0
 62
7
100
AcDbPolyline
 90
2
 70
0
 10
88.116387418327434
 20
36.494865397441522
 10
88.116387418327434
 20
36.45214621342442
  0
LWPOLYLINE
  5
DFE6
330
FFDA
100
AcDbEntity
  8
0
 62
7
100
AcDbPolyline
 90
2
 70
0
 10
88.073668234310375
 20
36.45214621342442
 10
88.073668234310375
 20
36.536551052813053
  0
LWPOLYLINE
  5
DFEA
330
FFDA
100
AcDbEntity
  8
0
 62
7
100
AcDbPolyline
 90
2
 70
0
 10
87.820109206595987
 20
36.536551052813053
 10
87.820109206595987
 20
36.45214621342442
  0
LWPOLYLINE
  5
DFEE
330
FFDA
100
AcDbEntity
  8
0
 62
7
100
AcDbPolyline
 90
2
 70
0
 10
88.1591066023446
 20
36.45214621342442
 10
88.1591066023446
 20
36.40959928418161
  0
LWPOLYLINE
  5
DFF2
330
FFDA
100
AcDbEntity
  8
0
 62
7
100
AcDbPolyline
 90
2
 70
0
 10
87.607891324704624
 20
36.621817166073
 10
87.607891324704624
 20
36.663158311895977
  0
LWPOLYLINE
  5
DFF6
330
FFDA
100
AcDbEntity
  8
0
 62
7
100
AcDbPolyline
 90
2
 70
0
 10
89.217439935413324
 20
36.663158311895977
 10
90.233054084464982
 20
36.28281977032438
  0
LWPOLYLINE
  5
DFFA
330
FFDA
100
AcDbEntity
  8
0
 62
7
100
AcDbPolyline
 90
2
 70
0
 10
88.116387418327434
 20
36.366880100164479
 10
87.777390022578928
 20
36.240100586307292
  0
LWPOLYLINE
  5
DFFE
330
FFDA
100
AcDbEntity
  8
0
 62
7
100
AcDbPolyline
 90
2
 70
0
 10
87.777390022578928
 20
36.240100586307292
 10
87.523830994864525
 20
36.325538954341482
  0
LWPOLYLINE
  5
E002
330
FFDA
100
AcDbEntity
  8
0
 62
7
100
AcDbPolyline
 90
2
 70
0
 10
87.4811118108474
 20
36.325538954341482
 10
87.736048876755859
 20
36.19893169525853
  0
LWPOLYLINE
  5
E006
330
FFDA
100
AcDbEntity
  8
0
 62
7
100
AcDbPolyline
 90
2
 70
0
 10
87.736048876755859
 20
36.19893169525853
 10
88.7943822098247
 20
35.817215115492871
  0
LWPOLYLINE
  5
E00A
330
FFDA
100
AcDbEntity
  8
0
 62
7
100
AcDbPolyline
 90
2
 70
0
 10
90.1062745706078
 20
37.128762966727493
 10
91.544946445248172
 20
36.579270236830148
  0
LWPOLYLINE
  5
E00E
330
FFDA
100
AcDbEntity
  8
0
 62
7
100
AcDbPolyline
 90
2
 70
0
 10
86.804495057544344
 20
36.536551052813053
 10
86.804495057544344
 20
36.663158311895977
  0
LWPOLYLINE
  5
E012
330
FFDA
100
AcDbEntity
  8
0
 62
7
100
AcDbPolyline
 90
2
 70
0
 10
90.318492452499214
 20
36.07042963365874
 10
90.318492452499214
 20
35.520936903761388
  0
LWPOLYLINE
  5
E016
330
FFDA
100
AcDbEntity
  8
0
 62
7
100
AcDbPolyline
 90
2
 70
0
 10
91.630384813282333
 20
36.40959928418161
 10
91.630384813282333
 20
34.674649197809771
  0
LWPOLYLINE
  5
E01A
330
FFDA
100
AcDbEntity
  8
0
 62
7
100
AcDbPolyline
 90
2
 70
0
 10
90.318492452499214
 20
36.07042963365874
 10
90.318492452499214
 20
36.113148817675828
  0
LWPOLYLINE
  5
E01E
330
FFDA
100
AcDbEntity
  8
0
 62
7
100
AcDbPolyline
 90
2
 70
0
 10
90.318492452499214
 20
36.113148817675828
 10
90.3598335983222
 20
36.113148817675828
  0
LWPOLYLINE
  5
E022
330
FFDA
100
AcDbEntity
  8
0
 62
7
100
AcDbPolyline
 90
2
 70
0
 10
90.275773268482126
 20
36.325538954341482
 10
90.233054084464982
 20
36.28281977032438
  0
LWPOLYLINE
  5
E026
330
FFDA
100
AcDbEntity
  8
0
 62
7
100
AcDbPolyline
 90
2
 70
0
 10
90.318492452499214
 20
35.520936903761388
 10
90.318492452499214
 20
35.097534668624192
  0
LWPOLYLINE
  5
E02A
330
FFDA
100
AcDbEntity
  8
0
 62
7
100
AcDbPolyline
 90
2
 70
0
 10
90.3598335983222
 20
35.14059836218982
 10
90.3598335983222
 20
36.113148817675828
  0
LWPOLYLINE
  5
E02E
330
FFDA
100
AcDbEntity
  8
0
 62
7
100
AcDbPolyline
 90
2
 70
0
 10
90.3598335983222
 20
35.14059836218982
 10
91.630384813282333
 20
34.674649197809771
  0
LWPOLYLINE
  5
E032
330
FFDA
100
AcDbEntity
  8
0
 62
7
100
AcDbPolyline
 90
2
 70
0
 10
89.132001567379135
 20
36.832484754995988
 10
89.132001567379135
 20
37.55319873051026
  0
LWPOLYLINE
  5
E036
330
FFDA
100
AcDbEntity
  8
0
 62
7
100
AcDbPolyline
 90
2
 70
0
 10
89.174720751396265
 20
36.875548448561638
 10
89.132001567379135
 20
36.832484754995988
  0
LWPOLYLINE
  5
E03A
330
FFDA
100
AcDbEntity
  8
0
 62
7
100
AcDbPolyline
 90
2
 70
0
 10
89.174720751396265
 20
36.875548448561638
 10
89.174720751396265
 20
37.55319873051026
  0
LWPOLYLINE
  5
E03E
330
FFDA
100
AcDbEntity
  8
0
 62
7
100
AcDbPolyline
 90
2
 70
0
 10
88.878442539664732
 20
37.171482150744588
 10
89.132001567379135
 20
37.044874891661657
  0
LWPOLYLINE
  5
E042
330
FFDA
100
AcDbEntity
  8
0
 62
7
100
AcDbPolyline
 90
2
 70
0
 10
88.7943822098247
 20
37.171482150744588
 10
88.7943822098247
 20
37.214201334761711
  0
LWPOLYLINE
  5
E046
330
FFDA
100
AcDbEntity
  8
0
 62
7
100
AcDbPolyline
 90
2
 70
0
 10
89.260159119430455
 20
37.425213433233239
 10
89.301500265253424
 20
37.425213433233239
  0
LWPOLYLINE
  5
E04A
330
FFDA
100
AcDbEntity
  8
0
 62
7
100
AcDbPolyline
 90
2
 70
0
 10
89.260159119430455
 20
37.425213433233239
 10
89.344219449270554
 20
37.383872287410242
  0
LWPOLYLINE
  5
E04E
330
FFDA
100
AcDbEntity
  8
0
 62
7
100
AcDbPolyline
 90
2
 70
0
 10
89.132001567379135
 20
37.34115310339314
 10
88.878442539664732
 20
37.214201334761711
  0
LWPOLYLINE
  5
E052
330
FFDA
100
AcDbEntity
  8
0
 62
7
100
AcDbPolyline
 90
2
 70
0
 10
89.344219449270554
 20
37.383872287410242
 10
89.597778476984885
 20
37.298433919376038
  0
LWPOLYLINE
  5
E056
330
FFDA
100
AcDbEntity
  8
0
 62
7
100
AcDbPolyline
 90
2
 70
0
 10
89.597778476984885
 20
37.34115310339314
 10
89.301500265253424
 20
37.425213433233239
  0
LWPOLYLINE
  5
E05A
330
FFDA
100
AcDbEntity
  8
0
 62
7
100
AcDbPolyline
 90
2
 70
0
 10
88.878442539664732
 20
37.298433919376038
 10
88.878442539664732
 20
37.214201334761711
  0
LWPOLYLINE
  5
E05E
330
FFDA
100
AcDbEntity
  8
0
 62
7
100
AcDbPolyline
 90
2
 70
0
 10
88.878442539664732
 20
37.298433919376038
 10
89.132001567379135
 20
37.383872287410242
  0
LWPOLYLINE
  5
E062
330
FFDA
100
AcDbEntity
  8
0
 62
7
100
AcDbPolyline
 90
2
 70
0
 10
89.683216845019075
 20
37.171482150744588
 10
89.8099963588763
 20
37.214201334761711
  0
LWPOLYLINE
  5
E066
330
FFDA
100
AcDbEntity
  8
0
 62
7
100
AcDbPolyline
 90
2
 70
0
 10
89.8099963588763
 20
37.257265028327311
 10
89.640497661002016
 20
37.171482150744588
  0
LWPOLYLINE
  5
E06A
330
FFDA
100
AcDbEntity
  8
0
 62
7
100
AcDbPolyline
 90
2
 70
0
 10
89.8099963588763
 20
37.171482150744588
 10
89.8527155428934
 20
37.214201334761711
  0
LWPOLYLINE
  5
E06E
330
FFDA
100
AcDbEntity
  8
0
 62
7
100
AcDbPolyline
 90
2
 70
0
 10
89.8099963588763
 20
37.171482150744588
 10
89.8099963588763
 20
37.214201334761711
  0
LWPOLYLINE
  5
E072
330
FFDA
100
AcDbEntity
  8
0
 62
7
100
AcDbPolyline
 90
2
 70
0
 10
89.8527155428934
 20
37.257265028327311
 10
90.1062745706078
 20
37.171482150744588
  0
LWPOLYLINE
  5
E076
330
FFDA
100
AcDbEntity
  8
0
 62
7
100
AcDbPolyline
 90
2
 70
0
 10
88.582164327933256
 20
33.065100587101028
 10
89.8527155428934
 20
32.599151422721008
  0
LWPOLYLINE
  5
E07A
330
FFDA
100
AcDbEntity
  8
0
 62
7
100
AcDbPolyline
 90
2
 70
0
 10
86.7190566895101
 20
36.579270236830148
 10
86.7190566895101
 20
36.663158311895977
  0
LWPOLYLINE
  5
E07E
330
FFDA
100
AcDbEntity
  8
0
 62
7
100
AcDbPolyline
 90
2
 70
0
 10
89.8099963588763
 20
37.214201334761711
 10
89.8099963588763
 20
37.214201334761711
  0
LWPOLYLINE
  5
E082
330
FFDA
100
AcDbEntity
  8
0
 62
7
100
AcDbPolyline
 90
5
 70
0
 10
88.582164327933256
 20
33.150538955135239
 10
88.328605300218911
 20
33.277146214218163
 10
88.1591066023446
 20
33.530877496706808
 10
88.073668234310375
 20
33.827155708438312
 10
88.032327088487364
 20
34.123433920169788
  0
LWPOLYLINE
  5
E089
330
FFDA
100
AcDbEntity
  8
0
 62
7
100
AcDbPolyline
 90
5
 70
0
 10
88.582164327933256
 20
33.065100587101028
 10
88.328605300218911
 20
33.234599284975332
 10
88.116387418327434
 20
33.488158312689741
 10
88.032327088487364
 20
33.827155708438312
 10
87.946888720453245
 20
34.16615310418689
  0
LWPOLYLINE
  5
E090
330
FFDA
100
AcDbEntity
  8
0
 62
7
100
AcDbPolyline
 90
3
 70
0
 10
86.97399375541859
 20
36.494865397441522
 10
86.97399375541859
 20
36.536551052813053
 10
87.015334901241658
 20
36.536551052813053
  0
LWPOLYLINE
  5
E095
330
FFDA
100
AcDbEntity
  8
0
 62
7
100
AcDbPolyline
 90
4
 70
0
 10
88.073668234310375
 20
36.45214621342442
 10
88.032327088487364
 20
36.494865397441522
 10
87.905547574630177
 20
36.494865397441522
 10
87.820109206595987
 20
36.45214621342442
  0
LWPOLYLINE
  5
E09B
330
FFDA
100
AcDbEntity
  8
0
 62
7
100
AcDbPolyline
 90
2
 70
0
 10
87.4811118108474
 20
36.325538954341482
 10
87.523830994864525
 20
36.325538954341482
  0
LWPOLYLINE
  5
E09F
330
FFDA
100
AcDbEntity
  8
0
 62
7
100
AcDbPolyline
 90
3
 70
0
 10
88.1591066023446
 20
36.40959928418161
 10
88.1591066023446
 20
36.45214621342442
 10
88.116387418327434
 20
36.45214621342442
  0
LWPOLYLINE
  5
E0A4
330
FFDA
100
AcDbEntity
  8
0
 62
7
100
AcDbPolyline
 90
3
 70
0
 10
88.116387418327434
 20
36.366880100164479
 10
88.1591066023446
 20
36.366880100164479
 10
88.1591066023446
 20
36.40959928418161
  0
LWPOLYLINE
  5
E0A9
330
FFDA
100
AcDbEntity
  8
0
 62
7
100
AcDbPolyline
 90
4
 70
0
 10
87.523830994864525
 20
36.70587749591305
 10
87.4811118108474
 20
36.748596679930159
 10
87.3970514810073
 20
36.748596679930159
 10
87.354332296990208
 20
36.70587749591305
  0
LWPOLYLINE
  5
E0AF
330
FFDA
100
AcDbEntity
  8
0
 62
7
100
AcDbPolyline
 90
2
 70
0
 10
87.523830994864525
 20
36.663158311895977
 10
87.354332296990208
 20
36.663158311895977
  0
LWPOLYLINE
  5
E0B3
330
FFDA
100
AcDbEntity
  8
0
 62
7
100
AcDbPolyline
 90
3
 70
0
 10
87.015334901241658
 20
36.579270236830148
 10
86.97399375541859
 20
36.579270236830148
 10
86.97399375541859
 20
36.494865397441522
  0
LWPOLYLINE
  5
E0B8
330
FFDA
100
AcDbEntity
  8
0
 62
7
100
AcDbPolyline
 90
3
 70
0
 10
87.227552783132978
 20
36.40959928418161
 10
87.227552783132978
 20
36.45214621342442
 10
87.270271967150109
 20
36.45214621342442
  0
LWPOLYLINE
  5
E0BD
330
FFDA
100
AcDbEntity
  8
0
 62
7
100
AcDbPolyline
 90
2
 70
0
 10
86.888555387384415
 20
36.536551052813053
 10
86.888555387384415
 20
36.621817166073
  0
LWPOLYLINE
  5
E0C1
330
FFDA
100
AcDbEntity
  8
0
 62
7
100
AcDbPolyline
 90
3
 70
0
 10
87.523830994864525
 20
36.40959928418161
 10
87.4811118108474
 20
36.366880100164479
 10
87.4811118108474
 20
36.325538954341482
  0
LWPOLYLINE
  5
E0C6
330
FFDA
100
AcDbEntity
  8
0
 62
7
100
AcDbPolyline
 90
3
 70
0
 10
87.607891324704624
 20
36.579270236830148
 10
87.650610508721684
 20
36.579270236830148
 10
87.650610508721684
 20
36.621817166073
  0
LWPOLYLINE
  5
E0CB
330
FFDA
100
AcDbEntity
  8
0
 62
7
100
AcDbPolyline
 90
2
 70
0
 10
87.650610508721684
 20
36.621817166073
 10
87.607891324704624
 20
36.621817166073
  0
LWPOLYLINE
  5
E0CF
330
FFDA
100
AcDbEntity
  8
0
 62
7
100
AcDbPolyline
 90
3
 70
0
 10
88.1591066023446
 20
36.45214621342442
 10
88.1591066023446
 20
36.494865397441522
 10
88.116387418327434
 20
36.494865397441522
  0
LWPOLYLINE
  5
E0D4
330
FFDA
100
AcDbEntity
  8
0
 62
7
100
AcDbPolyline
 90
2
 70
0
 10
88.073668234310375
 20
36.536551052813053
 10
87.820109206595987
 20
36.536551052813053
  0
LWPOLYLINE
  5
E0D8
330
FFDA
100
AcDbEntity
  8
0
 62
7
100
AcDbPolyline
 90
2
 70
0
 10
87.650610508721684
 20
36.663158311895977
 10
87.607891324704624
 20
36.663158311895977
  0
LWPOLYLINE
  5
E0DC
330
FFDA
100
AcDbEntity
  8
0
 62
7
100
AcDbPolyline
 90
5
 70
0
 10
91.544946445248172
 20
36.579270236830148
 10
91.544946445248172
 20
36.579270236830148
 10
91.587665629265231
 20
36.494865397441522
 10
91.630384813282333
 20
36.45214621342442
 10
91.630384813282333
 20
36.40959928418161
  0
LWPOLYLINE
  5
E0E3
330
FFDA
100
AcDbEntity
  8
0
 62
7
100
AcDbPolyline
 90
4
 70
0
 10
89.260159119430455
 20
36.663158311895977
 10
89.217439935413324
 20
36.70587749591305
 10
89.174720751396265
 20
36.748596679930159
 10
89.174720751396265
 20
36.875548448561638
  0
LWPOLYLINE
  5
E0E9
330
FFDA
100
AcDbEntity
  8
0
 62
7
100
AcDbPolyline
 90
2
 70
0
 10
87.736048876755859
 20
36.19893169525853
 10
87.777390022578928
 20
36.240100586307292
  0
LWPOLYLINE
  5
E0ED
330
FFDA
100
AcDbEntity
  8
0
 62
7
100
AcDbPolyline
 90
2
 70
0
 10
87.4811118108474
 20
36.28281977032438
 10
87.4811118108474
 20
36.325538954341482
  0
LWPOLYLINE
  5
E0F1
330
FFDA
100
AcDbEntity
  8
0
 62
7
100
AcDbPolyline
 90
2
 70
0
 10
87.4811118108474
 20
36.28281977032438
 10
87.4811118108474
 20
36.325538954341482
  0
LWPOLYLINE
  5
E0F5
330
FFDA
100
AcDbEntity
  8
0
 62
7
100
AcDbPolyline
 90
4
 70
0
 10
89.217439935413324
 20
36.663158311895977
 10
89.174720751396265
 20
36.70587749591305
 10
89.132001567379135
 20
36.748596679930159
 10
89.132001567379135
 20
36.832484754995988
  0
LWPOLYLINE
  5
E0FB
330
FFDA
100
AcDbEntity
  8
0
 62
7
100
AcDbPolyline
 90
5
 70
0
 10
90.275773268482126
 20
36.325538954341482
 10
90.318492452499214
 20
36.28281977032438
 10
90.318492452499214
 20
36.240100586307292
 10
90.3598335983222
 20
36.19893169525853
 10
90.3598335983222
 20
36.113148817675828
  0
LWPOLYLINE
  5
E102
330
FFDA
100
AcDbEntity
  8
0
 62
7
100
AcDbPolyline
 90
4
 70
0
 10
90.233054084464982
 20
36.28281977032438
 10
90.275773268482126
 20
36.240100586307292
 10
90.318492452499214
 20
36.19893169525853
 10
90.318492452499214
 20
36.113148817675828
  0
LWPOLYLINE
  5
E108
330
FFDA
100
AcDbEntity
  8
0
 62
7
100
AcDbPolyline
 90
3
 70
0
 10
88.7943822098247
 20
37.214201334761711
 10
88.835723355647659
 20
37.257265028327311
 10
88.878442539664732
 20
37.298433919376038
  0
LWPOLYLINE
  5
E10D
330
FFDA
100
AcDbEntity
  8
0
 62
7
100
AcDbPolyline
 90
3
 70
0
 10
88.7943822098247
 20
37.171482150744588
 10
88.835723355647659
 20
37.214201334761711
 10
88.878442539664732
 20
37.214201334761711
  0
LWPOLYLINE
  5
E112
330
FFDA
100
AcDbEntity
  8
0
 62
7
100
AcDbPolyline
 90
2
 70
0
 10
88.878442539664732
 20
37.171482150744588
 10
88.7943822098247
 20
37.171482150744588
  0
LWPOLYLINE
  5
E116
330
FFDA
100
AcDbEntity
  8
0
 62
7
100
AcDbPolyline
 90
2
 70
0
 10
89.301500265253424
 20
37.425213433233239
 10
89.301500265253424
 20
37.425213433233239
  0
LWPOLYLINE
  5
E11A
330
FFDA
100
AcDbEntity
  8
0
 62
7
100
AcDbPolyline
 90
2
 70
0
 10
89.260159119430455
 20
37.425213433233239
 10
89.260159119430455
 20
37.55319873051026
  0
LWPOLYLINE
  5
E11E
330
FFDA
100
AcDbEntity
  8
0
 62
7
100
AcDbPolyline
 90
3
 70
0
 10
89.301500265253424
 20
37.425213433233239
 10
89.344219449270554
 20
37.425213433233239
 10
89.344219449270554
 20
37.383872287410242
  0
LWPOLYLINE
  5
E123
330
FFDA
100
AcDbEntity
  8
0
 62
7
100
AcDbPolyline
 90
2
 70
0
 10
89.597778476984885
 20
37.34115310339314
 10
89.597778476984885
 20
37.298433919376038
  0
LWPOLYLINE
  5
E127
330
FFDA
100
AcDbEntity
  8
0
 62
7
100
AcDbPolyline
 90
3
 70
0
 10
89.767277174859174
 20
37.087594075678773
 10
89.8099963588763
 20
37.128762966727493
 10
89.8099963588763
 20
37.171482150744588
  0
LWPOLYLINE
  5
E12C
330
FFDA
100
AcDbEntity
  8
0
 62
7
100
AcDbPolyline
 90
3
 70
0
 10
89.8099963588763
 20
37.087594075678773
 10
89.8527155428934
 20
37.128762966727493
 10
89.8527155428934
 20
37.214201334761711
  0
LWPOLYLINE
  5
E131
330
FFDA
100
AcDbEntity
  8
0
 62
7
100
AcDbPolyline
 90
2
 70
0
 10
89.8527155428934
 20
37.257265028327311
 10
89.8527155428934
 20
37.214201334761711
  0
LWPOLYLINE
  5
E135
330
FFDA
100
AcDbEntity
  8
0
 62
7
100
AcDbPolyline
 90
2
 70
0
 10
89.8099963588763
 20
37.214201334761711
 10
89.8099963588763
 20
37.171482150744588
  0
LWPOLYLINE
  5
E139
330
FFDA
100
AcDbEntity
  8
0
 62
7
100
AcDbPolyline
 90
2
 70
0
 10
89.8099963588763
 20
37.257265028327311
 10
89.8527155428934
 20
37.257265028327311
  0
LWPOLYLINE
  5
E13D
330
FFDA
100
AcDbEntity
  8
0
 62
7
100
AcDbPolyline
 90
2
 70
0
 10
90.1062745706078
 20
37.171482150744588
 10
90.1062745706078
 20
37.128762966727493
  0
LWPOLYLINE
  5
E141
330
FFDA
100
AcDbEntity
  8
0
 62
7
100
AcDbPolyline
 90
5
 70
0
 10
89.597778476984885
 20
37.298433919376038
 10
89.597778476984885
 20
37.214201334761711
 10
89.683216845019075
 20
37.128762966727493
 10
89.724557990842129
 20
37.087594075678773
 10
89.8099963588763
 20
37.087594075678773
  0
LWPOLYLINE
  5
E148
330
FFDA
100
AcDbEntity
  8
0
 62
7
100
AcDbPolyline
 90
7
 70
0
 10
90.318492452499214
 20
35.097534668624192
 10
90.275773268482126
 20
34.546491645758472
 10
90.0635553865907
 20
34.039201335555447
 10
89.724557990842129
 20
33.573596680723909
 10
89.344219449270554
 20
33.277146214218163
 10
88.9638809076989
 20
33.10781977111813
 10
88.582164327933256
 20
33.150538955135239
  0
LWPOLYLINE
  5
E151
330
FFDA
100
AcDbEntity
  8
0
 62
7
100
AcDbPolyline
 90
8
 70
0
 10
90.3598335983222
 20
35.14059836218982
 10
90.275773268482126
 20
34.546491645758472
 10
90.1062745706078
 20
33.996482151538352
 10
89.767277174859174
 20
33.530877496706808
 10
89.344219449270554
 20
33.19188010095823
 10
89.090660421556152
 20
33.065100587101028
 10
88.7943822098247
 20
33.0239316960523
 10
88.582164327933256
 20
33.065100587101028
  0
LWPOLYLINE
  5
E15B
330
FFDA
100
AcDbEntity
  8
0
 62
7
100
AcDbPolyline
 90
8
 70
0
 10
91.630384813282333
 20
34.674649197809771
 10
91.544946445248172
 20
34.082265029121061
 10
91.334106601550829
 20
33.530877496706808
 10
91.037828389819353
 20
33.065100587101028
 10
90.656111810053687
 20
32.72610319135245
 10
90.3598335983222
 20
32.599151422721008
 10
90.1062745706078
 20
32.557982531672252
 10
89.8527155428934
 20
32.599151422721008
  0
LWPOLYLINE
  5
E165
330
FFDA
100
AcDbEntity
  8
0
 62
7
100
AcDbPolyline
 90
2
 70
0
 10
87.227552783132978
 20
36.40959928418161
 10
87.227552783132978
 20
36.366880100164479
  0
LWPOLYLINE
  5
E169
330
FFDA
100
AcDbEntity
  8
0
 62
7
100
AcDbPolyline
 90
2
 70
0
 10
94.382327086899849
 20
35.986541558592911
 10
94.5931669305972
 20
36.07042963365874
  0
LWPOLYLINE
  5
E16D
330
FFDA
100
AcDbEntity
  8
0
 62
7
100
AcDbPolyline
 90
2
 70
0
 10
94.3396079028828
 20
35.986541558592911
 10
31.432164342220741
 20
59.566153097836889
  0
LWPOLYLINE
  5
E171
330
FFDA
100
AcDbEntity
  8
0
 62
7
100
AcDbPolyline
 90
2
 70
0
 10
92.7314373303682
 20
36.494865397441522
 10
92.772778476191164
 20
36.579270236830148
  0
LWPOLYLINE
  5
E175
330
FFDA
100
AcDbEntity
  8
0
 62
7
100
AcDbPolyline
 90
2
 70
0
 10
76.008943844965472
 20
34.970927409541247
 10
20.891550195550369
 20
55.629270232067647
  0
LWPOLYLINE
  5
E179
330
FFDA
100
AcDbEntity
  8
0
 62
7
100
AcDbPolyline
 90
2
 70
0
 10
83.8403349020354
 20
32.0494864380494
 10
84.052552783926785
 20
32.133546767889491
  0
LWPOLYLINE
  5
E17D
330
FFDA
100
AcDbEntity
  8
0
 62
7
100
AcDbPolyline
 90
2
 70
0
 10
21.06104889342464
 20
55.71315830713349
 10
20.932891341373359
 20
55.798596675167673
  0
LWPOLYLINE
  5
E181
330
FFDA
100
AcDbEntity
  8
0
 62
7
100
AcDbPolyline
 90
2
 70
0
 10
20.932891341373359
 20
55.67181716131045
 10
21.145109223264729
 20
55.71315830713349
  0
LWPOLYLINE
  5
E185
330
FFDA
100
AcDbEntity
  8
0
 62
7
100
AcDbPolyline
 90
2
 70
0
 10
76.094382212999662
 20
35.14059836218982
 10
84.052552783926785
 20
32.133546767889491
  0
LWPOLYLINE
  5
E189
330
FFDA
100
AcDbEntity
  8
0
 62
7
100
AcDbPolyline
 90
2
 70
0
 10
21.06104889342464
 20
55.755877491150542
 10
20.932891341373359
 20
55.798596675167673
  0
LWPOLYLINE
  5
E18D
330
FFDA
100
AcDbEntity
  8
0
 62
7
100
AcDbPolyline
 90
2
 70
0
 10
21.06104889342464
 20
55.71315830713349
 10
21.06104889342464
 20
55.71315830713349
  0
LWPOLYLINE
  5
E191
330
FFDA
100
AcDbEntity
  8
0
 62
7
100
AcDbPolyline
 90
2
 70
0
 10
21.10239003924768
 20
55.71315830713349
 10
20.932891341373359
 20
55.798596675167673
  0
LWPOLYLINE
  5
E195
330
FFDA
100
AcDbEntity
  8
0
 62
7
100
AcDbPolyline
 90
2
 70
0
 10
22.62650028192218
 20
57.492205615716493
 10
22.795998979796479
 20
57.492205615716493
  0
LWPOLYLINE
  5
E199
330
FFDA
100
AcDbEntity
  8
0
 62
7
100
AcDbPolyline
 90
2
 70
0
 10
22.288880924367671
 20
57.237096295033723
 10
23.60077328515084
 20
56.730150494379252
  0
LWPOLYLINE
  5
E19D
330
FFDA
100
AcDbEntity
  8
0
 62
7
100
AcDbPolyline
 90
2
 70
0
 10
92.349720750602486
 20
36.366880100164479
 10
92.68871814635105
 20
36.494865397441522
  0
LWPOLYLINE
  5
E1A1
330
FFDA
100
AcDbEntity
  8
0
 62
7
100
AcDbPolyline
 90
2
 70
0
 10
26.733054100339992
 20
58.042215109936649
 10
25.632001583254119
 20
58.465100580751027
  0
LWPOLYLINE
  5
E1A5
330
FFDA
100
AcDbEntity
  8
0
 62
7
100
AcDbPolyline
 90
2
 70
0
 10
25.632001583254119
 20
58.550538948785231
 10
26.902552798214291
 20
59.01631585839101
  0
LWPOLYLINE
  5
E1A9
330
FFDA
100
AcDbEntity
  8
0
 62
7
100
AcDbPolyline
 90
2
 70
0
 10
26.902552798214291
 20
59.01631585839101
 10
25.632001583254119
 20
58.550538948785231
  0
LWPOLYLINE
  5
E1AD
330
FFDA
100
AcDbEntity
  8
0
 62
7
100
AcDbPolyline
 90
2
 70
0
 10
25.590660437431151
 20
58.550538948785231
 10
25.590660437431151
 20
58.465100580751027
  0
LWPOLYLINE
  5
E1B1
330
FFDA
100
AcDbEntity
  8
0
 62
7
100
AcDbPolyline
 90
2
 70
0
 10
25.632001583254119
 20
58.550538948785231
 10
25.632001583254119
 20
58.550538948785231
  0
LWPOLYLINE
  5
E1B5
330
FFDA
100
AcDbEntity
  8
0
 62
7
100
AcDbPolyline
 90
2
 70
0
 10
23.60077328515084
 20
57.492205615716493
 10
23.347214257436448
 20
57.6188128747994
  0
LWPOLYLINE
  5
E1B9
330
FFDA
100
AcDbEntity
  8
0
 62
7
100
AcDbPolyline
 90
2
 70
0
 10
27.1561118259287
 20
59.01631585839101
 10
27.1561118259287
 20
59.01631585839101
  0
LWPOLYLINE
  5
E1BD
330
FFDA
100
AcDbEntity
  8
0
 62
7
100
AcDbPolyline
 90
2
 70
0
 10
27.1561118259287
 20
59.01631585839101
 10
27.41104889183714
 20
58.930877490356821
  0
LWPOLYLINE
  5
E1C1
330
FFDA
100
AcDbEntity
  8
0
 62
7
100
AcDbPolyline
 90
2
 70
0
 10
27.41104889183714
 20
58.973596674373937
 10
27.1561118259287
 20
59.01631585839101
  0
LWPOLYLINE
  5
E1C5
330
FFDA
100
AcDbEntity
  8
0
 62
7
100
AcDbPolyline
 90
2
 70
0
 10
26.733054100339992
 20
57.999151416370971
 10
26.690334916322911
 20
57.957982525322294
  0
LWPOLYLINE
  5
E1C9
330
FFDA
100
AcDbEntity
  8
0
 62
7
100
AcDbPolyline
 90
2
 70
0
 10
26.733054100339992
 20
57.957982525322294
 10
26.733054100339992
 20
57.999151416370971
  0
LWPOLYLINE
  5
E1CD
330
FFDA
100
AcDbEntity
  8
0
 62
7
100
AcDbPolyline
 90
2
 70
0
 10
26.733054100339992
 20
57.957982525322294
 10
26.690334916322911
 20
57.915263341305142
  0
LWPOLYLINE
  5
E1D1
330
FFDA
100
AcDbEntity
  8
0
 62
7
100
AcDbPolyline
 90
2
 70
0
 10
26.902552798214291
 20
59.01631585839101
 10
26.902552798214291
 20
59.01631585839101
  0
LWPOLYLINE
  5
E1D5
330
FFDA
100
AcDbEntity
  8
0
 62
7
100
AcDbPolyline
 90
2
 70
0
 10
89.640497661002016
 20
36.325538954341482
 10
89.683216845019075
 20
36.366880100164479
  0
LWPOLYLINE
  5
E1D9
330
FFDA
100
AcDbEntity
  8
0
 62
7
100
AcDbPolyline
 90
2
 70
0
 10
89.640497661002016
 20
36.325538954341482
 10
89.597778476984885
 20
36.325538954341482
  0
LWPOLYLINE
  5
E1DD
330
FFDA
100
AcDbEntity
  8
0
 62
7
100
AcDbPolyline
 90
2
 70
0
 10
89.683216845019075
 20
36.366880100164479
 10
89.8099963588763
 20
36.40959928418161
  0
LWPOLYLINE
  5
E1E1
330
FFDA
100
AcDbEntity
  8
0
 62
7
100
AcDbPolyline
 90
2
 70
0
 10
89.8099963588763
 20
36.40959928418161
 10
89.8527155428934
 20
36.45214621342442
  0
LWPOLYLINE
  5
E1E5
330
FFDA
100
AcDbEntity
  8
0
 62
7
100
AcDbPolyline
 90
2
 70
0
 10
89.217439935413324
 20
36.19893169525853
 10
88.751663025807574
 20
36.029260742610013
  0
LWPOLYLINE
  5
E1E9
330
FFDA
100
AcDbEntity
  8
0
 62
7
100
AcDbPolyline
 90
2
 70
0
 10
89.301500265253424
 20
36.240100586307292
 10
89.386938633287627
 20
36.240100586307292
  0
LWPOLYLINE
  5
E1ED
330
FFDA
100
AcDbEntity
  8
0
 62
7
100
AcDbPolyline
 90
2
 70
0
 10
89.301500265253424
 20
36.240100586307292
 10
89.260159119430455
 20
36.19893169525853
  0
LWPOLYLINE
  5
E1F1
330
FFDA
100
AcDbEntity
  8
0
 62
7
100
AcDbPolyline
 90
2
 70
0
 10
89.386938633287627
 20
36.240100586307292
 10
89.470998963127712
 20
36.28281977032438
  0
LWPOLYLINE
  5
E1F5
330
FFDA
100
AcDbEntity
  8
0
 62
7
100
AcDbPolyline
 90
2
 70
0
 10
89.470998963127712
 20
36.28281977032438
 10
89.597778476984885
 20
36.325538954341482
  0
LWPOLYLINE
  5
E1F9
330
FFDA
100
AcDbEntity
  8
0
 62
7
100
AcDbPolyline
 90
2
 70
0
 10
89.260159119430455
 20
36.19893169525853
 10
89.217439935413324
 20
36.19893169525853
  0
LWPOLYLINE
  5
E1FD
330
FFDA
100
AcDbEntity
  8
0
 62
7
100
AcDbPolyline
 90
2
 70
0
 10
88.7943822098247
 20
35.901103190558707
 10
88.751663025807574
 20
35.9438223745758
  0
LWPOLYLINE
  5
E201
330
FFDA
100
AcDbEntity
  8
0
 62
7
100
AcDbPolyline
 90
2
 70
0
 10
88.751663025807574
 20
35.9438223745758
 10
88.751663025807574
 20
35.9438223745758
  0
LWPOLYLINE
  5
E205
330
FFDA
100
AcDbEntity
  8
0
 62
7
100
AcDbPolyline
 90
2
 70
0
 10
88.751663025807574
 20
35.9438223745758
 10
88.7943822098247
 20
35.9438223745758
  0
LWPOLYLINE
  5
E209
330
FFDA
100
AcDbEntity
  8
0
 62
7
100
AcDbPolyline
 90
2
 70
0
 10
91.037828389819353
 20
36.791315863947283
 10
92.1802220527282
 20
36.366880100164479
  0
LWPOLYLINE
  5
E20D
330
FFDA
100
AcDbEntity
  8
0
 62
7
100
AcDbPolyline
 90
2
 70
0
 10
85.533943842584236
 20
34.801600966441221
 10
85.449883512744123
 20
34.801600966441221
  0
LWPOLYLINE
  5
E211
330
FFDA
100
AcDbEntity
  8
0
 62
7
100
AcDbPolyline
 90
2
 70
0
 10
85.533943842584236
 20
34.801600966441221
 10
85.619382210618426
 20
34.842769857489969
  0
LWPOLYLINE
  5
E215
330
FFDA
100
AcDbEntity
  8
0
 62
7
100
AcDbPolyline
 90
2
 70
0
 10
85.449883512744123
 20
34.801600966441221
 10
85.449883512744123
 20
34.758881782424112
  0
LWPOLYLINE
  5
E219
330
FFDA
100
AcDbEntity
  8
0
 62
7
100
AcDbPolyline
 90
2
 70
0
 10
85.619382210618426
 20
34.842769857489969
 10
85.660723356441409
 20
34.842769857489969
  0
LWPOLYLINE
  5
E21D
330
FFDA
100
AcDbEntity
  8
0
 62
7
100
AcDbPolyline
 90
2
 70
0
 10
85.660723356441409
 20
34.842769857489969
 10
85.788880908492658
 20
34.928208225524152
  0
LWPOLYLINE
  5
E221
330
FFDA
100
AcDbEntity
  8
0
 62
7
100
AcDbPolyline
 90
2
 70
0
 10
85.788880908492658
 20
34.928208225524152
 10
85.8302220543157
 20
34.928208225524152
  0
LWPOLYLINE
  5
E225
330
FFDA
100
AcDbEntity
  8
0
 62
7
100
AcDbPolyline
 90
2
 70
0
 10
85.026825787155417
 20
34.505150499935468
 10
84.984106603138343
 20
34.546491645758472
  0
LWPOLYLINE
  5
E229
330
FFDA
100
AcDbEntity
  8
0
 62
7
100
AcDbPolyline
 90
2
 70
0
 10
84.984106603138343
 20
34.546491645758472
 10
84.984106603138343
 20
34.505150499935468
  0
LWPOLYLINE
  5
E22D
330
FFDA
100
AcDbEntity
  8
0
 62
7
100
AcDbPolyline
 90
2
 70
0
 10
84.984106603138343
 20
34.505150499935468
 10
85.026825787155417
 20
34.505150499935468
  0
LWPOLYLINE
  5
E231
330
FFDA
100
AcDbEntity
  8
0
 62
7
100
AcDbPolyline
 90
2
 70
0
 10
84.984106603138343
 20
34.589210829775567
 10
85.449883512744123
 20
34.758881782424112
  0
LWPOLYLINE
  5
E235
330
FFDA
100
AcDbEntity
  8
0
 62
7
100
AcDbPolyline
 90
2
 70
0
 10
30.54332970702632
 20
59.439201329205453
 10
29.399558005923382
 20
59.862603564342642
  0
LWPOLYLINE
  5
E239
330
FFDA
100
AcDbEntity
  8
0
 62
7
100
AcDbPolyline
 90
2
 70
0
 10
29.399558005923382
 20
59.9892108234256
 10
29.781274585689061
 20
60.115818082508483
  0
LWPOLYLINE
  5
E23D
330
FFDA
100
AcDbEntity
  8
0
 62
7
100
AcDbPolyline
 90
2
 70
0
 10
29.781274585689061
 20
60.074649191459741
 10
29.399558005923382
 20
59.946491639408457
  0
LWPOLYLINE
  5
E241
330
FFDA
100
AcDbEntity
  8
0
 62
7
100
AcDbPolyline
 90
2
 70
0
 10
29.399558005923382
 20
59.946491639408457
 10
29.399558005923382
 20
59.905150493585488
  0
LWPOLYLINE
  5
E245
330
FFDA
100
AcDbEntity
  8
0
 62
7
100
AcDbPolyline
 90
2
 70
0
 10
29.399558005923382
 20
59.946491639408457
 10
29.399558005923382
 20
59.9892108234256
  0
LWPOLYLINE
  5
E249
330
FFDA
100
AcDbEntity
  8
0
 62
7
100
AcDbPolyline
 90
2
 70
0
 10
29.781274585689061
 20
60.074649191459741
 10
29.908054099546231
 20
60.24276985113994
  0
LWPOLYLINE
  5
E24D
330
FFDA
100
AcDbEntity
  8
0
 62
7
100
AcDbPolyline
 90
2
 70
0
 10
29.908054099546231
 20
60.24276985113994
 10
29.781274585689061
 20
60.115818082508483
  0
LWPOLYLINE
  5
E251
330
FFDA
100
AcDbEntity
  8
0
 62
7
100
AcDbPolyline
 90
2
 70
0
 10
38.756437343861933
 20
57.026600960884991
 10
39.179495069450581
 20
56.814210824219337
  0
LWPOLYLINE
  5
E255
330
FFDA
100
AcDbEntity
  8
0
 62
7
100
AcDbPolyline
 90
2
 70
0
 10
31.432164342220741
 20
59.566153097836889
 10
31.432164342220741
 20
59.608872281853962
  0
LWPOLYLINE
  5
E259
330
FFDA
100
AcDbEntity
  8
0
 62
7
100
AcDbPolyline
 90
2
 70
0
 10
31.516224672060851
 20
59.650213427676967
 10
31.474883526237878
 20
59.650213427676967
  0
LWPOLYLINE
  5
E25D
330
FFDA
100
AcDbEntity
  8
0
 62
7
100
AcDbPolyline
 90
2
 70
0
 10
31.516224672060851
 20
59.650213427676967
 10
31.601663040095051
 20
59.778198724953988
  0
LWPOLYLINE
  5
E261
330
FFDA
100
AcDbEntity
  8
0
 62
7
100
AcDbPolyline
 90
2
 70
0
 10
31.601663040095051
 20
59.778198724953988
 10
31.474883526237878
 20
59.650213427676967
  0
LWPOLYLINE
  5
E265
330
FFDA
100
AcDbEntity
  8
0
 62
7
100
AcDbPolyline
 90
2
 70
0
 10
31.432164342220741
 20
59.566153097836889
 10
31.644382224112181
 20
59.692932611694062
  0
LWPOLYLINE
  5
E269
330
FFDA
100
AcDbEntity
  8
0
 62
7
100
AcDbPolyline
 90
2
 70
0
 10
31.644382224112181
 20
59.650213427676967
 10
31.432164342220741
 20
59.566153097836889
  0
LWPOLYLINE
  5
E26D
330
FFDA
100
AcDbEntity
  8
0
 62
7
100
AcDbPolyline
 90
2
 70
0
 10
31.601663040095051
 20
59.778198724953988
 10
31.68572336993515
 20
59.778198724953988
  0
LWPOLYLINE
  5
E271
330
FFDA
100
AcDbEntity
  8
0
 62
7
100
AcDbPolyline
 90
2
 70
0
 10
31.516224672060851
 20
59.650213427676967
 10
31.516224672060851
 20
59.650213427676967
  0
LWPOLYLINE
  5
E275
330
FFDA
100
AcDbEntity
  8
0
 62
7
100
AcDbPolyline
 90
2
 70
0
 10
31.432164342220741
 20
59.566153097836889
 10
31.432164342220741
 20
59.608872281853962
  0
LWPOLYLINE
  5
E279
330
FFDA
100
AcDbEntity
  8
0
 62
7
100
AcDbPolyline
 90
2
 70
0
 10
31.644382224112181
 20
59.650213427676967
 10
33.083054098752491
 20
59.10054844300538
  0
LWPOLYLINE
  5
E27D
330
FFDA
100
AcDbEntity
  8
0
 62
7
100
AcDbPolyline
 90
2
 70
0
 10
31.1786053145064
 20
59.778198724953988
 10
29.908054099546231
 20
60.24276985113994
  0
LWPOLYLINE
  5
E281
330
FFDA
100
AcDbEntity
  8
0
 62
7
100
AcDbPolyline
 90
2
 70
0
 10
29.908054099546231
 20
60.24276985113994
 10
31.135886130489268
 20
59.778198724953988
  0
LWPOLYLINE
  5
E285
330
FFDA
100
AcDbEntity
  8
0
 62
7
100
AcDbPolyline
 90
2
 70
0
 10
31.601663040095051
 20
59.778198724953988
 10
30.33111182513494
 20
60.24276985113994
  0
LWPOLYLINE
  5
E289
330
FFDA
100
AcDbEntity
  8
0
 62
7
100
AcDbPolyline
 90
2
 70
0
 10
30.33111182513494
 20
60.24276985113994
 10
30.33111182513494
 20
60.28548903515707
  0
LWPOLYLINE
  5
E28D
330
FFDA
100
AcDbEntity
  8
0
 62
7
100
AcDbPolyline
 90
2
 70
0
 10
33.083054098752491
 20
59.10054844300538
 10
38.756437343861933
 20
57.026600960884991
  0
LWPOLYLINE
  5
E291
330
FFDA
100
AcDbEntity
  8
0
 62
7
100
AcDbPolyline
 90
2
 70
0
 10
22.795998979796479
 20
57.492205615716493
 10
22.669219465939278
 20
57.533546761539462
  0
LWPOLYLINE
  5
E295
330
FFDA
100
AcDbEntity
  8
0
 62
7
100
AcDbPolyline
 90
2
 70
0
 10
23.347214257436448
 20
57.6188128747994
 10
23.347214257436448
 20
57.6188128747994
  0
LWPOLYLINE
  5
E299
330
FFDA
100
AcDbEntity
  8
0
 62
7
100
AcDbPolyline
 90
2
 70
0
 10
23.347214257436448
 20
57.6188128747994
 10
23.60077328515084
 20
57.533546761539462
  0
LWPOLYLINE
  5
E29D
330
FFDA
100
AcDbEntity
  8
0
 62
7
100
AcDbPolyline
 90
2
 70
0
 10
23.134996375545061
 20
57.6188128747994
 10
22.838718163813549
 20
57.492205615716493
  0
LWPOLYLINE
  5
E2A1
330
FFDA
100
AcDbEntity
  8
0
 62
7
100
AcDbPolyline
 90
2
 70
0
 10
23.134996375545061
 20
57.6188128747994
 10
23.134996375545061
 20
57.6188128747994
  0
LWPOLYLINE
  5
E2A5
330
FFDA
100
AcDbEntity
  8
0
 62
7
100
AcDbPolyline
 90
2
 70
0
 10
23.134996375545061
 20
57.6188128747994
 10
22.838718163813549
 20
57.492205615716493
  0
LWPOLYLINE
  5
E2A9
330
FFDA
100
AcDbEntity
  8
0
 62
7
100
AcDbPolyline
 90
2
 70
0
 10
22.795998979796479
 20
57.492205615716493
 10
23.60077328515084
 20
57.153208219967887
  0
LWPOLYLINE
  5
E2AD
330
FFDA
100
AcDbEntity
  8
0
 62
7
100
AcDbPolyline
 90
2
 70
0
 10
23.60077328515084
 20
57.153208219967887
 10
22.62650028192218
 20
57.492205615716493
  0
LWPOLYLINE
  5
E2B1
330
FFDA
100
AcDbEntity
  8
0
 62
7
100
AcDbPolyline
 90
2
 70
0
 10
21.10239003924768
 20
55.71315830713349
 10
21.06104889342464
 20
55.755877491150542
  0
LWPOLYLINE
  5
E2B5
330
FFDA
100
AcDbEntity
  8
0
 62
7
100
AcDbPolyline
 90
2
 70
0
 10
21.06104889342464
 20
55.755877491150542
 10
21.06104889342464
 20
55.71315830713349
  0
LWPOLYLINE
  5
E2B9
330
FFDA
100
AcDbEntity
  8
0
 62
7
100
AcDbPolyline
 90
2
 70
0
 10
21.145109223264729
 20
55.71315830713349
 10
76.008943844965472
 20
35.14059836218982
  0
LWPOLYLINE
  5
E2BD
330
FFDA
100
AcDbEntity
  8
0
 62
7
100
AcDbPolyline
 90
2
 70
0
 10
21.145109223264729
 20
55.71315830713349
 10
20.932891341373359
 20
55.629270232067647
  0
LWPOLYLINE
  5
E2C1
330
FFDA
100
AcDbEntity
  8
0
 62
7
100
AcDbPolyline
 90
2
 70
0
 10
76.094382212999662
 20
34.970927409541247
 10
83.798993756212383
 20
32.0494864380494
  0
LWPOLYLINE
  5
E2C5
330
FFDA
100
AcDbEntity
  8
0
 62
7
100
AcDbPolyline
 90
2
 70
0
 10
92.7314373303682
 20
36.494865397441522
 10
29.781274585689061
 20
60.074649191459741
  0
LWPOLYLINE
  5
E2C9
330
FFDA
100
AcDbEntity
  8
0
 62
7
100
AcDbPolyline
 90
2
 70
0
 10
31.68572336993515
 20
59.819884380325583
 10
94.5931669305972
 20
36.240100586307292
  0
LWPOLYLINE
  5
E2CD
330
FFDA
100
AcDbEntity
  8
0
 62
7
100
AcDbPolyline
 90
2
 70
0
 10
92.7314373303682
 20
36.494865397441522
 10
92.7314373303682
 20
36.536551052813053
  0
LWPOLYLINE
  5
E2D1
330
FFDA
100
AcDbEntity
  8
0
 62
7
100
AcDbPolyline
 90
2
 70
0
 10
22.62650028192218
 20
57.533546761539462
 10
22.62650028192218
 20
57.533546761539462
  0
LWPOLYLINE
  5
E2D5
330
FFDA
100
AcDbEntity
  8
0
 62
7
100
AcDbPolyline
 90
2
 70
0
 10
22.669219465939278
 20
57.533546761539462
 10
22.669219465939278
 20
57.533546761539462
  0
LWPOLYLINE
  5
E2D9
330
FFDA
100
AcDbEntity
  8
0
 62
7
100
AcDbPolyline
 90
2
 70
0
 10
29.738555401671931
 20
60.115818082508483
 10
29.781274585689061
 20
60.115818082508483
  0
LWPOLYLINE
  5
E2DD
330
FFDA
100
AcDbEntity
  8
0
 62
7
100
AcDbPolyline
 90
2
 70
0
 10
29.781274585689061
 20
60.074649191459741
 10
29.781274585689061
 20
60.115818082508483
  0
LWPOLYLINE
  5
E2E1
330
FFDA
100
AcDbEntity
  8
0
 62
7
100
AcDbPolyline
 90
2
 70
0
 10
29.950773283563311
 20
60.24276985113994
 10
29.908054099546231
 20
60.24276985113994
  0
LWPOLYLINE
  5
E2E5
330
FFDA
100
AcDbEntity
  8
0
 62
7
100
AcDbPolyline
 90
2
 70
0
 10
29.908054099546231
 20
60.28548903515707
 10
29.908054099546231
 20
60.24276985113994
  0
LWPOLYLINE
  5
E2E9
330
FFDA
100
AcDbEntity
  8
0
 62
7
100
AcDbPolyline
 90
2
 70
0
 10
31.432164342220741
 20
59.566153097836889
 10
31.432164342220741
 20
59.566153097836889
  0
LWPOLYLINE
  5
E2ED
330
FFDA
100
AcDbEntity
  8
0
 62
7
100
AcDbPolyline
 90
2
 70
0
 10
31.389445158203682
 20
59.566153097836889
 10
31.432164342220741
 20
59.566153097836889
  0
LWPOLYLINE
  5
E2F1
330
FFDA
100
AcDbEntity
  8
0
 62
7
100
AcDbPolyline
 90
2
 70
0
 10
22.838718163813549
 20
57.492205615716493
 10
22.838718163813549
 20
57.492205615716493
  0
LWPOLYLINE
  5
E2F5
330
FFDA
100
AcDbEntity
  8
0
 62
7
100
AcDbPolyline
 90
2
 70
0
 10
22.795998979796479
 20
57.492205615716493
 10
22.795998979796479
 20
57.492205615716493
  0
LWPOLYLINE
  5
E2F9
330
FFDA
100
AcDbEntity
  8
0
 62
7
100
AcDbPolyline
 90
5
 70
0
 10
94.5931669305972
 20
36.07042963365874
 10
94.5931669305972
 20
36.113148817675828
 10
94.635886114614223
 20
36.155868001692937
 10
94.635886114614223
 20
36.19893169525853
 10
94.5931669305972
 20
36.240100586307292
  0
LWPOLYLINE
  5
E300
330
FFDA
100
AcDbEntity
  8
0
 62
7
100
AcDbPolyline
 90
2
 70
0
 10
94.3396079028828
 20
35.986541558592911
 10
94.382327086899849
 20
35.986541558592911
  0
LWPOLYLINE
  5
E304
330
FFDA
100
AcDbEntity
  8
0
 62
7
100
AcDbPolyline
 90
2
 70
0
 10
20.932891341373359
 20
55.629270232067647
 10
20.891550195550369
 20
55.629270232067647
  0
LWPOLYLINE
  5
E308
330
FFDA
100
AcDbEntity
  8
0
 62
7
100
AcDbPolyline
 90
3
 70
0
 10
84.095271967943845
 20
32.176265951906572
 10
84.264770665818133
 20
32.429824979620989
 10
84.43289132549836
 20
32.642215116286621
  0
LWPOLYLINE
  5
E30D
330
FFDA
100
AcDbEntity
  8
0
 62
7
100
AcDbPolyline
 90
3
 70
0
 10
22.2461617403506
 20
57.237096295033723
 10
22.45700158404787
 20
57.44948643169937
 10
22.62650028192218
 20
57.533546761539462
  0
LWPOLYLINE
  5
E312
330
FFDA
100
AcDbEntity
  8
0
 62
7
100
AcDbPolyline
 90
3
 70
0
 10
22.288880924367671
 20
57.237096295033723
 10
22.45700158404787
 20
57.406767247682282
 10
22.62650028192218
 20
57.492205615716493
  0
LWPOLYLINE
  5
E317
330
FFDA
100
AcDbEntity
  8
0
 62
7
100
AcDbPolyline
 90
3
 70
0
 10
25.590660437431151
 20
58.465100580751027
 10
25.632001583254119
 20
58.507819764768151
 10
25.632001583254119
 20
58.550538948785231
  0
LWPOLYLINE
  5
E31C
330
FFDA
100
AcDbEntity
  8
0
 62
7
100
AcDbPolyline
 90
2
 70
0
 10
25.632001583254119
 20
58.465100580751027
 10
25.590660437431151
 20
58.465100580751027
  0
LWPOLYLINE
  5
E320
330
FFDA
100
AcDbEntity
  8
0
 62
7
100
AcDbPolyline
 90
2
 70
0
 10
25.590660437431151
 20
58.550538948785231
 10
25.632001583254119
 20
58.550538948785231
  0
LWPOLYLINE
  5
E324
330
FFDA
100
AcDbEntity
  8
0
 62
7
100
AcDbPolyline
 90
2
 70
0
 10
23.347214257436448
 20
57.6188128747994
 10
23.134996375545061
 20
57.6188128747994
  0
LWPOLYLINE
  5
E328
330
FFDA
100
AcDbEntity
  8
0
 62
7
100
AcDbPolyline
 90
2
 70
0
 10
26.775773284357061
 20
57.999151416370971
 10
26.733054100339992
 20
57.999151416370971
  0
LWPOLYLINE
  5
E32C
330
FFDA
100
AcDbEntity
  8
0
 62
7
100
AcDbPolyline
 90
3
 70
0
 10
26.733054100339992
 20
58.042215109936649
 10
26.775773284357061
 20
58.042215109936649
 10
26.775773284357061
 20
57.999151416370971
  0
LWPOLYLINE
  5
E331
330
FFDA
100
AcDbEntity
  8
0
 62
7
100
AcDbPolyline
 90
4
 70
0
 10
27.1561118259287
 20
59.01631585839101
 10
27.072051496088591
 20
59.057484749439752
 10
26.98661312805439
 20
59.057484749439752
 10
26.902552798214291
 20
59.01631585839101
  0
LWPOLYLINE
  5
E337
330
FFDA
100
AcDbEntity
  8
0
 62
7
100
AcDbPolyline
 90
3
 70
0
 10
26.775773284357061
 20
57.999151416370971
 10
26.775773284357061
 20
57.999151416370971
 10
26.733054100339992
 20
57.957982525322294
  0
LWPOLYLINE
  5
E33C
330
FFDA
100
AcDbEntity
  8
0
 62
7
100
AcDbPolyline
 90
2
 70
0
 10
27.1561118259287
 20
59.01631585839101
 10
26.902552798214291
 20
59.01631585839101
  0
LWPOLYLINE
  5
E340
330
FFDA
100
AcDbEntity
  8
0
 62
7
100
AcDbPolyline
 90
6
 70
0
 10
86.677715543687157
 20
36.621817166073
 10
86.677715543687157
 20
36.621817166073
 10
86.7190566895101
 20
36.663158311895977
 10
86.847214241561417
 20
36.663158311895977
 10
86.888555387384415
 20
36.621817166073
 10
86.931274571401545
 20
36.621817166073
  0
LWPOLYLINE
  5
E348
330
FFDA
100
AcDbEntity
  8
0
 62
7
100
AcDbPolyline
 90
5
 70
0
 10
87.777390022578928
 20
36.536551052813053
 10
87.777390022578928
 20
36.579270236830148
 10
87.693329692738814
 20
36.579270236830148
 10
87.693329692738814
 20
36.621817166073
 10
87.650610508721684
 20
36.621817166073
  0
LWPOLYLINE
  5
E34F
330
FFDA
100
AcDbEntity
  8
0
 62
7
100
AcDbPolyline
 90
5
 70
0
 10
87.4811118108474
 20
36.494865397441522
 10
87.607891324704624
 20
36.45214621342442
 10
87.693329692738814
 20
36.45214621342442
 10
87.777390022578928
 20
36.494865397441522
 10
87.777390022578928
 20
36.536551052813053
  0
LWPOLYLINE
  5
E356
330
FFDA
100
AcDbEntity
  8
0
 62
7
100
AcDbPolyline
 90
2
 70
0
 10
87.4811118108474
 20
36.494865397441522
 10
87.4811118108474
 20
36.494865397441522
  0
LWPOLYLINE
  5
E35A
330
FFDA
100
AcDbEntity
  8
0
 62
7
100
AcDbPolyline
 90
2
 70
0
 10
86.931274571401545
 20
36.621817166073
 10
86.888555387384415
 20
36.621817166073
  0
LWPOLYLINE
  5
E35E
330
FFDA
100
AcDbEntity
  8
0
 62
7
100
AcDbPolyline
 90
2
 70
0
 10
86.888555387384415
 20
36.621817166073
 10
86.888555387384415
 20
36.621817166073
  0
LWPOLYLINE
  5
E362
330
FFDA
100
AcDbEntity
  8
0
 62
7
100
AcDbPolyline
 90
2
 70
0
 10
86.7190566895101
 20
36.621817166073
 10
86.677715543687157
 20
36.621817166073
  0
LWPOLYLINE
  5
E366
330
FFDA
100
AcDbEntity
  8
0
 62
7
100
AcDbPolyline
 90
3
 70
0
 10
86.7190566895101
 20
36.579270236830148
 10
86.677715543687157
 20
36.579270236830148
 10
86.677715543687157
 20
36.621817166073
  0
LWPOLYLINE
  5
E36B
330
FFDA
100
AcDbEntity
  8
0
 62
7
100
AcDbPolyline
 90
4
 70
0
 10
88.369946446041851
 20
36.791315863947283
 10
88.369946446041851
 20
36.748596679930159
 10
88.201825786361653
 20
36.748596679930159
 10
88.1591066023446
 20
36.791315863947283
  0
LWPOLYLINE
  5
E371
330
FFDA
100
AcDbEntity
  8
0
 62
7
100
AcDbPolyline
 90
4
 70
0
 10
88.921161723681848
 20
36.95943652362746
 10
88.878442539664732
 20
36.91826763257874
 10
88.708943841790429
 20
36.91826763257874
 10
88.666224657773341
 20
36.95943652362746
  0
LWPOLYLINE
  5
E377
330
FFDA
100
AcDbEntity
  8
0
 62
7
100
AcDbPolyline
 90
3
 70
0
 10
88.708943841790429
 20
35.9438223745758
 10
88.708943841790429
 20
35.986541558592911
 10
88.751663025807574
 20
36.029260742610013
  0
LWPOLYLINE
  5
E37C
330
FFDA
100
AcDbEntity
  8
0
 62
7
100
AcDbPolyline
 90
3
 70
0
 10
88.751663025807574
 20
35.9438223745758
 10
88.708943841790429
 20
35.9438223745758
 10
88.708943841790429
 20
35.986541558592911
  0
LWPOLYLINE
  5
E381
330
FFDA
100
AcDbEntity
  8
0
 62
7
100
AcDbPolyline
 90
2
 70
0
 10
88.751663025807574
 20
35.9438223745758
 10
88.708943841790429
 20
35.9438223745758
  0
LWPOLYLINE
  5
E385
330
FFDA
100
AcDbEntity
  8
0
 62
7
100
AcDbPolyline
 90
4
 70
0
 10
88.1591066023446
 20
36.791315863947283
 10
88.243166932184678
 20
36.791315863947283
 10
88.328605300218911
 20
36.832484754995988
 10
88.369946446041851
 20
36.791315863947283
  0
LWPOLYLINE
  5
E38B
330
FFDA
100
AcDbEntity
  8
0
 62
7
100
AcDbPolyline
 90
2
 70
0
 10
88.369946446041851
 20
36.791315863947283
 10
88.369946446041851
 20
36.791315863947283
  0
LWPOLYLINE
  5
E38F
330
FFDA
100
AcDbEntity
  8
0
 62
7
100
AcDbPolyline
 90
2
 70
0
 10
84.89866823510414
 20
34.546491645758472
 10
84.984106603138343
 20
34.546491645758472
  0
LWPOLYLINE
  5
E393
330
FFDA
100
AcDbEntity
  8
0
 62
7
100
AcDbPolyline
 90
3
 70
0
 10
84.984106603138343
 20
34.589210829775567
 10
84.941387419121213
 20
34.589210829775567
 10
84.89866823510414
 20
34.546491645758472
  0
LWPOLYLINE
  5
E398
330
FFDA
100
AcDbEntity
  8
0
 62
7
100
AcDbPolyline
 90
3
 70
0
 10
84.89866823510414
 20
34.546491645758472
 10
84.941387419121213
 20
34.546491645758472
 10
84.984106603138343
 20
34.505150499935468
  0
LWPOLYLINE
  5
E39D
330
FFDA
100
AcDbEntity
  8
0
 62
7
100
AcDbPolyline
 90
2
 70
0
 10
92.1802220527282
 20
36.366880100164479
 10
92.349720750602486
 20
36.366880100164479
  0
LWPOLYLINE
  5
E3A1
330
FFDA
100
AcDbEntity
  8
0
 62
7
100
AcDbPolyline
 90
2
 70
0
 10
90.911048875962123
 20
36.791315863947283
 10
91.037828389819353
 20
36.791315863947283
  0
LWPOLYLINE
  5
E3A5
330
FFDA
100
AcDbEntity
  8
0
 62
7
100
AcDbPolyline
 90
3
 70
0
 10
88.878442539664732
 20
37.002155707644562
 10
88.878442539664732
 20
37.002155707644562
 10
88.921161723681848
 20
36.95943652362746
  0
LWPOLYLINE
  5
E3AA
330
FFDA
100
AcDbEntity
  8
0
 62
7
100
AcDbPolyline
 90
3
 70
0
 10
88.666224657773341
 20
36.95943652362746
 10
88.708943841790429
 20
37.002155707644562
 10
88.878442539664732
 20
37.002155707644562
  0
LWPOLYLINE
  5
E3AF
330
FFDA
100
AcDbEntity
  8
0
 62
7
100
AcDbPolyline
 90
3
 70
0
 10
89.260159119430455
 20
37.51047954649318
 10
89.301500265253424
 20
37.51047954649318
 10
89.301500265253424
 20
37.55319873051026
  0
LWPOLYLINE
  5
E3B4
330
FFDA
100
AcDbEntity
  8
0
 62
7
100
AcDbPolyline
 90
3
 70
0
 10
89.260159119430455
 20
37.467932617250341
 10
89.301500265253424
 20
37.467932617250341
 10
89.301500265253424
 20
37.51047954649318
  0
LWPOLYLINE
  5
E3B9
330
FFDA
100
AcDbEntity
  8
0
 62
7
100
AcDbPolyline
 90
3
 70
0
 10
89.301500265253424
 20
37.51047954649318
 10
89.344219449270554
 20
37.51047954649318
 10
89.344219449270554
 20
37.55319873051026
  0
LWPOLYLINE
  5
E3BE
330
FFDA
100
AcDbEntity
  8
0
 62
7
100
AcDbPolyline
 90
2
 70
0
 10
89.132001567379135
 20
37.55319873051026
 10
89.132001567379135
 20
37.55319873051026
  0
LWPOLYLINE
  5
E3C2
330
FFDA
100
AcDbEntity
  8
0
 62
7
100
AcDbPolyline
 90
2
 70
0
 10
89.090660421556152
 20
37.55319873051026
 10
89.132001567379135
 20
37.51047954649318
  0
LWPOLYLINE
  5
E3C6
330
FFDA
100
AcDbEntity
  8
0
 62
7
100
AcDbPolyline
 90
4
 70
0
 10
89.260159119430455
 20
37.55319873051026
 10
89.217439935413324
 20
37.59488438588177
 10
89.174720751396265
 20
37.55319873051026
 10
89.090660421556152
 20
37.55319873051026
  0
LWPOLYLINE
  5
E3CC
330
FFDA
100
AcDbEntity
  8
0
 62
7
100
AcDbPolyline
 90
2
 70
0
 10
89.301500265253424
 20
37.55319873051026
 10
89.344219449270554
 20
37.55319873051026
  0
LWPOLYLINE
  5
E3D0
330
FFDA
100
AcDbEntity
  8
0
 62
7
100
AcDbPolyline
 90
3
 70
0
 10
89.344219449270554
 20
37.55319873051026
 10
89.301500265253424
 20
37.55319873051026
 10
89.260159119430455
 20
37.55319873051026
  0
LWPOLYLINE
  5
E3D5
330
FFDA
100
AcDbEntity
  8
0
 62
7
100
AcDbPolyline
 90
2
 70
0
 10
29.399558005923382
 20
59.905150493585488
 10
29.399558005923382
 20
59.946491639408457
  0
LWPOLYLINE
  5
E3D9
330
FFDA
100
AcDbEntity
  8
0
 62
7
100
AcDbPolyline
 90
2
 70
0
 10
29.399558005923382
 20
59.946491639408457
 10
29.399558005923382
 20
59.9892108234256
  0
LWPOLYLINE
  5
E3DD
330
FFDA
100
AcDbEntity
  8
0
 62
7
100
AcDbPolyline
 90
2
 70
0
 10
29.399558005923382
 20
59.862603564342642
 10
29.399558005923382
 20
59.905150493585488
  0
LWPOLYLINE
  5
E3E1
330
FFDA
100
AcDbEntity
  8
0
 62
7
100
AcDbPolyline
 90
3
 70
0
 10
30.289770679311921
 20
60.24276985113994
 10
30.120271981437611
 20
60.28548903515707
 10
29.908054099546231
 20
60.24276985113994
  0
LWPOLYLINE
  5
E3E6
330
FFDA
100
AcDbEntity
  8
0
 62
7
100
AcDbPolyline
 90
3
 70
0
 10
30.33111182513494
 20
60.28548903515707
 10
30.120271981437611
 20
60.328208219174151
 10
29.908054099546231
 20
60.24276985113994
  0
LWPOLYLINE
  5
E3EB
330
FFDA
100
AcDbEntity
  8
0
 62
7
100
AcDbPolyline
 90
2
 70
0
 10
30.33111182513494
 20
60.24276985113994
 10
30.289770679311921
 20
60.24276985113994
  0
LWPOLYLINE
  5
E3EF
330
FFDA
100
AcDbEntity
  8
0
 62
7
100
AcDbPolyline
 90
2
 70
0
 10
32.406437345449433
 20
58.761551047256773
 10
32.406437345449433
 20
58.761551047256773
  0
LWPOLYLINE
  5
E3F3
330
FFDA
100
AcDbEntity
  8
0
 62
7
100
AcDbPolyline
 90
2
 70
0
 10
32.406437345449433
 20
58.761551047256773
 10
32.406437345449433
 20
58.761551047256773
  0
LWPOLYLINE
  5
E3F7
330
FFDA
100
AcDbEntity
  8
0
 62
7
100
AcDbPolyline
 90
2
 70
0
 10
32.406437345449433
 20
58.761551047256773
 10
32.406437345449433
 20
58.804270231273883
  0
LWPOLYLINE
  5
E3FB
330
FFDA
100
AcDbEntity
  8
0
 62
7
100
AcDbPolyline
 90
3
 70
0
 10
32.533216859306613
 20
58.804270231273883
 10
32.574558005129632
 20
58.804270231273883
 10
32.6172771891467
 20
58.761551047256773
  0
LWPOLYLINE
  5
E400
330
FFDA
100
AcDbEntity
  8
0
 62
7
100
AcDbPolyline
 90
3
 70
0
 10
32.6172771891467
 20
58.761551047256773
 10
32.574558005129632
 20
58.761551047256773
 10
32.533216859306613
 20
58.761551047256773
  0
LWPOLYLINE
  5
E405
330
FFDA
100
AcDbEntity
  8
0
 62
7
100
AcDbPolyline
 90
2
 70
0
 10
32.406437345449433
 20
58.804270231273883
 10
32.533216859306613
 20
58.804270231273883
  0
LWPOLYLINE
  5
E409
330
FFDA
100
AcDbEntity
  8
0
 62
7
100
AcDbPolyline
 90
4
 70
0
 10
32.6172771891467
 20
58.761551047256773
 10
32.574558005129632
 20
58.761551047256773
 10
32.574558005129632
 20
58.719865391885257
 10
32.533216859306613
 20
58.719865391885257
  0
LWPOLYLINE
  5
E40F
330
FFDA
100
AcDbEntity
  8
0
 62
7
100
AcDbPolyline
 90
2
 70
0
 10
30.58604889104339
 20
59.439201329205453
 10
30.54332970702632
 20
59.439201329205453
  0
LWPOLYLINE
  5
E413
330
FFDA
100
AcDbEntity
  8
0
 62
7
100
AcDbPolyline
 90
2
 70
0
 10
30.54332970702632
 20
59.396482145188322
 10
30.58604889104339
 20
59.439201329205453
  0
LWPOLYLINE
  5
E417
330
FFDA
100
AcDbEntity
  8
0
 62
7
100
AcDbPolyline
 90
2
 70
0
 10
30.58604889104339
 20
59.396482145188322
 10
30.58604889104339
 20
59.439201329205453
  0
LWPOLYLINE
  5
E41B
330
FFDA
100
AcDbEntity
  8
0
 62
7
100
AcDbPolyline
 90
2
 70
0
 10
31.85522206780945
 20
58.8468171605167
 10
31.85522206780945
 20
58.8468171605167
  0
LWPOLYLINE
  5
E41F
330
FFDA
100
AcDbEntity
  8
0
 62
7
100
AcDbPolyline
 90
2
 70
0
 10
31.68572336993515
 20
59.778198724953988
 10
31.601663040095051
 20
59.778198724953988
  0
LWPOLYLINE
  5
E423
330
FFDA
100
AcDbEntity
  8
0
 62
7
100
AcDbPolyline
 90
5
 70
0
 10
31.644382224112181
 20
59.650213427676967
 10
31.68572336993515
 20
59.692932611694062
 10
31.72844255395222
 20
59.735479540936922
 10
31.72844255395222
 20
59.778198724953988
 10
31.68572336993515
 20
59.819884380325583
  0
LWPOLYLINE
  5
E42A
330
FFDA
100
AcDbEntity
  8
0
 62
7
100
AcDbPolyline
 90
3
 70
0
 10
31.644382224112181
 20
59.692932611694062
 10
31.68572336993515
 20
59.692932611694062
 10
31.68572336993515
 20
59.778198724953988
  0
LWPOLYLINE
  5
E42F
330
FFDA
100
AcDbEntity
  8
0
 62
7
100
AcDbPolyline
 90
3
 70
0
 10
31.68572336993515
 20
59.819884380325583
 10
31.644382224112181
 20
59.819884380325583
 10
31.601663040095051
 20
59.778198724953988
  0
LWPOLYLINE
  5
E434
330
FFDA
100
AcDbEntity
  8
0
 62
7
100
AcDbPolyline
 90
2
 70
0
 10
31.432164342220741
 20
59.566153097836889
 10
31.432164342220741
 20
59.566153097836889
  0
LWPOLYLINE
  5
E438
330
FFDA
100
AcDbEntity
  8
0
 62
7
100
AcDbPolyline
 90
3
 70
0
 10
31.389445158203682
 20
59.566153097836889
 10
30.88232710277488
 20
59.946491639408457
 10
30.33111182513494
 20
60.24276985113994
  0
LWPOLYLINE
  5
E43D
330
FFDA
100
AcDbEntity
  8
0
 62
7
100
AcDbPolyline
 90
3
 70
0
 10
31.432164342220741
 20
59.608872281853962
 10
30.88232710277488
 20
59.9892108234256
 10
30.33111182513494
 20
60.24276985113994
  0
LWPOLYLINE
  5
E442
330
FFDA
100
AcDbEntity
  8
0
 62
7
100
AcDbPolyline
 90
2
 70
0
 10
23.347214257436448
 20
57.6188128747994
 10
23.134996375545061
 20
57.6188128747994
  0
LWPOLYLINE
  5
E446
330
FFDA
100
AcDbEntity
  8
0
 62
7
100
AcDbPolyline
 90
3
 70
0
 10
21.187828407281842
 20
55.755877491150542
 10
21.145109223264729
 20
55.755877491150542
 10
21.145109223264729
 20
55.71315830713349
  0
LWPOLYLINE
  5
E44B
330
FFDA
100
AcDbEntity
  8
0
 62
7
100
AcDbPolyline
 90
2
 70
0
 10
21.187828407281842
 20
55.71315830713349
 10
21.145109223264729
 20
55.71315830713349
  0
LWPOLYLINE
  5
E44F
330
FFDA
100
AcDbEntity
  8
0
 62
7
100
AcDbPolyline
 90
3
 70
0
 10
21.187828407281842
 20
55.755877491150542
 10
21.694946462710629
 20
56.517932612487812
 10
22.2461617403506
 20
57.237096295033723
  0
LWPOLYLINE
  5
E454
330
FFDA
100
AcDbEntity
  8
0
 62
7
100
AcDbPolyline
 90
3
 70
0
 10
21.187828407281842
 20
55.71315830713349
 10
21.694946462710629
 20
56.517932612487812
 10
22.288880924367671
 20
57.237096295033723
  0
LWPOLYLINE
  5
E459
330
FFDA
100
AcDbEntity
  8
0
 62
7
100
AcDbPolyline
 90
3
 70
0
 10
84.095271967943845
 20
32.176265951906572
 10
84.095271967943845
 20
32.176265951906572
 10
84.052552783926785
 20
32.133546767889491
  0
LWPOLYLINE
  5
E45E
330
FFDA
100
AcDbEntity
  8
0
 62
7
100
AcDbPolyline
 90
2
 70
0
 10
20.932891341373359
 20
55.67181716131045
 10
20.891550195550369
 20
55.67181716131045
  0
LWPOLYLINE
  5
E462
330
FFDA
100
AcDbEntity
  8
0
 62
7
100
AcDbPolyline
 90
5
 70
0
 10
20.891550195550369
 20
55.67181716131045
 10
20.848831011533271
 20
55.67181716131045
 10
20.891550195550369
 20
55.71315830713349
 10
20.932891341373359
 20
55.755877491150542
 10
20.932891341373359
 20
55.798596675167673
  0
LWPOLYLINE
  5
E469
330
FFDA
100
AcDbEntity
  8
0
 62
7
100
AcDbPolyline
 90
5
 70
0
 10
20.891550195550369
 20
55.629270232067647
 10
20.848831011533271
 20
55.67181716131045
 10
20.848831011533271
 20
55.71315830713349
 10
20.891550195550369
 20
55.798596675167673
 10
20.932891341373359
 20
55.798596675167673
  0
LWPOLYLINE
  5
E470
330
FFDA
100
AcDbEntity
  8
0
 62
7
100
AcDbPolyline
 90
2
 70
0
 10
87.4811118108474
 20
36.494865397441522
 10
87.4811118108474
 20
36.494865397441522
  0
LWPOLYLINE
  5
E474
330
FFDA
100
AcDbEntity
  8
0
 62
7
100
AcDbPolyline
 90
6
 70
0
 10
88.369946446041851
 20
36.791315863947283
 10
88.369946446041851
 20
36.791315863947283
 10
88.328605300218911
 20
36.748596679930159
 10
88.201825786361653
 20
36.748596679930159
 10
88.201825786361653
 20
36.791315863947283
 10
88.1591066023446
 20
36.791315863947283
  0
LWPOLYLINE
  5
E47C
330
FFDA
100
AcDbEntity
  8
0
 62
7
100
AcDbPolyline
 90
3
 70
0
 10
87.4811118108474
 20
36.494865397441522
 10
87.777390022578928
 20
36.494865397441522
 10
87.777390022578928
 20
36.536551052813053
  0
LWPOLYLINE
  5
E481
330
FFDA
100
AcDbEntity
  8
0
 62
7
100
AcDbPolyline
 90
4
 70
0
 10
88.878442539664732
 20
37.002155707644562
 10
88.878442539664732
 20
36.95943652362746
 10
88.708943841790429
 20
36.95943652362746
 10
88.666224657773341
 20
37.002155707644562
  0
LWPOLYLINE
  5
E487
330
FFDA
100
AcDbEntity
  8
0
 62
7
100
AcDbPolyline
 90
2
 70
0
 10
83.8403349020354
 20
32.0494864380494
 10
83.798993756212383
 20
32.0494864380494
  0
LINE
  5
F3AD
330
FFDA
100
AcDbEntity
  8
0
  6
CONTINUOUS
100
AcDbLine
 10
8.3998816708133255
 20
-0.94921919129572507
 30
0
 11
8.3998816708133255
 21
-17.821219191295711
 31
0
  0
LINE
  5
100BE
330
FFDA
100
AcDbEntity
  8
0
100
AcDbLine
 10
8.3998816708133255
 20
-17.821219191295711
 30
0
 11
68.399881670813329
 21
-17.821219191295711
 31
0
  0
TEXT
  5
100BF
330
FFDA
100
AcDbEntity
  8
0
100
AcDbText
 10
9.4582150041466324
 20
-0.84060028603758474
 30
0
 40
1
  1
ﾗﾝﾌﾟ LDL40T･N/17/25･G3(非常灯)
 41
0.8
  7
STANDARD
100
AcDbText
  0
TEXT
  5
100C0
330
FFDA
100
AcDbEntity
  8
0
100
AcDbText
 10
41.399881670813329
 20
-0.6486493687935706
 30
0
 40
1
  1
保守率 0.86
 41
0.8
  7
STANDARD
100
AcDbText
  0
TEXT
  5
100C1
330
FFDA
100
AcDbEntity
  8
0
100
AcDbText
 10
49.19988167081334
 20
-0.65465203335961075
 30
0
 40
1
  1
廊下巾 2.00 m
 41
0.8
  7
STANDARD
100
AcDbText
  0
TEXT
  5
100C2
330
FFDA
100
AcDbEntity
  8
0
100
AcDbText
 10
58.19988167081334
 20
-0.66065469792562226
 30
0
 40
1
  1
照度範囲 2.00 lx
 41
0.8
  7
STANDARD
100
AcDbText
  0
LINE
  5
100C3
330
FFDA
100
AcDbEntity
  8
0
100
AcDbLine
 10
8.3998816708133255
 20
-0.94921919129572507
 30
0
 11
68.399881670813329
 21
-0.94921919129572507
 31
0
  0
LINE
  5
100C4
330
FFDA
100
AcDbEntity
  8
0
100
AcDbLine
 10
8.3998816708133255
 20
-2.636419191295714
 30
0
 11
68.399881670813329
 21
-2.636419191295714
 31
0
  0
LINE
  5
100C5
330
FFDA
100
AcDbEntity
  8
0
100
AcDbLine
 10
19.19988167081333
 20
-4.3236191912957036
 30
0
 11
68.399881670813329
 21
-4.3236191912957036
 31
0
  0
LINE
  5
100C6
330
FFDA
100
AcDbEntity
  8
0
100
AcDbLine
 10
19.19988167081333
 20
-6.0108191912957221
 30
0
 11
68.399881670813329
 21
-6.0108191912957221
 31
0
  0
LINE
  5
100C7
330
FFDA
100
AcDbEntity
  8
0
100
AcDbLine
 10
8.3998816708133255
 20
-7.6980191912957121
 30
0
 11
68.399881670813329
 21
-7.6980191912957121
 31
0
  0
LINE
  5
100C8
330
FFDA
100
AcDbEntity
  8
0
100
AcDbLine
 10
19.19988167081333
 20
-9.3852191912957021
 30
0
 11
68.399881670813329
 21
-9.3852191912957021
 31
0
  0
LINE
  5
100C9
330
FFDA
100
AcDbEntity
  8
0
100
AcDbLine
 10
8.3998816708133255
 20
-11.072419191295721
 30
0
 11
68.399881670813329
 21
-11.072419191295721
 31
0
  0
LINE
  5
100CA
330
FFDA
100
AcDbEntity
  8
0
100
AcDbLine
 10
19.19988167081333
 20
-12.759619191295711
 30
0
 11
68.399881670813329
 21
-12.759619191295711
 31
0
  0
LINE
  5
100CB
330
FFDA
100
AcDbEntity
  8
0
100
AcDbLine
 10
19.19988167081333
 20
-14.4468191912957
 30
0
 11
68.399881670813329
 21
-14.4468191912957
 31
0
  0
LINE
  5
100CC
330
FFDA
100
AcDbEntity
  8
0
100
AcDbLine
 10
19.19988167081333
 20
-16.134019191295721
 30
0
 11
68.399881670813329
 21
-16.134019191295721
 31
0
  0
LINE
  5
100CD
330
FFDA
100
AcDbEntity
  8
0
100
AcDbLine
 10
19.19988167081333
 20
-2.636419191295714
 30
0
 11
19.19988167081333
 21
-17.821219191295711
 31
0
  0
LINE
  5
100CE
330
FFDA
100
AcDbEntity
  8
0
100
AcDbLine
 10
26.399881670813318
 20
-0.94921919129572507
 30
0
 11
26.399881670813318
 21
-17.821219191295711
 31
0
  0
LINE
  5
100CF
330
FFDA
100
AcDbEntity
  8
0
100
AcDbLine
 10
31.649881670813329
 20
-0.94921919129572507
 30
0
 11
31.649881670813329
 21
-17.821219191295711
 31
0
  0
LINE
  5
100D0
330
FFDA
100
AcDbEntity
  8
0
100
AcDbLine
 10
36.899881670813329
 20
-0.94921919129572507
 30
0
 11
36.899881670813329
 21
-17.821219191295711
 31
0
  0
LINE
  5
100D1
330
FFDA
100
AcDbEntity
  8
0
100
AcDbLine
 10
42.149881670813322
 20
-0.94921919129572507
 30
0
 11
42.149881670813322
 21
-17.821219191295711
 31
0
  0
LINE
  5
100D2
330
FFDA
100
AcDbEntity
  8
0
100
AcDbLine
 10
47.399881670813329
 20
-0.94921919129572507
 30
0
 11
47.399881670813329
 21
-17.821219191295711
 31
0
  0
LINE
  5
100D3
330
FFDA
100
AcDbEntity
  8
0
100
AcDbLine
 10
52.649881670813329
 20
-0.94921919129572507
 30
0
 11
52.649881670813329
 21
-17.821219191295711
 31
0
  0
LINE
  5
100D4
330
FFDA
100
AcDbEntity
  8
0
100
AcDbLine
 10
57.899881670813322
 20
-0.94921919129572507
 30
0
 11
57.899881670813322
 21
-17.821219191295711
 31
0
  0
LINE
  5
100D5
330
FFDA
100
AcDbEntity
  8
0
100
AcDbLine
 10
63.149881670813329
 20
-0.94921919129572507
 30
0
 11
63.149881670813329
 21
-17.821219191295711
 31
0
  0
TEXT
  5
100D6
330
FFDA
100
AcDbEntity
  8
0
100
AcDbText
 10
8.6638816708133355
 20
-2.1992191912957249
 30
0
 40
1
  1
器具高さ(m)
 41
0.8
  7
STANDARD
100
AcDbText
  0
TEXT
  5
100D7
330
FFDA
100
AcDbEntity
  8
0
100
AcDbText
 10
28.053872121017939
 20
-2.1992191912957249
 30
0
 40
1
  1
2.1
  7
STANDARD
100
AcDbText
  0
TEXT
  5
100D8
330
FFDA
100
AcDbEntity
  8
0
100
AcDbText
 10
33.303872121017953
 20
-2.1992191912957249
 30
0
 40
1
  1
2.4
  7
STANDARD
100
AcDbText
  0
TEXT
  5
100D9
330
FFDA
100
AcDbEntity
  8
0
100
AcDbText
 10
38.55387212101796
 20
-2.1992191912957249
 30
0
 40
1
  1
2.6
  7
STANDARD
100
AcDbText
  0
TEXT
  5
100DA
330
FFDA
100
AcDbEntity
  8
0
100
AcDbText
 10
43.803872121017932
 20
-2.1992191912957249
 30
0
 40
1
  1
3.0
  7
STANDARD
100
AcDbText
  0
TEXT
  5
100DB
330
FFDA
100
AcDbEntity
  8
0
100
AcDbText
 10
49.053872121017932
 20
-2.1992191912957249
 30
0
 40
1
  1
4.0
  7
STANDARD
100
AcDbText
  0
TEXT
  5
100DC
330
FFDA
100
AcDbEntity
  8
0
100
AcDbText
 10
54.303872121017953
 20
-2.1992191912957249
 30
0
 40
1
  1
5.0
  7
STANDARD
100
AcDbText
  0
TEXT
  5
100DD
330
FFDA
100
AcDbEntity
  8
0
100
AcDbText
 10
59.553872121017932
 20
-2.1992191912957249
 30
0
 40
1
  1
6.0
  7
STANDARD
100
AcDbText
  0
TEXT
  5
100DE
330
FFDA
100
AcDbEntity
  8
0
100
AcDbText
 10
64.803872121017946
 20
-2.1992191912957249
 30
0
 40
1
  1
7.0
  7
STANDARD
100
AcDbText
  0
TEXT
  5
100DF
330
FFDA
100
AcDbEntity
  8
0
100
AcDbText
 10
8.6638816708133355
 20
-3.886419191295714
 30
0
 40
1
  1
単体配置
 41
0.8
  7
STANDARD
100
AcDbText
  0
TEXT
  5
100E0
330
FFDA
100
AcDbEntity
  8
0
100
AcDbText
 10
21.944492857652278
 20
-3.886419191295714
 30
0
 40
1
  1
A1
  7
STANDARD
100
AcDbText
  0
TEXT
  5
100E1
330
FFDA
100
AcDbEntity
  8
0
100
AcDbText
 10
28.053872121017939
 20
-3.886419191295714
 30
0
 40
1
  1
6.4
  7
STANDARD
100
AcDbText
  0
TEXT
  5
100E2
330
FFDA
100
AcDbEntity
  8
0
100
AcDbText
 10
33.303872121017953
 20
-3.886419191295714
 30
0
 40
1
  1
6.7
  7
STANDARD
100
AcDbText
  0
TEXT
  5
100E3
330
FFDA
100
AcDbEntity
  8
0
100
AcDbText
 10
38.55387212101796
 20
-3.886419191295714
 30
0
 40
1
  1
6.9
  7
STANDARD
100
AcDbText
  0
TEXT
  5
100E4
330
FFDA
100
AcDbEntity
  8
0
100
AcDbText
 10
43.803872121017932
 20
-3.886419191295714
 30
0
 40
1
  1
7.2
  7
STANDARD
100
AcDbText
  0
TEXT
  5
100E5
330
FFDA
100
AcDbEntity
  8
0
100
AcDbText
 10
49.053872121017932
 20
-3.886419191295714
 30
0
 40
1
  1
7.7
  7
STANDARD
100
AcDbText
  0
TEXT
  5
100E6
330
FFDA
100
AcDbEntity
  8
0
100
AcDbText
 10
54.303872121017953
 20
-3.886419191295714
 30
0
 40
1
  1
8.1
  7
STANDARD
100
AcDbText
  0
TEXT
  5
100E7
330
FFDA
100
AcDbEntity
  8
0
100
AcDbText
 10
59.553872121017932
 20
-3.886419191295714
 30
0
 40
1
  1
8.3
  7
STANDARD
100
AcDbText
  0
TEXT
  5
100E8
330
FFDA
100
AcDbEntity
  8
0
100
AcDbText
 10
64.803872121017946
 20
-3.886419191295714
 30
0
 40
1
  1
8.4
  7
STANDARD
100
AcDbText
  0
TEXT
  5
100E9
330
FFDA
100
AcDbEntity
  8
0
100
AcDbText
 10
21.811136786710961
 20
-5.5736191912957036
 30
0
 40
1
  1
A'1
  7
STANDARD
100
AcDbText
  0
TEXT
  5
100EA
330
FFDA
100
AcDbEntity
  8
0
100
AcDbText
 10
28.053872121017939
 20
-5.5736191912957036
 30
0
 40
1
  1
6.2
  7
STANDARD
100
AcDbText
  0
TEXT
  5
100EB
330
FFDA
100
AcDbEntity
  8
0
100
AcDbText
 10
33.303872121017953
 20
-5.5736191912957036
 30
0
 40
1
  1
6.5
  7
STANDARD
100
AcDbText
  0
TEXT
  5
100EC
330
FFDA
100
AcDbEntity
  8
0
100
AcDbText
 10
38.55387212101796
 20
-5.5736191912957036
 30
0
 40
1
  1
6.7
  7
STANDARD
100
AcDbText
  0
TEXT
  5
100ED
330
FFDA
100
AcDbEntity
  8
0
100
AcDbText
 10
43.803872121017932
 20
-5.5736191912957036
 30
0
 40
1
  1
7.0
  7
STANDARD
100
AcDbText
  0
TEXT
  5
100EE
330
FFDA
100
AcDbEntity
  8
0
100
AcDbText
 10
49.053872121017932
 20
-5.5736191912957036
 30
0
 40
1
  1
7.6
  7
STANDARD
100
AcDbText
  0
TEXT
  5
100EF
330
FFDA
100
AcDbEntity
  8
0
100
AcDbText
 10
54.303872121017953
 20
-5.5736191912957036
 30
0
 40
1
  1
8.0
  7
STANDARD
100
AcDbText
  0
TEXT
  5
100F0
330
FFDA
100
AcDbEntity
  8
0
100
AcDbText
 10
59.553872121017932
 20
-5.5736191912957036
 30
0
 40
1
  1
8.2
  7
STANDARD
100
AcDbText
  0
TEXT
  5
100F1
330
FFDA
100
AcDbEntity
  8
0
100
AcDbText
 10
64.803872121017946
 20
-5.5736191912957036
 30
0
 40
1
  1
8.3
  7
STANDARD
100
AcDbText
  0
TEXT
  5
100F2
330
FFDA
100
AcDbEntity
  8
0
100
AcDbText
 10
21.9455160500766
 20
-7.2608191912957221
 30
0
 40
1
  1
B1
  7
STANDARD
100
AcDbText
  0
TEXT
  5
100F3
330
FFDA
100
AcDbEntity
  8
0
100
AcDbText
 10
28.053872121017939
 20
-7.2608191912957221
 30
0
 40
1
  1
5.0
  7
STANDARD
100
AcDbText
  0
TEXT
  5
100F4
330
FFDA
100
AcDbEntity
  8
0
100
AcDbText
 10
33.303872121017953
 20
-7.2608191912957221
 30
0
 40
1
  1
5.3
  7
STANDARD
100
AcDbText
  0
TEXT
  5
100F5
330
FFDA
100
AcDbEntity
  8
0
100
AcDbText
 10
38.55387212101796
 20
-7.2608191912957221
 30
0
 40
1
  1
5.5
  7
STANDARD
100
AcDbText
  0
TEXT
  5
100F6
330
FFDA
100
AcDbEntity
  8
0
100
AcDbText
 10
43.803872121017932
 20
-7.2608191912957221
 30
0
 40
1
  1
5.9
  7
STANDARD
100
AcDbText
  0
TEXT
  5
100F7
330
FFDA
100
AcDbEntity
  8
0
100
AcDbText
 10
49.053872121017932
 20
-7.2608191912957221
 30
0
 40
1
  1
6.6
  7
STANDARD
100
AcDbText
  0
TEXT
  5
100F8
330
FFDA
100
AcDbEntity
  8
0
100
AcDbText
 10
54.303872121017953
 20
-7.2608191912957221
 30
0
 40
1
  1
7.1
  7
STANDARD
100
AcDbText
  0
TEXT
  5
100F9
330
FFDA
100
AcDbEntity
  8
0
100
AcDbText
 10
59.553872121017932
 20
-7.2608191912957221
 30
0
 40
1
  1
7.4
  7
STANDARD
100
AcDbText
  0
TEXT
  5
100FA
330
FFDA
100
AcDbEntity
  8
0
100
AcDbText
 10
64.803872121017946
 20
-7.2608191912957221
 30
0
 40
1
  1
7.6
  7
STANDARD
100
AcDbText
  0
TEXT
  5
100FB
330
FFDA
100
AcDbEntity
  8
0
100
AcDbText
 10
8.6638816708133355
 20
-8.9480191912957139
 30
0
 40
1
  1
直線配置
 41
0.8
  7
STANDARD
100
AcDbText
  0
TEXT
  5
100FC
330
FFDA
100
AcDbEntity
  8
0
100
AcDbText
 10
21.944492857652278
 20
-8.9480191912957139
 30
0
 40
1
  1
A2
  7
STANDARD
100
AcDbText
  0
TEXT
  5
100FD
330
FFDA
100
AcDbEntity
  8
0
100
AcDbText
 10
27.66540008827581
 20
-8.9480191912957139
 30
0
 40
1
  1
15.4
  7
STANDARD
100
AcDbText
  0
TEXT
  5
100FE
330
FFDA
100
AcDbEntity
  8
0
100
AcDbText
 10
32.915400088275817
 20
-8.9480191912957139
 30
0
 40
1
  1
16.2
  7
STANDARD
100
AcDbText
  0
TEXT
  5
100FF
330
FFDA
100
AcDbEntity
  8
0
100
AcDbText
 10
38.165400088275817
 20
-8.9480191912957139
 30
0
 40
1
  1
16.7
  7
STANDARD
100
AcDbText
  0
TEXT
  5
10100
330
FFDA
100
AcDbEntity
  8
0
100
AcDbText
 10
43.41540008827581
 20
-8.9480191912957139
 30
0
 40
1
  1
17.6
  7
STANDARD
100
AcDbText
  0
TEXT
  5
10101
330
FFDA
100
AcDbEntity
  8
0
100
AcDbText
 10
48.66540008827581
 20
-8.9480191912957139
 30
0
 40
1
  1
19.4
  7
STANDARD
100
AcDbText
  0
TEXT
  5
10102
330
FFDA
100
AcDbEntity
  8
0
100
AcDbText
 10
53.915400088275831
 20
-8.9480191912957139
 30
0
 40
1
  1
20.8
  7
STANDARD
100
AcDbText
  0
TEXT
  5
10103
330
FFDA
100
AcDbEntity
  8
0
100
AcDbText
 10
59.16540008827581
 20
-8.9480191912957139
 30
0
 40
1
  1
21.8
  7
STANDARD
100
AcDbText
  0
TEXT
  5
10104
330
FFDA
100
AcDbEntity
  8
0
100
AcDbText
 10
64.415400088275817
 20
-8.9480191912957139
 30
0
 40
1
  1
22.5
  7
STANDARD
100
AcDbText
  0
TEXT
  5
10105
330
FFDA
100
AcDbEntity
  8
0
100
AcDbText
 10
21.9455160500766
 20
-10.6352191912957
 30
0
 40
1
  1
B2
  7
STANDARD
100
AcDbText
  0
TEXT
  5
10106
330
FFDA
100
AcDbEntity
  8
0
100
AcDbText
 10
27.66540008827581
 20
-10.6352191912957
 30
0
 40
1
  1
12.2
  7
STANDARD
100
AcDbText
  0
TEXT
  5
10107
330
FFDA
100
AcDbEntity
  8
0
100
AcDbText
 10
33.497937605329021
 20
-10.6352191912957
 30
0
 40
1
  1
13
  7
STANDARD
100
AcDbText
  0
TEXT
  5
10108
330
FFDA
100
AcDbEntity
  8
0
100
AcDbText
 10
38.165400088275817
 20
-10.6352191912957
 30
0
 40
1
  1
13.5
  7
STANDARD
100
AcDbText
  0
TEXT
  5
10109
330
FFDA
100
AcDbEntity
  8
0
100
AcDbText
 10
43.41540008827581
 20
-10.6352191912957
 30
0
 40
1
  1
14.4
  7
STANDARD
100
AcDbText
  0
TEXT
  5
1010A
330
FFDA
100
AcDbEntity
  8
0
100
AcDbText
 10
48.66540008827581
 20
-10.6352191912957
 30
0
 40
1
  1
16.2
  7
STANDARD
100
AcDbText
  0
TEXT
  5
1010B
330
FFDA
100
AcDbEntity
  8
0
100
AcDbText
 10
53.915400088275831
 20
-10.6352191912957
 30
0
 40
1
  1
17.8
  7
STANDARD
100
AcDbText
  0
TEXT
  5
1010C
330
FFDA
100
AcDbEntity
  8
0
100
AcDbText
 10
59.747937605329
 20
-10.6352191912957
 30
0
 40
1
  1
19
  7
STANDARD
100
AcDbText
  0
TEXT
  5
1010D
330
FFDA
100
AcDbEntity
  8
0
100
AcDbText
 10
64.997937605329014
 20
-10.6352191912957
 30
0
 40
1
  1
20
  7
STANDARD
100
AcDbText
  0
TEXT
  5
1010E
330
FFDA
100
AcDbEntity
  8
0
100
AcDbText
 10
8.6638816708133355
 20
-12.322419191295721
 30
0
 40
1
  1
四角配置
 41
0.8
  7
STANDARD
100
AcDbText
  0
TEXT
  5
1010F
330
FFDA
100
AcDbEntity
  8
0
100
AcDbText
 10
21.944492857652278
 20
-12.322419191295721
 30
0
 40
1
  1
A4
  7
STANDARD
100
AcDbText
  0
TEXT
  5
10110
330
FFDA
100
AcDbEntity
  8
0
100
AcDbText
 10
27.66540008827581
 20
-12.322419191295721
 30
0
 40
1
  1
14.8
  7
STANDARD
100
AcDbText
  0
TEXT
  5
10111
330
FFDA
100
AcDbEntity
  8
0
100
AcDbText
 10
32.915400088275817
 20
-12.322419191295721
 30
0
 40
1
  1
15.5
  7
STANDARD
100
AcDbText
  0
TEXT
  5
10112
330
FFDA
100
AcDbEntity
  8
0
100
AcDbText
 10
38.747937605329007
 20
-12.322419191295721
 30
0
 40
1
  1
16
  7
STANDARD
100
AcDbText
  0
TEXT
  5
10113
330
FFDA
100
AcDbEntity
  8
0
100
AcDbText
 10
43.41540008827581
 20
-12.322419191295721
 30
0
 40
1
  1
16.7
  7
STANDARD
100
AcDbText
  0
TEXT
  5
10114
330
FFDA
100
AcDbEntity
  8
0
100
AcDbText
 10
48.66540008827581
 20
-12.322419191295721
 30
0
 40
1
  1
18.4
  7
STANDARD
100
AcDbText
  0
TEXT
  5
10115
330
FFDA
100
AcDbEntity
  8
0
100
AcDbText
 10
53.915400088275831
 20
-12.322419191295721
 30
0
 40
1
  1
19.7
  7
STANDARD
100
AcDbText
  0
TEXT
  5
10116
330
FFDA
100
AcDbEntity
  8
0
100
AcDbText
 10
59.16540008827581
 20
-12.322419191295721
 30
0
 40
1
  1
20.6
  7
STANDARD
100
AcDbText
  0
TEXT
  5
10117
330
FFDA
100
AcDbEntity
  8
0
100
AcDbText
 10
64.415400088275817
 20
-12.322419191295721
 30
0
 40
1
  1
21.4
  7
STANDARD
100
AcDbText
  0
TEXT
  5
10118
330
FFDA
100
AcDbEntity
  8
0
100
AcDbText
 10
21.9455160500766
 20
-14.009619191295711
 30
0
 40
1
  1
B4
  7
STANDARD
100
AcDbText
  0
TEXT
  5
10119
330
FFDA
100
AcDbEntity
  8
0
100
AcDbText
 10
27.66540008827581
 20
-14.009619191295711
 30
0
 40
1
  1
10.9
  7
STANDARD
100
AcDbText
  0
TEXT
  5
1011A
330
FFDA
100
AcDbEntity
  8
0
100
AcDbText
 10
32.915400088275817
 20
-14.009619191295711
 30
0
 40
1
  1
11.5
  7
STANDARD
100
AcDbText
  0
TEXT
  5
1011B
330
FFDA
100
AcDbEntity
  8
0
100
AcDbText
 10
38.747937605329007
 20
-14.009619191295711
 30
0
 40
1
  1
12
  7
STANDARD
100
AcDbText
  0
TEXT
  5
1011C
330
FFDA
100
AcDbEntity
  8
0
100
AcDbText
 10
43.41540008827581
 20
-14.009619191295711
 30
0
 40
1
  1
12.8
  7
STANDARD
100
AcDbText
  0
TEXT
  5
1011D
330
FFDA
100
AcDbEntity
  8
0
100
AcDbText
 10
48.66540008827581
 20
-14.009619191295711
 30
0
 40
1
  1
14.5
  7
STANDARD
100
AcDbText
  0
TEXT
  5
1011E
330
FFDA
100
AcDbEntity
  8
0
100
AcDbText
 10
53.915400088275831
 20
-14.009619191295711
 30
0
 40
1
  1
15.8
  7
STANDARD
100
AcDbText
  0
TEXT
  5
1011F
330
FFDA
100
AcDbEntity
  8
0
100
AcDbText
 10
59.747937605329
 20
-14.009619191295711
 30
0
 40
1
  1
17
  7
STANDARD
100
AcDbText
  0
TEXT
  5
10120
330
FFDA
100
AcDbEntity
  8
0
100
AcDbText
 10
64.415400088275817
 20
-14.009619191295711
 30
0
 40
1
  1
17.9
  7
STANDARD
100
AcDbText
  0
TEXT
  5
10121
330
FFDA
100
AcDbEntity
  8
0
100
AcDbText
 10
21.944492857652278
 20
-15.6968191912957
 30
0
 40
1
  1
A0
  7
STANDARD
100
AcDbText
  0
TEXT
  5
10122
330
FFDA
100
AcDbEntity
  8
0
100
AcDbText
 10
28.053872121017939
 20
-15.6968191912957
 30
0
 40
1
  1
4.9
  7
STANDARD
100
AcDbText
  0
TEXT
  5
10123
330
FFDA
100
AcDbEntity
  8
0
100
AcDbText
 10
33.303872121017953
 20
-15.6968191912957
 30
0
 40
1
  1
5.1
  7
STANDARD
100
AcDbText
  0
TEXT
  5
10124
330
FFDA
100
AcDbEntity
  8
0
100
AcDbText
 10
38.55387212101796
 20
-15.6968191912957
 30
0
 40
1
  1
5.2
  7
STANDARD
100
AcDbText
  0
TEXT
  5
10125
330
FFDA
100
AcDbEntity
  8
0
100
AcDbText
 10
43.803872121017932
 20
-15.6968191912957
 30
0
 40
1
  1
5.4
  7
STANDARD
100
AcDbText
  0
TEXT
  5
10126
330
FFDA
100
AcDbEntity
  8
0
100
AcDbText
 10
49.053872121017932
 20
-15.6968191912957
 30
0
 40
1
  1
5.6
  7
STANDARD
100
AcDbText
  0
TEXT
  5
10127
330
FFDA
100
AcDbEntity
  8
0
100
AcDbText
 10
54.303872121017953
 20
-15.6968191912957
 30
0
 40
1
  1
5.7
  7
STANDARD
100
AcDbText
  0
TEXT
  5
10128
330
FFDA
100
AcDbEntity
  8
0
100
AcDbText
 10
59.553872121017932
 20
-15.6968191912957
 30
0
 40
1
  1
5.8
  7
STANDARD
100
AcDbText
  0
TEXT
  5
10129
330
FFDA
100
AcDbEntity
  8
0
100
AcDbText
 10
64.803872121017946
 20
-15.6968191912957
 30
0
 40
1
  1
6.0
  7
STANDARD
100
AcDbText
  0
TEXT
  5
1012A
330
FFDA
100
AcDbEntity
  8
0
100
AcDbText
 10
21.9455160500766
 20
-17.384019191295721
 30
0
 40
1
  1
B0
  7
STANDARD
100
AcDbText
  0
TEXT
  5
1012B
330
FFDA
100
AcDbEntity
  8
0
100
AcDbText
 10
28.053872121017939
 20
-17.384019191295721
 30
0
 40
1
  1
2.4
  7
STANDARD
100
AcDbText
  0
TEXT
  5
1012C
330
FFDA
100
AcDbEntity
  8
0
100
AcDbText
 10
33.303872121017953
 20
-17.384019191295721
 30
0
 40
1
  1
2.6
  7
STANDARD
100
AcDbText
  0
TEXT
  5
1012D
330
FFDA
100
AcDbEntity
  8
0
100
AcDbText
 10
38.55387212101796
 20
-17.384019191295721
 30
0
 40
1
  1
2.7
  7
STANDARD
100
AcDbText
  0
TEXT
  5
1012E
330
FFDA
100
AcDbEntity
  8
0
100
AcDbText
 10
43.803872121017932
 20
-17.384019191295721
 30
0
 40
1
  1
3.0
  7
STANDARD
100
AcDbText
  0
TEXT
  5
1012F
330
FFDA
100
AcDbEntity
  8
0
100
AcDbText
 10
49.053872121017932
 20
-17.384019191295721
 30
0
 40
1
  1
3.3
  7
STANDARD
100
AcDbText
  0
TEXT
  5
10130
330
FFDA
100
AcDbEntity
  8
0
100
AcDbText
 10
54.303872121017953
 20
-17.384019191295721
 30
0
 40
1
  1
3.6
  7
STANDARD
100
AcDbText
  0
TEXT
  5
10131
330
FFDA
100
AcDbEntity
  8
0
100
AcDbText
 10
59.553872121017932
 20
-17.384019191295721
 30
0
 40
1
  1
3.8
  7
STANDARD
100
AcDbText
  0
TEXT
  5
10132
330
FFDA
100
AcDbEntity
  8
0
100
AcDbText
 10
64.803872121017946
 20
-17.384019191295721
 30
0
 40
1
  1
3.9
  7
STANDARD
100
AcDbText
  0
TEXT
  5
10134
330
FFDA
100
AcDbEntity
  8
0
100
AcDbText
 10
31.816340872608521
 20
-0.77632625101469455
 30
0
 40
1
  1
光束 2210 lm
 41
0.8
  7
STANDARD
100
AcDbText
  0
LINE
  5
10135
330
FFDA
100
AcDbEntity
  8
0
  6
CONTINUOUS
100
AcDbLine
 10
68.399881670813329
 20
-0.94921919129572507
 30
0
 11
68.399881670813329
 21
-17.821219191295711
 31
0
  0
INSERT
  5
10158
330
FFDA
100
AcDbEntity
  8
0
100
AcDbBlockReference
  2
SPECEL-LF-HH4532A2
 10
94.635886114614223
 20
-2.821219191295711
 30
0
 41
1
 42
1
 43
1
 50
0
  0
ENDSEC
  0
SECTION
  2
OBJECTS
  0
DICTIONARY
  5
FF72
330
0
100
AcDbDictionary
280
0
281
1
  3
ACAD_COLOR
350
FFD0
  3
ACAD_GROUP
350
FF73
  3
ACAD_LAYOUT
350
FFCF
  3
ACAD_MATERIAL
350
FF76
  3
ACAD_MLEADERSTYLE
350
FFD3
  3
ACAD_MLINESTYLE
350
FFCC
  3
ACAD_PLOTSETTINGS
350
FFCE
  3
ACAD_PLOTSTYLENAME
350
FF74
  3
ACAD_SCALELIST
350
FFA0
  3
ACAD_TABLESTYLE
350
FFD1
  3
ACAD_VISUALSTYLE
350
FF8F
  3
ACDB_RECOMPOSE_DATA
350
1001F
  3
AcDbVariableDictionary
350
1000A
  3
DWGPROPS
350
10149
  3
ACAD_FIELDLIST
350
1015C
  3
ACAD_IMAGE_DICT
350
1015D
  0
DICTIONARY
  5
10008
330
FFC2
100
AcDbDictionary
280
1
281
1
  3
ADSK_XREC_LAYER_RECONCILED
360
10009
  0
DICTIONARY
  5
1014D
330
FFDD
100
AcDbDictionary
280
1
281
1
  3
ACAD_XREC_ROUNDTRIP
360
1014E
  0
DICTIONARY
  5
1014B
330
FFD9
100
AcDbDictionary
280
1
281
1
  3
ACAD_XREC_ROUNDTRIP
360
1014C
  0
DICTIONARY
  5
1001D
330
FFD2
100
AcDbDictionary
280
1
281
1
  3
ACAD_XREC_ROUNDTRIP
360
1014A
  0
DICTIONARY
  5
FFD0
102
{ACAD_REACTORS
330
FF72
102
}
330
FF72
100
AcDbDictionary
280
0
281
1
  0
DICTIONARY
  5
FF73
102
{ACAD_REACTORS
330
FF72
102
}
330
FF72
100
AcDbDictionary
280
0
281
1
  0
DICTIONARY
  5
FFCF
102
{ACAD_REACTORS
330
FF72
102
}
330
FF72
100
AcDbDictionary
280
0
281
1
  3
Model
350
FFDD
  3
レイアウト1
350
FFD9
  0
DICTIONARY
  5
FF76
102
{ACAD_REACTORS
330
FF72
102
}
330
FF72
100
AcDbDictionary
280
0
281
1
  0
DICTIONARY
  5
FFD3
102
{ACAD_REACTORS
330
FF72
102
}
330
FF72
100
AcDbDictionary
280
0
281
1
  0
DICTIONARY
  5
FFCC
102
{ACAD_REACTORS
330
FF72
102
}
330
FF72
100
AcDbDictionary
280
0
281
1
  3
STANDARD
350
FFCD
  0
DICTIONARY
  5
FFCE
102
{ACAD_REACTORS
330
FF72
102
}
330
FF72
100
AcDbDictionary
280
0
281
1
  0
ACDBDICTIONARYWDFLT
  5
FF74
102
{ACAD_REACTORS
330
FF72
102
}
330
FF72
100
AcDbDictionary
280
0
281
1
  3
Normal
350
FF75
100
AcDbDictionaryWithDefault
340
FF75
  0
ACDBPLACEHOLDER
  5
FF75
102
{ACAD_REACTORS
330
FF74
102
}
330
FF74
  0
DICTIONARY
  5
FFA0
102
{ACAD_REACTORS
330
FF72
102
}
330
FF72
100
AcDbDictionary
280
0
281
1
  0
DICTIONARY
  5
FFD1
102
{ACAD_REACTORS
330
FF72
102
}
330
FF72
100
AcDbDictionary
280
0
281
1
  0
DICTIONARY
  5
FF8F
102
{ACAD_REACTORS
330
FF72
102
}
330
FF72
100
AcDbDictionary
280
0
281
1
  0
XRECORD
  5
1001F
102
{ACAD_REACTORS
330
FF72
102
}
330
FF72
100
AcDbXrecord
280
1
 90
1
330
FFD2
  0
DICTIONARY
  5
1000A
102
{ACAD_REACTORS
330
FF72
102
}
330
FF72
100
AcDbDictionary
280
0
281
1
  3
CANNOSCALE
350
1000D
  3
CMLEADERSTYLE
350
1000C
  3
CTABLESTYLE
350
1000B
  3
DIMASSOC
350
10010
  3
INDEXCTL
350
1000F
  3
SORTENTS
350
1000E
  3
ANNOALLVISIBLE
350
1015A
  3
ANNOTATIVEDWG
350
1015B
  0
XRECORD
  5
10149
102
{ACAD_REACTORS
330
FF72
102
}
330
FF72
100
AcDbXrecord
280
1
  1
DWGPROPS COOKIE
  2

  3

  4

  6

  7

  8
1992517
  9

300
=
301
=
302
=
303
=
304
=
305
=
306
=
307
=
308
=
309
=
 40
0.0396540625
 41
2451691.7194229979
 42
2458431.4412815389
  1

 90
0
  0
FIELDLIST
  5
1015C
102
{ACAD_REACTORS
330
FF72
102
}
330
FF72
100
AcDbIdSet
100
AcDbFieldList
  0
DICTIONARY
  5
1015D
102
{ACAD_REACTORS
330
FF72
102
}
330
FF72
100
AcDbDictionary
280
0
281
1
  0
XRECORD
  5
10009
102
{ACAD_REACTORS
330
10008
102
}
330
10008
100
AcDbXrecord
280
1
  0
XRECORD
  5
1014E
102
{ACAD_REACTORS
330
1014D
102
}
330
1014D
100
AcDbXrecord
280
1
102
SHADEPLOT
 70
0
102
SHADEPLOTRESLEVEL
 70
2
102
SHADEPLOTCUSTOMDPI
 70
300
  0
XRECORD
  5
1014C
102
{ACAD_REACTORS
330
1014B
102
}
330
1014B
100
AcDbXrecord
280
1
102
SHADEPLOT
 70
0
102
SHADEPLOTRESLEVEL
 70
2
102
SHADEPLOTCUSTOMDPI
 70
300
  0
XRECORD
  5
1014A
102
{ACAD_REACTORS
330
1001D
102
}
330
1001D
100
AcDbXrecord
280
1
102
ACAD_ROUNDTRIP_PRE2007_TABLESTYLE
 90
512
 91
0
  1

 92
512
 93
0
  2

 94
512
 95
0
  3

  0
LAYOUT
  5
FFDD
102
{ACAD_XDICTIONARY
360
1014D
102
}
102
{ACAD_REACTORS
330
FFCF
102
}
330
FFCF
100
AcDbPlotSettings
  1

  2
Adobe PDF
  4

  6

 40
0
 41
0
 42
0
 43
0
 44
0
 45
0
 46
0
 47
0
 48
0
 49
0
140
0
141
0
142
1
143
1
 70
1712
 72
0
 73
0
 74
0
  7

 75
0
 76
0
 77
0
 78
0
147
1
148
0
149
0
100
AcDbLayout
  1
Model
 70
1
 71
0
 10
0
 20
0
 11
12
 21
9
 12
0
 22
0
 32
0
 14
0
 24
0
 34
0
 15
0
 25
0
 35
0
146
0
 13
0
 23
0
 33
0
 16
1
 26
0
 36
0
 17
0
 27
1
 37
0
 76
0
330
FFDA
331
FFDE
  0
LAYOUT
  5
FFD9
102
{ACAD_XDICTIONARY
360
1014B
102
}
102
{ACAD_REACTORS
330
FFCF
102
}
330
FFCF
100
AcDbPlotSettings
  1

  2
Adobe PDF
  4

  6

 40
0
 41
0
 42
0
 43
0
 44
0
 45
0
 46
0
 47
0
 48
0
 49
0
140
0
141
0
142
1
143
1
 70
688
 72
0
 73
0
 74
5
  7

 75
16
 76
0
 77
0
 78
0
147
1
148
0
149
0
100
AcDbLayout
  1
レイアウト1
 70
1
 71
1
 10
0
 20
0
 11
12
 21
9
 12
0
 22
0
 32
0
 14
1E+20
 24
1E+20
 34
1E+20
 15
-1E+20
 25
-1E+20
 35
-1E+20
146
0
 13
0
 23
0
 33
0
 16
1
 26
0
 36
0
 17
0
 27
1
 37
0
 76
0
330
FFD6
  0
MLINESTYLE
  5
FFCD
102
{ACAD_REACTORS
330
FFCC
102
}
330
FFCC
100
AcDbMlineStyle
  2
STANDARD
 70
0
  3

 51
90
 52
90
 71
2
 49
0.5
  6
ByLayer
 49
-0.5
  6
ByLayer
  0
DICTIONARYVAR
  5
1000D
102
{ACAD_REACTORS
330
1000A
102
}
330
1000A
100
DictionaryVariables
280
0
  1
1:1
  0
DICTIONARYVAR
  5
1000C
102
{ACAD_REACTORS
330
1000A
102
}
330
1000A
100
DictionaryVariables
280
0
  1
STANDARD
  0
DICTIONARYVAR
  5
1000B
102
{ACAD_REACTORS
330
1000A
102
}
330
1000A
100
DictionaryVariables
280
0
  1
STANDARD
  0
DICTIONARYVAR
  5
10010
102
{ACAD_REACTORS
330
1000A
102
}
330
1000A
100
DictionaryVariables
280
0
  1
1
  0
DICTIONARYVAR
  5
1000F
102
{ACAD_REACTORS
330
1000A
102
}
330
1000A
100
DictionaryVariables
280
0
  1
0
  0
DICTIONARYVAR
  5
1000E
102
{ACAD_REACTORS
330
1000A
102
}
330
1000A
100
DictionaryVariables
280
0
  1
127
  0
DICTIONARYVAR
  5
1015A
102
{ACAD_REACTORS
330
1000A
102
}
330
1000A
100
DictionaryVariables
280
0
  1
1
  0
DICTIONARYVAR
  5
1015B
102
{ACAD_REACTORS
330
1000A
102
}
330
1000A
100
DictionaryVariables
280
0
  1
0
  0
ENDSEC
999
Created By CadLib version 4.0.36.7
999
CadLib website: www.woutware.com
  0
EOF
