  0
SECTION
  2
HEADER
  9
$ACADVER
  1
AC1009
  9
$DWGCODEPAGE
  3
dos932
  9
$INSBASE
 10
0.0
 20
0.0
 30
0.0
  9
$EXTMIN
 10
22.54274317423506
 20
14.51870479007638
 30
0.0
  9
$EXTMAX
 10
169.1076342264811
 20
104.3812952099236
 30
0.0
  9
$LIMMIN
 10
0.0
 20
0.0
  9
$LIMMAX
 10
12.0
 20
9.0
  9
$ORTHOMODE
 70
     0
  9
$REGENMODE
 70
     1
  9
$FILLMODE
 70
     1
  9
$QTEXTMODE
 70
     0
  9
$MIRRTEXT
 70
     1
  9
$DRAGMODE
 70
     2
  9
$LTSCALE
 40
0.9999999999999999
  9
$OSMODE
 70
    37
  9
$ATTMODE
 70
     1
  9
$TEXTSIZE
 40
0.2
  9
$TRACEWID
 40
1.0
  9
$TEXTSTYLE
  7
STANDARD
  9
$CLAYER
  8
EL-LFB45702C-25N5
  9
$CELTYPE
  6
BYLAYER
  9
$CECOLOR
 62
   256
  9
$DIMSCALE
 40
1.0
  9
$DIMASZ
 40
0.18
  9
$DIMEXO
 40
0.0625
  9
$DIMDLI
 40
0.38
  9
$DIMRND
 40
0.0
  9
$DIMDLE
 40
0.0
  9
$DIMEXE
 40
0.18
  9
$DIMTP
 40
0.0
  9
$DIMTM
 40
0.0
  9
$DIMTXT
 40
0.18
  9
$DIMCEN
 40
0.09
  9
$DIMTSZ
 40
0.0
  9
$DIMTOL
 70
     0
  9
$DIMLIM
 70
     0
  9
$DIMTIH
 70
     1
  9
$DIMTOH
 70
     1
  9
$DIMSE1
 70
     0
  9
$DIMSE2
 70
     0
  9
$DIMTAD
 70
     0
  9
$DIMZIN
 70
     0
  9
$DIMBLK
  1

  9
$DIMASO
 70
     1
  9
$DIMSHO
 70
     1
  9
$DIMPOST
  1

  9
$DIMAPOST
  1

  9
$DIMALT
 70
     0
  9
$DIMALTD
 70
     2
  9
$DIMALTF
 40
25.4
  9
$DIMLFAC
 40
1.0
  9
$DIMTOFL
 70
     0
  9
$DIMTVP
 40
0.0
  9
$DIMTIX
 70
     0
  9
$DIMSOXD
 70
     0
  9
$DIMSAH
 70
     0
  9
$DIMBLK1
  1

  9
$DIMBLK2
  1

  9
$DIMSTYLE
  2
STANDARD
  9
$DIMCLRD
 70
     0
  9
$DIMCLRE
 70
     0
  9
$DIMCLRT
 70
     0
  9
$DIMTFAC
 40
1.0
  9
$DIMGAP
 40
0.09
  9
$LUNITS
 70
     2
  9
$LUPREC
 70
     2
  9
$SKETCHINC
 40
0.1
  9
$FILLETRAD
 40
0.5
  9
$AUNITS
 70
     0
  9
$AUPREC
 70
     2
  9
$MENU
  1
.
  9
$ELEVATION
 40
0.0
  9
$PELEVATION
 40
0.0
  9
$THICKNESS
 40
0.0
  9
$LIMCHECK
 70
     0
  9
$CHAMFERA
 40
0.0
  9
$CHAMFERB
 40
0.0
  9
$SKPOLY
 70
     0
  9
$TDCREATE
 40
2458675.433541748
  9
$TDUPDATE
 40
2458675.43354706
  9
$TDINDWG
 40
0.0000000116
  9
$TDUSRTIMER
 40
0.0000000116
  9
$USRTIMER
 70
     1
  9
$ANGBASE
 50
0.0
  9
$ANGDIR
 70
     0
  9
$PDMODE
 70
     1
  9
$PDSIZE
 40
-2.0
  9
$PLINEWID
 40
0.0
  9
$COORDS
 70
     1
  9
$SPLFRAME
 70
     0
  9
$SPLINETYPE
 70
     6
  9
$SPLINESEGS
 70
     8
  9
$ATTDIA
 70
     0
  9
$ATTREQ
 70
     1
  9
$HANDLING
 70
     1
  9
$HANDSEED
  5
498
  9
$SURFTAB1
 70
     6
  9
$SURFTAB2
 70
     6
  9
$SURFTYPE
 70
     6
  9
$SURFU
 70
     6
  9
$SURFV
 70
     6
  9
$UCSNAME
  2

  9
$UCSORG
 10
0.0
 20
0.0
 30
0.0
  9
$UCSXDIR
 10
1.0
 20
0.0
 30
0.0
  9
$UCSYDIR
 10
0.0
 20
1.0
 30
0.0
  9
$PUCSNAME
  2

  9
$PUCSORG
 10
0.0
 20
0.0
 30
0.0
  9
$PUCSXDIR
 10
1.0
 20
0.0
 30
0.0
  9
$PUCSYDIR
 10
0.0
 20
1.0
 30
0.0
  9
$USERI1
 70
     0
  9
$USERI2
 70
     0
  9
$USERI3
 70
     0
  9
$USERI4
 70
     0
  9
$USERI5
 70
     0
  9
$USERR1
 40
0.0
  9
$USERR2
 40
0.0
  9
$USERR3
 40
0.0
  9
$USERR4
 40
0.0
  9
$USERR5
 40
0.0
  9
$WORLDVIEW
 70
     1
  9
$SHADEDGE
 70
     3
  9
$SHADEDIF
 70
    70
  9
$TILEMODE
 70
     1
  9
$MAXACTVP
 70
    64
  9
$PLIMCHECK
 70
     0
  9
$PEXTMIN
 10
1.000000000000000E+20
 20
1.000000000000000E+20
 30
1.000000000000000E+20
  9
$PEXTMAX
 10
-1.000000000000000E+20
 20
-1.000000000000000E+20
 30
-1.000000000000000E+20
  9
$PLIMMIN
 10
-20.0
 20
-7.5
  9
$PLIMMAX
 10
277.0
 20
202.5
  9
$UNITMODE
 70
     0
  9
$VISRETAIN
 70
     1
  9
$PLINEGEN
 70
     0
  9
$PSLTSCALE
 70
     1
  0
ENDSEC
  0
SECTION
  2
TABLES
  0
TABLE
  2
VPORT
 70
     1
  0
VPORT
  2
*ACTIVE
 70
     0
 10
0.0
 20
0.0
 11
1.0
 21
1.0
 12
95.82518870035807
 22
59.45
 13
0.0
 23
0.0
 14
0.5
 24
0.5
 15
0.5
 25
0.5
 16
0.0
 26
0.0
 36
1.0
 17
0.0
 27
0.0
 37
0.0
 40
89.86259041984724
 41
1.630988939529562
 42
2000.0
 43
0.0
 44
0.0
 50
0.0
 51
0.0
 71
     0
 72
   100
 73
     1
 74
     3
 75
     0
 76
     0
 77
     0
 78
     0
  0
ENDTAB
  0
TABLE
  2
LTYPE
 70
     1
  0
LTYPE
  2
CONTINUOUS
 70
     0
  3
Solid line
 72
    65
 73
     0
 40
0.0
  0
ENDTAB
  0
TABLE
  2
LAYER
 70
     3
  0
LAYER
  2
0
 70
     0
 62
     7
  6
CONTINUOUS
  0
LAYER
  2
EL-LFB45702C-25N5
 70
     0
 62
     7
  6
CONTINUOUS
  0
ENDTAB
  0
TABLE
  2
STYLE
 70
     2
  0
STYLE
  2
STANDARD
 70
     0
 40
0.0
 41
1.0
 50
0.0
 71
     0
 42
0.2
  3
txt
  4
BIGFONT.SHX
  0
STYLE
  2
_______
 70
     0
 40
0.0
 41
1.0
 50
0.0
 71
     0
 42
0.2
  3

  4
ＭＳ ゴシック
  0
ENDTAB
  0
TABLE
  2
VIEW
 70
     0
  0
ENDTAB
  0
TABLE
  2
UCS
 70
     0
  0
ENDTAB
  0
TABLE
  2
APPID
 70
     2
  0
APPID
  2
ACAD
 70
     0
  0
APPID
  2
ACAECLAYERSTANDARD
 70
     0
  0
ENDTAB
  0
TABLE
  2
DIMSTYLE
 70
     1
  0
DIMSTYLE
  2
STANDARD
 70
     0
  3

  4

  5

  6

  7

 40
1.0
 41
0.18
 42
0.0625
 43
0.38
 44
0.18
 45
0.0
 46
0.0
 47
0.0
 48
0.0
140
0.18
141
0.09
142
0.0
143
25.4
144
1.0
145
0.0
146
1.0
147
0.09
 71
     0
 72
     0
 73
     1
 74
     1
 75
     0
 76
     0
 77
     0
 78
     0
170
     0
171
     2
172
     0
173
     0
174
     0
175
     0
176
     0
177
     0
178
     0
  0
ENDTAB
  0
ENDSEC
  0
SECTION
  2
BLOCKS
  0
BLOCK
  8
0
  2
$MODEL_SPACE
 70
     0
 10
0.0
 20
0.0
 30
0.0
  3
$MODEL_SPACE
  1

  0
ENDBLK
  5
21
  8
0
  0
BLOCK
 67
     1
  8
0
  2
$PAPER_SPACE
 70
     0
 10
0.0
 20
0.0
 30
0.0
  3
$PAPER_SPACE
  1

  0
ENDBLK
  5
1D
 67
     1
  8
0
  0
ENDSEC
  0
SECTION
  2
ENTITIES
  0
LINE
  5
74
  8
EL-LFB45702C-25N5
  6
CONTINUOUS
 62
     7
 10
57.02834406007046
 20
63.24794784388931
 30
0.0
 11
57.32462227180194
 21
63.45895994236091
 31
0.0
  0
LINE
  5
75
  8
EL-LFB45702C-25N5
  6
CONTINUOUS
 62
     7
 10
56.51984796644755
 20
63.28963349926092
 30
0.0
 11
57.02834406007046
 21
63.24794784388931
 31
0.0
  0
LINE
  5
76
  8
EL-LFB45702C-25N5
  6
CONTINUOUS
 62
     7
 10
89.87801853102467
 20
45.38323295035201
 30
0.0
 11
89.15868259370457
 21
45.80629067594072
 31
0.0
  0
LINE
  5
77
  8
EL-LFB45702C-25N5
  6
CONTINUOUS
 62
     7
 10
88.35390828835015
 20
44.40895994712339
 30
0.0
 11
89.07462226386447
 21
43.98590222153472
 31
0.0
  0
LINE
  5
78
  8
EL-LFB45702C-25N5
  6
CONTINUOUS
 62
     7
 10
89.15868259370457
 20
45.80629067594072
 30
0.0
 11
88.86240438197306
 21
45.89017875100652
 31
0.0
  0
LINE
  5
79
  8
EL-LFB45702C-25N5
  6
CONTINUOUS
 62
     7
 10
89.15868259370457
 20
45.76357149192361
 30
0.0
 11
88.98918389583025
 21
45.80629067594072
 31
0.0
  0
LINE
  5
7A
  8
EL-LFB45702C-25N5
  6
CONTINUOUS
 62
     7
 10
89.37090047559593
 20
45.63696423284071
 30
0.0
 11
89.15868259370457
 21
45.80629067594072
 31
0.0
  0
LINE
  5
7B
  8
EL-LFB45702C-25N5
  6
CONTINUOUS
 62
     7
 10
89.45496080543603
 20
45.08695473862051
 30
0.0
 11
89.37090047559593
 21
45.63696423284071
 31
0.0
  0
LINE
  5
7C
  8
EL-LFB45702C-25N5
  6
CONTINUOUS
 62
     7
 10
89.11596340968747
 20
44.5355672062063
 30
0.0
 11
89.45496080543603
 21
45.08695473862051
 31
0.0
  0
LINE
  5
7D
  8
EL-LFB45702C-25N5
  6
CONTINUOUS
 62
     7
 10
88.86240438197306
 20
44.36624076310632
 30
0.0
 11
89.11596340968747
 21
44.5355672062063
 31
0.0
  0
LINE
  5
7E
  8
EL-LFB45702C-25N5
  6
CONTINUOUS
 62
     7
 10
88.60884535425866
 20
44.36624076310632
 30
0.0
 11
88.86240438197306
 21
44.36624076310632
 31
0.0
  0
LINE
  5
7F
  8
EL-LFB45702C-25N5
  6
CONTINUOUS
 62
     7
 10
88.35390828835015
 20
44.40895994712339
 30
0.0
 11
88.60884535425866
 21
44.36624076310632
 31
0.0
  0
LINE
  5
80
  8
EL-LFB45702C-25N5
  6
CONTINUOUS
 62
     7
 10
88.14306844465284
 20
44.66251897483779
 30
0.0
 11
88.35390828835015
 21
44.40895994712339
 31
0.0
  0
LINE
  5
81
  8
EL-LFB45702C-25N5
  6
CONTINUOUS
 62
     7
 10
90.04751722889897
 20
45.21356199770351
 30
0.0
 11
89.87801853102467
 21
45.38323295035201
 31
0.0
  0
LINE
  5
82
  8
EL-LFB45702C-25N5
  6
CONTINUOUS
 62
     7
 10
90.13295559693313
 20
44.96034747953762
 30
0.0
 11
90.04751722889897
 21
45.21356199770351
 31
0.0
  0
LINE
  5
83
  8
EL-LFB45702C-25N5
  6
CONTINUOUS
 62
     7
 10
90.04751722889897
 20
44.36624076310632
 30
0.0
 11
90.13295559693313
 21
44.96034747953762
 31
0.0
  0
LINE
  5
84
  8
EL-LFB45702C-25N5
  6
CONTINUOUS
 62
     7
 10
89.83667738520167
 20
44.11268173539192
 30
0.0
 11
90.04751722889897
 21
44.36624076310632
 31
0.0
  0
LINE
  5
85
  8
EL-LFB45702C-25N5
  6
CONTINUOUS
 62
     7
 10
89.58174031929325
 20
43.98590222153472
 30
0.0
 11
89.83667738520167
 21
44.11268173539192
 31
0.0
  0
LINE
  5
86
  8
EL-LFB45702C-25N5
  6
CONTINUOUS
 62
     7
 10
89.07462226386447
 20
43.98590222153472
 30
0.0
 11
89.58174031929325
 21
43.98590222153472
 31
0.0
  0
LINE
  5
87
  8
EL-LFB45702C-25N5
  6
CONTINUOUS
 62
     7
 10
89.66717868732745
 20
43.98590222153472
 30
0.0
 11
89.07462226386447
 21
43.98590222153472
 31
0.0
  0
LINE
  5
88
  8
EL-LFB45702C-25N5
  6
CONTINUOUS
 62
     7
 10
90.04751722889897
 20
44.36624076310632
 30
0.0
 11
89.66717868732745
 21
43.98590222153472
 31
0.0
  0
LINE
  5
89
  8
EL-LFB45702C-25N5
  6
CONTINUOUS
 62
     7
 10
90.13295559693313
 20
45.0442355546034
 30
0.0
 11
90.04751722889897
 21
44.36624076310632
 31
0.0
  0
LINE
  5
8A
  8
EL-LFB45702C-25N5
  6
CONTINUOUS
 62
     7
 10
90.04751722889897
 20
45.25628118172051
 30
0.0
 11
90.13295559693313
 21
45.0442355546034
 31
0.0
  0
LINE
  5
8B
  8
EL-LFB45702C-25N5
  6
CONTINUOUS
 62
     7
 10
89.87801853102467
 20
45.38323295035201
 30
0.0
 11
90.04751722889897
 21
45.25628118172051
 31
0.0
  0
LINE
  5
8C
  8
EL-LFB45702C-25N5
  6
CONTINUOUS
 62
     7
 10
89.41224162141894
 20
45.34068602110921
 30
0.0
 11
89.15868259370457
 21
45.76357149192361
 31
0.0
  0
LINE
  5
8D
  8
EL-LFB45702C-25N5
  6
CONTINUOUS
 62
     7
 10
89.41224162141894
 20
45.08695473862051
 30
0.0
 11
89.41224162141894
 21
45.34068602110921
 31
0.0
  0
LINE
  5
8E
  8
EL-LFB45702C-25N5
  6
CONTINUOUS
 62
     7
 10
89.28546210756174
 20
44.79067652688902
 30
0.0
 11
89.41224162141894
 21
45.08695473862051
 31
0.0
  0
LINE
  5
8F
  8
EL-LFB45702C-25N5
  6
CONTINUOUS
 62
     7
 10
89.11596340968747
 20
44.57863089977191
 30
0.0
 11
89.28546210756174
 21
44.79067652688902
 31
0.0
  0
LINE
  5
90
  8
EL-LFB45702C-25N5
  6
CONTINUOUS
 62
     7
 10
88.86240438197306
 20
44.45167913114049
 30
0.0
 11
89.11596340968747
 21
44.57863089977191
 31
0.0
  0
LINE
  5
91
  8
EL-LFB45702C-25N5
  6
CONTINUOUS
 62
     7
 10
88.60884535425866
 20
44.40895994712339
 30
0.0
 11
88.86240438197306
 21
44.45167913114049
 31
0.0
  0
LINE
  5
92
  8
EL-LFB45702C-25N5
  6
CONTINUOUS
 62
     7
 10
88.39662747236726
 20
44.4943983151576
 30
0.0
 11
88.60884535425866
 21
44.40895994712339
 31
0.0
  0
LINE
  5
93
  8
EL-LFB45702C-25N5
  6
CONTINUOUS
 62
     7
 10
88.26984795851006
 20
44.57863089977191
 30
0.0
 11
88.39662747236726
 21
44.4943983151576
 31
0.0
  0
LINE
  5
94
  8
EL-LFB45702C-25N5
  6
CONTINUOUS
 62
     7
 10
56.81612617817905
 20
63.24794784388931
 30
0.0
 11
88.56612617024155
 21
44.40895994712339
 31
0.0
  0
LINE
  5
95
  8
EL-LFB45702C-25N5
  6
CONTINUOUS
 62
     7
 10
89.28546210756174
 20
45.63696423284071
 30
0.0
 11
58.72057496242515
 21
63.71251897007522
 31
0.0
  0
LINE
  5
96
  8
EL-LFB45702C-25N5
  6
CONTINUOUS
 62
     7
 10
95.89039917188275
 20
47.11818303672381
 30
0.0
 11
96.60973510920284
 21
46.73801674992652
 31
0.0
  0
LINE
  5
97
  8
EL-LFB45702C-25N5
  6
CONTINUOUS
 62
     7
 10
96.10123901558005
 20
46.9485120840753
 30
0.0
 11
95.89039917188275
 21
47.11818303672381
 31
0.0
  0
LINE
  5
98
  8
EL-LFB45702C-25N5
  6
CONTINUOUS
 62
     7
 10
96.18667738361417
 20
46.69529756590941
 30
0.0
 11
96.10123901558005
 21
46.9485120840753
 31
0.0
  0
LINE
  5
99
  8
EL-LFB45702C-25N5
  6
CONTINUOUS
 62
     7
 10
96.18667738361417
 20
46.39901935417791
 30
0.0
 11
96.18667738361417
 21
46.69529756590941
 31
0.0
  0
LINE
  5
9A
  8
EL-LFB45702C-25N5
  6
CONTINUOUS
 62
     7
 10
96.05851983156295
 20
46.10256888767221
 30
0.0
 11
96.18667738361417
 21
46.39901935417791
 31
0.0
  0
LINE
  5
9B
  8
EL-LFB45702C-25N5
  6
CONTINUOUS
 62
     7
 10
95.59412096015124
 20
45.72085230790651
 30
0.0
 11
96.05851983156295
 21
46.10256888767221
 31
0.0
  0
LINE
  5
9C
  8
EL-LFB45702C-25N5
  6
CONTINUOUS
 62
     7
 10
95.33918389424275
 20
45.67968341685781
 30
0.0
 11
95.59412096015124
 21
45.72085230790651
 31
0.0
  0
LINE
  5
9D
  8
EL-LFB45702C-25N5
  6
CONTINUOUS
 62
     7
 10
95.08562486652836
 20
45.76357149192361
 30
0.0
 11
95.33918389424275
 21
45.67968341685781
 31
0.0
  0
LINE
  5
9E
  8
EL-LFB45702C-25N5
  6
CONTINUOUS
 62
     7
 10
95.80496080384853
 20
45.34068602110921
 30
0.0
 11
95.08562486652836
 21
45.76357149192361
 31
0.0
  0
LINE
  5
9F
  8
EL-LFB45702C-25N5
  6
CONTINUOUS
 62
     7
 10
96.82057495290015
 20
46.52562661326081
 30
0.0
 11
96.60973510920284
 21
46.73801674992652
 31
0.0
  0
LINE
  5
A0
  8
EL-LFB45702C-25N5
  6
CONTINUOUS
 62
     7
 10
96.86329413691725
 20
46.27189533077221
 30
0.0
 11
96.82057495290015
 21
46.52562661326081
 31
0.0
  0
LINE
  5
A1
  8
EL-LFB45702C-25N5
  6
CONTINUOUS
 62
     7
 10
96.86329413691725
 20
45.97561711904071
 30
0.0
 11
96.86329413691725
 21
46.27189533077221
 31
0.0
  0
LINE
  5
A2
  8
EL-LFB45702C-25N5
  6
CONTINUOUS
 62
     7
 10
96.73651462306005
 20
45.72085230790651
 30
0.0
 11
96.86329413691725
 21
45.97561711904071
 31
0.0
  0
LINE
  5
A3
  8
EL-LFB45702C-25N5
  6
CONTINUOUS
 62
     7
 10
96.56701592518573
 20
45.46729328019211
 30
0.0
 11
96.73651462306005
 21
45.72085230790651
 31
0.0
  0
LINE
  5
A4
  8
EL-LFB45702C-25N5
  6
CONTINUOUS
 62
     7
 10
96.31345689747137
 20
45.2979668370921
 30
0.0
 11
96.56701592518573
 21
45.46729328019211
 31
0.0
  0
LINE
  5
A5
  8
EL-LFB45702C-25N5
  6
CONTINUOUS
 62
     7
 10
96.01717868573995
 20
45.25628118172051
 30
0.0
 11
96.31345689747137
 21
45.2979668370921
 31
0.0
  0
LINE
  5
A6
  8
EL-LFB45702C-25N5
  6
CONTINUOUS
 62
     7
 10
95.80496080384853
 20
45.34068602110921
 30
0.0
 11
96.01717868573995
 21
45.25628118172051
 31
0.0
  0
LINE
  5
A7
  8
EL-LFB45702C-25N5
  6
CONTINUOUS
 62
     7
 10
96.05851983156295
 20
45.25628118172051
 30
0.0
 11
95.80496080384853
 21
45.34051376633491
 31
0.0
  0
LINE
  5
A8
  8
EL-LFB45702C-25N5
  6
CONTINUOUS
 62
     7
 10
96.31345689747137
 20
45.2979668370921
 30
0.0
 11
96.05851983156295
 21
45.25628118172051
 31
0.0
  0
LINE
  5
A9
  8
EL-LFB45702C-25N5
  6
CONTINUOUS
 62
     7
 10
96.65245429321995
 20
45.51001246420921
 30
0.0
 11
96.31345689747137
 21
45.2979668370921
 31
0.0
  0
LINE
  5
AA
  8
EL-LFB45702C-25N5
  6
CONTINUOUS
 62
     7
 10
96.86329413691725
 20
45.89017875100652
 30
0.0
 11
96.65245429321995
 21
45.51001246420921
 31
0.0
  0
LINE
  5
AB
  8
EL-LFB45702C-25N5
  6
CONTINUOUS
 62
     7
 10
96.90601332093433
 20
46.22934840152941
 30
0.0
 11
96.86329413691725
 21
45.89017875100652
 31
0.0
  0
LINE
  5
AC
  8
EL-LFB45702C-25N5
  6
CONTINUOUS
 62
     7
 10
96.82057495290015
 20
46.48290742924381
 30
0.0
 11
96.90601332093433
 21
46.22934840152941
 31
0.0
  0
LINE
  5
AD
  8
EL-LFB45702C-25N5
  6
CONTINUOUS
 62
     7
 10
96.60973510920284
 20
46.73801674992652
 30
0.0
 11
96.82057495290015
 21
46.48290742924381
 31
0.0
  0
LINE
  5
AE
  8
EL-LFB45702C-25N5
  6
CONTINUOUS
 62
     7
 10
95.89039917188275
 20
47.07701414567511
 30
0.0
 11
95.72090047400843
 21
47.11818303672381
 31
0.0
  0
LINE
  5
AF
  8
EL-LFB45702C-25N5
  6
CONTINUOUS
 62
     7
 10
96.05851983156295
 20
46.90734319302661
 30
0.0
 11
95.89039917188275
 21
47.07701414567511
 31
0.0
  0
LINE
  5
B0
  8
EL-LFB45702C-25N5
  6
CONTINUOUS
 62
     7
 10
96.14395819959714
 20
46.39901935417791
 30
0.0
 11
96.05851983156295
 21
46.90734319302661
 31
0.0
  0
LINE
  5
B1
  8
EL-LFB45702C-25N5
  6
CONTINUOUS
 62
     7
 10
95.84767998786565
 20
45.9328979350236
 30
0.0
 11
96.14395819959714
 21
46.39901935417791
 31
0.0
  0
LINE
  5
B2
  8
EL-LFB45702C-25N5
  6
CONTINUOUS
 62
     7
 10
95.59412096015124
 20
45.76357149192361
 30
0.0
 11
95.84767998786565
 21
45.9328979350236
 31
0.0
  0
LINE
  5
B3
  8
EL-LFB45702C-25N5
  6
CONTINUOUS
 62
     7
 10
95.12834405054546
 20
45.80629067594072
 30
0.0
 11
95.59412096015124
 21
45.76357149192361
 31
0.0
  0
LINE
  5
B4
  8
EL-LFB45702C-25N5
  6
CONTINUOUS
 62
     7
 10
95.00018649849414
 20
45.9328979350236
 30
0.0
 11
95.12834405054546
 21
45.80629067594072
 31
0.0
  0
LINE
  5
B5
  8
EL-LFB45702C-25N5
  6
CONTINUOUS
 62
     7
 10
94.87340698463696
 20
45.97561711904071
 30
0.0
 11
95.08562486652836
 21
45.76357149192361
 31
0.0
  0
LINE
  5
B6
  8
EL-LFB45702C-25N5
  6
CONTINUOUS
 62
     7
 10
95.84767998786565
 20
47.16090222074091
 30
0.0
 11
95.59412096015124
 21
47.20362140475801
 31
0.0
  0
LINE
  5
B7
  8
EL-LFB45702C-25N5
  6
CONTINUOUS
 62
     7
 10
95.89039917188275
 20
47.11818303672381
 30
0.0
 11
95.84767998786565
 21
47.16090222074091
 31
0.0
  0
LINE
  5
B8
  8
EL-LFB45702C-25N5
  6
CONTINUOUS
 62
     7
 10
63.54646471816316
 20
64.56001245944671
 30
0.0
 11
95.29646471022566
 21
45.76357149192361
 31
0.0
  0
LINE
  5
B9
  8
EL-LFB45702C-25N5
  6
CONTINUOUS
 62
     7
 10
96.01717868573995
 20
46.99123126809241
 30
0.0
 11
65.45194703105483
 21
65.0686808078439
 31
0.0
  0
LINE
  5
BA
  8
EL-LFB45702C-25N5
  6
CONTINUOUS
 62
     7
 10
63.75868260005453
 20
64.60273164346381
 30
0.0
 11
64.01224162776894
 21
64.77085230314401
 31
0.0
  0
LINE
  5
BB
  8
EL-LFB45702C-25N5
  6
CONTINUOUS
 62
     7
 10
63.46240438832306
 20
64.56001245944671
 30
0.0
 11
63.75868260005453
 21
64.60273164346381
 31
0.0
  0
LINE
  5
BC
  8
EL-LFB45702C-25N5
  6
CONTINUOUS
 62
     7
 10
63.20884536060866
 20
64.64390053451251
 30
0.0
 11
63.46240438832306
 21
64.56001245944671
 31
0.0
  0
LINE
  5
BD
  8
EL-LFB45702C-25N5
  6
CONTINUOUS
 62
     7
 10
61.55795560407694
 20
67.43856199214721
 30
0.0
 11
61.55795560407694
 21
67.31195473306431
 31
0.0
  0
LINE
  5
BE
  8
EL-LFB45702C-25N5
  6
CONTINUOUS
 62
     7
 10
61.55795560407694
 20
67.43856199214721
 30
0.0
 11
61.64201593391704
 21
67.48128117616432
 31
0.0
  0
LINE
  5
BF
  8
EL-LFB45702C-25N5
  6
CONTINUOUS
 62
     7
 10
61.47251723604275
 20
67.39601506290441
 30
0.0
 11
61.47251723604275
 21
67.31195473306431
 31
0.0
  0
LINE
  5
C0
  8
EL-LFB45702C-25N5
  6
CONTINUOUS
 62
     7
 10
61.51523642005984
 20
67.43856199214721
 30
0.0
 11
61.47251723604275
 21
67.43856199214721
 31
0.0
  0
LINE
  5
C1
  8
EL-LFB45702C-25N5
  6
CONTINUOUS
 62
     7
 10
63.12340699257445
 20
67.7777316426701
 30
0.0
 11
63.20884536060866
 21
67.7777316426701
 31
0.0
  0
LINE
  5
C2
  8
EL-LFB45702C-25N5
  6
CONTINUOUS
 62
     7
 10
63.29290569044876
 20
67.7777316426701
 30
0.0
 11
63.25018650643165
 21
67.8189005337188
 31
0.0
  0
LINE
  5
C3
  8
EL-LFB45702C-25N5
  6
CONTINUOUS
 62
     7
 10
63.20884536060866
 20
67.7777316426701
 30
0.0
 11
63.20884536060866
 21
67.64957409061871
 31
0.0
  0
LINE
  5
C4
  8
EL-LFB45702C-25N5
  6
CONTINUOUS
 62
     7
 10
63.50512357234015
 20
67.86196422728442
 30
0.0
 11
63.58918390218025
 21
67.8189005337188
 31
0.0
  0
LINE
  5
C5
  8
EL-LFB45702C-25N5
  6
CONTINUOUS
 62
     7
 10
63.37834405848296
 20
67.8189005337188
 30
0.0
 11
63.50512357234015
 21
67.7350124586529
 31
0.0
  0
LINE
  5
C6
  8
EL-LFB45702C-25N5
  6
CONTINUOUS
 62
     7
 10
63.20884536060866
 20
67.7777316426701
 30
0.0
 11
63.37834405848296
 21
67.8189005337188
 31
0.0
  0
LINE
  5
C7
  8
EL-LFB45702C-25N5
  6
CONTINUOUS
 62
     7
 10
61.47251723604275
 20
67.39601506290441
 30
0.0
 11
61.55795560407694
 21
67.43856199214721
 31
0.0
  0
LINE
  5
C8
  8
EL-LFB45702C-25N5
  6
CONTINUOUS
 62
     7
 10
57.36596341762496
 20
66.59124075755001
 30
0.0
 11
57.49412096967624
 21
66.63395994156711
 31
0.0
  0
LINE
  5
C9
  8
EL-LFB45702C-25N5
  6
CONTINUOUS
 62
     7
 10
57.49412096967624
 20
66.63395994156711
 30
0.0
 11
58.04395820912206
 21
66.76056720065002
 31
0.0
  0
LINE
  5
CA
  8
EL-LFB45702C-25N5
  6
CONTINUOUS
 62
     7
 10
57.36596341762496
 20
66.63395994156711
 30
0.0
 11
57.36596341762496
 21
66.59124075755001
 31
0.0
  0
LINE
  5
CB
  8
EL-LFB45702C-25N5
  6
CONTINUOUS
 62
     7
 10
57.36596341762496
 20
66.59124075755001
 30
0.0
 11
57.32462227180194
 21
66.63395994156711
 31
0.0
  0
LINE
  5
CC
  8
EL-LFB45702C-25N5
  6
CONTINUOUS
 62
     7
 10
64.14039917982025
 20
67.8189005337188
 30
0.0
 11
64.09767999580315
 21
67.8189005337188
 31
0.0
  0
LINE
  5
CD
  8
EL-LFB45702C-25N5
  6
CONTINUOUS
 62
     7
 10
64.22445950966035
 20
68.07400985440151
 30
0.0
 11
64.22445950966035
 21
68.03129067038451
 31
0.0
  0
LINE
  5
CE
  8
EL-LFB45702C-25N5
  6
CONTINUOUS
 62
     7
 10
59.05957235817375
 20
66.88751896928152
 30
0.0
 11
58.46701593471073
 21
66.76056720065002
 31
0.0
  0
LINE
  5
CF
  8
EL-LFB45702C-25N5
  6
CONTINUOUS
 62
     7
 10
58.46701593471073
 20
66.76056720065002
 30
0.0
 11
58.29751723683646
 21
66.84635007823282
 31
0.0
  0
LINE
  5
D0
  8
EL-LFB45702C-25N5
  6
CONTINUOUS
 62
     7
 10
58.04395820912206
 20
66.76056720065002
 30
0.0
 11
58.04395820912206
 21
66.71939830960132
 31
0.0
  0
LINE
  5
D1
  8
EL-LFB45702C-25N5
  6
CONTINUOUS
 62
     7
 10
58.34023642085354
 20
66.76056720065002
 30
0.0
 11
58.34023642085354
 21
66.71939830960132
 31
0.0
  0
LINE
  5
D2
  8
EL-LFB45702C-25N5
  6
CONTINUOUS
 62
     7
 10
58.08667739313917
 20
66.71939830960132
 30
0.0
 11
58.34023642085354
 21
66.76056720065002
 31
0.0
  0
LINE
  5
D3
  8
EL-LFB45702C-25N5
  6
CONTINUOUS
 62
     7
 10
60.28740438911675
 20
67.14228378041571
 30
0.0
 11
60.37146471895685
 21
67.14228378041571
 31
0.0
  0
LINE
  5
D4
  8
EL-LFB45702C-25N5
  6
CONTINUOUS
 62
     7
 10
58.08667739313917
 20
66.76056720065002
 30
0.0
 11
58.08667739313917
 21
66.71939830960132
 31
0.0
  0
LINE
  5
D5
  8
EL-LFB45702C-25N5
  6
CONTINUOUS
 62
     7
 10
64.14039917982025
 20
68.28484969809881
 30
0.0
 11
63.88546211391174
 21
67.9458523023503
 31
0.0
  0
LINE
  5
D6
  8
EL-LFB45702C-25N5
  6
CONTINUOUS
 62
     7
 10
64.09767999580315
 20
67.86196422728442
 30
0.0
 11
64.01224162776894
 21
67.86196422728442
 31
0.0
  0
LINE
  5
D7
  8
EL-LFB45702C-25N5
  6
CONTINUOUS
 62
     7
 10
64.09767999580315
 20
67.86196422728442
 30
0.0
 11
64.14039917982025
 21
67.8189005337188
 31
0.0
  0
LINE
  5
D8
  8
EL-LFB45702C-25N5
  6
CONTINUOUS
 62
     7
 10
64.01224162776894
 20
67.86196422728442
 30
0.0
 11
63.88546211391174
 21
67.9458523023503
 31
0.0
  0
LINE
  5
D9
  8
EL-LFB45702C-25N5
  6
CONTINUOUS
 62
     7
 10
63.67462227021444
 20
67.86196422728442
 30
0.0
 11
63.67462227021444
 21
67.8189005337188
 31
0.0
  0
LINE
  5
DA
  8
EL-LFB45702C-25N5
  6
CONTINUOUS
 62
     7
 10
63.88546211391174
 20
67.9458523023503
 30
0.0
 11
64.01224162776894
 21
67.8189005337188
 31
0.0
  0
LINE
  5
DB
  8
EL-LFB45702C-25N5
  6
CONTINUOUS
 62
     7
 10
63.58918390218025
 20
67.8189005337188
 30
0.0
 11
63.58918390218025
 21
67.86196422728442
 31
0.0
  0
LINE
  5
DC
  8
EL-LFB45702C-25N5
  6
CONTINUOUS
 62
     7
 10
60.62640178486536
 20
67.18534747398131
 30
0.0
 11
60.49962227100816
 21
67.26923554904721
 31
0.0
  0
LINE
  5
DD
  8
EL-LFB45702C-25N5
  6
CONTINUOUS
 62
     7
 10
61.47251723604275
 20
67.39601506290441
 30
0.0
 11
61.47251723604275
 21
67.43856199214721
 31
0.0
  0
LINE
  5
DE
  8
EL-LFB45702C-25N5
  6
CONTINUOUS
 62
     7
 10
56.85884536219616
 20
66.46463349846711
 30
0.0
 11
56.73206584833895
 21
66.46463349846711
 31
0.0
  0
LINE
  5
DF
  8
EL-LFB45702C-25N5
  6
CONTINUOUS
 62
     7
 10
57.32462227180194
 20
66.50735268248421
 30
0.0
 11
57.36596341762496
 21
66.50735268248421
 31
0.0
  0
LINE
  5
E0
  8
EL-LFB45702C-25N5
  6
CONTINUOUS
 62
     7
 10
56.85884536219616
 20
66.54989961172701
 30
0.0
 11
56.85884536219616
 21
66.46463349846711
 31
0.0
  0
LINE
  5
E1
  8
EL-LFB45702C-25N5
  6
CONTINUOUS
 62
     7
 10
60.71046211470546
 20
67.18534747398131
 30
0.0
 11
60.66912096888245
 21
67.18534747398131
 31
0.0
  0
LINE
  5
E2
  8
EL-LFB45702C-25N5
  6
CONTINUOUS
 62
     7
 10
59.99112617738535
 20
67.0568454123815
 30
0.0
 11
59.86434666352816
 21
67.14228378041571
 31
0.0
  0
LINE
  5
E3
  8
EL-LFB45702C-25N5
  6
CONTINUOUS
 62
     7
 10
59.94840699336826
 20
67.14228378041571
 30
0.0
 11
60.07518650722545
 21
67.09956459639861
 31
0.0
  0
LINE
  5
E4
  8
EL-LFB45702C-25N5
  6
CONTINUOUS
 62
     7
 10
59.99112617738535
 20
67.0568454123815
 30
0.0
 11
60.24468520509974
 21
67.14228378041571
 31
0.0
  0
LINE
  5
E5
  8
EL-LFB45702C-25N5
  6
CONTINUOUS
 62
     7
 10
60.75318129872255
 20
67.26923554904721
 30
0.0
 11
60.87996081257976
 21
67.31195473306431
 31
0.0
  0
LINE
  5
E6
  8
EL-LFB45702C-25N5
  6
CONTINUOUS
 62
     7
 10
60.75318129872255
 20
67.26923554904721
 30
0.0
 11
60.71046211470546
 21
67.31195473306431
 31
0.0
  0
LINE
  5
E7
  8
EL-LFB45702C-25N5
  6
CONTINUOUS
 62
     7
 10
60.75318129872255
 20
67.31195473306431
 30
0.0
 11
60.75318129872255
 21
67.26923554904721
 31
0.0
  0
LINE
  5
E8
  8
EL-LFB45702C-25N5
  6
CONTINUOUS
 62
     7
 10
60.83724162856265
 20
67.31195473306431
 30
0.0
 11
60.87996081257976
 21
67.31195473306431
 31
0.0
  0
LINE
  5
E9
  8
EL-LFB45702C-25N5
  6
CONTINUOUS
 62
     7
 10
60.28740438911675
 20
67.22651636503011
 30
0.0
 11
60.28740438911675
 21
67.14228378041571
 31
0.0
  0
LINE
  5
EA
  8
EL-LFB45702C-25N5
  6
CONTINUOUS
 62
     7
 10
60.24468520509974
 20
67.14228378041571
 30
0.0
 11
60.24468520509974
 21
67.18534747398131
 31
0.0
  0
LINE
  5
EB
  8
EL-LFB45702C-25N5
  6
CONTINUOUS
 62
     7
 10
61.38845690620265
 20
67.39601506290441
 30
0.0
 11
61.38845690620265
 21
67.43856199214721
 31
0.0
  0
LINE
  5
EC
  8
EL-LFB45702C-25N5
  6
CONTINUOUS
 62
     7
 10
61.38845690620265
 20
67.39601506290441
 30
0.0
 11
60.83724162856265
 21
67.31195473306431
 31
0.0
  0
LINE
  5
ED
  8
EL-LFB45702C-25N5
  6
CONTINUOUS
 62
     7
 10
60.66912096888245
 20
67.18534747398131
 30
0.0
 11
60.54096341683115
 21
67.26923554904721
 31
0.0
  0
LINE
  5
EE
  8
EL-LFB45702C-25N5
  6
CONTINUOUS
 62
     7
 10
59.05957235817375
 20
66.88751896928152
 30
0.0
 11
58.93279284431654
 21
66.9729573373157
 31
0.0
  0
LINE
  5
EF
  8
EL-LFB45702C-25N5
  6
CONTINUOUS
 62
     7
 10
58.42429675069364
 20
66.80363089421571
 30
0.0
 11
58.34023642085354
 21
66.84635007823282
 31
0.0
  0
LINE
  5
F0
  8
EL-LFB45702C-25N5
  6
CONTINUOUS
 62
     7
 10
64.26717869367745
 20
68.15789792946741
 30
0.0
 11
65.62179023847766
 21
68.41162921195601
 31
0.0
  0
LINE
  5
F1
  8
EL-LFB45702C-25N5
  6
CONTINUOUS
 62
     7
 10
65.57907105446054
 20
68.5396145092331
 30
0.0
 11
65.53635187044345
 21
68.5396145092331
 31
0.0
  0
LINE
  5
F2
  8
EL-LFB45702C-25N5
  6
CONTINUOUS
 62
     7
 10
65.53635187044345
 20
68.5396145092331
 30
0.0
 11
65.36685317256915
 21
68.5396145092331
 31
0.0
  0
LINE
  5
F3
  8
EL-LFB45702C-25N5
  6
CONTINUOUS
 62
     7
 10
65.62179023847766
 20
68.41162921195601
 30
0.0
 11
64.30851983950045
 21
68.15789792946741
 31
0.0
  0
LINE
  5
F4
  8
EL-LFB45702C-25N5
  6
CONTINUOUS
 62
     7
 10
64.47801853737467
 20
68.41162921195601
 30
0.0
 11
64.26717869367745
 21
68.28484969809881
 31
0.0
  0
LINE
  5
F5
  8
EL-LFB45702C-25N5
  6
CONTINUOUS
 62
     7
 10
64.26717869367745
 20
68.37028806613301
 30
0.0
 11
64.47801853737467
 21
68.41162921195601
 31
0.0
  0
LINE
  5
F6
  8
EL-LFB45702C-25N5
  6
CONTINUOUS
 62
     7
 10
64.26717869367745
 20
68.28484969809881
 30
0.0
 11
64.22445950966035
 21
68.28484969809881
 31
0.0
  0
LINE
  5
F7
  8
EL-LFB45702C-25N5
  6
CONTINUOUS
 62
     7
 10
64.26717869367745
 20
68.28484969809881
 30
0.0
 11
64.26717869367745
 21
68.37028806613301
 31
0.0
  0
LINE
  5
F8
  8
EL-LFB45702C-25N5
  6
CONTINUOUS
 62
     7
 10
65.36685317256915
 20
68.5396145092331
 30
0.0
 11
65.36685317256915
 21
68.58130016460461
 31
0.0
  0
LINE
  5
F9
  8
EL-LFB45702C-25N5
  6
CONTINUOUS
 62
     7
 10
67.77979805043815
 20
65.2366292127498
 30
0.0
 11
67.94929674831245
 21
65.10984969889262
 31
0.0
  0
LINE
  5
FA
  8
EL-LFB45702C-25N5
  6
CONTINUOUS
 62
     7
 10
67.94929674831245
 20
65.0686808078439
 30
0.0
 11
67.82251723445525
 21
65.1952880669268
 31
0.0
  0
LINE
  5
FB
  8
EL-LFB45702C-25N5
  6
CONTINUOUS
 62
     7
 10
67.82251723445525
 20
65.2366292127498
 30
0.0
 11
67.69573772059805
 21
65.2793483967669
 31
0.0
  0
LINE
  5
FC
  8
EL-LFB45702C-25N5
  6
CONTINUOUS
 62
     7
 10
67.35674032484947
 20
65.66106497653261
 30
0.0
 11
67.31539917902644
 21
65.66106497653261
 31
0.0
  0
LINE
  5
FD
  8
EL-LFB45702C-25N5
  6
CONTINUOUS
 62
     7
 10
67.31539917902644
 20
65.66106497653261
 30
0.0
 11
67.35674032484947
 21
65.70223386758131
 31
0.0
  0
LINE
  5
FE
  8
EL-LFB45702C-25N5
  6
CONTINUOUS
 62
     7
 10
67.31539917902644
 20
65.66106497653261
 30
0.0
 11
67.39945950886654
 21
65.44901934941541
 31
0.0
  0
LINE
  5
FF
  8
EL-LFB45702C-25N5
  6
CONTINUOUS
 62
     7
 10
67.39945950886654
 20
65.44901934941541
 30
0.0
 11
67.35674032484947
 21
65.4063001653983
 31
0.0
  0
LINE
  5
100
  8
EL-LFB45702C-25N5
  6
CONTINUOUS
 62
     7
 10
67.31539917902644
 20
65.44901934941541
 30
0.0
 11
67.27267999500937
 21
65.66089272175832
 31
0.0
  0
LINE
  5
101
  8
EL-LFB45702C-25N5
  6
CONTINUOUS
 62
     7
 10
68.24557496004395
 20
64.89900985519532
 30
0.0
 11
67.73845690461515
 21
67.31195473306431
 31
0.0
  0
LINE
  5
102
  8
EL-LFB45702C-25N5
  6
CONTINUOUS
 62
     7
 10
66.38384535981493
 20
66.0412312633299
 30
0.0
 11
66.46790568965507
 21
65.99851207931282
 31
0.0
  0
LINE
  5
103
  8
EL-LFB45702C-25N5
  6
CONTINUOUS
 62
     7
 10
66.93368259926076
 20
65.957343188264
 30
0.0
 11
67.01912096729495
 21
65.91462400424702
 31
0.0
  0
LINE
  5
104
  8
EL-LFB45702C-25N5
  6
CONTINUOUS
 62
     7
 10
66.42518650563795
 20
65.957343188264
 30
0.0
 11
66.38384535981493
 21
65.99851207931282
 31
0.0
  0
LINE
  5
105
  8
EL-LFB45702C-25N5
  6
CONTINUOUS
 62
     7
 10
67.65301853658093
 20
65.4063001653983
 30
0.0
 11
67.18724162697515
 21
67.64957409061871
 31
0.0
  0
LINE
  5
106
  8
EL-LFB45702C-25N5
  6
CONTINUOUS
 62
     7
 10
67.48351983870667
 20
67.43856199214721
 30
0.0
 11
67.94929674831245
 21
65.1952880669268
 31
0.0
  0
LINE
  5
107
  8
EL-LFB45702C-25N5
  6
CONTINUOUS
 62
     7
 10
68.03473511634665
 20
65.1952880669268
 30
0.0
 11
67.56895820674083
 21
67.43856199214721
 31
0.0
  0
LINE
  5
108
  8
EL-LFB45702C-25N5
  6
CONTINUOUS
 62
     7
 10
67.18724162697515
 20
67.64957409061871
 30
0.0
 11
67.65301853658093
 21
65.44901934941541
 31
0.0
  0
LINE
  5
109
  8
EL-LFB45702C-25N5
  6
CONTINUOUS
 62
     7
 10
67.06046211311796
 20
65.78801674516401
 30
0.0
 11
67.31539917902644
 21
65.66089272175832
 31
0.0
  0
LINE
  5
10A
  8
EL-LFB45702C-25N5
  6
CONTINUOUS
 62
     7
 10
67.82251723445525
 20
65.2366292127498
 30
0.0
 11
67.39945950886654
 21
67.35329587888731
 31
0.0
  0
LINE
  5
10B
  8
EL-LFB45702C-25N5
  6
CONTINUOUS
 62
     7
 10
67.31539917902644
 20
67.39601506290441
 30
0.0
 11
67.48351983870667
 21
67.43856199214721
 31
0.0
  0
LINE
  5
10C
  8
EL-LFB45702C-25N5
  6
CONTINUOUS
 62
     7
 10
67.52623902272374
 20
67.43856199214721
 30
0.0
 11
67.27267999500937
 21
67.39601506290441
 31
0.0
  0
LINE
  5
10D
  8
EL-LFB45702C-25N5
  6
CONTINUOUS
 62
     7
 10
65.66313138430064
 20
68.24368080705011
 30
0.0
 11
64.39395820753457
 21
67.9885714863673
 31
0.0
  0
LINE
  5
10E
  8
EL-LFB45702C-25N5
  6
CONTINUOUS
 62
     7
 10
64.60479805123187
 20
67.86196422728442
 30
0.0
 11
65.66313138430064
 21
68.07400985440151
 31
0.0
  0
LINE
  5
10F
  8
EL-LFB45702C-25N5
  6
CONTINUOUS
 62
     7
 10
64.56345690540884
 20
67.86196422728442
 30
0.0
 11
64.39395820753457
 21
67.9885714863673
 31
0.0
  0
LINE
  5
110
  8
EL-LFB45702C-25N5
  6
CONTINUOUS
 62
     7
 10
65.66313138430064
 20
68.11517874545031
 30
0.0
 11
64.56345690540884
 21
67.86196422728442
 31
0.0
  0
LINE
  5
111
  8
EL-LFB45702C-25N5
  6
CONTINUOUS
 62
     7
 10
66.93368259926076
 20
65.99851207931282
 30
0.0
 11
66.97640178327786
 21
65.99851207931282
 31
0.0
  0
LINE
  5
112
  8
EL-LFB45702C-25N5
  6
CONTINUOUS
 62
     7
 10
67.35674032484947
 20
65.78801674516401
 30
0.0
 11
67.39945950886654
 21
65.74529756114691
 31
0.0
  0
LINE
  5
113
  8
EL-LFB45702C-25N5
  6
CONTINUOUS
 62
     7
 10
67.35674032484947
 20
65.70223386758131
 30
0.0
 11
67.14590048115217
 21
65.82918563621271
 31
0.0
  0
LINE
  5
114
  8
EL-LFB45702C-25N5
  6
CONTINUOUS
 62
     7
 10
67.31539917902644
 20
65.82918563621271
 30
0.0
 11
67.06046211311796
 21
65.99851207931282
 31
0.0
  0
LINE
  5
115
  8
EL-LFB45702C-25N5
  6
CONTINUOUS
 62
     7
 10
67.01912096729495
 20
65.99851207931282
 30
0.0
 11
66.97640178327786
 21
65.99851207931282
 31
0.0
  0
LINE
  5
116
  8
EL-LFB45702C-25N5
  6
CONTINUOUS
 62
     7
 10
67.06046211311796
 20
65.957343188264
 30
0.0
 11
67.35674032484947
 21
65.78801674516401
 31
0.0
  0
LINE
  5
117
  8
EL-LFB45702C-25N5
  6
CONTINUOUS
 62
     7
 10
67.10318129713505
 20
65.87190482022982
 30
0.0
 11
67.06046211311796
 21
65.87190482022982
 31
0.0
  0
LINE
  5
118
  8
EL-LFB45702C-25N5
  6
CONTINUOUS
 62
     7
 10
67.06046211311796
 20
65.87190482022982
 30
0.0
 11
67.01912096729495
 21
65.957343188264
 31
0.0
  0
LINE
  5
119
  8
EL-LFB45702C-25N5
  6
CONTINUOUS
 62
     7
 10
67.01912096729495
 20
65.91462400424702
 30
0.0
 11
67.01912096729495
 21
65.957343188264
 31
0.0
  0
LINE
  5
11A
  8
EL-LFB45702C-25N5
  6
CONTINUOUS
 62
     7
 10
67.06046211311796
 20
65.78801674516401
 30
0.0
 11
67.14590048115217
 21
65.82918563621271
 31
0.0
  0
LINE
  5
11B
  8
EL-LFB45702C-25N5
  6
CONTINUOUS
 62
     7
 10
67.06046211311796
 20
65.957343188264
 30
0.0
 11
67.10318129713505
 21
65.87190482022982
 31
0.0
  0
LINE
  5
11C
  8
EL-LFB45702C-25N5
  6
CONTINUOUS
 62
     7
 10
66.97640178327786
 20
65.70223386758131
 30
0.0
 11
66.93368259926076
 21
66.0412312633299
 31
0.0
  0
LINE
  5
11D
  8
EL-LFB45702C-25N5
  6
CONTINUOUS
 62
     7
 10
66.93368259926076
 20
65.99851207931282
 30
0.0
 11
66.89096341524366
 21
65.99851207931282
 31
0.0
  0
LINE
  5
11E
  8
EL-LFB45702C-25N5
  6
CONTINUOUS
 62
     7
 10
64.43667739155167
 20
67.9046834113015
 30
0.0
 11
64.26717869367745
 21
67.9885714863673
 31
0.0
  0
LINE
  5
11F
  8
EL-LFB45702C-25N5
  6
CONTINUOUS
 62
     7
 10
65.32551202674615
 20
67.0568454123815
 30
0.0
 11
65.87534926619206
 21
67.18534747398131
 31
0.0
  0
LINE
  5
120
  8
EL-LFB45702C-25N5
  6
CONTINUOUS
 62
     7
 10
65.91806845020915
 20
66.88751896928152
 30
0.0
 11
65.66313138430064
 21
66.84635007823282
 31
0.0
  0
LINE
  5
121
  8
EL-LFB45702C-25N5
  6
CONTINUOUS
 62
     7
 10
65.62179023847766
 20
66.88751896928152
 30
0.0
 11
65.91806845020915
 21
66.9729573373157
 31
0.0
  0
LINE
  5
122
  8
EL-LFB45702C-25N5
  6
CONTINUOUS
 62
     7
 10
65.87534926619206
 20
67.01567652133281
 30
0.0
 11
65.49501072462044
 21
66.9729573373157
 31
0.0
  0
LINE
  5
123
  8
EL-LFB45702C-25N5
  6
CONTINUOUS
 62
     7
 10
65.83263008217496
 20
67.39601506290441
 30
0.0
 11
65.11329414485475
 21
67.22651636503011
 31
0.0
  0
LINE
  5
124
  8
EL-LFB45702C-25N5
  6
CONTINUOUS
 62
     7
 10
65.11329414485475
 20
67.18534747398131
 30
0.0
 11
65.83263008217496
 21
67.35329587888731
 31
0.0
  0
LINE
  5
125
  8
EL-LFB45702C-25N5
  6
CONTINUOUS
 62
     7
 10
65.53635187044345
 20
68.58130016460461
 30
0.0
 11
65.36685317256915
 21
68.58130016460461
 31
0.0
  0
LINE
  5
126
  8
EL-LFB45702C-25N5
  6
CONTINUOUS
 62
     7
 10
65.62179023847766
 20
68.58130016460461
 30
0.0
 11
66.17162747792356
 21
65.91462400424702
 31
0.0
  0
LINE
  5
127
  8
EL-LFB45702C-25N5
  6
CONTINUOUS
 62
     7
 10
66.25706584595775
 20
66.25362139999551
 30
0.0
 11
65.79128893635196
 21
68.49689532521602
 31
0.0
  0
LINE
  5
128
  8
EL-LFB45702C-25N5
  6
CONTINUOUS
 62
     7
 10
66.21434666194067
 20
68.24368080705011
 30
0.0
 11
66.63740438752934
 21
66.0412312633299
 31
0.0
  0
LINE
  5
129
  8
EL-LFB45702C-25N5
  6
CONTINUOUS
 62
     7
 10
66.38384535981493
 20
66.0412312633299
 30
0.0
 11
65.96078763422626
 21
68.15789792946741
 31
0.0
  0
LINE
  5
12A
  8
EL-LFB45702C-25N5
  6
CONTINUOUS
 62
     7
 10
66.12890829390646
 20
68.24368080705011
 30
0.0
 11
66.59468520351224
 21
66.0412312633299
 31
0.0
  0
LINE
  5
12B
  8
EL-LFB45702C-25N5
  6
CONTINUOUS
 62
     7
 10
66.38384535981493
 20
66.0412312633299
 30
0.0
 11
66.34112617579785
 21
66.08395044734701
 31
0.0
  0
LINE
  5
12C
  8
EL-LFB45702C-25N5
  6
CONTINUOUS
 62
     7
 10
65.91806845020915
 20
68.24368080705011
 30
0.0
 11
66.08756714808347
 21
68.24368080705011
 31
0.0
  0
LINE
  5
12D
  8
EL-LFB45702C-25N5
  6
CONTINUOUS
 62
     7
 10
66.17162747792356
 20
68.28484969809881
 30
0.0
 11
65.87534926619206
 21
68.24368080705011
 31
0.0
  0
LINE
  5
12E
  8
EL-LFB45702C-25N5
  6
CONTINUOUS
 62
     7
 10
66.08756714808347
 20
65.91462400424702
 30
0.0
 11
65.57907105446054
 21
68.5396145092331
 31
0.0
  0
LINE
  5
12F
  8
EL-LFB45702C-25N5
  6
CONTINUOUS
 62
     7
 10
54.74217869605864
 20
66.1270141409126
 30
0.0
 11
54.74217869605864
 21
66.08395044734701
 31
0.0
  0
LINE
  5
130
  8
EL-LFB45702C-25N5
  6
CONTINUOUS
 62
     7
 10
54.10690308857856
 20
66.0412312633299
 30
0.0
 11
53.81062487684714
 21
66.25362139999551
 31
0.0
  0
LINE
  5
131
  8
EL-LFB45702C-25N5
  6
CONTINUOUS
 62
     7
 10
53.55706584913275
 20
66.25362139999551
 30
0.0
 11
53.81062487684714
 21
66.25362139999551
 31
0.0
  0
LINE
  5
132
  8
EL-LFB45702C-25N5
  6
CONTINUOUS
 62
     7
 10
52.70957235976125
 20
66.08395044734701
 30
0.0
 11
52.70957235976125
 21
66.0412312633299
 31
0.0
  0
LINE
  5
133
  8
EL-LFB45702C-25N5
  6
CONTINUOUS
 62
     7
 10
52.70957235976125
 20
66.08395044734701
 30
0.0
 11
52.49873251606395
 21
66.0412312633299
 31
0.0
  0
LINE
  5
134
  8
EL-LFB45702C-25N5
  6
CONTINUOUS
 62
     7
 10
52.66685317574414
 20
65.87190482022982
 30
0.0
 11
53.98012357472135
 21
66.08395044734701
 31
0.0
  0
LINE
  5
135
  8
EL-LFB45702C-25N5
  6
CONTINUOUS
 62
     7
 10
53.93740439070425
 20
66.1270141409126
 30
0.0
 11
52.66685317574414
 21
65.87190482022982
 31
0.0
  0
LINE
  5
136
  8
EL-LFB45702C-25N5
  6
CONTINUOUS
 62
     7
 10
52.70957235976125
 20
66.0412312633299
 30
0.0
 11
52.49873251606395
 21
65.957343188264
 31
0.0
  0
LINE
  5
137
  8
EL-LFB45702C-25N5
  6
CONTINUOUS
 62
     7
 10
53.04856975550986
 20
65.57562660849831
 30
0.0
 11
52.79501072779544
 21
64.136954733858
 31
0.0
  0
LINE
  5
138
  8
EL-LFB45702C-25N5
  6
CONTINUOUS
 62
     7
 10
53.09128893952695
 20
65.57562660849831
 30
0.0
 11
53.76790569283006
 21
65.74529756114691
 31
0.0
  0
LINE
  5
139
  8
EL-LFB45702C-25N5
  6
CONTINUOUS
 62
     7
 10
53.76790569283006
 20
65.74529756114691
 30
0.0
 11
53.81062487684714
 21
65.74529756114691
 31
0.0
  0
LINE
  5
13A
  8
EL-LFB45702C-25N5
  6
CONTINUOUS
 62
     7
 10
53.81062487684714
 20
66.2949625458185
 30
0.0
 11
53.55706584913275
 21
66.25362139999551
 31
0.0
  0
LINE
  5
13B
  8
EL-LFB45702C-25N5
  6
CONTINUOUS
 62
     7
 10
53.81062487684714
 20
66.25362139999551
 30
0.0
 11
53.81062487684714
 21
66.2949625458185
 31
0.0
  0
LINE
  5
13C
  8
EL-LFB45702C-25N5
  6
CONTINUOUS
 62
     7
 10
53.51434666511566
 20
65.32189532600971
 30
0.0
 11
53.09128893952695
 21
65.61834579251551
 31
0.0
  0
LINE
  5
13D
  8
EL-LFB45702C-25N5
  6
CONTINUOUS
 62
     7
 10
53.04856975550986
 20
65.61834579251551
 30
0.0
 11
53.76790569283006
 21
65.74529756114691
 31
0.0
  0
LINE
  5
13E
  8
EL-LFB45702C-25N5
  6
CONTINUOUS
 62
     7
 10
54.23368260243576
 20
65.957343188264
 30
0.0
 11
52.87907105763554
 21
65.70223386758131
 31
0.0
  0
LINE
  5
13F
  8
EL-LFB45702C-25N5
  6
CONTINUOUS
 62
     7
 10
53.04856975550986
 20
65.57562660849831
 30
0.0
 11
52.70957235976125
 21
64.01034747477512
 31
0.0
  0
LINE
  5
140
  8
EL-LFB45702C-25N5
  6
CONTINUOUS
 62
     7
 10
52.83635187361845
 20
65.66106497653261
 30
0.0
 11
53.04856975550986
 21
65.57562660849831
 31
0.0
  0
LINE
  5
141
  8
EL-LFB45702C-25N5
  6
CONTINUOUS
 62
     7
 10
51.86345690858386
 20
63.11996254661231
 30
0.0
 11
52.41329414802974
 21
65.957343188264
 31
0.0
  0
LINE
  5
142
  8
EL-LFB45702C-25N5
  6
CONTINUOUS
 62
     7
 10
52.45601333204684
 20
65.957343188264
 30
0.0
 11
51.94751723842396
 21
63.11996254661231
 31
0.0
  0
LINE
  5
143
  8
EL-LFB45702C-25N5
  6
CONTINUOUS
 62
     7
 10
52.66685317574414
 20
65.87190482022982
 30
0.0
 11
52.45601333204684
 21
65.957343188264
 31
0.0
  0
LINE
  5
144
  8
EL-LFB45702C-25N5
  6
CONTINUOUS
 62
     7
 10
52.83635187361845
 20
65.66106497653261
 30
0.0
 11
52.45601333204684
 21
63.58556720144381
 31
0.0
  0
LINE
  5
145
  8
EL-LFB45702C-25N5
  6
CONTINUOUS
 62
     7
 10
52.66685317574414
 20
65.87190482022982
 30
0.0
 11
52.20245430433245
 21
63.45895994236091
 31
0.0
  0
LINE
  5
146
  8
EL-LFB45702C-25N5
  6
CONTINUOUS
 62
     7
 10
52.24379545015545
 20
63.45895994236091
 30
0.0
 11
52.66685317574414
 21
65.87190482022982
 31
0.0
  0
LINE
  5
147
  8
EL-LFB45702C-25N5
  6
CONTINUOUS
 62
     7
 10
53.81062487684714
 20
66.2949625458185
 30
0.0
 11
64.22445950966035
 21
68.37028806613301
 31
0.0
  0
LINE
  5
148
  8
EL-LFB45702C-25N5
  6
CONTINUOUS
 62
     7
 10
63.88546211391174
 20
67.9458523023503
 30
0.0
 11
54.14962227259566
 21
65.99851207931282
 31
0.0
  0
LINE
  5
149
  8
EL-LFB45702C-25N5
  6
CONTINUOUS
 62
     7
 10
54.10690308857856
 20
66.0412312633299
 30
0.0
 11
63.88546211391174
 21
67.9458523023503
 31
0.0
  0
LINE
  5
14A
  8
EL-LFB45702C-25N5
  6
CONTINUOUS
 62
     7
 10
54.57267999818437
 20
66.0412312633299
 30
0.0
 11
54.48724163015015
 21
66.08395044734701
 31
0.0
  0
LINE
  5
14B
  8
EL-LFB45702C-25N5
  6
CONTINUOUS
 62
     7
 10
54.69945951204154
 20
66.0412312633299
 30
0.0
 11
54.69945951204154
 21
66.08395044734701
 31
0.0
  0
LINE
  5
14C
  8
EL-LFB45702C-25N5
  6
CONTINUOUS
 62
     7
 10
54.27640178645286
 20
65.91462400424702
 30
0.0
 11
54.23368260243576
 21
65.957343188264
 31
0.0
  0
LINE
  5
14D
  8
EL-LFB45702C-25N5
  6
CONTINUOUS
 62
     7
 10
54.14962227259566
 20
65.99851207931282
 30
0.0
 11
54.10690308857856
 21
66.0412312633299
 31
0.0
  0
LINE
  5
14E
  8
EL-LFB45702C-25N5
  6
CONTINUOUS
 62
     7
 10
64.22445950966035
 20
68.11517874545031
 30
0.0
 11
64.30851983950045
 21
67.9885714863673
 31
0.0
  0
LINE
  5
14F
  8
EL-LFB45702C-25N5
  6
CONTINUOUS
 62
     7
 10
64.26717869367745
 20
68.32756888211591
 30
0.0
 11
64.22445950966035
 21
68.32756888211591
 31
0.0
  0
LINE
  5
150
  8
EL-LFB45702C-25N5
  6
CONTINUOUS
 62
     7
 10
64.43667739155167
 20
67.9046834113015
 30
0.0
 11
64.64751723524897
 21
67.86196422728442
 31
0.0
  0
LINE
  5
151
  8
EL-LFB45702C-25N5
  6
CONTINUOUS
 62
     7
 10
65.79128893635196
 20
68.49689532521602
 30
0.0
 11
65.79128893635196
 21
68.5396145092331
 31
0.0
  0
LINE
  5
152
  8
EL-LFB45702C-25N5
  6
CONTINUOUS
 62
     7
 10
58.00123902510504
 20
66.76056720065002
 30
0.0
 11
58.04395820912206
 21
66.76056720065002
 31
0.0
  0
LINE
  5
153
  8
EL-LFB45702C-25N5
  6
CONTINUOUS
 62
     7
 10
64.14039917982025
 20
68.32756888211591
 30
0.0
 11
64.22445950966035
 21
68.28484969809881
 31
0.0
  0
LINE
  5
154
  8
EL-LFB45702C-25N5
  6
CONTINUOUS
 62
     7
 10
64.22445950966035
 20
68.37028806613301
 30
0.0
 11
64.14039917982025
 21
68.32756888211591
 31
0.0
  0
LINE
  5
155
  8
EL-LFB45702C-25N5
  6
CONTINUOUS
 62
     7
 10
63.67462227021444
 20
67.8189005337188
 30
0.0
 11
63.63190308619736
 21
67.7777316426701
 31
0.0
  0
LINE
  5
156
  8
EL-LFB45702C-25N5
  6
CONTINUOUS
 62
     7
 10
58.42429675069364
 20
66.80363089421571
 30
0.0
 11
58.46701593471073
 21
66.76056720065002
 31
0.0
  0
LINE
  5
157
  8
EL-LFB45702C-25N5
  6
CONTINUOUS
 62
     7
 10
58.04395820912206
 20
66.67667912558422
 30
0.0
 11
58.04395820912206
 21
66.7192260548271
 31
0.0
  0
LINE
  5
158
  8
EL-LFB45702C-25N5
  6
CONTINUOUS
 62
     7
 10
60.28740438911675
 20
67.14228378041571
 30
0.0
 11
60.24468520509974
 21
67.09956459639861
 31
0.0
  0
LINE
  5
159
  8
EL-LFB45702C-25N5
  6
CONTINUOUS
 62
     7
 10
64.01224162776894
 20
67.86196422728442
 30
0.0
 11
64.01224162776894
 21
67.8189005337188
 31
0.0
  0
LINE
  5
15A
  8
EL-LFB45702C-25N5
  6
CONTINUOUS
 62
     7
 10
56.85884536219616
 20
66.50735268248421
 30
0.0
 11
56.85884536219616
 21
66.46463349846711
 31
0.0
  0
LINE
  5
15B
  8
EL-LFB45702C-25N5
  6
CONTINUOUS
 62
     7
 10
59.94840699336826
 20
67.0568454123815
 30
0.0
 11
59.99112617738535
 21
67.0568454123815
 31
0.0
  0
LINE
  5
15C
  8
EL-LFB45702C-25N5
  6
CONTINUOUS
 62
     7
 10
58.42429675069364
 20
66.76056720065002
 30
0.0
 11
58.34023642085354
 21
66.76056720065002
 31
0.0
  0
LINE
  5
15D
  8
EL-LFB45702C-25N5
  6
CONTINUOUS
 62
     7
 10
65.74856975233486
 20
68.5396145092331
 30
0.0
 11
65.79128893635196
 21
68.49689532521602
 31
0.0
  0
LINE
  5
15E
  8
EL-LFB45702C-25N5
  6
CONTINUOUS
 62
     7
 10
65.36685317256915
 20
68.5396145092331
 30
0.0
 11
64.47801853737467
 21
68.37028806613301
 31
0.0
  0
LINE
  5
15F
  8
EL-LFB45702C-25N5
  6
CONTINUOUS
 62
     7
 10
64.18174032564325
 20
68.11517874545031
 30
0.0
 11
64.26717869367745
 21
68.15789792946741
 31
0.0
  0
LINE
  5
160
  8
EL-LFB45702C-25N5
  6
CONTINUOUS
 62
     7
 10
64.22445950966035
 20
68.07400985440151
 30
0.0
 11
64.18174032564325
 21
68.11517874545031
 31
0.0
  0
LINE
  5
161
  8
EL-LFB45702C-25N5
  6
CONTINUOUS
 62
     7
 10
64.26717869367745
 20
68.37028806613301
 30
0.0
 11
64.22445950966035
 21
68.37028806613301
 31
0.0
  0
LINE
  5
162
  8
EL-LFB45702C-25N5
  6
CONTINUOUS
 62
     7
 10
64.22445950966035
 20
68.07400985440151
 30
0.0
 11
64.26717869367745
 21
68.15789792946741
 31
0.0
  0
LINE
  5
163
  8
EL-LFB45702C-25N5
  6
CONTINUOUS
 62
     7
 10
65.36685317256915
 20
68.58130016460461
 30
0.0
 11
64.47801853737467
 21
68.41162921195601
 31
0.0
  0
LINE
  5
164
  8
EL-LFB45702C-25N5
  6
CONTINUOUS
 62
     7
 10
67.77979805043815
 20
65.2366292127498
 30
0.0
 11
67.82251723445525
 21
65.1952880669268
 31
0.0
  0
LINE
  5
165
  8
EL-LFB45702C-25N5
  6
CONTINUOUS
 62
     7
 10
67.94929674831245
 20
65.1952880669268
 30
0.0
 11
68.03473511634665
 21
65.1952880669268
 31
0.0
  0
LINE
  5
166
  8
EL-LFB45702C-25N5
  6
CONTINUOUS
 62
     7
 10
67.94929674831245
 20
65.10984969889262
 30
0.0
 11
67.94929674831245
 21
65.1952880669268
 31
0.0
  0
LINE
  5
167
  8
EL-LFB45702C-25N5
  6
CONTINUOUS
 62
     7
 10
68.03473511634665
 20
65.0686808078439
 30
0.0
 11
68.03473511634665
 21
65.1952880669268
 31
0.0
  0
LINE
  5
168
  8
EL-LFB45702C-25N5
  6
CONTINUOUS
 62
     7
 10
67.94929674831245
 20
65.0686808078439
 30
0.0
 11
68.03473511634665
 21
65.0686808078439
 31
0.0
  0
LINE
  5
169
  8
EL-LFB45702C-25N5
  6
CONTINUOUS
 62
     7
 10
67.82251723445525
 20
65.2366292127498
 30
0.0
 11
67.94929674831245
 21
65.1952880669268
 31
0.0
  0
LINE
  5
16A
  8
EL-LFB45702C-25N5
  6
CONTINUOUS
 62
     7
 10
67.94929674831245
 20
65.10984969889262
 30
0.0
 11
67.94929674831245
 21
65.0686808078439
 31
0.0
  0
LINE
  5
16B
  8
EL-LFB45702C-25N5
  6
CONTINUOUS
 62
     7
 10
67.69573772059805
 20
65.2793483967669
 30
0.0
 11
67.65301853658093
 21
65.44901934941541
 31
0.0
  0
LINE
  5
16C
  8
EL-LFB45702C-25N5
  6
CONTINUOUS
 62
     7
 10
67.65301853658093
 20
65.4063001653983
 30
0.0
 11
67.65301853658093
 21
65.44901934941541
 31
0.0
  0
LINE
  5
16D
  8
EL-LFB45702C-25N5
  6
CONTINUOUS
 62
     7
 10
67.77979805043815
 20
65.2366292127498
 30
0.0
 11
67.65301853658093
 21
65.4063001653983
 31
0.0
  0
LINE
  5
16E
  8
EL-LFB45702C-25N5
  6
CONTINUOUS
 62
     7
 10
67.39945950886654
 20
65.74529756114691
 30
0.0
 11
67.35674032484947
 21
65.70223386758131
 31
0.0
  0
LINE
  5
16F
  8
EL-LFB45702C-25N5
  6
CONTINUOUS
 62
     7
 10
67.39945950886654
 20
65.44901934941541
 30
0.0
 11
67.39945950886654
 21
65.4063001653983
 31
0.0
  0
LINE
  5
170
  8
EL-LFB45702C-25N5
  6
CONTINUOUS
 62
     7
 10
66.97640178327786
 20
65.70223386758131
 30
0.0
 11
66.97640178327786
 21
65.66106497653261
 31
0.0
  0
LINE
  5
171
  8
EL-LFB45702C-25N5
  6
CONTINUOUS
 62
     7
 10
66.17162747792356
 20
68.28484969809881
 30
0.0
 11
66.21434666194067
 21
68.24368080705011
 31
0.0
  0
LINE
  5
172
  8
EL-LFB45702C-25N5
  6
CONTINUOUS
 62
     7
 10
67.18724162697515
 20
67.69229327463592
 30
0.0
 11
67.18724162697515
 21
67.64957409061871
 31
0.0
  0
LINE
  5
173
  8
EL-LFB45702C-25N5
  6
CONTINUOUS
 62
     7
 10
67.14590048115217
 20
67.69229327463592
 30
0.0
 11
67.18724162697515
 21
67.69229327463592
 31
0.0
  0
LINE
  5
174
  8
EL-LFB45702C-25N5
  6
CONTINUOUS
 62
     7
 10
66.38384535981493
 20
66.0412312633299
 30
0.0
 11
66.25706584595775
 21
66.25362139999551
 31
0.0
  0
LINE
  5
175
  8
EL-LFB45702C-25N5
  6
CONTINUOUS
 62
     7
 10
66.38384535981493
 20
66.0412312633299
 30
0.0
 11
66.42518650563795
 21
65.99851207931282
 31
0.0
  0
LINE
  5
176
  8
EL-LFB45702C-25N5
  6
CONTINUOUS
 62
     7
 10
67.73845690461515
 20
67.31195473306431
 30
0.0
 11
67.73845690461515
 21
67.35329587888731
 31
0.0
  0
LINE
  5
177
  8
EL-LFB45702C-25N5
  6
CONTINUOUS
 62
     7
 10
67.39945950886654
 20
67.39601506290441
 30
0.0
 11
67.48351983870667
 21
67.43856199214721
 31
0.0
  0
LINE
  5
178
  8
EL-LFB45702C-25N5
  6
CONTINUOUS
 62
     7
 10
67.56895820674083
 20
67.43856199214721
 30
0.0
 11
67.61167739075795
 21
67.43856199214721
 31
0.0
  0
LINE
  5
179
  8
EL-LFB45702C-25N5
  6
CONTINUOUS
 62
     7
 10
67.56895820674083
 20
67.48128117616432
 30
0.0
 11
67.56895820674083
 21
67.43856199214721
 31
0.0
  0
LINE
  5
17A
  8
EL-LFB45702C-25N5
  6
CONTINUOUS
 62
     7
 10
67.61167739075795
 20
67.43856199214721
 30
0.0
 11
67.73845690461515
 21
67.35329587888731
 31
0.0
  0
LINE
  5
17B
  8
EL-LFB45702C-25N5
  6
CONTINUOUS
 62
     7
 10
67.52623902272374
 20
67.43856199214721
 30
0.0
 11
67.56895820674083
 21
67.48128117616432
 31
0.0
  0
LINE
  5
17C
  8
EL-LFB45702C-25N5
  6
CONTINUOUS
 62
     7
 10
67.52623902272374
 20
67.43856199214721
 30
0.0
 11
67.48351983870667
 21
67.43856199214721
 31
0.0
  0
LINE
  5
17D
  8
EL-LFB45702C-25N5
  6
CONTINUOUS
 62
     7
 10
67.35674032484947
 20
67.39601506290441
 30
0.0
 11
67.39945950886654
 21
67.39601506290441
 31
0.0
  0
LINE
  5
17E
  8
EL-LFB45702C-25N5
  6
CONTINUOUS
 62
     7
 10
67.35674032484947
 20
67.39601506290441
 30
0.0
 11
67.39945950886654
 21
67.35329587888731
 31
0.0
  0
LINE
  5
17F
  8
EL-LFB45702C-25N5
  6
CONTINUOUS
 62
     7
 10
67.31539917902644
 20
67.39601506290441
 30
0.0
 11
67.35674032484947
 21
67.39601506290441
 31
0.0
  0
LINE
  5
180
  8
EL-LFB45702C-25N5
  6
CONTINUOUS
 62
     7
 10
67.27267999500937
 20
67.43856199214721
 30
0.0
 11
67.31539917902644
 21
67.39601506290441
 31
0.0
  0
LINE
  5
181
  8
EL-LFB45702C-25N5
  6
CONTINUOUS
 62
     7
 10
64.39395820753457
 20
67.9885714863673
 30
0.0
 11
64.26717869367745
 21
67.9885714863673
 31
0.0
  0
LINE
  5
182
  8
EL-LFB45702C-25N5
  6
CONTINUOUS
 62
     7
 10
64.39395820753457
 20
67.9885714863673
 30
0.0
 11
64.30851983950045
 21
68.15789792946741
 31
0.0
  0
LINE
  5
183
  8
EL-LFB45702C-25N5
  6
CONTINUOUS
 62
     7
 10
65.91806845020915
 20
68.20061711348441
 30
0.0
 11
65.96078763422626
 21
68.20061711348441
 31
0.0
  0
LINE
  5
184
  8
EL-LFB45702C-25N5
  6
CONTINUOUS
 62
     7
 10
65.87534926619206
 20
68.24368080705011
 30
0.0
 11
65.91806845020915
 21
68.20061711348441
 31
0.0
  0
LINE
  5
185
  8
EL-LFB45702C-25N5
  6
CONTINUOUS
 62
     7
 10
66.21434666194067
 20
68.24368080705011
 30
0.0
 11
67.14590048115217
 21
67.69229327463592
 31
0.0
  0
LINE
  5
186
  8
EL-LFB45702C-25N5
  6
CONTINUOUS
 62
     7
 10
67.18724162697515
 20
67.64957409061871
 30
0.0
 11
66.21434666194067
 21
68.24368080705011
 31
0.0
  0
LINE
  5
187
  8
EL-LFB45702C-25N5
  6
CONTINUOUS
 62
     7
 10
64.56345690540884
 20
67.86196422728442
 30
0.0
 11
64.60479805123187
 21
67.86196422728442
 31
0.0
  0
LINE
  5
188
  8
EL-LFB45702C-25N5
  6
CONTINUOUS
 62
     7
 10
67.14590048115217
 20
67.69229327463592
 30
0.0
 11
67.18724162697515
 21
67.64957409061871
 31
0.0
  0
LINE
  5
189
  8
EL-LFB45702C-25N5
  6
CONTINUOUS
 62
     7
 10
64.56345690540884
 20
67.86196422728442
 30
0.0
 11
64.43667739155167
 21
67.9046834113015
 31
0.0
  0
LINE
  5
18A
  8
EL-LFB45702C-25N5
  6
CONTINUOUS
 62
     7
 10
66.93368259926076
 20
65.957343188264
 30
0.0
 11
67.01912096729495
 21
65.957343188264
 31
0.0
  0
LINE
  5
18B
  8
EL-LFB45702C-25N5
  6
CONTINUOUS
 62
     7
 10
66.93368259926076
 20
65.99851207931282
 30
0.0
 11
66.93368259926076
 21
65.957343188264
 31
0.0
  0
LINE
  5
18C
  8
EL-LFB45702C-25N5
  6
CONTINUOUS
 62
     7
 10
66.38384535981493
 20
65.99851207931282
 30
0.0
 11
66.25706584595775
 21
66.25362139999551
 31
0.0
  0
LINE
  5
18D
  8
EL-LFB45702C-25N5
  6
CONTINUOUS
 62
     7
 10
66.38384535981493
 20
66.0412312633299
 30
0.0
 11
66.59468520351224
 21
66.0412312633299
 31
0.0
  0
LINE
  5
18E
  8
EL-LFB45702C-25N5
  6
CONTINUOUS
 62
     7
 10
66.63740438752934
 20
65.91462400424702
 30
0.0
 11
66.63740438752934
 21
66.0412312633299
 31
0.0
  0
LINE
  5
18F
  8
EL-LFB45702C-25N5
  6
CONTINUOUS
 62
     7
 10
67.06046211311796
 20
65.99851207931282
 30
0.0
 11
67.06046211311796
 21
65.957343188264
 31
0.0
  0
LINE
  5
190
  8
EL-LFB45702C-25N5
  6
CONTINUOUS
 62
     7
 10
67.01912096729495
 20
65.99851207931282
 30
0.0
 11
67.06046211311796
 21
65.99851207931282
 31
0.0
  0
LINE
  5
191
  8
EL-LFB45702C-25N5
  6
CONTINUOUS
 62
     7
 10
67.10318129713505
 20
65.87190482022982
 30
0.0
 11
67.14590048115217
 21
65.82918563621271
 31
0.0
  0
LINE
  5
192
  8
EL-LFB45702C-25N5
  6
CONTINUOUS
 62
     7
 10
67.06046211311796
 20
65.87190482022982
 30
0.0
 11
67.06046211311796
 21
65.78801674516401
 31
0.0
  0
LINE
  5
193
  8
EL-LFB45702C-25N5
  6
CONTINUOUS
 62
     7
 10
67.31539917902644
 20
65.82918563621271
 30
0.0
 11
67.35674032484947
 21
65.78801674516401
 31
0.0
  0
LINE
  5
194
  8
EL-LFB45702C-25N5
  6
CONTINUOUS
 62
     7
 10
65.11329414485475
 20
67.18534747398131
 30
0.0
 11
65.11329414485475
 21
67.22651636503011
 31
0.0
  0
LINE
  5
195
  8
EL-LFB45702C-25N5
  6
CONTINUOUS
 62
     7
 10
65.07057496083765
 20
67.18534747398131
 30
0.0
 11
65.11329414485475
 21
67.18534747398131
 31
0.0
  0
LINE
  5
196
  8
EL-LFB45702C-25N5
  6
CONTINUOUS
 62
     7
 10
65.07057496083765
 20
67.22651636503011
 30
0.0
 11
65.11329414485475
 21
67.22651636503011
 31
0.0
  0
LINE
  5
197
  8
EL-LFB45702C-25N5
  6
CONTINUOUS
 62
     7
 10
66.59468520351224
 20
66.0412312633299
 30
0.0
 11
66.63740438752934
 21
66.0412312633299
 31
0.0
  0
LINE
  5
198
  8
EL-LFB45702C-25N5
  6
CONTINUOUS
 62
     7
 10
65.96078763422626
 20
68.20061711348441
 30
0.0
 11
65.96078763422626
 21
68.15789792946741
 31
0.0
  0
LINE
  5
199
  8
EL-LFB45702C-25N5
  6
CONTINUOUS
 62
     7
 10
66.21434666194067
 20
68.28484969809881
 30
0.0
 11
66.17162747792356
 21
68.28484969809881
 31
0.0
  0
LINE
  5
19A
  8
EL-LFB45702C-25N5
  6
CONTINUOUS
 62
     7
 10
65.96078763422626
 20
68.20061711348441
 30
0.0
 11
66.00212878004925
 21
68.20061711348441
 31
0.0
  0
LINE
  5
19B
  8
EL-LFB45702C-25N5
  6
CONTINUOUS
 62
     7
 10
66.00212878004925
 20
68.20061711348441
 30
0.0
 11
66.12890829390646
 21
68.24368080705011
 31
0.0
  0
LINE
  5
19C
  8
EL-LFB45702C-25N5
  6
CONTINUOUS
 62
     7
 10
66.17162747792356
 20
68.28484969809881
 30
0.0
 11
66.08756714808347
 21
68.24368080705011
 31
0.0
  0
LINE
  5
19D
  8
EL-LFB45702C-25N5
  6
CONTINUOUS
 62
     7
 10
66.55334405768924
 20
65.957343188264
 30
0.0
 11
66.59468520351224
 21
66.0412312633299
 31
0.0
  0
LINE
  5
19E
  8
EL-LFB45702C-25N5
  6
CONTINUOUS
 62
     7
 10
66.38384535981493
 20
66.0412312633299
 30
0.0
 11
66.38384535981493
 21
65.99851207931282
 31
0.0
  0
LINE
  5
19F
  8
EL-LFB45702C-25N5
  6
CONTINUOUS
 62
     7
 10
65.62179023847766
 20
68.58130016460461
 30
0.0
 11
65.74856975233486
 21
68.5396145092331
 31
0.0
  0
LINE
  5
1A0
  8
EL-LFB45702C-25N5
  6
CONTINUOUS
 62
     7
 10
65.62179023847766
 20
68.58130016460461
 30
0.0
 11
65.53635187044345
 21
68.58130016460461
 31
0.0
  0
LINE
  5
1A1
  8
EL-LFB45702C-25N5
  6
CONTINUOUS
 62
     7
 10
54.69945951204154
 20
66.0412312633299
 30
0.0
 11
54.69945951204154
 21
65.99851207931282
 31
0.0
  0
LINE
  5
1A2
  8
EL-LFB45702C-25N5
  6
CONTINUOUS
 62
     7
 10
54.57267999818437
 20
66.0412312633299
 30
0.0
 11
54.57267999818437
 21
65.957343188264
 31
0.0
  0
LINE
  5
1A3
  8
EL-LFB45702C-25N5
  6
CONTINUOUS
 62
     7
 10
54.69945951204154
 20
65.99851207931282
 30
0.0
 11
54.74217869605864
 21
65.99851207931282
 31
0.0
  0
LINE
  5
1A4
  8
EL-LFB45702C-25N5
  6
CONTINUOUS
 62
     7
 10
53.55706584913275
 20
66.25362139999551
 30
0.0
 11
52.70957235976125
 21
66.08395044734701
 31
0.0
  0
LINE
  5
1A5
  8
EL-LFB45702C-25N5
  6
CONTINUOUS
 62
     7
 10
53.55706584913275
 20
66.21090221597841
 30
0.0
 11
52.70957235976125
 21
66.0412312633299
 31
0.0
  0
LINE
  5
1A6
  8
EL-LFB45702C-25N5
  6
CONTINUOUS
 62
     7
 10
52.41329414802974
 20
65.957343188264
 30
0.0
 11
52.49873251606395
 21
66.0412312633299
 31
0.0
  0
LINE
  5
1A7
  8
EL-LFB45702C-25N5
  6
CONTINUOUS
 62
     7
 10
53.81062487684714
 20
66.33768172983561
 30
0.0
 11
53.81062487684714
 21
66.2949625458185
 31
0.0
  0
LINE
  5
1A8
  8
EL-LFB45702C-25N5
  6
CONTINUOUS
 62
     7
 10
53.09128893952695
 20
65.57562660849831
 30
0.0
 11
53.04856975550986
 21
65.57562660849831
 31
0.0
  0
LINE
  5
1A9
  8
EL-LFB45702C-25N5
  6
CONTINUOUS
 62
     7
 10
53.04856975550986
 20
65.57562660849831
 30
0.0
 11
53.04856975550986
 21
65.61834579251551
 31
0.0
  0
LINE
  5
1AA
  8
EL-LFB45702C-25N5
  6
CONTINUOUS
 62
     7
 10
52.83635187361845
 20
65.66106497653261
 30
0.0
 11
52.66685317574414
 21
65.87190482022982
 31
0.0
  0
LINE
  5
1AB
  8
EL-LFB45702C-25N5
  6
CONTINUOUS
 62
     7
 10
52.87907105763554
 20
65.70223386758131
 30
0.0
 11
52.83635187361845
 21
65.66106497653261
 31
0.0
  0
LINE
  5
1AC
  8
EL-LFB45702C-25N5
  6
CONTINUOUS
 62
     7
 10
52.70957235976125
 20
65.87190482022982
 30
0.0
 11
52.66685317574414
 21
65.87190482022982
 31
0.0
  0
LINE
  5
1AD
  8
EL-LFB45702C-25N5
  6
CONTINUOUS
 62
     7
 10
52.45601333204684
 20
65.957343188264
 30
0.0
 11
52.49873251606395
 21
65.957343188264
 31
0.0
  0
LINE
  5
1AE
  8
EL-LFB45702C-25N5
  6
CONTINUOUS
 62
     7
 10
52.15973512031535
 20
63.4162407583438
 30
0.0
 11
52.20245430433245
 21
63.45895994236091
 31
0.0
  0
LINE
  5
1AF
  8
EL-LFB45702C-25N5
  6
CONTINUOUS
 62
     7
 10
52.24379545015545
 20
63.24794784388931
 30
0.0
 11
52.15973512031535
 21
63.4162407583438
 31
0.0
  0
LINE
  5
1B0
  8
EL-LFB45702C-25N5
  6
CONTINUOUS
 62
     7
 10
52.24379545015545
 20
63.45895994236091
 30
0.0
 11
52.20245430433245
 21
63.45895994236091
 31
0.0
  0
LINE
  5
1B1
  8
EL-LFB45702C-25N5
  6
CONTINUOUS
 62
     7
 10
52.24379545015545
 20
63.24794784388931
 30
0.0
 11
52.24379545015545
 21
63.45895994236091
 31
0.0
  0
LINE
  5
1B2
  8
EL-LFB45702C-25N5
  6
CONTINUOUS
 62
     7
 10
52.37057496401266
 20
63.4162407583438
 30
0.0
 11
52.24379545015545
 21
63.45895994236091
 31
0.0
  0
LINE
  5
1B3
  8
EL-LFB45702C-25N5
  6
CONTINUOUS
 62
     7
 10
54.52996081416726
 20
65.957343188264
 30
0.0
 11
54.57267999818437
 21
66.0412312633299
 31
0.0
  0
LINE
  5
1B4
  8
EL-LFB45702C-25N5
  6
CONTINUOUS
 62
     7
 10
54.23368260243576
 20
65.957343188264
 30
0.0
 11
54.36046211629296
 21
66.0412312633299
 31
0.0
  0
LINE
  5
1B5
  8
EL-LFB45702C-25N5
  6
CONTINUOUS
 62
     7
 10
54.23368260243576
 20
65.957343188264
 30
0.0
 11
54.19096341841865
 21
65.99851207931282
 31
0.0
  0
LINE
  5
1B6
  8
EL-LFB45702C-25N5
  6
CONTINUOUS
 62
     7
 10
56.85884536219616
 20
66.46463349846711
 30
0.0
 11
56.77340699416195
 21
66.50735268248421
 31
0.0
  0
LINE
  5
1B7
  8
EL-LFB45702C-25N5
  6
CONTINUOUS
 62
     7
 10
56.47712878243044
 20
66.46463349846711
 30
0.0
 11
56.39306845259034
 21
66.46463349846711
 31
0.0
  0
LINE
  5
1B8
  8
EL-LFB45702C-25N5
  6
CONTINUOUS
 62
     7
 10
56.47712878243044
 20
66.46463349846711
 30
0.0
 11
56.47712878243044
 21
66.33768172983561
 31
0.0
  0
LINE
  5
1B9
  8
EL-LFB45702C-25N5
  6
CONTINUOUS
 62
     7
 10
54.91167739393294
 20
66.1681830319614
 30
0.0
 11
54.82623902589874
 21
66.1270141409126
 31
0.0
  0
LINE
  5
1BA
  8
EL-LFB45702C-25N5
  6
CONTINUOUS
 62
     7
 10
54.82623902589874
 20
66.1270141409126
 30
0.0
 11
54.82623902589874
 21
65.99851207931282
 31
0.0
  0
LINE
  5
1BB
  8
EL-LFB45702C-25N5
  6
CONTINUOUS
 62
     7
 10
54.74217869605864
 20
66.0412312633299
 30
0.0
 11
54.74217869605864
 21
65.957343188264
 31
0.0
  0
LINE
  5
1BC
  8
EL-LFB45702C-25N5
  6
CONTINUOUS
 62
     7
 10
56.47712878243044
 20
66.46463349846711
 30
0.0
 11
56.77340699416195
 21
66.42294784309551
 31
0.0
  0
LINE
  5
1BD
  8
EL-LFB45702C-25N5
  6
CONTINUOUS
 62
     7
 10
54.74217869605864
 20
66.0412312633299
 30
0.0
 11
54.82623902589874
 21
66.1270141409126
 31
0.0
  0
LINE
  5
1BE
  8
EL-LFB45702C-25N5
  6
CONTINUOUS
 62
     7
 10
61.30301853816843
 20
68.58130016460461
 30
0.0
 11
61.34573772218554
 21
68.58130016460461
 31
0.0
  0
LINE
  5
1BF
  8
EL-LFB45702C-25N5
  6
CONTINUOUS
 62
     7
 10
61.47251723604275
 20
68.5396145092331
 30
0.0
 11
61.38845690620265
 21
68.5396145092331
 31
0.0
  0
LINE
  5
1C0
  8
EL-LFB45702C-25N5
  6
CONTINUOUS
 62
     7
 10
61.47251723604275
 20
68.7933457917217
 30
0.0
 11
61.51523642005984
 21
68.7933457917217
 31
0.0
  0
LINE
  5
1C1
  8
EL-LFB45702C-25N5
  6
CONTINUOUS
 62
     7
 10
61.47251723604275
 20
69.25895044655321
 30
0.0
 11
61.51523642005984
 21
69.25895044655321
 31
0.0
  0
LINE
  5
1C2
  8
EL-LFB45702C-25N5
  6
CONTINUOUS
 62
     7
 10
61.34573772218554
 20
69.38590221518471
 30
0.0
 11
61.30301853816843
 21
69.42862139920182
 31
0.0
  0
LINE
  5
1C3
  8
EL-LFB45702C-25N5
  6
CONTINUOUS
 62
     7
 10
61.47251723604275
 20
69.34318303116761
 30
0.0
 11
61.51523642005984
 21
69.34318303116761
 31
0.0
  0
LINE
  5
1C4
  8
EL-LFB45702C-25N5
  6
CONTINUOUS
 62
     7
 10
56.56256715046466
 20
68.28484969809881
 30
0.0
 11
56.56256715046466
 21
67.8189005337188
 31
0.0
  0
LINE
  5
1C5
  8
EL-LFB45702C-25N5
  6
CONTINUOUS
 62
     7
 10
56.64662748030476
 20
67.60823294479582
 30
0.0
 11
56.56256715046466
 21
67.56568601555291
 31
0.0
  0
LINE
  5
1C6
  8
EL-LFB45702C-25N5
  6
CONTINUOUS
 62
     7
 10
56.56256715046466
 20
67.18534747398131
 30
0.0
 11
56.56256715046466
 21
66.9729573373157
 31
0.0
  0
LINE
  5
1C7
  8
EL-LFB45702C-25N5
  6
CONTINUOUS
 62
     7
 10
56.56256715046466
 20
67.18534747398131
 30
0.0
 11
56.56256715046466
 21
67.56551376077871
 31
0.0
  0
LINE
  5
1C8
  8
EL-LFB45702C-25N5
  6
CONTINUOUS
 62
     7
 10
56.56256715046466
 20
66.93023815329862
 30
0.0
 11
56.56256715046466
 21
67.14228378041571
 31
0.0
  0
LINE
  5
1C9
  8
EL-LFB45702C-25N5
  6
CONTINUOUS
 62
     7
 10
56.68934666432185
 20
67.60823294479582
 30
0.0
 11
56.56256715046466
 21
67.7350124586529
 31
0.0
  0
LINE
  5
1CA
  8
EL-LFB45702C-25N5
  6
CONTINUOUS
 62
     7
 10
56.56256715046466
 20
67.7350124586529
 30
0.0
 11
56.60390829628765
 21
67.7350124586529
 31
0.0
  0
LINE
  5
1CB
  8
EL-LFB45702C-25N5
  6
CONTINUOUS
 62
     7
 10
56.51984796644755
 20
67.56568601555291
 30
0.0
 11
56.51984796644755
 21
67.18534747398131
 31
0.0
  0
LINE
  5
1CC
  8
EL-LFB45702C-25N5
  6
CONTINUOUS
 62
     7
 10
56.56256715046466
 20
68.5396145092331
 30
0.0
 11
56.68934666432185
 21
68.49689532521602
 31
0.0
  0
LINE
  5
1CD
  8
EL-LFB45702C-25N5
  6
CONTINUOUS
 62
     7
 10
56.68934666432185
 20
68.45434839597311
 30
0.0
 11
56.56256715046466
 21
68.5396145092331
 31
0.0
  0
LINE
  5
1CE
  8
EL-LFB45702C-25N5
  6
CONTINUOUS
 62
     7
 10
56.64662748030476
 20
68.58130016460461
 30
0.0
 11
56.56256715046466
 21
68.58130016460461
 31
0.0
  0
LINE
  5
1CF
  8
EL-LFB45702C-25N5
  6
CONTINUOUS
 62
     7
 10
56.60390829628765
 20
68.37028806613301
 30
0.0
 11
56.68934666432185
 21
68.32756888211591
 31
0.0
  0
LINE
  5
1D0
  8
EL-LFB45702C-25N5
  6
CONTINUOUS
 62
     7
 10
61.38845690620265
 20
69.51268172904192
 30
0.0
 11
61.51523642005984
 21
69.51268172904192
 31
0.0
  0
LINE
  5
1D1
  8
EL-LFB45702C-25N5
  6
CONTINUOUS
 62
     7
 10
61.47251723604275
 20
69.51268172904192
 30
0.0
 11
61.38845690620265
 21
69.51268172904192
 31
0.0
  0
LINE
  5
1D2
  8
EL-LFB45702C-25N5
  6
CONTINUOUS
 62
     7
 10
61.51523642005984
 20
69.25895044655321
 30
0.0
 11
61.51523642005984
 21
68.7933457917217
 31
0.0
  0
LINE
  5
1D3
  8
EL-LFB45702C-25N5
  6
CONTINUOUS
 62
     7
 10
61.47251723604275
 20
68.7933457917217
 30
0.0
 11
61.47251723604275
 21
69.25895044655321
 31
0.0
  0
LINE
  5
1D4
  8
EL-LFB45702C-25N5
  6
CONTINUOUS
 62
     7
 10
61.34573772218554
 20
69.38590221518471
 30
0.0
 11
61.34573772218554
 21
68.58130016460461
 31
0.0
  0
LINE
  5
1D5
  8
EL-LFB45702C-25N5
  6
CONTINUOUS
 62
     7
 10
61.30301853816843
 20
68.58130016460461
 30
0.0
 11
61.30301853816843
 21
69.42862139920182
 31
0.0
  0
LINE
  5
1D6
  8
EL-LFB45702C-25N5
  6
CONTINUOUS
 62
     7
 10
61.47251723604275
 20
68.11517874545031
 30
0.0
 11
61.47251723604275
 21
68.15789792946741
 31
0.0
  0
LINE
  5
1D7
  8
EL-LFB45702C-25N5
  6
CONTINUOUS
 62
     7
 10
61.47251723604275
 20
68.11517874545031
 30
0.0
 11
61.51523642005984
 21
68.11517874545031
 31
0.0
  0
LINE
  5
1D8
  8
EL-LFB45702C-25N5
  6
CONTINUOUS
 62
     7
 10
61.47251723604275
 20
68.11517874545031
 30
0.0
 11
61.47251723604275
 21
67.9046834113015
 31
0.0
  0
LINE
  5
1D9
  8
EL-LFB45702C-25N5
  6
CONTINUOUS
 62
     7
 10
56.60390829628765
 20
67.7350124586529
 30
0.0
 11
56.68934666432185
 21
67.64957409061871
 31
0.0
  0
LINE
  5
1DA
  8
EL-LFB45702C-25N5
  6
CONTINUOUS
 62
     7
 10
56.56256715046466
 20
68.5396145092331
 30
0.0
 11
56.64662748030476
 21
68.58130016460461
 31
0.0
  0
LINE
  5
1DB
  8
EL-LFB45702C-25N5
  6
CONTINUOUS
 62
     7
 10
56.68934666432185
 20
68.5396145092331
 30
0.0
 11
56.68934666432185
 21
67.69229327463592
 31
0.0
  0
LINE
  5
1DC
  8
EL-LFB45702C-25N5
  6
CONTINUOUS
 62
     7
 10
56.51984796644755
 20
68.5396145092331
 30
0.0
 11
56.51984796644755
 21
69.34318303116761
 31
0.0
  0
LINE
  5
1DD
  8
EL-LFB45702C-25N5
  6
CONTINUOUS
 62
     7
 10
56.73206584833895
 20
66.88751896928152
 30
0.0
 11
61.30301853816843
 21
67.8189005337188
 31
0.0
  0
LINE
  5
1DE
  8
EL-LFB45702C-25N5
  6
CONTINUOUS
 62
     7
 10
58.59379544856794
 20
70.02135007743901
 30
0.0
 11
56.77340699416195
 21
69.63963349767342
 31
0.0
  0
LINE
  5
1DF
  8
EL-LFB45702C-25N5
  6
CONTINUOUS
 62
     7
 10
58.55245430274495
 20
69.89439830880751
 30
0.0
 11
58.55245430274495
 21
69.97863089342191
 31
0.0
  0
LINE
  5
1E0
  8
EL-LFB45702C-25N5
  6
CONTINUOUS
 62
     7
 10
58.59379544856794
 20
70.02135007743901
 30
0.0
 11
58.80601333045934
 21
69.89422605403331
 31
0.0
  0
LINE
  5
1E1
  8
EL-LFB45702C-25N5
  6
CONTINUOUS
 62
     7
 10
58.76329414644224
 20
69.85167912479051
 30
0.0
 11
58.59379544856794
 21
69.97863089342191
 31
0.0
  0
LINE
  5
1E2
  8
EL-LFB45702C-25N5
  6
CONTINUOUS
 62
     7
 10
58.76329414644224
 20
70.02135007743901
 30
0.0
 11
58.89007366029944
 21
69.89422605403331
 31
0.0
  0
LINE
  5
1E3
  8
EL-LFB45702C-25N5
  6
CONTINUOUS
 62
     7
 10
58.59379544856794
 20
69.97863089342191
 30
0.0
 11
58.59379544856794
 21
69.89439830880751
 31
0.0
  0
LINE
  5
1E4
  8
EL-LFB45702C-25N5
  6
CONTINUOUS
 62
     7
 10
56.51984796644755
 20
68.28484969809881
 30
0.0
 11
56.51984796644755
 21
67.8189005337188
 31
0.0
  0
LINE
  5
1E5
  8
EL-LFB45702C-25N5
  6
CONTINUOUS
 62
     7
 10
56.51984796644755
 20
67.8189005337188
 30
0.0
 11
56.56256715046466
 21
67.8189005337188
 31
0.0
  0
LINE
  5
1E6
  8
EL-LFB45702C-25N5
  6
CONTINUOUS
 62
     7
 10
56.51984796644755
 20
68.28484969809881
 30
0.0
 11
56.56256715046466
 21
68.28484969809881
 31
0.0
  0
LINE
  5
1E7
  8
EL-LFB45702C-25N5
  6
CONTINUOUS
 62
     7
 10
59.48263008376246
 20
70.19067652053911
 30
0.0
 11
61.26167739234544
 21
70.5708428073364
 31
0.0
  0
LINE
  5
1E8
  8
EL-LFB45702C-25N5
  6
CONTINUOUS
 62
     7
 10
61.30301853816843
 20
70.5710150621106
 30
0.0
 11
61.51523642005984
 21
70.44423554825342
 31
0.0
  0
LINE
  5
1E9
  8
EL-LFB45702C-25N5
  6
CONTINUOUS
 62
     7
 10
61.51523642005984
 20
70.36034747318762
 30
0.0
 11
61.30301853816843
 21
70.4869547322705
 31
0.0
  0
LINE
  5
1EA
  8
EL-LFB45702C-25N5
  6
CONTINUOUS
 62
     7
 10
61.26167739234544
 20
70.4869547322705
 30
0.0
 11
61.26167739234544
 21
70.5710150621106
 31
0.0
  0
LINE
  5
1EB
  8
EL-LFB45702C-25N5
  6
CONTINUOUS
 62
     7
 10
61.30301853816843
 20
70.5710150621106
 30
0.0
 11
61.30301853816843
 21
70.4869547322705
 31
0.0
  0
LINE
  5
1EC
  8
EL-LFB45702C-25N5
  6
CONTINUOUS
 62
     7
 10
59.39856975392236
 20
69.97863089342191
 30
0.0
 11
58.63651463258505
 21
69.8089599407734
 31
0.0
  0
LINE
  5
1ED
  8
EL-LFB45702C-25N5
  6
CONTINUOUS
 62
     7
 10
59.31313138588814
 20
70.14795733652191
 30
0.0
 11
59.44128893793945
 21
70.10523815250491
 31
0.0
  0
LINE
  5
1EE
  8
EL-LFB45702C-25N5
  6
CONTINUOUS
 62
     7
 10
59.22907105604804
 20
70.14795733652191
 30
0.0
 11
58.80601333045934
 21
70.06251896848771
 31
0.0
  0
LINE
  5
1EF
  8
EL-LFB45702C-25N5
  6
CONTINUOUS
 62
     7
 10
58.80601333045934
 20
70.02135007743901
 30
0.0
 11
59.22907105604804
 21
70.14795733652191
 31
0.0
  0
LINE
  5
1F0
  8
EL-LFB45702C-25N5
  6
CONTINUOUS
 62
     7
 10
58.80601333045934
 20
70.06251896848771
 30
0.0
 11
58.80601333045934
 21
70.02135007743901
 31
0.0
  0
LINE
  5
1F1
  8
EL-LFB45702C-25N5
  6
CONTINUOUS
 62
     7
 10
59.31313138588814
 20
70.10523815250491
 30
0.0
 11
59.44128893793945
 21
70.06251896848771
 31
0.0
  0
LINE
  5
1F2
  8
EL-LFB45702C-25N5
  6
CONTINUOUS
 62
     7
 10
59.31313138588814
 20
70.10523815250491
 30
0.0
 11
59.31313138588814
 21
70.14795733652191
 31
0.0
  0
LINE
  5
1F3
  8
EL-LFB45702C-25N5
  6
CONTINUOUS
 62
     7
 10
59.44128893793945
 20
70.14795733652191
 30
0.0
 11
59.44128893793945
 21
70.06251896848771
 31
0.0
  0
LINE
  5
1F4
  8
EL-LFB45702C-25N5
  6
CONTINUOUS
 62
     7
 10
58.76329414644224
 20
70.06251896848771
 30
0.0
 11
58.76329414644224
 21
70.02135007743901
 31
0.0
  0
LINE
  5
1F5
  8
EL-LFB45702C-25N5
  6
CONTINUOUS
 62
     7
 10
61.30301853816843
 20
68.58130016460461
 30
0.0
 11
61.34573772218554
 21
68.5396145092331
 31
0.0
  0
LINE
  5
1F6
  8
EL-LFB45702C-25N5
  6
CONTINUOUS
 62
     7
 10
61.34573772218554
 20
68.58130016460461
 30
0.0
 11
61.34573772218554
 21
68.5396145092331
 31
0.0
  0
LINE
  5
1F7
  8
EL-LFB45702C-25N5
  6
CONTINUOUS
 62
     7
 10
61.47251723604275
 20
68.5396145092331
 30
0.0
 11
61.51523642005984
 21
68.5396145092331
 31
0.0
  0
LINE
  5
1F8
  8
EL-LFB45702C-25N5
  6
CONTINUOUS
 62
     7
 10
61.34573772218554
 20
68.5396145092331
 30
0.0
 11
61.38845690620265
 21
68.5396145092331
 31
0.0
  0
LINE
  5
1F9
  8
EL-LFB45702C-25N5
  6
CONTINUOUS
 62
     7
 10
61.51523642005984
 20
68.7933457917217
 30
0.0
 11
61.51523642005984
 21
68.7506266077046
 31
0.0
  0
LINE
  5
1FA
  8
EL-LFB45702C-25N5
  6
CONTINUOUS
 62
     7
 10
61.47251723604275
 20
68.7933457917217
 30
0.0
 11
61.51523642005984
 21
68.70790742368752
 31
0.0
  0
LINE
  5
1FB
  8
EL-LFB45702C-25N5
  6
CONTINUOUS
 62
     7
 10
61.51523642005984
 20
69.34318303116761
 30
0.0
 11
61.51523642005984
 21
69.25895044655321
 31
0.0
  0
LINE
  5
1FC
  8
EL-LFB45702C-25N5
  6
CONTINUOUS
 62
     7
 10
61.47251723604275
 20
69.34318303116761
 30
0.0
 11
61.47251723604275
 21
69.25895044655321
 31
0.0
  0
LINE
  5
1FD
  8
EL-LFB45702C-25N5
  6
CONTINUOUS
 62
     7
 10
56.77340699416195
 20
69.63963349767342
 30
0.0
 11
56.77340699416195
 21
69.5979478423018
 31
0.0
  0
LINE
  5
1FE
  8
EL-LFB45702C-25N5
  6
CONTINUOUS
 62
     7
 10
56.68934666432185
 20
67.69229327463592
 30
0.0
 11
56.64662748030476
 21
67.60823294479582
 31
0.0
  0
LINE
  5
1FF
  8
EL-LFB45702C-25N5
  6
CONTINUOUS
 62
     7
 10
56.56256715046466
 20
67.8189005337188
 30
0.0
 11
56.60390829628765
 21
67.7350124586529
 31
0.0
  0
LINE
  5
200
  8
EL-LFB45702C-25N5
  6
CONTINUOUS
 62
     7
 10
56.56256715046466
 20
66.93023815329862
 30
0.0
 11
56.56256715046466
 21
66.88751896928152
 31
0.0
  0
LINE
  5
201
  8
EL-LFB45702C-25N5
  6
CONTINUOUS
 62
     7
 10
56.51984796644755
 20
67.18534747398131
 30
0.0
 11
56.56256715046466
 21
67.14228378041571
 31
0.0
  0
LINE
  5
202
  8
EL-LFB45702C-25N5
  6
CONTINUOUS
 62
     7
 10
56.56256715046466
 20
67.18534747398131
 30
0.0
 11
56.51984796644755
 21
67.18534747398131
 31
0.0
  0
LINE
  5
203
  8
EL-LFB45702C-25N5
  6
CONTINUOUS
 62
     7
 10
56.56256715046466
 20
67.56568601555291
 30
0.0
 11
56.51984796644755
 21
67.56568601555291
 31
0.0
  0
LINE
  5
204
  8
EL-LFB45702C-25N5
  6
CONTINUOUS
 62
     7
 10
56.51984796644755
 20
68.5396145092331
 30
0.0
 11
56.56256715046466
 21
68.5396145092331
 31
0.0
  0
LINE
  5
205
  8
EL-LFB45702C-25N5
  6
CONTINUOUS
 62
     7
 10
56.56256715046466
 20
68.58130016460461
 30
0.0
 11
56.51984796644755
 21
68.5396145092331
 31
0.0
  0
LINE
  5
206
  8
EL-LFB45702C-25N5
  6
CONTINUOUS
 62
     7
 10
56.68934666432185
 20
68.58130016460461
 30
0.0
 11
56.68934666432185
 21
68.5396145092331
 31
0.0
  0
LINE
  5
207
  8
EL-LFB45702C-25N5
  6
CONTINUOUS
 62
     7
 10
56.60390829628765
 20
68.37028806613301
 30
0.0
 11
56.56256715046466
 21
68.28484969809881
 31
0.0
  0
LINE
  5
208
  8
EL-LFB45702C-25N5
  6
CONTINUOUS
 62
     7
 10
59.61078763581376
 20
68.9202975603532
 30
0.0
 11
59.61078763581376
 21
69.13234318747031
 31
0.0
  0
LINE
  5
209
  8
EL-LFB45702C-25N5
  6
CONTINUOUS
 62
     7
 10
59.31313138588814
 20
68.49689532521602
 30
0.0
 11
59.61078763581376
 21
68.9202975603532
 31
0.0
  0
LINE
  5
20A
  8
EL-LFB45702C-25N5
  6
CONTINUOUS
 62
     7
 10
58.84873251447645
 20
68.32756888211591
 30
0.0
 11
59.31313138588814
 21
68.49689532521602
 31
0.0
  0
LINE
  5
20B
  8
EL-LFB45702C-25N5
  6
CONTINUOUS
 62
     7
 10
58.63651463258505
 20
68.41162921195601
 30
0.0
 11
58.84873251447645
 21
68.32756888211591
 31
0.0
  0
LINE
  5
20C
  8
EL-LFB45702C-25N5
  6
CONTINUOUS
 62
     7
 10
61.38845690620265
 20
69.51268172904192
 30
0.0
 11
61.30301853816843
 21
69.42862139920182
 31
0.0
  0
LINE
  5
20D
  8
EL-LFB45702C-25N5
  6
CONTINUOUS
 62
     7
 10
61.38845690620265
 20
69.51268172904192
 30
0.0
 11
61.34573772218554
 21
69.38590221518471
 31
0.0
  0
LINE
  5
20E
  8
EL-LFB45702C-25N5
  6
CONTINUOUS
 62
     7
 10
61.47251723604275
 20
69.51268172904192
 30
0.0
 11
61.51523642005984
 21
69.51268172904192
 31
0.0
  0
LINE
  5
20F
  8
EL-LFB45702C-25N5
  6
CONTINUOUS
 62
     7
 10
61.47251723604275
 20
67.9046834113015
 30
0.0
 11
61.47251723604275
 21
67.86196422728442
 31
0.0
  0
LINE
  5
210
  8
EL-LFB45702C-25N5
  6
CONTINUOUS
 62
     7
 10
61.47251723604275
 20
68.15789792946741
 30
0.0
 11
61.51523642005984
 21
68.15789792946741
 31
0.0
  0
LINE
  5
211
  8
EL-LFB45702C-25N5
  6
CONTINUOUS
 62
     7
 10
56.56256715046466
 20
69.38590221518471
 30
0.0
 11
56.77340699416195
 21
69.5979478423018
 31
0.0
  0
LINE
  5
212
  8
EL-LFB45702C-25N5
  6
CONTINUOUS
 62
     7
 10
56.64662748030476
 20
68.58130016460461
 30
0.0
 11
56.68934666432185
 21
68.58130016460461
 31
0.0
  0
LINE
  5
213
  8
EL-LFB45702C-25N5
  6
CONTINUOUS
 62
     7
 10
56.56256715046466
 20
69.38590221518471
 30
0.0
 11
56.51984796644755
 21
69.34318303116761
 31
0.0
  0
LINE
  5
214
  8
EL-LFB45702C-25N5
  6
CONTINUOUS
 62
     7
 10
58.55245430274495
 20
69.97863089342191
 30
0.0
 11
58.59379544856794
 21
70.02135007743901
 31
0.0
  0
LINE
  5
215
  8
EL-LFB45702C-25N5
  6
CONTINUOUS
 62
     7
 10
58.63651463258505
 20
69.8089599407734
 30
0.0
 11
58.59379544856794
 21
69.85167912479051
 31
0.0
  0
LINE
  5
216
  8
EL-LFB45702C-25N5
  6
CONTINUOUS
 62
     7
 10
58.59379544856794
 20
69.85167912479051
 30
0.0
 11
58.55245430274495
 21
69.89422605403331
 31
0.0
  0
LINE
  5
217
  8
EL-LFB45702C-25N5
  6
CONTINUOUS
 62
     7
 10
58.59379544856794
 20
69.8089599407734
 30
0.0
 11
58.59379544856794
 21
69.89422605403331
 31
0.0
  0
LINE
  5
218
  8
EL-LFB45702C-25N5
  6
CONTINUOUS
 62
     7
 10
56.51984796644755
 20
67.8189005337188
 30
0.0
 11
56.56256715046466
 21
67.7350124586529
 31
0.0
  0
LINE
  5
219
  8
EL-LFB45702C-25N5
  6
CONTINUOUS
 62
     7
 10
56.56256715046466
 20
68.37028806613301
 30
0.0
 11
56.51984796644755
 21
68.28484969809881
 31
0.0
  0
LINE
  5
21A
  8
EL-LFB45702C-25N5
  6
CONTINUOUS
 62
     7
 10
61.34573772218554
 20
70.36034747318762
 30
0.0
 11
61.26167739234544
 21
70.4869547322705
 31
0.0
  0
LINE
  5
21B
  8
EL-LFB45702C-25N5
  6
CONTINUOUS
 62
     7
 10
61.38845690620265
 20
70.36034747318762
 30
0.0
 11
61.26167739234544
 21
70.4869547322705
 31
0.0
  0
LINE
  5
21C
  8
EL-LFB45702C-25N5
  6
CONTINUOUS
 62
     7
 10
61.42979805202564
 20
70.36034747318762
 30
0.0
 11
61.34573772218554
 21
70.36034747318762
 31
0.0
  0
LINE
  5
21D
  8
EL-LFB45702C-25N5
  6
CONTINUOUS
 62
     7
 10
61.47251723604275
 20
70.36034747318762
 30
0.0
 11
61.51523642005984
 21
70.36034747318762
 31
0.0
  0
LINE
  5
21E
  8
EL-LFB45702C-25N5
  6
CONTINUOUS
 62
     7
 10
61.47251723604275
 20
70.36034747318762
 30
0.0
 11
61.42979805202564
 21
70.36034747318762
 31
0.0
  0
LINE
  5
21F
  8
EL-LFB45702C-25N5
  6
CONTINUOUS
 62
     7
 10
61.26167739234544
 20
70.4869547322705
 30
0.0
 11
61.30301853816843
 21
70.4869547322705
 31
0.0
  0
LINE
  5
220
  8
EL-LFB45702C-25N5
  6
CONTINUOUS
 62
     7
 10
61.26167739234544
 20
70.52829587809352
 30
0.0
 11
61.26167739234544
 21
70.4869547322705
 31
0.0
  0
LINE
  5
221
  8
EL-LFB45702C-25N5
  6
CONTINUOUS
 62
     7
 10
61.30301853816843
 20
70.5710150621106
 30
0.0
 11
61.26167739234544
 21
70.5710150621106
 31
0.0
  0
LINE
  5
222
  8
EL-LFB45702C-25N5
  6
CONTINUOUS
 62
     7
 10
58.38295560487063
 20
68.7933457917217
 30
0.0
 11
58.63651463258505
 21
68.41162921195601
 31
0.0
  0
LINE
  5
223
  8
EL-LFB45702C-25N5
  6
CONTINUOUS
 62
     7
 10
58.50973511872784
 20
69.34318303116761
 30
0.0
 11
58.38295560487063
 21
68.7933457917217
 31
0.0
  0
LINE
  5
224
  8
EL-LFB45702C-25N5
  6
CONTINUOUS
 62
     7
 10
58.89007366029944
 20
69.6823526816904
 30
0.0
 11
58.50973511872784
 21
69.34318303116761
 31
0.0
  0
LINE
  5
225
  8
EL-LFB45702C-25N5
  6
CONTINUOUS
 62
     7
 10
59.39856975392236
 20
69.63963349767342
 30
0.0
 11
58.89007366029944
 21
69.6823526816904
 31
0.0
  0
LINE
  5
226
  8
EL-LFB45702C-25N5
  6
CONTINUOUS
 62
     7
 10
58.46701593471073
 20
68.5396145092331
 30
0.0
 11
58.63651463258505
 21
68.41162921195601
 31
0.0
  0
LINE
  5
227
  8
EL-LFB45702C-25N5
  6
CONTINUOUS
 62
     7
 10
58.42429675069364
 20
68.7933457917217
 30
0.0
 11
58.46701593471073
 21
68.5396145092331
 31
0.0
  0
LINE
  5
228
  8
EL-LFB45702C-25N5
  6
CONTINUOUS
 62
     7
 10
58.50973511872784
 20
69.34318303116761
 30
0.0
 11
58.42429675069364
 21
68.7933457917217
 31
0.0
  0
LINE
  5
229
  8
EL-LFB45702C-25N5
  6
CONTINUOUS
 62
     7
 10
58.93279284431654
 20
69.6823526816904
 30
0.0
 11
58.50973511872784
 21
69.34318303116761
 31
0.0
  0
LINE
  5
22A
  8
EL-LFB45702C-25N5
  6
CONTINUOUS
 62
     7
 10
59.39856975392236
 20
69.63963349767342
 30
0.0
 11
58.93279284431654
 21
69.6823526816904
 31
0.0
  0
LINE
  5
22B
  8
EL-LFB45702C-25N5
  6
CONTINUOUS
 62
     7
 10
58.80601333045934
 20
70.02135007743901
 30
0.0
 11
58.76329414644224
 21
70.02135007743901
 31
0.0
  0
LINE
  5
22C
  8
EL-LFB45702C-25N5
  6
CONTINUOUS
 62
     7
 10
59.56806845179665
 20
69.46996254502481
 30
0.0
 11
59.39856975392236
 21
69.63963349767342
 31
0.0
  0
LINE
  5
22D
  8
EL-LFB45702C-25N5
  6
CONTINUOUS
 62
     7
 10
59.61078763581376
 20
69.13234318747031
 30
0.0
 11
59.56806845179665
 21
69.46996254502481
 31
0.0
  0
LINE
  5
22E
  8
EL-LFB45702C-25N5
  6
CONTINUOUS
 62
     7
 10
59.39856975392236
 20
69.97863089342191
 30
0.0
 11
59.44128893793945
 21
70.06251896848771
 31
0.0
  0
LINE
  5
22F
  8
EL-LFB45702C-25N5
  6
CONTINUOUS
 62
     7
 10
59.22907105604804
 20
70.14795733652191
 30
0.0
 11
59.31313138588814
 21
70.10523815250491
 31
0.0
  0
LINE
  5
230
  8
EL-LFB45702C-25N5
  6
CONTINUOUS
 62
     7
 10
58.80601333045934
 20
70.06251896848771
 30
0.0
 11
58.76329414644224
 21
70.06251896848771
 31
0.0
  0
LINE
  5
231
  8
EL-LFB45702C-25N5
  6
CONTINUOUS
 62
     7
 10
59.22907105604804
 20
70.14795733652191
 30
0.0
 11
59.31313138588814
 21
70.14795733652191
 31
0.0
  0
LINE
  5
232
  8
EL-LFB45702C-25N5
  6
CONTINUOUS
 62
     7
 10
59.44128893793945
 20
70.14795733652191
 30
0.0
 11
59.48263008376246
 21
70.19067652053911
 31
0.0
  0
LINE
  5
233
  8
EL-LFB45702C-25N5
  6
CONTINUOUS
 62
     7
 10
56.51984796644755
 20
69.5979478423018
 30
0.0
 11
56.51984796644755
 21
66.88751896928152
 31
0.0
  0
LINE
  5
234
  8
EL-LFB45702C-25N5
  6
CONTINUOUS
 62
     7
 10
61.51523642005984
 20
67.86196422728442
 30
0.0
 11
61.30301853816843
 21
67.8189005337188
 31
0.0
  0
LINE
  5
235
  8
EL-LFB45702C-25N5
  6
CONTINUOUS
 62
     7
 10
61.30301853816843
 20
67.7777316426701
 30
0.0
 11
61.30301853816843
 21
67.8189005337188
 31
0.0
  0
LINE
  5
236
  8
EL-LFB45702C-25N5
  6
CONTINUOUS
 62
     7
 10
61.30301853816843
 20
67.7777316426701
 30
0.0
 11
61.51523642005984
 21
67.8189005337188
 31
0.0
  0
LINE
  5
237
  8
EL-LFB45702C-25N5
  6
CONTINUOUS
 62
     7
 10
58.84873251447645
 20
69.89439830880751
 30
0.0
 11
58.80601333045934
 21
69.93556719985631
 31
0.0
  0
LINE
  5
238
  8
EL-LFB45702C-25N5
  6
CONTINUOUS
 62
     7
 10
58.76329414644224
 20
69.93556719985631
 30
0.0
 11
58.80601333045934
 21
69.89439830880751
 31
0.0
  0
LINE
  5
239
  8
EL-LFB45702C-25N5
  6
CONTINUOUS
 62
     7
 10
56.68934666432185
 20
68.41162921195601
 30
0.0
 11
56.68934666432185
 21
68.37028806613301
 31
0.0
  0
LINE
  5
23A
  8
EL-LFB45702C-25N5
  6
CONTINUOUS
 62
     7
 10
56.68934666432185
 20
69.51268172904192
 30
0.0
 11
56.51984796644755
 21
69.5979478423018
 31
0.0
  0
LINE
  5
23B
  8
EL-LFB45702C-25N5
  6
CONTINUOUS
 62
     7
 10
56.73206584833895
 20
66.88751896928152
 30
0.0
 11
56.51984796644755
 21
66.88751896928152
 31
0.0
  0
LINE
  5
23C
  8
EL-LFB45702C-25N5
  6
CONTINUOUS
 62
     7
 10
56.51984796644755
 20
66.84635007823282
 30
0.0
 11
56.73206584833895
 21
66.88751896928152
 31
0.0
  0
LINE
  5
23D
  8
EL-LFB45702C-25N5
  6
CONTINUOUS
 62
     7
 10
56.68934666432185
 20
68.32756888211591
 30
0.0
 11
56.68934666432185
 21
68.37028806613301
 31
0.0
  0
LINE
  5
23E
  8
EL-LFB45702C-25N5
  6
CONTINUOUS
 62
     7
 10
61.51523642005984
 20
67.86196422728442
 30
0.0
 11
61.59929674989994
 21
67.8189005337188
 31
0.0
  0
LINE
  5
23F
  8
EL-LFB45702C-25N5
  6
CONTINUOUS
 62
     7
 10
56.77340699416195
 20
66.88751896928152
 30
0.0
 11
56.73206584833895
 21
66.88751896928152
 31
0.0
  0
LINE
  5
240
  8
EL-LFB45702C-25N5
  6
CONTINUOUS
 62
     7
 10
67.86523641847235
 20
66.88751896928152
 30
0.0
 11
95.93174031770575
 21
50.20895045131572
 31
0.0
  0
LINE
  5
241
  8
EL-LFB45702C-25N5
  6
CONTINUOUS
 62
     7
 10
95.97445950172285
 20
50.20895045131572
 30
0.0
 11
95.97445950172285
 21
49.10789793422991
 31
0.0
  0
LINE
  5
242
  8
EL-LFB45702C-25N5
  6
CONTINUOUS
 62
     7
 10
61.51523642005984
 20
70.61356199135341
 30
0.0
 11
61.51523642005984
 21
67.86196422728442
 31
0.0
  0
LINE
  5
243
  8
EL-LFB45702C-25N5
  6
CONTINUOUS
 62
     7
 10
59.22907105604804
 20
70.14795733652191
 30
0.0
 11
61.47251723604275
 21
70.61356199135341
 31
0.0
  0
LINE
  5
244
  8
EL-LFB45702C-25N5
  6
CONTINUOUS
 62
     7
 10
58.80601333045934
 20
70.06251896848771
 30
0.0
 11
56.51984796644755
 21
69.63963349767342
 31
0.0
  0
LINE
  5
245
  8
EL-LFB45702C-25N5
  6
CONTINUOUS
 62
     7
 10
61.47251723604275
 20
70.61356199135341
 30
0.0
 11
61.51523642005984
 21
70.61356199135341
 31
0.0
  0
LINE
  5
246
  8
EL-LFB45702C-25N5
  6
CONTINUOUS
 62
     7
 10
56.47712878243044
 20
69.5979478423018
 30
0.0
 11
56.47712878243044
 21
66.88751896928152
 31
0.0
  0
LINE
  5
247
  8
EL-LFB45702C-25N5
  6
CONTINUOUS
 62
     7
 10
61.51523642005984
 20
70.61356199135341
 30
0.0
 11
65.11329414485475
 21
68.5396145092331
 31
0.0
  0
LINE
  5
248
  8
EL-LFB45702C-25N5
  6
CONTINUOUS
 62
     7
 10
61.47251723604275
 20
70.65628117537061
 30
0.0
 11
56.51984796644755
 21
69.63963349767342
 31
0.0
  0
LINE
  5
249
  8
EL-LFB45702C-25N5
  6
CONTINUOUS
 62
     7
 10
58.80601333045934
 20
69.93556719985631
 30
0.0
 11
58.84873251447645
 21
69.93556719985631
 31
0.0
  0
LINE
  5
24A
  8
EL-LFB45702C-25N5
  6
CONTINUOUS
 62
     7
 10
58.80601333045934
 20
69.93556719985631
 30
0.0
 11
58.76329414644224
 21
69.93556719985631
 31
0.0
  0
LINE
  5
24B
  8
EL-LFB45702C-25N5
  6
CONTINUOUS
 62
     7
 10
56.51984796644755
 20
69.5979478423018
 30
0.0
 11
56.51984796644755
 21
69.63963349767342
 31
0.0
  0
LINE
  5
24C
  8
EL-LFB45702C-25N5
  6
CONTINUOUS
 62
     7
 10
61.51523642005984
 20
67.86196422728442
 30
0.0
 11
61.51523642005984
 21
67.8189005337188
 31
0.0
  0
LINE
  5
24D
  8
EL-LFB45702C-25N5
  6
CONTINUOUS
 62
     7
 10
95.97445950172285
 20
50.20895045131572
 30
0.0
 11
95.93174031770575
 21
50.20895045131572
 31
0.0
  0
LINE
  5
24E
  8
EL-LFB45702C-25N5
  6
CONTINUOUS
 62
     7
 10
70.95479804964437
 20
63.84067652212661
 30
0.0
 11
71.04023641767854
 21
63.6713500790265
 31
0.0
  0
LINE
  5
24F
  8
EL-LFB45702C-25N5
  6
CONTINUOUS
 62
     7
 10
70.99751723366147
 20
63.79795733810941
 30
0.0
 11
70.99751723366147
 21
63.6713500790265
 31
0.0
  0
LINE
  5
250
  8
EL-LFB45702C-25N5
  6
CONTINUOUS
 62
     7
 10
70.91345690382134
 20
63.79795733810941
 30
0.0
 11
70.99751723366147
 21
63.79795733810941
 31
0.0
  0
LINE
  5
251
  8
EL-LFB45702C-25N5
  6
CONTINUOUS
 62
     7
 10
70.91345690382134
 20
63.71251897007522
 30
0.0
 11
70.95479804964437
 21
63.84067652212661
 31
0.0
  0
LINE
  5
252
  8
EL-LFB45702C-25N5
  6
CONTINUOUS
 62
     7
 10
80.52251723128025
 20
58.16729327701711
 30
0.0
 11
80.60795559931444
 21
57.9979668339171
 31
0.0
  0
LINE
  5
253
  8
EL-LFB45702C-25N5
  6
CONTINUOUS
 62
     7
 10
80.52251723128025
 20
58.16729327701711
 30
0.0
 11
80.56523641529735
 21
58.04068601793421
 31
0.0
  0
LINE
  5
254
  8
EL-LFB45702C-25N5
  6
CONTINUOUS
 62
     7
 10
80.47979804726315
 20
58.08323294717701
 30
0.0
 11
80.52251723128025
 21
58.16729327701711
 31
0.0
  0
LINE
  5
255
  8
EL-LFB45702C-25N5
  6
CONTINUOUS
 62
     7
 10
56.47712878243044
 20
69.5979478423018
 30
0.0
 11
56.51984796644755
 21
69.63963349767342
 31
0.0
  0
LINE
  5
256
  8
EL-LFB45702C-25N5
  6
CONTINUOUS
 62
     7
 10
56.47712878243044
 20
66.88751896928152
 30
0.0
 11
56.51984796644755
 21
66.84635007823282
 31
0.0
  0
LINE
  5
257
  8
EL-LFB45702C-25N5
  6
CONTINUOUS
 62
     7
 10
61.51523642005984
 20
70.61356199135341
 30
0.0
 11
61.47251723604275
 21
70.65628117537061
 31
0.0
  0
LINE
  5
258
  8
EL-LFB45702C-25N5
  6
CONTINUOUS
 62
     7
 10
89.49767998945315
 20
43.77351208486901
 30
0.0
 11
89.54039917347025
 21
43.77351208486901
 31
0.0
  0
LINE
  5
259
  8
EL-LFB45702C-25N5
  6
CONTINUOUS
 62
     7
 10
89.03190307984737
 20
43.85895045290322
 30
0.0
 11
88.98918389583025
 21
43.85895045290322
 31
0.0
  0
LINE
  5
25A
  8
EL-LFB45702C-25N5
  6
CONTINUOUS
 62
     7
 10
89.96345689905887
 20
45.46729328019211
 30
0.0
 11
89.96345689905887
 21
45.51001246420921
 31
0.0
  0
LINE
  5
25B
  8
EL-LFB45702C-25N5
  6
CONTINUOUS
 62
     7
 10
90.09023641291604
 20
45.46729328019211
 30
0.0
 11
90.04751722889897
 21
45.46729328019211
 31
0.0
  0
LINE
  5
25C
  8
EL-LFB45702C-25N5
  6
CONTINUOUS
 62
     7
 10
89.58174031929325
 20
43.77351208486901
 30
0.0
 11
89.54039917347025
 21
43.77351208486901
 31
0.0
  0
LINE
  5
25D
  8
EL-LFB45702C-25N5
  6
CONTINUOUS
 62
     7
 10
89.41224162141894
 20
43.77351208486901
 30
0.0
 11
89.58174031929325
 21
43.81623126888611
 31
0.0
  0
LINE
  5
25E
  8
EL-LFB45702C-25N5
  6
CONTINUOUS
 62
     7
 10
89.15868259370457
 20
43.81623126888611
 30
0.0
 11
89.24412096173874
 21
43.77351208486901
 31
0.0
  0
LINE
  5
25F
  8
EL-LFB45702C-25N5
  6
CONTINUOUS
 62
     7
 10
89.15868259370457
 20
43.81623126888611
 30
0.0
 11
89.03190307984737
 21
43.85895045290322
 31
0.0
  0
LINE
  5
260
  8
EL-LFB45702C-25N5
  6
CONTINUOUS
 62
     7
 10
90.21701592677323
 20
44.5355672062063
 30
0.0
 11
90.25973511079034
 21
44.87456460195492
 31
0.0
  0
LINE
  5
261
  8
EL-LFB45702C-25N5
  6
CONTINUOUS
 62
     7
 10
90.09023641291604
 20
44.2823526880404
 30
0.0
 11
90.21701592677323
 21
44.5355672062063
 31
0.0
  0
LINE
  5
262
  8
EL-LFB45702C-25N5
  6
CONTINUOUS
 62
     7
 10
89.58174031929325
 20
43.90201414646891
 30
0.0
 11
90.09023641291604
 21
44.2823526880404
 31
0.0
  0
LINE
  5
263
  8
EL-LFB45702C-25N5
  6
CONTINUOUS
 62
     7
 10
89.11596340968747
 20
43.90201414646891
 30
0.0
 11
89.58174031929325
 21
43.90201414646891
 31
0.0
  0
LINE
  5
264
  8
EL-LFB45702C-25N5
  6
CONTINUOUS
 62
     7
 10
88.81968519795596
 20
44.15522866463472
 30
0.0
 11
89.11596340968747
 21
43.90201414646891
 31
0.0
  0
LINE
  5
265
  8
EL-LFB45702C-25N5
  6
CONTINUOUS
 62
     7
 10
89.28546210756174
 20
43.77351208486901
 30
0.0
 11
89.58174031929325
 21
43.81623126888611
 31
0.0
  0
LINE
  5
266
  8
EL-LFB45702C-25N5
  6
CONTINUOUS
 62
     7
 10
88.98918389583025
 20
43.85895045290322
 30
0.0
 11
89.28546210756174
 21
43.77351208486901
 31
0.0
  0
LINE
  5
267
  8
EL-LFB45702C-25N5
  6
CONTINUOUS
 62
     7
 10
88.98918389583025
 20
43.85895045290322
 30
0.0
 11
88.73528035856735
 21
44.19794784865179
 31
0.0
  0
LINE
  5
268
  8
EL-LFB45702C-25N5
  6
CONTINUOUS
 62
     7
 10
90.09023641291604
 20
45.34068602110921
 30
0.0
 11
89.62445950331035
 21
45.51001246420921
 31
0.0
  0
LINE
  5
269
  8
EL-LFB45702C-25N5
  6
CONTINUOUS
 62
     7
 10
90.25973511079034
 20
44.87456460195492
 30
0.0
 11
90.09023641291604
 21
45.34068602110921
 31
0.0
  0
LINE
  5
26A
  8
EL-LFB45702C-25N5
  6
CONTINUOUS
 62
     7
 10
90.25973511079034
 20
45.1710150684606
 30
0.0
 11
89.96345689905887
 21
45.51001246420921
 31
0.0
  0
LINE
  5
26B
  8
EL-LFB45702C-25N5
  6
CONTINUOUS
 62
     7
 10
90.13295559693313
 20
45.38323295035201
 30
0.0
 11
90.09023641291604
 21
45.42457409617501
 31
0.0
  0
LINE
  5
26C
  8
EL-LFB45702C-25N5
  6
CONTINUOUS
 62
     7
 10
90.04751722889897
 20
45.46729328019211
 30
0.0
 11
89.96345689905887
 21
45.46729328019211
 31
0.0
  0
LINE
  5
26D
  8
EL-LFB45702C-25N5
  6
CONTINUOUS
 62
     7
 10
89.54039917347025
 20
45.59390053927501
 30
0.0
 11
89.96345689905887
 21
45.51001246420921
 31
0.0
  0
LINE
  5
26E
  8
EL-LFB45702C-25N5
  6
CONTINUOUS
 62
     7
 10
91.02179023212766
 20
45.63696423284071
 30
0.0
 11
90.93635186409345
 21
45.72085230790651
 31
0.0
  0
LINE
  5
26F
  8
EL-LFB45702C-25N5
  6
CONTINUOUS
 62
     7
 10
90.93635186409345
 20
45.67968341685781
 30
0.0
 11
91.02179023212766
 21
45.63696423284071
 31
0.0
  0
LINE
  5
270
  8
EL-LFB45702C-25N5
  6
CONTINUOUS
 62
     7
 10
91.02179023212766
 20
45.63696423284071
 30
0.0
 11
91.02179023212766
 21
45.97561711904071
 31
0.0
  0
LINE
  5
271
  8
EL-LFB45702C-25N5
  6
CONTINUOUS
 62
     7
 10
91.02179023212766
 20
45.59390053927501
 30
0.0
 11
90.89501071827044
 21
44.32489961728329
 31
0.0
  0
LINE
  5
272
  8
EL-LFB45702C-25N5
  6
CONTINUOUS
 62
     7
 10
90.89501071827044
 20
44.36624076310632
 30
0.0
 11
91.02179023212766
 21
45.63696423284071
 31
0.0
  0
LINE
  5
273
  8
EL-LFB45702C-25N5
  6
CONTINUOUS
 62
     7
 10
90.80957235023625
 20
44.40895994712339
 30
0.0
 11
90.89501071827044
 21
44.36624076310632
 31
0.0
  0
LINE
  5
274
  8
EL-LFB45702C-25N5
  6
CONTINUOUS
 62
     7
 10
91.02179023212766
 20
45.59390053927501
 30
0.0
 11
91.02179023212766
 21
45.63696423284071
 31
0.0
  0
LINE
  5
275
  8
EL-LFB45702C-25N5
  6
CONTINUOUS
 62
     7
 10
91.02179023212766
 20
45.63696423284071
 30
0.0
 11
91.02179023212766
 21
45.67968341685781
 31
0.0
  0
LINE
  5
276
  8
EL-LFB45702C-25N5
  6
CONTINUOUS
 62
     7
 10
89.58174031929325
 20
43.73234319382031
 30
0.0
 11
89.41224162141894
 21
43.68962400980321
 31
0.0
  0
LINE
  5
277
  8
EL-LFB45702C-25N5
  6
CONTINUOUS
 62
     7
 10
89.41224162141894
 20
43.73234319382031
 30
0.0
 11
89.45496080543603
 21
43.68962400980321
 31
0.0
  0
LINE
  5
278
  8
EL-LFB45702C-25N5
  6
CONTINUOUS
 62
     7
 10
89.58174031929325
 20
43.3079074300375
 30
0.0
 11
89.49767998945315
 21
43.39334579807171
 31
0.0
  0
LINE
  5
279
  8
EL-LFB45702C-25N5
  6
CONTINUOUS
 62
     7
 10
90.13295559693313
 20
43.3079074300375
 30
0.0
 11
89.58174031929325
 21
43.3079074300375
 31
0.0
  0
LINE
  5
27A
  8
EL-LFB45702C-25N5
  6
CONTINUOUS
 62
     7
 10
90.55601332252184
 20
43.56301675072031
 30
0.0
 11
90.13295559693313
 21
43.3079074300375
 31
0.0
  0
LINE
  5
27B
  8
EL-LFB45702C-25N5
  6
CONTINUOUS
 62
     7
 10
90.76685316621915
 20
43.85895045290322
 30
0.0
 11
90.55601332252184
 21
43.56301675072031
 31
0.0
  0
LINE
  5
27C
  8
EL-LFB45702C-25N5
  6
CONTINUOUS
 62
     7
 10
90.89501071827044
 20
44.32489961728329
 30
0.0
 11
90.76685316621915
 21
43.85895045290322
 31
0.0
  0
LINE
  5
27D
  8
EL-LFB45702C-25N5
  6
CONTINUOUS
 62
     7
 10
90.04751722889897
 20
43.3079074300375
 30
0.0
 11
89.49767998945315
 21
43.39334579807171
 31
0.0
  0
LINE
  5
27E
  8
EL-LFB45702C-25N5
  6
CONTINUOUS
 62
     7
 10
90.34379544063044
 20
43.47723387313751
 30
0.0
 11
90.04751722889897
 21
43.3079074300375
 31
0.0
  0
LINE
  5
27F
  8
EL-LFB45702C-25N5
  6
CONTINUOUS
 62
     7
 10
90.59873250653895
 20
43.73234319382031
 30
0.0
 11
90.34379544063044
 21
43.47723387313751
 31
0.0
  0
LINE
  5
280
  8
EL-LFB45702C-25N5
  6
CONTINUOUS
 62
     7
 10
90.89501071827044
 20
44.36624076310632
 30
0.0
 11
90.59873250653895
 21
43.73234319382031
 31
0.0
  0
LINE
  5
281
  8
EL-LFB45702C-25N5
  6
CONTINUOUS
 62
     7
 10
90.89501071827044
 20
44.32489961728329
 30
0.0
 11
90.89501071827044
 21
44.36624076310632
 31
0.0
  0
LINE
  5
282
  8
EL-LFB45702C-25N5
  6
CONTINUOUS
 62
     7
 10
89.70851983315045
 20
46.0598497036551
 30
0.0
 11
89.70851983315045
 21
46.10256888767221
 31
0.0
  0
LINE
  5
283
  8
EL-LFB45702C-25N5
  6
CONTINUOUS
 62
     7
 10
89.41224162141894
 20
43.68962400980321
 30
0.0
 11
89.41224162141894
 21
43.77351208486901
 31
0.0
  0
LINE
  5
284
  8
EL-LFB45702C-25N5
  6
CONTINUOUS
 62
     7
 10
90.47057495448765
 20
46.14528807168931
 30
0.0
 11
90.47057495448765
 21
46.27189533077221
 31
0.0
  0
LINE
  5
285
  8
EL-LFB45702C-25N5
  6
CONTINUOUS
 62
     7
 10
89.58174031929325
 20
43.81623126888611
 30
0.0
 11
89.58174031929325
 21
43.68962400980321
 31
0.0
  0
LINE
  5
286
  8
EL-LFB45702C-25N5
  6
CONTINUOUS
 62
     7
 10
89.37090047559593
 20
43.43606498208881
 30
0.0
 11
88.98918389583025
 21
43.68962400980321
 31
0.0
  0
LINE
  5
287
  8
EL-LFB45702C-25N5
  6
CONTINUOUS
 62
     7
 10
89.15868259370457
 20
45.8490098599578
 30
0.0
 11
89.11596340968747
 21
45.89017875100652
 31
0.0
  0
LINE
  5
288
  8
EL-LFB45702C-25N5
  6
CONTINUOUS
 62
     7
 10
89.07462226386447
 20
45.8490098599578
 30
0.0
 11
89.11596340968747
 21
45.8490098599578
 31
0.0
  0
LINE
  5
289
  8
EL-LFB45702C-25N5
  6
CONTINUOUS
 62
     7
 10
89.24412096173874
 20
45.8490098599578
 30
0.0
 11
89.24412096173874
 21
45.89017875100652
 31
0.0
  0
LINE
  5
28A
  8
EL-LFB45702C-25N5
  6
CONTINUOUS
 62
     7
 10
89.24412096173874
 20
45.8490098599578
 30
0.0
 11
89.28546210756174
 21
45.8490098599578
 31
0.0
  0
LINE
  5
28B
  8
EL-LFB45702C-25N5
  6
CONTINUOUS
 62
     7
 10
89.24412096173874
 20
45.8490098599578
 30
0.0
 11
89.20140177772164
 21
45.89017875100652
 31
0.0
  0
LINE
  5
28C
  8
EL-LFB45702C-25N5
  6
CONTINUOUS
 62
     7
 10
89.20140177772164
 20
45.89017875100652
 30
0.0
 11
89.20140177772164
 21
45.8490098599578
 31
0.0
  0
LINE
  5
28D
  8
EL-LFB45702C-25N5
  6
CONTINUOUS
 62
     7
 10
89.24412096173874
 20
45.8490098599578
 30
0.0
 11
89.20140177772164
 21
45.8490098599578
 31
0.0
  0
LINE
  5
28E
  8
EL-LFB45702C-25N5
  6
CONTINUOUS
 62
     7
 10
89.24412096173874
 20
45.89017875100652
 30
0.0
 11
89.20140177772164
 21
45.8490098599578
 31
0.0
  0
LINE
  5
28F
  8
EL-LFB45702C-25N5
  6
CONTINUOUS
 62
     7
 10
89.20140177772164
 20
45.89017875100652
 30
0.0
 11
89.24412096173874
 21
45.89017875100652
 31
0.0
  0
LINE
  5
290
  8
EL-LFB45702C-25N5
  6
CONTINUOUS
 62
     7
 10
89.15868259370457
 20
45.89017875100652
 30
0.0
 11
89.11596340968747
 21
45.89017875100652
 31
0.0
  0
LINE
  5
291
  8
EL-LFB45702C-25N5
  6
CONTINUOUS
 62
     7
 10
89.15868259370457
 20
45.8490098599578
 30
0.0
 11
89.15868259370457
 21
45.89017875100652
 31
0.0
  0
LINE
  5
292
  8
EL-LFB45702C-25N5
  6
CONTINUOUS
 62
     7
 10
88.86240438197306
 20
45.9328979350236
 30
0.0
 11
88.81968519795596
 21
45.89017875100652
 31
0.0
  0
LINE
  5
293
  8
EL-LFB45702C-25N5
  6
CONTINUOUS
 62
     7
 10
90.51329413850475
 20
45.9328979350236
 30
0.0
 11
90.93635186409345
 21
45.67968341685781
 31
0.0
  0
LINE
  5
294
  8
EL-LFB45702C-25N5
  6
CONTINUOUS
 62
     7
 10
90.93635186409345
 20
45.72085230790651
 30
0.0
 11
90.51329413850475
 21
45.9328979350236
 31
0.0
  0
LINE
  5
295
  8
EL-LFB45702C-25N5
  6
CONTINUOUS
 62
     7
 10
89.87801853102467
 20
45.89017875100652
 30
0.0
 11
89.75123901716755
 21
45.80629067594072
 31
0.0
  0
LINE
  5
296
  8
EL-LFB45702C-25N5
  6
CONTINUOUS
 62
     7
 10
89.66717868732745
 20
45.89017875100652
 30
0.0
 11
89.70851983315045
 21
45.89017875100652
 31
0.0
  0
LINE
  5
297
  8
EL-LFB45702C-25N5
  6
CONTINUOUS
 62
     7
 10
89.75123901716755
 20
45.89017875100652
 30
0.0
 11
89.75123901716755
 21
45.9328979350236
 31
0.0
  0
LINE
  5
298
  8
EL-LFB45702C-25N5
  6
CONTINUOUS
 62
     7
 10
89.70851983315045
 20
45.9328979350236
 30
0.0
 11
89.70851983315045
 21
45.89017875100652
 31
0.0
  0
LINE
  5
299
  8
EL-LFB45702C-25N5
  6
CONTINUOUS
 62
     7
 10
89.75123901716755
 20
45.9328979350236
 30
0.0
 11
89.70851983315045
 21
45.9328979350236
 31
0.0
  0
LINE
  5
29A
  8
EL-LFB45702C-25N5
  6
CONTINUOUS
 62
     7
 10
89.92073771504177
 20
45.9328979350236
 30
0.0
 11
89.92073771504177
 21
45.89017875100652
 31
0.0
  0
LINE
  5
29B
  8
EL-LFB45702C-25N5
  6
CONTINUOUS
 62
     7
 10
89.92073771504177
 20
45.9328979350236
 30
0.0
 11
89.87801853102467
 21
45.9328979350236
 31
0.0
  0
LINE
  5
29C
  8
EL-LFB45702C-25N5
  6
CONTINUOUS
 62
     7
 10
89.70851983315045
 20
45.89017875100652
 30
0.0
 11
89.75123901716755
 21
45.89017875100652
 31
0.0
  0
LINE
  5
29D
  8
EL-LFB45702C-25N5
  6
CONTINUOUS
 62
     7
 10
89.79395820118464
 20
45.97561711904071
 30
0.0
 11
89.83667738520167
 21
45.97561711904071
 31
0.0
  0
LINE
  5
29E
  8
EL-LFB45702C-25N5
  6
CONTINUOUS
 62
     7
 10
89.83667738520167
 20
45.97561711904071
 30
0.0
 11
89.83667738520167
 21
45.9328979350236
 31
0.0
  0
LINE
  5
29F
  8
EL-LFB45702C-25N5
  6
CONTINUOUS
 62
     7
 10
89.83667738520167
 20
45.97561711904071
 30
0.0
 11
89.83667738520167
 21
46.01868081260631
 31
0.0
  0
LINE
  5
2A0
  8
EL-LFB45702C-25N5
  6
CONTINUOUS
 62
     7
 10
89.79395820118464
 20
45.97561711904071
 30
0.0
 11
89.79395820118464
 21
46.01868081260631
 31
0.0
  0
LINE
  5
2A1
  8
EL-LFB45702C-25N5
  6
CONTINUOUS
 62
     7
 10
89.79395820118464
 20
45.97561711904071
 30
0.0
 11
89.79395820118464
 21
45.9328979350236
 31
0.0
  0
LINE
  5
2A2
  8
EL-LFB45702C-25N5
  6
CONTINUOUS
 62
     7
 10
89.79395820118464
 20
46.01868081260631
 30
0.0
 11
89.79395820118464
 21
45.9328979350236
 31
0.0
  0
LINE
  5
2A3
  8
EL-LFB45702C-25N5
  6
CONTINUOUS
 62
     7
 10
89.79395820118464
 20
45.8490098599578
 30
0.0
 11
89.87801853102467
 21
45.9328979350236
 31
0.0
  0
LINE
  5
2A4
  8
EL-LFB45702C-25N5
  6
CONTINUOUS
 62
     7
 10
89.92073771504177
 20
45.89017875100652
 30
0.0
 11
89.79395820118464
 21
45.8490098599578
 31
0.0
  0
LINE
  5
2A5
  8
EL-LFB45702C-25N5
  6
CONTINUOUS
 62
     7
 10
89.92073771504177
 20
45.89017875100652
 30
0.0
 11
89.87801853102467
 21
45.9328979350236
 31
0.0
  0
LINE
  5
2A6
  8
EL-LFB45702C-25N5
  6
CONTINUOUS
 62
     7
 10
89.92073771504177
 20
45.97561711904071
 30
0.0
 11
89.92073771504177
 21
45.9328979350236
 31
0.0
  0
LINE
  5
2A7
  8
EL-LFB45702C-25N5
  6
CONTINUOUS
 62
     7
 10
89.96345689905887
 20
45.8490098599578
 30
0.0
 11
89.92073771504177
 21
45.8490098599578
 31
0.0
  0
LINE
  5
2A8
  8
EL-LFB45702C-25N5
  6
CONTINUOUS
 62
     7
 10
89.87801853102467
 20
45.9328979350236
 30
0.0
 11
89.92073771504177
 21
45.97561711904071
 31
0.0
  0
LINE
  5
2A9
  8
EL-LFB45702C-25N5
  6
CONTINUOUS
 62
     7
 10
90.17429674275616
 20
45.97561711904071
 30
0.0
 11
90.17429674275616
 21
45.9328979350236
 31
0.0
  0
LINE
  5
2AA
  8
EL-LFB45702C-25N5
  6
CONTINUOUS
 62
     7
 10
90.93635186409345
 20
46.01868081260631
 30
0.0
 11
90.93635186409345
 21
45.72085230790651
 31
0.0
  0
LINE
  5
2AB
  8
EL-LFB45702C-25N5
  6
CONTINUOUS
 62
     7
 10
90.47057495448765
 20
45.9328979350236
 30
0.0
 11
90.47057495448765
 21
46.10256888767221
 31
0.0
  0
LINE
  5
2AC
  8
EL-LFB45702C-25N5
  6
CONTINUOUS
 62
     7
 10
90.42923380866465
 20
46.22934840152941
 30
0.0
 11
90.34379544063044
 21
46.1866292175123
 31
0.0
  0
LINE
  5
2AD
  8
EL-LFB45702C-25N5
  6
CONTINUOUS
 62
     7
 10
90.34379544063044
 20
45.97561711904071
 30
0.0
 11
90.42923380866465
 21
46.01868081260631
 31
0.0
  0
LINE
  5
2AE
  8
EL-LFB45702C-25N5
  6
CONTINUOUS
 62
     7
 10
90.17429674275616
 20
45.9328979350236
 30
0.0
 11
90.09023641291604
 21
45.9328979350236
 31
0.0
  0
LINE
  5
2AF
  8
EL-LFB45702C-25N5
  6
CONTINUOUS
 62
     7
 10
90.09023641291604
 20
46.14528807168931
 30
0.0
 11
90.17429674275616
 21
46.1866292175123
 31
0.0
  0
LINE
  5
2B0
  8
EL-LFB45702C-25N5
  6
CONTINUOUS
 62
     7
 10
90.51329413850475
 20
45.9328979350236
 30
0.0
 11
90.51329413850475
 21
46.27189533077221
 31
0.0
  0
LINE
  5
2B1
  8
EL-LFB45702C-25N5
  6
CONTINUOUS
 62
     7
 10
90.93635186409345
 20
45.67968341685781
 30
0.0
 11
90.80957235023625
 21
44.40895994712339
 31
0.0
  0
LINE
  5
2B2
  8
EL-LFB45702C-25N5
  6
CONTINUOUS
 62
     7
 10
90.38651462464755
 20
44.62135008378901
 30
0.0
 11
90.51329413850475
 21
45.9328979350236
 31
0.0
  0
LINE
  5
2B3
  8
EL-LFB45702C-25N5
  6
CONTINUOUS
 62
     7
 10
90.80957235023625
 20
44.40895994712339
 30
0.0
 11
90.38651462464755
 21
44.62135008378901
 31
0.0
  0
LINE
  5
2B4
  8
EL-LFB45702C-25N5
  6
CONTINUOUS
 62
     7
 10
90.47057495448765
 20
45.9328979350236
 30
0.0
 11
90.34379544063044
 21
44.66251897483779
 31
0.0
  0
LINE
  5
2B5
  8
EL-LFB45702C-25N5
  6
CONTINUOUS
 62
     7
 10
89.28546210756174
 20
45.76357149192361
 30
0.0
 11
89.28546210756174
 21
45.72085230790651
 31
0.0
  0
LINE
  5
2B6
  8
EL-LFB45702C-25N5
  6
CONTINUOUS
 62
     7
 10
89.24412096173874
 20
45.80629067594072
 30
0.0
 11
89.24412096173874
 21
45.8490098599578
 31
0.0
  0
LINE
  5
2B7
  8
EL-LFB45702C-25N5
  6
CONTINUOUS
 62
     7
 10
89.24412096173874
 20
45.76357149192361
 30
0.0
 11
89.20140177772164
 21
45.76357149192361
 31
0.0
  0
LINE
  5
2B8
  8
EL-LFB45702C-25N5
  6
CONTINUOUS
 62
     7
 10
89.75123901716755
 20
45.80629067594072
 30
0.0
 11
89.79395820118464
 21
45.80629067594072
 31
0.0
  0
LINE
  5
2B9
  8
EL-LFB45702C-25N5
  6
CONTINUOUS
 62
     7
 10
89.70851983315045
 20
45.76357149192361
 30
0.0
 11
89.70851983315045
 21
45.80629067594072
 31
0.0
  0
LINE
  5
2BA
  8
EL-LFB45702C-25N5
  6
CONTINUOUS
 62
     7
 10
89.70851983315045
 20
45.76357149192361
 30
0.0
 11
89.75123901716755
 21
45.76357149192361
 31
0.0
  0
LINE
  5
2BB
  8
EL-LFB45702C-25N5
  6
CONTINUOUS
 62
     7
 10
89.79395820118464
 20
45.76357149192361
 30
0.0
 11
89.79395820118464
 21
45.72085230790651
 31
0.0
  0
LINE
  5
2BC
  8
EL-LFB45702C-25N5
  6
CONTINUOUS
 62
     7
 10
89.70851983315045
 20
45.76357149192361
 30
0.0
 11
89.66717868732745
 21
45.76357149192361
 31
0.0
  0
LINE
  5
2BD
  8
EL-LFB45702C-25N5
  6
CONTINUOUS
 62
     7
 10
89.83667738520167
 20
45.76357149192361
 30
0.0
 11
89.79395820118464
 21
45.76357149192361
 31
0.0
  0
LINE
  5
2BE
  8
EL-LFB45702C-25N5
  6
CONTINUOUS
 62
     7
 10
89.83667738520167
 20
45.76357149192361
 30
0.0
 11
89.83667738520167
 21
45.72085230790651
 31
0.0
  0
LINE
  5
2BF
  8
EL-LFB45702C-25N5
  6
CONTINUOUS
 62
     7
 10
89.83667738520167
 20
45.76357149192361
 30
0.0
 11
89.79395820118464
 21
45.72085230790651
 31
0.0
  0
LINE
  5
2C0
  8
EL-LFB45702C-25N5
  6
CONTINUOUS
 62
     7
 10
89.92073771504177
 20
45.80629067594072
 30
0.0
 11
89.92073771504177
 21
45.8490098599578
 31
0.0
  0
LINE
  5
2C1
  8
EL-LFB45702C-25N5
  6
CONTINUOUS
 62
     7
 10
89.70851983315045
 20
45.80629067594072
 30
0.0
 11
89.70851983315045
 21
45.8490098599578
 31
0.0
  0
LINE
  5
2C2
  8
EL-LFB45702C-25N5
  6
CONTINUOUS
 62
     7
 10
89.92073771504177
 20
45.80629067594072
 30
0.0
 11
89.96345689905887
 21
45.80629067594072
 31
0.0
  0
LINE
  5
2C3
  8
EL-LFB45702C-25N5
  6
CONTINUOUS
 62
     7
 10
89.75123901716755
 20
45.76357149192361
 30
0.0
 11
89.70851983315045
 21
45.80629067594072
 31
0.0
  0
LINE
  5
2C4
  8
EL-LFB45702C-25N5
  6
CONTINUOUS
 62
     7
 10
89.79395820118464
 20
45.72085230790651
 30
0.0
 11
89.83667738520167
 21
45.72085230790651
 31
0.0
  0
LINE
  5
2C5
  8
EL-LFB45702C-25N5
  6
CONTINUOUS
 62
     7
 10
89.28546210756174
 20
45.76357149192361
 30
0.0
 11
89.24412096173874
 21
45.76357149192361
 31
0.0
  0
LINE
  5
2C6
  8
EL-LFB45702C-25N5
  6
CONTINUOUS
 62
     7
 10
89.28546210756174
 20
45.80629067594072
 30
0.0
 11
89.24412096173874
 21
45.80629067594072
 31
0.0
  0
LINE
  5
2C7
  8
EL-LFB45702C-25N5
  6
CONTINUOUS
 62
     7
 10
89.28546210756174
 20
45.8490098599578
 30
0.0
 11
89.28546210756174
 21
45.80629067594072
 31
0.0
  0
LINE
  5
2C8
  8
EL-LFB45702C-25N5
  6
CONTINUOUS
 62
     7
 10
90.04751722889897
 20
44.02862140555182
 30
0.0
 11
90.34379544063044
 21
44.66251897483779
 31
0.0
  0
LINE
  5
2C9
  8
EL-LFB45702C-25N5
  6
CONTINUOUS
 62
     7
 10
89.49767998945315
 20
43.68962400980321
 30
0.0
 11
90.04751722889897
 21
44.02862140555182
 31
0.0
  0
LINE
  5
2CA
  8
EL-LFB45702C-25N5
  6
CONTINUOUS
 62
     7
 10
89.15868259370457
 20
43.68962400980321
 30
0.0
 11
89.49767998945315
 21
43.68962400980321
 31
0.0
  0
LINE
  5
2CB
  8
EL-LFB45702C-25N5
  6
CONTINUOUS
 62
     7
 10
88.94646471181316
 20
43.81623126888611
 30
0.0
 11
89.15868259370457
 21
43.68962400980321
 31
0.0
  0
LINE
  5
2CC
  8
EL-LFB45702C-25N5
  6
CONTINUOUS
 62
     7
 10
88.73528035856735
 20
43.98590222153472
 30
0.0
 11
88.94646471181316
 21
43.81623126888611
 31
0.0
  0
LINE
  5
2CD
  8
EL-LFB45702C-25N5
  6
CONTINUOUS
 62
     7
 10
88.65018650008165
 20
44.2396335040233
 30
0.0
 11
88.73528035856735
 21
43.98590222153472
 31
0.0
  0
LINE
  5
2CE
  8
EL-LFB45702C-25N5
  6
CONTINUOUS
 62
     7
 10
89.62445950331035
 20
43.3506266140546
 30
0.0
 11
89.37090047559593
 21
43.43589272731451
 31
0.0
  0
LINE
  5
2CF
  8
EL-LFB45702C-25N5
  6
CONTINUOUS
 62
     7
 10
90.25973511079034
 20
43.52029756670321
 30
0.0
 11
89.62445950331035
 21
43.3506266140546
 31
0.0
  0
LINE
  5
2D0
  8
EL-LFB45702C-25N5
  6
CONTINUOUS
 62
     7
 10
90.51329413850475
 20
43.77351208486901
 30
0.0
 11
90.25973511079034
 21
43.52029756670321
 31
0.0
  0
LINE
  5
2D1
  8
EL-LFB45702C-25N5
  6
CONTINUOUS
 62
     7
 10
90.80957235023625
 20
44.40895994712339
 30
0.0
 11
90.51329413850475
 21
43.77351208486901
 31
0.0
  0
LINE
  5
2D2
  8
EL-LFB45702C-25N5
  6
CONTINUOUS
 62
     7
 10
89.58174031929325
 20
43.68962400980321
 30
0.0
 11
89.41224162141894
 21
43.68962400980321
 31
0.0
  0
LINE
  5
2D3
  8
EL-LFB45702C-25N5
  6
CONTINUOUS
 62
     7
 10
90.04751722889897
 20
44.11250948061762
 30
0.0
 11
89.58174031929325
 21
43.81623126888611
 31
0.0
  0
LINE
  5
2D4
  8
EL-LFB45702C-25N5
  6
CONTINUOUS
 62
     7
 10
90.25973511079034
 20
44.62135008378901
 30
0.0
 11
90.04751722889897
 21
44.11250948061762
 31
0.0
  0
LINE
  5
2D5
  8
EL-LFB45702C-25N5
  6
CONTINUOUS
 62
     7
 10
90.25973511079034
 20
45.12829588444352
 30
0.0
 11
90.25973511079034
 21
44.62135008378901
 31
0.0
  0
LINE
  5
2D6
  8
EL-LFB45702C-25N5
  6
CONTINUOUS
 62
     7
 10
89.96345689905887
 20
45.51001246420921
 30
0.0
 11
90.25973511079034
 21
45.12829588444352
 31
0.0
  0
LINE
  5
2D7
  8
EL-LFB45702C-25N5
  6
CONTINUOUS
 62
     7
 10
89.41224162141894
 20
43.77351208486901
 30
0.0
 11
88.98918389583025
 21
43.85895045290322
 31
0.0
  0
LINE
  5
2D8
  8
EL-LFB45702C-25N5
  6
CONTINUOUS
 62
     7
 10
90.13295559693313
 20
43.98590222153472
 30
0.0
 11
90.38651462464755
 21
44.62135008378901
 31
0.0
  0
LINE
  5
2D9
  8
EL-LFB45702C-25N5
  6
CONTINUOUS
 62
     7
 10
89.83667738520167
 20
43.77351208486901
 30
0.0
 11
90.13295559693313
 21
43.98590222153472
 31
0.0
  0
LINE
  5
2DA
  8
EL-LFB45702C-25N5
  6
CONTINUOUS
 62
     7
 10
89.54039917347025
 20
43.60418564176901
 30
0.0
 11
89.83667738520167
 21
43.77351208486901
 31
0.0
  0
LINE
  5
2DB
  8
EL-LFB45702C-25N5
  6
CONTINUOUS
 62
     7
 10
88.98918389583025
 20
43.68962400980321
 30
0.0
 11
89.54039917347025
 21
43.60418564176901
 31
0.0
  0
LINE
  5
2DC
  8
EL-LFB45702C-25N5
  6
CONTINUOUS
 62
     7
 10
89.03190307984737
 20
43.85895045290322
 30
0.0
 11
88.73562486811586
 21
44.19794784865179
 31
0.0
  0
LINE
  5
2DD
  8
EL-LFB45702C-25N5
  6
CONTINUOUS
 62
     7
 10
88.81968519795596
 20
43.98590222153472
 30
0.0
 11
88.69290568409876
 21
44.2396335040233
 31
0.0
  0
LINE
  5
2DE
  8
EL-LFB45702C-25N5
  6
CONTINUOUS
 62
     7
 10
88.98918389583025
 20
43.85895045290322
 30
0.0
 11
88.81968519795596
 21
43.98590222153472
 31
0.0
  0
LINE
  5
2DF
  8
EL-LFB45702C-25N5
  6
CONTINUOUS
 62
     7
 10
88.73528035856735
 20
43.94318303751761
 30
0.0
 11
88.60884535425866
 21
44.2823526880404
 31
0.0
  0
LINE
  5
2E0
  8
EL-LFB45702C-25N5
  6
CONTINUOUS
 62
     7
 10
88.98918389583025
 20
43.68962400980321
 30
0.0
 11
88.73528035856735
 21
43.94318303751761
 31
0.0
  0
LINE
  5
2E1
  8
EL-LFB45702C-25N5
  6
CONTINUOUS
 62
     7
 10
88.86240438197306
 20
45.9328979350236
 30
0.0
 11
88.90512356599015
 21
45.89017875100652
 31
0.0
  0
LINE
  5
2E2
  8
EL-LFB45702C-25N5
  6
CONTINUOUS
 62
     7
 10
90.47057495448765
 20
45.9328979350236
 30
0.0
 11
90.51329413850475
 21
45.9328979350236
 31
0.0
  0
LINE
  5
2E3
  8
EL-LFB45702C-25N5
  6
CONTINUOUS
 62
     7
 10
89.70851983315045
 20
45.97561711904071
 30
0.0
 11
89.92073771504177
 21
46.01868081260631
 31
0.0
  0
LINE
  5
2E4
  8
EL-LFB45702C-25N5
  6
CONTINUOUS
 62
     7
 10
89.66717868732745
 20
45.76357149192361
 30
0.0
 11
89.70851983315045
 21
45.97561711904071
 31
0.0
  0
LINE
  5
2E5
  8
EL-LFB45702C-25N5
  6
CONTINUOUS
 62
     7
 10
89.24412096173874
 20
45.89017875100652
 30
0.0
 11
89.28546210756174
 21
45.72085230790651
 31
0.0
  0
LINE
  5
2E6
  8
EL-LFB45702C-25N5
  6
CONTINUOUS
 62
     7
 10
89.79395820118464
 20
46.01868081260631
 30
0.0
 11
89.70851983315045
 21
45.9328979350236
 31
0.0
  0
LINE
  5
2E7
  8
EL-LFB45702C-25N5
  6
CONTINUOUS
 62
     7
 10
89.66717868732745
 20
45.89017875100652
 30
0.0
 11
89.70851983315045
 21
45.76357149192361
 31
0.0
  0
LINE
  5
2E8
  8
EL-LFB45702C-25N5
  6
CONTINUOUS
 62
     7
 10
89.92073771504177
 20
46.01868081260631
 30
0.0
 11
89.79395820118464
 21
46.01868081260631
 31
0.0
  0
LINE
  5
2E9
  8
EL-LFB45702C-25N5
  6
CONTINUOUS
 62
     7
 10
89.87801853102467
 20
45.72085230790651
 30
0.0
 11
89.75123901716755
 21
45.72085230790651
 31
0.0
  0
LINE
  5
2EA
  8
EL-LFB45702C-25N5
  6
CONTINUOUS
 62
     7
 10
89.96345689905887
 20
45.89017875100652
 30
0.0
 11
89.87801853102467
 21
45.72085230790651
 31
0.0
  0
LINE
  5
2EB
  8
EL-LFB45702C-25N5
  6
CONTINUOUS
 62
     7
 10
89.92073771504177
 20
46.01868081260631
 30
0.0
 11
89.96345689905887
 21
45.89017875100652
 31
0.0
  0
LINE
  5
2EC
  8
EL-LFB45702C-25N5
  6
CONTINUOUS
 62
     7
 10
90.34379544063044
 20
46.1866292175123
 30
0.0
 11
90.38651462464755
 21
46.01868081260631
 31
0.0
  0
LINE
  5
2ED
  8
EL-LFB45702C-25N5
  6
CONTINUOUS
 62
     7
 10
90.34379544063044
 20
46.1866292175123
 30
0.0
 11
90.47057495448765
 21
46.14528807168931
 31
0.0
  0
LINE
  5
2EE
  8
EL-LFB45702C-25N5
  6
CONTINUOUS
 62
     7
 10
90.42923380866465
 20
46.22934840152941
 30
0.0
 11
90.47057495448765
 21
46.14528807168931
 31
0.0
  0
LINE
  5
2EF
  8
EL-LFB45702C-25N5
  6
CONTINUOUS
 62
     7
 10
90.47057495448765
 20
46.10256888767221
 30
0.0
 11
90.47057495448765
 21
46.14528807168931
 31
0.0
  0
LINE
  5
2F0
  8
EL-LFB45702C-25N5
  6
CONTINUOUS
 62
     7
 10
90.47057495448765
 20
46.10256888767221
 30
0.0
 11
90.38651462464755
 21
46.01868081260631
 31
0.0
  0
LINE
  5
2F1
  8
EL-LFB45702C-25N5
  6
CONTINUOUS
 62
     7
 10
90.09023641291604
 20
46.14528807168931
 30
0.0
 11
90.13295559693313
 21
46.14528807168931
 31
0.0
  0
LINE
  5
2F2
  8
EL-LFB45702C-25N5
  6
CONTINUOUS
 62
     7
 10
90.17429674275616
 20
45.97561711904071
 30
0.0
 11
90.17429674275616
 21
46.1866292175123
 31
0.0
  0
LINE
  5
2F3
  8
EL-LFB45702C-25N5
  6
CONTINUOUS
 62
     7
 10
90.09023641291604
 20
45.9328979350236
 30
0.0
 11
90.09023641291604
 21
46.14528807168931
 31
0.0
  0
LINE
  5
2F4
  8
EL-LFB45702C-25N5
  6
CONTINUOUS
 62
     7
 10
90.34379544063044
 20
46.1866292175123
 30
0.0
 11
90.34379544063044
 21
45.97561711904071
 31
0.0
  0
LINE
  5
2F5
  8
EL-LFB45702C-25N5
  6
CONTINUOUS
 62
     7
 10
90.34379544063044
 20
44.66251897483779
 30
0.0
 11
90.38651462464755
 21
44.62135008378901
 31
0.0
  0
LINE
  5
2F6
  8
EL-LFB45702C-25N5
  6
CONTINUOUS
 62
     7
 10
89.70851983315045
 20
45.72085230790651
 30
0.0
 11
89.70851983315045
 21
45.76357149192361
 31
0.0
  0
LINE
  5
2F7
  8
EL-LFB45702C-25N5
  6
CONTINUOUS
 62
     7
 10
89.66717868732745
 20
45.59390053927501
 30
0.0
 11
90.00479804488187
 21
45.51001246420921
 31
0.0
  0
LINE
  5
2F8
  8
EL-LFB45702C-25N5
  6
CONTINUOUS
 62
     7
 10
89.58174031929325
 20
45.59390053927501
 30
0.0
 11
89.66717868732745
 21
45.59390053927501
 31
0.0
  0
LINE
  5
2F9
  8
EL-LFB45702C-25N5
  6
CONTINUOUS
 62
     7
 10
96.22801852943716
 20
45.08695473862051
 30
0.0
 11
96.27073771345427
 21
45.08695473862051
 31
0.0
  0
LINE
  5
2FA
  8
EL-LFB45702C-25N5
  6
CONTINUOUS
 62
     7
 10
96.77923380707715
 20
46.77918564097531
 30
0.0
 11
96.69379543904294
 21
46.82190482499242
 31
0.0
  0
LINE
  5
2FB
  8
EL-LFB45702C-25N5
  6
CONTINUOUS
 62
     7
 10
96.82057495290015
 20
46.69529756590941
 30
0.0
 11
96.35479804329437
 21
46.8646240090095
 31
0.0
  0
LINE
  5
2FC
  8
EL-LFB45702C-25N5
  6
CONTINUOUS
 62
     7
 10
96.94873250495145
 20
46.44156628342081
 30
0.0
 11
96.82057495290015
 21
46.69529756590941
 31
0.0
  0
LINE
  5
2FD
  8
EL-LFB45702C-25N5
  6
CONTINUOUS
 62
     7
 10
96.94873250495145
 20
45.89017875100652
 30
0.0
 11
96.94873250495145
 21
46.44156628342081
 31
0.0
  0
LINE
  5
2FE
  8
EL-LFB45702C-25N5
  6
CONTINUOUS
 62
     7
 10
96.82057495290015
 20
45.59390053927501
 30
0.0
 11
96.94873250495145
 21
45.89017875100652
 31
0.0
  0
LINE
  5
2FF
  8
EL-LFB45702C-25N5
  6
CONTINUOUS
 62
     7
 10
96.35479804329437
 20
45.21356199770351
 30
0.0
 11
96.82057495290015
 21
45.59390053927501
 31
0.0
  0
LINE
  5
300
  8
EL-LFB45702C-25N5
  6
CONTINUOUS
 62
     7
 10
96.05851983156295
 20
45.17084281368641
 30
0.0
 11
96.35479804329437
 21
45.21356199770351
 31
0.0
  0
LINE
  5
301
  8
EL-LFB45702C-25N5
  6
CONTINUOUS
 62
     7
 10
95.63546210597427
 20
45.34051376633491
 30
0.0
 11
96.05851983156295
 21
45.17084281368641
 31
0.0
  0
LINE
  5
302
  8
EL-LFB45702C-25N5
  6
CONTINUOUS
 62
     7
 10
95.50868259211707
 20
45.51001246420921
 30
0.0
 11
95.63546210597427
 21
45.34051376633491
 31
0.0
  0
LINE
  5
303
  8
EL-LFB45702C-25N5
  6
CONTINUOUS
 62
     7
 10
96.99007365077443
 20
46.52562661326081
 30
0.0
 11
96.69379543904294
 21
46.82190482499242
 31
0.0
  0
LINE
  5
304
  8
EL-LFB45702C-25N5
  6
CONTINUOUS
 62
     7
 10
96.01717868573995
 20
45.08695473862051
 30
0.0
 11
96.31345689747137
 21
45.12829588444352
 31
0.0
  0
LINE
  5
305
  8
EL-LFB45702C-25N5
  6
CONTINUOUS
 62
     7
 10
95.76224161983144
 20
45.21356199770351
 30
0.0
 11
96.01717868573995
 21
45.08695473862051
 31
0.0
  0
LINE
  5
306
  8
EL-LFB45702C-25N5
  6
CONTINUOUS
 62
     7
 10
95.89039917188275
 20
45.12829588444352
 30
0.0
 11
95.97445950172285
 21
45.08695473862051
 31
0.0
  0
LINE
  5
307
  8
EL-LFB45702C-25N5
  6
CONTINUOUS
 62
     7
 10
95.89039917188275
 20
45.12829588444352
 30
0.0
 11
95.76224161983144
 21
45.21356199770351
 31
0.0
  0
LINE
  5
308
  8
EL-LFB45702C-25N5
  6
CONTINUOUS
 62
     7
 10
96.14395819959714
 20
45.08695473862051
 30
0.0
 11
96.31345689747137
 21
45.12829588444352
 31
0.0
  0
LINE
  5
309
  8
EL-LFB45702C-25N5
  6
CONTINUOUS
 62
     7
 10
95.76224161983144
 20
45.21356199770351
 30
0.0
 11
95.46596340809997
 21
45.51001246420921
 31
0.0
  0
LINE
  5
30A
  8
EL-LFB45702C-25N5
  6
CONTINUOUS
 62
     7
 10
96.31345689747137
 20
45.08695473862051
 30
0.0
 11
96.27073771345427
 21
45.08695473862051
 31
0.0
  0
LINE
  5
30B
  8
EL-LFB45702C-25N5
  6
CONTINUOUS
 62
     7
 10
96.86329413691725
 20
46.69529756590941
 30
0.0
 11
96.82057495290015
 21
46.73801674992652
 31
0.0
  0
LINE
  5
30C
  8
EL-LFB45702C-25N5
  6
CONTINUOUS
 62
     7
 10
96.31345689747137
 20
46.90734319302661
 30
0.0
 11
96.69379543904294
 21
46.82190482499242
 31
0.0
  0
LINE
  5
30D
  8
EL-LFB45702C-25N5
  6
CONTINUOUS
 62
     7
 10
97.54128892841446
 20
45.72085230790651
 30
0.0
 11
97.58263007423746
 21
45.67968341685781
 31
0.0
  0
LINE
  5
30E
  8
EL-LFB45702C-25N5
  6
CONTINUOUS
 62
     7
 10
97.62534925825456
 20
45.63696423284071
 30
0.0
 11
97.71078762628876
 21
46.48290742924381
 31
0.0
  0
LINE
  5
30F
  8
EL-LFB45702C-25N5
  6
CONTINUOUS
 62
     7
 10
97.66806844227165
 20
46.48290742924381
 30
0.0
 11
97.58263007423746
 21
45.67968341685781
 31
0.0
  0
LINE
  5
310
  8
EL-LFB45702C-25N5
  6
CONTINUOUS
 62
     7
 10
96.48295559534563
 20
44.62135008378901
 30
0.0
 11
96.18667738361417
 21
44.74795734287191
 31
0.0
  0
LINE
  5
311
  8
EL-LFB45702C-25N5
  6
CONTINUOUS
 62
     7
 10
97.11685316463165
 20
44.79067652688902
 30
0.0
 11
96.48295559534563
 21
44.62135008378901
 31
0.0
  0
LINE
  5
312
  8
EL-LFB45702C-25N5
  6
CONTINUOUS
 62
     7
 10
97.54128892841446
 20
45.34051376633491
 30
0.0
 11
97.11685316463165
 21
44.79067652688902
 31
0.0
  0
LINE
  5
313
  8
EL-LFB45702C-25N5
  6
CONTINUOUS
 62
     7
 10
97.58263007423746
 20
45.67968341685781
 30
0.0
 11
97.54128892841446
 21
45.34051376633491
 31
0.0
  0
LINE
  5
314
  8
EL-LFB45702C-25N5
  6
CONTINUOUS
 62
     7
 10
96.65245429321995
 20
44.62135008378901
 30
0.0
 11
96.18667738361417
 21
44.74795734287191
 31
0.0
  0
LINE
  5
315
  8
EL-LFB45702C-25N5
  6
CONTINUOUS
 62
     7
 10
96.86329413691725
 20
44.66251897483779
 30
0.0
 11
96.65245429321995
 21
44.62135008378901
 31
0.0
  0
LINE
  5
316
  8
EL-LFB45702C-25N5
  6
CONTINUOUS
 62
     7
 10
97.28635186250595
 20
44.917283785972
 30
0.0
 11
96.86329413691725
 21
44.66251897483779
 31
0.0
  0
LINE
  5
317
  8
EL-LFB45702C-25N5
  6
CONTINUOUS
 62
     7
 10
97.58263007423746
 20
45.38323295035201
 30
0.0
 11
97.28635186250595
 21
44.917283785972
 31
0.0
  0
LINE
  5
318
  8
EL-LFB45702C-25N5
  6
CONTINUOUS
 62
     7
 10
97.62534925825456
 20
45.63696423284071
 30
0.0
 11
97.58263007423746
 21
45.38323295035201
 31
0.0
  0
LINE
  5
319
  8
EL-LFB45702C-25N5
  6
CONTINUOUS
 62
     7
 10
97.62534925825456
 20
45.63696423284071
 30
0.0
 11
97.58263007423746
 21
45.67968341685781
 31
0.0
  0
LINE
  5
31A
  8
EL-LFB45702C-25N5
  6
CONTINUOUS
 62
     7
 10
95.84767998786565
 20
45.1710150684606
 30
0.0
 11
95.84767998786565
 21
45.12829588444352
 31
0.0
  0
LINE
  5
31B
  8
EL-LFB45702C-25N5
  6
CONTINUOUS
 62
     7
 10
96.31345689747137
 20
45.0442355546034
 30
0.0
 11
96.18667738361417
 21
45.0442355546034
 31
0.0
  0
LINE
  5
31C
  8
EL-LFB45702C-25N5
  6
CONTINUOUS
 62
     7
 10
96.18667738361417
 20
45.08695473862051
 30
0.0
 11
96.18667738361417
 21
45.0442355546034
 31
0.0
  0
LINE
  5
31D
  8
EL-LFB45702C-25N5
  6
CONTINUOUS
 62
     7
 10
97.03279283479155
 20
45.97561711904071
 30
0.0
 11
97.11685316463165
 21
46.82190482499242
 31
0.0
  0
LINE
  5
31E
  8
EL-LFB45702C-25N5
  6
CONTINUOUS
 62
     7
 10
96.56701592518573
 20
47.16090222074091
 30
0.0
 11
96.52429674116865
 21
47.16090222074091
 31
0.0
  0
LINE
  5
31F
  8
EL-LFB45702C-25N5
  6
CONTINUOUS
 62
     7
 10
97.58263007423746
 20
46.52562661326081
 30
0.0
 11
97.54128892841446
 21
45.72085230790651
 31
0.0
  0
LINE
  5
320
  8
EL-LFB45702C-25N5
  6
CONTINUOUS
 62
     7
 10
97.11685316463165
 20
45.97561711904071
 30
0.0
 11
97.20194702311733
 21
46.77918564097531
 31
0.0
  0
LINE
  5
321
  8
EL-LFB45702C-25N5
  6
CONTINUOUS
 62
     7
 10
97.54128892841446
 20
45.72085230790651
 30
0.0
 11
97.11685316463165
 21
45.97561711904071
 31
0.0
  0
LINE
  5
322
  8
EL-LFB45702C-25N5
  6
CONTINUOUS
 62
     7
 10
96.31345689747137
 20
45.12829588444352
 30
0.0
 11
96.31345689747137
 21
45.0442355546034
 31
0.0
  0
LINE
  5
323
  8
EL-LFB45702C-25N5
  6
CONTINUOUS
 62
     7
 10
96.18667738361417
 20
45.00151637058632
 30
0.0
 11
96.18667738361417
 21
45.08695473862051
 31
0.0
  0
LINE
  5
324
  8
EL-LFB45702C-25N5
  6
CONTINUOUS
 62
     7
 10
96.14395819959714
 20
45.08695473862051
 30
0.0
 11
96.14395819959714
 21
45.00151637058632
 31
0.0
  0
LINE
  5
325
  8
EL-LFB45702C-25N5
  6
CONTINUOUS
 62
     7
 10
96.18667738361417
 20
45.08695473862051
 30
0.0
 11
96.14395819959714
 21
45.08695473862051
 31
0.0
  0
LINE
  5
326
  8
EL-LFB45702C-25N5
  6
CONTINUOUS
 62
     7
 10
96.05851983156295
 20
44.79067652688902
 30
0.0
 11
95.72090047400843
 21
45.0442355546034
 31
0.0
  0
LINE
  5
327
  8
EL-LFB45702C-25N5
  6
CONTINUOUS
 62
     7
 10
96.44023641132854
 20
47.07701414567511
 30
0.0
 11
96.48295559534563
 21
47.07701414567511
 31
0.0
  0
LINE
  5
328
  8
EL-LFB45702C-25N5
  6
CONTINUOUS
 62
     7
 10
96.01717868573995
 20
47.07701414567511
 30
0.0
 11
95.97445950172285
 21
47.07701414567511
 31
0.0
  0
LINE
  5
329
  8
EL-LFB45702C-25N5
  6
CONTINUOUS
 62
     7
 10
96.52429674116865
 20
47.03395045210951
 30
0.0
 11
96.56701592518573
 21
47.03395045210951
 31
0.0
  0
LINE
  5
32A
  8
EL-LFB45702C-25N5
  6
CONTINUOUS
 62
     7
 10
96.44023641132854
 20
47.11818303672381
 30
0.0
 11
96.48295559534563
 21
47.11818303672381
 31
0.0
  0
LINE
  5
32B
  8
EL-LFB45702C-25N5
  6
CONTINUOUS
 62
     7
 10
96.48295559534563
 20
47.11818303672381
 30
0.0
 11
96.44023641132854
 21
47.07701414567511
 31
0.0
  0
LINE
  5
32C
  8
EL-LFB45702C-25N5
  6
CONTINUOUS
 62
     7
 10
95.97445950172285
 20
47.11818303672381
 30
0.0
 11
96.01717868573995
 21
47.11818303672381
 31
0.0
  0
LINE
  5
32D
  8
EL-LFB45702C-25N5
  6
CONTINUOUS
 62
     7
 10
96.52429674116865
 20
47.03395045210951
 30
0.0
 11
96.56701592518573
 21
47.07701414567511
 31
0.0
  0
LINE
  5
32E
  8
EL-LFB45702C-25N5
  6
CONTINUOUS
 62
     7
 10
96.56701592518573
 20
47.07701414567511
 30
0.0
 11
96.56701592518573
 21
47.11818303672381
 31
0.0
  0
LINE
  5
32F
  8
EL-LFB45702C-25N5
  6
CONTINUOUS
 62
     7
 10
96.56701592518573
 20
47.03395045210951
 30
0.0
 11
96.56701592518573
 21
47.07701414567511
 31
0.0
  0
LINE
  5
330
  8
EL-LFB45702C-25N5
  6
CONTINUOUS
 62
     7
 10
96.56701592518573
 20
47.11818303672381
 30
0.0
 11
96.56701592518573
 21
47.03395045210951
 31
0.0
  0
LINE
  5
331
  8
EL-LFB45702C-25N5
  6
CONTINUOUS
 62
     7
 10
96.01717868573995
 20
47.11818303672381
 30
0.0
 11
96.01717868573995
 21
47.07701414567511
 31
0.0
  0
LINE
  5
332
  8
EL-LFB45702C-25N5
  6
CONTINUOUS
 62
     7
 10
95.97445950172285
 20
47.16090222074091
 30
0.0
 11
95.97445950172285
 21
47.11818303672381
 31
0.0
  0
LINE
  5
333
  8
EL-LFB45702C-25N5
  6
CONTINUOUS
 62
     7
 10
96.01717868573995
 20
47.16090222074091
 30
0.0
 11
95.97445950172285
 21
47.16090222074091
 31
0.0
  0
LINE
  5
334
  8
EL-LFB45702C-25N5
  6
CONTINUOUS
 62
     7
 10
96.01717868573995
 20
47.16090222074091
 30
0.0
 11
96.01717868573995
 21
47.11818303672381
 31
0.0
  0
LINE
  5
335
  8
EL-LFB45702C-25N5
  6
CONTINUOUS
 62
     7
 10
95.93174031770575
 20
47.16090222074091
 30
0.0
 11
95.97445950172285
 21
47.16090222074091
 31
0.0
  0
LINE
  5
336
  8
EL-LFB45702C-25N5
  6
CONTINUOUS
 62
     7
 10
95.93174031770575
 20
47.16090222074091
 30
0.0
 11
95.93174031770575
 21
47.20362140475801
 31
0.0
  0
LINE
  5
337
  8
EL-LFB45702C-25N5
  6
CONTINUOUS
 62
     7
 10
95.89039917188275
 20
47.16090222074091
 30
0.0
 11
95.89039917188275
 21
47.20362140475801
 31
0.0
  0
LINE
  5
338
  8
EL-LFB45702C-25N5
  6
CONTINUOUS
 62
     7
 10
96.48295559534563
 20
47.20362140475801
 30
0.0
 11
96.44023641132854
 21
47.20362140475801
 31
0.0
  0
LINE
  5
339
  8
EL-LFB45702C-25N5
  6
CONTINUOUS
 62
     7
 10
96.48295559534563
 20
47.11818303672381
 30
0.0
 11
96.44023641132854
 21
47.16090222074091
 31
0.0
  0
LINE
  5
33A
  8
EL-LFB45702C-25N5
  6
CONTINUOUS
 62
     7
 10
96.48295559534563
 20
47.16090222074091
 30
0.0
 11
96.48295559534563
 21
47.11818303672381
 31
0.0
  0
LINE
  5
33B
  8
EL-LFB45702C-25N5
  6
CONTINUOUS
 62
     7
 10
96.48295559534563
 20
47.11818303672381
 30
0.0
 11
96.56701592518573
 21
47.16090222074091
 31
0.0
  0
LINE
  5
33C
  8
EL-LFB45702C-25N5
  6
CONTINUOUS
 62
     7
 10
96.52429674116865
 20
47.16090222074091
 30
0.0
 11
96.44023641132854
 21
47.16090222074091
 31
0.0
  0
LINE
  5
33D
  8
EL-LFB45702C-25N5
  6
CONTINUOUS
 62
     7
 10
96.44023641132854
 20
47.24496255058101
 30
0.0
 11
96.44023641132854
 21
47.20362140475801
 31
0.0
  0
LINE
  5
33E
  8
EL-LFB45702C-25N5
  6
CONTINUOUS
 62
     7
 10
95.63546210597427
 20
47.24496255058101
 30
0.0
 11
95.55140177613414
 21
47.24496255058101
 31
0.0
  0
LINE
  5
33F
  8
EL-LFB45702C-25N5
  6
CONTINUOUS
 62
     7
 10
96.99007365077443
 20
45.63696423284071
 30
0.0
 11
97.03279283479155
 21
45.97561711904071
 31
0.0
  0
LINE
  5
340
  8
EL-LFB45702C-25N5
  6
CONTINUOUS
 62
     7
 10
96.77923380707715
 20
45.34068602110921
 30
0.0
 11
96.99007365077443
 21
45.63696423284071
 31
0.0
  0
LINE
  5
341
  8
EL-LFB45702C-25N5
  6
CONTINUOUS
 62
     7
 10
96.22801852943716
 20
45.00151637058632
 30
0.0
 11
96.77923380707715
 21
45.34068602110921
 31
0.0
  0
LINE
  5
342
  8
EL-LFB45702C-25N5
  6
CONTINUOUS
 62
     7
 10
95.93174031770575
 20
45.00151637058632
 30
0.0
 11
96.22801852943716
 21
45.00151637058632
 31
0.0
  0
LINE
  5
343
  8
EL-LFB45702C-25N5
  6
CONTINUOUS
 62
     7
 10
95.63546210597427
 20
45.12829588444352
 30
0.0
 11
95.93174031770575
 21
45.00151637058632
 31
0.0
  0
LINE
  5
344
  8
EL-LFB45702C-25N5
  6
CONTINUOUS
 62
     7
 10
95.38190307825987
 20
45.59390053927501
 30
0.0
 11
95.63546210597427
 21
45.12829588444352
 31
0.0
  0
LINE
  5
345
  8
EL-LFB45702C-25N5
  6
CONTINUOUS
 62
     7
 10
96.39751722731147
 20
44.66251897483779
 30
0.0
 11
96.05851983156295
 21
44.79067652688902
 31
0.0
  0
LINE
  5
346
  8
EL-LFB45702C-25N5
  6
CONTINUOUS
 62
     7
 10
96.99007365077443
 20
44.83184541793781
 30
0.0
 11
96.39751722731147
 21
44.66251897483779
 31
0.0
  0
LINE
  5
347
  8
EL-LFB45702C-25N5
  6
CONTINUOUS
 62
     7
 10
97.45585056038026
 20
45.42457409617501
 30
0.0
 11
96.99007365077443
 21
44.83184541793781
 31
0.0
  0
LINE
  5
348
  8
EL-LFB45702C-25N5
  6
CONTINUOUS
 62
     7
 10
97.54128892841446
 20
45.72085230790651
 30
0.0
 11
97.45585056038026
 21
45.42457409617501
 31
0.0
  0
LINE
  5
349
  8
EL-LFB45702C-25N5
  6
CONTINUOUS
 62
     7
 10
97.03279283479155
 20
45.63696423284071
 30
0.0
 11
97.11685316463165
 21
45.97561711904071
 31
0.0
  0
LINE
  5
34A
  8
EL-LFB45702C-25N5
  6
CONTINUOUS
 62
     7
 10
96.60973510920284
 20
45.08695473862051
 30
0.0
 11
97.03279283479155
 21
45.63696423284071
 31
0.0
  0
LINE
  5
34B
  8
EL-LFB45702C-25N5
  6
CONTINUOUS
 62
     7
 10
95.97445950172285
 20
44.917283785972
 30
0.0
 11
96.60973510920284
 21
45.08695473862051
 31
0.0
  0
LINE
  5
34C
  8
EL-LFB45702C-25N5
  6
CONTINUOUS
 62
     7
 10
95.72090047400843
 20
45.0442355546034
 30
0.0
 11
95.97445950172285
 21
44.917283785972
 31
0.0
  0
LINE
  5
34D
  8
EL-LFB45702C-25N5
  6
CONTINUOUS
 62
     7
 10
96.73651462306005
 20
45.42457409617501
 30
0.0
 11
96.31345689747137
 21
45.12829588444352
 31
0.0
  0
LINE
  5
34E
  8
EL-LFB45702C-25N5
  6
CONTINUOUS
 62
     7
 10
96.94873250495145
 20
45.67968341685781
 30
0.0
 11
96.73651462306005
 21
45.42457409617501
 31
0.0
  0
LINE
  5
34F
  8
EL-LFB45702C-25N5
  6
CONTINUOUS
 62
     7
 10
97.03279283479155
 20
45.9328979350236
 30
0.0
 11
96.94873250495145
 21
45.67968341685781
 31
0.0
  0
LINE
  5
350
  8
EL-LFB45702C-25N5
  6
CONTINUOUS
 62
     7
 10
96.90601332093433
 20
46.69529756590941
 30
0.0
 11
97.03279283479155
 21
45.9328979350236
 31
0.0
  0
LINE
  5
351
  8
EL-LFB45702C-25N5
  6
CONTINUOUS
 62
     7
 10
96.73651462306005
 20
46.82190482499242
 30
0.0
 11
96.90601332093433
 21
46.69529756590941
 31
0.0
  0
LINE
  5
352
  8
EL-LFB45702C-25N5
  6
CONTINUOUS
 62
     7
 10
96.44023641132854
 20
47.11818303672381
 30
0.0
 11
96.44023641132854
 21
47.24496255058101
 31
0.0
  0
LINE
  5
353
  8
EL-LFB45702C-25N5
  6
CONTINUOUS
 62
     7
 10
97.03279283479155
 20
45.97561711904071
 30
0.0
 11
97.11685316463165
 21
45.97561711904071
 31
0.0
  0
LINE
  5
354
  8
EL-LFB45702C-25N5
  6
CONTINUOUS
 62
     7
 10
95.46596340809997
 20
45.2979668370921
 30
0.0
 11
95.33918389424275
 21
45.59390053927501
 31
0.0
  0
LINE
  5
355
  8
EL-LFB45702C-25N5
  6
CONTINUOUS
 62
     7
 10
95.72090047400843
 20
45.0442355546034
 30
0.0
 11
95.46596340809997
 21
45.2979668370921
 31
0.0
  0
LINE
  5
356
  8
EL-LFB45702C-25N5
  6
CONTINUOUS
 62
     7
 10
95.55140177613414
 20
45.34051376633491
 30
0.0
 11
95.46596340809997
 21
45.55255939345211
 31
0.0
  0
LINE
  5
357
  8
EL-LFB45702C-25N5
  6
CONTINUOUS
 62
     7
 10
95.76224161983144
 20
45.1710150684606
 30
0.0
 11
95.55140177613414
 21
45.34051376633491
 31
0.0
  0
LINE
  5
358
  8
EL-LFB45702C-25N5
  6
CONTINUOUS
 62
     7
 10
95.76224161983144
 20
45.1710150684606
 30
0.0
 11
95.46596340809997
 21
45.51001246420921
 31
0.0
  0
LINE
  5
359
  8
EL-LFB45702C-25N5
  6
CONTINUOUS
 62
     7
 10
96.14395819959714
 20
45.08695473862051
 30
0.0
 11
95.76224161983144
 21
45.1710150684606
 31
0.0
  0
LINE
  5
35A
  8
EL-LFB45702C-25N5
  6
CONTINUOUS
 62
     7
 10
96.31345689747137
 20
45.0442355546034
 30
0.0
 11
96.14395819959714
 21
45.00151637058632
 31
0.0
  0
LINE
  5
35B
  8
EL-LFB45702C-25N5
  6
CONTINUOUS
 62
     7
 10
96.44023641132854
 20
47.03395045210951
 30
0.0
 11
96.44023641132854
 21
47.07701414567511
 31
0.0
  0
LINE
  5
35C
  8
EL-LFB45702C-25N5
  6
CONTINUOUS
 62
     7
 10
96.31345689747137
 20
46.90734319302661
 30
0.0
 11
96.39751722731147
 21
46.90734319302661
 31
0.0
  0
LINE
  5
35D
  8
EL-LFB45702C-25N5
  6
CONTINUOUS
 62
     7
 10
96.48295559534563
 20
46.9485120840753
 30
0.0
 11
96.73651462306005
 21
46.82190482499242
 31
0.0
  0
LINE
  5
35E
  8
EL-LFB45702C-25N5
  6
CONTINUOUS
 62
     7
 10
96.27073771345427
 20
46.9485120840753
 30
0.0
 11
96.48295559534563
 21
46.9485120840753
 31
0.0
  0
LINE
  5
35F
  8
EL-LFB45702C-25N5
  6
CONTINUOUS
 62
     7
 10
96.39751722731147
 20
46.90734319302661
 30
0.0
 11
96.73651462306005
 21
46.82190482499242
 31
0.0
  0
LINE
  5
360
  8
EL-LFB45702C-25N5
  6
CONTINUOUS
 62
     7
 10
95.97445950172285
 20
47.20362140475801
 30
0.0
 11
96.01717868573995
 21
47.03395045210951
 31
0.0
  0
LINE
  5
361
  8
EL-LFB45702C-25N5
  6
CONTINUOUS
 62
     7
 10
95.93174031770575
 20
47.24496255058101
 30
0.0
 11
95.84767998786565
 21
47.16090222074091
 31
0.0
  0
LINE
  5
362
  8
EL-LFB45702C-25N5
  6
CONTINUOUS
 62
     7
 10
96.01717868573995
 20
47.20362140475801
 30
0.0
 11
95.93174031770575
 21
47.24496255058101
 31
0.0
  0
LINE
  5
363
  8
EL-LFB45702C-25N5
  6
CONTINUOUS
 62
     7
 10
96.65245429321995
 20
47.11818303672381
 30
0.0
 11
96.48295559534563
 21
47.03395045210951
 31
0.0
  0
LINE
  5
364
  8
EL-LFB45702C-25N5
  6
CONTINUOUS
 62
     7
 10
95.63546210597427
 20
47.24496255058101
 30
0.0
 11
95.63546210597427
 21
47.20362140475801
 31
0.0
  0
LINE
  5
365
  8
EL-LFB45702C-25N5
  6
CONTINUOUS
 62
     7
 10
95.89039917188275
 20
47.24496255058101
 30
0.0
 11
95.97445950172285
 21
47.20362140475801
 31
0.0
  0
LINE
  5
366
  8
EL-LFB45702C-25N5
  6
CONTINUOUS
 62
     7
 10
95.80496080384853
 20
47.16090222074091
 30
0.0
 11
95.89039917188275
 21
47.24496255058101
 31
0.0
  0
LINE
  5
367
  8
EL-LFB45702C-25N5
  6
CONTINUOUS
 62
     7
 10
99.48845689667765
 20
48.51568602031541
 30
0.0
 11
99.91151462226635
 21
46.31461451478931
 31
0.0
  0
LINE
  5
368
  8
EL-LFB45702C-25N5
  6
CONTINUOUS
 62
     7
 10
98.93724161903765
 20
46.90734319302661
 30
0.0
 11
98.47146470943186
 21
49.10789793422991
 31
0.0
  0
LINE
  5
369
  8
EL-LFB45702C-25N5
  6
CONTINUOUS
 62
     7
 10
98.26062486573467
 20
49.06517875021281
 30
0.0
 11
98.68368259132326
 21
46.9485120840753
 31
0.0
  0
LINE
  5
36A
  8
EL-LFB45702C-25N5
  6
CONTINUOUS
 62
     7
 10
98.85318128919755
 20
46.9485120840753
 30
0.0
 11
98.38740437959184
 21
49.10789793422991
 31
0.0
  0
LINE
  5
36B
  8
EL-LFB45702C-25N5
  6
CONTINUOUS
 62
     7
 10
98.59962226148316
 20
46.99123126809241
 30
0.0
 11
98.68368259132326
 21
46.9485120840753
 31
0.0
  0
LINE
  5
36C
  8
EL-LFB45702C-25N5
  6
CONTINUOUS
 62
     7
 10
99.91151462226635
 20
46.31461451478931
 30
0.0
 11
99.48845689667765
 21
48.51551376554121
 31
0.0
  0
LINE
  5
36D
  8
EL-LFB45702C-25N5
  6
CONTINUOUS
 62
     7
 10
99.57251722651775
 20
46.56834579727791
 30
0.0
 11
99.61523641053485
 21
46.31461451478931
 31
0.0
  0
LINE
  5
36E
  8
EL-LFB45702C-25N5
  6
CONTINUOUS
 62
     7
 10
99.31895819880333
 20
46.8646240090095
 30
0.0
 11
99.61523641053485
 21
46.73801674992652
 31
0.0
  0
LINE
  5
36F
  8
EL-LFB45702C-25N5
  6
CONTINUOUS
 62
     7
 10
100.5467902297463
 20
45.76357149192361
 30
0.0
 11
100.0382941361236
 21
48.17651636979261
 31
0.0
  0
LINE
  5
370
  8
EL-LFB45702C-25N5
  6
CONTINUOUS
 62
     7
 10
99.65795559455194
 20
48.21923555380971
 30
0.0
 11
100.0810133201406
 21
46.10256888767221
 31
0.0
  0
LINE
  5
371
  8
EL-LFB45702C-25N5
  6
CONTINUOUS
 62
     7
 10
100.2918531638378
 20
46.0598497036551
 30
0.0
 11
99.86879543824925
 21
48.30329588364981
 31
0.0
  0
LINE
  5
372
  8
EL-LFB45702C-25N5
  6
CONTINUOUS
 62
     7
 10
99.36167738282045
 20
46.8646240090095
 30
0.0
 11
99.61523641053485
 21
46.69529756590941
 31
0.0
  0
LINE
  5
373
  8
EL-LFB45702C-25N5
  6
CONTINUOUS
 62
     7
 10
100.2077928339979
 20
46.10256888767221
 30
0.0
 11
99.78473510840915
 21
48.30329588364981
 31
0.0
  0
LINE
  5
374
  8
EL-LFB45702C-25N5
  6
CONTINUOUS
 62
     7
 10
99.99557495210645
 20
46.14528807168931
 30
0.0
 11
100.0810133201406
 21
46.10256888767221
 31
0.0
  0
LINE
  5
375
  8
EL-LFB45702C-25N5
  6
CONTINUOUS
 62
     7
 10
99.65795559455194
 20
46.31461451478931
 30
0.0
 11
99.61523641053485
 21
46.31461451478931
 31
0.0
  0
LINE
  5
376
  8
EL-LFB45702C-25N5
  6
CONTINUOUS
 62
     7
 10
99.61523641053485
 20
46.56834579727791
 30
0.0
 11
99.40301852864343
 21
46.69529756590941
 31
0.0
  0
LINE
  5
377
  8
EL-LFB45702C-25N5
  6
CONTINUOUS
 62
     7
 10
99.36167738282045
 20
46.69529756590941
 30
0.0
 11
99.57251722651775
 21
46.56834579727791
 31
0.0
  0
LINE
  5
378
  8
EL-LFB45702C-25N5
  6
CONTINUOUS
 62
     7
 10
99.36167738282045
 20
46.77918564097531
 30
0.0
 11
99.36167738282045
 21
46.8646240090095
 31
0.0
  0
LINE
  5
379
  8
EL-LFB45702C-25N5
  6
CONTINUOUS
 62
     7
 10
99.40301852864343
 20
46.69529756590941
 30
0.0
 11
99.36167738282045
 21
46.69529756590941
 31
0.0
  0
LINE
  5
37A
  8
EL-LFB45702C-25N5
  6
CONTINUOUS
 62
     7
 10
99.57251722651775
 20
46.56834579727791
 30
0.0
 11
99.61523641053485
 21
46.56834579727791
 31
0.0
  0
LINE
  5
37B
  8
EL-LFB45702C-25N5
  6
CONTINUOUS
 62
     7
 10
99.61523641053485
 20
46.56834579727791
 30
0.0
 11
99.65795559455194
 21
46.31461451478931
 31
0.0
  0
LINE
  5
37C
  8
EL-LFB45702C-25N5
  6
CONTINUOUS
 62
     7
 10
99.57251722651775
 20
48.26195473782681
 30
0.0
 11
99.78473510840915
 21
48.30329588364981
 31
0.0
  0
LINE
  5
37D
  8
EL-LFB45702C-25N5
  6
CONTINUOUS
 62
     7
 10
99.31895819880333
 20
46.82190482499242
 30
0.0
 11
99.27623901478624
 21
46.82190482499242
 31
0.0
  0
LINE
  5
37E
  8
EL-LFB45702C-25N5
  6
CONTINUOUS
 62
     7
 10
99.61523641053485
 20
46.69529756590941
 30
0.0
 11
99.65795559455194
 21
46.61106498129512
 31
0.0
  0
LINE
  5
37F
  8
EL-LFB45702C-25N5
  6
CONTINUOUS
 62
     7
 10
99.31895819880333
 20
46.73801674992652
 30
0.0
 11
99.31895819880333
 21
46.82190482499242
 31
0.0
  0
LINE
  5
380
  8
EL-LFB45702C-25N5
  6
CONTINUOUS
 62
     7
 10
99.31895819880333
 20
46.73801674992652
 30
0.0
 11
99.36167738282045
 21
46.77918564097531
 31
0.0
  0
LINE
  5
381
  8
EL-LFB45702C-25N5
  6
CONTINUOUS
 62
     7
 10
99.61523641053485
 20
46.56834579727791
 30
0.0
 11
99.65795559455194
 21
46.56834579727791
 31
0.0
  0
LINE
  5
382
  8
EL-LFB45702C-25N5
  6
CONTINUOUS
 62
     7
 10
99.31895819880333
 20
46.77918564097531
 30
0.0
 11
99.23351983076917
 21
46.82190482499242
 31
0.0
  0
LINE
  5
383
  8
EL-LFB45702C-25N5
  6
CONTINUOUS
 62
     7
 10
99.19217868494614
 20
46.9485120840753
 30
0.0
 11
99.23351983076917
 21
46.56834579727791
 31
0.0
  0
LINE
  5
384
  8
EL-LFB45702C-25N5
  6
CONTINUOUS
 62
     7
 10
99.23351983076917
 20
46.90734319302661
 30
0.0
 11
99.19217868494614
 21
46.9485120840753
 31
0.0
  0
LINE
  5
385
  8
EL-LFB45702C-25N5
  6
CONTINUOUS
 62
     7
 10
99.23351983076917
 20
46.90734319302661
 30
0.0
 11
99.19217868494614
 21
46.8646240090095
 31
0.0
  0
LINE
  5
386
  8
EL-LFB45702C-25N5
  6
CONTINUOUS
 62
     7
 10
99.23351983076917
 20
46.8646240090095
 30
0.0
 11
99.23351983076917
 21
46.90734319302661
 31
0.0
  0
LINE
  5
387
  8
EL-LFB45702C-25N5
  6
CONTINUOUS
 62
     7
 10
99.23351983076917
 20
46.8646240090095
 30
0.0
 11
99.27623901478624
 21
46.8646240090095
 31
0.0
  0
LINE
  5
388
  8
EL-LFB45702C-25N5
  6
CONTINUOUS
 62
     7
 10
98.85318128919755
 20
46.77918564097531
 30
0.0
 11
98.68368259132326
 21
46.8646240090095
 31
0.0
  0
LINE
  5
389
  8
EL-LFB45702C-25N5
  6
CONTINUOUS
 62
     7
 10
98.81046210518046
 20
46.82190482499242
 30
0.0
 11
98.64096340730616
 21
46.9485120840753
 31
0.0
  0
LINE
  5
38A
  8
EL-LFB45702C-25N5
  6
CONTINUOUS
 62
     7
 10
100.0810133201406
 20
46.0598497036551
 30
0.0
 11
100.2077928339979
 21
45.9328979350236
 31
0.0
  0
LINE
  5
38B
  8
EL-LFB45702C-25N5
  6
CONTINUOUS
 62
     7
 10
100.2077928339979
 20
46.01868081260631
 30
0.0
 11
100.0382941361236
 21
46.10256888767221
 31
0.0
  0
LINE
  5
38C
  8
EL-LFB45702C-25N5
  6
CONTINUOUS
 62
     7
 10
97.92162746998606
 20
47.71056720541252
 30
0.0
 11
98.21790568171757
 21
47.7963500829953
 31
0.0
  0
LINE
  5
38D
  8
EL-LFB45702C-25N5
  6
CONTINUOUS
 62
     7
 10
98.17518649770045
 20
47.83751897404402
 30
0.0
 11
97.87890828596896
 21
47.75363089897822
 31
0.0
  0
LINE
  5
38E
  8
EL-LFB45702C-25N5
  6
CONTINUOUS
 62
     7
 10
97.92162746998606
 20
47.83751897404402
 30
0.0
 11
97.79484795612886
 21
47.7963500829953
 31
0.0
  0
LINE
  5
38F
  8
EL-LFB45702C-25N5
  6
CONTINUOUS
 62
     7
 10
96.52429674116865
 20
49.19368081181261
 30
0.0
 11
96.48295559534563
 21
49.19368081181261
 31
0.0
  0
LINE
  5
390
  8
EL-LFB45702C-25N5
  6
CONTINUOUS
 62
     7
 10
96.44023641132854
 20
49.15061711824701
 30
0.0
 11
96.39751722731147
 21
49.19368081181261
 31
0.0
  0
LINE
  5
391
  8
EL-LFB45702C-25N5
  6
CONTINUOUS
 62
     7
 10
96.52429674116865
 20
49.19368081181261
 30
0.0
 11
96.73651462306005
 21
49.27756888687841
 31
0.0
  0
LINE
  5
392
  8
EL-LFB45702C-25N5
  6
CONTINUOUS
 62
     7
 10
96.73651462306005
 20
49.23484970286131
 30
0.0
 11
96.52429674116865
 21
49.19368081181261
 31
0.0
  0
LINE
  5
393
  8
EL-LFB45702C-25N5
  6
CONTINUOUS
 62
     7
 10
96.44023641132854
 20
49.15061711824701
 30
0.0
 11
96.18667738361417
 21
48.8119642320469
 31
0.0
  0
LINE
  5
394
  8
EL-LFB45702C-25N5
  6
CONTINUOUS
 62
     7
 10
96.14395819959714
 20
48.8119642320469
 30
0.0
 11
96.39751722731147
 21
49.19368081181261
 31
0.0
  0
LINE
  5
395
  8
EL-LFB45702C-25N5
  6
CONTINUOUS
 62
     7
 10
96.73651462306005
 20
49.23484970286131
 30
0.0
 11
96.73651462306005
 21
49.27756888687841
 31
0.0
  0
LINE
  5
396
  8
EL-LFB45702C-25N5
  6
CONTINUOUS
 62
     7
 10
96.48295559534563
 20
49.23484970286131
 30
0.0
 11
95.67818128999134
 21
49.06517875021281
 31
0.0
  0
LINE
  5
397
  8
EL-LFB45702C-25N5
  6
CONTINUOUS
 62
     7
 10
96.14395819959714
 20
48.8119642320469
 30
0.0
 11
96.18667738361417
 21
48.8119642320469
 31
0.0
  0
LINE
  5
398
  8
EL-LFB45702C-25N5
  6
CONTINUOUS
 62
     7
 10
96.14395819959714
 20
48.8119642320469
 30
0.0
 11
96.10123901558005
 21
48.8119642320469
 31
0.0
  0
LINE
  5
399
  8
EL-LFB45702C-25N5
  6
CONTINUOUS
 62
     7
 10
96.39751722731147
 20
48.64229327939842
 30
0.0
 11
97.96434665400317
 21
48.93857149112981
 31
0.0
  0
LINE
  5
39A
  8
EL-LFB45702C-25N5
  6
CONTINUOUS
 62
     7
 10
97.41313137636314
 20
48.13534747874391
 30
0.0
 11
97.28635186250595
 21
48.09228378517821
 31
0.0
  0
LINE
  5
39B
  8
EL-LFB45702C-25N5
  6
CONTINUOUS
 62
     7
 10
97.79484795612886
 20
47.83751897404402
 30
0.0
 11
97.41313137636314
 21
48.04956460116111
 31
0.0
  0
LINE
  5
39C
  8
EL-LFB45702C-25N5
  6
CONTINUOUS
 62
     7
 10
97.41313137636314
 20
48.09228378517821
 30
0.0
 11
97.79484795612886
 21
47.83751897404402
 31
0.0
  0
LINE
  5
39D
  8
EL-LFB45702C-25N5
  6
CONTINUOUS
 62
     7
 10
97.41313137636314
 20
48.09228378517821
 30
0.0
 11
97.49856974439736
 21
48.09228378517821
 31
0.0
  0
LINE
  5
39E
  8
EL-LFB45702C-25N5
  6
CONTINUOUS
 62
     7
 10
97.62534925825456
 20
49.40434840073561
 30
0.0
 11
97.83756714014596
 21
49.44689532997852
 31
0.0
  0
LINE
  5
39F
  8
EL-LFB45702C-25N5
  6
CONTINUOUS
 62
     7
 10
97.92162746998606
 20
49.10789793422991
 30
0.0
 11
96.18667738361417
 21
48.7689005384813
 31
0.0
  0
LINE
  5
3A0
  8
EL-LFB45702C-25N5
  6
CONTINUOUS
 62
     7
 10
96.39751722731147
 20
48.64229327939842
 30
0.0
 11
97.96434665400317
 21
48.98129067514691
 31
0.0
  0
LINE
  5
3A1
  8
EL-LFB45702C-25N5
  6
CONTINUOUS
 62
     7
 10
97.49856974439736
 20
48.09228378517821
 30
0.0
 11
97.41313137636314
 21
48.13534747874391
 31
0.0
  0
LINE
  5
3A2
  8
EL-LFB45702C-25N5
  6
CONTINUOUS
 62
     7
 10
97.87890828596896
 20
49.27756888687841
 30
0.0
 11
96.31345689747137
 21
48.98129067514691
 31
0.0
  0
LINE
  5
3A3
  8
EL-LFB45702C-25N5
  6
CONTINUOUS
 62
     7
 10
96.31345689747137
 20
49.02400985916401
 30
0.0
 11
97.87890828596896
 21
49.32028807089551
 31
0.0
  0
LINE
  5
3A4
  8
EL-LFB45702C-25N5
  6
CONTINUOUS
 62
     7
 10
97.96434665400317
 20
48.21923555380971
 30
0.0
 11
98.09112616786035
 21
48.26195473782681
 31
0.0
  0
LINE
  5
3A5
  8
EL-LFB45702C-25N5
  6
CONTINUOUS
 62
     7
 10
97.83756714014596
 20
47.83751897404402
 30
0.0
 11
97.92162746998606
 21
47.83751897404402
 31
0.0
  0
LINE
  5
3A6
  8
EL-LFB45702C-25N5
  6
CONTINUOUS
 62
     7
 10
97.96434665400317
 20
48.21923555380971
 30
0.0
 11
98.09112616786035
 21
48.21923555380971
 31
0.0
  0
LINE
  5
3A7
  8
EL-LFB45702C-25N5
  6
CONTINUOUS
 62
     7
 10
98.09112616786035
 20
48.04956460116111
 30
0.0
 11
98.13384535187747
 21
47.96567652609531
 31
0.0
  0
LINE
  5
3A8
  8
EL-LFB45702C-25N5
  6
CONTINUOUS
 62
     7
 10
98.13384535187747
 20
48.04956460116111
 30
0.0
 11
98.09112616786035
 21
48.04956460116111
 31
0.0
  0
LINE
  5
3A9
  8
EL-LFB45702C-25N5
  6
CONTINUOUS
 62
     7
 10
97.83756714014596
 20
47.83751897404402
 30
0.0
 11
97.79484795612886
 21
47.83751897404402
 31
0.0
  0
LINE
  5
3AA
  8
EL-LFB45702C-25N5
  6
CONTINUOUS
 62
     7
 10
97.62534925825456
 20
49.44689532997852
 30
0.0
 11
97.83756714014596
 21
49.4896145139956
 31
0.0
  0
LINE
  5
3AB
  8
EL-LFB45702C-25N5
  6
CONTINUOUS
 62
     7
 10
97.62534925825456
 20
49.44689532997852
 30
0.0
 11
97.62534925825456
 21
49.40434840073561
 31
0.0
  0
LINE
  5
3AC
  8
EL-LFB45702C-25N5
  6
CONTINUOUS
 62
     7
 10
99.57251722651775
 20
48.30329588364981
 30
0.0
 11
99.78473510840915
 21
48.34601506766691
 31
0.0
  0
LINE
  5
3AD
  8
EL-LFB45702C-25N5
  6
CONTINUOUS
 62
     7
 10
98.38740437959184
 20
47.03395045210951
 30
0.0
 11
97.92162746998606
 21
49.44689532997852
 31
0.0
  0
LINE
  5
3AE
  8
EL-LFB45702C-25N5
  6
CONTINUOUS
 62
     7
 10
97.83756714014596
 20
49.44689532997852
 30
0.0
 11
98.34468519557477
 21
47.07701414567511
 31
0.0
  0
LINE
  5
3AF
  8
EL-LFB45702C-25N5
  6
CONTINUOUS
 62
     7
 10
98.51418389344894
 20
47.16090222074091
 30
0.0
 11
98.09112616786035
 21
49.36162921671851
 31
0.0
  0
LINE
  5
3B0
  8
EL-LFB45702C-25N5
  6
CONTINUOUS
 62
     7
 10
98.21790568171757
 20
49.06517875021281
 30
0.0
 11
98.26062486573467
 21
49.06517875021281
 31
0.0
  0
LINE
  5
3B1
  8
EL-LFB45702C-25N5
  6
CONTINUOUS
 62
     7
 10
98.17518649770045
 20
49.10789793422991
 30
0.0
 11
98.38740437959184
 21
49.10789793422991
 31
0.0
  0
LINE
  5
3B2
  8
EL-LFB45702C-25N5
  6
CONTINUOUS
 62
     7
 10
97.96434665400317
 20
48.04956460116111
 30
0.0
 11
98.13384535187747
 21
47.96567652609531
 31
0.0
  0
LINE
  5
3B3
  8
EL-LFB45702C-25N5
  6
CONTINUOUS
 62
     7
 10
98.13384535187747
 20
49.10789793422991
 30
0.0
 11
98.43012356360884
 21
49.19368081181261
 31
0.0
  0
LINE
  5
3B4
  8
EL-LFB45702C-25N5
  6
CONTINUOUS
 62
     7
 10
98.09112616786035
 20
49.36162921671851
 30
0.0
 11
98.55690307746606
 21
47.11818303672381
 31
0.0
  0
LINE
  5
3B5
  8
EL-LFB45702C-25N5
  6
CONTINUOUS
 62
     7
 10
99.48845689667765
 20
48.55823294955832
 30
0.0
 11
99.44573771266055
 21
48.55823294955832
 31
0.0
  0
LINE
  5
3B6
  8
EL-LFB45702C-25N5
  6
CONTINUOUS
 62
     7
 10
99.86879543824925
 20
48.34601506766691
 30
0.0
 11
99.82745429242625
 21
48.34601506766691
 31
0.0
  0
LINE
  5
3B7
  8
EL-LFB45702C-25N5
  6
CONTINUOUS
 62
     7
 10
98.13384535187747
 20
47.96567652609531
 30
0.0
 11
98.17518649770045
 21
47.96567652609531
 31
0.0
  0
LINE
  5
3B8
  8
EL-LFB45702C-25N5
  6
CONTINUOUS
 62
     7
 10
97.87890828596896
 20
48.13534747874391
 30
0.0
 11
97.96434665400317
 21
48.04956460116111
 31
0.0
  0
LINE
  5
3B9
  8
EL-LFB45702C-25N5
  6
CONTINUOUS
 62
     7
 10
98.09112616786035
 20
49.36162921671851
 30
0.0
 11
98.09112616786035
 21
49.40434840073561
 31
0.0
  0
LINE
  5
3BA
  8
EL-LFB45702C-25N5
  6
CONTINUOUS
 62
     7
 10
98.47146470943186
 20
49.19368081181261
 30
0.0
 11
98.43012356360884
 21
49.19368081181261
 31
0.0
  0
LINE
  5
3BB
  8
EL-LFB45702C-25N5
  6
CONTINUOUS
 62
     7
 10
98.68368259132326
 20
46.9485120840753
 30
0.0
 11
98.85318128919755
 21
46.9485120840753
 31
0.0
  0
LINE
  5
3BC
  8
EL-LFB45702C-25N5
  6
CONTINUOUS
 62
     7
 10
98.55690307746606
 20
46.99123126809241
 30
0.0
 11
98.55690307746606
 21
47.11818303672381
 31
0.0
  0
LINE
  5
3BD
  8
EL-LFB45702C-25N5
  6
CONTINUOUS
 62
     7
 10
98.64096340730616
 20
46.9485120840753
 30
0.0
 11
98.55690307746606
 21
46.99123126809241
 31
0.0
  0
LINE
  5
3BE
  8
EL-LFB45702C-25N5
  6
CONTINUOUS
 62
     7
 10
99.48845689667765
 20
48.55823294955832
 30
0.0
 11
99.48845689667765
 21
48.51568602031541
 31
0.0
  0
LINE
  5
3BF
  8
EL-LFB45702C-25N5
  6
CONTINUOUS
 62
     7
 10
99.86879543824925
 20
48.34601506766691
 30
0.0
 11
99.86879543824925
 21
48.30329588364981
 31
0.0
  0
LINE
  5
3C0
  8
EL-LFB45702C-25N5
  6
CONTINUOUS
 62
     7
 10
99.78473510840915
 20
48.34601506766691
 30
0.0
 11
99.82745429242625
 21
48.34601506766691
 31
0.0
  0
LINE
  5
3C1
  8
EL-LFB45702C-25N5
  6
CONTINUOUS
 62
     7
 10
99.65795559455194
 20
48.21923555380971
 30
0.0
 11
99.61523641053485
 21
48.26195473782681
 31
0.0
  0
LINE
  5
3C2
  8
EL-LFB45702C-25N5
  6
CONTINUOUS
 62
     7
 10
99.61523641053485
 20
48.26195473782681
 30
0.0
 11
99.65795559455194
 21
48.26195473782681
 31
0.0
  0
LINE
  5
3C3
  8
EL-LFB45702C-25N5
  6
CONTINUOUS
 62
     7
 10
99.61523641053485
 20
46.73801674992652
 30
0.0
 11
99.61523641053485
 21
46.69529756590941
 31
0.0
  0
LINE
  5
3C4
  8
EL-LFB45702C-25N5
  6
CONTINUOUS
 62
     7
 10
98.68368259132326
 20
46.9485120840753
 30
0.0
 11
98.68368259132326
 21
46.8646240090095
 31
0.0
  0
LINE
  5
3C5
  8
EL-LFB45702C-25N5
  6
CONTINUOUS
 62
     7
 10
98.47146470943186
 20
49.10789793422991
 30
0.0
 11
99.40301852864343
 21
48.55823294955832
 31
0.0
  0
LINE
  5
3C6
  8
EL-LFB45702C-25N5
  6
CONTINUOUS
 62
     7
 10
98.47146470943186
 20
49.10789793422991
 30
0.0
 11
99.48845689667765
 21
48.51568602031541
 31
0.0
  0
LINE
  5
3C7
  8
EL-LFB45702C-25N5
  6
CONTINUOUS
 62
     7
 10
99.48845689667765
 20
48.51568602031541
 30
0.0
 11
99.44573771266055
 21
48.55823294955832
 31
0.0
  0
LINE
  5
3C8
  8
EL-LFB45702C-25N5
  6
CONTINUOUS
 62
     7
 10
99.40301852864343
 20
48.55823294955832
 30
0.0
 11
99.44573771266055
 21
48.55823294955832
 31
0.0
  0
LINE
  5
3C9
  8
EL-LFB45702C-25N5
  6
CONTINUOUS
 62
     7
 10
99.23351983076917
 20
46.56834579727791
 30
0.0
 11
99.23351983076917
 21
46.52562661326081
 31
0.0
  0
LINE
  5
3CA
  8
EL-LFB45702C-25N5
  6
CONTINUOUS
 62
     7
 10
99.31895819880333
 20
46.8646240090095
 30
0.0
 11
99.36167738282045
 21
46.8646240090095
 31
0.0
  0
LINE
  5
3CB
  8
EL-LFB45702C-25N5
  6
CONTINUOUS
 62
     7
 10
100.0382941361236
 20
46.10256888767221
 30
0.0
 11
99.91151462226635
 21
46.31461451478931
 31
0.0
  0
LINE
  5
3CC
  8
EL-LFB45702C-25N5
  6
CONTINUOUS
 62
     7
 10
98.93724161903765
 20
46.77918564097531
 30
0.0
 11
98.93724161903765
 21
46.90734319302661
 31
0.0
  0
LINE
  5
3CD
  8
EL-LFB45702C-25N5
  6
CONTINUOUS
 62
     7
 10
98.85318128919755
 20
46.77918564097531
 30
0.0
 11
98.93724161903765
 21
46.77918564097531
 31
0.0
  0
LINE
  5
3CE
  8
EL-LFB45702C-25N5
  6
CONTINUOUS
 62
     7
 10
98.85318128919755
 20
46.9485120840753
 30
0.0
 11
98.93724161903765
 21
46.90734319302661
 31
0.0
  0
LINE
  5
3CF
  8
EL-LFB45702C-25N5
  6
CONTINUOUS
 62
     7
 10
99.36167738282045
 20
46.77918564097531
 30
0.0
 11
99.40301852864343
 21
46.69529756590941
 31
0.0
  0
LINE
  5
3D0
  8
EL-LFB45702C-25N5
  6
CONTINUOUS
 62
     7
 10
99.31895819880333
 20
46.73801674992652
 30
0.0
 11
99.36167738282045
 21
46.69529756590941
 31
0.0
  0
LINE
  5
3D1
  8
EL-LFB45702C-25N5
  6
CONTINUOUS
 62
     7
 10
99.65795559455194
 20
48.26195473782681
 30
0.0
 11
99.78473510840915
 21
48.30329588364981
 31
0.0
  0
LINE
  5
3D2
  8
EL-LFB45702C-25N5
  6
CONTINUOUS
 62
     7
 10
100.0382941361236
 20
48.17651636979261
 30
0.0
 11
99.99557495210645
 21
48.21923555380971
 31
0.0
  0
LINE
  5
3D3
  8
EL-LFB45702C-25N5
  6
CONTINUOUS
 62
     7
 10
99.86879543824925
 20
48.30329588364981
 30
0.0
 11
99.99557495210645
 21
48.21923555380971
 31
0.0
  0
LINE
  5
3D4
  8
EL-LFB45702C-25N5
  6
CONTINUOUS
 62
     7
 10
99.27623901478624
 20
46.8646240090095
 30
0.0
 11
99.31895819880333
 21
46.8646240090095
 31
0.0
  0
LINE
  5
3D5
  8
EL-LFB45702C-25N5
  6
CONTINUOUS
 62
     7
 10
99.65795559455194
 20
46.61106498129512
 30
0.0
 11
99.65795559455194
 21
46.56834579727791
 31
0.0
  0
LINE
  5
3D6
  8
EL-LFB45702C-25N5
  6
CONTINUOUS
 62
     7
 10
98.68368259132326
 20
46.8646240090095
 30
0.0
 11
98.51418389344894
 21
47.16090222074091
 31
0.0
  0
LINE
  5
3D7
  8
EL-LFB45702C-25N5
  6
CONTINUOUS
 62
     7
 10
98.64096340730616
 20
46.9485120840753
 30
0.0
 11
98.68368259132326
 21
46.8646240090095
 31
0.0
  0
LINE
  5
3D8
  8
EL-LFB45702C-25N5
  6
CONTINUOUS
 62
     7
 10
99.23351983076917
 20
46.82190482499242
 30
0.0
 11
99.27623901478624
 21
46.82190482499242
 31
0.0
  0
LINE
  5
3D9
  8
EL-LFB45702C-25N5
  6
CONTINUOUS
 62
     7
 10
99.19217868494614
 20
46.8646240090095
 30
0.0
 11
99.23351983076917
 21
46.82190482499242
 31
0.0
  0
LINE
  5
3DA
  8
EL-LFB45702C-25N5
  6
CONTINUOUS
 62
     7
 10
98.81046210518046
 20
46.82190482499242
 30
0.0
 11
98.85318128919755
 21
46.9485120840753
 31
0.0
  0
LINE
  5
3DB
  8
EL-LFB45702C-25N5
  6
CONTINUOUS
 62
     7
 10
98.81046210518046
 20
46.82190482499242
 30
0.0
 11
98.85318128919755
 21
46.77918564097531
 31
0.0
  0
LINE
  5
3DC
  8
EL-LFB45702C-25N5
  6
CONTINUOUS
 62
     7
 10
100.2077928339979
 20
46.10256888767221
 30
0.0
 11
100.2918531638378
 21
46.0598497036551
 31
0.0
  0
LINE
  5
3DD
  8
EL-LFB45702C-25N5
  6
CONTINUOUS
 62
     7
 10
100.0810133201406
 20
46.10256888767221
 30
0.0
 11
100.2077928339979
 21
46.10256888767221
 31
0.0
  0
LINE
  5
3DE
  8
EL-LFB45702C-25N5
  6
CONTINUOUS
 62
     7
 10
100.2077928339979
 20
46.01868081260631
 30
0.0
 11
100.2077928339979
 21
45.9328979350236
 31
0.0
  0
LINE
  5
3DF
  8
EL-LFB45702C-25N5
  6
CONTINUOUS
 62
     7
 10
100.2077928339979
 20
46.01868081260631
 30
0.0
 11
100.2077928339979
 21
46.10256888767221
 31
0.0
  0
LINE
  5
3E0
  8
EL-LFB45702C-25N5
  6
CONTINUOUS
 62
     7
 10
100.0810133201406
 20
46.10256888767221
 30
0.0
 11
100.1237325041578
 21
46.0598497036551
 31
0.0
  0
LINE
  5
3E1
  8
EL-LFB45702C-25N5
  6
CONTINUOUS
 62
     7
 10
100.2918531638378
 20
45.9328979350236
 30
0.0
 11
100.2918531638378
 21
46.0598497036551
 31
0.0
  0
LINE
  5
3E2
  8
EL-LFB45702C-25N5
  6
CONTINUOUS
 62
     7
 10
100.2077928339979
 20
45.9328979350236
 30
0.0
 11
100.2918531638378
 21
45.9328979350236
 31
0.0
  0
LINE
  5
3E3
  8
EL-LFB45702C-25N5
  6
CONTINUOUS
 62
     7
 10
98.55690307746606
 20
47.11818303672381
 30
0.0
 11
98.51418389344894
 21
47.16090222074091
 31
0.0
  0
LINE
  5
3E4
  8
EL-LFB45702C-25N5
  6
CONTINUOUS
 62
     7
 10
96.52429674116865
 20
49.23484970286131
 30
0.0
 11
96.48295559534563
 21
49.23484970286131
 31
0.0
  0
LINE
  5
3E5
  8
EL-LFB45702C-25N5
  6
CONTINUOUS
 62
     7
 10
96.44023641132854
 20
49.15061711824701
 30
0.0
 11
96.48295559534563
 21
49.19368081181261
 31
0.0
  0
LINE
  5
3E6
  8
EL-LFB45702C-25N5
  6
CONTINUOUS
 62
     7
 10
96.48295559534563
 20
49.23484970286131
 30
0.0
 11
96.39751722731147
 21
49.19368081181261
 31
0.0
  0
LINE
  5
3E7
  8
EL-LFB45702C-25N5
  6
CONTINUOUS
 62
     7
 10
98.09112616786035
 20
49.36162921671851
 30
0.0
 11
98.04840698384315
 21
49.36162921671851
 31
0.0
  0
LINE
  5
3E8
  8
EL-LFB45702C-25N5
  6
CONTINUOUS
 62
     7
 10
98.04840698384315
 20
49.40434840073561
 30
0.0
 11
98.04840698384315
 21
49.36162921671851
 31
0.0
  0
LINE
  5
3E9
  8
EL-LFB45702C-25N5
  6
CONTINUOUS
 62
     7
 10
98.00706583802025
 20
49.40434840073561
 30
0.0
 11
98.04840698384315
 21
49.36162921671851
 31
0.0
  0
LINE
  5
3EA
  8
EL-LFB45702C-25N5
  6
CONTINUOUS
 62
     7
 10
97.41313137636314
 20
48.09228378517821
 30
0.0
 11
97.41313137636314
 21
48.04956460116111
 31
0.0
  0
LINE
  5
3EB
  8
EL-LFB45702C-25N5
  6
CONTINUOUS
 62
     7
 10
98.13384535187747
 20
49.10789793422991
 30
0.0
 11
98.21790568171757
 21
49.06517875021281
 31
0.0
  0
LINE
  5
3EC
  8
EL-LFB45702C-25N5
  6
CONTINUOUS
 62
     7
 10
97.87890828596896
 20
49.4896145139956
 30
0.0
 11
98.00706583802025
 21
49.40434840073561
 31
0.0
  0
LINE
  5
3ED
  8
EL-LFB45702C-25N5
  6
CONTINUOUS
 62
     7
 10
96.73651462306005
 20
49.23484970286131
 30
0.0
 11
97.62534925825456
 21
49.40434840073561
 31
0.0
  0
LINE
  5
3EE
  8
EL-LFB45702C-25N5
  6
CONTINUOUS
 62
     7
 10
97.87890828596896
 20
49.4896145139956
 30
0.0
 11
97.83756714014596
 21
49.4896145139956
 31
0.0
  0
LINE
  5
3EF
  8
EL-LFB45702C-25N5
  6
CONTINUOUS
 62
     7
 10
97.92162746998606
 20
49.44689532997852
 30
0.0
 11
97.87890828596896
 21
49.4896145139956
 31
0.0
  0
LINE
  5
3F0
  8
EL-LFB45702C-25N5
  6
CONTINUOUS
 62
     7
 10
96.73651462306005
 20
49.27756888687841
 30
0.0
 11
97.62534925825456
 21
49.44689532997852
 31
0.0
  0
LINE
  5
3F1
  8
EL-LFB45702C-25N5
  6
CONTINUOUS
 62
     7
 10
99.78473510840915
 20
48.34601506766691
 30
0.0
 11
99.78473510840915
 21
48.30329588364981
 31
0.0
  0
LINE
  5
3F2
  8
EL-LFB45702C-25N5
  6
CONTINUOUS
 62
     7
 10
99.52979804250064
 20
48.30329588364981
 30
0.0
 11
99.61523641053485
 21
48.26195473782681
 31
0.0
  0
LINE
  5
3F3
  8
EL-LFB45702C-25N5
  6
CONTINUOUS
 62
     7
 10
98.00706583802025
 20
48.04956460116111
 30
0.0
 11
97.96434665400317
 21
48.21923555380971
 31
0.0
  0
LINE
  5
3F4
  8
EL-LFB45702C-25N5
  6
CONTINUOUS
 62
     7
 10
98.09112616786035
 20
48.04956460116111
 30
0.0
 11
98.00706583802025
 21
48.04956460116111
 31
0.0
  0
LINE
  5
3F5
  8
EL-LFB45702C-25N5
  6
CONTINUOUS
 62
     7
 10
97.87890828596896
 20
48.21923555380971
 30
0.0
 11
97.96434665400317
 21
48.21923555380971
 31
0.0
  0
LINE
  5
3F6
  8
EL-LFB45702C-25N5
  6
CONTINUOUS
 62
     7
 10
97.87890828596896
 20
48.13534747874391
 30
0.0
 11
97.87890828596896
 21
48.21923555380971
 31
0.0
  0
LINE
  5
3F7
  8
EL-LFB45702C-25N5
  6
CONTINUOUS
 62
     7
 10
97.87890828596896
 20
48.13534747874391
 30
0.0
 11
97.96434665400317
 21
48.21923555380971
 31
0.0
  0
LINE
  5
3F8
  8
EL-LFB45702C-25N5
  6
CONTINUOUS
 62
     7
 10
98.09112616786035
 20
48.04956460116111
 30
0.0
 11
97.96434665400317
 21
48.04956460116111
 31
0.0
  0
LINE
  5
3F9
  8
EL-LFB45702C-25N5
  6
CONTINUOUS
 62
     7
 10
98.26062486573467
 20
49.06517875021281
 30
0.0
 11
98.38740437959184
 21
49.10789793422991
 31
0.0
  0
LINE
  5
3FA
  8
EL-LFB45702C-25N5
  6
CONTINUOUS
 62
     7
 10
98.13384535187747
 20
47.92295734207821
 30
0.0
 11
98.13384535187747
 21
47.96567652609531
 31
0.0
  0
LINE
  5
3FB
  8
EL-LFB45702C-25N5
  6
CONTINUOUS
 62
     7
 10
98.47146470943186
 20
49.19368081181261
 30
0.0
 11
98.47146470943186
 21
49.15061711824701
 31
0.0
  0
LINE
  5
3FC
  8
EL-LFB45702C-25N5
  6
CONTINUOUS
 62
     7
 10
98.43012356360884
 20
49.19368081181261
 30
0.0
 11
98.38740437959184
 21
49.10789793422991
 31
0.0
  0
LINE
  5
3FD
  8
EL-LFB45702C-25N5
  6
CONTINUOUS
 62
     7
 10
98.47146470943186
 20
49.10789793422991
 30
0.0
 11
98.47146470943186
 21
49.15061711824701
 31
0.0
  0
LINE
  5
3FE
  8
EL-LFB45702C-25N5
  6
CONTINUOUS
 62
     7
 10
56.77340699416195
 20
66.42294784309551
 30
0.0
 11
63.50512357234015
 21
67.7350124586529
 31
0.0
  0
LINE
  5
3FF
  8
EL-LFB45702C-25N5
  6
CONTINUOUS
 62
     7
 10
63.50512357234015
 20
67.7350124586529
 30
0.0
 11
63.97090048194593
 21
67.8189005337188
 31
0.0
  0
LINE
  5
400
  8
EL-LFB45702C-25N5
  6
CONTINUOUS
 62
     7
 10
64.01224162776894
 20
67.86196422728442
 30
0.0
 11
63.54646471816316
 21
67.7350124586529
 31
0.0
  0
LINE
  5
401
  8
EL-LFB45702C-25N5
  6
CONTINUOUS
 62
     7
 10
64.09767999580315
 20
67.8189005337188
 30
0.0
 11
64.05496081178603
 21
67.8189005337188
 31
0.0
  0
LINE
  5
402
  8
EL-LFB45702C-25N5
  6
CONTINUOUS
 62
     7
 10
64.01224162776894
 20
67.8189005337188
 30
0.0
 11
63.97090048194593
 21
67.8189005337188
 31
0.0
  0
LINE
  5
403
  8
EL-LFB45702C-25N5
  6
CONTINUOUS
 62
     7
 10
64.01224162776894
 20
67.86196422728442
 30
0.0
 11
64.09767999580315
 21
67.7777316426701
 31
0.0
  0
LINE
  5
404
  8
EL-LFB45702C-25N5
  6
CONTINUOUS
 62
     7
 10
61.09217869447114
 20
67.26923554904721
 30
0.0
 11
56.77340699416195
 21
66.38022865907851
 31
0.0
  0
LINE
  5
405
  8
EL-LFB45702C-25N5
  6
CONTINUOUS
 62
     7
 10
64.14039917982025
 20
67.8189005337188
 30
0.0
 11
64.26717869367745
 21
67.7350124586529
 31
0.0
  0
LINE
  5
406
  8
EL-LFB45702C-25N5
  6
CONTINUOUS
 62
     7
 10
66.17162747792356
 20
65.1952880669268
 30
0.0
 11
66.08756714808347
 21
65.1952880669268
 31
0.0
  0
LINE
  5
407
  8
EL-LFB45702C-25N5
  6
CONTINUOUS
 62
     7
 10
66.17162747792356
 20
65.1952880669268
 30
0.0
 11
66.84962226942066
 21
65.32189532600971
 31
0.0
  0
LINE
  5
408
  8
EL-LFB45702C-25N5
  6
CONTINUOUS
 62
     7
 10
66.80690308540356
 20
65.32189532600971
 30
0.0
 11
66.17162747792356
 21
65.1952880669268
 31
0.0
  0
LINE
  5
409
  8
EL-LFB45702C-25N5
  6
CONTINUOUS
 62
     7
 10
66.84962226942066
 20
65.36461451002681
 30
0.0
 11
66.89096341524366
 21
65.36461451002681
 31
0.0
  0
LINE
  5
40A
  8
EL-LFB45702C-25N5
  6
CONTINUOUS
 62
     7
 10
66.89096341524366
 20
65.36461451002681
 30
0.0
 11
66.51062487367214
 21
65.61834579251551
 31
0.0
  0
LINE
  5
40B
  8
EL-LFB45702C-25N5
  6
CONTINUOUS
 62
     7
 10
66.51062487367214
 20
65.61834579251551
 30
0.0
 11
66.46790568965507
 21
65.61834579251551
 31
0.0
  0
LINE
  5
40C
  8
EL-LFB45702C-25N5
  6
CONTINUOUS
 62
     7
 10
66.46790568965507
 20
65.57562660849831
 30
0.0
 11
66.46790568965507
 21
65.53290742448131
 31
0.0
  0
LINE
  5
40D
  8
EL-LFB45702C-25N5
  6
CONTINUOUS
 62
     7
 10
66.89096341524366
 20
65.70223386758131
 30
0.0
 11
66.89096341524366
 21
65.36461451002681
 31
0.0
  0
LINE
  5
40E
  8
EL-LFB45702C-25N5
  6
CONTINUOUS
 62
     7
 10
66.89096341524366
 20
65.70223386758131
 30
0.0
 11
66.89096341524366
 21
65.74529756114691
 31
0.0
  0
LINE
  5
40F
  8
EL-LFB45702C-25N5
  6
CONTINUOUS
 62
     7
 10
66.51062487367214
 20
65.957343188264
 30
0.0
 11
66.46790568965507
 21
65.99851207931282
 31
0.0
  0
LINE
  5
410
  8
EL-LFB45702C-25N5
  6
CONTINUOUS
 62
     7
 10
66.51062487367214
 20
65.957343188264
 30
0.0
 11
66.89096341524366
 21
65.74529756114691
 31
0.0
  0
LINE
  5
411
  8
EL-LFB45702C-25N5
  6
CONTINUOUS
 62
     7
 10
66.51062487367214
 20
65.61834579251551
 30
0.0
 11
66.51062487367214
 21
65.957343188264
 31
0.0
  0
LINE
  5
412
  8
EL-LFB45702C-25N5
  6
CONTINUOUS
 62
     7
 10
66.46790568965507
 20
65.61834579251551
 30
0.0
 11
66.46790568965507
 21
65.99851207931282
 31
0.0
  0
LINE
  5
413
  8
EL-LFB45702C-25N5
  6
CONTINUOUS
 62
     7
 10
65.70585056831776
 20
65.87190482022982
 30
0.0
 11
64.14039917982025
 21
67.8189005337188
 31
0.0
  0
LINE
  5
414
  8
EL-LFB45702C-25N5
  6
CONTINUOUS
 62
     7
 10
64.09767999580315
 20
67.7777316426701
 30
0.0
 11
65.62179023847766
 21
65.82918563621271
 31
0.0
  0
LINE
  5
415
  8
EL-LFB45702C-25N5
  6
CONTINUOUS
 62
     7
 10
65.79128893635196
 20
65.87190482022982
 30
0.0
 11
64.43667739155167
 21
67.56568601555291
 31
0.0
  0
LINE
  5
416
  8
EL-LFB45702C-25N5
  6
CONTINUOUS
 62
     7
 10
54.44590048432716
 20
65.91462400424702
 30
0.0
 11
54.36046211629296
 21
65.957343188264
 31
0.0
  0
LINE
  5
417
  8
EL-LFB45702C-25N5
  6
CONTINUOUS
 62
     7
 10
54.36046211629296
 20
65.91462400424702
 30
0.0
 11
53.89468520668724
 21
65.82918563621271
 31
0.0
  0
LINE
  5
418
  8
EL-LFB45702C-25N5
  6
CONTINUOUS
 62
     7
 10
53.89468520668724
 20
65.87190482022982
 30
0.0
 11
54.36046211629296
 21
65.957343188264
 31
0.0
  0
LINE
  5
419
  8
EL-LFB45702C-25N5
  6
CONTINUOUS
 62
     7
 10
53.81062487684714
 20
65.74529756114691
 30
0.0
 11
52.20245430433245
 21
63.16268173062942
 31
0.0
  0
LINE
  5
41A
  8
EL-LFB45702C-25N5
  6
CONTINUOUS
 62
     7
 10
52.24379545015545
 20
63.16268173062942
 30
0.0
 11
53.76790569283006
 21
65.74529756114691
 31
0.0
  0
LINE
  5
41B
  8
EL-LFB45702C-25N5
  6
CONTINUOUS
 62
     7
 10
54.36046211629296
 20
65.91462400424702
 30
0.0
 11
56.77340699416195
 21
66.38022865907851
 31
0.0
  0
LINE
  5
41C
  8
EL-LFB45702C-25N5
  6
CONTINUOUS
 62
     7
 10
51.73667739472665
 20
62.35790742527502
 30
0.0
 11
51.69395821070955
 21
62.35790742527502
 31
0.0
  0
LINE
  5
41D
  8
EL-LFB45702C-25N5
  6
CONTINUOUS
 62
     7
 10
51.73667739472665
 20
62.35790742527502
 30
0.0
 11
66.08756714808347
 21
65.1952880669268
 31
0.0
  0
LINE
  5
41E
  8
EL-LFB45702C-25N5
  6
CONTINUOUS
 62
     7
 10
66.08756714808347
 20
65.1952880669268
 30
0.0
 11
51.77801854054965
 21
62.35790742527502
 31
0.0
  0
LINE
  5
41F
  8
EL-LFB45702C-25N5
  6
CONTINUOUS
 62
     7
 10
51.05868260322956
 20
62.23130016619211
 30
0.0
 11
51.01596341921245
 21
62.23130016619211
 31
0.0
  0
LINE
  5
420
  8
EL-LFB45702C-25N5
  6
CONTINUOUS
 62
     7
 10
51.10140178724666
 20
62.23130016619211
 30
0.0
 11
51.69395821070955
 21
62.35790742527502
 31
0.0
  0
LINE
  5
421
  8
EL-LFB45702C-25N5
  6
CONTINUOUS
 62
     7
 10
51.10140178724666
 20
62.23130016619211
 30
0.0
 11
51.05868260322956
 21
62.23130016619211
 31
0.0
  0
LINE
  5
422
  8
EL-LFB45702C-25N5
  6
CONTINUOUS
 62
     7
 10
50.59290569362375
 20
62.86623126412361
 30
0.0
 11
66.46790568965507
 21
65.99851207931282
 31
0.0
  0
LINE
  5
423
  8
EL-LFB45702C-25N5
  6
CONTINUOUS
 62
     7
 10
50.63562487764085
 20
62.48606497732631
 30
0.0
 11
50.59290569362375
 21
62.48606497732631
 31
0.0
  0
LINE
  5
424
  8
EL-LFB45702C-25N5
  6
CONTINUOUS
 62
     7
 10
50.63562487764085
 20
62.48606497732631
 30
0.0
 11
66.42518650563795
 21
65.61834579251551
 31
0.0
  0
LINE
  5
425
  8
EL-LFB45702C-25N5
  6
CONTINUOUS
 62
     7
 10
50.59290569362375
 20
62.86623126412361
 30
0.0
 11
50.63562487764085
 21
62.48606497732631
 31
0.0
  0
LINE
  5
426
  8
EL-LFB45702C-25N5
  6
CONTINUOUS
 62
     7
 10
50.63562487764085
 20
62.44334579330921
 30
0.0
 11
51.01596341921245
 21
62.23130016619211
 31
0.0
  0
LINE
  5
427
  8
EL-LFB45702C-25N5
  6
CONTINUOUS
 62
     7
 10
56.77340699416195
 20
66.42294784309551
 30
0.0
 11
56.77340699416195
 21
66.38022865907851
 31
0.0
  0
LINE
  5
428
  8
EL-LFB45702C-25N5
  6
CONTINUOUS
 62
     7
 10
62.15051202753985
 20
66.9729573373157
 30
0.0
 11
62.23457235737995
 21
66.84635007823282
 31
0.0
  0
LINE
  5
429
  8
EL-LFB45702C-25N5
  6
CONTINUOUS
 62
     7
 10
62.27729154139704
 20
67.14228378041571
 30
0.0
 11
62.15051202753985
 21
66.9729573373157
 31
0.0
  0
LINE
  5
42A
  8
EL-LFB45702C-25N5
  6
CONTINUOUS
 62
     7
 10
62.36135187123714
 20
67.09956459639861
 30
0.0
 11
62.27729154139704
 21
67.14228378041571
 31
0.0
  0
LINE
  5
42B
  8
EL-LFB45702C-25N5
  6
CONTINUOUS
 62
     7
 10
62.44679023927134
 20
67.01567652133281
 30
0.0
 11
62.36135187123714
 21
67.09956459639861
 31
0.0
  0
LINE
  5
42C
  8
EL-LFB45702C-25N5
  6
CONTINUOUS
 62
     7
 10
62.36135187123714
 20
66.84635007823282
 30
0.0
 11
62.44679023927134
 21
67.01567652133281
 31
0.0
  0
LINE
  5
42D
  8
EL-LFB45702C-25N5
  6
CONTINUOUS
 62
     7
 10
62.19185317336284
 20
66.84635007823282
 30
0.0
 11
62.36135187123714
 21
66.84635007823282
 31
0.0
  0
LINE
  5
42E
  8
EL-LFB45702C-25N5
  6
CONTINUOUS
 62
     7
 10
62.19185317336284
 20
67.01567652133281
 30
0.0
 11
62.19185317336284
 21
66.84635007823282
 31
0.0
  0
LINE
  5
42F
  8
EL-LFB45702C-25N5
  6
CONTINUOUS
 62
     7
 10
62.36135187123714
 20
67.14228378041571
 30
0.0
 11
62.19185317336284
 21
67.01567652133281
 31
0.0
  0
LINE
  5
430
  8
EL-LFB45702C-25N5
  6
CONTINUOUS
 62
     7
 10
62.40407105525424
 20
67.09956459639861
 30
0.0
 11
62.36135187123714
 21
67.14228378041571
 31
0.0
  0
LINE
  5
431
  8
EL-LFB45702C-25N5
  6
CONTINUOUS
 62
     7
 10
63.54646471816316
 20
67.7350124586529
 30
0.0
 11
63.50512357234015
 21
67.7350124586529
 31
0.0
  0
LINE
  5
432
  8
EL-LFB45702C-25N5
  6
CONTINUOUS
 62
     7
 10
64.14039917982025
 20
67.8189005337188
 30
0.0
 11
64.09767999580315
 21
67.7777316426701
 31
0.0
  0
LINE
  5
433
  8
EL-LFB45702C-25N5
  6
CONTINUOUS
 62
     7
 10
64.05496081178603
 20
67.8189005337188
 30
0.0
 11
64.01224162776894
 21
67.8189005337188
 31
0.0
  0
LINE
  5
434
  8
EL-LFB45702C-25N5
  6
CONTINUOUS
 62
     7
 10
64.01224162776894
 20
67.86196422728442
 30
0.0
 11
63.97090048194593
 21
67.8189005337188
 31
0.0
  0
LINE
  5
435
  8
EL-LFB45702C-25N5
  6
CONTINUOUS
 62
     7
 10
61.13351984029414
 20
67.26923554904721
 30
0.0
 11
61.09217869447114
 21
67.26923554904721
 31
0.0
  0
LINE
  5
436
  8
EL-LFB45702C-25N5
  6
CONTINUOUS
 62
     7
 10
66.84962226942066
 20
65.32189532600971
 30
0.0
 11
66.80690308540356
 21
65.32189532600971
 31
0.0
  0
LINE
  5
437
  8
EL-LFB45702C-25N5
  6
CONTINUOUS
 62
     7
 10
66.51062487367214
 20
65.61834579251551
 30
0.0
 11
66.46790568965507
 21
65.53290742448131
 31
0.0
  0
LINE
  5
438
  8
EL-LFB45702C-25N5
  6
CONTINUOUS
 62
     7
 10
66.89096341524366
 20
65.36461451002681
 30
0.0
 11
66.84962226942066
 21
65.32189532600971
 31
0.0
  0
LINE
  5
439
  8
EL-LFB45702C-25N5
  6
CONTINUOUS
 62
     7
 10
66.46790568965507
 20
65.61834579251551
 30
0.0
 11
66.46790568965507
 21
65.57562660849831
 31
0.0
  0
LINE
  5
43A
  8
EL-LFB45702C-25N5
  6
CONTINUOUS
 62
     7
 10
66.46790568965507
 20
65.53290742448131
 30
0.0
 11
66.42518650563795
 21
65.61834579251551
 31
0.0
  0
LINE
  5
43B
  8
EL-LFB45702C-25N5
  6
CONTINUOUS
 62
     7
 10
64.26717869367745
 20
67.7350124586529
 30
0.0
 11
64.43667739155167
 21
67.56551376077871
 31
0.0
  0
LINE
  5
43C
  8
EL-LFB45702C-25N5
  6
CONTINUOUS
 62
     7
 10
55.46151463337885
 20
65.49156627865821
 30
0.0
 11
55.41879544936175
 21
65.61834579251551
 31
0.0
  0
LINE
  5
43D
  8
EL-LFB45702C-25N5
  6
CONTINUOUS
 62
     7
 10
55.46151463337885
 20
65.74529756114691
 30
0.0
 11
55.67373251527025
 21
65.78801674516401
 31
0.0
  0
LINE
  5
43E
  8
EL-LFB45702C-25N5
  6
CONTINUOUS
 62
     7
 10
55.41879544936175
 20
65.61834579251551
 30
0.0
 11
55.46151463337885
 21
65.74529756114691
 31
0.0
  0
LINE
  5
43F
  8
EL-LFB45702C-25N5
  6
CONTINUOUS
 62
     7
 10
55.50423381739595
 20
65.49156627865821
 30
0.0
 11
55.41879544936175
 21
65.61834579251551
 31
0.0
  0
LINE
  5
440
  8
EL-LFB45702C-25N5
  6
CONTINUOUS
 62
     7
 10
55.41879544936175
 20
65.61834579251551
 30
0.0
 11
55.67373251527025
 21
65.78801674516401
 31
0.0
  0
LINE
  5
441
  8
EL-LFB45702C-25N5
  6
CONTINUOUS
 62
     7
 10
53.89468520668724
 20
65.87190482022982
 30
0.0
 11
53.89468520668724
 21
65.82918563621271
 31
0.0
  0
LINE
  5
442
  8
EL-LFB45702C-25N5
  6
CONTINUOUS
 62
     7
 10
54.36046211629296
 20
65.957343188264
 30
0.0
 11
54.36046211629296
 21
65.91462400424702
 31
0.0
  0
LINE
  5
443
  8
EL-LFB45702C-25N5
  6
CONTINUOUS
 62
     7
 10
55.67373251527025
 20
65.53290742448131
 30
0.0
 11
55.46151463337885
 21
65.49156627865821
 31
0.0
  0
LINE
  5
444
  8
EL-LFB45702C-25N5
  6
CONTINUOUS
 62
     7
 10
55.67373251527025
 20
65.78801674516401
 30
0.0
 11
55.67373251527025
 21
65.53290742448131
 31
0.0
  0
LINE
  5
445
  8
EL-LFB45702C-25N5
  6
CONTINUOUS
 62
     7
 10
53.81062487684714
 20
65.74529756114691
 30
0.0
 11
53.89468520668724
 21
65.82918563621271
 31
0.0
  0
LINE
  5
446
  8
EL-LFB45702C-25N5
  6
CONTINUOUS
 62
     7
 10
51.77801854054965
 20
62.35790742527502
 30
0.0
 11
51.73667739472665
 21
62.35790742527502
 31
0.0
  0
LINE
  5
447
  8
EL-LFB45702C-25N5
  6
CONTINUOUS
 62
     7
 10
50.63562487764085
 20
62.44334579330921
 30
0.0
 11
50.63562487764085
 21
62.48606497732631
 31
0.0
  0
LINE
  5
448
  8
EL-LFB45702C-25N5
  6
CONTINUOUS
 62
     7
 10
101.8159634065125
 20
44.62135008378901
 30
0.0
 11
85.98368259449826
 21
41.48751897563152
 31
0.0
  0
LINE
  5
449
  8
EL-LFB45702C-25N5
  6
CONTINUOUS
 62
     7
 10
85.98368259449826
 20
41.48751897563152
 30
0.0
 11
85.64468519874977
 21
41.7422837867657
 31
0.0
  0
LINE
  5
44A
  8
EL-LFB45702C-25N5
  6
CONTINUOUS
 62
     7
 10
85.60334405292674
 20
41.7422837867657
 30
0.0
 11
85.98368259449826
 21
41.48751897563152
 31
0.0
  0
LINE
  5
44B
  8
EL-LFB45702C-25N5
  6
CONTINUOUS
 62
     7
 10
85.64468519874977
 20
41.7422837867657
 30
0.0
 11
86.27996080622977
 21
41.8692355553972
 31
0.0
  0
LINE
  5
44C
  8
EL-LFB45702C-25N5
  6
CONTINUOUS
 62
     7
 10
86.27996080622977
 20
41.8692355553972
 30
0.0
 11
86.32267999024687
 21
41.8692355553972
 31
0.0
  0
LINE
  5
44D
  8
EL-LFB45702C-25N5
  6
CONTINUOUS
 62
     7
 10
101.8586825905296
 20
45.0442355546034
 30
0.0
 11
101.8586825905296
 21
44.66251897483779
 31
0.0
  0
LINE
  5
44E
  8
EL-LFB45702C-25N5
  6
CONTINUOUS
 62
     7
 10
101.8159634065125
 20
44.66251897483779
 30
0.0
 11
101.8586825905296
 21
45.0442355546034
 31
0.0
  0
LINE
  5
44F
  8
EL-LFB45702C-25N5
  6
CONTINUOUS
 62
     7
 10
101.8586825905296
 20
44.66251897483779
 30
0.0
 11
101.478344048958
 21
44.87456460195492
 31
0.0
  0
LINE
  5
450
  8
EL-LFB45702C-25N5
  6
CONTINUOUS
 62
     7
 10
101.4356248649409
 20
45.25628118172051
 30
0.0
 11
101.478344048958
 21
45.25628118172051
 31
0.0
  0
LINE
  5
451
  8
EL-LFB45702C-25N5
  6
CONTINUOUS
 62
     7
 10
101.4356248649409
 20
45.21356199770351
 30
0.0
 11
101.478344048958
 21
45.21356199770351
 31
0.0
  0
LINE
  5
452
  8
EL-LFB45702C-25N5
  6
CONTINUOUS
 62
     7
 10
101.478344048958
 20
45.25628118172051
 30
0.0
 11
101.8586825905296
 21
45.0442355546034
 31
0.0
  0
LINE
  5
453
  8
EL-LFB45702C-25N5
  6
CONTINUOUS
 62
     7
 10
101.478344048958
 20
45.21356199770351
 30
0.0
 11
101.478344048958
 21
45.25628118172051
 31
0.0
  0
LINE
  5
454
  8
EL-LFB45702C-25N5
  6
CONTINUOUS
 62
     7
 10
100.7576300734437
 20
44.70523815885481
 30
0.0
 11
100.7162889276207
 21
44.70523815885481
 31
0.0
  0
LINE
  5
455
  8
EL-LFB45702C-25N5
  6
CONTINUOUS
 62
     7
 10
99.36167738282045
 20
46.48290742924381
 30
0.0
 11
99.23351983076917
 21
46.61106498129512
 31
0.0
  0
LINE
  5
456
  8
EL-LFB45702C-25N5
  6
CONTINUOUS
 62
     7
 10
91.19128893000196
 20
45.89017875100652
 30
0.0
 11
91.02179023212766
 21
45.8490098599578
 31
0.0
  0
LINE
  5
457
  8
EL-LFB45702C-25N5
  6
CONTINUOUS
 62
     7
 10
100.7576300734437
 20
44.70523815885481
 30
0.0
 11
101.3929056809238
 21
44.83184541793781
 31
0.0
  0
LINE
  5
458
  8
EL-LFB45702C-25N5
  6
CONTINUOUS
 62
     7
 10
101.3929056809238
 20
44.83184541793781
 30
0.0
 11
101.3929056809238
 21
44.87456460195492
 31
0.0
  0
LINE
  5
459
  8
EL-LFB45702C-25N5
  6
CONTINUOUS
 62
     7
 10
101.3929056809238
 20
44.83184541793781
 30
0.0
 11
101.4356248649409
 21
44.83184541793781
 31
0.0
  0
LINE
  5
45A
  8
EL-LFB45702C-25N5
  6
CONTINUOUS
 62
     7
 10
101.4356248649409
 20
45.21356199770351
 30
0.0
 11
101.4356248649409
 21
45.25628118172051
 31
0.0
  0
LINE
  5
45B
  8
EL-LFB45702C-25N5
  6
CONTINUOUS
 62
     7
 10
100.7162889276207
 20
44.70523815885481
 30
0.0
 11
86.36539917426394
 21
41.8692355553972
 31
0.0
  0
LINE
  5
45C
  8
EL-LFB45702C-25N5
  6
CONTINUOUS
 62
     7
 10
86.36539917426394
 20
41.8692355553972
 30
0.0
 11
86.32267999024687
 21
41.8692355553972
 31
0.0
  0
LINE
  5
45D
  8
EL-LFB45702C-25N5
  6
CONTINUOUS
 62
     7
 10
101.4356248649409
 20
44.917283785972
 30
0.0
 11
101.478344048958
 21
44.87456460195492
 31
0.0
  0
LINE
  5
45E
  8
EL-LFB45702C-25N5
  6
CONTINUOUS
 62
     7
 10
101.4356248649409
 20
44.917283785972
 30
0.0
 11
101.4356248649409
 21
45.21356199770351
 31
0.0
  0
LINE
  5
45F
  8
EL-LFB45702C-25N5
  6
CONTINUOUS
 62
     7
 10
101.478344048958
 20
44.87456460195492
 30
0.0
 11
101.4356248649409
 21
44.87456460195492
 31
0.0
  0
LINE
  5
460
  8
EL-LFB45702C-25N5
  6
CONTINUOUS
 62
     7
 10
85.60334405292674
 20
41.7422837867657
 30
0.0
 11
85.64468519874977
 21
41.7422837867657
 31
0.0
  0
LINE
  5
461
  8
EL-LFB45702C-25N5
  6
CONTINUOUS
 62
     7
 10
101.8586825905296
 20
44.66251897483779
 30
0.0
 11
101.8159634065125
 21
44.62135008378901
 31
0.0
  0
LINE
  5
462
  8
EL-LFB45702C-25N5
  6
CONTINUOUS
 62
     7
 10
100.6735697436036
 20
44.70523815885481
 30
0.0
 11
100.7162889276207
 21
44.70523815885481
 31
0.0
  0
LINE
  5
463
  8
EL-LFB45702C-25N5
  6
CONTINUOUS
 62
     7
 10
100.7576300734437
 20
44.74795734287191
 30
0.0
 11
100.7576300734437
 21
44.70523815885481
 31
0.0
  0
LINE
  5
464
  8
EL-LFB45702C-25N5
  6
CONTINUOUS
 62
     7
 10
101.478344048958
 20
44.87456460195492
 30
0.0
 11
101.4356248649409
 21
44.83184541793781
 31
0.0
  0
LINE
  5
465
  8
EL-LFB45702C-25N5
  6
CONTINUOUS
 62
     7
 10
85.60334405292674
 20
41.7422837867657
 30
0.0
 11
86.32267999024687
 21
41.8692355553972
 31
0.0
  0
LINE
  5
466
  8
EL-LFB45702C-25N5
  6
CONTINUOUS
 62
     7
 10
85.56062486890964
 20
41.7422837867657
 30
0.0
 11
51.01596341921245
 21
62.1896145108206
 31
0.0
  0
LINE
  5
467
  8
EL-LFB45702C-25N5
  6
CONTINUOUS
 62
     7
 10
66.12890829390646
 20
65.1952880669268
 30
0.0
 11
100.6735697436036
 21
44.74795734287191
 31
0.0
  0
LINE
  5
468
  8
EL-LFB45702C-25N5
  6
CONTINUOUS
 62
     7
 10
101.4356248649409
 20
44.917283785972
 30
0.0
 11
66.89096341524366
 21
65.36461451002681
 31
0.0
  0
LINE
  5
469
  8
EL-LFB45702C-25N5
  6
CONTINUOUS
 62
     7
 10
101.3929056809238
 20
45.25628118172051
 30
0.0
 11
66.89096341524366
 21
65.74529756114691
 31
0.0
  0
LINE
  5
46A
  8
EL-LFB45702C-25N5
  6
CONTINUOUS
 62
     7
 10
51.73667739472665
 20
62.35790742527502
 30
0.0
 11
86.32267999024687
 21
41.8692355553972
 31
0.0
  0
LINE
  5
46B
  8
EL-LFB45702C-25N5
  6
CONTINUOUS
 62
     7
 10
91.31806844385915
 20
45.8490098599578
 30
0.0
 11
94.15407104731673
 21
46.44156628342081
 31
0.0
  0
LINE
  5
46C
  8
EL-LFB45702C-25N5
  6
CONTINUOUS
 62
     7
 10
91.19128893000196
 20
45.89017875100652
 30
0.0
 11
90.59873250653895
 21
46.22934840152941
 31
0.0
  0
LINE
  5
46D
  8
EL-LFB45702C-25N5
  6
CONTINUOUS
 62
     7
 10
95.50868259211707
 20
47.24496255058101
 30
0.0
 11
96.18667738361417
 21
47.37294784785811
 31
0.0
  0
LINE
  5
46E
  8
EL-LFB45702C-25N5
  6
CONTINUOUS
 62
     7
 10
90.42923380866465
 20
46.27189533077221
 30
0.0
 11
88.77834405213297
 21
45.9328979350236
 31
0.0
  0
LINE
  5
46F
  8
EL-LFB45702C-25N5
  6
CONTINUOUS
 62
     7
 10
98.21790568171757
 20
47.54124076231251
 30
0.0
 11
68.16151463020385
 21
65.36461451002681
 31
0.0
  0
LINE
  5
470
  8
EL-LFB45702C-25N5
  6
CONTINUOUS
 62
     7
 10
66.12890829390646
 20
65.1952880669268
 30
0.0
 11
66.84962226942066
 21
65.32189532600971
 31
0.0
  0
LINE
  5
471
  8
EL-LFB45702C-25N5
  6
CONTINUOUS
 62
     7
 10
66.89096341524366
 20
65.36461451002681
 30
0.0
 11
66.89096341524366
 21
65.66089272175832
 31
0.0
  0
LINE
  5
472
  8
EL-LFB45702C-25N5
  6
CONTINUOUS
 62
     7
 10
65.96078763422626
 20
66.67667912558422
 30
0.0
 11
64.39395820753457
 21
67.60823294479582
 31
0.0
  0
LINE
  5
473
  8
EL-LFB45702C-25N5
  6
CONTINUOUS
 62
     7
 10
88.05763007661865
 20
44.70523815885481
 30
0.0
 11
86.36539917426394
 21
41.9119547394143
 31
0.0
  0
LINE
  5
474
  8
EL-LFB45702C-25N5
  6
CONTINUOUS
 62
     7
 10
51.73667739472665
 20
62.35790742527502
 30
0.0
 11
51.05868260322956
 21
62.1896145108206
 31
0.0
  0
LINE
  5
475
  8
EL-LFB45702C-25N5
  6
CONTINUOUS
 62
     7
 10
100.7162889276207
 20
44.70523815885481
 30
0.0
 11
101.3929056809238
 21
44.87456460195492
 31
0.0
  0
LINE
  5
476
  8
EL-LFB45702C-25N5
  6
CONTINUOUS
 62
     7
 10
85.56062486890964
 20
41.7422837867657
 30
0.0
 11
85.60334405292674
 21
41.7422837867657
 31
0.0
  0
LINE
  5
477
  8
EL-LFB45702C-25N5
  6
CONTINUOUS
 62
     7
 10
51.01596341921245
 20
62.23130016619211
 30
0.0
 11
51.01596341921245
 21
62.1896145108206
 31
0.0
  0
LINE
  5
478
  8
EL-LFB45702C-25N5
  6
CONTINUOUS
 62
     7
 10
101.4356248649409
 20
44.917283785972
 30
0.0
 11
101.3929056809238
 21
44.87456460195492
 31
0.0
  0
LINE
  5
479
  8
EL-LFB45702C-25N5
  6
CONTINUOUS
 62
     7
 10
91.19128893000196
 20
45.89017875100652
 30
0.0
 11
91.31806844385915
 21
45.8490098599578
 31
0.0
  0
LINE
  5
47A
  8
EL-LFB45702C-25N5
  6
CONTINUOUS
 62
     7
 10
90.42923380866465
 20
46.27189533077221
 30
0.0
 11
90.59873250653895
 21
46.22934840152941
 31
0.0
  0
LINE
  5
47B
  8
EL-LFB45702C-25N5
  6
CONTINUOUS
 62
     7
 10
94.87340698463696
 20
48.00684541714401
 30
0.0
 11
95.16968519636846
 21
47.96567652609531
 31
0.0
  0
LINE
  5
47C
  8
EL-LFB45702C-25N5
  6
CONTINUOUS
 62
     7
 10
94.83206583881395
 20
48.04956460116111
 30
0.0
 11
94.87340698463696
 21
48.00684541714401
 31
0.0
  0
LINE
  5
47D
  8
EL-LFB45702C-25N5
  6
CONTINUOUS
 62
     7
 10
94.87340698463696
 20
48.04956460116111
 30
0.0
 11
95.12834405054546
 21
48.00684541714401
 31
0.0
  0
LINE
  5
47E
  8
EL-LFB45702C-25N5
  6
CONTINUOUS
 62
     7
 10
94.83206583881395
 20
48.09228378517821
 30
0.0
 11
94.87340698463696
 21
48.04956460116111
 31
0.0
  0
LINE
  5
47F
  8
EL-LFB45702C-25N5
  6
CONTINUOUS
 62
     7
 10
94.91612616865405
 20
48.09228378517821
 30
0.0
 11
94.83206583881395
 21
48.09228378517821
 31
0.0
  0
LINE
  5
480
  8
EL-LFB45702C-25N5
  6
CONTINUOUS
 62
     7
 10
88.31256714252716
 20
46.61089272652082
 30
0.0
 11
88.05763007661865
 21
46.73801674992652
 31
0.0
  0
LINE
  5
481
  8
EL-LFB45702C-25N5
  6
CONTINUOUS
 62
     7
 10
88.52340698622446
 20
46.73801674992652
 30
0.0
 11
88.31256714252716
 21
46.61089272652082
 31
0.0
  0
LINE
  5
482
  8
EL-LFB45702C-25N5
  6
CONTINUOUS
 62
     7
 10
88.35390828835015
 20
46.82190482499242
 30
0.0
 11
88.52340698622446
 21
46.73801674992652
 31
0.0
  0
LINE
  5
483
  8
EL-LFB45702C-25N5
  6
CONTINUOUS
 62
     7
 10
88.05763007661865
 20
46.73801674992652
 30
0.0
 11
88.35390828835015
 21
46.82190482499242
 31
0.0
  0
LINE
  5
484
  8
EL-LFB45702C-25N5
  6
CONTINUOUS
 62
     7
 10
88.52340698622446
 20
46.73801674992652
 30
0.0
 11
88.05763007661865
 21
46.73801674992652
 31
0.0
  0
LINE
  5
485
  8
EL-LFB45702C-25N5
  6
CONTINUOUS
 62
     7
 10
66.89096341524366
 20
65.66106497653261
 30
0.0
 11
66.89096341524366
 21
65.74529756114691
 31
0.0
  0
LINE
  5
486
  8
EL-LFB45702C-25N5
  6
CONTINUOUS
 62
     7
 10
51.73667739472665
 20
62.35790742527502
 30
0.0
 11
51.82073772456675
 21
62.35790742527502
 31
0.0
  0
LINE
  5
487
  8
EL-LFB45702C-25N5
  6
CONTINUOUS
 62
     7
 10
86.32267999024687
 20
41.8692355553972
 30
0.0
 11
86.36539917426394
 21
41.9119547394143
 31
0.0
  0
LINE
  5
488
  8
EL-LFB45702C-25N5
  6
CONTINUOUS
 62
     7
 10
51.01596341921245
 20
62.1896145108206
 30
0.0
 11
51.05868260322956
 21
62.1896145108206
 31
0.0
  0
LINE
  5
489
  8
EL-LFB45702C-25N5
  6
CONTINUOUS
 62
     7
 10
100.7162889276207
 20
44.70523815885481
 30
0.0
 11
100.6735697436036
 21
44.74795734287191
 31
0.0
  0
LINE
  5
48A
  8
EL-LFB45702C-25N5
  6
CONTINUOUS
 62
     7
 10
101.4356248649409
 20
45.21356199770351
 30
0.0
 11
101.3929056809238
 21
45.25628118172051
 31
0.0
  0
TEXT
  5
48B
  8
EL-LFB45702C-25N5
 62
     7
 10
22.54274317423506
 20
15.339468148855
 30
0.0
 40
4.5
  1
三菱　ＥＬ－ＬＦＢ４５７０２Ｃ　ＡＨＮ（２６Ｎ４）
  7
_______
  0
TEXT
  5
48C
  8
EL-LFB45702C-25N5
 62
     7
 10
22.54274317423506
 20
99.33946314885492
 30
0.0
 40
4.5
  1
ＬＥＤランプ搭載　 埋込形器具
  7
_______
  0
VIEWPORT
  5
48D
 67
     1
  8
0
 10
128.5
 20
97.5
 30
0.0
 40
314.226
 41
222.18
 68
     1
 69
     1
1001
ACAD
1000
MVIEW
1002
{
1070
    16
1010
0.0
1020
0.0
1030
0.0
1010
0.0
1020
0.0
1030
1.0
1040
0.0
1040
222.18
1040
128.5
1040
97.5
1040
50.0
1040
0.0
1040
0.0
1070
     0
1070
   100
1070
     0
1070
     3
1070
     0
1070
     0
1070
     0
1070
     0
1040
0.0
1040
0.0
1040
0.0
1040
10.0
1040
10.0
1040
10.0
1040
10.0
1070
     0
1002
{
1002
}
1002
}
  0
ENDSEC
  0
EOF
