  0
SECTION
  2
HEADER
  9
$ACADVER
  1
AC1009
  9
$DWGCODEPAGE
  3
dos932
  9
$INSBASE
 10
0.0
 20
0.0
 30
0.0
  9
$EXTMIN
 10
25.47404573228627
 20
14.51870479007638
 30
0.0
  9
$EXTMAX
 10
166.1763424343533
 20
104.3812952099236
 30
0.0
  9
$LIMMIN
 10
0.0
 20
0.0
  9
$LIMMAX
 10
12.0
 20
9.0
  9
$ORTHOMODE
 70
     0
  9
$REGENMODE
 70
     1
  9
$FILLMODE
 70
     1
  9
$QTEXTMODE
 70
     0
  9
$MIRRTEXT
 70
     1
  9
$DRAGMODE
 70
     2
  9
$LTSCALE
 40
0.9999999999999999
  9
$OSMODE
 70
    37
  9
$ATTMODE
 70
     1
  9
$TEXTSIZE
 40
0.2
  9
$TRACEWID
 40
1.0
  9
$TEXTSTYLE
  7
STANDARD
  9
$CLAYER
  8
EL-LFH4522C-25N5
  9
$CELTYPE
  6
BYLAYER
  9
$CECOLOR
 62
   256
  9
$DIMSCALE
 40
1.0
  9
$DIMASZ
 40
0.18
  9
$DIMEXO
 40
0.0625
  9
$DIMDLI
 40
0.38
  9
$DIMRND
 40
0.0
  9
$DIMDLE
 40
0.0
  9
$DIMEXE
 40
0.18
  9
$DIMTP
 40
0.0
  9
$DIMTM
 40
0.0
  9
$DIMTXT
 40
0.18
  9
$DIMCEN
 40
0.09
  9
$DIMTSZ
 40
0.0
  9
$DIMTOL
 70
     0
  9
$DIMLIM
 70
     0
  9
$DIMTIH
 70
     1
  9
$DIMTOH
 70
     1
  9
$DIMSE1
 70
     0
  9
$DIMSE2
 70
     0
  9
$DIMTAD
 70
     0
  9
$DIMZIN
 70
     0
  9
$DIMBLK
  1

  9
$DIMASO
 70
     1
  9
$DIMSHO
 70
     1
  9
$DIMPOST
  1

  9
$DIMAPOST
  1

  9
$DIMALT
 70
     0
  9
$DIMALTD
 70
     2
  9
$DIMALTF
 40
25.4
  9
$DIMLFAC
 40
1.0
  9
$DIMTOFL
 70
     0
  9
$DIMTVP
 40
0.0
  9
$DIMTIX
 70
     0
  9
$DIMSOXD
 70
     0
  9
$DIMSAH
 70
     0
  9
$DIMBLK1
  1

  9
$DIMBLK2
  1

  9
$DIMSTYLE
  2
STANDARD
  9
$DIMCLRD
 70
     0
  9
$DIMCLRE
 70
     0
  9
$DIMCLRT
 70
     0
  9
$DIMTFAC
 40
1.0
  9
$DIMGAP
 40
0.09
  9
$LUNITS
 70
     2
  9
$LUPREC
 70
     2
  9
$SKETCHINC
 40
0.1
  9
$FILLETRAD
 40
0.5
  9
$AUNITS
 70
     0
  9
$AUPREC
 70
     2
  9
$MENU
  1
.
  9
$ELEVATION
 40
0.0
  9
$PELEVATION
 40
0.0
  9
$THICKNESS
 40
0.0
  9
$LIMCHECK
 70
     0
  9
$CHAMFERA
 40
0.0
  9
$CHAMFERB
 40
0.0
  9
$SKPOLY
 70
     0
  9
$TDCREATE
 40
2458675.419090312
  9
$TDUPDATE
 40
2458675.419097187
  9
$TDINDWG
 40
0.0000000116
  9
$TDUSRTIMER
 40
0.0000000116
  9
$USRTIMER
 70
     1
  9
$ANGBASE
 50
0.0
  9
$ANGDIR
 70
     0
  9
$PDMODE
 70
     1
  9
$PDSIZE
 40
-2.0
  9
$PLINEWID
 40
0.0
  9
$COORDS
 70
     1
  9
$SPLFRAME
 70
     0
  9
$SPLINETYPE
 70
     6
  9
$SPLINESEGS
 70
     8
  9
$ATTDIA
 70
     0
  9
$ATTREQ
 70
     1
  9
$HANDLING
 70
     1
  9
$HANDSEED
  5
316
  9
$SURFTAB1
 70
     6
  9
$SURFTAB2
 70
     6
  9
$SURFTYPE
 70
     6
  9
$SURFU
 70
     6
  9
$SURFV
 70
     6
  9
$UCSNAME
  2

  9
$UCSORG
 10
0.0
 20
0.0
 30
0.0
  9
$UCSXDIR
 10
1.0
 20
0.0
 30
0.0
  9
$UCSYDIR
 10
0.0
 20
1.0
 30
0.0
  9
$PUCSNAME
  2

  9
$PUCSORG
 10
0.0
 20
0.0
 30
0.0
  9
$PUCSXDIR
 10
1.0
 20
0.0
 30
0.0
  9
$PUCSYDIR
 10
0.0
 20
1.0
 30
0.0
  9
$USERI1
 70
     0
  9
$USERI2
 70
     0
  9
$USERI3
 70
     0
  9
$USERI4
 70
     0
  9
$USERI5
 70
     0
  9
$USERR1
 40
0.0
  9
$USERR2
 40
0.0
  9
$USERR3
 40
0.0
  9
$USERR4
 40
0.0
  9
$USERR5
 40
0.0
  9
$WORLDVIEW
 70
     1
  9
$SHADEDGE
 70
     3
  9
$SHADEDIF
 70
    70
  9
$TILEMODE
 70
     1
  9
$MAXACTVP
 70
    64
  9
$PLIMCHECK
 70
     0
  9
$PEXTMIN
 10
1.000000000000000E+20
 20
1.000000000000000E+20
 30
1.000000000000000E+20
  9
$PEXTMAX
 10
-1.000000000000000E+20
 20
-1.000000000000000E+20
 30
-1.000000000000000E+20
  9
$PLIMMIN
 10
-20.0
 20
-7.5
  9
$PLIMMAX
 10
277.0
 20
202.5
  9
$UNITMODE
 70
     0
  9
$VISRETAIN
 70
     1
  9
$PLINEGEN
 70
     0
  9
$PSLTSCALE
 70
     1
  0
ENDSEC
  0
SECTION
  2
TABLES
  0
TABLE
  2
VPORT
 70
     1
  0
VPORT
  2
*ACTIVE
 70
     0
 10
0.0
 20
0.0
 11
1.0
 21
1.0
 12
95.82519408331977
 22
59.45
 13
0.0
 23
0.0
 14
0.5
 24
0.5
 15
0.5
 25
0.5
 16
0.0
 26
0.0
 36
1.0
 17
0.0
 27
0.0
 37
0.0
 40
89.86259041984724
 41
1.565749396324894
 42
2000.0
 43
0.0
 44
0.0
 50
0.0
 51
0.0
 71
     0
 72
   100
 73
     1
 74
     3
 75
     0
 76
     0
 77
     0
 78
     0
  0
ENDTAB
  0
TABLE
  2
LTYPE
 70
     1
  0
LTYPE
  2
CONTINUOUS
 70
     0
  3
Solid line
 72
    65
 73
     0
 40
0.0
  0
ENDTAB
  0
TABLE
  2
LAYER
 70
     3
  0
LAYER
  2
0
 70
     0
 62
     7
  6
CONTINUOUS
  0
LAYER
  2
EL-LFH4522C-25N5
 70
     0
 62
     7
  6
CONTINUOUS
  0
ENDTAB
  0
TABLE
  2
STYLE
 70
     2
  0
STYLE
  2
STANDARD
 70
     0
 40
0.0
 41
1.0
 50
0.0
 71
     0
 42
0.2
  3
txt
  4
BIGFONT.SHX
  0
STYLE
  2
_______
 70
     0
 40
0.0
 41
1.0
 50
0.0
 71
     0
 42
0.2
  3

  4
ＭＳ ゴシック
  0
ENDTAB
  0
TABLE
  2
VIEW
 70
     0
  0
ENDTAB
  0
TABLE
  2
UCS
 70
     0
  0
ENDTAB
  0
TABLE
  2
APPID
 70
     2
  0
APPID
  2
ACAD
 70
     0
  0
APPID
  2
ACAECLAYERSTANDARD
 70
     0
  0
ENDTAB
  0
TABLE
  2
DIMSTYLE
 70
     1
  0
DIMSTYLE
  2
STANDARD
 70
     0
  3

  4

  5

  6

  7

 40
1.0
 41
0.18
 42
0.0625
 43
0.38
 44
0.18
 45
0.0
 46
0.0
 47
0.0
 48
0.0
140
0.18
141
0.09
142
0.0
143
25.4
144
1.0
145
0.0
146
1.0
147
0.09
 71
     0
 72
     0
 73
     1
 74
     1
 75
     0
 76
     0
 77
     0
 78
     0
170
     0
171
     2
172
     0
173
     0
174
     0
175
     0
176
     0
177
     0
178
     0
  0
ENDTAB
  0
ENDSEC
  0
SECTION
  2
BLOCKS
  0
BLOCK
  8
0
  2
$MODEL_SPACE
 70
     0
 10
0.0
 20
0.0
 30
0.0
  3
$MODEL_SPACE
  1

  0
ENDBLK
  5
21
  8
0
  0
BLOCK
 67
     1
  8
0
  2
$PAPER_SPACE
 70
     0
 10
0.0
 20
0.0
 30
0.0
  3
$PAPER_SPACE
  1

  0
ENDBLK
  5
1D
 67
     1
  8
0
  0
ENDSEC
  0
SECTION
  2
ENTITIES
  0
LINE
  5
74
  8
EL-LFH4522C-25N5
  6
CONTINUOUS
 62
     7
 10
96.45598720856667
 20
43.34828599701791
 30
0.0
 11
95.73665127124646
 21
43.77272176080069
 31
0.0
  0
LINE
  5
75
  8
EL-LFH4522C-25N5
  6
CONTINUOUS
 62
     7
 10
94.84781663605206
 20
42.28995266394921
 30
0.0
 11
95.60987175738926
 21
41.8670671931348
 31
0.0
  0
LINE
  5
76
  8
EL-LFH4522C-25N5
  6
CONTINUOUS
 62
     7
 10
96.66820509045795
 20
43.13779066286921
 30
0.0
 11
96.45598720856667
 21
43.34828599701791
 31
0.0
  0
LINE
  5
77
  8
EL-LFH4522C-25N5
  6
CONTINUOUS
 62
     7
 10
96.75226542029804
 20
42.8826813421864
 30
0.0
 11
96.66820509045795
 21
43.13779066286921
 31
0.0
  0
LINE
  5
78
  8
EL-LFH4522C-25N5
  6
CONTINUOUS
 62
     7
 10
96.75226542029804
 20
42.5450619846319
 30
0.0
 11
96.75226542029804
 21
42.8826813421864
 31
0.0
  0
LINE
  5
79
  8
EL-LFH4522C-25N5
  6
CONTINUOUS
 62
     7
 10
96.62548590644086
 20
42.2487837729004
 30
0.0
 11
96.75226542029804
 21
42.5450619846319
 31
0.0
  0
LINE
  5
7A
  8
EL-LFH4522C-25N5
  6
CONTINUOUS
 62
     7
 10
96.15970899683528
 20
41.8243480091177
 30
0.0
 11
96.62548590644086
 21
42.2487837729004
 31
0.0
  0
LINE
  5
7B
  8
EL-LFH4522C-25N5
  6
CONTINUOUS
 62
     7
 10
95.60987175738926
 20
41.8670671931348
 30
0.0
 11
96.15970899683528
 21
41.8243480091177
 31
0.0
  0
LINE
  5
7C
  8
EL-LFH4522C-25N5
  6
CONTINUOUS
 62
     7
 10
96.03292948297796
 20
43.30711710596921
 30
0.0
 11
95.73665127124646
 21
43.77272176080069
 31
0.0
  0
LINE
  5
7D
  8
EL-LFH4522C-25N5
  6
CONTINUOUS
 62
     7
 10
96.03292948297796
 20
43.01066663946341
 30
0.0
 11
96.03292948297796
 21
43.30711710596921
 31
0.0
  0
LINE
  5
7E
  8
EL-LFH4522C-25N5
  6
CONTINUOUS
 62
     7
 10
95.90614996912075
 20
42.67166924371492
 30
0.0
 11
96.03292948297796
 21
43.01066663946341
 31
0.0
  0
LINE
  5
7F
  8
EL-LFH4522C-25N5
  6
CONTINUOUS
 62
     7
 10
95.65259094140636
 20
42.418454725549
 30
0.0
 11
95.90614996912075
 21
42.67166924371492
 31
0.0
  0
LINE
  5
80
  8
EL-LFH4522C-25N5
  6
CONTINUOUS
 62
     7
 10
95.39765387549788
 20
42.28995266394921
 30
0.0
 11
95.65259094140636
 21
42.418454725549
 31
0.0
  0
LINE
  5
81
  8
EL-LFH4522C-25N5
  6
CONTINUOUS
 62
     7
 10
94.84781663605206
 20
42.28995266394921
 30
0.0
 11
95.39765387549788
 21
42.28995266394921
 31
0.0
  0
LINE
  5
82
  8
EL-LFH4522C-25N5
  6
CONTINUOUS
 62
     7
 10
95.86343078510366
 20
43.51795694966651
 30
0.0
 11
95.69393208722936
 21
43.68745564754082
 31
0.0
  0
LINE
  5
83
  8
EL-LFH4522C-25N5
  6
CONTINUOUS
 62
     7
 10
95.94886915313786
 20
43.01066663946341
 30
0.0
 11
95.86343078510366
 21
43.51795694966651
 31
0.0
  0
LINE
  5
84
  8
EL-LFH4522C-25N5
  6
CONTINUOUS
 62
     7
 10
95.65259094140636
 20
42.4596236165977
 30
0.0
 11
95.94886915313786
 21
43.01066663946341
 31
0.0
  0
LINE
  5
85
  8
EL-LFH4522C-25N5
  6
CONTINUOUS
 62
     7
 10
95.14409484778348
 20
42.28995266394921
 30
0.0
 11
95.65259094140636
 21
42.4596236165977
 31
0.0
  0
LINE
  5
86
  8
EL-LFH4522C-25N5
  6
CONTINUOUS
 62
     7
 10
94.76375630621196
 20
42.4596236165977
 30
0.0
 11
95.14409484778348
 21
42.28995266394921
 31
0.0
  0
LINE
  5
87
  8
EL-LFH4522C-25N5
  6
CONTINUOUS
 62
     7
 10
94.63559875416057
 20
42.5450619846319
 30
0.0
 11
94.84781663605206
 21
42.28995266394921
 31
0.0
  0
LINE
  5
88
  8
EL-LFH4522C-25N5
  6
CONTINUOUS
 62
     7
 10
61.99676412690367
 20
63.75306979182992
 30
0.0
 11
61.82726542902935
 21
63.8383359050898
 31
0.0
  0
LINE
  5
89
  8
EL-LFH4522C-25N5
  6
CONTINUOUS
 62
     7
 10
62.20898200879507
 20
63.54205769335842
 30
0.0
 11
61.99676412690367
 21
63.75306979182992
 31
0.0
  0
LINE
  5
8A
  8
EL-LFH4522C-25N5
  6
CONTINUOUS
 62
     7
 10
62.29304233863517
 20
63.28729288222411
 30
0.0
 11
62.20898200879507
 21
63.54205769335842
 31
0.0
  0
LINE
  5
8B
  8
EL-LFH4522C-25N5
  6
CONTINUOUS
 62
     7
 10
62.25170119281218
 20
62.99101467049272
 30
0.0
 11
62.29304233863517
 21
63.28729288222411
 31
0.0
  0
LINE
  5
8C
  8
EL-LFH4522C-25N5
  6
CONTINUOUS
 62
     7
 10
61.95542298108067
 20
62.44100517627251
 30
0.0
 11
62.25170119281218
 21
62.99101467049272
 31
0.0
  0
LINE
  5
8D
  8
EL-LFH4522C-25N5
  6
CONTINUOUS
 62
     7
 10
61.65914476934915
 20
62.27167873317251
 30
0.0
 11
61.95542298108067
 21
62.44100517627251
 31
0.0
  0
LINE
  5
8E
  8
EL-LFH4522C-25N5
  6
CONTINUOUS
 62
     7
 10
61.40420770344065
 20
62.22895954915541
 30
0.0
 11
61.65914476934915
 21
62.27167873317251
 31
0.0
  0
LINE
  5
8F
  8
EL-LFH4522C-25N5
  6
CONTINUOUS
 62
     7
 10
61.02386916186905
 20
62.35711710120671
 30
0.0
 11
61.40420770344065
 21
62.22895954915541
 31
0.0
  0
LINE
  5
90
  8
EL-LFH4522C-25N5
  6
CONTINUOUS
 62
     7
 10
61.44692688745776
 20
62.18779065810661
 30
0.0
 11
95.06003451794338
 21
42.28995266394921
 31
0.0
  0
LINE
  5
91
  8
EL-LFH4522C-25N5
  6
CONTINUOUS
 62
     7
 10
95.82208963928065
 20
43.60339531770072
 30
0.0
 11
62.20898200879507
 21
63.49933850934131
 31
0.0
  0
LINE
  5
92
  8
EL-LFH4522C-25N5
  6
CONTINUOUS
 62
     7
 10
99.54692687793276
 20
44.53512139168652
 30
0.0
 11
100.3089819992701
 21
44.0689999725322
 31
0.0
  0
LINE
  5
93
  8
EL-LFH4522C-25N5
  6
CONTINUOUS
 62
     7
 10
99.42014736407555
 20
42.629122314472
 30
0.0
 11
98.70081142675546
 21
43.05200778528641
 31
0.0
  0
LINE
  5
94
  8
EL-LFH4522C-25N5
  6
CONTINUOUS
 62
     7
 10
98.44587436084696
 20
43.30711710596921
 30
0.0
 11
98.70081142675546
 21
43.05200778528641
 31
0.0
  0
LINE
  5
95
  8
EL-LFH4522C-25N5
  6
CONTINUOUS
 62
     7
 10
99.54692687793276
 20
44.53512139168652
 30
0.0
 11
99.20792948218427
 21
44.61900946675232
 31
0.0
  0
LINE
  5
96
  8
EL-LFH4522C-25N5
  6
CONTINUOUS
 62
     7
 10
99.75914475982427
 20
44.32273125502081
 30
0.0
 11
99.54692687793276
 21
44.53512139168652
 31
0.0
  0
LINE
  5
97
  8
EL-LFH4522C-25N5
  6
CONTINUOUS
 62
     7
 10
99.84320508966437
 20
44.0691722273065
 30
0.0
 11
99.75914475982427
 21
44.32273125502081
 31
0.0
  0
LINE
  5
98
  8
EL-LFH4522C-25N5
  6
CONTINUOUS
 62
     7
 10
99.84320508966437
 20
43.77272176080069
 30
0.0
 11
99.84320508966437
 21
44.0691722273065
 31
0.0
  0
LINE
  5
99
  8
EL-LFH4522C-25N5
  6
CONTINUOUS
 62
     7
 10
99.71642557580707
 20
43.43372436505211
 30
0.0
 11
99.84320508966437
 21
43.77272176080069
 31
0.0
  0
LINE
  5
9A
  8
EL-LFH4522C-25N5
  6
CONTINUOUS
 62
     7
 10
99.25064866620126
 20
43.01083889423771
 30
0.0
 11
99.71642557580707
 21
43.43372436505211
 31
0.0
  0
LINE
  5
9B
  8
EL-LFH4522C-25N5
  6
CONTINUOUS
 62
     7
 10
98.95437045446987
 20
42.96811971022061
 30
0.0
 11
99.25064866620126
 21
43.01083889423771
 31
0.0
  0
LINE
  5
9C
  8
EL-LFH4522C-25N5
  6
CONTINUOUS
 62
     7
 10
98.70081142675546
 20
43.05200778528641
 30
0.0
 11
98.95437045446987
 21
42.96811971022061
 31
0.0
  0
LINE
  5
9D
  8
EL-LFH4522C-25N5
  6
CONTINUOUS
 62
     7
 10
99.50420769391565
 20
44.4493385141038
 30
0.0
 11
99.33470899604136
 21
44.53512139168652
 31
0.0
  0
LINE
  5
9E
  8
EL-LFH4522C-25N5
  6
CONTINUOUS
 62
     7
 10
99.80048590564716
 20
44.02645304328939
 30
0.0
 11
99.50420769391565
 21
44.4493385141038
 31
0.0
  0
LINE
  5
9F
  8
EL-LFH4522C-25N5
  6
CONTINUOUS
 62
     7
 10
99.67370639178996
 20
43.47678805861781
 30
0.0
 11
99.80048590564716
 21
44.02645304328939
 31
0.0
  0
LINE
  5
A0
  8
EL-LFH4522C-25N5
  6
CONTINUOUS
 62
     7
 10
99.46286654809266
 20
43.22167873793501
 30
0.0
 11
99.67370639178996
 21
43.47678805861781
 31
0.0
  0
LINE
  5
A1
  8
EL-LFH4522C-25N5
  6
CONTINUOUS
 62
     7
 10
99.20792948218427
 20
43.09507147885211
 30
0.0
 11
99.46286654809266
 21
43.22167873793501
 31
0.0
  0
LINE
  5
A2
  8
EL-LFH4522C-25N5
  6
CONTINUOUS
 62
     7
 10
98.95437045446987
 20
43.05200778528641
 30
0.0
 11
99.20792948218427
 21
43.09507147885211
 31
0.0
  0
LINE
  5
A3
  8
EL-LFH4522C-25N5
  6
CONTINUOUS
 62
     7
 10
98.70081142675546
 20
43.13779066286921
 30
0.0
 11
98.95437045446987
 21
43.05200778528641
 31
0.0
  0
LINE
  5
A4
  8
EL-LFH4522C-25N5
  6
CONTINUOUS
 62
     7
 10
98.57265387470416
 20
43.22167873793501
 30
0.0
 11
98.70081142675546
 21
43.13779066286921
 31
0.0
  0
LINE
  5
A5
  8
EL-LFH4522C-25N5
  6
CONTINUOUS
 62
     7
 10
100.6052602110017
 20
43.64473646352371
 30
0.0
 11
100.3089819992701
 21
44.0689999725322
 31
0.0
  0
LINE
  5
A6
  8
EL-LFH4522C-25N5
  6
CONTINUOUS
 62
     7
 10
100.4357615131274
 20
43.01066663946341
 30
0.0
 11
100.6052602110017
 21
43.64473646352371
 31
0.0
  0
LINE
  5
A7
  8
EL-LFH4522C-25N5
  6
CONTINUOUS
 62
     7
 10
99.96998460352147
 20
42.5864031304549
 30
0.0
 11
100.4357615131274
 21
43.01066663946341
 31
0.0
  0
LINE
  5
A8
  8
EL-LFH4522C-25N5
  6
CONTINUOUS
 62
     7
 10
99.67370639178996
 20
42.5450619846319
 30
0.0
 11
99.96998460352147
 21
42.5864031304549
 31
0.0
  0
LINE
  5
A9
  8
EL-LFH4522C-25N5
  6
CONTINUOUS
 62
     7
 10
99.42014736407555
 20
42.629122314472
 30
0.0
 11
99.67370639178996
 21
42.5450619846319
 31
0.0
  0
LINE
  5
AA
  8
EL-LFH4522C-25N5
  6
CONTINUOUS
 62
     7
 10
65.25720249414405
 20
62.99101467049272
 30
0.0
 11
98.91165127045268
 21
43.05200778528641
 31
0.0
  0
LINE
  5
AB
  8
EL-LFH4522C-25N5
  6
CONTINUOUS
 62
     7
 10
99.63098720777286
 20
44.36545043903791
 30
0.0
 11
66.06059876130438
 21
64.26173814022711
 31
0.0
  0
LINE
  5
AC
  8
EL-LFH4522C-25N5
  6
CONTINUOUS
 62
     7
 10
65.80703973358997
 20
64.51495265839301
 30
0.0
 11
65.63754103571567
 21
64.6003910264271
 31
0.0
  0
LINE
  5
AD
  8
EL-LFH4522C-25N5
  6
CONTINUOUS
 62
     7
 10
66.01925761548137
 20
64.34562621529291
 30
0.0
 11
65.80703973358997
 21
64.51495265839301
 31
0.0
  0
LINE
  5
AE
  8
EL-LFH4522C-25N5
  6
CONTINUOUS
 62
     7
 10
66.10331794532146
 20
64.0493480035614
 30
0.0
 11
66.01925761548137
 21
64.34562621529291
 31
0.0
  0
LINE
  5
AF
  8
EL-LFH4522C-25N5
  6
CONTINUOUS
 62
     7
 10
66.10331794532146
 20
63.7117286460069
 30
0.0
 11
66.10331794532146
 21
64.0493480035614
 31
0.0
  0
LINE
  5
B0
  8
EL-LFH4522C-25N5
  6
CONTINUOUS
 62
     7
 10
65.97653843146428
 20
63.41545043427551
 30
0.0
 11
66.10331794532146
 21
63.7117286460069
 31
0.0
  0
LINE
  5
B1
  8
EL-LFH4522C-25N5
  6
CONTINUOUS
 62
     7
 10
65.51076152185847
 20
62.99101467049272
 30
0.0
 11
65.97653843146428
 21
63.41545043427551
 31
0.0
  0
LINE
  5
B2
  8
EL-LFH4522C-25N5
  6
CONTINUOUS
 62
     7
 10
64.96092428241256
 20
63.0337338545098
 30
0.0
 11
65.51076152185847
 21
62.99101467049272
 31
0.0
  0
LINE
  5
B3
  8
EL-LFH4522C-25N5
  6
CONTINUOUS
 62
     7
 10
64.83414476855535
 20
63.11917222254391
 30
0.0
 11
64.96092428241256
 21
63.0337338545098
 31
0.0
  0
LINE
  5
B4
  8
EL-LFH4522C-25N5
  6
CONTINUOUS
 62
     7
 10
62.92831794611516
 20
64.81140312489872
 30
0.0
 11
63.09781664398947
 21
64.8541223089158
 31
0.0
  0
LINE
  5
B5
  8
EL-LFH4522C-25N5
  6
CONTINUOUS
 62
     7
 10
62.88559876209806
 20
64.89666923815861
 30
0.0
 11
62.88559876209806
 21
65.23583888868151
 31
0.0
  0
LINE
  5
B6
  8
EL-LFH4522C-25N5
  6
CONTINUOUS
 62
     7
 10
62.63203973438377
 20
65.15040052064721
 30
0.0
 11
62.63203973438377
 21
65.06634019080711
 31
0.0
  0
LINE
  5
B7
  8
EL-LFH4522C-25N5
  6
CONTINUOUS
 62
     7
 10
62.97103713013227
 20
64.9810740775472
 30
0.0
 11
63.09781664398947
 21
64.8541223089158
 31
0.0
  0
LINE
  5
B8
  8
EL-LFH4522C-25N5
  6
CONTINUOUS
 62
     7
 10
62.97103713013227
 20
64.9810740775472
 30
0.0
 11
63.09781664398947
 21
64.89666923815861
 31
0.0
  0
LINE
  5
B9
  8
EL-LFH4522C-25N5
  6
CONTINUOUS
 62
     7
 10
63.05509745997237
 20
65.27700777973021
 30
0.0
 11
62.97103713013227
 21
65.27700777973021
 31
0.0
  0
LINE
  5
BA
  8
EL-LFH4522C-25N5
  6
CONTINUOUS
 62
     7
 10
63.05509745997237
 20
65.32007147329581
 30
0.0
 11
62.97103713013227
 21
65.27700777973021
 31
0.0
  0
LINE
  5
BB
  8
EL-LFH4522C-25N5
  6
CONTINUOUS
 62
     7
 10
63.05509745997237
 20
65.36279065731291
 30
0.0
 11
62.97103713013227
 21
65.32007147329581
 31
0.0
  0
LINE
  5
BC
  8
EL-LFH4522C-25N5
  6
CONTINUOUS
 62
     7
 10
62.97103713013227
 20
64.81140312489872
 30
0.0
 11
63.09781664398947
 21
64.81140312489872
 31
0.0
  0
LINE
  5
BD
  8
EL-LFH4522C-25N5
  6
CONTINUOUS
 62
     7
 10
62.97103713013227
 20
64.81140312489872
 30
0.0
 11
62.92831794611516
 21
64.81140312489872
 31
0.0
  0
LINE
  5
BE
  8
EL-LFH4522C-25N5
  6
CONTINUOUS
 62
     7
 10
62.92831794611516
 20
64.81140312489872
 30
0.0
 11
62.88559876209806
 21
64.89666923815861
 31
0.0
  0
LINE
  5
BF
  8
EL-LFH4522C-25N5
  6
CONTINUOUS
 62
     7
 10
63.09781664398947
 20
64.81140312489872
 30
0.0
 11
62.92831794611516
 21
64.81140312489872
 31
0.0
  0
LINE
  5
C0
  8
EL-LFH4522C-25N5
  6
CONTINUOUS
 62
     7
 10
62.97103713013227
 20
64.9810740775472
 30
0.0
 11
62.88559876209806
 21
64.89666923815861
 31
0.0
  0
LINE
  5
C1
  8
EL-LFH4522C-25N5
  6
CONTINUOUS
 62
     7
 10
62.88559876209806
 20
65.23583888868151
 30
0.0
 11
62.97103713013227
 21
65.27700777973021
 31
0.0
  0
LINE
  5
C2
  8
EL-LFH4522C-25N5
  6
CONTINUOUS
 62
     7
 10
62.97103713013227
 20
64.9810740775472
 30
0.0
 11
62.92831794611516
 21
64.81140312489872
 31
0.0
  0
LINE
  5
C3
  8
EL-LFH4522C-25N5
  6
CONTINUOUS
 62
     7
 10
62.92831794611516
 20
64.8541223089158
 30
0.0
 11
62.92831794611516
 21
64.81140312489872
 31
0.0
  0
LINE
  5
C4
  8
EL-LFH4522C-25N5
  6
CONTINUOUS
 62
     7
 10
62.63203973438377
 20
65.06634019080711
 30
0.0
 11
62.97103713013227
 21
65.27700777973021
 31
0.0
  0
LINE
  5
C5
  8
EL-LFH4522C-25N5
  6
CONTINUOUS
 62
     7
 10
62.84425761627506
 20
65.32007147329581
 30
0.0
 11
62.63203973438377
 21
65.15040052064721
 31
0.0
  0
LINE
  5
C6
  8
EL-LFH4522C-25N5
  6
CONTINUOUS
 62
     7
 10
62.97103713013227
 20
65.32007147329581
 30
0.0
 11
62.84425761627506
 21
65.32007147329581
 31
0.0
  0
LINE
  5
C7
  8
EL-LFH4522C-25N5
  6
CONTINUOUS
 62
     7
 10
62.88559876209806
 20
64.89666923815861
 30
0.0
 11
62.63203973438377
 21
65.06634019080711
 31
0.0
  0
LINE
  5
C8
  8
EL-LFH4522C-25N5
  6
CONTINUOUS
 62
     7
 10
61.78592428320636
 20
63.41545043427551
 30
0.0
 11
61.36286655761766
 21
63.66900946198982
 31
0.0
  0
LINE
  5
C9
  8
EL-LFH4522C-25N5
  6
CONTINUOUS
 62
     7
 10
61.91270379706357
 20
65.36279065731291
 30
0.0
 11
61.91270379706357
 21
64.81140312489872
 31
0.0
  0
LINE
  5
CA
  8
EL-LFH4522C-25N5
  6
CONTINUOUS
 62
     7
 10
61.91270379706357
 20
64.7700619790757
 30
0.0
 11
61.91270379706357
 21
65.36279065731291
 31
0.0
  0
LINE
  5
CB
  8
EL-LFH4522C-25N5
  6
CONTINUOUS
 62
     7
 10
61.53098721729786
 20
64.9810740775472
 30
0.0
 11
61.91270379706357
 21
64.7700619790757
 31
0.0
  0
LINE
  5
CC
  8
EL-LFH4522C-25N5
  6
CONTINUOUS
 62
     7
 10
61.91270379706357
 20
64.81140312489872
 30
0.0
 11
61.53098721729786
 21
65.06634019080711
 31
0.0
  0
LINE
  5
CD
  8
EL-LFH4522C-25N5
  6
CONTINUOUS
 62
     7
 10
61.91270379706357
 20
64.7700619790757
 30
0.0
 11
61.78592428320636
 21
63.41545043427551
 31
0.0
  0
LINE
  5
CE
  8
EL-LFH4522C-25N5
  6
CONTINUOUS
 62
     7
 10
61.36286655761766
 20
63.66900946198982
 30
0.0
 11
61.53098721729786
 21
64.9810740775472
 31
0.0
  0
LINE
  5
CF
  8
EL-LFH4522C-25N5
  6
CONTINUOUS
 62
     7
 10
61.53098721729786
 20
65.06634019080711
 30
0.0
 11
61.53098721729786
 21
65.5321171004129
 31
0.0
  0
LINE
  5
D0
  8
EL-LFH4522C-25N5
  6
CONTINUOUS
 62
     7
 10
61.86998461304646
 20
65.36279065731291
 30
0.0
 11
61.57370640131496
 21
65.5321171004129
 31
0.0
  0
LINE
  5
D1
  8
EL-LFH4522C-25N5
  6
CONTINUOUS
 62
     7
 10
61.57370640131496
 20
65.48939791639592
 30
0.0
 11
61.53098721729786
 21
65.5321171004129
 31
0.0
  0
LINE
  5
D2
  8
EL-LFH4522C-25N5
  6
CONTINUOUS
 62
     7
 10
61.57370640131496
 20
65.5321171004129
 30
0.0
 11
61.57370640131496
 21
65.48939791639592
 31
0.0
  0
LINE
  5
D3
  8
EL-LFH4522C-25N5
  6
CONTINUOUS
 62
     7
 10
59.88009746076617
 20
62.61067612892111
 30
0.0
 11
60.30453322454896
 21
62.39828599225541
 31
0.0
  0
LINE
  5
D4
  8
EL-LFH4522C-25N5
  6
CONTINUOUS
 62
     7
 10
61.53098721729786
 20
65.02379326156431
 30
0.0
 11
61.53098721729786
 21
65.06634019080711
 31
0.0
  0
LINE
  5
D5
  8
EL-LFH4522C-25N5
  6
CONTINUOUS
 62
     7
 10
61.91270379706357
 20
64.7700619790757
 30
0.0
 11
61.91270379706357
 21
64.81140312489872
 31
0.0
  0
LINE
  5
D6
  8
EL-LFH4522C-25N5
  6
CONTINUOUS
 62
     7
 10
61.27742818958345
 20
65.27700777973021
 30
0.0
 11
61.23470900556636
 21
65.36279065731291
 31
0.0
  0
LINE
  5
D7
  8
EL-LFH4522C-25N5
  6
CONTINUOUS
 62
     7
 10
61.27742818958345
 20
65.23583888868151
 30
0.0
 11
61.27742818958345
 21
65.27700777973021
 31
0.0
  0
LINE
  5
D8
  8
EL-LFH4522C-25N5
  6
CONTINUOUS
 62
     7
 10
60.72759095013758
 20
62.31439791718961
 30
0.0
 11
60.30453322454896
 21
62.39828599225541
 31
0.0
  0
LINE
  5
D9
  8
EL-LFH4522C-25N5
  6
CONTINUOUS
 62
     7
 10
61.19336785974335
 20
62.44100517627251
 30
0.0
 11
60.72759095013758
 21
62.31439791718961
 31
0.0
  0
LINE
  5
DA
  8
EL-LFH4522C-25N5
  6
CONTINUOUS
 62
     7
 10
61.65914476934915
 20
62.9069543406526
 30
0.0
 11
61.19336785974335
 21
62.44100517627251
 31
0.0
  0
LINE
  5
DB
  8
EL-LFH4522C-25N5
  6
CONTINUOUS
 62
     7
 10
61.78592428320636
 20
63.41545043427551
 30
0.0
 11
61.65914476934915
 21
62.9069543406526
 31
0.0
  0
LINE
  5
DC
  8
EL-LFH4522C-25N5
  6
CONTINUOUS
 62
     7
 10
60.93843079383487
 20
62.31439791718961
 30
0.0
 11
60.30453322454896
 21
62.39828599225541
 31
0.0
  0
LINE
  5
DD
  8
EL-LFH4522C-25N5
  6
CONTINUOUS
 62
     7
 10
61.23470900556636
 20
62.48372436028961
 30
0.0
 11
60.93843079383487
 21
62.31439791718961
 31
0.0
  0
LINE
  5
DE
  8
EL-LFH4522C-25N5
  6
CONTINUOUS
 62
     7
 10
61.70048591517216
 20
63.0337338545098
 30
0.0
 11
61.23470900556636
 21
62.48372436028961
 31
0.0
  0
LINE
  5
DF
  8
EL-LFH4522C-25N5
  6
CONTINUOUS
 62
     7
 10
61.78592428320636
 20
63.41545043427551
 30
0.0
 11
61.70048591517216
 21
63.0337338545098
 31
0.0
  0
LINE
  5
E0
  8
EL-LFH4522C-25N5
  6
CONTINUOUS
 62
     7
 10
59.33026022132026
 20
64.89666923815861
 30
0.0
 11
59.33026022132026
 21
64.8541223089158
 31
0.0
  0
LINE
  5
E1
  8
EL-LFH4522C-25N5
  6
CONTINUOUS
 62
     7
 10
61.27742818958345
 20
63.28729288222411
 30
0.0
 11
61.36286655761766
 21
63.66900946198982
 31
0.0
  0
LINE
  5
E2
  8
EL-LFH4522C-25N5
  6
CONTINUOUS
 62
     7
 10
61.10792949170915
 20
62.99101467049272
 30
0.0
 11
61.27742818958345
 21
63.28729288222411
 31
0.0
  0
LINE
  5
E3
  8
EL-LFH4522C-25N5
  6
CONTINUOUS
 62
     7
 10
60.81165127997767
 20
62.73745564277831
 30
0.0
 11
61.10792949170915
 21
62.99101467049272
 31
0.0
  0
LINE
  5
E4
  8
EL-LFH4522C-25N5
  6
CONTINUOUS
 62
     7
 10
60.51537306824626
 20
62.56795694490401
 30
0.0
 11
60.81165127997767
 21
62.73745564277831
 31
0.0
  0
LINE
  5
E5
  8
EL-LFH4522C-25N5
  6
CONTINUOUS
 62
     7
 10
60.17637567249767
 20
62.52678805385531
 30
0.0
 11
60.51537306824626
 21
62.56795694490401
 31
0.0
  0
LINE
  5
E6
  8
EL-LFH4522C-25N5
  6
CONTINUOUS
 62
     7
 10
59.75331794690896
 20
62.69473645876121
 30
0.0
 11
60.17637567249767
 21
62.52678805385531
 31
0.0
  0
LINE
  5
E7
  8
EL-LFH4522C-25N5
  6
CONTINUOUS
 62
     7
 10
61.27742818958345
 20
63.7117286460069
 30
0.0
 11
61.36286655761766
 21
63.66900946198982
 31
0.0
  0
LINE
  5
E8
  8
EL-LFH4522C-25N5
  6
CONTINUOUS
 62
     7
 10
61.53098721729786
 20
64.9810740775472
 30
0.0
 11
61.40420770344065
 21
65.06634019080711
 31
0.0
  0
LINE
  5
E9
  8
EL-LFH4522C-25N5
  6
CONTINUOUS
 62
     7
 10
61.40420770344065
 20
65.10768133663021
 30
0.0
 11
61.53098721729786
 21
65.06634019080711
 31
0.0
  0
LINE
  5
EA
  8
EL-LFH4522C-25N5
  6
CONTINUOUS
 62
     7
 10
60.89708964801184
 20
65.32007147329581
 30
0.0
 11
60.93843079383487
 21
65.32007147329581
 31
0.0
  0
LINE
  5
EB
  8
EL-LFH4522C-25N5
  6
CONTINUOUS
 62
     7
 10
61.27742818958345
 20
65.23583888868151
 30
0.0
 11
61.27742818958345
 21
65.40395954836161
 31
0.0
  0
LINE
  5
EC
  8
EL-LFH4522C-25N5
  6
CONTINUOUS
 62
     7
 10
61.27742818958345
 20
63.7117286460069
 30
0.0
 11
61.40420770344065
 21
65.06634019080711
 31
0.0
  0
LINE
  5
ED
  8
EL-LFH4522C-25N5
  6
CONTINUOUS
 62
     7
 10
61.10792949170915
 20
65.10768133663021
 30
0.0
 11
60.98114997785194
 21
63.75306979182992
 31
0.0
  0
LINE
  5
EE
  8
EL-LFH4522C-25N5
  6
CONTINUOUS
 62
     7
 10
61.10792949170915
 20
65.10768133663021
 30
0.0
 11
61.10792949170915
 21
65.6160051754788
 31
0.0
  0
LINE
  5
EF
  8
EL-LFH4522C-25N5
  6
CONTINUOUS
 62
     7
 10
61.40420770344065
 20
65.6160051754788
 30
0.0
 11
61.40420770344065
 21
65.10768133663021
 31
0.0
  0
LINE
  5
F0
  8
EL-LFH4522C-25N5
  6
CONTINUOUS
 62
     7
 10
61.53098721729786
 20
65.5321171004129
 30
0.0
 11
61.40420770344065
 21
65.6160051754788
 31
0.0
  0
LINE
  5
F1
  8
EL-LFH4522C-25N5
  6
CONTINUOUS
 62
     7
 10
60.85437046399477
 20
65.36279065731291
 30
0.0
 11
60.93843079383487
 21
65.32007147329581
 31
0.0
  0
LINE
  5
F2
  8
EL-LFH4522C-25N5
  6
CONTINUOUS
 62
     7
 10
60.93843079383487
 20
65.36279065731291
 30
0.0
 11
60.85437046399477
 21
65.36279065731291
 31
0.0
  0
LINE
  5
F3
  8
EL-LFH4522C-25N5
  6
CONTINUOUS
 62
     7
 10
60.93843079383487
 20
65.19311970466441
 30
0.0
 11
60.85437046399477
 21
65.15040052064721
 31
0.0
  0
LINE
  5
F4
  8
EL-LFH4522C-25N5
  6
CONTINUOUS
 62
     7
 10
59.58381924903468
 20
65.10768133663021
 30
0.0
 11
59.49975891919458
 21
65.06634019080711
 31
0.0
  0
LINE
  5
F5
  8
EL-LFH4522C-25N5
  6
CONTINUOUS
 62
     7
 10
59.49975891919458
 20
65.23583888868151
 30
0.0
 11
59.45703973517747
 21
65.23583888868151
 31
0.0
  0
LINE
  5
F6
  8
EL-LFH4522C-25N5
  6
CONTINUOUS
 62
     7
 10
59.58381924903468
 20
64.89666923815861
 30
0.0
 11
59.49975891919458
 21
64.89666923815861
 31
0.0
  0
LINE
  5
F7
  8
EL-LFH4522C-25N5
  6
CONTINUOUS
 62
     7
 10
59.28754103730316
 20
64.93938842217571
 30
0.0
 11
59.24619989148016
 21
64.9810740775472
 31
0.0
  0
LINE
  5
F8
  8
EL-LFH4522C-25N5
  6
CONTINUOUS
 62
     7
 10
59.33026022132026
 20
65.32007147329581
 30
0.0
 11
59.45703973517747
 21
65.32007147329581
 31
0.0
  0
LINE
  5
F9
  8
EL-LFH4522C-25N5
  6
CONTINUOUS
 62
     7
 10
59.33026022132026
 20
65.32007147329581
 30
0.0
 11
59.33026022132026
 21
64.7700619790757
 31
0.0
  0
LINE
  5
FA
  8
EL-LFH4522C-25N5
  6
CONTINUOUS
 62
     7
 10
59.24619989148016
 20
64.81140312489872
 30
0.0
 11
59.24619989148016
 21
64.9810740775472
 31
0.0
  0
LINE
  5
FB
  8
EL-LFH4522C-25N5
  6
CONTINUOUS
 62
     7
 10
59.24619989148016
 20
65.23583888868151
 30
0.0
 11
59.37297940533737
 21
63.37273125025831
 31
0.0
  0
LINE
  5
FC
  8
EL-LFH4522C-25N5
  6
CONTINUOUS
 62
     7
 10
59.49975891919458
 20
63.45661932532421
 30
0.0
 11
59.33026022132026
 21
64.7700619790757
 31
0.0
  0
LINE
  5
FD
  8
EL-LFH4522C-25N5
  6
CONTINUOUS
 62
     7
 10
59.75331794690896
 20
62.69473645876121
 30
0.0
 11
59.83875631494318
 21
62.65339531293822
 31
0.0
  0
LINE
  5
FE
  8
EL-LFH4522C-25N5
  6
CONTINUOUS
 62
     7
 10
61.40420770344065
 20
65.06634019080711
 30
0.0
 11
61.40420770344065
 21
65.10768133663021
 31
0.0
  0
LINE
  5
FF
  8
EL-LFH4522C-25N5
  6
CONTINUOUS
 62
     7
 10
61.48964607147487
 20
65.02379326156431
 30
0.0
 11
61.48964607147487
 21
65.06634019080711
 31
0.0
  0
LINE
  5
100
  8
EL-LFH4522C-25N5
  6
CONTINUOUS
 62
     7
 10
59.24619989148016
 20
64.7273427950586
 30
0.0
 11
59.24619989148016
 21
64.68462361104152
 31
0.0
  0
LINE
  5
101
  8
EL-LFH4522C-25N5
  6
CONTINUOUS
 62
     7
 10
60.98114997785194
 20
63.75306979182992
 30
0.0
 11
61.27742818958345
 21
63.7117286460069
 31
0.0
  0
LINE
  5
102
  8
EL-LFH4522C-25N5
  6
CONTINUOUS
 62
     7
 10
60.93843079383487
 20
65.32007147329581
 30
0.0
 11
60.89708964801184
 21
65.19311970466441
 31
0.0
  0
LINE
  5
103
  8
EL-LFH4522C-25N5
  6
CONTINUOUS
 62
     7
 10
61.10792949170915
 20
65.40395954836161
 30
0.0
 11
61.27742818958345
 21
65.32007147329581
 31
0.0
  0
LINE
  5
104
  8
EL-LFH4522C-25N5
  6
CONTINUOUS
 62
     7
 10
61.10792949170915
 20
65.40395954836161
 30
0.0
 11
61.27742818958345
 21
65.40395954836161
 31
0.0
  0
LINE
  5
105
  8
EL-LFH4522C-25N5
  6
CONTINUOUS
 62
     7
 10
61.23470900556636
 20
65.36279065731291
 30
0.0
 11
61.27742818958345
 21
65.36279065731291
 31
0.0
  0
LINE
  5
106
  8
EL-LFH4522C-25N5
  6
CONTINUOUS
 62
     7
 10
61.19336785974335
 20
65.36279065731291
 30
0.0
 11
61.23470900556636
 21
65.36279065731291
 31
0.0
  0
LINE
  5
107
  8
EL-LFH4522C-25N5
  6
CONTINUOUS
 62
     7
 10
61.10792949170915
 20
65.10768133663021
 30
0.0
 11
61.40420770344065
 21
65.06634019080711
 31
0.0
  0
LINE
  5
108
  8
EL-LFH4522C-25N5
  6
CONTINUOUS
 62
     7
 10
61.10792949170915
 20
65.10768133663021
 30
0.0
 11
61.40420770344065
 21
65.10768133663021
 31
0.0
  0
LINE
  5
109
  8
EL-LFH4522C-25N5
  6
CONTINUOUS
 62
     7
 10
61.10792949170915
 20
65.19311970466441
 30
0.0
 11
61.27742818958345
 21
65.23566663390721
 31
0.0
  0
LINE
  5
10A
  8
EL-LFH4522C-25N5
  6
CONTINUOUS
 62
     7
 10
61.10792949170915
 20
65.40395954836161
 30
0.0
 11
61.10792949170915
 21
65.19311970466441
 31
0.0
  0
LINE
  5
10B
  8
EL-LFH4522C-25N5
  6
CONTINUOUS
 62
     7
 10
61.10792949170915
 20
65.6160051754788
 30
0.0
 11
61.40420770344065
 21
65.6160051754788
 31
0.0
  0
LINE
  5
10C
  8
EL-LFH4522C-25N5
  6
CONTINUOUS
 62
     7
 10
60.93843079383487
 20
65.36279065731291
 30
0.0
 11
60.93843079383487
 21
65.19311970466441
 31
0.0
  0
LINE
  5
10D
  8
EL-LFH4522C-25N5
  6
CONTINUOUS
 62
     7
 10
60.85437046399477
 20
65.36279065731291
 30
0.0
 11
60.85437046399477
 21
65.15040052064721
 31
0.0
  0
LINE
  5
10E
  8
EL-LFH4522C-25N5
  6
CONTINUOUS
 62
     7
 10
59.33026022132026
 20
64.8541223089158
 30
0.0
 11
59.33026022132026
 21
65.06634019080711
 31
0.0
  0
LINE
  5
10F
  8
EL-LFH4522C-25N5
  6
CONTINUOUS
 62
     7
 10
59.58381924903468
 20
64.89666923815861
 30
0.0
 11
59.58381924903468
 21
65.10768133663021
 31
0.0
  0
LINE
  5
110
  8
EL-LFH4522C-25N5
  6
CONTINUOUS
 62
     7
 10
59.33026022132026
 20
65.06634019080711
 30
0.0
 11
59.24619989148016
 21
64.9810740775472
 31
0.0
  0
LINE
  5
111
  8
EL-LFH4522C-25N5
  6
CONTINUOUS
 62
     7
 10
59.49975891919458
 20
65.06634019080711
 30
0.0
 11
59.58381924903468
 21
65.06634019080711
 31
0.0
  0
LINE
  5
112
  8
EL-LFH4522C-25N5
  6
CONTINUOUS
 62
     7
 10
59.49975891919458
 20
64.89666923815861
 30
0.0
 11
59.49975891919458
 21
65.06634019080711
 31
0.0
  0
LINE
  5
113
  8
EL-LFH4522C-25N5
  6
CONTINUOUS
 62
     7
 10
59.24619989148016
 20
65.23583888868151
 30
0.0
 11
59.33026022132026
 21
65.32007147329581
 31
0.0
  0
LINE
  5
114
  8
EL-LFH4522C-25N5
  6
CONTINUOUS
 62
     7
 10
59.33026022132026
 20
64.8541223089158
 30
0.0
 11
59.24619989148016
 21
64.81140312489872
 31
0.0
  0
LINE
  5
115
  8
EL-LFH4522C-25N5
  6
CONTINUOUS
 62
     7
 10
59.33026022132026
 20
64.7700619790757
 30
0.0
 11
59.24619989148016
 21
64.68462361104152
 31
0.0
  0
LINE
  5
116
  8
EL-LFH4522C-25N5
  6
CONTINUOUS
 62
     7
 10
59.49975891919458
 20
63.45661932532421
 30
0.0
 11
59.37297940533737
 21
63.37273125025831
 31
0.0
  0
LINE
  5
117
  8
EL-LFH4522C-25N5
  6
CONTINUOUS
 62
     7
 10
59.49975891919458
 20
62.99101467049272
 30
0.0
 11
59.37297940533737
 21
63.37273125025831
 31
0.0
  0
LINE
  5
118
  8
EL-LFH4522C-25N5
  6
CONTINUOUS
 62
     7
 10
59.75331794690896
 20
62.69473645876121
 30
0.0
 11
59.49975891919458
 21
62.99101467049272
 31
0.0
  0
LINE
  5
119
  8
EL-LFH4522C-25N5
  6
CONTINUOUS
 62
     7
 10
61.10792949170915
 20
62.9496735246697
 30
0.0
 11
61.36286655761766
 21
63.66900946198982
 31
0.0
  0
LINE
  5
11A
  8
EL-LFH4522C-25N5
  6
CONTINUOUS
 62
     7
 10
60.81165127997767
 20
62.69473645876121
 30
0.0
 11
61.10792949170915
 21
62.9496735246697
 31
0.0
  0
LINE
  5
11B
  8
EL-LFH4522C-25N5
  6
CONTINUOUS
 62
     7
 10
60.47265388422916
 20
62.56795694490401
 30
0.0
 11
60.81165127997767
 21
62.69473645876121
 31
0.0
  0
LINE
  5
11C
  8
EL-LFH4522C-25N5
  6
CONTINUOUS
 62
     7
 10
59.83875631494318
 20
62.65339531293822
 30
0.0
 11
60.47265388422916
 21
62.56795694490401
 31
0.0
  0
LINE
  5
11D
  8
EL-LFH4522C-25N5
  6
CONTINUOUS
 62
     7
 10
61.19336785974335
 20
63.37273125025831
 30
0.0
 11
61.27742818958345
 21
63.7117286460069
 31
0.0
  0
LINE
  5
11E
  8
EL-LFH4522C-25N5
  6
CONTINUOUS
 62
     7
 10
60.72759095013758
 20
62.7800025720211
 30
0.0
 11
61.19336785974335
 21
63.37273125025831
 31
0.0
  0
LINE
  5
11F
  8
EL-LFH4522C-25N5
  6
CONTINUOUS
 62
     7
 10
60.38859355438906
 20
62.61067612892111
 30
0.0
 11
60.72759095013758
 21
62.7800025720211
 31
0.0
  0
LINE
  5
120
  8
EL-LFH4522C-25N5
  6
CONTINUOUS
 62
     7
 10
59.75331794690896
 20
62.69473645876121
 30
0.0
 11
60.38859355438906
 21
62.61067612892111
 31
0.0
  0
LINE
  5
121
  8
EL-LFH4522C-25N5
  6
CONTINUOUS
 62
     7
 10
60.72759095013758
 20
63.20340480715831
 30
0.0
 11
60.98114997785194
 21
63.75306979182992
 31
0.0
  0
LINE
  5
122
  8
EL-LFH4522C-25N5
  6
CONTINUOUS
 62
     7
 10
60.47265388422916
 20
62.99101467049272
 30
0.0
 11
60.72759095013758
 21
63.20340480715831
 31
0.0
  0
LINE
  5
123
  8
EL-LFH4522C-25N5
  6
CONTINUOUS
 62
     7
 10
60.21909485651474
 20
62.9069543406526
 30
0.0
 11
60.47265388422916
 21
62.99101467049272
 31
0.0
  0
LINE
  5
124
  8
EL-LFH4522C-25N5
  6
CONTINUOUS
 62
     7
 10
59.71059876289187
 20
62.99101467049272
 30
0.0
 11
60.21909485651474
 21
62.9069543406526
 31
0.0
  0
LINE
  5
125
  8
EL-LFH4522C-25N5
  6
CONTINUOUS
 62
     7
 10
59.49975891919458
 20
63.45661932532421
 30
0.0
 11
59.71059876289187
 21
62.99101467049272
 31
0.0
  0
LINE
  5
126
  8
EL-LFH4522C-25N5
  6
CONTINUOUS
 62
     7
 10
101.1550974504474
 20
45.12750556037521
 30
0.0
 11
101.1550974504474
 21
45.08478637635811
 31
0.0
  0
LINE
  5
127
  8
EL-LFH4522C-25N5
  6
CONTINUOUS
 62
     7
 10
101.494094846196
 20
44.74578898060952
 30
0.0
 11
101.7476538739104
 21
44.78833590985241
 31
0.0
  0
LINE
  5
128
  8
EL-LFH4522C-25N5
  6
CONTINUOUS
 62
     7
 10
101.7063127280875
 20
44.78833590985241
 30
0.0
 11
101.494094846196
 21
44.74578898060952
 31
0.0
  0
LINE
  5
129
  8
EL-LFH4522C-25N5
  6
CONTINUOUS
 62
     7
 10
101.1550974504474
 20
45.12750556037521
 30
0.0
 11
101.1137563046245
 21
45.08478637635811
 31
0.0
  0
LINE
  5
12A
  8
EL-LFH4522C-25N5
  6
CONTINUOUS
 62
     7
 10
101.1550974504474
 20
45.08478637635811
 30
0.0
 11
101.1978166344646
 21
45.12733330560101
 31
0.0
  0
LINE
  5
12B
  8
EL-LFH4522C-25N5
  6
CONTINUOUS
 62
     7
 10
97.68381923950976
 20
43.77272176080069
 30
0.0
 11
97.68381923950976
 21
43.56067613368361
 31
0.0
  0
LINE
  5
12C
  8
EL-LFH4522C-25N5
  6
CONTINUOUS
 62
     7
 10
97.64247809368668
 20
43.64473646352371
 30
0.0
 11
97.55703972565247
 21
43.68745564754082
 31
0.0
  0
LINE
  5
12D
  8
EL-LFH4522C-25N5
  6
CONTINUOUS
 62
     7
 10
97.68381923950976
 20
43.56067613368361
 30
0.0
 11
97.55703972565247
 21
42.20606458888329
 31
0.0
  0
LINE
  5
12E
  8
EL-LFH4522C-25N5
  6
CONTINUOUS
 62
     7
 10
97.51432054163546
 20
42.2487837729004
 30
0.0
 11
97.43026021179536
 21
42.28995266394921
 31
0.0
  0
LINE
  5
12F
  8
EL-LFH4522C-25N5
  6
CONTINUOUS
 62
     7
 10
97.68381923950976
 20
43.56067613368361
 30
0.0
 11
97.68381923950976
 21
43.60339531770072
 31
0.0
  0
LINE
  5
130
  8
EL-LFH4522C-25N5
  6
CONTINUOUS
 62
     7
 10
97.68381923950976
 20
43.56067613368361
 30
0.0
 11
97.64247809368668
 21
43.64473646352371
 31
0.0
  0
LINE
  5
131
  8
EL-LFH4522C-25N5
  6
CONTINUOUS
 62
     7
 10
97.55703972565247
 20
42.20606458888329
 30
0.0
 11
97.51432054163546
 21
42.2487837729004
 31
0.0
  0
LINE
  5
132
  8
EL-LFH4522C-25N5
  6
CONTINUOUS
 62
     7
 10
96.15970899683528
 20
41.14773125581462
 30
0.0
 11
96.03292948297796
 21
41.23161933088039
 31
0.0
  0
LINE
  5
133
  8
EL-LFH4522C-25N5
  6
CONTINUOUS
 62
     7
 10
96.49870639258366
 20
41.14773125581462
 30
0.0
 11
96.15970899683528
 21
41.14773125581462
 31
0.0
  0
LINE
  5
134
  8
EL-LFH4522C-25N5
  6
CONTINUOUS
 62
     7
 10
96.79498460431516
 20
41.19045043983169
 30
0.0
 11
96.49870639258366
 21
41.14773125581462
 31
0.0
  0
LINE
  5
135
  8
EL-LFH4522C-25N5
  6
CONTINUOUS
 62
     7
 10
97.13398200006377
 20
41.36012139248029
 30
0.0
 11
96.79498460431516
 21
41.19045043983169
 31
0.0
  0
LINE
  5
136
  8
EL-LFH4522C-25N5
  6
CONTINUOUS
 62
     7
 10
97.34619988195526
 20
41.6133359106461
 30
0.0
 11
97.13398200006377
 21
41.36012139248029
 31
0.0
  0
LINE
  5
137
  8
EL-LFH4522C-25N5
  6
CONTINUOUS
 62
     7
 10
97.55703972565247
 20
42.20606458888329
 30
0.0
 11
97.34619988195526
 21
41.6133359106461
 31
0.0
  0
LINE
  5
138
  8
EL-LFH4522C-25N5
  6
CONTINUOUS
 62
     7
 10
95.65259094140636
 20
41.69774075003471
 30
0.0
 11
95.65259094140636
 21
41.6560550946632
 31
0.0
  0
LINE
  5
139
  8
EL-LFH4522C-25N5
  6
CONTINUOUS
 62
     7
 10
95.99158833715508
 20
41.5707889814033
 30
0.0
 11
96.03292948297796
 21
41.5707889814033
 31
0.0
  0
LINE
  5
13A
  8
EL-LFH4522C-25N5
  6
CONTINUOUS
 62
     7
 10
96.15970899683528
 20
41.5707889814033
 30
0.0
 11
95.99158833715508
 21
41.5707889814033
 31
0.0
  0
LINE
  5
13B
  8
EL-LFH4522C-25N5
  6
CONTINUOUS
 62
     7
 10
96.62548590644086
 20
43.43372436505211
 30
0.0
 11
96.62548590644086
 21
43.39100518103501
 31
0.0
  0
LINE
  5
13C
  8
EL-LFH4522C-25N5
  6
CONTINUOUS
 62
     7
 10
95.56715257337218
 20
41.74045993405181
 30
0.0
 11
95.52581142754916
 21
41.74045993405181
 31
0.0
  0
LINE
  5
13D
  8
EL-LFH4522C-25N5
  6
CONTINUOUS
 62
     7
 10
96.71092427447506
 20
43.39100518103501
 30
0.0
 11
96.66820509045795
 21
43.43372436505211
 31
0.0
  0
LINE
  5
13E
  8
EL-LFH4522C-25N5
  6
CONTINUOUS
 62
     7
 10
96.45598720856667
 20
43.51795694966651
 30
0.0
 11
96.58414476061785
 21
43.43372436505211
 31
0.0
  0
LINE
  5
13F
  8
EL-LFH4522C-25N5
  6
CONTINUOUS
 62
     7
 10
96.11836785101217
 20
43.51795694966651
 30
0.0
 11
96.45598720856667
 21
43.51795694966651
 31
0.0
  0
LINE
  5
140
  8
EL-LFH4522C-25N5
  6
CONTINUOUS
 62
     7
 10
96.75226542029804
 20
43.34828599701791
 30
0.0
 11
96.71092427447506
 21
43.39100518103501
 31
0.0
  0
LINE
  5
141
  8
EL-LFH4522C-25N5
  6
CONTINUOUS
 62
     7
 10
96.62548590644086
 20
43.43372436505211
 30
0.0
 11
96.58414476061785
 21
43.43372436505211
 31
0.0
  0
LINE
  5
142
  8
EL-LFH4522C-25N5
  6
CONTINUOUS
 62
     7
 10
96.66820509045795
 20
43.26439792195211
 30
0.0
 11
96.20242818085227
 21
43.51795694966651
 31
0.0
  0
LINE
  5
143
  8
EL-LFH4522C-25N5
  6
CONTINUOUS
 62
     7
 10
96.83770378833226
 20
43.05200778528641
 30
0.0
 11
96.66820509045795
 21
43.26439792195211
 31
0.0
  0
LINE
  5
144
  8
EL-LFH4522C-25N5
  6
CONTINUOUS
 62
     7
 10
96.88042297234936
 20
42.7560740831035
 30
0.0
 11
96.83770378833226
 21
43.05200778528641
 31
0.0
  0
LINE
  5
145
  8
EL-LFH4522C-25N5
  6
CONTINUOUS
 62
     7
 10
96.88042297234936
 20
43.13779066286921
 30
0.0
 11
96.58414476061785
 21
43.43372436505211
 31
0.0
  0
LINE
  5
146
  8
EL-LFH4522C-25N5
  6
CONTINUOUS
 62
     7
 10
96.83770378833226
 20
42.4596236165977
 30
0.0
 11
96.88042297234936
 21
42.7560740831035
 31
0.0
  0
LINE
  5
147
  8
EL-LFH4522C-25N5
  6
CONTINUOUS
 62
     7
 10
96.66820509045795
 20
42.16334540486619
 30
0.0
 11
96.83770378833226
 21
42.4596236165977
 31
0.0
  0
LINE
  5
148
  8
EL-LFH4522C-25N5
  6
CONTINUOUS
 62
     7
 10
96.20242818085227
 20
41.74045993405181
 30
0.0
 11
96.66820509045795
 21
42.16334540486619
 31
0.0
  0
LINE
  5
149
  8
EL-LFH4522C-25N5
  6
CONTINUOUS
 62
     7
 10
95.65259094140636
 20
41.74045993405181
 30
0.0
 11
96.20242818085227
 21
41.74045993405181
 31
0.0
  0
LINE
  5
14A
  8
EL-LFH4522C-25N5
  6
CONTINUOUS
 62
     7
 10
95.31359354565778
 20
42.03673814578332
 30
0.0
 11
95.65259094140636
 21
41.74045993405181
 31
0.0
  0
LINE
  5
14B
  8
EL-LFH4522C-25N5
  6
CONTINUOUS
 62
     7
 10
95.73665127124646
 20
41.6560550946632
 30
0.0
 11
95.77937045526356
 21
41.6133359106461
 31
0.0
  0
LINE
  5
14C
  8
EL-LFH4522C-25N5
  6
CONTINUOUS
 62
     7
 10
95.94886915313786
 20
41.6133359106461
 30
0.0
 11
96.15970899683528
 21
41.6560550946632
 31
0.0
  0
LINE
  5
14D
  8
EL-LFH4522C-25N5
  6
CONTINUOUS
 62
     7
 10
96.15970899683528
 20
41.6133359106461
 30
0.0
 11
96.07564866699518
 21
41.6133359106461
 31
0.0
  0
LINE
  5
14E
  8
EL-LFH4522C-25N5
  6
CONTINUOUS
 62
     7
 10
95.73665127124646
 20
41.6560550946632
 30
0.0
 11
95.56715257337218
 21
41.7402876792776
 31
0.0
  0
LINE
  5
14F
  8
EL-LFH4522C-25N5
  6
CONTINUOUS
 62
     7
 10
95.82208963928065
 20
41.6133359106461
 30
0.0
 11
96.15970899683528
 21
41.6560550946632
 31
0.0
  0
LINE
  5
150
  8
EL-LFH4522C-25N5
  6
CONTINUOUS
 62
     7
 10
95.52581142754916
 20
41.74045993405181
 30
0.0
 11
95.82208963928065
 21
41.6133359106461
 31
0.0
  0
LINE
  5
151
  8
EL-LFH4522C-25N5
  6
CONTINUOUS
 62
     7
 10
95.52581142754916
 20
41.74045993405181
 30
0.0
 11
95.27087436164076
 21
42.07945732980042
 31
0.0
  0
LINE
  5
152
  8
EL-LFH4522C-25N5
  6
CONTINUOUS
 62
     7
 10
97.55703972565247
 20
43.68745564754082
 30
0.0
 11
97.13398200006377
 21
43.94101467525522
 31
0.0
  0
LINE
  5
153
  8
EL-LFH4522C-25N5
  6
CONTINUOUS
 62
     7
 10
97.55703972565247
 20
43.8144074161722
 30
0.0
 11
97.55703972565247
 21
43.68745564754082
 31
0.0
  0
LINE
  5
154
  8
EL-LFH4522C-25N5
  6
CONTINUOUS
 62
     7
 10
95.39765387549788
 20
43.89967352943219
 30
0.0
 11
95.35631272967497
 21
43.89967352943219
 31
0.0
  0
LINE
  5
155
  8
EL-LFH4522C-25N5
  6
CONTINUOUS
 62
     7
 10
97.43026021179536
 20
42.28995266394921
 30
0.0
 11
97.55703972565247
 21
43.64473646352371
 31
0.0
  0
LINE
  5
156
  8
EL-LFH4522C-25N5
  6
CONTINUOUS
 62
     7
 10
97.00720248620667
 20
42.5450619846319
 30
0.0
 11
97.43026021179536
 21
42.28995266394921
 31
0.0
  0
LINE
  5
157
  8
EL-LFH4522C-25N5
  6
CONTINUOUS
 62
     7
 10
97.13398200006377
 20
43.89967352943219
 30
0.0
 11
97.00720248620667
 21
42.5450619846319
 31
0.0
  0
LINE
  5
158
  8
EL-LFH4522C-25N5
  6
CONTINUOUS
 62
     7
 10
96.15970899683528
 20
41.6560550946632
 30
0.0
 11
96.15970899683528
 21
41.5707889814033
 31
0.0
  0
LINE
  5
159
  8
EL-LFH4522C-25N5
  6
CONTINUOUS
 62
     7
 10
95.94886915313786
 20
41.6133359106461
 30
0.0
 11
95.94886915313786
 21
41.4867286515632
 31
0.0
  0
LINE
  5
15A
  8
EL-LFH4522C-25N5
  6
CONTINUOUS
 62
     7
 10
95.99158833715508
 20
41.52806979738619
 30
0.0
 11
95.94886915313786
 21
41.6133359106461
 31
0.0
  0
LINE
  5
15B
  8
EL-LFH4522C-25N5
  6
CONTINUOUS
 62
     7
 10
95.90614996912075
 20
41.27433851489749
 30
0.0
 11
95.52581142754916
 21
41.5707889814033
 31
0.0
  0
LINE
  5
15C
  8
EL-LFH4522C-25N5
  6
CONTINUOUS
 62
     7
 10
96.32920769470957
 20
43.56067613368361
 30
0.0
 11
96.58414476061785
 21
43.43372436505211
 31
0.0
  0
LINE
  5
15D
  8
EL-LFH4522C-25N5
  6
CONTINUOUS
 62
     7
 10
96.07564866699518
 20
43.56067613368361
 30
0.0
 11
96.32920769470957
 21
43.56067613368361
 31
0.0
  0
LINE
  5
15E
  8
EL-LFH4522C-25N5
  6
CONTINUOUS
 62
     7
 10
96.20242818085227
 20
43.51795694966651
 30
0.0
 11
96.58414476061785
 21
43.43372436505211
 31
0.0
  0
LINE
  5
15F
  8
EL-LFH4522C-25N5
  6
CONTINUOUS
 62
     7
 10
96.71092427447506
 20
43.34828599701791
 30
0.0
 11
96.75226542029804
 21
43.34828599701791
 31
0.0
  0
LINE
  5
160
  8
EL-LFH4522C-25N5
  6
CONTINUOUS
 62
     7
 10
96.92176411817236
 20
42.5450619846319
 30
0.0
 11
97.00720248620667
 21
42.5450619846319
 31
0.0
  0
LINE
  5
161
  8
EL-LFH4522C-25N5
  6
CONTINUOUS
 62
     7
 10
96.54142557660076
 20
41.19045043983169
 30
0.0
 11
95.90614996912075
 21
41.27433851489749
 31
0.0
  0
LINE
  5
162
  8
EL-LFH4522C-25N5
  6
CONTINUOUS
 62
     7
 10
96.88042297234936
 20
41.36012139248029
 30
0.0
 11
96.54142557660076
 21
41.19045043983169
 31
0.0
  0
LINE
  5
163
  8
EL-LFH4522C-25N5
  6
CONTINUOUS
 62
     7
 10
97.34619988195526
 20
41.9097863771519
 30
0.0
 11
96.88042297234936
 21
41.36012139248029
 31
0.0
  0
LINE
  5
164
  8
EL-LFH4522C-25N5
  6
CONTINUOUS
 62
     7
 10
97.43026021179536
 20
42.28995266394921
 30
0.0
 11
97.34619988195526
 21
41.9097863771519
 31
0.0
  0
LINE
  5
165
  8
EL-LFH4522C-25N5
  6
CONTINUOUS
 62
     7
 10
96.83770378833226
 20
42.20606458888329
 30
0.0
 11
96.92176411817236
 21
42.5450619846319
 31
0.0
  0
LINE
  5
166
  8
EL-LFH4522C-25N5
  6
CONTINUOUS
 62
     7
 10
96.62548590644086
 20
41.8670671931348
 30
0.0
 11
96.83770378833226
 21
42.20606458888329
 31
0.0
  0
LINE
  5
167
  8
EL-LFH4522C-25N5
  6
CONTINUOUS
 62
     7
 10
96.37192687872657
 20
41.6560550946632
 30
0.0
 11
96.62548590644086
 21
41.8670671931348
 31
0.0
  0
LINE
  5
168
  8
EL-LFH4522C-25N5
  6
CONTINUOUS
 62
     7
 10
96.03292948297796
 20
41.52806979738619
 30
0.0
 11
96.37192687872657
 21
41.6560550946632
 31
0.0
  0
LINE
  5
169
  8
EL-LFH4522C-25N5
  6
CONTINUOUS
 62
     7
 10
95.73665127124646
 20
41.52806979738619
 30
0.0
 11
96.03292948297796
 21
41.52806979738619
 31
0.0
  0
LINE
  5
16A
  8
EL-LFH4522C-25N5
  6
CONTINUOUS
 62
     7
 10
95.44037305951507
 20
41.6560550946632
 30
0.0
 11
95.73665127124646
 21
41.52806979738619
 31
0.0
  0
LINE
  5
16B
  8
EL-LFH4522C-25N5
  6
CONTINUOUS
 62
     7
 10
95.18681403180067
 20
42.12062622084912
 30
0.0
 11
95.44037305951507
 21
41.6560550946632
 31
0.0
  0
LINE
  5
16C
  8
EL-LFH4522C-25N5
  6
CONTINUOUS
 62
     7
 10
96.92176411817236
 20
42.16334540486619
 30
0.0
 11
97.00720248620667
 21
42.5450619846319
 31
0.0
  0
LINE
  5
16D
  8
EL-LFH4522C-25N5
  6
CONTINUOUS
 62
     7
 10
96.45598720856667
 20
41.6133359106461
 30
0.0
 11
96.92176411817236
 21
42.16334540486619
 31
0.0
  0
LINE
  5
16E
  8
EL-LFH4522C-25N5
  6
CONTINUOUS
 62
     7
 10
96.11836785101217
 20
41.4440094675461
 30
0.0
 11
96.45598720856667
 21
41.6133359106461
 31
0.0
  0
LINE
  5
16F
  8
EL-LFH4522C-25N5
  6
CONTINUOUS
 62
     7
 10
95.77937045526356
 20
41.4440094675461
 30
0.0
 11
96.11836785101217
 21
41.4440094675461
 31
0.0
  0
LINE
  5
170
  8
EL-LFH4522C-25N5
  6
CONTINUOUS
 62
     7
 10
95.52581142754916
 20
41.5707889814033
 30
0.0
 11
95.77937045526356
 21
41.4440094675461
 31
0.0
  0
LINE
  5
171
  8
EL-LFH4522C-25N5
  6
CONTINUOUS
 62
     7
 10
96.15970899683528
 20
41.5707889814033
 30
0.0
 11
95.94886915313786
 21
41.4867286515632
 31
0.0
  0
LINE
  5
172
  8
EL-LFH4522C-25N5
  6
CONTINUOUS
 62
     7
 10
95.52581142754916
 20
41.69774075003471
 30
0.0
 11
95.22953321581768
 21
42.12062622084912
 31
0.0
  0
LINE
  5
173
  8
EL-LFH4522C-25N5
  6
CONTINUOUS
 62
     7
 10
95.94886915313786
 20
41.6133359106461
 30
0.0
 11
95.52581142754916
 21
41.69774075003471
 31
0.0
  0
LINE
  5
174
  8
EL-LFH4522C-25N5
  6
CONTINUOUS
 62
     7
 10
95.56715257337218
 20
41.69774075003471
 30
0.0
 11
95.27087436164076
 21
42.03673814578332
 31
0.0
  0
LINE
  5
175
  8
EL-LFH4522C-25N5
  6
CONTINUOUS
 62
     7
 10
96.62548590644086
 20
41.9936744522177
 30
0.0
 11
96.15970899683528
 21
41.6560550946632
 31
0.0
  0
LINE
  5
176
  8
EL-LFH4522C-25N5
  6
CONTINUOUS
 62
     7
 10
96.88042297234936
 20
42.5023428006148
 30
0.0
 11
96.62548590644086
 21
41.9936744522177
 31
0.0
  0
LINE
  5
177
  8
EL-LFH4522C-25N5
  6
CONTINUOUS
 62
     7
 10
96.88042297234936
 20
43.05200778528641
 30
0.0
 11
96.88042297234936
 21
42.5023428006148
 31
0.0
  0
LINE
  5
178
  8
EL-LFH4522C-25N5
  6
CONTINUOUS
 62
     7
 10
96.58414476061785
 20
43.43372436505211
 30
0.0
 11
96.88042297234936
 21
43.05200778528641
 31
0.0
  0
LINE
  5
179
  8
EL-LFH4522C-25N5
  6
CONTINUOUS
 62
     7
 10
95.18681403180067
 20
41.9097863771519
 30
0.0
 11
95.14409484778348
 21
42.16334540486619
 31
0.0
  0
LINE
  5
17A
  8
EL-LFH4522C-25N5
  6
CONTINUOUS
 62
     7
 10
95.39765387549788
 20
41.6133359106461
 30
0.0
 11
95.18681403180067
 21
41.9097863771519
 31
0.0
  0
LINE
  5
17B
  8
EL-LFH4522C-25N5
  6
CONTINUOUS
 62
     7
 10
95.52581142754916
 20
41.5707889814033
 30
0.0
 11
95.39765387549788
 21
41.6133359106461
 31
0.0
  0
LINE
  5
17C
  8
EL-LFH4522C-25N5
  6
CONTINUOUS
 62
     7
 10
65.72297940374987
 20
65.48939791639592
 30
0.0
 11
65.63754103571567
 21
64.13478637159561
 31
0.0
  0
LINE
  5
17D
  8
EL-LFH4522C-25N5
  6
CONTINUOUS
 62
     7
 10
65.59619988989266
 20
64.17750555561271
 30
0.0
 11
65.72297940374987
 21
65.5321171004129
 31
0.0
  0
LINE
  5
17E
  8
EL-LFH4522C-25N5
  6
CONTINUOUS
 62
     7
 10
65.72297940374987
 20
65.5321171004129
 30
0.0
 11
65.72297940374987
 21
66.12467352387591
 31
0.0
  0
LINE
  5
17F
  8
EL-LFH4522C-25N5
  6
CONTINUOUS
 62
     7
 10
65.68026021973276
 20
66.08212659463311
 30
0.0
 11
65.68026021973276
 21
66.12467352387591
 31
0.0
  0
LINE
  5
180
  8
EL-LFH4522C-25N5
  6
CONTINUOUS
 62
     7
 10
65.68026021973276
 20
66.08212659463311
 30
0.0
 11
65.38398200800127
 21
66.25145303773311
 31
0.0
  0
LINE
  5
181
  8
EL-LFH4522C-25N5
  6
CONTINUOUS
 62
     7
 10
63.73309225146954
 20
63.37273125025831
 30
0.0
 11
64.11343079304116
 21
63.1603411135927
 31
0.0
  0
LINE
  5
182
  8
EL-LFH4522C-25N5
  6
CONTINUOUS
 62
     7
 10
65.21448331012697
 20
64.38834539931001
 30
0.0
 11
65.59619988989266
 21
64.17750555561271
 31
0.0
  0
LINE
  5
183
  8
EL-LFH4522C-25N5
  6
CONTINUOUS
 62
     7
 10
64.91820509839545
 20
66.33534111279891
 30
0.0
 11
64.91820509839545
 21
66.42112399038172
 31
0.0
  0
LINE
  5
184
  8
EL-LFH4522C-25N5
  6
CONTINUOUS
 62
     7
 10
65.34126282398415
 20
66.29417222175022
 30
0.0
 11
65.38398200800127
 21
66.25145303773311
 31
0.0
  0
LINE
  5
185
  8
EL-LFH4522C-25N5
  6
CONTINUOUS
 62
     7
 10
65.34126282398415
 20
66.29417222175022
 30
0.0
 11
65.29992167816117
 21
66.29417222175022
 31
0.0
  0
LINE
  5
186
  8
EL-LFH4522C-25N5
  6
CONTINUOUS
 62
     7
 10
65.34126282398415
 20
66.29417222175022
 30
0.0
 11
65.21448331012697
 21
64.38834539931001
 31
0.0
  0
LINE
  5
187
  8
EL-LFH4522C-25N5
  6
CONTINUOUS
 62
     7
 10
65.34126282398415
 20
65.7856761281273
 30
0.0
 11
65.72297940374987
 21
65.5321171004129
 31
0.0
  0
LINE
  5
188
  8
EL-LFH4522C-25N5
  6
CONTINUOUS
 62
     7
 10
65.72297940374987
 20
65.48939791639592
 30
0.0
 11
65.72297940374987
 21
65.5321171004129
 31
0.0
  0
LINE
  5
189
  8
EL-LFH4522C-25N5
  6
CONTINUOUS
 62
     7
 10
65.63754103571567
 20
64.13478637159561
 30
0.0
 11
65.59619988989266
 21
64.17733330083841
 31
0.0
  0
LINE
  5
18A
  8
EL-LFH4522C-25N5
  6
CONTINUOUS
 62
     7
 10
65.13042298028687
 20
64.0493480035614
 30
0.0
 11
65.21448331012697
 21
64.38834539931001
 31
0.0
  0
LINE
  5
18B
  8
EL-LFH4522C-25N5
  6
CONTINUOUS
 62
     7
 10
64.66464607068106
 20
63.45661932532421
 30
0.0
 11
65.13042298028687
 21
64.0493480035614
 31
0.0
  0
LINE
  5
18C
  8
EL-LFH4522C-25N5
  6
CONTINUOUS
 62
     7
 10
64.02937046320106
 20
63.28729288222411
 30
0.0
 11
64.66464607068106
 21
63.45661932532421
 31
0.0
  0
LINE
  5
18D
  8
EL-LFH4522C-25N5
  6
CONTINUOUS
 62
     7
 10
63.73309225146954
 20
63.37273125025831
 30
0.0
 11
64.02937046320106
 21
63.28729288222411
 31
0.0
  0
LINE
  5
18E
  8
EL-LFH4522C-25N5
  6
CONTINUOUS
 62
     7
 10
64.40970900477267
 20
63.0337338545098
 30
0.0
 11
64.11343079304116
 21
63.1603411135927
 31
0.0
  0
LINE
  5
18F
  8
EL-LFH4522C-25N5
  6
CONTINUOUS
 62
     7
 10
65.04498461225266
 20
63.24612399117541
 30
0.0
 11
64.40970900477267
 21
63.0337338545098
 31
0.0
  0
LINE
  5
190
  8
EL-LFH4522C-25N5
  6
CONTINUOUS
 62
     7
 10
65.51076152185847
 20
63.79578897584702
 30
0.0
 11
65.04498461225266
 21
63.24612399117541
 31
0.0
  0
LINE
  5
191
  8
EL-LFH4522C-25N5
  6
CONTINUOUS
 62
     7
 10
65.59619988989266
 20
64.17750555561271
 30
0.0
 11
65.51076152185847
 21
63.79578897584702
 31
0.0
  0
LINE
  5
192
  8
EL-LFH4522C-25N5
  6
CONTINUOUS
 62
     7
 10
64.57920770264695
 20
63.0337338545098
 30
0.0
 11
64.11343079304116
 21
63.1603411135927
 31
0.0
  0
LINE
  5
193
  8
EL-LFH4522C-25N5
  6
CONTINUOUS
 62
     7
 10
65.00226542823555
 20
63.20340480715831
 30
0.0
 11
64.57920770264695
 21
63.0337338545098
 31
0.0
  0
LINE
  5
194
  8
EL-LFH4522C-25N5
  6
CONTINUOUS
 62
     7
 10
65.38398200800127
 20
63.54205769335842
 30
0.0
 11
65.00226542823555
 21
63.20340480715831
 31
0.0
  0
LINE
  5
195
  8
EL-LFH4522C-25N5
  6
CONTINUOUS
 62
     7
 10
65.63754103571567
 20
64.13478637159561
 30
0.0
 11
65.38398200800127
 21
63.54205769335842
 31
0.0
  0
LINE
  5
196
  8
EL-LFH4522C-25N5
  6
CONTINUOUS
 62
     7
 10
63.60631273761235
 20
63.45661932532421
 30
0.0
 11
63.73309225146954
 21
63.37273125025831
 31
0.0
  0
LINE
  5
197
  8
EL-LFH4522C-25N5
  6
CONTINUOUS
 62
     7
 10
63.43681403973808
 20
65.7856761281273
 30
0.0
 11
63.39409485572097
 21
65.82839531214441
 31
0.0
  0
LINE
  5
198
  8
EL-LFH4522C-25N5
  6
CONTINUOUS
 62
     7
 10
65.08770379626976
 20
66.03940741061601
 30
0.0
 11
65.04498461225266
 21
66.12467352387591
 31
0.0
  0
LINE
  5
199
  8
EL-LFH4522C-25N5
  6
CONTINUOUS
 62
     7
 10
65.08770379626976
 20
65.99772175524441
 30
0.0
 11
65.08770379626976
 21
66.03940741061601
 31
0.0
  0
LINE
  5
19A
  8
EL-LFH4522C-25N5
  6
CONTINUOUS
 62
     7
 10
65.13042298028687
 20
66.08212659463311
 30
0.0
 11
65.13042298028687
 21
66.12467352387591
 31
0.0
  0
LINE
  5
19B
  8
EL-LFH4522C-25N5
  6
CONTINUOUS
 62
     7
 10
64.74870640052116
 20
65.95500257122741
 30
0.0
 11
64.74870640052116
 21
65.91245564198451
 31
0.0
  0
LINE
  5
19C
  8
EL-LFH4522C-25N5
  6
CONTINUOUS
 62
     7
 10
63.60631273761235
 20
63.45661932532421
 30
0.0
 11
63.64765388343537
 21
63.41545043427551
 31
0.0
  0
LINE
  5
19D
  8
EL-LFH4522C-25N5
  6
CONTINUOUS
 62
     7
 10
65.08770379626976
 20
64.43106458332711
 30
0.0
 11
65.21448331012697
 21
64.38834539931001
 31
0.0
  0
LINE
  5
19E
  8
EL-LFH4522C-25N5
  6
CONTINUOUS
 62
     7
 10
63.18325501202366
 20
64.13478637159561
 30
0.0
 11
63.05509745997237
 21
65.44667873237871
 31
0.0
  0
LINE
  5
19F
  8
EL-LFH4522C-25N5
  6
CONTINUOUS
 62
     7
 10
63.31003452588087
 20
65.82839531214441
 30
0.0
 11
63.39409485572097
 21
65.8697364579674
 31
0.0
  0
LINE
  5
1A0
  8
EL-LFH4522C-25N5
  6
CONTINUOUS
 62
     7
 10
63.39409485572097
 20
65.6587243594959
 30
0.0
 11
63.31003452588087
 21
65.6587243594959
 31
0.0
  0
LINE
  5
1A1
  8
EL-LFH4522C-25N5
  6
CONTINUOUS
 62
     7
 10
63.39409485572097
 20
65.7856761281273
 30
0.0
 11
63.43681403973808
 21
65.7856761281273
 31
0.0
  0
LINE
  5
1A2
  8
EL-LFH4522C-25N5
  6
CONTINUOUS
 62
     7
 10
63.09781664398947
 20
65.7017880530615
 30
0.0
 11
63.05509745997237
 21
65.7429569441103
 31
0.0
  0
LINE
  5
1A3
  8
EL-LFH4522C-25N5
  6
CONTINUOUS
 62
     7
 10
63.18325501202366
 20
66.03940741061601
 30
0.0
 11
63.18325501202366
 21
65.5321171004129
 31
0.0
  0
LINE
  5
1A4
  8
EL-LFH4522C-25N5
  6
CONTINUOUS
 62
     7
 10
63.05509745997237
 20
65.5321171004129
 30
0.0
 11
63.05509745997237
 21
65.7429569441103
 31
0.0
  0
LINE
  5
1A5
  8
EL-LFH4522C-25N5
  6
CONTINUOUS
 62
     7
 10
63.18325501202366
 20
65.5321171004129
 30
0.0
 11
63.31003452588087
 21
64.21867444666141
 31
0.0
  0
LINE
  5
1A6
  8
EL-LFH4522C-25N5
  6
CONTINUOUS
 62
     7
 10
63.05509745997237
 20
65.48939791639592
 30
0.0
 11
63.05509745997237
 21
65.99772175524441
 31
0.0
  0
LINE
  5
1A7
  8
EL-LFH4522C-25N5
  6
CONTINUOUS
 62
     7
 10
63.22459615784667
 20
66.03940741061601
 30
0.0
 11
63.22459615784667
 21
66.20873385371601
 31
0.0
  0
LINE
  5
1A8
  8
EL-LFH4522C-25N5
  6
CONTINUOUS
 62
     7
 10
64.70598721650408
 20
66.08212659463311
 30
0.0
 11
64.74870640052116
 21
66.08212659463311
 31
0.0
  0
LINE
  5
1A9
  8
EL-LFH4522C-25N5
  6
CONTINUOUS
 62
     7
 10
64.70598721650408
 20
66.08212659463311
 30
0.0
 11
64.74870640052116
 21
66.12467352387591
 31
0.0
  0
LINE
  5
1AA
  8
EL-LFH4522C-25N5
  6
CONTINUOUS
 62
     7
 10
63.22459615784667
 20
66.20873385371601
 30
0.0
 11
63.18325501202366
 21
66.16601466969891
 31
0.0
  0
LINE
  5
1AB
  8
EL-LFH4522C-25N5
  6
CONTINUOUS
 62
     7
 10
64.70598721650408
 20
66.03940741061601
 30
0.0
 11
64.74870640052116
 21
66.03940741061601
 31
0.0
  0
LINE
  5
1AC
  8
EL-LFH4522C-25N5
  6
CONTINUOUS
 62
     7
 10
63.22459615784667
 20
66.03940741061601
 30
0.0
 11
63.18325501202366
 21
66.03940741061601
 31
0.0
  0
LINE
  5
1AD
  8
EL-LFH4522C-25N5
  6
CONTINUOUS
 62
     7
 10
63.18325501202366
 20
66.16601466969891
 30
0.0
 11
63.18325501202366
 21
66.33534111279891
 31
0.0
  0
LINE
  5
1AE
  8
EL-LFH4522C-25N5
  6
CONTINUOUS
 62
     7
 10
63.05509745997237
 20
66.29417222175022
 30
0.0
 11
63.05509745997237
 21
66.08212659463311
 31
0.0
  0
LINE
  5
1AF
  8
EL-LFH4522C-25N5
  6
CONTINUOUS
 62
     7
 10
65.00226542823555
 20
66.12467352387591
 30
0.0
 11
65.08770379626976
 21
66.08212659463311
 31
0.0
  0
LINE
  5
1B0
  8
EL-LFH4522C-25N5
  6
CONTINUOUS
 62
     7
 10
65.29992167816117
 20
66.29417222175022
 30
0.0
 11
65.29992167816117
 21
65.7856761281273
 31
0.0
  0
LINE
  5
1B1
  8
EL-LFH4522C-25N5
  6
CONTINUOUS
 62
     7
 10
65.25720249414405
 20
65.82839531214441
 30
0.0
 11
65.08770379626976
 21
64.43106458332711
 31
0.0
  0
LINE
  5
1B2
  8
EL-LFH4522C-25N5
  6
CONTINUOUS
 62
     7
 10
64.79142558453826
 20
64.51495265839301
 30
0.0
 11
64.91820509839545
 21
65.8697364579674
 31
0.0
  0
LINE
  5
1B3
  8
EL-LFH4522C-25N5
  6
CONTINUOUS
 62
     7
 10
65.25720249414405
 20
66.37840480636461
 30
0.0
 11
65.29992167816117
 21
66.33534111279891
 31
0.0
  0
LINE
  5
1B4
  8
EL-LFH4522C-25N5
  6
CONTINUOUS
 62
     7
 10
64.91820509839545
 20
66.33534111279891
 30
0.0
 11
64.91820509839545
 21
65.8697364579674
 31
0.0
  0
LINE
  5
1B5
  8
EL-LFH4522C-25N5
  6
CONTINUOUS
 62
     7
 10
65.29992167816117
 20
66.29417222175022
 30
0.0
 11
65.29992167816117
 21
66.33534111279891
 31
0.0
  0
LINE
  5
1B6
  8
EL-LFH4522C-25N5
  6
CONTINUOUS
 62
     7
 10
65.25720249414405
 20
65.8697364579674
 30
0.0
 11
65.29992167816117
 21
65.7856761281273
 31
0.0
  0
LINE
  5
1B7
  8
EL-LFH4522C-25N5
  6
CONTINUOUS
 62
     7
 10
65.25720249414405
 20
65.8697364579674
 30
0.0
 11
65.25720249414405
 21
66.37840480636461
 31
0.0
  0
LINE
  5
1B8
  8
EL-LFH4522C-25N5
  6
CONTINUOUS
 62
     7
 10
65.13042298028687
 20
66.16601466969891
 30
0.0
 11
65.13042298028687
 21
65.99772175524441
 31
0.0
  0
LINE
  5
1B9
  8
EL-LFH4522C-25N5
  6
CONTINUOUS
 62
     7
 10
65.29992167816117
 20
65.7856761281273
 30
0.0
 11
65.21448331012697
 21
64.38834539931001
 31
0.0
  0
LINE
  5
1BA
  8
EL-LFH4522C-25N5
  6
CONTINUOUS
 62
     7
 10
65.29992167816117
 20
65.7856761281273
 30
0.0
 11
65.25720249414405
 21
65.82839531214441
 31
0.0
  0
LINE
  5
1BB
  8
EL-LFH4522C-25N5
  6
CONTINUOUS
 62
     7
 10
64.74870640052116
 20
65.91245564198451
 30
0.0
 11
64.70598721650408
 21
65.91245564198451
 31
0.0
  0
LINE
  5
1BC
  8
EL-LFH4522C-25N5
  6
CONTINUOUS
 62
     7
 10
63.05509745997237
 20
65.48939791639592
 30
0.0
 11
63.05509745997237
 21
65.44667873237871
 31
0.0
  0
LINE
  5
1BD
  8
EL-LFH4522C-25N5
  6
CONTINUOUS
 62
     7
 10
65.21448331012697
 20
65.82839531214441
 30
0.0
 11
65.21448331012697
 21
65.8697364579674
 31
0.0
  0
LINE
  5
1BE
  8
EL-LFH4522C-25N5
  6
CONTINUOUS
 62
     7
 10
64.87548591437836
 20
63.7117286460069
 30
0.0
 11
65.21448331012697
 21
64.38834539931001
 31
0.0
  0
LINE
  5
1BF
  8
EL-LFH4522C-25N5
  6
CONTINUOUS
 62
     7
 10
64.62192688666396
 20
63.45661932532421
 30
0.0
 11
64.87548591437836
 21
63.7117286460069
 31
0.0
  0
LINE
  5
1C0
  8
EL-LFH4522C-25N5
  6
CONTINUOUS
 62
     7
 10
63.98665127918396
 20
63.28729288222411
 30
0.0
 11
64.62192688666396
 21
63.45661932532421
 31
0.0
  0
LINE
  5
1C1
  8
EL-LFH4522C-25N5
  6
CONTINUOUS
 62
     7
 10
63.64765388343537
 20
63.41545043427551
 30
0.0
 11
63.98665127918396
 21
63.28729288222411
 31
0.0
  0
LINE
  5
1C2
  8
EL-LFH4522C-25N5
  6
CONTINUOUS
 62
     7
 10
64.83414476855535
 20
63.79578897584702
 30
0.0
 11
65.08770379626976
 21
64.43106458332711
 31
0.0
  0
LINE
  5
1C3
  8
EL-LFH4522C-25N5
  6
CONTINUOUS
 62
     7
 10
64.53786655682397
 20
63.54205769335842
 30
0.0
 11
64.83414476855535
 21
63.79578897584702
 31
0.0
  0
LINE
  5
1C4
  8
EL-LFH4522C-25N5
  6
CONTINUOUS
 62
     7
 10
64.19886916107536
 20
63.37273125025831
 30
0.0
 11
64.53786655682397
 21
63.54205769335842
 31
0.0
  0
LINE
  5
1C5
  8
EL-LFH4522C-25N5
  6
CONTINUOUS
 62
     7
 10
63.60631273761235
 20
63.45661932532421
 30
0.0
 11
64.19886916107536
 21
63.37273125025831
 31
0.0
  0
LINE
  5
1C6
  8
EL-LFH4522C-25N5
  6
CONTINUOUS
 62
     7
 10
64.53786655682397
 20
63.9654599284956
 30
0.0
 11
64.79142558453826
 21
64.51495265839301
 31
0.0
  0
LINE
  5
1C7
  8
EL-LFH4522C-25N5
  6
CONTINUOUS
 62
     7
 10
64.32564867493257
 20
63.75306979182992
 30
0.0
 11
64.53786655682397
 21
63.9654599284956
 31
0.0
  0
LINE
  5
1C8
  8
EL-LFH4522C-25N5
  6
CONTINUOUS
 62
     7
 10
64.02937046320106
 20
63.66900946198982
 30
0.0
 11
64.32564867493257
 21
63.75306979182992
 31
0.0
  0
LINE
  5
1C9
  8
EL-LFH4522C-25N5
  6
CONTINUOUS
 62
     7
 10
63.56359355359528
 20
63.75306979182992
 30
0.0
 11
64.02937046320106
 21
63.66900946198982
 31
0.0
  0
LINE
  5
1CA
  8
EL-LFH4522C-25N5
  6
CONTINUOUS
 62
     7
 10
63.31003452588087
 20
64.21867444666141
 30
0.0
 11
63.56359355359528
 21
63.75306979182992
 31
0.0
  0
LINE
  5
1CB
  8
EL-LFH4522C-25N5
  6
CONTINUOUS
 62
     7
 10
63.31003452588087
 20
63.75306979182992
 30
0.0
 11
63.18325501202366
 21
64.13478637159561
 31
0.0
  0
LINE
  5
1CC
  8
EL-LFH4522C-25N5
  6
CONTINUOUS
 62
     7
 10
63.60631273761235
 20
63.45661932532421
 30
0.0
 11
63.31003452588087
 21
63.75306979182992
 31
0.0
  0
LINE
  5
1CD
  8
EL-LFH4522C-25N5
  6
CONTINUOUS
 62
     7
 10
63.31003452588087
 20
64.21867444666141
 30
0.0
 11
63.18325501202366
 21
64.13478637159561
 31
0.0
  0
LINE
  5
1CE
  8
EL-LFH4522C-25N5
  6
CONTINUOUS
 62
     7
 10
63.14053582800657
 20
65.6160051754788
 30
0.0
 11
63.14053582800657
 21
65.7856761281273
 31
0.0
  0
LINE
  5
1CF
  8
EL-LFH4522C-25N5
  6
CONTINUOUS
 62
     7
 10
63.39409485572097
 20
65.6587243594959
 30
0.0
 11
63.39409485572097
 21
65.8697364579674
 31
0.0
  0
LINE
  5
1D0
  8
EL-LFH4522C-25N5
  6
CONTINUOUS
 62
     7
 10
63.31003452588087
 20
65.82839531214441
 30
0.0
 11
63.43681403973808
 21
65.7856761281273
 31
0.0
  0
LINE
  5
1D1
  8
EL-LFH4522C-25N5
  6
CONTINUOUS
 62
     7
 10
63.31003452588087
 20
65.6587243594959
 30
0.0
 11
63.31003452588087
 21
65.82839531214441
 31
0.0
  0
LINE
  5
1D2
  8
EL-LFH4522C-25N5
  6
CONTINUOUS
 62
     7
 10
63.39409485572097
 20
65.7856761281273
 30
0.0
 11
63.43681403973808
 21
65.82839531214441
 31
0.0
  0
LINE
  5
1D3
  8
EL-LFH4522C-25N5
  6
CONTINUOUS
 62
     7
 10
63.14053582800657
 20
65.7856761281273
 30
0.0
 11
63.05509745997237
 21
65.7429569441103
 31
0.0
  0
LINE
  5
1D4
  8
EL-LFH4522C-25N5
  6
CONTINUOUS
 62
     7
 10
63.05509745997237
 20
65.99772175524441
 30
0.0
 11
63.18325501202366
 21
66.03940741061601
 31
0.0
  0
LINE
  5
1D5
  8
EL-LFH4522C-25N5
  6
CONTINUOUS
 62
     7
 10
63.14053582800657
 20
65.6160051754788
 30
0.0
 11
63.05509745997237
 21
65.5321171004129
 31
0.0
  0
LINE
  5
1D6
  8
EL-LFH4522C-25N5
  6
CONTINUOUS
 62
     7
 10
63.18325501202366
 20
65.5321171004129
 30
0.0
 11
63.05509745997237
 21
65.44667873237871
 31
0.0
  0
LINE
  5
1D7
  8
EL-LFH4522C-25N5
  6
CONTINUOUS
 62
     7
 10
63.18325501202366
 20
65.5321171004129
 30
0.0
 11
63.05509745997237
 21
65.48939791639592
 31
0.0
  0
LINE
  5
1D8
  8
EL-LFH4522C-25N5
  6
CONTINUOUS
 62
     7
 10
63.05509745997237
 20
66.16601466969891
 30
0.0
 11
63.09781664398947
 21
66.03940741061601
 31
0.0
  0
LINE
  5
1D9
  8
EL-LFH4522C-25N5
  6
CONTINUOUS
 62
     7
 10
63.18325501202366
 20
66.16601466969891
 30
0.0
 11
63.05509745997237
 21
66.16601466969891
 31
0.0
  0
LINE
  5
1DA
  8
EL-LFH4522C-25N5
  6
CONTINUOUS
 62
     7
 10
64.96092428241256
 20
66.16601466969891
 30
0.0
 11
65.08770379626976
 21
66.08212659463311
 31
0.0
  0
LINE
  5
1DB
  8
EL-LFH4522C-25N5
  6
CONTINUOUS
 62
     7
 10
64.96092428241256
 20
66.16601466969891
 30
0.0
 11
65.13042298028687
 21
66.16601466969891
 31
0.0
  0
LINE
  5
1DC
  8
EL-LFH4522C-25N5
  6
CONTINUOUS
 62
     7
 10
65.08770379626976
 20
66.12467352387591
 30
0.0
 11
65.13042298028687
 21
66.12467352387591
 31
0.0
  0
LINE
  5
1DD
  8
EL-LFH4522C-25N5
  6
CONTINUOUS
 62
     7
 10
65.00226542823555
 20
66.12467352387591
 30
0.0
 11
65.08770379626976
 21
66.12467352387591
 31
0.0
  0
LINE
  5
1DE
  8
EL-LFH4522C-25N5
  6
CONTINUOUS
 62
     7
 10
64.91820509839545
 20
66.42112399038172
 30
0.0
 11
65.25720249414405
 21
66.37840480636461
 31
0.0
  0
LINE
  5
1DF
  8
EL-LFH4522C-25N5
  6
CONTINUOUS
 62
     7
 10
64.96092428241256
 20
66.16601466969891
 30
0.0
 11
64.96092428241256
 21
65.99772175524441
 31
0.0
  0
LINE
  5
1E0
  8
EL-LFH4522C-25N5
  6
CONTINUOUS
 62
     7
 10
64.79142558453826
 20
64.51495265839301
 30
0.0
 11
65.08770379626976
 21
64.43106458332711
 31
0.0
  0
LINE
  5
1E1
  8
EL-LFH4522C-25N5
  6
CONTINUOUS
 62
     7
 10
64.91820509839545
 20
65.8697364579674
 30
0.0
 11
65.25720249414405
 21
65.82839531214441
 31
0.0
  0
LINE
  5
1E2
  8
EL-LFH4522C-25N5
  6
CONTINUOUS
 62
     7
 10
64.91820509839545
 20
65.8697364579674
 30
0.0
 11
65.25720249414405
 21
65.8697364579674
 31
0.0
  0
LINE
  5
1E3
  8
EL-LFH4522C-25N5
  6
CONTINUOUS
 62
     7
 10
64.96092428241256
 20
65.99772175524441
 30
0.0
 11
65.13042298028687
 21
65.99772175524441
 31
0.0
  0
LINE
  5
1E4
  8
EL-LFH4522C-25N5
  6
CONTINUOUS
 62
     7
 10
64.70598721650408
 20
66.08212659463311
 30
0.0
 11
64.70598721650408
 21
65.91245564198451
 31
0.0
  0
LINE
  5
1E5
  8
EL-LFH4522C-25N5
  6
CONTINUOUS
 62
     7
 10
64.74870640052116
 20
66.12467352387591
 30
0.0
 11
64.74870640052116
 21
65.91245564198451
 31
0.0
  0
LINE
  5
1E6
  8
EL-LFH4522C-25N5
  6
CONTINUOUS
 62
     7
 10
64.74870640052116
 20
66.08212659463311
 30
0.0
 11
64.70598721650408
 21
65.91245564198451
 31
0.0
  0
LINE
  5
1E7
  8
EL-LFH4522C-25N5
  6
CONTINUOUS
 62
     7
 10
99.88592427368137
 20
41.9936744522177
 30
0.0
 11
99.84320508966437
 21
41.9936744522177
 31
0.0
  0
LINE
  5
1E8
  8
EL-LFH4522C-25N5
  6
CONTINUOUS
 62
     7
 10
101.3673153323389
 20
42.96811971022061
 30
0.0
 11
101.494094846196
 21
44.32273125502081
 31
0.0
  0
LINE
  5
1E9
  8
EL-LFH4522C-25N5
  6
CONTINUOUS
 62
     7
 10
101.451375662179
 20
44.36545043903791
 30
0.0
 11
101.4100345163559
 21
44.4493385141038
 31
0.0
  0
LINE
  5
1EA
  8
EL-LFH4522C-25N5
  6
CONTINUOUS
 62
     7
 10
101.4100345163559
 20
44.91545993325811
 30
0.0
 11
101.4100345163559
 21
44.95800686250091
 31
0.0
  0
LINE
  5
1EB
  8
EL-LFH4522C-25N5
  6
CONTINUOUS
 62
     7
 10
101.494094846196
 20
44.872740749241
 30
0.0
 11
101.494094846196
 21
44.36545043903791
 31
0.0
  0
LINE
  5
1EC
  8
EL-LFH4522C-25N5
  6
CONTINUOUS
 62
     7
 10
101.4100345163559
 20
44.95800686250091
 30
0.0
 11
101.3673153323389
 21
44.95800686250091
 31
0.0
  0
LINE
  5
1ED
  8
EL-LFH4522C-25N5
  6
CONTINUOUS
 62
     7
 10
101.2832550024988
 20
43.05200778528641
 30
0.0
 11
101.3245961483217
 21
43.01083889423771
 31
0.0
  0
LINE
  5
1EE
  8
EL-LFH4522C-25N5
  6
CONTINUOUS
 62
     7
 10
101.451375662179
 20
44.91545993325811
 30
0.0
 11
101.4100345163559
 21
44.95800686250091
 31
0.0
  0
LINE
  5
1EF
  8
EL-LFH4522C-25N5
  6
CONTINUOUS
 62
     7
 10
101.5368140302132
 20
44.32273125502081
 30
0.0
 11
101.5368140302132
 21
44.36545043903791
 31
0.0
  0
LINE
  5
1F0
  8
EL-LFH4522C-25N5
  6
CONTINUOUS
 62
     7
 10
99.80048590564716
 20
42.33267184796631
 30
0.0
 11
99.84320508966437
 21
42.28995266394921
 31
0.0
  0
LINE
  5
1F1
  8
EL-LFH4522C-25N5
  6
CONTINUOUS
 62
     7
 10
99.96998460352147
 20
42.33267184796631
 30
0.0
 11
99.80048590564716
 21
42.28995266394921
 31
0.0
  0
LINE
  5
1F2
  8
EL-LFH4522C-25N5
  6
CONTINUOUS
 62
     7
 10
101.494094846196
 20
44.36545043903791
 30
0.0
 11
101.451375662179
 21
44.36545043903791
 31
0.0
  0
LINE
  5
1F3
  8
EL-LFH4522C-25N5
  6
CONTINUOUS
 62
     7
 10
101.3673153323389
 20
42.96811971022061
 30
0.0
 11
101.3245961483217
 21
43.01066663946341
 31
0.0
  0
LINE
  5
1F4
  8
EL-LFH4522C-25N5
  6
CONTINUOUS
 62
     7
 10
101.451375662179
 20
44.91545993325811
 30
0.0
 11
101.494094846196
 21
44.872740749241
 31
0.0
  0
LINE
  5
1F5
  8
EL-LFH4522C-25N5
  6
CONTINUOUS
 62
     7
 10
100.0967641173788
 20
41.8670671931348
 30
0.0
 11
99.88592427368137
 21
41.9936744522177
 31
0.0
  0
LINE
  5
1F6
  8
EL-LFH4522C-25N5
  6
CONTINUOUS
 62
     7
 10
100.6052602110017
 20
41.9097863771519
 30
0.0
 11
100.0967641173788
 21
41.8670671931348
 31
0.0
  0
LINE
  5
1F7
  8
EL-LFH4522C-25N5
  6
CONTINUOUS
 62
     7
 10
101.1550974504474
 20
42.37539103198341
 30
0.0
 11
100.6052602110017
 21
41.9097863771519
 31
0.0
  0
LINE
  5
1F8
  8
EL-LFH4522C-25N5
  6
CONTINUOUS
 62
     7
 10
101.3673153323389
 20
42.96811971022061
 30
0.0
 11
101.1550974504474
 21
42.37539103198341
 31
0.0
  0
LINE
  5
1F9
  8
EL-LFH4522C-25N5
  6
CONTINUOUS
 62
     7
 10
100.4357615131274
 20
44.19612399593791
 30
0.0
 11
100.4784806971444
 21
44.15340481192081
 31
0.0
  0
LINE
  5
1FA
  8
EL-LFH4522C-25N5
  6
CONTINUOUS
 62
     7
 10
99.88592427368137
 20
42.37539103198341
 30
0.0
 11
99.92726541950447
 21
42.37539103198341
 31
0.0
  0
LINE
  5
1FB
  8
EL-LFH4522C-25N5
  6
CONTINUOUS
 62
     7
 10
100.5211998811616
 20
44.15340481192081
 30
0.0
 11
100.4784806971444
 21
44.19612399593791
 31
0.0
  0
LINE
  5
1FC
  8
EL-LFH4522C-25N5
  6
CONTINUOUS
 62
     7
 10
100.4784806971444
 20
42.8826813421864
 30
0.0
 11
100.6479793950187
 21
43.51795694966651
 31
0.0
  0
LINE
  5
1FD
  8
EL-LFH4522C-25N5
  6
CONTINUOUS
 62
     7
 10
100.0127037875387
 20
42.5023428006148
 30
0.0
 11
100.4784806971444
 21
42.8826813421864
 31
0.0
  0
LINE
  5
1FE
  8
EL-LFH4522C-25N5
  6
CONTINUOUS
 62
     7
 10
99.46286654809266
 20
42.5023428006148
 30
0.0
 11
100.0127037875387
 21
42.5023428006148
 31
0.0
  0
LINE
  5
1FF
  8
EL-LFH4522C-25N5
  6
CONTINUOUS
 62
     7
 10
99.12386915234406
 20
42.7987932671206
 30
0.0
 11
99.46286654809266
 21
42.5023428006148
 31
0.0
  0
LINE
  5
200
  8
EL-LFH4522C-25N5
  6
CONTINUOUS
 62
     7
 10
99.37742818005846
 20
42.4596236165977
 30
0.0
 11
99.08114996832698
 21
42.8413401963634
 31
0.0
  0
LINE
  5
201
  8
EL-LFH4522C-25N5
  6
CONTINUOUS
 62
     7
 10
99.63098720777286
 20
42.37539103198341
 30
0.0
 11
99.96998460352147
 21
42.418454725549
 31
0.0
  0
LINE
  5
202
  8
EL-LFH4522C-25N5
  6
CONTINUOUS
 62
     7
 10
99.37742818005846
 20
42.4596236165977
 30
0.0
 11
99.63098720777286
 21
42.37539103198341
 31
0.0
  0
LINE
  5
203
  8
EL-LFH4522C-25N5
  6
CONTINUOUS
 62
     7
 10
100.5625410269844
 20
44.0691722273065
 30
0.0
 11
100.5211998811616
 21
44.11034111835519
 31
0.0
  0
LINE
  5
204
  8
EL-LFH4522C-25N5
  6
CONTINUOUS
 62
     7
 10
100.4357615131274
 20
44.19612399593791
 30
0.0
 11
100.3930423291102
 21
44.19612399593791
 31
0.0
  0
LINE
  5
205
  8
EL-LFH4522C-25N5
  6
CONTINUOUS
 62
     7
 10
100.0554229715557
 20
44.32273125502081
 30
0.0
 11
100.3930423291102
 21
44.19612399593791
 31
0.0
  0
LINE
  5
206
  8
EL-LFH4522C-25N5
  6
CONTINUOUS
 62
     7
 10
99.92726541950447
 20
44.28001207100371
 30
0.0
 11
100.0554229715557
 21
44.32273125502081
 31
0.0
  0
LINE
  5
207
  8
EL-LFH4522C-25N5
  6
CONTINUOUS
 62
     7
 10
99.54692687793276
 20
42.418454725549
 30
0.0
 11
99.37742818005846
 21
42.4596236165977
 31
0.0
  0
LINE
  5
208
  8
EL-LFH4522C-25N5
  6
CONTINUOUS
 62
     7
 10
99.80048590564716
 20
42.37539103198341
 30
0.0
 11
99.96998460352147
 21
42.418454725549
 31
0.0
  0
LINE
  5
209
  8
EL-LFH4522C-25N5
  6
CONTINUOUS
 62
     7
 10
99.96998460352147
 20
42.33267184796631
 30
0.0
 11
99.92726541950447
 21
42.37539103198341
 31
0.0
  0
LINE
  5
20A
  8
EL-LFH4522C-25N5
  6
CONTINUOUS
 62
     7
 10
99.54692687793276
 20
42.418454725549
 30
0.0
 11
99.58964606194998
 21
42.37539103198341
 31
0.0
  0
LINE
  5
20B
  8
EL-LFH4522C-25N5
  6
CONTINUOUS
 62
     7
 10
100.4784806971444
 20
44.0689999725322
 30
0.0
 11
100.0127037875387
 21
44.23729288698669
 31
0.0
  0
LINE
  5
20C
  8
EL-LFH4522C-25N5
  6
CONTINUOUS
 62
     7
 10
100.6479793950187
 20
43.51795694966651
 30
0.0
 11
100.4784806971444
 21
44.0689999725322
 31
0.0
  0
LINE
  5
20D
  8
EL-LFH4522C-25N5
  6
CONTINUOUS
 62
     7
 10
100.6479793950187
 20
43.89967352943219
 30
0.0
 11
100.3930423291102
 21
44.19612399593791
 31
0.0
  0
LINE
  5
20E
  8
EL-LFH4522C-25N5
  6
CONTINUOUS
 62
     7
 10
99.75914475982427
 20
42.37539103198341
 30
0.0
 11
99.80048590564716
 21
42.33267184796631
 31
0.0
  0
LINE
  5
20F
  8
EL-LFH4522C-25N5
  6
CONTINUOUS
 62
     7
 10
99.96998460352147
 20
42.28995266394921
 30
0.0
 11
99.96998460352147
 21
42.418454725549
 31
0.0
  0
LINE
  5
210
  8
EL-LFH4522C-25N5
  6
CONTINUOUS
 62
     7
 10
99.75914475982427
 20
42.37539103198341
 30
0.0
 11
99.75914475982427
 21
42.28995266394921
 31
0.0
  0
LINE
  5
211
  8
EL-LFH4522C-25N5
  6
CONTINUOUS
 62
     7
 10
99.80048590564716
 20
42.28995266394921
 30
0.0
 11
99.80048590564716
 21
42.33267184796631
 31
0.0
  0
LINE
  5
212
  8
EL-LFH4522C-25N5
  6
CONTINUOUS
 62
     7
 10
99.75914475982427
 20
42.03673814578332
 30
0.0
 11
99.33470899604136
 21
42.28995266394921
 31
0.0
  0
LINE
  5
213
  8
EL-LFH4522C-25N5
  6
CONTINUOUS
 62
     7
 10
100.9015384227331
 20
44.872740749241
 30
0.0
 11
100.9015384227331
 21
45.21173814498961
 31
0.0
  0
LINE
  5
214
  8
EL-LFH4522C-25N5
  6
CONTINUOUS
 62
     7
 10
101.4100345163559
 20
44.4066193300867
 30
0.0
 11
101.2832550024988
 21
43.05200778528641
 31
0.0
  0
LINE
  5
215
  8
EL-LFH4522C-25N5
  6
CONTINUOUS
 62
     7
 10
101.4100345163559
 20
44.91545993325811
 30
0.0
 11
101.0283179365903
 21
45.21173814498961
 31
0.0
  0
LINE
  5
216
  8
EL-LFH4522C-25N5
  6
CONTINUOUS
 62
     7
 10
101.4100345163559
 20
44.4493385141038
 30
0.0
 11
101.4100345163559
 21
44.91545993325811
 31
0.0
  0
LINE
  5
217
  8
EL-LFH4522C-25N5
  6
CONTINUOUS
 62
     7
 10
100.9855987525731
 20
44.66172865076942
 30
0.0
 11
101.4100345163559
 21
44.4493385141038
 31
0.0
  0
LINE
  5
218
  8
EL-LFH4522C-25N5
  6
CONTINUOUS
 62
     7
 10
100.9855987525731
 20
45.21173814498961
 30
0.0
 11
100.9855987525731
 21
44.66172865076942
 31
0.0
  0
LINE
  5
219
  8
EL-LFH4522C-25N5
  6
CONTINUOUS
 62
     7
 10
100.9015384227331
 20
44.66172865076942
 30
0.0
 11
100.9015384227331
 21
44.83105509386941
 31
0.0
  0
LINE
  5
21A
  8
EL-LFH4522C-25N5
  6
CONTINUOUS
 62
     7
 10
100.9015384227331
 20
44.66172865076942
 30
0.0
 11
100.7320397248588
 21
43.30711710596921
 31
0.0
  0
LINE
  5
21B
  8
EL-LFH4522C-25N5
  6
CONTINUOUS
 62
     7
 10
100.8588192387161
 20
43.30711710596921
 30
0.0
 11
100.9855987525731
 21
44.66172865076942
 31
0.0
  0
LINE
  5
21C
  8
EL-LFH4522C-25N5
  6
CONTINUOUS
 62
     7
 10
100.8588192387161
 20
43.30711710596921
 30
0.0
 11
101.2832550024988
 21
43.05200778528641
 31
0.0
  0
LINE
  5
21D
  8
EL-LFH4522C-25N5
  6
CONTINUOUS
 62
     7
 10
100.9015384227331
 20
44.66172865076942
 30
0.0
 11
100.9015384227331
 21
44.70306979659242
 31
0.0
  0
LINE
  5
21E
  8
EL-LFH4522C-25N5
  6
CONTINUOUS
 62
     7
 10
100.4784806971444
 20
42.629122314472
 30
0.0
 11
100.7320397248588
 21
43.30711710596921
 31
0.0
  0
LINE
  5
21F
  8
EL-LFH4522C-25N5
  6
CONTINUOUS
 62
     7
 10
99.88592427368137
 20
42.28995266394921
 30
0.0
 11
100.4784806971444
 21
42.629122314472
 31
0.0
  0
LINE
  5
220
  8
EL-LFH4522C-25N5
  6
CONTINUOUS
 62
     7
 10
99.54692687793276
 20
42.28995266394921
 30
0.0
 11
99.88592427368137
 21
42.28995266394921
 31
0.0
  0
LINE
  5
221
  8
EL-LFH4522C-25N5
  6
CONTINUOUS
 62
     7
 10
99.25064866620126
 20
42.418454725549
 30
0.0
 11
99.54692687793276
 21
42.28995266394921
 31
0.0
  0
LINE
  5
222
  8
EL-LFH4522C-25N5
  6
CONTINUOUS
 62
     7
 10
99.08114996832698
 20
42.5864031304549
 30
0.0
 11
99.25064866620126
 21
42.418454725549
 31
0.0
  0
LINE
  5
223
  8
EL-LFH4522C-25N5
  6
CONTINUOUS
 62
     7
 10
98.99708963848688
 20
42.8826813421864
 30
0.0
 11
99.08114996832698
 21
42.5864031304549
 31
0.0
  0
LINE
  5
224
  8
EL-LFH4522C-25N5
  6
CONTINUOUS
 62
     7
 10
100.0127037875387
 20
41.9097863771519
 30
0.0
 11
99.75914475982427
 21
42.03673814578332
 31
0.0
  0
LINE
  5
225
  8
EL-LFH4522C-25N5
  6
CONTINUOUS
 62
     7
 10
100.3517011832873
 20
41.95250556116889
 30
0.0
 11
100.0127037875387
 21
41.9097863771519
 31
0.0
  0
LINE
  5
226
  8
EL-LFH4522C-25N5
  6
CONTINUOUS
 62
     7
 10
100.6893205408418
 20
42.12062622084912
 30
0.0
 11
100.3517011832873
 21
41.95250556116889
 31
0.0
  0
LINE
  5
227
  8
EL-LFH4522C-25N5
  6
CONTINUOUS
 62
     7
 10
100.9855987525731
 20
42.33267184796631
 30
0.0
 11
100.6893205408418
 21
42.12062622084912
 31
0.0
  0
LINE
  5
228
  8
EL-LFH4522C-25N5
  6
CONTINUOUS
 62
     7
 10
101.2832550024988
 20
43.05200778528641
 30
0.0
 11
100.9855987525731
 21
42.33267184796631
 31
0.0
  0
LINE
  5
229
  8
EL-LFH4522C-25N5
  6
CONTINUOUS
 62
     7
 10
100.7320397248588
 20
42.9254005262035
 30
0.0
 11
100.8588192387161
 21
43.30711710596921
 31
0.0
  0
LINE
  5
22A
  8
EL-LFH4522C-25N5
  6
CONTINUOUS
 62
     7
 10
100.2662628152531
 20
42.33267184796631
 30
0.0
 11
100.7320397248588
 21
42.9254005262035
 31
0.0
  0
LINE
  5
22B
  8
EL-LFH4522C-25N5
  6
CONTINUOUS
 62
     7
 10
99.63098720777286
 20
42.16334540486619
 30
0.0
 11
100.2662628152531
 21
42.33267184796631
 31
0.0
  0
LINE
  5
22C
  8
EL-LFH4522C-25N5
  6
CONTINUOUS
 62
     7
 10
99.33470899604136
 20
42.28995266394921
 30
0.0
 11
99.63098720777286
 21
42.16334540486619
 31
0.0
  0
LINE
  5
22D
  8
EL-LFH4522C-25N5
  6
CONTINUOUS
 62
     7
 10
100.0554229715557
 20
44.32273125502081
 30
0.0
 11
100.4357615131274
 21
44.19612399593791
 31
0.0
  0
LINE
  5
22E
  8
EL-LFH4522C-25N5
  6
CONTINUOUS
 62
     7
 10
98.99708963848688
 20
42.67166924371492
 30
0.0
 11
98.95437045446987
 21
42.8826813421864
 31
0.0
  0
LINE
  5
22F
  8
EL-LFH4522C-25N5
  6
CONTINUOUS
 62
     7
 10
99.33470899604136
 20
42.28995266394921
 30
0.0
 11
98.99708963848688
 21
42.67166924371492
 31
0.0
  0
LINE
  5
230
  8
EL-LFH4522C-25N5
  6
CONTINUOUS
 62
     7
 10
99.37742818005846
 20
42.4596236165977
 30
0.0
 11
99.03843078430997
 21
42.8413401963634
 31
0.0
  0
LINE
  5
231
  8
EL-LFH4522C-25N5
  6
CONTINUOUS
 62
     7
 10
99.37742818005846
 20
42.4596236165977
 30
0.0
 11
99.08114996832698
 21
42.7987932671206
 31
0.0
  0
LINE
  5
232
  8
EL-LFH4522C-25N5
  6
CONTINUOUS
 62
     7
 10
100.182202485413
 20
44.32273125502081
 30
0.0
 11
100.3930423291102
 21
44.19612399593791
 31
0.0
  0
LINE
  5
233
  8
EL-LFH4522C-25N5
  6
CONTINUOUS
 62
     7
 10
99.92726541950447
 20
44.32273125502081
 30
0.0
 11
100.182202485413
 21
44.32273125502081
 31
0.0
  0
LINE
  5
234
  8
EL-LFH4522C-25N5
  6
CONTINUOUS
 62
     7
 10
99.08114996832698
 20
42.8413401963634
 30
0.0
 11
99.08114996832698
 21
42.7987932671206
 31
0.0
  0
LINE
  5
235
  8
EL-LFH4522C-25N5
  6
CONTINUOUS
 62
     7
 10
99.75914475982427
 20
42.37539103198341
 30
0.0
 11
99.37742818005846
 21
42.4596236165977
 31
0.0
  0
LINE
  5
236
  8
EL-LFH4522C-25N5
  6
CONTINUOUS
 62
     7
 10
99.96998460352147
 20
42.28995266394921
 30
0.0
 11
99.75914475982427
 21
42.28995266394921
 31
0.0
  0
LINE
  5
237
  8
EL-LFH4522C-25N5
  6
CONTINUOUS
 62
     7
 10
100.4357615131274
 20
42.71438842773202
 30
0.0
 11
99.96998460352147
 21
42.418454725549
 31
0.0
  0
LINE
  5
238
  8
EL-LFH4522C-25N5
  6
CONTINUOUS
 62
     7
 10
100.7320397248588
 20
43.26439792195211
 30
0.0
 11
100.4357615131274
 21
42.71438842773202
 31
0.0
  0
LINE
  5
239
  8
EL-LFH4522C-25N5
  6
CONTINUOUS
 62
     7
 10
100.6052602110017
 20
44.0689999725322
 30
0.0
 11
100.7320397248588
 21
43.26439792195211
 31
0.0
  0
LINE
  5
23A
  8
EL-LFH4522C-25N5
  6
CONTINUOUS
 62
     7
 10
100.3930423291102
 20
44.19612399593791
 30
0.0
 11
100.6052602110017
 21
44.0689999725322
 31
0.0
  0
LINE
  5
23B
  8
EL-LFH4522C-25N5
  6
CONTINUOUS
 62
     7
 10
100.9015384227331
 20
44.66172865076942
 30
0.0
 11
100.9855987525731
 21
44.66172865076942
 31
0.0
  0
LINE
  5
23C
  8
EL-LFH4522C-25N5
  6
CONTINUOUS
 62
     7
 10
100.7320397248588
 20
43.30711710596921
 30
0.0
 11
100.8588192387161
 21
43.30711710596921
 31
0.0
  0
LINE
  5
23D
  8
EL-LFH4522C-25N5
  6
CONTINUOUS
 62
     7
 10
65.63754103571567
 20
66.12467352387591
 30
0.0
 11
65.72297940374987
 21
66.12467352387591
 31
0.0
  0
LINE
  5
23E
  8
EL-LFH4522C-25N5
  6
CONTINUOUS
 62
     7
 10
65.59619988989266
 20
66.16601466969891
 30
0.0
 11
65.55348070587557
 21
66.16601466969891
 31
0.0
  0
LINE
  5
23F
  8
EL-LFH4522C-25N5
  6
CONTINUOUS
 62
     7
 10
65.29992167816117
 20
66.97078897505331
 30
0.0
 11
65.21448331012697
 21
67.14028767292761
 31
0.0
  0
LINE
  5
240
  8
EL-LFH4522C-25N5
  6
CONTINUOUS
 62
     7
 10
65.38398200800127
 20
66.88672864521321
 30
0.0
 11
65.38398200800127
 21
66.76012138613021
 31
0.0
  0
LINE
  5
241
  8
EL-LFH4522C-25N5
  6
CONTINUOUS
 62
     7
 10
65.29992167816117
 20
66.76012138613021
 30
0.0
 11
65.29992167816117
 21
66.88672864521321
 31
0.0
  0
LINE
  5
242
  8
EL-LFH4522C-25N5
  6
CONTINUOUS
 62
     7
 10
61.91270379706357
 20
65.36279065731291
 30
0.0
 11
61.82726542902935
 21
65.36279065731291
 31
0.0
  0
LINE
  5
243
  8
EL-LFH4522C-25N5
  6
CONTINUOUS
 62
     7
 10
62.75881924824098
 20
66.03940741061601
 30
0.0
 11
65.17176412610986
 21
66.50501206544752
 31
0.0
  0
LINE
  5
244
  8
EL-LFH4522C-25N5
  6
CONTINUOUS
 62
     7
 10
64.74870640052116
 20
66.37840480636461
 30
0.0
 11
63.31003452588087
 21
66.08212659463311
 31
0.0
  0
LINE
  5
245
  8
EL-LFH4522C-25N5
  6
CONTINUOUS
 62
     7
 10
65.38398200800127
 20
66.801290277179
 30
0.0
 11
65.38398200800127
 21
66.76012138613021
 31
0.0
  0
LINE
  5
246
  8
EL-LFH4522C-25N5
  6
CONTINUOUS
 62
     7
 10
61.78592428320636
 20
65.44667873237871
 30
0.0
 11
61.74320509918925
 21
65.44667873237871
 31
0.0
  0
LINE
  5
247
  8
EL-LFH4522C-25N5
  6
CONTINUOUS
 62
     7
 10
65.38398200800127
 20
66.84400946119611
 30
0.0
 11
65.42670119201837
 21
66.84400946119611
 31
0.0
  0
LINE
  5
248
  8
EL-LFH4522C-25N5
  6
CONTINUOUS
 62
     7
 10
65.34126282398415
 20
66.92806979103621
 30
0.0
 11
65.29992167816117
 21
66.97078897505331
 31
0.0
  0
LINE
  5
249
  8
EL-LFH4522C-25N5
  6
CONTINUOUS
 62
     7
 10
61.82726542902935
 20
67.39367444586772
 30
0.0
 11
61.82726542902935
 21
67.43673813943332
 31
0.0
  0
LINE
  5
24A
  8
EL-LFH4522C-25N5
  6
CONTINUOUS
 62
     7
 10
60.00825501281745
 20
68.3681197038706
 30
0.0
 11
58.78042298187436
 21
65.6587243594959
 31
0.0
  0
LINE
  5
24B
  8
EL-LFH4522C-25N5
  6
CONTINUOUS
 62
     7
 10
58.78042298187436
 20
65.6160051754788
 30
0.0
 11
58.78042298187436
 21
65.36279065731291
 31
0.0
  0
LINE
  5
24C
  8
EL-LFH4522C-25N5
  6
CONTINUOUS
 62
     7
 10
59.49975891919458
 20
65.23583888868151
 30
0.0
 11
59.45703973517747
 21
65.27700777973021
 31
0.0
  0
LINE
  5
24D
  8
EL-LFH4522C-25N5
  6
CONTINUOUS
 62
     7
 10
58.86448331171446
 20
65.27700777973021
 30
0.0
 11
58.82176412769736
 21
65.27700777973021
 31
0.0
  0
LINE
  5
24E
  8
EL-LFH4522C-25N5
  6
CONTINUOUS
 62
     7
 10
59.45703973517747
 20
65.27700777973021
 30
0.0
 11
59.45703973517747
 21
65.32007147329581
 31
0.0
  0
LINE
  5
24F
  8
EL-LFH4522C-25N5
  6
CONTINUOUS
 62
     7
 10
59.49975891919458
 20
65.32007147329581
 30
0.0
 11
60.93843079383487
 21
65.6160051754788
 31
0.0
  0
LINE
  5
250
  8
EL-LFH4522C-25N5
  6
CONTINUOUS
 62
     7
 10
61.36286655761766
 20
65.7429569441103
 30
0.0
 11
58.94992167974866
 21
65.27700777973021
 31
0.0
  0
LINE
  5
251
  8
EL-LFH4522C-25N5
  6
CONTINUOUS
 62
     7
 10
58.78042298187436
 20
65.36279065731291
 30
0.0
 11
58.82176412769736
 21
65.27700777973021
 31
0.0
  0
LINE
  5
252
  8
EL-LFH4522C-25N5
  6
CONTINUOUS
 62
     7
 10
58.78042298187436
 20
65.6160051754788
 30
0.0
 11
58.78042298187436
 21
65.6587243594959
 31
0.0
  0
LINE
  5
253
  8
EL-LFH4522C-25N5
  6
CONTINUOUS
 62
     7
 10
65.59619988989266
 20
66.16601466969891
 30
0.0
 11
65.63754103571567
 21
66.16601466969891
 31
0.0
  0
LINE
  5
254
  8
EL-LFH4522C-25N5
  6
CONTINUOUS
 62
     7
 10
65.38398200800127
 20
66.801290277179
 30
0.0
 11
65.42670119201837
 21
66.84400946119611
 31
0.0
  0
LINE
  5
255
  8
EL-LFH4522C-25N5
  6
CONTINUOUS
 62
     7
 10
65.29992167816117
 20
66.88672864521321
 30
0.0
 11
65.29992167816117
 21
66.97078897505331
 31
0.0
  0
LINE
  5
256
  8
EL-LFH4522C-25N5
  6
CONTINUOUS
 62
     7
 10
63.09781664398947
 20
66.03940741061601
 30
0.0
 11
63.05509745997237
 21
65.99772175524441
 31
0.0
  0
LINE
  5
257
  8
EL-LFH4522C-25N5
  6
CONTINUOUS
 62
     7
 10
63.31003452588087
 20
66.08212659463311
 30
0.0
 11
63.22459615784667
 21
66.03940741061601
 31
0.0
  0
LINE
  5
258
  8
EL-LFH4522C-25N5
  6
CONTINUOUS
 62
     7
 10
64.74870640052116
 20
66.37840480636461
 30
0.0
 11
64.83414476855535
 21
66.37840480636461
 31
0.0
  0
LINE
  5
259
  8
EL-LFH4522C-25N5
  6
CONTINUOUS
 62
     7
 10
65.00226542823555
 20
66.42112399038172
 30
0.0
 11
65.13042298028687
 21
66.42112399038172
 31
0.0
  0
LINE
  5
25A
  8
EL-LFH4522C-25N5
  6
CONTINUOUS
 62
     7
 10
65.29992167816117
 20
66.5904504334817
 30
0.0
 11
65.25720249414405
 21
66.5477312494646
 31
0.0
  0
LINE
  5
25B
  8
EL-LFH4522C-25N5
  6
CONTINUOUS
 62
     7
 10
61.19336785974335
 20
65.6587243594959
 30
0.0
 11
61.32014737360055
 21
65.6587243594959
 31
0.0
  0
LINE
  5
25C
  8
EL-LFH4522C-25N5
  6
CONTINUOUS
 62
     7
 10
60.93843079383487
 20
65.6160051754788
 30
0.0
 11
61.02386916186905
 21
65.6160051754788
 31
0.0
  0
LINE
  5
25D
  8
EL-LFH4522C-25N5
  6
CONTINUOUS
 62
     7
 10
65.38398200800127
 20
66.88672864521321
 30
0.0
 11
65.34126282398415
 21
66.92806979103621
 31
0.0
  0
LINE
  5
25E
  8
EL-LFH4522C-25N5
  6
CONTINUOUS
 62
     7
 10
64.07208964721815
 20
69.1727217544507
 30
0.0
 11
63.98665127918396
 21
69.21440740982231
 31
0.0
  0
LINE
  5
25F
  8
EL-LFH4522C-25N5
  6
CONTINUOUS
 62
     7
 10
61.95542298108067
 20
68.28268133583641
 30
0.0
 11
62.33576152265228
 21
68.2413401900134
 31
0.0
  0
LINE
  5
260
  8
EL-LFH4522C-25N5
  6
CONTINUOUS
 62
     7
 10
61.61642558533206
 20
67.98640312410491
 30
0.0
 11
61.95542298108067
 21
68.28268133583641
 31
0.0
  0
LINE
  5
261
  8
EL-LFH4522C-25N5
  6
CONTINUOUS
 62
     7
 10
61.53098721729786
 20
67.5633453985162
 30
0.0
 11
61.61642558533206
 21
67.98640312410491
 31
0.0
  0
LINE
  5
262
  8
EL-LFH4522C-25N5
  6
CONTINUOUS
 62
     7
 10
61.70048591517216
 20
67.22434800276761
 30
0.0
 11
61.53098721729786
 21
67.5633453985162
 31
0.0
  0
LINE
  5
263
  8
EL-LFH4522C-25N5
  6
CONTINUOUS
 62
     7
 10
61.57370640131496
 20
67.98640312410491
 30
0.0
 11
61.95542298108067
 21
68.28268133583641
 31
0.0
  0
LINE
  5
264
  8
EL-LFH4522C-25N5
  6
CONTINUOUS
 62
     7
 10
61.53098721729786
 20
67.5633453985162
 30
0.0
 11
61.57370640131496
 21
67.98640312410491
 31
0.0
  0
LINE
  5
265
  8
EL-LFH4522C-25N5
  6
CONTINUOUS
 62
     7
 10
61.70048591517216
 20
67.26706718678481
 30
0.0
 11
61.53098721729786
 21
67.5633453985162
 31
0.0
  0
LINE
  5
266
  8
EL-LFH4522C-25N5
  6
CONTINUOUS
 62
     7
 10
61.82726542902935
 20
67.18300685694471
 30
0.0
 11
61.70048591517216
 21
67.26706718678481
 31
0.0
  0
LINE
  5
267
  8
EL-LFH4522C-25N5
  6
CONTINUOUS
 62
     7
 10
62.03948331092077
 20
67.18300685694471
 30
0.0
 11
61.82726542902935
 21
67.18300685694471
 31
0.0
  0
LINE
  5
268
  8
EL-LFH4522C-25N5
  6
CONTINUOUS
 62
     7
 10
62.33576152265228
 20
67.6899526575992
 30
0.0
 11
62.33576152265228
 21
67.81845471919901
 31
0.0
  0
LINE
  5
269
  8
EL-LFH4522C-25N5
  6
CONTINUOUS
 62
     7
 10
62.16626282477796
 20
67.43673813943332
 30
0.0
 11
62.33576152265228
 21
67.6899526575992
 31
0.0
  0
LINE
  5
26A
  8
EL-LFH4522C-25N5
  6
CONTINUOUS
 62
     7
 10
61.91270379706357
 20
67.39367444586772
 30
0.0
 11
62.16626282477796
 21
67.43673813943332
 31
0.0
  0
LINE
  5
26B
  8
EL-LFH4522C-25N5
  6
CONTINUOUS
 62
     7
 10
61.70048591517216
 20
67.52062621449922
 30
0.0
 11
61.91270379706357
 21
67.39367444586772
 31
0.0
  0
LINE
  5
26C
  8
EL-LFH4522C-25N5
  6
CONTINUOUS
 62
     7
 10
61.70048591517216
 20
67.77539102563331
 30
0.0
 11
61.70048591517216
 21
67.52062621449922
 31
0.0
  0
LINE
  5
26D
  8
EL-LFH4522C-25N5
  6
CONTINUOUS
 62
     7
 10
61.82726542902935
 20
68.02912230812201
 30
0.0
 11
61.70048591517216
 21
67.77539102563331
 31
0.0
  0
LINE
  5
26E
  8
EL-LFH4522C-25N5
  6
CONTINUOUS
 62
     7
 10
61.95542298108067
 20
68.11438842138202
 30
0.0
 11
61.82726542902935
 21
68.02912230812201
 31
0.0
  0
LINE
  5
26F
  8
EL-LFH4522C-25N5
  6
CONTINUOUS
 62
     7
 10
62.20898200879507
 20
68.07166923736492
 30
0.0
 11
61.95542298108067
 21
68.11438842138202
 31
0.0
  0
LINE
  5
270
  8
EL-LFH4522C-25N5
  6
CONTINUOUS
 62
     7
 10
62.37848070666937
 20
67.43673813943332
 30
0.0
 11
62.03948331092077
 21
67.18300685694471
 31
0.0
  0
LINE
  5
271
  8
EL-LFH4522C-25N5
  6
CONTINUOUS
 62
     7
 10
62.50526022052657
 20
67.6899526575992
 30
0.0
 11
62.37848070666937
 21
67.43673813943332
 31
0.0
  0
LINE
  5
272
  8
EL-LFH4522C-25N5
  6
CONTINUOUS
 62
     7
 10
62.46254103650947
 20
68.11438842138202
 30
0.0
 11
62.50526022052657
 21
67.6899526575992
 31
0.0
  0
LINE
  5
273
  8
EL-LFH4522C-25N5
  6
CONTINUOUS
 62
     7
 10
62.33576152265228
 20
68.2413401900134
 30
0.0
 11
62.46254103650947
 21
68.11438842138202
 31
0.0
  0
LINE
  5
274
  8
EL-LFH4522C-25N5
  6
CONTINUOUS
 62
     7
 10
62.37848070666937
 20
67.81845471919901
 30
0.0
 11
62.20898200879507
 21
68.07166923736492
 31
0.0
  0
LINE
  5
275
  8
EL-LFH4522C-25N5
  6
CONTINUOUS
 62
     7
 10
62.33576152265228
 20
67.98640312410491
 30
0.0
 11
62.20898200879507
 21
68.07166923736492
 31
0.0
  0
LINE
  5
276
  8
EL-LFH4522C-25N5
  6
CONTINUOUS
 62
     7
 10
62.33576152265228
 20
67.81845471919901
 30
0.0
 11
62.33576152265228
 21
67.98640312410491
 31
0.0
  0
LINE
  5
277
  8
EL-LFH4522C-25N5
  6
CONTINUOUS
 62
     7
 10
62.16626282477796
 20
67.43673813943332
 30
0.0
 11
62.37848070666937
 21
67.81845471919901
 31
0.0
  0
LINE
  5
278
  8
EL-LFH4522C-25N5
  6
CONTINUOUS
 62
     7
 10
61.82726542902935
 20
67.39367444586772
 30
0.0
 11
62.16626282477796
 21
67.43673813943332
 31
0.0
  0
LINE
  5
279
  8
EL-LFH4522C-25N5
  6
CONTINUOUS
 62
     7
 10
59.28754103730316
 20
65.23583888868151
 30
0.0
 11
59.24619989148016
 21
65.23583888868151
 31
0.0
  0
LINE
  5
27A
  8
EL-LFH4522C-25N5
  6
CONTINUOUS
 62
     7
 10
59.49975891919458
 20
65.32007147329581
 30
0.0
 11
59.45703973517747
 21
65.27700777973021
 31
0.0
  0
LINE
  5
27B
  8
EL-LFH4522C-25N5
  6
CONTINUOUS
 62
     7
 10
58.73770379785726
 20
65.6160051754788
 30
0.0
 11
58.73770379785726
 21
65.6587243594959
 31
0.0
  0
LINE
  5
27C
  8
EL-LFH4522C-25N5
  6
CONTINUOUS
 62
     7
 10
64.07208964721815
 20
69.21440740982231
 30
0.0
 11
100.7320397248588
 21
47.54045043824421
 31
0.0
  0
LINE
  5
27D
  8
EL-LFH4522C-25N5
  6
CONTINUOUS
 62
     7
 10
60.00825501281745
 20
68.4108388878877
 30
0.0
 11
64.07208964721815
 21
69.21440740982231
 31
0.0
  0
LINE
  5
27E
  8
EL-LFH4522C-25N5
  6
CONTINUOUS
 62
     7
 10
65.29992167816117
 20
66.76012138613021
 30
0.0
 11
65.29992167816117
 21
66.6316193245304
 31
0.0
  0
LINE
  5
27F
  8
EL-LFH4522C-25N5
  6
CONTINUOUS
 62
     7
 10
65.42670119201837
 20
66.6316193245304
 30
0.0
 11
65.42670119201837
 21
66.84400946119611
 31
0.0
  0
LINE
  5
280
  8
EL-LFH4522C-25N5
  6
CONTINUOUS
 62
     7
 10
65.34126282398415
 20
66.76012138613021
 30
0.0
 11
65.29992167816117
 21
66.76012138613021
 31
0.0
  0
LINE
  5
281
  8
EL-LFH4522C-25N5
  6
CONTINUOUS
 62
     7
 10
65.34126282398415
 20
66.6316193245304
 30
0.0
 11
65.38398200800127
 21
66.5904504334817
 31
0.0
  0
LINE
  5
282
  8
EL-LFH4522C-25N5
  6
CONTINUOUS
 62
     7
 10
65.38398200800127
 20
66.5477312494646
 30
0.0
 11
65.34126282398415
 21
66.5904504334817
 31
0.0
  0
LINE
  5
283
  8
EL-LFH4522C-25N5
  6
CONTINUOUS
 62
     7
 10
65.34126282398415
 20
66.76012138613021
 30
0.0
 11
65.34126282398415
 21
66.6316193245304
 31
0.0
  0
LINE
  5
284
  8
EL-LFH4522C-25N5
  6
CONTINUOUS
 62
     7
 10
65.42670119201837
 20
66.71705769256461
 30
0.0
 11
65.34126282398415
 21
66.76012138613021
 31
0.0
  0
LINE
  5
285
  8
EL-LFH4522C-25N5
  6
CONTINUOUS
 62
     7
 10
65.42670119201837
 20
66.6316193245304
 30
0.0
 11
65.46804233784137
 21
66.84400946119611
 31
0.0
  0
LINE
  5
286
  8
EL-LFH4522C-25N5
  6
CONTINUOUS
 62
     7
 10
65.29992167816117
 20
66.97078897505331
 30
0.0
 11
64.07208964721815
 21
69.21440740982231
 31
0.0
  0
LINE
  5
287
  8
EL-LFH4522C-25N5
  6
CONTINUOUS
 62
     7
 10
65.38398200800127
 20
66.97078897505331
 30
0.0
 11
65.34126282398415
 21
66.97078897505331
 31
0.0
  0
LINE
  5
288
  8
EL-LFH4522C-25N5
  6
CONTINUOUS
 62
     7
 10
65.34126282398415
 20
66.97078897505331
 30
0.0
 11
65.29992167816117
 21
66.97078897505331
 31
0.0
  0
LINE
  5
289
  8
EL-LFH4522C-25N5
  6
CONTINUOUS
 62
     7
 10
65.42670119201837
 20
66.97078897505331
 30
0.0
 11
65.84975891760708
 21
66.71705769256461
 31
0.0
  0
LINE
  5
28A
  8
EL-LFH4522C-25N5
  6
CONTINUOUS
 62
     7
 10
65.29992167816117
 20
66.97078897505331
 30
0.0
 11
64.11343079304116
 21
69.21440740982231
 31
0.0
  0
LINE
  5
28B
  8
EL-LFH4522C-25N5
  6
CONTINUOUS
 62
     7
 10
60.04959615864048
 20
68.4108388878877
 30
0.0
 11
60.00825501281745
 21
68.4108388878877
 31
0.0
  0
LINE
  5
28C
  8
EL-LFH4522C-25N5
  6
CONTINUOUS
 62
     7
 10
59.71059876289187
 20
67.6899526575992
 30
0.0
 11
60.00825501281745
 21
68.3681197038706
 31
0.0
  0
LINE
  5
28D
  8
EL-LFH4522C-25N5
  6
CONTINUOUS
 62
     7
 10
58.65226542982305
 20
65.32007147329581
 30
0.0
 11
58.61092428400017
 21
65.48939791639592
 31
0.0
  0
LINE
  5
28E
  8
EL-LFH4522C-25N5
  6
CONTINUOUS
 62
     7
 10
58.78042298187436
 20
65.48939791639592
 30
0.0
 11
58.78042298187436
 21
65.32007147329581
 31
0.0
  0
LINE
  5
28F
  8
EL-LFH4522C-25N5
  6
CONTINUOUS
 62
     7
 10
58.73770379785726
 20
65.48939791639592
 30
0.0
 11
58.78042298187436
 21
65.48939791639592
 31
0.0
  0
LINE
  5
290
  8
EL-LFH4522C-25N5
  6
CONTINUOUS
 62
     7
 10
58.73770379785726
 20
65.48939791639592
 30
0.0
 11
58.73770379785726
 21
65.32007147329581
 31
0.0
  0
LINE
  5
291
  8
EL-LFH4522C-25N5
  6
CONTINUOUS
 62
     7
 10
58.69498461384016
 20
65.23583888868151
 30
0.0
 11
58.65226542982305
 21
65.23583888868151
 31
0.0
  0
LINE
  5
292
  8
EL-LFH4522C-25N5
  6
CONTINUOUS
 62
     7
 10
100.7320397248588
 20
47.49773125422711
 30
0.0
 11
101.5795332142302
 21
45.93107408230971
 31
0.0
  0
LINE
  5
293
  8
EL-LFH4522C-25N5
  6
CONTINUOUS
 62
     7
 10
58.61092428400017
 20
65.6160051754788
 30
0.0
 11
58.73770379785726
 21
65.6587243594959
 31
0.0
  0
LINE
  5
294
  8
EL-LFH4522C-25N5
  6
CONTINUOUS
 62
     7
 10
58.61092428400017
 20
65.48939791639592
 30
0.0
 11
58.61092428400017
 21
65.6160051754788
 31
0.0
  0
LINE
  5
295
  8
EL-LFH4522C-25N5
  6
CONTINUOUS
 62
     7
 10
58.65226542982305
 20
65.6160051754788
 30
0.0
 11
58.73770379785726
 21
65.6160051754788
 31
0.0
  0
LINE
  5
296
  8
EL-LFH4522C-25N5
  6
CONTINUOUS
 62
     7
 10
58.61092428400017
 20
65.48939791639592
 30
0.0
 11
58.65226542982305
 21
65.6160051754788
 31
0.0
  0
LINE
  5
297
  8
EL-LFH4522C-25N5
  6
CONTINUOUS
 62
     7
 10
64.07208964721815
 20
69.21440740982231
 30
0.0
 11
64.11343079304116
 21
69.21440740982231
 31
0.0
  0
LINE
  5
298
  8
EL-LFH4522C-25N5
  6
CONTINUOUS
 62
     7
 10
100.7320397248588
 20
47.54045043824421
 30
0.0
 11
100.7320397248588
 21
47.49773125422711
 31
0.0
  0
LINE
  5
299
  8
EL-LFH4522C-25N5
  6
CONTINUOUS
 62
     7
 10
65.80703973358997
 20
66.03940741061601
 30
0.0
 11
65.72297940374987
 21
66.03940741061601
 31
0.0
  0
LINE
  5
29A
  8
EL-LFH4522C-25N5
  6
CONTINUOUS
 62
     7
 10
65.38398200800127
 20
66.5904504334817
 30
0.0
 11
65.42670119201837
 21
66.6316193245304
 31
0.0
  0
LINE
  5
29B
  8
EL-LFH4522C-25N5
  6
CONTINUOUS
 62
     7
 10
65.29992167816117
 20
66.6316193245304
 30
0.0
 11
65.34126282398415
 21
66.5904504334817
 31
0.0
  0
LINE
  5
29C
  8
EL-LFH4522C-25N5
  6
CONTINUOUS
 62
     7
 10
65.38398200800127
 20
66.5477312494646
 30
0.0
 11
65.42670119201837
 21
66.6316193245304
 31
0.0
  0
LINE
  5
29D
  8
EL-LFH4522C-25N5
  6
CONTINUOUS
 62
     7
 10
65.42670119201837
 20
66.97078897505331
 30
0.0
 11
65.38398200800127
 21
66.97078897505331
 31
0.0
  0
LINE
  5
29E
  8
EL-LFH4522C-25N5
  6
CONTINUOUS
 62
     7
 10
65.46804233784137
 20
66.84400946119611
 30
0.0
 11
65.42670119201837
 21
66.97078897505331
 31
0.0
  0
LINE
  5
29F
  8
EL-LFH4522C-25N5
  6
CONTINUOUS
 62
     7
 10
65.42670119201837
 20
66.84400946119611
 30
0.0
 11
65.42670119201837
 21
66.97078897505331
 31
0.0
  0
LINE
  5
2A0
  8
EL-LFH4522C-25N5
  6
CONTINUOUS
 62
     7
 10
58.78042298187436
 20
65.6587243594959
 30
0.0
 11
58.73770379785726
 21
65.6587243594959
 31
0.0
  0
LINE
  5
2A1
  8
EL-LFH4522C-25N5
  6
CONTINUOUS
 62
     7
 10
58.65226542982305
 20
65.23583888868151
 30
0.0
 11
58.65226542982305
 21
65.32007147329581
 31
0.0
  0
LINE
  5
2A2
  8
EL-LFH4522C-25N5
  6
CONTINUOUS
 62
     7
 10
58.73770379785726
 20
65.32007147329581
 30
0.0
 11
58.65226542982305
 21
65.32007147329581
 31
0.0
  0
LINE
  5
2A3
  8
EL-LFH4522C-25N5
  6
CONTINUOUS
 62
     7
 10
58.78042298187436
 20
65.32007147329581
 30
0.0
 11
58.65226542982305
 21
65.23583888868151
 31
0.0
  0
LINE
  5
2A4
  8
EL-LFH4522C-25N5
  6
CONTINUOUS
 62
     7
 10
102.1720896376931
 20
44.872740749241
 30
0.0
 11
65.55348070587557
 21
66.5904504334817
 31
0.0
  0
LINE
  5
2A5
  8
EL-LFH4522C-25N5
  6
CONTINUOUS
 62
     7
 10
67.50064867413876
 20
66.16601466969891
 30
0.0
 11
104.1605987517794
 21
44.4493385141038
 31
0.0
  0
LINE
  5
2A6
  8
EL-LFH4522C-25N5
  6
CONTINUOUS
 62
     7
 10
104.0765384219393
 20
44.32273125502081
 30
0.0
 11
103.864320540048
 21
44.23729288698669
 31
0.0
  0
LINE
  5
2A7
  8
EL-LFH4522C-25N5
  6
CONTINUOUS
 62
     7
 10
103.8229793942249
 20
44.23729288698669
 30
0.0
 11
67.20437046240727
 21
65.99772175524441
 31
0.0
  0
LINE
  5
2A8
  8
EL-LFH4522C-25N5
  6
CONTINUOUS
 62
     7
 10
56.57831794770266
 20
63.88105508910701
 30
0.0
 11
93.23964606353748
 21
42.16334540486619
 31
0.0
  0
LINE
  5
2A9
  8
EL-LFH4522C-25N5
  6
CONTINUOUS
 62
     7
 10
93.49320509125187
 20
42.20606458888329
 30
0.0
 11
56.83325501361116
 21
63.92274074447852
 31
0.0
  0
LINE
  5
2AA
  8
EL-LFH4522C-25N5
  6
CONTINUOUS
 62
     7
 10
65.72297940374987
 20
66.03940741061601
 30
0.0
 11
65.76432054957286
 21
66.03940741061601
 31
0.0
  0
LINE
  5
2AB
  8
EL-LFH4522C-25N5
  6
CONTINUOUS
 62
     7
 10
66.10331794532146
 20
66.6316193245304
 30
0.0
 11
67.03487176453298
 21
66.08195433985881
 31
0.0
  0
LINE
  5
2AC
  8
EL-LFH4522C-25N5
  6
CONTINUOUS
 62
     7
 10
67.28843079224737
 20
66.03940741061601
 30
0.0
 11
67.41658834429866
 21
66.12467352387591
 31
0.0
  0
LINE
  5
2AD
  8
EL-LFH4522C-25N5
  6
CONTINUOUS
 62
     7
 10
67.33114997626448
 20
65.99772175524441
 30
0.0
 11
67.28843079224737
 21
66.03940741061601
 31
0.0
  0
LINE
  5
2AE
  8
EL-LFH4522C-25N5
  6
CONTINUOUS
 62
     7
 10
67.45792949012166
 20
66.08212659463311
 30
0.0
 11
67.33114997626448
 21
65.99772175524441
 31
0.0
  0
LINE
  5
2AF
  8
EL-LFH4522C-25N5
  6
CONTINUOUS
 62
     7
 10
67.20437046240727
 20
65.99772175524441
 30
0.0
 11
67.45792949012166
 21
66.03940741061601
 31
0.0
  0
LINE
  5
2B0
  8
EL-LFH4522C-25N5
  6
CONTINUOUS
 62
     7
 10
67.45792949012166
 20
65.99772175524441
 30
0.0
 11
67.20437046240727
 21
65.95500257122741
 31
0.0
  0
LINE
  5
2B1
  8
EL-LFH4522C-25N5
  6
CONTINUOUS
 62
     7
 10
65.55348070587557
 20
66.5904504334817
 30
0.0
 11
65.68026021973276
 21
66.71705769256461
 31
0.0
  0
LINE
  5
2B2
  8
EL-LFH4522C-25N5
  6
CONTINUOUS
 62
     7
 10
65.68026021973276
 20
66.6743385085475
 30
0.0
 11
65.55348070587557
 21
66.5904504334817
 31
0.0
  0
LINE
  5
2B3
  8
EL-LFH4522C-25N5
  6
CONTINUOUS
 62
     7
 10
95.06003451794338
 20
44.0691722273065
 30
0.0
 11
96.66820509045795
 21
44.36545043903791
 31
0.0
  0
LINE
  5
2B4
  8
EL-LFH4522C-25N5
  6
CONTINUOUS
 62
     7
 10
93.49320509125187
 20
42.20606458888329
 30
0.0
 11
93.28098720936036
 21
42.16334540486619
 31
0.0
  0
LINE
  5
2B5
  8
EL-LFH4522C-25N5
  6
CONTINUOUS
 62
     7
 10
63.05509745997237
 20
65.91245564198451
 30
0.0
 11
62.84425761627506
 21
66.03940741061601
 31
0.0
  0
LINE
  5
2B6
  8
EL-LFH4522C-25N5
  6
CONTINUOUS
 62
     7
 10
62.84425761627506
 20
65.99772175524441
 30
0.0
 11
63.05509745997237
 21
65.8697364579674
 31
0.0
  0
LINE
  5
2B7
  8
EL-LFH4522C-25N5
  6
CONTINUOUS
 62
     7
 10
62.84425761627506
 20
65.99772175524441
 30
0.0
 11
62.84425761627506
 21
66.03940741061601
 31
0.0
  0
LINE
  5
2B8
  8
EL-LFH4522C-25N5
  6
CONTINUOUS
 62
     7
 10
61.95542298108067
 20
65.23583888868151
 30
0.0
 11
61.91270379706357
 21
65.23583888868151
 31
0.0
  0
LINE
  5
2B9
  8
EL-LFH4522C-25N5
  6
CONTINUOUS
 62
     7
 10
65.17176412610986
 20
66.46229288143041
 30
0.0
 11
65.80703973358997
 21
66.08212659463311
 31
0.0
  0
LINE
  5
2BA
  8
EL-LFH4522C-25N5
  6
CONTINUOUS
 62
     7
 10
65.55348070587557
 20
66.5904504334817
 30
0.0
 11
65.21448331012697
 21
66.5477312494646
 31
0.0
  0
LINE
  5
2BB
  8
EL-LFH4522C-25N5
  6
CONTINUOUS
 62
     7
 10
65.21448331012697
 20
66.50501206544752
 30
0.0
 11
65.55348070587557
 21
66.5904504334817
 31
0.0
  0
LINE
  5
2BC
  8
EL-LFH4522C-25N5
  6
CONTINUOUS
 62
     7
 10
65.21448331012697
 20
66.5477312494646
 30
0.0
 11
65.21448331012697
 21
66.50501206544752
 31
0.0
  0
LINE
  5
2BD
  8
EL-LFH4522C-25N5
  6
CONTINUOUS
 62
     7
 10
65.13042298028687
 20
66.50501206544752
 30
0.0
 11
65.13042298028687
 21
66.46229288143041
 31
0.0
  0
LINE
  5
2BE
  8
EL-LFH4522C-25N5
  6
CONTINUOUS
 62
     7
 10
61.99676412690367
 20
65.32007147329581
 30
0.0
 11
61.36286655761766
 21
65.7017880530615
 31
0.0
  0
LINE
  5
2BF
  8
EL-LFH4522C-25N5
  6
CONTINUOUS
 62
     7
 10
61.40420770344065
 20
65.7429569441103
 30
0.0
 11
62.67475891840088
 21
65.99772175524441
 31
0.0
  0
LINE
  5
2C0
  8
EL-LFH4522C-25N5
  6
CONTINUOUS
 62
     7
 10
62.67475891840088
 20
66.03940741061601
 30
0.0
 11
61.40420770344065
 21
65.7856761281273
 31
0.0
  0
LINE
  5
2C1
  8
EL-LFH4522C-25N5
  6
CONTINUOUS
 62
     7
 10
62.67475891840088
 20
65.99772175524441
 30
0.0
 11
62.67475891840088
 21
66.03940741061601
 31
0.0
  0
LINE
  5
2C2
  8
EL-LFH4522C-25N5
  6
CONTINUOUS
 62
     7
 10
61.40420770344065
 20
65.7856761281273
 30
0.0
 11
61.40420770344065
 21
65.7429569441103
 31
0.0
  0
LINE
  5
2C3
  8
EL-LFH4522C-25N5
  6
CONTINUOUS
 62
     7
 10
61.95542298108067
 20
65.27700777973021
 30
0.0
 11
61.95542298108067
 21
65.23583888868151
 31
0.0
  0
LINE
  5
2C4
  8
EL-LFH4522C-25N5
  6
CONTINUOUS
 62
     7
 10
65.72297940374987
 20
65.99772175524441
 30
0.0
 11
65.76432054957286
 21
66.03940741061601
 31
0.0
  0
LINE
  5
2C5
  8
EL-LFH4522C-25N5
  6
CONTINUOUS
 62
     7
 10
98.86893208643566
 20
44.78833590985241
 30
0.0
 11
100.9015384227331
 21
45.21173814498961
 31
0.0
  0
LINE
  5
2C6
  8
EL-LFH4522C-25N5
  6
CONTINUOUS
 62
     7
 10
101.0283179365903
 20
45.21173814498961
 30
0.0
 11
101.7063127280875
 21
44.78833590985241
 31
0.0
  0
LINE
  5
2C7
  8
EL-LFH4522C-25N5
  6
CONTINUOUS
 62
     7
 10
61.95542298108067
 20
65.27700777973021
 30
0.0
 11
61.91270379706357
 21
65.27700777973021
 31
0.0
  0
LINE
  5
2C8
  8
EL-LFH4522C-25N5
  6
CONTINUOUS
 62
     7
 10
59.24619989148016
 20
65.15040052064721
 30
0.0
 11
59.03398200958876
 21
65.27700777973021
 31
0.0
  0
LINE
  5
2C9
  8
EL-LFH4522C-25N5
  6
CONTINUOUS
 62
     7
 10
58.86448331171446
 20
65.23583888868151
 30
0.0
 11
58.86448331171446
 21
65.27700777973021
 31
0.0
  0
LINE
  5
2CA
  8
EL-LFH4522C-25N5
  6
CONTINUOUS
 62
     7
 10
59.03398200958876
 20
65.27700777973021
 30
0.0
 11
59.03398200958876
 21
65.23583888868151
 31
0.0
  0
LINE
  5
2CB
  8
EL-LFH4522C-25N5
  6
CONTINUOUS
 62
     7
 10
59.03398200958876
 20
65.23583888868151
 30
0.0
 11
59.24619989148016
 21
65.10768133663021
 31
0.0
  0
LINE
  5
2CC
  8
EL-LFH4522C-25N5
  6
CONTINUOUS
 62
     7
 10
58.86448331171446
 20
65.23583888868151
 30
0.0
 11
58.52548591596585
 21
65.19311970466441
 31
0.0
  0
LINE
  5
2CD
  8
EL-LFH4522C-25N5
  6
CONTINUOUS
 62
     7
 10
56.83325501361116
 20
63.92274074447852
 30
0.0
 11
56.79053582959407
 21
63.9654599284956
 31
0.0
  0
LINE
  5
2CE
  8
EL-LFH4522C-25N5
  6
CONTINUOUS
 62
     7
 10
58.52548591596585
 20
65.19311970466441
 30
0.0
 11
58.86448331171446
 21
65.27700777973021
 31
0.0
  0
LINE
  5
2CF
  8
EL-LFH4522C-25N5
  6
CONTINUOUS
 62
     7
 10
57.97564867652007
 20
65.06634019080711
 30
0.0
 11
59.28754103730316
 21
64.26173814022711
 31
0.0
  0
LINE
  5
2D0
  8
EL-LFH4522C-25N5
  6
CONTINUOUS
 62
     7
 10
59.24619989148016
 20
64.7273427950586
 30
0.0
 11
58.35598721809155
 21
65.23583888868151
 31
0.0
  0
LINE
  5
2D1
  8
EL-LFH4522C-25N5
  6
CONTINUOUS
 62
     7
 10
58.39870640210866
 20
65.23583888868151
 30
0.0
 11
58.35598721809155
 21
65.23583888868151
 31
0.0
  0
LINE
  5
2D2
  8
EL-LFH4522C-25N5
  6
CONTINUOUS
 62
     7
 10
56.79053582959407
 20
63.9654599284956
 30
0.0
 11
56.79053582959407
 21
63.92274074447852
 31
0.0
  0
LINE
  5
2D3
  8
EL-LFH4522C-25N5
  6
CONTINUOUS
 62
     7
 10
56.79053582959407
 20
63.9654599284956
 30
0.0
 11
56.66375631573688
 21
64.00800685773841
 31
0.0
  0
LINE
  5
2D4
  8
EL-LFH4522C-25N5
  6
CONTINUOUS
 62
     7
 10
56.66375631573688
 20
63.9654599284956
 30
0.0
 11
56.79053582959407
 21
63.92274074447852
 31
0.0
  0
LINE
  5
2D5
  8
EL-LFH4522C-25N5
  6
CONTINUOUS
 62
     7
 10
56.83325501361116
 20
63.92274074447852
 30
0.0
 11
56.62103713171977
 21
63.88105508910701
 31
0.0
  0
LINE
  5
2D6
  8
EL-LFH4522C-25N5
  6
CONTINUOUS
 62
     7
 10
56.62103713171977
 20
63.92274074447852
 30
0.0
 11
56.83325501361116
 21
63.92274074447852
 31
0.0
  0
LINE
  5
2D7
  8
EL-LFH4522C-25N5
  6
CONTINUOUS
 62
     7
 10
102.2134307835162
 20
44.872740749241
 30
0.0
 11
102.3415883355676
 21
44.99934800832391
 31
0.0
  0
LINE
  5
2D8
  8
EL-LFH4522C-25N5
  6
CONTINUOUS
 62
     7
 10
67.45792949012166
 20
66.08212659463311
 30
0.0
 11
67.50064867413876
 21
66.08212659463311
 31
0.0
  0
LINE
  5
2D9
  8
EL-LFH4522C-25N5
  6
CONTINUOUS
 62
     7
 10
67.33114997626448
 20
65.99772175524441
 30
0.0
 11
66.61181403894436
 21
66.42112399038172
 31
0.0
  0
LINE
  5
2DA
  8
EL-LFH4522C-25N5
  6
CONTINUOUS
 62
     7
 10
101.8758114259617
 20
44.78833590985241
 30
0.0
 11
102.1720896376931
 21
44.872740749241
 31
0.0
  0
LINE
  5
2DB
  8
EL-LFH4522C-25N5
  6
CONTINUOUS
 62
     7
 10
66.61181403894436
 20
66.42112399038172
 30
0.0
 11
66.10331794532146
 21
66.6743385085475
 31
0.0
  0
LINE
  5
2DC
  8
EL-LFH4522C-25N5
  6
CONTINUOUS
 62
     7
 10
104.1605987517794
 20
44.32273125502081
 30
0.0
 11
104.1605987517794
 21
44.4493385141038
 31
0.0
  0
LINE
  5
2DD
  8
EL-LFH4522C-25N5
  6
CONTINUOUS
 62
     7
 10
104.0765384219393
 20
44.32273125502081
 30
0.0
 11
104.1605987517794
 21
44.32273125502081
 31
0.0
  0
LINE
  5
2DE
  8
EL-LFH4522C-25N5
  6
CONTINUOUS
 62
     7
 10
103.8229793942249
 20
44.23729288698669
 30
0.0
 11
103.864320540048
 21
44.23729288698669
 31
0.0
  0
LINE
  5
2DF
  8
EL-LFH4522C-25N5
  6
CONTINUOUS
 62
     7
 10
67.20437046240727
 20
65.99772175524441
 30
0.0
 11
66.61181403894436
 21
66.42112399038172
 31
0.0
  0
LINE
  5
2E0
  8
EL-LFH4522C-25N5
  6
CONTINUOUS
 62
     7
 10
67.50064867413876
 20
66.16601466969891
 30
0.0
 11
67.41658834429866
 21
66.12467352387591
 31
0.0
  0
LINE
  5
2E1
  8
EL-LFH4522C-25N5
  6
CONTINUOUS
 62
     7
 10
67.45792949012166
 20
65.99772175524441
 30
0.0
 11
67.50064867413876
 21
66.16601466969891
 31
0.0
  0
LINE
  5
2E2
  8
EL-LFH4522C-25N5
  6
CONTINUOUS
 62
     7
 10
67.45792949012166
 20
66.03940741061601
 30
0.0
 11
67.45792949012166
 21
66.08212659463311
 31
0.0
  0
LINE
  5
2E3
  8
EL-LFH4522C-25N5
  6
CONTINUOUS
 62
     7
 10
67.20437046240727
 20
65.99772175524441
 30
0.0
 11
67.20437046240727
 21
65.95500257122741
 31
0.0
  0
LINE
  5
2E4
  8
EL-LFH4522C-25N5
  6
CONTINUOUS
 62
     7
 10
65.84975891760708
 20
66.03940741061601
 30
0.0
 11
65.80703973358997
 21
66.08212659463311
 31
0.0
  0
LINE
  5
2E5
  8
EL-LFH4522C-25N5
  6
CONTINUOUS
 62
     7
 10
65.76432054957286
 20
66.03940741061601
 30
0.0
 11
65.84975891760708
 21
66.03940741061601
 31
0.0
  0
LINE
  5
2E6
  8
EL-LFH4522C-25N5
  6
CONTINUOUS
 62
     7
 10
65.72297940374987
 20
66.71705769256461
 30
0.0
 11
65.68026021973276
 21
66.6743385085475
 31
0.0
  0
LINE
  5
2E7
  8
EL-LFH4522C-25N5
  6
CONTINUOUS
 62
     7
 10
65.93381924744718
 20
66.71705769256461
 30
0.0
 11
65.68026021973276
 21
66.71705769256461
 31
0.0
  0
LINE
  5
2E8
  8
EL-LFH4522C-25N5
  6
CONTINUOUS
 62
     7
 10
66.10331794532146
 20
66.6316193245304
 30
0.0
 11
65.93381924744718
 21
66.71705769256461
 31
0.0
  0
LINE
  5
2E9
  8
EL-LFH4522C-25N5
  6
CONTINUOUS
 62
     7
 10
66.10331794532146
 20
66.6743385085475
 30
0.0
 11
65.72297940374987
 21
66.71705769256461
 31
0.0
  0
LINE
  5
2EA
  8
EL-LFH4522C-25N5
  6
CONTINUOUS
 62
     7
 10
93.53592427526887
 20
42.2487837729004
 30
0.0
 11
94.12848069873188
 21
42.8826813421864
 31
0.0
  0
LINE
  5
2EB
  8
EL-LFH4522C-25N5
  6
CONTINUOUS
 62
     7
 10
93.28098720936036
 20
42.16334540486619
 30
0.0
 11
93.23964606353748
 21
42.16334540486619
 31
0.0
  0
LINE
  5
2EC
  8
EL-LFH4522C-25N5
  6
CONTINUOUS
 62
     7
 10
93.53592427526887
 20
42.2487837729004
 30
0.0
 11
93.49320509125187
 21
42.20606458888329
 31
0.0
  0
LINE
  5
2ED
  8
EL-LFH4522C-25N5
  6
CONTINUOUS
 62
     7
 10
62.84425761627506
 20
66.03940741061601
 30
0.0
 11
62.67475891840088
 21
66.03940741061601
 31
0.0
  0
LINE
  5
2EE
  8
EL-LFH4522C-25N5
  6
CONTINUOUS
 62
     7
 10
65.13042298028687
 20
66.50501206544752
 30
0.0
 11
65.21448331012697
 21
66.5477312494646
 31
0.0
  0
LINE
  5
2EF
  8
EL-LFH4522C-25N5
  6
CONTINUOUS
 62
     7
 10
65.13042298028687
 20
66.46229288143041
 30
0.0
 11
65.21448331012697
 21
66.50501206544752
 31
0.0
  0
LINE
  5
2F0
  8
EL-LFH4522C-25N5
  6
CONTINUOUS
 62
     7
 10
65.17176412610986
 20
66.46229288143041
 30
0.0
 11
65.13042298028687
 21
66.46229288143041
 31
0.0
  0
LINE
  5
2F1
  8
EL-LFH4522C-25N5
  6
CONTINUOUS
 62
     7
 10
61.36286655761766
 20
65.7429569441103
 30
0.0
 11
61.40420770344065
 21
65.7856761281273
 31
0.0
  0
LINE
  5
2F2
  8
EL-LFH4522C-25N5
  6
CONTINUOUS
 62
     7
 10
61.36286655761766
 20
65.7429569441103
 30
0.0
 11
61.40420770344065
 21
65.7429569441103
 31
0.0
  0
LINE
  5
2F3
  8
EL-LFH4522C-25N5
  6
CONTINUOUS
 62
     7
 10
61.36286655761766
 20
65.7017880530615
 30
0.0
 11
61.36286655761766
 21
65.7429569441103
 31
0.0
  0
LINE
  5
2F4
  8
EL-LFH4522C-25N5
  6
CONTINUOUS
 62
     7
 10
62.03948331092077
 20
65.32007147329581
 30
0.0
 11
61.95542298108067
 21
65.23583888868151
 31
0.0
  0
LINE
  5
2F5
  8
EL-LFH4522C-25N5
  6
CONTINUOUS
 62
     7
 10
62.84425761627506
 20
65.99772175524441
 30
0.0
 11
62.67475891840088
 21
65.99772175524441
 31
0.0
  0
LINE
  5
2F6
  8
EL-LFH4522C-25N5
  6
CONTINUOUS
 62
     7
 10
62.03948331092077
 20
65.32007147329581
 30
0.0
 11
61.95542298108067
 21
65.27700777973021
 31
0.0
  0
LINE
  5
2F7
  8
EL-LFH4522C-25N5
  6
CONTINUOUS
 62
     7
 10
61.99676412690367
 20
65.32007147329581
 30
0.0
 11
62.03948331092077
 21
65.32007147329581
 31
0.0
  0
LINE
  5
2F8
  8
EL-LFH4522C-25N5
  6
CONTINUOUS
 62
     7
 10
100.9015384227331
 20
45.21173814498961
 30
0.0
 11
101.0283179365903
 21
45.21173814498961
 31
0.0
  0
LINE
  5
2F9
  8
EL-LFH4522C-25N5
  6
CONTINUOUS
 62
     7
 10
101.7063127280875
 20
44.78833590985241
 30
0.0
 11
101.8758114259617
 21
44.78833590985241
 31
0.0
  0
LINE
  5
2FA
  8
EL-LFH4522C-25N5
  6
CONTINUOUS
 62
     7
 10
59.03398200958876
 20
65.23583888868151
 30
0.0
 11
58.86448331171446
 21
65.23583888868151
 31
0.0
  0
LINE
  5
2FB
  8
EL-LFH4522C-25N5
  6
CONTINUOUS
 62
     7
 10
59.03398200958876
 20
65.27700777973021
 30
0.0
 11
58.86448331171446
 21
65.27700777973021
 31
0.0
  0
LINE
  5
2FC
  8
EL-LFH4522C-25N5
  6
CONTINUOUS
 62
     7
 10
56.87459615943417
 20
63.92274074447852
 30
0.0
 11
57.97564867652007
 21
65.06634019080711
 31
0.0
  0
LINE
  5
2FD
  8
EL-LFH4522C-25N5
  6
CONTINUOUS
 62
     7
 10
56.87459615943417
 20
63.92274074447852
 30
0.0
 11
56.83325501361116
 21
63.92274074447852
 31
0.0
  0
LINE
  5
2FE
  8
EL-LFH4522C-25N5
  6
CONTINUOUS
 62
     7
 10
56.87459615943417
 20
63.9654599284956
 30
0.0
 11
57.97564867652007
 21
65.06634019080711
 31
0.0
  0
LINE
  5
2FF
  8
EL-LFH4522C-25N5
  6
CONTINUOUS
 62
     7
 10
56.87459615943417
 20
63.9654599284956
 30
0.0
 11
56.83325501361116
 21
63.92274074447852
 31
0.0
  0
LINE
  5
300
  8
EL-LFH4522C-25N5
  6
CONTINUOUS
 62
     7
 10
57.97564867652007
 20
65.06634019080711
 30
0.0
 11
58.35598721809155
 21
65.23583888868151
 31
0.0
  0
LINE
  5
301
  8
EL-LFH4522C-25N5
  6
CONTINUOUS
 62
     7
 10
57.97564867652007
 20
65.06634019080711
 30
0.0
 11
58.39870640210866
 21
65.23583888868151
 31
0.0
  0
LINE
  5
302
  8
EL-LFH4522C-25N5
  6
CONTINUOUS
 62
     7
 10
56.57831794770266
 20
64.00800685773841
 30
0.0
 11
56.66375631573688
 21
64.00800685773841
 31
0.0
  0
LINE
  5
303
  8
EL-LFH4522C-25N5
  6
CONTINUOUS
 62
     7
 10
56.62103713171977
 20
63.88105508910701
 30
0.0
 11
56.57831794770266
 21
64.00800685773841
 31
0.0
  0
LINE
  5
304
  8
EL-LFH4522C-25N5
  6
CONTINUOUS
 62
     7
 10
56.57831794770266
 20
63.92274074447852
 30
0.0
 11
56.66375631573688
 21
63.9654599284956
 31
0.0
  0
LINE
  5
305
  8
EL-LFH4522C-25N5
  6
CONTINUOUS
 62
     7
 10
56.62103713171977
 20
63.92274074447852
 30
0.0
 11
56.57831794770266
 21
63.92274074447852
 31
0.0
  0
LINE
  5
306
  8
EL-LFH4522C-25N5
  6
CONTINUOUS
 62
     7
 10
65.76432054957286
 20
66.03940741061601
 30
0.0
 11
65.80703973358997
 21
66.03940741061601
 31
0.0
  0
LINE
  5
307
  8
EL-LFH4522C-25N5
  6
CONTINUOUS
 62
     7
 10
102.1720896376931
 20
44.872740749241
 30
0.0
 11
102.2134307835162
 21
44.872740749241
 31
0.0
  0
LINE
  5
308
  8
EL-LFH4522C-25N5
  6
CONTINUOUS
 62
     7
 10
102.637866547299
 20
44.99934800832391
 30
0.0
 11
102.3415883355676
 21
44.99934800832391
 31
0.0
  0
TEXT
  5
309
  8
EL-LFH4522C-25N5
 62
     7
 10
25.47404573228627
 20
15.339468148855
 30
0.0
 40
4.5
  1
三菱　ＥＬ－ＬＦＨ４５２２Ｃ　ＡＨＮ（３９Ｎ４）
  7
_______
  0
TEXT
  5
30A
  8
EL-LFH4522C-25N5
 62
     7
 10
25.47404573228628
 20
99.33946314885492
 30
0.0
 40
4.5
  1
ＬＥＤランプ搭載　 反射笠付器具
  7
_______
  0
VIEWPORT
  5
30B
 67
     1
  8
0
 10
128.5
 20
97.5
 30
0.0
 40
314.226
 41
222.18
 68
     1
 69
     1
1001
ACAD
1000
MVIEW
1002
{
1070
    16
1010
0.0
1020
0.0
1030
0.0
1010
0.0
1020
0.0
1030
1.0
1040
0.0
1040
222.18
1040
128.5
1040
97.5
1040
50.0
1040
0.0
1040
0.0
1070
     0
1070
   100
1070
     0
1070
     3
1070
     0
1070
     0
1070
     0
1070
     0
1040
0.0
1040
0.0
1040
0.0
1040
10.0
1040
10.0
1040
10.0
1040
10.0
1070
     0
1002
{
1002
}
1002
}
  0
ENDSEC
  0
EOF
