  0
SECTION
  2
HEADER
  9
$ACADVER
  1
AC1009
  9
$DWGCODEPAGE
  3
dos932
  9
$INSBASE
 10
0
 20
0
 30
0
  9
$EXTMIN
 10
3.4671186608783269
 20
5.6770119452378918
 30
0
  9
$EXTMAX
 10
124.0630968622101
 20
96.780627158296383
 30
0
  9
$LIMMIN
 10
0
 20
0
  9
$LIMMAX
 10
297
 20
210
  9
$SNAPMODE
 70
0
  9
$SNAPUNIT
 10
1
 20
1
  9
$SNAPBASE
 10
0
 20
0
  9
$SNAPANG
 50
0
  9
$SNAPSTYLE
 70
0
  9
$SNAPISOPAIR
 70
0
  9
$ORTHOMODE
 70
0
  9
$REGENMODE
 70
1
  9
$FILLMODE
 70
1
  9
$QTEXTMODE
 70
0
  9
$MIRRTEXT
 70
0
  9
$LTSCALE
 40
1
  9
$OSMODE
 70
37
  9
$ATTMODE
 70
1
  9
$TEXTSIZE
 40
0.2
  9
$TRACEWID
 40
0.05
  9
$TEXTSTYLE
  7
STANDARD
  9
$CLAYER
  8
0
  9
$CELTYPE
  6
CONTINUOUS
  9
$CECOLOR
 62
256
  9
$DIMSCALE
 40
1
  9
$DIMASZ
 40
0.18
  9
$DIMEXO
 40
0.0625
  9
$DIMDLI
 40
0.38
  9
$DIMRND
 40
0
  9
$DIMDLE
 40
0
  9
$DIMEXE
 40
0.18
  9
$DIMTP
 40
0
  9
$DIMTM
 40
0
  9
$DIMTXT
 40
0.18
  9
$DIMCEN
 40
0.09
  9
$DIMTSZ
 40
0
  9
$DIMTOL
 70
0
  9
$DIMLIM
 70
0
  9
$DIMTIH
 70
1
  9
$DIMTOH
 70
1
  9
$DIMSE1
 70
0
  9
$DIMSE2
 70
0
  9
$DIMTAD
 70
0
  9
$DIMZIN
 70
0
  9
$DIMBLK
  1

  9
$DIMASO
 70
1
  9
$DIMSHO
 70
1
  9
$DIMPOST
  1

  9
$DIMAPOST
  1

  9
$DIMALT
 70
0
  9
$DIMALTD
 70
2
  9
$DIMALTF
 40
25.4
  9
$DIMLFAC
 40
1
  9
$DIMTOFL
 70
0
  9
$DIMTVP
 40
0
  9
$DIMTIX
 70
0
  9
$DIMSOXD
 70
0
  9
$DIMSAH
 70
0
  9
$DIMBLK1
  1

  9
$DIMBLK2
  1

  9
$DIMSTYLE
  2
STANDARD
  9
$DIMCLRD
 70
0
  9
$DIMCLRE
 70
0
  9
$DIMCLRT
 70
0
  9
$DIMTFAC
 40
1
  9
$DIMGAP
 40
0.09
  9
$LUNITS
 70
2
  9
$LUPREC
 70
4
  9
$SKETCHINC
 40
0.1
  9
$FILLETRAD
 40
0
  9
$AUNITS
 70
0
  9
$AUPREC
 70
0
  9
$MENU
  1
.
  9
$ELEVATION
 40
0
  9
$PELEVATION
 40
0
  9
$THICKNESS
 40
0
  9
$LIMCHECK
 70
0
  9
$CHAMFERA
 40
0
  9
$CHAMFERB
 40
0
  9
$SKPOLY
 70
0
  9
$TDCREATE
 40
2450971.7456035186
  9
$TDUPDATE
 40
2457974.3760952894
  9
$TDINDWG
 40
0.081050520833333334
  9
$TDUSRTIMER
 40
0.081050162037037035
  9
$USRTIMER
 70
1
  9
$ANGBASE
 50
0
  9
$ANGDIR
 70
0
  9
$PDMODE
 70
0
  9
$PDSIZE
 40
0
  9
$PLINEWID
 40
0
  9
$SPLFRAME
 70
0
  9
$SPLINETYPE
 70
6
  9
$SPLINESEGS
 70
8
  9
$HANDLING
 70
1
  9
$HANDSEED
  5
812A
  9
$SURFTAB1
 70
6
  9
$SURFTAB2
 70
6
  9
$SURFTYPE
 70
6
  9
$SURFU
 70
6
  9
$SURFV
 70
6
  9
$UCSORG
 10
0
 20
0
 30
0
  9
$UCSXDIR
 10
1
 20
0
 30
0
  9
$UCSYDIR
 10
0
 20
1
 30
0
  9
$PUCSORG
 10
0
 20
0
 30
0
  9
$PUCSXDIR
 10
1
 20
0
 30
0
  9
$PUCSYDIR
 10
0
 20
1
 30
0
  9
$USERI1
 70
0
  9
$USERI2
 70
0
  9
$USERI3
 70
0
  9
$USERI4
 70
0
  9
$USERI5
 70
0
  9
$USERR1
 40
0
  9
$USERR2
 40
0
  9
$USERR3
 40
0
  9
$USERR4
 40
0
  9
$USERR5
 40
0
  9
$WORLDVIEW
 70
1
  9
$SHADEDGE
 70
3
  9
$SHADEDIF
 70
70
  9
$TILEMODE
 70
1
  9
$MAXACTVP
 70
64
  9
$PINSBASE
 10
0
 20
0
 30
0
  9
$PLIMCHECK
 70
0
  9
$PEXTMIN
 10
1E+20
 20
1E+20
 30
1E+20
  9
$PEXTMAX
 10
-1E+20
 20
-1E+20
 30
-1E+20
  9
$PLIMMAX
 10
12
 20
9
  9
$PLIMMIN
 10
0
 20
0
  9
$UNITMODE
 70
0
  9
$VISRETAIN
 70
1
  9
$PLINEGEN
 70
0
  9
$PSLTSCALE
 70
1
  9
$TREEDEPTH
 70
3020
  9
$DRAGMODE
 70
     2
  9
$BLIPMODE
 70
     0
  9
$COORDS
 70
     1
  9
$ATTDIA
 70
     0
  9
$ATTREQ
 70
     1
  0
ENDSEC
  0
SECTION
  2
TABLES
  0
TABLE
  2
VPORT
  5
811C
 70
1
  0
VPORT
  5
80F0
  2
*ACTIVE
 70
0
 10
0
 20
0
 11
1
 21
1
 12
90.998109828891444
 22
45.285272825683251
 13
0
 23
0
 14
1
 24
1
 15
0
 25
0
 16
0
 26
0
 36
1
 17
0
 27
0
 37
0
 40
139.10879116831319
 41
1.7550675675675671
 42
50
 43
0
 44
0
 50
0
 51
0
 71
0
 72
100
 73
1
 74
1
 75
0
 76
0
 77
0
 78
0
  0
ENDTAB
  0
TABLE
  2
LTYPE
  5
811D
 70
8
  0
LTYPE
  5
80E6
  2
CONTINUOUS
  3
実線
 70
0
 72
65
 73
0
 40
0
  0
LTYPE
  5
80E7
  2
DASHED
  3
破線
 70
0
 72
65
 73
2
 40
3.8
 49
3
 49
-0.8
  0
LTYPE
  5
80E8
  2
DOT
  3
点線
 70
0
 72
65
 73
2
 40
2
 49
1
 49
-1
  0
LTYPE
  5
80E9
  2
DASHDOT
  3
一点鎖線
 70
0
 72
65
 73
4
 40
25.6
 49
20
 49
-2
 49
1.6
 49
-2
  0
LTYPE
  5
80EA
  2
DIVIDE
  3
二点鎖線
 70
0
 72
65
 73
6
 40
31.199999999999996
 49
20
 49
-2.399999999999999
 49
2
 49
-2.399999999999999
 49
2
 49
-2.399999999999999
  0
LTYPE
  5
80EB
  2
CENTER
  3
Center ____ _ ____ _ ____ _ ____ _ ____ _ ____
 70
0
 72
65
 73
4
 40
1
 49
0.5
 49
-0.25
 49
0
 49
-0.25
  0
LTYPE
  5
80EC
  2
ByBlock
  3

 70
64
 72
65
 73
0
 40
0
  0
LTYPE
  5
80ED
  2
ByLayer
  3

 70
64
 72
65
 73
0
 40
0
  0
ENDTAB
  0
TABLE
  2
LAYER
  5
811E
 70
2
  0
LAYER
  5
80CE
 70
0
  2
0
 62
7
  6
CONTINUOUS
  0
LAYER
  5
80CF
 70
0
  2
SPEC
 62
7
  6
CONTINUOUS
  0
ENDTAB
  0
TABLE
  2
STYLE
  5
811F
 70
4
  0
STYLE
  5
80E2
  2
STANDARD
 70
0
 40
0
 41
1
 50
0
 71
0
 42
0.2
  3
txt.shx
  4
extfont2.shx
  0
STYLE
  5
80E3
  2
ANNOTATIVE
 70
0
 40
0
 41
1
 50
0
 71
0
 42
0.2
  3
txt
  0
STYLE
  5
80E4
  2
EXCADSTD
 70
0
 40
0
 41
1
 50
0
 71
0
 42
0.2
  3
monotxt
  4
bigfont
  0
STYLE
  5
80E5
  2
EXCADVERT
 70
4
 40
0
 41
1
 50
0
 71
0
 42
0.286885
  3
monotxt
  4
bigfont
  0
ENDTAB
  0
TABLE
  2
APPID
  5
8122
 70
4
  0
APPID
  5
8123
  2
ACAD
 70
0
  0
APPID
  5
8126
  2
ACADANNOTATIVE
 70
0
  0
APPID
  5
8127
  2
ACAD_MLEADERVER
 70
0
  0
APPID
  5
8128
  2
ACAD_EXEMPT_FROM_CAD_STANDARDS
 70
0
  0
ENDTAB
  0
TABLE
  2
DIMSTYLE
  5
8124
 70
2
  0
DIMSTYLE
105
80EE
  2
STANDARD
 70
0
  3

  4

  5

  6

  7

 40
1
 41
0.18
 42
0.0625
 43
0.38
 44
0.18
 45
0
 46
0
 47
0
 48
0
140
0.18
141
0.09
142
0
143
25.4
144
1
145
0
146
1
147
0.09
 71
0
 72
0
 73
1
 74
1
 75
0
 76
0
 77
0
 78
0
170
0
171
2
172
0
173
0
174
0
175
0
176
0
177
0
178
0
  0
DIMSTYLE
105
80EF
  2
ANNOTATIVE
 70
0
  3

  4

  5

  6

  7

 40
1
 41
0.18
 42
0.0625
 43
0.38
 44
0.18
 45
0
 46
0
 47
0
 48
0
140
0.18
141
0.09
142
0
143
25.4
144
1
145
0
146
1
147
0.09
 71
0
 72
0
 73
1
 74
1
 75
0
 76
0
 77
0
 78
0
170
0
171
2
172
0
173
0
174
0
175
0
176
0
177
0
178
0
  0
ENDTAB
  0
ENDSEC
  0
SECTION
  2
BLOCKS
  0
BLOCK
  5
80D1
  8
0
  2
$MODEL_SPACE
 70
0
 10
0
 20
0
 30
0
  3
$MODEL_SPACE
  0
ENDBLK
  5
7559
  8
0
  0
BLOCK
  5
80D3
  8
0
 67
1
  2
$PAPER_SPACE
 70
0
 10
0
 20
0
 30
0
  3
$PAPER_SPACE
  0
ENDBLK
  5
7555
  8
0
  0
BLOCK
  5
80D5
  8
0
  2
SPECEL-LFV20041-13N4
 70
64
 10
0
 20
0
 30
0
  3
SPECEL-LFV20041-13N4
  0
TEXT
  5
80D6
  8
SPEC
 10
0
 20
0
 30
0
 40
1.5
  1
直管形LEDﾗﾝﾌﾟ搭載ﾍﾞｰｽﾗｲﾄ Ra83
  7
STANDARD
  0
TEXT
  5
80D7
  8
SPEC
 10
0
 20
-3
 30
0
 40
1.5
  1
本体:鋼板 白色塗装仕上
  7
STANDARD
  0
TEXT
  5
80D8
  8
SPEC
 10
0
 20
-6
 30
0
 40
1.5
  1
光源寿命:40,000時間
  7
STANDARD
  0
ENDBLK
  5
80D9
  8
0
  0
BLOCK
  5
80DB
  8
0
  2
*MODEL_SPACE
 70
64
 10
0
 20
0
 30
0
  3
*MODEL_SPACE
  0
ENDBLK
  5
80DE
  8
0
  0
BLOCK
  5
80E0
  8
0
 67
1
  2
*PAPER_SPACE
 70
64
 10
0
 20
0
 30
0
  3
*PAPER_SPACE
  0
ENDBLK
  5
80E1
  8
0
  0
ENDSEC
  0
SECTION
  2
ENTITIES
  0
TEXT
  5
84
  8
0
  6
CONTINUOUS
 62
7
 10
3
 20
91
 30
0
 40
4.5
  1
LEDﾗﾝﾌﾟ搭載 ｷｯﾁﾝﾗｲﾄ
 41
1.0145125286631513
 72
5
 11
71.900002479553208
 21
91
 31
0
  7
EXCADSTD
  0
TEXT
  5
85
  8
0
  6
CONTINUOUS
 62
7
 10
3
 20
7
 30
0
 40
4.5
  1
三菱 EL-LFV20041(13N4)
  7
EXCADSTD
  0
POLYLINE
  5
6375
  8
0
 62
7
 66
1
 70
0
 10
0
 20
0
 30
0
  0
VERTEX
  5
757A
  8
0
 62
7
 10
16.46934353573721
 20
58.303852538206449
 70
0
  0
VERTEX
  5
757B
  8
0
 62
7
 10
20.533178170137919
 20
59.954397785189649
 70
0
  0
SEQEND
  5
757C
  8
0
  0
POLYLINE
  5
6379
  8
0
 62
7
 66
1
 70
0
 10
0
 20
0
 30
0
  0
VERTEX
  5
757D
  8
0
 62
7
 10
16.46934353573721
 20
52.885234104231237
 70
0
  0
VERTEX
  5
757E
  8
0
 62
7
 10
20.15283962856634
 20
54.409516601680032
 70
0
  0
SEQEND
  5
757F
  8
0
  0
POLYLINE
  5
637D
  8
0
 62
7
 66
1
 70
0
 10
0
 20
0
 30
0
  0
VERTEX
  5
7580
  8
0
 62
7
 10
16.724280601645692
 20
52.5887836377255
 70
0
  0
VERTEX
  5
7581
  8
0
 62
7
 10
20.406398656280711
 20
54.113066135174279
 70
0
  0
SEQEND
  5
7582
  8
0
  0
POLYLINE
  5
6381
  8
0
 62
7
 66
1
 70
0
 10
0
 20
0
 30
0
  0
VERTEX
  5
7583
  8
0
 62
7
 10
69.763592654358092
 20
47.763238391536042
 70
0
  0
VERTEX
  5
7584
  8
0
 62
7
 10
69.763592654358092
 20
47.763238391536042
 70
0
  0
SEQEND
  5
7585
  8
0
  0
POLYLINE
  5
6385
  8
0
 62
7
 66
1
 70
0
 10
0
 20
0
 30
0
  0
VERTEX
  5
7586
  8
0
 62
7
 10
69.594093956483775
 20
48.102235787284613
 70
0
  0
VERTEX
  5
7587
  8
0
 62
7
 10
69.424595258609529
 20
48.102235787284613
 70
0
  0
SEQEND
  5
7588
  8
0
  0
POLYLINE
  5
6389
  8
0
 62
7
 66
1
 70
0
 10
0
 20
0
 30
0
  0
VERTEX
  5
7589
  8
0
 62
7
 10
70.77920680340975
 20
46.790171171727181
 70
0
  0
VERTEX
  5
758A
  8
0
 62
7
 10
70.736487619392634
 20
46.790171171727181
 70
0
  0
SEQEND
  5
758B
  8
0
  0
POLYLINE
  5
638D
  8
0
 62
7
 66
1
 70
0
 10
0
 20
0
 30
0
  0
VERTEX
  5
758C
  8
0
 62
7
 10
71.159545344981325
 20
43.99550971409257
 70
0
  0
VERTEX
  5
758D
  8
0
 62
7
 10
71.159545344981325
 20
43.99550971409257
 70
0
  0
SEQEND
  5
758E
  8
0
  0
POLYLINE
  5
6391
  8
0
 62
7
 66
1
 70
0
 10
0
 20
0
 30
0
  0
VERTEX
  5
758F
  8
0
 62
7
 10
20.745396052029289
 20
54.323733724097281
 70
0
  0
VERTEX
  5
7590
  8
0
 62
7
 10
20.745396052029289
 20
54.323733724097281
 70
0
  0
SEQEND
  5
7591
  8
0
  0
POLYLINE
  5
6395
  8
0
 62
7
 66
1
 70
0
 10
0
 20
0
 30
0
  0
VERTEX
  5
7592
  8
0
 62
7
 10
70.39749022364407
 20
45.731837838658457
 70
0
  0
VERTEX
  5
7593
  8
0
 62
7
 10
69.635435102306786
 20
45.858445097741424
 70
0
  0
SEQEND
  5
7594
  8
0
  0
POLYLINE
  5
6399
  8
0
 62
7
 66
1
 70
0
 10
0
 20
0
 30
0
  0
VERTEX
  5
7595
  8
0
 62
7
 10
70.440209407661143
 20
45.689118654641391
 70
0
  0
VERTEX
  5
7596
  8
0
 62
7
 10
70.39749022364407
 20
45.731837838658457
 70
0
  0
SEQEND
  5
7597
  8
0
  0
POLYLINE
  5
639D
  8
0
 62
7
 66
1
 70
0
 10
0
 20
0
 30
0
  0
VERTEX
  5
7598
  8
0
 62
7
 10
69.424595258609529
 20
45.731837838658457
 70
0
  0
VERTEX
  5
7599
  8
0
 62
7
 10
69.635435102306786
 20
45.689118654641391
 70
0
  0
SEQEND
  5
759A
  8
0
  0
POLYLINE
  5
63A1
  8
0
 62
7
 66
1
 70
0
 10
0
 20
0
 30
0
  0
VERTEX
  5
759B
  8
0
 62
7
 10
69.467314442626588
 20
45.731837838658457
 70
0
  0
VERTEX
  5
759C
  8
0
 62
7
 10
69.635435102306786
 20
45.689118654641391
 70
0
  0
SEQEND
  5
759D
  8
0
  0
POLYLINE
  5
63A5
  8
0
 62
7
 66
1
 70
0
 10
0
 20
0
 30
0
  0
VERTEX
  5
759E
  8
0
 62
7
 10
68.619820953255129
 20
45.3928404429099
 70
0
  0
VERTEX
  5
759F
  8
0
 62
7
 10
68.916099164986633
 20
45.308952367844007
 70
0
  0
SEQEND
  5
75A0
  8
0
  0
POLYLINE
  5
63A9
  8
0
 62
7
 66
1
 70
0
 10
0
 20
0
 30
0
  0
VERTEX
  5
75A1
  8
0
 62
7
 10
69.594093956483775
 20
46.87423150156728
 70
0
  0
VERTEX
  5
75A2
  8
0
 62
7
 10
69.551374772466687
 20
46.87423150156728
 70
0
  0
SEQEND
  5
75A3
  8
0
  0
POLYLINE
  5
709C
  8
0
 62
7
 66
1
 70
8
  0
VERTEX
  5
709D
  8
0
 62
7
 10
70.7365
 20
46.8742
 30
0
 70
32
  0
VERTEX
  5
709E
  8
0
 62
7
 10
70.7365
 20
46.8742
 30
0
 70
32
  0
VERTEX
  5
709F
  8
0
 62
7
 10
70.7365
 20
46.8742
 30
0
 70
32
  0
VERTEX
  5
70A0
  8
0
 62
7
 10
70.7366
 20
46.8742
 30
0
 70
32
  0
VERTEX
  5
70A1
  8
0
 62
7
 10
70.7366
 20
46.8742
 30
0
 70
32
  0
VERTEX
  5
70A2
  8
0
 62
7
 10
70.736699999999985
 20
46.8742
 30
0
 70
32
  0
VERTEX
  5
70A3
  8
0
 62
7
 10
70.7368
 20
46.8742
 30
0
 70
32
  0
VERTEX
  5
70A4
  8
0
 62
7
 10
70.737
 20
46.8742
 30
0
 70
32
  0
VERTEX
  5
70A5
  8
0
 62
7
 10
70.7371
 20
46.8742
 30
0
 70
32
  0
VERTEX
  5
70A6
  8
0
 62
7
 10
70.7373
 20
46.8742
 30
0
 70
32
  0
VERTEX
  5
70A7
  8
0
 62
7
 10
70.7375
 20
46.8742
 30
0
 70
32
  0
VERTEX
  5
70A8
  8
0
 62
7
 10
70.7377
 20
46.8742
 30
0
 70
32
  0
VERTEX
  5
70A9
  8
0
 62
7
 10
70.7379
 20
46.8742
 30
0
 70
32
  0
VERTEX
  5
70AA
  8
0
 62
7
 10
70.7381
 20
46.8742
 30
0
 70
32
  0
VERTEX
  5
70AB
  8
0
 62
7
 10
70.7383
 20
46.8742
 30
0
 70
32
  0
VERTEX
  5
70AC
  8
0
 62
7
 10
70.7386
 20
46.8742
 30
0
 70
32
  0
VERTEX
  5
70AD
  8
0
 62
7
 10
70.7389
 20
46.8742
 30
0
 70
32
  0
VERTEX
  5
70AE
  8
0
 62
7
 10
70.7392
 20
46.8742
 30
0
 70
32
  0
VERTEX
  5
70AF
  8
0
 62
7
 10
70.7395
 20
46.8742
 30
0
 70
32
  0
VERTEX
  5
70B0
  8
0
 62
7
 10
70.7398
 20
46.8742
 30
0
 70
32
  0
VERTEX
  5
70B1
  8
0
 62
7
 10
70.7401
 20
46.8742
 30
0
 70
32
  0
VERTEX
  5
70B2
  8
0
 62
7
 10
70.740499999999983
 20
46.8742
 30
0
 70
32
  0
VERTEX
  5
70B3
  8
0
 62
7
 10
70.7408
 20
46.8742
 30
0
 70
32
  0
VERTEX
  5
70B4
  8
0
 62
7
 10
70.7412
 20
46.8742
 30
0
 70
32
  0
VERTEX
  5
70B5
  8
0
 62
7
 10
70.7416
 20
46.8742
 30
0
 70
32
  0
VERTEX
  5
70B6
  8
0
 62
7
 10
70.742
 20
46.8742
 30
0
 70
32
  0
VERTEX
  5
70B7
  8
0
 62
7
 10
70.7424
 20
46.8742
 30
0
 70
32
  0
VERTEX
  5
70B8
  8
0
 62
7
 10
70.7428
 20
46.8742
 30
0
 70
32
  0
VERTEX
  5
70B9
  8
0
 62
7
 10
70.7432
 20
46.8742
 30
0
 70
32
  0
VERTEX
  5
70BA
  8
0
 62
7
 10
70.7437
 20
46.8742
 30
0
 70
32
  0
VERTEX
  5
70BB
  8
0
 62
7
 10
70.7441
 20
46.8742
 30
0
 70
32
  0
VERTEX
  5
70BC
  8
0
 62
7
 10
70.7446
 20
46.8742
 30
0
 70
32
  0
VERTEX
  5
70BD
  8
0
 62
7
 10
70.745
 20
46.8742
 30
0
 70
32
  0
VERTEX
  5
70BE
  8
0
 62
7
 10
70.7455
 20
46.8742
 30
0
 70
32
  0
VERTEX
  5
70BF
  8
0
 62
7
 10
70.746
 20
46.8742
 30
0
 70
32
  0
VERTEX
  5
70C0
  8
0
 62
7
 10
70.7465
 20
46.8742
 30
0
 70
32
  0
VERTEX
  5
70C1
  8
0
 62
7
 10
70.746999999999986
 20
46.8742
 30
0
 70
32
  0
VERTEX
  5
70C2
  8
0
 62
7
 10
70.7475
 20
46.8742
 30
0
 70
32
  0
VERTEX
  5
70C3
  8
0
 62
7
 10
70.748
 20
46.8742
 30
0
 70
32
  0
VERTEX
  5
70C4
  8
0
 62
7
 10
70.7485
 20
46.8742
 30
0
 70
32
  0
VERTEX
  5
70C5
  8
0
 62
7
 10
70.749
 20
46.8742
 30
0
 70
32
  0
VERTEX
  5
70C6
  8
0
 62
7
 10
70.7496
 20
46.8742
 30
0
 70
32
  0
VERTEX
  5
70C7
  8
0
 62
7
 10
70.7501
 20
46.8742
 30
0
 70
32
  0
VERTEX
  5
70C8
  8
0
 62
7
 10
70.7506
 20
46.8742
 30
0
 70
32
  0
VERTEX
  5
70C9
  8
0
 62
7
 10
70.7512
 20
46.8742
 30
0
 70
32
  0
VERTEX
  5
70CA
  8
0
 62
7
 10
70.751699999999985
 20
46.8742
 30
0
 70
32
  0
VERTEX
  5
70CB
  8
0
 62
7
 10
70.7523
 20
46.8742
 30
0
 70
32
  0
VERTEX
  5
70CC
  8
0
 62
7
 10
70.7529
 20
46.8742
 30
0
 70
32
  0
VERTEX
  5
70CD
  8
0
 62
7
 10
70.7534
 20
46.8742
 30
0
 70
32
  0
VERTEX
  5
70CE
  8
0
 62
7
 10
70.754
 20
46.8742
 30
0
 70
32
  0
VERTEX
  5
70CF
  8
0
 62
7
 10
70.7546
 20
46.8742
 30
0
 70
32
  0
VERTEX
  5
70D0
  8
0
 62
7
 10
70.7551
 20
46.8742
 30
0
 70
32
  0
VERTEX
  5
70D1
  8
0
 62
7
 10
70.7557
 20
46.8742
 30
0
 70
32
  0
VERTEX
  5
70D2
  8
0
 62
7
 10
70.7563
 20
46.8742
 30
0
 70
32
  0
VERTEX
  5
70D3
  8
0
 62
7
 10
70.7568
 20
46.8742
 30
0
 70
32
  0
VERTEX
  5
70D4
  8
0
 62
7
 10
70.7574
 20
46.8742
 30
0
 70
32
  0
VERTEX
  5
70D5
  8
0
 62
7
 10
70.758
 20
46.8742
 30
0
 70
32
  0
VERTEX
  5
70D6
  8
0
 62
7
 10
70.7586
 20
46.8742
 30
0
 70
32
  0
VERTEX
  5
70D7
  8
0
 62
7
 10
70.7591
 20
46.8742
 30
0
 70
32
  0
VERTEX
  5
70D8
  8
0
 62
7
 10
70.7597
 20
46.8742
 30
0
 70
32
  0
VERTEX
  5
70D9
  8
0
 62
7
 10
70.7603
 20
46.8742
 30
0
 70
32
  0
VERTEX
  5
70DA
  8
0
 62
7
 10
70.7609
 20
46.8742
 30
0
 70
32
  0
VERTEX
  5
70DB
  8
0
 62
7
 10
70.7614
 20
46.8742
 30
0
 70
32
  0
VERTEX
  5
70DC
  8
0
 62
7
 10
70.762
 20
46.8742
 30
0
 70
32
  0
VERTEX
  5
70DD
  8
0
 62
7
 10
70.7626
 20
46.8742
 30
0
 70
32
  0
VERTEX
  5
70DE
  8
0
 62
7
 10
70.7631
 20
46.8742
 30
0
 70
32
  0
VERTEX
  5
70DF
  8
0
 62
7
 10
70.7637
 20
46.8742
 30
0
 70
32
  0
VERTEX
  5
70E0
  8
0
 62
7
 10
70.7642
 20
46.8742
 30
0
 70
32
  0
VERTEX
  5
70E1
  8
0
 62
7
 10
70.7648
 20
46.8742
 30
0
 70
32
  0
VERTEX
  5
70E2
  8
0
 62
7
 10
70.7653
 20
46.8742
 30
0
 70
32
  0
VERTEX
  5
70E3
  8
0
 62
7
 10
70.7659
 20
46.8742
 30
0
 70
32
  0
VERTEX
  5
70E4
  8
0
 62
7
 10
70.7664
 20
46.8742
 30
0
 70
32
  0
VERTEX
  5
70E5
  8
0
 62
7
 10
70.7669
 20
46.8742
 30
0
 70
32
  0
VERTEX
  5
70E6
  8
0
 62
7
 10
70.7674
 20
46.8742
 30
0
 70
32
  0
VERTEX
  5
70E7
  8
0
 62
7
 10
70.768
 20
46.8742
 30
0
 70
32
  0
VERTEX
  5
70E8
  8
0
 62
7
 10
70.7685
 20
46.8742
 30
0
 70
32
  0
VERTEX
  5
70E9
  8
0
 62
7
 10
70.769
 20
46.8742
 30
0
 70
32
  0
VERTEX
  5
70EA
  8
0
 62
7
 10
70.7695
 20
46.8742
 30
0
 70
32
  0
VERTEX
  5
70EB
  8
0
 62
7
 10
70.77
 20
46.8742
 30
0
 70
32
  0
VERTEX
  5
70EC
  8
0
 62
7
 10
70.7704
 20
46.8742
 30
0
 70
32
  0
VERTEX
  5
70ED
  8
0
 62
7
 10
70.7709
 20
46.8742
 30
0
 70
32
  0
VERTEX
  5
70EE
  8
0
 62
7
 10
70.771399999999986
 20
46.8742
 30
0
 70
32
  0
VERTEX
  5
70EF
  8
0
 62
7
 10
70.7718
 20
46.8742
 30
0
 70
32
  0
VERTEX
  5
70F0
  8
0
 62
7
 10
70.7723
 20
46.8742
 30
0
 70
32
  0
VERTEX
  5
70F1
  8
0
 62
7
 10
70.7727
 20
46.8742
 30
0
 70
32
  0
VERTEX
  5
70F2
  8
0
 62
7
 10
70.7731
 20
46.8742
 30
0
 70
32
  0
VERTEX
  5
70F3
  8
0
 62
7
 10
70.7735
 20
46.8742
 30
0
 70
32
  0
VERTEX
  5
70F4
  8
0
 62
7
 10
70.7739
 20
46.8742
 30
0
 70
32
  0
VERTEX
  5
70F5
  8
0
 62
7
 10
70.7743
 20
46.8742
 30
0
 70
32
  0
VERTEX
  5
70F6
  8
0
 62
7
 10
70.7747
 20
46.8742
 30
0
 70
32
  0
VERTEX
  5
70F7
  8
0
 62
7
 10
70.7751
 20
46.8742
 30
0
 70
32
  0
VERTEX
  5
70F8
  8
0
 62
7
 10
70.7754
 20
46.8742
 30
0
 70
32
  0
VERTEX
  5
70F9
  8
0
 62
7
 10
70.7757
 20
46.8742
 30
0
 70
32
  0
VERTEX
  5
70FA
  8
0
 62
7
 10
70.776099999999985
 20
46.8742
 30
0
 70
32
  0
VERTEX
  5
70FB
  8
0
 62
7
 10
70.7764
 20
46.8742
 30
0
 70
32
  0
VERTEX
  5
70FC
  8
0
 62
7
 10
70.7767
 20
46.8742
 30
0
 70
32
  0
VERTEX
  5
70FD
  8
0
 62
7
 10
70.777
 20
46.8742
 30
0
 70
32
  0
VERTEX
  5
70FE
  8
0
 62
7
 10
70.7772
 20
46.8742
 30
0
 70
32
  0
VERTEX
  5
70FF
  8
0
 62
7
 10
70.7775
 20
46.8742
 30
0
 70
32
  0
VERTEX
  5
7100
  8
0
 62
7
 10
70.7777
 20
46.8742
 30
0
 70
32
  0
VERTEX
  5
7101
  8
0
 62
7
 10
70.7779
 20
46.8742
 30
0
 70
32
  0
VERTEX
  5
7102
  8
0
 62
7
 10
70.7781
 20
46.8742
 30
0
 70
32
  0
VERTEX
  5
7103
  8
0
 62
7
 10
70.7783
 20
46.8742
 30
0
 70
32
  0
VERTEX
  5
7104
  8
0
 62
7
 10
70.7785
 20
46.8742
 30
0
 70
32
  0
VERTEX
  5
7105
  8
0
 62
7
 10
70.7787
 20
46.8742
 30
0
 70
32
  0
VERTEX
  5
7106
  8
0
 62
7
 10
70.7788
 20
46.8742
 30
0
 70
32
  0
VERTEX
  5
7107
  8
0
 62
7
 10
70.7789
 20
46.8742
 30
0
 70
32
  0
VERTEX
  5
7108
  8
0
 62
7
 10
70.779
 20
46.8742
 30
0
 70
32
  0
VERTEX
  5
7109
  8
0
 62
7
 10
70.7791
 20
46.8742
 30
0
 70
32
  0
VERTEX
  5
710A
  8
0
 62
7
 10
70.7791
 20
46.8742
 30
0
 70
32
  0
VERTEX
  5
710B
  8
0
 62
7
 10
70.7792
 20
46.8742
 30
0
 70
32
  0
VERTEX
  5
710C
  8
0
 62
7
 10
70.7792
 20
46.8742
 30
0
 70
32
  0
VERTEX
  5
710D
  8
0
 62
7
 10
70.7792
 20
46.8742
 30
0
 70
32
  0
VERTEX
  5
710E
  8
0
 62
7
 10
70.7792
 20
46.8742
 30
0
 70
32
  0
VERTEX
  5
710F
  8
0
 62
7
 10
70.7791
 20
46.8742
 30
0
 70
32
  0
VERTEX
  5
7110
  8
0
 62
7
 10
70.7791
 20
46.8742
 30
0
 70
32
  0
VERTEX
  5
7111
  8
0
 62
7
 10
70.779
 20
46.8742
 30
0
 70
32
  0
VERTEX
  5
7112
  8
0
 62
7
 10
70.7789
 20
46.8742
 30
0
 70
32
  0
VERTEX
  5
7113
  8
0
 62
7
 10
70.7788
 20
46.8742
 30
0
 70
32
  0
VERTEX
  5
7114
  8
0
 62
7
 10
70.7787
 20
46.8742
 30
0
 70
32
  0
VERTEX
  5
7115
  8
0
 62
7
 10
70.7785
 20
46.8742
 30
0
 70
32
  0
VERTEX
  5
7116
  8
0
 62
7
 10
70.7783
 20
46.8742
 30
0
 70
32
  0
VERTEX
  5
7117
  8
0
 62
7
 10
70.7781
 20
46.8742
 30
0
 70
32
  0
VERTEX
  5
7118
  8
0
 62
7
 10
70.7779
 20
46.8742
 30
0
 70
32
  0
VERTEX
  5
7119
  8
0
 62
7
 10
70.7777
 20
46.8742
 30
0
 70
32
  0
VERTEX
  5
711A
  8
0
 62
7
 10
70.7775
 20
46.8742
 30
0
 70
32
  0
VERTEX
  5
711B
  8
0
 62
7
 10
70.7772
 20
46.8742
 30
0
 70
32
  0
VERTEX
  5
711C
  8
0
 62
7
 10
70.777
 20
46.8742
 30
0
 70
32
  0
VERTEX
  5
711D
  8
0
 62
7
 10
70.7767
 20
46.8742
 30
0
 70
32
  0
VERTEX
  5
711E
  8
0
 62
7
 10
70.7764
 20
46.8742
 30
0
 70
32
  0
VERTEX
  5
711F
  8
0
 62
7
 10
70.776099999999985
 20
46.8742
 30
0
 70
32
  0
VERTEX
  5
7120
  8
0
 62
7
 10
70.7757
 20
46.8742
 30
0
 70
32
  0
VERTEX
  5
7121
  8
0
 62
7
 10
70.7754
 20
46.8742
 30
0
 70
32
  0
VERTEX
  5
7122
  8
0
 62
7
 10
70.7751
 20
46.8742
 30
0
 70
32
  0
VERTEX
  5
7123
  8
0
 62
7
 10
70.7747
 20
46.8742
 30
0
 70
32
  0
VERTEX
  5
7124
  8
0
 62
7
 10
70.7743
 20
46.8742
 30
0
 70
32
  0
VERTEX
  5
7125
  8
0
 62
7
 10
70.7739
 20
46.8742
 30
0
 70
32
  0
VERTEX
  5
7126
  8
0
 62
7
 10
70.7735
 20
46.8742
 30
0
 70
32
  0
VERTEX
  5
7127
  8
0
 62
7
 10
70.7731
 20
46.8742
 30
0
 70
32
  0
VERTEX
  5
7128
  8
0
 62
7
 10
70.7727
 20
46.8742
 30
0
 70
32
  0
VERTEX
  5
7129
  8
0
 62
7
 10
70.7723
 20
46.8742
 30
0
 70
32
  0
VERTEX
  5
712A
  8
0
 62
7
 10
70.7718
 20
46.8742
 30
0
 70
32
  0
VERTEX
  5
712B
  8
0
 62
7
 10
70.771399999999986
 20
46.8742
 30
0
 70
32
  0
VERTEX
  5
712C
  8
0
 62
7
 10
70.7709
 20
46.8742
 30
0
 70
32
  0
VERTEX
  5
712D
  8
0
 62
7
 10
70.7704
 20
46.8742
 30
0
 70
32
  0
VERTEX
  5
712E
  8
0
 62
7
 10
70.77
 20
46.8742
 30
0
 70
32
  0
VERTEX
  5
712F
  8
0
 62
7
 10
70.7695
 20
46.8742
 30
0
 70
32
  0
VERTEX
  5
7130
  8
0
 62
7
 10
70.769
 20
46.8742
 30
0
 70
32
  0
VERTEX
  5
7131
  8
0
 62
7
 10
70.7685
 20
46.8742
 30
0
 70
32
  0
VERTEX
  5
7132
  8
0
 62
7
 10
70.768
 20
46.8742
 30
0
 70
32
  0
VERTEX
  5
7133
  8
0
 62
7
 10
70.7674
 20
46.8742
 30
0
 70
32
  0
VERTEX
  5
7134
  8
0
 62
7
 10
70.7669
 20
46.8742
 30
0
 70
32
  0
VERTEX
  5
7135
  8
0
 62
7
 10
70.7664
 20
46.8742
 30
0
 70
32
  0
VERTEX
  5
7136
  8
0
 62
7
 10
70.7659
 20
46.8742
 30
0
 70
32
  0
VERTEX
  5
7137
  8
0
 62
7
 10
70.7653
 20
46.8742
 30
0
 70
32
  0
VERTEX
  5
7138
  8
0
 62
7
 10
70.7648
 20
46.8742
 30
0
 70
32
  0
VERTEX
  5
7139
  8
0
 62
7
 10
70.7642
 20
46.8742
 30
0
 70
32
  0
VERTEX
  5
713A
  8
0
 62
7
 10
70.7637
 20
46.8742
 30
0
 70
32
  0
VERTEX
  5
713B
  8
0
 62
7
 10
70.7631
 20
46.8742
 30
0
 70
32
  0
VERTEX
  5
713C
  8
0
 62
7
 10
70.7626
 20
46.8742
 30
0
 70
32
  0
VERTEX
  5
713D
  8
0
 62
7
 10
70.762
 20
46.8742
 30
0
 70
32
  0
VERTEX
  5
713E
  8
0
 62
7
 10
70.7614
 20
46.8742
 30
0
 70
32
  0
VERTEX
  5
713F
  8
0
 62
7
 10
70.7609
 20
46.8742
 30
0
 70
32
  0
VERTEX
  5
7140
  8
0
 62
7
 10
70.7603
 20
46.8742
 30
0
 70
32
  0
VERTEX
  5
7141
  8
0
 62
7
 10
70.7597
 20
46.8742
 30
0
 70
32
  0
VERTEX
  5
7142
  8
0
 62
7
 10
70.7591
 20
46.8742
 30
0
 70
32
  0
VERTEX
  5
7143
  8
0
 62
7
 10
70.7586
 20
46.8742
 30
0
 70
32
  0
VERTEX
  5
7144
  8
0
 62
7
 10
70.758
 20
46.8742
 30
0
 70
32
  0
VERTEX
  5
7145
  8
0
 62
7
 10
70.7574
 20
46.8742
 30
0
 70
32
  0
VERTEX
  5
7146
  8
0
 62
7
 10
70.7568
 20
46.8742
 30
0
 70
32
  0
VERTEX
  5
7147
  8
0
 62
7
 10
70.7563
 20
46.8742
 30
0
 70
32
  0
VERTEX
  5
7148
  8
0
 62
7
 10
70.7557
 20
46.8742
 30
0
 70
32
  0
VERTEX
  5
7149
  8
0
 62
7
 10
70.7551
 20
46.8742
 30
0
 70
32
  0
VERTEX
  5
714A
  8
0
 62
7
 10
70.7546
 20
46.8742
 30
0
 70
32
  0
VERTEX
  5
714B
  8
0
 62
7
 10
70.754
 20
46.8742
 30
0
 70
32
  0
VERTEX
  5
714C
  8
0
 62
7
 10
70.7534
 20
46.8742
 30
0
 70
32
  0
VERTEX
  5
714D
  8
0
 62
7
 10
70.7529
 20
46.8742
 30
0
 70
32
  0
VERTEX
  5
714E
  8
0
 62
7
 10
70.7523
 20
46.8742
 30
0
 70
32
  0
VERTEX
  5
714F
  8
0
 62
7
 10
70.751699999999985
 20
46.8742
 30
0
 70
32
  0
VERTEX
  5
7150
  8
0
 62
7
 10
70.7512
 20
46.8742
 30
0
 70
32
  0
VERTEX
  5
7151
  8
0
 62
7
 10
70.7506
 20
46.8742
 30
0
 70
32
  0
VERTEX
  5
7152
  8
0
 62
7
 10
70.7501
 20
46.8742
 30
0
 70
32
  0
VERTEX
  5
7153
  8
0
 62
7
 10
70.7496
 20
46.8742
 30
0
 70
32
  0
VERTEX
  5
7154
  8
0
 62
7
 10
70.749
 20
46.8742
 30
0
 70
32
  0
VERTEX
  5
7155
  8
0
 62
7
 10
70.7485
 20
46.8742
 30
0
 70
32
  0
VERTEX
  5
7156
  8
0
 62
7
 10
70.748
 20
46.8742
 30
0
 70
32
  0
VERTEX
  5
7157
  8
0
 62
7
 10
70.7475
 20
46.8742
 30
0
 70
32
  0
VERTEX
  5
7158
  8
0
 62
7
 10
70.746999999999986
 20
46.8742
 30
0
 70
32
  0
VERTEX
  5
7159
  8
0
 62
7
 10
70.7465
 20
46.8742
 30
0
 70
32
  0
VERTEX
  5
715A
  8
0
 62
7
 10
70.746
 20
46.8742
 30
0
 70
32
  0
VERTEX
  5
715B
  8
0
 62
7
 10
70.7455
 20
46.8742
 30
0
 70
32
  0
VERTEX
  5
715C
  8
0
 62
7
 10
70.745
 20
46.8742
 30
0
 70
32
  0
VERTEX
  5
715D
  8
0
 62
7
 10
70.7446
 20
46.8742
 30
0
 70
32
  0
VERTEX
  5
715E
  8
0
 62
7
 10
70.7441
 20
46.8742
 30
0
 70
32
  0
VERTEX
  5
715F
  8
0
 62
7
 10
70.7437
 20
46.8742
 30
0
 70
32
  0
VERTEX
  5
7160
  8
0
 62
7
 10
70.7432
 20
46.8742
 30
0
 70
32
  0
VERTEX
  5
7161
  8
0
 62
7
 10
70.7428
 20
46.8742
 30
0
 70
32
  0
VERTEX
  5
7162
  8
0
 62
7
 10
70.7424
 20
46.8742
 30
0
 70
32
  0
VERTEX
  5
7163
  8
0
 62
7
 10
70.742
 20
46.8742
 30
0
 70
32
  0
VERTEX
  5
7164
  8
0
 62
7
 10
70.7416
 20
46.8742
 30
0
 70
32
  0
VERTEX
  5
7165
  8
0
 62
7
 10
70.7412
 20
46.8742
 30
0
 70
32
  0
VERTEX
  5
7166
  8
0
 62
7
 10
70.7408
 20
46.8742
 30
0
 70
32
  0
VERTEX
  5
7167
  8
0
 62
7
 10
70.740499999999983
 20
46.8742
 30
0
 70
32
  0
VERTEX
  5
7168
  8
0
 62
7
 10
70.7401
 20
46.8742
 30
0
 70
32
  0
VERTEX
  5
7169
  8
0
 62
7
 10
70.7398
 20
46.8742
 30
0
 70
32
  0
VERTEX
  5
716A
  8
0
 62
7
 10
70.7395
 20
46.8742
 30
0
 70
32
  0
VERTEX
  5
716B
  8
0
 62
7
 10
70.7392
 20
46.8742
 30
0
 70
32
  0
VERTEX
  5
716C
  8
0
 62
7
 10
70.7389
 20
46.8742
 30
0
 70
32
  0
VERTEX
  5
716D
  8
0
 62
7
 10
70.7386
 20
46.8742
 30
0
 70
32
  0
VERTEX
  5
716E
  8
0
 62
7
 10
70.7383
 20
46.8742
 30
0
 70
32
  0
VERTEX
  5
716F
  8
0
 62
7
 10
70.7381
 20
46.8742
 30
0
 70
32
  0
VERTEX
  5
7170
  8
0
 62
7
 10
70.7379
 20
46.8742
 30
0
 70
32
  0
VERTEX
  5
7171
  8
0
 62
7
 10
70.7377
 20
46.8742
 30
0
 70
32
  0
VERTEX
  5
7172
  8
0
 62
7
 10
70.7375
 20
46.8742
 30
0
 70
32
  0
VERTEX
  5
7173
  8
0
 62
7
 10
70.7373
 20
46.8742
 30
0
 70
32
  0
VERTEX
  5
7174
  8
0
 62
7
 10
70.7371
 20
46.8742
 30
0
 70
32
  0
VERTEX
  5
7175
  8
0
 62
7
 10
70.737
 20
46.8742
 30
0
 70
32
  0
VERTEX
  5
7176
  8
0
 62
7
 10
70.7368
 20
46.8742
 30
0
 70
32
  0
VERTEX
  5
7177
  8
0
 62
7
 10
70.736699999999985
 20
46.8742
 30
0
 70
32
  0
VERTEX
  5
7178
  8
0
 62
7
 10
70.7366
 20
46.8742
 30
0
 70
32
  0
VERTEX
  5
7179
  8
0
 62
7
 10
70.7366
 20
46.8742
 30
0
 70
32
  0
VERTEX
  5
717A
  8
0
 62
7
 10
70.7365
 20
46.8742
 30
0
 70
32
  0
VERTEX
  5
717B
  8
0
 62
7
 10
70.7365
 20
46.8742
 30
0
 70
32
  0
VERTEX
  5
717C
  8
0
 62
7
 10
70.7365
 20
46.8742
 30
0
 70
32
  0
SEQEND
  5
717D
  8
0
  0
POLYLINE
  5
63AE
  8
0
 62
7
 66
1
 70
0
 10
0
 20
0
 30
0
  0
VERTEX
  5
75A4
  8
0
 62
7
 10
23.792238499184261
 20
56.736850856740553
 70
0
  0
VERTEX
  5
75A5
  8
0
 62
7
 10
22.184067926669631
 20
57.075848252489152
 70
0
  0
SEQEND
  5
75A6
  8
0
  0
POLYLINE
  5
63B2
  8
0
 62
7
 66
1
 70
0
 10
0
 20
0
 30
0
  0
VERTEX
  5
75A7
  8
0
 62
7
 10
71.075485015141226
 20
47.086449383458721
 70
0
  0
VERTEX
  5
75A8
  8
0
 62
7
 10
72.683655587655863
 20
46.747451987710107
 70
0
  0
SEQEND
  5
75A9
  8
0
  0
POLYLINE
  5
63B6
  8
0
 62
7
 66
1
 70
0
 10
0
 20
0
 30
0
  0
VERTEX
  5
75AA
  8
0
 62
7
 10
71.286324858838526
 20
49.033445096947673
 70
0
  0
VERTEX
  5
75AB
  8
0
 62
7
 10
24.088516710915741
 20
58.684018825003747
 70
0
  0
SEQEND
  5
75AC
  8
0
  0
POLYLINE
  5
63BA
  8
0
 62
7
 66
1
 70
0
 10
0
 20
0
 30
0
  0
VERTEX
  5
75AD
  8
0
 62
7
 10
69.255096560735211
 20
48.86411865384764
 70
0
  0
VERTEX
  5
75AE
  8
0
 62
7
 10
69.594093956483775
 20
48.990898167704813
 70
0
  0
SEQEND
  5
75AF
  8
0
  0
POLYLINE
  5
63BE
  8
0
 62
7
 66
1
 70
0
 10
0
 20
0
 30
0
  0
VERTEX
  5
75B0
  8
0
 62
7
 10
69.424595258609529
 20
48.102235787284613
 70
0
  0
VERTEX
  5
75B1
  8
0
 62
7
 10
69.255096560735211
 20
48.016452909701911
 70
0
  0
SEQEND
  5
75B2
  8
0
  0
POLYLINE
  5
63C2
  8
0
 62
7
 66
1
 70
0
 10
0
 20
0
 30
0
  0
VERTEX
  5
75B3
  8
0
 62
7
 10
69.763592654358092
 20
47.763238391536042
 70
0
  0
VERTEX
  5
75B4
  8
0
 62
7
 10
69.763592654358092
 20
47.763238391536042
 70
0
  0
SEQEND
  5
75B5
  8
0
  0
POLYLINE
  5
63C6
  8
0
 62
7
 66
1
 70
0
 10
0
 20
0
 30
0
  0
VERTEX
  5
75B6
  8
0
 62
7
 10
69.72087347034099
 20
47.763238391536042
 70
0
  0
VERTEX
  5
75B7
  8
0
 62
7
 10
69.678154286323888
 20
47.763238391536042
 70
0
  0
SEQEND
  5
75B8
  8
0
  0
POLYLINE
  5
63CA
  8
0
 62
7
 66
1
 70
0
 10
0
 20
0
 30
0
  0
VERTEX
  5
75B9
  8
0
 62
7
 10
69.678154286323888
 20
47.636114368130322
 70
0
  0
VERTEX
  5
75BA
  8
0
 62
7
 10
69.424595258609529
 20
47.5522262930645
 70
0
  0
SEQEND
  5
75BB
  8
0
  0
POLYLINE
  5
63CE
  8
0
 62
7
 66
1
 70
0
 10
0
 20
0
 30
0
  0
VERTEX
  5
75BC
  8
0
 62
7
 10
69.763592654358092
 20
47.593567438887462
 70
0
  0
VERTEX
  5
75BD
  8
0
 62
7
 10
69.467314442626588
 20
47.466787925030289
 70
0
  0
SEQEND
  5
75BE
  8
0
  0
POLYLINE
  5
63D2
  8
0
 62
7
 66
1
 70
0
 10
0
 20
0
 30
0
  0
VERTEX
  5
75BF
  8
0
 62
7
 10
69.635435102306786
 20
46.916778430810147
 70
0
  0
VERTEX
  5
75C0
  8
0
 62
7
 10
69.678154286323888
 20
46.958119576633123
 70
0
  0
SEQEND
  5
75C1
  8
0
  0
POLYLINE
  5
63D6
  8
0
 62
7
 66
1
 70
0
 10
0
 20
0
 30
0
  0
VERTEX
  5
75C2
  8
0
 62
7
 10
70.270710709786869
 20
47.170509713298813
 70
0
  0
VERTEX
  5
75C3
  8
0
 62
7
 10
70.313429893803971
 20
47.2132288973159
 70
0
  0
SEQEND
  5
75C4
  8
0
  0
POLYLINE
  5
63DA
  8
0
 62
7
 66
1
 70
0
 10
0
 20
0
 30
0
  0
VERTEX
  5
75C5
  8
0
 62
7
 10
69.467314442626588
 20
46.831512317550207
 70
0
  0
VERTEX
  5
75C6
  8
0
 62
7
 10
69.594093956483775
 20
46.87423150156728
 70
0
  0
SEQEND
  5
75C7
  8
0
  0
POLYLINE
  5
63DE
  8
0
 62
7
 66
1
 70
0
 10
0
 20
0
 30
0
  0
VERTEX
  5
75C8
  8
0
 62
7
 10
69.467314442626588
 20
46.790171171727181
 70
0
  0
VERTEX
  5
75C9
  8
0
 62
7
 10
69.594093956483775
 20
46.831512317550207
 70
0
  0
SEQEND
  5
75CA
  8
0
  0
POLYLINE
  5
63E2
  8
0
 62
7
 66
1
 70
0
 10
0
 20
0
 30
0
  0
VERTEX
  5
75CB
  8
0
 62
7
 10
69.508655588449628
 20
46.747451987710107
 70
0
  0
VERTEX
  5
75CC
  8
0
 62
7
 10
69.594093956483775
 20
46.790171171727181
 70
0
  0
SEQEND
  5
75CD
  8
0
  0
POLYLINE
  5
63E6
  8
0
 62
7
 66
1
 70
0
 10
0
 20
0
 30
0
  0
VERTEX
  5
75CE
  8
0
 62
7
 10
69.678154286323888
 20
46.790171171727181
 70
0
  0
VERTEX
  5
75CF
  8
0
 62
7
 10
69.763592654358092
 20
46.831512317550207
 70
0
  0
SEQEND
  5
75D0
  8
0
  0
POLYLINE
  5
63EA
  8
0
 62
7
 66
1
 70
0
 10
0
 20
0
 30
0
  0
VERTEX
  5
75D1
  8
0
 62
7
 10
70.356149077821073
 20
47.086449383458721
 70
0
  0
VERTEX
  5
75D2
  8
0
 62
7
 10
70.39749022364407
 20
47.086449383458721
 70
0
  0
SEQEND
  5
75D3
  8
0
  0
POLYLINE
  5
63EE
  8
0
 62
7
 66
1
 70
0
 10
0
 20
0
 30
0
  0
VERTEX
  5
75D4
  8
0
 62
7
 10
69.678154286323888
 20
46.4938929599957
 70
0
  0
VERTEX
  5
75D5
  8
0
 62
7
 10
69.763592654358092
 20
46.53506185104446
 70
0
  0
SEQEND
  5
75D6
  8
0
  0
POLYLINE
  5
63F2
  8
0
 62
7
 66
1
 70
0
 10
0
 20
0
 30
0
  0
VERTEX
  5
75D7
  8
0
 62
7
 10
69.0855978628609
 20
46.15489556424717
 70
0
  0
VERTEX
  5
75D8
  8
0
 62
7
 10
69.678154286323888
 20
46.365735407944442
 70
0
  0
SEQEND
  5
75D9
  8
0
  0
POLYLINE
  5
63F6
  8
0
 62
7
 66
1
 70
0
 10
0
 20
0
 30
0
  0
VERTEX
  5
75DA
  8
0
 62
7
 10
69.12831704687801
 20
46.112176380230039
 70
0
  0
VERTEX
  5
75DB
  8
0
 62
7
 10
69.72087347034099
 20
46.324566516895679
 70
0
  0
SEQEND
  5
75DC
  8
0
  0
POLYLINE
  5
63FA
  8
0
 62
7
 66
1
 70
0
 10
0
 20
0
 30
0
  0
VERTEX
  5
75DD
  8
0
 62
7
 10
68.577101769238055
 20
45.435559626926967
 70
0
  0
VERTEX
  5
75DE
  8
0
 62
7
 10
69.424595258609529
 20
45.815898168498563
 70
0
  0
SEQEND
  5
75DF
  8
0
  0
POLYLINE
  5
63FE
  8
0
 62
7
 66
1
 70
0
 10
0
 20
0
 30
0
  0
VERTEX
  5
75E0
  8
0
 62
7
 10
68.619820953255129
 20
45.3928404429099
 70
0
  0
VERTEX
  5
75E1
  8
0
 62
7
 10
69.424595258609529
 20
45.731837838658457
 70
0
  0
SEQEND
  5
75E2
  8
0
  0
POLYLINE
  5
6402
  8
0
 62
7
 66
1
 70
0
 10
0
 20
0
 30
0
  0
VERTEX
  5
75E3
  8
0
 62
7
 10
69.635435102306786
 20
45.689118654641391
 70
0
  0
VERTEX
  5
75E4
  8
0
 62
7
 10
69.551374772466687
 20
45.689118654641391
 70
0
  0
SEQEND
  5
75E5
  8
0
  0
POLYLINE
  5
6406
  8
0
 62
7
 66
1
 70
0
 10
0
 20
0
 30
0
  0
VERTEX
  5
75E6
  8
0
 62
7
 10
69.678154286323888
 20
45.64657172539853
 70
0
  0
VERTEX
  5
75E7
  8
0
 62
7
 10
69.594093956483775
 20
45.60523057957554
 70
0
  0
SEQEND
  5
75E8
  8
0
  0
POLYLINE
  5
640A
  8
0
 62
7
 66
1
 70
0
 10
0
 20
0
 30
0
  0
VERTEX
  5
75E9
  8
0
 62
7
 10
67.138429894597721
 20
42.260559627720731
 70
0
  0
VERTEX
  5
75EA
  8
0
 62
7
 10
70.821925987426823
 20
43.784497615620957
 70
0
  0
SEQEND
  5
75EB
  8
0
  0
POLYLINE
  5
640E
  8
0
 62
7
 66
1
 70
0
 10
0
 20
0
 30
0
  0
VERTEX
  5
75EC
  8
0
 62
7
 10
69.763592654358092
 20
46.4084545919615
 70
0
  0
VERTEX
  5
75ED
  8
0
 62
7
 10
69.763592654358092
 20
46.4084545919615
 70
0
  0
SEQEND
  5
75EE
  8
0
  0
POLYLINE
  5
6412
  8
0
 62
7
 66
1
 70
0
 10
0
 20
0
 30
0
  0
VERTEX
  5
75EF
  8
0
 62
7
 10
70.77920680340975
 20
47.424068741013173
 70
0
  0
VERTEX
  5
75F0
  8
0
 62
7
 10
70.736487619392634
 20
47.382899849964467
 70
0
  0
SEQEND
  5
75F1
  8
0
  0
POLYLINE
  5
6416
  8
0
 62
7
 66
1
 70
0
 10
0
 20
0
 30
0
  0
VERTEX
  5
75F2
  8
0
 62
7
 10
70.77920680340975
 20
47.382899849964467
 70
0
  0
VERTEX
  5
75F3
  8
0
 62
7
 10
70.736487619392634
 20
47.382899849964467
 70
0
  0
SEQEND
  5
75F4
  8
0
  0
POLYLINE
  5
641A
  8
0
 62
7
 66
1
 70
0
 10
0
 20
0
 30
0
  0
VERTEX
  5
75F5
  8
0
 62
7
 10
69.424595258609529
 20
45.815898168498563
 70
0
  0
VERTEX
  5
75F6
  8
0
 62
7
 10
69.594093956483775
 20
45.94284993713
 70
0
  0
SEQEND
  5
75F7
  8
0
  0
POLYLINE
  5
641E
  8
0
 62
7
 66
1
 70
0
 10
0
 20
0
 30
0
  0
VERTEX
  5
75F8
  8
0
 62
7
 10
69.467314442626588
 20
45.731837838658457
 70
0
  0
VERTEX
  5
75F9
  8
0
 62
7
 10
69.635435102306786
 20
45.858445097741424
 70
0
  0
SEQEND
  5
75FA
  8
0
  0
POLYLINE
  5
6422
  8
0
 62
7
 66
1
 70
0
 10
0
 20
0
 30
0
  0
VERTEX
  5
75FB
  8
0
 62
7
 10
69.678154286323888
 20
45.77317898448149
 70
0
  0
VERTEX
  5
75FC
  8
0
 62
7
 10
69.635435102306786
 20
45.689118654641391
 70
0
  0
SEQEND
  5
75FD
  8
0
  0
POLYLINE
  5
6426
  8
0
 62
7
 66
1
 70
0
 10
0
 20
0
 30
0
  0
VERTEX
  5
75FE
  8
0
 62
7
 10
69.763592654358092
 20
45.689118654641391
 70
0
  0
VERTEX
  5
75FF
  8
0
 62
7
 10
69.678154286323888
 20
45.646399470624253
 70
0
  0
SEQEND
  5
7600
  8
0
  0
POLYLINE
  5
642A
  8
0
 62
7
 66
1
 70
0
 10
0
 20
0
 30
0
  0
VERTEX
  5
7601
  8
0
 62
7
 10
70.10121201191258
 20
45.689118654641391
 70
0
  0
VERTEX
  5
7602
  8
0
 62
7
 10
70.059870866089568
 20
45.689118654641391
 70
0
  0
SEQEND
  5
7603
  8
0
  0
POLYLINE
  5
642E
  8
0
 62
7
 66
1
 70
0
 10
0
 20
0
 30
0
  0
VERTEX
  5
7604
  8
0
 62
7
 10
70.440209407661143
 20
45.689118654641391
 70
0
  0
VERTEX
  5
7605
  8
0
 62
7
 10
70.270710709786869
 20
45.60523057957554
 70
0
  0
SEQEND
  5
7606
  8
0
  0
POLYLINE
  5
6432
  8
0
 62
7
 66
1
 70
0
 10
0
 20
0
 30
0
  0
VERTEX
  5
7607
  8
0
 62
7
 10
68.577101769238055
 20
45.858445097741424
 70
0
  0
VERTEX
  5
7608
  8
0
 62
7
 10
68.577101769238055
 20
45.435559626926967
 70
0
  0
SEQEND
  5
7609
  8
0
  0
POLYLINE
  5
6436
  8
0
 62
7
 66
1
 70
0
 10
0
 20
0
 30
0
  0
VERTEX
  5
760A
  8
0
 62
7
 10
69.508655588449628
 20
46.747451987710107
 70
0
  0
VERTEX
  5
760B
  8
0
 62
7
 10
69.508655588449628
 20
46.704732803693027
 70
0
  0
SEQEND
  5
760C
  8
0
  0
POLYLINE
  5
643A
  8
0
 62
7
 66
1
 70
0
 10
0
 20
0
 30
0
  0
VERTEX
  5
760D
  8
0
 62
7
 10
69.594093956483775
 20
45.60523057957554
 70
0
  0
VERTEX
  5
760E
  8
0
 62
7
 10
69.594093956483775
 20
45.60523057957554
 70
0
  0
SEQEND
  5
760F
  8
0
  0
POLYLINE
  5
643E
  8
0
 62
7
 66
1
 70
0
 10
0
 20
0
 30
0
  0
VERTEX
  5
7610
  8
0
 62
7
 10
69.678154286323888
 20
46.87423150156728
 70
0
  0
VERTEX
  5
7611
  8
0
 62
7
 10
69.678154286323888
 20
46.747451987710107
 70
0
  0
SEQEND
  5
7612
  8
0
  0
POLYLINE
  5
6442
  8
0
 62
7
 66
1
 70
0
 10
0
 20
0
 30
0
  0
VERTEX
  5
7613
  8
0
 62
7
 10
69.763592654358092
 20
45.689118654641391
 70
0
  0
VERTEX
  5
7614
  8
0
 62
7
 10
69.763592654358092
 20
45.689118654641391
 70
0
  0
SEQEND
  5
7615
  8
0
  0
POLYLINE
  5
6446
  8
0
 62
7
 66
1
 70
0
 10
0
 20
0
 30
0
  0
VERTEX
  5
7616
  8
0
 62
7
 10
69.80493380018109
 20
45.689118654641391
 70
0
  0
VERTEX
  5
7617
  8
0
 62
7
 10
69.80493380018109
 20
45.689118654641391
 70
0
  0
SEQEND
  5
7618
  8
0
  0
POLYLINE
  5
644A
  8
0
 62
7
 66
1
 70
0
 10
0
 20
0
 30
0
  0
VERTEX
  5
7619
  8
0
 62
7
 10
70.186650379946769
 20
46.87423150156728
 70
0
  0
VERTEX
  5
761A
  8
0
 62
7
 10
70.186650379946769
 20
47.086449383458721
 70
0
  0
SEQEND
  5
761B
  8
0
  0
POLYLINE
  5
644E
  8
0
 62
7
 66
1
 70
0
 10
0
 20
0
 30
0
  0
VERTEX
  5
761C
  8
0
 62
7
 10
70.270710709786869
 20
46.87423150156728
 70
0
  0
VERTEX
  5
761D
  8
0
 62
7
 10
70.270710709786869
 20
47.086449383458721
 70
0
  0
SEQEND
  5
761E
  8
0
  0
POLYLINE
  5
6452
  8
0
 62
7
 66
1
 70
0
 10
0
 20
0
 30
0
  0
VERTEX
  5
761F
  8
0
 62
7
 10
69.974432498055364
 20
47.382899849964467
 70
0
  0
VERTEX
  5
7620
  8
0
 62
7
 10
70.059526356541056
 20
47.340180665947337
 70
0
  0
SEQEND
  5
7621
  8
0
  0
POLYLINE
  5
6456
  8
0
 62
7
 66
1
 70
0
 10
0
 20
0
 30
0
  0
VERTEX
  5
7622
  8
0
 62
7
 10
69.890372168215279
 20
47.340180665947337
 70
0
  0
VERTEX
  5
7623
  8
0
 62
7
 10
69.80493380018109
 20
47.382899849964467
 70
0
  0
SEQEND
  5
7624
  8
0
  0
POLYLINE
  5
645A
  8
0
 62
7
 66
1
 70
0
 10
0
 20
0
 30
0
  0
VERTEX
  5
7625
  8
0
 62
7
 10
69.890372168215279
 20
47.340180665947337
 70
0
  0
VERTEX
  5
7626
  8
0
 62
7
 10
69.890372168215279
 20
47.297116972381723
 70
0
  0
SEQEND
  5
7627
  8
0
  0
POLYLINE
  5
645E
  8
0
 62
7
 66
1
 70
0
 10
0
 20
0
 30
0
  0
VERTEX
  5
7628
  8
0
 62
7
 10
70.059870866089568
 20
46.958119576633123
 70
0
  0
VERTEX
  5
7629
  8
0
 62
7
 10
70.059870866089568
 20
46.87423150156728
 70
0
  0
SEQEND
  5
762A
  8
0
  0
POLYLINE
  5
6462
  8
0
 62
7
 66
1
 70
0
 10
0
 20
0
 30
0
  0
VERTEX
  5
762B
  8
0
 62
7
 10
69.763592654358092
 20
46.4084545919615
 70
0
  0
VERTEX
  5
762C
  8
0
 62
7
 10
69.763592654358092
 20
46.4084545919615
 70
0
  0
SEQEND
  5
762D
  8
0
  0
POLYLINE
  5
6466
  8
0
 62
7
 66
1
 70
0
 10
0
 20
0
 30
0
  0
VERTEX
  5
762E
  8
0
 62
7
 10
69.763592654358092
 20
47.763238391536042
 70
0
  0
VERTEX
  5
762F
  8
0
 62
7
 10
69.763592654358092
 20
47.763238391536042
 70
0
  0
SEQEND
  5
7630
  8
0
  0
POLYLINE
  5
646A
  8
0
 62
7
 66
1
 70
0
 10
0
 20
0
 30
0
  0
VERTEX
  5
7631
  8
0
 62
7
 10
69.424595258609529
 20
48.102235787284613
 70
0
  0
VERTEX
  5
7632
  8
0
 62
7
 10
69.424595258609529
 20
48.102235787284613
 70
0
  0
SEQEND
  5
7633
  8
0
  0
POLYLINE
  5
646E
  8
0
 62
7
 66
1
 70
0
 10
0
 20
0
 30
0
  0
VERTEX
  5
7634
  8
0
 62
7
 10
24.088516710915741
 20
58.642849933955
 70
0
  0
VERTEX
  5
7635
  8
0
 62
7
 10
23.792238499184261
 20
56.736850856740553
 70
0
  0
SEQEND
  5
7636
  8
0
  0
POLYLINE
  5
6472
  8
0
 62
7
 66
1
 70
0
 10
0
 20
0
 30
0
  0
VERTEX
  5
7637
  8
0
 62
7
 10
24.088516710915741
 20
58.769457193037972
 70
0
  0
VERTEX
  5
7638
  8
0
 62
7
 10
24.088516710915741
 20
58.684018825003747
 70
0
  0
SEQEND
  5
7639
  8
0
  0
POLYLINE
  5
6476
  8
0
 62
7
 66
1
 70
0
 10
0
 20
0
 30
0
  0
VERTEX
  5
763A
  8
0
 62
7
 10
20.65995768399512
 20
60.1654098836612
 70
0
  0
VERTEX
  5
763B
  8
0
 62
7
 10
16.596123049594411
 20
58.4731789813065
 70
0
  0
SEQEND
  5
763C
  8
0
  0
POLYLINE
  5
647A
  8
0
 62
7
 66
1
 70
0
 10
0
 20
0
 30
0
  0
VERTEX
  5
763D
  8
0
 62
7
 10
22.014569228795349
 20
53.816787923442789
 70
0
  0
VERTEX
  5
763E
  8
0
 62
7
 10
21.76101020108095
 20
53.690180664359843
 70
0
  0
SEQEND
  5
763F
  8
0
  0
POLYLINE
  5
647E
  8
0
 62
7
 66
1
 70
0
 10
0
 20
0
 30
0
  0
VERTEX
  5
7640
  8
0
 62
7
 10
23.158340929898291
 20
60.208129067678271
 70
0
  0
VERTEX
  5
7641
  8
0
 62
7
 10
24.04717556509274
 20
58.810798338860941
 70
0
  0
SEQEND
  5
7642
  8
0
  0
POLYLINE
  5
6482
  8
0
 62
7
 66
1
 70
0
 10
0
 20
0
 30
0
  0
VERTEX
  5
7643
  8
0
 62
7
 10
21.76101020108095
 20
53.690180664359843
 70
0
  0
VERTEX
  5
7644
  8
0
 62
7
 10
18.28973199014322
 20
52.207067057959833
 70
0
  0
SEQEND
  5
7645
  8
0
  0
POLYLINE
  5
6486
  8
0
 62
7
 66
1
 70
0
 10
0
 20
0
 30
0
  0
VERTEX
  5
7646
  8
0
 62
7
 10
35.81424370451208
 20
43.318892960789469
 70
0
  0
VERTEX
  5
7647
  8
0
 62
7
 10
35.771524520494978
 20
44.757564835429832
 70
0
  0
SEQEND
  5
7648
  8
0
  0
POLYLINE
  5
648A
  8
0
 62
7
 66
1
 70
0
 10
0
 20
0
 30
0
  0
VERTEX
  5
7649
  8
0
 62
7
 10
35.39118597892341
 20
44.927235788078349
 70
0
  0
VERTEX
  5
764A
  8
0
 62
7
 10
35.39118597892341
 20
49.795500218284928
 70
0
  0
SEQEND
  5
764B
  8
0
  0
POLYLINE
  5
648E
  8
0
 62
7
 66
1
 70
0
 10
0
 20
0
 30
0
  0
VERTEX
  5
764C
  8
0
 62
7
 10
35.475246308763509
 20
44.927235788078349
 70
0
  0
VERTEX
  5
764D
  8
0
 62
7
 10
35.475246308763509
 20
49.795500218284928
 70
0
  0
SEQEND
  5
764E
  8
0
  0
POLYLINE
  5
6492
  8
0
 62
7
 66
1
 70
0
 10
0
 20
0
 30
0
  0
VERTEX
  5
764F
  8
0
 62
7
 10
35.094907767191927
 20
43.318892960789469
 70
0
  0
VERTEX
  5
7650
  8
0
 62
7
 10
35.137626951209029
 20
44.757564835429832
 70
0
  0
SEQEND
  5
7651
  8
0
  0
POLYLINE
  5
6496
  8
0
 62
7
 66
1
 70
0
 10
0
 20
0
 30
0
  0
VERTEX
  5
7652
  8
0
 62
7
 10
69.931713314038291
 20
46.831512317550207
 70
0
  0
VERTEX
  5
7653
  8
0
 62
7
 10
69.847652984198191
 20
46.831512317550207
 70
0
  0
SEQEND
  5
7654
  8
0
  0
POLYLINE
  5
649A
  8
0
 62
7
 66
1
 70
0
 10
0
 20
0
 30
0
  0
VERTEX
  5
7655
  8
0
 62
7
 10
69.635435102306786
 20
48.144782716527452
 70
0
  0
VERTEX
  5
7656
  8
0
 62
7
 10
69.424595258609529
 20
48.102235787284613
 70
0
  0
SEQEND
  5
7657
  8
0
  0
POLYLINE
  5
649E
  8
0
 62
7
 66
1
 70
0
 10
0
 20
0
 30
0
  0
VERTEX
  5
7658
  8
0
 62
7
 10
67.138429894597721
 20
42.260559627720731
 70
0
  0
VERTEX
  5
7659
  8
0
 62
7
 10
65.614319651923182
 20
42.556837839452207
 70
0
  0
SEQEND
  5
765A
  8
0
  0
POLYLINE
  5
64A2
  8
0
 62
7
 66
1
 70
0
 10
0
 20
0
 30
0
  0
VERTEX
  5
765B
  8
0
 62
7
 10
65.699758019957386
 20
42.767849937923742
 70
0
  0
VERTEX
  5
765C
  8
0
 62
7
 10
35.475246308763509
 20
48.94817898368774
 70
0
  0
SEQEND
  5
765D
  8
0
  0
POLYLINE
  5
64A6
  8
0
 62
7
 66
1
 70
0
 10
0
 20
0
 30
0
  0
VERTEX
  5
765E
  8
0
 62
7
 10
35.39118597892341
 20
48.990898167704813
 70
0
  0
VERTEX
  5
765F
  8
0
 62
7
 10
18.6714485699089
 20
52.419457194625458
 70
0
  0
SEQEND
  5
7660
  8
0
  0
POLYLINE
  5
64AA
  8
0
 62
7
 66
1
 70
0
 10
0
 20
0
 30
0
  0
VERTEX
  5
7661
  8
0
 62
7
 10
16.724280601645692
 20
52.5887836377255
 70
0
  0
VERTEX
  5
7662
  8
0
 62
7
 10
18.28973199014322
 20
52.207067057959833
 70
0
  0
SEQEND
  5
7663
  8
0
  0
POLYLINE
  5
64AE
  8
0
 62
7
 66
1
 70
0
 10
0
 20
0
 30
0
  0
VERTEX
  5
7664
  8
0
 62
7
 10
69.508655588449628
 20
46.747451987710107
 70
0
  0
VERTEX
  5
7665
  8
0
 62
7
 10
69.424595258609529
 20
46.747451987710107
 70
0
  0
SEQEND
  5
7666
  8
0
  0
POLYLINE
  5
64B2
  8
0
 62
7
 66
1
 70
0
 10
0
 20
0
 30
0
  0
VERTEX
  5
7667
  8
0
 62
7
 10
70.017151682072466
 20
46.87423150156728
 70
0
  0
VERTEX
  5
7668
  8
0
 62
7
 10
69.931713314038291
 20
46.916778430810147
 70
0
  0
SEQEND
  5
7669
  8
0
  0
POLYLINE
  5
64B6
  8
0
 62
7
 66
1
 70
0
 10
0
 20
0
 30
0
  0
VERTEX
  5
766A
  8
0
 62
7
 10
67.6882671340436
 20
43.615171172520931
 70
0
  0
VERTEX
  5
766B
  8
0
 62
7
 10
20.65995768399512
 20
53.22423149997978
 70
0
  0
SEQEND
  5
766C
  8
0
  0
POLYLINE
  5
64BA
  8
0
 62
7
 66
1
 70
0
 10
0
 20
0
 30
0
  0
VERTEX
  5
766D
  8
0
 62
7
 10
67.900485015934976
 20
43.69923150236103
 70
0
  0
VERTEX
  5
766E
  8
0
 62
7
 10
20.9148947499036
 20
53.308119575045609
 70
0
  0
SEQEND
  5
766F
  8
0
  0
POLYLINE
  5
64BE
  8
0
 62
7
 66
1
 70
0
 10
0
 20
0
 30
0
  0
VERTEX
  5
7670
  8
0
 62
7
 10
68.196763227666452
 20
43.82618327099253
 70
0
  0
VERTEX
  5
7671
  8
0
 62
7
 10
21.16845377761797
 20
53.435071343677123
 70
0
  0
SEQEND
  5
7672
  8
0
  0
POLYLINE
  5
64C2
  8
0
 62
7
 66
1
 70
0
 10
0
 20
0
 30
0
  0
VERTEX
  5
7673
  8
0
 62
7
 10
70.017151682072466
 20
46.87423150156728
 70
0
  0
VERTEX
  5
7674
  8
0
 62
7
 10
70.186650379946769
 20
46.87423150156728
 70
0
  0
SEQEND
  5
7675
  8
0
  0
POLYLINE
  5
64C6
  8
0
 62
7
 66
1
 70
0
 10
0
 20
0
 30
0
  0
VERTEX
  5
7676
  8
0
 62
7
 10
70.77920680340975
 20
46.747451987710107
 70
0
  0
VERTEX
  5
7677
  8
0
 62
7
 10
70.186650379946769
 20
46.87423150156728
 70
0
  0
SEQEND
  5
7678
  8
0
  0
POLYLINE
  5
64CA
  8
0
 62
7
 66
1
 70
0
 10
0
 20
0
 30
0
  0
VERTEX
  5
7679
  8
0
 62
7
 10
70.059870866089568
 20
45.60523057957554
 70
0
  0
VERTEX
  5
767A
  8
0
 62
7
 10
70.227991525769781
 20
45.60523057957554
 70
0
  0
SEQEND
  5
767B
  8
0
  0
POLYLINE
  5
64CE
  8
0
 62
7
 66
1
 70
0
 10
0
 20
0
 30
0
  0
VERTEX
  5
767C
  8
0
 62
7
 10
69.72087347034099
 20
46.4938929599957
 70
0
  0
VERTEX
  5
767D
  8
0
 62
7
 10
69.678154286323888
 20
46.4938929599957
 70
0
  0
SEQEND
  5
767E
  8
0
  0
POLYLINE
  5
64D2
  8
0
 62
7
 66
1
 70
0
 10
0
 20
0
 30
0
  0
VERTEX
  5
767F
  8
0
 62
7
 10
69.763592654358092
 20
45.689118654641391
 70
0
  0
VERTEX
  5
7680
  8
0
 62
7
 10
69.763592654358092
 20
45.689118654641391
 70
0
  0
SEQEND
  5
7681
  8
0
  0
POLYLINE
  5
64D6
  8
0
 62
7
 66
1
 70
0
 10
0
 20
0
 30
0
  0
VERTEX
  5
7682
  8
0
 62
7
 10
68.408981109557857
 20
45.858445097741424
 70
0
  0
VERTEX
  5
7683
  8
0
 62
7
 10
23.199682075721292
 20
55.086133354983062
 70
0
  0
SEQEND
  5
7684
  8
0
  0
POLYLINE
  5
64DA
  8
0
 62
7
 66
1
 70
0
 10
0
 20
0
 30
0
  0
VERTEX
  5
7685
  8
0
 62
7
 10
69.80493380018109
 20
45.77317898448149
 70
0
  0
VERTEX
  5
7686
  8
0
 62
7
 10
70.059870866089568
 20
45.731837838658457
 70
0
  0
SEQEND
  5
7687
  8
0
  0
POLYLINE
  5
64DE
  8
0
 62
7
 66
1
 70
0
 10
0
 20
0
 30
0
  0
VERTEX
  5
7688
  8
0
 62
7
 10
69.001537533020837
 20
46.15489556424717
 70
0
  0
VERTEX
  5
7689
  8
0
 62
7
 10
69.0855978628609
 20
46.112176380230039
 70
0
  0
SEQEND
  5
768A
  8
0
  0
POLYLINE
  5
64E2
  8
0
 62
7
 66
1
 70
0
 10
0
 20
0
 30
0
  0
VERTEX
  5
768B
  8
0
 62
7
 10
68.916099164986633
 20
45.308952367844007
 70
0
  0
VERTEX
  5
768C
  8
0
 62
7
 10
68.619820953255129
 20
45.3928404429099
 70
0
  0
SEQEND
  5
768D
  8
0
  0
POLYLINE
  5
64E6
  8
0
 62
7
 66
1
 70
0
 10
0
 20
0
 30
0
  0
VERTEX
  5
768E
  8
0
 62
7
 10
70.059870866089568
 20
45.731837838658457
 70
0
  0
VERTEX
  5
768F
  8
0
 62
7
 10
70.313429893803971
 20
45.64657172539853
 70
0
  0
SEQEND
  5
7690
  8
0
  0
POLYLINE
  5
64EA
  8
0
 62
7
 66
1
 70
0
 10
0
 20
0
 30
0
  0
VERTEX
  5
7691
  8
0
 62
7
 10
69.255096560735211
 20
46.069457196212959
 70
0
  0
VERTEX
  5
7692
  8
0
 62
7
 10
69.297815744752313
 20
46.02811605038994
 70
0
  0
SEQEND
  5
7693
  8
0
  0
POLYLINE
  5
64EE
  8
0
 62
7
 66
1
 70
0
 10
0
 20
0
 30
0
  0
VERTEX
  5
7694
  8
0
 62
7
 10
69.594093956483775
 20
47.848504504795983
 70
0
  0
VERTEX
  5
7695
  8
0
 62
7
 10
69.678154286323888
 20
47.805785320778853
 70
0
  0
SEQEND
  5
7696
  8
0
  0
POLYLINE
  5
64F2
  8
0
 62
7
 66
1
 70
0
 10
0
 20
0
 30
0
  0
VERTEX
  5
7697
  8
0
 62
7
 10
70.524269737501214
 20
47.975111763878878
 70
0
  0
VERTEX
  5
7698
  8
0
 62
7
 10
70.524269737501214
 20
47.975111763878878
 70
0
  0
VERTEX
  5
7699
  8
0
 62
7
 10
69.763592654358092
 20
48.144782716527452
 70
0
  0
SEQEND
  5
769A
  8
0
  0
POLYLINE
  5
64F7
  8
0
 62
7
 66
1
 70
0
 10
0
 20
0
 30
0
  0
VERTEX
  5
769B
  8
0
 62
7
 10
70.566988921518345
 20
48.186123862350421
 70
0
  0
VERTEX
  5
769C
  8
0
 62
7
 10
69.763592654358092
 20
48.355450305450461
 70
0
  0
SEQEND
  5
769D
  8
0
  0
POLYLINE
  5
64FB
  8
0
 62
7
 66
1
 70
0
 10
0
 20
0
 30
0
  0
VERTEX
  5
769E
  8
0
 62
7
 10
69.72087347034099
 20
47.763238391536042
 70
0
  0
VERTEX
  5
769F
  8
0
 62
7
 10
69.678154286323888
 20
47.763238391536042
 70
0
  0
SEQEND
  5
76A0
  8
0
  0
POLYLINE
  5
64FF
  8
0
 62
7
 66
1
 70
0
 10
0
 20
0
 30
0
  0
VERTEX
  5
76A1
  8
0
 62
7
 10
69.80493380018109
 20
47.255948081332967
 70
0
  0
VERTEX
  5
76A2
  8
0
 62
7
 10
70.270710709786869
 20
47.170509713298813
 70
0
  0
SEQEND
  5
76A3
  8
0
  0
POLYLINE
  5
6503
  8
0
 62
7
 66
1
 70
0
 10
0
 20
0
 30
0
  0
VERTEX
  5
76A4
  8
0
 62
7
 10
70.736487619392634
 20
46.87423150156728
 70
0
  0
VERTEX
  5
76A5
  8
0
 62
7
 10
70.77920680340975
 20
46.87423150156728
 70
0
  0
SEQEND
  5
76A6
  8
0
  0
POLYLINE
  5
6507
  8
0
 62
7
 66
1
 70
0
 10
0
 20
0
 30
0
  0
VERTEX
  5
76A7
  8
0
 62
7
 10
68.916099164986633
 20
48.31273112143338
 70
0
  0
VERTEX
  5
76A8
  8
0
 62
7
 10
23.920396051235539
 20
57.541452907320647
 70
0
  0
SEQEND
  5
76A9
  8
0
  0
POLYLINE
  5
650B
  8
0
 62
7
 66
1
 70
0
 10
0
 20
0
 30
0
  0
VERTEX
  5
76AA
  8
0
 62
7
 10
70.736487619392634
 20
47.382899849964467
 70
0
  0
VERTEX
  5
76AB
  8
0
 62
7
 10
70.524269737501214
 20
47.424068741013173
 70
0
  0
SEQEND
  5
76AC
  8
0
  0
POLYLINE
  5
650F
  8
0
 62
7
 66
1
 70
0
 10
0
 20
0
 30
0
  0
VERTEX
  5
76AD
  8
0
 62
7
 10
69.931713314038291
 20
47.297116972381723
 70
0
  0
VERTEX
  5
76AE
  8
0
 62
7
 10
70.313429893803971
 20
47.2132288973159
 70
0
  0
SEQEND
  5
76AF
  8
0
  0
POLYLINE
  5
6513
  8
0
 62
7
 66
1
 70
0
 10
0
 20
0
 30
0
  0
VERTEX
  5
76B0
  8
0
 62
7
 10
69.931713314038291
 20
47.424068741013173
 70
0
  0
VERTEX
  5
76B1
  8
0
 62
7
 10
70.017151682072466
 20
47.382899849964467
 70
0
  0
SEQEND
  5
76B2
  8
0
  0
POLYLINE
  5
6517
  8
0
 62
7
 66
1
 70
0
 10
0
 20
0
 30
0
  0
VERTEX
  5
76B3
  8
0
 62
7
 10
70.186650379946769
 20
47.170509713298813
 70
0
  0
VERTEX
  5
76B4
  8
0
 62
7
 10
70.186650379946769
 20
47.170509713298813
 70
0
  0
SEQEND
  5
76B5
  8
0
  0
POLYLINE
  5
651B
  8
0
 62
7
 66
1
 70
0
 10
0
 20
0
 30
0
  0
VERTEX
  5
76B6
  8
0
 62
7
 10
69.0855978628609
 20
46.112176380230039
 70
0
  0
VERTEX
  5
76B7
  8
0
 62
7
 10
69.12831704687801
 20
46.112176380230039
 70
0
  0
SEQEND
  5
76B8
  8
0
  0
POLYLINE
  5
651F
  8
0
 62
7
 66
1
 70
0
 10
0
 20
0
 30
0
  0
VERTEX
  5
76B9
  8
0
 62
7
 10
69.255096560735211
 20
48.905459799670609
 70
0
  0
VERTEX
  5
76BA
  8
0
 62
7
 10
24.004456381075642
 20
58.176728514800729
 70
0
  0
SEQEND
  5
76BB
  8
0
  0
POLYLINE
  5
6523
  8
0
 62
7
 66
1
 70
0
 10
0
 20
0
 30
0
  0
VERTEX
  5
76BC
  8
0
 62
7
 10
71.244983713015529
 20
48.6519007719562
 70
0
  0
VERTEX
  5
76BD
  8
0
 62
7
 10
24.04717556509274
 20
58.303852538206449
 70
0
  0
SEQEND
  5
76BE
  8
0
  0
POLYLINE
  5
6527
  8
0
 62
7
 66
1
 70
0
 10
0
 20
0
 30
0
  0
VERTEX
  5
76BF
  8
0
 62
7
 10
70.440209407661143
 20
50.302790528487932
 70
0
  0
VERTEX
  5
76C0
  8
0
 62
7
 10
23.32783962777259
 20
59.954397785189649
 70
0
  0
SEQEND
  5
76C1
  8
0
  0
POLYLINE
  5
652B
  8
0
 62
7
 66
1
 70
0
 10
0
 20
0
 30
0
  0
VERTEX
  5
76C2
  8
0
 62
7
 10
23.158340929898291
 20
60.208129067678271
 70
0
  0
VERTEX
  5
76C3
  8
0
 62
7
 10
21.634230687223749
 20
60.504407279409747
 70
0
  0
SEQEND
  5
76C4
  8
0
  0
POLYLINE
  5
652F
  8
0
 62
7
 66
1
 70
0
 10
0
 20
0
 30
0
  0
VERTEX
  5
76C5
  8
0
 62
7
 10
70.440209407661143
 20
50.556521810976619
 70
0
  0
VERTEX
  5
76C6
  8
0
 62
7
 10
71.964319650335682
 20
50.218902453422118
 70
0
  0
SEQEND
  5
76C7
  8
0
  0
POLYLINE
  5
6533
  8
0
 62
7
 66
1
 70
0
 10
0
 20
0
 30
0
  0
VERTEX
  5
76C8
  8
0
 62
7
 10
70.440209407661143
 20
50.556521810976619
 70
0
  0
VERTEX
  5
76C9
  8
0
 62
7
 10
70.059870866089568
 20
50.388228896522151
 70
0
  0
SEQEND
  5
76CA
  8
0
  0
POLYLINE
  5
6537
  8
0
 62
7
 66
1
 70
0
 10
0
 20
0
 30
0
  0
VERTEX
  5
76CB
  8
0
 62
7
 10
70.39749022364407
 20
50.302790528487932
 70
0
  0
VERTEX
  5
76CC
  8
0
 62
7
 10
70.356149077821073
 20
50.302790528487932
 70
0
  0
SEQEND
  5
76CD
  8
0
  0
POLYLINE
  5
653B
  8
0
 62
7
 66
1
 70
0
 10
0
 20
0
 30
0
  0
VERTEX
  5
76CE
  8
0
 62
7
 10
69.171036230895112
 20
48.905459799670609
 70
0
  0
VERTEX
  5
76CF
  8
0
 62
7
 10
69.424595258609529
 20
49.033445096947673
 70
0
  0
SEQEND
  5
76D0
  8
0
  0
POLYLINE
  5
653F
  8
0
 62
7
 66
1
 70
0
 10
0
 20
0
 30
0
  0
VERTEX
  5
76D1
  8
0
 62
7
 10
69.424595258609529
 20
48.102235787284613
 70
0
  0
VERTEX
  5
76D2
  8
0
 62
7
 10
69.255096560735211
 20
48.016452909701911
 70
0
  0
SEQEND
  5
76D3
  8
0
  0
POLYLINE
  5
6543
  8
0
 62
7
 66
1
 70
0
 10
0
 20
0
 30
0
  0
VERTEX
  5
76D4
  8
0
 62
7
 10
69.847652984198191
 20
46.831512317550207
 70
0
  0
VERTEX
  5
76D5
  8
0
 62
7
 10
69.80493380018109
 20
46.831512317550207
 70
0
  0
SEQEND
  5
76D6
  8
0
  0
POLYLINE
  5
6547
  8
0
 62
7
 66
1
 70
0
 10
0
 20
0
 30
0
  0
VERTEX
  5
76D7
  8
0
 62
7
 10
69.381876074592412
 20
47.636114368130322
 70
0
  0
VERTEX
  5
76D8
  8
0
 62
7
 10
69.678154286323888
 20
47.763066136761779
 70
0
  0
SEQEND
  5
76D9
  8
0
  0
POLYLINE
  5
654B
  8
0
 62
7
 66
1
 70
0
 10
0
 20
0
 30
0
  0
VERTEX
  5
76DA
  8
0
 62
7
 10
69.424595258609529
 20
47.593567438887462
 70
0
  0
VERTEX
  5
76DB
  8
0
 62
7
 10
69.678154286323888
 20
47.67883355214741
 70
0
  0
SEQEND
  5
76DC
  8
0
  0
POLYLINE
  5
654F
  8
0
 62
7
 66
1
 70
0
 10
0
 20
0
 30
0
  0
VERTEX
  5
76DD
  8
0
 62
7
 10
69.80493380018109
 20
47.382899849964467
 70
0
  0
VERTEX
  5
76DE
  8
0
 62
7
 10
69.508655588449628
 20
47.255948081332967
 70
0
  0
SEQEND
  5
76DF
  8
0
  0
POLYLINE
  5
6553
  8
0
 62
7
 66
1
 70
0
 10
0
 20
0
 30
0
  0
VERTEX
  5
76E0
  8
0
 62
7
 10
69.974432498055364
 20
47.382899849964467
 70
0
  0
VERTEX
  5
76E1
  8
0
 62
7
 10
69.890372168215279
 20
47.340180665947337
 70
0
  0
SEQEND
  5
76E2
  8
0
  0
POLYLINE
  5
6557
  8
0
 62
7
 66
1
 70
0
 10
0
 20
0
 30
0
  0
VERTEX
  5
76E3
  8
0
 62
7
 10
69.72087347034099
 20
47.255948081332967
 70
0
  0
VERTEX
  5
76E4
  8
0
 62
7
 10
69.508655588449628
 20
47.2132288973159
 70
0
  0
SEQEND
  5
76E5
  8
0
  0
POLYLINE
  5
655B
  8
0
 62
7
 66
1
 70
0
 10
0
 20
0
 30
0
  0
VERTEX
  5
76E6
  8
0
 62
7
 10
70.059870866089568
 20
47.340180665947337
 70
0
  0
VERTEX
  5
76E7
  8
0
 62
7
 10
69.974432498055364
 20
47.340180665947337
 70
0
  0
SEQEND
  5
76E8
  8
0
  0
POLYLINE
  5
655F
  8
0
 62
7
 66
1
 70
0
 10
0
 20
0
 30
0
  0
VERTEX
  5
76E9
  8
0
 62
7
 10
69.931713314038291
 20
47.297116972381723
 70
0
  0
VERTEX
  5
76EA
  8
0
 62
7
 10
69.80493380018109
 20
47.255948081332967
 70
0
  0
SEQEND
  5
76EB
  8
0
  0
POLYLINE
  5
6563
  8
0
 62
7
 66
1
 70
0
 10
0
 20
0
 30
0
  0
VERTEX
  5
76EC
  8
0
 62
7
 10
69.467314442626588
 20
46.87423150156728
 70
0
  0
VERTEX
  5
76ED
  8
0
 62
7
 10
69.551374772466687
 20
46.87423150156728
 70
0
  0
SEQEND
  5
76EE
  8
0
  0
POLYLINE
  5
6567
  8
0
 62
7
 66
1
 70
0
 10
0
 20
0
 30
0
  0
VERTEX
  5
76EF
  8
0
 62
7
 10
70.736487619392634
 20
47.2132288973159
 70
0
  0
VERTEX
  5
76F0
  8
0
 62
7
 10
70.736487619392634
 20
47.2132288973159
 70
0
  0
SEQEND
  5
76F1
  8
0
  0
POLYLINE
  5
656B
  8
0
 62
7
 66
1
 70
0
 10
0
 20
0
 30
0
  0
VERTEX
  5
76F2
  8
0
 62
7
 10
69.80493380018109
 20
46.831512317550207
 70
0
  0
VERTEX
  5
76F3
  8
0
 62
7
 10
69.424595258609529
 20
46.662185874450181
 70
0
  0
SEQEND
  5
76F4
  8
0
  0
POLYLINE
  5
656F
  8
0
 62
7
 66
1
 70
0
 10
0
 20
0
 30
0
  0
VERTEX
  5
76F5
  8
0
 62
7
 10
69.931713314038291
 20
46.831512317550207
 70
0
  0
VERTEX
  5
76F6
  8
0
 62
7
 10
69.890372168215279
 20
46.831512317550207
 70
0
  0
SEQEND
  5
76F7
  8
0
  0
POLYLINE
  5
6573
  8
0
 62
7
 66
1
 70
0
 10
0
 20
0
 30
0
  0
VERTEX
  5
76F8
  8
0
 62
7
 10
70.990046647107022
 20
47.2132288973159
 70
0
  0
VERTEX
  5
76F9
  8
0
 62
7
 10
70.990046647107022
 20
47.2132288973159
 70
0
  0
SEQEND
  5
76FA
  8
0
  0
POLYLINE
  5
6577
  8
0
 62
7
 66
1
 70
0
 10
0
 20
0
 30
0
  0
VERTEX
  5
76FB
  8
0
 62
7
 10
69.12831704687801
 20
46.2818473328786
 70
0
  0
VERTEX
  5
76FC
  8
0
 62
7
 10
69.678154286323888
 20
46.4938929599957
 70
0
  0
SEQEND
  5
76FD
  8
0
  0
POLYLINE
  5
657B
  8
0
 62
7
 66
1
 70
0
 10
0
 20
0
 30
0
  0
VERTEX
  5
76FE
  8
0
 62
7
 10
70.736487619392634
 20
46.87423150156728
 70
0
  0
VERTEX
  5
76FF
  8
0
 62
7
 10
70.736487619392634
 20
46.87423150156728
 70
0
  0
SEQEND
  5
7700
  8
0
  0
POLYLINE
  5
657F
  8
0
 62
7
 66
1
 70
0
 10
0
 20
0
 30
0
  0
VERTEX
  5
7701
  8
0
 62
7
 10
69.678154286323888
 20
46.4084545919615
 70
0
  0
VERTEX
  5
7702
  8
0
 62
7
 10
69.042878678843834
 20
46.15489556424717
 70
0
  0
SEQEND
  5
7703
  8
0
  0
POLYLINE
  5
6583
  8
0
 62
7
 66
1
 70
0
 10
0
 20
0
 30
0
  0
VERTEX
  5
7704
  8
0
 62
7
 10
70.017151682072466
 20
47.466787925030289
 70
0
  0
VERTEX
  5
7705
  8
0
 62
7
 10
70.186650379946769
 20
47.5522262930645
 70
0
  0
SEQEND
  5
7706
  8
0
  0
POLYLINE
  5
6587
  8
0
 62
7
 66
1
 70
0
 10
0
 20
0
 30
0
  0
VERTEX
  5
7707
  8
0
 62
7
 10
69.72087347034099
 20
46.4938929599957
 70
0
  0
VERTEX
  5
7708
  8
0
 62
7
 10
69.72087347034099
 20
46.4938929599957
 70
0
  0
SEQEND
  5
7709
  8
0
  0
POLYLINE
  5
658B
  8
0
 62
7
 66
1
 70
0
 10
0
 20
0
 30
0
  0
VERTEX
  5
770A
  8
0
 62
7
 10
69.551374772466687
 20
45.689118654641391
 70
0
  0
VERTEX
  5
770B
  8
0
 62
7
 10
69.551374772466687
 20
45.60523057957554
 70
0
  0
SEQEND
  5
770C
  8
0
  0
POLYLINE
  5
658F
  8
0
 62
7
 66
1
 70
0
 10
0
 20
0
 30
0
  0
VERTEX
  5
770D
  8
0
 62
7
 10
69.0855978628609
 20
44.20789985075821
 70
0
  0
VERTEX
  5
770E
  8
0
 62
7
 10
65.614319651923182
 20
42.726164282552247
 70
0
  0
SEQEND
  5
770F
  8
0
  0
POLYLINE
  5
6593
  8
0
 62
7
 66
1
 70
0
 10
0
 20
0
 30
0
  0
VERTEX
  5
7710
  8
0
 62
7
 10
69.0855978628609
 20
43.99550971409257
 70
0
  0
VERTEX
  5
7711
  8
0
 62
7
 10
65.614319651923182
 20
42.556837839452207
 70
0
  0
SEQEND
  5
7712
  8
0
  0
POLYLINE
  5
6597
  8
0
 62
7
 66
1
 70
0
 10
0
 20
0
 30
0
  0
VERTEX
  5
7713
  8
0
 62
7
 10
70.948705501284024
 20
43.82618327099253
 70
0
  0
VERTEX
  5
7714
  8
0
 62
7
 10
70.990046647107022
 20
43.82618327099253
 70
0
  0
VERTEX
  5
7715
  8
0
 62
7
 10
71.032765831124124
 20
43.82618327099253
 70
0
  0
VERTEX
  5
7716
  8
0
 62
7
 10
71.032765831124124
 20
43.868902455009611
 70
0
  0
VERTEX
  5
7717
  8
0
 62
7
 10
71.075485015141226
 20
43.868902455009611
 70
0
  0
VERTEX
  5
7718
  8
0
 62
7
 10
71.075485015141226
 20
43.911449384252471
 70
0
  0
VERTEX
  5
7719
  8
0
 62
7
 10
71.118204199158328
 20
43.911449384252471
 70
0
  0
VERTEX
  5
771A
  8
0
 62
7
 10
71.159545344981325
 20
43.911449384252471
 70
0
  0
VERTEX
  5
771B
  8
0
 62
7
 10
71.202264528998427
 20
43.954168568269552
 70
0
  0
VERTEX
  5
771C
  8
0
 62
7
 10
71.244983713015529
 20
43.954168568269552
 70
0
  0
VERTEX
  5
771D
  8
0
 62
7
 10
71.286324858838526
 20
43.954168568269552
 70
0
  0
VERTEX
  5
771E
  8
0
 62
7
 10
71.286324858838526
 20
43.99550971409257
 70
0
  0
VERTEX
  5
771F
  8
0
 62
7
 10
71.3290440428556
 20
44.038228898109637
 70
0
  0
SEQEND
  5
7720
  8
0
  0
POLYLINE
  5
65A6
  8
0
 62
7
 66
1
 70
0
 10
0
 20
0
 30
0
  0
VERTEX
  5
7721
  8
0
 62
7
 10
67.2652094084549
 20
42.260559627720731
 70
0
  0
VERTEX
  5
7722
  8
0
 62
7
 10
70.905986317266922
 20
43.784497615620957
 70
0
  0
SEQEND
  5
7723
  8
0
  0
POLYLINE
  5
65AA
  8
0
 62
7
 66
1
 70
0
 10
0
 20
0
 30
0
  0
VERTEX
  5
7724
  8
0
 62
7
 10
70.017151682072466
 20
47.466787925030289
 70
0
  0
VERTEX
  5
7725
  8
0
 62
7
 10
69.931713314038291
 20
47.424068741013173
 70
0
  0
SEQEND
  5
7726
  8
0
  0
POLYLINE
  5
65AE
  8
0
 62
7
 66
1
 70
0
 10
0
 20
0
 30
0
  0
VERTEX
  5
7727
  8
0
 62
7
 10
70.017151682072466
 20
47.424068741013173
 70
0
  0
VERTEX
  5
7728
  8
0
 62
7
 10
70.017151682072466
 20
47.382899849964467
 70
0
  0
SEQEND
  5
7729
  8
0
  0
POLYLINE
  5
65B2
  8
0
 62
7
 66
1
 70
0
 10
0
 20
0
 30
0
  0
VERTEX
  5
772A
  8
0
 62
7
 10
70.524269737501214
 20
47.424068741013173
 70
0
  0
VERTEX
  5
772B
  8
0
 62
7
 10
70.440209407661143
 20
47.340180665947337
 70
0
  0
SEQEND
  5
772C
  8
0
  0
POLYLINE
  5
717E
  8
0
 62
7
 66
1
 70
8
  0
VERTEX
  5
717F
  8
0
 62
7
 10
70.3134
 20
45.646599999999992
 30
0
 70
32
  0
VERTEX
  5
7180
  8
0
 62
7
 10
70.3134
 20
45.646599999999992
 30
0
 70
32
  0
VERTEX
  5
7181
  8
0
 62
7
 10
70.3133
 20
45.6465
 30
0
 70
32
  0
VERTEX
  5
7182
  8
0
 62
7
 10
70.3132
 20
45.6465
 30
0
 70
32
  0
VERTEX
  5
7183
  8
0
 62
7
 10
70.3131
 20
45.646399999999993
 30
0
 70
32
  0
VERTEX
  5
7184
  8
0
 62
7
 10
70.3129
 20
45.6463
 30
0
 70
32
  0
VERTEX
  5
7185
  8
0
 62
7
 10
70.3127
 20
45.6462
 30
0
 70
32
  0
VERTEX
  5
7186
  8
0
 62
7
 10
70.3125
 20
45.6461
 30
0
 70
32
  0
VERTEX
  5
7187
  8
0
 62
7
 10
70.3122
 20
45.646
 30
0
 70
32
  0
VERTEX
  5
7188
  8
0
 62
7
 10
70.3118
 20
45.6458
 30
0
 70
32
  0
VERTEX
  5
7189
  8
0
 62
7
 10
70.3115
 20
45.6456
 30
0
 70
32
  0
VERTEX
  5
718A
  8
0
 62
7
 10
70.3111
 20
45.6454
 30
0
 70
32
  0
VERTEX
  5
718B
  8
0
 62
7
 10
70.3107
 20
45.6452
 30
0
 70
32
  0
VERTEX
  5
718C
  8
0
 62
7
 10
70.3102
 20
45.645
 30
0
 70
32
  0
VERTEX
  5
718D
  8
0
 62
7
 10
70.3097
 20
45.644799999999989
 30
0
 70
32
  0
VERTEX
  5
718E
  8
0
 62
7
 10
70.3092
 20
45.644499999999987
 30
0
 70
32
  0
VERTEX
  5
718F
  8
0
 62
7
 10
70.3087
 20
45.6443
 30
0
 70
32
  0
VERTEX
  5
7190
  8
0
 62
7
 10
70.3081
 20
45.644
 30
0
 70
32
  0
VERTEX
  5
7191
  8
0
 62
7
 10
70.3075
 20
45.6437
 30
0
 70
32
  0
VERTEX
  5
7192
  8
0
 62
7
 10
70.3068
 20
45.6434
 30
0
 70
32
  0
VERTEX
  5
7193
  8
0
 62
7
 10
70.3062
 20
45.64309999999999
 30
0
 70
32
  0
VERTEX
  5
7194
  8
0
 62
7
 10
70.3055
 20
45.642699999999991
 30
0
 70
32
  0
VERTEX
  5
7195
  8
0
 62
7
 10
70.3048
 20
45.6424
 30
0
 70
32
  0
VERTEX
  5
7196
  8
0
 62
7
 10
70.304
 20
45.642
 30
0
 70
32
  0
VERTEX
  5
7197
  8
0
 62
7
 10
70.3033
 20
45.641699999999993
 30
0
 70
32
  0
VERTEX
  5
7198
  8
0
 62
7
 10
70.3025
 20
45.6413
 30
0
 70
32
  0
VERTEX
  5
7199
  8
0
 62
7
 10
70.3017
 20
45.6409
 30
0
 70
32
  0
VERTEX
  5
719A
  8
0
 62
7
 10
70.3008
 20
45.6405
 30
0
 70
32
  0
VERTEX
  5
719B
  8
0
 62
7
 10
70.3
 20
45.64009999999999
 30
0
 70
32
  0
VERTEX
  5
719C
  8
0
 62
7
 10
70.2991
 20
45.6396
 30
0
 70
32
  0
VERTEX
  5
719D
  8
0
 62
7
 10
70.2982
 20
45.6392
 30
0
 70
32
  0
VERTEX
  5
719E
  8
0
 62
7
 10
70.2973
 20
45.6388
 30
0
 70
32
  0
VERTEX
  5
719F
  8
0
 62
7
 10
70.2964
 20
45.6383
 30
0
 70
32
  0
VERTEX
  5
71A0
  8
0
 62
7
 10
70.2954
 20
45.6379
 30
0
 70
32
  0
VERTEX
  5
71A1
  8
0
 62
7
 10
70.2944
 20
45.6374
 30
0
 70
32
  0
VERTEX
  5
71A2
  8
0
 62
7
 10
70.2935
 20
45.6369
 30
0
 70
32
  0
VERTEX
  5
71A3
  8
0
 62
7
 10
70.2925
 20
45.6364
 30
0
 70
32
  0
VERTEX
  5
71A4
  8
0
 62
7
 10
70.2914
 20
45.6359
 30
0
 70
32
  0
VERTEX
  5
71A5
  8
0
 62
7
 10
70.2904
 20
45.63539999999999
 30
0
 70
32
  0
VERTEX
  5
71A6
  8
0
 62
7
 10
70.2894
 20
45.6349
 30
0
 70
32
  0
VERTEX
  5
71A7
  8
0
 62
7
 10
70.2883
 20
45.634399999999992
 30
0
 70
32
  0
VERTEX
  5
71A8
  8
0
 62
7
 10
70.2873
 20
45.6339
 30
0
 70
32
  0
VERTEX
  5
71A9
  8
0
 62
7
 10
70.2862
 20
45.6334
 30
0
 70
32
  0
VERTEX
  5
71AA
  8
0
 62
7
 10
70.2851
 20
45.6329
 30
0
 70
32
  0
VERTEX
  5
71AB
  8
0
 62
7
 10
70.284
 20
45.632299999999987
 30
0
 70
32
  0
VERTEX
  5
71AC
  8
0
 62
7
 10
70.2829
 20
45.6318
 30
0
 70
32
  0
VERTEX
  5
71AD
  8
0
 62
7
 10
70.2818
 20
45.6313
 30
0
 70
32
  0
VERTEX
  5
71AE
  8
0
 62
7
 10
70.2807
 20
45.63069999999999
 30
0
 70
32
  0
VERTEX
  5
71AF
  8
0
 62
7
 10
70.2796
 20
45.6302
 30
0
 70
32
  0
VERTEX
  5
71B0
  8
0
 62
7
 10
70.2784
 20
45.6296
 30
0
 70
32
  0
VERTEX
  5
71B1
  8
0
 62
7
 10
70.2773
 20
45.6291
 30
0
 70
32
  0
VERTEX
  5
71B2
  8
0
 62
7
 10
70.2762
 20
45.6285
 30
0
 70
32
  0
VERTEX
  5
71B3
  8
0
 62
7
 10
70.275
 20
45.628
 30
0
 70
32
  0
VERTEX
  5
71B4
  8
0
 62
7
 10
70.2739
 20
45.6274
 30
0
 70
32
  0
VERTEX
  5
71B5
  8
0
 62
7
 10
70.2727
 20
45.626899999999992
 30
0
 70
32
  0
VERTEX
  5
71B6
  8
0
 62
7
 10
70.2716
 20
45.6263
 30
0
 70
32
  0
VERTEX
  5
71B7
  8
0
 62
7
 10
70.2704
 20
45.625799999999991
 30
0
 70
32
  0
VERTEX
  5
71B8
  8
0
 62
7
 10
70.2693
 20
45.6252
 30
0
 70
32
  0
VERTEX
  5
71B9
  8
0
 62
7
 10
70.2681
 20
45.6247
 30
0
 70
32
  0
VERTEX
  5
71BA
  8
0
 62
7
 10
70.267
 20
45.624099999999991
 30
0
 70
32
  0
VERTEX
  5
71BB
  8
0
 62
7
 10
70.2658
 20
45.6235
 30
0
 70
32
  0
VERTEX
  5
71BC
  8
0
 62
7
 10
70.2647
 20
45.62299999999999
 30
0
 70
32
  0
VERTEX
  5
71BD
  8
0
 62
7
 10
70.2636
 20
45.6224
 30
0
 70
32
  0
VERTEX
  5
71BE
  8
0
 62
7
 10
70.2624
 20
45.6219
 30
0
 70
32
  0
VERTEX
  5
71BF
  8
0
 62
7
 10
70.2613
 20
45.621299999999991
 30
0
 70
32
  0
VERTEX
  5
71C0
  8
0
 62
7
 10
70.260199999999983
 20
45.6208
 30
0
 70
32
  0
VERTEX
  5
71C1
  8
0
 62
7
 10
70.2591
 20
45.6203
 30
0
 70
32
  0
VERTEX
  5
71C2
  8
0
 62
7
 10
70.258
 20
45.6197
 30
0
 70
32
  0
VERTEX
  5
71C3
  8
0
 62
7
 10
70.2569
 20
45.619199999999992
 30
0
 70
32
  0
VERTEX
  5
71C4
  8
0
 62
7
 10
70.2558
 20
45.61869999999999
 30
0
 70
32
  0
VERTEX
  5
71C5
  8
0
 62
7
 10
70.2547
 20
45.6181
 30
0
 70
32
  0
VERTEX
  5
71C6
  8
0
 62
7
 10
70.2536
 20
45.6176
 30
0
 70
32
  0
VERTEX
  5
71C7
  8
0
 62
7
 10
70.2526
 20
45.6171
 30
0
 70
32
  0
VERTEX
  5
71C8
  8
0
 62
7
 10
70.2515
 20
45.616599999999991
 30
0
 70
32
  0
VERTEX
  5
71C9
  8
0
 62
7
 10
70.2505
 20
45.6161
 30
0
 70
32
  0
VERTEX
  5
71CA
  8
0
 62
7
 10
70.2495
 20
45.6156
 30
0
 70
32
  0
VERTEX
  5
71CB
  8
0
 62
7
 10
70.2485
 20
45.6151
 30
0
 70
32
  0
VERTEX
  5
71CC
  8
0
 62
7
 10
70.2475
 20
45.614699999999992
 30
0
 70
32
  0
VERTEX
  5
71CD
  8
0
 62
7
 10
70.2465
 20
45.6142
 30
0
 70
32
  0
VERTEX
  5
71CE
  8
0
 62
7
 10
70.2455
 20
45.6137
 30
0
 70
32
  0
VERTEX
  5
71CF
  8
0
 62
7
 10
70.2446
 20
45.6133
 30
0
 70
32
  0
VERTEX
  5
71D0
  8
0
 62
7
 10
70.2437
 20
45.6128
 30
0
 70
32
  0
VERTEX
  5
71D1
  8
0
 62
7
 10
70.2428
 20
45.6124
 30
0
 70
32
  0
VERTEX
  5
71D2
  8
0
 62
7
 10
70.2419
 20
45.612
 30
0
 70
32
  0
VERTEX
  5
71D3
  8
0
 62
7
 10
70.241
 20
45.6115
 30
0
 70
32
  0
VERTEX
  5
71D4
  8
0
 62
7
 10
70.2402
 20
45.6111
 30
0
 70
32
  0
VERTEX
  5
71D5
  8
0
 62
7
 10
70.2394
 20
45.610699999999987
 30
0
 70
32
  0
VERTEX
  5
71D6
  8
0
 62
7
 10
70.2386
 20
45.6103
 30
0
 70
32
  0
VERTEX
  5
71D7
  8
0
 62
7
 10
70.2378
 20
45.609999999999992
 30
0
 70
32
  0
VERTEX
  5
71D8
  8
0
 62
7
 10
70.237
 20
45.6096
 30
0
 70
32
  0
VERTEX
  5
71D9
  8
0
 62
7
 10
70.2363
 20
45.6092
 30
0
 70
32
  0
VERTEX
  5
71DA
  8
0
 62
7
 10
70.2356
 20
45.608899999999991
 30
0
 70
32
  0
VERTEX
  5
71DB
  8
0
 62
7
 10
70.2349
 20
45.6086
 30
0
 70
32
  0
VERTEX
  5
71DC
  8
0
 62
7
 10
70.2343
 20
45.6083
 30
0
 70
32
  0
VERTEX
  5
71DD
  8
0
 62
7
 10
70.2336
 20
45.60799999999999
 30
0
 70
32
  0
VERTEX
  5
71DE
  8
0
 62
7
 10
70.2331
 20
45.6077
 30
0
 70
32
  0
VERTEX
  5
71DF
  8
0
 62
7
 10
70.2325
 20
45.6074
 30
0
 70
32
  0
VERTEX
  5
71E0
  8
0
 62
7
 10
70.232
 20
45.6071
 30
0
 70
32
  0
VERTEX
  5
71E1
  8
0
 62
7
 10
70.2314
 20
45.6069
 30
0
 70
32
  0
VERTEX
  5
71E2
  8
0
 62
7
 10
70.231
 20
45.6067
 30
0
 70
32
  0
VERTEX
  5
71E3
  8
0
 62
7
 10
70.2305
 20
45.60649999999999
 30
0
 70
32
  0
VERTEX
  5
71E4
  8
0
 62
7
 10
70.2301
 20
45.60629999999999
 30
0
 70
32
  0
VERTEX
  5
71E5
  8
0
 62
7
 10
70.2297
 20
45.606099999999991
 30
0
 70
32
  0
VERTEX
  5
71E6
  8
0
 62
7
 10
70.2294
 20
45.6059
 30
0
 70
32
  0
VERTEX
  5
71E7
  8
0
 62
7
 10
70.2291
 20
45.6058
 30
0
 70
32
  0
VERTEX
  5
71E8
  8
0
 62
7
 10
70.2288
 20
45.6056
 30
0
 70
32
  0
VERTEX
  5
71E9
  8
0
 62
7
 10
70.2286
 20
45.6055
 30
0
 70
32
  0
VERTEX
  5
71EA
  8
0
 62
7
 10
70.2284
 20
45.6054
 30
0
 70
32
  0
VERTEX
  5
71EB
  8
0
 62
7
 10
70.2282
 20
45.6054
 30
0
 70
32
  0
VERTEX
  5
71EC
  8
0
 62
7
 10
70.228099999999984
 20
45.605299999999993
 30
0
 70
32
  0
VERTEX
  5
71ED
  8
0
 62
7
 10
70.228
 20
45.605299999999993
 30
0
 70
32
  0
VERTEX
  5
71EE
  8
0
 62
7
 10
70.228
 20
45.6052
 30
0
 70
32
  0
VERTEX
  5
71EF
  8
0
 62
7
 10
70.228
 20
45.6052
 30
0
 70
32
  0
VERTEX
  5
71F0
  8
0
 62
7
 10
70.228
 20
45.605299999999993
 30
0
 70
32
  0
VERTEX
  5
71F1
  8
0
 62
7
 10
70.228099999999984
 20
45.605299999999993
 30
0
 70
32
  0
VERTEX
  5
71F2
  8
0
 62
7
 10
70.2282
 20
45.6054
 30
0
 70
32
  0
VERTEX
  5
71F3
  8
0
 62
7
 10
70.2284
 20
45.6054
 30
0
 70
32
  0
VERTEX
  5
71F4
  8
0
 62
7
 10
70.2286
 20
45.6055
 30
0
 70
32
  0
VERTEX
  5
71F5
  8
0
 62
7
 10
70.2288
 20
45.6056
 30
0
 70
32
  0
VERTEX
  5
71F6
  8
0
 62
7
 10
70.2291
 20
45.6058
 30
0
 70
32
  0
VERTEX
  5
71F7
  8
0
 62
7
 10
70.2294
 20
45.6059
 30
0
 70
32
  0
VERTEX
  5
71F8
  8
0
 62
7
 10
70.2297
 20
45.606099999999991
 30
0
 70
32
  0
VERTEX
  5
71F9
  8
0
 62
7
 10
70.2301
 20
45.60629999999999
 30
0
 70
32
  0
VERTEX
  5
71FA
  8
0
 62
7
 10
70.2305
 20
45.60649999999999
 30
0
 70
32
  0
VERTEX
  5
71FB
  8
0
 62
7
 10
70.231
 20
45.6067
 30
0
 70
32
  0
VERTEX
  5
71FC
  8
0
 62
7
 10
70.2314
 20
45.6069
 30
0
 70
32
  0
VERTEX
  5
71FD
  8
0
 62
7
 10
70.232
 20
45.6071
 30
0
 70
32
  0
VERTEX
  5
71FE
  8
0
 62
7
 10
70.2325
 20
45.6074
 30
0
 70
32
  0
VERTEX
  5
71FF
  8
0
 62
7
 10
70.2331
 20
45.6077
 30
0
 70
32
  0
VERTEX
  5
7200
  8
0
 62
7
 10
70.2336
 20
45.60799999999999
 30
0
 70
32
  0
VERTEX
  5
7201
  8
0
 62
7
 10
70.2343
 20
45.6083
 30
0
 70
32
  0
VERTEX
  5
7202
  8
0
 62
7
 10
70.2349
 20
45.6086
 30
0
 70
32
  0
VERTEX
  5
7203
  8
0
 62
7
 10
70.2356
 20
45.608899999999991
 30
0
 70
32
  0
VERTEX
  5
7204
  8
0
 62
7
 10
70.2363
 20
45.6092
 30
0
 70
32
  0
VERTEX
  5
7205
  8
0
 62
7
 10
70.237
 20
45.6096
 30
0
 70
32
  0
VERTEX
  5
7206
  8
0
 62
7
 10
70.2378
 20
45.609999999999992
 30
0
 70
32
  0
VERTEX
  5
7207
  8
0
 62
7
 10
70.2386
 20
45.6103
 30
0
 70
32
  0
VERTEX
  5
7208
  8
0
 62
7
 10
70.2394
 20
45.610699999999987
 30
0
 70
32
  0
VERTEX
  5
7209
  8
0
 62
7
 10
70.2402
 20
45.6111
 30
0
 70
32
  0
VERTEX
  5
720A
  8
0
 62
7
 10
70.241
 20
45.6115
 30
0
 70
32
  0
VERTEX
  5
720B
  8
0
 62
7
 10
70.2419
 20
45.612
 30
0
 70
32
  0
VERTEX
  5
720C
  8
0
 62
7
 10
70.2428
 20
45.6124
 30
0
 70
32
  0
VERTEX
  5
720D
  8
0
 62
7
 10
70.2437
 20
45.6128
 30
0
 70
32
  0
VERTEX
  5
720E
  8
0
 62
7
 10
70.2446
 20
45.6133
 30
0
 70
32
  0
VERTEX
  5
720F
  8
0
 62
7
 10
70.2455
 20
45.6137
 30
0
 70
32
  0
VERTEX
  5
7210
  8
0
 62
7
 10
70.2465
 20
45.6142
 30
0
 70
32
  0
VERTEX
  5
7211
  8
0
 62
7
 10
70.2475
 20
45.614699999999992
 30
0
 70
32
  0
VERTEX
  5
7212
  8
0
 62
7
 10
70.2485
 20
45.6151
 30
0
 70
32
  0
VERTEX
  5
7213
  8
0
 62
7
 10
70.2495
 20
45.6156
 30
0
 70
32
  0
VERTEX
  5
7214
  8
0
 62
7
 10
70.2505
 20
45.6161
 30
0
 70
32
  0
VERTEX
  5
7215
  8
0
 62
7
 10
70.2515
 20
45.616599999999991
 30
0
 70
32
  0
VERTEX
  5
7216
  8
0
 62
7
 10
70.2526
 20
45.6171
 30
0
 70
32
  0
VERTEX
  5
7217
  8
0
 62
7
 10
70.2536
 20
45.6176
 30
0
 70
32
  0
VERTEX
  5
7218
  8
0
 62
7
 10
70.2547
 20
45.6181
 30
0
 70
32
  0
VERTEX
  5
7219
  8
0
 62
7
 10
70.2558
 20
45.61869999999999
 30
0
 70
32
  0
VERTEX
  5
721A
  8
0
 62
7
 10
70.2569
 20
45.619199999999992
 30
0
 70
32
  0
VERTEX
  5
721B
  8
0
 62
7
 10
70.258
 20
45.6197
 30
0
 70
32
  0
VERTEX
  5
721C
  8
0
 62
7
 10
70.2591
 20
45.6203
 30
0
 70
32
  0
VERTEX
  5
721D
  8
0
 62
7
 10
70.260199999999983
 20
45.6208
 30
0
 70
32
  0
VERTEX
  5
721E
  8
0
 62
7
 10
70.2613
 20
45.621299999999991
 30
0
 70
32
  0
VERTEX
  5
721F
  8
0
 62
7
 10
70.2624
 20
45.6219
 30
0
 70
32
  0
VERTEX
  5
7220
  8
0
 62
7
 10
70.2636
 20
45.6224
 30
0
 70
32
  0
VERTEX
  5
7221
  8
0
 62
7
 10
70.2647
 20
45.62299999999999
 30
0
 70
32
  0
VERTEX
  5
7222
  8
0
 62
7
 10
70.2658
 20
45.6235
 30
0
 70
32
  0
VERTEX
  5
7223
  8
0
 62
7
 10
70.267
 20
45.624099999999991
 30
0
 70
32
  0
VERTEX
  5
7224
  8
0
 62
7
 10
70.2681
 20
45.6247
 30
0
 70
32
  0
VERTEX
  5
7225
  8
0
 62
7
 10
70.2693
 20
45.6252
 30
0
 70
32
  0
VERTEX
  5
7226
  8
0
 62
7
 10
70.2704
 20
45.625799999999991
 30
0
 70
32
  0
VERTEX
  5
7227
  8
0
 62
7
 10
70.2716
 20
45.6263
 30
0
 70
32
  0
VERTEX
  5
7228
  8
0
 62
7
 10
70.2727
 20
45.626899999999992
 30
0
 70
32
  0
VERTEX
  5
7229
  8
0
 62
7
 10
70.2739
 20
45.6274
 30
0
 70
32
  0
VERTEX
  5
722A
  8
0
 62
7
 10
70.275
 20
45.628
 30
0
 70
32
  0
VERTEX
  5
722B
  8
0
 62
7
 10
70.2762
 20
45.6285
 30
0
 70
32
  0
VERTEX
  5
722C
  8
0
 62
7
 10
70.2773
 20
45.6291
 30
0
 70
32
  0
VERTEX
  5
722D
  8
0
 62
7
 10
70.2784
 20
45.6296
 30
0
 70
32
  0
VERTEX
  5
722E
  8
0
 62
7
 10
70.2796
 20
45.6302
 30
0
 70
32
  0
VERTEX
  5
722F
  8
0
 62
7
 10
70.2807
 20
45.63069999999999
 30
0
 70
32
  0
VERTEX
  5
7230
  8
0
 62
7
 10
70.2818
 20
45.6313
 30
0
 70
32
  0
VERTEX
  5
7231
  8
0
 62
7
 10
70.2829
 20
45.6318
 30
0
 70
32
  0
VERTEX
  5
7232
  8
0
 62
7
 10
70.284
 20
45.632299999999987
 30
0
 70
32
  0
VERTEX
  5
7233
  8
0
 62
7
 10
70.2851
 20
45.6329
 30
0
 70
32
  0
VERTEX
  5
7234
  8
0
 62
7
 10
70.2862
 20
45.6334
 30
0
 70
32
  0
VERTEX
  5
7235
  8
0
 62
7
 10
70.2873
 20
45.6339
 30
0
 70
32
  0
VERTEX
  5
7236
  8
0
 62
7
 10
70.2883
 20
45.634399999999992
 30
0
 70
32
  0
VERTEX
  5
7237
  8
0
 62
7
 10
70.2894
 20
45.6349
 30
0
 70
32
  0
VERTEX
  5
7238
  8
0
 62
7
 10
70.2904
 20
45.63539999999999
 30
0
 70
32
  0
VERTEX
  5
7239
  8
0
 62
7
 10
70.2914
 20
45.6359
 30
0
 70
32
  0
VERTEX
  5
723A
  8
0
 62
7
 10
70.2925
 20
45.6364
 30
0
 70
32
  0
VERTEX
  5
723B
  8
0
 62
7
 10
70.2935
 20
45.6369
 30
0
 70
32
  0
VERTEX
  5
723C
  8
0
 62
7
 10
70.2944
 20
45.6374
 30
0
 70
32
  0
VERTEX
  5
723D
  8
0
 62
7
 10
70.2954
 20
45.6379
 30
0
 70
32
  0
VERTEX
  5
723E
  8
0
 62
7
 10
70.2964
 20
45.6383
 30
0
 70
32
  0
VERTEX
  5
723F
  8
0
 62
7
 10
70.2973
 20
45.6388
 30
0
 70
32
  0
VERTEX
  5
7240
  8
0
 62
7
 10
70.2982
 20
45.6392
 30
0
 70
32
  0
VERTEX
  5
7241
  8
0
 62
7
 10
70.2991
 20
45.6396
 30
0
 70
32
  0
VERTEX
  5
7242
  8
0
 62
7
 10
70.3
 20
45.64009999999999
 30
0
 70
32
  0
VERTEX
  5
7243
  8
0
 62
7
 10
70.3008
 20
45.6405
 30
0
 70
32
  0
VERTEX
  5
7244
  8
0
 62
7
 10
70.3017
 20
45.6409
 30
0
 70
32
  0
VERTEX
  5
7245
  8
0
 62
7
 10
70.3025
 20
45.6413
 30
0
 70
32
  0
VERTEX
  5
7246
  8
0
 62
7
 10
70.3033
 20
45.641699999999993
 30
0
 70
32
  0
VERTEX
  5
7247
  8
0
 62
7
 10
70.304
 20
45.642
 30
0
 70
32
  0
VERTEX
  5
7248
  8
0
 62
7
 10
70.3048
 20
45.6424
 30
0
 70
32
  0
VERTEX
  5
7249
  8
0
 62
7
 10
70.3055
 20
45.642699999999991
 30
0
 70
32
  0
VERTEX
  5
724A
  8
0
 62
7
 10
70.3062
 20
45.64309999999999
 30
0
 70
32
  0
VERTEX
  5
724B
  8
0
 62
7
 10
70.3068
 20
45.6434
 30
0
 70
32
  0
VERTEX
  5
724C
  8
0
 62
7
 10
70.3075
 20
45.6437
 30
0
 70
32
  0
VERTEX
  5
724D
  8
0
 62
7
 10
70.3081
 20
45.644
 30
0
 70
32
  0
VERTEX
  5
724E
  8
0
 62
7
 10
70.3087
 20
45.6443
 30
0
 70
32
  0
VERTEX
  5
724F
  8
0
 62
7
 10
70.3092
 20
45.644499999999987
 30
0
 70
32
  0
VERTEX
  5
7250
  8
0
 62
7
 10
70.3097
 20
45.644799999999989
 30
0
 70
32
  0
VERTEX
  5
7251
  8
0
 62
7
 10
70.3102
 20
45.645
 30
0
 70
32
  0
VERTEX
  5
7252
  8
0
 62
7
 10
70.3107
 20
45.6452
 30
0
 70
32
  0
VERTEX
  5
7253
  8
0
 62
7
 10
70.3111
 20
45.6454
 30
0
 70
32
  0
VERTEX
  5
7254
  8
0
 62
7
 10
70.3115
 20
45.6456
 30
0
 70
32
  0
VERTEX
  5
7255
  8
0
 62
7
 10
70.3118
 20
45.6458
 30
0
 70
32
  0
VERTEX
  5
7256
  8
0
 62
7
 10
70.3122
 20
45.646
 30
0
 70
32
  0
VERTEX
  5
7257
  8
0
 62
7
 10
70.3125
 20
45.6461
 30
0
 70
32
  0
VERTEX
  5
7258
  8
0
 62
7
 10
70.3127
 20
45.6462
 30
0
 70
32
  0
VERTEX
  5
7259
  8
0
 62
7
 10
70.3129
 20
45.6463
 30
0
 70
32
  0
VERTEX
  5
725A
  8
0
 62
7
 10
70.3131
 20
45.646399999999993
 30
0
 70
32
  0
VERTEX
  5
725B
  8
0
 62
7
 10
70.3132
 20
45.6465
 30
0
 70
32
  0
VERTEX
  5
725C
  8
0
 62
7
 10
70.3133
 20
45.6465
 30
0
 70
32
  0
VERTEX
  5
725D
  8
0
 62
7
 10
70.3134
 20
45.646599999999992
 30
0
 70
32
  0
VERTEX
  5
725E
  8
0
 62
7
 10
70.3134
 20
45.646599999999992
 30
0
 70
32
  0
SEQEND
  5
725F
  8
0
  0
POLYLINE
  5
65B7
  8
0
 62
7
 66
1
 70
0
 10
0
 20
0
 30
0
  0
VERTEX
  5
772D
  8
0
 62
7
 10
70.39749022364407
 20
45.731837838658457
 70
0
  0
VERTEX
  5
772E
  8
0
 62
7
 10
70.313429893803971
 20
45.64657172539853
 70
0
  0
SEQEND
  5
772F
  8
0
  0
POLYLINE
  5
65BB
  8
0
 62
7
 66
1
 70
0
 10
0
 20
0
 30
0
  0
VERTEX
  5
7730
  8
0
 62
7
 10
70.440209407661143
 20
45.731837838658457
 70
0
  0
VERTEX
  5
7731
  8
0
 62
7
 10
70.270710709786869
 20
45.562166886009891
 70
0
  0
SEQEND
  5
7732
  8
0
  0
POLYLINE
  5
65BF
  8
0
 62
7
 66
1
 70
0
 10
0
 20
0
 30
0
  0
VERTEX
  5
7733
  8
0
 62
7
 10
69.297815744752313
 20
44.334507109841127
 70
0
  0
VERTEX
  5
7734
  8
0
 62
7
 10
69.0855978628609
 20
44.20789985075821
 70
0
  0
SEQEND
  5
7735
  8
0
  0
POLYLINE
  5
65C3
  8
0
 62
7
 66
1
 70
0
 10
0
 20
0
 30
0
  0
VERTEX
  5
7736
  8
0
 62
7
 10
69.297815744752313
 20
44.122116973175459
 70
0
  0
VERTEX
  5
7737
  8
0
 62
7
 10
69.0855978628609
 20
43.99550971409257
 70
0
  0
SEQEND
  5
7738
  8
0
  0
POLYLINE
  5
65C7
  8
0
 62
7
 66
1
 70
0
 10
0
 20
0
 30
0
  0
VERTEX
  5
7739
  8
0
 62
7
 10
70.948705501284024
 20
43.784497615620957
 70
0
  0
VERTEX
  5
773A
  8
0
 62
7
 10
70.948705501284024
 20
43.82618327099253
 70
0
  0
SEQEND
  5
773B
  8
0
  0
POLYLINE
  5
65CB
  8
0
 62
7
 66
1
 70
0
 10
0
 20
0
 30
0
  0
VERTEX
  5
773C
  8
0
 62
7
 10
70.39749022364407
 20
50.302790528487932
 70
0
  0
VERTEX
  5
773D
  8
0
 62
7
 10
71.286324858838526
 20
48.990898167704813
 70
0
  0
SEQEND
  5
773E
  8
0
  0
POLYLINE
  5
65CF
  8
0
 62
7
 66
1
 70
0
 10
0
 20
0
 30
0
  0
VERTEX
  5
773F
  8
0
 62
7
 10
70.440209407661143
 20
50.556521810976619
 70
0
  0
VERTEX
  5
7740
  8
0
 62
7
 10
71.414482410889818
 20
49.160569120353387
 70
0
  0
SEQEND
  5
7741
  8
0
  0
POLYLINE
  5
65D3
  8
0
 62
7
 66
1
 70
0
 10
0
 20
0
 30
0
  0
VERTEX
  5
7742
  8
0
 62
7
 10
65.614319651923182
 20
42.556837839452207
 70
0
  0
VERTEX
  5
7743
  8
0
 62
7
 10
65.614319651923182
 20
42.726164282552247
 70
0
  0
SEQEND
  5
7744
  8
0
  0
POLYLINE
  5
65D7
  8
0
 62
7
 66
1
 70
0
 10
0
 20
0
 30
0
  0
VERTEX
  5
7745
  8
0
 62
7
 10
70.017151682072466
 20
47.2132288973159
 70
0
  0
VERTEX
  5
7746
  8
0
 62
7
 10
70.017151682072466
 20
47.2132288973159
 70
0
  0
SEQEND
  5
7747
  8
0
  0
POLYLINE
  5
65DB
  8
0
 62
7
 66
1
 70
0
 10
0
 20
0
 30
0
  0
VERTEX
  5
7748
  8
0
 62
7
 10
71.3290440428556
 20
44.038228898109637
 70
0
  0
VERTEX
  5
7749
  8
0
 62
7
 10
71.3717632268727
 20
44.038228898109637
 70
0
  0
VERTEX
  5
774A
  8
0
 62
7
 10
71.414482410889818
 20
44.080948082126717
 70
0
  0
VERTEX
  5
774B
  8
0
 62
7
 10
71.4558235567128
 20
44.080948082126717
 70
0
  0
VERTEX
  5
774C
  8
0
 62
7
 10
71.4558235567128
 20
44.165180666741087
 70
0
  0
VERTEX
  5
774D
  8
0
 62
7
 10
71.4985427407299
 20
44.165180666741087
 70
0
  0
VERTEX
  5
774E
  8
0
 62
7
 10
71.541261924747019
 20
44.165180666741087
 70
0
  0
VERTEX
  5
774F
  8
0
 62
7
 10
71.541261924747019
 20
44.20789985075821
 70
0
  0
VERTEX
  5
7750
  8
0
 62
7
 10
71.58260307057
 20
44.20789985075821
 70
0
  0
VERTEX
  5
7751
  8
0
 62
7
 10
71.58260307057
 20
44.250619034775283
 70
0
  0
VERTEX
  5
7752
  8
0
 62
7
 10
71.6253222545871
 20
44.291787925824053
 70
0
  0
VERTEX
  5
7753
  8
0
 62
7
 10
71.6680414386042
 20
44.291787925824053
 70
0
  0
VERTEX
  5
7754
  8
0
 62
7
 10
71.6680414386042
 20
44.334507109841127
 70
0
  0
VERTEX
  5
7755
  8
0
 62
7
 10
71.7107606226213
 20
44.334507109841127
 70
0
  0
VERTEX
  5
7756
  8
0
 62
7
 10
71.7107606226213
 20
44.377226293858257
 70
0
  0
VERTEX
  5
7757
  8
0
 62
7
 10
71.7521017684443
 20
44.418395184906942
 70
0
  0
VERTEX
  5
7758
  8
0
 62
7
 10
71.794820952461379
 20
44.418395184906942
 70
0
  0
VERTEX
  5
7759
  8
0
 62
7
 10
71.794820952461379
 20
44.461114368924072
 70
0
  0
VERTEX
  5
775A
  8
0
 62
7
 10
71.837540136478481
 20
44.461114368924072
 70
0
  0
VERTEX
  5
775B
  8
0
 62
7
 10
71.837540136478481
 20
44.546897246506767
 70
0
  0
VERTEX
  5
775C
  8
0
 62
7
 10
71.878881282301478
 20
44.546897246506767
 70
0
  0
VERTEX
  5
775D
  8
0
 62
7
 10
71.92160046631858
 20
44.546897246506767
 70
0
  0
VERTEX
  5
775E
  8
0
 62
7
 10
71.92160046631858
 20
44.6307853215726
 70
0
  0
VERTEX
  5
775F
  8
0
 62
7
 10
71.964319650335682
 20
44.6307853215726
 70
0
  0
VERTEX
  5
7760
  8
0
 62
7
 10
71.964319650335682
 20
44.673504505589719
 70
0
  0
VERTEX
  5
7761
  8
0
 62
7
 10
72.007038834352784
 20
44.7148456514127
 70
0
  0
VERTEX
  5
7762
  8
0
 62
7
 10
72.048379980175781
 20
44.7148456514127
 70
0
  0
VERTEX
  5
7763
  8
0
 62
7
 10
72.048379980175781
 20
44.800111764672643
 70
0
  0
VERTEX
  5
7764
  8
0
 62
7
 10
72.091099164192883
 20
44.800111764672643
 70
0
  0
VERTEX
  5
7765
  8
0
 62
7
 10
72.091099164192883
 20
44.884516604061261
 70
0
  0
VERTEX
  5
7766
  8
0
 62
7
 10
72.133818348209985
 20
44.884516604061261
 70
0
  0
VERTEX
  5
7767
  8
0
 62
7
 10
72.133818348209985
 20
44.927235788078349
 70
0
  0
VERTEX
  5
7768
  8
0
 62
7
 10
72.175159494032982
 20
44.927235788078349
 70
0
  0
VERTEX
  5
7769
  8
0
 62
7
 10
72.175159494032982
 20
45.011123863144157
 70
0
  0
VERTEX
  5
776A
  8
0
 62
7
 10
72.217878678050084
 20
45.011123863144157
 70
0
  0
VERTEX
  5
776B
  8
0
 62
7
 10
72.217878678050084
 20
45.096562231178382
 70
0
  0
VERTEX
  5
776C
  8
0
 62
7
 10
72.260597862067144
 20
45.096562231178382
 70
0
  0
VERTEX
  5
776D
  8
0
 62
7
 10
72.260597862067144
 20
45.1392814151955
 70
0
  0
VERTEX
  5
776E
  8
0
 62
7
 10
72.30331704608426
 20
45.180450306244211
 70
0
  0
VERTEX
  5
776F
  8
0
 62
7
 10
72.30331704608426
 20
45.223513999809882
 70
0
  0
VERTEX
  5
7770
  8
0
 62
7
 10
72.344658191907257
 20
45.223513999809882
 70
0
  0
VERTEX
  5
7771
  8
0
 62
7
 10
72.344658191907257
 20
45.350121258892777
 70
0
  0
VERTEX
  5
7772
  8
0
 62
7
 10
72.387377375924373
 20
45.350121258892777
 70
0
  0
VERTEX
  5
7773
  8
0
 62
7
 10
72.387377375924373
 20
45.3928404429099
 70
0
  0
VERTEX
  5
7774
  8
0
 62
7
 10
72.430096559941461
 20
45.435559626926967
 70
0
  0
VERTEX
  5
7775
  8
0
 62
7
 10
72.430096559941461
 20
45.51944770199281
 70
0
  0
VERTEX
  5
7776
  8
0
 62
7
 10
72.472815743958563
 20
45.51944770199281
 70
0
  0
VERTEX
  5
7777
  8
0
 62
7
 10
72.472815743958563
 20
45.646399470624253
 70
0
  0
VERTEX
  5
7778
  8
0
 62
7
 10
72.51415688978156
 20
45.646399470624253
 70
0
  0
VERTEX
  5
7779
  8
0
 62
7
 10
72.51415688978156
 20
45.689118654641391
 70
0
  0
VERTEX
  5
777A
  8
0
 62
7
 10
72.556876073798662
 20
45.731837838658457
 70
0
  0
VERTEX
  5
777B
  8
0
 62
7
 10
72.556876073798662
 20
45.815898168498563
 70
0
  0
VERTEX
  5
777C
  8
0
 62
7
 10
72.599595257815764
 20
45.858445097741424
 70
0
  0
VERTEX
  5
777D
  8
0
 62
7
 10
72.599595257815764
 20
45.98556912114713
 70
0
  0
VERTEX
  5
777E
  8
0
 62
7
 10
72.640936403638733
 20
45.98556912114713
 70
0
  0
VERTEX
  5
777F
  8
0
 62
7
 10
72.640936403638733
 20
46.069457196212959
 70
0
  0
VERTEX
  5
7780
  8
0
 62
7
 10
72.683655587655863
 20
46.069457196212959
 70
0
  0
VERTEX
  5
7781
  8
0
 62
7
 10
72.683655587655863
 20
46.238783639312992
 70
0
  0
VERTEX
  5
7782
  8
0
 62
7
 10
72.726374771672937
 20
46.238783639312992
 70
0
  0
VERTEX
  5
7783
  8
0
 62
7
 10
72.726374771672937
 20
46.4938929599957
 70
0
  0
VERTEX
  5
7784
  8
0
 62
7
 10
72.769093955690053
 20
46.4938929599957
 70
0
  0
VERTEX
  5
7785
  8
0
 62
7
 10
72.769093955690053
 20
46.577781035061541
 70
0
  0
VERTEX
  5
7786
  8
0
 62
7
 10
72.810435101513008
 20
46.620500219078693
 70
0
  0
VERTEX
  5
7787
  8
0
 62
7
 10
72.810435101513008
 20
46.704732803693027
 70
0
  0
SEQEND
  5
7788
  8
0
  0
POLYLINE
  5
661D
  8
0
 62
7
 66
1
 70
0
 10
0
 20
0
 30
0
  0
VERTEX
  5
7789
  8
0
 62
7
 10
71.3290440428556
 20
44.038228898109637
 70
0
  0
VERTEX
  5
778A
  8
0
 62
7
 10
71.3290440428556
 20
44.038228898109637
 70
0
  0
SEQEND
  5
778B
  8
0
  0
POLYLINE
  5
6621
  8
0
 62
7
 66
1
 70
0
 10
0
 20
0
 30
0
  0
VERTEX
  5
778C
  8
0
 62
7
 10
68.280823557506537
 20
45.053843047161287
 70
0
  0
VERTEX
  5
778D
  8
0
 62
7
 10
68.280823557506537
 20
44.9697827173212
 70
0
  0
SEQEND
  5
778E
  8
0
  0
POLYLINE
  5
6625
  8
0
 62
7
 66
1
 70
0
 10
0
 20
0
 30
0
  0
VERTEX
  5
778F
  8
0
 62
7
 10
68.577101769238055
 20
45.815898168498563
 70
0
  0
VERTEX
  5
7790
  8
0
 62
7
 10
68.577101769238055
 20
45.435559626926967
 70
0
  0
SEQEND
  5
7791
  8
0
  0
POLYLINE
  5
6629
  8
0
 62
7
 66
1
 70
0
 10
0
 20
0
 30
0
  0
VERTEX
  5
7792
  8
0
 62
7
 10
69.255096560735211
 20
44.291787925824053
 70
0
  0
VERTEX
  5
7793
  8
0
 62
7
 10
69.255096560735211
 20
44.588066137555529
 70
0
  0
SEQEND
  5
7794
  8
0
  0
POLYLINE
  5
662D
  8
0
 62
7
 66
1
 70
0
 10
0
 20
0
 30
0
  0
VERTEX
  5
7795
  8
0
 62
7
 10
69.255096560735211
 20
48.016452909701911
 70
0
  0
VERTEX
  5
7796
  8
0
 62
7
 10
69.255096560735211
 20
48.905459799670609
 70
0
  0
SEQEND
  5
7797
  8
0
  0
POLYLINE
  5
6631
  8
0
 62
7
 66
1
 70
0
 10
0
 20
0
 30
0
  0
VERTEX
  5
7798
  8
0
 62
7
 10
69.551374772466687
 20
45.60523057957554
 70
0
  0
VERTEX
  5
7799
  8
0
 62
7
 10
69.551374772466687
 20
45.60523057957554
 70
0
  0
SEQEND
  5
779A
  8
0
  0
POLYLINE
  5
6635
  8
0
 62
7
 66
1
 70
0
 10
0
 20
0
 30
0
  0
VERTEX
  5
779B
  8
0
 62
7
 10
69.594093956483775
 20
46.87423150156728
 70
0
  0
VERTEX
  5
779C
  8
0
 62
7
 10
69.594093956483775
 20
46.747451987710107
 70
0
  0
SEQEND
  5
779D
  8
0
  0
POLYLINE
  5
6639
  8
0
 62
7
 66
1
 70
0
 10
0
 20
0
 30
0
  0
VERTEX
  5
779E
  8
0
 62
7
 10
69.635435102306786
 20
46.747451987710107
 70
0
  0
VERTEX
  5
779F
  8
0
 62
7
 10
69.635435102306786
 20
46.87423150156728
 70
0
  0
SEQEND
  5
77A0
  8
0
  0
POLYLINE
  5
663D
  8
0
 62
7
 66
1
 70
0
 10
0
 20
0
 30
0
  0
VERTEX
  5
77A1
  8
0
 62
7
 10
69.551374772466687
 20
45.60523057957554
 70
0
  0
VERTEX
  5
77A2
  8
0
 62
7
 10
69.551374772466687
 20
45.60523057957554
 70
0
  0
SEQEND
  5
77A3
  8
0
  0
POLYLINE
  5
6641
  8
0
 62
7
 66
1
 70
0
 10
0
 20
0
 30
0
  0
VERTEX
  5
77A4
  8
0
 62
7
 10
73.065372167421557
 20
48.737166885216141
 70
0
  0
VERTEX
  5
77A5
  8
0
 62
7
 10
73.022652983404456
 20
48.737166885216141
 70
0
  0
VERTEX
  5
77A6
  8
0
 62
7
 10
73.022652983404456
 20
48.7788525405877
 70
0
  0
SEQEND
  5
77A7
  8
0
  0
POLYLINE
  5
6646
  8
0
 62
7
 66
1
 70
0
 10
0
 20
0
 30
0
  0
VERTEX
  5
77A8
  8
0
 62
7
 10
70.017151682072466
 20
47.805785320778853
 70
0
  0
VERTEX
  5
77A9
  8
0
 62
7
 10
70.017151682072466
 20
47.466787925030289
 70
0
  0
SEQEND
  5
77AA
  8
0
  0
POLYLINE
  5
664A
  8
0
 62
7
 66
1
 70
0
 10
0
 20
0
 30
0
  0
VERTEX
  5
77AB
  8
0
 62
7
 10
70.017151682072466
 20
46.87423150156728
 70
0
  0
VERTEX
  5
77AC
  8
0
 62
7
 10
70.017151682072466
 20
46.577781035061541
 70
0
  0
SEQEND
  5
77AD
  8
0
  0
POLYLINE
  5
664E
  8
0
 62
7
 66
1
 70
0
 10
0
 20
0
 30
0
  0
VERTEX
  5
77AE
  8
0
 62
7
 10
70.059870866089568
 20
45.731837838658457
 70
0
  0
VERTEX
  5
77AF
  8
0
 62
7
 10
70.059870866089568
 20
45.64657172539853
 70
0
  0
SEQEND
  5
77B0
  8
0
  0
POLYLINE
  5
6652
  8
0
 62
7
 66
1
 70
0
 10
0
 20
0
 30
0
  0
VERTEX
  5
77B1
  8
0
 62
7
 10
70.059870866089568
 20
46.87423150156728
 70
0
  0
VERTEX
  5
77B2
  8
0
 62
7
 10
70.059870866089568
 20
47.086449383458721
 70
0
  0
SEQEND
  5
77B3
  8
0
  0
POLYLINE
  5
6656
  8
0
 62
7
 66
1
 70
0
 10
0
 20
0
 30
0
  0
VERTEX
  5
77B4
  8
0
 62
7
 10
70.143931195929653
 20
47.127790529281683
 70
0
  0
VERTEX
  5
77B5
  8
0
 62
7
 10
70.143931195929653
 20
46.87423150156728
 70
0
  0
SEQEND
  5
77B6
  8
0
  0
POLYLINE
  5
665A
  8
0
 62
7
 66
1
 70
0
 10
0
 20
0
 30
0
  0
VERTEX
  5
77B7
  8
0
 62
7
 10
70.227991525769781
 20
45.60523057957554
 70
0
  0
VERTEX
  5
77B8
  8
0
 62
7
 10
70.227991525769781
 20
45.60523057957554
 70
0
  0
SEQEND
  5
77B9
  8
0
  0
POLYLINE
  5
665E
  8
0
 62
7
 66
1
 70
0
 10
0
 20
0
 30
0
  0
VERTEX
  5
77BA
  8
0
 62
7
 10
70.736487619392634
 20
47.2132288973159
 70
0
  0
VERTEX
  5
77BB
  8
0
 62
7
 10
70.736487619392634
 20
46.87423150156728
 70
0
  0
SEQEND
  5
77BC
  8
0
  0
POLYLINE
  5
6662
  8
0
 62
7
 66
1
 70
0
 10
0
 20
0
 30
0
  0
VERTEX
  5
77BD
  8
0
 62
7
 10
71.286324858838526
 20
48.990898167704813
 70
0
  0
VERTEX
  5
77BE
  8
0
 62
7
 10
71.286324858838526
 20
48.94817898368774
 70
0
  0
SEQEND
  5
77BF
  8
0
  0
POLYLINE
  5
6666
  8
0
 62
7
 66
1
 70
0
 10
0
 20
0
 30
0
  0
VERTEX
  5
77C0
  8
0
 62
7
 10
71.414482410889818
 20
49.074786242770642
 70
0
  0
VERTEX
  5
77C1
  8
0
 62
7
 10
71.414482410889818
 20
48.990898167704813
 70
0
  0
SEQEND
  5
77C2
  8
0
  0
POLYLINE
  5
666A
  8
0
 62
7
 66
1
 70
0
 10
0
 20
0
 30
0
  0
VERTEX
  5
77C3
  8
0
 62
7
 10
71.286324858838526
 20
48.94817898368774
 70
0
  0
VERTEX
  5
77C4
  8
0
 62
7
 10
70.948705501284024
 20
47.086449383458721
 70
0
  0
SEQEND
  5
77C5
  8
0
  0
POLYLINE
  5
666E
  8
0
 62
7
 66
1
 70
0
 10
0
 20
0
 30
0
  0
VERTEX
  5
77C6
  8
0
 62
7
 10
71.414482410889818
 20
48.94817898368774
 70
0
  0
VERTEX
  5
77C7
  8
0
 62
7
 10
71.075485015141226
 20
47.086449383458721
 70
0
  0
SEQEND
  5
77C8
  8
0
  0
POLYLINE
  5
6672
  8
0
 62
7
 66
1
 70
0
 10
0
 20
0
 30
0
  0
VERTEX
  5
77C9
  8
0
 62
7
 10
73.065372167421557
 20
48.609181587939119
 70
0
  0
VERTEX
  5
77CA
  8
0
 62
7
 10
73.065372167421557
 20
48.694447701199067
 70
0
  0
SEQEND
  5
77CB
  8
0
  0
POLYLINE
  5
6676
  8
0
 62
7
 66
1
 70
0
 10
0
 20
0
 30
0
  0
VERTEX
  5
77CC
  8
0
 62
7
 10
71.202264528998427
 20
48.525121258099027
 70
0
  0
VERTEX
  5
77CD
  8
0
 62
7
 10
71.202264528998427
 20
48.651728517182
 70
0
  0
SEQEND
  5
77CE
  8
0
  0
POLYLINE
  5
667A
  8
0
 62
7
 66
1
 70
0
 10
0
 20
0
 30
0
  0
VERTEX
  5
77CF
  8
0
 62
7
 10
69.974432498055364
 20
47.340180665947337
 70
0
  0
VERTEX
  5
77D0
  8
0
 62
7
 10
69.931713314038291
 20
47.340180665947337
 70
0
  0
SEQEND
  5
77D1
  8
0
  0
POLYLINE
  5
667E
  8
0
 62
7
 66
1
 70
0
 10
0
 20
0
 30
0
  0
VERTEX
  5
77D2
  8
0
 62
7
 10
69.931713314038291
 20
47.297116972381723
 70
0
  0
VERTEX
  5
77D3
  8
0
 62
7
 10
69.890372168215279
 20
47.297116972381723
 70
0
  0
SEQEND
  5
77D4
  8
0
  0
POLYLINE
  5
6682
  8
0
 62
7
 66
1
 70
0
 10
0
 20
0
 30
0
  0
VERTEX
  5
77D5
  8
0
 62
7
 10
69.80493380018109
 20
47.255948081332967
 70
0
  0
VERTEX
  5
77D6
  8
0
 62
7
 10
69.80493380018109
 20
47.255948081332967
 70
0
  0
SEQEND
  5
77D7
  8
0
  0
POLYLINE
  5
6686
  8
0
 62
7
 66
1
 70
0
 10
0
 20
0
 30
0
  0
VERTEX
  5
77D8
  8
0
 62
7
 10
69.931713314038291
 20
47.2132288973159
 70
0
  0
VERTEX
  5
77D9
  8
0
 62
7
 10
70.017151682072466
 20
47.2132288973159
 70
0
  0
SEQEND
  5
77DA
  8
0
  0
POLYLINE
  5
668A
  8
0
 62
7
 66
1
 70
0
 10
0
 20
0
 30
0
  0
VERTEX
  5
77DB
  8
0
 62
7
 10
70.948705501284024
 20
46.958119576633123
 70
0
  0
VERTEX
  5
77DC
  8
0
 62
7
 10
70.948705501284024
 20
46.916778430810147
 70
0
  0
SEQEND
  5
77DD
  8
0
  0
POLYLINE
  5
7260
  8
0
 62
7
 66
1
 70
8
  0
VERTEX
  5
7261
  8
0
 62
7
 10
70.7792
 20
46.8742
 30
0
 70
32
  0
VERTEX
  5
7262
  8
0
 62
7
 10
70.7792
 20
46.8742
 30
0
 70
32
  0
VERTEX
  5
7263
  8
0
 62
7
 10
70.7792
 20
46.8742
 30
0
 70
32
  0
VERTEX
  5
7264
  8
0
 62
7
 10
70.7791
 20
46.874099999999991
 30
0
 70
32
  0
VERTEX
  5
7265
  8
0
 62
7
 10
70.779
 20
46.873899999999992
 30
0
 70
32
  0
VERTEX
  5
7266
  8
0
 62
7
 10
70.779
 20
46.8737
 30
0
 70
32
  0
VERTEX
  5
7267
  8
0
 62
7
 10
70.7788
 20
46.8735
 30
0
 70
32
  0
VERTEX
  5
7268
  8
0
 62
7
 10
70.7787
 20
46.8733
 30
0
 70
32
  0
VERTEX
  5
7269
  8
0
 62
7
 10
70.7786
 20
46.87299999999999
 30
0
 70
32
  0
VERTEX
  5
726A
  8
0
 62
7
 10
70.7784
 20
46.8727
 30
0
 70
32
  0
VERTEX
  5
726B
  8
0
 62
7
 10
70.7782
 20
46.8723
 30
0
 70
32
  0
VERTEX
  5
726C
  8
0
 62
7
 10
70.778
 20
46.8719
 30
0
 70
32
  0
VERTEX
  5
726D
  8
0
 62
7
 10
70.7778
 20
46.87149999999999
 30
0
 70
32
  0
VERTEX
  5
726E
  8
0
 62
7
 10
70.7776
 20
46.871099999999991
 30
0
 70
32
  0
VERTEX
  5
726F
  8
0
 62
7
 10
70.7774
 20
46.8706
 30
0
 70
32
  0
VERTEX
  5
7270
  8
0
 62
7
 10
70.7771
 20
46.870099999999987
 30
0
 70
32
  0
VERTEX
  5
7271
  8
0
 62
7
 10
70.7768
 20
46.8695
 30
0
 70
32
  0
VERTEX
  5
7272
  8
0
 62
7
 10
70.7765
 20
46.869
 30
0
 70
32
  0
VERTEX
  5
7273
  8
0
 62
7
 10
70.7762
 20
46.8684
 30
0
 70
32
  0
VERTEX
  5
7274
  8
0
 62
7
 10
70.7759
 20
46.8677
 30
0
 70
32
  0
VERTEX
  5
7275
  8
0
 62
7
 10
70.7756
 20
46.8671
 30
0
 70
32
  0
VERTEX
  5
7276
  8
0
 62
7
 10
70.775199999999984
 20
46.866399999999992
 30
0
 70
32
  0
VERTEX
  5
7277
  8
0
 62
7
 10
70.7749
 20
46.86569999999999
 30
0
 70
32
  0
VERTEX
  5
7278
  8
0
 62
7
 10
70.7745
 20
46.865
 30
0
 70
32
  0
VERTEX
  5
7279
  8
0
 62
7
 10
70.7741
 20
46.8642
 30
0
 70
32
  0
VERTEX
  5
727A
  8
0
 62
7
 10
70.7737
 20
46.8634
 30
0
 70
32
  0
VERTEX
  5
727B
  8
0
 62
7
 10
70.7733
 20
46.86269999999999
 30
0
 70
32
  0
VERTEX
  5
727C
  8
0
 62
7
 10
70.7729
 20
46.8618
 30
0
 70
32
  0
VERTEX
  5
727D
  8
0
 62
7
 10
70.7725
 20
46.86099999999999
 30
0
 70
32
  0
VERTEX
  5
727E
  8
0
 62
7
 10
70.772
 20
46.8601
 30
0
 70
32
  0
VERTEX
  5
727F
  8
0
 62
7
 10
70.7716
 20
46.85929999999999
 30
0
 70
32
  0
VERTEX
  5
7280
  8
0
 62
7
 10
70.7711
 20
46.8584
 30
0
 70
32
  0
VERTEX
  5
7281
  8
0
 62
7
 10
70.7707
 20
46.8574
 30
0
 70
32
  0
VERTEX
  5
7282
  8
0
 62
7
 10
70.7702
 20
46.85649999999999
 30
0
 70
32
  0
VERTEX
  5
7283
  8
0
 62
7
 10
70.7697
 20
46.8555
 30
0
 70
32
  0
VERTEX
  5
7284
  8
0
 62
7
 10
70.7692
 20
46.854599999999991
 30
0
 70
32
  0
VERTEX
  5
7285
  8
0
 62
7
 10
70.7687
 20
46.8536
 30
0
 70
32
  0
VERTEX
  5
7286
  8
0
 62
7
 10
70.7682
 20
46.8526
 30
0
 70
32
  0
VERTEX
  5
7287
  8
0
 62
7
 10
70.7677
 20
46.851599999999991
 30
0
 70
32
  0
VERTEX
  5
7288
  8
0
 62
7
 10
70.7672
 20
46.8506
 30
0
 70
32
  0
VERTEX
  5
7289
  8
0
 62
7
 10
70.7667
 20
46.849499999999992
 30
0
 70
32
  0
VERTEX
  5
728A
  8
0
 62
7
 10
70.7661
 20
46.848499999999987
 30
0
 70
32
  0
VERTEX
  5
728B
  8
0
 62
7
 10
70.7656
 20
46.8474
 30
0
 70
32
  0
VERTEX
  5
728C
  8
0
 62
7
 10
70.765
 20
46.8464
 30
0
 70
32
  0
VERTEX
  5
728D
  8
0
 62
7
 10
70.7645
 20
46.8453
 30
0
 70
32
  0
VERTEX
  5
728E
  8
0
 62
7
 10
70.7639
 20
46.8442
 30
0
 70
32
  0
VERTEX
  5
728F
  8
0
 62
7
 10
70.7634
 20
46.843099999999993
 30
0
 70
32
  0
VERTEX
  5
7290
  8
0
 62
7
 10
70.7628
 20
46.841999999999992
 30
0
 70
32
  0
VERTEX
  5
7291
  8
0
 62
7
 10
70.7623
 20
46.8409
 30
0
 70
32
  0
VERTEX
  5
7292
  8
0
 62
7
 10
70.7617
 20
46.8398
 30
0
 70
32
  0
VERTEX
  5
7293
  8
0
 62
7
 10
70.761099999999985
 20
46.8387
 30
0
 70
32
  0
VERTEX
  5
7294
  8
0
 62
7
 10
70.7606
 20
46.8376
 30
0
 70
32
  0
VERTEX
  5
7295
  8
0
 62
7
 10
70.76
 20
46.83639999999999
 30
0
 70
32
  0
VERTEX
  5
7296
  8
0
 62
7
 10
70.7594
 20
46.8353
 30
0
 70
32
  0
VERTEX
  5
7297
  8
0
 62
7
 10
70.7589
 20
46.8342
 30
0
 70
32
  0
VERTEX
  5
7298
  8
0
 62
7
 10
70.7583
 20
46.833
 30
0
 70
32
  0
VERTEX
  5
7299
  8
0
 62
7
 10
70.7577
 20
46.83189999999999
 30
0
 70
32
  0
VERTEX
  5
729A
  8
0
 62
7
 10
70.7571
 20
46.8308
 30
0
 70
32
  0
VERTEX
  5
729B
  8
0
 62
7
 10
70.7566
 20
46.8297
 30
0
 70
32
  0
VERTEX
  5
729C
  8
0
 62
7
 10
70.756
 20
46.8285
 30
0
 70
32
  0
VERTEX
  5
729D
  8
0
 62
7
 10
70.7554
 20
46.82739999999999
 30
0
 70
32
  0
VERTEX
  5
729E
  8
0
 62
7
 10
70.7548
 20
46.8263
 30
0
 70
32
  0
VERTEX
  5
729F
  8
0
 62
7
 10
70.7543
 20
46.8252
 30
0
 70
32
  0
VERTEX
  5
72A0
  8
0
 62
7
 10
70.7537
 20
46.824
 30
0
 70
32
  0
VERTEX
  5
72A1
  8
0
 62
7
 10
70.7531
 20
46.8229
 30
0
 70
32
  0
VERTEX
  5
72A2
  8
0
 62
7
 10
70.7526
 20
46.8218
 30
0
 70
32
  0
VERTEX
  5
72A3
  8
0
 62
7
 10
70.752
 20
46.8207
 30
0
 70
32
  0
VERTEX
  5
72A4
  8
0
 62
7
 10
70.7515
 20
46.81969999999999
 30
0
 70
32
  0
VERTEX
  5
72A5
  8
0
 62
7
 10
70.7509
 20
46.8186
 30
0
 70
32
  0
VERTEX
  5
72A6
  8
0
 62
7
 10
70.7504
 20
46.8175
 30
0
 70
32
  0
VERTEX
  5
72A7
  8
0
 62
7
 10
70.7498
 20
46.8164
 30
0
 70
32
  0
VERTEX
  5
72A8
  8
0
 62
7
 10
70.7493
 20
46.8154
 30
0
 70
32
  0
VERTEX
  5
72A9
  8
0
 62
7
 10
70.7488
 20
46.8143
 30
0
 70
32
  0
VERTEX
  5
72AA
  8
0
 62
7
 10
70.7483
 20
46.813299999999991
 30
0
 70
32
  0
VERTEX
  5
72AB
  8
0
 62
7
 10
70.7477
 20
46.8123
 30
0
 70
32
  0
VERTEX
  5
72AC
  8
0
 62
7
 10
70.7472
 20
46.8113
 30
0
 70
32
  0
VERTEX
  5
72AD
  8
0
 62
7
 10
70.7467
 20
46.810299999999991
 30
0
 70
32
  0
VERTEX
  5
72AE
  8
0
 62
7
 10
70.7462
 20
46.8093
 30
0
 70
32
  0
VERTEX
  5
72AF
  8
0
 62
7
 10
70.7457
 20
46.808399999999992
 30
0
 70
32
  0
VERTEX
  5
72B0
  8
0
 62
7
 10
70.7453
 20
46.8074
 30
0
 70
32
  0
VERTEX
  5
72B1
  8
0
 62
7
 10
70.7448
 20
46.806499999999993
 30
0
 70
32
  0
VERTEX
  5
72B2
  8
0
 62
7
 10
70.7443
 20
46.805599999999991
 30
0
 70
32
  0
VERTEX
  5
72B3
  8
0
 62
7
 10
70.7439
 20
46.80469999999999
 30
0
 70
32
  0
VERTEX
  5
72B4
  8
0
 62
7
 10
70.7434
 20
46.8038
 30
0
 70
32
  0
VERTEX
  5
72B5
  8
0
 62
7
 10
70.743
 20
46.80299999999999
 30
0
 70
32
  0
VERTEX
  5
72B6
  8
0
 62
7
 10
70.7426
 20
46.8022
 30
0
 70
32
  0
VERTEX
  5
72B7
  8
0
 62
7
 10
70.7422
 20
46.8014
 30
0
 70
32
  0
VERTEX
  5
72B8
  8
0
 62
7
 10
70.7418
 20
46.8006
 30
0
 70
32
  0
VERTEX
  5
72B9
  8
0
 62
7
 10
70.741399999999985
 20
46.799799999999991
 30
0
 70
32
  0
VERTEX
  5
72BA
  8
0
 62
7
 10
70.741
 20
46.7991
 30
0
 70
32
  0
VERTEX
  5
72BB
  8
0
 62
7
 10
70.7406
 20
46.79829999999999
 30
0
 70
32
  0
VERTEX
  5
72BC
  8
0
 62
7
 10
70.7403
 20
46.7977
 30
0
 70
32
  0
VERTEX
  5
72BD
  8
0
 62
7
 10
70.74
 20
46.79699999999999
 30
0
 70
32
  0
VERTEX
  5
72BE
  8
0
 62
7
 10
70.7396
 20
46.7963
 30
0
 70
32
  0
VERTEX
  5
72BF
  8
0
 62
7
 10
70.7393
 20
46.7957
 30
0
 70
32
  0
VERTEX
  5
72C0
  8
0
 62
7
 10
70.739
 20
46.795099999999991
 30
0
 70
32
  0
VERTEX
  5
72C1
  8
0
 62
7
 10
70.7387
 20
46.7946
 30
0
 70
32
  0
VERTEX
  5
72C2
  8
0
 62
7
 10
70.7385
 20
46.794099999999993
 30
0
 70
32
  0
VERTEX
  5
72C3
  8
0
 62
7
 10
70.7382
 20
46.793599999999991
 30
0
 70
32
  0
VERTEX
  5
72C4
  8
0
 62
7
 10
70.738
 20
46.7931
 30
0
 70
32
  0
VERTEX
  5
72C5
  8
0
 62
7
 10
70.7378
 20
46.7927
 30
0
 70
32
  0
VERTEX
  5
72C6
  8
0
 62
7
 10
70.7376
 20
46.79229999999999
 30
0
 70
32
  0
VERTEX
  5
72C7
  8
0
 62
7
 10
70.7374
 20
46.7919
 30
0
 70
32
  0
VERTEX
  5
72C8
  8
0
 62
7
 10
70.7372
 20
46.7916
 30
0
 70
32
  0
VERTEX
  5
72C9
  8
0
 62
7
 10
70.737
 20
46.791299999999993
 30
0
 70
32
  0
VERTEX
  5
72CA
  8
0
 62
7
 10
70.7369
 20
46.791
 30
0
 70
32
  0
VERTEX
  5
72CB
  8
0
 62
7
 10
70.7368
 20
46.79079999999999
 30
0
 70
32
  0
VERTEX
  5
72CC
  8
0
 62
7
 10
70.736699999999985
 20
46.790599999999991
 30
0
 70
32
  0
VERTEX
  5
72CD
  8
0
 62
7
 10
70.7366
 20
46.790399999999991
 30
0
 70
32
  0
VERTEX
  5
72CE
  8
0
 62
7
 10
70.7366
 20
46.7903
 30
0
 70
32
  0
VERTEX
  5
72CF
  8
0
 62
7
 10
70.7365
 20
46.7902
 30
0
 70
32
  0
VERTEX
  5
72D0
  8
0
 62
7
 10
70.7365
 20
46.7902
 30
0
 70
32
  0
VERTEX
  5
72D1
  8
0
 62
7
 10
70.7365
 20
46.7902
 30
0
 70
32
  0
VERTEX
  5
72D2
  8
0
 62
7
 10
70.7365
 20
46.7902
 30
0
 70
32
  0
VERTEX
  5
72D3
  8
0
 62
7
 10
70.7366
 20
46.7903
 30
0
 70
32
  0
VERTEX
  5
72D4
  8
0
 62
7
 10
70.7366
 20
46.790399999999991
 30
0
 70
32
  0
VERTEX
  5
72D5
  8
0
 62
7
 10
70.736699999999985
 20
46.790599999999991
 30
0
 70
32
  0
VERTEX
  5
72D6
  8
0
 62
7
 10
70.7368
 20
46.79079999999999
 30
0
 70
32
  0
VERTEX
  5
72D7
  8
0
 62
7
 10
70.7369
 20
46.791
 30
0
 70
32
  0
VERTEX
  5
72D8
  8
0
 62
7
 10
70.737
 20
46.791299999999993
 30
0
 70
32
  0
VERTEX
  5
72D9
  8
0
 62
7
 10
70.7372
 20
46.7916
 30
0
 70
32
  0
VERTEX
  5
72DA
  8
0
 62
7
 10
70.7374
 20
46.7919
 30
0
 70
32
  0
VERTEX
  5
72DB
  8
0
 62
7
 10
70.7376
 20
46.79229999999999
 30
0
 70
32
  0
VERTEX
  5
72DC
  8
0
 62
7
 10
70.7378
 20
46.7927
 30
0
 70
32
  0
VERTEX
  5
72DD
  8
0
 62
7
 10
70.738
 20
46.7931
 30
0
 70
32
  0
VERTEX
  5
72DE
  8
0
 62
7
 10
70.7382
 20
46.793599999999991
 30
0
 70
32
  0
VERTEX
  5
72DF
  8
0
 62
7
 10
70.7385
 20
46.794099999999993
 30
0
 70
32
  0
VERTEX
  5
72E0
  8
0
 62
7
 10
70.7387
 20
46.7946
 30
0
 70
32
  0
VERTEX
  5
72E1
  8
0
 62
7
 10
70.739
 20
46.795099999999991
 30
0
 70
32
  0
VERTEX
  5
72E2
  8
0
 62
7
 10
70.7393
 20
46.7957
 30
0
 70
32
  0
VERTEX
  5
72E3
  8
0
 62
7
 10
70.7396
 20
46.7963
 30
0
 70
32
  0
VERTEX
  5
72E4
  8
0
 62
7
 10
70.74
 20
46.79699999999999
 30
0
 70
32
  0
VERTEX
  5
72E5
  8
0
 62
7
 10
70.7403
 20
46.7977
 30
0
 70
32
  0
VERTEX
  5
72E6
  8
0
 62
7
 10
70.7406
 20
46.79829999999999
 30
0
 70
32
  0
VERTEX
  5
72E7
  8
0
 62
7
 10
70.741
 20
46.7991
 30
0
 70
32
  0
VERTEX
  5
72E8
  8
0
 62
7
 10
70.741399999999985
 20
46.799799999999991
 30
0
 70
32
  0
VERTEX
  5
72E9
  8
0
 62
7
 10
70.7418
 20
46.8006
 30
0
 70
32
  0
VERTEX
  5
72EA
  8
0
 62
7
 10
70.7422
 20
46.8014
 30
0
 70
32
  0
VERTEX
  5
72EB
  8
0
 62
7
 10
70.7426
 20
46.8022
 30
0
 70
32
  0
VERTEX
  5
72EC
  8
0
 62
7
 10
70.743
 20
46.80299999999999
 30
0
 70
32
  0
VERTEX
  5
72ED
  8
0
 62
7
 10
70.7434
 20
46.8038
 30
0
 70
32
  0
VERTEX
  5
72EE
  8
0
 62
7
 10
70.7439
 20
46.80469999999999
 30
0
 70
32
  0
VERTEX
  5
72EF
  8
0
 62
7
 10
70.7443
 20
46.805599999999991
 30
0
 70
32
  0
VERTEX
  5
72F0
  8
0
 62
7
 10
70.7448
 20
46.806499999999993
 30
0
 70
32
  0
VERTEX
  5
72F1
  8
0
 62
7
 10
70.7453
 20
46.8074
 30
0
 70
32
  0
VERTEX
  5
72F2
  8
0
 62
7
 10
70.7457
 20
46.808399999999992
 30
0
 70
32
  0
VERTEX
  5
72F3
  8
0
 62
7
 10
70.7462
 20
46.8093
 30
0
 70
32
  0
VERTEX
  5
72F4
  8
0
 62
7
 10
70.7467
 20
46.810299999999991
 30
0
 70
32
  0
VERTEX
  5
72F5
  8
0
 62
7
 10
70.7472
 20
46.8113
 30
0
 70
32
  0
VERTEX
  5
72F6
  8
0
 62
7
 10
70.7477
 20
46.8123
 30
0
 70
32
  0
VERTEX
  5
72F7
  8
0
 62
7
 10
70.7483
 20
46.813299999999991
 30
0
 70
32
  0
VERTEX
  5
72F8
  8
0
 62
7
 10
70.7488
 20
46.8143
 30
0
 70
32
  0
VERTEX
  5
72F9
  8
0
 62
7
 10
70.7493
 20
46.8154
 30
0
 70
32
  0
VERTEX
  5
72FA
  8
0
 62
7
 10
70.7498
 20
46.8164
 30
0
 70
32
  0
VERTEX
  5
72FB
  8
0
 62
7
 10
70.7504
 20
46.8175
 30
0
 70
32
  0
VERTEX
  5
72FC
  8
0
 62
7
 10
70.7509
 20
46.8186
 30
0
 70
32
  0
VERTEX
  5
72FD
  8
0
 62
7
 10
70.7515
 20
46.81969999999999
 30
0
 70
32
  0
VERTEX
  5
72FE
  8
0
 62
7
 10
70.752
 20
46.8207
 30
0
 70
32
  0
VERTEX
  5
72FF
  8
0
 62
7
 10
70.7526
 20
46.8218
 30
0
 70
32
  0
VERTEX
  5
7300
  8
0
 62
7
 10
70.7531
 20
46.8229
 30
0
 70
32
  0
VERTEX
  5
7301
  8
0
 62
7
 10
70.7537
 20
46.824
 30
0
 70
32
  0
VERTEX
  5
7302
  8
0
 62
7
 10
70.7543
 20
46.8252
 30
0
 70
32
  0
VERTEX
  5
7303
  8
0
 62
7
 10
70.7548
 20
46.8263
 30
0
 70
32
  0
VERTEX
  5
7304
  8
0
 62
7
 10
70.7554
 20
46.82739999999999
 30
0
 70
32
  0
VERTEX
  5
7305
  8
0
 62
7
 10
70.756
 20
46.8285
 30
0
 70
32
  0
VERTEX
  5
7306
  8
0
 62
7
 10
70.7566
 20
46.8297
 30
0
 70
32
  0
VERTEX
  5
7307
  8
0
 62
7
 10
70.7571
 20
46.8308
 30
0
 70
32
  0
VERTEX
  5
7308
  8
0
 62
7
 10
70.7577
 20
46.83189999999999
 30
0
 70
32
  0
VERTEX
  5
7309
  8
0
 62
7
 10
70.7583
 20
46.833
 30
0
 70
32
  0
VERTEX
  5
730A
  8
0
 62
7
 10
70.7589
 20
46.8342
 30
0
 70
32
  0
VERTEX
  5
730B
  8
0
 62
7
 10
70.7594
 20
46.8353
 30
0
 70
32
  0
VERTEX
  5
730C
  8
0
 62
7
 10
70.76
 20
46.83639999999999
 30
0
 70
32
  0
VERTEX
  5
730D
  8
0
 62
7
 10
70.7606
 20
46.8376
 30
0
 70
32
  0
VERTEX
  5
730E
  8
0
 62
7
 10
70.761099999999985
 20
46.8387
 30
0
 70
32
  0
VERTEX
  5
730F
  8
0
 62
7
 10
70.7617
 20
46.8398
 30
0
 70
32
  0
VERTEX
  5
7310
  8
0
 62
7
 10
70.7623
 20
46.8409
 30
0
 70
32
  0
VERTEX
  5
7311
  8
0
 62
7
 10
70.7628
 20
46.841999999999992
 30
0
 70
32
  0
VERTEX
  5
7312
  8
0
 62
7
 10
70.7634
 20
46.843099999999993
 30
0
 70
32
  0
VERTEX
  5
7313
  8
0
 62
7
 10
70.7639
 20
46.8442
 30
0
 70
32
  0
VERTEX
  5
7314
  8
0
 62
7
 10
70.7645
 20
46.8453
 30
0
 70
32
  0
VERTEX
  5
7315
  8
0
 62
7
 10
70.765
 20
46.8464
 30
0
 70
32
  0
VERTEX
  5
7316
  8
0
 62
7
 10
70.7656
 20
46.8474
 30
0
 70
32
  0
VERTEX
  5
7317
  8
0
 62
7
 10
70.7661
 20
46.848499999999987
 30
0
 70
32
  0
VERTEX
  5
7318
  8
0
 62
7
 10
70.7667
 20
46.849499999999992
 30
0
 70
32
  0
VERTEX
  5
7319
  8
0
 62
7
 10
70.7672
 20
46.8506
 30
0
 70
32
  0
VERTEX
  5
731A
  8
0
 62
7
 10
70.7677
 20
46.851599999999991
 30
0
 70
32
  0
VERTEX
  5
731B
  8
0
 62
7
 10
70.7682
 20
46.8526
 30
0
 70
32
  0
VERTEX
  5
731C
  8
0
 62
7
 10
70.7687
 20
46.8536
 30
0
 70
32
  0
VERTEX
  5
731D
  8
0
 62
7
 10
70.7692
 20
46.854599999999991
 30
0
 70
32
  0
VERTEX
  5
731E
  8
0
 62
7
 10
70.7697
 20
46.8555
 30
0
 70
32
  0
VERTEX
  5
731F
  8
0
 62
7
 10
70.7702
 20
46.85649999999999
 30
0
 70
32
  0
VERTEX
  5
7320
  8
0
 62
7
 10
70.7707
 20
46.8574
 30
0
 70
32
  0
VERTEX
  5
7321
  8
0
 62
7
 10
70.7711
 20
46.8584
 30
0
 70
32
  0
VERTEX
  5
7322
  8
0
 62
7
 10
70.7716
 20
46.85929999999999
 30
0
 70
32
  0
VERTEX
  5
7323
  8
0
 62
7
 10
70.772
 20
46.8601
 30
0
 70
32
  0
VERTEX
  5
7324
  8
0
 62
7
 10
70.7725
 20
46.86099999999999
 30
0
 70
32
  0
VERTEX
  5
7325
  8
0
 62
7
 10
70.7729
 20
46.8618
 30
0
 70
32
  0
VERTEX
  5
7326
  8
0
 62
7
 10
70.7733
 20
46.86269999999999
 30
0
 70
32
  0
VERTEX
  5
7327
  8
0
 62
7
 10
70.7737
 20
46.8634
 30
0
 70
32
  0
VERTEX
  5
7328
  8
0
 62
7
 10
70.7741
 20
46.8642
 30
0
 70
32
  0
VERTEX
  5
7329
  8
0
 62
7
 10
70.7745
 20
46.865
 30
0
 70
32
  0
VERTEX
  5
732A
  8
0
 62
7
 10
70.7749
 20
46.86569999999999
 30
0
 70
32
  0
VERTEX
  5
732B
  8
0
 62
7
 10
70.775199999999984
 20
46.866399999999992
 30
0
 70
32
  0
VERTEX
  5
732C
  8
0
 62
7
 10
70.7756
 20
46.8671
 30
0
 70
32
  0
VERTEX
  5
732D
  8
0
 62
7
 10
70.7759
 20
46.8677
 30
0
 70
32
  0
VERTEX
  5
732E
  8
0
 62
7
 10
70.7762
 20
46.8684
 30
0
 70
32
  0
VERTEX
  5
732F
  8
0
 62
7
 10
70.7765
 20
46.869
 30
0
 70
32
  0
VERTEX
  5
7330
  8
0
 62
7
 10
70.7768
 20
46.8695
 30
0
 70
32
  0
VERTEX
  5
7331
  8
0
 62
7
 10
70.7771
 20
46.870099999999987
 30
0
 70
32
  0
VERTEX
  5
7332
  8
0
 62
7
 10
70.7774
 20
46.8706
 30
0
 70
32
  0
VERTEX
  5
7333
  8
0
 62
7
 10
70.7776
 20
46.871099999999991
 30
0
 70
32
  0
VERTEX
  5
7334
  8
0
 62
7
 10
70.7778
 20
46.87149999999999
 30
0
 70
32
  0
VERTEX
  5
7335
  8
0
 62
7
 10
70.778
 20
46.8719
 30
0
 70
32
  0
VERTEX
  5
7336
  8
0
 62
7
 10
70.7782
 20
46.8723
 30
0
 70
32
  0
VERTEX
  5
7337
  8
0
 62
7
 10
70.7784
 20
46.8727
 30
0
 70
32
  0
VERTEX
  5
7338
  8
0
 62
7
 10
70.7786
 20
46.87299999999999
 30
0
 70
32
  0
VERTEX
  5
7339
  8
0
 62
7
 10
70.7787
 20
46.8733
 30
0
 70
32
  0
VERTEX
  5
733A
  8
0
 62
7
 10
70.7788
 20
46.8735
 30
0
 70
32
  0
VERTEX
  5
733B
  8
0
 62
7
 10
70.779
 20
46.8737
 30
0
 70
32
  0
VERTEX
  5
733C
  8
0
 62
7
 10
70.779
 20
46.873899999999992
 30
0
 70
32
  0
VERTEX
  5
733D
  8
0
 62
7
 10
70.7791
 20
46.874099999999991
 30
0
 70
32
  0
VERTEX
  5
733E
  8
0
 62
7
 10
70.7792
 20
46.8742
 30
0
 70
32
  0
VERTEX
  5
733F
  8
0
 62
7
 10
70.7792
 20
46.8742
 30
0
 70
32
  0
VERTEX
  5
7340
  8
0
 62
7
 10
70.7792
 20
46.8742
 30
0
 70
32
  0
SEQEND
  5
7341
  8
0
  0
POLYLINE
  5
668F
  8
0
 62
7
 66
1
 70
0
 10
0
 20
0
 30
0
  0
VERTEX
  5
77DE
  8
0
 62
7
 10
69.678154286323888
 20
46.790171171727181
 70
0
  0
VERTEX
  5
77DF
  8
0
 62
7
 10
69.678154286323888
 20
46.747451987710107
 70
0
  0
SEQEND
  5
77E0
  8
0
  0
POLYLINE
  5
6693
  8
0
 62
7
 66
1
 70
0
 10
0
 20
0
 30
0
  0
VERTEX
  5
77E1
  8
0
 62
7
 10
69.763592654358092
 20
46.790171171727181
 70
0
  0
VERTEX
  5
77E2
  8
0
 62
7
 10
69.763592654358092
 20
46.831512317550207
 70
0
  0
SEQEND
  5
77E3
  8
0
  0
POLYLINE
  5
6697
  8
0
 62
7
 66
1
 70
0
 10
0
 20
0
 30
0
  0
VERTEX
  5
77E4
  8
0
 62
7
 10
21.634230687223749
 20
60.504407279409747
 70
0
  0
VERTEX
  5
77E5
  8
0
 62
7
 10
21.634230687223749
 20
60.504407279409747
 70
0
  0
SEQEND
  5
77E6
  8
0
  0
POLYLINE
  5
669B
  8
0
 62
7
 66
1
 70
0
 10
0
 20
0
 30
0
  0
VERTEX
  5
77E7
  8
0
 62
7
 10
71.964319650335682
 20
50.218902453422118
 70
0
  0
VERTEX
  5
77E8
  8
0
 62
7
 10
71.964319650335682
 20
50.218902453422118
 70
0
  0
SEQEND
  5
77E9
  8
0
  0
POLYLINE
  5
669F
  8
0
 62
7
 66
1
 70
0
 10
0
 20
0
 30
0
  0
VERTEX
  5
77EA
  8
0
 62
7
 10
70.017151682072466
 20
47.2132288973159
 70
0
  0
VERTEX
  5
77EB
  8
0
 62
7
 10
70.017151682072466
 20
47.2132288973159
 70
0
  0
SEQEND
  5
77EC
  8
0
  0
POLYLINE
  5
66A3
  8
0
 62
7
 66
1
 70
0
 10
0
 20
0
 30
0
  0
VERTEX
  5
77ED
  8
0
 62
7
 10
24.088516710915741
 20
58.642849933955
 70
0
  0
VERTEX
  5
77EE
  8
0
 62
7
 10
24.088516710915741
 20
58.684018825003747
 70
0
  0
SEQEND
  5
77EF
  8
0
  0
POLYLINE
  5
66A7
  8
0
 62
7
 66
1
 70
0
 10
0
 20
0
 30
0
  0
VERTEX
  5
77F0
  8
0
 62
7
 10
71.414482410889818
 20
48.990898167704813
 70
0
  0
VERTEX
  5
77F1
  8
0
 62
7
 10
71.414482410889818
 20
48.94817898368774
 70
0
  0
SEQEND
  5
77F2
  8
0
  0
POLYLINE
  5
66AB
  8
0
 62
7
 66
1
 70
0
 10
0
 20
0
 30
0
  0
VERTEX
  5
77F3
  8
0
 62
7
 10
70.524269737501214
 20
47.975111763878878
 70
0
  0
VERTEX
  5
77F4
  8
0
 62
7
 10
70.524269737501214
 20
47.975111763878878
 70
0
  0
SEQEND
  5
77F5
  8
0
  0
POLYLINE
  5
66AF
  8
0
 62
7
 66
1
 70
0
 10
0
 20
0
 30
0
  0
VERTEX
  5
77F6
  8
0
 62
7
 10
69.12831704687801
 20
46.112176380230039
 70
0
  0
VERTEX
  5
77F7
  8
0
 62
7
 10
69.12831704687801
 20
46.112176380230039
 70
0
  0
SEQEND
  5
77F8
  8
0
  0
POLYLINE
  5
66B3
  8
0
 62
7
 66
1
 70
0
 10
0
 20
0
 30
0
  0
VERTEX
  5
77F9
  8
0
 62
7
 10
69.508655588449628
 20
46.747451987710107
 70
0
  0
VERTEX
  5
77FA
  8
0
 62
7
 10
69.551374772466687
 20
46.747451987710107
 70
0
  0
SEQEND
  5
77FB
  8
0
  0
POLYLINE
  5
66B7
  8
0
 62
7
 66
1
 70
0
 10
0
 20
0
 30
0
  0
VERTEX
  5
77FC
  8
0
 62
7
 10
69.297815744752313
 20
46.02811605038994
 70
0
  0
VERTEX
  5
77FD
  8
0
 62
7
 10
69.297815744752313
 20
46.02811605038994
 70
0
  0
VERTEX
  5
77FE
  8
0
 62
7
 10
69.33915689057531
 20
46.02811605038994
 70
0
  0
SEQEND
  5
77FF
  8
0
  0
POLYLINE
  5
66BC
  8
0
 62
7
 66
1
 70
0
 10
0
 20
0
 30
0
  0
VERTEX
  5
7800
  8
0
 62
7
 10
69.678154286323888
 20
47.805785320778853
 70
0
  0
VERTEX
  5
7801
  8
0
 62
7
 10
69.678154286323888
 20
47.805785320778853
 70
0
  0
SEQEND
  5
7802
  8
0
  0
POLYLINE
  5
66C0
  8
0
 62
7
 66
1
 70
0
 10
0
 20
0
 30
0
  0
VERTEX
  5
7803
  8
0
 62
7
 10
70.440209407661143
 20
47.340180665947337
 70
0
  0
VERTEX
  5
7804
  8
0
 62
7
 10
70.440209407661143
 20
47.340180665947337
 70
0
  0
SEQEND
  5
7805
  8
0
  0
POLYLINE
  5
66C4
  8
0
 62
7
 66
1
 70
0
 10
0
 20
0
 30
0
  0
VERTEX
  5
7806
  8
0
 62
7
 10
73.065372167421557
 20
48.694447701199067
 70
0
  0
VERTEX
  5
7807
  8
0
 62
7
 10
73.065372167421557
 20
48.694447701199067
 70
0
  0
VERTEX
  5
7808
  8
0
 62
7
 10
73.065372167421557
 20
48.737166885216141
 70
0
  0
SEQEND
  5
7809
  8
0
  0
POLYLINE
  5
66C9
  8
0
 62
7
 66
1
 70
0
 10
0
 20
0
 30
0
  0
VERTEX
  5
780A
  8
0
 62
7
 10
71.3290440428556
 20
44.038228898109637
 70
0
  0
VERTEX
  5
780B
  8
0
 62
7
 10
71.3290440428556
 20
44.038228898109637
 70
0
  0
SEQEND
  5
780C
  8
0
  0
POLYLINE
  5
66CD
  8
0
 62
7
 66
1
 70
0
 10
0
 20
0
 30
0
  0
VERTEX
  5
780D
  8
0
 62
7
 10
70.821925987426823
 20
43.82618327099253
 70
0
  0
VERTEX
  5
780E
  8
0
 62
7
 10
70.821925987426823
 20
43.82618327099253
 70
0
  0
SEQEND
  5
780F
  8
0
  0
POLYLINE
  5
66D1
  8
0
 62
7
 66
1
 70
0
 10
0
 20
0
 30
0
  0
VERTEX
  5
7810
  8
0
 62
7
 10
68.577101769238055
 20
45.47690077274995
 70
0
  0
VERTEX
  5
7811
  8
0
 62
7
 10
68.577101769238055
 20
45.47690077274995
 70
0
  0
SEQEND
  5
7812
  8
0
  0
POLYLINE
  5
66D5
  8
0
 62
7
 66
1
 70
0
 10
0
 20
0
 30
0
  0
VERTEX
  5
7813
  8
0
 62
7
 10
69.424595258609529
 20
48.102235787284613
 70
0
  0
VERTEX
  5
7814
  8
0
 62
7
 10
69.424595258609529
 20
48.102235787284613
 70
0
  0
SEQEND
  5
7815
  8
0
  0
POLYLINE
  5
66D9
  8
0
 62
7
 66
1
 70
0
 10
0
 20
0
 30
0
  0
VERTEX
  5
7816
  8
0
 62
7
 10
70.990046647107022
 20
47.2132288973159
 70
0
  0
VERTEX
  5
7817
  8
0
 62
7
 10
70.990046647107022
 20
47.2132288973159
 70
0
  0
SEQEND
  5
7818
  8
0
  0
POLYLINE
  5
66DD
  8
0
 62
7
 66
1
 70
0
 10
0
 20
0
 30
0
  0
VERTEX
  5
7819
  8
0
 62
7
 10
69.931713314038291
 20
46.831512317550207
 70
0
  0
VERTEX
  5
781A
  8
0
 62
7
 10
69.931713314038291
 20
46.831512317550207
 70
0
  0
SEQEND
  5
781B
  8
0
  0
POLYLINE
  5
66E1
  8
0
 62
7
 66
1
 70
0
 10
0
 20
0
 30
0
  0
VERTEX
  5
781C
  8
0
 62
7
 10
68.916099164986633
 20
44.461114368924072
 70
0
  0
VERTEX
  5
781D
  8
0
 62
7
 10
70.059526356541056
 20
44.927235788078349
 70
0
  0
SEQEND
  5
781E
  8
0
  0
POLYLINE
  5
66E5
  8
0
 62
7
 66
1
 70
0
 10
0
 20
0
 30
0
  0
VERTEX
  5
781F
  8
0
 62
7
 10
70.566988921518345
 20
46.958119576633123
 70
0
  0
VERTEX
  5
7820
  8
0
 62
7
 10
70.566988921518345
 20
46.831512317550207
 70
0
  0
SEQEND
  5
7821
  8
0
  0
POLYLINE
  5
66E9
  8
0
 62
7
 66
1
 70
0
 10
0
 20
0
 30
0
  0
VERTEX
  5
7822
  8
0
 62
7
 10
70.440209407661143
 20
47.340180665947337
 70
0
  0
VERTEX
  5
7823
  8
0
 62
7
 10
70.482928591678245
 20
47.340180665947337
 70
0
  0
VERTEX
  5
7824
  8
0
 62
7
 10
70.482928591678245
 20
47.297116972381723
 70
0
  0
VERTEX
  5
7825
  8
0
 62
7
 10
70.524269737501214
 20
47.255948081332967
 70
0
  0
VERTEX
  5
7826
  8
0
 62
7
 10
70.524269737501214
 20
47.170509713298813
 70
0
  0
VERTEX
  5
7827
  8
0
 62
7
 10
70.566988921518345
 20
47.170509713298813
 70
0
  0
VERTEX
  5
7828
  8
0
 62
7
 10
70.566988921518345
 20
46.958119576633123
 70
0
  0
SEQEND
  5
7829
  8
0
  0
POLYLINE
  5
66F2
  8
0
 62
7
 66
1
 70
0
 10
0
 20
0
 30
0
  0
VERTEX
  5
782A
  8
0
 62
7
 10
70.10121201191258
 20
47.424068741013173
 70
0
  0
VERTEX
  5
782B
  8
0
 62
7
 10
70.10121201191258
 20
47.382899849964467
 70
0
  0
VERTEX
  5
782C
  8
0
 62
7
 10
70.059870866089568
 20
47.382899849964467
 70
0
  0
VERTEX
  5
782D
  8
0
 62
7
 10
70.059870866089568
 20
47.340180665947337
 70
0
  0
SEQEND
  5
782E
  8
0
  0
POLYLINE
  5
66F8
  8
0
 62
7
 66
1
 70
0
 10
0
 20
0
 30
0
  0
VERTEX
  5
782F
  8
0
 62
7
 10
69.33915689057531
 20
47.763238391536042
 70
0
  0
VERTEX
  5
7830
  8
0
 62
7
 10
69.381876074592412
 20
47.763238391536042
 70
0
  0
VERTEX
  5
7831
  8
0
 62
7
 10
69.381876074592412
 20
47.805785320778853
 70
0
  0
VERTEX
  5
7832
  8
0
 62
7
 10
69.424595258609529
 20
47.805785320778853
 70
0
  0
VERTEX
  5
7833
  8
0
 62
7
 10
69.467314442626588
 20
47.848504504795983
 70
0
  0
VERTEX
  5
7834
  8
0
 62
7
 10
69.508655588449628
 20
47.848504504795983
 70
0
  0
VERTEX
  5
7835
  8
0
 62
7
 10
69.551374772466687
 20
47.848504504795983
 70
0
  0
VERTEX
  5
7836
  8
0
 62
7
 10
69.594093956483775
 20
47.848504504795983
 70
0
  0
SEQEND
  5
7837
  8
0
  0
POLYLINE
  5
6702
  8
0
 62
7
 66
1
 70
0
 10
0
 20
0
 30
0
  0
VERTEX
  5
7838
  8
0
 62
7
 10
69.12831704687801
 20
46.112176380230039
 70
0
  0
VERTEX
  5
7839
  8
0
 62
7
 10
69.12831704687801
 20
46.112176380230039
 70
0
  0
SEQEND
  5
783A
  8
0
  0
POLYLINE
  5
6706
  8
0
 62
7
 66
1
 70
0
 10
0
 20
0
 30
0
  0
VERTEX
  5
783B
  8
0
 62
7
 10
69.847652984198191
 20
47.340180665947337
 70
0
  0
VERTEX
  5
783C
  8
0
 62
7
 10
69.890372168215279
 20
47.340180665947337
 70
0
  0
VERTEX
  5
783D
  8
0
 62
7
 10
69.931713314038291
 20
47.340180665947337
 70
0
  0
SEQEND
  5
783E
  8
0
  0
POLYLINE
  5
670B
  8
0
 62
7
 66
1
 70
0
 10
0
 20
0
 30
0
  0
VERTEX
  5
783F
  8
0
 62
7
 10
69.001537533020837
 20
46.15489556424717
 70
0
  0
VERTEX
  5
7840
  8
0
 62
7
 10
69.001537533020837
 20
46.15489556424717
 70
0
  0
SEQEND
  5
7841
  8
0
  0
POLYLINE
  5
670F
  8
0
 62
7
 66
1
 70
0
 10
0
 20
0
 30
0
  0
VERTEX
  5
7842
  8
0
 62
7
 10
69.508655588449628
 20
46.958119576633123
 70
0
  0
VERTEX
  5
7843
  8
0
 62
7
 10
69.508655588449628
 20
46.958119576633123
 70
0
  0
VERTEX
  5
7844
  8
0
 62
7
 10
69.551374772466687
 20
46.916778430810147
 70
0
  0
VERTEX
  5
7845
  8
0
 62
7
 10
69.594093956483775
 20
46.916778430810147
 70
0
  0
VERTEX
  5
7846
  8
0
 62
7
 10
69.635435102306786
 20
46.916778430810147
 70
0
  0
SEQEND
  5
7847
  8
0
  0
POLYLINE
  5
6716
  8
0
 62
7
 66
1
 70
0
 10
0
 20
0
 30
0
  0
VERTEX
  5
7848
  8
0
 62
7
 10
70.356149077821073
 20
47.086449383458721
 70
0
  0
VERTEX
  5
7849
  8
0
 62
7
 10
70.356149077821073
 20
46.831512317550207
 70
0
  0
SEQEND
  5
784A
  8
0
  0
POLYLINE
  5
671A
  8
0
 62
7
 66
1
 70
0
 10
0
 20
0
 30
0
  0
VERTEX
  5
784B
  8
0
 62
7
 10
69.678154286323888
 20
46.4938929599957
 70
0
  0
VERTEX
  5
784C
  8
0
 62
7
 10
69.678154286323888
 20
46.4938929599957
 70
0
  0
SEQEND
  5
784D
  8
0
  0
POLYLINE
  5
671E
  8
0
 62
7
 66
1
 70
0
 10
0
 20
0
 30
0
  0
VERTEX
  5
784E
  8
0
 62
7
 10
69.678154286323888
 20
47.763238391536042
 70
0
  0
VERTEX
  5
784F
  8
0
 62
7
 10
69.678154286323888
 20
47.763238391536042
 70
0
  0
SEQEND
  5
7850
  8
0
  0
POLYLINE
  5
6722
  8
0
 62
7
 66
1
 70
0
 10
0
 20
0
 30
0
  0
VERTEX
  5
7851
  8
0
 62
7
 10
69.255096560735211
 20
46.069457196212959
 70
0
  0
VERTEX
  5
7852
  8
0
 62
7
 10
69.2123773767181
 20
46.069457196212959
 70
0
  0
VERTEX
  5
7853
  8
0
 62
7
 10
69.171036230895112
 20
46.069457196212959
 70
0
  0
VERTEX
  5
7854
  8
0
 62
7
 10
69.12831704687801
 20
46.069457196212959
 70
0
  0
VERTEX
  5
7855
  8
0
 62
7
 10
69.12831704687801
 20
46.112176380230039
 70
0
  0
SEQEND
  5
7856
  8
0
  0
POLYLINE
  5
6729
  8
0
 62
7
 66
1
 70
0
 10
0
 20
0
 30
0
  0
VERTEX
  5
7857
  8
0
 62
7
 10
70.356149077821073
 20
47.086449383458721
 70
0
  0
VERTEX
  5
7858
  8
0
 62
7
 10
70.313429893803971
 20
47.086449383458721
 70
0
  0
VERTEX
  5
7859
  8
0
 62
7
 10
70.313429893803971
 20
47.127790529281683
 70
0
  0
VERTEX
  5
785A
  8
0
 62
7
 10
70.270710709786869
 20
47.127790529281683
 70
0
  0
VERTEX
  5
785B
  8
0
 62
7
 10
70.270710709786869
 20
47.170509713298813
 70
0
  0
SEQEND
  5
785C
  8
0
  0
POLYLINE
  5
6730
  8
0
 62
7
 66
1
 70
0
 10
0
 20
0
 30
0
  0
VERTEX
  5
785D
  8
0
 62
7
 10
69.678154286323888
 20
46.790171171727181
 70
0
  0
VERTEX
  5
785E
  8
0
 62
7
 10
69.678154286323888
 20
46.87423150156728
 70
0
  0
VERTEX
  5
785F
  8
0
 62
7
 10
69.635435102306786
 20
46.87423150156728
 70
0
  0
VERTEX
  5
7860
  8
0
 62
7
 10
69.635435102306786
 20
46.916778430810147
 70
0
  0
SEQEND
  5
7861
  8
0
  0
POLYLINE
  5
6736
  8
0
 62
7
 66
1
 70
0
 10
0
 20
0
 30
0
  0
VERTEX
  5
7862
  8
0
 62
7
 10
69.72087347034099
 20
47.255948081332967
 70
0
  0
VERTEX
  5
7863
  8
0
 62
7
 10
69.763592654358092
 20
47.255948081332967
 70
0
  0
VERTEX
  5
7864
  8
0
 62
7
 10
69.80493380018109
 20
47.255948081332967
 70
0
  0
SEQEND
  5
7865
  8
0
  0
POLYLINE
  5
673B
  8
0
 62
7
 66
1
 70
0
 10
0
 20
0
 30
0
  0
VERTEX
  5
7866
  8
0
 62
7
 10
69.72087347034099
 20
46.4938929599957
 70
0
  0
VERTEX
  5
7867
  8
0
 62
7
 10
69.763592654358092
 20
46.4938929599957
 70
0
  0
VERTEX
  5
7868
  8
0
 62
7
 10
69.763592654358092
 20
46.53506185104446
 70
0
  0
SEQEND
  5
7869
  8
0
  0
POLYLINE
  5
6740
  8
0
 62
7
 66
1
 70
0
 10
0
 20
0
 30
0
  0
VERTEX
  5
786A
  8
0
 62
7
 10
69.72087347034099
 20
46.4938929599957
 70
0
  0
VERTEX
  5
786B
  8
0
 62
7
 10
69.72087347034099
 20
46.4938929599957
 70
0
  0
SEQEND
  5
786C
  8
0
  0
POLYLINE
  5
6744
  8
0
 62
7
 66
1
 70
0
 10
0
 20
0
 30
0
  0
VERTEX
  5
786D
  8
0
 62
7
 10
69.678154286323888
 20
47.67883355214741
 70
0
  0
VERTEX
  5
786E
  8
0
 62
7
 10
69.678154286323888
 20
47.763066136761779
 70
0
  0
SEQEND
  5
786F
  8
0
  0
POLYLINE
  5
6748
  8
0
 62
7
 66
1
 70
0
 10
0
 20
0
 30
0
  0
VERTEX
  5
7870
  8
0
 62
7
 10
69.678154286323888
 20
46.4084545919615
 70
0
  0
VERTEX
  5
7871
  8
0
 62
7
 10
69.678154286323888
 20
46.4938929599957
 70
0
  0
SEQEND
  5
7872
  8
0
  0
POLYLINE
  5
674C
  8
0
 62
7
 66
1
 70
0
 10
0
 20
0
 30
0
  0
VERTEX
  5
7873
  8
0
 62
7
 10
69.72087347034099
 20
46.365735407944442
 70
0
  0
VERTEX
  5
7874
  8
0
 62
7
 10
69.72087347034099
 20
46.324566516895679
 70
0
  0
SEQEND
  5
7875
  8
0
  0
POLYLINE
  5
6750
  8
0
 62
7
 66
1
 70
0
 10
0
 20
0
 30
0
  0
VERTEX
  5
7876
  8
0
 62
7
 10
69.763592654358092
 20
46.4084545919615
 70
0
  0
VERTEX
  5
7877
  8
0
 62
7
 10
69.763592654358092
 20
46.365735407944442
 70
0
  0
VERTEX
  5
7878
  8
0
 62
7
 10
69.72087347034099
 20
46.365735407944442
 70
0
  0
SEQEND
  5
7879
  8
0
  0
POLYLINE
  5
6755
  8
0
 62
7
 66
1
 70
0
 10
0
 20
0
 30
0
  0
VERTEX
  5
787A
  8
0
 62
7
 10
69.763592654358092
 20
46.4084545919615
 70
0
  0
VERTEX
  5
787B
  8
0
 62
7
 10
69.763592654358092
 20
46.4084545919615
 70
0
  0
SEQEND
  5
787C
  8
0
  0
POLYLINE
  5
6759
  8
0
 62
7
 66
1
 70
0
 10
0
 20
0
 30
0
  0
VERTEX
  5
787D
  8
0
 62
7
 10
69.80493380018109
 20
46.4938929599957
 70
0
  0
VERTEX
  5
787E
  8
0
 62
7
 10
69.80493380018109
 20
46.451173775978639
 70
0
  0
VERTEX
  5
787F
  8
0
 62
7
 10
69.763592654358092
 20
46.451173775978639
 70
0
  0
VERTEX
  5
7880
  8
0
 62
7
 10
69.763592654358092
 20
46.4084545919615
 70
0
  0
SEQEND
  5
7881
  8
0
  0
POLYLINE
  5
675F
  8
0
 62
7
 66
1
 70
0
 10
0
 20
0
 30
0
  0
VERTEX
  5
7882
  8
0
 62
7
 10
69.890372168215279
 20
46.704905058467247
 70
0
  0
VERTEX
  5
7883
  8
0
 62
7
 10
69.890372168215279
 20
46.704905058467247
 70
0
  0
SEQEND
  5
7884
  8
0
  0
POLYLINE
  5
6763
  8
0
 62
7
 66
1
 70
0
 10
0
 20
0
 30
0
  0
VERTEX
  5
7885
  8
0
 62
7
 10
70.440209407661143
 20
46.958119576633123
 70
0
  0
VERTEX
  5
7886
  8
0
 62
7
 10
70.440209407661143
 20
46.87423150156728
 70
0
  0
VERTEX
  5
7887
  8
0
 62
7
 10
70.39749022364407
 20
46.87423150156728
 70
0
  0
VERTEX
  5
7888
  8
0
 62
7
 10
70.39749022364407
 20
46.831512317550207
 70
0
  0
SEQEND
  5
7889
  8
0
  0
POLYLINE
  5
6769
  8
0
 62
7
 66
1
 70
0
 10
0
 20
0
 30
0
  0
VERTEX
  5
788A
  8
0
 62
7
 10
69.80493380018109
 20
47.7205192075189
 70
0
  0
VERTEX
  5
788B
  8
0
 62
7
 10
69.763592654358092
 20
47.7205192075189
 70
0
  0
VERTEX
  5
788C
  8
0
 62
7
 10
69.763592654358092
 20
47.763066136761779
 70
0
  0
SEQEND
  5
788D
  8
0
  0
POLYLINE
  5
676E
  8
0
 62
7
 66
1
 70
0
 10
0
 20
0
 30
0
  0
VERTEX
  5
788E
  8
0
 62
7
 10
69.763592654358092
 20
47.763238391536042
 70
0
  0
VERTEX
  5
788F
  8
0
 62
7
 10
69.763592654358092
 20
47.763238391536042
 70
0
  0
SEQEND
  5
7890
  8
0
  0
POLYLINE
  5
6772
  8
0
 62
7
 66
1
 70
0
 10
0
 20
0
 30
0
  0
VERTEX
  5
7891
  8
0
 62
7
 10
69.763592654358092
 20
47.763238391536042
 70
0
  0
VERTEX
  5
7892
  8
0
 62
7
 10
69.72087347034099
 20
47.763238391536042
 70
0
  0
SEQEND
  5
7893
  8
0
  0
POLYLINE
  5
6776
  8
0
 62
7
 66
1
 70
0
 10
0
 20
0
 30
0
  0
VERTEX
  5
7894
  8
0
 62
7
 10
69.72087347034099
 20
46.324566516895679
 70
0
  0
VERTEX
  5
7895
  8
0
 62
7
 10
69.678154286323888
 20
46.324566516895679
 70
0
  0
VERTEX
  5
7896
  8
0
 62
7
 10
69.678154286323888
 20
46.238783639312992
 70
0
  0
VERTEX
  5
7897
  8
0
 62
7
 10
69.635435102306786
 20
46.238783639312992
 70
0
  0
VERTEX
  5
7898
  8
0
 62
7
 10
69.635435102306786
 20
46.197614748264243
 70
0
  0
VERTEX
  5
7899
  8
0
 62
7
 10
69.594093956483775
 20
46.197614748264243
 70
0
  0
VERTEX
  5
789A
  8
0
 62
7
 10
69.551374772466687
 20
46.197614748264243
 70
0
  0
VERTEX
  5
789B
  8
0
 62
7
 10
69.551374772466687
 20
46.112176380230039
 70
0
  0
VERTEX
  5
789C
  8
0
 62
7
 10
69.508655588449628
 20
46.112176380230039
 70
0
  0
VERTEX
  5
789D
  8
0
 62
7
 10
69.467314442626588
 20
46.069457196212959
 70
0
  0
VERTEX
  5
789E
  8
0
 62
7
 10
69.424595258609529
 20
46.069457196212959
 70
0
  0
VERTEX
  5
789F
  8
0
 62
7
 10
69.381876074592412
 20
46.069457196212959
 70
0
  0
VERTEX
  5
78A0
  8
0
 62
7
 10
69.33915689057531
 20
46.069457196212959
 70
0
  0
VERTEX
  5
78A1
  8
0
 62
7
 10
69.297815744752313
 20
46.069457196212959
 70
0
  0
VERTEX
  5
78A2
  8
0
 62
7
 10
69.255096560735211
 20
46.069457196212959
 70
0
  0
SEQEND
  5
78A3
  8
0
  0
POLYLINE
  5
6787
  8
0
 62
7
 66
1
 70
0
 10
0
 20
0
 30
0
  0
VERTEX
  5
78A4
  8
0
 62
7
 10
70.39749022364407
 20
47.086449383458721
 70
0
  0
VERTEX
  5
78A5
  8
0
 62
7
 10
70.39749022364407
 20
47.043902454215861
 70
0
  0
VERTEX
  5
78A6
  8
0
 62
7
 10
70.440209407661143
 20
47.043902454215861
 70
0
  0
VERTEX
  5
78A7
  8
0
 62
7
 10
70.440209407661143
 20
46.958119576633123
 70
0
  0
SEQEND
  5
78A8
  8
0
  0
POLYLINE
  5
678D
  8
0
 62
7
 66
1
 70
0
 10
0
 20
0
 30
0
  0
VERTEX
  5
78A9
  8
0
 62
7
 10
69.763592654358092
 20
46.535234105818752
 70
0
  0
VERTEX
  5
78AA
  8
0
 62
7
 10
69.80493380018109
 20
46.535234105818752
 70
0
  0
VERTEX
  5
78AB
  8
0
 62
7
 10
69.80493380018109
 20
46.4938929599957
 70
0
  0
SEQEND
  5
78AC
  8
0
  0
POLYLINE
  5
6792
  8
0
 62
7
 66
1
 70
0
 10
0
 20
0
 30
0
  0
VERTEX
  5
78AD
  8
0
 62
7
 10
69.890372168215279
 20
47.5522262930645
 70
0
  0
VERTEX
  5
78AE
  8
0
 62
7
 10
69.890372168215279
 20
47.5522262930645
 70
0
  0
SEQEND
  5
78AF
  8
0
  0
POLYLINE
  5
6796
  8
0
 62
7
 66
1
 70
0
 10
0
 20
0
 30
0
  0
VERTEX
  5
78B0
  8
0
 62
7
 10
69.508655588449628
 20
47.001183270198787
 70
0
  0
VERTEX
  5
78B1
  8
0
 62
7
 10
69.508655588449628
 20
46.958119576633123
 70
0
  0
VERTEX
  5
78B2
  8
0
 62
7
 10
69.551374772466687
 20
46.958119576633123
 70
0
  0
VERTEX
  5
78B3
  8
0
 62
7
 10
69.635435102306786
 20
46.958119576633123
 70
0
  0
VERTEX
  5
78B4
  8
0
 62
7
 10
69.678154286323888
 20
46.958119576633123
 70
0
  0
SEQEND
  5
78B5
  8
0
  0
POLYLINE
  5
679D
  8
0
 62
7
 66
1
 70
0
 10
0
 20
0
 30
0
  0
VERTEX
  5
78B6
  8
0
 62
7
 10
69.890372168215279
 20
46.704905058467247
 70
0
  0
VERTEX
  5
78B7
  8
0
 62
7
 10
69.890372168215279
 20
46.831512317550207
 70
0
  0
VERTEX
  5
78B8
  8
0
 62
7
 10
69.847652984198191
 20
46.831512317550207
 70
0
  0
SEQEND
  5
78B9
  8
0
  0
POLYLINE
  5
67A2
  8
0
 62
7
 66
1
 70
0
 10
0
 20
0
 30
0
  0
VERTEX
  5
78BA
  8
0
 62
7
 10
69.890372168215279
 20
46.704905058467247
 70
0
  0
VERTEX
  5
78BB
  8
0
 62
7
 10
69.890372168215279
 20
46.662185874450181
 70
0
  0
VERTEX
  5
78BC
  8
0
 62
7
 10
69.847652984198191
 20
46.620500219078693
 70
0
  0
VERTEX
  5
78BD
  8
0
 62
7
 10
69.847652984198191
 20
46.577781035061541
 70
0
  0
VERTEX
  5
78BE
  8
0
 62
7
 10
69.80493380018109
 20
46.577781035061541
 70
0
  0
VERTEX
  5
78BF
  8
0
 62
7
 10
69.80493380018109
 20
46.4938929599957
 70
0
  0
SEQEND
  5
78C0
  8
0
  0
POLYLINE
  5
67AA
  8
0
 62
7
 66
1
 70
0
 10
0
 20
0
 30
0
  0
VERTEX
  5
78C1
  8
0
 62
7
 10
69.001537533020837
 20
46.15489556424717
 70
0
  0
VERTEX
  5
78C2
  8
0
 62
7
 10
69.042878678843834
 20
46.15489556424717
 70
0
  0
SEQEND
  5
78C3
  8
0
  0
POLYLINE
  5
67AE
  8
0
 62
7
 66
1
 70
0
 10
0
 20
0
 30
0
  0
VERTEX
  5
78C4
  8
0
 62
7
 10
69.0855978628609
 20
46.112176380230039
 70
0
  0
VERTEX
  5
78C5
  8
0
 62
7
 10
69.0855978628609
 20
46.15489556424717
 70
0
  0
SEQEND
  5
78C6
  8
0
  0
POLYLINE
  5
67B2
  8
0
 62
7
 66
1
 70
0
 10
0
 20
0
 30
0
  0
VERTEX
  5
78C7
  8
0
 62
7
 10
69.0855978628609
 20
46.112176380230039
 70
0
  0
VERTEX
  5
78C8
  8
0
 62
7
 10
69.042878678843834
 20
46.112176380230039
 70
0
  0
VERTEX
  5
78C9
  8
0
 62
7
 10
69.042878678843834
 20
46.15489556424717
 70
0
  0
SEQEND
  5
78CA
  8
0
  0
POLYLINE
  5
67B7
  8
0
 62
7
 66
1
 70
0
 10
0
 20
0
 30
0
  0
VERTEX
  5
78CB
  8
0
 62
7
 10
69.678154286323888
 20
46.4084545919615
 70
0
  0
VERTEX
  5
78CC
  8
0
 62
7
 10
69.678154286323888
 20
46.4084545919615
 70
0
  0
VERTEX
  5
78CD
  8
0
 62
7
 10
69.678154286323888
 20
46.365735407944442
 70
0
  0
SEQEND
  5
78CE
  8
0
  0
POLYLINE
  5
67BC
  8
0
 62
7
 66
1
 70
0
 10
0
 20
0
 30
0
  0
VERTEX
  5
78CF
  8
0
 62
7
 10
69.80493380018109
 20
47.7205192075189
 70
0
  0
VERTEX
  5
78D0
  8
0
 62
7
 10
69.80493380018109
 20
47.636114368130322
 70
0
  0
VERTEX
  5
78D1
  8
0
 62
7
 10
69.763592654358092
 20
47.636114368130322
 70
0
  0
VERTEX
  5
78D2
  8
0
 62
7
 10
69.763592654358092
 20
47.5933951841132
 70
0
  0
SEQEND
  5
78D3
  8
0
  0
POLYLINE
  5
67C2
  8
0
 62
7
 66
1
 70
0
 10
0
 20
0
 30
0
  0
VERTEX
  5
78D4
  8
0
 62
7
 10
69.80493380018109
 20
47.7205192075189
 70
0
  0
VERTEX
  5
78D5
  8
0
 62
7
 10
69.80493380018109
 20
47.636114368130322
 70
0
  0
VERTEX
  5
78D6
  8
0
 62
7
 10
69.847652984198191
 20
47.636114368130322
 70
0
  0
VERTEX
  5
78D7
  8
0
 62
7
 10
69.847652984198191
 20
47.5933951841132
 70
0
  0
VERTEX
  5
78D8
  8
0
 62
7
 10
69.890372168215279
 20
47.5933951841132
 70
0
  0
VERTEX
  5
78D9
  8
0
 62
7
 10
69.890372168215279
 20
47.5522262930645
 70
0
  0
SEQEND
  5
78DA
  8
0
  0
POLYLINE
  5
67CA
  8
0
 62
7
 66
1
 70
0
 10
0
 20
0
 30
0
  0
VERTEX
  5
78DB
  8
0
 62
7
 10
69.678154286323888
 20
47.636114368130322
 70
0
  0
VERTEX
  5
78DC
  8
0
 62
7
 10
69.678154286323888
 20
47.67883355214741
 70
0
  0
SEQEND
  5
78DD
  8
0
  0
POLYLINE
  5
67CE
  8
0
 62
7
 66
1
 70
0
 10
0
 20
0
 30
0
  0
VERTEX
  5
78DE
  8
0
 62
7
 10
69.72087347034099
 20
47.7205192075189
 70
0
  0
VERTEX
  5
78DF
  8
0
 62
7
 10
69.72087347034099
 20
47.636114368130322
 70
0
  0
VERTEX
  5
78E0
  8
0
 62
7
 10
69.678154286323888
 20
47.636114368130322
 70
0
  0
SEQEND
  5
78E1
  8
0
  0
POLYLINE
  5
67D3
  8
0
 62
7
 66
1
 70
0
 10
0
 20
0
 30
0
  0
VERTEX
  5
78E2
  8
0
 62
7
 10
69.763592654358092
 20
47.763238391536042
 70
0
  0
VERTEX
  5
78E3
  8
0
 62
7
 10
69.72087347034099
 20
47.763238391536042
 70
0
  0
SEQEND
  5
78E4
  8
0
  0
POLYLINE
  5
67D7
  8
0
 62
7
 66
1
 70
0
 10
0
 20
0
 30
0
  0
VERTEX
  5
78E5
  8
0
 62
7
 10
69.72087347034099
 20
47.7205192075189
 70
0
  0
VERTEX
  5
78E6
  8
0
 62
7
 10
69.763592654358092
 20
47.7205192075189
 70
0
  0
VERTEX
  5
78E7
  8
0
 62
7
 10
69.763592654358092
 20
47.763066136761779
 70
0
  0
SEQEND
  5
78E8
  8
0
  0
POLYLINE
  5
67DC
  8
0
 62
7
 66
1
 70
0
 10
0
 20
0
 30
0
  0
VERTEX
  5
78E9
  8
0
 62
7
 10
69.72087347034099
 20
46.4938929599957
 70
0
  0
VERTEX
  5
78EA
  8
0
 62
7
 10
69.72087347034099
 20
46.451173775978639
 70
0
  0
VERTEX
  5
78EB
  8
0
 62
7
 10
69.763592654358092
 20
46.451173775978639
 70
0
  0
VERTEX
  5
78EC
  8
0
 62
7
 10
69.763592654358092
 20
46.4084545919615
 70
0
  0
VERTEX
  5
78ED
  8
0
 62
7
 10
69.72087347034099
 20
46.4084545919615
 70
0
  0
VERTEX
  5
78EE
  8
0
 62
7
 10
69.678154286323888
 20
46.4084545919615
 70
0
  0
SEQEND
  5
78EF
  8
0
  0
POLYLINE
  5
67E4
  8
0
 62
7
 66
1
 70
0
 10
0
 20
0
 30
0
  0
VERTEX
  5
78F0
  8
0
 62
7
 10
69.80493380018109
 20
47.382899849964467
 70
0
  0
VERTEX
  5
78F1
  8
0
 62
7
 10
69.847652984198191
 20
47.382899849964467
 70
0
  0
VERTEX
  5
78F2
  8
0
 62
7
 10
69.847652984198191
 20
47.424068741013173
 70
0
  0
VERTEX
  5
78F3
  8
0
 62
7
 10
69.890372168215279
 20
47.424068741013173
 70
0
  0
VERTEX
  5
78F4
  8
0
 62
7
 10
69.890372168215279
 20
47.5522262930645
 70
0
  0
SEQEND
  5
78F5
  8
0
  0
POLYLINE
  5
67EB
  8
0
 62
7
 66
1
 70
0
 10
0
 20
0
 30
0
  0
VERTEX
  5
78F6
  8
0
 62
7
 10
69.594093956483775
 20
47.848504504795983
 70
0
  0
VERTEX
  5
78F7
  8
0
 62
7
 10
69.635435102306786
 20
47.848504504795983
 70
0
  0
VERTEX
  5
78F8
  8
0
 62
7
 10
69.635435102306786
 20
47.805785320778853
 70
0
  0
VERTEX
  5
78F9
  8
0
 62
7
 10
69.678154286323888
 20
47.805785320778853
 70
0
  0
VERTEX
  5
78FA
  8
0
 62
7
 10
69.678154286323888
 20
47.763238391536042
 70
0
  0
VERTEX
  5
78FB
  8
0
 62
7
 10
69.72087347034099
 20
47.763238391536042
 70
0
  0
SEQEND
  5
78FC
  8
0
  0
POLYLINE
  5
67F3
  8
0
 62
7
 66
1
 70
0
 10
0
 20
0
 30
0
  0
VERTEX
  5
78FD
  8
0
 62
7
 10
69.931713314038291
 20
47.424068741013173
 70
0
  0
VERTEX
  5
78FE
  8
0
 62
7
 10
69.931713314038291
 20
47.340180665947337
 70
0
  0
VERTEX
  5
78FF
  8
0
 62
7
 10
69.890372168215279
 20
47.340180665947337
 70
0
  0
SEQEND
  5
7900
  8
0
  0
POLYLINE
  5
67F8
  8
0
 62
7
 66
1
 70
0
 10
0
 20
0
 30
0
  0
VERTEX
  5
7901
  8
0
 62
7
 10
69.0855978628609
 20
46.112176380230039
 70
0
  0
VERTEX
  5
7902
  8
0
 62
7
 10
69.0855978628609
 20
46.112176380230039
 70
0
  0
SEQEND
  5
7903
  8
0
  0
POLYLINE
  5
67FC
  8
0
 62
7
 66
1
 70
0
 10
0
 20
0
 30
0
  0
VERTEX
  5
7904
  8
0
 62
7
 10
70.017151682072466
 20
47.382899849964467
 70
0
  0
VERTEX
  5
7905
  8
0
 62
7
 10
69.974432498055364
 20
47.382899849964467
 70
0
  0
SEQEND
  5
7906
  8
0
  0
POLYLINE
  5
6800
  8
0
 62
7
 66
1
 70
0
 10
0
 20
0
 30
0
  0
VERTEX
  5
7907
  8
0
 62
7
 10
69.72087347034099
 20
47.763238391536042
 70
0
  0
VERTEX
  5
7908
  8
0
 62
7
 10
69.72087347034099
 20
47.763238391536042
 70
0
  0
SEQEND
  5
7909
  8
0
  0
POLYLINE
  5
6804
  8
0
 62
7
 66
1
 70
0
 10
0
 20
0
 30
0
  0
VERTEX
  5
790A
  8
0
 62
7
 10
70.313429893803971
 20
47.2132288973159
 70
0
  0
VERTEX
  5
790B
  8
0
 62
7
 10
70.356149077821073
 20
47.2132288973159
 70
0
  0
VERTEX
  5
790C
  8
0
 62
7
 10
70.356149077821073
 20
47.170509713298813
 70
0
  0
VERTEX
  5
790D
  8
0
 62
7
 10
70.39749022364407
 20
47.170509713298813
 70
0
  0
VERTEX
  5
790E
  8
0
 62
7
 10
70.39749022364407
 20
47.086449383458721
 70
0
  0
SEQEND
  5
790F
  8
0
  0
POLYLINE
  5
680B
  8
0
 62
7
 66
1
 70
0
 10
0
 20
0
 30
0
  0
VERTEX
  5
7910
  8
0
 62
7
 10
69.678154286323888
 20
46.958119576633123
 70
0
  0
VERTEX
  5
7911
  8
0
 62
7
 10
69.72087347034099
 20
46.958119576633123
 70
0
  0
VERTEX
  5
7912
  8
0
 62
7
 10
69.72087347034099
 20
46.916778430810147
 70
0
  0
VERTEX
  5
7913
  8
0
 62
7
 10
69.763592654358092
 20
46.916778430810147
 70
0
  0
VERTEX
  5
7914
  8
0
 62
7
 10
69.763592654358092
 20
46.831512317550207
 70
0
  0
SEQEND
  5
7915
  8
0
  0
POLYLINE
  5
6812
  8
0
 62
7
 66
1
 70
0
 10
0
 20
0
 30
0
  0
VERTEX
  5
7916
  8
0
 62
7
 10
69.72087347034099
 20
47.7205192075189
 70
0
  0
VERTEX
  5
7917
  8
0
 62
7
 10
69.763592654358092
 20
47.7205192075189
 70
0
  0
VERTEX
  5
7918
  8
0
 62
7
 10
69.80493380018109
 20
47.7205192075189
 70
0
  0
SEQEND
  5
7919
  8
0
  0
POLYLINE
  5
6817
  8
0
 62
7
 66
1
 70
0
 10
0
 20
0
 30
0
  0
VERTEX
  5
791A
  8
0
 62
7
 10
69.678154286323888
 20
47.636114368130322
 70
0
  0
VERTEX
  5
791B
  8
0
 62
7
 10
69.72087347034099
 20
47.636114368130322
 70
0
  0
VERTEX
  5
791C
  8
0
 62
7
 10
69.763592654358092
 20
47.636114368130322
 70
0
  0
VERTEX
  5
791D
  8
0
 62
7
 10
69.763592654358092
 20
47.5933951841132
 70
0
  0
SEQEND
  5
791E
  8
0
  0
POLYLINE
  5
681D
  8
0
 62
7
 66
1
 70
0
 10
0
 20
0
 30
0
  0
VERTEX
  5
791F
  8
0
 62
7
 10
69.72087347034099
 20
47.763238391536042
 70
0
  0
VERTEX
  5
7920
  8
0
 62
7
 10
69.678154286323888
 20
47.763238391536042
 70
0
  0
SEQEND
  5
7921
  8
0
  0
POLYLINE
  5
6821
  8
0
 62
7
 66
1
 70
0
 10
0
 20
0
 30
0
  0
VERTEX
  5
7922
  8
0
 62
7
 10
69.890372168215279
 20
47.297116972381723
 70
0
  0
VERTEX
  5
7923
  8
0
 62
7
 10
69.890372168215279
 20
47.340180665947337
 70
0
  0
VERTEX
  5
7924
  8
0
 62
7
 10
69.847652984198191
 20
47.340180665947337
 70
0
  0
SEQEND
  5
7925
  8
0
  0
POLYLINE
  5
6826
  8
0
 62
7
 66
1
 70
0
 10
0
 20
0
 30
0
  0
VERTEX
  5
7926
  8
0
 62
7
 10
69.678154286323888
 20
46.4084545919615
 70
0
  0
VERTEX
  5
7927
  8
0
 62
7
 10
69.72087347034099
 20
46.4084545919615
 70
0
  0
VERTEX
  5
7928
  8
0
 62
7
 10
69.72087347034099
 20
46.365735407944442
 70
0
  0
SEQEND
  5
7929
  8
0
  0
POLYLINE
  5
682B
  8
0
 62
7
 66
1
 70
0
 10
0
 20
0
 30
0
  0
VERTEX
  5
792A
  8
0
 62
7
 10
69.12831704687801
 20
46.112176380230039
 70
0
  0
VERTEX
  5
792B
  8
0
 62
7
 10
69.0855978628609
 20
46.112176380230039
 70
0
  0
SEQEND
  5
792C
  8
0
  0
POLYLINE
  5
7342
  8
0
 62
7
 66
1
 70
8
  0
VERTEX
  5
7343
  8
0
 62
7
 10
69.7209
 20
46.493899999999989
 30
0
 70
32
  0
VERTEX
  5
7344
  8
0
 62
7
 10
69.7209
 20
46.493899999999989
 30
0
 70
32
  0
VERTEX
  5
7345
  8
0
 62
7
 10
69.7209
 20
46.493899999999989
 30
0
 70
32
  0
VERTEX
  5
7346
  8
0
 62
7
 10
69.721
 20
46.493899999999989
 30
0
 70
32
  0
VERTEX
  5
7347
  8
0
 62
7
 10
69.7211
 20
46.493899999999989
 30
0
 70
32
  0
VERTEX
  5
7348
  8
0
 62
7
 10
69.7212
 20
46.493899999999989
 30
0
 70
32
  0
VERTEX
  5
7349
  8
0
 62
7
 10
69.721299999999985
 20
46.493899999999989
 30
0
 70
32
  0
VERTEX
  5
734A
  8
0
 62
7
 10
69.7214
 20
46.493899999999989
 30
0
 70
32
  0
VERTEX
  5
734B
  8
0
 62
7
 10
69.7216
 20
46.493899999999989
 30
0
 70
32
  0
VERTEX
  5
734C
  8
0
 62
7
 10
69.7218
 20
46.493899999999989
 30
0
 70
32
  0
VERTEX
  5
734D
  8
0
 62
7
 10
69.722
 20
46.493899999999989
 30
0
 70
32
  0
VERTEX
  5
734E
  8
0
 62
7
 10
69.7222
 20
46.493899999999989
 30
0
 70
32
  0
VERTEX
  5
734F
  8
0
 62
7
 10
69.7225
 20
46.493899999999989
 30
0
 70
32
  0
VERTEX
  5
7350
  8
0
 62
7
 10
69.7227
 20
46.493899999999989
 30
0
 70
32
  0
VERTEX
  5
7351
  8
0
 62
7
 10
69.723
 20
46.493899999999989
 30
0
 70
32
  0
VERTEX
  5
7352
  8
0
 62
7
 10
69.7233
 20
46.493899999999989
 30
0
 70
32
  0
VERTEX
  5
7353
  8
0
 62
7
 10
69.7236
 20
46.493899999999989
 30
0
 70
32
  0
VERTEX
  5
7354
  8
0
 62
7
 10
69.7239
 20
46.493899999999989
 30
0
 70
32
  0
VERTEX
  5
7355
  8
0
 62
7
 10
69.7243
 20
46.493899999999989
 30
0
 70
32
  0
VERTEX
  5
7356
  8
0
 62
7
 10
69.7246
 20
46.493899999999989
 30
0
 70
32
  0
VERTEX
  5
7357
  8
0
 62
7
 10
69.725
 20
46.493899999999989
 30
0
 70
32
  0
VERTEX
  5
7358
  8
0
 62
7
 10
69.7254
 20
46.493899999999989
 30
0
 70
32
  0
VERTEX
  5
7359
  8
0
 62
7
 10
69.7258
 20
46.493899999999989
 30
0
 70
32
  0
VERTEX
  5
735A
  8
0
 62
7
 10
69.7262
 20
46.493899999999989
 30
0
 70
32
  0
VERTEX
  5
735B
  8
0
 62
7
 10
69.7267
 20
46.493899999999989
 30
0
 70
32
  0
VERTEX
  5
735C
  8
0
 62
7
 10
69.7271
 20
46.493899999999989
 30
0
 70
32
  0
VERTEX
  5
735D
  8
0
 62
7
 10
69.7276
 20
46.493899999999989
 30
0
 70
32
  0
VERTEX
  5
735E
  8
0
 62
7
 10
69.728
 20
46.493899999999989
 30
0
 70
32
  0
VERTEX
  5
735F
  8
0
 62
7
 10
69.7285
 20
46.493899999999989
 30
0
 70
32
  0
VERTEX
  5
7360
  8
0
 62
7
 10
69.729
 20
46.493899999999989
 30
0
 70
32
  0
VERTEX
  5
7361
  8
0
 62
7
 10
69.7295
 20
46.493899999999989
 30
0
 70
32
  0
VERTEX
  5
7362
  8
0
 62
7
 10
69.73
 20
46.493899999999989
 30
0
 70
32
  0
VERTEX
  5
7363
  8
0
 62
7
 10
69.7306
 20
46.493899999999989
 30
0
 70
32
  0
VERTEX
  5
7364
  8
0
 62
7
 10
69.7311
 20
46.493899999999989
 30
0
 70
32
  0
VERTEX
  5
7365
  8
0
 62
7
 10
69.7316
 20
46.493899999999989
 30
0
 70
32
  0
VERTEX
  5
7366
  8
0
 62
7
 10
69.7322
 20
46.493899999999989
 30
0
 70
32
  0
VERTEX
  5
7367
  8
0
 62
7
 10
69.7327
 20
46.493899999999989
 30
0
 70
32
  0
VERTEX
  5
7368
  8
0
 62
7
 10
69.7333
 20
46.493899999999989
 30
0
 70
32
  0
VERTEX
  5
7369
  8
0
 62
7
 10
69.7339
 20
46.493899999999989
 30
0
 70
32
  0
VERTEX
  5
736A
  8
0
 62
7
 10
69.7344
 20
46.493899999999989
 30
0
 70
32
  0
VERTEX
  5
736B
  8
0
 62
7
 10
69.735
 20
46.493899999999989
 30
0
 70
32
  0
VERTEX
  5
736C
  8
0
 62
7
 10
69.7356
 20
46.493899999999989
 30
0
 70
32
  0
VERTEX
  5
736D
  8
0
 62
7
 10
69.7362
 20
46.493899999999989
 30
0
 70
32
  0
VERTEX
  5
736E
  8
0
 62
7
 10
69.7368
 20
46.493899999999989
 30
0
 70
32
  0
VERTEX
  5
736F
  8
0
 62
7
 10
69.7374
 20
46.493899999999989
 30
0
 70
32
  0
VERTEX
  5
7370
  8
0
 62
7
 10
69.738
 20
46.493899999999989
 30
0
 70
32
  0
VERTEX
  5
7371
  8
0
 62
7
 10
69.7386
 20
46.493899999999989
 30
0
 70
32
  0
VERTEX
  5
7372
  8
0
 62
7
 10
69.7392
 20
46.493899999999989
 30
0
 70
32
  0
VERTEX
  5
7373
  8
0
 62
7
 10
69.7398
 20
46.493899999999989
 30
0
 70
32
  0
VERTEX
  5
7374
  8
0
 62
7
 10
69.7405
 20
46.493899999999989
 30
0
 70
32
  0
VERTEX
  5
7375
  8
0
 62
7
 10
69.7411
 20
46.493899999999989
 30
0
 70
32
  0
VERTEX
  5
7376
  8
0
 62
7
 10
69.7417
 20
46.493899999999989
 30
0
 70
32
  0
VERTEX
  5
7377
  8
0
 62
7
 10
69.7423
 20
46.493899999999989
 30
0
 70
32
  0
VERTEX
  5
7378
  8
0
 62
7
 10
69.7429
 20
46.493899999999989
 30
0
 70
32
  0
VERTEX
  5
7379
  8
0
 62
7
 10
69.7435
 20
46.493899999999989
 30
0
 70
32
  0
VERTEX
  5
737A
  8
0
 62
7
 10
69.7442
 20
46.493899999999989
 30
0
 70
32
  0
VERTEX
  5
737B
  8
0
 62
7
 10
69.744799999999984
 20
46.493899999999989
 30
0
 70
32
  0
VERTEX
  5
737C
  8
0
 62
7
 10
69.7454
 20
46.493899999999989
 30
0
 70
32
  0
VERTEX
  5
737D
  8
0
 62
7
 10
69.746
 20
46.493899999999989
 30
0
 70
32
  0
VERTEX
  5
737E
  8
0
 62
7
 10
69.7466
 20
46.493899999999989
 30
0
 70
32
  0
VERTEX
  5
737F
  8
0
 62
7
 10
69.7472
 20
46.493899999999989
 30
0
 70
32
  0
VERTEX
  5
7380
  8
0
 62
7
 10
69.747799999999984
 20
46.493899999999989
 30
0
 70
32
  0
VERTEX
  5
7381
  8
0
 62
7
 10
69.7484
 20
46.493899999999989
 30
0
 70
32
  0
VERTEX
  5
7382
  8
0
 62
7
 10
69.749
 20
46.493899999999989
 30
0
 70
32
  0
VERTEX
  5
7383
  8
0
 62
7
 10
69.7496
 20
46.493899999999989
 30
0
 70
32
  0
VERTEX
  5
7384
  8
0
 62
7
 10
69.7502
 20
46.493899999999989
 30
0
 70
32
  0
VERTEX
  5
7385
  8
0
 62
7
 10
69.7507
 20
46.493899999999989
 30
0
 70
32
  0
VERTEX
  5
7386
  8
0
 62
7
 10
69.7513
 20
46.493899999999989
 30
0
 70
32
  0
VERTEX
  5
7387
  8
0
 62
7
 10
69.7519
 20
46.493899999999989
 30
0
 70
32
  0
VERTEX
  5
7388
  8
0
 62
7
 10
69.7524
 20
46.493899999999989
 30
0
 70
32
  0
VERTEX
  5
7389
  8
0
 62
7
 10
69.753
 20
46.493899999999989
 30
0
 70
32
  0
VERTEX
  5
738A
  8
0
 62
7
 10
69.7535
 20
46.493899999999989
 30
0
 70
32
  0
VERTEX
  5
738B
  8
0
 62
7
 10
69.754
 20
46.493899999999989
 30
0
 70
32
  0
VERTEX
  5
738C
  8
0
 62
7
 10
69.7546
 20
46.493899999999989
 30
0
 70
32
  0
VERTEX
  5
738D
  8
0
 62
7
 10
69.755099999999985
 20
46.493899999999989
 30
0
 70
32
  0
VERTEX
  5
738E
  8
0
 62
7
 10
69.7556
 20
46.493899999999989
 30
0
 70
32
  0
VERTEX
  5
738F
  8
0
 62
7
 10
69.7561
 20
46.493899999999989
 30
0
 70
32
  0
VERTEX
  5
7390
  8
0
 62
7
 10
69.7565
 20
46.493899999999989
 30
0
 70
32
  0
VERTEX
  5
7391
  8
0
 62
7
 10
69.757
 20
46.493899999999989
 30
0
 70
32
  0
VERTEX
  5
7392
  8
0
 62
7
 10
69.7575
 20
46.493899999999989
 30
0
 70
32
  0
VERTEX
  5
7393
  8
0
 62
7
 10
69.7579
 20
46.493899999999989
 30
0
 70
32
  0
VERTEX
  5
7394
  8
0
 62
7
 10
69.7583
 20
46.493899999999989
 30
0
 70
32
  0
VERTEX
  5
7395
  8
0
 62
7
 10
69.7587
 20
46.493899999999989
 30
0
 70
32
  0
VERTEX
  5
7396
  8
0
 62
7
 10
69.7591
 20
46.493899999999989
 30
0
 70
32
  0
VERTEX
  5
7397
  8
0
 62
7
 10
69.7595
 20
46.493899999999989
 30
0
 70
32
  0
VERTEX
  5
7398
  8
0
 62
7
 10
69.7599
 20
46.493899999999989
 30
0
 70
32
  0
VERTEX
  5
7399
  8
0
 62
7
 10
69.7603
 20
46.493899999999989
 30
0
 70
32
  0
VERTEX
  5
739A
  8
0
 62
7
 10
69.7606
 20
46.493899999999989
 30
0
 70
32
  0
VERTEX
  5
739B
  8
0
 62
7
 10
69.7609
 20
46.493899999999989
 30
0
 70
32
  0
VERTEX
  5
739C
  8
0
 62
7
 10
69.7612
 20
46.493899999999989
 30
0
 70
32
  0
VERTEX
  5
739D
  8
0
 62
7
 10
69.7615
 20
46.493899999999989
 30
0
 70
32
  0
VERTEX
  5
739E
  8
0
 62
7
 10
69.7618
 20
46.493899999999989
 30
0
 70
32
  0
VERTEX
  5
739F
  8
0
 62
7
 10
69.7621
 20
46.493899999999989
 30
0
 70
32
  0
VERTEX
  5
73A0
  8
0
 62
7
 10
69.7623
 20
46.493899999999989
 30
0
 70
32
  0
VERTEX
  5
73A1
  8
0
 62
7
 10
69.7625
 20
46.493899999999989
 30
0
 70
32
  0
VERTEX
  5
73A2
  8
0
 62
7
 10
69.7627
 20
46.493899999999989
 30
0
 70
32
  0
VERTEX
  5
73A3
  8
0
 62
7
 10
69.7629
 20
46.493899999999989
 30
0
 70
32
  0
VERTEX
  5
73A4
  8
0
 62
7
 10
69.7631
 20
46.493899999999989
 30
0
 70
32
  0
VERTEX
  5
73A5
  8
0
 62
7
 10
69.7632
 20
46.493899999999989
 30
0
 70
32
  0
VERTEX
  5
73A6
  8
0
 62
7
 10
69.7633
 20
46.493899999999989
 30
0
 70
32
  0
VERTEX
  5
73A7
  8
0
 62
7
 10
69.7634
 20
46.493899999999989
 30
0
 70
32
  0
VERTEX
  5
73A8
  8
0
 62
7
 10
69.7635
 20
46.493899999999989
 30
0
 70
32
  0
VERTEX
  5
73A9
  8
0
 62
7
 10
69.7636
 20
46.493899999999989
 30
0
 70
32
  0
VERTEX
  5
73AA
  8
0
 62
7
 10
69.7636
 20
46.493899999999989
 30
0
 70
32
  0
VERTEX
  5
73AB
  8
0
 62
7
 10
69.7636
 20
46.493899999999989
 30
0
 70
32
  0
VERTEX
  5
73AC
  8
0
 62
7
 10
69.7636
 20
46.493899999999989
 30
0
 70
32
  0
VERTEX
  5
73AD
  8
0
 62
7
 10
69.7636
 20
46.493799999999993
 30
0
 70
32
  0
VERTEX
  5
73AE
  8
0
 62
7
 10
69.7636
 20
46.493799999999993
 30
0
 70
32
  0
VERTEX
  5
73AF
  8
0
 62
7
 10
69.7636
 20
46.4937
 30
0
 70
32
  0
VERTEX
  5
73B0
  8
0
 62
7
 10
69.7636
 20
46.4936
 30
0
 70
32
  0
VERTEX
  5
73B1
  8
0
 62
7
 10
69.7636
 20
46.4934
 30
0
 70
32
  0
VERTEX
  5
73B2
  8
0
 62
7
 10
69.7636
 20
46.493299999999991
 30
0
 70
32
  0
VERTEX
  5
73B3
  8
0
 62
7
 10
69.7636
 20
46.493099999999991
 30
0
 70
32
  0
VERTEX
  5
73B4
  8
0
 62
7
 10
69.7636
 20
46.492899999999992
 30
0
 70
32
  0
VERTEX
  5
73B5
  8
0
 62
7
 10
69.7636
 20
46.4927
 30
0
 70
32
  0
VERTEX
  5
73B6
  8
0
 62
7
 10
69.7636
 20
46.4925
 30
0
 70
32
  0
VERTEX
  5
73B7
  8
0
 62
7
 10
69.7636
 20
46.49219999999999
 30
0
 70
32
  0
VERTEX
  5
73B8
  8
0
 62
7
 10
69.7636
 20
46.49199999999999
 30
0
 70
32
  0
VERTEX
  5
73B9
  8
0
 62
7
 10
69.7636
 20
46.4917
 30
0
 70
32
  0
VERTEX
  5
73BA
  8
0
 62
7
 10
69.7636
 20
46.4914
 30
0
 70
32
  0
VERTEX
  5
73BB
  8
0
 62
7
 10
69.7636
 20
46.4911
 30
0
 70
32
  0
VERTEX
  5
73BC
  8
0
 62
7
 10
69.7636
 20
46.4907
 30
0
 70
32
  0
VERTEX
  5
73BD
  8
0
 62
7
 10
69.7636
 20
46.4904
 30
0
 70
32
  0
VERTEX
  5
73BE
  8
0
 62
7
 10
69.7636
 20
46.49
 30
0
 70
32
  0
VERTEX
  5
73BF
  8
0
 62
7
 10
69.7636
 20
46.4896
 30
0
 70
32
  0
VERTEX
  5
73C0
  8
0
 62
7
 10
69.7636
 20
46.4893
 30
0
 70
32
  0
VERTEX
  5
73C1
  8
0
 62
7
 10
69.7636
 20
46.4888
 30
0
 70
32
  0
VERTEX
  5
73C2
  8
0
 62
7
 10
69.7636
 20
46.488399999999992
 30
0
 70
32
  0
VERTEX
  5
73C3
  8
0
 62
7
 10
69.7636
 20
46.488
 30
0
 70
32
  0
VERTEX
  5
73C4
  8
0
 62
7
 10
69.7636
 20
46.48749999999999
 30
0
 70
32
  0
VERTEX
  5
73C5
  8
0
 62
7
 10
69.7636
 20
46.4871
 30
0
 70
32
  0
VERTEX
  5
73C6
  8
0
 62
7
 10
69.7636
 20
46.4866
 30
0
 70
32
  0
VERTEX
  5
73C7
  8
0
 62
7
 10
69.7636
 20
46.4861
 30
0
 70
32
  0
VERTEX
  5
73C8
  8
0
 62
7
 10
69.7636
 20
46.485599999999991
 30
0
 70
32
  0
VERTEX
  5
73C9
  8
0
 62
7
 10
69.7636
 20
46.4851
 30
0
 70
32
  0
VERTEX
  5
73CA
  8
0
 62
7
 10
69.7636
 20
46.4846
 30
0
 70
32
  0
VERTEX
  5
73CB
  8
0
 62
7
 10
69.7636
 20
46.4841
 30
0
 70
32
  0
VERTEX
  5
73CC
  8
0
 62
7
 10
69.7636
 20
46.483499999999992
 30
0
 70
32
  0
VERTEX
  5
73CD
  8
0
 62
7
 10
69.7636
 20
46.48299999999999
 30
0
 70
32
  0
VERTEX
  5
73CE
  8
0
 62
7
 10
69.7636
 20
46.4824
 30
0
 70
32
  0
VERTEX
  5
73CF
  8
0
 62
7
 10
69.7636
 20
46.4819
 30
0
 70
32
  0
VERTEX
  5
73D0
  8
0
 62
7
 10
69.7636
 20
46.4813
 30
0
 70
32
  0
VERTEX
  5
73D1
  8
0
 62
7
 10
69.7636
 20
46.4808
 30
0
 70
32
  0
VERTEX
  5
73D2
  8
0
 62
7
 10
69.7636
 20
46.4802
 30
0
 70
32
  0
VERTEX
  5
73D3
  8
0
 62
7
 10
69.7636
 20
46.4796
 30
0
 70
32
  0
VERTEX
  5
73D4
  8
0
 62
7
 10
69.7636
 20
46.478999999999992
 30
0
 70
32
  0
VERTEX
  5
73D5
  8
0
 62
7
 10
69.7636
 20
46.4784
 30
0
 70
32
  0
VERTEX
  5
73D6
  8
0
 62
7
 10
69.7636
 20
46.4778
 30
0
 70
32
  0
VERTEX
  5
73D7
  8
0
 62
7
 10
69.7636
 20
46.4772
 30
0
 70
32
  0
VERTEX
  5
73D8
  8
0
 62
7
 10
69.7636
 20
46.4766
 30
0
 70
32
  0
VERTEX
  5
73D9
  8
0
 62
7
 10
69.7636
 20
46.475999999999992
 30
0
 70
32
  0
VERTEX
  5
73DA
  8
0
 62
7
 10
69.7636
 20
46.4754
 30
0
 70
32
  0
VERTEX
  5
73DB
  8
0
 62
7
 10
69.7636
 20
46.4748
 30
0
 70
32
  0
VERTEX
  5
73DC
  8
0
 62
7
 10
69.7636
 20
46.4742
 30
0
 70
32
  0
VERTEX
  5
73DD
  8
0
 62
7
 10
69.7636
 20
46.4735
 30
0
 70
32
  0
VERTEX
  5
73DE
  8
0
 62
7
 10
69.7636
 20
46.4729
 30
0
 70
32
  0
VERTEX
  5
73DF
  8
0
 62
7
 10
69.7636
 20
46.47229999999999
 30
0
 70
32
  0
VERTEX
  5
73E0
  8
0
 62
7
 10
69.7636
 20
46.4717
 30
0
 70
32
  0
VERTEX
  5
73E1
  8
0
 62
7
 10
69.7636
 20
46.4711
 30
0
 70
32
  0
VERTEX
  5
73E2
  8
0
 62
7
 10
69.7636
 20
46.4705
 30
0
 70
32
  0
VERTEX
  5
73E3
  8
0
 62
7
 10
69.7636
 20
46.4698
 30
0
 70
32
  0
VERTEX
  5
73E4
  8
0
 62
7
 10
69.7636
 20
46.4692
 30
0
 70
32
  0
VERTEX
  5
73E5
  8
0
 62
7
 10
69.7636
 20
46.4686
 30
0
 70
32
  0
VERTEX
  5
73E6
  8
0
 62
7
 10
69.7636
 20
46.468
 30
0
 70
32
  0
VERTEX
  5
73E7
  8
0
 62
7
 10
69.7636
 20
46.4674
 30
0
 70
32
  0
VERTEX
  5
73E8
  8
0
 62
7
 10
69.7636
 20
46.466799999999992
 30
0
 70
32
  0
VERTEX
  5
73E9
  8
0
 62
7
 10
69.7636
 20
46.4662
 30
0
 70
32
  0
VERTEX
  5
73EA
  8
0
 62
7
 10
69.7636
 20
46.4656
 30
0
 70
32
  0
VERTEX
  5
73EB
  8
0
 62
7
 10
69.7636
 20
46.465
 30
0
 70
32
  0
VERTEX
  5
73EC
  8
0
 62
7
 10
69.7636
 20
46.4645
 30
0
 70
32
  0
VERTEX
  5
73ED
  8
0
 62
7
 10
69.7636
 20
46.4639
 30
0
 70
32
  0
VERTEX
  5
73EE
  8
0
 62
7
 10
69.7636
 20
46.46329999999999
 30
0
 70
32
  0
VERTEX
  5
73EF
  8
0
 62
7
 10
69.7636
 20
46.462799999999987
 30
0
 70
32
  0
VERTEX
  5
73F0
  8
0
 62
7
 10
69.7636
 20
46.4622
 30
0
 70
32
  0
VERTEX
  5
73F1
  8
0
 62
7
 10
69.7636
 20
46.4617
 30
0
 70
32
  0
VERTEX
  5
73F2
  8
0
 62
7
 10
69.7636
 20
46.4611
 30
0
 70
32
  0
VERTEX
  5
73F3
  8
0
 62
7
 10
69.7636
 20
46.4606
 30
0
 70
32
  0
VERTEX
  5
73F4
  8
0
 62
7
 10
69.7636
 20
46.46009999999999
 30
0
 70
32
  0
VERTEX
  5
73F5
  8
0
 62
7
 10
69.7636
 20
46.4596
 30
0
 70
32
  0
VERTEX
  5
73F6
  8
0
 62
7
 10
69.7636
 20
46.459099999999992
 30
0
 70
32
  0
VERTEX
  5
73F7
  8
0
 62
7
 10
69.7636
 20
46.45859999999999
 30
0
 70
32
  0
VERTEX
  5
73F8
  8
0
 62
7
 10
69.7636
 20
46.458099999999988
 30
0
 70
32
  0
VERTEX
  5
73F9
  8
0
 62
7
 10
69.7636
 20
46.4576
 30
0
 70
32
  0
VERTEX
  5
73FA
  8
0
 62
7
 10
69.7636
 20
46.457199999999993
 30
0
 70
32
  0
VERTEX
  5
73FB
  8
0
 62
7
 10
69.7636
 20
46.4568
 30
0
 70
32
  0
VERTEX
  5
73FC
  8
0
 62
7
 10
69.7636
 20
46.456299999999992
 30
0
 70
32
  0
VERTEX
  5
73FD
  8
0
 62
7
 10
69.7636
 20
46.4559
 30
0
 70
32
  0
VERTEX
  5
73FE
  8
0
 62
7
 10
69.7636
 20
46.4555
 30
0
 70
32
  0
VERTEX
  5
73FF
  8
0
 62
7
 10
69.7636
 20
46.4551
 30
0
 70
32
  0
VERTEX
  5
7400
  8
0
 62
7
 10
69.7636
 20
46.4548
 30
0
 70
32
  0
VERTEX
  5
7401
  8
0
 62
7
 10
69.7636
 20
46.454399999999993
 30
0
 70
32
  0
VERTEX
  5
7402
  8
0
 62
7
 10
69.7636
 20
46.4541
 30
0
 70
32
  0
VERTEX
  5
7403
  8
0
 62
7
 10
69.7636
 20
46.453699999999991
 30
0
 70
32
  0
VERTEX
  5
7404
  8
0
 62
7
 10
69.7636
 20
46.4534
 30
0
 70
32
  0
VERTEX
  5
7405
  8
0
 62
7
 10
69.7636
 20
46.4532
 30
0
 70
32
  0
VERTEX
  5
7406
  8
0
 62
7
 10
69.7636
 20
46.4529
 30
0
 70
32
  0
VERTEX
  5
7407
  8
0
 62
7
 10
69.7636
 20
46.45259999999999
 30
0
 70
32
  0
VERTEX
  5
7408
  8
0
 62
7
 10
69.7636
 20
46.4524
 30
0
 70
32
  0
VERTEX
  5
7409
  8
0
 62
7
 10
69.7636
 20
46.4522
 30
0
 70
32
  0
VERTEX
  5
740A
  8
0
 62
7
 10
69.7636
 20
46.451999999999991
 30
0
 70
32
  0
VERTEX
  5
740B
  8
0
 62
7
 10
69.7636
 20
46.451799999999992
 30
0
 70
32
  0
VERTEX
  5
740C
  8
0
 62
7
 10
69.7636
 20
46.4517
 30
0
 70
32
  0
VERTEX
  5
740D
  8
0
 62
7
 10
69.7636
 20
46.4515
 30
0
 70
32
  0
VERTEX
  5
740E
  8
0
 62
7
 10
69.7636
 20
46.4514
 30
0
 70
32
  0
VERTEX
  5
740F
  8
0
 62
7
 10
69.7636
 20
46.4513
 30
0
 70
32
  0
VERTEX
  5
7410
  8
0
 62
7
 10
69.7636
 20
46.4512
 30
0
 70
32
  0
VERTEX
  5
7411
  8
0
 62
7
 10
69.7636
 20
46.4512
 30
0
 70
32
  0
VERTEX
  5
7412
  8
0
 62
7
 10
69.7636
 20
46.4512
 30
0
 70
32
  0
VERTEX
  5
7413
  8
0
 62
7
 10
69.7636
 20
46.4512
 30
0
 70
32
  0
VERTEX
  5
7414
  8
0
 62
7
 10
69.7636
 20
46.4512
 30
0
 70
32
  0
VERTEX
  5
7415
  8
0
 62
7
 10
69.7636
 20
46.4512
 30
0
 70
32
  0
VERTEX
  5
7416
  8
0
 62
7
 10
69.7636
 20
46.4513
 30
0
 70
32
  0
VERTEX
  5
7417
  8
0
 62
7
 10
69.7636
 20
46.4514
 30
0
 70
32
  0
VERTEX
  5
7418
  8
0
 62
7
 10
69.7636
 20
46.4515
 30
0
 70
32
  0
VERTEX
  5
7419
  8
0
 62
7
 10
69.7636
 20
46.4517
 30
0
 70
32
  0
VERTEX
  5
741A
  8
0
 62
7
 10
69.7636
 20
46.451799999999992
 30
0
 70
32
  0
VERTEX
  5
741B
  8
0
 62
7
 10
69.7636
 20
46.451999999999991
 30
0
 70
32
  0
VERTEX
  5
741C
  8
0
 62
7
 10
69.7636
 20
46.4522
 30
0
 70
32
  0
VERTEX
  5
741D
  8
0
 62
7
 10
69.7636
 20
46.4524
 30
0
 70
32
  0
VERTEX
  5
741E
  8
0
 62
7
 10
69.7636
 20
46.45259999999999
 30
0
 70
32
  0
VERTEX
  5
741F
  8
0
 62
7
 10
69.7636
 20
46.4529
 30
0
 70
32
  0
VERTEX
  5
7420
  8
0
 62
7
 10
69.7636
 20
46.4532
 30
0
 70
32
  0
VERTEX
  5
7421
  8
0
 62
7
 10
69.7636
 20
46.4534
 30
0
 70
32
  0
VERTEX
  5
7422
  8
0
 62
7
 10
69.7636
 20
46.453699999999991
 30
0
 70
32
  0
VERTEX
  5
7423
  8
0
 62
7
 10
69.7636
 20
46.4541
 30
0
 70
32
  0
VERTEX
  5
7424
  8
0
 62
7
 10
69.7636
 20
46.454399999999993
 30
0
 70
32
  0
VERTEX
  5
7425
  8
0
 62
7
 10
69.7636
 20
46.4548
 30
0
 70
32
  0
VERTEX
  5
7426
  8
0
 62
7
 10
69.7636
 20
46.4551
 30
0
 70
32
  0
VERTEX
  5
7427
  8
0
 62
7
 10
69.7636
 20
46.4555
 30
0
 70
32
  0
VERTEX
  5
7428
  8
0
 62
7
 10
69.7636
 20
46.4559
 30
0
 70
32
  0
VERTEX
  5
7429
  8
0
 62
7
 10
69.7636
 20
46.456299999999992
 30
0
 70
32
  0
VERTEX
  5
742A
  8
0
 62
7
 10
69.7636
 20
46.4568
 30
0
 70
32
  0
VERTEX
  5
742B
  8
0
 62
7
 10
69.7636
 20
46.457199999999993
 30
0
 70
32
  0
VERTEX
  5
742C
  8
0
 62
7
 10
69.7636
 20
46.4576
 30
0
 70
32
  0
VERTEX
  5
742D
  8
0
 62
7
 10
69.7636
 20
46.458099999999988
 30
0
 70
32
  0
VERTEX
  5
742E
  8
0
 62
7
 10
69.7636
 20
46.45859999999999
 30
0
 70
32
  0
VERTEX
  5
742F
  8
0
 62
7
 10
69.7636
 20
46.459099999999992
 30
0
 70
32
  0
VERTEX
  5
7430
  8
0
 62
7
 10
69.7636
 20
46.4596
 30
0
 70
32
  0
VERTEX
  5
7431
  8
0
 62
7
 10
69.7636
 20
46.46009999999999
 30
0
 70
32
  0
VERTEX
  5
7432
  8
0
 62
7
 10
69.7636
 20
46.4606
 30
0
 70
32
  0
VERTEX
  5
7433
  8
0
 62
7
 10
69.7636
 20
46.4611
 30
0
 70
32
  0
VERTEX
  5
7434
  8
0
 62
7
 10
69.7636
 20
46.4617
 30
0
 70
32
  0
VERTEX
  5
7435
  8
0
 62
7
 10
69.7636
 20
46.4622
 30
0
 70
32
  0
VERTEX
  5
7436
  8
0
 62
7
 10
69.7636
 20
46.462799999999987
 30
0
 70
32
  0
VERTEX
  5
7437
  8
0
 62
7
 10
69.7636
 20
46.46329999999999
 30
0
 70
32
  0
VERTEX
  5
7438
  8
0
 62
7
 10
69.7636
 20
46.4639
 30
0
 70
32
  0
VERTEX
  5
7439
  8
0
 62
7
 10
69.7636
 20
46.4645
 30
0
 70
32
  0
VERTEX
  5
743A
  8
0
 62
7
 10
69.7636
 20
46.465
 30
0
 70
32
  0
VERTEX
  5
743B
  8
0
 62
7
 10
69.7636
 20
46.4656
 30
0
 70
32
  0
VERTEX
  5
743C
  8
0
 62
7
 10
69.7636
 20
46.4662
 30
0
 70
32
  0
VERTEX
  5
743D
  8
0
 62
7
 10
69.7636
 20
46.466799999999992
 30
0
 70
32
  0
VERTEX
  5
743E
  8
0
 62
7
 10
69.7636
 20
46.4674
 30
0
 70
32
  0
VERTEX
  5
743F
  8
0
 62
7
 10
69.7636
 20
46.468
 30
0
 70
32
  0
VERTEX
  5
7440
  8
0
 62
7
 10
69.7636
 20
46.4686
 30
0
 70
32
  0
VERTEX
  5
7441
  8
0
 62
7
 10
69.7636
 20
46.4692
 30
0
 70
32
  0
VERTEX
  5
7442
  8
0
 62
7
 10
69.7636
 20
46.4698
 30
0
 70
32
  0
VERTEX
  5
7443
  8
0
 62
7
 10
69.7636
 20
46.4705
 30
0
 70
32
  0
VERTEX
  5
7444
  8
0
 62
7
 10
69.7636
 20
46.4711
 30
0
 70
32
  0
VERTEX
  5
7445
  8
0
 62
7
 10
69.7636
 20
46.4717
 30
0
 70
32
  0
VERTEX
  5
7446
  8
0
 62
7
 10
69.7636
 20
46.47229999999999
 30
0
 70
32
  0
VERTEX
  5
7447
  8
0
 62
7
 10
69.7636
 20
46.4729
 30
0
 70
32
  0
VERTEX
  5
7448
  8
0
 62
7
 10
69.7636
 20
46.4735
 30
0
 70
32
  0
VERTEX
  5
7449
  8
0
 62
7
 10
69.7636
 20
46.4742
 30
0
 70
32
  0
VERTEX
  5
744A
  8
0
 62
7
 10
69.7636
 20
46.4748
 30
0
 70
32
  0
VERTEX
  5
744B
  8
0
 62
7
 10
69.7636
 20
46.4754
 30
0
 70
32
  0
VERTEX
  5
744C
  8
0
 62
7
 10
69.7636
 20
46.475999999999992
 30
0
 70
32
  0
VERTEX
  5
744D
  8
0
 62
7
 10
69.7636
 20
46.4766
 30
0
 70
32
  0
VERTEX
  5
744E
  8
0
 62
7
 10
69.7636
 20
46.4772
 30
0
 70
32
  0
VERTEX
  5
744F
  8
0
 62
7
 10
69.7636
 20
46.4778
 30
0
 70
32
  0
VERTEX
  5
7450
  8
0
 62
7
 10
69.7636
 20
46.4784
 30
0
 70
32
  0
VERTEX
  5
7451
  8
0
 62
7
 10
69.7636
 20
46.478999999999992
 30
0
 70
32
  0
VERTEX
  5
7452
  8
0
 62
7
 10
69.7636
 20
46.4796
 30
0
 70
32
  0
VERTEX
  5
7453
  8
0
 62
7
 10
69.7636
 20
46.4802
 30
0
 70
32
  0
VERTEX
  5
7454
  8
0
 62
7
 10
69.7636
 20
46.4808
 30
0
 70
32
  0
VERTEX
  5
7455
  8
0
 62
7
 10
69.7636
 20
46.4813
 30
0
 70
32
  0
VERTEX
  5
7456
  8
0
 62
7
 10
69.7636
 20
46.4819
 30
0
 70
32
  0
VERTEX
  5
7457
  8
0
 62
7
 10
69.7636
 20
46.4824
 30
0
 70
32
  0
VERTEX
  5
7458
  8
0
 62
7
 10
69.7636
 20
46.48299999999999
 30
0
 70
32
  0
VERTEX
  5
7459
  8
0
 62
7
 10
69.7636
 20
46.483499999999992
 30
0
 70
32
  0
VERTEX
  5
745A
  8
0
 62
7
 10
69.7636
 20
46.4841
 30
0
 70
32
  0
VERTEX
  5
745B
  8
0
 62
7
 10
69.7636
 20
46.4846
 30
0
 70
32
  0
VERTEX
  5
745C
  8
0
 62
7
 10
69.7636
 20
46.4851
 30
0
 70
32
  0
VERTEX
  5
745D
  8
0
 62
7
 10
69.7636
 20
46.485599999999991
 30
0
 70
32
  0
VERTEX
  5
745E
  8
0
 62
7
 10
69.7636
 20
46.4861
 30
0
 70
32
  0
VERTEX
  5
745F
  8
0
 62
7
 10
69.7636
 20
46.4866
 30
0
 70
32
  0
VERTEX
  5
7460
  8
0
 62
7
 10
69.7636
 20
46.4871
 30
0
 70
32
  0
VERTEX
  5
7461
  8
0
 62
7
 10
69.7636
 20
46.48749999999999
 30
0
 70
32
  0
VERTEX
  5
7462
  8
0
 62
7
 10
69.7636
 20
46.488
 30
0
 70
32
  0
VERTEX
  5
7463
  8
0
 62
7
 10
69.7636
 20
46.488399999999992
 30
0
 70
32
  0
VERTEX
  5
7464
  8
0
 62
7
 10
69.7636
 20
46.4888
 30
0
 70
32
  0
VERTEX
  5
7465
  8
0
 62
7
 10
69.7636
 20
46.4893
 30
0
 70
32
  0
VERTEX
  5
7466
  8
0
 62
7
 10
69.7636
 20
46.4896
 30
0
 70
32
  0
VERTEX
  5
7467
  8
0
 62
7
 10
69.7636
 20
46.49
 30
0
 70
32
  0
VERTEX
  5
7468
  8
0
 62
7
 10
69.7636
 20
46.4904
 30
0
 70
32
  0
VERTEX
  5
7469
  8
0
 62
7
 10
69.7636
 20
46.4907
 30
0
 70
32
  0
VERTEX
  5
746A
  8
0
 62
7
 10
69.7636
 20
46.4911
 30
0
 70
32
  0
VERTEX
  5
746B
  8
0
 62
7
 10
69.7636
 20
46.4914
 30
0
 70
32
  0
VERTEX
  5
746C
  8
0
 62
7
 10
69.7636
 20
46.4917
 30
0
 70
32
  0
VERTEX
  5
746D
  8
0
 62
7
 10
69.7636
 20
46.49199999999999
 30
0
 70
32
  0
VERTEX
  5
746E
  8
0
 62
7
 10
69.7636
 20
46.49219999999999
 30
0
 70
32
  0
VERTEX
  5
746F
  8
0
 62
7
 10
69.7636
 20
46.4925
 30
0
 70
32
  0
VERTEX
  5
7470
  8
0
 62
7
 10
69.7636
 20
46.4927
 30
0
 70
32
  0
VERTEX
  5
7471
  8
0
 62
7
 10
69.7636
 20
46.492899999999992
 30
0
 70
32
  0
VERTEX
  5
7472
  8
0
 62
7
 10
69.7636
 20
46.493099999999991
 30
0
 70
32
  0
VERTEX
  5
7473
  8
0
 62
7
 10
69.7636
 20
46.493299999999991
 30
0
 70
32
  0
VERTEX
  5
7474
  8
0
 62
7
 10
69.7636
 20
46.4934
 30
0
 70
32
  0
VERTEX
  5
7475
  8
0
 62
7
 10
69.7636
 20
46.4936
 30
0
 70
32
  0
VERTEX
  5
7476
  8
0
 62
7
 10
69.7636
 20
46.4937
 30
0
 70
32
  0
VERTEX
  5
7477
  8
0
 62
7
 10
69.7636
 20
46.493799999999993
 30
0
 70
32
  0
VERTEX
  5
7478
  8
0
 62
7
 10
69.7636
 20
46.493799999999993
 30
0
 70
32
  0
VERTEX
  5
7479
  8
0
 62
7
 10
69.7636
 20
46.493899999999989
 30
0
 70
32
  0
VERTEX
  5
747A
  8
0
 62
7
 10
69.7636
 20
46.493899999999989
 30
0
 70
32
  0
VERTEX
  5
747B
  8
0
 62
7
 10
69.7636
 20
46.493899999999989
 30
0
 70
32
  0
VERTEX
  5
747C
  8
0
 62
7
 10
69.7636
 20
46.493899999999989
 30
0
 70
32
  0
VERTEX
  5
747D
  8
0
 62
7
 10
69.7637
 20
46.493899999999989
 30
0
 70
32
  0
VERTEX
  5
747E
  8
0
 62
7
 10
69.7638
 20
46.493899999999989
 30
0
 70
32
  0
VERTEX
  5
747F
  8
0
 62
7
 10
69.7638
 20
46.493899999999989
 30
0
 70
32
  0
VERTEX
  5
7480
  8
0
 62
7
 10
69.764
 20
46.493899999999989
 30
0
 70
32
  0
VERTEX
  5
7481
  8
0
 62
7
 10
69.7641
 20
46.493899999999989
 30
0
 70
32
  0
VERTEX
  5
7482
  8
0
 62
7
 10
69.7643
 20
46.493899999999989
 30
0
 70
32
  0
VERTEX
  5
7483
  8
0
 62
7
 10
69.7644
 20
46.493899999999989
 30
0
 70
32
  0
VERTEX
  5
7484
  8
0
 62
7
 10
69.7646
 20
46.493899999999989
 30
0
 70
32
  0
VERTEX
  5
7485
  8
0
 62
7
 10
69.7648
 20
46.493899999999989
 30
0
 70
32
  0
VERTEX
  5
7486
  8
0
 62
7
 10
69.7651
 20
46.493899999999989
 30
0
 70
32
  0
VERTEX
  5
7487
  8
0
 62
7
 10
69.7653
 20
46.493899999999989
 30
0
 70
32
  0
VERTEX
  5
7488
  8
0
 62
7
 10
69.7656
 20
46.493899999999989
 30
0
 70
32
  0
VERTEX
  5
7489
  8
0
 62
7
 10
69.7659
 20
46.493899999999989
 30
0
 70
32
  0
VERTEX
  5
748A
  8
0
 62
7
 10
69.7662
 20
46.493899999999989
 30
0
 70
32
  0
VERTEX
  5
748B
  8
0
 62
7
 10
69.7665
 20
46.493899999999989
 30
0
 70
32
  0
VERTEX
  5
748C
  8
0
 62
7
 10
69.7668
 20
46.493899999999989
 30
0
 70
32
  0
VERTEX
  5
748D
  8
0
 62
7
 10
69.7672
 20
46.493899999999989
 30
0
 70
32
  0
VERTEX
  5
748E
  8
0
 62
7
 10
69.7675
 20
46.493899999999989
 30
0
 70
32
  0
VERTEX
  5
748F
  8
0
 62
7
 10
69.7679
 20
46.493899999999989
 30
0
 70
32
  0
VERTEX
  5
7490
  8
0
 62
7
 10
69.7683
 20
46.493899999999989
 30
0
 70
32
  0
VERTEX
  5
7491
  8
0
 62
7
 10
69.7687
 20
46.493899999999989
 30
0
 70
32
  0
VERTEX
  5
7492
  8
0
 62
7
 10
69.7691
 20
46.493899999999989
 30
0
 70
32
  0
VERTEX
  5
7493
  8
0
 62
7
 10
69.7695
 20
46.493899999999989
 30
0
 70
32
  0
VERTEX
  5
7494
  8
0
 62
7
 10
69.77
 20
46.493899999999989
 30
0
 70
32
  0
VERTEX
  5
7495
  8
0
 62
7
 10
69.7704
 20
46.493899999999989
 30
0
 70
32
  0
VERTEX
  5
7496
  8
0
 62
7
 10
69.7709
 20
46.493899999999989
 30
0
 70
32
  0
VERTEX
  5
7497
  8
0
 62
7
 10
69.7714
 20
46.493899999999989
 30
0
 70
32
  0
VERTEX
  5
7498
  8
0
 62
7
 10
69.7718
 20
46.493899999999989
 30
0
 70
32
  0
VERTEX
  5
7499
  8
0
 62
7
 10
69.7723
 20
46.493899999999989
 30
0
 70
32
  0
VERTEX
  5
749A
  8
0
 62
7
 10
69.7728
 20
46.493899999999989
 30
0
 70
32
  0
VERTEX
  5
749B
  8
0
 62
7
 10
69.7734
 20
46.493899999999989
 30
0
 70
32
  0
VERTEX
  5
749C
  8
0
 62
7
 10
69.773899999999983
 20
46.493899999999989
 30
0
 70
32
  0
VERTEX
  5
749D
  8
0
 62
7
 10
69.7744
 20
46.493899999999989
 30
0
 70
32
  0
VERTEX
  5
749E
  8
0
 62
7
 10
69.7749
 20
46.493899999999989
 30
0
 70
32
  0
VERTEX
  5
749F
  8
0
 62
7
 10
69.7755
 20
46.493899999999989
 30
0
 70
32
  0
VERTEX
  5
74A0
  8
0
 62
7
 10
69.776
 20
46.493899999999989
 30
0
 70
32
  0
VERTEX
  5
74A1
  8
0
 62
7
 10
69.7766
 20
46.493899999999989
 30
0
 70
32
  0
VERTEX
  5
74A2
  8
0
 62
7
 10
69.7771
 20
46.493899999999989
 30
0
 70
32
  0
VERTEX
  5
74A3
  8
0
 62
7
 10
69.7777
 20
46.493899999999989
 30
0
 70
32
  0
VERTEX
  5
74A4
  8
0
 62
7
 10
69.7783
 20
46.493899999999989
 30
0
 70
32
  0
VERTEX
  5
74A5
  8
0
 62
7
 10
69.7789
 20
46.493899999999989
 30
0
 70
32
  0
VERTEX
  5
74A6
  8
0
 62
7
 10
69.7794
 20
46.493899999999989
 30
0
 70
32
  0
VERTEX
  5
74A7
  8
0
 62
7
 10
69.78
 20
46.493899999999989
 30
0
 70
32
  0
VERTEX
  5
74A8
  8
0
 62
7
 10
69.7806
 20
46.493899999999989
 30
0
 70
32
  0
VERTEX
  5
74A9
  8
0
 62
7
 10
69.7812
 20
46.493899999999989
 30
0
 70
32
  0
VERTEX
  5
74AA
  8
0
 62
7
 10
69.7818
 20
46.493899999999989
 30
0
 70
32
  0
VERTEX
  5
74AB
  8
0
 62
7
 10
69.7824
 20
46.493899999999989
 30
0
 70
32
  0
VERTEX
  5
74AC
  8
0
 62
7
 10
69.783
 20
46.493899999999989
 30
0
 70
32
  0
VERTEX
  5
74AD
  8
0
 62
7
 10
69.7836
 20
46.493899999999989
 30
0
 70
32
  0
VERTEX
  5
74AE
  8
0
 62
7
 10
69.784199999999984
 20
46.493899999999989
 30
0
 70
32
  0
VERTEX
  5
74AF
  8
0
 62
7
 10
69.7848
 20
46.493899999999989
 30
0
 70
32
  0
VERTEX
  5
74B0
  8
0
 62
7
 10
69.7854
 20
46.493899999999989
 30
0
 70
32
  0
VERTEX
  5
74B1
  8
0
 62
7
 10
69.786
 20
46.493899999999989
 30
0
 70
32
  0
VERTEX
  5
74B2
  8
0
 62
7
 10
69.7866
 20
46.493899999999989
 30
0
 70
32
  0
VERTEX
  5
74B3
  8
0
 62
7
 10
69.7872
 20
46.493899999999989
 30
0
 70
32
  0
VERTEX
  5
74B4
  8
0
 62
7
 10
69.7878
 20
46.493899999999989
 30
0
 70
32
  0
VERTEX
  5
74B5
  8
0
 62
7
 10
69.7883
 20
46.493899999999989
 30
0
 70
32
  0
VERTEX
  5
74B6
  8
0
 62
7
 10
69.788899999999984
 20
46.493899999999989
 30
0
 70
32
  0
VERTEX
  5
74B7
  8
0
 62
7
 10
69.7895
 20
46.493899999999989
 30
0
 70
32
  0
VERTEX
  5
74B8
  8
0
 62
7
 10
69.7901
 20
46.493899999999989
 30
0
 70
32
  0
VERTEX
  5
74B9
  8
0
 62
7
 10
69.7907
 20
46.493899999999989
 30
0
 70
32
  0
VERTEX
  5
74BA
  8
0
 62
7
 10
69.7912
 20
46.493899999999989
 30
0
 70
32
  0
VERTEX
  5
74BB
  8
0
 62
7
 10
69.7918
 20
46.493899999999989
 30
0
 70
32
  0
VERTEX
  5
74BC
  8
0
 62
7
 10
69.7924
 20
46.493899999999989
 30
0
 70
32
  0
VERTEX
  5
74BD
  8
0
 62
7
 10
69.7929
 20
46.493899999999989
 30
0
 70
32
  0
VERTEX
  5
74BE
  8
0
 62
7
 10
69.7935
 20
46.493899999999989
 30
0
 70
32
  0
VERTEX
  5
74BF
  8
0
 62
7
 10
69.794
 20
46.493899999999989
 30
0
 70
32
  0
VERTEX
  5
74C0
  8
0
 62
7
 10
69.794499999999985
 20
46.493899999999989
 30
0
 70
32
  0
VERTEX
  5
74C1
  8
0
 62
7
 10
69.795
 20
46.493899999999989
 30
0
 70
32
  0
VERTEX
  5
74C2
  8
0
 62
7
 10
69.7956
 20
46.493899999999989
 30
0
 70
32
  0
VERTEX
  5
74C3
  8
0
 62
7
 10
69.7961
 20
46.493899999999989
 30
0
 70
32
  0
VERTEX
  5
74C4
  8
0
 62
7
 10
69.796599999999984
 20
46.493899999999989
 30
0
 70
32
  0
VERTEX
  5
74C5
  8
0
 62
7
 10
69.797
 20
46.493899999999989
 30
0
 70
32
  0
VERTEX
  5
74C6
  8
0
 62
7
 10
69.7975
 20
46.493899999999989
 30
0
 70
32
  0
VERTEX
  5
74C7
  8
0
 62
7
 10
69.798
 20
46.493899999999989
 30
0
 70
32
  0
VERTEX
  5
74C8
  8
0
 62
7
 10
69.7984
 20
46.493899999999989
 30
0
 70
32
  0
VERTEX
  5
74C9
  8
0
 62
7
 10
69.7989
 20
46.493899999999989
 30
0
 70
32
  0
VERTEX
  5
74CA
  8
0
 62
7
 10
69.7993
 20
46.493899999999989
 30
0
 70
32
  0
VERTEX
  5
74CB
  8
0
 62
7
 10
69.7997
 20
46.493899999999989
 30
0
 70
32
  0
VERTEX
  5
74CC
  8
0
 62
7
 10
69.8001
 20
46.493899999999989
 30
0
 70
32
  0
VERTEX
  5
74CD
  8
0
 62
7
 10
69.8005
 20
46.493899999999989
 30
0
 70
32
  0
VERTEX
  5
74CE
  8
0
 62
7
 10
69.8009
 20
46.493899999999989
 30
0
 70
32
  0
VERTEX
  5
74CF
  8
0
 62
7
 10
69.801299999999983
 20
46.493899999999989
 30
0
 70
32
  0
VERTEX
  5
74D0
  8
0
 62
7
 10
69.8016
 20
46.493899999999989
 30
0
 70
32
  0
VERTEX
  5
74D1
  8
0
 62
7
 10
69.802
 20
46.493899999999989
 30
0
 70
32
  0
VERTEX
  5
74D2
  8
0
 62
7
 10
69.8023
 20
46.493899999999989
 30
0
 70
32
  0
VERTEX
  5
74D3
  8
0
 62
7
 10
69.8026
 20
46.493899999999989
 30
0
 70
32
  0
VERTEX
  5
74D4
  8
0
 62
7
 10
69.8029
 20
46.493899999999989
 30
0
 70
32
  0
VERTEX
  5
74D5
  8
0
 62
7
 10
69.8031
 20
46.493899999999989
 30
0
 70
32
  0
VERTEX
  5
74D6
  8
0
 62
7
 10
69.8034
 20
46.493899999999989
 30
0
 70
32
  0
VERTEX
  5
74D7
  8
0
 62
7
 10
69.8036
 20
46.493899999999989
 30
0
 70
32
  0
VERTEX
  5
74D8
  8
0
 62
7
 10
69.803899999999985
 20
46.493899999999989
 30
0
 70
32
  0
VERTEX
  5
74D9
  8
0
 62
7
 10
69.8041
 20
46.493899999999989
 30
0
 70
32
  0
VERTEX
  5
74DA
  8
0
 62
7
 10
69.8042
 20
46.493899999999989
 30
0
 70
32
  0
VERTEX
  5
74DB
  8
0
 62
7
 10
69.8044
 20
46.493899999999989
 30
0
 70
32
  0
VERTEX
  5
74DC
  8
0
 62
7
 10
69.8045
 20
46.493899999999989
 30
0
 70
32
  0
VERTEX
  5
74DD
  8
0
 62
7
 10
69.8047
 20
46.493899999999989
 30
0
 70
32
  0
VERTEX
  5
74DE
  8
0
 62
7
 10
69.8048
 20
46.493899999999989
 30
0
 70
32
  0
VERTEX
  5
74DF
  8
0
 62
7
 10
69.8048
 20
46.493899999999989
 30
0
 70
32
  0
VERTEX
  5
74E0
  8
0
 62
7
 10
69.8049
 20
46.493899999999989
 30
0
 70
32
  0
VERTEX
  5
74E1
  8
0
 62
7
 10
69.8049
 20
46.493899999999989
 30
0
 70
32
  0
VERTEX
  5
74E2
  8
0
 62
7
 10
69.8049
 20
46.493899999999989
 30
0
 70
32
  0
SEQEND
  5
74E3
  8
0
  0
POLYLINE
  5
6830
  8
0
 62
7
 66
1
 70
0
 10
0
 20
0
 30
0
  0
VERTEX
  5
792D
  8
0
 62
7
 10
69.72087347034099
 20
46.324566516895679
 70
0
  0
VERTEX
  5
792E
  8
0
 62
7
 10
69.72087347034099
 20
46.365735407944442
 70
0
  0
VERTEX
  5
792F
  8
0
 62
7
 10
69.678154286323888
 20
46.365735407944442
 70
0
  0
SEQEND
  5
7930
  8
0
  0
POLYLINE
  5
6835
  8
0
 62
7
 66
1
 70
0
 10
0
 20
0
 30
0
  0
VERTEX
  5
7931
  8
0
 62
7
 10
69.12831704687801
 20
46.112176380230039
 70
0
  0
VERTEX
  5
7932
  8
0
 62
7
 10
69.12831704687801
 20
46.15489556424717
 70
0
  0
VERTEX
  5
7933
  8
0
 62
7
 10
69.0855978628609
 20
46.15489556424717
 70
0
  0
SEQEND
  5
7934
  8
0
  0
POLYLINE
  5
683A
  8
0
 62
7
 66
1
 70
0
 10
0
 20
0
 30
0
  0
VERTEX
  5
7935
  8
0
 62
7
 10
70.566988921518345
 20
46.831512317550207
 70
0
  0
VERTEX
  5
7936
  8
0
 62
7
 10
70.566988921518345
 20
47.2132288973159
 70
0
  0
VERTEX
  5
7937
  8
0
 62
7
 10
70.524269737501214
 20
47.2132288973159
 70
0
  0
VERTEX
  5
7938
  8
0
 62
7
 10
70.524269737501214
 20
47.340180665947337
 70
0
  0
VERTEX
  5
7939
  8
0
 62
7
 10
70.482928591678245
 20
47.340180665947337
 70
0
  0
VERTEX
  5
793A
  8
0
 62
7
 10
70.440209407661143
 20
47.382899849964467
 70
0
  0
SEQEND
  5
793B
  8
0
  0
POLYLINE
  5
6842
  8
0
 62
7
 66
1
 70
0
 10
0
 20
0
 30
0
  0
VERTEX
  5
793C
  8
0
 62
7
 10
70.186650379946769
 20
47.170509713298813
 70
0
  0
VERTEX
  5
793D
  8
0
 62
7
 10
70.227991525769781
 20
47.170509713298813
 70
0
  0
VERTEX
  5
793E
  8
0
 62
7
 10
70.227991525769781
 20
47.127790529281683
 70
0
  0
VERTEX
  5
793F
  8
0
 62
7
 10
70.270710709786869
 20
47.127790529281683
 70
0
  0
VERTEX
  5
7940
  8
0
 62
7
 10
70.270710709786869
 20
47.086449383458721
 70
0
  0
VERTEX
  5
7941
  8
0
 62
7
 10
70.313429893803971
 20
47.086449383458721
 70
0
  0
VERTEX
  5
7942
  8
0
 62
7
 10
70.313429893803971
 20
46.831512317550207
 70
0
  0
SEQEND
  5
7943
  8
0
  0
POLYLINE
  5
684B
  8
0
 62
7
 66
1
 70
0
 10
0
 20
0
 30
0
  0
VERTEX
  5
7944
  8
0
 62
7
 10
70.736487619392634
 20
46.87423150156728
 70
0
  0
VERTEX
  5
7945
  8
0
 62
7
 10
70.736487619392634
 20
46.87423150156728
 70
0
  0
SEQEND
  5
7946
  8
0
  0
POLYLINE
  5
684F
  8
0
 62
7
 66
1
 70
0
 10
0
 20
0
 30
0
  0
VERTEX
  5
7947
  8
0
 62
7
 10
70.736487619392634
 20
47.2132288973159
 70
0
  0
VERTEX
  5
7948
  8
0
 62
7
 10
70.736487619392634
 20
47.2132288973159
 70
0
  0
SEQEND
  5
7949
  8
0
  0
POLYLINE
  5
6853
  8
0
 62
7
 66
1
 70
0
 10
0
 20
0
 30
0
  0
VERTEX
  5
794A
  8
0
 62
7
 10
70.77920680340975
 20
47.255948081332967
 70
0
  0
VERTEX
  5
794B
  8
0
 62
7
 10
70.736487619392634
 20
47.255948081332967
 70
0
  0
VERTEX
  5
794C
  8
0
 62
7
 10
70.736487619392634
 20
47.382899849964467
 70
0
  0
SEQEND
  5
794D
  8
0
  0
POLYLINE
  5
6858
  8
0
 62
7
 66
1
 70
0
 10
0
 20
0
 30
0
  0
VERTEX
  5
794E
  8
0
 62
7
 10
70.440209407661143
 20
45.731837838658457
 70
0
  0
VERTEX
  5
794F
  8
0
 62
7
 10
70.482928591678245
 20
45.731837838658457
 70
0
  0
VERTEX
  5
7950
  8
0
 62
7
 10
70.524269737501214
 20
45.731837838658457
 70
0
  0
VERTEX
  5
7951
  8
0
 62
7
 10
70.524269737501214
 20
45.815898168498563
 70
0
  0
VERTEX
  5
7952
  8
0
 62
7
 10
70.566988921518345
 20
45.815898168498563
 70
0
  0
VERTEX
  5
7953
  8
0
 62
7
 10
70.566988921518345
 20
45.858445097741424
 70
0
  0
VERTEX
  5
7954
  8
0
 62
7
 10
70.609708105535447
 20
45.858445097741424
 70
0
  0
VERTEX
  5
7955
  8
0
 62
7
 10
70.652427289552534
 20
45.858445097741424
 70
0
  0
SEQEND
  5
7956
  8
0
  0
POLYLINE
  5
6862
  8
0
 62
7
 66
1
 70
0
 10
0
 20
0
 30
0
  0
VERTEX
  5
7957
  8
0
 62
7
 10
71.032765831124124
 20
47.255948081332967
 70
0
  0
VERTEX
  5
7958
  8
0
 62
7
 10
71.032765831124124
 20
47.255948081332967
 70
0
  0
VERTEX
  5
7959
  8
0
 62
7
 10
70.990046647107022
 20
47.340180665947337
 70
0
  0
VERTEX
  5
795A
  8
0
 62
7
 10
70.990046647107022
 20
47.424068741013173
 70
0
  0
VERTEX
  5
795B
  8
0
 62
7
 10
70.948705501284024
 20
47.466787925030289
 70
0
  0
VERTEX
  5
795C
  8
0
 62
7
 10
70.948705501284024
 20
47.5933951841132
 70
0
  0
VERTEX
  5
795D
  8
0
 62
7
 10
70.905986317266922
 20
47.5933951841132
 70
0
  0
VERTEX
  5
795E
  8
0
 62
7
 10
70.905986317266922
 20
47.7205192075189
 70
0
  0
VERTEX
  5
795F
  8
0
 62
7
 10
70.863267133249849
 20
47.7205192075189
 70
0
  0
VERTEX
  5
7960
  8
0
 62
7
 10
70.821925987426823
 20
47.763066136761779
 70
0
  0
VERTEX
  5
7961
  8
0
 62
7
 10
70.821925987426823
 20
47.848504504795983
 70
0
  0
VERTEX
  5
7962
  8
0
 62
7
 10
70.77920680340975
 20
47.848504504795983
 70
0
  0
VERTEX
  5
7963
  8
0
 62
7
 10
70.77920680340975
 20
47.889845650618952
 70
0
  0
VERTEX
  5
7964
  8
0
 62
7
 10
70.693768435375546
 20
47.889845650618952
 70
0
  0
VERTEX
  5
7965
  8
0
 62
7
 10
70.693768435375546
 20
47.932564834636068
 70
0
  0
VERTEX
  5
7966
  8
0
 62
7
 10
70.652427289552534
 20
47.932564834636068
 70
0
  0
VERTEX
  5
7967
  8
0
 62
7
 10
70.652427289552534
 20
47.975111763878878
 70
0
  0
VERTEX
  5
7968
  8
0
 62
7
 10
70.609708105535447
 20
47.975111763878878
 70
0
  0
VERTEX
  5
7969
  8
0
 62
7
 10
70.566988921518345
 20
47.975111763878878
 70
0
  0
VERTEX
  5
796A
  8
0
 62
7
 10
70.524269737501214
 20
47.975111763878878
 70
0
  0
SEQEND
  5
796B
  8
0
  0
POLYLINE
  5
6878
  8
0
 62
7
 66
1
 70
0
 10
0
 20
0
 30
0
  0
VERTEX
  5
796C
  8
0
 62
7
 10
70.059870866089568
 20
47.127790529281683
 70
0
  0
VERTEX
  5
796D
  8
0
 62
7
 10
70.059870866089568
 20
47.086449383458721
 70
0
  0
SEQEND
  5
796E
  8
0
  0
POLYLINE
  5
687C
  8
0
 62
7
 66
1
 70
0
 10
0
 20
0
 30
0
  0
VERTEX
  5
796F
  8
0
 62
7
 10
70.77920680340975
 20
47.255948081332967
 70
0
  0
VERTEX
  5
7970
  8
0
 62
7
 10
70.77920680340975
 20
47.2132288973159
 70
0
  0
VERTEX
  5
7971
  8
0
 62
7
 10
70.736487619392634
 20
47.2132288973159
 70
0
  0
SEQEND
  5
7972
  8
0
  0
POLYLINE
  5
6881
  8
0
 62
7
 66
1
 70
0
 10
0
 20
0
 30
0
  0
VERTEX
  5
7973
  8
0
 62
7
 10
70.736487619392634
 20
46.87423150156728
 70
0
  0
VERTEX
  5
7974
  8
0
 62
7
 10
70.77920680340975
 20
46.87423150156728
 70
0
  0
SEQEND
  5
7975
  8
0
  0
POLYLINE
  5
6885
  8
0
 62
7
 66
1
 70
0
 10
0
 20
0
 30
0
  0
VERTEX
  5
7976
  8
0
 62
7
 10
69.551374772466687
 20
46.87423150156728
 70
0
  0
VERTEX
  5
7977
  8
0
 62
7
 10
69.594093956483775
 20
46.87423150156728
 70
0
  0
SEQEND
  5
7978
  8
0
  0
POLYLINE
  5
6889
  8
0
 62
7
 66
1
 70
0
 10
0
 20
0
 30
0
  0
VERTEX
  5
7979
  8
0
 62
7
 10
70.017151682072466
 20
47.2132288973159
 70
0
  0
VERTEX
  5
797A
  8
0
 62
7
 10
70.017151682072466
 20
47.170509713298813
 70
0
  0
VERTEX
  5
797B
  8
0
 62
7
 10
69.974432498055364
 20
47.170509713298813
 70
0
  0
VERTEX
  5
797C
  8
0
 62
7
 10
69.974432498055364
 20
47.127790529281683
 70
0
  0
VERTEX
  5
797D
  8
0
 62
7
 10
69.931713314038291
 20
47.127790529281683
 70
0
  0
VERTEX
  5
797E
  8
0
 62
7
 10
69.931713314038291
 20
47.086449383458721
 70
0
  0
VERTEX
  5
797F
  8
0
 62
7
 10
69.890372168215279
 20
47.043902454215861
 70
0
  0
VERTEX
  5
7980
  8
0
 62
7
 10
69.890372168215279
 20
46.958119576633123
 70
0
  0
VERTEX
  5
7981
  8
0
 62
7
 10
69.847652984198191
 20
46.958119576633123
 70
0
  0
VERTEX
  5
7982
  8
0
 62
7
 10
69.847652984198191
 20
46.831512317550207
 70
0
  0
VERTEX
  5
7983
  8
0
 62
7
 10
69.80493380018109
 20
46.831512317550207
 70
0
  0
SEQEND
  5
7984
  8
0
  0
POLYLINE
  5
6896
  8
0
 62
7
 66
1
 70
0
 10
0
 20
0
 30
0
  0
VERTEX
  5
7985
  8
0
 62
7
 10
69.551374772466687
 20
46.747451987710107
 70
0
  0
VERTEX
  5
7986
  8
0
 62
7
 10
69.551374772466687
 20
46.747451987710107
 70
0
  0
SEQEND
  5
7987
  8
0
  0
POLYLINE
  5
689A
  8
0
 62
7
 66
1
 70
0
 10
0
 20
0
 30
0
  0
VERTEX
  5
7988
  8
0
 62
7
 10
69.890372168215279
 20
46.831512317550207
 70
0
  0
VERTEX
  5
7989
  8
0
 62
7
 10
69.890372168215279
 20
46.87423150156728
 70
0
  0
VERTEX
  5
798A
  8
0
 62
7
 10
69.931713314038291
 20
46.916778430810147
 70
0
  0
VERTEX
  5
798B
  8
0
 62
7
 10
69.931713314038291
 20
47.001183270198787
 70
0
  0
VERTEX
  5
798C
  8
0
 62
7
 10
69.974432498055364
 20
47.001183270198787
 70
0
  0
VERTEX
  5
798D
  8
0
 62
7
 10
69.974432498055364
 20
47.086449383458721
 70
0
  0
VERTEX
  5
798E
  8
0
 62
7
 10
70.017151682072466
 20
47.086449383458721
 70
0
  0
SEQEND
  5
798F
  8
0
  0
POLYLINE
  5
68A3
  8
0
 62
7
 66
1
 70
0
 10
0
 20
0
 30
0
  0
VERTEX
  5
7990
  8
0
 62
7
 10
70.440209407661143
 20
47.340180665947337
 70
0
  0
VERTEX
  5
7991
  8
0
 62
7
 10
70.482928591678245
 20
47.340180665947337
 70
0
  0
VERTEX
  5
7992
  8
0
 62
7
 10
70.524269737501214
 20
47.340180665947337
 70
0
  0
VERTEX
  5
7993
  8
0
 62
7
 10
70.524269737501214
 20
47.2132288973159
 70
0
  0
VERTEX
  5
7994
  8
0
 62
7
 10
70.566988921518345
 20
47.2132288973159
 70
0
  0
SEQEND
  5
7995
  8
0
  0
POLYLINE
  5
68AA
  8
0
 62
7
 66
1
 70
0
 10
0
 20
0
 30
0
  0
VERTEX
  5
7996
  8
0
 62
7
 10
70.948705501284024
 20
47.255948081332967
 70
0
  0
VERTEX
  5
7997
  8
0
 62
7
 10
70.990046647107022
 20
47.255948081332967
 70
0
  0
SEQEND
  5
7998
  8
0
  0
POLYLINE
  5
68AE
  8
0
 62
7
 66
1
 70
0
 10
0
 20
0
 30
0
  0
VERTEX
  5
7999
  8
0
 62
7
 10
70.652427289552534
 20
45.94284993713
 70
0
  0
VERTEX
  5
799A
  8
0
 62
7
 10
70.652427289552534
 20
45.94284993713
 70
0
  0
VERTEX
  5
799B
  8
0
 62
7
 10
70.609708105535447
 20
45.90116428175849
 70
0
  0
VERTEX
  5
799C
  8
0
 62
7
 10
70.609708105535447
 20
45.858445097741424
 70
0
  0
VERTEX
  5
799D
  8
0
 62
7
 10
70.566988921518345
 20
45.858445097741424
 70
0
  0
VERTEX
  5
799E
  8
0
 62
7
 10
70.566988921518345
 20
45.815898168498563
 70
0
  0
VERTEX
  5
799F
  8
0
 62
7
 10
70.524269737501214
 20
45.815898168498563
 70
0
  0
VERTEX
  5
79A0
  8
0
 62
7
 10
70.524269737501214
 20
45.77317898448149
 70
0
  0
VERTEX
  5
79A1
  8
0
 62
7
 10
70.482928591678245
 20
45.731837838658457
 70
0
  0
VERTEX
  5
79A2
  8
0
 62
7
 10
70.440209407661143
 20
45.731837838658457
 70
0
  0
VERTEX
  5
79A3
  8
0
 62
7
 10
70.440209407661143
 20
45.689118654641391
 70
0
  0
SEQEND
  5
79A4
  8
0
  0
POLYLINE
  5
68BB
  8
0
 62
7
 66
1
 70
0
 10
0
 20
0
 30
0
  0
VERTEX
  5
79A5
  8
0
 62
7
 10
70.440209407661143
 20
45.731837838658457
 70
0
  0
VERTEX
  5
79A6
  8
0
 62
7
 10
70.440209407661143
 20
45.689118654641391
 70
0
  0
SEQEND
  5
79A7
  8
0
  0
POLYLINE
  5
68BF
  8
0
 62
7
 66
1
 70
0
 10
0
 20
0
 30
0
  0
VERTEX
  5
79A8
  8
0
 62
7
 10
70.524269737501214
 20
47.975111763878878
 70
0
  0
VERTEX
  5
79A9
  8
0
 62
7
 10
70.566988921518345
 20
47.975111763878878
 70
0
  0
VERTEX
  5
79AA
  8
0
 62
7
 10
70.652427289552534
 20
47.975111763878878
 70
0
  0
VERTEX
  5
79AB
  8
0
 62
7
 10
70.652427289552534
 20
47.932564834636068
 70
0
  0
VERTEX
  5
79AC
  8
0
 62
7
 10
70.693768435375546
 20
47.932564834636068
 70
0
  0
VERTEX
  5
79AD
  8
0
 62
7
 10
70.693768435375546
 20
47.889845650618952
 70
0
  0
VERTEX
  5
79AE
  8
0
 62
7
 10
70.736487619392634
 20
47.889845650618952
 70
0
  0
VERTEX
  5
79AF
  8
0
 62
7
 10
70.77920680340975
 20
47.848504504795983
 70
0
  0
VERTEX
  5
79B0
  8
0
 62
7
 10
70.77920680340975
 20
47.805785320778853
 70
0
  0
VERTEX
  5
79B1
  8
0
 62
7
 10
70.821925987426823
 20
47.805785320778853
 70
0
  0
VERTEX
  5
79B2
  8
0
 62
7
 10
70.821925987426823
 20
47.7205192075189
 70
0
  0
VERTEX
  5
79B3
  8
0
 62
7
 10
70.863267133249849
 20
47.7205192075189
 70
0
  0
VERTEX
  5
79B4
  8
0
 62
7
 10
70.863267133249849
 20
47.67883355214741
 70
0
  0
VERTEX
  5
79B5
  8
0
 62
7
 10
70.905986317266922
 20
47.636114368130322
 70
0
  0
VERTEX
  5
79B6
  8
0
 62
7
 10
70.905986317266922
 20
47.5933951841132
 70
0
  0
VERTEX
  5
79B7
  8
0
 62
7
 10
70.948705501284024
 20
47.5522262930645
 70
0
  0
VERTEX
  5
79B8
  8
0
 62
7
 10
70.948705501284024
 20
47.382899849964467
 70
0
  0
VERTEX
  5
79B9
  8
0
 62
7
 10
70.990046647107022
 20
47.340180665947337
 70
0
  0
VERTEX
  5
79BA
  8
0
 62
7
 10
70.990046647107022
 20
47.255948081332967
 70
0
  0
SEQEND
  5
79BB
  8
0
  0
POLYLINE
  5
68D4
  8
0
 62
7
 66
1
 70
0
 10
0
 20
0
 30
0
  0
VERTEX
  5
79BC
  8
0
 62
7
 10
71.032765831124124
 20
47.255948081332967
 70
0
  0
VERTEX
  5
79BD
  8
0
 62
7
 10
70.990046647107022
 20
47.255948081332967
 70
0
  0
SEQEND
  5
79BE
  8
0
  0
POLYLINE
  5
68D8
  8
0
 62
7
 66
1
 70
0
 10
0
 20
0
 30
0
  0
VERTEX
  5
79BF
  8
0
 62
7
 10
69.974432498055364
 20
46.916778430810147
 70
0
  0
VERTEX
  5
79C0
  8
0
 62
7
 10
69.974432498055364
 20
46.958119576633123
 70
0
  0
VERTEX
  5
79C1
  8
0
 62
7
 10
70.017151682072466
 20
46.958119576633123
 70
0
  0
VERTEX
  5
79C2
  8
0
 62
7
 10
70.017151682072466
 20
47.043902454215861
 70
0
  0
VERTEX
  5
79C3
  8
0
 62
7
 10
70.059526356541056
 20
47.043902454215861
 70
0
  0
VERTEX
  5
79C4
  8
0
 62
7
 10
70.059526356541056
 20
47.086449383458721
 70
0
  0
SEQEND
  5
79C5
  8
0
  0
POLYLINE
  5
68E0
  8
0
 62
7
 66
1
 70
0
 10
0
 20
0
 30
0
  0
VERTEX
  5
79C6
  8
0
 62
7
 10
70.017151682072466
 20
47.086449383458721
 70
0
  0
VERTEX
  5
79C7
  8
0
 62
7
 10
70.059870866089568
 20
47.086449383458721
 70
0
  0
SEQEND
  5
79C8
  8
0
  0
POLYLINE
  5
68E4
  8
0
 62
7
 66
1
 70
0
 10
0
 20
0
 30
0
  0
VERTEX
  5
79C9
  8
0
 62
7
 10
70.186650379946769
 20
47.086449383458721
 70
0
  0
VERTEX
  5
79CA
  8
0
 62
7
 10
70.186650379946769
 20
47.086449383458721
 70
0
  0
VERTEX
  5
79CB
  8
0
 62
7
 10
70.143931195929653
 20
47.127790529281683
 70
0
  0
SEQEND
  5
79CC
  8
0
  0
POLYLINE
  5
68E9
  8
0
 62
7
 66
1
 70
0
 10
0
 20
0
 30
0
  0
VERTEX
  5
79CD
  8
0
 62
7
 10
69.551374772466687
 20
46.87423150156728
 70
0
  0
VERTEX
  5
79CE
  8
0
 62
7
 10
69.551374772466687
 20
46.87423150156728
 70
0
  0
SEQEND
  5
79CF
  8
0
  0
POLYLINE
  5
68ED
  8
0
 62
7
 66
1
 70
0
 10
0
 20
0
 30
0
  0
VERTEX
  5
79D0
  8
0
 62
7
 10
70.736487619392634
 20
46.87423150156728
 70
0
  0
VERTEX
  5
79D1
  8
0
 62
7
 10
70.736487619392634
 20
46.87423150156728
 70
0
  0
SEQEND
  5
79D2
  8
0
  0
POLYLINE
  5
68F1
  8
0
 62
7
 66
1
 70
0
 10
0
 20
0
 30
0
  0
VERTEX
  5
79D3
  8
0
 62
7
 10
70.017151682072466
 20
47.086449383458721
 70
0
  0
VERTEX
  5
79D4
  8
0
 62
7
 10
70.017151682072466
 20
47.127790529281683
 70
0
  0
VERTEX
  5
79D5
  8
0
 62
7
 10
70.059870866089568
 20
47.127790529281683
 70
0
  0
SEQEND
  5
79D6
  8
0
  0
POLYLINE
  5
68F6
  8
0
 62
7
 66
1
 70
0
 10
0
 20
0
 30
0
  0
VERTEX
  5
79D7
  8
0
 62
7
 10
70.186650379946769
 20
47.086449383458721
 70
0
  0
VERTEX
  5
79D8
  8
0
 62
7
 10
70.186650379946769
 20
47.127790529281683
 70
0
  0
VERTEX
  5
79D9
  8
0
 62
7
 10
70.227991525769781
 20
47.127790529281683
 70
0
  0
SEQEND
  5
79DA
  8
0
  0
POLYLINE
  5
68FB
  8
0
 62
7
 66
1
 70
0
 10
0
 20
0
 30
0
  0
VERTEX
  5
79DB
  8
0
 62
7
 10
70.143931195929653
 20
47.127790529281683
 70
0
  0
VERTEX
  5
79DC
  8
0
 62
7
 10
70.143931195929653
 20
47.170509713298813
 70
0
  0
VERTEX
  5
79DD
  8
0
 62
7
 10
70.186650379946769
 20
47.170509713298813
 70
0
  0
SEQEND
  5
79DE
  8
0
  0
POLYLINE
  5
6900
  8
0
 62
7
 66
1
 70
0
 10
0
 20
0
 30
0
  0
VERTEX
  5
79DF
  8
0
 62
7
 10
69.551374772466687
 20
46.747451987710107
 70
0
  0
VERTEX
  5
79E0
  8
0
 62
7
 10
69.594093956483775
 20
46.747451987710107
 70
0
  0
SEQEND
  5
79E1
  8
0
  0
POLYLINE
  5
6904
  8
0
 62
7
 66
1
 70
0
 10
0
 20
0
 30
0
  0
VERTEX
  5
79E2
  8
0
 62
7
 10
70.270710709786869
 20
47.086449383458721
 70
0
  0
VERTEX
  5
79E3
  8
0
 62
7
 10
70.227991525769781
 20
47.086449383458721
 70
0
  0
VERTEX
  5
79E4
  8
0
 62
7
 10
70.186650379946769
 20
47.086449383458721
 70
0
  0
SEQEND
  5
79E5
  8
0
  0
POLYLINE
  5
6909
  8
0
 62
7
 66
1
 70
0
 10
0
 20
0
 30
0
  0
VERTEX
  5
79E6
  8
0
 62
7
 10
70.39749022364407
 20
45.731837838658457
 70
0
  0
VERTEX
  5
79E7
  8
0
 62
7
 10
70.440209407661143
 20
45.731837838658457
 70
0
  0
VERTEX
  5
79E8
  8
0
 62
7
 10
70.440209407661143
 20
45.77317898448149
 70
0
  0
VERTEX
  5
79E9
  8
0
 62
7
 10
70.482928591678245
 20
45.815898168498563
 70
0
  0
VERTEX
  5
79EA
  8
0
 62
7
 10
70.524269737501214
 20
45.815898168498563
 70
0
  0
VERTEX
  5
79EB
  8
0
 62
7
 10
70.524269737501214
 20
45.858445097741424
 70
0
  0
VERTEX
  5
79EC
  8
0
 62
7
 10
70.566988921518345
 20
45.858445097741424
 70
0
  0
VERTEX
  5
79ED
  8
0
 62
7
 10
70.566988921518345
 20
45.94284993713
 70
0
  0
VERTEX
  5
79EE
  8
0
 62
7
 10
70.609708105535447
 20
45.94284993713
 70
0
  0
VERTEX
  5
79EF
  8
0
 62
7
 10
70.652427289552534
 20
45.98556912114713
 70
0
  0
VERTEX
  5
79F0
  8
0
 62
7
 10
70.652427289552534
 20
46.02811605038994
 70
0
  0
VERTEX
  5
79F1
  8
0
 62
7
 10
70.693768435375546
 20
46.069457196212959
 70
0
  0
VERTEX
  5
79F2
  8
0
 62
7
 10
70.693768435375546
 20
46.112176380230039
 70
0
  0
VERTEX
  5
79F3
  8
0
 62
7
 10
70.736487619392634
 20
46.112176380230039
 70
0
  0
VERTEX
  5
79F4
  8
0
 62
7
 10
70.736487619392634
 20
46.15489556424717
 70
0
  0
SEQEND
  5
79F5
  8
0
  0
POLYLINE
  5
691A
  8
0
 62
7
 66
1
 70
0
 10
0
 20
0
 30
0
  0
VERTEX
  5
79F6
  8
0
 62
7
 10
70.948705501284024
 20
47.255948081332967
 70
0
  0
VERTEX
  5
79F7
  8
0
 62
7
 10
70.948705501284024
 20
47.382899849964467
 70
0
  0
VERTEX
  5
79F8
  8
0
 62
7
 10
70.905986317266922
 20
47.424068741013173
 70
0
  0
VERTEX
  5
79F9
  8
0
 62
7
 10
70.905986317266922
 20
47.5933951841132
 70
0
  0
VERTEX
  5
79FA
  8
0
 62
7
 10
70.863267133249849
 20
47.636114368130322
 70
0
  0
VERTEX
  5
79FB
  8
0
 62
7
 10
70.821925987426823
 20
47.67883355214741
 70
0
  0
VERTEX
  5
79FC
  8
0
 62
7
 10
70.821925987426823
 20
47.763066136761779
 70
0
  0
VERTEX
  5
79FD
  8
0
 62
7
 10
70.77920680340975
 20
47.763066136761779
 70
0
  0
VERTEX
  5
79FE
  8
0
 62
7
 10
70.77920680340975
 20
47.805785320778853
 70
0
  0
VERTEX
  5
79FF
  8
0
 62
7
 10
70.736487619392634
 20
47.848504504795983
 70
0
  0
VERTEX
  5
7A00
  8
0
 62
7
 10
70.693768435375546
 20
47.889845650618952
 70
0
  0
VERTEX
  5
7A01
  8
0
 62
7
 10
70.652427289552534
 20
47.889845650618952
 70
0
  0
VERTEX
  5
7A02
  8
0
 62
7
 10
70.652427289552534
 20
47.932564834636068
 70
0
  0
VERTEX
  5
7A03
  8
0
 62
7
 10
70.609708105535447
 20
47.975111763878878
 70
0
  0
VERTEX
  5
7A04
  8
0
 62
7
 10
70.566988921518345
 20
47.975111763878878
 70
0
  0
VERTEX
  5
7A05
  8
0
 62
7
 10
70.524269737501214
 20
47.975111763878878
 70
0
  0
SEQEND
  5
7A06
  8
0
  0
POLYLINE
  5
692C
  8
0
 62
7
 66
1
 70
0
 10
0
 20
0
 30
0
  0
VERTEX
  5
7A07
  8
0
 62
7
 10
69.931713314038291
 20
47.466787925030289
 70
0
  0
VERTEX
  5
7A08
  8
0
 62
7
 10
69.931713314038291
 20
47.424068741013173
 70
0
  0
SEQEND
  5
7A09
  8
0
  0
POLYLINE
  5
6930
  8
0
 62
7
 66
1
 70
0
 10
0
 20
0
 30
0
  0
VERTEX
  5
7A0A
  8
0
 62
7
 10
69.931713314038291
 20
46.916778430810147
 70
0
  0
VERTEX
  5
7A0B
  8
0
 62
7
 10
69.931713314038291
 20
46.87423150156728
 70
0
  0
SEQEND
  5
7A0C
  8
0
  0
POLYLINE
  5
6934
  8
0
 62
7
 66
1
 70
0
 10
0
 20
0
 30
0
  0
VERTEX
  5
7A0D
  8
0
 62
7
 10
69.763592654358092
 20
48.355450305450461
 70
0
  0
VERTEX
  5
7A0E
  8
0
 62
7
 10
69.72087347034099
 20
48.355450305450461
 70
0
  0
VERTEX
  5
7A0F
  8
0
 62
7
 10
69.678154286323888
 20
48.355450305450461
 70
0
  0
VERTEX
  5
7A10
  8
0
 62
7
 10
69.678154286323888
 20
48.31273112143338
 70
0
  0
VERTEX
  5
7A11
  8
0
 62
7
 10
69.635435102306786
 20
48.31273112143338
 70
0
  0
VERTEX
  5
7A12
  8
0
 62
7
 10
69.635435102306786
 20
48.271562230384639
 70
0
  0
VERTEX
  5
7A13
  8
0
 62
7
 10
69.594093956483775
 20
48.271562230384639
 70
0
  0
VERTEX
  5
7A14
  8
0
 62
7
 10
69.594093956483775
 20
48.144782716527452
 70
0
  0
VERTEX
  5
7A15
  8
0
 62
7
 10
69.551374772466687
 20
48.144782716527452
 70
0
  0
SEQEND
  5
7A16
  8
0
  0
POLYLINE
  5
693F
  8
0
 62
7
 66
1
 70
0
 10
0
 20
0
 30
0
  0
VERTEX
  5
7A17
  8
0
 62
7
 10
70.017151682072466
 20
47.382899849964467
 70
0
  0
VERTEX
  5
7A18
  8
0
 62
7
 10
70.017151682072466
 20
47.382899849964467
 70
0
  0
SEQEND
  5
7A19
  8
0
  0
POLYLINE
  5
6943
  8
0
 62
7
 66
1
 70
0
 10
0
 20
0
 30
0
  0
VERTEX
  5
7A1A
  8
0
 62
7
 10
69.763592654358092
 20
48.144782716527452
 70
0
  0
VERTEX
  5
7A1B
  8
0
 62
7
 10
69.72087347034099
 20
48.144782716527452
 70
0
  0
VERTEX
  5
7A1C
  8
0
 62
7
 10
69.678154286323888
 20
48.144782716527452
 70
0
  0
VERTEX
  5
7A1D
  8
0
 62
7
 10
69.635435102306786
 20
48.144782716527452
 70
0
  0
SEQEND
  5
7A1E
  8
0
  0
POLYLINE
  5
6949
  8
0
 62
7
 66
1
 70
0
 10
0
 20
0
 30
0
  0
VERTEX
  5
7A1F
  8
0
 62
7
 10
70.736487619392634
 20
46.747451987710107
 70
0
  0
VERTEX
  5
7A20
  8
0
 62
7
 10
70.736487619392634
 20
46.790171171727181
 70
0
  0
SEQEND
  5
7A21
  8
0
  0
POLYLINE
  5
694D
  8
0
 62
7
 66
1
 70
0
 10
0
 20
0
 30
0
  0
VERTEX
  5
7A22
  8
0
 62
7
 10
69.763592654358092
 20
45.689118654641391
 70
0
  0
VERTEX
  5
7A23
  8
0
 62
7
 10
69.763592654358092
 20
45.689118654641391
 70
0
  0
SEQEND
  5
7A24
  8
0
  0
POLYLINE
  5
6951
  8
0
 62
7
 66
1
 70
0
 10
0
 20
0
 30
0
  0
VERTEX
  5
7A25
  8
0
 62
7
 10
69.594093956483775
 20
47.848504504795983
 70
0
  0
VERTEX
  5
7A26
  8
0
 62
7
 10
69.635435102306786
 20
47.848504504795983
 70
0
  0
VERTEX
  5
7A27
  8
0
 62
7
 10
69.678154286323888
 20
47.848504504795983
 70
0
  0
VERTEX
  5
7A28
  8
0
 62
7
 10
69.678154286323888
 20
47.805785320778853
 70
0
  0
VERTEX
  5
7A29
  8
0
 62
7
 10
69.72087347034099
 20
47.805785320778853
 70
0
  0
VERTEX
  5
7A2A
  8
0
 62
7
 10
69.72087347034099
 20
47.763238391536042
 70
0
  0
VERTEX
  5
7A2B
  8
0
 62
7
 10
69.763592654358092
 20
47.763238391536042
 70
0
  0
VERTEX
  5
7A2C
  8
0
 62
7
 10
69.763592654358092
 20
47.7205192075189
 70
0
  0
VERTEX
  5
7A2D
  8
0
 62
7
 10
69.80493380018109
 20
47.7205192075189
 70
0
  0
VERTEX
  5
7A2E
  8
0
 62
7
 10
69.80493380018109
 20
47.67883355214741
 70
0
  0
VERTEX
  5
7A2F
  8
0
 62
7
 10
69.847652984198191
 20
47.636114368130322
 70
0
  0
VERTEX
  5
7A30
  8
0
 62
7
 10
69.890372168215279
 20
47.593567438887462
 70
0
  0
VERTEX
  5
7A31
  8
0
 62
7
 10
69.890372168215279
 20
47.466787925030289
 70
0
  0
VERTEX
  5
7A32
  8
0
 62
7
 10
69.931713314038291
 20
47.466787925030289
 70
0
  0
SEQEND
  5
7A33
  8
0
  0
POLYLINE
  5
6961
  8
0
 62
7
 66
1
 70
0
 10
0
 20
0
 30
0
  0
VERTEX
  5
7A34
  8
0
 62
7
 10
69.255096560735211
 20
46.02811605038994
 70
0
  0
VERTEX
  5
7A35
  8
0
 62
7
 10
69.2123773767181
 20
46.02811605038994
 70
0
  0
VERTEX
  5
7A36
  8
0
 62
7
 10
69.2123773767181
 20
46.069457196212959
 70
0
  0
VERTEX
  5
7A37
  8
0
 62
7
 10
69.171036230895112
 20
46.069457196212959
 70
0
  0
SEQEND
  5
7A38
  8
0
  0
POLYLINE
  5
6967
  8
0
 62
7
 66
1
 70
0
 10
0
 20
0
 30
0
  0
VERTEX
  5
7A39
  8
0
 62
7
 10
69.551374772466687
 20
47.848504504795983
 70
0
  0
VERTEX
  5
7A3A
  8
0
 62
7
 10
69.594093956483775
 20
47.848504504795983
 70
0
  0
VERTEX
  5
7A3B
  8
0
 62
7
 10
69.635435102306786
 20
47.848504504795983
 70
0
  0
SEQEND
  5
7A3C
  8
0
  0
POLYLINE
  5
696C
  8
0
 62
7
 66
1
 70
0
 10
0
 20
0
 30
0
  0
VERTEX
  5
7A3D
  8
0
 62
7
 10
69.931713314038291
 20
46.87423150156728
 70
0
  0
VERTEX
  5
7A3E
  8
0
 62
7
 10
69.931713314038291
 20
46.831512317550207
 70
0
  0
VERTEX
  5
7A3F
  8
0
 62
7
 10
69.890372168215279
 20
46.790171171727181
 70
0
  0
VERTEX
  5
7A40
  8
0
 62
7
 10
69.890372168215279
 20
46.620500219078693
 70
0
  0
VERTEX
  5
7A41
  8
0
 62
7
 10
69.847652984198191
 20
46.620500219078693
 70
0
  0
VERTEX
  5
7A42
  8
0
 62
7
 10
69.847652984198191
 20
46.577781035061541
 70
0
  0
VERTEX
  5
7A43
  8
0
 62
7
 10
69.80493380018109
 20
46.53506185104446
 70
0
  0
VERTEX
  5
7A44
  8
0
 62
7
 10
69.80493380018109
 20
46.451173775978639
 70
0
  0
VERTEX
  5
7A45
  8
0
 62
7
 10
69.763592654358092
 20
46.451173775978639
 70
0
  0
VERTEX
  5
7A46
  8
0
 62
7
 10
69.763592654358092
 20
46.365735407944442
 70
0
  0
VERTEX
  5
7A47
  8
0
 62
7
 10
69.72087347034099
 20
46.365735407944442
 70
0
  0
VERTEX
  5
7A48
  8
0
 62
7
 10
69.72087347034099
 20
46.324566516895679
 70
0
  0
VERTEX
  5
7A49
  8
0
 62
7
 10
69.678154286323888
 20
46.324566516895679
 70
0
  0
VERTEX
  5
7A4A
  8
0
 62
7
 10
69.678154286323888
 20
46.238783639312992
 70
0
  0
VERTEX
  5
7A4B
  8
0
 62
7
 10
69.635435102306786
 20
46.238783639312992
 70
0
  0
VERTEX
  5
7A4C
  8
0
 62
7
 10
69.635435102306786
 20
46.197614748264243
 70
0
  0
VERTEX
  5
7A4D
  8
0
 62
7
 10
69.594093956483775
 20
46.197614748264243
 70
0
  0
VERTEX
  5
7A4E
  8
0
 62
7
 10
69.551374772466687
 20
46.15489556424717
 70
0
  0
VERTEX
  5
7A4F
  8
0
 62
7
 10
69.551374772466687
 20
46.112176380230039
 70
0
  0
VERTEX
  5
7A50
  8
0
 62
7
 10
69.508655588449628
 20
46.112176380230039
 70
0
  0
VERTEX
  5
7A51
  8
0
 62
7
 10
69.508655588449628
 20
46.069457196212959
 70
0
  0
VERTEX
  5
7A52
  8
0
 62
7
 10
69.424595258609529
 20
46.069457196212959
 70
0
  0
VERTEX
  5
7A53
  8
0
 62
7
 10
69.381876074592412
 20
46.069457196212959
 70
0
  0
VERTEX
  5
7A54
  8
0
 62
7
 10
69.381876074592412
 20
46.02811605038994
 70
0
  0
VERTEX
  5
7A55
  8
0
 62
7
 10
69.33915689057531
 20
46.02811605038994
 70
0
  0
VERTEX
  5
7A56
  8
0
 62
7
 10
69.297815744752313
 20
46.02811605038994
 70
0
  0
VERTEX
  5
7A57
  8
0
 62
7
 10
69.255096560735211
 20
46.02811605038994
 70
0
  0
SEQEND
  5
7A58
  8
0
  0
POLYLINE
  5
6989
  8
0
 62
7
 66
1
 70
0
 10
0
 20
0
 30
0
  0
VERTEX
  5
7A59
  8
0
 62
7
 10
70.059870866089568
 20
45.60523057957554
 70
0
  0
VERTEX
  5
7A5A
  8
0
 62
7
 10
70.059870866089568
 20
45.646399470624253
 70
0
  0
SEQEND
  5
7A5B
  8
0
  0
POLYLINE
  5
698D
  8
0
 62
7
 66
1
 70
0
 10
0
 20
0
 30
0
  0
VERTEX
  5
7A5C
  8
0
 62
7
 10
70.059870866089568
 20
45.689118654641391
 70
0
  0
VERTEX
  5
7A5D
  8
0
 62
7
 10
70.059870866089568
 20
45.689118654641391
 70
0
  0
SEQEND
  5
7A5E
  8
0
  0
POLYLINE
  5
6991
  8
0
 62
7
 66
1
 70
0
 10
0
 20
0
 30
0
  0
VERTEX
  5
7A5F
  8
0
 62
7
 10
70.017151682072466
 20
47.424068741013173
 70
0
  0
VERTEX
  5
7A60
  8
0
 62
7
 10
70.059870866089568
 20
47.424068741013173
 70
0
  0
SEQEND
  5
7A61
  8
0
  0
POLYLINE
  5
6995
  8
0
 62
7
 66
1
 70
0
 10
0
 20
0
 30
0
  0
VERTEX
  5
7A62
  8
0
 62
7
 10
70.77920680340975
 20
46.87423150156728
 70
0
  0
VERTEX
  5
7A63
  8
0
 62
7
 10
70.77920680340975
 20
47.340180665947337
 70
0
  0
VERTEX
  5
7A64
  8
0
 62
7
 10
70.736487619392634
 20
47.382899849964467
 70
0
  0
SEQEND
  5
7A65
  8
0
  0
POLYLINE
  5
699A
  8
0
 62
7
 66
1
 70
0
 10
0
 20
0
 30
0
  0
VERTEX
  5
7A66
  8
0
 62
7
 10
70.948705501284024
 20
46.958119576633123
 70
0
  0
VERTEX
  5
7A67
  8
0
 62
7
 10
70.948705501284024
 20
46.958119576633123
 70
0
  0
SEQEND
  5
7A68
  8
0
  0
POLYLINE
  5
699E
  8
0
 62
7
 66
1
 70
0
 10
0
 20
0
 30
0
  0
VERTEX
  5
7A69
  8
0
 62
7
 10
70.948705501284024
 20
47.2132288973159
 70
0
  0
VERTEX
  5
7A6A
  8
0
 62
7
 10
70.948705501284024
 20
47.255948081332967
 70
0
  0
SEQEND
  5
7A6B
  8
0
  0
POLYLINE
  5
69A2
  8
0
 62
7
 66
1
 70
0
 10
0
 20
0
 30
0
  0
VERTEX
  5
7A6C
  8
0
 62
7
 10
70.059870866089568
 20
47.424068741013173
 70
0
  0
VERTEX
  5
7A6D
  8
0
 62
7
 10
70.143931195929653
 20
47.424068741013173
 70
0
  0
VERTEX
  5
7A6E
  8
0
 62
7
 10
70.143931195929653
 20
47.382899849964467
 70
0
  0
VERTEX
  5
7A6F
  8
0
 62
7
 10
70.186650379946769
 20
47.382899849964467
 70
0
  0
VERTEX
  5
7A70
  8
0
 62
7
 10
70.270710709786869
 20
47.382899849964467
 70
0
  0
VERTEX
  5
7A71
  8
0
 62
7
 10
70.313429893803971
 20
47.382899849964467
 70
0
  0
VERTEX
  5
7A72
  8
0
 62
7
 10
70.39749022364407
 20
47.382899849964467
 70
0
  0
VERTEX
  5
7A73
  8
0
 62
7
 10
70.39749022364407
 20
47.340180665947337
 70
0
  0
VERTEX
  5
7A74
  8
0
 62
7
 10
70.440209407661143
 20
47.340180665947337
 70
0
  0
SEQEND
  5
7A75
  8
0
  0
POLYLINE
  5
69AD
  8
0
 62
7
 66
1
 70
0
 10
0
 20
0
 30
0
  0
VERTEX
  5
7A76
  8
0
 62
7
 10
70.736487619392634
 20
47.382899849964467
 70
0
  0
VERTEX
  5
7A77
  8
0
 62
7
 10
70.736487619392634
 20
47.382899849964467
 70
0
  0
SEQEND
  5
7A78
  8
0
  0
POLYLINE
  5
69B1
  8
0
 62
7
 66
1
 70
0
 10
0
 20
0
 30
0
  0
VERTEX
  5
7A79
  8
0
 62
7
 10
70.990046647107022
 20
47.2132288973159
 70
0
  0
VERTEX
  5
7A7A
  8
0
 62
7
 10
70.948705501284024
 20
47.2132288973159
 70
0
  0
SEQEND
  5
7A7B
  8
0
  0
POLYLINE
  5
69B5
  8
0
 62
7
 66
1
 70
0
 10
0
 20
0
 30
0
  0
VERTEX
  5
7A7C
  8
0
 62
7
 10
69.551374772466687
 20
45.60523057957554
 70
0
  0
VERTEX
  5
7A7D
  8
0
 62
7
 10
69.594093956483775
 20
45.60523057957554
 70
0
  0
SEQEND
  5
7A7E
  8
0
  0
POLYLINE
  5
69B9
  8
0
 62
7
 66
1
 70
0
 10
0
 20
0
 30
0
  0
VERTEX
  5
7A7F
  8
0
 62
7
 10
69.931713314038291
 20
47.424068741013173
 70
0
  0
VERTEX
  5
7A80
  8
0
 62
7
 10
69.931713314038291
 20
47.424068741013173
 70
0
  0
SEQEND
  5
7A81
  8
0
  0
POLYLINE
  5
69BD
  8
0
 62
7
 66
1
 70
0
 10
0
 20
0
 30
0
  0
VERTEX
  5
7A82
  8
0
 62
7
 10
68.619820953255129
 20
45.3928404429099
 70
0
  0
VERTEX
  5
7A83
  8
0
 62
7
 10
68.619820953255129
 20
45.3928404429099
 70
0
  0
SEQEND
  5
7A84
  8
0
  0
POLYLINE
  5
69C1
  8
0
 62
7
 66
1
 70
0
 10
0
 20
0
 30
0
  0
VERTEX
  5
7A85
  8
0
 62
7
 10
70.059870866089568
 20
45.689118654641391
 70
0
  0
VERTEX
  5
7A86
  8
0
 62
7
 10
70.059870866089568
 20
45.689118654641391
 70
0
  0
SEQEND
  5
7A87
  8
0
  0
POLYLINE
  5
69C5
  8
0
 62
7
 66
1
 70
0
 10
0
 20
0
 30
0
  0
VERTEX
  5
7A88
  8
0
 62
7
 10
69.594093956483775
 20
45.94284993713
 70
0
  0
VERTEX
  5
7A89
  8
0
 62
7
 10
69.635435102306786
 20
45.94284993713
 70
0
  0
VERTEX
  5
7A8A
  8
0
 62
7
 10
69.635435102306786
 20
45.98556912114713
 70
0
  0
VERTEX
  5
7A8B
  8
0
 62
7
 10
69.678154286323888
 20
45.98556912114713
 70
0
  0
VERTEX
  5
7A8C
  8
0
 62
7
 10
69.678154286323888
 20
46.02811605038994
 70
0
  0
VERTEX
  5
7A8D
  8
0
 62
7
 10
69.72087347034099
 20
46.02811605038994
 70
0
  0
VERTEX
  5
7A8E
  8
0
 62
7
 10
69.72087347034099
 20
46.069457196212959
 70
0
  0
VERTEX
  5
7A8F
  8
0
 62
7
 10
69.763592654358092
 20
46.069457196212959
 70
0
  0
VERTEX
  5
7A90
  8
0
 62
7
 10
69.763592654358092
 20
46.112176380230039
 70
0
  0
VERTEX
  5
7A91
  8
0
 62
7
 10
69.80493380018109
 20
46.112176380230039
 70
0
  0
VERTEX
  5
7A92
  8
0
 62
7
 10
69.80493380018109
 20
46.197614748264243
 70
0
  0
VERTEX
  5
7A93
  8
0
 62
7
 10
69.847652984198191
 20
46.197614748264243
 70
0
  0
VERTEX
  5
7A94
  8
0
 62
7
 10
69.847652984198191
 20
46.238783639312992
 70
0
  0
VERTEX
  5
7A95
  8
0
 62
7
 10
69.890372168215279
 20
46.238783639312992
 70
0
  0
VERTEX
  5
7A96
  8
0
 62
7
 10
69.890372168215279
 20
46.324566516895679
 70
0
  0
VERTEX
  5
7A97
  8
0
 62
7
 10
69.931713314038291
 20
46.324566516895679
 70
0
  0
VERTEX
  5
7A98
  8
0
 62
7
 10
69.931713314038291
 20
46.4084545919615
 70
0
  0
VERTEX
  5
7A99
  8
0
 62
7
 10
69.974432498055364
 20
46.451173775978639
 70
0
  0
VERTEX
  5
7A9A
  8
0
 62
7
 10
69.974432498055364
 20
46.4938929599957
 70
0
  0
VERTEX
  5
7A9B
  8
0
 62
7
 10
70.017151682072466
 20
46.4938929599957
 70
0
  0
VERTEX
  5
7A9C
  8
0
 62
7
 10
70.017151682072466
 20
46.577781035061541
 70
0
  0
SEQEND
  5
7A9D
  8
0
  0
POLYLINE
  5
69DC
  8
0
 62
7
 66
1
 70
0
 10
0
 20
0
 30
0
  0
VERTEX
  5
7A9E
  8
0
 62
7
 10
69.255096560735211
 20
46.02811605038994
 70
0
  0
VERTEX
  5
7A9F
  8
0
 62
7
 10
69.2123773767181
 20
46.02811605038994
 70
0
  0
VERTEX
  5
7AA0
  8
0
 62
7
 10
69.171036230895112
 20
46.02811605038994
 70
0
  0
VERTEX
  5
7AA1
  8
0
 62
7
 10
69.171036230895112
 20
46.069457196212959
 70
0
  0
VERTEX
  5
7AA2
  8
0
 62
7
 10
69.12831704687801
 20
46.069457196212959
 70
0
  0
VERTEX
  5
7AA3
  8
0
 62
7
 10
69.0855978628609
 20
46.112176380230039
 70
0
  0
VERTEX
  5
7AA4
  8
0
 62
7
 10
69.042878678843834
 20
46.112176380230039
 70
0
  0
SEQEND
  5
7AA5
  8
0
  0
POLYLINE
  5
69E5
  8
0
 62
7
 66
1
 70
0
 10
0
 20
0
 30
0
  0
VERTEX
  5
7AA6
  8
0
 62
7
 10
69.33915689057531
 20
47.763238391536042
 70
0
  0
VERTEX
  5
7AA7
  8
0
 62
7
 10
69.33915689057531
 20
47.805785320778853
 70
0
  0
VERTEX
  5
7AA8
  8
0
 62
7
 10
69.381876074592412
 20
47.805785320778853
 70
0
  0
VERTEX
  5
7AA9
  8
0
 62
7
 10
69.381876074592412
 20
47.848504504795983
 70
0
  0
VERTEX
  5
7AAA
  8
0
 62
7
 10
69.424595258609529
 20
47.848504504795983
 70
0
  0
VERTEX
  5
7AAB
  8
0
 62
7
 10
69.467314442626588
 20
47.848504504795983
 70
0
  0
VERTEX
  5
7AAC
  8
0
 62
7
 10
69.508655588449628
 20
47.848504504795983
 70
0
  0
VERTEX
  5
7AAD
  8
0
 62
7
 10
69.551374772466687
 20
47.848504504795983
 70
0
  0
VERTEX
  5
7AAE
  8
0
 62
7
 10
69.594093956483775
 20
47.848504504795983
 70
0
  0
SEQEND
  5
7AAF
  8
0
  0
POLYLINE
  5
69F0
  8
0
 62
7
 66
1
 70
0
 10
0
 20
0
 30
0
  0
VERTEX
  5
7AB0
  8
0
 62
7
 10
70.017151682072466
 20
47.805785320778853
 70
0
  0
VERTEX
  5
7AB1
  8
0
 62
7
 10
70.017151682072466
 20
47.889845650618952
 70
0
  0
VERTEX
  5
7AB2
  8
0
 62
7
 10
69.974432498055364
 20
47.889845650618952
 70
0
  0
VERTEX
  5
7AB3
  8
0
 62
7
 10
69.931713314038291
 20
47.889845650618952
 70
0
  0
VERTEX
  5
7AB4
  8
0
 62
7
 10
69.931713314038291
 20
47.975111763878878
 70
0
  0
VERTEX
  5
7AB5
  8
0
 62
7
 10
69.890372168215279
 20
47.975111763878878
 70
0
  0
VERTEX
  5
7AB6
  8
0
 62
7
 10
69.890372168215279
 20
48.016452909701911
 70
0
  0
VERTEX
  5
7AB7
  8
0
 62
7
 10
69.847652984198191
 20
48.016452909701911
 70
0
  0
VERTEX
  5
7AB8
  8
0
 62
7
 10
69.80493380018109
 20
48.016452909701911
 70
0
  0
VERTEX
  5
7AB9
  8
0
 62
7
 10
69.80493380018109
 20
48.059516603267518
 70
0
  0
VERTEX
  5
7ABA
  8
0
 62
7
 10
69.763592654358092
 20
48.059516603267518
 70
0
  0
VERTEX
  5
7ABB
  8
0
 62
7
 10
69.763592654358092
 20
48.102235787284613
 70
0
  0
VERTEX
  5
7ABC
  8
0
 62
7
 10
69.72087347034099
 20
48.102235787284613
 70
0
  0
VERTEX
  5
7ABD
  8
0
 62
7
 10
69.678154286323888
 20
48.102235787284613
 70
0
  0
VERTEX
  5
7ABE
  8
0
 62
7
 10
69.635435102306786
 20
48.102235787284613
 70
0
  0
VERTEX
  5
7ABF
  8
0
 62
7
 10
69.594093956483775
 20
48.102235787284613
 70
0
  0
SEQEND
  5
7AC0
  8
0
  0
POLYLINE
  5
6A02
  8
0
 62
7
 66
1
 70
0
 10
0
 20
0
 30
0
  0
VERTEX
  5
7AC1
  8
0
 62
7
 10
69.80493380018109
 20
45.689118654641391
 70
0
  0
VERTEX
  5
7AC2
  8
0
 62
7
 10
69.763592654358092
 20
45.689118654641391
 70
0
  0
SEQEND
  5
7AC3
  8
0
  0
POLYLINE
  5
6A06
  8
0
 62
7
 66
1
 70
0
 10
0
 20
0
 30
0
  0
VERTEX
  5
7AC4
  8
0
 62
7
 10
69.678154286323888
 20
45.77317898448149
 70
0
  0
VERTEX
  5
7AC5
  8
0
 62
7
 10
69.72087347034099
 20
45.77317898448149
 70
0
  0
VERTEX
  5
7AC6
  8
0
 62
7
 10
69.763592654358092
 20
45.77317898448149
 70
0
  0
VERTEX
  5
7AC7
  8
0
 62
7
 10
69.80493380018109
 20
45.77317898448149
 70
0
  0
SEQEND
  5
7AC8
  8
0
  0
POLYLINE
  5
6A0C
  8
0
 62
7
 66
1
 70
0
 10
0
 20
0
 30
0
  0
VERTEX
  5
7AC9
  8
0
 62
7
 10
69.763592654358092
 20
45.689118654641391
 70
0
  0
VERTEX
  5
7ACA
  8
0
 62
7
 10
69.80493380018109
 20
45.689118654641391
 70
0
  0
SEQEND
  5
7ACB
  8
0
  0
POLYLINE
  5
6A10
  8
0
 62
7
 66
1
 70
0
 10
0
 20
0
 30
0
  0
VERTEX
  5
7ACC
  8
0
 62
7
 10
69.763592654358092
 20
45.689118654641391
 70
0
  0
VERTEX
  5
7ACD
  8
0
 62
7
 10
69.763592654358092
 20
45.731837838658457
 70
0
  0
VERTEX
  5
7ACE
  8
0
 62
7
 10
69.72087347034099
 20
45.731837838658457
 70
0
  0
VERTEX
  5
7ACF
  8
0
 62
7
 10
69.72087347034099
 20
45.77317898448149
 70
0
  0
VERTEX
  5
7AD0
  8
0
 62
7
 10
69.678154286323888
 20
45.77317898448149
 70
0
  0
SEQEND
  5
7AD1
  8
0
  0
POLYLINE
  5
6A17
  8
0
 62
7
 66
1
 70
0
 10
0
 20
0
 30
0
  0
VERTEX
  5
7AD2
  8
0
 62
7
 10
69.635435102306786
 20
45.689118654641391
 70
0
  0
VERTEX
  5
7AD3
  8
0
 62
7
 10
69.678154286323888
 20
45.689118654641391
 70
0
  0
VERTEX
  5
7AD4
  8
0
 62
7
 10
69.678154286323888
 20
45.646399470624253
 70
0
  0
SEQEND
  5
7AD5
  8
0
  0
POLYLINE
  5
6A1C
  8
0
 62
7
 66
1
 70
0
 10
0
 20
0
 30
0
  0
VERTEX
  5
7AD6
  8
0
 62
7
 10
69.594093956483775
 20
45.60523057957554
 70
0
  0
VERTEX
  5
7AD7
  8
0
 62
7
 10
69.594093956483775
 20
45.646399470624253
 70
0
  0
VERTEX
  5
7AD8
  8
0
 62
7
 10
69.551374772466687
 20
45.646399470624253
 70
0
  0
VERTEX
  5
7AD9
  8
0
 62
7
 10
69.551374772466687
 20
45.689118654641391
 70
0
  0
SEQEND
  5
7ADA
  8
0
  0
POLYLINE
  5
6A22
  8
0
 62
7
 66
1
 70
0
 10
0
 20
0
 30
0
  0
VERTEX
  5
7ADB
  8
0
 62
7
 10
69.635435102306786
 20
45.689118654641391
 70
0
  0
VERTEX
  5
7ADC
  8
0
 62
7
 10
69.678154286323888
 20
45.689118654641391
 70
0
  0
VERTEX
  5
7ADD
  8
0
 62
7
 10
69.678154286323888
 20
45.646399470624253
 70
0
  0
SEQEND
  5
7ADE
  8
0
  0
POLYLINE
  5
6A27
  8
0
 62
7
 66
1
 70
0
 10
0
 20
0
 30
0
  0
VERTEX
  5
7ADF
  8
0
 62
7
 10
69.635435102306786
 20
45.858445097741424
 70
0
  0
VERTEX
  5
7AE0
  8
0
 62
7
 10
69.678154286323888
 20
45.90116428175849
 70
0
  0
VERTEX
  5
7AE1
  8
0
 62
7
 10
69.678154286323888
 20
45.94284993713
 70
0
  0
VERTEX
  5
7AE2
  8
0
 62
7
 10
69.72087347034099
 20
45.94284993713
 70
0
  0
VERTEX
  5
7AE3
  8
0
 62
7
 10
69.763592654358092
 20
45.98556912114713
 70
0
  0
VERTEX
  5
7AE4
  8
0
 62
7
 10
69.80493380018109
 20
46.02811605038994
 70
0
  0
VERTEX
  5
7AE5
  8
0
 62
7
 10
69.80493380018109
 20
46.069457196212959
 70
0
  0
VERTEX
  5
7AE6
  8
0
 62
7
 10
69.847652984198191
 20
46.112176380230039
 70
0
  0
VERTEX
  5
7AE7
  8
0
 62
7
 10
69.890372168215279
 20
46.112176380230039
 70
0
  0
VERTEX
  5
7AE8
  8
0
 62
7
 10
69.890372168215279
 20
46.15489556424717
 70
0
  0
VERTEX
  5
7AE9
  8
0
 62
7
 10
69.931713314038291
 20
46.197614748264243
 70
0
  0
VERTEX
  5
7AEA
  8
0
 62
7
 10
69.931713314038291
 20
46.238783639312992
 70
0
  0
VERTEX
  5
7AEB
  8
0
 62
7
 10
69.974432498055364
 20
46.2818473328786
 70
0
  0
VERTEX
  5
7AEC
  8
0
 62
7
 10
69.974432498055364
 20
46.324566516895679
 70
0
  0
VERTEX
  5
7AED
  8
0
 62
7
 10
70.017151682072466
 20
46.324566516895679
 70
0
  0
VERTEX
  5
7AEE
  8
0
 62
7
 10
70.017151682072466
 20
46.4084545919615
 70
0
  0
VERTEX
  5
7AEF
  8
0
 62
7
 10
70.059526356541056
 20
46.451173775978639
 70
0
  0
VERTEX
  5
7AF0
  8
0
 62
7
 10
70.059526356541056
 20
46.577781035061541
 70
0
  0
VERTEX
  5
7AF1
  8
0
 62
7
 10
70.10121201191258
 20
46.577781035061541
 70
0
  0
VERTEX
  5
7AF2
  8
0
 62
7
 10
70.10121201191258
 20
46.620500219078693
 70
0
  0
SEQEND
  5
7AF3
  8
0
  0
POLYLINE
  5
6A3D
  8
0
 62
7
 66
1
 70
0
 10
0
 20
0
 30
0
  0
VERTEX
  5
7AF4
  8
0
 62
7
 10
70.77920680340975
 20
46.704905058467247
 70
0
  0
VERTEX
  5
7AF5
  8
0
 62
7
 10
70.77920680340975
 20
46.704905058467247
 70
0
  0
VERTEX
  5
7AF6
  8
0
 62
7
 10
70.693768435375546
 20
46.747451987710107
 70
0
  0
VERTEX
  5
7AF7
  8
0
 62
7
 10
70.566988921518345
 20
46.747451987710107
 70
0
  0
VERTEX
  5
7AF8
  8
0
 62
7
 10
70.524269737501214
 20
46.747451987710107
 70
0
  0
VERTEX
  5
7AF9
  8
0
 62
7
 10
70.440209407661143
 20
46.790171171727181
 70
0
  0
VERTEX
  5
7AFA
  8
0
 62
7
 10
70.39749022364407
 20
46.790171171727181
 70
0
  0
VERTEX
  5
7AFB
  8
0
 62
7
 10
70.313429893803971
 20
46.790171171727181
 70
0
  0
VERTEX
  5
7AFC
  8
0
 62
7
 10
70.270710709786869
 20
46.831512317550207
 70
0
  0
VERTEX
  5
7AFD
  8
0
 62
7
 10
70.186650379946769
 20
46.831512317550207
 70
0
  0
SEQEND
  5
7AFE
  8
0
  0
POLYLINE
  5
6A49
  8
0
 62
7
 66
1
 70
0
 10
0
 20
0
 30
0
  0
VERTEX
  5
7AFF
  8
0
 62
7
 10
70.186650379946769
 20
47.593567438887462
 70
0
  0
VERTEX
  5
7B00
  8
0
 62
7
 10
70.39749022364407
 20
47.593567438887462
 70
0
  0
VERTEX
  5
7B01
  8
0
 62
7
 10
70.482928591678245
 20
47.5522262930645
 70
0
  0
VERTEX
  5
7B02
  8
0
 62
7
 10
70.524269737501214
 20
47.5522262930645
 70
0
  0
VERTEX
  5
7B03
  8
0
 62
7
 10
70.566988921518345
 20
47.509507109047377
 70
0
  0
VERTEX
  5
7B04
  8
0
 62
7
 10
70.77920680340975
 20
47.509507109047377
 70
0
  0
SEQEND
  5
7B05
  8
0
  0
POLYLINE
  5
6A51
  8
0
 62
7
 66
1
 70
0
 10
0
 20
0
 30
0
  0
VERTEX
  5
7B06
  8
0
 62
7
 10
70.10121201191258
 20
47.763238391536042
 70
0
  0
VERTEX
  5
7B07
  8
0
 62
7
 10
70.10121201191258
 20
47.805785320778853
 70
0
  0
VERTEX
  5
7B08
  8
0
 62
7
 10
70.059870866089568
 20
47.848504504795983
 70
0
  0
VERTEX
  5
7B09
  8
0
 62
7
 10
70.059870866089568
 20
47.889845650618952
 70
0
  0
VERTEX
  5
7B0A
  8
0
 62
7
 10
70.017151682072466
 20
47.932564834636068
 70
0
  0
VERTEX
  5
7B0B
  8
0
 62
7
 10
70.017151682072466
 20
47.975111763878878
 70
0
  0
VERTEX
  5
7B0C
  8
0
 62
7
 10
69.974432498055364
 20
48.016452909701911
 70
0
  0
VERTEX
  5
7B0D
  8
0
 62
7
 10
69.931713314038291
 20
48.016452909701911
 70
0
  0
VERTEX
  5
7B0E
  8
0
 62
7
 10
69.931713314038291
 20
48.059516603267518
 70
0
  0
VERTEX
  5
7B0F
  8
0
 62
7
 10
69.890372168215279
 20
48.059516603267518
 70
0
  0
VERTEX
  5
7B10
  8
0
 62
7
 10
69.890372168215279
 20
48.102235787284613
 70
0
  0
VERTEX
  5
7B11
  8
0
 62
7
 10
69.847652984198191
 20
48.102235787284613
 70
0
  0
VERTEX
  5
7B12
  8
0
 62
7
 10
69.80493380018109
 20
48.102235787284613
 70
0
  0
VERTEX
  5
7B13
  8
0
 62
7
 10
69.80493380018109
 20
48.144782716527452
 70
0
  0
VERTEX
  5
7B14
  8
0
 62
7
 10
69.763592654358092
 20
48.144782716527452
 70
0
  0
SEQEND
  5
7B15
  8
0
  0
POLYLINE
  5
6A62
  8
0
 62
7
 66
1
 70
0
 10
0
 20
0
 30
0
  0
VERTEX
  5
7B16
  8
0
 62
7
 10
70.017151682072466
 20
47.382899849964467
 70
0
  0
VERTEX
  5
7B17
  8
0
 62
7
 10
70.017151682072466
 20
47.424068741013173
 70
0
  0
VERTEX
  5
7B18
  8
0
 62
7
 10
69.974432498055364
 20
47.424068741013173
 70
0
  0
VERTEX
  5
7B19
  8
0
 62
7
 10
69.931713314038291
 20
47.424068741013173
 70
0
  0
SEQEND
  5
7B1A
  8
0
  0
POLYLINE
  5
6A68
  8
0
 62
7
 66
1
 70
0
 10
0
 20
0
 30
0
  0
VERTEX
  5
7B1B
  8
0
 62
7
 10
70.186650379946769
 20
47.5522262930645
 70
0
  0
VERTEX
  5
7B1C
  8
0
 62
7
 10
70.186650379946769
 20
47.5522262930645
 70
0
  0
VERTEX
  5
7B1D
  8
0
 62
7
 10
70.270710709786869
 20
47.509507109047377
 70
0
  0
VERTEX
  5
7B1E
  8
0
 62
7
 10
70.39749022364407
 20
47.509507109047377
 70
0
  0
VERTEX
  5
7B1F
  8
0
 62
7
 10
70.440209407661143
 20
47.466787925030289
 70
0
  0
VERTEX
  5
7B20
  8
0
 62
7
 10
70.566988921518345
 20
47.466787925030289
 70
0
  0
VERTEX
  5
7B21
  8
0
 62
7
 10
70.652427289552534
 20
47.466787925030289
 70
0
  0
VERTEX
  5
7B22
  8
0
 62
7
 10
70.693768435375546
 20
47.424068741013173
 70
0
  0
VERTEX
  5
7B23
  8
0
 62
7
 10
70.77920680340975
 20
47.424068741013173
 70
0
  0
SEQEND
  5
7B24
  8
0
  0
POLYLINE
  5
6A73
  8
0
 62
7
 66
1
 70
0
 10
0
 20
0
 30
0
  0
VERTEX
  5
7B25
  8
0
 62
7
 10
69.594093956483775
 20
45.60523057957554
 70
0
  0
VERTEX
  5
7B26
  8
0
 62
7
 10
69.594093956483775
 20
45.60523057957554
 70
0
  0
SEQEND
  5
7B27
  8
0
  0
POLYLINE
  5
6A77
  8
0
 62
7
 66
1
 70
0
 10
0
 20
0
 30
0
  0
VERTEX
  5
7B28
  8
0
 62
7
 10
69.678154286323888
 20
45.64657172539853
 70
0
  0
VERTEX
  5
7B29
  8
0
 62
7
 10
69.678154286323888
 20
45.64657172539853
 70
0
  0
SEQEND
  5
7B2A
  8
0
  0
POLYLINE
  5
6A7B
  8
0
 62
7
 66
1
 70
0
 10
0
 20
0
 30
0
  0
VERTEX
  5
7B2B
  8
0
 62
7
 10
70.017151682072466
 20
46.577781035061541
 70
0
  0
VERTEX
  5
7B2C
  8
0
 62
7
 10
70.059870866089568
 20
46.577781035061541
 70
0
  0
VERTEX
  5
7B2D
  8
0
 62
7
 10
70.10121201191258
 20
46.577781035061541
 70
0
  0
VERTEX
  5
7B2E
  8
0
 62
7
 10
70.10121201191258
 20
46.620500219078693
 70
0
  0
SEQEND
  5
7B2F
  8
0
  0
POLYLINE
  5
6A81
  8
0
 62
7
 66
1
 70
0
 10
0
 20
0
 30
0
  0
VERTEX
  5
7B30
  8
0
 62
7
 10
69.551374772466687
 20
45.689118654641391
 70
0
  0
VERTEX
  5
7B31
  8
0
 62
7
 10
69.551374772466687
 20
45.689118654641391
 70
0
  0
SEQEND
  5
7B32
  8
0
  0
POLYLINE
  5
6A85
  8
0
 62
7
 66
1
 70
0
 10
0
 20
0
 30
0
  0
VERTEX
  5
7B33
  8
0
 62
7
 10
70.186650379946769
 20
46.831512317550207
 70
0
  0
VERTEX
  5
7B34
  8
0
 62
7
 10
70.186650379946769
 20
46.87423150156728
 70
0
  0
SEQEND
  5
7B35
  8
0
  0
POLYLINE
  5
6A89
  8
0
 62
7
 66
1
 70
0
 10
0
 20
0
 30
0
  0
VERTEX
  5
7B36
  8
0
 62
7
 10
70.10121201191258
 20
46.620500219078693
 70
0
  0
VERTEX
  5
7B37
  8
0
 62
7
 10
70.143931195929653
 20
46.620500219078693
 70
0
  0
VERTEX
  5
7B38
  8
0
 62
7
 10
70.143931195929653
 20
46.704732803693027
 70
0
  0
VERTEX
  5
7B39
  8
0
 62
7
 10
70.186650379946769
 20
46.747451987710107
 70
0
  0
VERTEX
  5
7B3A
  8
0
 62
7
 10
70.186650379946769
 20
46.831512317550207
 70
0
  0
SEQEND
  5
7B3B
  8
0
  0
POLYLINE
  5
6A90
  8
0
 62
7
 66
1
 70
0
 10
0
 20
0
 30
0
  0
VERTEX
  5
7B3C
  8
0
 62
7
 10
70.10121201191258
 20
47.763238391536042
 70
0
  0
VERTEX
  5
7B3D
  8
0
 62
7
 10
70.10121201191258
 20
47.805785320778853
 70
0
  0
VERTEX
  5
7B3E
  8
0
 62
7
 10
70.059870866089568
 20
47.805785320778853
 70
0
  0
VERTEX
  5
7B3F
  8
0
 62
7
 10
70.059870866089568
 20
47.848504504795983
 70
0
  0
VERTEX
  5
7B40
  8
0
 62
7
 10
70.017151682072466
 20
47.848504504795983
 70
0
  0
VERTEX
  5
7B41
  8
0
 62
7
 10
70.017151682072466
 20
47.805785320778853
 70
0
  0
SEQEND
  5
7B42
  8
0
  0
POLYLINE
  5
6A98
  8
0
 62
7
 66
1
 70
0
 10
0
 20
0
 30
0
  0
VERTEX
  5
7B43
  8
0
 62
7
 10
70.186650379946769
 20
47.593567438887462
 70
0
  0
VERTEX
  5
7B44
  8
0
 62
7
 10
70.186650379946769
 20
47.7205192075189
 70
0
  0
VERTEX
  5
7B45
  8
0
 62
7
 10
70.143931195929653
 20
47.7205192075189
 70
0
  0
VERTEX
  5
7B46
  8
0
 62
7
 10
70.143931195929653
 20
47.763066136761779
 70
0
  0
VERTEX
  5
7B47
  8
0
 62
7
 10
70.10121201191258
 20
47.763066136761779
 70
0
  0
SEQEND
  5
7B48
  8
0
  0
POLYLINE
  5
6A9F
  8
0
 62
7
 66
1
 70
0
 10
0
 20
0
 30
0
  0
VERTEX
  5
7B49
  8
0
 62
7
 10
70.186650379946769
 20
47.5522262930645
 70
0
  0
VERTEX
  5
7B4A
  8
0
 62
7
 10
70.186650379946769
 20
47.5933951841132
 70
0
  0
SEQEND
  5
7B4B
  8
0
  0
POLYLINE
  5
6AA3
  8
0
 62
7
 66
1
 70
0
 10
0
 20
0
 30
0
  0
VERTEX
  5
7B4C
  8
0
 62
7
 10
69.594093956483775
 20
48.102235787284613
 70
0
  0
VERTEX
  5
7B4D
  8
0
 62
7
 10
69.594093956483775
 20
48.144782716527452
 70
0
  0
VERTEX
  5
7B4E
  8
0
 62
7
 10
69.635435102306786
 20
48.144782716527452
 70
0
  0
SEQEND
  5
7B4F
  8
0
  0
POLYLINE
  5
6AA8
  8
0
 62
7
 66
1
 70
0
 10
0
 20
0
 30
0
  0
VERTEX
  5
7B50
  8
0
 62
7
 10
69.424595258609529
 20
48.102235787284613
 70
0
  0
VERTEX
  5
7B51
  8
0
 62
7
 10
69.424595258609529
 20
48.102235787284613
 70
0
  0
SEQEND
  5
7B52
  8
0
  0
POLYLINE
  5
6AAC
  8
0
 62
7
 66
1
 70
0
 10
0
 20
0
 30
0
  0
VERTEX
  5
7B53
  8
0
 62
7
 10
70.77920680340975
 20
47.466787925030289
 70
0
  0
VERTEX
  5
7B54
  8
0
 62
7
 10
70.77920680340975
 20
47.382899849964467
 70
0
  0
SEQEND
  5
7B55
  8
0
  0
POLYLINE
  5
6AB0
  8
0
 62
7
 66
1
 70
0
 10
0
 20
0
 30
0
  0
VERTEX
  5
7B56
  8
0
 62
7
 10
68.577101769238055
 20
45.435559626926967
 70
0
  0
VERTEX
  5
7B57
  8
0
 62
7
 10
68.577101769238055
 20
45.435559626926967
 70
0
  0
VERTEX
  5
7B58
  8
0
 62
7
 10
68.619820953255129
 20
45.435559626926967
 70
0
  0
VERTEX
  5
7B59
  8
0
 62
7
 10
68.619820953255129
 20
45.3928404429099
 70
0
  0
SEQEND
  5
7B5A
  8
0
  0
POLYLINE
  5
6AB6
  8
0
 62
7
 66
1
 70
0
 10
0
 20
0
 30
0
  0
VERTEX
  5
7B5B
  8
0
 62
7
 10
70.77920680340975
 20
47.466787925030289
 70
0
  0
VERTEX
  5
7B5C
  8
0
 62
7
 10
70.821925987426823
 20
47.424068741013173
 70
0
  0
VERTEX
  5
7B5D
  8
0
 62
7
 10
70.821925987426823
 20
46.747451987710107
 70
0
  0
VERTEX
  5
7B5E
  8
0
 62
7
 10
70.77920680340975
 20
46.747451987710107
 70
0
  0
SEQEND
  5
7B5F
  8
0
  0
POLYLINE
  5
6ABC
  8
0
 62
7
 66
1
 70
0
 10
0
 20
0
 30
0
  0
VERTEX
  5
7B60
  8
0
 62
7
 10
69.424595258609529
 20
45.815898168498563
 70
0
  0
VERTEX
  5
7B61
  8
0
 62
7
 10
69.424595258609529
 20
45.731837838658457
 70
0
  0
SEQEND
  5
7B62
  8
0
  0
POLYLINE
  5
6AC0
  8
0
 62
7
 66
1
 70
0
 10
0
 20
0
 30
0
  0
VERTEX
  5
7B63
  8
0
 62
7
 10
69.424595258609529
 20
45.815898168498563
 70
0
  0
VERTEX
  5
7B64
  8
0
 62
7
 10
69.424595258609529
 20
45.731837838658457
 70
0
  0
VERTEX
  5
7B65
  8
0
 62
7
 10
69.467314442626588
 20
45.731837838658457
 70
0
  0
SEQEND
  5
7B66
  8
0
  0
POLYLINE
  5
6AC5
  8
0
 62
7
 66
1
 70
0
 10
0
 20
0
 30
0
  0
VERTEX
  5
7B67
  8
0
 62
7
 10
69.594093956483775
 20
45.94284993713
 70
0
  0
VERTEX
  5
7B68
  8
0
 62
7
 10
69.594093956483775
 20
45.90116428175849
 70
0
  0
VERTEX
  5
7B69
  8
0
 62
7
 10
69.635435102306786
 20
45.90116428175849
 70
0
  0
VERTEX
  5
7B6A
  8
0
 62
7
 10
69.635435102306786
 20
45.858445097741424
 70
0
  0
SEQEND
  5
7B6B
  8
0
  0
POLYLINE
  5
6ACB
  8
0
 62
7
 66
1
 70
0
 10
0
 20
0
 30
0
  0
VERTEX
  5
7B6C
  8
0
 62
7
 10
70.77920680340975
 20
46.747451987710107
 70
0
  0
VERTEX
  5
7B6D
  8
0
 62
7
 10
70.77920680340975
 20
46.704732803693027
 70
0
  0
SEQEND
  5
7B6E
  8
0
  0
POLYLINE
  5
6ACF
  8
0
 62
7
 66
1
 70
0
 10
0
 20
0
 30
0
  0
VERTEX
  5
7B6F
  8
0
 62
7
 10
70.77920680340975
 20
46.790171171727181
 70
0
  0
VERTEX
  5
7B70
  8
0
 62
7
 10
70.77920680340975
 20
46.747451987710107
 70
0
  0
SEQEND
  5
7B71
  8
0
  0
POLYLINE
  5
6AD3
  8
0
 62
7
 66
1
 70
0
 10
0
 20
0
 30
0
  0
VERTEX
  5
7B72
  8
0
 62
7
 10
70.77920680340975
 20
47.509507109047377
 70
0
  0
VERTEX
  5
7B73
  8
0
 62
7
 10
70.77920680340975
 20
47.466787925030289
 70
0
  0
SEQEND
  5
7B74
  8
0
  0
POLYLINE
  5
6AD7
  8
0
 62
7
 66
1
 70
0
 10
0
 20
0
 30
0
  0
VERTEX
  5
7B75
  8
0
 62
7
 10
70.77920680340975
 20
46.747451987710107
 70
0
  0
VERTEX
  5
7B76
  8
0
 62
7
 10
70.77920680340975
 20
46.790171171727181
 70
0
  0
SEQEND
  5
7B77
  8
0
  0
POLYLINE
  5
6ADB
  8
0
 62
7
 66
1
 70
0
 10
0
 20
0
 30
0
  0
VERTEX
  5
7B78
  8
0
 62
7
 10
70.77920680340975
 20
47.424068741013173
 70
0
  0
VERTEX
  5
7B79
  8
0
 62
7
 10
70.77920680340975
 20
47.382899849964467
 70
0
  0
SEQEND
  5
7B7A
  8
0
  0
POLYLINE
  5
6ADF
  8
0
 62
7
 66
1
 70
0
 10
0
 20
0
 30
0
  0
VERTEX
  5
7B7B
  8
0
 62
7
 10
69.80493380018109
 20
45.689118654641391
 70
0
  0
VERTEX
  5
7B7C
  8
0
 62
7
 10
69.80493380018109
 20
45.77317898448149
 70
0
  0
SEQEND
  5
7B7D
  8
0
  0
POLYLINE
  5
6AE3
  8
0
 62
7
 66
1
 70
0
 10
0
 20
0
 30
0
  0
VERTEX
  5
7B7E
  8
0
 62
7
 10
69.551374772466687
 20
45.60523057957554
 70
0
  0
VERTEX
  5
7B7F
  8
0
 62
7
 10
69.594093956483775
 20
45.60523057957554
 70
0
  0
SEQEND
  5
7B80
  8
0
  0
POLYLINE
  5
6AE7
  8
0
 62
7
 66
1
 70
0
 10
0
 20
0
 30
0
  0
VERTEX
  5
7B81
  8
0
 62
7
 10
69.763592654358092
 20
45.689118654641391
 70
0
  0
VERTEX
  5
7B82
  8
0
 62
7
 10
69.763592654358092
 20
45.689118654641391
 70
0
  0
SEQEND
  5
7B83
  8
0
  0
POLYLINE
  5
6AEB
  8
0
 62
7
 66
1
 70
0
 10
0
 20
0
 30
0
  0
VERTEX
  5
7B84
  8
0
 62
7
 10
69.424595258609529
 20
45.731837838658457
 70
0
  0
VERTEX
  5
7B85
  8
0
 62
7
 10
69.467314442626588
 20
45.731837838658457
 70
0
  0
SEQEND
  5
7B86
  8
0
  0
POLYLINE
  5
6AEF
  8
0
 62
7
 66
1
 70
0
 10
0
 20
0
 30
0
  0
VERTEX
  5
7B87
  8
0
 62
7
 10
69.635435102306786
 20
45.689118654641391
 70
0
  0
VERTEX
  5
7B88
  8
0
 62
7
 10
69.635435102306786
 20
45.689118654641391
 70
0
  0
SEQEND
  5
7B89
  8
0
  0
POLYLINE
  5
6AF3
  8
0
 62
7
 66
1
 70
0
 10
0
 20
0
 30
0
  0
VERTEX
  5
7B8A
  8
0
 62
7
 10
70.77920680340975
 20
47.509507109047377
 70
0
  0
VERTEX
  5
7B8B
  8
0
 62
7
 10
70.77920680340975
 20
47.424068741013173
 70
0
  0
SEQEND
  5
7B8C
  8
0
  0
POLYLINE
  5
6AF7
  8
0
 62
7
 66
1
 70
0
 10
0
 20
0
 30
0
  0
VERTEX
  5
7B8D
  8
0
 62
7
 10
70.77920680340975
 20
46.704905058467247
 70
0
  0
VERTEX
  5
7B8E
  8
0
 62
7
 10
70.77920680340975
 20
46.747451987710107
 70
0
  0
SEQEND
  5
7B8F
  8
0
  0
POLYLINE
  5
6AFB
  8
0
 62
7
 66
1
 70
0
 10
0
 20
0
 30
0
  0
VERTEX
  5
7B90
  8
0
 62
7
 10
69.297815744752313
 20
44.334507109841127
 70
0
  0
VERTEX
  5
7B91
  8
0
 62
7
 10
69.33915689057531
 20
44.334507109841127
 70
0
  0
VERTEX
  5
7B92
  8
0
 62
7
 10
69.381876074592412
 20
44.334507109841127
 70
0
  0
VERTEX
  5
7B93
  8
0
 62
7
 10
69.381876074592412
 20
44.377226293858257
 70
0
  0
VERTEX
  5
7B94
  8
0
 62
7
 10
69.424595258609529
 20
44.377226293858257
 70
0
  0
VERTEX
  5
7B95
  8
0
 62
7
 10
69.424595258609529
 20
44.418567439681233
 70
0
  0
VERTEX
  5
7B96
  8
0
 62
7
 10
69.467314442626588
 20
44.418567439681233
 70
0
  0
VERTEX
  5
7B97
  8
0
 62
7
 10
69.508655588449628
 20
44.418567439681233
 70
0
  0
VERTEX
  5
7B98
  8
0
 62
7
 10
69.551374772466687
 20
44.461114368924072
 70
0
  0
VERTEX
  5
7B99
  8
0
 62
7
 10
69.594093956483775
 20
44.461114368924072
 70
0
  0
VERTEX
  5
7B9A
  8
0
 62
7
 10
69.635435102306786
 20
44.50383355294116
 70
0
  0
VERTEX
  5
7B9B
  8
0
 62
7
 10
69.635435102306786
 20
44.546897246506767
 70
0
  0
VERTEX
  5
7B9C
  8
0
 62
7
 10
69.678154286323888
 20
44.546897246506767
 70
0
  0
VERTEX
  5
7B9D
  8
0
 62
7
 10
69.72087347034099
 20
44.588238392329778
 70
0
  0
VERTEX
  5
7B9E
  8
0
 62
7
 10
69.763592654358092
 20
44.588238392329778
 70
0
  0
VERTEX
  5
7B9F
  8
0
 62
7
 10
69.763592654358092
 20
44.6307853215726
 70
0
  0
VERTEX
  5
7BA0
  8
0
 62
7
 10
69.80493380018109
 20
44.6307853215726
 70
0
  0
VERTEX
  5
7BA1
  8
0
 62
7
 10
69.80493380018109
 20
44.673504505589719
 70
0
  0
VERTEX
  5
7BA2
  8
0
 62
7
 10
69.847652984198191
 20
44.673504505589719
 70
0
  0
VERTEX
  5
7BA3
  8
0
 62
7
 10
69.847652984198191
 20
44.7148456514127
 70
0
  0
VERTEX
  5
7BA4
  8
0
 62
7
 10
69.890372168215279
 20
44.7148456514127
 70
0
  0
VERTEX
  5
7BA5
  8
0
 62
7
 10
69.890372168215279
 20
44.757564835429832
 70
0
  0
VERTEX
  5
7BA6
  8
0
 62
7
 10
69.931713314038291
 20
44.757564835429832
 70
0
  0
VERTEX
  5
7BA7
  8
0
 62
7
 10
69.931713314038291
 20
44.800111764672643
 70
0
  0
VERTEX
  5
7BA8
  8
0
 62
7
 10
69.974432498055364
 20
44.800111764672643
 70
0
  0
VERTEX
  5
7BA9
  8
0
 62
7
 10
69.974432498055364
 20
44.842830948689773
 70
0
  0
VERTEX
  5
7BAA
  8
0
 62
7
 10
70.017151682072466
 20
44.842830948689773
 70
0
  0
VERTEX
  5
7BAB
  8
0
 62
7
 10
70.017151682072466
 20
44.884516604061261
 70
0
  0
VERTEX
  5
7BAC
  8
0
 62
7
 10
70.059870866089568
 20
44.927235788078349
 70
0
  0
VERTEX
  5
7BAD
  8
0
 62
7
 10
70.059870866089568
 20
44.9697827173212
 70
0
  0
VERTEX
  5
7BAE
  8
0
 62
7
 10
70.10121201191258
 20
44.9697827173212
 70
0
  0
VERTEX
  5
7BAF
  8
0
 62
7
 10
70.143931195929653
 20
44.9697827173212
 70
0
  0
VERTEX
  5
7BB0
  8
0
 62
7
 10
70.143931195929653
 20
45.053843047161287
 70
0
  0
VERTEX
  5
7BB1
  8
0
 62
7
 10
70.186650379946769
 20
45.053843047161287
 70
0
  0
VERTEX
  5
7BB2
  8
0
 62
7
 10
70.186650379946769
 20
45.096562231178382
 70
0
  0
VERTEX
  5
7BB3
  8
0
 62
7
 10
70.227991525769781
 20
45.1392814151955
 70
0
  0
VERTEX
  5
7BB4
  8
0
 62
7
 10
70.227991525769781
 20
45.180450306244211
 70
0
  0
VERTEX
  5
7BB5
  8
0
 62
7
 10
70.270710709786869
 20
45.180450306244211
 70
0
  0
VERTEX
  5
7BB6
  8
0
 62
7
 10
70.270710709786869
 20
45.223513999809882
 70
0
  0
VERTEX
  5
7BB7
  8
0
 62
7
 10
70.313429893803971
 20
45.223513999809882
 70
0
  0
VERTEX
  5
7BB8
  8
0
 62
7
 10
70.313429893803971
 20
45.308952367844007
 70
0
  0
VERTEX
  5
7BB9
  8
0
 62
7
 10
70.356149077821073
 20
45.350121258892777
 70
0
  0
VERTEX
  5
7BBA
  8
0
 62
7
 10
70.39749022364407
 20
45.350121258892777
 70
0
  0
VERTEX
  5
7BBB
  8
0
 62
7
 10
70.39749022364407
 20
45.435559626926967
 70
0
  0
VERTEX
  5
7BBC
  8
0
 62
7
 10
70.440209407661143
 20
45.47690077274995
 70
0
  0
VERTEX
  5
7BBD
  8
0
 62
7
 10
70.440209407661143
 20
45.562166886009891
 70
0
  0
VERTEX
  5
7BBE
  8
0
 62
7
 10
70.482928591678245
 20
45.562166886009891
 70
0
  0
VERTEX
  5
7BBF
  8
0
 62
7
 10
70.482928591678245
 20
45.60523057957554
 70
0
  0
VERTEX
  5
7BC0
  8
0
 62
7
 10
70.524269737501214
 20
45.60523057957554
 70
0
  0
VERTEX
  5
7BC1
  8
0
 62
7
 10
70.524269737501214
 20
45.689118654641391
 70
0
  0
VERTEX
  5
7BC2
  8
0
 62
7
 10
70.566988921518345
 20
45.731837838658457
 70
0
  0
VERTEX
  5
7BC3
  8
0
 62
7
 10
70.566988921518345
 20
45.815898168498563
 70
0
  0
VERTEX
  5
7BC4
  8
0
 62
7
 10
70.609708105535447
 20
45.815898168498563
 70
0
  0
VERTEX
  5
7BC5
  8
0
 62
7
 10
70.609708105535447
 20
45.858445097741424
 70
0
  0
VERTEX
  5
7BC6
  8
0
 62
7
 10
70.652427289552534
 20
45.858445097741424
 70
0
  0
VERTEX
  5
7BC7
  8
0
 62
7
 10
70.652427289552534
 20
45.98556912114713
 70
0
  0
VERTEX
  5
7BC8
  8
0
 62
7
 10
70.693768435375546
 20
45.98556912114713
 70
0
  0
VERTEX
  5
7BC9
  8
0
 62
7
 10
70.693768435375546
 20
46.112176380230039
 70
0
  0
VERTEX
  5
7BCA
  8
0
 62
7
 10
70.736487619392634
 20
46.112176380230039
 70
0
  0
VERTEX
  5
7BCB
  8
0
 62
7
 10
70.736487619392634
 20
46.197614748264243
 70
0
  0
VERTEX
  5
7BCC
  8
0
 62
7
 10
70.77920680340975
 20
46.197614748264243
 70
0
  0
VERTEX
  5
7BCD
  8
0
 62
7
 10
70.77920680340975
 20
46.324566516895679
 70
0
  0
VERTEX
  5
7BCE
  8
0
 62
7
 10
70.821925987426823
 20
46.365735407944442
 70
0
  0
VERTEX
  5
7BCF
  8
0
 62
7
 10
70.821925987426823
 20
46.4938929599957
 70
0
  0
VERTEX
  5
7BD0
  8
0
 62
7
 10
70.863267133249849
 20
46.535234105818752
 70
0
  0
VERTEX
  5
7BD1
  8
0
 62
7
 10
70.863267133249849
 20
46.577781035061541
 70
0
  0
VERTEX
  5
7BD2
  8
0
 62
7
 10
70.863267133249849
 20
46.620500219078693
 70
0
  0
VERTEX
  5
7BD3
  8
0
 62
7
 10
70.905986317266922
 20
46.620500219078693
 70
0
  0
VERTEX
  5
7BD4
  8
0
 62
7
 10
70.905986317266922
 20
46.831512317550207
 70
0
  0
VERTEX
  5
7BD5
  8
0
 62
7
 10
70.948705501284024
 20
46.831512317550207
 70
0
  0
VERTEX
  5
7BD6
  8
0
 62
7
 10
70.948705501284024
 20
47.086449383458721
 70
0
  0
SEQEND
  5
7BD7
  8
0
  0
POLYLINE
  5
6B44
  8
0
 62
7
 66
1
 70
0
 10
0
 20
0
 30
0
  0
VERTEX
  5
7BD8
  8
0
 62
7
 10
73.065372167421557
 20
48.609181587939119
 70
0
  0
VERTEX
  5
7BD9
  8
0
 62
7
 10
73.065372167421557
 20
48.398513999016131
 70
0
  0
VERTEX
  5
7BDA
  8
0
 62
7
 10
73.022652983404456
 20
48.31273112143338
 70
0
  0
VERTEX
  5
7BDB
  8
0
 62
7
 10
73.022652983404456
 20
48.144782716527452
 70
0
  0
VERTEX
  5
7BDC
  8
0
 62
7
 10
72.979933799387339
 20
48.102235787284613
 70
0
  0
VERTEX
  5
7BDD
  8
0
 62
7
 10
72.979933799387339
 20
47.763066136761779
 70
0
  0
VERTEX
  5
7BDE
  8
0
 62
7
 10
72.937214615370223
 20
47.7205192075189
 70
0
  0
VERTEX
  5
7BDF
  8
0
 62
7
 10
72.937214615370223
 20
47.382899849964467
 70
0
  0
VERTEX
  5
7BE0
  8
0
 62
7
 10
72.89587346954724
 20
47.340180665947337
 70
0
  0
VERTEX
  5
7BE1
  8
0
 62
7
 10
72.89587346954724
 20
47.25577582655874
 70
0
  0
VERTEX
  5
7BE2
  8
0
 62
7
 10
72.853154285530138
 20
47.170509713298813
 70
0
  0
VERTEX
  5
7BE3
  8
0
 62
7
 10
72.853154285530138
 20
46.916778430810147
 70
0
  0
VERTEX
  5
7BE4
  8
0
 62
7
 10
72.810435101513008
 20
46.831512317550207
 70
0
  0
VERTEX
  5
7BE5
  8
0
 62
7
 10
72.810435101513008
 20
46.704732803693027
 70
0
  0
SEQEND
  5
7BE6
  8
0
  0
POLYLINE
  5
6B54
  8
0
 62
7
 66
1
 70
0
 10
0
 20
0
 30
0
  0
VERTEX
  5
7BE7
  8
0
 62
7
 10
67.138429894597721
 20
42.260559627720731
 70
0
  0
VERTEX
  5
7BE8
  8
0
 62
7
 10
67.181149078614823
 20
42.260559627720731
 70
0
  0
VERTEX
  5
7BE9
  8
0
 62
7
 10
67.2238682626319
 20
42.260559627720731
 70
0
  0
VERTEX
  5
7BEA
  8
0
 62
7
 10
67.2652094084549
 20
42.260559627720731
 70
0
  0
SEQEND
  5
7BEB
  8
0
  0
POLYLINE
  5
6B5A
  8
0
 62
7
 66
1
 70
0
 10
0
 20
0
 30
0
  0
VERTEX
  5
7BEC
  8
0
 62
7
 10
72.091099164192883
 20
50.133119575839373
 70
0
  0
VERTEX
  5
7BED
  8
0
 62
7
 10
72.091099164192883
 20
50.176183269405037
 70
0
  0
VERTEX
  5
7BEE
  8
0
 62
7
 10
72.048379980175781
 20
50.176183269405037
 70
0
  0
VERTEX
  5
7BEF
  8
0
 62
7
 10
72.007038834352784
 20
50.176183269405037
 70
0
  0
VERTEX
  5
7BF0
  8
0
 62
7
 10
72.007038834352784
 20
50.218902453422118
 70
0
  0
VERTEX
  5
7BF1
  8
0
 62
7
 10
71.964319650335682
 20
50.218902453422118
 70
0
  0
SEQEND
  5
7BF2
  8
0
  0
POLYLINE
  5
6B62
  8
0
 62
7
 66
1
 70
0
 10
0
 20
0
 30
0
  0
VERTEX
  5
7BF3
  8
0
 62
7
 10
72.091099164192883
 20
50.133119575839373
 70
0
  0
VERTEX
  5
7BF4
  8
0
 62
7
 10
72.133818348209985
 20
50.091778430016412
 70
0
  0
VERTEX
  5
7BF5
  8
0
 62
7
 10
72.175159494032982
 20
50.04923150077353
 70
0
  0
VERTEX
  5
7BF6
  8
0
 62
7
 10
72.175159494032982
 20
50.006512316756471
 70
0
  0
VERTEX
  5
7BF7
  8
0
 62
7
 10
72.217878678050084
 20
49.963793132739411
 70
0
  0
VERTEX
  5
7BF8
  8
0
 62
7
 10
72.260597862067144
 20
49.922451986916371
 70
0
  0
VERTEX
  5
7BF9
  8
0
 62
7
 10
72.30331704608426
 20
49.879732802899291
 70
0
  0
VERTEX
  5
7BFA
  8
0
 62
7
 10
72.30331704608426
 20
49.837185873656423
 70
0
  0
VERTEX
  5
7BFB
  8
0
 62
7
 10
72.344658191907257
 20
49.795500218284928
 70
0
  0
VERTEX
  5
7BFC
  8
0
 62
7
 10
72.387377375924373
 20
49.7527810342678
 70
0
  0
VERTEX
  5
7BFD
  8
0
 62
7
 10
72.430096559941461
 20
49.667514921007871
 70
0
  0
VERTEX
  5
7BFE
  8
0
 62
7
 10
72.472815743958563
 20
49.6261737751849
 70
0
  0
VERTEX
  5
7BFF
  8
0
 62
7
 10
72.51415688978156
 20
49.540735407150692
 70
0
  0
VERTEX
  5
7C00
  8
0
 62
7
 10
72.556876073798662
 20
49.499566516101929
 70
0
  0
VERTEX
  5
7C01
  8
0
 62
7
 10
72.599595257815764
 20
49.413783638519241
 70
0
  0
VERTEX
  5
7C02
  8
0
 62
7
 10
72.640936403638733
 20
49.3710644545021
 70
0
  0
VERTEX
  5
7C03
  8
0
 62
7
 10
72.683655587655863
 20
49.329895563453427
 70
0
  0
VERTEX
  5
7C04
  8
0
 62
7
 10
72.683655587655863
 20
49.287176379436289
 70
0
  0
VERTEX
  5
7C05
  8
0
 62
7
 10
72.726374771672937
 20
49.244457195419209
 70
0
  0
VERTEX
  5
7C06
  8
0
 62
7
 10
72.726374771672937
 20
49.203116049596183
 70
0
  0
VERTEX
  5
7C07
  8
0
 62
7
 10
72.769093955690053
 20
49.160569120353387
 70
0
  0
VERTEX
  5
7C08
  8
0
 62
7
 10
72.810435101513008
 20
49.117849936336249
 70
0
  0
VERTEX
  5
7C09
  8
0
 62
7
 10
72.853154285530138
 20
49.074786242770642
 70
0
  0
VERTEX
  5
7C0A
  8
0
 62
7
 10
72.853154285530138
 20
49.033445096947673
 70
0
  0
VERTEX
  5
7C0B
  8
0
 62
7
 10
72.89587346954724
 20
48.990898167704813
 70
0
  0
VERTEX
  5
7C0C
  8
0
 62
7
 10
72.937214615370223
 20
48.905459799670609
 70
0
  0
VERTEX
  5
7C0D
  8
0
 62
7
 10
72.979933799387339
 20
48.86411865384764
 70
0
  0
VERTEX
  5
7C0E
  8
0
 62
7
 10
72.979933799387339
 20
48.7788525405877
 70
0
  0
VERTEX
  5
7C0F
  8
0
 62
7
 10
73.022652983404456
 20
48.7788525405877
 70
0
  0
SEQEND
  5
7C10
  8
0
  0
POLYLINE
  5
6B81
  8
0
 62
7
 66
1
 70
0
 10
0
 20
0
 30
0
  0
VERTEX
  5
7C11
  8
0
 62
7
 10
73.065372167421557
 20
48.609181587939119
 70
0
  0
VERTEX
  5
7C12
  8
0
 62
7
 10
73.065372167421557
 20
48.609181587939119
 70
0
  0
SEQEND
  5
7C13
  8
0
  0
POLYLINE
  5
6B85
  8
0
 62
7
 66
1
 70
0
 10
0
 20
0
 30
0
  0
VERTEX
  5
7C14
  8
0
 62
7
 10
71.6253222545871
 20
48.990898167704813
 70
0
  0
VERTEX
  5
7C15
  8
0
 62
7
 10
71.58260307057
 20
48.990898167704813
 70
0
  0
VERTEX
  5
7C16
  8
0
 62
7
 10
71.58260307057
 20
49.033445096947673
 70
0
  0
VERTEX
  5
7C17
  8
0
 62
7
 10
71.541261924747019
 20
49.033445096947673
 70
0
  0
VERTEX
  5
7C18
  8
0
 62
7
 10
71.4985427407299
 20
49.033445096947673
 70
0
  0
VERTEX
  5
7C19
  8
0
 62
7
 10
71.4558235567128
 20
49.033445096947673
 70
0
  0
VERTEX
  5
7C1A
  8
0
 62
7
 10
71.4558235567128
 20
49.074786242770642
 70
0
  0
VERTEX
  5
7C1B
  8
0
 62
7
 10
71.414482410889818
 20
49.074786242770642
 70
0
  0
SEQEND
  5
7C1C
  8
0
  0
POLYLINE
  5
6B8F
  8
0
 62
7
 66
1
 70
0
 10
0
 20
0
 30
0
  0
VERTEX
  5
7C1D
  8
0
 62
7
 10
71.414482410889818
 20
48.990898167704813
 70
0
  0
VERTEX
  5
7C1E
  8
0
 62
7
 10
71.4558235567128
 20
48.990898167704813
 70
0
  0
VERTEX
  5
7C1F
  8
0
 62
7
 10
71.4985427407299
 20
48.990898167704813
 70
0
  0
VERTEX
  5
7C20
  8
0
 62
7
 10
71.541261924747019
 20
48.990898167704813
 70
0
  0
VERTEX
  5
7C21
  8
0
 62
7
 10
71.541261924747019
 20
48.94817898368774
 70
0
  0
VERTEX
  5
7C22
  8
0
 62
7
 10
71.58260307057
 20
48.94817898368774
 70
0
  0
VERTEX
  5
7C23
  8
0
 62
7
 10
71.6253222545871
 20
48.94817898368774
 70
0
  0
SEQEND
  5
7C24
  8
0
  0
POLYLINE
  5
6B98
  8
0
 62
7
 66
1
 70
0
 10
0
 20
0
 30
0
  0
VERTEX
  5
7C25
  8
0
 62
7
 10
72.89587346954724
 20
48.86411865384764
 70
0
  0
VERTEX
  5
7C26
  8
0
 62
7
 10
72.769093955690053
 20
48.86411865384764
 70
0
  0
VERTEX
  5
7C27
  8
0
 62
7
 10
72.640936403638733
 20
48.905459799670609
 70
0
  0
VERTEX
  5
7C28
  8
0
 62
7
 10
72.51415688978156
 20
48.905459799670609
 70
0
  0
VERTEX
  5
7C29
  8
0
 62
7
 10
72.344658191907257
 20
48.94817898368774
 70
0
  0
VERTEX
  5
7C2A
  8
0
 62
7
 10
72.30331704608426
 20
48.990898167704813
 70
0
  0
VERTEX
  5
7C2B
  8
0
 62
7
 10
72.133818348209985
 20
48.990898167704813
 70
0
  0
VERTEX
  5
7C2C
  8
0
 62
7
 10
72.048379980175781
 20
49.033445096947673
 70
0
  0
VERTEX
  5
7C2D
  8
0
 62
7
 10
71.878881282301478
 20
49.033445096947673
 70
0
  0
VERTEX
  5
7C2E
  8
0
 62
7
 10
71.794820952461379
 20
49.074786242770642
 70
0
  0
VERTEX
  5
7C2F
  8
0
 62
7
 10
71.6253222545871
 20
49.117849936336249
 70
0
  0
VERTEX
  5
7C30
  8
0
 62
7
 10
71.541261924747019
 20
49.117849936336249
 70
0
  0
VERTEX
  5
7C31
  8
0
 62
7
 10
71.414482410889818
 20
49.160569120353387
 70
0
  0
SEQEND
  5
7C32
  8
0
  0
POLYLINE
  5
6BA7
  8
0
 62
7
 66
1
 70
0
 10
0
 20
0
 30
0
  0
VERTEX
  5
7C33
  8
0
 62
7
 10
71.964319650335682
 20
50.218902453422118
 70
0
  0
VERTEX
  5
7C34
  8
0
 62
7
 10
72.007038834352784
 20
50.176183269405037
 70
0
  0
VERTEX
  5
7C35
  8
0
 62
7
 10
72.048379980175781
 20
50.133119575839373
 70
0
  0
VERTEX
  5
7C36
  8
0
 62
7
 10
72.048379980175781
 20
50.091778430016412
 70
0
  0
VERTEX
  5
7C37
  8
0
 62
7
 10
72.091099164192883
 20
50.04923150077353
 70
0
  0
VERTEX
  5
7C38
  8
0
 62
7
 10
72.133818348209985
 20
50.006512316756471
 70
0
  0
VERTEX
  5
7C39
  8
0
 62
7
 10
72.175159494032982
 20
49.963793132739411
 70
0
  0
VERTEX
  5
7C3A
  8
0
 62
7
 10
72.175159494032982
 20
49.922451986916371
 70
0
  0
VERTEX
  5
7C3B
  8
0
 62
7
 10
72.217878678050084
 20
49.879732802899291
 70
0
  0
VERTEX
  5
7C3C
  8
0
 62
7
 10
72.217878678050084
 20
49.837185873656423
 70
0
  0
VERTEX
  5
7C3D
  8
0
 62
7
 10
72.30331704608426
 20
49.795500218284928
 70
0
  0
VERTEX
  5
7C3E
  8
0
 62
7
 10
72.30331704608426
 20
49.7527810342678
 70
0
  0
VERTEX
  5
7C3F
  8
0
 62
7
 10
72.344658191907257
 20
49.710234105025
 70
0
  0
VERTEX
  5
7C40
  8
0
 62
7
 10
72.344658191907257
 20
49.667514921007871
 70
0
  0
VERTEX
  5
7C41
  8
0
 62
7
 10
72.387377375924373
 20
49.6261737751849
 70
0
  0
VERTEX
  5
7C42
  8
0
 62
7
 10
72.430096559941461
 20
49.583454591167772
 70
0
  0
VERTEX
  5
7C43
  8
0
 62
7
 10
72.430096559941461
 20
49.540735407150692
 70
0
  0
VERTEX
  5
7C44
  8
0
 62
7
 10
72.472815743958563
 20
49.499566516101929
 70
0
  0
VERTEX
  5
7C45
  8
0
 62
7
 10
72.51415688978156
 20
49.413783638519241
 70
0
  0
VERTEX
  5
7C46
  8
0
 62
7
 10
72.556876073798662
 20
49.3710644545021
 70
0
  0
VERTEX
  5
7C47
  8
0
 62
7
 10
72.599595257815764
 20
49.3710644545021
 70
0
  0
VERTEX
  5
7C48
  8
0
 62
7
 10
72.599595257815764
 20
49.287176379436289
 70
0
  0
VERTEX
  5
7C49
  8
0
 62
7
 10
72.640936403638733
 20
49.287176379436289
 70
0
  0
VERTEX
  5
7C4A
  8
0
 62
7
 10
72.683655587655863
 20
49.244457195419209
 70
0
  0
VERTEX
  5
7C4B
  8
0
 62
7
 10
72.683655587655863
 20
49.160569120353387
 70
0
  0
VERTEX
  5
7C4C
  8
0
 62
7
 10
72.726374771672937
 20
49.160569120353387
 70
0
  0
VERTEX
  5
7C4D
  8
0
 62
7
 10
72.726374771672937
 20
49.117849936336249
 70
0
  0
VERTEX
  5
7C4E
  8
0
 62
7
 10
72.769093955690053
 20
49.074786242770642
 70
0
  0
VERTEX
  5
7C4F
  8
0
 62
7
 10
72.810435101513008
 20
49.033445096947673
 70
0
  0
VERTEX
  5
7C50
  8
0
 62
7
 10
72.810435101513008
 20
48.990898167704813
 70
0
  0
VERTEX
  5
7C51
  8
0
 62
7
 10
72.853154285530138
 20
48.94817898368774
 70
0
  0
VERTEX
  5
7C52
  8
0
 62
7
 10
72.853154285530138
 20
48.905459799670609
 70
0
  0
VERTEX
  5
7C53
  8
0
 62
7
 10
72.89587346954724
 20
48.86411865384764
 70
0
  0
SEQEND
  5
7C54
  8
0
  0
POLYLINE
  5
6BCA
  8
0
 62
7
 66
1
 70
0
 10
0
 20
0
 30
0
  0
VERTEX
  5
7C55
  8
0
 62
7
 10
71.414482410889818
 20
48.94817898368774
 70
0
  0
VERTEX
  5
7C56
  8
0
 62
7
 10
71.541261924747019
 20
48.905459799670609
 70
0
  0
VERTEX
  5
7C57
  8
0
 62
7
 10
71.6680414386042
 20
48.905459799670609
 70
0
  0
VERTEX
  5
7C58
  8
0
 62
7
 10
71.794820952461379
 20
48.86411865384764
 70
0
  0
VERTEX
  5
7C59
  8
0
 62
7
 10
71.964319650335682
 20
48.8213994698305
 70
0
  0
VERTEX
  5
7C5A
  8
0
 62
7
 10
72.091099164192883
 20
48.7788525405877
 70
0
  0
VERTEX
  5
7C5B
  8
0
 62
7
 10
72.217878678050084
 20
48.737166885216141
 70
0
  0
VERTEX
  5
7C5C
  8
0
 62
7
 10
72.344658191907257
 20
48.694447701199067
 70
0
  0
VERTEX
  5
7C5D
  8
0
 62
7
 10
72.472815743958563
 20
48.651728517182
 70
0
  0
VERTEX
  5
7C5E
  8
0
 62
7
 10
72.640936403638733
 20
48.609181587939119
 70
0
  0
VERTEX
  5
7C5F
  8
0
 62
7
 10
72.769093955690053
 20
48.56784044211615
 70
0
  0
VERTEX
  5
7C60
  8
0
 62
7
 10
72.937214615370223
 20
48.525121258099027
 70
0
  0
VERTEX
  5
7C61
  8
0
 62
7
 10
72.937214615370223
 20
48.482402074081961
 70
0
  0
VERTEX
  5
7C62
  8
0
 62
7
 10
72.89587346954724
 20
48.398513999016131
 70
0
  0
VERTEX
  5
7C63
  8
0
 62
7
 10
72.89587346954724
 20
48.271562230384639
 70
0
  0
VERTEX
  5
7C64
  8
0
 62
7
 10
72.853154285530138
 20
48.186123862350421
 70
0
  0
VERTEX
  5
7C65
  8
0
 62
7
 10
72.853154285530138
 20
47.889845650618952
 70
0
  0
VERTEX
  5
7C66
  8
0
 62
7
 10
72.810435101513008
 20
47.805785320778853
 70
0
  0
VERTEX
  5
7C67
  8
0
 62
7
 10
72.810435101513008
 20
47.509507109047377
 70
0
  0
VERTEX
  5
7C68
  8
0
 62
7
 10
72.769093955690053
 20
47.466787925030289
 70
0
  0
VERTEX
  5
7C69
  8
0
 62
7
 10
72.769093955690053
 20
47.340180665947337
 70
0
  0
VERTEX
  5
7C6A
  8
0
 62
7
 10
72.726374771672937
 20
47.25577582655874
 70
0
  0
VERTEX
  5
7C6B
  8
0
 62
7
 10
72.726374771672937
 20
47.001183270198787
 70
0
  0
VERTEX
  5
7C6C
  8
0
 62
7
 10
72.683655587655863
 20
46.958119576633123
 70
0
  0
VERTEX
  5
7C6D
  8
0
 62
7
 10
72.683655587655863
 20
46.747451987710107
 70
0
  0
VERTEX
  5
7C6E
  8
0
 62
7
 10
72.683655587655863
 20
46.704732803693027
 70
0
  0
VERTEX
  5
7C6F
  8
0
 62
7
 10
72.640936403638733
 20
46.662185874450181
 70
0
  0
VERTEX
  5
7C70
  8
0
 62
7
 10
72.640936403638733
 20
46.53506185104446
 70
0
  0
VERTEX
  5
7C71
  8
0
 62
7
 10
72.599595257815764
 20
46.53506185104446
 70
0
  0
VERTEX
  5
7C72
  8
0
 62
7
 10
72.599595257815764
 20
46.324566516895679
 70
0
  0
VERTEX
  5
7C73
  8
0
 62
7
 10
72.556876073798662
 20
46.324566516895679
 70
0
  0
VERTEX
  5
7C74
  8
0
 62
7
 10
72.556876073798662
 20
46.112176380230039
 70
0
  0
VERTEX
  5
7C75
  8
0
 62
7
 10
72.51415688978156
 20
46.112176380230039
 70
0
  0
VERTEX
  5
7C76
  8
0
 62
7
 10
72.51415688978156
 20
46.069457196212959
 70
0
  0
VERTEX
  5
7C77
  8
0
 62
7
 10
72.472815743958563
 20
46.02811605038994
 70
0
  0
VERTEX
  5
7C78
  8
0
 62
7
 10
72.472815743958563
 20
45.90116428175849
 70
0
  0
VERTEX
  5
7C79
  8
0
 62
7
 10
72.430096559941461
 20
45.858445097741424
 70
0
  0
VERTEX
  5
7C7A
  8
0
 62
7
 10
72.430096559941461
 20
45.731837838658457
 70
0
  0
VERTEX
  5
7C7B
  8
0
 62
7
 10
72.387377375924373
 20
45.731837838658457
 70
0
  0
VERTEX
  5
7C7C
  8
0
 62
7
 10
72.387377375924373
 20
45.689118654641391
 70
0
  0
VERTEX
  5
7C7D
  8
0
 62
7
 10
72.344658191907257
 20
45.689118654641391
 70
0
  0
VERTEX
  5
7C7E
  8
0
 62
7
 10
72.344658191907257
 20
45.562166886009891
 70
0
  0
VERTEX
  5
7C7F
  8
0
 62
7
 10
72.30331704608426
 20
45.562166886009891
 70
0
  0
VERTEX
  5
7C80
  8
0
 62
7
 10
72.30331704608426
 20
45.435559626926967
 70
0
  0
VERTEX
  5
7C81
  8
0
 62
7
 10
72.260597862067144
 20
45.435559626926967
 70
0
  0
VERTEX
  5
7C82
  8
0
 62
7
 10
72.260597862067144
 20
45.3928404429099
 70
0
  0
VERTEX
  5
7C83
  8
0
 62
7
 10
72.217878678050084
 20
45.350121258892777
 70
0
  0
VERTEX
  5
7C84
  8
0
 62
7
 10
72.217878678050084
 20
45.3087801130698
 70
0
  0
VERTEX
  5
7C85
  8
0
 62
7
 10
72.175159494032982
 20
45.266233183826962
 70
0
  0
VERTEX
  5
7C86
  8
0
 62
7
 10
72.175159494032982
 20
45.180450306244211
 70
0
  0
VERTEX
  5
7C87
  8
0
 62
7
 10
72.133818348209985
 20
45.180450306244211
 70
0
  0
VERTEX
  5
7C88
  8
0
 62
7
 10
72.133818348209985
 20
45.096562231178382
 70
0
  0
VERTEX
  5
7C89
  8
0
 62
7
 10
72.091099164192883
 20
45.096562231178382
 70
0
  0
VERTEX
  5
7C8A
  8
0
 62
7
 10
72.091099164192883
 20
45.053843047161287
 70
0
  0
VERTEX
  5
7C8B
  8
0
 62
7
 10
72.048379980175781
 20
45.011123863144157
 70
0
  0
VERTEX
  5
7C8C
  8
0
 62
7
 10
72.048379980175781
 20
44.9697827173212
 70
0
  0
VERTEX
  5
7C8D
  8
0
 62
7
 10
72.007038834352784
 20
44.927235788078349
 70
0
  0
VERTEX
  5
7C8E
  8
0
 62
7
 10
71.964319650335682
 20
44.884516604061261
 70
0
  0
VERTEX
  5
7C8F
  8
0
 62
7
 10
71.964319650335682
 20
44.842830948689773
 70
0
  0
VERTEX
  5
7C90
  8
0
 62
7
 10
71.92160046631858
 20
44.800111764672643
 70
0
  0
VERTEX
  5
7C91
  8
0
 62
7
 10
71.92160046631858
 20
44.757564835429832
 70
0
  0
VERTEX
  5
7C92
  8
0
 62
7
 10
71.878881282301478
 20
44.7148456514127
 70
0
  0
VERTEX
  5
7C93
  8
0
 62
7
 10
71.837540136478481
 20
44.7148456514127
 70
0
  0
VERTEX
  5
7C94
  8
0
 62
7
 10
71.837540136478481
 20
44.6307853215726
 70
0
  0
VERTEX
  5
7C95
  8
0
 62
7
 10
71.794820952461379
 20
44.6307853215726
 70
0
  0
VERTEX
  5
7C96
  8
0
 62
7
 10
71.794820952461379
 20
44.546897246506767
 70
0
  0
VERTEX
  5
7C97
  8
0
 62
7
 10
71.7521017684443
 20
44.546897246506767
 70
0
  0
VERTEX
  5
7C98
  8
0
 62
7
 10
71.7107606226213
 20
44.546897246506767
 70
0
  0
VERTEX
  5
7C99
  8
0
 62
7
 10
71.7107606226213
 20
44.461114368924072
 70
0
  0
VERTEX
  5
7C9A
  8
0
 62
7
 10
71.6680414386042
 20
44.461114368924072
 70
0
  0
VERTEX
  5
7C9B
  8
0
 62
7
 10
71.6680414386042
 20
44.418395184906942
 70
0
  0
VERTEX
  5
7C9C
  8
0
 62
7
 10
71.6253222545871
 20
44.418395184906942
 70
0
  0
VERTEX
  5
7C9D
  8
0
 62
7
 10
71.6253222545871
 20
44.377226293858257
 70
0
  0
VERTEX
  5
7C9E
  8
0
 62
7
 10
71.58260307057
 20
44.377226293858257
 70
0
  0
VERTEX
  5
7C9F
  8
0
 62
7
 10
71.58260307057
 20
44.334507109841127
 70
0
  0
VERTEX
  5
7CA0
  8
0
 62
7
 10
71.541261924747019
 20
44.334507109841127
 70
0
  0
VERTEX
  5
7CA1
  8
0
 62
7
 10
71.541261924747019
 20
44.291787925824053
 70
0
  0
VERTEX
  5
7CA2
  8
0
 62
7
 10
71.4985427407299
 20
44.291787925824053
 70
0
  0
VERTEX
  5
7CA3
  8
0
 62
7
 10
71.4985427407299
 20
44.25044678000102
 70
0
  0
VERTEX
  5
7CA4
  8
0
 62
7
 10
71.4558235567128
 20
44.25044678000102
 70
0
  0
VERTEX
  5
7CA5
  8
0
 62
7
 10
71.4558235567128
 20
44.20789985075821
 70
0
  0
VERTEX
  5
7CA6
  8
0
 62
7
 10
71.414482410889818
 20
44.20789985075821
 70
0
  0
VERTEX
  5
7CA7
  8
0
 62
7
 10
71.414482410889818
 20
44.165180666741087
 70
0
  0
VERTEX
  5
7CA8
  8
0
 62
7
 10
71.3717632268727
 20
44.165180666741087
 70
0
  0
VERTEX
  5
7CA9
  8
0
 62
7
 10
71.3290440428556
 20
44.122116973175459
 70
0
  0
VERTEX
  5
7CAA
  8
0
 62
7
 10
71.3290440428556
 20
44.0807758273525
 70
0
  0
VERTEX
  5
7CAB
  8
0
 62
7
 10
71.286324858838526
 20
44.0807758273525
 70
0
  0
VERTEX
  5
7CAC
  8
0
 62
7
 10
71.286324858838526
 20
44.038228898109637
 70
0
  0
VERTEX
  5
7CAD
  8
0
 62
7
 10
71.244983713015529
 20
44.038228898109637
 70
0
  0
VERTEX
  5
7CAE
  8
0
 62
7
 10
71.202264528998427
 20
44.038228898109637
 70
0
  0
VERTEX
  5
7CAF
  8
0
 62
7
 10
71.202264528998427
 20
43.99550971409257
 70
0
  0
VERTEX
  5
7CB0
  8
0
 62
7
 10
71.159545344981325
 20
43.99550971409257
 70
0
  0
VERTEX
  5
7CB1
  8
0
 62
7
 10
71.159545344981325
 20
43.954168568269552
 70
0
  0
VERTEX
  5
7CB2
  8
0
 62
7
 10
71.118204199158328
 20
43.954168568269552
 70
0
  0
VERTEX
  5
7CB3
  8
0
 62
7
 10
71.075485015141226
 20
43.954168568269552
 70
0
  0
VERTEX
  5
7CB4
  8
0
 62
7
 10
71.075485015141226
 20
43.911449384252471
 70
0
  0
VERTEX
  5
7CB5
  8
0
 62
7
 10
71.032765831124124
 20
43.911449384252471
 70
0
  0
VERTEX
  5
7CB6
  8
0
 62
7
 10
70.990046647107022
 20
43.911449384252471
 70
0
  0
VERTEX
  5
7CB7
  8
0
 62
7
 10
70.990046647107022
 20
43.868902455009611
 70
0
  0
VERTEX
  5
7CB8
  8
0
 62
7
 10
70.948705501284024
 20
43.868902455009611
 70
0
  0
VERTEX
  5
7CB9
  8
0
 62
7
 10
70.948705501284024
 20
43.82618327099253
 70
0
  0
VERTEX
  5
7CBA
  8
0
 62
7
 10
70.905986317266922
 20
43.82618327099253
 70
0
  0
VERTEX
  5
7CBB
  8
0
 62
7
 10
70.863267133249849
 20
43.82618327099253
 70
0
  0
VERTEX
  5
7CBC
  8
0
 62
7
 10
70.821925987426823
 20
43.82618327099253
 70
0
  0
VERTEX
  5
7CBD
  8
0
 62
7
 10
70.821925987426823
 20
43.784497615620957
 70
0
  0
VERTEX
  5
7CBE
  8
0
 62
7
 10
70.77920680340975
 20
43.784497615620957
 70
0
  0
SEQEND
  5
7CBF
  8
0
  0
POLYLINE
  5
6C36
  8
0
 62
7
 66
1
 70
0
 10
0
 20
0
 30
0
  0
VERTEX
  5
7CC0
  8
0
 62
7
 10
73.065372167421557
 20
48.609181587939119
 70
0
  0
VERTEX
  5
7CC1
  8
0
 62
7
 10
73.065372167421557
 20
48.651728517182
 70
0
  0
VERTEX
  5
7CC2
  8
0
 62
7
 10
73.022652983404456
 20
48.651728517182
 70
0
  0
VERTEX
  5
7CC3
  8
0
 62
7
 10
72.979933799387339
 20
48.651728517182
 70
0
  0
VERTEX
  5
7CC4
  8
0
 62
7
 10
72.979933799387339
 20
48.694447701199067
 70
0
  0
SEQEND
  5
7CC5
  8
0
  0
POLYLINE
  5
6C3D
  8
0
 62
7
 66
1
 70
0
 10
0
 20
0
 30
0
  0
VERTEX
  5
7CC6
  8
0
 62
7
 10
71.3290440428556
 20
44.038228898109637
 70
0
  0
VERTEX
  5
7CC7
  8
0
 62
7
 10
71.3290440428556
 20
44.038228898109637
 70
0
  0
VERTEX
  5
7CC8
  8
0
 62
7
 10
71.286324858838526
 20
44.038228898109637
 70
0
  0
VERTEX
  5
7CC9
  8
0
 62
7
 10
71.286324858838526
 20
43.99550971409257
 70
0
  0
VERTEX
  5
7CCA
  8
0
 62
7
 10
71.244983713015529
 20
43.99550971409257
 70
0
  0
VERTEX
  5
7CCB
  8
0
 62
7
 10
71.202264528998427
 20
43.99550971409257
 70
0
  0
VERTEX
  5
7CCC
  8
0
 62
7
 10
71.159545344981325
 20
43.99550971409257
 70
0
  0
SEQEND
  5
7CCD
  8
0
  0
POLYLINE
  5
6C46
  8
0
 62
7
 66
1
 70
0
 10
0
 20
0
 30
0
  0
VERTEX
  5
7CCE
  8
0
 62
7
 10
70.821925987426823
 20
43.784497615620957
 70
0
  0
VERTEX
  5
7CCF
  8
0
 62
7
 10
70.77920680340975
 20
43.784497615620957
 70
0
  0
SEQEND
  5
7CD0
  8
0
  0
POLYLINE
  5
6C4A
  8
0
 62
7
 66
1
 70
0
 10
0
 20
0
 30
0
  0
VERTEX
  5
7CD1
  8
0
 62
7
 10
73.065372167421557
 20
48.694447701199067
 70
0
  0
VERTEX
  5
7CD2
  8
0
 62
7
 10
73.065372167421557
 20
48.609181587939119
 70
0
  0
SEQEND
  5
7CD3
  8
0
  0
POLYLINE
  5
6C4E
  8
0
 62
7
 66
1
 70
0
 10
0
 20
0
 30
0
  0
VERTEX
  5
7CD4
  8
0
 62
7
 10
72.937214615370223
 20
48.525121258099027
 70
0
  0
VERTEX
  5
7CD5
  8
0
 62
7
 10
72.979933799387339
 20
48.525121258099027
 70
0
  0
VERTEX
  5
7CD6
  8
0
 62
7
 10
73.022652983404456
 20
48.56784044211615
 70
0
  0
VERTEX
  5
7CD7
  8
0
 62
7
 10
73.065372167421557
 20
48.56784044211615
 70
0
  0
VERTEX
  5
7CD8
  8
0
 62
7
 10
73.065372167421557
 20
48.609181587939119
 70
0
  0
SEQEND
  5
7CD9
  8
0
  0
POLYLINE
  5
6C55
  8
0
 62
7
 66
1
 70
0
 10
0
 20
0
 30
0
  0
VERTEX
  5
7CDA
  8
0
 62
7
 10
72.937214615370223
 20
48.737166885216141
 70
0
  0
VERTEX
  5
7CDB
  8
0
 62
7
 10
72.937214615370223
 20
48.8213994698305
 70
0
  0
VERTEX
  5
7CDC
  8
0
 62
7
 10
72.89587346954724
 20
48.8213994698305
 70
0
  0
VERTEX
  5
7CDD
  8
0
 62
7
 10
72.89587346954724
 20
48.86411865384764
 70
0
  0
SEQEND
  5
7CDE
  8
0
  0
POLYLINE
  5
6C5B
  8
0
 62
7
 66
1
 70
0
 10
0
 20
0
 30
0
  0
VERTEX
  5
7CDF
  8
0
 62
7
 10
72.937214615370223
 20
48.609181587939119
 70
0
  0
VERTEX
  5
7CE0
  8
0
 62
7
 10
72.937214615370223
 20
48.525121258099027
 70
0
  0
SEQEND
  5
7CE1
  8
0
  0
POLYLINE
  5
6C5F
  8
0
 62
7
 66
1
 70
0
 10
0
 20
0
 30
0
  0
VERTEX
  5
7CE2
  8
0
 62
7
 10
73.022652983404456
 20
48.7788525405877
 70
0
  0
VERTEX
  5
7CE3
  8
0
 62
7
 10
72.979933799387339
 20
48.7788525405877
 70
0
  0
VERTEX
  5
7CE4
  8
0
 62
7
 10
72.979933799387339
 20
48.8213994698305
 70
0
  0
VERTEX
  5
7CE5
  8
0
 62
7
 10
72.937214615370223
 20
48.8213994698305
 70
0
  0
VERTEX
  5
7CE6
  8
0
 62
7
 10
72.937214615370223
 20
48.86411865384764
 70
0
  0
VERTEX
  5
7CE7
  8
0
 62
7
 10
72.89587346954724
 20
48.86411865384764
 70
0
  0
SEQEND
  5
7CE8
  8
0
  0
POLYLINE
  5
6C67
  8
0
 62
7
 66
1
 70
0
 10
0
 20
0
 30
0
  0
VERTEX
  5
7CE9
  8
0
 62
7
 10
71.414482410889818
 20
49.074786242770642
 70
0
  0
VERTEX
  5
7CEA
  8
0
 62
7
 10
71.414482410889818
 20
49.160569120353387
 70
0
  0
SEQEND
  5
7CEB
  8
0
  0
POLYLINE
  5
6C6B
  8
0
 62
7
 66
1
 70
0
 10
0
 20
0
 30
0
  0
VERTEX
  5
7CEC
  8
0
 62
7
 10
73.065372167421557
 20
48.737166885216141
 70
0
  0
VERTEX
  5
7CED
  8
0
 62
7
 10
73.022652983404456
 20
48.737166885216141
 70
0
  0
VERTEX
  5
7CEE
  8
0
 62
7
 10
73.022652983404456
 20
48.694447701199067
 70
0
  0
VERTEX
  5
7CEF
  8
0
 62
7
 10
72.979933799387339
 20
48.694447701199067
 70
0
  0
SEQEND
  5
7CF0
  8
0
  0
POLYLINE
  5
6C71
  8
0
 62
7
 66
1
 70
0
 10
0
 20
0
 30
0
  0
VERTEX
  5
7CF1
  8
0
 62
7
 10
72.810435101513008
 20
46.704905058467247
 70
0
  0
VERTEX
  5
7CF2
  8
0
 62
7
 10
72.769093955690053
 20
46.704905058467247
 70
0
  0
VERTEX
  5
7CF3
  8
0
 62
7
 10
72.726374771672937
 20
46.704905058467247
 70
0
  0
VERTEX
  5
7CF4
  8
0
 62
7
 10
72.726374771672937
 20
46.747451987710107
 70
0
  0
VERTEX
  5
7CF5
  8
0
 62
7
 10
72.683655587655863
 20
46.747451987710107
 70
0
  0
SEQEND
  5
7CF6
  8
0
  0
POLYLINE
  5
6C78
  8
0
 62
7
 66
1
 70
0
 10
0
 20
0
 30
0
  0
VERTEX
  5
7CF7
  8
0
 62
7
 10
69.297815744752313
 20
44.122116973175459
 70
0
  0
VERTEX
  5
7CF8
  8
0
 62
7
 10
69.297815744752313
 20
44.122116973175459
 70
0
  0
VERTEX
  5
7CF9
  8
0
 62
7
 10
69.33915689057531
 20
44.165180666741087
 70
0
  0
VERTEX
  5
7CFA
  8
0
 62
7
 10
69.381876074592412
 20
44.165180666741087
 70
0
  0
VERTEX
  5
7CFB
  8
0
 62
7
 10
69.424595258609529
 20
44.165180666741087
 70
0
  0
VERTEX
  5
7CFC
  8
0
 62
7
 10
69.424595258609529
 20
44.20789985075821
 70
0
  0
VERTEX
  5
7CFD
  8
0
 62
7
 10
69.467314442626588
 20
44.20789985075821
 70
0
  0
VERTEX
  5
7CFE
  8
0
 62
7
 10
69.508655588449628
 20
44.20789985075821
 70
0
  0
VERTEX
  5
7CFF
  8
0
 62
7
 10
69.508655588449628
 20
44.25044678000102
 70
0
  0
VERTEX
  5
7D00
  8
0
 62
7
 10
69.551374772466687
 20
44.25044678000102
 70
0
  0
VERTEX
  5
7D01
  8
0
 62
7
 10
69.551374772466687
 20
44.291787925824053
 70
0
  0
VERTEX
  5
7D02
  8
0
 62
7
 10
69.594093956483775
 20
44.291787925824053
 70
0
  0
VERTEX
  5
7D03
  8
0
 62
7
 10
69.635435102306786
 20
44.291787925824053
 70
0
  0
VERTEX
  5
7D04
  8
0
 62
7
 10
69.635435102306786
 20
44.334507109841127
 70
0
  0
VERTEX
  5
7D05
  8
0
 62
7
 10
69.678154286323888
 20
44.334507109841127
 70
0
  0
VERTEX
  5
7D06
  8
0
 62
7
 10
69.72087347034099
 20
44.377226293858257
 70
0
  0
VERTEX
  5
7D07
  8
0
 62
7
 10
69.763592654358092
 20
44.418395184906942
 70
0
  0
VERTEX
  5
7D08
  8
0
 62
7
 10
69.80493380018109
 20
44.418395184906942
 70
0
  0
VERTEX
  5
7D09
  8
0
 62
7
 10
69.80493380018109
 20
44.461114368924072
 70
0
  0
VERTEX
  5
7D0A
  8
0
 62
7
 10
69.847652984198191
 20
44.461114368924072
 70
0
  0
VERTEX
  5
7D0B
  8
0
 62
7
 10
69.847652984198191
 20
44.50383355294116
 70
0
  0
VERTEX
  5
7D0C
  8
0
 62
7
 10
69.890372168215279
 20
44.50383355294116
 70
0
  0
VERTEX
  5
7D0D
  8
0
 62
7
 10
69.890372168215279
 20
44.546897246506767
 70
0
  0
VERTEX
  5
7D0E
  8
0
 62
7
 10
69.931713314038291
 20
44.546897246506767
 70
0
  0
VERTEX
  5
7D0F
  8
0
 62
7
 10
69.931713314038291
 20
44.588066137555529
 70
0
  0
VERTEX
  5
7D10
  8
0
 62
7
 10
69.974432498055364
 20
44.588066137555529
 70
0
  0
VERTEX
  5
7D11
  8
0
 62
7
 10
69.974432498055364
 20
44.6307853215726
 70
0
  0
VERTEX
  5
7D12
  8
0
 62
7
 10
70.017151682072466
 20
44.6307853215726
 70
0
  0
VERTEX
  5
7D13
  8
0
 62
7
 10
70.017151682072466
 20
44.673504505589719
 70
0
  0
VERTEX
  5
7D14
  8
0
 62
7
 10
70.059870866089568
 20
44.673504505589719
 70
0
  0
VERTEX
  5
7D15
  8
0
 62
7
 10
70.059870866089568
 20
44.7148456514127
 70
0
  0
VERTEX
  5
7D16
  8
0
 62
7
 10
70.10121201191258
 20
44.757564835429832
 70
0
  0
VERTEX
  5
7D17
  8
0
 62
7
 10
70.10121201191258
 20
44.800111764672643
 70
0
  0
VERTEX
  5
7D18
  8
0
 62
7
 10
70.143931195929653
 20
44.800111764672643
 70
0
  0
VERTEX
  5
7D19
  8
0
 62
7
 10
70.143931195929653
 20
44.842830948689773
 70
0
  0
VERTEX
  5
7D1A
  8
0
 62
7
 10
70.186650379946769
 20
44.842830948689773
 70
0
  0
VERTEX
  5
7D1B
  8
0
 62
7
 10
70.186650379946769
 20
44.927235788078349
 70
0
  0
VERTEX
  5
7D1C
  8
0
 62
7
 10
70.227991525769781
 20
44.927235788078349
 70
0
  0
VERTEX
  5
7D1D
  8
0
 62
7
 10
70.270710709786869
 20
44.927235788078349
 70
0
  0
VERTEX
  5
7D1E
  8
0
 62
7
 10
70.270710709786869
 20
45.011123863144157
 70
0
  0
VERTEX
  5
7D1F
  8
0
 62
7
 10
70.313429893803971
 20
45.011123863144157
 70
0
  0
VERTEX
  5
7D20
  8
0
 62
7
 10
70.313429893803971
 20
45.096562231178382
 70
0
  0
VERTEX
  5
7D21
  8
0
 62
7
 10
70.356149077821073
 20
45.096562231178382
 70
0
  0
VERTEX
  5
7D22
  8
0
 62
7
 10
70.39749022364407
 20
45.1392814151955
 70
0
  0
VERTEX
  5
7D23
  8
0
 62
7
 10
70.39749022364407
 20
45.223513999809882
 70
0
  0
VERTEX
  5
7D24
  8
0
 62
7
 10
70.440209407661143
 20
45.223513999809882
 70
0
  0
VERTEX
  5
7D25
  8
0
 62
7
 10
70.440209407661143
 20
45.3087801130698
 70
0
  0
VERTEX
  5
7D26
  8
0
 62
7
 10
70.482928591678245
 20
45.3087801130698
 70
0
  0
VERTEX
  5
7D27
  8
0
 62
7
 10
70.524269737501214
 20
45.350121258892777
 70
0
  0
VERTEX
  5
7D28
  8
0
 62
7
 10
70.524269737501214
 20
45.435559626926967
 70
0
  0
VERTEX
  5
7D29
  8
0
 62
7
 10
70.566988921518345
 20
45.435559626926967
 70
0
  0
VERTEX
  5
7D2A
  8
0
 62
7
 10
70.566988921518345
 20
45.51944770199281
 70
0
  0
VERTEX
  5
7D2B
  8
0
 62
7
 10
70.609708105535447
 20
45.562166886009891
 70
0
  0
VERTEX
  5
7D2C
  8
0
 62
7
 10
70.652427289552534
 20
45.60523057957554
 70
0
  0
VERTEX
  5
7D2D
  8
0
 62
7
 10
70.652427289552534
 20
45.689118654641391
 70
0
  0
VERTEX
  5
7D2E
  8
0
 62
7
 10
70.693768435375546
 20
45.689118654641391
 70
0
  0
VERTEX
  5
7D2F
  8
0
 62
7
 10
70.693768435375546
 20
45.815898168498563
 70
0
  0
VERTEX
  5
7D30
  8
0
 62
7
 10
70.736487619392634
 20
45.815898168498563
 70
0
  0
VERTEX
  5
7D31
  8
0
 62
7
 10
70.736487619392634
 20
45.858445097741424
 70
0
  0
VERTEX
  5
7D32
  8
0
 62
7
 10
70.77920680340975
 20
45.858445097741424
 70
0
  0
VERTEX
  5
7D33
  8
0
 62
7
 10
70.77920680340975
 20
45.98556912114713
 70
0
  0
VERTEX
  5
7D34
  8
0
 62
7
 10
70.821925987426823
 20
45.98556912114713
 70
0
  0
VERTEX
  5
7D35
  8
0
 62
7
 10
70.821925987426823
 20
46.112176380230039
 70
0
  0
VERTEX
  5
7D36
  8
0
 62
7
 10
70.863267133249849
 20
46.15489556424717
 70
0
  0
VERTEX
  5
7D37
  8
0
 62
7
 10
70.863267133249849
 20
46.197614748264243
 70
0
  0
VERTEX
  5
7D38
  8
0
 62
7
 10
70.905986317266922
 20
46.238783639312992
 70
0
  0
VERTEX
  5
7D39
  8
0
 62
7
 10
70.905986317266922
 20
46.365735407944442
 70
0
  0
VERTEX
  5
7D3A
  8
0
 62
7
 10
70.948705501284024
 20
46.365735407944442
 70
0
  0
VERTEX
  5
7D3B
  8
0
 62
7
 10
70.948705501284024
 20
46.4938929599957
 70
0
  0
VERTEX
  5
7D3C
  8
0
 62
7
 10
70.948705501284024
 20
46.577781035061541
 70
0
  0
VERTEX
  5
7D3D
  8
0
 62
7
 10
70.990046647107022
 20
46.577781035061541
 70
0
  0
VERTEX
  5
7D3E
  8
0
 62
7
 10
70.990046647107022
 20
46.662185874450181
 70
0
  0
VERTEX
  5
7D3F
  8
0
 62
7
 10
71.032765831124124
 20
46.704732803693027
 70
0
  0
VERTEX
  5
7D40
  8
0
 62
7
 10
71.032765831124124
 20
46.87423150156728
 70
0
  0
VERTEX
  5
7D41
  8
0
 62
7
 10
71.075485015141226
 20
46.87423150156728
 70
0
  0
VERTEX
  5
7D42
  8
0
 62
7
 10
71.075485015141226
 20
47.086449383458721
 70
0
  0
SEQEND
  5
7D43
  8
0
  0
POLYLINE
  5
6CC6
  8
0
 62
7
 66
1
 70
0
 10
0
 20
0
 30
0
  0
VERTEX
  5
7D44
  8
0
 62
7
 10
72.937214615370223
 20
48.737166885216141
 70
0
  0
VERTEX
  5
7D45
  8
0
 62
7
 10
72.810435101513008
 20
48.7788525405877
 70
0
  0
VERTEX
  5
7D46
  8
0
 62
7
 10
72.599595257815764
 20
48.7788525405877
 70
0
  0
VERTEX
  5
7D47
  8
0
 62
7
 10
72.472815743958563
 20
48.8213994698305
 70
0
  0
VERTEX
  5
7D48
  8
0
 62
7
 10
72.387377375924373
 20
48.86411865384764
 70
0
  0
VERTEX
  5
7D49
  8
0
 62
7
 10
72.260597862067144
 20
48.86411865384764
 70
0
  0
VERTEX
  5
7D4A
  8
0
 62
7
 10
72.175159494032982
 20
48.905459799670609
 70
0
  0
VERTEX
  5
7D4B
  8
0
 62
7
 10
71.964319650335682
 20
48.905459799670609
 70
0
  0
VERTEX
  5
7D4C
  8
0
 62
7
 10
71.837540136478481
 20
48.94817898368774
 70
0
  0
VERTEX
  5
7D4D
  8
0
 62
7
 10
71.7521017684443
 20
48.990898167704813
 70
0
  0
VERTEX
  5
7D4E
  8
0
 62
7
 10
71.6253222545871
 20
48.990898167704813
 70
0
  0
SEQEND
  5
7D4F
  8
0
  0
POLYLINE
  5
6CD3
  8
0
 62
7
 66
1
 70
0
 10
0
 20
0
 30
0
  0
VERTEX
  5
7D50
  8
0
 62
7
 10
72.979933799387339
 20
48.694447701199067
 70
0
  0
VERTEX
  5
7D51
  8
0
 62
7
 10
72.979933799387339
 20
48.737166885216141
 70
0
  0
VERTEX
  5
7D52
  8
0
 62
7
 10
72.937214615370223
 20
48.737166885216141
 70
0
  0
SEQEND
  5
7D53
  8
0
  0
POLYLINE
  5
6CD8
  8
0
 62
7
 66
1
 70
0
 10
0
 20
0
 30
0
  0
VERTEX
  5
7D54
  8
0
 62
7
 10
72.937214615370223
 20
48.609181587939119
 70
0
  0
VERTEX
  5
7D55
  8
0
 62
7
 10
72.979933799387339
 20
48.609181587939119
 70
0
  0
VERTEX
  5
7D56
  8
0
 62
7
 10
72.979933799387339
 20
48.694447701199067
 70
0
  0
SEQEND
  5
7D57
  8
0
  0
POLYLINE
  5
6CDD
  8
0
 62
7
 66
1
 70
0
 10
0
 20
0
 30
0
  0
VERTEX
  5
7D58
  8
0
 62
7
 10
71.6253222545871
 20
48.94817898368774
 70
0
  0
VERTEX
  5
7D59
  8
0
 62
7
 10
71.7521017684443
 20
48.905459799670609
 70
0
  0
VERTEX
  5
7D5A
  8
0
 62
7
 10
71.878881282301478
 20
48.905459799670609
 70
0
  0
VERTEX
  5
7D5B
  8
0
 62
7
 10
72.007038834352784
 20
48.86411865384764
 70
0
  0
VERTEX
  5
7D5C
  8
0
 62
7
 10
72.133818348209985
 20
48.8213994698305
 70
0
  0
VERTEX
  5
7D5D
  8
0
 62
7
 10
72.260597862067144
 20
48.7788525405877
 70
0
  0
VERTEX
  5
7D5E
  8
0
 62
7
 10
72.387377375924373
 20
48.737166885216141
 70
0
  0
VERTEX
  5
7D5F
  8
0
 62
7
 10
72.556876073798662
 20
48.737166885216141
 70
0
  0
VERTEX
  5
7D60
  8
0
 62
7
 10
72.683655587655863
 20
48.651728517182
 70
0
  0
VERTEX
  5
7D61
  8
0
 62
7
 10
72.810435101513008
 20
48.651728517182
 70
0
  0
VERTEX
  5
7D62
  8
0
 62
7
 10
72.937214615370223
 20
48.609181587939119
 70
0
  0
SEQEND
  5
7D63
  8
0
  0
POLYLINE
  5
6CEA
  8
0
 62
7
 66
1
 70
0
 10
0
 20
0
 30
0
  0
VERTEX
  5
7D64
  8
0
 62
7
 10
71.6253222545871
 20
48.94817898368774
 70
0
  0
VERTEX
  5
7D65
  8
0
 62
7
 10
71.6253222545871
 20
48.990898167704813
 70
0
  0
SEQEND
  5
7D66
  8
0
  0
POLYLINE
  5
6CEE
  8
0
 62
7
 66
1
 70
0
 10
0
 20
0
 30
0
  0
VERTEX
  5
7D67
  8
0
 62
7
 10
35.2644064650662
 20
44.884516604061261
 70
0
  0
VERTEX
  5
7D68
  8
0
 62
7
 10
35.2644064650662
 20
44.927235788078349
 70
0
  0
VERTEX
  5
7D69
  8
0
 62
7
 10
35.307125649083311
 20
44.927235788078349
 70
0
  0
VERTEX
  5
7D6A
  8
0
 62
7
 10
35.348466794906287
 20
44.927235788078349
 70
0
  0
VERTEX
  5
7D6B
  8
0
 62
7
 10
35.39118597892341
 20
44.927235788078349
 70
0
  0
VERTEX
  5
7D6C
  8
0
 62
7
 10
35.433905162940512
 20
44.927235788078349
 70
0
  0
VERTEX
  5
7D6D
  8
0
 62
7
 10
35.475246308763509
 20
44.927235788078349
 70
0
  0
VERTEX
  5
7D6E
  8
0
 62
7
 10
35.517965492780611
 20
44.927235788078349
 70
0
  0
VERTEX
  5
7D6F
  8
0
 62
7
 10
35.56068467679772
 20
44.927235788078349
 70
0
  0
VERTEX
  5
7D70
  8
0
 62
7
 10
35.603403860814808
 20
44.927235788078349
 70
0
  0
VERTEX
  5
7D71
  8
0
 62
7
 10
35.603403860814808
 20
44.884516604061261
 70
0
  0
VERTEX
  5
7D72
  8
0
 62
7
 10
35.644745006637812
 20
44.884516604061261
 70
0
  0
VERTEX
  5
7D73
  8
0
 62
7
 10
35.687464190654907
 20
44.884516604061261
 70
0
  0
VERTEX
  5
7D74
  8
0
 62
7
 10
35.687464190654907
 20
44.842830948689773
 70
0
  0
VERTEX
  5
7D75
  8
0
 62
7
 10
35.730183374671967
 20
44.842830948689773
 70
0
  0
VERTEX
  5
7D76
  8
0
 62
7
 10
35.730183374671967
 20
44.800111764672643
 70
0
  0
VERTEX
  5
7D77
  8
0
 62
7
 10
35.771524520494978
 20
44.800111764672643
 70
0
  0
VERTEX
  5
7D78
  8
0
 62
7
 10
35.771524520494978
 20
44.757564835429832
 70
0
  0
SEQEND
  5
7D79
  8
0
  0
POLYLINE
  5
6D02
  8
0
 62
7
 66
1
 70
0
 10
0
 20
0
 30
0
  0
VERTEX
  5
7D7A
  8
0
 62
7
 10
35.137626951209029
 20
44.757564835429832
 70
0
  0
VERTEX
  5
7D7B
  8
0
 62
7
 10
35.137626951209029
 20
44.842830948689773
 70
0
  0
VERTEX
  5
7D7C
  8
0
 62
7
 10
35.178968097032033
 20
44.842830948689773
 70
0
  0
VERTEX
  5
7D7D
  8
0
 62
7
 10
35.221687281049142
 20
44.842830948689773
 70
0
  0
VERTEX
  5
7D7E
  8
0
 62
7
 10
35.221687281049142
 20
44.884516604061261
 70
0
  0
VERTEX
  5
7D7F
  8
0
 62
7
 10
35.2644064650662
 20
44.884516604061261
 70
0
  0
SEQEND
  5
7D80
  8
0
  0
POLYLINE
  5
6D0A
  8
0
 62
7
 66
1
 70
0
 10
0
 20
0
 30
0
  0
VERTEX
  5
7D81
  8
0
 62
7
 10
35.730183374671967
 20
43.276173776772389
 70
0
  0
VERTEX
  5
7D82
  8
0
 62
7
 10
35.771524520494978
 20
43.276173776772389
 70
0
  0
VERTEX
  5
7D83
  8
0
 62
7
 10
35.81424370451208
 20
43.276173776772389
 70
0
  0
VERTEX
  5
7D84
  8
0
 62
7
 10
35.81424370451208
 20
43.318892960789469
 70
0
  0
SEQEND
  5
7D85
  8
0
  0
POLYLINE
  5
6D10
  8
0
 62
7
 66
1
 70
0
 10
0
 20
0
 30
0
  0
VERTEX
  5
7D86
  8
0
 62
7
 10
35.730183374671967
 20
43.276173776772389
 70
0
  0
VERTEX
  5
7D87
  8
0
 62
7
 10
35.730183374671967
 20
43.233454592755251
 70
0
  0
VERTEX
  5
7D88
  8
0
 62
7
 10
35.687464190654907
 20
43.233454592755251
 70
0
  0
VERTEX
  5
7D89
  8
0
 62
7
 10
35.644745006637812
 20
43.233454592755251
 70
0
  0
VERTEX
  5
7D8A
  8
0
 62
7
 10
35.644745006637812
 20
43.192285701706567
 70
0
  0
VERTEX
  5
7D8B
  8
0
 62
7
 10
35.603403860814808
 20
43.192285701706567
 70
0
  0
VERTEX
  5
7D8C
  8
0
 62
7
 10
35.56068467679772
 20
43.192285701706567
 70
0
  0
VERTEX
  5
7D8D
  8
0
 62
7
 10
35.517965492780611
 20
43.192285701706567
 70
0
  0
VERTEX
  5
7D8E
  8
0
 62
7
 10
35.475246308763509
 20
43.192285701706567
 70
0
  0
VERTEX
  5
7D8F
  8
0
 62
7
 10
35.433905162940512
 20
43.192285701706567
 70
0
  0
VERTEX
  5
7D90
  8
0
 62
7
 10
35.39118597892341
 20
43.192285701706567
 70
0
  0
VERTEX
  5
7D91
  8
0
 62
7
 10
35.348466794906287
 20
43.192285701706567
 70
0
  0
VERTEX
  5
7D92
  8
0
 62
7
 10
35.307125649083311
 20
43.192285701706567
 70
0
  0
VERTEX
  5
7D93
  8
0
 62
7
 10
35.2644064650662
 20
43.192285701706567
 70
0
  0
VERTEX
  5
7D94
  8
0
 62
7
 10
35.2644064650662
 20
43.233454592755251
 70
0
  0
VERTEX
  5
7D95
  8
0
 62
7
 10
35.221687281049142
 20
43.233454592755251
 70
0
  0
VERTEX
  5
7D96
  8
0
 62
7
 10
35.178968097032033
 20
43.233454592755251
 70
0
  0
VERTEX
  5
7D97
  8
0
 62
7
 10
35.137626951209029
 20
43.233454592755251
 70
0
  0
VERTEX
  5
7D98
  8
0
 62
7
 10
35.137626951209029
 20
43.276173776772389
 70
0
  0
VERTEX
  5
7D99
  8
0
 62
7
 10
35.094907767191927
 20
43.276173776772389
 70
0
  0
VERTEX
  5
7D9A
  8
0
 62
7
 10
35.094907767191927
 20
43.318892960789469
 70
0
  0
SEQEND
  5
7D9B
  8
0
  0
POLYLINE
  5
6D27
  8
0
 62
7
 66
1
 70
0
 10
0
 20
0
 30
0
  0
VERTEX
  5
7D9C
  8
0
 62
7
 10
35.771524520494978
 20
44.757564835429832
 70
0
  0
VERTEX
  5
7D9D
  8
0
 62
7
 10
35.771524520494978
 20
44.800111764672643
 70
0
  0
VERTEX
  5
7D9E
  8
0
 62
7
 10
35.730183374671967
 20
44.800111764672643
 70
0
  0
VERTEX
  5
7D9F
  8
0
 62
7
 10
35.687464190654907
 20
44.800111764672643
 70
0
  0
VERTEX
  5
7DA0
  8
0
 62
7
 10
35.644745006637812
 20
44.800111764672643
 70
0
  0
VERTEX
  5
7DA1
  8
0
 62
7
 10
35.644745006637812
 20
44.842830948689773
 70
0
  0
VERTEX
  5
7DA2
  8
0
 62
7
 10
35.603403860814808
 20
44.842830948689773
 70
0
  0
VERTEX
  5
7DA3
  8
0
 62
7
 10
35.56068467679772
 20
44.842830948689773
 70
0
  0
VERTEX
  5
7DA4
  8
0
 62
7
 10
35.517965492780611
 20
44.842830948689773
 70
0
  0
VERTEX
  5
7DA5
  8
0
 62
7
 10
35.475246308763509
 20
44.842830948689773
 70
0
  0
VERTEX
  5
7DA6
  8
0
 62
7
 10
35.433905162940512
 20
44.842830948689773
 70
0
  0
VERTEX
  5
7DA7
  8
0
 62
7
 10
35.39118597892341
 20
44.842830948689773
 70
0
  0
VERTEX
  5
7DA8
  8
0
 62
7
 10
35.348466794906287
 20
44.842830948689773
 70
0
  0
VERTEX
  5
7DA9
  8
0
 62
7
 10
35.307125649083311
 20
44.842830948689773
 70
0
  0
VERTEX
  5
7DAA
  8
0
 62
7
 10
35.2644064650662
 20
44.842830948689773
 70
0
  0
VERTEX
  5
7DAB
  8
0
 62
7
 10
35.221687281049142
 20
44.842830948689773
 70
0
  0
VERTEX
  5
7DAC
  8
0
 62
7
 10
35.221687281049142
 20
44.800111764672643
 70
0
  0
SEQEND
  5
7DAD
  8
0
  0
POLYLINE
  5
6D3A
  8
0
 62
7
 66
1
 70
0
 10
0
 20
0
 30
0
  0
VERTEX
  5
7DAE
  8
0
 62
7
 10
35.094907767191927
 20
43.318892960789469
 70
0
  0
VERTEX
  5
7DAF
  8
0
 62
7
 10
35.137626951209029
 20
43.318892960789469
 70
0
  0
VERTEX
  5
7DB0
  8
0
 62
7
 10
35.137626951209029
 20
43.3616121448066
 70
0
  0
SEQEND
  5
7DB1
  8
0
  0
POLYLINE
  5
6D3F
  8
0
 62
7
 66
1
 70
0
 10
0
 20
0
 30
0
  0
VERTEX
  5
7DB2
  8
0
 62
7
 10
35.137626951209029
 20
44.757564835429832
 70
0
  0
VERTEX
  5
7DB3
  8
0
 62
7
 10
35.137626951209029
 20
44.800111764672643
 70
0
  0
VERTEX
  5
7DB4
  8
0
 62
7
 10
35.178968097032033
 20
44.800111764672643
 70
0
  0
VERTEX
  5
7DB5
  8
0
 62
7
 10
35.221687281049142
 20
44.800111764672643
 70
0
  0
SEQEND
  5
7DB6
  8
0
  0
POLYLINE
  5
6D45
  8
0
 62
7
 66
1
 70
0
 10
0
 20
0
 30
0
  0
VERTEX
  5
7DB7
  8
0
 62
7
 10
35.81424370451208
 20
43.318892960789469
 70
0
  0
VERTEX
  5
7DB8
  8
0
 62
7
 10
35.771524520494978
 20
43.318892960789469
 70
0
  0
VERTEX
  5
7DB9
  8
0
 62
7
 10
35.771524520494978
 20
43.3616121448066
 70
0
  0
VERTEX
  5
7DBA
  8
0
 62
7
 10
35.730183374671967
 20
43.3616121448066
 70
0
  0
VERTEX
  5
7DBB
  8
0
 62
7
 10
35.730183374671967
 20
43.402781035855291
 70
0
  0
VERTEX
  5
7DBC
  8
0
 62
7
 10
35.687464190654907
 20
43.402781035855291
 70
0
  0
VERTEX
  5
7DBD
  8
0
 62
7
 10
35.644745006637812
 20
43.402781035855291
 70
0
  0
VERTEX
  5
7DBE
  8
0
 62
7
 10
35.603403860814808
 20
43.402781035855291
 70
0
  0
VERTEX
  5
7DBF
  8
0
 62
7
 10
35.56068467679772
 20
43.402781035855291
 70
0
  0
VERTEX
  5
7DC0
  8
0
 62
7
 10
35.517965492780611
 20
43.402781035855291
 70
0
  0
VERTEX
  5
7DC1
  8
0
 62
7
 10
35.475246308763509
 20
43.402781035855291
 70
0
  0
VERTEX
  5
7DC2
  8
0
 62
7
 10
35.433905162940512
 20
43.402781035855291
 70
0
  0
VERTEX
  5
7DC3
  8
0
 62
7
 10
35.39118597892341
 20
43.402781035855291
 70
0
  0
VERTEX
  5
7DC4
  8
0
 62
7
 10
35.348466794906287
 20
43.402781035855291
 70
0
  0
VERTEX
  5
7DC5
  8
0
 62
7
 10
35.307125649083311
 20
43.402781035855291
 70
0
  0
VERTEX
  5
7DC6
  8
0
 62
7
 10
35.2644064650662
 20
43.402781035855291
 70
0
  0
VERTEX
  5
7DC7
  8
0
 62
7
 10
35.221687281049142
 20
43.402781035855291
 70
0
  0
VERTEX
  5
7DC8
  8
0
 62
7
 10
35.178968097032033
 20
43.402781035855291
 70
0
  0
VERTEX
  5
7DC9
  8
0
 62
7
 10
35.178968097032033
 20
43.3616121448066
 70
0
  0
VERTEX
  5
7DCA
  8
0
 62
7
 10
35.137626951209029
 20
43.3616121448066
 70
0
  0
SEQEND
  5
7DCB
  8
0
  0
POLYLINE
  5
6D5B
  8
0
 62
7
 66
1
 70
0
 10
0
 20
0
 30
0
  0
VERTEX
  5
7DCC
  8
0
 62
7
 10
22.014569228795349
 20
53.816787923442789
 70
0
  0
VERTEX
  5
7DCD
  8
0
 62
7
 10
22.014569228795349
 20
53.816787923442789
 70
0
  0
VERTEX
  5
7DCE
  8
0
 62
7
 10
22.057288412812419
 20
53.858129069265772
 70
0
  0
VERTEX
  5
7DCF
  8
0
 62
7
 10
22.100007596829531
 20
53.858129069265772
 70
0
  0
VERTEX
  5
7DD0
  8
0
 62
7
 10
22.141348742652529
 20
53.858129069265772
 70
0
  0
VERTEX
  5
7DD1
  8
0
 62
7
 10
22.141348742652529
 20
53.9008482532829
 70
0
  0
VERTEX
  5
7DD2
  8
0
 62
7
 10
22.184067926669631
 20
53.9008482532829
 70
0
  0
VERTEX
  5
7DD3
  8
0
 62
7
 10
22.184067926669631
 20
53.943395182525713
 70
0
  0
VERTEX
  5
7DD4
  8
0
 62
7
 10
22.226787110686718
 20
53.943395182525713
 70
0
  0
VERTEX
  5
7DD5
  8
0
 62
7
 10
22.269506294703831
 20
53.943395182525713
 70
0
  0
VERTEX
  5
7DD6
  8
0
 62
7
 10
22.269506294703831
 20
53.98611436654285
 70
0
  0
VERTEX
  5
7DD7
  8
0
 62
7
 10
22.310847440526832
 20
53.98611436654285
 70
0
  0
VERTEX
  5
7DD8
  8
0
 62
7
 10
22.310847440526832
 20
54.027800021914338
 70
0
  0
VERTEX
  5
7DD9
  8
0
 62
7
 10
22.35356662454393
 20
54.027800021914338
 70
0
  0
VERTEX
  5
7DDA
  8
0
 62
7
 10
22.396285808561029
 20
54.070519205931433
 70
0
  0
VERTEX
  5
7DDB
  8
0
 62
7
 10
22.437626954384029
 20
54.070519205931433
 70
0
  0
VERTEX
  5
7DDC
  8
0
 62
7
 10
22.437626954384029
 20
54.113066135174279
 70
0
  0
VERTEX
  5
7DDD
  8
0
 62
7
 10
22.480346138401131
 20
54.113066135174279
 70
0
  0
VERTEX
  5
7DDE
  8
0
 62
7
 10
22.523065322418208
 20
54.154407280997241
 70
0
  0
VERTEX
  5
7DDF
  8
0
 62
7
 10
22.523065322418208
 20
54.197126465014371
 70
0
  0
VERTEX
  5
7DE0
  8
0
 62
7
 10
22.56578450643531
 20
54.197126465014371
 70
0
  0
VERTEX
  5
7DE1
  8
0
 62
7
 10
22.56578450643531
 20
54.239845649031452
 70
0
  0
VERTEX
  5
7DE2
  8
0
 62
7
 10
22.6071256522583
 20
54.239845649031452
 70
0
  0
VERTEX
  5
7DE3
  8
0
 62
7
 10
22.64984483627541
 20
54.282564833048582
 70
0
  0
VERTEX
  5
7DE4
  8
0
 62
7
 10
22.64984483627541
 20
54.323733724097281
 70
0
  0
VERTEX
  5
7DE5
  8
0
 62
7
 10
22.692564020292512
 20
54.323733724097281
 70
0
  0
VERTEX
  5
7DE6
  8
0
 62
7
 10
22.692564020292512
 20
54.366452908114411
 70
0
  0
VERTEX
  5
7DE7
  8
0
 62
7
 10
22.73528320430961
 20
54.366452908114411
 70
0
  0
VERTEX
  5
7DE8
  8
0
 62
7
 10
22.73528320430961
 20
54.409516601680032
 70
0
  0
VERTEX
  5
7DE9
  8
0
 62
7
 10
22.776624350132611
 20
54.409516601680032
 70
0
  0
VERTEX
  5
7DEA
  8
0
 62
7
 10
22.776624350132611
 20
54.45068549272878
 70
0
  0
VERTEX
  5
7DEB
  8
0
 62
7
 10
22.819343534149709
 20
54.45068549272878
 70
0
  0
VERTEX
  5
7DEC
  8
0
 62
7
 10
22.819343534149709
 20
54.536123860762928
 70
0
  0
VERTEX
  5
7DED
  8
0
 62
7
 10
22.862062718166811
 20
54.536123860762928
 70
0
  0
VERTEX
  5
7DEE
  8
0
 62
7
 10
22.862062718166811
 20
54.578843044780072
 70
0
  0
VERTEX
  5
7DEF
  8
0
 62
7
 10
22.903403863989809
 20
54.578843044780072
 70
0
  0
VERTEX
  5
7DF0
  8
0
 62
7
 10
22.903403863989809
 20
54.620184190603027
 70
0
  0
VERTEX
  5
7DF1
  8
0
 62
7
 10
22.94612304800691
 20
54.620184190603027
 70
0
  0
VERTEX
  5
7DF2
  8
0
 62
7
 10
22.94612304800691
 20
54.70545030386296
 70
0
  0
VERTEX
  5
7DF3
  8
0
 62
7
 10
22.98884223202398
 20
54.70545030386296
 70
0
  0
VERTEX
  5
7DF4
  8
0
 62
7
 10
22.98884223202398
 20
54.748513997428631
 70
0
  0
VERTEX
  5
7DF5
  8
0
 62
7
 10
23.03156141604109
 20
54.748513997428631
 70
0
  0
VERTEX
  5
7DF6
  8
0
 62
7
 10
23.03156141604109
 20
54.83240207249446
 70
0
  0
VERTEX
  5
7DF7
  8
0
 62
7
 10
23.07290256186409
 20
54.83240207249446
 70
0
  0
VERTEX
  5
7DF8
  8
0
 62
7
 10
23.07290256186409
 20
54.875121256511541
 70
0
  0
VERTEX
  5
7DF9
  8
0
 62
7
 10
23.115621745881182
 20
54.916462402334567
 70
0
  0
VERTEX
  5
7DFA
  8
0
 62
7
 10
23.115621745881182
 20
54.959181586351633
 70
0
  0
VERTEX
  5
7DFB
  8
0
 62
7
 10
23.158340929898291
 20
54.959181586351633
 70
0
  0
VERTEX
  5
7DFC
  8
0
 62
7
 10
23.158340929898291
 20
55.001728515594493
 70
0
  0
VERTEX
  5
7DFD
  8
0
 62
7
 10
23.199682075721292
 20
55.044447699611567
 70
0
  0
VERTEX
  5
7DFE
  8
0
 62
7
 10
23.199682075721292
 20
55.1288525390002
 70
0
  0
VERTEX
  5
7DFF
  8
0
 62
7
 10
23.242401259738369
 20
55.1288525390002
 70
0
  0
VERTEX
  5
7E00
  8
0
 62
7
 10
23.242401259738369
 20
55.171399468243
 70
0
  0
VERTEX
  5
7E01
  8
0
 62
7
 10
23.285120443755488
 20
55.212740614066043
 70
0
  0
VERTEX
  5
7E02
  8
0
 62
7
 10
23.285120443755488
 20
55.2554597980831
 70
0
  0
VERTEX
  5
7E03
  8
0
 62
7
 10
23.32783962777259
 20
55.298178982100239
 70
0
  0
VERTEX
  5
7E04
  8
0
 62
7
 10
23.32783962777259
 20
55.382067057166068
 70
0
  0
VERTEX
  5
7E05
  8
0
 62
7
 10
23.369180773595591
 20
55.382067057166068
 70
0
  0
VERTEX
  5
7E06
  8
0
 62
7
 10
23.369180773595591
 20
55.467849934748763
 70
0
  0
VERTEX
  5
7E07
  8
0
 62
7
 10
23.411899957612661
 20
55.467849934748763
 70
0
  0
VERTEX
  5
7E08
  8
0
 62
7
 10
23.411899957612661
 20
55.5944571938317
 70
0
  0
VERTEX
  5
7E09
  8
0
 62
7
 10
23.45461914162976
 20
55.5944571938317
 70
0
  0
VERTEX
  5
7E0A
  8
0
 62
7
 10
23.45461914162976
 20
55.721064452914618
 70
0
  0
VERTEX
  5
7E0B
  8
0
 62
7
 10
23.49596028745276
 20
55.721064452914618
 70
0
  0
VERTEX
  5
7E0C
  8
0
 62
7
 10
23.49596028745276
 20
55.763783636931763
 70
0
  0
VERTEX
  5
7E0D
  8
0
 62
7
 10
23.538679471469852
 20
55.763783636931763
 70
0
  0
VERTEX
  5
7E0E
  8
0
 62
7
 10
23.538679471469852
 20
55.890735405563177
 70
0
  0
VERTEX
  5
7E0F
  8
0
 62
7
 10
23.581398655486971
 20
55.933454589580258
 70
0
  0
VERTEX
  5
7E10
  8
0
 62
7
 10
23.581398655486971
 20
56.1014029944862
 70
0
  0
VERTEX
  5
7E11
  8
0
 62
7
 10
23.62411783950407
 20
56.1014029944862
 70
0
  0
VERTEX
  5
7E12
  8
0
 62
7
 10
23.62411783950407
 20
56.144466688051857
 70
0
  0
VERTEX
  5
7E13
  8
0
 62
7
 10
23.66545898532706
 20
56.187185872068937
 70
0
  0
VERTEX
  5
7E14
  8
0
 62
7
 10
23.66545898532706
 20
56.35651231516897
 70
0
  0
VERTEX
  5
7E15
  8
0
 62
7
 10
23.708178169344169
 20
56.397681206217733
 70
0
  0
VERTEX
  5
7E16
  8
0
 62
7
 10
23.708178169344169
 20
56.610071342883359
 70
0
  0
VERTEX
  5
7E17
  8
0
 62
7
 10
23.750897353361271
 20
56.610071342883359
 70
0
  0
VERTEX
  5
7E18
  8
0
 62
7
 10
23.750897353361271
 20
56.736850856740553
 70
0
  0
VERTEX
  5
7E19
  8
0
 62
7
 10
23.792238499184261
 20
56.736850856740553
 70
0
  0
SEQEND
  5
7E1A
  8
0
  0
POLYLINE
  5
6DAB
  8
0
 62
7
 66
1
 70
0
 10
0
 20
0
 30
0
  0
VERTEX
  5
7E1B
  8
0
 62
7
 10
24.088516710915741
 20
58.769457193037972
 70
0
  0
VERTEX
  5
7E1C
  8
0
 62
7
 10
24.088516710915741
 20
58.810798338860941
 70
0
  0
VERTEX
  5
7E1D
  8
0
 62
7
 10
24.04717556509274
 20
58.810798338860941
 70
0
  0
SEQEND
  5
7E1E
  8
0
  0
POLYLINE
  5
6DB0
  8
0
 62
7
 66
1
 70
0
 10
0
 20
0
 30
0
  0
VERTEX
  5
7E1F
  8
0
 62
7
 10
21.54879231918958
 20
60.504407279409747
 70
0
  0
VERTEX
  5
7E20
  8
0
 62
7
 10
21.507451173366579
 20
60.46168809539266
 70
0
  0
VERTEX
  5
7E21
  8
0
 62
7
 10
21.380671659509371
 20
60.46168809539266
 70
0
  0
VERTEX
  5
7E22
  8
0
 62
7
 10
21.337952475492269
 20
60.420519204343918
 70
0
  0
VERTEX
  5
7E23
  8
0
 62
7
 10
21.252514107458069
 20
60.420519204343918
 70
0
  0
VERTEX
  5
7E24
  8
0
 62
7
 10
21.211172961635071
 20
60.377800020326838
 70
0
  0
VERTEX
  5
7E25
  8
0
 62
7
 10
21.16845377761797
 20
60.334736326761217
 70
0
  0
VERTEX
  5
7E26
  8
0
 62
7
 10
21.0416742637608
 20
60.334736326761217
 70
0
  0
VERTEX
  5
7E27
  8
0
 62
7
 10
20.9989550797437
 20
60.2920171427441
 70
0
  0
VERTEX
  5
7E28
  8
0
 62
7
 10
20.9148947499036
 20
60.2920171427441
 70
0
  0
VERTEX
  5
7E29
  8
0
 62
7
 10
20.87217556588649
 20
60.250848251695388
 70
0
  0
VERTEX
  5
7E2A
  8
0
 62
7
 10
20.829456381869392
 20
60.208129067678271
 70
0
  0
VERTEX
  5
7E2B
  8
0
 62
7
 10
20.745396052029289
 20
60.208129067678271
 70
0
  0
VERTEX
  5
7E2C
  8
0
 62
7
 10
20.70267686801219
 20
60.1654098836612
 70
0
  0
VERTEX
  5
7E2D
  8
0
 62
7
 10
20.65995768399512
 20
60.1654098836612
 70
0
  0
SEQEND
  5
7E2E
  8
0
  0
POLYLINE
  5
6DC1
  8
0
 62
7
 66
1
 70
0
 10
0
 20
0
 30
0
  0
VERTEX
  5
7E2F
  8
0
 62
7
 10
16.46934353573721
 20
58.303852538206449
 70
0
  0
VERTEX
  5
7E30
  8
0
 62
7
 10
16.46934353573721
 20
57.837731119052137
 70
0
  0
VERTEX
  5
7E31
  8
0
 62
7
 10
16.428002389914209
 20
57.79518418980927
 70
0
  0
VERTEX
  5
7E32
  8
0
 62
7
 10
16.428002389914209
 20
57.118395181731962
 70
0
  0
VERTEX
  5
7E33
  8
0
 62
7
 10
16.38528320589711
 20
57.033129068472022
 70
0
  0
VERTEX
  5
7E34
  8
0
 62
7
 10
16.38528320589711
 20
56.526183267817537
 70
0
  0
VERTEX
  5
7E35
  8
0
 62
7
 10
16.342564021880008
 20
56.483119574251873
 70
0
  0
VERTEX
  5
7E36
  8
0
 62
7
 10
16.342564021880008
 20
54.748513997428631
 70
0
  0
VERTEX
  5
7E37
  8
0
 62
7
 10
16.38528320589711
 20
54.70545030386296
 70
0
  0
VERTEX
  5
7E38
  8
0
 62
7
 10
16.38528320589711
 20
54.154407280997241
 70
0
  0
VERTEX
  5
7E39
  8
0
 62
7
 10
16.428002389914209
 20
54.070519205931433
 70
0
  0
VERTEX
  5
7E3A
  8
0
 62
7
 10
16.428002389914209
 20
53.4777905276942
 70
0
  0
VERTEX
  5
7E3B
  8
0
 62
7
 10
16.46934353573721
 20
53.435071343677123
 70
0
  0
VERTEX
  5
7E3C
  8
0
 62
7
 10
16.46934353573721
 20
52.88506184945696
 70
0
  0
SEQEND
  5
7E3D
  8
0
  0
POLYLINE
  5
6DD1
  8
0
 62
7
 66
1
 70
0
 10
0
 20
0
 30
0
  0
VERTEX
  5
7E3E
  8
0
 62
7
 10
16.46934353573721
 20
58.303852538206449
 70
0
  0
VERTEX
  5
7E3F
  8
0
 62
7
 10
16.512062719754312
 20
58.303852538206449
 70
0
  0
VERTEX
  5
7E40
  8
0
 62
7
 10
16.512062719754312
 20
58.387740613272278
 70
0
  0
VERTEX
  5
7E41
  8
0
 62
7
 10
16.554781903771381
 20
58.387740613272278
 70
0
  0
VERTEX
  5
7E42
  8
0
 62
7
 10
16.554781903771381
 20
58.430459797289359
 70
0
  0
VERTEX
  5
7E43
  8
0
 62
7
 10
16.596123049594411
 20
58.430459797289359
 70
0
  0
VERTEX
  5
7E44
  8
0
 62
7
 10
16.596123049594411
 20
58.4731789813065
 70
0
  0
SEQEND
  5
7E45
  8
0
  0
POLYLINE
  5
6DDA
  8
0
 62
7
 66
1
 70
0
 10
0
 20
0
 30
0
  0
VERTEX
  5
7E46
  8
0
 62
7
 10
16.724280601645692
 20
52.5887836377255
 70
0
  0
VERTEX
  5
7E47
  8
0
 62
7
 10
16.681561417628579
 20
52.5887836377255
 70
0
  0
VERTEX
  5
7E48
  8
0
 62
7
 10
16.638842233611481
 20
52.5887836377255
 70
0
  0
VERTEX
  5
7E49
  8
0
 62
7
 10
16.638842233611481
 20
52.631847331291112
 70
0
  0
VERTEX
  5
7E4A
  8
0
 62
7
 10
16.596123049594411
 20
52.631847331291112
 70
0
  0
VERTEX
  5
7E4B
  8
0
 62
7
 10
16.596123049594411
 20
52.673016222339861
 70
0
  0
VERTEX
  5
7E4C
  8
0
 62
7
 10
16.554781903771381
 20
52.673016222339861
 70
0
  0
VERTEX
  5
7E4D
  8
0
 62
7
 10
16.554781903771381
 20
52.801173774391152
 70
0
  0
VERTEX
  5
7E4E
  8
0
 62
7
 10
16.512062719754312
 20
52.801173774391152
 70
0
  0
VERTEX
  5
7E4F
  8
0
 62
7
 10
16.512062719754312
 20
52.8425149202141
 70
0
  0
VERTEX
  5
7E50
  8
0
 62
7
 10
16.46934353573721
 20
52.8425149202141
 70
0
  0
VERTEX
  5
7E51
  8
0
 62
7
 10
16.46934353573721
 20
52.88506184945696
 70
0
  0
SEQEND
  5
7E52
  8
0
  0
POLYLINE
  5
6DE8
  8
0
 62
7
 66
1
 70
0
 10
0
 20
0
 30
0
  0
VERTEX
  5
7E53
  8
0
 62
7
 10
20.533178170137919
 20
54.620184190603027
 70
0
  0
VERTEX
  5
7E54
  8
0
 62
7
 10
20.490458986120821
 20
54.620184190603027
 70
0
  0
VERTEX
  5
7E55
  8
0
 62
7
 10
20.490458986120821
 20
54.578843044780072
 70
0
  0
VERTEX
  5
7E56
  8
0
 62
7
 10
20.44911784029782
 20
54.578843044780072
 70
0
  0
VERTEX
  5
7E57
  8
0
 62
7
 10
20.406398656280711
 20
54.578843044780072
 70
0
  0
VERTEX
  5
7E58
  8
0
 62
7
 10
20.406398656280711
 20
54.536123860762928
 70
0
  0
VERTEX
  5
7E59
  8
0
 62
7
 10
20.363679472263609
 20
54.536123860762928
 70
0
  0
VERTEX
  5
7E5A
  8
0
 62
7
 10
20.363679472263609
 20
54.493404676745847
 70
0
  0
VERTEX
  5
7E5B
  8
0
 62
7
 10
20.322338326440612
 20
54.493404676745847
 70
0
  0
VERTEX
  5
7E5C
  8
0
 62
7
 10
20.27961914242351
 20
54.493404676745847
 70
0
  0
VERTEX
  5
7E5D
  8
0
 62
7
 10
20.27961914242351
 20
54.45068549272878
 70
0
  0
VERTEX
  5
7E5E
  8
0
 62
7
 10
20.236899958406411
 20
54.45068549272878
 70
0
  0
VERTEX
  5
7E5F
  8
0
 62
7
 10
20.194180774389341
 20
54.45068549272878
 70
0
  0
VERTEX
  5
7E60
  8
0
 62
7
 10
20.15283962856634
 20
54.45068549272878
 70
0
  0
VERTEX
  5
7E61
  8
0
 62
7
 10
20.15283962856634
 20
54.409516601680032
 70
0
  0
SEQEND
  5
7E62
  8
0
  0
POLYLINE
  5
6DF9
  8
0
 62
7
 66
1
 70
0
 10
0
 20
0
 30
0
  0
VERTEX
  5
7E63
  8
0
 62
7
 10
22.56578450643531
 20
59.065735404769441
 70
0
  0
VERTEX
  5
7E64
  8
0
 62
7
 10
22.64984483627541
 20
59.023188475526581
 70
0
  0
VERTEX
  5
7E65
  8
0
 62
7
 10
22.776624350132611
 20
59.023188475526581
 70
0
  0
VERTEX
  5
7E66
  8
0
 62
7
 10
22.903403863989809
 20
58.9804692915095
 70
0
  0
VERTEX
  5
7E67
  8
0
 62
7
 10
23.03156141604109
 20
58.938783636138
 70
0
  0
VERTEX
  5
7E68
  8
0
 62
7
 10
23.07290256186409
 20
58.938783636138
 70
0
  0
VERTEX
  5
7E69
  8
0
 62
7
 10
23.199682075721292
 20
58.896064452120868
 70
0
  0
VERTEX
  5
7E6A
  8
0
 62
7
 10
23.32783962777259
 20
58.896064452120868
 70
0
  0
VERTEX
  5
7E6B
  8
0
 62
7
 10
23.45461914162976
 20
58.853517522878072
 70
0
  0
VERTEX
  5
7E6C
  8
0
 62
7
 10
23.538679471469852
 20
58.853517522878072
 70
0
  0
VERTEX
  5
7E6D
  8
0
 62
7
 10
23.66545898532706
 20
58.810798338860941
 70
0
  0
VERTEX
  5
7E6E
  8
0
 62
7
 10
23.750897353361271
 20
58.810798338860941
 70
0
  0
VERTEX
  5
7E6F
  8
0
 62
7
 10
23.87767686721844
 20
58.769457193037972
 70
0
  0
SEQEND
  5
7E70
  8
0
  0
POLYLINE
  5
6E08
  8
0
 62
7
 66
1
 70
0
 10
0
 20
0
 30
0
  0
VERTEX
  5
7E71
  8
0
 62
7
 10
23.87767686721844
 20
58.726738009020842
 70
0
  0
VERTEX
  5
7E72
  8
0
 62
7
 10
23.87767686721844
 20
58.769457193037972
 70
0
  0
SEQEND
  5
7E73
  8
0
  0
POLYLINE
  5
6E0C
  8
0
 62
7
 66
1
 70
0
 10
0
 20
0
 30
0
  0
VERTEX
  5
7E74
  8
0
 62
7
 10
23.87767686721844
 20
58.726738009020842
 70
0
  0
VERTEX
  5
7E75
  8
0
 62
7
 10
23.750897353361271
 20
58.769457193037972
 70
0
  0
VERTEX
  5
7E76
  8
0
 62
7
 10
23.49596028745276
 20
58.769457193037972
 70
0
  0
VERTEX
  5
7E77
  8
0
 62
7
 10
23.369180773595591
 20
58.810798338860941
 70
0
  0
VERTEX
  5
7E78
  8
0
 62
7
 10
23.199682075721292
 20
58.810798338860941
 70
0
  0
VERTEX
  5
7E79
  8
0
 62
7
 10
23.07290256186409
 20
58.810798338860941
 70
0
  0
VERTEX
  5
7E7A
  8
0
 62
7
 10
22.94612304800691
 20
58.853517522878072
 70
0
  0
VERTEX
  5
7E7B
  8
0
 62
7
 10
22.819343534149709
 20
58.896064452120868
 70
0
  0
VERTEX
  5
7E7C
  8
0
 62
7
 10
22.692564020292512
 20
58.896064452120868
 70
0
  0
VERTEX
  5
7E7D
  8
0
 62
7
 10
22.56578450643531
 20
58.896064452120868
 70
0
  0
VERTEX
  5
7E7E
  8
0
 62
7
 10
22.523065322418208
 20
58.896064452120868
 70
0
  0
VERTEX
  5
7E7F
  8
0
 62
7
 10
22.523065322418208
 20
59.023188475526581
 70
0
  0
VERTEX
  5
7E80
  8
0
 62
7
 10
22.523065322418208
 20
59.065735404769441
 70
0
  0
VERTEX
  5
7E81
  8
0
 62
7
 10
22.56578450643531
 20
59.065735404769441
 70
0
  0
SEQEND
  5
7E82
  8
0
  0
POLYLINE
  5
6E1C
  8
0
 62
7
 66
1
 70
0
 10
0
 20
0
 30
0
  0
VERTEX
  5
7E83
  8
0
 62
7
 10
21.337952475492269
 20
60.2920171427441
 70
0
  0
VERTEX
  5
7E84
  8
0
 62
7
 10
21.380671659509371
 20
60.250848251695388
 70
0
  0
VERTEX
  5
7E85
  8
0
 62
7
 10
21.380671659509371
 20
60.1654098836612
 70
0
  0
VERTEX
  5
7E86
  8
0
 62
7
 10
21.422012805332368
 20
60.124068737838172
 70
0
  0
VERTEX
  5
7E87
  8
0
 62
7
 10
21.422012805332368
 20
60.081349553821113
 70
0
  0
VERTEX
  5
7E88
  8
0
 62
7
 10
21.46473198934947
 20
60.038802624578238
 70
0
  0
VERTEX
  5
7E89
  8
0
 62
7
 10
21.507451173366579
 20
59.996083440561172
 70
0
  0
VERTEX
  5
7E8A
  8
0
 62
7
 10
21.507451173366579
 20
59.954397785189649
 70
0
  0
VERTEX
  5
7E8B
  8
0
 62
7
 10
21.54879231918958
 20
59.911850855946788
 70
0
  0
VERTEX
  5
7E8C
  8
0
 62
7
 10
21.591511503206672
 20
59.869131671929722
 70
0
  0
VERTEX
  5
7E8D
  8
0
 62
7
 10
21.634230687223749
 20
59.8277905261067
 70
0
  0
VERTEX
  5
7E8E
  8
0
 62
7
 10
21.634230687223749
 20
59.785071342089608
 70
0
  0
VERTEX
  5
7E8F
  8
0
 62
7
 10
21.676949871240851
 20
59.742352158072492
 70
0
  0
VERTEX
  5
7E90
  8
0
 62
7
 10
21.676949871240851
 20
59.699805228829689
 70
0
  0
VERTEX
  5
7E91
  8
0
 62
7
 10
21.718291017063851
 20
59.658119573458109
 70
0
  0
VERTEX
  5
7E92
  8
0
 62
7
 10
21.76101020108095
 20
59.615400389441049
 70
0
  0
VERTEX
  5
7E93
  8
0
 62
7
 10
21.76101020108095
 20
59.572681205423983
 70
0
  0
VERTEX
  5
7E94
  8
0
 62
7
 10
21.803729385098048
 20
59.53151231437522
 70
0
  0
VERTEX
  5
7E95
  8
0
 62
7
 10
21.803729385098048
 20
59.488793130358133
 70
0
  0
VERTEX
  5
7E96
  8
0
 62
7
 10
21.845070530921049
 20
59.446073946341
 70
0
  0
VERTEX
  5
7E97
  8
0
 62
7
 10
21.887789714938162
 20
59.403354762323943
 70
0
  0
VERTEX
  5
7E98
  8
0
 62
7
 10
21.930508898955249
 20
59.3194666872581
 70
0
  0
VERTEX
  5
7E99
  8
0
 62
7
 10
21.973228082972359
 20
59.276402993692443
 70
0
  0
VERTEX
  5
7E9A
  8
0
 62
7
 10
22.014569228795349
 20
59.276402993692443
 70
0
  0
VERTEX
  5
7E9B
  8
0
 62
7
 10
22.014569228795349
 20
59.192514918626607
 70
0
  0
VERTEX
  5
7E9C
  8
0
 62
7
 10
22.057288412812419
 20
59.14979573460954
 70
0
  0
VERTEX
  5
7E9D
  8
0
 62
7
 10
22.100007596829531
 20
59.065735404769441
 70
0
  0
VERTEX
  5
7E9E
  8
0
 62
7
 10
22.141348742652529
 20
59.023016220752361
 70
0
  0
VERTEX
  5
7E9F
  8
0
 62
7
 10
22.184067926669631
 20
59.023016220752361
 70
0
  0
VERTEX
  5
7EA0
  8
0
 62
7
 10
22.141348742652529
 20
58.938783636138
 70
0
  0
VERTEX
  5
7EA1
  8
0
 62
7
 10
22.141348742652529
 20
58.769457193037972
 70
0
  0
VERTEX
  5
7EA2
  8
0
 62
7
 10
22.100007596829531
 20
58.726738009020842
 70
0
  0
VERTEX
  5
7EA3
  8
0
 62
7
 10
22.100007596829531
 20
58.642849933955
 70
0
  0
VERTEX
  5
7EA4
  8
0
 62
7
 10
22.057288412812419
 20
58.557067056372311
 70
0
  0
VERTEX
  5
7EA5
  8
0
 62
7
 10
22.057288412812419
 20
58.430459797289359
 70
0
  0
VERTEX
  5
7EA6
  8
0
 62
7
 10
22.014569228795349
 20
58.387740613272278
 70
0
  0
VERTEX
  5
7EA7
  8
0
 62
7
 10
22.014569228795349
 20
58.218069660623712
 70
0
  0
VERTEX
  5
7EA8
  8
0
 62
7
 10
21.973228082972359
 20
58.134181585557883
 70
0
  0
VERTEX
  5
7EA9
  8
0
 62
7
 10
21.973228082972359
 20
58.048743217523679
 70
0
  0
VERTEX
  5
7EAA
  8
0
 62
7
 10
21.930508898955249
 20
58.0074020717007
 70
0
  0
VERTEX
  5
7EAB
  8
0
 62
7
 10
21.930508898955249
 20
57.88045030306921
 70
0
  0
VERTEX
  5
7EAC
  8
0
 62
7
 10
21.887789714938162
 20
57.79518418980927
 70
0
  0
VERTEX
  5
7EAD
  8
0
 62
7
 10
21.887789714938162
 20
57.541452907320647
 70
0
  0
VERTEX
  5
7EAE
  8
0
 62
7
 10
21.845070530921049
 20
57.49873372330353
 70
0
  0
VERTEX
  5
7EAF
  8
0
 62
7
 10
21.845070530921049
 20
57.414845648237709
 70
0
  0
VERTEX
  5
7EB0
  8
0
 62
7
 10
21.803729385098048
 20
57.372126464220621
 70
0
  0
VERTEX
  5
7EB1
  8
0
 62
7
 10
21.803729385098048
 20
57.118395181731962
 70
0
  0
VERTEX
  5
7EB2
  8
0
 62
7
 10
21.76101020108095
 20
57.118395181731962
 70
0
  0
VERTEX
  5
7EB3
  8
0
 62
7
 10
21.76101020108095
 20
56.863802625371981
 70
0
  0
VERTEX
  5
7EB4
  8
0
 62
7
 10
21.718291017063851
 20
56.863802625371981
 70
0
  0
VERTEX
  5
7EB5
  8
0
 62
7
 10
21.718291017063851
 20
56.736850856740553
 70
0
  0
VERTEX
  5
7EB6
  8
0
 62
7
 10
21.676949871240851
 20
56.736850856740553
 70
0
  0
VERTEX
  5
7EB7
  8
0
 62
7
 10
21.676949871240851
 20
56.526183267817537
 70
0
  0
VERTEX
  5
7EB8
  8
0
 62
7
 10
21.634230687223749
 20
56.526183267817537
 70
0
  0
VERTEX
  5
7EB9
  8
0
 62
7
 10
21.634230687223749
 20
56.397681206217733
 70
0
  0
VERTEX
  5
7EBA
  8
0
 62
7
 10
21.591511503206672
 20
56.35651231516897
 70
0
  0
VERTEX
  5
7EBB
  8
0
 62
7
 10
21.591511503206672
 20
56.313793131151883
 70
0
  0
VERTEX
  5
7EBC
  8
0
 62
7
 10
21.54879231918958
 20
56.271073947134759
 70
0
  0
VERTEX
  5
7EBD
  8
0
 62
7
 10
21.54879231918958
 20
56.144466688051857
 70
0
  0
VERTEX
  5
7EBE
  8
0
 62
7
 10
21.507451173366579
 20
56.144466688051857
 70
0
  0
VERTEX
  5
7EBF
  8
0
 62
7
 10
21.507451173366579
 20
56.01751491942035
 70
0
  0
VERTEX
  5
7EC0
  8
0
 62
7
 10
21.46473198934947
 20
56.01751491942035
 70
0
  0
VERTEX
  5
7EC1
  8
0
 62
7
 10
21.46473198934947
 20
55.974795735403291
 70
0
  0
VERTEX
  5
7EC2
  8
0
 62
7
 10
21.422012805332368
 20
55.974795735403291
 70
0
  0
VERTEX
  5
7EC3
  8
0
 62
7
 10
21.422012805332368
 20
55.848016221546111
 70
0
  0
VERTEX
  5
7EC4
  8
0
 62
7
 10
21.380671659509371
 20
55.848016221546111
 70
0
  0
VERTEX
  5
7EC5
  8
0
 62
7
 10
21.380671659509371
 20
55.763783636931763
 70
0
  0
VERTEX
  5
7EC6
  8
0
 62
7
 10
21.337952475492269
 20
55.721064452914618
 70
0
  0
VERTEX
  5
7EC7
  8
0
 62
7
 10
21.337952475492269
 20
55.678517523671808
 70
0
  0
VERTEX
  5
7EC8
  8
0
 62
7
 10
21.295233291475171
 20
55.678517523671808
 70
0
  0
VERTEX
  5
7EC9
  8
0
 62
7
 10
21.295233291475171
 20
55.5944571938317
 70
0
  0
VERTEX
  5
7ECA
  8
0
 62
7
 10
21.252514107458069
 20
55.5944571938317
 70
0
  0
VERTEX
  5
7ECB
  8
0
 62
7
 10
21.252514107458069
 20
55.509018825797511
 70
0
  0
VERTEX
  5
7ECC
  8
0
 62
7
 10
21.211172961635071
 20
55.467849934748763
 70
0
  0
VERTEX
  5
7ECD
  8
0
 62
7
 10
21.16845377761797
 20
55.467849934748763
 70
0
  0
VERTEX
  5
7ECE
  8
0
 62
7
 10
21.16845377761797
 20
55.382067057166068
 70
0
  0
VERTEX
  5
7ECF
  8
0
 62
7
 10
21.1257345936009
 20
55.340898166117313
 70
0
  0
VERTEX
  5
7ED0
  8
0
 62
7
 10
21.1257345936009
 20
55.298178982100239
 70
0
  0
VERTEX
  5
7ED1
  8
0
 62
7
 10
21.0843934477779
 20
55.2554597980831
 70
0
  0
VERTEX
  5
7ED2
  8
0
 62
7
 10
21.0416742637608
 20
55.2554597980831
 70
0
  0
VERTEX
  5
7ED3
  8
0
 62
7
 10
21.0416742637608
 20
55.171399468243
 70
0
  0
VERTEX
  5
7ED4
  8
0
 62
7
 10
20.9989550797437
 20
55.171399468243
 70
0
  0
VERTEX
  5
7ED5
  8
0
 62
7
 10
20.9989550797437
 20
55.086133354983062
 70
0
  0
VERTEX
  5
7ED6
  8
0
 62
7
 10
20.956235895726579
 20
55.086133354983062
 70
0
  0
VERTEX
  5
7ED7
  8
0
 62
7
 10
20.9148947499036
 20
55.086133354983062
 70
0
  0
VERTEX
  5
7ED8
  8
0
 62
7
 10
20.9148947499036
 20
55.001728515594493
 70
0
  0
VERTEX
  5
7ED9
  8
0
 62
7
 10
20.87217556588649
 20
55.001728515594493
 70
0
  0
VERTEX
  5
7EDA
  8
0
 62
7
 10
20.87217556588649
 20
54.959181586351633
 70
0
  0
VERTEX
  5
7EDB
  8
0
 62
7
 10
20.829456381869392
 20
54.959181586351633
 70
0
  0
VERTEX
  5
7EDC
  8
0
 62
7
 10
20.829456381869392
 20
54.916462402334567
 70
0
  0
VERTEX
  5
7EDD
  8
0
 62
7
 10
20.7881152360464
 20
54.875121256511541
 70
0
  0
VERTEX
  5
7EDE
  8
0
 62
7
 10
20.745396052029289
 20
54.83240207249446
 70
0
  0
VERTEX
  5
7EDF
  8
0
 62
7
 10
20.70267686801219
 20
54.789682888477323
 70
0
  0
VERTEX
  5
7EE0
  8
0
 62
7
 10
20.65995768399512
 20
54.748513997428631
 70
0
  0
VERTEX
  5
7EE1
  8
0
 62
7
 10
20.61861653817212
 20
54.70545030386296
 70
0
  0
VERTEX
  5
7EE2
  8
0
 62
7
 10
20.575897354155021
 20
54.70545030386296
 70
0
  0
VERTEX
  5
7EE3
  8
0
 62
7
 10
20.575897354155021
 20
54.66273111984588
 70
0
  0
VERTEX
  5
7EE4
  8
0
 62
7
 10
20.533178170137919
 20
54.66273111984588
 70
0
  0
VERTEX
  5
7EE5
  8
0
 62
7
 10
20.533178170137919
 20
54.620184190603027
 70
0
  0
SEQEND
  5
7EE6
  8
0
  0
POLYLINE
  5
6E81
  8
0
 62
7
 66
1
 70
0
 10
0
 20
0
 30
0
  0
VERTEX
  5
7EE7
  8
0
 62
7
 10
21.337952475492269
 20
60.2920171427441
 70
0
  0
VERTEX
  5
7EE8
  8
0
 62
7
 10
21.295233291475171
 20
60.2920171427441
 70
0
  0
VERTEX
  5
7EE9
  8
0
 62
7
 10
21.252514107458069
 20
60.250848251695388
 70
0
  0
VERTEX
  5
7EEA
  8
0
 62
7
 10
21.16845377761797
 20
60.208129067678271
 70
0
  0
VERTEX
  5
7EEB
  8
0
 62
7
 10
21.1257345936009
 20
60.208129067678271
 70
0
  0
VERTEX
  5
7EEC
  8
0
 62
7
 10
21.0416742637608
 20
60.1654098836612
 70
0
  0
VERTEX
  5
7EED
  8
0
 62
7
 10
20.956235895726579
 20
60.1654098836612
 70
0
  0
VERTEX
  5
7EEE
  8
0
 62
7
 10
20.9148947499036
 20
60.124068737838172
 70
0
  0
VERTEX
  5
7EEF
  8
0
 62
7
 10
20.87217556588649
 20
60.081349553821113
 70
0
  0
VERTEX
  5
7EF0
  8
0
 62
7
 10
20.7881152360464
 20
60.081349553821113
 70
0
  0
VERTEX
  5
7EF1
  8
0
 62
7
 10
20.745396052029289
 20
60.038802624578238
 70
0
  0
VERTEX
  5
7EF2
  8
0
 62
7
 10
20.65995768399512
 20
60.038802624578238
 70
0
  0
VERTEX
  5
7EF3
  8
0
 62
7
 10
20.61861653817212
 20
59.996083440561172
 70
0
  0
VERTEX
  5
7EF4
  8
0
 62
7
 10
20.575897354155021
 20
59.954397785189649
 70
0
  0
VERTEX
  5
7EF5
  8
0
 62
7
 10
20.533178170137919
 20
59.954397785189649
 70
0
  0
SEQEND
  5
7EF6
  8
0
  0
POLYLINE
  5
6E92
  8
0
 62
7
 66
1
 70
0
 10
0
 20
0
 30
0
  0
VERTEX
  5
7EF7
  8
0
 62
7
 10
23.87767686721844
 20
58.769457193037972
 70
0
  0
VERTEX
  5
7EF8
  8
0
 62
7
 10
23.920396051235539
 20
58.769457193037972
 70
0
  0
VERTEX
  5
7EF9
  8
0
 62
7
 10
23.96173719705854
 20
58.769457193037972
 70
0
  0
VERTEX
  5
7EFA
  8
0
 62
7
 10
24.004456381075642
 20
58.769457193037972
 70
0
  0
VERTEX
  5
7EFB
  8
0
 62
7
 10
24.04717556509274
 20
58.769457193037972
 70
0
  0
VERTEX
  5
7EFC
  8
0
 62
7
 10
24.088516710915741
 20
58.769457193037972
 70
0
  0
SEQEND
  5
7EFD
  8
0
  0
POLYLINE
  5
6E9A
  8
0
 62
7
 66
1
 70
0
 10
0
 20
0
 30
0
  0
VERTEX
  5
7EFE
  8
0
 62
7
 10
24.088516710915741
 20
58.684018825003747
 70
0
  0
VERTEX
  5
7EFF
  8
0
 62
7
 10
24.04717556509274
 20
58.684018825003747
 70
0
  0
VERTEX
  5
7F00
  8
0
 62
7
 10
24.004456381075642
 20
58.684018825003747
 70
0
  0
VERTEX
  5
7F01
  8
0
 62
7
 10
23.96173719705854
 20
58.684018825003747
 70
0
  0
VERTEX
  5
7F02
  8
0
 62
7
 10
23.920396051235539
 20
58.684018825003747
 70
0
  0
VERTEX
  5
7F03
  8
0
 62
7
 10
23.920396051235539
 20
58.726738009020842
 70
0
  0
VERTEX
  5
7F04
  8
0
 62
7
 10
23.87767686721844
 20
58.726738009020842
 70
0
  0
SEQEND
  5
7F05
  8
0
  0
POLYLINE
  5
6EA3
  8
0
 62
7
 66
1
 70
0
 10
0
 20
0
 30
0
  0
VERTEX
  5
7F06
  8
0
 62
7
 10
22.523065322418208
 20
59.192514918626607
 70
0
  0
VERTEX
  5
7F07
  8
0
 62
7
 10
22.64984483627541
 20
59.14979573460954
 70
0
  0
VERTEX
  5
7F08
  8
0
 62
7
 10
22.776624350132611
 20
59.107076550592467
 70
0
  0
VERTEX
  5
7F09
  8
0
 62
7
 10
22.903403863989809
 20
59.065735404769441
 70
0
  0
VERTEX
  5
7F0A
  8
0
 62
7
 10
23.07290256186409
 20
59.065735404769441
 70
0
  0
VERTEX
  5
7F0B
  8
0
 62
7
 10
23.158340929898291
 20
59.023016220752361
 70
0
  0
VERTEX
  5
7F0C
  8
0
 62
7
 10
23.32783962777259
 20
59.023016220752361
 70
0
  0
VERTEX
  5
7F0D
  8
0
 62
7
 10
23.411899957612661
 20
58.9804692915095
 70
0
  0
VERTEX
  5
7F0E
  8
0
 62
7
 10
23.581398655486971
 20
58.938783636138
 70
0
  0
VERTEX
  5
7F0F
  8
0
 62
7
 10
23.66545898532706
 20
58.938783636138
 70
0
  0
VERTEX
  5
7F10
  8
0
 62
7
 10
23.83495768320137
 20
58.896064452120868
 70
0
  0
VERTEX
  5
7F11
  8
0
 62
7
 10
23.920396051235539
 20
58.896064452120868
 70
0
  0
VERTEX
  5
7F12
  8
0
 62
7
 10
24.04717556509274
 20
58.810798338860941
 70
0
  0
SEQEND
  5
7F13
  8
0
  0
POLYLINE
  5
6EB2
  8
0
 62
7
 66
1
 70
0
 10
0
 20
0
 30
0
  0
VERTEX
  5
7F14
  8
0
 62
7
 10
21.634230687223749
 20
60.504407279409747
 70
0
  0
VERTEX
  5
7F15
  8
0
 62
7
 10
21.676949871240851
 20
60.46168809539266
 70
0
  0
VERTEX
  5
7F16
  8
0
 62
7
 10
21.676949871240851
 20
60.420519204343918
 70
0
  0
VERTEX
  5
7F17
  8
0
 62
7
 10
21.718291017063851
 20
60.420519204343918
 70
0
  0
VERTEX
  5
7F18
  8
0
 62
7
 10
21.76101020108095
 20
60.334736326761217
 70
0
  0
VERTEX
  5
7F19
  8
0
 62
7
 10
21.76101020108095
 20
60.2920171427441
 70
0
  0
VERTEX
  5
7F1A
  8
0
 62
7
 10
21.803729385098048
 20
60.2920171427441
 70
0
  0
VERTEX
  5
7F1B
  8
0
 62
7
 10
21.803729385098048
 20
60.208129067678271
 70
0
  0
VERTEX
  5
7F1C
  8
0
 62
7
 10
21.845070530921049
 20
60.208129067678271
 70
0
  0
VERTEX
  5
7F1D
  8
0
 62
7
 10
21.887789714938162
 20
60.1654098836612
 70
0
  0
VERTEX
  5
7F1E
  8
0
 62
7
 10
21.887789714938162
 20
60.124068737838172
 70
0
  0
VERTEX
  5
7F1F
  8
0
 62
7
 10
21.930508898955249
 20
60.081521808595369
 70
0
  0
VERTEX
  5
7F20
  8
0
 62
7
 10
21.930508898955249
 20
60.038802624578238
 70
0
  0
VERTEX
  5
7F21
  8
0
 62
7
 10
21.973228082972359
 20
59.996083440561172
 70
0
  0
VERTEX
  5
7F22
  8
0
 62
7
 10
22.014569228795349
 20
59.954397785189649
 70
0
  0
VERTEX
  5
7F23
  8
0
 62
7
 10
22.014569228795349
 20
59.911850855946788
 70
0
  0
VERTEX
  5
7F24
  8
0
 62
7
 10
22.057288412812419
 20
59.869131671929722
 70
0
  0
VERTEX
  5
7F25
  8
0
 62
7
 10
22.057288412812419
 20
59.8277905261067
 70
0
  0
VERTEX
  5
7F26
  8
0
 62
7
 10
22.100007596829531
 20
59.785071342089608
 70
0
  0
VERTEX
  5
7F27
  8
0
 62
7
 10
22.141348742652529
 20
59.742352158072492
 70
0
  0
VERTEX
  5
7F28
  8
0
 62
7
 10
22.141348742652529
 20
59.699805228829689
 70
0
  0
VERTEX
  5
7F29
  8
0
 62
7
 10
22.184067926669631
 20
59.658119573458109
 70
0
  0
VERTEX
  5
7F2A
  8
0
 62
7
 10
22.184067926669631
 20
59.615400389441049
 70
0
  0
VERTEX
  5
7F2B
  8
0
 62
7
 10
22.269506294703831
 20
59.572681205423983
 70
0
  0
VERTEX
  5
7F2C
  8
0
 62
7
 10
22.269506294703831
 20
59.53151231437522
 70
0
  0
VERTEX
  5
7F2D
  8
0
 62
7
 10
22.310847440526832
 20
59.488793130358133
 70
0
  0
VERTEX
  5
7F2E
  8
0
 62
7
 10
22.310847440526832
 20
59.446073946341
 70
0
  0
VERTEX
  5
7F2F
  8
0
 62
7
 10
22.35356662454393
 20
59.403354762323943
 70
0
  0
VERTEX
  5
7F30
  8
0
 62
7
 10
22.396285808561029
 20
59.403354762323943
 70
0
  0
VERTEX
  5
7F31
  8
0
 62
7
 10
22.396285808561029
 20
59.3194666872581
 70
0
  0
VERTEX
  5
7F32
  8
0
 62
7
 10
22.437626954384029
 20
59.276402993692443
 70
0
  0
VERTEX
  5
7F33
  8
0
 62
7
 10
22.480346138401131
 20
59.276402993692443
 70
0
  0
VERTEX
  5
7F34
  8
0
 62
7
 10
22.523065322418208
 20
59.192514918626607
 70
0
  0
SEQEND
  5
7F35
  8
0
  0
POLYLINE
  5
6ED5
  8
0
 62
7
 66
1
 70
0
 10
0
 20
0
 30
0
  0
VERTEX
  5
7F36
  8
0
 62
7
 10
24.088516710915741
 20
58.642849933955
 70
0
  0
VERTEX
  5
7F37
  8
0
 62
7
 10
23.96173719705854
 20
58.684018825003747
 70
0
  0
VERTEX
  5
7F38
  8
0
 62
7
 10
23.66545898532706
 20
58.684018825003747
 70
0
  0
VERTEX
  5
7F39
  8
0
 62
7
 10
23.538679471469852
 20
58.726738009020842
 70
0
  0
VERTEX
  5
7F3A
  8
0
 62
7
 10
23.411899957612661
 20
58.726738009020842
 70
0
  0
VERTEX
  5
7F3B
  8
0
 62
7
 10
23.285120443755488
 20
58.769457193037972
 70
0
  0
VERTEX
  5
7F3C
  8
0
 62
7
 10
23.115621745881182
 20
58.769457193037972
 70
0
  0
VERTEX
  5
7F3D
  8
0
 62
7
 10
22.98884223202398
 20
58.810798338860941
 70
0
  0
VERTEX
  5
7F3E
  8
0
 62
7
 10
22.692564020292512
 20
58.810798338860941
 70
0
  0
VERTEX
  5
7F3F
  8
0
 62
7
 10
22.56578450643531
 20
58.853517522878072
 70
0
  0
VERTEX
  5
7F40
  8
0
 62
7
 10
22.523065322418208
 20
58.769457193037972
 70
0
  0
VERTEX
  5
7F41
  8
0
 62
7
 10
22.523065322418208
 20
58.642849933955
 70
0
  0
VERTEX
  5
7F42
  8
0
 62
7
 10
22.480346138401131
 20
58.557067056372311
 70
0
  0
VERTEX
  5
7F43
  8
0
 62
7
 10
22.437626954384029
 20
58.514347872355167
 70
0
  0
VERTEX
  5
7F44
  8
0
 62
7
 10
22.437626954384029
 20
58.303852538206449
 70
0
  0
VERTEX
  5
7F45
  8
0
 62
7
 10
22.396285808561029
 20
58.218069660623712
 70
0
  0
VERTEX
  5
7F46
  8
0
 62
7
 10
22.396285808561029
 20
58.048743217523679
 70
0
  0
VERTEX
  5
7F47
  8
0
 62
7
 10
22.35356662454393
 20
58.0074020717007
 70
0
  0
VERTEX
  5
7F48
  8
0
 62
7
 10
22.35356662454393
 20
57.922135958440776
 70
0
  0
VERTEX
  5
7F49
  8
0
 62
7
 10
22.310847440526832
 20
57.88045030306921
 70
0
  0
VERTEX
  5
7F4A
  8
0
 62
7
 10
22.310847440526832
 20
57.711123859969177
 70
0
  0
VERTEX
  5
7F4B
  8
0
 62
7
 10
22.269506294703831
 20
57.62568549193503
 70
0
  0
VERTEX
  5
7F4C
  8
0
 62
7
 10
22.269506294703831
 20
57.414845648237709
 70
0
  0
VERTEX
  5
7F4D
  8
0
 62
7
 10
22.226787110686718
 20
57.372126464220621
 70
0
  0
VERTEX
  5
7F4E
  8
0
 62
7
 10
22.226787110686718
 20
57.288066134380522
 70
0
  0
VERTEX
  5
7F4F
  8
0
 62
7
 10
22.184067926669631
 20
57.202800021120566
 70
0
  0
VERTEX
  5
7F50
  8
0
 62
7
 10
22.184067926669631
 20
57.075848252489152
 70
0
  0
SEQEND
  5
7F51
  8
0
  0
POLYLINE
  5
6EF2
  8
0
 62
7
 66
1
 70
0
 10
0
 20
0
 30
0
  0
VERTEX
  5
7F52
  8
0
 62
7
 10
20.745396052029289
 20
54.323733724097281
 70
0
  0
VERTEX
  5
7F53
  8
0
 62
7
 10
20.745396052029289
 20
54.282564833048582
 70
0
  0
VERTEX
  5
7F54
  8
0
 62
7
 10
20.70267686801219
 20
54.282564833048582
 70
0
  0
VERTEX
  5
7F55
  8
0
 62
7
 10
20.70267686801219
 20
54.239845649031452
 70
0
  0
VERTEX
  5
7F56
  8
0
 62
7
 10
20.65995768399512
 20
54.239845649031452
 70
0
  0
VERTEX
  5
7F57
  8
0
 62
7
 10
20.61861653817212
 20
54.239845649031452
 70
0
  0
VERTEX
  5
7F58
  8
0
 62
7
 10
20.61861653817212
 20
54.197126465014371
 70
0
  0
VERTEX
  5
7F59
  8
0
 62
7
 10
20.575897354155021
 20
54.197126465014371
 70
0
  0
VERTEX
  5
7F5A
  8
0
 62
7
 10
20.533178170137919
 20
54.197126465014371
 70
0
  0
VERTEX
  5
7F5B
  8
0
 62
7
 10
20.533178170137919
 20
54.154407280997241
 70
0
  0
VERTEX
  5
7F5C
  8
0
 62
7
 10
20.490458986120821
 20
54.154407280997241
 70
0
  0
VERTEX
  5
7F5D
  8
0
 62
7
 10
20.490458986120821
 20
54.113066135174279
 70
0
  0
VERTEX
  5
7F5E
  8
0
 62
7
 10
20.44911784029782
 20
54.113066135174279
 70
0
  0
SEQEND
  5
7F5F
  8
0
  0
POLYLINE
  5
6F01
  8
0
 62
7
 66
1
 70
0
 10
0
 20
0
 30
0
  0
VERTEX
  5
7F60
  8
0
 62
7
 10
22.184067926669631
 20
57.075848252489152
 70
0
  0
VERTEX
  5
7F61
  8
0
 62
7
 10
22.184067926669631
 20
56.991787922649053
 70
0
  0
VERTEX
  5
7F62
  8
0
 62
7
 10
22.141348742652529
 20
56.949068738631922
 70
0
  0
VERTEX
  5
7F63
  8
0
 62
7
 10
22.141348742652529
 20
56.736678601966247
 70
0
  0
VERTEX
  5
7F64
  8
0
 62
7
 10
22.100007596829531
 20
56.695509710917577
 70
0
  0
VERTEX
  5
7F65
  8
0
 62
7
 10
22.100007596829531
 20
56.610071342883359
 70
0
  0
VERTEX
  5
7F66
  8
0
 62
7
 10
22.057288412812419
 20
56.610071342883359
 70
0
  0
VERTEX
  5
7F67
  8
0
 62
7
 10
22.057288412812419
 20
56.440400390234792
 70
0
  0
VERTEX
  5
7F68
  8
0
 62
7
 10
22.014569228795349
 20
56.397681206217733
 70
0
  0
VERTEX
  5
7F69
  8
0
 62
7
 10
22.014569228795349
 20
56.271073947134759
 70
0
  0
VERTEX
  5
7F6A
  8
0
 62
7
 10
21.973228082972359
 20
56.2297328013118
 70
0
  0
VERTEX
  5
7F6B
  8
0
 62
7
 10
21.973228082972359
 20
56.187185872068937
 70
0
  0
VERTEX
  5
7F6C
  8
0
 62
7
 10
21.930508898955249
 20
56.144466688051857
 70
0
  0
VERTEX
  5
7F6D
  8
0
 62
7
 10
21.930508898955249
 20
56.01751491942035
 70
0
  0
VERTEX
  5
7F6E
  8
0
 62
7
 10
21.887789714938162
 20
56.01751491942035
 70
0
  0
VERTEX
  5
7F6F
  8
0
 62
7
 10
21.887789714938162
 20
55.890735405563177
 70
0
  0
VERTEX
  5
7F70
  8
0
 62
7
 10
21.845070530921049
 20
55.890735405563177
 70
0
  0
VERTEX
  5
7F71
  8
0
 62
7
 10
21.845070530921049
 20
55.848016221546111
 70
0
  0
VERTEX
  5
7F72
  8
0
 62
7
 10
21.803729385098048
 20
55.848016221546111
 70
0
  0
VERTEX
  5
7F73
  8
0
 62
7
 10
21.803729385098048
 20
55.721064452914618
 70
0
  0
VERTEX
  5
7F74
  8
0
 62
7
 10
21.76101020108095
 20
55.721064452914618
 70
0
  0
VERTEX
  5
7F75
  8
0
 62
7
 10
21.76101020108095
 20
55.5944571938317
 70
0
  0
VERTEX
  5
7F76
  8
0
 62
7
 10
21.718291017063851
 20
55.5944571938317
 70
0
  0
VERTEX
  5
7F77
  8
0
 62
7
 10
21.718291017063851
 20
55.551738009814571
 70
0
  0
VERTEX
  5
7F78
  8
0
 62
7
 10
21.676949871240851
 20
55.509018825797511
 70
0
  0
VERTEX
  5
7F79
  8
0
 62
7
 10
21.676949871240851
 20
55.467849934748763
 70
0
  0
VERTEX
  5
7F7A
  8
0
 62
7
 10
21.634230687223749
 20
55.424786241183128
 70
0
  0
VERTEX
  5
7F7B
  8
0
 62
7
 10
21.634230687223749
 20
55.340898166117313
 70
0
  0
VERTEX
  5
7F7C
  8
0
 62
7
 10
21.591511503206672
 20
55.340898166117313
 70
0
  0
VERTEX
  5
7F7D
  8
0
 62
7
 10
21.591511503206672
 20
55.298178982100239
 70
0
  0
VERTEX
  5
7F7E
  8
0
 62
7
 10
21.54879231918958
 20
55.298178982100239
 70
0
  0
VERTEX
  5
7F7F
  8
0
 62
7
 10
21.54879231918958
 20
55.212740614066043
 70
0
  0
VERTEX
  5
7F80
  8
0
 62
7
 10
21.507451173366579
 20
55.212740614066043
 70
0
  0
VERTEX
  5
7F81
  8
0
 62
7
 10
21.507451173366579
 20
55.1288525390002
 70
0
  0
VERTEX
  5
7F82
  8
0
 62
7
 10
21.46473198934947
 20
55.1288525390002
 70
0
  0
VERTEX
  5
7F83
  8
0
 62
7
 10
21.46473198934947
 20
55.086133354983062
 70
0
  0
VERTEX
  5
7F84
  8
0
 62
7
 10
21.422012805332368
 20
55.086133354983062
 70
0
  0
VERTEX
  5
7F85
  8
0
 62
7
 10
21.422012805332368
 20
55.001728515594493
 70
0
  0
VERTEX
  5
7F86
  8
0
 62
7
 10
21.380671659509371
 20
55.001728515594493
 70
0
  0
VERTEX
  5
7F87
  8
0
 62
7
 10
21.380671659509371
 20
54.959181586351633
 70
0
  0
VERTEX
  5
7F88
  8
0
 62
7
 10
21.337952475492269
 20
54.959181586351633
 70
0
  0
VERTEX
  5
7F89
  8
0
 62
7
 10
21.337952475492269
 20
54.916462402334567
 70
0
  0
VERTEX
  5
7F8A
  8
0
 62
7
 10
21.295233291475171
 20
54.875121256511541
 70
0
  0
VERTEX
  5
7F8B
  8
0
 62
7
 10
21.295233291475171
 20
54.83240207249446
 70
0
  0
VERTEX
  5
7F8C
  8
0
 62
7
 10
21.252514107458069
 20
54.83240207249446
 70
0
  0
VERTEX
  5
7F8D
  8
0
 62
7
 10
21.252514107458069
 20
54.748513997428631
 70
0
  0
VERTEX
  5
7F8E
  8
0
 62
7
 10
21.211172961635071
 20
54.748513997428631
 70
0
  0
VERTEX
  5
7F8F
  8
0
 62
7
 10
21.16845377761797
 20
54.748513997428631
 70
0
  0
VERTEX
  5
7F90
  8
0
 62
7
 10
21.16845377761797
 20
54.70545030386296
 70
0
  0
VERTEX
  5
7F91
  8
0
 62
7
 10
21.1257345936009
 20
54.66273111984588
 70
0
  0
VERTEX
  5
7F92
  8
0
 62
7
 10
21.1257345936009
 20
54.620011935828821
 70
0
  0
VERTEX
  5
7F93
  8
0
 62
7
 10
21.0843934477779
 20
54.620011935828821
 70
0
  0
VERTEX
  5
7F94
  8
0
 62
7
 10
21.0843934477779
 20
54.578843044780072
 70
0
  0
VERTEX
  5
7F95
  8
0
 62
7
 10
21.0416742637608
 20
54.578843044780072
 70
0
  0
VERTEX
  5
7F96
  8
0
 62
7
 10
21.0416742637608
 20
54.536123860762928
 70
0
  0
VERTEX
  5
7F97
  8
0
 62
7
 10
20.9989550797437
 20
54.536123860762928
 70
0
  0
VERTEX
  5
7F98
  8
0
 62
7
 10
20.9989550797437
 20
54.493404676745847
 70
0
  0
VERTEX
  5
7F99
  8
0
 62
7
 10
20.956235895726579
 20
54.493404676745847
 70
0
  0
VERTEX
  5
7F9A
  8
0
 62
7
 10
20.956235895726579
 20
54.45068549272878
 70
0
  0
VERTEX
  5
7F9B
  8
0
 62
7
 10
20.9148947499036
 20
54.45068549272878
 70
0
  0
VERTEX
  5
7F9C
  8
0
 62
7
 10
20.87217556588649
 20
54.409516601680032
 70
0
  0
VERTEX
  5
7F9D
  8
0
 62
7
 10
20.87217556588649
 20
54.366452908114411
 70
0
  0
VERTEX
  5
7F9E
  8
0
 62
7
 10
20.829456381869392
 20
54.366452908114411
 70
0
  0
VERTEX
  5
7F9F
  8
0
 62
7
 10
20.7881152360464
 20
54.366452908114411
 70
0
  0
VERTEX
  5
7FA0
  8
0
 62
7
 10
20.7881152360464
 20
54.323733724097281
 70
0
  0
VERTEX
  5
7FA1
  8
0
 62
7
 10
20.745396052029289
 20
54.323733724097281
 70
0
  0
SEQEND
  5
7FA2
  8
0
  0
POLYLINE
  5
6F45
  8
0
 62
7
 66
1
 70
0
 10
0
 20
0
 30
0
  0
VERTEX
  5
7FA3
  8
0
 62
7
 10
20.44911784029782
 20
54.113238389948549
 70
0
  0
VERTEX
  5
7FA4
  8
0
 62
7
 10
20.406398656280711
 20
54.113238389948549
 70
0
  0
SEQEND
  5
7FA5
  8
0
  0
POLYLINE
  5
6F49
  8
0
 62
7
 66
1
 70
0
 10
0
 20
0
 30
0
  0
VERTEX
  5
7FA6
  8
0
 62
7
 10
22.310847440526832
 20
59.023188475526581
 70
0
  0
VERTEX
  5
7FA7
  8
0
 62
7
 10
22.35356662454393
 20
59.023188475526581
 70
0
  0
VERTEX
  5
7FA8
  8
0
 62
7
 10
22.396285808561029
 20
59.023188475526581
 70
0
  0
VERTEX
  5
7FA9
  8
0
 62
7
 10
22.437626954384029
 20
59.023188475526581
 70
0
  0
VERTEX
  5
7FAA
  8
0
 62
7
 10
22.480346138401131
 20
59.023188475526581
 70
0
  0
VERTEX
  5
7FAB
  8
0
 62
7
 10
22.523065322418208
 20
59.023188475526581
 70
0
  0
SEQEND
  5
7FAC
  8
0
  0
POLYLINE
  5
6F51
  8
0
 62
7
 66
1
 70
0
 10
0
 20
0
 30
0
  0
VERTEX
  5
7FAD
  8
0
 62
7
 10
22.310847440526832
 20
59.107076550592467
 70
0
  0
VERTEX
  5
7FAE
  8
0
 62
7
 10
22.310847440526832
 20
59.107076550592467
 70
0
  0
VERTEX
  5
7FAF
  8
0
 62
7
 10
22.35356662454393
 20
59.14979573460954
 70
0
  0
VERTEX
  5
7FB0
  8
0
 62
7
 10
22.396285808561029
 20
59.14979573460954
 70
0
  0
VERTEX
  5
7FB1
  8
0
 62
7
 10
22.437626954384029
 20
59.14979573460954
 70
0
  0
VERTEX
  5
7FB2
  8
0
 62
7
 10
22.437626954384029
 20
59.192514918626607
 70
0
  0
VERTEX
  5
7FB3
  8
0
 62
7
 10
22.480346138401131
 20
59.192514918626607
 70
0
  0
VERTEX
  5
7FB4
  8
0
 62
7
 10
22.523065322418208
 20
59.192514918626607
 70
0
  0
SEQEND
  5
7FB5
  8
0
  0
POLYLINE
  5
6F5B
  8
0
 62
7
 66
1
 70
0
 10
0
 20
0
 30
0
  0
VERTEX
  5
7FB6
  8
0
 62
7
 10
22.184067926669631
 20
59.023188475526581
 70
0
  0
VERTEX
  5
7FB7
  8
0
 62
7
 10
22.226787110686718
 20
59.023188475526581
 70
0
  0
VERTEX
  5
7FB8
  8
0
 62
7
 10
22.226787110686718
 20
59.065735404769441
 70
0
  0
VERTEX
  5
7FB9
  8
0
 62
7
 10
22.269506294703831
 20
59.065735404769441
 70
0
  0
VERTEX
  5
7FBA
  8
0
 62
7
 10
22.310847440526832
 20
59.065735404769441
 70
0
  0
VERTEX
  5
7FBB
  8
0
 62
7
 10
22.310847440526832
 20
59.107076550592467
 70
0
  0
SEQEND
  5
7FBC
  8
0
  0
POLYLINE
  5
6F63
  8
0
 62
7
 66
1
 70
0
 10
0
 20
0
 30
0
  0
VERTEX
  5
7FBD
  8
0
 62
7
 10
21.803729385098048
 20
57.118567436506211
 70
0
  0
VERTEX
  5
7FBE
  8
0
 62
7
 10
21.845070530921049
 20
57.118567436506211
 70
0
  0
VERTEX
  5
7FBF
  8
0
 62
7
 10
21.887789714938162
 20
57.118567436506211
 70
0
  0
VERTEX
  5
7FC0
  8
0
 62
7
 10
21.930508898955249
 20
57.118567436506211
 70
0
  0
VERTEX
  5
7FC1
  8
0
 62
7
 10
21.973228082972359
 20
57.118567436506211
 70
0
  0
VERTEX
  5
7FC2
  8
0
 62
7
 10
22.014569228795349
 20
57.118567436506211
 70
0
  0
VERTEX
  5
7FC3
  8
0
 62
7
 10
22.057288412812419
 20
57.118567436506211
 70
0
  0
VERTEX
  5
7FC4
  8
0
 62
7
 10
22.057288412812419
 20
57.075848252489152
 70
0
  0
VERTEX
  5
7FC5
  8
0
 62
7
 10
22.100007596829531
 20
57.075848252489152
 70
0
  0
VERTEX
  5
7FC6
  8
0
 62
7
 10
22.141348742652529
 20
57.075848252489152
 70
0
  0
VERTEX
  5
7FC7
  8
0
 62
7
 10
22.184067926669631
 20
57.075848252489152
 70
0
  0
SEQEND
  5
7FC8
  8
0
  0
POLYLINE
  5
6F70
  8
0
 62
7
 66
1
 70
0
 10
0
 20
0
 30
0
  0
VERTEX
  5
7FC9
  8
0
 62
7
 10
22.56578450643531
 20
58.853517522878072
 70
0
  0
VERTEX
  5
7FCA
  8
0
 62
7
 10
22.523065322418208
 20
58.853517522878072
 70
0
  0
VERTEX
  5
7FCB
  8
0
 62
7
 10
22.523065322418208
 20
58.896064452120868
 70
0
  0
VERTEX
  5
7FCC
  8
0
 62
7
 10
22.480346138401131
 20
58.896064452120868
 70
0
  0
VERTEX
  5
7FCD
  8
0
 62
7
 10
22.437626954384029
 20
58.896064452120868
 70
0
  0
VERTEX
  5
7FCE
  8
0
 62
7
 10
22.437626954384029
 20
58.938783636138
 70
0
  0
VERTEX
  5
7FCF
  8
0
 62
7
 10
22.396285808561029
 20
58.938783636138
 70
0
  0
VERTEX
  5
7FD0
  8
0
 62
7
 10
22.396285808561029
 20
58.9804692915095
 70
0
  0
VERTEX
  5
7FD1
  8
0
 62
7
 10
22.35356662454393
 20
58.9804692915095
 70
0
  0
VERTEX
  5
7FD2
  8
0
 62
7
 10
22.35356662454393
 20
59.023016220752361
 70
0
  0
VERTEX
  5
7FD3
  8
0
 62
7
 10
22.310847440526832
 20
59.023016220752361
 70
0
  0
SEQEND
  5
7FD4
  8
0
  0
POLYLINE
  5
6F7D
  8
0
 62
7
 66
1
 70
0
 10
0
 20
0
 30
0
  0
VERTEX
  5
7FD5
  8
0
 62
7
 10
22.184067926669631
 20
59.023188475526581
 70
0
  0
VERTEX
  5
7FD6
  8
0
 62
7
 10
22.226787110686718
 20
59.023188475526581
 70
0
  0
VERTEX
  5
7FD7
  8
0
 62
7
 10
22.269506294703831
 20
59.023188475526581
 70
0
  0
VERTEX
  5
7FD8
  8
0
 62
7
 10
22.310847440526832
 20
59.023188475526581
 70
0
  0
SEQEND
  5
7FD9
  8
0
  0
POLYLINE
  5
6F83
  8
0
 62
7
 66
1
 70
0
 10
0
 20
0
 30
0
  0
VERTEX
  5
7FDA
  8
0
 62
7
 10
22.56578450643531
 20
59.065735404769441
 70
0
  0
VERTEX
  5
7FDB
  8
0
 62
7
 10
22.56578450643531
 20
59.14979573460954
 70
0
  0
VERTEX
  5
7FDC
  8
0
 62
7
 10
22.523065322418208
 20
59.14979573460954
 70
0
  0
VERTEX
  5
7FDD
  8
0
 62
7
 10
22.523065322418208
 20
59.192514918626607
 70
0
  0
SEQEND
  5
7FDE
  8
0
  0
POLYLINE
  5
6F89
  8
0
 62
7
 66
1
 70
0
 10
0
 20
0
 30
0
  0
VERTEX
  5
7FDF
  8
0
 62
7
 10
22.56578450643531
 20
58.896064452120868
 70
0
  0
VERTEX
  5
7FE0
  8
0
 62
7
 10
22.56578450643531
 20
58.853517522878072
 70
0
  0
SEQEND
  5
7FE1
  8
0
  0
POLYLINE
  5
6F8D
  8
0
 62
7
 66
1
 70
0
 10
0
 20
0
 30
0
  0
VERTEX
  5
7FE2
  8
0
 62
7
 10
22.310847440526832
 20
59.107076550592467
 70
0
  0
VERTEX
  5
7FE3
  8
0
 62
7
 10
22.310847440526832
 20
59.023188475526581
 70
0
  0
SEQEND
  5
7FE4
  8
0
  0
POLYLINE
  5
6F91
  8
0
 62
7
 66
1
 70
0
 10
0
 20
0
 30
0
  0
VERTEX
  5
7FE5
  8
0
 62
7
 10
22.310847440526832
 20
59.107076550592467
 70
0
  0
VERTEX
  5
7FE6
  8
0
 62
7
 10
22.35356662454393
 20
59.107076550592467
 70
0
  0
VERTEX
  5
7FE7
  8
0
 62
7
 10
22.396285808561029
 20
59.107076550592467
 70
0
  0
VERTEX
  5
7FE8
  8
0
 62
7
 10
22.396285808561029
 20
59.065735404769441
 70
0
  0
VERTEX
  5
7FE9
  8
0
 62
7
 10
22.437626954384029
 20
59.065735404769441
 70
0
  0
VERTEX
  5
7FEA
  8
0
 62
7
 10
22.480346138401131
 20
59.065735404769441
 70
0
  0
VERTEX
  5
7FEB
  8
0
 62
7
 10
22.480346138401131
 20
59.023188475526581
 70
0
  0
VERTEX
  5
7FEC
  8
0
 62
7
 10
22.523065322418208
 20
59.023188475526581
 70
0
  0
SEQEND
  5
7FED
  8
0
  0
POLYLINE
  5
6F9B
  8
0
 62
7
 66
1
 70
0
 10
0
 20
0
 30
0
  0
VERTEX
  5
7FEE
  8
0
 62
7
 10
69.508655588449628
 20
47.170509713298813
 70
0
  0
VERTEX
  5
7FEF
  8
0
 62
7
 10
69.508655588449628
 20
47.466787925030289
 70
0
  0
VERTEX
  5
7FF0
  8
0
 62
7
 10
69.467314442626588
 20
47.466787925030289
 70
0
  0
VERTEX
  5
7FF1
  8
0
 62
7
 10
69.467314442626588
 20
47.509507109047377
 70
0
  0
VERTEX
  5
7FF2
  8
0
 62
7
 10
69.424595258609529
 20
47.509507109047377
 70
0
  0
VERTEX
  5
7FF3
  8
0
 62
7
 10
69.424595258609529
 20
47.5933951841132
 70
0
  0
VERTEX
  5
7FF4
  8
0
 62
7
 10
69.381876074592412
 20
47.5933951841132
 70
0
  0
VERTEX
  5
7FF5
  8
0
 62
7
 10
69.381876074592412
 20
47.636114368130322
 70
0
  0
SEQEND
  5
7FF6
  8
0
  0
POLYLINE
  5
6FA5
  8
0
 62
7
 66
1
 70
0
 10
0
 20
0
 30
0
  0
VERTEX
  5
7FF7
  8
0
 62
7
 10
69.381876074592412
 20
47.382899849964467
 70
0
  0
VERTEX
  5
7FF8
  8
0
 62
7
 10
69.381876074592412
 20
47.763066136761779
 70
0
  0
VERTEX
  5
7FF9
  8
0
 62
7
 10
69.33915689057531
 20
47.763066136761779
 70
0
  0
VERTEX
  5
7FFA
  8
0
 62
7
 10
69.33915689057531
 20
47.848504504795983
 70
0
  0
VERTEX
  5
7FFB
  8
0
 62
7
 10
69.297815744752313
 20
47.848504504795983
 70
0
  0
VERTEX
  5
7FFC
  8
0
 62
7
 10
69.297815744752313
 20
47.975111763878878
 70
0
  0
VERTEX
  5
7FFD
  8
0
 62
7
 10
69.255096560735211
 20
47.975111763878878
 70
0
  0
VERTEX
  5
7FFE
  8
0
 62
7
 10
69.255096560735211
 20
48.102235787284613
 70
0
  0
VERTEX
  5
7FFF
  8
0
 62
7
 10
69.2123773767181
 20
48.102235787284613
 70
0
  0
VERTEX
  5
8000
  8
0
 62
7
 10
69.171036230895112
 20
48.102235787284613
 70
0
  0
VERTEX
  5
8001
  8
0
 62
7
 10
69.171036230895112
 20
48.186123862350421
 70
0
  0
VERTEX
  5
8002
  8
0
 62
7
 10
69.12831704687801
 20
48.186123862350421
 70
0
  0
VERTEX
  5
8003
  8
0
 62
7
 10
69.12831704687801
 20
48.228843046367551
 70
0
  0
VERTEX
  5
8004
  8
0
 62
7
 10
69.0855978628609
 20
48.228843046367551
 70
0
  0
VERTEX
  5
8005
  8
0
 62
7
 10
69.042878678843834
 20
48.228843046367551
 70
0
  0
VERTEX
  5
8006
  8
0
 62
7
 10
69.042878678843834
 20
48.271562230384639
 70
0
  0
VERTEX
  5
8007
  8
0
 62
7
 10
69.001537533020837
 20
48.271562230384639
 70
0
  0
VERTEX
  5
8008
  8
0
 62
7
 10
68.958818349003749
 20
48.271562230384639
 70
0
  0
VERTEX
  5
8009
  8
0
 62
7
 10
68.958818349003749
 20
48.31273112143338
 70
0
  0
VERTEX
  5
800A
  8
0
 62
7
 10
68.916099164986633
 20
48.31273112143338
 70
0
  0
SEQEND
  5
800B
  8
0
  0
POLYLINE
  5
6FBB
  8
0
 62
7
 66
1
 70
0
 10
0
 20
0
 30
0
  0
VERTEX
  5
800C
  8
0
 62
7
 10
69.508655588449628
 20
47.170509713298813
 70
0
  0
VERTEX
  5
800D
  8
0
 62
7
 10
69.508655588449628
 20
46.87423150156728
 70
0
  0
VERTEX
  5
800E
  8
0
 62
7
 10
69.467314442626588
 20
46.87423150156728
 70
0
  0
VERTEX
  5
800F
  8
0
 62
7
 10
69.467314442626588
 20
46.790171171727181
 70
0
  0
VERTEX
  5
8010
  8
0
 62
7
 10
69.424595258609529
 20
46.747451987710107
 70
0
  0
VERTEX
  5
8011
  8
0
 62
7
 10
69.424595258609529
 20
46.620500219078693
 70
0
  0
VERTEX
  5
8012
  8
0
 62
7
 10
69.381876074592412
 20
46.620500219078693
 70
0
  0
VERTEX
  5
8013
  8
0
 62
7
 10
69.381876074592412
 20
46.53506185104446
 70
0
  0
VERTEX
  5
8014
  8
0
 62
7
 10
69.33915689057531
 20
46.53506185104446
 70
0
  0
VERTEX
  5
8015
  8
0
 62
7
 10
69.33915689057531
 20
46.4938929599957
 70
0
  0
VERTEX
  5
8016
  8
0
 62
7
 10
69.297815744752313
 20
46.4938929599957
 70
0
  0
VERTEX
  5
8017
  8
0
 62
7
 10
69.297815744752313
 20
46.451173775978639
 70
0
  0
VERTEX
  5
8018
  8
0
 62
7
 10
69.255096560735211
 20
46.451173775978639
 70
0
  0
VERTEX
  5
8019
  8
0
 62
7
 10
69.255096560735211
 20
46.365735407944442
 70
0
  0
VERTEX
  5
801A
  8
0
 62
7
 10
69.2123773767181
 20
46.365735407944442
 70
0
  0
VERTEX
  5
801B
  8
0
 62
7
 10
69.2123773767181
 20
46.324566516895679
 70
0
  0
VERTEX
  5
801C
  8
0
 62
7
 10
69.171036230895112
 20
46.324566516895679
 70
0
  0
VERTEX
  5
801D
  8
0
 62
7
 10
69.12831704687801
 20
46.324566516895679
 70
0
  0
VERTEX
  5
801E
  8
0
 62
7
 10
69.12831704687801
 20
46.2818473328786
 70
0
  0
VERTEX
  5
801F
  8
0
 62
7
 10
69.0855978628609
 20
46.2818473328786
 70
0
  0
SEQEND
  5
8020
  8
0
  0
POLYLINE
  5
6FD1
  8
0
 62
7
 66
1
 70
0
 10
0
 20
0
 30
0
  0
VERTEX
  5
8021
  8
0
 62
7
 10
69.381876074592412
 20
47.382899849964467
 70
0
  0
VERTEX
  5
8022
  8
0
 62
7
 10
69.381876074592412
 20
46.958119576633123
 70
0
  0
VERTEX
  5
8023
  8
0
 62
7
 10
69.33915689057531
 20
46.958119576633123
 70
0
  0
VERTEX
  5
8024
  8
0
 62
7
 10
69.33915689057531
 20
46.87423150156728
 70
0
  0
VERTEX
  5
8025
  8
0
 62
7
 10
69.297815744752313
 20
46.87423150156728
 70
0
  0
VERTEX
  5
8026
  8
0
 62
7
 10
69.297815744752313
 20
46.704732803693027
 70
0
  0
VERTEX
  5
8027
  8
0
 62
7
 10
69.255096560735211
 20
46.662185874450181
 70
0
  0
VERTEX
  5
8028
  8
0
 62
7
 10
69.255096560735211
 20
46.535234105818752
 70
0
  0
VERTEX
  5
8029
  8
0
 62
7
 10
69.2123773767181
 20
46.535234105818752
 70
0
  0
VERTEX
  5
802A
  8
0
 62
7
 10
69.2123773767181
 20
46.4938929599957
 70
0
  0
VERTEX
  5
802B
  8
0
 62
7
 10
69.171036230895112
 20
46.4938929599957
 70
0
  0
VERTEX
  5
802C
  8
0
 62
7
 10
69.171036230895112
 20
46.365735407944442
 70
0
  0
VERTEX
  5
802D
  8
0
 62
7
 10
69.12831704687801
 20
46.365735407944442
 70
0
  0
VERTEX
  5
802E
  8
0
 62
7
 10
69.12831704687801
 20
46.2818473328786
 70
0
  0
VERTEX
  5
802F
  8
0
 62
7
 10
69.0855978628609
 20
46.2818473328786
 70
0
  0
VERTEX
  5
8030
  8
0
 62
7
 10
69.0855978628609
 20
46.238783639312992
 70
0
  0
VERTEX
  5
8031
  8
0
 62
7
 10
69.042878678843834
 20
46.238783639312992
 70
0
  0
VERTEX
  5
8032
  8
0
 62
7
 10
69.042878678843834
 20
46.197614748264243
 70
0
  0
VERTEX
  5
8033
  8
0
 62
7
 10
69.001537533020837
 20
46.15489556424717
 70
0
  0
VERTEX
  5
8034
  8
0
 62
7
 10
69.001537533020837
 20
46.112176380230039
 70
0
  0
VERTEX
  5
8035
  8
0
 62
7
 10
68.958818349003749
 20
46.112176380230039
 70
0
  0
VERTEX
  5
8036
  8
0
 62
7
 10
68.958818349003749
 20
46.069457196212959
 70
0
  0
VERTEX
  5
8037
  8
0
 62
7
 10
68.916099164986633
 20
46.069457196212959
 70
0
  0
VERTEX
  5
8038
  8
0
 62
7
 10
68.916099164986633
 20
46.02811605038994
 70
0
  0
VERTEX
  5
8039
  8
0
 62
7
 10
68.874758019163636
 20
46.02811605038994
 70
0
  0
VERTEX
  5
803A
  8
0
 62
7
 10
68.874758019163636
 20
45.98556912114713
 70
0
  0
VERTEX
  5
803B
  8
0
 62
7
 10
68.832038835146534
 20
45.98556912114713
 70
0
  0
VERTEX
  5
803C
  8
0
 62
7
 10
68.832038835146534
 20
45.94284993713
 70
0
  0
VERTEX
  5
803D
  8
0
 62
7
 10
68.789319651129432
 20
45.94284993713
 70
0
  0
VERTEX
  5
803E
  8
0
 62
7
 10
68.74660046711233
 20
45.94284993713
 70
0
  0
VERTEX
  5
803F
  8
0
 62
7
 10
68.74660046711233
 20
45.90116428175849
 70
0
  0
VERTEX
  5
8040
  8
0
 62
7
 10
68.705259321289333
 20
45.90116428175849
 70
0
  0
VERTEX
  5
8041
  8
0
 62
7
 10
68.705259321289333
 20
45.858445097741424
 70
0
  0
VERTEX
  5
8042
  8
0
 62
7
 10
68.662540137272231
 20
45.858445097741424
 70
0
  0
VERTEX
  5
8043
  8
0
 62
7
 10
68.619820953255129
 20
45.858445097741424
 70
0
  0
VERTEX
  5
8044
  8
0
 62
7
 10
68.577101769238055
 20
45.858445097741424
 70
0
  0
VERTEX
  5
8045
  8
0
 62
7
 10
68.577101769238055
 20
45.815898168498563
 70
0
  0
VERTEX
  5
8046
  8
0
 62
7
 10
68.535760623415058
 20
45.815898168498563
 70
0
  0
VERTEX
  5
8047
  8
0
 62
7
 10
68.49304143939797
 20
45.815898168498563
 70
0
  0
VERTEX
  5
8048
  8
0
 62
7
 10
68.450322255380854
 20
45.815898168498563
 70
0
  0
VERTEX
  5
8049
  8
0
 62
7
 10
68.408981109557857
 20
45.815898168498563
 70
0
  0
VERTEX
  5
804A
  8
0
 62
7
 10
68.408981109557857
 20
45.858445097741424
 70
0
  0
SEQEND
  5
804B
  8
0
  0
POLYLINE
  5
6FFD
  8
0
 62
7
 66
1
 70
0
 10
0
 20
0
 30
0
  0
VERTEX
  5
804C
  8
0
 62
7
 10
35.81424370451208
 20
49.667514921007871
 70
0
  0
VERTEX
  5
804D
  8
0
 62
7
 10
35.856962888529189
 20
49.667514921007871
 70
0
  0
VERTEX
  5
804E
  8
0
 62
7
 10
35.856962888529189
 20
49.71006185025071
 70
0
  0
VERTEX
  5
804F
  8
0
 62
7
 10
35.899682072546277
 20
49.71006185025071
 70
0
  0
SEQEND
  5
8050
  8
0
  0
POLYLINE
  5
7003
  8
0
 62
7
 66
1
 70
0
 10
0
 20
0
 30
0
  0
VERTEX
  5
8051
  8
0
 62
7
 10
35.899682072546277
 20
49.667514921007871
 70
0
  0
VERTEX
  5
8052
  8
0
 62
7
 10
35.899682072546277
 20
49.71006185025071
 70
0
  0
VERTEX
  5
8053
  8
0
 62
7
 10
35.856962888529189
 20
49.71006185025071
 70
0
  0
VERTEX
  5
8054
  8
0
 62
7
 10
35.856962888529189
 20
49.7527810342678
 70
0
  0
VERTEX
  5
8055
  8
0
 62
7
 10
35.81424370451208
 20
49.7527810342678
 70
0
  0
VERTEX
  5
8056
  8
0
 62
7
 10
35.771524520494978
 20
49.7527810342678
 70
0
  0
VERTEX
  5
8057
  8
0
 62
7
 10
35.730183374671967
 20
49.795500218284928
 70
0
  0
VERTEX
  5
8058
  8
0
 62
7
 10
35.687464190654907
 20
49.795500218284928
 70
0
  0
VERTEX
  5
8059
  8
0
 62
7
 10
35.644745006637812
 20
49.795500218284928
 70
0
  0
VERTEX
  5
805A
  8
0
 62
7
 10
35.603403860814808
 20
49.795500218284928
 70
0
  0
VERTEX
  5
805B
  8
0
 62
7
 10
35.56068467679772
 20
49.795500218284928
 70
0
  0
VERTEX
  5
805C
  8
0
 62
7
 10
35.517965492780611
 20
49.795500218284928
 70
0
  0
VERTEX
  5
805D
  8
0
 62
7
 10
35.475246308763509
 20
49.795500218284928
 70
0
  0
VERTEX
  5
805E
  8
0
 62
7
 10
35.433905162940512
 20
49.795500218284928
 70
0
  0
VERTEX
  5
805F
  8
0
 62
7
 10
35.39118597892341
 20
49.795500218284928
 70
0
  0
VERTEX
  5
8060
  8
0
 62
7
 10
35.348466794906287
 20
49.795500218284928
 70
0
  0
VERTEX
  5
8061
  8
0
 62
7
 10
35.307125649083311
 20
49.795500218284928
 70
0
  0
VERTEX
  5
8062
  8
0
 62
7
 10
35.2644064650662
 20
49.795500218284928
 70
0
  0
VERTEX
  5
8063
  8
0
 62
7
 10
35.221687281049142
 20
49.795500218284928
 70
0
  0
VERTEX
  5
8064
  8
0
 62
7
 10
35.178968097032033
 20
49.795500218284928
 70
0
  0
VERTEX
  5
8065
  8
0
 62
7
 10
35.137626951209029
 20
49.795500218284928
 70
0
  0
VERTEX
  5
8066
  8
0
 62
7
 10
35.137626951209029
 20
49.7527810342678
 70
0
  0
VERTEX
  5
8067
  8
0
 62
7
 10
35.094907767191927
 20
49.7527810342678
 70
0
  0
SEQEND
  5
8068
  8
0
  0
POLYLINE
  5
701C
  8
0
 62
7
 66
1
 70
0
 10
0
 20
0
 30
0
  0
VERTEX
  5
8069
  8
0
 62
7
 10
35.010847437351828
 20
49.710234105025
 70
0
  0
VERTEX
  5
806A
  8
0
 62
7
 10
35.010847437351828
 20
49.667514921007871
 70
0
  0
VERTEX
  5
806B
  8
0
 62
7
 10
35.052188583174832
 20
49.667514921007871
 70
0
  0
VERTEX
  5
806C
  8
0
 62
7
 10
35.094907767191927
 20
49.667514921007871
 70
0
  0
VERTEX
  5
806D
  8
0
 62
7
 10
35.094907767191927
 20
49.6261737751849
 70
0
  0
VERTEX
  5
806E
  8
0
 62
7
 10
35.137626951209029
 20
49.6261737751849
 70
0
  0
VERTEX
  5
806F
  8
0
 62
7
 10
35.178968097032033
 20
49.6261737751849
 70
0
  0
VERTEX
  5
8070
  8
0
 62
7
 10
35.221687281049142
 20
49.6261737751849
 70
0
  0
VERTEX
  5
8071
  8
0
 62
7
 10
35.2644064650662
 20
49.6261737751849
 70
0
  0
VERTEX
  5
8072
  8
0
 62
7
 10
35.307125649083311
 20
49.6261737751849
 70
0
  0
VERTEX
  5
8073
  8
0
 62
7
 10
35.348466794906287
 20
49.6261737751849
 70
0
  0
VERTEX
  5
8074
  8
0
 62
7
 10
35.39118597892341
 20
49.6261737751849
 70
0
  0
SEQEND
  5
8075
  8
0
  0
POLYLINE
  5
702A
  8
0
 62
7
 66
1
 70
0
 10
0
 20
0
 30
0
  0
VERTEX
  5
8076
  8
0
 62
7
 10
35.475246308763509
 20
49.6261737751849
 70
0
  0
VERTEX
  5
8077
  8
0
 62
7
 10
35.517965492780611
 20
49.6261737751849
 70
0
  0
VERTEX
  5
8078
  8
0
 62
7
 10
35.56068467679772
 20
49.6261737751849
 70
0
  0
VERTEX
  5
8079
  8
0
 62
7
 10
35.603403860814808
 20
49.6261737751849
 70
0
  0
VERTEX
  5
807A
  8
0
 62
7
 10
35.644745006637812
 20
49.6261737751849
 70
0
  0
VERTEX
  5
807B
  8
0
 62
7
 10
35.687464190654907
 20
49.6261737751849
 70
0
  0
VERTEX
  5
807C
  8
0
 62
7
 10
35.730183374671967
 20
49.6261737751849
 70
0
  0
VERTEX
  5
807D
  8
0
 62
7
 10
35.771524520494978
 20
49.6261737751849
 70
0
  0
VERTEX
  5
807E
  8
0
 62
7
 10
35.771524520494978
 20
49.667514921007871
 70
0
  0
VERTEX
  5
807F
  8
0
 62
7
 10
35.81424370451208
 20
49.667514921007871
 70
0
  0
SEQEND
  5
8080
  8
0
  0
POLYLINE
  5
7036
  8
0
 62
7
 66
1
 70
0
 10
0
 20
0
 30
0
  0
VERTEX
  5
8081
  8
0
 62
7
 10
35.094907767191927
 20
49.7527810342678
 70
0
  0
VERTEX
  5
8082
  8
0
 62
7
 10
35.052188583174832
 20
49.7527810342678
 70
0
  0
VERTEX
  5
8083
  8
0
 62
7
 10
35.010847437351828
 20
49.7527810342678
 70
0
  0
VERTEX
  5
8084
  8
0
 62
7
 10
35.010847437351828
 20
49.667514921007871
 70
0
  0
SEQEND
  5
8085
  8
0
  0
POLYLINE
  5
703C
  8
0
 62
7
 66
1
 70
0
 10
0
 20
0
 30
0
  0
VERTEX
  5
8086
  8
0
 62
7
 10
35.81424370451208
 20
49.6261737751849
 70
0
  0
VERTEX
  5
8087
  8
0
 62
7
 10
35.856962888529189
 20
49.6261737751849
 70
0
  0
VERTEX
  5
8088
  8
0
 62
7
 10
35.856962888529189
 20
49.667514921007871
 70
0
  0
VERTEX
  5
8089
  8
0
 62
7
 10
35.899682072546277
 20
49.667514921007871
 70
0
  0
SEQEND
  5
808A
  8
0
  0
POLYLINE
  5
7042
  8
0
 62
7
 66
1
 70
0
 10
0
 20
0
 30
0
  0
VERTEX
  5
808B
  8
0
 62
7
 10
35.010847437351828
 20
49.667514921007871
 70
0
  0
VERTEX
  5
808C
  8
0
 62
7
 10
35.010847437351828
 20
49.6261737751849
 70
0
  0
VERTEX
  5
808D
  8
0
 62
7
 10
35.052188583174832
 20
49.6261737751849
 70
0
  0
VERTEX
  5
808E
  8
0
 62
7
 10
35.094907767191927
 20
49.6261737751849
 70
0
  0
VERTEX
  5
808F
  8
0
 62
7
 10
35.137626951209029
 20
49.6261737751849
 70
0
  0
VERTEX
  5
8090
  8
0
 62
7
 10
35.137626951209029
 20
49.583454591167772
 70
0
  0
VERTEX
  5
8091
  8
0
 62
7
 10
35.178968097032033
 20
49.583454591167772
 70
0
  0
VERTEX
  5
8092
  8
0
 62
7
 10
35.221687281049142
 20
49.583454591167772
 70
0
  0
VERTEX
  5
8093
  8
0
 62
7
 10
35.221687281049142
 20
49.540735407150692
 70
0
  0
VERTEX
  5
8094
  8
0
 62
7
 10
35.2644064650662
 20
49.540735407150692
 70
0
  0
VERTEX
  5
8095
  8
0
 62
7
 10
35.307125649083311
 20
49.540735407150692
 70
0
  0
VERTEX
  5
8096
  8
0
 62
7
 10
35.348466794906287
 20
49.540735407150692
 70
0
  0
VERTEX
  5
8097
  8
0
 62
7
 10
35.39118597892341
 20
49.540735407150692
 70
0
  0
SEQEND
  5
8098
  8
0
  0
POLYLINE
  5
7051
  8
0
 62
7
 66
1
 70
0
 10
0
 20
0
 30
0
  0
VERTEX
  5
8099
  8
0
 62
7
 10
35.475246308763509
 20
49.540735407150692
 70
0
  0
VERTEX
  5
809A
  8
0
 62
7
 10
35.517965492780611
 20
49.540735407150692
 70
0
  0
VERTEX
  5
809B
  8
0
 62
7
 10
35.56068467679772
 20
49.540735407150692
 70
0
  0
VERTEX
  5
809C
  8
0
 62
7
 10
35.603403860814808
 20
49.540735407150692
 70
0
  0
VERTEX
  5
809D
  8
0
 62
7
 10
35.644745006637812
 20
49.540735407150692
 70
0
  0
VERTEX
  5
809E
  8
0
 62
7
 10
35.687464190654907
 20
49.540735407150692
 70
0
  0
VERTEX
  5
809F
  8
0
 62
7
 10
35.687464190654907
 20
49.583454591167772
 70
0
  0
VERTEX
  5
80A0
  8
0
 62
7
 10
35.730183374671967
 20
49.583454591167772
 70
0
  0
VERTEX
  5
80A1
  8
0
 62
7
 10
35.771524520494978
 20
49.583454591167772
 70
0
  0
VERTEX
  5
80A2
  8
0
 62
7
 10
35.771524520494978
 20
49.6261737751849
 70
0
  0
VERTEX
  5
80A3
  8
0
 62
7
 10
35.81424370451208
 20
49.6261737751849
 70
0
  0
SEQEND
  5
80A4
  8
0
  0
POLYLINE
  5
705E
  8
0
 62
7
 66
1
 70
0
 10
0
 20
0
 30
0
  0
VERTEX
  5
80A5
  8
0
 62
7
 10
41.825246307176
 20
54.70545030386296
 70
0
  0
VERTEX
  5
80A6
  8
0
 62
7
 10
41.7825271231589
 20
54.70545030386296
 70
0
  0
VERTEX
  5
80A7
  8
0
 62
7
 10
41.7411859773359
 20
54.70545030386296
 70
0
  0
VERTEX
  5
80A8
  8
0
 62
7
 10
41.698466793318786
 20
54.70545030386296
 70
0
  0
VERTEX
  5
80A9
  8
0
 62
7
 10
41.65574760930172
 20
54.70545030386296
 70
0
  0
VERTEX
  5
80AA
  8
0
 62
7
 10
41.613028425284632
 20
54.70545030386296
 70
0
  0
VERTEX
  5
80AB
  8
0
 62
7
 10
41.571687279461628
 20
54.70545030386296
 70
0
  0
SEQEND
  5
80AC
  8
0
  0
POLYLINE
  5
7067
  8
0
 62
7
 66
1
 70
0
 10
0
 20
0
 30
0
  0
VERTEX
  5
80AD
  8
0
 62
7
 10
41.105910369855842
 20
54.83240207249446
 70
0
  0
VERTEX
  5
80AE
  8
0
 62
7
 10
41.06319118583874
 20
54.83240207249446
 70
0
  0
VERTEX
  5
80AF
  8
0
 62
7
 10
41.020472001821638
 20
54.83240207249446
 70
0
  0
VERTEX
  5
80B0
  8
0
 62
7
 10
40.979130855998648
 20
54.83240207249446
 70
0
  0
VERTEX
  5
80B1
  8
0
 62
7
 10
40.936411671981517
 20
54.83240207249446
 70
0
  0
VERTEX
  5
80B2
  8
0
 62
7
 10
40.936411671981517
 20
54.875121256511541
 70
0
  0
VERTEX
  5
80B3
  8
0
 62
7
 10
40.893692487964429
 20
54.875121256511541
 70
0
  0
SEQEND
  5
80B4
  8
0
  0
POLYLINE
  5
7070
  8
0
 62
7
 66
1
 70
0
 10
0
 20
0
 30
0
  0
VERTEX
  5
80B5
  8
0
 62
7
 10
49.021361756765842
 20
53.181512315962713
 70
0
  0
VERTEX
  5
80B6
  8
0
 62
7
 10
48.978642572748782
 20
53.181512315962713
 70
0
  0
VERTEX
  5
80B7
  8
0
 62
7
 10
48.93730142692575
 20
53.181512315962713
 70
0
  0
VERTEX
  5
80B8
  8
0
 62
7
 10
48.894582242908669
 20
53.181512315962713
 70
0
  0
VERTEX
  5
80B9
  8
0
 62
7
 10
48.894582242908669
 20
53.22423149997978
 70
0
  0
VERTEX
  5
80BA
  8
0
 62
7
 10
48.851863058891581
 20
53.22423149997978
 70
0
  0
VERTEX
  5
80BB
  8
0
 62
7
 10
48.809143874874479
 20
53.22423149997978
 70
0
  0
VERTEX
  5
80BC
  8
0
 62
7
 10
48.767802729051468
 20
53.22423149997978
 70
0
  0
VERTEX
  5
80BD
  8
0
 62
7
 10
48.725083545034373
 20
53.22423149997978
 70
0
  0
VERTEX
  5
80BE
  8
0
 62
7
 10
48.682364361017278
 20
53.22423149997978
 70
0
  0
VERTEX
  5
80BF
  8
0
 62
7
 10
48.641023215194281
 20
53.22423149997978
 70
0
  0
VERTEX
  5
80C0
  8
0
 62
7
 10
48.598304031177179
 20
53.22423149997978
 70
0
  0
VERTEX
  5
80C1
  8
0
 62
7
 10
48.555584847160077
 20
53.22423149997978
 70
0
  0
VERTEX
  5
80C2
  8
0
 62
7
 10
48.555584847160077
 20
53.26540039102855
 70
0
  0
VERTEX
  5
80C3
  8
0
 62
7
 10
48.512865663143
 20
53.26540039102855
 70
0
  0
VERTEX
  5
80C4
  8
0
 62
7
 10
48.47152451732
 20
53.26540039102855
 70
0
  0
VERTEX
  5
80C5
  8
0
 62
7
 10
48.47152451732
 20
53.308119575045609
 70
0
  0
VERTEX
  5
80C6
  8
0
 62
7
 10
48.428805333302911
 20
53.308119575045609
 70
0
  0
VERTEX
  5
80C7
  8
0
 62
7
 10
48.386086149285788
 20
53.308119575045609
 70
0
  0
VERTEX
  5
80C8
  8
0
 62
7
 10
48.386086149285788
 20
53.35118326861128
 70
0
  0
SEQEND
  5
80C9
  8
0
  0
POLYLINE
  5
7086
  8
0
 62
7
 66
1
 70
0
 10
0
 20
0
 30
0
  0
VERTEX
  5
80CA
  8
0
 62
7
 10
71.075485015141226
 20
48.694447701199067
 70
0
  0
VERTEX
  5
80CB
  8
0
 62
7
 10
71.075485015141226
 20
48.651728517182
 70
0
  0
VERTEX
  5
80CC
  8
0
 62
7
 10
71.118204199158328
 20
48.651728517182
 70
0
  0
SEQEND
  5
80CD
  8
0
  0
INSERT
  5
80DC
  8
0
  2
SPECEL-LFV20041-13N4
 10
90
 20
16
 30
0
 41
1
 42
1
 43
1
 50
0
  0
ENDSEC
999
Created By CadLib version 4.0.36.7
999
CadLib website: www.woutware.com
  0
EOF
