  0
SECTION
  2
HEADER
  9
$ACADVER
  1
AC1009
  9
$INSBASE
 10
0
 20
0
 30
0
  9
$EXTMIN
 10
0
 20
0
  9
$EXTMAX
 10
105
 20
74.25
  9
$LIMMIN
 10
0
 20
0
  9
$LIMMAX
 10
105
 20
74.25
  9
$LTSCALE
 40
0.25
  0
ENDSEC
  0
SECTION
  2
TABLES
  0
TABLE
  2
LTYPE
 70
     9
  0
LTYPE
  2
CONTINUOUS
 70
    64
  3
実線
 72
    65
 73
     0
 40
0.0
  0
LTYPE
  2
DASHED1
 70
    64
  3
--  --  --  --  --  --  --  --  
 72
    65
 73
     2
 40
2.5
 49
1.25
 49
-1.25
  0
LTYPE
  2
DASHED2
 70
    64
  3
----    ----    ----    ----    
 72
    65
 73
     2
 40
5.0
 49
2.5
 49
-2.5
  0
LTYPE
  2
DASHED3
 70
    64
  3
------  ------  ------  ------  
 72
    65
 73
     2
 40
5.0
 49
3.75
 49
-1.25
  0
LTYPE
  2
CENTER1
 70
    64
  3
----- - ----- - ----- - ----- - 
 72
    65
 73
     4
 40
10.0
 49
6.25
 49
-1.25
 49
1.25
 49
-1.25
  0
LTYPE
  2
CENTER2
 70
    64
  3
----------  --  ----------  --  
 72
    65
 73
     4
 40
20.0
 49
12.5
 49
-2.5
 49
2.5
 49
-2.5
  0
LTYPE
  2
PHANTOM1
 70
    64
  3
--- - - --- - - --- - - --- - - 
 72
    65
 73
     6
 40
10.0
 49
3.25
 49
-1.25
 49
1.25
 49
-1.25
 49
1.25
 49
-1.25
  0
LTYPE
  2
PHANTOM2
 70
    64
  3
--------  -  -  --------  -  -  
 72
    65
 73
     6
 40
20.0
 49
10.0
 49
-2.5
 49
1.25
 49
-2.5
 49
1.25
 49
-2.5
  0
LTYPE
  2
DOT
 70
    64
  3
-   -   -   -   -   -   -   -   
 72
    65
 73
     2
 40
2.5
 49
0.625
 49
-1.875
  0
LTYPE
  2
DUMMY
 70
    64
  3
ダミー
 72
    65
 73
     0
 40
0.0
  0
LTYPE
  2
RAND1
 70
    64
  3
ランダム線1
 72
    65
 73
     4
 40
10.0
 49
1.0
 49
-2.0
 49
3.0
 49
-4.0
  0
LTYPE
  2
RAND2
 70
    64
  3
ランダム線2
 72
    65
 73
     4
 40
14.0
 49
2.0
 49
-3.0
 49
4.0
 49
-5.0
  0
LTYPE
  2
RAND3
 70
    64
  3
ランダム線3
 72
    65
 73
     4
 40
18.0
 49
3.0
 49
-4.0
 49
5.0
 49
-6.0
  0
LTYPE
  2
RAND4
 70
    64
  3
ランダム線4
 72
    65
 73
     4
 40
22.0
 49
4.0
 49
-5.0
 49
6.0
 49
-7.0
  0
LTYPE
  2
RAND5
 70
    64
  3
ランダム線5
 72
    65
 73
     4
 40
26.0
 49
5.0
 49
-6.0
 49
7.0
 49
-8.0
  0
LTYPE
  2
LONG1
 70
    64
  3
----------  --  ----------  --  
 72
    65
 73
     4
 40
40.0
 49
32.5
 49
-2.5
 49
2.5
 49
-2.5
  0
LTYPE
  2
LONG2
 70
    64
  3
--------  -  -  --------  -  -  
 72
    65
 73
     6
 40
40.0
 49
30.0
 49
-2.5
 49
1.25
 49
-2.5
 49
1.25
 49
-2.5
  0
LTYPE
  2
LONG3
 70
    64
  3
+++++++++++++++..+++++++++++++++
 72
    65
 73
     2
 40
40.0
 49
37.5
 49
-2.5
  0
LTYPE
  2
LONG4
 70
    64
  3
+++++++++++++++..+++++++++++++++
 72
    65
 73
     2
 40
80.0
 49
75.0
 49
-5.0
  0
LTYPE
  2
LONG5
 70
    64
  3
----------  --  ----------  --  
 72
    65
 73
     4
 40
60.0
 49
37.5
 49
-7.5
 49
7.5
 49
-7.5
  0
LTYPE
  2
dashed
 70
   64
  3
-------   -------------   ------
 72
   65
 73
    2
 40
7.5
 49
6
 49
-1.5
  0
LTYPE
  2
dashed_spaced
 70
   64
  3
----        --------        ----
 72
   65
 73
    2
 40
12
 49
6
 49
-6
  0
LTYPE
  2
long_dashed_dotted
 70
   64
  3
------------- --- --------------
 72
   65
 73
    4
 40
15.25
 49
12
 49
-1.5
 49
0.25
 49
-1.5
  0
LTYPE
  2
long_dashed_double-dotted
 70
   64
  3
----------- --- --- ------------
 72
   65
 73
    6
 40
17
 49
12
 49
-1.5
 49
0.25
 49
-1.5
 49
0.25
 49
-1.5
  0
LTYPE
  2
long_dashed_triplicate-dotted
 70
   64
  3
--------- --- --- --- ----------
 72
   65
 73
    8
 40
18.75
 49
12
 49
-1.5
 49
0.25
 49
-1.5
 49
0.25
 49
-1.5
 49
0.25
 49
-1.5
  0
LTYPE
  2
dotted
 70
   64
  3
   -       -       -       -    
 72
   65
 73
    2
 40
1.75
 49
0.25
 49
-1.5
  0
LTYPE
  2
chain
 70
   64
  3
-------------- -- --------------
 72
   65
 73
    4
 40
18.5
 49
12
 49
-1.5
 49
3.5
 49
-1.5
  0
LTYPE
  2
chain_double_dash
 70
   64
  3
------------ -- -- -------------
 72
   65
 73
    6
 40
23.5
 49
12
 49
-1.5
 49
3.5
 49
-1.5
 49
3.5
 49
-1.5
  0
LTYPE
  2
dashed_dotted
 70
   64
  3
-----------     -     ----------
 72
   65
 73
    4
 40
9.25
 49
6
 49
-1.5
 49
0.25
 49
-1.5
  0
LTYPE
  2
double-dashed_dotted
 70
   64
  3
------   -----------   -   -----
 72
   65
 73
    6
 40
16.75
 49
6
 49
-1.5
 49
6
 49
-1.5
 49
0.25
 49
-1.5
  0
LTYPE
  2
dashed_double-dotted
 70
   64
  3
---------    -    -    ---------
 72
   65
 73
    6
 40
11
 49
6
 49
-1.5
 49
0.25
 49
-1.5
 49
0.25
 49
-1.5
  0
LTYPE
  2
double-dashed_double-dotted
 70
   64
  3
-----   ---------   -   -   ----
 72
   65
 73
    8
 40
18.5
 49
6
 49
-1.5
 49
6
 49
-1.5
 49
0.25
 49
-1.5
 49
0.25
 49
-1.5
  0
LTYPE
  2
dashed_triplicate-dotted
 70
   64
  3
-------    -    -    -    ------
 72
   65
 73
    8
 40
12.75
 49
6
 49
-1.5
 49
0.25
 49
-1.5
 49
0.25
 49
-1.5
 49
0.25
 49
-1.5
  0
LTYPE
  2
double-dashed_triplicate-dotted
 70
   64
  3
-----  ---------  -  -  -  -----
 72
   65
 73
   10
 40
20.25
 49
6
 49
-1.5
 49
6
 49
-1.5
 49
0.25
 49
-1.5
 49
0.25
 49
-1.5
 49
0.25
 49
-1.5
  0
LTYPE
  2
undefined
 70
   64
  3
--------------------------------
 72
   65
 73
    0
 40
0
  0
LTYPE
  2
_
 70
   64
  3
                                
 72
   65
 73
    0
 40
0
  0
LTYPE
  2
__18
 70
   64
  3
                                
 72
   65
 73
    0
 40
0
  0
LTYPE
  2
__19
 70
   64
  3
                                
 72
   65
 73
    0
 40
0
  0
LTYPE
  2
__20
 70
   64
  3
                                
 72
   65
 73
    0
 40
0
  0
LTYPE
  2
__21
 70
   64
  3
                                
 72
   65
 73
    0
 40
0
  0
LTYPE
  2
__22
 70
   64
  3
                                
 72
   65
 73
    0
 40
0
  0
LTYPE
  2
__23
 70
   64
  3
                                
 72
   65
 73
    0
 40
0
  0
LTYPE
  2
__24
 70
   64
  3
                                
 72
   65
 73
    0
 40
0
  0
LTYPE
  2
__25
 70
   64
  3
                                
 72
   65
 73
    0
 40
0
  0
LTYPE
  2
__26
 70
   64
  3
                                
 72
   65
 73
    0
 40
0
  0
LTYPE
  2
__27
 70
   64
  3
                                
 72
   65
 73
    0
 40
0
  0
LTYPE
  2
__28
 70
   64
  3
                                
 72
   65
 73
    0
 40
0
  0
LTYPE
  2
__29
 70
   64
  3
                                
 72
   65
 73
    0
 40
0
  0
LTYPE
  2
__30
 70
   64
  3
                                
 72
   65
 73
    0
 40
0
  0
LTYPE
  2
__31
 70
   64
  3
                                
 72
   65
 73
    0
 40
0
  0
LTYPE
  2
__32
 70
   64
  3
                                
 72
   65
 73
    0
 40
0
  0
ENDTAB
  0
TABLE
  2
STYLE
  5
3
100
AcDbSymbolTable
 70
     1
  0
STYLE
  5
10
100
AcDbSymbolTableRecord
100
AcDbTextStyleTableRecord
  2
STANDARD
 70
     0
 40
0.0
 41
1.0
 50
0.0
 71
     0
 42
0.2
  3
txt
  4
bigfont.shx
  0
STYLE
  5
26
100
AcDbSymbolTableRecord
100
AcDbTextStyleTableRecord
  2
TATEGAKI
 70
    68
 40
0.0
 41
1.0
 50
0.0
 71
     0
 42
1.0
  3
txt
  4
bigfont.shx
  0
ENDTAB
  0
TABLE
  2
LAYER
 70
    3
  0
LAYER
  2
_0-0_0
 70
   64
 62
    7
  6
CONTINUOUS
  0
LAYER
  2
_0-2______1
 70
   64
 62
    7
  6
CONTINUOUS
  0
LAYER
  2
ADD_LINE
 70
   64
 62
    7
  6
CONTINUOUS
  0
ENDTAB
  0
ENDSEC
  0
SECTION
  2
BLOCKS
  0
BLOCK
  2
-000-SPECEL-LV5001WM
 70
   64
 10
0
 20
0
 30
0
  0
TEXT
  8
_0-3_SPEC
 62
    7
 10
0
 20
0
 40
1.5
 41
1
 50
0
  1
LEDﾎｽﾋﾟﾀﾙﾌﾞﾗｹｯﾄ 白色(4000K) Ra85
  0
TEXT
  8
_0-3_SPEC
 62
    7
 10
0
 20
-3
 40
1.5
 41
1
 50
0
  1
100Vﾀｲﾌﾟ
  0
TEXT
  8
_0-3_SPEC
 62
    7
 10
0
 20
-6
 40
1.5
 41
1
 50
0
  1
本体ｹｰｽ:鋼板､本体ﾌﾚｰﾑ:ｱﾙﾐ白色塗装(ﾏﾝｾﾙNo.N9.3)
  0
TEXT
  8
_0-3_SPEC
 62
    7
 10
0
 20
-9
 40
1.5
 41
1
 50
0
  1
光源寿命:40,000時間(光束維持率85%)
  0
TEXT
  8
_0-3_SPEC
 62
    7
 10
0
 20
-12
 40
1.5
 41
1
 50
0
  1
光束:4340lm 消費電力:38.8W 消費効率:111.8lm/W
  0
TEXT
  8
_0-3_SPEC
 62
    7
 10
0
 20
-15
 40
1.5
 41
1
 50
0
  1
調光ﾀｲﾌﾟ(常夜灯付)
  0
ENDBLK
  0
ENDSEC
  0
SECTION
  2
ENTITIES
  0
TEXT
  8
_0-0_0
 62
    7
 10
-8.948615917761586
 20
77.001920713860898
 40
4.5
 41
1
 50
0
  1
LEDﾌﾞﾗｹｯﾄ
  0
TEXT
  8
_0-0_0
 62
    7
 10
-8.948615917761586
 20
-6.9980742861390297
 40
4.5
 41
1
 50
0
  1
三菱　EL-LV5001WM
  0
LINE
  8
_0-2______1
  6
CONTINUOUS
 62
    1
 10
10.776694477794621
 20
29.244130522141631
 11
10.862132845828825
 21
29.244130522141631
  0
LINE
  8
_0-2______1
  6
CONTINUOUS
 62
    1
 10
10.691256109760417
 20
29.415007258210039
 11
10.776694477794621
 21
29.244130522141631
  0
LINE
  8
_0-2______1
  6
CONTINUOUS
 62
    1
 10
10.691256109760417
 20
37.796235554725847
 11
10.691256109760417
 21
29.415007258210039
  0
LINE
  8
_0-2______1
  6
CONTINUOUS
 62
    1
 10
13.317796907714836
 20
29.075665352912779
 11
12.97879951196623
 21
29.583127917890241
  0
LINE
  8
_0-2______1
  6
CONTINUOUS
 62
    1
 10
13.400479199360831
 20
29.075665352912779
 11
13.146920171646428
 21
29.583127917890241
  0
LINE
  8
_0-2______1
  6
CONTINUOUS
 62
    1
 10
10.862132845828825
 20
29.244130522141631
 11
13.571355935429239
 21
28.73701246671283
  0
LINE
  8
_0-2______1
  6
CONTINUOUS
 62
    1
 10
13.571355935429239
 20
28.73701246671283
 11
13.654038227075233
 21
28.73701246671283
  0
LINE
  8
_0-2______1
  6
CONTINUOUS
 62
    1
 10
10.776694477794621
 20
37.964356214406052
 11
10.691256109760417
 21
37.796235554725847
  0
LINE
  8
_0-2______1
  6
CONTINUOUS
 62
    1
 10
59.713586826671438
 20
36.778898857931381
 11
59.460027798957043
 21
36.696561075833984
  0
LINE
  8
_0-2______1
  6
CONTINUOUS
 62
    1
 10
13.571355935429239
 20
28.73701246671283
 11
13.910353331177845
 21
28.82245083474697
  0
LINE
  8
_0-2______1
  6
CONTINUOUS
 62
    1
 10
56.918925369036828
 20
37.289117499297049
 11
56.665366341322418
 21
37.203679131262788
  0
LINE
  8
_0-2______1
  6
CONTINUOUS
 62
    1
 10
56.836243077390833
 20
37.456893649428586
 11
56.582684049676431
 21
37.371455281394447
  0
LINE
  8
_0-2______1
  6
CONTINUOUS
 62
    1
 10
59.545466166991254
 20
36.696561075833984
 11
13.910353331177845
 21
28.82245083474697
  0
LINE
  8
_0-2______1
  6
CONTINUOUS
 62
    1
 10
59.291907139276837
 20
36.696561075833984
 11
13.739476595109437
 21
28.82245083474697
  0
LINE
  8
_0-2______1
  6
CONTINUOUS
 62
    1
 10
58.867471375494027
 20
36.778898857931381
 11
13.654038227075233
 21
28.990226984878628
  0
LINE
  8
_0-2______1
  6
CONTINUOUS
 62
    1
 10
13.485917567395035
 20
29.075665352912779
 11
13.400479199360831
 21
29.075665352912779
  0
LINE
  8
_0-2______1
  6
CONTINUOUS
 62
    1
 10
10.862132845828825
 20
29.244130522141631
 11
11.030253505509023
 21
29.329568890175779
  0
LINE
  8
_0-2______1
  6
CONTINUOUS
 62
    1
 10
10.691256109760417
 20
29.415007258210039
 11
10.944815137474819
 21
29.497689549855981
  0
LINE
  8
_0-2______1
  6
CONTINUOUS
 62
    1
 10
56.750804709356629
 20
37.203679131262788
 11
11.20113024157726
 21
29.244130522141631
  0
LINE
  8
_0-2______1
  6
CONTINUOUS
 62
    1
 10
11.115691873543057
 20
29.329568890175779
 11
56.582684049676431
 21
37.203679131262788
  0
LINE
  8
_0-2______1
  6
CONTINUOUS
 62
    1
 10
10.944815137474819
 20
29.497689549855981
 11
56.497245681642234
 21
37.371455281394447
  0
LINE
  8
_0-2______1
  6
CONTINUOUS
 62
    1
 10
59.713586826671438
 20
36.778898857931381
 11
59.799025194705649
 21
36.778898857931381
  0
LINE
  8
_0-2______1
  6
CONTINUOUS
 62
    1
 10
57.004363737071031
 20
37.456893649428586
 11
56.836243077390833
 21
37.456893649428586
  0
LINE
  8
_0-2______1
  6
CONTINUOUS
 62
    1
 10
56.918925369036828
 20
37.289117499297049
 11
59.713586826671438
 21
36.778898857931381
  0
LINE
  8
_0-2______1
  6
CONTINUOUS
 62
    1
 10
57.004363737071031
 20
37.371455281394447
 11
59.799025194705649
 21
36.865026245062843
  0
LINE
  8
_0-2______1
  6
CONTINUOUS
 62
    1
 10
10.944815137474819
 20
37.881673922760001
 11
56.497245681642234
 21
45.838121945944643
  0
LINE
  8
_0-2______1
  6
CONTINUOUS
 62
    1
 10
56.918925369036828
 20
45.923560313978669
 11
56.836243077390833
 21
45.838121945944643
  0
LINE
  8
_0-2______1
  6
CONTINUOUS
 62
    1
 10
10.691256109760417
 20
37.796235554725847
 11
10.944815137474819
 21
37.881673922760001
  0
LINE
  8
_0-2______1
  6
CONTINUOUS
 62
    1
 10
56.836243077390833
 20
45.838121945944643
 11
56.582684049676431
 21
45.838121945944643
  0
LINE
  8
_0-2______1
  6
CONTINUOUS
 62
    1
 10
56.918925369036828
 20
45.838121945944643
 11
56.836243077390833
 21
45.838121945944643
  0
LINE
  8
_0-2______1
  6
CONTINUOUS
 62
    1
 10
57.004363737071031
 20
45.923560313978669
 11
56.918925369036828
 21
45.838121945944643
  0
LINE
  8
_0-2______1
  6
CONTINUOUS
 62
    1
 10
59.799025194705649
 20
45.417131277647059
 11
57.004363737071031
 21
45.923560313978669
  0
LINE
  8
_0-2______1
  6
CONTINUOUS
 62
    1
 10
56.836243077390833
 20
37.456893649428586
 11
56.918925369036828
 21
37.289117499297049
  0
LINE
  8
_0-2______1
  6
CONTINUOUS
 62
    1
 10
57.004363737071031
 20
37.456893649428586
 11
57.004363737071031
 21
37.371455281394447
  0
LINE
  8
_0-2______1
  6
CONTINUOUS
 62
    1
 10
56.836243077390833
 20
45.838121945944643
 11
56.836243077390833
 21
37.456893649428586
  0
LINE
  8
_0-2______1
  6
CONTINUOUS
 62
    1
 10
57.004363737071031
 20
45.838121945944643
 11
57.004363737071031
 21
37.456893649428586
  0
LINE
  8
_0-2______1
  6
CONTINUOUS
 62
    1
 10
57.004363737071031
 20
37.371455281394447
 11
56.918925369036828
 21
37.289117499297049
  0
LINE
  8
_0-2______1
  6
CONTINUOUS
 62
    1
 10
59.799025194705649
 20
45.417131277647059
 11
59.713586826671438
 21
45.499469059744463
  0
LINE
  8
_0-2______1
  6
CONTINUOUS
 62
    1
 10
59.799025194705649
 20
36.865026245062843
 11
59.799025194705649
 21
45.417131277647059
  0
LINE
  8
_0-2______1
  6
CONTINUOUS
 62
    1
 10
59.799025194705649
 20
36.865026245062843
 11
59.713586826671438
 21
36.778898857931381
  0
LINE
  8
_0-2______1
  6
CONTINUOUS
 62
    1
 10
11.030253505509023
 20
29.329568890175779
 11
11.115691873543057
 21
29.329568890175779
  0
LINE
  8
_0-2______1
  6
CONTINUOUS
 62
    1
 10
10.944815137474819
 20
29.497689549855981
 11
11.030253505509023
 21
29.329568890175779
  0
LINE
  8
_0-2______1
  6
CONTINUOUS
 62
    1
 10
10.944815137474819
 20
37.881673922760001
 11
10.944815137474819
 21
29.497689549855981
  0
LINE
  8
_0-2______1
  6
CONTINUOUS
 62
    1
 10
10.944815137474819
 20
37.881673922760001
 11
11.030253505509023
 21
38.0497945824402
  0
LINE
  8
_0-2______1
  6
CONTINUOUS
 62
    1
 10
10.944815137474819
 20
37.881673922760001
 11
10.944815137474819
 21
37.964356214406052
  0
LINE
  8
_0-2______1
  6
CONTINUOUS
 62
    1
 10
13.232358539680632
 20
29.583127917890241
 11
13.654038227075233
 21
28.990226984878628
  0
LINE
  8
_0-2______1
  6
CONTINUOUS
 62
    1
 10
13.571355935429239
 20
28.73701246671283
 11
10.776694477794621
 21
29.244130522141631
  0
LINE
  8
_0-2______1
  6
CONTINUOUS
 62
    1
 10
11.030253505509023
 20
29.329568890175779
 11
13.910353331177845
 21
28.82245083474697
  0
LINE
  8
_0-2______1
  6
CONTINUOUS
 62
    1
 10
11.115691873543057
 20
29.329568890175779
 11
11.20113024157726
 21
29.244130522141631
  0
LINE
  8
_0-2______1
  6
CONTINUOUS
 62
    1
 10
13.739476595109437
 20
28.82245083474697
 11
13.910353331177845
 21
28.82245083474697
  0
LINE
  8
_0-2______1
  6
CONTINUOUS
 62
    1
 10
13.739476595109437
 20
28.82245083474697
 11
11.20113024157726
 21
29.244130522141631
  0
LINE
  8
_0-2______1
  6
CONTINUOUS
 62
    1
 10
13.654038227075233
 20
28.82245083474697
 11
11.20113024157726
 21
29.329568890175779
  0
LINE
  8
_0-2______1
  6
CONTINUOUS
 62
    1
 10
11.622809928971861
 20
29.329568890175779
 11
13.485917567395035
 21
28.990226984878628
  0
LINE
  8
_0-2______1
  6
CONTINUOUS
 62
    1
 10
13.739476595109437
 20
28.82245083474697
 11
13.654038227075233
 21
28.990226984878628
  0
LINE
  8
_0-2______1
  6
CONTINUOUS
 62
    1
 10
59.799025194705649
 20
36.778898857931381
 11
59.460027798957043
 21
36.696561075833984
  0
LINE
  8
_0-2______1
  6
CONTINUOUS
 62
    1
 10
13.485917567395035
 20
28.990226984878628
 11
13.485917567395035
 21
29.075665352912779
  0
LINE
  8
_0-2______1
  6
CONTINUOUS
 62
    1
 10
56.582684049676431
 20
37.203679131262788
 11
56.750804709356629
 21
37.203679131262788
  0
LINE
  8
_0-2______1
  6
CONTINUOUS
 62
    1
 10
59.291907139276837
 20
36.696561075833984
 11
59.545466166991254
 21
36.696561075833984
  0
LINE
  8
_0-2______1
  6
CONTINUOUS
 62
    1
 10
56.665366341322418
 20
37.203679131262788
 11
59.460027798957043
 21
36.696216566285671
  0
LINE
  8
_0-2______1
  6
CONTINUOUS
 62
    1
 10
56.582684049676431
 20
45.923560313978669
 11
56.497245681642234
 21
45.838121945944643
  0
LINE
  8
_0-2______1
  6
CONTINUOUS
 62
    1
 10
11.030253505509023
 20
38.0497945824402
 11
56.582684049676431
 21
45.923560313978669
  0
LINE
  8
_0-2______1
  6
CONTINUOUS
 62
    1
 10
56.665366341322418
 20
37.203679131262788
 11
56.582684049676431
 21
37.203679131262788
  0
LINE
  8
_0-2______1
  6
CONTINUOUS
 62
    1
 10
11.030253505509023
 20
38.0497945824402
 11
10.776694477794621
 21
37.964356214406052
  0
LINE
  8
_0-2______1
  6
CONTINUOUS
 62
    1
 10
56.918925369036828
 20
45.923560313978669
 11
56.665366341322418
 21
45.923560313978669
  0
LINE
  8
_0-2______1
  6
CONTINUOUS
 62
    1
 10
59.799025194705649
 20
36.778898857931381
 11
59.799025194705649
 21
36.865026245062843
  0
LINE
  8
_0-2______1
  6
CONTINUOUS
 62
    1
 10
56.582684049676431
 20
37.203679131262788
 11
56.582684049676431
 21
37.371455281394447
  0
LINE
  8
_0-2______1
  6
CONTINUOUS
 62
    1
 10
59.291907139276837
 20
36.778898857931381
 11
59.291907139276837
 21
36.696561075833984
  0
LINE
  8
_0-2______1
  6
CONTINUOUS
 62
    1
 10
57.004363737071031
 20
45.923560313978669
 11
56.918925369036828
 21
45.923560313978669
  0
LINE
  8
_0-2______1
  6
CONTINUOUS
 62
    1
 10
59.713586826671438
 20
45.499469059744463
 11
57.004363737071031
 21
45.923560313978669
  0
LINE
  8
_0-2______1
  6
CONTINUOUS
 62
    1
 10
56.582684049676431
 20
45.923560313978669
 11
56.665366341322418
 21
45.923560313978669
  0
LINE
  8
_0-2______1
  6
CONTINUOUS
 62
    1
 10
56.582684049676431
 20
45.838121945944643
 11
56.582684049676431
 21
45.923560313978669
  0
LINE
  8
_0-2______1
  6
CONTINUOUS
 62
    1
 10
56.582684049676431
 20
37.289117499297049
 11
56.582684049676431
 21
37.203679131262788
  0
LINE
  8
_0-2______1
  6
CONTINUOUS
 62
    1
 10
56.497245681642234
 20
37.371455281394447
 11
56.582684049676431
 21
37.289117499297049
  0
LINE
  8
_0-2______1
  6
CONTINUOUS
 62
    1
 10
56.497245681642234
 20
45.838121945944643
 11
56.497245681642234
 21
37.371455281394447
  0
LINE
  8
_0-2______1
  6
CONTINUOUS
 62
    1
 10
56.582684049676431
 20
45.838121945944643
 11
56.582684049676431
 21
37.371455281394447
  0
INSERT
  2
-000-SPECEL-LV5001WM
  8
_0-0_0
 10
59.799025194705649
 20
10.181162355082336
 41
1
 42
1
 50
0
  0
ENDSEC
  0
EOF
