  0
SECTION
  2
HEADER
  9
$ACADVER
  1
AC1009
  9
$INSBASE
 10
0
 20
0
 30
0
  9
$EXTMIN
 10
0
 20
0
  9
$EXTMAX
 10
105
 20
74.25
  9
$LIMMIN
 10
0
 20
0
  9
$LIMMAX
 10
105
 20
74.25
  9
$LTSCALE
 40
0.25
  0
ENDSEC
  0
SECTION
  2
TABLES
  0
TABLE
  2
LTYPE
 70
     9
  0
LTYPE
  2
CONTINUOUS
 70
    64
  3
実線
 72
    65
 73
     0
 40
0.0
  0
LTYPE
  2
DASHED1
 70
    64
  3
--  --  --  --  --  --  --  --  
 72
    65
 73
     2
 40
2.5
 49
1.25
 49
-1.25
  0
LTYPE
  2
DASHED2
 70
    64
  3
----    ----    ----    ----    
 72
    65
 73
     2
 40
5.0
 49
2.5
 49
-2.5
  0
LTYPE
  2
DASHED3
 70
    64
  3
------  ------  ------  ------  
 72
    65
 73
     2
 40
5.0
 49
3.75
 49
-1.25
  0
LTYPE
  2
CENTER1
 70
    64
  3
----- - ----- - ----- - ----- - 
 72
    65
 73
     4
 40
10.0
 49
6.25
 49
-1.25
 49
1.25
 49
-1.25
  0
LTYPE
  2
CENTER2
 70
    64
  3
----------  --  ----------  --  
 72
    65
 73
     4
 40
20.0
 49
12.5
 49
-2.5
 49
2.5
 49
-2.5
  0
LTYPE
  2
PHANTOM1
 70
    64
  3
--- - - --- - - --- - - --- - - 
 72
    65
 73
     6
 40
10.0
 49
3.25
 49
-1.25
 49
1.25
 49
-1.25
 49
1.25
 49
-1.25
  0
LTYPE
  2
PHANTOM2
 70
    64
  3
--------  -  -  --------  -  -  
 72
    65
 73
     6
 40
20.0
 49
10.0
 49
-2.5
 49
1.25
 49
-2.5
 49
1.25
 49
-2.5
  0
LTYPE
  2
DOT
 70
    64
  3
-   -   -   -   -   -   -   -   
 72
    65
 73
     2
 40
2.5
 49
0.625
 49
-1.875
  0
LTYPE
  2
DUMMY
 70
    64
  3
ダミー
 72
    65
 73
     0
 40
0.0
  0
LTYPE
  2
RAND1
 70
    64
  3
ランダム線1
 72
    65
 73
     4
 40
10.0
 49
1.0
 49
-2.0
 49
3.0
 49
-4.0
  0
LTYPE
  2
RAND2
 70
    64
  3
ランダム線2
 72
    65
 73
     4
 40
14.0
 49
2.0
 49
-3.0
 49
4.0
 49
-5.0
  0
LTYPE
  2
RAND3
 70
    64
  3
ランダム線3
 72
    65
 73
     4
 40
18.0
 49
3.0
 49
-4.0
 49
5.0
 49
-6.0
  0
LTYPE
  2
RAND4
 70
    64
  3
ランダム線4
 72
    65
 73
     4
 40
22.0
 49
4.0
 49
-5.0
 49
6.0
 49
-7.0
  0
LTYPE
  2
RAND5
 70
    64
  3
ランダム線5
 72
    65
 73
     4
 40
26.0
 49
5.0
 49
-6.0
 49
7.0
 49
-8.0
  0
LTYPE
  2
LONG1
 70
    64
  3
----------  --  ----------  --  
 72
    65
 73
     4
 40
40.0
 49
32.5
 49
-2.5
 49
2.5
 49
-2.5
  0
LTYPE
  2
LONG2
 70
    64
  3
--------  -  -  --------  -  -  
 72
    65
 73
     6
 40
40.0
 49
30.0
 49
-2.5
 49
1.25
 49
-2.5
 49
1.25
 49
-2.5
  0
LTYPE
  2
LONG3
 70
    64
  3
+++++++++++++++..+++++++++++++++
 72
    65
 73
     2
 40
40.0
 49
37.5
 49
-2.5
  0
LTYPE
  2
LONG4
 70
    64
  3
+++++++++++++++..+++++++++++++++
 72
    65
 73
     2
 40
80.0
 49
75.0
 49
-5.0
  0
LTYPE
  2
LONG5
 70
    64
  3
----------  --  ----------  --  
 72
    65
 73
     4
 40
60.0
 49
37.5
 49
-7.5
 49
7.5
 49
-7.5
  0
LTYPE
  2
dashed
 70
   64
  3
-------   -------------   ------
 72
   65
 73
    2
 40
7.5
 49
6
 49
-1.5
  0
LTYPE
  2
dashed_spaced
 70
   64
  3
----        --------        ----
 72
   65
 73
    2
 40
12
 49
6
 49
-6
  0
LTYPE
  2
long_dashed_dotted
 70
   64
  3
------------- --- --------------
 72
   65
 73
    4
 40
15.25
 49
12
 49
-1.5
 49
0.25
 49
-1.5
  0
LTYPE
  2
long_dashed_double-dotted
 70
   64
  3
----------- --- --- ------------
 72
   65
 73
    6
 40
17
 49
12
 49
-1.5
 49
0.25
 49
-1.5
 49
0.25
 49
-1.5
  0
LTYPE
  2
long_dashed_triplicate-dotted
 70
   64
  3
--------- --- --- --- ----------
 72
   65
 73
    8
 40
18.75
 49
12
 49
-1.5
 49
0.25
 49
-1.5
 49
0.25
 49
-1.5
 49
0.25
 49
-1.5
  0
LTYPE
  2
dotted
 70
   64
  3
   -       -       -       -    
 72
   65
 73
    2
 40
1.75
 49
0.25
 49
-1.5
  0
LTYPE
  2
chain
 70
   64
  3
-------------- -- --------------
 72
   65
 73
    4
 40
18.5
 49
12
 49
-1.5
 49
3.5
 49
-1.5
  0
LTYPE
  2
chain_double_dash
 70
   64
  3
------------ -- -- -------------
 72
   65
 73
    6
 40
23.5
 49
12
 49
-1.5
 49
3.5
 49
-1.5
 49
3.5
 49
-1.5
  0
LTYPE
  2
dashed_dotted
 70
   64
  3
-----------     -     ----------
 72
   65
 73
    4
 40
9.25
 49
6
 49
-1.5
 49
0.25
 49
-1.5
  0
LTYPE
  2
double-dashed_dotted
 70
   64
  3
------   -----------   -   -----
 72
   65
 73
    6
 40
16.75
 49
6
 49
-1.5
 49
6
 49
-1.5
 49
0.25
 49
-1.5
  0
LTYPE
  2
dashed_double-dotted
 70
   64
  3
---------    -    -    ---------
 72
   65
 73
    6
 40
11
 49
6
 49
-1.5
 49
0.25
 49
-1.5
 49
0.25
 49
-1.5
  0
LTYPE
  2
double-dashed_double-dotted
 70
   64
  3
-----   ---------   -   -   ----
 72
   65
 73
    8
 40
18.5
 49
6
 49
-1.5
 49
6
 49
-1.5
 49
0.25
 49
-1.5
 49
0.25
 49
-1.5
  0
LTYPE
  2
dashed_triplicate-dotted
 70
   64
  3
-------    -    -    -    ------
 72
   65
 73
    8
 40
12.75
 49
6
 49
-1.5
 49
0.25
 49
-1.5
 49
0.25
 49
-1.5
 49
0.25
 49
-1.5
  0
LTYPE
  2
double-dashed_triplicate-dotted
 70
   64
  3
-----  ---------  -  -  -  -----
 72
   65
 73
   10
 40
20.25
 49
6
 49
-1.5
 49
6
 49
-1.5
 49
0.25
 49
-1.5
 49
0.25
 49
-1.5
 49
0.25
 49
-1.5
  0
LTYPE
  2
undefined
 70
   64
  3
--------------------------------
 72
   65
 73
    0
 40
0
  0
LTYPE
  2
_
 70
   64
  3
                                
 72
   65
 73
    0
 40
0
  0
LTYPE
  2
__18
 70
   64
  3
                                
 72
   65
 73
    0
 40
0
  0
LTYPE
  2
__19
 70
   64
  3
                                
 72
   65
 73
    0
 40
0
  0
LTYPE
  2
__20
 70
   64
  3
                                
 72
   65
 73
    0
 40
0
  0
LTYPE
  2
__21
 70
   64
  3
                                
 72
   65
 73
    0
 40
0
  0
LTYPE
  2
__22
 70
   64
  3
                                
 72
   65
 73
    0
 40
0
  0
LTYPE
  2
__23
 70
   64
  3
                                
 72
   65
 73
    0
 40
0
  0
LTYPE
  2
__24
 70
   64
  3
                                
 72
   65
 73
    0
 40
0
  0
LTYPE
  2
__25
 70
   64
  3
                                
 72
   65
 73
    0
 40
0
  0
LTYPE
  2
__26
 70
   64
  3
                                
 72
   65
 73
    0
 40
0
  0
LTYPE
  2
__27
 70
   64
  3
                                
 72
   65
 73
    0
 40
0
  0
LTYPE
  2
__28
 70
   64
  3
                                
 72
   65
 73
    0
 40
0
  0
LTYPE
  2
__29
 70
   64
  3
                                
 72
   65
 73
    0
 40
0
  0
LTYPE
  2
__30
 70
   64
  3
                                
 72
   65
 73
    0
 40
0
  0
LTYPE
  2
__31
 70
   64
  3
                                
 72
   65
 73
    0
 40
0
  0
LTYPE
  2
__32
 70
   64
  3
                                
 72
   65
 73
    0
 40
0
  0
ENDTAB
  0
TABLE
  2
STYLE
  5
3
100
AcDbSymbolTable
 70
     1
  0
STYLE
  5
10
100
AcDbSymbolTableRecord
100
AcDbTextStyleTableRecord
  2
STANDARD
 70
     0
 40
0.0
 41
1.0
 50
0.0
 71
     0
 42
0.2
  3
txt
  4
bigfont.shx
  0
STYLE
  5
26
100
AcDbSymbolTableRecord
100
AcDbTextStyleTableRecord
  2
TATEGAKI
 70
    68
 40
0.0
 41
1.0
 50
0.0
 71
     0
 42
1.0
  3
txt
  4
bigfont.shx
  0
ENDTAB
  0
TABLE
  2
LAYER
 70
    3
  0
LAYER
  2
_0-0_0
 70
   64
 62
    7
  6
CONTINUOUS
  0
LAYER
  2
_0-2______1
 70
   64
 62
    7
  6
CONTINUOUS
  0
LAYER
  2
ADD_LINE
 70
   64
 62
    7
  6
CONTINUOUS
  0
ENDTAB
  0
ENDSEC
  0
SECTION
  2
BLOCKS
  0
BLOCK
  2
-000-SPECEL-LV5002WWM
 70
   64
 10
0
 20
0
 30
0
  0
TEXT
  8
_0-3_SPEC
 62
    7
 10
0
 20
0
 40
1.5
 41
1
 50
0
  1
LEDﾎｽﾋﾟﾀﾙﾌﾞﾗｹｯﾄ 温白色(3500K) Ra85
  0
TEXT
  8
_0-3_SPEC
 62
    7
 10
0
 20
-3
 40
1.5
 41
1
 50
0
  1
100Vﾀｲﾌﾟ
  0
TEXT
  8
_0-3_SPEC
 62
    7
 10
0
 20
-6
 40
1.5
 41
1
 50
0
  1
本体ｹｰｽ:鋼板､本体ﾌﾚｰﾑ:ｱﾙﾐ白色塗装(ﾏﾝｾﾙNo.N9.3)
  0
TEXT
  8
_0-3_SPEC
 62
    7
 10
0
 20
-9
 40
1.5
 41
1
 50
0
  1
光源寿命:40,000時間(光束維持率85%)
  0
TEXT
  8
_0-3_SPEC
 62
    7
 10
0
 20
-12
 40
1.5
 41
1
 50
0
  1
光束:4170lm 消費電力:38.8W 消費効率:107.4lm/W
  0
TEXT
  8
_0-3_SPEC
 62
    7
 10
0
 20
-15
 40
1.5
 41
1
 50
0
  1
ﾌﾟﾙｽｲｯﾁ付ﾀｲﾌﾟ
  0
ENDBLK
  0
ENDSEC
  0
SECTION
  2
ENTITIES
  0
TEXT
  8
_0-0_0
 62
    7
 10
-8.0533905949636377
 20
77.001920713860898
 40
4.5
 41
1
 50
0
  1
LEDﾌﾞﾗｹｯﾄ
  0
TEXT
  8
_0-0_0
 62
    7
 10
-8.0533905949636377
 20
-6.9980742861390297
 40
4.5
 41
1
 50
0
  1
三菱　EL-LV5002WWM
  0
LINE
  8
_0-2______1
  6
CONTINUOUS
 62
    1
 10
9.7960307869625325
 20
43.290957386579613
 11
9.7960307869625325
 21
34.909729090063792
  0
LINE
  8
_0-2______1
  6
CONTINUOUS
 62
    1
 10
12.422571584916888
 20
34.484948816732377
 11
12.169012557202493
 21
35.07784974974399
  0
LINE
  8
_0-2______1
  6
CONTINUOUS
 62
    1
 10
12.505253876562875
 20
34.484948816732377
 11
12.169012557202493
 21
35.07784974974399
  0
LINE
  8
_0-2______1
  6
CONTINUOUS
 62
    1
 10
9.8814691549966653
 20
34.738852353995377
 11
12.67613061263129
 21
34.231734298566579
  0
LINE
  8
_0-2______1
  6
CONTINUOUS
 62
    1
 10
58.818361503873497
 20
42.273620689785133
 11
58.564802476159102
 21
42.191282907687743
  0
LINE
  8
_0-2______1
  6
CONTINUOUS
 62
    1
 10
12.67613061263129
 20
34.231734298566579
 11
12.929689640345686
 21
34.231734298566579
  0
LINE
  8
_0-2______1
  6
CONTINUOUS
 62
    1
 10
56.026456122627089
 20
42.698400963116541
 11
55.770141018524477
 21
42.698400963116541
  0
LINE
  8
_0-2______1
  6
CONTINUOUS
 62
    1
 10
55.941017754592892
 20
42.866177113248199
 11
55.687458726878482
 21
42.783839331150801
  0
LINE
  8
_0-2______1
  6
CONTINUOUS
 62
    1
 10
55.687458726878482
 20
41.681753285419383
 11
13.097810300025891
 21
34.231734298566579
  0
LINE
  8
_0-2______1
  6
CONTINUOUS
 62
    1
 10
58.564802476159102
 20
42.191282907687743
 11
55.687458726878482
 21
41.681753285419383
  0
LINE
  8
_0-2______1
  6
CONTINUOUS
 62
    1
 10
55.687458726878482
 20
41.681753285419383
 11
12.929689640345686
 21
34.317172666600733
  0
LINE
  8
_0-2______1
  6
CONTINUOUS
 62
    1
 10
58.479364108124891
 20
42.191282907687743
 11
55.687458726878482
 21
41.681753285419383
  0
LINE
  8
_0-2______1
  6
CONTINUOUS
 62
    1
 10
57.972246052696086
 20
42.273620689785133
 11
56.194576782307287
 21
41.934967803585181
  0
LINE
  8
_0-2______1
  6
CONTINUOUS
 62
    1
 10
55.602020358844278
 20
41.852285511939129
 11
12.67613061263129
 21
34.484948816732377
  0
LINE
  8
_0-2______1
  6
CONTINUOUS
 62
    1
 10
12.67613061263129
 20
34.570387184766531
 11
12.505253876562875
 21
34.484948816732377
  0
LINE
  8
_0-2______1
  6
CONTINUOUS
 62
    1
 10
9.8814691549966653
 20
34.738852353995377
 11
10.135028182711082
 21
34.738852353995377
  0
LINE
  8
_0-2______1
  6
CONTINUOUS
 62
    1
 10
9.7960307869625325
 20
34.909729090063792
 11
10.05234589106508
 21
34.909729090063792
  0
LINE
  8
_0-2______1
  6
CONTINUOUS
 62
    1
 10
55.855579386558681
 20
42.698400963116541
 11
10.305904918779476
 21
34.738852353995377
  0
LINE
  8
_0-2______1
  6
CONTINUOUS
 62
    1
 10
10.220466550745279
 20
34.738852353995377
 11
55.770141018524477
 21
42.698400963116541
  0
LINE
  8
_0-2______1
  6
CONTINUOUS
 62
    1
 10
10.135028182711082
 20
34.909729090063792
 11
55.687458726878482
 21
42.783839331150801
  0
LINE
  8
_0-2______1
  6
CONTINUOUS
 62
    1
 10
10.05234589106508
 20
34.909729090063792
 11
10.135028182711082
 21
34.909729090063792
  0
LINE
  8
_0-2______1
  6
CONTINUOUS
 62
    1
 10
10.135028182711082
 20
43.376395754613753
 11
55.687458726878482
 21
51.332843777798388
  0
LINE
  8
_0-2______1
  6
CONTINUOUS
 62
    1
 10
10.05234589106508
 20
43.376395754613753
 11
10.135028182711082
 21
43.376395754613753
  0
LINE
  8
_0-2______1
  6
CONTINUOUS
 62
    1
 10
56.026456122627089
 20
42.698400963116541
 11
58.818361503873497
 21
42.273620689785133
  0
LINE
  8
_0-2______1
  6
CONTINUOUS
 62
    1
 10
56.109138414273076
 20
42.783839331150801
 11
58.903799871907701
 21
42.273620689785133
  0
LINE
  8
_0-2______1
  6
CONTINUOUS
 62
    1
 10
9.7960307869625325
 20
43.290957386579613
 11
10.05234589106508
 21
43.376395754613753
  0
LINE
  8
_0-2______1
  6
CONTINUOUS
 62
    1
 10
55.941017754592892
 20
51.332843777798388
 11
55.687458726878482
 21
51.332843777798388
  0
LINE
  8
_0-2______1
  6
CONTINUOUS
 62
    1
 10
58.903799871907701
 20
50.911853109500811
 11
56.109138414273076
 21
51.332843777798388
  0
LINE
  8
_0-2______1
  6
CONTINUOUS
 62
    1
 10
55.941017754592892
 20
51.332843777798388
 11
55.941017754592892
 21
42.866177113248199
  0
LINE
  8
_0-2______1
  6
CONTINUOUS
 62
    1
 10
56.026456122627089
 20
51.332843777798388
 11
56.026456122627089
 21
42.866177113248199
  0
LINE
  8
_0-2______1
  6
CONTINUOUS
 62
    1
 10
58.903799871907701
 20
42.273620689785133
 11
58.903799871907701
 21
50.911853109500811
  0
LINE
  8
_0-2______1
  6
CONTINUOUS
 62
    1
 10
9.7960307869625325
 20
34.824290722029531
 11
9.8814691549966653
 21
34.738852353995377
  0
LINE
  8
_0-2______1
  6
CONTINUOUS
 62
    1
 10
9.7960307869625325
 20
34.824290722029531
 11
9.7960307869625325
 21
43.290957386579613
  0
LINE
  8
_0-2______1
  6
CONTINUOUS
 62
    1
 10
10.05234589106508
 20
34.909729090063792
 11
10.05234589106508
 21
43.376395754613753
  0
LINE
  8
_0-2______1
  6
CONTINUOUS
 62
    1
 10
10.135028182711082
 20
43.376395754613753
 11
10.135028182711082
 21
34.909729090063792
  0
LINE
  8
_0-2______1
  6
CONTINUOUS
 62
    1
 10
12.337133216882691
 20
35.07784974974399
 11
12.67613061263129
 21
34.484948816732377
  0
LINE
  8
_0-2______1
  6
CONTINUOUS
 62
    1
 10
9.7960307869625325
 20
43.376395754613753
 11
9.7960307869625325
 21
43.290957386579613
  0
LINE
  8
_0-2______1
  6
CONTINUOUS
 62
    1
 10
9.8814691549966653
 20
43.459078046259798
 11
9.7960307869625325
 21
43.376395754613753
  0
LINE
  8
_0-2______1
  6
CONTINUOUS
 62
    1
 10
10.135028182711082
 20
34.738852353995377
 11
12.929689640345686
 21
34.231734298566579
  0
LINE
  8
_0-2______1
  6
CONTINUOUS
 62
    1
 10
10.220466550745279
 20
34.738852353995377
 11
10.305904918779476
 21
34.738852353995377
  0
LINE
  8
_0-2______1
  6
CONTINUOUS
 62
    1
 10
12.929689640345686
 20
34.317172666600733
 11
13.097810300025891
 21
34.231734298566579
  0
LINE
  8
_0-2______1
  6
CONTINUOUS
 62
    1
 10
12.844251272311489
 20
34.317172666600733
 11
10.305904918779476
 21
34.738852353995377
  0
LINE
  8
_0-2______1
  6
CONTINUOUS
 62
    1
 10
12.844251272311489
 20
34.317172666600733
 11
10.388587210425477
 21
34.738852353995377
  0
LINE
  8
_0-2______1
  6
CONTINUOUS
 62
    1
 10
10.727584606173906
 20
34.824290722029531
 11
12.67613061263129
 21
34.484948816732377
  0
LINE
  8
_0-2______1
  6
CONTINUOUS
 62
    1
 10
13.015128008379897
 20
34.231734298566579
 11
12.67613061263129
 21
34.231734298566579
  0
LINE
  8
_0-2______1
  6
CONTINUOUS
 62
    1
 10
10.135028182711082
 20
43.459078046259798
 11
55.770141018524477
 21
51.418282145832421
  0
LINE
  8
_0-2______1
  6
CONTINUOUS
 62
    1
 10
55.770141018524477
 20
42.698400963116541
 11
55.855579386558681
 21
42.698400963116541
  0
LINE
  8
_0-2______1
  6
CONTINUOUS
 62
    1
 10
58.479364108124891
 20
42.191282907687743
 11
58.564802476159102
 21
42.191282907687743
  0
LINE
  8
_0-2______1
  6
CONTINUOUS
 62
    1
 10
55.770141018524477
 20
42.698400963116541
 11
58.564802476159102
 21
42.190938398139423
  0
LINE
  8
_0-2______1
  6
CONTINUOUS
 62
    1
 10
10.135028182711082
 20
43.459078046259798
 11
9.8814691549966653
 21
43.459078046259798
  0
LINE
  8
_0-2______1
  6
CONTINUOUS
 62
    1
 10
56.026456122627089
 20
51.418282145832421
 11
55.770141018524477
 21
51.418282145832421
  0
LINE
  8
_0-2______1
  6
CONTINUOUS
 62
    1
 10
58.818361503873497
 20
50.911853109500811
 11
56.026456122627089
 21
51.418282145832421
  0
LINE
  8
_0-2______1
  6
CONTINUOUS
 62
    1
 10
56.026456122627089
 20
15.94241138647212
 11
56.026456122627089
 21
14.41830114379772
  0
LINE
  8
_0-2______1
  6
CONTINUOUS
 62
    1
 10
55.687458726878482
 20
42.783839331150801
 11
55.687458726878482
 21
51.332843777798388
  0
LINE
  8
_0-2______1
  6
CONTINUOUS
 62
    1
 10
55.687458726878482
 20
16.36719165980352
 11
55.687458726878482
 21
16.452285518289131
  0
LINE
  8
_0-2______1
  6
CONTINUOUS
 62
    1
 10
55.687458726878482
 20
16.620406177969329
 11
55.687458726878482
 21
16.70584454600359
  0
LINE
  8
_0-2______1
  6
CONTINUOUS
 62
    1
 10
55.687458726878482
 20
16.873620696135131
 11
55.687458726878482
 21
16.959748083266589
  0
LINE
  8
_0-2______1
  6
CONTINUOUS
 62
    1
 10
55.687458726878482
 20
17.12752423339813
 11
55.687458726878482
 21
17.212962601432391
  0
LINE
  8
_0-2______1
  6
CONTINUOUS
 62
    1
 10
55.687458726878482
 20
17.4661771195982
 11
55.687458726878482
 21
17.55161548763235
  0
LINE
  8
_0-2______1
  6
CONTINUOUS
 62
    1
 10
55.687458726878482
 20
17.723181242797718
 11
55.687458726878482
 21
17.80551902489535
  0
LINE
  8
_0-2______1
  6
CONTINUOUS
 62
    1
 10
55.687458726878482
 20
17.976395760963751
 11
55.687458726878482
 21
18.144516420643949
  0
LINE
  8
_0-2______1
  6
CONTINUOUS
 62
    1
 10
55.687458726878482
 20
18.22961027912956
 11
55.687458726878482
 21
18.398419957906729
  0
LINE
  8
_0-2______1
  6
CONTINUOUS
 62
    1
 10
55.687458726878482
 20
18.56895218442682
 11
55.687458726878482
 21
18.65163447607253
  0
LINE
  8
_0-2______1
  6
CONTINUOUS
 62
    1
 10
55.687458726878482
 20
18.822511212140942
 11
55.687458726878482
 21
18.907605070626769
  0
LINE
  8
_0-2______1
  6
CONTINUOUS
 62
    1
 10
55.687458726878482
 20
19.161853117438199
 11
55.687458726878482
 21
19.24419089953582
  0
LINE
  8
_0-2______1
  6
CONTINUOUS
 62
    1
 10
55.687458726878482
 20
19.415067635604121
 11
55.687458726878482
 21
19.500506003638151
  0
LINE
  8
_0-2______1
  6
CONTINUOUS
 62
    1
 10
55.687458726878482
 20
19.668282153769919
 11
55.687458726878482
 21
19.75372052180396
  0
LINE
  8
_0-2______1
  6
CONTINUOUS
 62
    1
 10
55.687458726878482
 20
19.922185691032809
 11
55.687458726878482
 21
20.007624059066959
  0
LINE
  8
_0-2______1
  6
CONTINUOUS
 62
    1
 10
55.687458726878482
 20
20.515086624044411
 11
55.687458726878482
 21
20.600524992078562
  0
LINE
  8
_0-2______1
  6
CONTINUOUS
 62
    1
 10
55.687458726878482
 20
20.76830114221022
 11
55.687458726878482
 21
20.85373951024437
  0
LINE
  8
_0-2______1
  6
CONTINUOUS
 62
    1
 10
55.687458726878482
 20
21.024616246312771
 11
55.687458726878482
 21
21.193081415541631
  0
LINE
  8
_0-2______1
  6
CONTINUOUS
 62
    1
 10
55.687458726878482
 20
21.360857565673172
 11
55.687458726878482
 21
21.446295933707319
  0
LINE
  8
_0-2______1
  6
CONTINUOUS
 62
    1
 10
55.687458726878482
 20
21.61717266977573
 11
55.687458726878482
 21
21.69951045187312
  0
LINE
  8
_0-2______1
  6
CONTINUOUS
 62
    1
 10
55.687458726878482
 20
21.870387187941532
 11
55.687458726878482
 21
21.95651457507299
  0
LINE
  8
_0-2______1
  6
CONTINUOUS
 62
    1
 10
55.687458726878482
 20
22.209729093238789
 11
55.687458726878482
 21
22.29241138488473
  0
LINE
  8
_0-2______1
  6
CONTINUOUS
 62
    1
 10
55.687458726878482
 20
22.462943611404601
 11
55.687458726878482
 21
22.548381979438741
  0
LINE
  8
_0-2______1
  6
CONTINUOUS
 62
    1
 10
55.687458726878482
 20
22.71719165821602
 11
55.687458726878482
 21
22.80228551670174
  0
LINE
  8
_0-2______1
  6
CONTINUOUS
 62
    1
 10
55.687458726878482
 20
22.970406176381939
 11
55.687458726878482
 21
23.0558445444162
  0
LINE
  8
_0-2______1
  6
CONTINUOUS
 62
    1
 10
55.687458726878482
 20
23.309748081678979
 11
55.687458726878482
 21
23.395186449713119
  0
LINE
  8
_0-2______1
  6
CONTINUOUS
 62
    1
 10
55.687458726878482
 20
23.562962599845012
 11
55.687458726878482
 21
23.648400967878931
  0
LINE
  8
_0-2______1
  6
CONTINUOUS
 62
    1
 10
55.687458726878482
 20
23.81617711801081
 11
55.687458726878482
 21
23.987053854079221
  0
LINE
  8
_0-2______1
  6
CONTINUOUS
 62
    1
 10
55.687458726878482
 20
24.073181241210339
 11
55.687458726878482
 21
24.24095739134199
  0
LINE
  8
_0-2______1
  6
CONTINUOUS
 62
    1
 10
55.687458726878482
 20
24.409078051022188
 11
55.687458726878482
 21
24.494516419056339
  0
LINE
  8
_0-2______1
  6
CONTINUOUS
 62
    1
 10
55.687458726878482
 20
24.66504864557632
 11
55.687458726878482
 21
24.748419956319339
  0
LINE
  8
_0-2______1
  6
CONTINUOUS
 62
    1
 10
55.687458726878482
 20
25.00163447448514
 11
55.687458726878482
 21
25.087072842519401
  0
LINE
  8
_0-2______1
  6
CONTINUOUS
 62
    1
 10
55.687458726878482
 20
25.257949578587809
 11
55.687458726878482
 21
25.34028736068521
  0
LINE
  8
_0-2______1
  6
CONTINUOUS
 62
    1
 10
55.687458726878482
 20
25.511853115850808
 11
55.687458726878482
 21
25.594190897948209
  0
LINE
  8
_0-2______1
  6
CONTINUOUS
 62
    1
 10
55.687458726878482
 20
26.357624057479569
 11
55.687458726878482
 21
26.44306242551372
  0
LINE
  8
_0-2______1
  6
CONTINUOUS
 62
    1
 10
55.687458726878482
 20
26.103720520216569
 11
55.687458726878482
 21
26.189847907348021
  0
LINE
  8
_0-2______1
  6
CONTINUOUS
 62
    1
 10
55.687458726878482
 20
25.765067634016621
 11
55.687458726878482
 21
25.850506002050761
  0
LINE
  8
_0-2______1
  6
CONTINUOUS
 62
    1
 10
55.687458726878482
 20
27.203739508656749
 11
55.687458726878482
 21
27.289177876691131
  0
LINE
  8
_0-2______1
  6
CONTINUOUS
 62
    1
 10
55.687458726878482
 20
26.865086622456801
 11
55.687458726878482
 21
26.950524990490951
  0
LINE
  8
_0-2______1
  6
CONTINUOUS
 62
    1
 10
55.687458726878482
 20
26.611183085194028
 11
55.687458726878482
 21
26.696276943679521
  0
LINE
  8
_0-2______1
  6
CONTINUOUS
 62
    1
 10
55.687458726878482
 20
27.96717266818823
 11
55.687458726878482
 21
28.134948818320002
  0
LINE
  8
_0-2______1
  6
CONTINUOUS
 62
    1
 10
55.687458726878482
 20
27.710857564085561
 11
55.687458726878482
 21
27.881734300154189
  0
LINE
  8
_0-2______1
  6
CONTINUOUS
 62
    1
 10
55.687458726878482
 20
27.456954026822789
 11
55.687458726878482
 21
27.54308141395401
  0
LINE
  8
_0-2______1
  6
CONTINUOUS
 62
    1
 10
55.687458726878482
 20
28.559729091651182
 11
55.687458726878482
 21
28.642411383297119
  0
LINE
  8
_0-2______1
  6
CONTINUOUS
 62
    1
 10
55.687458726878482
 20
28.306514573485369
 11
55.687458726878482
 21
28.388852355583001
  0
LINE
  8
_0-2______1
  6
CONTINUOUS
 62
    1
 10
55.687458726878482
 20
29.659748080091589
 11
55.687458726878482
 21
29.74518644812574
  0
LINE
  8
_0-2______1
  6
CONTINUOUS
 62
    1
 10
55.687458726878482
 20
29.405844542828589
 11
55.687458726878482
 21
29.49093840131442
  0
LINE
  8
_0-2______1
  6
CONTINUOUS
 62
    1
 10
55.687458726878482
 20
29.15228551511413
 11
55.687458726878482
 21
29.234967806760181
  0
LINE
  8
_0-2______1
  6
CONTINUOUS
 62
    1
 10
55.687458726878482
 20
30.50551902172035
 11
55.687458726878482
 21
30.59095738975461
  0
LINE
  8
_0-2______1
  6
CONTINUOUS
 62
    1
 10
55.687458726878482
 20
30.25161548445735
 11
55.687458726878482
 21
30.337053852491611
  0
LINE
  8
_0-2______1
  6
CONTINUOUS
 62
    1
 10
55.687458726878482
 20
29.912962598257391
 11
55.687458726878482
 21
29.998400966291541
  0
LINE
  8
_0-2______1
  6
CONTINUOUS
 62
    1
 10
55.687458726878482
 20
31.35163447289753
 11
55.687458726878482
 21
31.437072840932021
  0
LINE
  8
_0-2______1
  6
CONTINUOUS
 62
    1
 10
55.687458726878482
 20
31.01504864398882
 11
55.687458726878482
 21
31.183513813217559
  0
LINE
  8
_0-2______1
  6
CONTINUOUS
 62
    1
 10
55.687458726878482
 20
30.759078049434809
 11
55.687458726878482
 21
30.929610275954559
  0
LINE
  8
_0-2______1
  6
CONTINUOUS
 62
    1
 10
55.687458726878482
 20
32.20050600046315
 11
55.687458726878482
 21
32.282843782560782
  0
LINE
  8
_0-2______1
  6
CONTINUOUS
 62
    1
 10
55.687458726878482
 20
31.944190896360819
 11
55.687458726878482
 21
32.029629264394742
  0
LINE
  8
_0-2______1
  6
CONTINUOUS
 62
    1
 10
55.687458726878482
 20
31.607949577000429
 11
55.687458726878482
 21
31.69028735909782
  0
LINE
  8
_0-2______1
  6
CONTINUOUS
 62
    1
 10
55.687458726878482
 20
33.046276942092128
 11
55.687458726878482
 21
33.131715310126403
  0
LINE
  8
_0-2______1
  6
CONTINUOUS
 62
    1
 10
55.687458726878482
 20
32.707624055891962
 11
55.687458726878482
 21
32.793062423926223
  0
LINE
  8
_0-2______1
  6
CONTINUOUS
 62
    1
 10
55.687458726878482
 20
32.453720518628963
 11
55.687458726878482
 21
32.539847905760411
  0
LINE
  8
_0-2______1
  6
CONTINUOUS
 62
    1
 10
55.687458726878482
 20
33.806954025235399
 11
55.687458726878482
 21
33.978519780400553
  0
LINE
  8
_0-2______1
  6
CONTINUOUS
 62
    1
 10
55.687458726878482
 20
33.553739507069373
 11
55.687458726878482
 21
33.72427173358912
  0
LINE
  8
_0-2______1
  6
CONTINUOUS
 62
    1
 10
55.687458726878482
 20
33.300524988903561
 11
55.687458726878482
 21
33.385618847389168
  0
LINE
  8
_0-2______1
  6
CONTINUOUS
 62
    1
 10
55.687458726878482
 20
34.738852353995377
 11
55.687458726878482
 21
34.824290722029531
  0
LINE
  8
_0-2______1
  6
CONTINUOUS
 62
    1
 10
55.687458726878482
 20
34.399510448698123
 11
55.687458726878482
 21
34.484948816732377
  0
LINE
  8
_0-2______1
  6
CONTINUOUS
 62
    1
 10
55.687458726878482
 20
34.146295930532318
 11
55.687458726878482
 21
34.231734298566579
  0
LINE
  8
_0-2______1
  6
CONTINUOUS
 62
    1
 10
55.687458726878482
 20
35.502285513526743
 11
55.687458726878482
 21
35.584967805172788
  0
LINE
  8
_0-2______1
  6
CONTINUOUS
 62
    1
 10
55.687458726878482
 20
35.248381976263737
 11
55.687458726878482
 21
35.33175328700699
  0
LINE
  8
_0-2______1
  6
CONTINUOUS
 62
    1
 10
55.687458726878482
 20
34.992411381709729
 11
55.687458726878482
 21
35.07784974974399
  0
LINE
  8
_0-2______1
  6
CONTINUOUS
 62
    1
 10
55.687458726878482
 20
36.348400964703927
 11
55.687458726878482
 21
36.433839332738422
  0
LINE
  8
_0-2______1
  6
CONTINUOUS
 62
    1
 10
55.687458726878482
 20
36.095186446538122
 11
55.687458726878482
 21
36.177524228635519
  0
LINE
  8
_0-2______1
  6
CONTINUOUS
 62
    1
 10
55.687458726878482
 20
37.194516415881338
 11
55.687458726878482
 21
37.279610274366952
  0
LINE
  8
_0-2______1
  6
CONTINUOUS
 62
    1
 10
55.687458726878482
 20
36.940957388166993
 11
55.687458726878482
 21
37.02639575620114
  0
LINE
  8
_0-2______1
  6
CONTINUOUS
 62
    1
 10
55.687458726878482
 20
36.60161548286996
 11
55.687458726878482
 21
36.773181238035328
  0
LINE
  8
_0-2______1
  6
CONTINUOUS
 62
    1
 10
55.687458726878482
 20
38.040287357510209
 11
55.687458726878482
 21
38.126414744641551
  0
LINE
  8
_0-2______1
  6
CONTINUOUS
 62
    1
 10
55.687458726878482
 20
37.787072839344397
 11
55.687458726878482
 21
37.872511207378551
  0
LINE
  8
_0-2______1
  6
CONTINUOUS
 62
    1
 10
55.687458726878482
 20
37.448419953144338
 11
55.687458726878482
 21
37.533858321178599
  0
LINE
  8
_0-2______1
  6
CONTINUOUS
 62
    1
 10
55.687458726878482
 20
38.889847904173017
 11
55.687458726878482
 21
38.972185686270421
  0
LINE
  8
_0-2______1
  6
CONTINUOUS
 62
    1
 10
55.687458726878482
 20
38.550505998875757
 11
55.687458726878482
 21
38.632843780973388
  0
LINE
  8
_0-2______1
  6
CONTINUOUS
 62
    1
 10
55.687458726878482
 20
38.294190894773209
 11
55.687458726878482
 21
38.379629262807363
  0
LINE
  8
_0-2______1
  6
CONTINUOUS
 62
    1
 10
55.687458726878482
 20
39.650524987315947
 11
55.687458726878482
 21
39.818301137447719
  0
LINE
  8
_0-2______1
  6
CONTINUOUS
 62
    1
 10
55.687458726878482
 20
39.396276940504521
 11
55.687458726878482
 21
39.5650866192818
  0
LINE
  8
_0-2______1
  6
CONTINUOUS
 62
    1
 10
55.687458726878482
 20
39.143062422338723
 11
55.687458726878482
 21
39.225744713984767
  0
LINE
  8
_0-2______1
  6
CONTINUOUS
 62
    1
 10
55.687458726878482
 20
40.581734296979192
 11
55.687458726878482
 21
40.667172665013233
  0
LINE
  8
_0-2______1
  6
CONTINUOUS
 62
    1
 10
55.687458726878482
 20
40.243081410779013
 11
55.687458726878482
 21
40.32851977881316
  0
LINE
  8
_0-2______1
  6
CONTINUOUS
 62
    1
 10
55.687458726878482
 20
39.989177873516127
 11
55.687458726878482
 21
40.074271732001733
  0
LINE
  8
_0-2______1
  6
CONTINUOUS
 62
    1
 10
55.687458726878482
 20
41.342411380122122
 11
55.687458726878482
 21
41.427849748156383
  0
LINE
  8
_0-2______1
  6
CONTINUOUS
 62
    1
 10
55.687458726878482
 20
41.088852352407997
 11
55.687458726878482
 21
41.174290720441917
  0
LINE
  8
_0-2______1
  6
CONTINUOUS
 62
    1
 10
55.687458726878482
 20
40.834948815144998
 11
55.687458726878482
 21
40.920387183179137
  0
LINE
  8
_0-2______1
  6
CONTINUOUS
 62
    1
 10
55.687458726878482
 20
42.191282907687743
 11
55.687458726878482
 21
42.273620689785133
  0
LINE
  8
_0-2______1
  6
CONTINUOUS
 62
    1
 10
55.687458726878482
 20
41.934967803585181
 11
55.687458726878482
 21
42.020406171619328
  0
LINE
  8
_0-2______1
  6
CONTINUOUS
 62
    1
 10
55.687458726878482
 20
41.681753285419383
 11
55.687458726878482
 21
41.767191653453523
  0
LINE
  8
_0-2______1
  6
CONTINUOUS
 62
    1
 10
55.687458726878482
 20
42.445186444950743
 11
55.687458726878482
 21
42.527524227048133
  0
LINE
  8
_0-2______1
  6
CONTINUOUS
 62
    1
 10
55.348461331129876
 20
15.94241138647212
 11
55.348461331129876
 21
14.41830114379772
  0
LINE
  8
_0-2______1
  6
CONTINUOUS
 62
    1
 10
55.43114362277587
 20
16.112943612992211
 11
55.348461331129876
 21
15.94241138647212
  0
LINE
  8
_0-2______1
  6
CONTINUOUS
 62
    1
 10
55.516581990810081
 20
16.198381981026131
 11
55.43114362277587
 21
16.112943612992211
  0
LINE
  8
_0-2______1
  6
CONTINUOUS
 62
    1
 10
55.941017754592892
 20
16.112943612992211
 11
55.855579386558681
 21
16.198381981026131
  0
LINE
  8
_0-2______1
  6
CONTINUOUS
 62
    1
 10
56.026456122627089
 20
15.94241138647212
 11
55.941017754592892
 21
16.112943612992211
  0
LINE
  8
_0-2______1
  6
CONTINUOUS
 62
    1
 10
55.602020358844278
 20
16.452285518289131
 11
55.687458726878482
 21
16.452285518289131
  0
LINE
  8
_0-2______1
  6
CONTINUOUS
 62
    1
 10
55.687458726878482
 20
16.620406177969329
 11
55.602020358844278
 21
16.452285518289131
  0
LINE
  8
_0-2______1
  6
CONTINUOUS
 62
    1
 10
55.770141018524477
 20
16.534967809935178
 11
55.687458726878482
 21
16.620406177969329
  0
LINE
  8
_0-2______1
  6
CONTINUOUS
 62
    1
 10
55.687458726878482
 20
16.452285518289131
 11
55.770141018524477
 21
16.534967809935178
  0
LINE
  8
_0-2______1
  6
CONTINUOUS
 62
    1
 10
55.602020358844278
 20
16.79093840448942
 11
55.687458726878482
 21
16.70584454600359
  0
LINE
  8
_0-2______1
  6
CONTINUOUS
 62
    1
 10
55.687458726878482
 20
16.873620696135131
 11
55.602020358844278
 21
16.79093840448942
  0
LINE
  8
_0-2______1
  6
CONTINUOUS
 62
    1
 10
55.770141018524477
 20
16.79093840448942
 11
55.687458726878482
 21
16.873620696135131
  0
LINE
  8
_0-2______1
  6
CONTINUOUS
 62
    1
 10
55.687458726878482
 20
16.70584454600359
 11
55.770141018524477
 21
16.79093840448942
  0
LINE
  8
_0-2______1
  6
CONTINUOUS
 62
    1
 10
55.602020358844278
 20
17.04518645130074
 11
55.687458726878482
 21
16.959748083266589
  0
LINE
  8
_0-2______1
  6
CONTINUOUS
 62
    1
 10
55.687458726878482
 20
17.12752423339813
 11
55.602020358844278
 21
17.04518645130074
  0
LINE
  8
_0-2______1
  6
CONTINUOUS
 62
    1
 10
55.770141018524477
 20
17.04518645130074
 11
55.687458726878482
 21
17.12752423339813
  0
LINE
  8
_0-2______1
  6
CONTINUOUS
 62
    1
 10
55.687458726878482
 20
16.959748083266589
 11
55.770141018524477
 21
17.04518645130074
  0
LINE
  8
_0-2______1
  6
CONTINUOUS
 62
    1
 10
55.687458726878482
 20
17.298400969466542
 11
55.687458726878482
 21
17.212962601432391
  0
LINE
  8
_0-2______1
  6
CONTINUOUS
 62
    1
 10
55.602020358844278
 20
17.383839337500799
 11
55.687458726878482
 21
17.298400969466542
  0
LINE
  8
_0-2______1
  6
CONTINUOUS
 62
    1
 10
55.687458726878482
 20
17.4661771195982
 11
55.602020358844278
 21
17.383839337500799
  0
LINE
  8
_0-2______1
  6
CONTINUOUS
 62
    1
 10
55.770141018524477
 20
17.298400969466542
 11
55.687458726878482
 21
17.4661771195982
  0
LINE
  8
_0-2______1
  6
CONTINUOUS
 62
    1
 10
55.687458726878482
 20
17.212962601432391
 11
55.770141018524477
 21
17.298400969466542
  0
LINE
  8
_0-2______1
  6
CONTINUOUS
 62
    1
 10
55.602020358844278
 20
17.55161548763235
 11
55.687458726878482
 21
17.55161548763235
  0
LINE
  8
_0-2______1
  6
CONTINUOUS
 62
    1
 10
55.687458726878482
 20
17.723181242797718
 11
55.602020358844278
 21
17.55161548763235
  0
LINE
  8
_0-2______1
  6
CONTINUOUS
 62
    1
 10
55.770141018524477
 20
17.637053855666611
 11
55.687458726878482
 21
17.723181242797718
  0
LINE
  8
_0-2______1
  6
CONTINUOUS
 62
    1
 10
55.687458726878482
 20
17.55161548763235
 11
55.770141018524477
 21
17.637053855666611
  0
LINE
  8
_0-2______1
  6
CONTINUOUS
 62
    1
 10
55.602020358844278
 20
17.890957392929611
 11
55.687458726878482
 21
17.80551902489535
  0
LINE
  8
_0-2______1
  6
CONTINUOUS
 62
    1
 10
55.687458726878482
 20
17.976395760963751
 11
55.602020358844278
 21
17.890957392929611
  0
LINE
  8
_0-2______1
  6
CONTINUOUS
 62
    1
 10
55.770141018524477
 20
17.890957392929611
 11
55.687458726878482
 21
17.976395760963751
  0
LINE
  8
_0-2______1
  6
CONTINUOUS
 62
    1
 10
55.687458726878482
 20
17.80551902489535
 11
55.770141018524477
 21
17.890957392929611
  0
LINE
  8
_0-2______1
  6
CONTINUOUS
 62
    1
 10
55.602020358844278
 20
18.144516420643949
 11
55.687458726878482
 21
18.144516420643949
  0
LINE
  8
_0-2______1
  6
CONTINUOUS
 62
    1
 10
55.770141018524477
 20
18.22961027912956
 11
55.602020358844278
 21
18.144516420643949
  0
LINE
  8
_0-2______1
  6
CONTINUOUS
 62
    1
 10
55.687458726878482
 20
18.144516420643949
 11
55.770141018524477
 21
18.22961027912956
  0
LINE
  8
_0-2______1
  6
CONTINUOUS
 62
    1
 10
55.602020358844278
 20
18.483858325940989
 11
55.687458726878482
 21
18.398419957906729
  0
LINE
  8
_0-2______1
  6
CONTINUOUS
 62
    1
 10
55.687458726878482
 20
18.56895218442682
 11
55.602020358844278
 21
18.483858325940989
  0
LINE
  8
_0-2______1
  6
CONTINUOUS
 62
    1
 10
55.770141018524477
 20
18.483858325940989
 11
55.687458726878482
 21
18.56895218442682
  0
LINE
  8
_0-2______1
  6
CONTINUOUS
 62
    1
 10
55.687458726878482
 20
18.398419957906729
 11
55.770141018524477
 21
18.483858325940989
  0
LINE
  8
_0-2______1
  6
CONTINUOUS
 62
    1
 10
55.602020358844278
 20
18.737072844107018
 11
55.687458726878482
 21
18.65163447607253
  0
LINE
  8
_0-2______1
  6
CONTINUOUS
 62
    1
 10
55.687458726878482
 20
18.822511212140942
 11
55.602020358844278
 21
18.737072844107018
  0
LINE
  8
_0-2______1
  6
CONTINUOUS
 62
    1
 10
55.770141018524477
 20
18.737072844107018
 11
55.687458726878482
 21
18.822511212140942
  0
LINE
  8
_0-2______1
  6
CONTINUOUS
 62
    1
 10
55.687458726878482
 20
18.65163447607253
 11
55.770141018524477
 21
18.737072844107018
  0
LINE
  8
_0-2______1
  6
CONTINUOUS
 62
    1
 10
55.687458726878482
 20
18.99028736227282
 11
55.687458726878482
 21
18.90794958017543
  0
LINE
  8
_0-2______1
  6
CONTINUOUS
 62
    1
 10
55.602020358844278
 20
19.076414749403941
 11
55.687458726878482
 21
18.99028736227282
  0
LINE
  8
_0-2______1
  6
CONTINUOUS
 62
    1
 10
55.687458726878482
 20
19.161853117438199
 11
55.602020358844278
 21
19.076414749403941
  0
LINE
  8
_0-2______1
  6
CONTINUOUS
 62
    1
 10
55.770141018524477
 20
18.99028736227282
 11
55.687458726878482
 21
19.161853117438199
  0
LINE
  8
_0-2______1
  6
CONTINUOUS
 62
    1
 10
55.687458726878482
 20
18.90794958017543
 11
55.770141018524477
 21
18.99028736227282
  0
LINE
  8
_0-2______1
  6
CONTINUOUS
 62
    1
 10
55.602020358844278
 20
19.329629267569739
 11
55.687458726878482
 21
19.24419089953582
  0
LINE
  8
_0-2______1
  6
CONTINUOUS
 62
    1
 10
55.687458726878482
 20
19.415067635604121
 11
55.602020358844278
 21
19.329629267569739
  0
LINE
  8
_0-2______1
  6
CONTINUOUS
 62
    1
 10
55.770141018524477
 20
19.329629267569739
 11
55.687458726878482
 21
19.415067635604121
  0
LINE
  8
_0-2______1
  6
CONTINUOUS
 62
    1
 10
55.687458726878482
 20
19.24419089953582
 11
55.770141018524477
 21
19.329629267569739
  0
LINE
  8
_0-2______1
  6
CONTINUOUS
 62
    1
 10
55.602020358844278
 20
19.582843785735779
 11
55.687458726878482
 21
19.500506003638151
  0
LINE
  8
_0-2______1
  6
CONTINUOUS
 62
    1
 10
55.687458726878482
 20
19.668282153769919
 11
55.602020358844278
 21
19.582843785735779
  0
LINE
  8
_0-2______1
  6
CONTINUOUS
 62
    1
 10
55.770141018524477
 20
19.582843785735779
 11
55.687458726878482
 21
19.668282153769919
  0
LINE
  8
_0-2______1
  6
CONTINUOUS
 62
    1
 10
55.687458726878482
 20
19.500506003638151
 11
55.770141018524477
 21
19.582843785735779
  0
LINE
  8
_0-2______1
  6
CONTINUOUS
 62
    1
 10
55.602020358844278
 20
19.839847908935411
 11
55.687458726878482
 21
19.75372052180396
  0
LINE
  8
_0-2______1
  6
CONTINUOUS
 62
    1
 10
55.687458726878482
 20
19.922185691032809
 11
55.602020358844278
 21
19.839847908935411
  0
LINE
  8
_0-2______1
  6
CONTINUOUS
 62
    1
 10
55.770141018524477
 20
19.839847908935411
 11
55.687458726878482
 21
19.922185691032809
  0
LINE
  8
_0-2______1
  6
CONTINUOUS
 62
    1
 10
55.687458726878482
 20
19.75372052180396
 11
55.770141018524477
 21
19.839847908935411
  0
LINE
  8
_0-2______1
  6
CONTINUOUS
 62
    1
 10
55.687458726878482
 20
20.09306242710122
 11
55.687458726878482
 21
20.007624059066959
  0
LINE
  8
_0-2______1
  6
CONTINUOUS
 62
    1
 10
55.602020358844278
 20
20.175744718747151
 11
55.687458726878482
 21
20.09306242710122
  0
LINE
  8
_0-2______1
  6
CONTINUOUS
 62
    1
 10
55.687458726878482
 20
20.261183086781411
 11
55.602020358844278
 21
20.175744718747151
  0
LINE
  8
_0-2______1
  6
CONTINUOUS
 62
    1
 10
55.770141018524477
 20
20.09306242710122
 11
55.687458726878482
 21
20.261183086781411
  0
LINE
  8
_0-2______1
  6
CONTINUOUS
 62
    1
 10
55.687458726878482
 20
20.007624059066959
 11
55.770141018524477
 21
20.09306242710122
  0
LINE
  8
_0-2______1
  6
CONTINUOUS
 62
    1
 10
55.687458726878482
 20
16.36719165980352
 11
55.602020358844278
 21
16.28175329176938
  0
LINE
  8
_0-2______1
  6
CONTINUOUS
 62
    1
 10
55.770141018524477
 20
16.28175329176938
 11
55.687458726878482
 21
16.36719165980352
  0
LINE
  8
_0-2______1
  6
CONTINUOUS
 62
    1
 10
55.687458726878482
 20
20.346276945267139
 11
55.687458726878482
 21
20.261183086781411
  0
LINE
  8
_0-2______1
  6
CONTINUOUS
 62
    1
 10
55.602020358844278
 20
20.4317153133014
 11
55.687458726878482
 21
20.346276945267139
  0
LINE
  8
_0-2______1
  6
CONTINUOUS
 62
    1
 10
55.687458726878482
 20
20.515086624044411
 11
55.602020358844278
 21
20.4317153133014
  0
LINE
  8
_0-2______1
  6
CONTINUOUS
 62
    1
 10
55.770141018524477
 20
20.4317153133014
 11
55.687458726878482
 21
20.515086624044411
  0
LINE
  8
_0-2______1
  6
CONTINUOUS
 62
    1
 10
55.687458726878482
 20
20.261183086781411
 11
55.770141018524477
 21
20.4317153133014
  0
LINE
  8
_0-2______1
  6
CONTINUOUS
 62
    1
 10
55.602020358844278
 20
20.685618850564168
 11
55.687458726878482
 21
20.600524992078562
  0
LINE
  8
_0-2______1
  6
CONTINUOUS
 62
    1
 10
55.687458726878482
 20
20.76830114221022
 11
55.602020358844278
 21
20.685618850564168
  0
LINE
  8
_0-2______1
  6
CONTINUOUS
 62
    1
 10
55.770141018524477
 20
20.685618850564168
 11
55.687458726878482
 21
20.76830114221022
  0
LINE
  8
_0-2______1
  6
CONTINUOUS
 62
    1
 10
55.687458726878482
 20
20.600524992078562
 11
55.770141018524477
 21
20.685618850564168
  0
LINE
  8
_0-2______1
  6
CONTINUOUS
 62
    1
 10
55.602020358844278
 20
20.939177878278631
 11
55.687458726878482
 21
20.85373951024437
  0
LINE
  8
_0-2______1
  6
CONTINUOUS
 62
    1
 10
55.687458726878482
 20
21.024271736764121
 11
55.602020358844278
 21
20.939177878278631
  0
LINE
  8
_0-2______1
  6
CONTINUOUS
 62
    1
 10
55.770141018524477
 20
20.939177878278631
 11
55.687458726878482
 21
21.024271736764121
  0
LINE
  8
_0-2______1
  6
CONTINUOUS
 62
    1
 10
55.687458726878482
 20
20.85373951024437
 11
55.770141018524477
 21
20.939177878278631
  0
LINE
  8
_0-2______1
  6
CONTINUOUS
 62
    1
 10
55.602020358844278
 20
21.193081415541631
 11
55.687458726878482
 21
21.193081415541631
  0
LINE
  8
_0-2______1
  6
CONTINUOUS
 62
    1
 10
55.602020358844278
 20
21.27851978357555
 11
55.602020358844278
 21
21.193081415541631
  0
LINE
  8
_0-2______1
  6
CONTINUOUS
 62
    1
 10
55.687458726878482
 20
21.360857565673172
 11
55.602020358844278
 21
21.27851978357555
  0
LINE
  8
_0-2______1
  6
CONTINUOUS
 62
    1
 10
55.770141018524477
 20
21.27851978357555
 11
55.687458726878482
 21
21.360857565673172
  0
LINE
  8
_0-2______1
  6
CONTINUOUS
 62
    1
 10
55.687458726878482
 20
21.193081415541631
 11
55.770141018524477
 21
21.27851978357555
  0
LINE
  8
_0-2______1
  6
CONTINUOUS
 62
    1
 10
55.602020358844278
 20
21.531734301741579
 11
55.687458726878482
 21
21.446295933707319
  0
LINE
  8
_0-2______1
  6
CONTINUOUS
 62
    1
 10
55.687458726878482
 20
21.61717266977573
 11
55.602020358844278
 21
21.531734301741579
  0
LINE
  8
_0-2______1
  6
CONTINUOUS
 62
    1
 10
55.770141018524477
 20
21.531734301741579
 11
55.687458726878482
 21
21.61717266977573
  0
LINE
  8
_0-2______1
  6
CONTINUOUS
 62
    1
 10
55.687458726878482
 20
21.446295933707319
 11
55.770141018524477
 21
21.531734301741579
  0
LINE
  8
_0-2______1
  6
CONTINUOUS
 62
    1
 10
55.602020358844278
 20
21.784948819907381
 11
55.687458726878482
 21
21.69951045187312
  0
LINE
  8
_0-2______1
  6
CONTINUOUS
 62
    1
 10
55.687458726878482
 20
21.870387187941532
 11
55.602020358844278
 21
21.784948819907381
  0
LINE
  8
_0-2______1
  6
CONTINUOUS
 62
    1
 10
55.770141018524477
 20
21.784948819907381
 11
55.687458726878482
 21
21.870387187941532
  0
LINE
  8
_0-2______1
  6
CONTINUOUS
 62
    1
 10
55.687458726878482
 20
21.69951045187312
 11
55.770141018524477
 21
21.784948819907381
  0
LINE
  8
_0-2______1
  6
CONTINUOUS
 62
    1
 10
55.687458726878482
 20
22.038852357170381
 11
55.687458726878482
 21
21.95651457507299
  0
LINE
  8
_0-2______1
  6
CONTINUOUS
 62
    1
 10
55.602020358844278
 20
22.124290725204531
 11
55.687458726878482
 21
22.038852357170381
  0
LINE
  8
_0-2______1
  6
CONTINUOUS
 62
    1
 10
55.687458726878482
 20
22.209729093238789
 11
55.602020358844278
 21
22.124290725204531
  0
LINE
  8
_0-2______1
  6
CONTINUOUS
 62
    1
 10
55.770141018524477
 20
22.038852357170381
 11
55.687458726878482
 21
22.209729093238789
  0
LINE
  8
_0-2______1
  6
CONTINUOUS
 62
    1
 10
55.687458726878482
 20
21.95651457507299
 11
55.770141018524477
 21
22.038852357170381
  0
LINE
  8
_0-2______1
  6
CONTINUOUS
 62
    1
 10
55.602020358844278
 20
22.377849752918991
 11
55.687458726878482
 21
22.29241138488473
  0
LINE
  8
_0-2______1
  6
CONTINUOUS
 62
    1
 10
55.687458726878482
 20
22.462943611404601
 11
55.602020358844278
 21
22.377849752918991
  0
LINE
  8
_0-2______1
  6
CONTINUOUS
 62
    1
 10
55.770141018524477
 20
22.377849752918991
 11
55.687458726878482
 21
22.462943611404601
  0
LINE
  8
_0-2______1
  6
CONTINUOUS
 62
    1
 10
55.687458726878482
 20
22.29241138488473
 11
55.770141018524477
 21
22.377849752918991
  0
LINE
  8
_0-2______1
  6
CONTINUOUS
 62
    1
 10
55.602020358844278
 20
22.63175329018199
 11
55.687458726878482
 21
22.548381979438741
  0
LINE
  8
_0-2______1
  6
CONTINUOUS
 62
    1
 10
55.687458726878482
 20
22.7168471486676
 11
55.602020358844278
 21
22.63175329018199
  0
LINE
  8
_0-2______1
  6
CONTINUOUS
 62
    1
 10
55.770141018524477
 20
22.63175329018199
 11
55.687458726878482
 21
22.7168471486676
  0
LINE
  8
_0-2______1
  6
CONTINUOUS
 62
    1
 10
55.687458726878482
 20
22.548381979438741
 11
55.770141018524477
 21
22.63175329018199
  0
LINE
  8
_0-2______1
  6
CONTINUOUS
 62
    1
 10
55.602020358844278
 20
22.884967808347799
 11
55.687458726878482
 21
22.80228551670174
  0
LINE
  8
_0-2______1
  6
CONTINUOUS
 62
    1
 10
55.687458726878482
 20
22.970406176381939
 11
55.602020358844278
 21
22.884967808347799
  0
LINE
  8
_0-2______1
  6
CONTINUOUS
 62
    1
 10
55.770141018524477
 20
22.884967808347799
 11
55.687458726878482
 21
22.970406176381939
  0
LINE
  8
_0-2______1
  6
CONTINUOUS
 62
    1
 10
55.687458726878482
 20
22.80228551670174
 11
55.770141018524477
 21
22.884967808347799
  0
LINE
  8
_0-2______1
  6
CONTINUOUS
 62
    1
 10
55.687458726878482
 20
23.14093840290181
 11
55.687458726878482
 21
23.0558445444162
  0
LINE
  8
_0-2______1
  6
CONTINUOUS
 62
    1
 10
55.602020358844278
 20
23.223620694547751
 11
55.687458726878482
 21
23.14093840290181
  0
LINE
  8
_0-2______1
  6
CONTINUOUS
 62
    1
 10
55.687458726878482
 20
23.309748081678979
 11
55.602020358844278
 21
23.223620694547751
  0
LINE
  8
_0-2______1
  6
CONTINUOUS
 62
    1
 10
55.770141018524477
 20
23.14093840290181
 11
55.687458726878482
 21
23.309748081678979
  0
LINE
  8
_0-2______1
  6
CONTINUOUS
 62
    1
 10
55.687458726878482
 20
23.0558445444162
 11
55.770141018524477
 21
23.14093840290181
  0
LINE
  8
_0-2______1
  6
CONTINUOUS
 62
    1
 10
55.602020358844278
 20
23.47752423181052
 11
55.687458726878482
 21
23.395186449713119
  0
LINE
  8
_0-2______1
  6
CONTINUOUS
 62
    1
 10
55.687458726878482
 20
23.562962599845012
 11
55.602020358844278
 21
23.47752423181052
  0
LINE
  8
_0-2______1
  6
CONTINUOUS
 62
    1
 10
55.770141018524477
 20
23.47752423181052
 11
55.687458726878482
 21
23.562962599845012
  0
LINE
  8
_0-2______1
  6
CONTINUOUS
 62
    1
 10
55.687458726878482
 20
23.395186449713119
 11
55.770141018524477
 21
23.47752423181052
  0
LINE
  8
_0-2______1
  6
CONTINUOUS
 62
    1
 10
55.602020358844278
 20
23.733839335913419
 11
55.687458726878482
 21
23.648400967878931
  0
LINE
  8
_0-2______1
  6
CONTINUOUS
 62
    1
 10
55.687458726878482
 20
23.81617711801081
 11
55.602020358844278
 21
23.733839335913419
  0
LINE
  8
_0-2______1
  6
CONTINUOUS
 62
    1
 10
55.770141018524477
 20
23.733839335913419
 11
55.687458726878482
 21
23.81617711801081
  0
LINE
  8
_0-2______1
  6
CONTINUOUS
 62
    1
 10
55.687458726878482
 20
23.648400967878931
 11
55.770141018524477
 21
23.733839335913419
  0
LINE
  8
_0-2______1
  6
CONTINUOUS
 62
    1
 10
55.602020358844278
 20
23.987053854079221
 11
55.687458726878482
 21
23.987053854079221
  0
LINE
  8
_0-2______1
  6
CONTINUOUS
 62
    1
 10
55.770141018524477
 20
24.073181241210339
 11
55.602020358844278
 21
23.987053854079221
  0
LINE
  8
_0-2______1
  6
CONTINUOUS
 62
    1
 10
55.687458726878482
 20
23.987053854079221
 11
55.770141018524477
 21
24.073181241210339
  0
LINE
  8
_0-2______1
  6
CONTINUOUS
 62
    1
 10
55.602020358844278
 20
24.32639575937614
 11
55.687458726878482
 21
24.24095739134199
  0
LINE
  8
_0-2______1
  6
CONTINUOUS
 62
    1
 10
55.687458726878482
 20
24.409078051022188
 11
55.602020358844278
 21
24.32639575937614
  0
LINE
  8
_0-2______1
  6
CONTINUOUS
 62
    1
 10
55.770141018524477
 20
24.32639575937614
 11
55.687458726878482
 21
24.409078051022188
  0
LINE
  8
_0-2______1
  6
CONTINUOUS
 62
    1
 10
55.687458726878482
 20
24.24095739134199
 11
55.770141018524477
 21
24.32639575937614
  0
LINE
  8
_0-2______1
  6
CONTINUOUS
 62
    1
 10
55.687458726878482
 20
24.66504864557632
 11
55.687458726878482
 21
24.494516419056339
  0
LINE
  8
_0-2______1
  6
CONTINUOUS
 62
    1
 10
55.770141018524477
 20
24.579610277541949
 11
55.687458726878482
 21
24.66504864557632
  0
LINE
  8
_0-2______1
  6
CONTINUOUS
 62
    1
 10
55.687458726878482
 20
24.494516419056339
 11
55.770141018524477
 21
24.579610277541949
  0
LINE
  8
_0-2______1
  6
CONTINUOUS
 62
    1
 10
55.687458726878482
 20
24.833858324353599
 11
55.687458726878482
 21
24.748419956319339
  0
LINE
  8
_0-2______1
  6
CONTINUOUS
 62
    1
 10
55.602020358844278
 20
24.91895218283921
 11
55.687458726878482
 21
24.833858324353599
  0
LINE
  8
_0-2______1
  6
CONTINUOUS
 62
    1
 10
55.687458726878482
 20
25.00163447448514
 11
55.602020358844278
 21
24.91895218283921
  0
LINE
  8
_0-2______1
  6
CONTINUOUS
 62
    1
 10
55.770141018524477
 20
24.833858324353599
 11
55.687458726878482
 21
25.00163447448514
  0
LINE
  8
_0-2______1
  6
CONTINUOUS
 62
    1
 10
55.687458726878482
 20
24.748419956319339
 11
55.770141018524477
 21
24.833858324353599
  0
LINE
  8
_0-2______1
  6
CONTINUOUS
 62
    1
 10
55.602020358844278
 20
25.087072842519401
 11
55.687458726878482
 21
25.087072842519401
  0
LINE
  8
_0-2______1
  6
CONTINUOUS
 62
    1
 10
55.687458726878482
 20
25.257605069039389
 11
55.602020358844278
 21
25.087072842519401
  0
LINE
  8
_0-2______1
  6
CONTINUOUS
 62
    1
 10
55.770141018524477
 20
25.172511210553552
 11
55.687458726878482
 21
25.257605069039389
  0
LINE
  8
_0-2______1
  6
CONTINUOUS
 62
    1
 10
55.687458726878482
 20
25.087072842519401
 11
55.770141018524477
 21
25.172511210553552
  0
LINE
  8
_0-2______1
  6
CONTINUOUS
 62
    1
 10
55.602020358844278
 20
25.426414747816551
 11
55.687458726878482
 21
25.34028736068521
  0
LINE
  8
_0-2______1
  6
CONTINUOUS
 62
    1
 10
55.687458726878482
 20
25.511853115850808
 11
55.602020358844278
 21
25.426414747816551
  0
LINE
  8
_0-2______1
  6
CONTINUOUS
 62
    1
 10
55.770141018524477
 20
25.426414747816551
 11
55.687458726878482
 21
25.511853115850808
  0
LINE
  8
_0-2______1
  6
CONTINUOUS
 62
    1
 10
55.687458726878482
 20
25.34028736068521
 11
55.770141018524477
 21
25.426414747816551
  0
LINE
  8
_0-2______1
  6
CONTINUOUS
 62
    1
 10
55.602020358844278
 20
25.67962926598236
 11
55.687458726878482
 21
25.594190897948209
  0
LINE
  8
_0-2______1
  6
CONTINUOUS
 62
    1
 10
55.687458726878482
 20
25.765067634016621
 11
55.602020358844278
 21
25.67962926598236
  0
LINE
  8
_0-2______1
  6
CONTINUOUS
 62
    1
 10
55.770141018524477
 20
25.67962926598236
 11
55.687458726878482
 21
25.765067634016621
  0
LINE
  8
_0-2______1
  6
CONTINUOUS
 62
    1
 10
55.687458726878482
 20
25.594190897948209
 11
55.770141018524477
 21
25.67962926598236
  0
LINE
  8
_0-2______1
  6
CONTINUOUS
 62
    1
 10
55.687458726878482
 20
25.932843784148389
 11
55.687458726878482
 21
25.850506002050761
  0
LINE
  8
_0-2______1
  6
CONTINUOUS
 62
    1
 10
55.602020358844278
 20
26.018282152182419
 11
55.687458726878482
 21
25.932843784148389
  0
LINE
  8
_0-2______1
  6
CONTINUOUS
 62
    1
 10
55.687458726878482
 20
26.103720520216569
 11
55.602020358844278
 21
26.018282152182419
  0
LINE
  8
_0-2______1
  6
CONTINUOUS
 62
    1
 10
55.770141018524477
 20
25.932843784148389
 11
55.687458726878482
 21
26.103720520216569
  0
LINE
  8
_0-2______1
  6
CONTINUOUS
 62
    1
 10
55.687458726878482
 20
25.850506002050761
 11
55.770141018524477
 21
25.932843784148389
  0
LINE
  8
_0-2______1
  6
CONTINUOUS
 62
    1
 10
55.602020358844278
 20
26.189847907348021
 11
55.687458726878482
 21
26.189847907348021
  0
LINE
  8
_0-2______1
  6
CONTINUOUS
 62
    1
 10
55.687458726878482
 20
26.357624057479569
 11
55.602020358844278
 21
26.189847907348021
  0
LINE
  8
_0-2______1
  6
CONTINUOUS
 62
    1
 10
55.770141018524477
 20
26.272185689445418
 11
55.687458726878482
 21
26.357624057479569
  0
LINE
  8
_0-2______1
  6
CONTINUOUS
 62
    1
 10
55.687458726878482
 20
26.189847907348021
 11
55.770141018524477
 21
26.272185689445418
  0
LINE
  8
_0-2______1
  6
CONTINUOUS
 62
    1
 10
55.602020358844278
 20
26.525744717159771
 11
55.687458726878482
 21
26.44306242551372
  0
LINE
  8
_0-2______1
  6
CONTINUOUS
 62
    1
 10
55.687458726878482
 20
26.611183085194028
 11
55.602020358844278
 21
26.525744717159771
  0
LINE
  8
_0-2______1
  6
CONTINUOUS
 62
    1
 10
55.770141018524477
 20
26.525744717159771
 11
55.687458726878482
 21
26.611183085194028
  0
LINE
  8
_0-2______1
  6
CONTINUOUS
 62
    1
 10
55.687458726878482
 20
26.44306242551372
 11
55.770141018524477
 21
26.525744717159771
  0
LINE
  8
_0-2______1
  6
CONTINUOUS
 62
    1
 10
55.602020358844278
 20
26.781715311713779
 11
55.687458726878482
 21
26.696276943679521
  0
LINE
  8
_0-2______1
  6
CONTINUOUS
 62
    1
 10
55.687458726878482
 20
26.865086622456801
 11
55.602020358844278
 21
26.781715311713779
  0
LINE
  8
_0-2______1
  6
CONTINUOUS
 62
    1
 10
55.770141018524477
 20
26.781715311713779
 11
55.687458726878482
 21
26.865086622456801
  0
LINE
  8
_0-2______1
  6
CONTINUOUS
 62
    1
 10
55.687458726878482
 20
26.696276943679521
 11
55.770141018524477
 21
26.781715311713779
  0
LINE
  8
_0-2______1
  6
CONTINUOUS
 62
    1
 10
55.687458726878482
 20
27.035618848976551
 11
55.687458726878482
 21
26.950524990490951
  0
LINE
  8
_0-2______1
  6
CONTINUOUS
 62
    1
 10
55.602020358844278
 20
27.118301140622719
 11
55.687458726878482
 21
27.035618848976551
  0
LINE
  8
_0-2______1
  6
CONTINUOUS
 62
    1
 10
55.687458726878482
 20
27.203739508656749
 11
55.602020358844278
 21
27.118301140622719
  0
LINE
  8
_0-2______1
  6
CONTINUOUS
 62
    1
 10
55.770141018524477
 20
27.035618848976551
 11
55.687458726878482
 21
27.203739508656749
  0
LINE
  8
_0-2______1
  6
CONTINUOUS
 62
    1
 10
55.687458726878482
 20
26.950524990490951
 11
55.770141018524477
 21
27.035618848976551
  0
LINE
  8
_0-2______1
  6
CONTINUOUS
 62
    1
 10
55.602020358844278
 20
27.37427173517673
 11
55.687458726878482
 21
27.289177876691131
  0
LINE
  8
_0-2______1
  6
CONTINUOUS
 62
    1
 10
55.687458726878482
 20
27.456954026822789
 11
55.602020358844278
 21
27.37427173517673
  0
LINE
  8
_0-2______1
  6
CONTINUOUS
 62
    1
 10
55.770141018524477
 20
27.37427173517673
 11
55.687458726878482
 21
27.456954026822789
  0
LINE
  8
_0-2______1
  6
CONTINUOUS
 62
    1
 10
55.687458726878482
 20
27.289177876691131
 11
55.770141018524477
 21
27.37427173517673
  0
LINE
  8
_0-2______1
  6
CONTINUOUS
 62
    1
 10
55.602020358844278
 20
27.62851978198816
 11
55.687458726878482
 21
27.54308141395401
  0
LINE
  8
_0-2______1
  6
CONTINUOUS
 62
    1
 10
55.687458726878482
 20
27.710857564085561
 11
55.602020358844278
 21
27.62851978198816
  0
LINE
  8
_0-2______1
  6
CONTINUOUS
 62
    1
 10
55.770141018524477
 20
27.62851978198816
 11
55.687458726878482
 21
27.710857564085561
  0
LINE
  8
_0-2______1
  6
CONTINUOUS
 62
    1
 10
55.687458726878482
 20
27.54308141395401
 11
55.770141018524477
 21
27.62851978198816
  0
LINE
  8
_0-2______1
  6
CONTINUOUS
 62
    1
 10
55.602020358844278
 20
27.881734300154189
 11
55.687458726878482
 21
27.796295932119818
  0
LINE
  8
_0-2______1
  6
CONTINUOUS
 62
    1
 10
55.687458726878482
 20
27.96717266818823
 11
55.602020358844278
 21
27.881734300154189
  0
LINE
  8
_0-2______1
  6
CONTINUOUS
 62
    1
 10
55.770141018524477
 20
27.881734300154189
 11
55.687458726878482
 21
27.96717266818823
  0
LINE
  8
_0-2______1
  6
CONTINUOUS
 62
    1
 10
55.687458726878482
 20
27.796295932119818
 11
55.770141018524477
 21
27.881734300154189
  0
LINE
  8
_0-2______1
  6
CONTINUOUS
 62
    1
 10
55.602020358844278
 20
28.220387186354149
 11
55.687458726878482
 21
28.134948818320002
  0
LINE
  8
_0-2______1
  6
CONTINUOUS
 62
    1
 10
55.687458726878482
 20
28.306514573485369
 11
55.602020358844278
 21
28.220387186354149
  0
LINE
  8
_0-2______1
  6
CONTINUOUS
 62
    1
 10
55.770141018524477
 20
28.220387186354149
 11
55.687458726878482
 21
28.306514573485369
  0
LINE
  8
_0-2______1
  6
CONTINUOUS
 62
    1
 10
55.687458726878482
 20
28.134948818320002
 11
55.770141018524477
 21
28.220387186354149
  0
LINE
  8
_0-2______1
  6
CONTINUOUS
 62
    1
 10
55.602020358844278
 20
28.474290723616921
 11
55.687458726878482
 21
28.388852355583001
  0
LINE
  8
_0-2______1
  6
CONTINUOUS
 62
    1
 10
55.687458726878482
 20
28.559729091651182
 11
55.602020358844278
 21
28.474290723616921
  0
LINE
  8
_0-2______1
  6
CONTINUOUS
 62
    1
 10
55.770141018524477
 20
28.474290723616921
 11
55.687458726878482
 21
28.559729091651182
  0
LINE
  8
_0-2______1
  6
CONTINUOUS
 62
    1
 10
55.687458726878482
 20
28.388852355583001
 11
55.770141018524477
 21
28.474290723616921
  0
LINE
  8
_0-2______1
  6
CONTINUOUS
 62
    1
 10
55.687458726878482
 20
28.72784975133138
 11
55.687458726878482
 21
28.642411383297119
  0
LINE
  8
_0-2______1
  6
CONTINUOUS
 62
    1
 10
55.602020358844278
 20
28.812943609817211
 11
55.687458726878482
 21
28.72784975133138
  0
LINE
  8
_0-2______1
  6
CONTINUOUS
 62
    1
 10
55.687458726878482
 20
28.89838197785113
 11
55.602020358844278
 21
28.812943609817211
  0
LINE
  8
_0-2______1
  6
CONTINUOUS
 62
    1
 10
55.770141018524477
 20
28.72784975133138
 11
55.687458726878482
 21
28.89838197785113
  0
LINE
  8
_0-2______1
  6
CONTINUOUS
 62
    1
 10
55.687458726878482
 20
28.642411383297119
 11
55.770141018524477
 21
28.72784975133138
  0
LINE
  8
_0-2______1
  6
CONTINUOUS
 62
    1
 10
55.687458726878482
 20
28.98175328859438
 11
55.687458726878482
 21
28.89838197785113
  0
LINE
  8
_0-2______1
  6
CONTINUOUS
 62
    1
 10
55.602020358844278
 20
29.066847147079979
 11
55.687458726878482
 21
28.98175328859438
  0
LINE
  8
_0-2______1
  6
CONTINUOUS
 62
    1
 10
55.687458726878482
 20
29.15228551511413
 11
55.602020358844278
 21
29.066847147079979
  0
LINE
  8
_0-2______1
  6
CONTINUOUS
 62
    1
 10
55.770141018524477
 20
28.98175328859438
 11
55.687458726878482
 21
29.15228551511413
  0
LINE
  8
_0-2______1
  6
CONTINUOUS
 62
    1
 10
55.687458726878482
 20
28.89838197785113
 11
55.770141018524477
 21
28.98175328859438
  0
LINE
  8
_0-2______1
  6
CONTINUOUS
 62
    1
 10
55.602020358844278
 20
29.320406174794329
 11
55.687458726878482
 21
29.234967806760181
  0
LINE
  8
_0-2______1
  6
CONTINUOUS
 62
    1
 10
55.687458726878482
 20
29.405844542828589
 11
55.602020358844278
 21
29.320406174794329
  0
LINE
  8
_0-2______1
  6
CONTINUOUS
 62
    1
 10
55.770141018524477
 20
29.320406174794329
 11
55.687458726878482
 21
29.405844542828589
  0
LINE
  8
_0-2______1
  6
CONTINUOUS
 62
    1
 10
55.687458726878482
 20
29.234967806760181
 11
55.770141018524477
 21
29.320406174794329
  0
LINE
  8
_0-2______1
  6
CONTINUOUS
 62
    1
 10
55.602020358844278
 20
29.57362069296013
 11
55.687458726878482
 21
29.49128291086274
  0
LINE
  8
_0-2______1
  6
CONTINUOUS
 62
    1
 10
55.687458726878482
 20
29.659748080091589
 11
55.602020358844278
 21
29.57362069296013
  0
LINE
  8
_0-2______1
  6
CONTINUOUS
 62
    1
 10
55.770141018524477
 20
29.57362069296013
 11
55.687458726878482
 21
29.659748080091589
  0
LINE
  8
_0-2______1
  6
CONTINUOUS
 62
    1
 10
55.687458726878482
 20
29.49128291086274
 11
55.770141018524477
 21
29.57362069296013
  0
LINE
  8
_0-2______1
  6
CONTINUOUS
 62
    1
 10
55.602020358844278
 20
29.82752423022313
 11
55.687458726878482
 21
29.74518644812574
  0
LINE
  8
_0-2______1
  6
CONTINUOUS
 62
    1
 10
55.687458726878482
 20
29.912962598257391
 11
55.602020358844278
 21
29.82752423022313
  0
LINE
  8
_0-2______1
  6
CONTINUOUS
 62
    1
 10
55.770141018524477
 20
29.82752423022313
 11
55.687458726878482
 21
29.912962598257391
  0
LINE
  8
_0-2______1
  6
CONTINUOUS
 62
    1
 10
55.687458726878482
 20
29.74518644812574
 11
55.770141018524477
 21
29.82752423022313
  0
LINE
  8
_0-2______1
  6
CONTINUOUS
 62
    1
 10
55.687458726878482
 20
30.083839334325798
 11
55.687458726878482
 21
29.998400966291541
  0
LINE
  8
_0-2______1
  6
CONTINUOUS
 62
    1
 10
55.602020358844278
 20
30.166177116423199
 11
55.687458726878482
 21
30.083839334325798
  0
LINE
  8
_0-2______1
  6
CONTINUOUS
 62
    1
 10
55.687458726878482
 20
30.25161548445735
 11
55.602020358844278
 21
30.166177116423199
  0
LINE
  8
_0-2______1
  6
CONTINUOUS
 62
    1
 10
55.770141018524477
 20
30.083839334325798
 11
55.687458726878482
 21
30.25161548445735
  0
LINE
  8
_0-2______1
  6
CONTINUOUS
 62
    1
 10
55.687458726878482
 20
29.998400966291541
 11
55.770141018524477
 21
30.083839334325798
  0
LINE
  8
_0-2______1
  6
CONTINUOUS
 62
    1
 10
55.602020358844278
 20
30.423181239622721
 11
55.687458726878482
 21
30.337053852491611
  0
LINE
  8
_0-2______1
  6
CONTINUOUS
 62
    1
 10
55.687458726878482
 20
30.50551902172035
 11
55.602020358844278
 21
30.423181239622721
  0
LINE
  8
_0-2______1
  6
CONTINUOUS
 62
    1
 10
55.770141018524477
 20
30.423181239622721
 11
55.687458726878482
 21
30.50551902172035
  0
LINE
  8
_0-2______1
  6
CONTINUOUS
 62
    1
 10
55.687458726878482
 20
30.337053852491611
 11
55.770141018524477
 21
30.423181239622721
  0
LINE
  8
_0-2______1
  6
CONTINUOUS
 62
    1
 10
55.602020358844278
 20
30.67639575778875
 11
55.687458726878482
 21
30.59095738975461
  0
LINE
  8
_0-2______1
  6
CONTINUOUS
 62
    1
 10
55.687458726878482
 20
30.759078049434809
 11
55.602020358844278
 21
30.67639575778875
  0
LINE
  8
_0-2______1
  6
CONTINUOUS
 62
    1
 10
55.770141018524477
 20
30.67639575778875
 11
55.687458726878482
 21
30.759078049434809
  0
LINE
  8
_0-2______1
  6
CONTINUOUS
 62
    1
 10
55.687458726878482
 20
30.59095738975461
 11
55.770141018524477
 21
30.67639575778875
  0
LINE
  8
_0-2______1
  6
CONTINUOUS
 62
    1
 10
55.602020358844278
 20
30.929610275954559
 11
55.687458726878482
 21
30.929610275954559
  0
LINE
  8
_0-2______1
  6
CONTINUOUS
 62
    1
 10
55.770141018524477
 20
31.01504864398882
 11
55.602020358844278
 21
30.929610275954559
  0
LINE
  8
_0-2______1
  6
CONTINUOUS
 62
    1
 10
55.687458726878482
 20
30.929610275954559
 11
55.770141018524477
 21
31.01504864398882
  0
LINE
  8
_0-2______1
  6
CONTINUOUS
 62
    1
 10
55.602020358844278
 20
31.268952181251819
 11
55.687458726878482
 21
31.183858322765989
  0
LINE
  8
_0-2______1
  6
CONTINUOUS
 62
    1
 10
55.687458726878482
 20
31.35163447289753
 11
55.602020358844278
 21
31.268952181251819
  0
LINE
  8
_0-2______1
  6
CONTINUOUS
 62
    1
 10
55.770141018524477
 20
31.268952181251819
 11
55.687458726878482
 21
31.35163447289753
  0
LINE
  8
_0-2______1
  6
CONTINUOUS
 62
    1
 10
55.687458726878482
 20
31.183858322765989
 11
55.770141018524477
 21
31.268952181251819
  0
LINE
  8
_0-2______1
  6
CONTINUOUS
 62
    1
 10
55.602020358844278
 20
31.522511208965941
 11
55.687458726878482
 21
31.437072840932021
  0
LINE
  8
_0-2______1
  6
CONTINUOUS
 62
    1
 10
55.687458726878482
 20
31.607605067451772
 11
55.602020358844278
 21
31.522511208965941
  0
LINE
  8
_0-2______1
  6
CONTINUOUS
 62
    1
 10
55.770141018524477
 20
31.522511208965941
 11
55.687458726878482
 21
31.607605067451772
  0
LINE
  8
_0-2______1
  6
CONTINUOUS
 62
    1
 10
55.687458726878482
 20
31.437072840932021
 11
55.770141018524477
 21
31.522511208965941
  0
LINE
  8
_0-2______1
  6
CONTINUOUS
 62
    1
 10
55.687458726878482
 20
31.776414746228941
 11
55.687458726878482
 21
31.69028735909782
  0
LINE
  8
_0-2______1
  6
CONTINUOUS
 62
    1
 10
55.602020358844278
 20
31.861853114263202
 11
55.687458726878482
 21
31.776414746228941
  0
LINE
  8
_0-2______1
  6
CONTINUOUS
 62
    1
 10
55.687458726878482
 20
31.944190896360819
 11
55.602020358844278
 21
31.861853114263202
  0
LINE
  8
_0-2______1
  6
CONTINUOUS
 62
    1
 10
55.770141018524477
 20
31.776414746228941
 11
55.687458726878482
 21
31.944190896360819
  0
LINE
  8
_0-2______1
  6
CONTINUOUS
 62
    1
 10
55.687458726878482
 20
31.69028735909782
 11
55.770141018524477
 21
31.776414746228941
  0
LINE
  8
_0-2______1
  6
CONTINUOUS
 62
    1
 10
55.602020358844278
 20
32.115067632429117
 11
55.687458726878482
 21
32.029629264394742
  0
LINE
  8
_0-2______1
  6
CONTINUOUS
 62
    1
 10
55.687458726878482
 20
32.20050600046315
 11
55.602020358844278
 21
32.115067632429117
  0
LINE
  8
_0-2______1
  6
CONTINUOUS
 62
    1
 10
55.770141018524477
 20
32.115067632429117
 11
55.687458726878482
 21
32.20050600046315
  0
LINE
  8
_0-2______1
  6
CONTINUOUS
 62
    1
 10
55.687458726878482
 20
32.029629264394742
 11
55.770141018524477
 21
32.115067632429117
  0
LINE
  8
_0-2______1
  6
CONTINUOUS
 62
    1
 10
55.602020358844278
 20
32.368282150594922
 11
55.687458726878482
 21
32.282843782560782
  0
LINE
  8
_0-2______1
  6
CONTINUOUS
 62
    1
 10
55.687458726878482
 20
32.453720518628963
 11
55.602020358844278
 21
32.368282150594922
  0
LINE
  8
_0-2______1
  6
CONTINUOUS
 62
    1
 10
55.770141018524477
 20
32.368282150594922
 11
55.687458726878482
 21
32.453720518628963
  0
LINE
  8
_0-2______1
  6
CONTINUOUS
 62
    1
 10
55.687458726878482
 20
32.282843782560782
 11
55.770141018524477
 21
32.368282150594922
  0
LINE
  8
_0-2______1
  6
CONTINUOUS
 62
    1
 10
55.602020358844278
 20
32.622185687857808
 11
55.687458726878482
 21
32.539847905760411
  0
LINE
  8
_0-2______1
  6
CONTINUOUS
 62
    1
 10
55.687458726878482
 20
32.707624055891962
 11
55.602020358844278
 21
32.622185687857808
  0
LINE
  8
_0-2______1
  6
CONTINUOUS
 62
    1
 10
55.770141018524477
 20
32.622185687857808
 11
55.687458726878482
 21
32.707624055891962
  0
LINE
  8
_0-2______1
  6
CONTINUOUS
 62
    1
 10
55.687458726878482
 20
32.539847905760411
 11
55.770141018524477
 21
32.622185687857808
  0
LINE
  8
_0-2______1
  6
CONTINUOUS
 62
    1
 10
55.687458726878482
 20
32.875744715572147
 11
55.687458726878482
 21
32.793062423926223
  0
LINE
  8
_0-2______1
  6
CONTINUOUS
 62
    1
 10
55.602020358844278
 20
32.961183083606407
 11
55.687458726878482
 21
32.875744715572147
  0
LINE
  8
_0-2______1
  6
CONTINUOUS
 62
    1
 10
55.687458726878482
 20
33.046276942092128
 11
55.602020358844278
 21
32.961183083606407
  0
LINE
  8
_0-2______1
  6
CONTINUOUS
 62
    1
 10
55.770141018524477
 20
32.875744715572147
 11
55.687458726878482
 21
33.046276942092128
  0
LINE
  8
_0-2______1
  6
CONTINUOUS
 62
    1
 10
55.687458726878482
 20
32.793062423926223
 11
55.770141018524477
 21
32.875744715572147
  0
LINE
  8
_0-2______1
  6
CONTINUOUS
 62
    1
 10
55.602020358844278
 20
33.131715310126403
 11
55.687458726878482
 21
33.131715310126403
  0
LINE
  8
_0-2______1
  6
CONTINUOUS
 62
    1
 10
55.687458726878482
 20
33.300180479355021
 11
55.602020358844278
 21
33.131715310126403
  0
LINE
  8
_0-2______1
  6
CONTINUOUS
 62
    1
 10
55.770141018524477
 20
33.215086620869407
 11
55.687458726878482
 21
33.300180479355021
  0
LINE
  8
_0-2______1
  6
CONTINUOUS
 62
    1
 10
55.687458726878482
 20
33.131715310126403
 11
55.770141018524477
 21
33.215086620869407
  0
LINE
  8
_0-2______1
  6
CONTINUOUS
 62
    1
 10
55.602020358844278
 20
33.468301139035219
 11
55.687458726878482
 21
33.385618847389168
  0
LINE
  8
_0-2______1
  6
CONTINUOUS
 62
    1
 10
55.687458726878482
 20
33.553739507069373
 11
55.602020358844278
 21
33.468301139035219
  0
LINE
  8
_0-2______1
  6
CONTINUOUS
 62
    1
 10
55.770141018524477
 20
33.468301139035219
 11
55.687458726878482
 21
33.553739507069373
  0
LINE
  8
_0-2______1
  6
CONTINUOUS
 62
    1
 10
55.687458726878482
 20
33.385618847389168
 11
55.770141018524477
 21
33.468301139035219
  0
LINE
  8
_0-2______1
  6
CONTINUOUS
 62
    1
 10
55.602020358844278
 20
33.724616243137767
 11
55.687458726878482
 21
33.724616243137767
  0
LINE
  8
_0-2______1
  6
CONTINUOUS
 62
    1
 10
55.770141018524477
 20
33.806954025235399
 11
55.602020358844278
 21
33.724616243137767
  0
LINE
  8
_0-2______1
  6
CONTINUOUS
 62
    1
 10
55.687458726878482
 20
33.724616243137767
 11
55.770141018524477
 21
33.806954025235399
  0
LINE
  8
_0-2______1
  6
CONTINUOUS
 62
    1
 10
55.602020358844278
 20
34.060857562498171
 11
55.687458726878482
 21
33.978519780400553
  0
LINE
  8
_0-2______1
  6
CONTINUOUS
 62
    1
 10
55.687458726878482
 20
34.146295930532318
 11
55.602020358844278
 21
34.060857562498171
  0
LINE
  8
_0-2______1
  6
CONTINUOUS
 62
    1
 10
55.770141018524477
 20
34.060857562498171
 11
55.687458726878482
 21
34.146295930532318
  0
LINE
  8
_0-2______1
  6
CONTINUOUS
 62
    1
 10
55.687458726878482
 20
33.978519780400553
 11
55.770141018524477
 21
34.060857562498171
  0
LINE
  8
_0-2______1
  6
CONTINUOUS
 62
    1
 10
55.602020358844278
 20
34.317172666600733
 11
55.687458726878482
 21
34.231734298566579
  0
LINE
  8
_0-2______1
  6
CONTINUOUS
 62
    1
 10
55.687458726878482
 20
34.399510448698123
 11
55.602020358844278
 21
34.317172666600733
  0
LINE
  8
_0-2______1
  6
CONTINUOUS
 62
    1
 10
55.770141018524477
 20
34.317172666600733
 11
55.687458726878482
 21
34.399510448698123
  0
LINE
  8
_0-2______1
  6
CONTINUOUS
 62
    1
 10
55.687458726878482
 20
34.231734298566579
 11
55.770141018524477
 21
34.317172666600733
  0
LINE
  8
_0-2______1
  6
CONTINUOUS
 62
    1
 10
55.687458726878482
 20
34.570387184766531
 11
55.687458726878482
 21
34.484948816732377
  0
LINE
  8
_0-2______1
  6
CONTINUOUS
 62
    1
 10
55.602020358844278
 20
34.656514571897993
 11
55.687458726878482
 21
34.570387184766531
  0
LINE
  8
_0-2______1
  6
CONTINUOUS
 62
    1
 10
55.687458726878482
 20
34.738852353995377
 11
55.602020358844278
 21
34.656514571897993
  0
LINE
  8
_0-2______1
  6
CONTINUOUS
 62
    1
 10
55.770141018524477
 20
34.570387184766531
 11
55.687458726878482
 21
34.738852353995377
  0
LINE
  8
_0-2______1
  6
CONTINUOUS
 62
    1
 10
55.687458726878482
 20
34.484948816732377
 11
55.770141018524477
 21
34.570387184766531
  0
LINE
  8
_0-2______1
  6
CONTINUOUS
 62
    1
 10
55.602020358844278
 20
34.909729090063792
 11
55.687458726878482
 21
34.824290722029531
  0
LINE
  8
_0-2______1
  6
CONTINUOUS
 62
    1
 10
55.687458726878482
 20
34.992411381709729
 11
55.602020358844278
 21
34.909729090063792
  0
LINE
  8
_0-2______1
  6
CONTINUOUS
 62
    1
 10
55.770141018524477
 20
34.909729090063792
 11
55.687458726878482
 21
34.992411381709729
  0
LINE
  8
_0-2______1
  6
CONTINUOUS
 62
    1
 10
55.687458726878482
 20
34.824290722029531
 11
55.770141018524477
 21
34.909729090063792
  0
LINE
  8
_0-2______1
  6
CONTINUOUS
 62
    1
 10
55.602020358844278
 20
35.162943608229597
 11
55.687458726878482
 21
35.07784974974399
  0
LINE
  8
_0-2______1
  6
CONTINUOUS
 62
    1
 10
55.687458726878482
 20
35.248381976263737
 11
55.602020358844278
 21
35.162943608229597
  0
LINE
  8
_0-2______1
  6
CONTINUOUS
 62
    1
 10
55.770141018524477
 20
35.162943608229597
 11
55.687458726878482
 21
35.248381976263737
  0
LINE
  8
_0-2______1
  6
CONTINUOUS
 62
    1
 10
55.687458726878482
 20
35.07784974974399
 11
55.770141018524477
 21
35.162943608229597
  0
LINE
  8
_0-2______1
  6
CONTINUOUS
 62
    1
 10
55.602020358844278
 20
35.417191655041023
 11
55.687458726878482
 21
35.33175328700699
  0
LINE
  8
_0-2______1
  6
CONTINUOUS
 62
    1
 10
55.687458726878482
 20
35.502285513526743
 11
55.602020358844278
 21
35.417191655041023
  0
LINE
  8
_0-2______1
  6
CONTINUOUS
 62
    1
 10
55.770141018524477
 20
35.417191655041023
 11
55.687458726878482
 21
35.502285513526743
  0
LINE
  8
_0-2______1
  6
CONTINUOUS
 62
    1
 10
55.687458726878482
 20
35.33175328700699
 11
55.770141018524477
 21
35.417191655041023
  0
LINE
  8
_0-2______1
  6
CONTINUOUS
 62
    1
 10
55.687458726878482
 20
35.670406173206942
 11
55.687458726878482
 21
35.584967805172788
  0
LINE
  8
_0-2______1
  6
CONTINUOUS
 62
    1
 10
55.602020358844278
 20
35.755844541241203
 11
55.687458726878482
 21
35.670406173206942
  0
LINE
  8
_0-2______1
  6
CONTINUOUS
 62
    1
 10
55.687458726878482
 20
35.841282909275122
 11
55.602020358844278
 21
35.755844541241203
  0
LINE
  8
_0-2______1
  6
CONTINUOUS
 62
    1
 10
55.770141018524477
 20
35.670406173206942
 11
55.687458726878482
 21
35.841282909275122
  0
LINE
  8
_0-2______1
  6
CONTINUOUS
 62
    1
 10
55.687458726878482
 20
35.584967805172788
 11
55.770141018524477
 21
35.670406173206942
  0
LINE
  8
_0-2______1
  6
CONTINUOUS
 62
    1
 10
55.687458726878482
 20
35.923620691372747
 11
55.687458726878482
 21
35.841282909275122
  0
LINE
  8
_0-2______1
  6
CONTINUOUS
 62
    1
 10
55.602020358844278
 20
36.009748078503968
 11
55.687458726878482
 21
35.923620691372747
  0
LINE
  8
_0-2______1
  6
CONTINUOUS
 62
    1
 10
55.687458726878482
 20
36.095186446538122
 11
55.602020358844278
 21
36.009748078503968
  0
LINE
  8
_0-2______1
  6
CONTINUOUS
 62
    1
 10
55.770141018524477
 20
36.009748078503968
 11
55.687458726878482
 21
36.095186446538122
  0
LINE
  8
_0-2______1
  6
CONTINUOUS
 62
    1
 10
55.687458726878482
 20
35.841282909275122
 11
55.770141018524477
 21
36.009748078503968
  0
LINE
  8
_0-2______1
  6
CONTINUOUS
 62
    1
 10
55.602020358844278
 20
36.262962596670008
 11
55.687458726878482
 21
36.177524228635519
  0
LINE
  8
_0-2______1
  6
CONTINUOUS
 62
    1
 10
55.687458726878482
 20
36.348400964703927
 11
55.602020358844278
 21
36.262962596670008
  0
LINE
  8
_0-2______1
  6
CONTINUOUS
 62
    1
 10
55.770141018524477
 20
36.262962596670008
 11
55.687458726878482
 21
36.348400964703927
  0
LINE
  8
_0-2______1
  6
CONTINUOUS
 62
    1
 10
55.687458726878482
 20
36.177524228635519
 11
55.770141018524477
 21
36.262962596670008
  0
LINE
  8
_0-2______1
  6
CONTINUOUS
 62
    1
 10
55.602020358844278
 20
36.516177114835813
 11
55.687458726878482
 21
36.433839332738422
  0
LINE
  8
_0-2______1
  6
CONTINUOUS
 62
    1
 10
55.687458726878482
 20
36.60161548286996
 11
55.602020358844278
 21
36.516177114835813
  0
LINE
  8
_0-2______1
  6
CONTINUOUS
 62
    1
 10
55.770141018524477
 20
36.516177114835813
 11
55.687458726878482
 21
36.60161548286996
  0
LINE
  8
_0-2______1
  6
CONTINUOUS
 62
    1
 10
55.687458726878482
 20
36.433839332738422
 11
55.770141018524477
 21
36.516177114835813
  0
LINE
  8
_0-2______1
  6
CONTINUOUS
 62
    1
 10
55.602020358844278
 20
36.773181238035328
 11
55.687458726878482
 21
36.773181238035328
  0
LINE
  8
_0-2______1
  6
CONTINUOUS
 62
    1
 10
55.687458726878482
 20
36.855519020132732
 11
55.602020358844278
 21
36.773181238035328
  0
LINE
  8
_0-2______1
  6
CONTINUOUS
 62
    1
 10
55.770141018524477
 20
36.855519020132732
 11
55.687458726878482
 21
36.855519020132732
  0
LINE
  8
_0-2______1
  6
CONTINUOUS
 62
    1
 10
55.687458726878482
 20
36.773181238035328
 11
55.770141018524477
 21
36.855519020132732
  0
LINE
  8
_0-2______1
  6
CONTINUOUS
 62
    1
 10
55.602020358844278
 20
37.109078047847191
 11
55.687458726878482
 21
37.02639575620114
  0
LINE
  8
_0-2______1
  6
CONTINUOUS
 62
    1
 10
55.687458726878482
 20
37.194516415881338
 11
55.602020358844278
 21
37.109078047847191
  0
LINE
  8
_0-2______1
  6
CONTINUOUS
 62
    1
 10
55.770141018524477
 20
37.109078047847191
 11
55.687458726878482
 21
37.194516415881338
  0
LINE
  8
_0-2______1
  6
CONTINUOUS
 62
    1
 10
55.687458726878482
 20
37.02639575620114
 11
55.770141018524477
 21
37.109078047847191
  0
LINE
  8
_0-2______1
  6
CONTINUOUS
 62
    1
 10
55.687458726878482
 20
37.36504864240132
 11
55.687458726878482
 21
37.279610274366952
  0
LINE
  8
_0-2______1
  6
CONTINUOUS
 62
    1
 10
55.602020358844278
 20
37.448419953144338
 11
55.687458726878482
 21
37.36504864240132
  0
LINE
  8
_0-2______1
  6
CONTINUOUS
 62
    1
 10
55.687458726878482
 20
37.533858321178599
 11
55.602020358844278
 21
37.448419953144338
  0
LINE
  8
_0-2______1
  6
CONTINUOUS
 62
    1
 10
55.770141018524477
 20
37.448419953144338
 11
55.687458726878482
 21
37.533858321178599
  0
LINE
  8
_0-2______1
  6
CONTINUOUS
 62
    1
 10
55.687458726878482
 20
37.279610274366952
 11
55.770141018524477
 21
37.448419953144338
  0
LINE
  8
_0-2______1
  6
CONTINUOUS
 62
    1
 10
55.687458726878482
 20
37.618952179664213
 11
55.687458726878482
 21
37.533858321178599
  0
LINE
  8
_0-2______1
  6
CONTINUOUS
 62
    1
 10
55.602020358844278
 20
37.701634471310143
 11
55.687458726878482
 21
37.618952179664213
  0
LINE
  8
_0-2______1
  6
CONTINUOUS
 62
    1
 10
55.687458726878482
 20
37.787072839344397
 11
55.602020358844278
 21
37.701634471310143
  0
LINE
  8
_0-2______1
  6
CONTINUOUS
 62
    1
 10
55.770141018524477
 20
37.618952179664213
 11
55.687458726878482
 21
37.787072839344397
  0
LINE
  8
_0-2______1
  6
CONTINUOUS
 62
    1
 10
55.687458726878482
 20
37.533858321178599
 11
55.770141018524477
 21
37.618952179664213
  0
LINE
  8
_0-2______1
  6
CONTINUOUS
 62
    1
 10
55.602020358844278
 20
37.957605065864158
 11
55.687458726878482
 21
37.872511207378551
  0
LINE
  8
_0-2______1
  6
CONTINUOUS
 62
    1
 10
55.687458726878482
 20
38.040287357510209
 11
55.602020358844278
 21
37.957605065864158
  0
LINE
  8
_0-2______1
  6
CONTINUOUS
 62
    1
 10
55.770141018524477
 20
37.957605065864158
 11
55.687458726878482
 21
38.040287357510209
  0
LINE
  8
_0-2______1
  6
CONTINUOUS
 62
    1
 10
55.687458726878482
 20
37.872511207378551
 11
55.770141018524477
 21
37.957605065864158
  0
LINE
  8
_0-2______1
  6
CONTINUOUS
 62
    1
 10
55.602020358844278
 20
38.211853112675811
 11
55.687458726878482
 21
38.126414744641551
  0
LINE
  8
_0-2______1
  6
CONTINUOUS
 62
    1
 10
55.687458726878482
 20
38.294190894773209
 11
55.602020358844278
 21
38.211853112675811
  0
LINE
  8
_0-2______1
  6
CONTINUOUS
 62
    1
 10
55.770141018524477
 20
38.211853112675811
 11
55.687458726878482
 21
38.294190894773209
  0
LINE
  8
_0-2______1
  6
CONTINUOUS
 62
    1
 10
55.687458726878482
 20
38.126414744641551
 11
55.770141018524477
 21
38.211853112675811
  0
LINE
  8
_0-2______1
  6
CONTINUOUS
 62
    1
 10
55.602020358844278
 20
38.465067630841617
 11
55.687458726878482
 21
38.379629262807363
  0
LINE
  8
_0-2______1
  6
CONTINUOUS
 62
    1
 10
55.687458726878482
 20
38.550505998875757
 11
55.602020358844278
 21
38.465067630841617
  0
LINE
  8
_0-2______1
  6
CONTINUOUS
 62
    1
 10
55.770141018524477
 20
38.465067630841617
 11
55.687458726878482
 21
38.550505998875757
  0
LINE
  8
_0-2______1
  6
CONTINUOUS
 62
    1
 10
55.687458726878482
 20
38.379629262807363
 11
55.770141018524477
 21
38.465067630841617
  0
LINE
  8
_0-2______1
  6
CONTINUOUS
 62
    1
 10
55.687458726878482
 20
38.718282149007422
 11
55.687458726878482
 21
38.632843780973388
  0
LINE
  8
_0-2______1
  6
CONTINUOUS
 62
    1
 10
55.602020358844278
 20
38.803720517041569
 11
55.687458726878482
 21
38.718282149007422
  0
LINE
  8
_0-2______1
  6
CONTINUOUS
 62
    1
 10
55.687458726878482
 20
38.889847904173017
 11
55.602020358844278
 21
38.803720517041569
  0
LINE
  8
_0-2______1
  6
CONTINUOUS
 62
    1
 10
55.770141018524477
 20
38.718282149007422
 11
55.687458726878482
 21
38.889847904173017
  0
LINE
  8
_0-2______1
  6
CONTINUOUS
 62
    1
 10
55.687458726878482
 20
38.632843780973388
 11
55.770141018524477
 21
38.718282149007422
  0
LINE
  8
_0-2______1
  6
CONTINUOUS
 62
    1
 10
55.602020358844278
 20
39.057624054304569
 11
55.687458726878482
 21
38.972185686270421
  0
LINE
  8
_0-2______1
  6
CONTINUOUS
 62
    1
 10
55.687458726878482
 20
39.143062422338723
 11
55.602020358844278
 21
39.057624054304569
  0
LINE
  8
_0-2______1
  6
CONTINUOUS
 62
    1
 10
55.770141018524477
 20
39.057624054304569
 11
55.687458726878482
 21
39.143062422338723
  0
LINE
  8
_0-2______1
  6
CONTINUOUS
 62
    1
 10
55.687458726878482
 20
38.972185686270421
 11
55.770141018524477
 21
39.057624054304569
  0
LINE
  8
_0-2______1
  6
CONTINUOUS
 62
    1
 10
55.602020358844278
 20
39.311183082019028
 11
55.687458726878482
 21
39.225744713984767
  0
LINE
  8
_0-2______1
  6
CONTINUOUS
 62
    1
 10
55.687458726878482
 20
39.396276940504521
 11
55.602020358844278
 21
39.311183082019028
  0
LINE
  8
_0-2______1
  6
CONTINUOUS
 62
    1
 10
55.770141018524477
 20
39.311183082019028
 11
55.687458726878482
 21
39.396276940504521
  0
LINE
  8
_0-2______1
  6
CONTINUOUS
 62
    1
 10
55.687458726878482
 20
39.225744713984767
 11
55.770141018524477
 21
39.311183082019028
  0
LINE
  8
_0-2______1
  6
CONTINUOUS
 62
    1
 10
55.602020358844278
 20
39.5650866192818
 11
55.687458726878482
 21
39.5650866192818
  0
LINE
  8
_0-2______1
  6
CONTINUOUS
 62
    1
 10
55.770141018524477
 20
39.650524987315947
 11
55.602020358844278
 21
39.5650866192818
  0
LINE
  8
_0-2______1
  6
CONTINUOUS
 62
    1
 10
55.687458726878482
 20
39.5650866192818
 11
55.770141018524477
 21
39.650524987315947
  0
LINE
  8
_0-2______1
  6
CONTINUOUS
 62
    1
 10
55.602020358844278
 20
39.903739505481752
 11
55.687458726878482
 21
39.818301137447719
  0
LINE
  8
_0-2______1
  6
CONTINUOUS
 62
    1
 10
55.687458726878482
 20
39.989177873516127
 11
55.602020358844278
 21
39.903739505481752
  0
LINE
  8
_0-2______1
  6
CONTINUOUS
 62
    1
 10
55.770141018524477
 20
39.903739505481752
 11
55.687458726878482
 21
39.989177873516127
  0
LINE
  8
_0-2______1
  6
CONTINUOUS
 62
    1
 10
55.687458726878482
 20
39.818301137447719
 11
55.770141018524477
 21
39.903739505481752
  0
LINE
  8
_0-2______1
  6
CONTINUOUS
 62
    1
 10
55.687458726878482
 20
40.243081410779013
 11
55.687458726878482
 21
40.074616241550387
  0
LINE
  8
_0-2______1
  6
CONTINUOUS
 62
    1
 10
55.770141018524477
 20
40.156954023647778
 11
55.687458726878482
 21
40.243081410779013
  0
LINE
  8
_0-2______1
  6
CONTINUOUS
 62
    1
 10
55.687458726878482
 20
40.074616241550387
 11
55.770141018524477
 21
40.156954023647778
  0
LINE
  8
_0-2______1
  6
CONTINUOUS
 62
    1
 10
55.687458726878482
 20
40.410857560910557
 11
55.687458726878482
 21
40.32851977881316
  0
LINE
  8
_0-2______1
  6
CONTINUOUS
 62
    1
 10
55.602020358844278
 20
40.496295928944818
 11
55.687458726878482
 21
40.410857560910557
  0
LINE
  8
_0-2______1
  6
CONTINUOUS
 62
    1
 10
55.687458726878482
 20
40.581734296979192
 11
55.602020358844278
 21
40.496295928944818
  0
LINE
  8
_0-2______1
  6
CONTINUOUS
 62
    1
 10
55.770141018524477
 20
40.410857560910557
 11
55.687458726878482
 21
40.581734296979192
  0
LINE
  8
_0-2______1
  6
CONTINUOUS
 62
    1
 10
55.687458726878482
 20
40.32851977881316
 11
55.770141018524477
 21
40.410857560910557
  0
LINE
  8
_0-2______1
  6
CONTINUOUS
 62
    1
 10
55.602020358844278
 20
40.667172665013233
 11
55.687458726878482
 21
40.667172665013233
  0
LINE
  8
_0-2______1
  6
CONTINUOUS
 62
    1
 10
55.687458726878482
 20
40.834948815144998
 11
55.602020358844278
 21
40.667172665013233
  0
LINE
  8
_0-2______1
  6
CONTINUOUS
 62
    1
 10
55.770141018524477
 20
40.749510447110737
 11
55.687458726878482
 21
40.834948815144998
  0
LINE
  8
_0-2______1
  6
CONTINUOUS
 62
    1
 10
55.687458726878482
 20
40.667172665013233
 11
55.770141018524477
 21
40.749510447110737
  0
LINE
  8
_0-2______1
  6
CONTINUOUS
 62
    1
 10
55.602020358844278
 20
41.006514570310372
 11
55.687458726878482
 21
40.920387183179137
  0
LINE
  8
_0-2______1
  6
CONTINUOUS
 62
    1
 10
55.687458726878482
 20
41.088852352407997
 11
55.602020358844278
 21
41.006514570310372
  0
LINE
  8
_0-2______1
  6
CONTINUOUS
 62
    1
 10
55.770141018524477
 20
41.006514570310372
 11
55.687458726878482
 21
41.088852352407997
  0
LINE
  8
_0-2______1
  6
CONTINUOUS
 62
    1
 10
55.687458726878482
 20
40.920387183179137
 11
55.770141018524477
 21
41.006514570310372
  0
LINE
  8
_0-2______1
  6
CONTINUOUS
 62
    1
 10
55.602020358844278
 20
41.174290720441917
 11
55.687458726878482
 21
41.174290720441917
  0
LINE
  8
_0-2______1
  6
CONTINUOUS
 62
    1
 10
55.687458726878482
 20
41.342411380122122
 11
55.602020358844278
 21
41.174290720441917
  0
LINE
  8
_0-2______1
  6
CONTINUOUS
 62
    1
 10
55.770141018524477
 20
41.259729088476178
 11
55.687458726878482
 21
41.342411380122122
  0
LINE
  8
_0-2______1
  6
CONTINUOUS
 62
    1
 10
55.687458726878482
 20
41.174290720441917
 11
55.770141018524477
 21
41.259729088476178
  0
LINE
  8
_0-2______1
  6
CONTINUOUS
 62
    1
 10
55.687458726878482
 20
41.51294360664221
 11
55.687458726878482
 21
41.427849748156383
  0
LINE
  8
_0-2______1
  6
CONTINUOUS
 62
    1
 10
55.602020358844278
 20
41.59838197467613
 11
55.687458726878482
 21
41.51294360664221
  0
LINE
  8
_0-2______1
  6
CONTINUOUS
 62
    1
 10
55.687458726878482
 20
41.681753285419383
 11
55.602020358844278
 21
41.59838197467613
  0
LINE
  8
_0-2______1
  6
CONTINUOUS
 62
    1
 10
55.770141018524477
 20
41.51294360664221
 11
55.687458726878482
 21
41.681753285419383
  0
LINE
  8
_0-2______1
  6
CONTINUOUS
 62
    1
 10
55.687458726878482
 20
41.427849748156383
 11
55.770141018524477
 21
41.51294360664221
  0
LINE
  8
_0-2______1
  6
CONTINUOUS
 62
    1
 10
55.602020358844278
 20
41.767191653453523
 11
55.687458726878482
 21
41.767191653453523
  0
LINE
  8
_0-2______1
  6
CONTINUOUS
 62
    1
 10
55.687458726878482
 20
41.934967803585181
 11
55.602020358844278
 21
41.767191653453523
  0
LINE
  8
_0-2______1
  6
CONTINUOUS
 62
    1
 10
55.770141018524477
 20
41.852285511939129
 11
55.687458726878482
 21
41.934967803585181
  0
LINE
  8
_0-2______1
  6
CONTINUOUS
 62
    1
 10
55.687458726878482
 20
41.767191653453523
 11
55.770141018524477
 21
41.852285511939129
  0
LINE
  8
_0-2______1
  6
CONTINUOUS
 62
    1
 10
55.602020358844278
 20
42.105844539653589
 11
55.687458726878482
 21
42.020406171619328
  0
LINE
  8
_0-2______1
  6
CONTINUOUS
 62
    1
 10
55.687458726878482
 20
42.190938398139423
 11
55.602020358844278
 21
42.105844539653589
  0
LINE
  8
_0-2______1
  6
CONTINUOUS
 62
    1
 10
55.770141018524477
 20
42.105844539653589
 11
55.687458726878482
 21
42.190938398139423
  0
LINE
  8
_0-2______1
  6
CONTINUOUS
 62
    1
 10
55.687458726878482
 20
42.020406171619328
 11
55.770141018524477
 21
42.105844539653589
  0
LINE
  8
_0-2______1
  6
CONTINUOUS
 62
    1
 10
55.602020358844278
 20
42.359748076916588
 11
55.687458726878482
 21
42.273620689785133
  0
LINE
  8
_0-2______1
  6
CONTINUOUS
 62
    1
 10
55.687458726878482
 20
42.445186444950743
 11
55.602020358844278
 21
42.359748076916588
  0
LINE
  8
_0-2______1
  6
CONTINUOUS
 62
    1
 10
55.770141018524477
 20
42.359748076916588
 11
55.687458726878482
 21
42.445186444950743
  0
LINE
  8
_0-2______1
  6
CONTINUOUS
 62
    1
 10
55.687458726878482
 20
42.273620689785133
 11
55.770141018524477
 21
42.359748076916588
  0
LINE
  8
_0-2______1
  6
CONTINUOUS
 62
    1
 10
58.818361503873497
 20
42.273620689785133
 11
58.903799871907701
 21
42.273620689785133
  0
LINE
  8
_0-2______1
  6
CONTINUOUS
 62
    1
 10
58.903799871907701
 20
50.911853109500811
 11
58.818361503873497
 21
50.911853109500811
  0
LINE
  8
_0-2______1
  6
CONTINUOUS
 62
    1
 10
56.026456122627089
 20
41.852285511939129
 11
56.109138414273076
 21
41.934967803585181
  0
LINE
  8
_0-2______1
  6
CONTINUOUS
 62
    1
 10
55.941017754592892
 20
41.767191653453523
 11
56.026456122627089
 21
41.852285511939129
  0
LINE
  8
_0-2______1
  6
CONTINUOUS
 62
    1
 10
55.516581990810081
 20
41.934967803585181
 11
55.602020358844278
 21
41.852285511939129
  0
LINE
  8
_0-2______1
  6
CONTINUOUS
 62
    1
 10
55.43114362277587
 20
42.020406171619328
 11
55.516581990810081
 21
41.934967803585181
  0
LINE
  8
_0-2______1
  6
CONTINUOUS
 62
    1
 10
55.348461331129876
 20
42.105844539653589
 11
55.43114362277587
 21
42.020406171619328
  0
LINE
  8
_0-2______1
  6
CONTINUOUS
 62
    1
 10
55.263022963095672
 20
42.273620689785133
 11
55.348461331129876
 21
42.105844539653589
  0
LINE
  8
_0-2______1
  6
CONTINUOUS
 62
    1
 10
55.177584595061532
 20
42.527524227048133
 11
55.263022963095672
 21
42.273620689785133
  0
LINE
  8
_0-2______1
  6
CONTINUOUS
 62
    1
 10
55.770141018524477
 20
41.767191653453523
 11
55.941017754592892
 21
41.767191653453523
  0
LINE
  8
_0-2______1
  6
CONTINUOUS
 62
    1
 10
55.770141018524477
 20
42.273620689785133
 11
55.687458726878482
 21
42.273620689785133
  0
LINE
  8
_0-2______1
  6
CONTINUOUS
 62
    1
 10
55.941017754592892
 20
42.191282907687743
 11
55.770141018524477
 21
42.273620689785133
  0
LINE
  8
_0-2______1
  6
CONTINUOUS
 62
    1
 10
55.602020358844278
 20
42.445186444950743
 11
55.516581990810081
 21
42.527524227048133
  0
LINE
  8
_0-2______1
  6
CONTINUOUS
 62
    1
 10
55.687458726878482
 20
42.527524227048133
 11
55.602020358844278
 21
42.612962595082386
  0
LINE
  8
_0-2______1
  6
CONTINUOUS
 62
    1
 10
55.770141018524477
 20
42.445186444950743
 11
55.687458726878482
 21
42.527524227048133
  0
LINE
  8
_0-2______1
  6
CONTINUOUS
 62
    1
 10
55.855579386558681
 20
42.359748076916588
 11
55.770141018524477
 21
42.445186444950743
  0
LINE
  8
_0-2______1
  6
CONTINUOUS
 62
    1
 10
55.941017754592892
 20
42.020406171619328
 11
55.855579386558681
 21
42.359748076916588
  0
LINE
  8
_0-2______1
  6
CONTINUOUS
 62
    1
 10
56.109138414273076
 20
42.527524227048133
 11
56.026456122627089
 21
42.612962595082386
  0
LINE
  8
_0-2______1
  6
CONTINUOUS
 62
    1
 10
56.194576782307287
 20
42.445186444950743
 11
56.109138414273076
 21
42.527524227048133
  0
LINE
  8
_0-2______1
  6
CONTINUOUS
 62
    1
 10
56.109138414273076
 20
41.934967803585181
 11
56.194576782307287
 21
42.445186444950743
  0
LINE
  8
_0-2______1
  6
CONTINUOUS
 62
    1
 10
55.770141018524477
 20
42.020406171619328
 11
55.941017754592892
 21
42.020406171619328
  0
LINE
  8
_0-2______1
  6
CONTINUOUS
 62
    1
 10
55.941017754592892
 20
41.852285511939129
 11
55.770141018524477
 21
41.852285511939129
  0
LINE
  8
_0-2______1
  6
CONTINUOUS
 62
    1
 10
55.687458726878482
 20
41.934967803585181
 11
55.43114362277587
 21
42.020406171619328
  0
LINE
  8
_0-2______1
  6
CONTINUOUS
 62
    1
 10
56.026456122627089
 20
41.934967803585181
 11
55.941017754592892
 21
41.852285511939129
  0
LINE
  8
_0-2______1
  6
CONTINUOUS
 62
    1
 10
56.109138414273076
 20
42.020406171619328
 11
56.026456122627089
 21
41.934967803585181
  0
LINE
  8
_0-2______1
  6
CONTINUOUS
 62
    1
 10
56.026456122627089
 20
42.273620689785133
 11
56.109138414273076
 21
42.020406171619328
  0
LINE
  8
_0-2______1
  6
CONTINUOUS
 62
    1
 10
55.941017754592892
 20
42.445186444950743
 11
56.026456122627089
 21
42.273620689785133
  0
LINE
  8
_0-2______1
  6
CONTINUOUS
 62
    1
 10
55.855579386558681
 20
42.527524227048133
 11
55.941017754592892
 21
42.445186444950743
  0
LINE
  8
_0-2______1
  6
CONTINUOUS
 62
    1
 10
55.770141018524477
 20
42.612962595082386
 11
55.855579386558681
 21
42.527524227048133
  0
LINE
  8
_0-2______1
  6
CONTINUOUS
 62
    1
 10
56.194576782307287
 20
42.273620689785133
 11
56.109138414273076
 21
41.934967803585181
  0
LINE
  8
_0-2______1
  6
CONTINUOUS
 62
    1
 10
56.109138414273076
 20
42.445186444950743
 11
56.194576782307287
 21
42.273620689785133
  0
LINE
  8
_0-2______1
  6
CONTINUOUS
 62
    1
 10
56.026456122627089
 20
42.527524227048133
 11
56.109138414273076
 21
42.445186444950743
  0
LINE
  8
_0-2______1
  6
CONTINUOUS
 62
    1
 10
55.941017754592892
 20
42.698400963116541
 11
56.026456122627089
 21
42.527524227048133
  0
LINE
  8
_0-2______1
  6
CONTINUOUS
 62
    1
 10
55.43114362277587
 20
42.273620689785133
 11
55.348461331129876
 21
42.527524227048133
  0
LINE
  8
_0-2______1
  6
CONTINUOUS
 62
    1
 10
55.516581990810081
 20
42.190938398139423
 11
55.43114362277587
 21
42.273620689785133
  0
LINE
  8
_0-2______1
  6
CONTINUOUS
 62
    1
 10
55.770141018524477
 20
42.020406171619328
 11
55.516581990810081
 21
42.190938398139423
  0
LINE
  8
_0-2______1
  6
CONTINUOUS
 62
    1
 10
55.941017754592892
 20
14.41830114379772
 11
55.43114362277587
 21
14.41830114379772
  0
LINE
  8
_0-2______1
  6
CONTINUOUS
 62
    1
 10
55.770141018524477
 20
16.28175329176938
 11
55.516581990810081
 21
16.198381981026131
  0
LINE
  8
_0-2______1
  6
CONTINUOUS
 62
    1
 10
55.348461331129876
 20
14.41830114379772
 11
55.43114362277587
 21
14.335618852151548
  0
LINE
  8
_0-2______1
  6
CONTINUOUS
 62
    1
 10
55.855579386558681
 20
14.335618852151548
 11
55.43114362277587
 21
14.335618852151548
  0
LINE
  8
_0-2______1
  6
CONTINUOUS
 62
    1
 10
56.026456122627089
 20
14.41830114379772
 11
55.855579386558681
 21
14.335618852151548
  0
LINE
  8
_0-2______1
  6
CONTINUOUS
 62
    1
 10
55.855579386558681
 20
16.198381981026131
 11
55.770141018524477
 21
16.28175329176938
  0
LINE
  8
_0-2______1
  6
CONTINUOUS
 62
    1
 10
55.516581990810081
 20
15.94241138647212
 11
55.348461331129876
 21
15.94241138647212
  0
LINE
  8
_0-2______1
  6
CONTINUOUS
 62
    1
 10
55.770141018524477
 20
16.027849754506381
 11
55.516581990810081
 21
15.94241138647212
  0
LINE
  8
_0-2______1
  6
CONTINUOUS
 62
    1
 10
55.941017754592892
 20
15.94241138647212
 11
55.770141018524477
 21
16.027849754506381
  0
LINE
  8
_0-2______1
  6
CONTINUOUS
 62
    1
 10
55.941017754592892
 20
14.41830114379772
 11
55.348461331129876
 21
14.41830114379772
  0
LINE
  8
_0-2______1
  6
CONTINUOUS
 62
    1
 10
55.516581990810081
 20
14.335618852151548
 11
55.941017754592892
 21
14.41830114379772
  0
LINE
  8
_0-2______1
  6
CONTINUOUS
 62
    1
 10
55.43114362277587
 20
14.41830114379772
 11
55.516581990810081
 21
14.335618852151548
  0
LINE
  8
_0-2______1
  6
CONTINUOUS
 62
    1
 10
56.026456122627089
 20
15.94241138647212
 11
55.941017754592892
 21
15.94241138647212
  0
LINE
  8
_0-2______1
  6
CONTINUOUS
 62
    1
 10
55.941017754592892
 20
14.41830114379772
 11
56.026456122627089
 21
14.41830114379772
  0
LINE
  8
_0-2______1
  6
CONTINUOUS
 62
    1
 10
10.05234589106508
 20
34.824290722029531
 11
10.05234589106508
 21
34.909729090063792
  0
LINE
  8
_0-2______1
  6
CONTINUOUS
 62
    1
 10
10.135028182711082
 20
34.738852353995377
 11
10.05234589106508
 21
34.824290722029531
  0
LINE
  8
_0-2______1
  6
CONTINUOUS
 62
    1
 10
10.05234589106508
 20
43.376395754613753
 11
10.135028182711082
 21
43.459078046259798
  0
LINE
  8
_0-2______1
  6
CONTINUOUS
 62
    1
 10
10.135028182711082
 20
34.824290722029531
 11
10.05234589106508
 21
34.909729090063792
  0
LINE
  8
_0-2______1
  6
CONTINUOUS
 62
    1
 10
12.67613061263129
 20
34.484948816732377
 11
12.67613061263129
 21
34.570387184766531
  0
LINE
  8
_0-2______1
  6
CONTINUOUS
 62
    1
 10
9.7960307869625325
 20
34.824290722029531
 11
9.7960307869625325
 21
34.909729090063792
  0
LINE
  8
_0-2______1
  6
CONTINUOUS
 62
    1
 10
13.015128008379897
 20
34.231734298566579
 11
12.929689640345686
 21
34.231734298566579
  0
LINE
  8
_0-2______1
  6
CONTINUOUS
 62
    1
 10
9.8814691549966653
 20
34.824290722029531
 11
9.8814691549966653
 21
34.738852353995377
  0
LINE
  8
_0-2______1
  6
CONTINUOUS
 62
    1
 10
9.7960307869625325
 20
34.909729090063792
 11
9.8814691549966653
 21
34.824290722029531
  0
LINE
  8
_0-2______1
  6
CONTINUOUS
 62
    1
 10
55.687458726878482
 20
51.332843777798388
 11
55.770141018524477
 21
51.418282145832421
  0
LINE
  8
_0-2______1
  6
CONTINUOUS
 62
    1
 10
55.770141018524477
 20
42.698400963116541
 11
55.687458726878482
 21
42.783839331150801
  0
LINE
  8
_0-2______1
  6
CONTINUOUS
 62
    1
 10
56.026456122627089
 20
51.418282145832421
 11
55.941017754592892
 21
51.332843777798388
  0
LINE
  8
_0-2______1
  6
CONTINUOUS
 62
    1
 10
56.026456122627089
 20
42.866177113248199
 11
56.109138414273076
 21
42.783839331150801
  0
LINE
  8
_0-2______1
  6
CONTINUOUS
 62
    1
 10
56.109138414273076
 20
51.332843777798388
 11
56.026456122627089
 21
51.332843777798388
  0
LINE
  8
_0-2______1
  6
CONTINUOUS
 62
    1
 10
56.026456122627089
 20
42.783839331150801
 11
56.026456122627089
 21
42.698400963116541
  0
LINE
  8
_0-2______1
  6
CONTINUOUS
 62
    1
 10
55.941017754592892
 20
42.866177113248199
 11
56.026456122627089
 21
42.783839331150801
  0
LINE
  8
_0-2______1
  6
CONTINUOUS
 62
    1
 10
56.026456122627089
 20
42.866177113248199
 11
55.941017754592892
 21
42.866177113248199
  0
LINE
  8
_0-2______1
  6
CONTINUOUS
 62
    1
 10
56.109138414273076
 20
42.783839331150801
 11
56.026456122627089
 21
42.698400963116541
  0
LINE
  8
_0-2______1
  6
CONTINUOUS
 62
    1
 10
56.109138414273076
 20
51.332843777798388
 11
56.026456122627089
 21
51.418282145832421
  0
LINE
  8
_0-2______1
  6
CONTINUOUS
 62
    1
 10
56.026456122627089
 20
51.332843777798388
 11
55.941017754592892
 21
51.332843777798388
  0
LINE
  8
_0-2______1
  6
CONTINUOUS
 62
    1
 10
12.761568980665501
 20
34.399510448698123
 11
12.67613061263129
 21
34.484948816732377
  0
LINE
  8
_0-2______1
  6
CONTINUOUS
 62
    1
 10
12.929689640345686
 20
34.317172666600733
 11
12.761568980665501
 21
34.399510448698123
  0
LINE
  8
_0-2______1
  6
CONTINUOUS
 62
    1
 10
10.135028182711082
 20
34.909729090063792
 11
10.220466550745279
 21
34.738852353995377
  0
LINE
  8
_0-2______1
  6
CONTINUOUS
 62
    1
 10
58.564802476159102
 20
42.191282907687743
 11
58.650240844193299
 21
42.191282907687743
  0
LINE
  8
_0-2______1
  6
CONTINUOUS
 62
    1
 10
10.135028182711082
 20
43.459078046259798
 11
10.135028182711082
 21
43.376395754613753
  0
LINE
  8
_0-2______1
  6
CONTINUOUS
 62
    1
 10
58.396681816478896
 20
42.191282907687743
 11
58.479364108124891
 21
42.191282907687743
  0
INSERT
  2
-000-SPECEL-LV5002WWM
  8
_0-0_0
 10
58.903799871907701
 20
10.181162355082336
 41
1
 42
1
 50
0
  0
ENDSEC
  0
EOF
