  0
SECTION
  2
HEADER
  9
$ACADVER
  1
AC1009
  9
$DWGCODEPAGE
  3
dos932
  9
$INSBASE
 10
0.0
 20
0.0
 30
0.0
  9
$EXTMIN
 10
25.47404573228626
 20
14.51870479007638
 30
0.0
  9
$EXTMAX
 10
166.1763424343533
 20
104.3812952099236
 30
0.0
  9
$LIMMIN
 10
0.0
 20
0.0
  9
$LIMMAX
 10
12.0
 20
9.0
  9
$ORTHOMODE
 70
     0
  9
$REGENMODE
 70
     1
  9
$FILLMODE
 70
     1
  9
$QTEXTMODE
 70
     0
  9
$MIRRTEXT
 70
     1
  9
$DRAGMODE
 70
     2
  9
$LTSCALE
 40
0.9999999999999999
  9
$OSMODE
 70
    37
  9
$ATTMODE
 70
     1
  9
$TEXTSIZE
 40
0.2
  9
$TRACEWID
 40
1.0
  9
$TEXTSTYLE
  7
STANDARD
  9
$CLAYER
  8
EL-LYB4242C-39N4
  9
$CELTYPE
  6
BYLAYER
  9
$CECOLOR
 62
   256
  9
$DIMSCALE
 40
1.0
  9
$DIMASZ
 40
0.18
  9
$DIMEXO
 40
0.0625
  9
$DIMDLI
 40
0.38
  9
$DIMRND
 40
0.0
  9
$DIMDLE
 40
0.0
  9
$DIMEXE
 40
0.18
  9
$DIMTP
 40
0.0
  9
$DIMTM
 40
0.0
  9
$DIMTXT
 40
0.18
  9
$DIMCEN
 40
0.09
  9
$DIMTSZ
 40
0.0
  9
$DIMTOL
 70
     0
  9
$DIMLIM
 70
     0
  9
$DIMTIH
 70
     1
  9
$DIMTOH
 70
     1
  9
$DIMSE1
 70
     0
  9
$DIMSE2
 70
     0
  9
$DIMTAD
 70
     0
  9
$DIMZIN
 70
     0
  9
$DIMBLK
  1

  9
$DIMASO
 70
     1
  9
$DIMSHO
 70
     1
  9
$DIMPOST
  1

  9
$DIMAPOST
  1

  9
$DIMALT
 70
     0
  9
$DIMALTD
 70
     2
  9
$DIMALTF
 40
25.4
  9
$DIMLFAC
 40
1.0
  9
$DIMTOFL
 70
     0
  9
$DIMTVP
 40
0.0
  9
$DIMTIX
 70
     0
  9
$DIMSOXD
 70
     0
  9
$DIMSAH
 70
     0
  9
$DIMBLK1
  1

  9
$DIMBLK2
  1

  9
$DIMSTYLE
  2
STANDARD
  9
$DIMCLRD
 70
     0
  9
$DIMCLRE
 70
     0
  9
$DIMCLRT
 70
     0
  9
$DIMTFAC
 40
1.0
  9
$DIMGAP
 40
0.09
  9
$LUNITS
 70
     2
  9
$LUPREC
 70
     2
  9
$SKETCHINC
 40
0.1
  9
$FILLETRAD
 40
0.5
  9
$AUNITS
 70
     0
  9
$AUPREC
 70
     2
  9
$MENU
  1
.
  9
$ELEVATION
 40
0.0
  9
$PELEVATION
 40
0.0
  9
$THICKNESS
 40
0.0
  9
$LIMCHECK
 70
     0
  9
$CHAMFERA
 40
0.0
  9
$CHAMFERB
 40
0.0
  9
$SKPOLY
 70
     0
  9
$TDCREATE
 40
2458675.429616863
  9
$TDUPDATE
 40
2458675.429622234
  9
$TDINDWG
 40
0.0000000116
  9
$TDUSRTIMER
 40
0.0000000116
  9
$USRTIMER
 70
     1
  9
$ANGBASE
 50
0.0
  9
$ANGDIR
 70
     0
  9
$PDMODE
 70
     1
  9
$PDSIZE
 40
-2.0
  9
$PLINEWID
 40
0.0
  9
$COORDS
 70
     1
  9
$SPLFRAME
 70
     0
  9
$SPLINETYPE
 70
     6
  9
$SPLINESEGS
 70
     8
  9
$ATTDIA
 70
     0
  9
$ATTREQ
 70
     1
  9
$HANDLING
 70
     1
  9
$HANDSEED
  5
27B
  9
$SURFTAB1
 70
     6
  9
$SURFTAB2
 70
     6
  9
$SURFTYPE
 70
     6
  9
$SURFU
 70
     6
  9
$SURFV
 70
     6
  9
$UCSNAME
  2

  9
$UCSORG
 10
0.0
 20
0.0
 30
0.0
  9
$UCSXDIR
 10
1.0
 20
0.0
 30
0.0
  9
$UCSYDIR
 10
0.0
 20
1.0
 30
0.0
  9
$PUCSNAME
  2

  9
$PUCSORG
 10
0.0
 20
0.0
 30
0.0
  9
$PUCSXDIR
 10
1.0
 20
0.0
 30
0.0
  9
$PUCSYDIR
 10
0.0
 20
1.0
 30
0.0
  9
$USERI1
 70
     0
  9
$USERI2
 70
     0
  9
$USERI3
 70
     0
  9
$USERI4
 70
     0
  9
$USERI5
 70
     0
  9
$USERR1
 40
0.0
  9
$USERR2
 40
0.0
  9
$USERR3
 40
0.0
  9
$USERR4
 40
0.0
  9
$USERR5
 40
0.0
  9
$WORLDVIEW
 70
     1
  9
$SHADEDGE
 70
     3
  9
$SHADEDIF
 70
    70
  9
$TILEMODE
 70
     1
  9
$MAXACTVP
 70
    64
  9
$PLIMCHECK
 70
     0
  9
$PEXTMIN
 10
1.000000000000000E+20
 20
1.000000000000000E+20
 30
1.000000000000000E+20
  9
$PEXTMAX
 10
-1.000000000000000E+20
 20
-1.000000000000000E+20
 30
-1.000000000000000E+20
  9
$PLIMMIN
 10
-20.0
 20
-7.5
  9
$PLIMMAX
 10
277.0
 20
202.5
  9
$UNITMODE
 70
     0
  9
$VISRETAIN
 70
     1
  9
$PLINEGEN
 70
     0
  9
$PSLTSCALE
 70
     1
  0
ENDSEC
  0
SECTION
  2
TABLES
  0
TABLE
  2
VPORT
 70
     1
  0
VPORT
  2
*ACTIVE
 70
     0
 10
0.0
 20
0.0
 11
1.0
 21
1.0
 12
95.82519408331977
 22
59.45
 13
0.0
 23
0.0
 14
0.5
 24
0.5
 15
0.5
 25
0.5
 16
0.0
 26
0.0
 36
1.0
 17
0.0
 27
0.0
 37
0.0
 40
89.86259041984724
 41
1.565749396324894
 42
2000.0
 43
0.0
 44
0.0
 50
0.0
 51
0.0
 71
     0
 72
   100
 73
     1
 74
     3
 75
     0
 76
     0
 77
     0
 78
     0
  0
ENDTAB
  0
TABLE
  2
LTYPE
 70
     1
  0
LTYPE
  2
CONTINUOUS
 70
     0
  3
Solid line
 72
    65
 73
     0
 40
0.0
  0
ENDTAB
  0
TABLE
  2
LAYER
 70
     3
  0
LAYER
  2
0
 70
     0
 62
     7
  6
CONTINUOUS
  0
LAYER
  2
EL-LYB4242C-39N4
 70
     0
 62
     7
  6
CONTINUOUS
  0
ENDTAB
  0
TABLE
  2
STYLE
 70
     2
  0
STYLE
  2
STANDARD
 70
     0
 40
0.0
 41
1.0
 50
0.0
 71
     0
 42
0.2
  3
txt
  4
BIGFONT.SHX
  0
STYLE
  2
_______
 70
     0
 40
0.0
 41
1.0
 50
0.0
 71
     0
 42
0.2
  3

  4
ＭＳ ゴシック
  0
ENDTAB
  0
TABLE
  2
VIEW
 70
     0
  0
ENDTAB
  0
TABLE
  2
UCS
 70
     0
  0
ENDTAB
  0
TABLE
  2
APPID
 70
     2
  0
APPID
  2
ACAD
 70
     0
  0
APPID
  2
ACAECLAYERSTANDARD
 70
     0
  0
ENDTAB
  0
TABLE
  2
DIMSTYLE
 70
     1
  0
DIMSTYLE
  2
STANDARD
 70
     0
  3

  4

  5

  6

  7

 40
1.0
 41
0.18
 42
0.0625
 43
0.38
 44
0.18
 45
0.0
 46
0.0
 47
0.0
 48
0.0
140
0.18
141
0.09
142
0.0
143
25.4
144
1.0
145
0.0
146
1.0
147
0.09
 71
     0
 72
     0
 73
     1
 74
     1
 75
     0
 76
     0
 77
     0
 78
     0
170
     0
171
     2
172
     0
173
     0
174
     0
175
     0
176
     0
177
     0
178
     0
  0
ENDTAB
  0
ENDSEC
  0
SECTION
  2
BLOCKS
  0
BLOCK
  8
0
  2
$MODEL_SPACE
 70
     0
 10
0.0
 20
0.0
 30
0.0
  3
$MODEL_SPACE
  1

  0
ENDBLK
  5
21
  8
0
  0
BLOCK
 67
     1
  8
0
  2
$PAPER_SPACE
 70
     0
 10
0.0
 20
0.0
 30
0.0
  3
$PAPER_SPACE
  1

  0
ENDBLK
  5
1D
 67
     1
  8
0
  0
ENDSEC
  0
SECTION
  2
ENTITIES
  0
LINE
  5
74
  8
EL-LYB4242C-39N4
  6
CONTINUOUS
 62
     7
 10
65.10837436918136
 20
64.40936048177011
 30
0.0
 11
65.10837436918136
 21
64.36801933594711
 31
0.0
  0
LINE
  5
75
  8
EL-LYB4242C-39N4
  6
CONTINUOUS
 62
     7
 10
63.45748461264956
 20
63.90241468111552
 30
0.0
 11
63.37342428280946
 21
63.90241468111552
 31
0.0
  0
LINE
  5
76
  8
EL-LYB4242C-39N4
  6
CONTINUOUS
 62
     7
 10
64.00869989028966
 20
64.0290219401985
 30
0.0
 11
64.09276022012976
 21
64.1129100152643
 31
0.0
  0
LINE
  5
77
  8
EL-LYB4242C-39N4
  6
CONTINUOUS
 62
     7
 10
63.45748461264956
 20
63.85969549709851
 30
0.0
 11
63.37342428280946
 21
63.90241468111552
 31
0.0
  0
LINE
  5
78
  8
EL-LYB4242C-39N4
  6
CONTINUOUS
 62
     7
 10
64.00869989028966
 20
64.0290219401985
 30
0.0
 11
64.09276022012976
 21
64.1556291992814
 31
0.0
  0
LINE
  5
79
  8
EL-LYB4242C-39N4
  6
CONTINUOUS
 62
     7
 10
64.30497810202108
 20
63.5206981013499
 30
0.0
 11
63.41614346682668
 21
63.90241468111552
 31
0.0
  0
LINE
  5
7A
  8
EL-LYB4242C-39N4
  6
CONTINUOUS
 62
     7
 10
63.41614346682668
 20
63.90241468111552
 30
0.0
 11
63.37342428280946
 21
63.90241468111552
 31
0.0
  0
LINE
  5
7B
  8
EL-LYB4242C-39N4
  6
CONTINUOUS
 62
     7
 10
65.10837436918136
 20
64.1556291992814
 30
0.0
 11
65.10837436918136
 21
64.36801933594711
 31
0.0
  0
LINE
  5
7C
  8
EL-LYB4242C-39N4
  6
CONTINUOUS
 62
     7
 10
64.81209615744977
 20
63.6473053604328
 30
0.0
 11
65.10837436918136
 21
64.1556291992814
 31
0.0
  0
LINE
  5
7D
  8
EL-LYB4242C-39N4
  6
CONTINUOUS
 62
     7
 10
64.55853712973548
 20
63.5206981013499
 30
0.0
 11
64.81209615744977
 21
63.6473053604328
 31
0.0
  0
LINE
  5
7E
  8
EL-LYB4242C-39N4
  6
CONTINUOUS
 62
     7
 10
64.30497810202108
 20
63.5206981013499
 30
0.0
 11
64.55853712973548
 21
63.5206981013499
 31
0.0
  0
LINE
  5
7F
  8
EL-LYB4242C-39N4
  6
CONTINUOUS
 62
     7
 10
63.75376282438117
 20
63.85969549709851
 30
0.0
 11
64.00869989028966
 21
64.0290219401985
 31
0.0
  0
LINE
  5
80
  8
EL-LYB4242C-39N4
  6
CONTINUOUS
 62
     7
 10
63.45748461264956
 20
63.90241468111552
 30
0.0
 11
63.75376282438117
 21
63.85969549709851
 31
0.0
  0
LINE
  5
81
  8
EL-LYB4242C-39N4
  6
CONTINUOUS
 62
     7
 10
63.45748461264956
 20
63.85969549709851
 30
0.0
 11
63.75376282438117
 21
63.85969549709851
 31
0.0
  0
LINE
  5
82
  8
EL-LYB4242C-39N4
  6
CONTINUOUS
 62
     7
 10
101.3039255754102
 20
48.53436048573882
 30
0.0
 11
64.55853712973548
 21
63.5206981013499
 31
0.0
  0
LINE
  5
83
  8
EL-LYB4242C-39N4
  6
CONTINUOUS
 62
     7
 10
101.0503665476958
 20
48.66234578301581
 30
0.0
 11
101.1344268775359
 21
48.5770796697559
 31
0.0
  0
LINE
  5
84
  8
EL-LYB4242C-39N4
  6
CONTINUOUS
 62
     7
 10
101.8964819988732
 20
49.55135267298461
 30
0.0
 11
101.8537628148562
 21
49.67795993206751
 31
0.0
  0
LINE
  5
85
  8
EL-LYB4242C-39N4
  6
CONTINUOUS
 62
     7
 10
101.8964819988732
 20
49.5926938188076
 30
0.0
 11
101.8964819988732
 21
49.63541300282471
 31
0.0
  0
LINE
  5
86
  8
EL-LYB4242C-39N4
  6
CONTINUOUS
 62
     7
 10
102.7012563042276
 20
48.74675062240451
 30
0.0
 11
102.7425974500506
 21
48.78929755164731
 31
0.0
  0
LINE
  5
87
  8
EL-LYB4242C-39N4
  6
CONTINUOUS
 62
     7
 10
102.7012563042276
 20
48.83063869747031
 30
0.0
 11
102.7425974500506
 21
48.78929755164731
 31
0.0
  0
LINE
  5
88
  8
EL-LYB4242C-39N4
  6
CONTINUOUS
 62
     7
 10
102.7012563042276
 20
48.78929755164731
 30
0.0
 11
102.7012563042276
 21
48.83063869747031
 31
0.0
  0
LINE
  5
89
  8
EL-LYB4242C-39N4
  6
CONTINUOUS
 62
     7
 10
102.7012563042276
 20
48.78929755164731
 30
0.0
 11
102.7425974500506
 21
48.78929755164731
 31
0.0
  0
LINE
  5
8A
  8
EL-LYB4242C-39N4
  6
CONTINUOUS
 62
     7
 10
102.7425974500506
 20
49.21235527723601
 30
0.0
 11
102.7012563042276
 21
49.29624335230181
 31
0.0
  0
LINE
  5
8B
  8
EL-LYB4242C-39N4
  6
CONTINUOUS
 62
     7
 10
102.7012563042276
 20
49.29624335230181
 30
0.0
 11
102.6585371202105
 21
49.29624335230181
 31
0.0
  0
LINE
  5
8C
  8
EL-LYB4242C-39N4
  6
CONTINUOUS
 62
     7
 10
102.7012563042276
 20
49.25507446125312
 30
0.0
 11
102.6585371202105
 21
49.29624335230181
 31
0.0
  0
LINE
  5
8D
  8
EL-LYB4242C-39N4
  6
CONTINUOUS
 62
     7
 10
102.7012563042276
 20
49.25507446125312
 30
0.0
 11
102.7425974500506
 21
49.21235527723601
 31
0.0
  0
LINE
  5
8E
  8
EL-LYB4242C-39N4
  6
CONTINUOUS
 62
     7
 10
101.8964819988732
 20
48.19674112818431
 30
0.0
 11
101.1344268775359
 21
48.53436048573882
 31
0.0
  0
LINE
  5
8F
  8
EL-LYB4242C-39N4
  6
CONTINUOUS
 62
     7
 10
102.3622589084791
 20
48.28062920325021
 30
0.0
 11
102.7012563042276
 21
48.78929755164731
 31
0.0
  0
LINE
  5
90
  8
EL-LYB4242C-39N4
  6
CONTINUOUS
 62
     7
 10
102.1086998807647
 20
48.15402194416731
 30
0.0
 11
102.3622589084791
 21
48.28062920325021
 31
0.0
  0
LINE
  5
91
  8
EL-LYB4242C-39N4
  6
CONTINUOUS
 62
     7
 10
101.8964819988732
 20
48.19674112818431
 30
0.0
 11
102.1086998807647
 21
48.15402194416731
 31
0.0
  0
LINE
  5
92
  8
EL-LYB4242C-39N4
  6
CONTINUOUS
 62
     7
 10
102.7425974500506
 20
49.12691690920181
 30
0.0
 11
102.7425974500506
 21
49.21235527723601
 31
0.0
  0
LINE
  5
93
  8
EL-LYB4242C-39N4
  6
CONTINUOUS
 62
     7
 10
102.7425974500506
 20
49.12691690920181
 30
0.0
 11
102.7425974500506
 21
48.78929755164731
 31
0.0
  0
LINE
  5
94
  8
EL-LYB4242C-39N4
  6
CONTINUOUS
 62
     7
 10
101.9392011828904
 20
49.381681720336
 30
0.0
 11
101.8964819988732
 21
49.55135267298461
 31
0.0
  0
LINE
  5
95
  8
EL-LYB4242C-39N4
  6
CONTINUOUS
 62
     7
 10
101.8124216690331
 20
48.87335788148741
 30
0.0
 11
101.9392011828904
 21
49.381681720336
 31
0.0
  0
LINE
  5
96
  8
EL-LYB4242C-39N4
  6
CONTINUOUS
 62
     7
 10
101.4307050892673
 20
48.53436048573882
 30
0.0
 11
101.8124216690331
 21
48.87335788148741
 31
0.0
  0
LINE
  5
97
  8
EL-LYB4242C-39N4
  6
CONTINUOUS
 62
     7
 10
101.1344268775359
 20
48.5770796697559
 30
0.0
 11
101.4307050892673
 21
48.53436048573882
 31
0.0
  0
LINE
  5
98
  8
EL-LYB4242C-39N4
  6
CONTINUOUS
 62
     7
 10
101.7697024850161
 20
48.74675062240451
 30
0.0
 11
101.8964819988732
 21
49.04302883413601
 31
0.0
  0
LINE
  5
99
  8
EL-LYB4242C-39N4
  6
CONTINUOUS
 62
     7
 10
101.6002037871418
 20
48.5770796697559
 30
0.0
 11
101.7697024850161
 21
48.74675062240451
 31
0.0
  0
LINE
  5
9A
  8
EL-LYB4242C-39N4
  6
CONTINUOUS
 62
     7
 10
101.4307050892673
 20
48.4930193399158
 30
0.0
 11
101.6002037871418
 21
48.5770796697559
 31
0.0
  0
LINE
  5
9B
  8
EL-LYB4242C-39N4
  6
CONTINUOUS
 62
     7
 10
101.1344268775359
 20
48.53436048573882
 30
0.0
 11
101.4307050892673
 21
48.4930193399158
 31
0.0
  0
LINE
  5
9C
  8
EL-LYB4242C-39N4
  6
CONTINUOUS
 62
     7
 10
100.9649281796616
 20
48.66234578301581
 30
0.0
 11
101.1344268775359
 21
48.53436048573882
 31
0.0
  0
LINE
  5
9D
  8
EL-LYB4242C-39N4
  6
CONTINUOUS
 62
     7
 10
101.9805423287133
 20
49.5086334889675
 30
0.0
 11
101.8964819988732
 21
49.5926938188076
 31
0.0
  0
LINE
  5
9E
  8
EL-LYB4242C-39N4
  6
CONTINUOUS
 62
     7
 10
101.9805423287133
 20
49.12691690920181
 30
0.0
 11
101.9805423287133
 21
49.5086334889675
 31
0.0
  0
LINE
  5
9F
  8
EL-LYB4242C-39N4
  6
CONTINUOUS
 62
     7
 10
101.8964819988732
 20
49.04302883413601
 30
0.0
 11
101.9805423287133
 21
49.12691690920181
 31
0.0
  0
LINE
  5
A0
  8
EL-LYB4242C-39N4
  6
CONTINUOUS
 62
     7
 10
102.4049780924961
 20
48.28062920325021
 30
0.0
 11
102.7012563042276
 21
48.83063869747031
 31
0.0
  0
LINE
  5
A1
  8
EL-LYB4242C-39N4
  6
CONTINUOUS
 62
     7
 10
102.0659806967475
 20
48.15402194416731
 30
0.0
 11
102.4049780924961
 21
48.28062920325021
 31
0.0
  0
LINE
  5
A2
  8
EL-LYB4242C-39N4
  6
CONTINUOUS
 62
     7
 10
101.8964819988732
 20
48.19674112818431
 30
0.0
 11
102.0659806967475
 21
48.15402194416731
 31
0.0
  0
LINE
  5
A3
  8
EL-LYB4242C-39N4
  6
CONTINUOUS
 62
     7
 10
102.7425974500506
 20
48.78929755164731
 30
0.0
 11
102.7425974500506
 21
49.21235527723601
 31
0.0
  0
LINE
  5
A4
  8
EL-LYB4242C-39N4
  6
CONTINUOUS
 62
     7
 10
102.7425974500506
 20
48.83063869747031
 30
0.0
 11
102.7425974500506
 21
48.78929755164731
 31
0.0
  0
LINE
  5
A5
  8
EL-LYB4242C-39N4
  6
CONTINUOUS
 62
     7
 10
97.07059224313518
 20
47.30807874776421
 30
0.0
 11
60.32520379746055
 21
62.33541299964971
 31
0.0
  0
LINE
  5
A6
  8
EL-LYB4242C-39N4
  6
CONTINUOUS
 62
     7
 10
60.91776022092347
 20
63.14001505022971
 30
0.0
 11
60.87504103690626
 21
63.2242476348441
 31
0.0
  0
LINE
  5
A7
  8
EL-LYB4242C-39N4
  6
CONTINUOUS
 62
     7
 10
59.26687046439165
 20
62.67441039539821
 30
0.0
 11
59.18281013455155
 21
62.71695732464111
 31
0.0
  0
LINE
  5
A8
  8
EL-LYB4242C-39N4
  6
CONTINUOUS
 62
     7
 10
59.81670770383766
 20
62.80136216402971
 30
0.0
 11
59.90214607187188
 21
62.92796942311261
 31
0.0
  0
LINE
  5
A9
  8
EL-LYB4242C-39N4
  6
CONTINUOUS
 62
     7
 10
59.26687046439165
 20
62.63169121138122
 30
0.0
 11
59.18281013455155
 21
62.71695732464111
 31
0.0
  0
LINE
  5
AA
  8
EL-LYB4242C-39N4
  6
CONTINUOUS
 62
     7
 10
60.83369989108337
 20
62.75829847046412
 30
0.0
 11
60.91776022092347
 21
63.14001505022971
 31
0.0
  0
LINE
  5
AB
  8
EL-LYB4242C-39N4
  6
CONTINUOUS
 62
     7
 10
60.45198331131767
 20
62.33541299964971
 30
0.0
 11
60.83369989108337
 21
62.75829847046412
 31
0.0
  0
LINE
  5
AC
  8
EL-LYB4242C-39N4
  6
CONTINUOUS
 62
     7
 10
60.15570509958625
 20
62.29269381563262
 30
0.0
 11
60.45198331131767
 21
62.33541299964971
 31
0.0
  0
LINE
  5
AD
  8
EL-LYB4242C-39N4
  6
CONTINUOUS
 62
     7
 10
59.26687046439165
 20
62.63169121138122
 30
0.0
 11
60.15570509958625
 21
62.29269381563262
 31
0.0
  0
LINE
  5
AE
  8
EL-LYB4242C-39N4
  6
CONTINUOUS
 62
     7
 10
59.64720900596326
 20
62.67441039539821
 30
0.0
 11
59.81670770383766
 21
62.80136216402971
 31
0.0
  0
LINE
  5
AF
  8
EL-LYB4242C-39N4
  6
CONTINUOUS
 62
     7
 10
59.26687046439165
 20
62.67441039539821
 30
0.0
 11
59.64720900596326
 21
62.67441039539821
 31
0.0
  0
LINE
  5
B0
  8
EL-LYB4242C-39N4
  6
CONTINUOUS
 62
     7
 10
59.77536655801456
 20
62.75829847046412
 30
0.0
 11
59.90214607187188
 21
62.92796942311261
 31
0.0
  0
LINE
  5
B1
  8
EL-LYB4242C-39N4
  6
CONTINUOUS
 62
     7
 10
59.52042949210605
 20
62.63169121138122
 30
0.0
 11
59.77536655801456
 21
62.75829847046412
 31
0.0
  0
LINE
  5
B2
  8
EL-LYB4242C-39N4
  6
CONTINUOUS
 62
     7
 10
59.26687046439165
 20
62.63169121138122
 30
0.0
 11
59.52042949210605
 21
62.63169121138122
 31
0.0
  0
LINE
  5
B3
  8
EL-LYB4242C-39N4
  6
CONTINUOUS
 62
     7
 10
59.18281013455155
 20
62.71712957941541
 30
0.0
 11
59.26687046439165
 21
62.63169121138122
 31
0.0
  0
LINE
  5
B4
  8
EL-LYB4242C-39N4
  6
CONTINUOUS
 62
     7
 10
96.85837436124386
 20
47.43468600684712
 30
0.0
 11
96.94381272927797
 21
47.34924763881291
 31
0.0
  0
LINE
  5
B5
  8
EL-LYB4242C-39N4
  6
CONTINUOUS
 62
     7
 10
97.70586785061526
 20
48.36641208083292
 30
0.0
 11
97.62042948258106
 21
48.40758097188171
 31
0.0
  0
LINE
  5
B6
  8
EL-LYB4242C-39N4
  6
CONTINUOUS
 62
     7
 10
96.77431403140376
 20
47.47602715267011
 30
0.0
 11
96.77431403140376
 21
47.43468600684712
 31
0.0
  0
LINE
  5
B7
  8
EL-LYB4242C-39N4
  6
CONTINUOUS
 62
     7
 10
98.46792297195258
 20
47.56129326593
 30
0.0
 11
98.55198330179267
 21
47.56129326593
 31
0.0
  0
LINE
  5
B8
  8
EL-LYB4242C-39N4
  6
CONTINUOUS
 62
     7
 10
98.46792297195258
 20
47.60401244994711
 30
0.0
 11
98.50926411777566
 21
47.60401244994711
 31
0.0
  0
LINE
  5
B9
  8
EL-LYB4242C-39N4
  6
CONTINUOUS
 62
     7
 10
98.46792297195258
 20
47.60401244994711
 30
0.0
 11
98.55198330179267
 21
47.60401244994711
 31
0.0
  0
LINE
  5
BA
  8
EL-LYB4242C-39N4
  6
CONTINUOUS
 62
     7
 10
98.50926411777566
 20
47.60401244994711
 30
0.0
 11
98.55198330179267
 21
47.56129326593
 31
0.0
  0
LINE
  5
BB
  8
EL-LYB4242C-39N4
  6
CONTINUOUS
 62
     7
 10
98.55198330179267
 20
47.98469550106721
 30
0.0
 11
98.46792297195258
 21
48.06858357613311
 31
0.0
  0
LINE
  5
BC
  8
EL-LYB4242C-39N4
  6
CONTINUOUS
 62
     7
 10
98.46792297195258
 20
48.02741468508431
 30
0.0
 11
98.50926411777566
 21
48.02741468508431
 31
0.0
  0
LINE
  5
BD
  8
EL-LYB4242C-39N4
  6
CONTINUOUS
 62
     7
 10
98.50926411777566
 20
48.02741468508431
 30
0.0
 11
98.46792297195258
 21
48.06858357613311
 31
0.0
  0
LINE
  5
BE
  8
EL-LYB4242C-39N4
  6
CONTINUOUS
 62
     7
 10
98.50926411777566
 20
48.02741468508431
 30
0.0
 11
98.55198330179267
 21
47.98469550106721
 31
0.0
  0
LINE
  5
BF
  8
EL-LYB4242C-39N4
  6
CONTINUOUS
 62
     7
 10
97.70586785061526
 20
47.01025024306431
 30
0.0
 11
96.94381272927797
 21
47.30807874776421
 31
0.0
  0
LINE
  5
C0
  8
EL-LYB4242C-39N4
  6
CONTINUOUS
 62
     7
 10
98.25570509006127
 20
47.13840779511561
 30
0.0
 11
98.46792297195258
 21
47.60401244994711
 31
0.0
  0
LINE
  5
C1
  8
EL-LYB4242C-39N4
  6
CONTINUOUS
 62
     7
 10
97.91670769431266
 20
46.96908135201561
 30
0.0
 11
98.25570509006127
 21
47.13840779511561
 31
0.0
  0
LINE
  5
C2
  8
EL-LYB4242C-39N4
  6
CONTINUOUS
 62
     7
 10
97.70586785061526
 20
47.01025024306431
 30
0.0
 11
97.91670769431266
 21
46.96908135201561
 31
0.0
  0
LINE
  5
C3
  8
EL-LYB4242C-39N4
  6
CONTINUOUS
 62
     7
 10
98.55198330179267
 20
47.56129326593
 30
0.0
 11
98.55198330179267
 21
47.60401244994711
 31
0.0
  0
LINE
  5
C4
  8
EL-LYB4242C-39N4
  6
CONTINUOUS
 62
     7
 10
98.55198330179267
 20
47.90046291645291
 30
0.0
 11
98.55198330179267
 21
47.98469550106721
 31
0.0
  0
LINE
  5
C5
  8
EL-LYB4242C-39N4
  6
CONTINUOUS
 62
     7
 10
98.55198330179267
 20
47.90046291645291
 30
0.0
 11
98.55198330179267
 21
47.60401244994711
 31
0.0
  0
LINE
  5
C6
  8
EL-LYB4242C-39N4
  6
CONTINUOUS
 62
     7
 10
97.70586785061526
 20
47.90029066167861
 30
0.0
 11
97.70586785061526
 21
48.36641208083292
 31
0.0
  0
LINE
  5
C7
  8
EL-LYB4242C-39N4
  6
CONTINUOUS
 62
     7
 10
97.62042948258106
 20
47.68841728933572
 30
0.0
 11
97.70586785061526
 21
47.90029066167861
 31
0.0
  0
LINE
  5
C8
  8
EL-LYB4242C-39N4
  6
CONTINUOUS
 62
     7
 10
97.28281012502656
 20
47.34924763881291
 30
0.0
 11
97.62042948258106
 21
47.68841728933572
 31
0.0
  0
LINE
  5
C9
  8
EL-LYB4242C-39N4
  6
CONTINUOUS
 62
     7
 10
96.94381272927797
 20
47.34924763881291
 30
0.0
 11
97.28281012502656
 21
47.34924763881291
 31
0.0
  0
LINE
  5
CA
  8
EL-LYB4242C-39N4
  6
CONTINUOUS
 62
     7
 10
97.57908833675806
 20
47.51874633668722
 30
0.0
 11
97.70586785061526
 21
47.85774373243581
 31
0.0
  0
LINE
  5
CB
  8
EL-LYB4242C-39N4
  6
CONTINUOUS
 62
     7
 10
97.32415127084958
 20
47.30807874776421
 30
0.0
 11
97.57908833675806
 21
47.51874633668722
 31
0.0
  0
LINE
  5
CC
  8
EL-LYB4242C-39N4
  6
CONTINUOUS
 62
     7
 10
96.94381272927797
 20
47.30807874776421
 30
0.0
 11
97.32415127084958
 21
47.30807874776421
 31
0.0
  0
LINE
  5
CD
  8
EL-LYB4242C-39N4
  6
CONTINUOUS
 62
     7
 10
96.77431403140376
 20
47.43468600684712
 30
0.0
 11
96.94381272927797
 21
47.30807874776421
 31
0.0
  0
LINE
  5
CE
  8
EL-LYB4242C-39N4
  6
CONTINUOUS
 62
     7
 10
97.70586785061526
 20
47.85774373243581
 30
0.0
 11
97.70586785061526
 21
48.40758097188171
 31
0.0
  0
LINE
  5
CF
  8
EL-LYB4242C-39N4
  6
CONTINUOUS
 62
     7
 10
98.42520378793556
 20
47.34924763881291
 30
0.0
 11
98.46792297195258
 21
47.60401244994711
 31
0.0
  0
LINE
  5
D0
  8
EL-LYB4242C-39N4
  6
CONTINUOUS
 62
     7
 10
98.08620639218698
 20
47.01025024306431
 30
0.0
 11
98.42520378793556
 21
47.34924763881291
 31
0.0
  0
LINE
  5
D1
  8
EL-LYB4242C-39N4
  6
CONTINUOUS
 62
     7
 10
97.70586785061526
 20
47.01025024306431
 30
0.0
 11
98.08620639218698
 21
47.01025024306431
 31
0.0
  0
LINE
  5
D2
  8
EL-LYB4242C-39N4
  6
CONTINUOUS
 62
     7
 10
98.55198330179267
 20
47.60401244994711
 30
0.0
 11
98.55198330179267
 21
47.98469550106721
 31
0.0
  0
LINE
  5
D3
  8
EL-LYB4242C-39N4
  6
CONTINUOUS
 62
     7
 10
100.4578101242329
 20
47.26501505419851
 30
0.0
 11
61.21403843265487
 21
63.26696681886121
 31
0.0
  0
LINE
  5
D4
  8
EL-LYB4242C-39N4
  6
CONTINUOUS
 62
     7
 10
100.4991512700559
 20
47.30807874776421
 30
0.0
 11
101.5161434573017
 21
48.36641208083292
 31
0.0
  0
LINE
  5
D5
  8
EL-LYB4242C-39N4
  6
CONTINUOUS
 62
     7
 10
61.29947680068907
 20
63.30968600287832
 30
0.0
 11
61.25675761667205
 21
63.26696681886121
 31
0.0
  0
LINE
  5
D6
  8
EL-LYB4242C-39N4
  6
CONTINUOUS
 62
     7
 10
61.25675761667205
 20
63.30968600287832
 30
0.0
 11
61.21403843265487
 21
63.30968600287832
 31
0.0
  0
LINE
  5
D7
  8
EL-LYB4242C-39N4
  6
CONTINUOUS
 62
     7
 10
61.17131924863785
 20
63.30968600287832
 30
0.0
 11
61.21403843265487
 21
63.26696681886121
 31
0.0
  0
LINE
  5
D8
  8
EL-LYB4242C-39N4
  6
CONTINUOUS
 62
     7
 10
61.25675761667205
 20
63.30968600287832
 30
0.0
 11
61.29947680068907
 21
63.30968600287832
 31
0.0
  0
LINE
  5
D9
  8
EL-LYB4242C-39N4
  6
CONTINUOUS
 62
     7
 10
100.4578101242329
 20
47.26501505419851
 30
0.0
 11
100.4991512700559
 21
47.30807874776421
 31
0.0
  0
LINE
  5
DA
  8
EL-LYB4242C-39N4
  6
CONTINUOUS
 62
     7
 10
61.21403843265487
 20
63.26696681886121
 30
0.0
 11
61.25675761667205
 21
63.26696681886121
 31
0.0
  0
LINE
  5
DB
  8
EL-LYB4242C-39N4
  6
CONTINUOUS
 62
     7
 10
59.39364997824885
 20
62.75829847046412
 30
0.0
 11
59.35093079423175
 21
62.75829847046412
 31
0.0
  0
LINE
  5
DC
  8
EL-LYB4242C-39N4
  6
CONTINUOUS
 62
     7
 10
59.30958964840875
 20
62.75829847046412
 30
0.0
 11
59.30958964840875
 21
62.71712957941541
 31
0.0
  0
LINE
  5
DD
  8
EL-LYB4242C-39N4
  6
CONTINUOUS
 62
     7
 10
59.56314867612316
 20
62.80136216402971
 30
0.0
 11
59.77536655801456
 21
62.8852502390956
 31
0.0
  0
LINE
  5
DE
  8
EL-LYB4242C-39N4
  6
CONTINUOUS
 62
     7
 10
58.50481534305445
 20
63.43629326196131
 30
0.0
 11
58.54753452707147
 21
63.47901244597841
 31
0.0
  0
LINE
  5
DF
  8
EL-LYB4242C-39N4
  6
CONTINUOUS
 62
     7
 10
58.50481534305445
 20
63.43629326196131
 30
0.0
 11
58.50481534305445
 21
63.39374633271841
 31
0.0
  0
LINE
  5
E0
  8
EL-LYB4242C-39N4
  6
CONTINUOUS
 62
     7
 10
58.58887567289455
 20
63.43629326196131
 30
0.0
 11
58.63159485691157
 21
63.43629326196131
 31
0.0
  0
LINE
  5
E1
  8
EL-LYB4242C-39N4
  6
CONTINUOUS
 62
     7
 10
58.54753452707147
 20
63.43629326196131
 30
0.0
 11
58.54753452707147
 21
63.47901244597841
 31
0.0
  0
LINE
  5
E2
  8
EL-LYB4242C-39N4
  6
CONTINUOUS
 62
     7
 10
58.54753452707147
 20
63.43629326196131
 30
0.0
 11
58.58887567289455
 21
63.43629326196131
 31
0.0
  0
LINE
  5
E3
  8
EL-LYB4242C-39N4
  6
CONTINUOUS
 62
     7
 10
59.64720900596326
 20
63.77546291248412
 30
0.0
 11
59.73264737399757
 21
63.73274372846702
 31
0.0
  0
LINE
  5
E4
  8
EL-LYB4242C-39N4
  6
CONTINUOUS
 62
     7
 10
59.60586786014026
 20
63.73274372846702
 30
0.0
 11
59.56314867612316
 21
63.73274372846702
 31
0.0
  0
LINE
  5
E5
  8
EL-LYB4242C-39N4
  6
CONTINUOUS
 62
     7
 10
59.52042949210605
 20
63.69002454444991
 30
0.0
 11
59.52042949210605
 21
63.6473053604328
 31
0.0
  0
LINE
  5
E6
  8
EL-LYB4242C-39N4
  6
CONTINUOUS
 62
     7
 10
58.46209615903727
 20
63.39374633271841
 30
0.0
 11
58.50481534305445
 21
63.43629326196131
 31
0.0
  0
LINE
  5
E7
  8
EL-LYB4242C-39N4
  6
CONTINUOUS
 62
     7
 10
59.35093079423175
 20
62.71712957941541
 30
0.0
 11
59.39364997824885
 21
62.75829847046412
 31
0.0
  0
LINE
  5
E8
  8
EL-LYB4242C-39N4
  6
CONTINUOUS
 62
     7
 10
59.30958964840875
 20
62.75829847046412
 30
0.0
 11
59.35093079423175
 21
62.71712957941541
 31
0.0
  0
LINE
  5
E9
  8
EL-LYB4242C-39N4
  6
CONTINUOUS
 62
     7
 10
59.30958964840875
 20
62.75829847046412
 30
0.0
 11
59.26687046439165
 21
62.75829847046412
 31
0.0
  0
LINE
  5
EA
  8
EL-LYB4242C-39N4
  6
CONTINUOUS
 62
     7
 10
59.60586786014026
 20
62.80136216402971
 30
0.0
 11
59.77536655801456
 21
62.8852502390956
 31
0.0
  0
LINE
  5
EB
  8
EL-LYB4242C-39N4
  6
CONTINUOUS
 62
     7
 10
59.60586786014026
 20
62.80136216402971
 30
0.0
 11
59.52042949210605
 21
62.80136216402971
 31
0.0
  0
LINE
  5
EC
  8
EL-LYB4242C-39N4
  6
CONTINUOUS
 62
     7
 10
59.56314867612316
 20
63.73274372846702
 30
0.0
 11
59.52042949210605
 21
63.73274372846702
 31
0.0
  0
LINE
  5
ED
  8
EL-LYB4242C-39N4
  6
CONTINUOUS
 62
     7
 10
59.60586786014026
 20
62.80136216402971
 30
0.0
 11
59.64720900596326
 21
62.80136216402971
 31
0.0
  0
LINE
  5
EE
  8
EL-LYB4242C-39N4
  6
CONTINUOUS
 62
     7
 10
58.46209615903727
 20
63.39374633271841
 30
0.0
 11
58.42075501321435
 21
63.35102714870131
 31
0.0
  0
LINE
  5
EF
  8
EL-LYB4242C-39N4
  6
CONTINUOUS
 62
     7
 10
58.50481534305445
 20
63.35102714870131
 30
0.0
 11
58.46209615903727
 21
63.39374633271841
 31
0.0
  0
LINE
  5
F0
  8
EL-LYB4242C-39N4
  6
CONTINUOUS
 62
     7
 10
59.68992818998036
 20
63.73274372846702
 30
0.0
 11
59.60586786014026
 21
63.73274372846702
 31
0.0
  0
LINE
  5
F1
  8
EL-LYB4242C-39N4
  6
CONTINUOUS
 62
     7
 10
59.52042949210605
 20
63.73274372846702
 30
0.0
 11
59.52042949210605
 21
63.69002454444991
 31
0.0
  0
LINE
  5
F2
  8
EL-LYB4242C-39N4
  6
CONTINUOUS
 62
     7
 10
59.56314867612316
 20
63.69002454444991
 30
0.0
 11
59.52042949210605
 21
63.73274372846702
 31
0.0
  0
LINE
  5
F3
  8
EL-LYB4242C-39N4
  6
CONTINUOUS
 62
     7
 10
62.82220900516948
 20
64.66429754767861
 30
0.0
 11
62.86492818918655
 21
64.66429754767861
 31
0.0
  0
LINE
  5
F4
  8
EL-LYB4242C-39N4
  6
CONTINUOUS
 62
     7
 10
62.82220900516948
 20
64.66429754767861
 30
0.0
 11
62.82220900516948
 21
64.62175061843571
 31
0.0
  0
LINE
  5
F5
  8
EL-LYB4242C-39N4
  6
CONTINUOUS
 62
     7
 10
63.54292298068376
 20
63.98630275618141
 30
0.0
 11
63.58426412650688
 21
63.98630275618141
 31
0.0
  0
LINE
  5
F6
  8
EL-LYB4242C-39N4
  6
CONTINUOUS
 62
     7
 10
63.50020379666678
 20
63.94358357216431
 30
0.0
 11
63.50020379666678
 21
63.98630275618141
 31
0.0
  0
LINE
  5
F7
  8
EL-LYB4242C-39N4
  6
CONTINUOUS
 62
     7
 10
63.58426412650688
 20
63.98630275618141
 30
0.0
 11
63.62698331052386
 21
63.98630275618141
 31
0.0
  0
LINE
  5
F8
  8
EL-LYB4242C-39N4
  6
CONTINUOUS
 62
     7
 10
63.75376282438117
 20
64.0290219401985
 30
0.0
 11
63.96598070627247
 21
64.0717411242156
 31
0.0
  0
LINE
  5
F9
  8
EL-LYB4242C-39N4
  6
CONTINUOUS
 62
     7
 10
62.73814867532938
 20
64.62175061843571
 30
0.0
 11
62.78086785934645
 21
64.66429754767861
 31
0.0
  0
LINE
  5
FA
  8
EL-LYB4242C-39N4
  6
CONTINUOUS
 62
     7
 10
62.73814867532938
 20
64.62175061843571
 30
0.0
 11
62.69542949131228
 21
64.57903143441871
 31
0.0
  0
LINE
  5
FB
  8
EL-LYB4242C-39N4
  6
CONTINUOUS
 62
     7
 10
62.78086785934645
 20
64.66429754767861
 30
0.0
 11
62.86492818918655
 21
64.62175061843571
 31
0.0
  0
LINE
  5
FC
  8
EL-LYB4242C-39N4
  6
CONTINUOUS
 62
     7
 10
63.88054233823826
 20
64.9607480141843
 30
0.0
 11
63.92326152225545
 21
64.9607480141843
 31
0.0
  0
LINE
  5
FD
  8
EL-LYB4242C-39N4
  6
CONTINUOUS
 62
     7
 10
62.65408834548926
 20
64.62175061843571
 30
0.0
 11
62.69542949131228
 21
64.62175061843571
 31
0.0
  0
LINE
  5
FE
  8
EL-LYB4242C-39N4
  6
CONTINUOUS
 62
     7
 10
63.54292298068376
 20
63.90241468111552
 30
0.0
 11
63.58426412650688
 21
63.94358357216431
 31
0.0
  0
LINE
  5
FF
  8
EL-LYB4242C-39N4
  6
CONTINUOUS
 62
     7
 10
63.54292298068376
 20
63.90241468111552
 30
0.0
 11
63.50020379666678
 21
63.94358357216431
 31
0.0
  0
LINE
  5
100
  8
EL-LYB4242C-39N4
  6
CONTINUOUS
 62
     7
 10
63.58426412650688
 20
63.94358357216431
 30
0.0
 11
63.62698331052386
 21
63.98630275618141
 31
0.0
  0
LINE
  5
101
  8
EL-LYB4242C-39N4
  6
CONTINUOUS
 62
     7
 10
63.83920119241535
 20
64.0290219401985
 30
0.0
 11
64.00869989028966
 21
64.0717411242156
 31
0.0
  0
LINE
  5
102
  8
EL-LYB4242C-39N4
  6
CONTINUOUS
 62
     7
 10
63.83920119241535
 20
64.0290219401985
 30
0.0
 11
63.75376282438117
 21
64.0290219401985
 31
0.0
  0
LINE
  5
103
  8
EL-LYB4242C-39N4
  6
CONTINUOUS
 62
     7
 10
63.79648200839816
 20
64.9607480141843
 30
0.0
 11
63.75376282438117
 21
64.91802883016722
 31
0.0
  0
LINE
  5
104
  8
EL-LYB4242C-39N4
  6
CONTINUOUS
 62
     7
 10
63.54292298068376
 20
63.90241468111552
 30
0.0
 11
63.58426412650688
 21
63.98630275618141
 31
0.0
  0
LINE
  5
105
  8
EL-LYB4242C-39N4
  6
CONTINUOUS
 62
     7
 10
63.58426412650688
 20
63.94358357216431
 30
0.0
 11
63.58426412650688
 21
63.98630275618141
 31
0.0
  0
LINE
  5
106
  8
EL-LYB4242C-39N4
  6
CONTINUOUS
 62
     7
 10
63.88054233823826
 20
64.0290219401985
 30
0.0
 11
63.83920119241535
 21
64.0290219401985
 31
0.0
  0
LINE
  5
107
  8
EL-LYB4242C-39N4
  6
CONTINUOUS
 62
     7
 10
62.65408834548926
 20
64.62175061843571
 30
0.0
 11
62.65408834548926
 21
64.57903143441871
 31
0.0
  0
LINE
  5
108
  8
EL-LYB4242C-39N4
  6
CONTINUOUS
 62
     7
 10
62.69542949131228
 20
64.57903143441871
 30
0.0
 11
62.65408834548926
 21
64.62175061843571
 31
0.0
  0
LINE
  5
109
  8
EL-LYB4242C-39N4
  6
CONTINUOUS
 62
     7
 10
62.78086785934645
 20
64.66429754767861
 30
0.0
 11
62.69542949131228
 21
64.62175061843571
 31
0.0
  0
LINE
  5
10A
  8
EL-LYB4242C-39N4
  6
CONTINUOUS
 62
     7
 10
63.92326152225545
 20
64.9607480141843
 30
0.0
 11
63.79648200839816
 21
64.9607480141843
 31
0.0
  0
LINE
  5
10B
  8
EL-LYB4242C-39N4
  6
CONTINUOUS
 62
     7
 10
63.79648200839816
 20
64.87496513660162
 30
0.0
 11
63.75376282438117
 21
64.87496513660162
 31
0.0
  0
LINE
  5
10C
  8
EL-LYB4242C-39N4
  6
CONTINUOUS
 62
     7
 10
65.40465258091278
 20
64.53734577904712
 30
0.0
 11
56.98070510037996
 21
62.081681717161
 31
0.0
  0
LINE
  5
10D
  8
EL-LYB4242C-39N4
  6
CONTINUOUS
 62
     7
 10
57.44648200998567
 20
63.98630275618141
 30
0.0
 11
64.98159485532408
 21
66.1029694223189
 31
0.0
  0
LINE
  5
10E
  8
EL-LYB4242C-39N4
  6
CONTINUOUS
 62
     7
 10
56.00781013534536
 20
62.63169121138122
 30
0.0
 11
56.00781013534536
 21
62.67441039539821
 31
0.0
  0
LINE
  5
10F
  8
EL-LYB4242C-39N4
  6
CONTINUOUS
 62
     7
 10
56.47220900675698
 20
61.95507445807812
 30
0.0
 11
56.89664477053987
 21
62.081681717161
 31
0.0
  0
LINE
  5
110
  8
EL-LYB4242C-39N4
  6
CONTINUOUS
 62
     7
 10
56.43086786093406
 20
61.95507445807812
 30
0.0
 11
56.47220900675698
 21
61.95507445807812
 31
0.0
  0
LINE
  5
111
  8
EL-LYB4242C-39N4
  6
CONTINUOUS
 62
     7
 10
56.89664477053987
 20
62.081681717161
 30
0.0
 11
56.98070510037996
 21
62.081681717161
 31
0.0
  0
LINE
  5
112
  8
EL-LYB4242C-39N4
  6
CONTINUOUS
 62
     7
 10
55.96509095132838
 20
62.1247454107266
 30
0.0
 11
56.00781013534536
 21
62.1247454107266
 31
0.0
  0
LINE
  5
113
  8
EL-LYB4242C-39N4
  6
CONTINUOUS
 62
     7
 10
55.96509095132838
 20
62.1247454107266
 30
0.0
 11
55.92237176731117
 21
62.1247454107266
 31
0.0
  0
LINE
  5
114
  8
EL-LYB4242C-39N4
  6
CONTINUOUS
 62
     7
 10
56.00781013534536
 20
62.16591430177542
 30
0.0
 11
55.92237176731117
 21
62.1247454107266
 31
0.0
  0
LINE
  5
115
  8
EL-LYB4242C-39N4
  6
CONTINUOUS
 62
     7
 10
55.92237176731117
 20
62.63169121138122
 30
0.0
 11
55.92237176731117
 21
62.1247454107266
 31
0.0
  0
LINE
  5
116
  8
EL-LYB4242C-39N4
  6
CONTINUOUS
 62
     7
 10
58.58887567289455
 20
63.43629326196131
 30
0.0
 11
58.67431404092876
 21
63.43629326196131
 31
0.0
  0
LINE
  5
117
  8
EL-LYB4242C-39N4
  6
CONTINUOUS
 62
     7
 10
62.86492818918655
 20
64.66429754767861
 30
0.0
 11
62.86492818918655
 21
64.62175061843571
 31
0.0
  0
LINE
  5
118
  8
EL-LYB4242C-39N4
  6
CONTINUOUS
 62
     7
 10
65.53281013296406
 20
64.87496513660162
 30
0.0
 11
65.95586785855276
 21
64.70563869350161
 31
0.0
  0
LINE
  5
119
  8
EL-LYB4242C-39N4
  6
CONTINUOUS
 62
     7
 10
65.53281013296406
 20
64.87496513660162
 30
0.0
 11
65.53281013296406
 21
65.38363348499871
 31
0.0
  0
LINE
  5
11A
  8
EL-LYB4242C-39N4
  6
CONTINUOUS
 62
     7
 10
65.44737176492988
 20
64.53734577904712
 30
0.0
 11
65.40465258091278
 21
64.53734577904712
 31
0.0
  0
LINE
  5
11B
  8
EL-LYB4242C-39N4
  6
CONTINUOUS
 62
     7
 10
65.53281013296406
 20
64.87496513660162
 30
0.0
 11
65.53281013296406
 21
64.8337962455528
 31
0.0
  0
LINE
  5
11C
  8
EL-LYB4242C-39N4
  6
CONTINUOUS
 62
     7
 10
65.99720900437576
 20
64.74835787751871
 30
0.0
 11
65.99720900437576
 21
64.70563869350161
 31
0.0
  0
LINE
  5
11D
  8
EL-LYB4242C-39N4
  6
CONTINUOUS
 62
     7
 10
65.87042949051856
 20
65.25668171636731
 30
0.0
 11
65.53281013296406
 21
65.38363348499871
 31
0.0
  0
LINE
  5
11E
  8
EL-LYB4242C-39N4
  6
CONTINUOUS
 62
     7
 10
65.91314867453566
 20
64.62175061843571
 30
0.0
 11
65.44737176492988
 21
64.53734577904712
 31
0.0
  0
LINE
  5
11F
  8
EL-LYB4242C-39N4
  6
CONTINUOUS
 62
     7
 10
65.95586785855276
 20
64.70563869350161
 30
0.0
 11
65.95586785855276
 21
64.74835787751871
 31
0.0
  0
LINE
  5
120
  8
EL-LYB4242C-39N4
  6
CONTINUOUS
 62
     7
 10
65.91314867453566
 20
64.62175061843571
 30
0.0
 11
65.87042949051856
 21
64.66429754767861
 31
0.0
  0
LINE
  5
121
  8
EL-LYB4242C-39N4
  6
CONTINUOUS
 62
     7
 10
65.95586785855276
 20
64.66429754767861
 30
0.0
 11
65.87042949051856
 21
64.66429754767861
 31
0.0
  0
LINE
  5
122
  8
EL-LYB4242C-39N4
  6
CONTINUOUS
 62
     7
 10
65.95586785855276
 20
64.74835787751871
 30
0.0
 11
65.99720900437576
 21
64.74835787751871
 31
0.0
  0
LINE
  5
123
  8
EL-LYB4242C-39N4
  6
CONTINUOUS
 62
     7
 10
65.99720900437576
 20
64.70563869350161
 30
0.0
 11
65.95586785855276
 21
64.70563869350161
 31
0.0
  0
LINE
  5
124
  8
EL-LYB4242C-39N4
  6
CONTINUOUS
 62
     7
 10
65.95586785855276
 20
64.66429754767861
 30
0.0
 11
65.53281013296406
 21
64.8337962455528
 31
0.0
  0
LINE
  5
125
  8
EL-LYB4242C-39N4
  6
CONTINUOUS
 62
     7
 10
65.87042949051856
 20
65.21396253235021
 30
0.0
 11
65.87042949051856
 21
65.25668171636731
 31
0.0
  0
LINE
  5
126
  8
EL-LYB4242C-39N4
  6
CONTINUOUS
 62
     7
 10
65.99720900437576
 20
64.74835787751871
 30
0.0
 11
65.99720900437576
 21
65.1712433483331
 31
0.0
  0
LINE
  5
127
  8
EL-LYB4242C-39N4
  6
CONTINUOUS
 62
     7
 10
65.99720900437576
 20
65.1712433483331
 30
0.0
 11
65.87042949051856
 21
65.21396253235021
 31
0.0
  0
LINE
  5
128
  8
EL-LYB4242C-39N4
  6
CONTINUOUS
 62
     7
 10
57.06614346841418
 20
63.39374633271841
 30
0.0
 11
57.02342428439696
 21
63.39374633271841
 31
0.0
  0
LINE
  5
129
  8
EL-LYB4242C-39N4
  6
CONTINUOUS
 62
     7
 10
57.44648200998567
 20
63.98630275618141
 30
0.0
 11
57.44648200998567
 21
63.94358357216431
 31
0.0
  0
LINE
  5
12A
  8
EL-LYB4242C-39N4
  6
CONTINUOUS
 62
     7
 10
56.00781013534536
 20
62.67441039539821
 30
0.0
 11
55.96509095132838
 21
62.63169121138122
 31
0.0
  0
LINE
  5
12B
  8
EL-LYB4242C-39N4
  6
CONTINUOUS
 62
     7
 10
57.02342428439696
 20
62.97068860712982
 30
0.0
 11
57.02342428439696
 21
63.39374633271841
 31
0.0
  0
LINE
  5
12C
  8
EL-LYB4242C-39N4
  6
CONTINUOUS
 62
     7
 10
57.02342428439696
 20
63.39374633271841
 30
0.0
 11
57.44648200998567
 21
63.98630275618141
 31
0.0
  0
LINE
  5
12D
  8
EL-LYB4242C-39N4
  6
CONTINUOUS
 62
     7
 10
57.15020379825428
 20
63.30968600287832
 30
0.0
 11
57.10748461423706
 21
63.35102714870131
 31
0.0
  0
LINE
  5
12E
  8
EL-LYB4242C-39N4
  6
CONTINUOUS
 62
     7
 10
56.00781013534536
 20
62.63169121138122
 30
0.0
 11
55.92237176731117
 21
62.63169121138122
 31
0.0
  0
LINE
  5
12F
  8
EL-LYB4242C-39N4
  6
CONTINUOUS
 62
     7
 10
57.19292298227126
 20
63.35102714870131
 30
0.0
 11
57.10748461423706
 21
63.35102714870131
 31
0.0
  0
LINE
  5
130
  8
EL-LYB4242C-39N4
  6
CONTINUOUS
 62
     7
 10
60.83369989108337
 20
64.0717411242156
 30
0.0
 11
60.83369989108337
 21
64.0290219401985
 31
0.0
  0
LINE
  5
131
  8
EL-LYB4242C-39N4
  6
CONTINUOUS
 62
     7
 10
59.26687046439165
 20
63.6473053604328
 30
0.0
 11
59.30958964840875
 21
63.60596421460981
 31
0.0
  0
LINE
  5
132
  8
EL-LYB4242C-39N4
  6
CONTINUOUS
 62
     7
 10
58.58887567289455
 20
63.47901244597841
 30
0.0
 11
58.54753452707147
 21
63.43629326196131
 31
0.0
  0
LINE
  5
133
  8
EL-LYB4242C-39N4
  6
CONTINUOUS
 62
     7
 10
61.17131924863785
 20
64.66429754767861
 30
0.0
 11
61.17131924863785
 21
64.70563869350161
 31
0.0
  0
LINE
  5
134
  8
EL-LYB4242C-39N4
  6
CONTINUOUS
 62
     7
 10
63.50020379666678
 20
64.87496513660162
 30
0.0
 11
63.50020379666678
 21
64.8337962455528
 31
0.0
  0
LINE
  5
135
  8
EL-LYB4242C-39N4
  6
CONTINUOUS
 62
     7
 10
63.75376282438117
 20
64.9607480141843
 30
0.0
 11
63.79648200839816
 21
64.9607480141843
 31
0.0
  0
LINE
  5
136
  8
EL-LYB4242C-39N4
  6
CONTINUOUS
 62
     7
 10
63.75376282438117
 20
64.91802883016722
 30
0.0
 11
63.71242167855807
 21
64.87496513660162
 31
0.0
  0
LINE
  5
137
  8
EL-LYB4242C-39N4
  6
CONTINUOUS
 62
     7
 10
62.82220900516948
 20
64.66429754767861
 30
0.0
 11
62.78086785934645
 21
64.66429754767861
 31
0.0
  0
LINE
  5
138
  8
EL-LYB4242C-39N4
  6
CONTINUOUS
 62
     7
 10
65.40465258091278
 20
65.38363348499871
 30
0.0
 11
65.40465258091278
 21
65.76397202657031
 31
0.0
  0
LINE
  5
139
  8
EL-LYB4242C-39N4
  6
CONTINUOUS
 62
     7
 10
65.53281013296406
 20
65.38363348499871
 30
0.0
 11
65.44737176492988
 21
65.38363348499871
 31
0.0
  0
LINE
  5
13A
  8
EL-LYB4242C-39N4
  6
CONTINUOUS
 62
     7
 10
65.40465258091278
 20
65.80669121058742
 30
0.0
 11
65.02431403934126
 21
66.14568860633601
 31
0.0
  0
LINE
  5
13B
  8
EL-LYB4242C-39N4
  6
CONTINUOUS
 62
     7
 10
65.61687046280416
 20
65.68008395150451
 30
0.0
 11
65.65958964682125
 21
65.68008395150451
 31
0.0
  0
LINE
  5
13C
  8
EL-LYB4242C-39N4
  6
CONTINUOUS
 62
     7
 10
65.32059225107268
 20
65.76397202657031
 30
0.0
 11
64.98159485532408
 21
66.1029694223189
 31
0.0
  0
LINE
  5
13D
  8
EL-LYB4242C-39N4
  6
CONTINUOUS
 62
     7
 10
65.36331143508978
 20
65.976362163236
 30
0.0
 11
65.02431403934126
 21
66.14568860633601
 31
0.0
  0
LINE
  5
13E
  8
EL-LYB4242C-39N4
  6
CONTINUOUS
 62
     7
 10
65.32059225107268
 20
65.76397202657031
 30
0.0
 11
65.32059225107268
 21
65.34091430098161
 31
0.0
  0
LINE
  5
13F
  8
EL-LYB4242C-39N4
  6
CONTINUOUS
 62
     7
 10
65.65958964682125
 20
65.68008395150451
 30
0.0
 11
65.49009094894696
 21
65.9332984696703
 31
0.0
  0
LINE
  5
140
  8
EL-LYB4242C-39N4
  6
CONTINUOUS
 62
     7
 10
65.61687046280416
 20
65.68008395150451
 30
0.0
 11
65.40465258091278
 21
65.76397202657031
 31
0.0
  0
LINE
  5
141
  8
EL-LYB4242C-39N4
  6
CONTINUOUS
 62
     7
 10
65.40465258091278
 20
65.80669121058742
 30
0.0
 11
65.65958964682125
 21
65.68008395150451
 31
0.0
  0
LINE
  5
142
  8
EL-LYB4242C-39N4
  6
CONTINUOUS
 62
     7
 10
65.44737176492988
 20
65.38363348499871
 30
0.0
 11
65.44737176492988
 21
65.34091430098161
 31
0.0
  0
LINE
  5
143
  8
EL-LYB4242C-39N4
  6
CONTINUOUS
 62
     7
 10
65.70093079264426
 20
65.55295992809872
 30
0.0
 11
65.70093079264426
 21
65.34091430098161
 31
0.0
  0
LINE
  5
144
  8
EL-LYB4242C-39N4
  6
CONTINUOUS
 62
     7
 10
56.93798591636276
 20
62.081681717161
 30
0.0
 11
56.47220900675698
 21
61.95507445807812
 31
0.0
  0
LINE
  5
145
  8
EL-LYB4242C-39N4
  6
CONTINUOUS
 62
     7
 10
56.43086786093406
 20
61.95507445807812
 30
0.0
 11
56.00781013534536
 21
62.1247454107266
 31
0.0
  0
LINE
  5
146
  8
EL-LYB4242C-39N4
  6
CONTINUOUS
 62
     7
 10
57.44648200998567
 20
63.98630275618141
 30
0.0
 11
64.98159485532408
 21
66.14568860633601
 31
0.0
  0
LINE
  5
147
  8
EL-LYB4242C-39N4
  6
CONTINUOUS
 62
     7
 10
65.44737176492988
 20
64.53734577904712
 30
0.0
 11
56.98070510037996
 21
62.081681717161
 31
0.0
  0
LINE
  5
148
  8
EL-LYB4242C-39N4
  6
CONTINUOUS
 62
     7
 10
56.04915128116848
 20
62.67441039539821
 30
0.0
 11
65.49009094894696
 21
65.38363348499871
 31
0.0
  0
LINE
  5
149
  8
EL-LYB4242C-39N4
  6
CONTINUOUS
 62
     7
 10
57.02342428439696
 20
63.35102714870131
 30
0.0
 11
57.02342428439696
 21
62.97068860712982
 31
0.0
  0
LINE
  5
14A
  8
EL-LYB4242C-39N4
  6
CONTINUOUS
 62
     7
 10
57.02342428439696
 20
63.39374633271841
 30
0.0
 11
57.40376282596867
 21
63.98630275618141
 31
0.0
  0
LINE
  5
14B
  8
EL-LYB4242C-39N4
  6
CONTINUOUS
 62
     7
 10
63.20392558493516
 20
64.87496513660162
 30
0.0
 11
63.24664476895236
 21
64.9607480141843
 31
0.0
  0
LINE
  5
14C
  8
EL-LYB4242C-39N4
  6
CONTINUOUS
 62
     7
 10
63.11986525509506
 20
64.8337962455528
 30
0.0
 11
63.11986525509506
 21
64.70563869350161
 31
0.0
  0
LINE
  5
14D
  8
EL-LYB4242C-39N4
  6
CONTINUOUS
 62
     7
 10
63.20392558493516
 20
64.87496513660162
 30
0.0
 11
63.11986525509506
 21
64.8337962455528
 31
0.0
  0
LINE
  5
14E
  8
EL-LYB4242C-39N4
  6
CONTINUOUS
 62
     7
 10
56.89664477053987
 20
62.081681717161
 30
0.0
 11
56.93798591636276
 21
62.081681717161
 31
0.0
  0
LINE
  5
14F
  8
EL-LYB4242C-39N4
  6
CONTINUOUS
 62
     7
 10
56.00781013534536
 20
62.16591430177542
 30
0.0
 11
56.00781013534536
 21
62.1247454107266
 31
0.0
  0
LINE
  5
150
  8
EL-LYB4242C-39N4
  6
CONTINUOUS
 62
     7
 10
58.63159485691157
 20
63.43629326196131
 30
0.0
 11
58.58887567289455
 21
63.47901244597841
 31
0.0
  0
LINE
  5
151
  8
EL-LYB4242C-39N4
  6
CONTINUOUS
 62
     7
 10
63.24664476895236
 20
64.9607480141843
 30
0.0
 11
63.16120640091806
 21
64.8337962455528
 31
0.0
  0
LINE
  5
152
  8
EL-LYB4242C-39N4
  6
CONTINUOUS
 62
     7
 10
63.41614346682668
 20
64.9607480141843
 30
0.0
 11
63.24664476895236
 21
64.9607480141843
 31
0.0
  0
LINE
  5
153
  8
EL-LYB4242C-39N4
  6
CONTINUOUS
 62
     7
 10
63.50020379666678
 20
64.87496513660162
 30
0.0
 11
63.41614346682668
 21
64.9607480141843
 31
0.0
  0
LINE
  5
154
  8
EL-LYB4242C-39N4
  6
CONTINUOUS
 62
     7
 10
65.49009094894696
 20
64.87496513660162
 30
0.0
 11
65.53281013296406
 21
64.8337962455528
 31
0.0
  0
LINE
  5
155
  8
EL-LYB4242C-39N4
  6
CONTINUOUS
 62
     7
 10
65.49009094894696
 20
64.87496513660162
 30
0.0
 11
65.53281013296406
 21
64.87496513660162
 31
0.0
  0
LINE
  5
156
  8
EL-LYB4242C-39N4
  6
CONTINUOUS
 62
     7
 10
65.91314867453566
 20
64.62175061843571
 30
0.0
 11
65.95586785855276
 21
64.66429754767861
 31
0.0
  0
LINE
  5
157
  8
EL-LYB4242C-39N4
  6
CONTINUOUS
 62
     7
 10
65.95586785855276
 20
64.66429754767861
 30
0.0
 11
65.95586785855276
 21
64.70563869350161
 31
0.0
  0
LINE
  5
158
  8
EL-LYB4242C-39N4
  6
CONTINUOUS
 62
     7
 10
57.02342428439696
 20
63.39374633271841
 30
0.0
 11
57.02342428439696
 21
63.35102714870131
 31
0.0
  0
LINE
  5
159
  8
EL-LYB4242C-39N4
  6
CONTINUOUS
 62
     7
 10
56.04915128116848
 20
62.67441039539821
 30
0.0
 11
56.00781013534536
 21
62.63169121138122
 31
0.0
  0
LINE
  5
15A
  8
EL-LYB4242C-39N4
  6
CONTINUOUS
 62
     7
 10
57.02342428439696
 20
63.43629326196131
 30
0.0
 11
57.02342428439696
 21
63.39374633271841
 31
0.0
  0
LINE
  5
15B
  8
EL-LYB4242C-39N4
  6
CONTINUOUS
 62
     7
 10
57.10748461423706
 20
63.43629326196131
 30
0.0
 11
57.10748461423706
 21
63.30968600287832
 31
0.0
  0
LINE
  5
15C
  8
EL-LYB4242C-39N4
  6
CONTINUOUS
 62
     7
 10
57.19292298227126
 20
63.43629326196131
 30
0.0
 11
57.10748461423706
 21
63.43629326196131
 31
0.0
  0
LINE
  5
15D
  8
EL-LYB4242C-39N4
  6
CONTINUOUS
 62
     7
 10
57.19292298227126
 20
63.35102714870131
 30
0.0
 11
57.19292298227126
 21
63.43629326196131
 31
0.0
  0
LINE
  5
15E
  8
EL-LYB4242C-39N4
  6
CONTINUOUS
 62
     7
 10
57.10748461423706
 20
63.30968600287832
 30
0.0
 11
57.19292298227126
 21
63.35102714870131
 31
0.0
  0
LINE
  5
15F
  8
EL-LYB4242C-39N4
  6
CONTINUOUS
 62
     7
 10
57.15020379825428
 20
63.43629326196131
 30
0.0
 11
57.10748461423706
 21
63.30968600287832
 31
0.0
  0
LINE
  5
160
  8
EL-LYB4242C-39N4
  6
CONTINUOUS
 62
     7
 10
57.44648200998567
 20
63.98630275618141
 30
0.0
 11
57.40376282596867
 21
63.98630275618141
 31
0.0
  0
LINE
  5
161
  8
EL-LYB4242C-39N4
  6
CONTINUOUS
 62
     7
 10
60.91776022092347
 20
64.53734577904712
 30
0.0
 11
60.83369989108337
 21
64.0717411242156
 31
0.0
  0
LINE
  5
162
  8
EL-LYB4242C-39N4
  6
CONTINUOUS
 62
     7
 10
61.17131924863785
 20
64.66429754767861
 30
0.0
 11
60.91776022092347
 21
64.53734577904712
 31
0.0
  0
LINE
  5
163
  8
EL-LYB4242C-39N4
  6
CONTINUOUS
 62
     7
 10
59.18281013455155
 20
63.77546291248412
 30
0.0
 11
58.92787306864307
 21
63.6473053604328
 31
0.0
  0
LINE
  5
164
  8
EL-LYB4242C-39N4
  6
CONTINUOUS
 62
     7
 10
59.26687046439165
 20
63.6473053604328
 30
0.0
 11
59.18281013455155
 21
63.77546291248412
 31
0.0
  0
LINE
  5
165
  8
EL-LYB4242C-39N4
  6
CONTINUOUS
 62
     7
 10
59.56314867612316
 20
63.73274372846702
 30
0.0
 11
59.52042949210605
 21
63.69002454444991
 31
0.0
  0
LINE
  5
166
  8
EL-LYB4242C-39N4
  6
CONTINUOUS
 62
     7
 10
61.38353713052917
 20
64.66429754767861
 30
0.0
 11
61.21403843265487
 21
64.70563869350161
 31
0.0
  0
LINE
  5
167
  8
EL-LYB4242C-39N4
  6
CONTINUOUS
 62
     7
 10
61.55303582840347
 20
64.45207966578721
 30
0.0
 11
61.38353713052917
 21
64.66429754767861
 31
0.0
  0
LINE
  5
168
  8
EL-LYB4242C-39N4
  6
CONTINUOUS
 62
     7
 10
61.55303582840347
 20
64.2825809679129
 30
0.0
 11
61.55303582840347
 21
64.45207966578721
 31
0.0
  0
LINE
  5
169
  8
EL-LYB4242C-39N4
  6
CONTINUOUS
 62
     7
 10
61.55303582840347
 20
64.53734577904712
 30
0.0
 11
61.38353713052917
 21
64.66429754767861
 31
0.0
  0
LINE
  5
16A
  8
EL-LYB4242C-39N4
  6
CONTINUOUS
 62
     7
 10
61.55303582840347
 20
64.2825809679129
 30
0.0
 11
61.55303582840347
 21
64.53734577904712
 31
0.0
  0
LINE
  5
16B
  8
EL-LYB4242C-39N4
  6
CONTINUOUS
 62
     7
 10
61.21403843265487
 20
64.70563869350161
 30
0.0
 11
61.17131924863785
 21
64.70563869350161
 31
0.0
  0
LINE
  5
16C
  8
EL-LYB4242C-39N4
  6
CONTINUOUS
 62
     7
 10
63.75376282438117
 20
64.9607480141843
 30
0.0
 11
63.75376282438117
 21
64.91802883016722
 31
0.0
  0
LINE
  5
16D
  8
EL-LYB4242C-39N4
  6
CONTINUOUS
 62
     7
 10
64.98159485532408
 20
66.14568860633601
 30
0.0
 11
64.98159485532408
 21
66.1029694223189
 31
0.0
  0
LINE
  5
16E
  8
EL-LYB4242C-39N4
  6
CONTINUOUS
 62
     7
 10
65.40465258091278
 20
65.80669121058742
 30
0.0
 11
65.32059225107268
 21
65.76397202657031
 31
0.0
  0
LINE
  5
16F
  8
EL-LYB4242C-39N4
  6
CONTINUOUS
 62
     7
 10
65.40465258091278
 20
65.76397202657031
 30
0.0
 11
65.32059225107268
 21
65.76397202657031
 31
0.0
  0
LINE
  5
170
  8
EL-LYB4242C-39N4
  6
CONTINUOUS
 62
     7
 10
65.19381273721547
 20
65.72263088074732
 30
0.0
 11
65.23653192123258
 21
65.63736476748741
 31
0.0
  0
LINE
  5
171
  8
EL-LYB4242C-39N4
  6
CONTINUOUS
 62
     7
 10
65.32059225107268
 20
65.72263088074732
 30
0.0
 11
65.19381273721547
 21
65.72263088074732
 31
0.0
  0
LINE
  5
172
  8
EL-LYB4242C-39N4
  6
CONTINUOUS
 62
     7
 10
65.19381273721547
 20
65.63736476748741
 30
0.0
 11
65.32059225107268
 21
65.72263088074732
 31
0.0
  0
LINE
  5
173
  8
EL-LYB4242C-39N4
  6
CONTINUOUS
 62
     7
 10
65.19381273721547
 20
65.72263088074732
 30
0.0
 11
65.19381273721547
 21
65.63736476748741
 31
0.0
  0
LINE
  5
174
  8
EL-LYB4242C-39N4
  6
CONTINUOUS
 62
     7
 10
65.27787306705557
 20
65.76397202657031
 30
0.0
 11
65.19381273721547
 21
65.72263088074732
 31
0.0
  0
LINE
  5
175
  8
EL-LYB4242C-39N4
  6
CONTINUOUS
 62
     7
 10
65.02431403934126
 20
66.14568860633601
 30
0.0
 11
64.98159485532408
 21
66.1029694223189
 31
0.0
  0
LINE
  5
176
  8
EL-LYB4242C-39N4
  6
CONTINUOUS
 62
     7
 10
65.49009094894696
 20
65.38363348499871
 30
0.0
 11
65.44737176492988
 21
65.38363348499871
 31
0.0
  0
LINE
  5
177
  8
EL-LYB4242C-39N4
  6
CONTINUOUS
 62
     7
 10
65.53281013296406
 20
65.38363348499871
 30
0.0
 11
65.49009094894696
 21
65.38363348499871
 31
0.0
  0
LINE
  5
178
  8
EL-LYB4242C-39N4
  6
CONTINUOUS
 62
     7
 10
65.49009094894696
 20
65.9332984696703
 30
0.0
 11
65.36331143508978
 21
65.976362163236
 31
0.0
  0
LINE
  5
179
  8
EL-LYB4242C-39N4
  6
CONTINUOUS
 62
     7
 10
65.53281013296406
 20
65.42635266901581
 30
0.0
 11
65.44737176492988
 21
65.55295992809872
 31
0.0
  0
LINE
  5
17A
  8
EL-LYB4242C-39N4
  6
CONTINUOUS
 62
     7
 10
65.44737176492988
 20
65.42635266901581
 30
0.0
 11
65.53281013296406
 21
65.42635266901581
 31
0.0
  0
LINE
  5
17B
  8
EL-LYB4242C-39N4
  6
CONTINUOUS
 62
     7
 10
65.44737176492988
 20
65.55295992809872
 30
0.0
 11
65.44737176492988
 21
65.42635266901581
 31
0.0
  0
LINE
  5
17C
  8
EL-LYB4242C-39N4
  6
CONTINUOUS
 62
     7
 10
65.53281013296406
 20
65.51041299885591
 30
0.0
 11
65.44737176492988
 21
65.55295992809872
 31
0.0
  0
LINE
  5
17D
  8
EL-LYB4242C-39N4
  6
CONTINUOUS
 62
     7
 10
65.49009094894696
 20
65.42635266901581
 30
0.0
 11
65.53281013296406
 21
65.51041299885591
 31
0.0
  0
LINE
  5
17E
  8
EL-LYB4242C-39N4
  6
CONTINUOUS
 62
     7
 10
65.70093079264426
 20
65.55295992809872
 30
0.0
 11
65.61687046280416
 21
65.68008395150451
 31
0.0
  0
LINE
  5
17F
  8
EL-LYB4242C-39N4
  6
CONTINUOUS
 62
     7
 10
56.98070510037996
 20
62.081681717161
 30
0.0
 11
96.26581793778087
 21
46.03735527802971
 31
0.0
  0
LINE
  5
180
  8
EL-LYB4242C-39N4
  6
CONTINUOUS
 62
     7
 10
105.2409806959537
 20
48.61962659899881
 30
0.0
 11
65.95586785855276
 21
64.62175061843571
 31
0.0
  0
LINE
  5
181
  8
EL-LYB4242C-39N4
  6
CONTINUOUS
 62
     7
 10
96.30853712179798
 20
46.08007446204691
 30
0.0
 11
97.07059224313518
 21
47.22229587018141
 31
0.0
  0
LINE
  5
182
  8
EL-LYB4242C-39N4
  6
CONTINUOUS
 62
     7
 10
105.3250410257938
 20
48.66234578301581
 30
0.0
 11
105.3250410257938
 21
49.12691690920181
 31
0.0
  0
LINE
  5
183
  8
EL-LYB4242C-39N4
  6
CONTINUOUS
 62
     7
 10
96.26581793778087
 20
46.03735527802971
 30
0.0
 11
95.75869988235216
 21
45.9107480189468
 31
0.0
  0
LINE
  5
184
  8
EL-LYB4242C-39N4
  6
CONTINUOUS
 62
     7
 10
104.7324846023308
 20
48.45030015589872
 30
0.0
 11
105.2409806959537
 21
48.61962659899881
 31
0.0
  0
LINE
  5
185
  8
EL-LYB4242C-39N4
  6
CONTINUOUS
 62
     7
 10
56.98070510037996
 20
62.081681717161
 30
0.0
 11
56.47220900675698
 21
61.91235527406101
 31
0.0
  0
LINE
  5
186
  8
EL-LYB4242C-39N4
  6
CONTINUOUS
 62
     7
 10
65.99720900437576
 20
64.70563869350161
 30
0.0
 11
65.99720900437576
 21
65.1712433483331
 31
0.0
  0
LINE
  5
187
  8
EL-LYB4242C-39N4
  6
CONTINUOUS
 62
     7
 10
65.95586785855276
 20
64.62175061843571
 30
0.0
 11
65.44737176492988
 21
64.49462659503001
 31
0.0
  0
LINE
  5
188
  8
EL-LYB4242C-39N4
  6
CONTINUOUS
 62
     7
 10
65.40465258091278
 20
64.49462659503001
 30
0.0
 11
104.7324846023308
 21
48.45030015589872
 31
0.0
  0
LINE
  5
189
  8
EL-LYB4242C-39N4
  6
CONTINUOUS
 62
     7
 10
95.71598069833497
 20
45.9107480189468
 30
0.0
 11
56.43086786093406
 21
61.91235527406101
 31
0.0
  0
LINE
  5
18A
  8
EL-LYB4242C-39N4
  6
CONTINUOUS
 62
     7
 10
65.99720900437576
 20
65.1712433483331
 30
0.0
 11
105.2836998799709
 21
49.16963609321891
 31
0.0
  0
LINE
  5
18B
  8
EL-LYB4242C-39N4
  6
CONTINUOUS
 62
     7
 10
95.71598069833497
 20
45.9107480189468
 30
0.0
 11
95.75869988235216
 21
45.9107480189468
 31
0.0
  0
LINE
  5
18C
  8
EL-LYB4242C-39N4
  6
CONTINUOUS
 62
     7
 10
96.26581793778087
 20
46.03735527802971
 30
0.0
 11
96.30853712179798
 21
46.08007446204691
 31
0.0
  0
LINE
  5
18D
  8
EL-LYB4242C-39N4
  6
CONTINUOUS
 62
     7
 10
105.2409806959537
 20
48.61962659899881
 30
0.0
 11
105.3250410257938
 21
48.66234578301581
 31
0.0
  0
LINE
  5
18E
  8
EL-LYB4242C-39N4
  6
CONTINUOUS
 62
     7
 10
105.3250410257938
 20
49.12691690920181
 30
0.0
 11
105.2836998799709
 21
49.16963609321891
 31
0.0
  0
LINE
  5
18F
  8
EL-LYB4242C-39N4
  6
CONTINUOUS
 62
     7
 10
56.43086786093406
 20
61.95507445807812
 30
0.0
 11
56.47220900675698
 21
61.91235527406101
 31
0.0
  0
LINE
  5
190
  8
EL-LYB4242C-39N4
  6
CONTINUOUS
 62
     7
 10
56.98070510037996
 20
62.081681717161
 30
0.0
 11
57.02342428439696
 21
62.081681717161
 31
0.0
  0
LINE
  5
191
  8
EL-LYB4242C-39N4
  6
CONTINUOUS
 62
     7
 10
65.40465258091278
 20
64.49462659503001
 30
0.0
 11
65.44737176492988
 21
64.49462659503001
 31
0.0
  0
LINE
  5
192
  8
EL-LYB4242C-39N4
  6
CONTINUOUS
 62
     7
 10
65.99720900437576
 20
65.1712433483331
 30
0.0
 11
65.95586785855276
 21
65.1712433483331
 31
0.0
  0
LINE
  5
193
  8
EL-LYB4242C-39N4
  6
CONTINUOUS
 62
     7
 10
65.95586785855276
 20
64.66429754767861
 30
0.0
 11
65.99720900437576
 21
64.70563869350161
 31
0.0
  0
LINE
  5
194
  8
EL-LYB4242C-39N4
  6
CONTINUOUS
 62
     7
 10
65.95586785855276
 20
64.62175061843571
 30
0.0
 11
65.99720900437576
 21
64.70563869350161
 31
0.0
  0
LINE
  5
195
  8
EL-LYB4242C-39N4
  6
CONTINUOUS
 62
     7
 10
96.30853712179798
 20
46.03735527802971
 30
0.0
 11
104.775203786348
 21
48.45030015589872
 31
0.0
  0
LINE
  5
196
  8
EL-LYB4242C-39N4
  6
CONTINUOUS
 62
     7
 10
104.1399281788679
 20
50.05829847363911
 30
0.0
 11
103.5473717554049
 21
49.88897203053901
 31
0.0
  0
LINE
  5
197
  8
EL-LYB4242C-39N4
  6
CONTINUOUS
 62
     7
 10
100.4578101242329
 20
47.26501505419851
 30
0.0
 11
96.35125630581506
 21
46.08007446204691
 31
0.0
  0
LINE
  5
198
  8
EL-LYB4242C-39N4
  6
CONTINUOUS
 62
     7
 10
100.541870454073
 20
47.30807874776421
 30
0.0
 11
104.691143456508
 21
48.4930193399158
 31
0.0
  0
LINE
  5
199
  8
EL-LYB4242C-39N4
  6
CONTINUOUS
 62
     7
 10
104.0972089948508
 20
50.05829847363911
 30
0.0
 11
103.5473717554049
 21
49.88897203053901
 31
0.0
  0
LINE
  5
19A
  8
EL-LYB4242C-39N4
  6
CONTINUOUS
 62
     7
 10
95.84276021219226
 20
45.9107480189468
 30
0.0
 11
95.80004102817507
 21
45.9107480189468
 31
0.0
  0
LINE
  5
19B
  8
EL-LYB4242C-39N4
  6
CONTINUOUS
 62
     7
 10
96.22447679195788
 20
45.69835788228121
 30
0.0
 11
95.80004102817507
 21
45.9107480189468
 31
0.0
  0
LINE
  5
19C
  8
EL-LYB4242C-39N4
  6
CONTINUOUS
 62
     7
 10
96.26581793778087
 20
46.03735527802971
 30
0.0
 11
95.80004102817507
 21
45.9107480189468
 31
0.0
  0
LINE
  5
19D
  8
EL-LYB4242C-39N4
  6
CONTINUOUS
 62
     7
 10
96.30853712179798
 20
46.03735527802971
 30
0.0
 11
96.26581793778087
 21
46.03735527802971
 31
0.0
  0
LINE
  5
19E
  8
EL-LYB4242C-39N4
  6
CONTINUOUS
 62
     7
 10
98.93369988155837
 20
47.73096421857851
 30
0.0
 11
98.97504102738127
 21
47.73096421857851
 31
0.0
  0
LINE
  5
19F
  8
EL-LYB4242C-39N4
  6
CONTINUOUS
 62
     7
 10
98.84826151352418
 20
47.56129326593
 30
0.0
 11
98.84826151352418
 21
47.51874633668722
 31
0.0
  0
LINE
  5
1A0
  8
EL-LYB4242C-39N4
  6
CONTINUOUS
 62
     7
 10
103.1670332138333
 20
48.91607706550451
 30
0.0
 11
103.1243140298162
 21
48.91607706550451
 31
0.0
  0
LINE
  5
1A1
  8
EL-LYB4242C-39N4
  6
CONTINUOUS
 62
     7
 10
105.7494767895766
 20
48.4930193399158
 30
0.0
 11
105.7908179353997
 21
48.4930193399158
 31
0.0
  0
LINE
  5
1A2
  8
EL-LYB4242C-39N4
  6
CONTINUOUS
 62
     7
 10
104.775203786348
 20
48.45030015589872
 30
0.0
 11
104.775203786348
 21
48.4930193399158
 31
0.0
  0
LINE
  5
1A3
  8
EL-LYB4242C-39N4
  6
CONTINUOUS
 62
     7
 10
104.775203786348
 20
48.45030015589872
 30
0.0
 11
104.8179229703651
 21
48.45030015589872
 31
0.0
  0
LINE
  5
1A4
  8
EL-LYB4242C-39N4
  6
CONTINUOUS
 62
     7
 10
105.4531985778452
 20
49.08574801815311
 30
0.0
 11
105.7494767895766
 21
48.99996514057031
 31
0.0
  0
LINE
  5
1A5
  8
EL-LYB4242C-39N4
  6
CONTINUOUS
 62
     7
 10
105.4531985778452
 20
49.08574801815311
 30
0.0
 11
105.3250410257938
 21
49.12691690920181
 31
0.0
  0
LINE
  5
1A6
  8
EL-LYB4242C-39N4
  6
CONTINUOUS
 62
     7
 10
105.410479393828
 20
49.12691690920181
 30
0.0
 11
105.4531985778452
 21
49.12691690920181
 31
0.0
  0
LINE
  5
1A7
  8
EL-LYB4242C-39N4
  6
CONTINUOUS
 62
     7
 10
105.2836998799709
 20
48.66234578301581
 30
0.0
 11
105.2836998799709
 21
48.5770796697559
 31
0.0
  0
LINE
  5
1A8
  8
EL-LYB4242C-39N4
  6
CONTINUOUS
 62
     7
 10
105.3250410257938
 20
48.7040314383874
 30
0.0
 11
105.3250410257938
 21
49.12691690920181
 31
0.0
  0
LINE
  5
1A9
  8
EL-LYB4242C-39N4
  6
CONTINUOUS
 62
     7
 10
105.3250410257938
 20
48.61962659899881
 30
0.0
 11
105.7067576055596
 21
48.45030015589872
 31
0.0
  0
LINE
  5
1AA
  8
EL-LYB4242C-39N4
  6
CONTINUOUS
 62
     7
 10
105.3250410257938
 20
48.61962659899881
 30
0.0
 11
105.2836998799709
 21
48.5770796697559
 31
0.0
  0
LINE
  5
1AB
  8
EL-LYB4242C-39N4
  6
CONTINUOUS
 62
     7
 10
105.2836998799709
 20
48.5770796697559
 30
0.0
 11
105.2409806959537
 21
48.61962659899881
 31
0.0
  0
LINE
  5
1AC
  8
EL-LYB4242C-39N4
  6
CONTINUOUS
 62
     7
 10
105.2409806959537
 20
48.61962659899881
 30
0.0
 11
104.8179229703651
 21
48.45030015589872
 31
0.0
  0
LINE
  5
1AD
  8
EL-LYB4242C-39N4
  6
CONTINUOUS
 62
     7
 10
105.2836998799709
 20
48.66234578301581
 30
0.0
 11
105.3250410257938
 21
48.66234578301581
 31
0.0
  0
LINE
  5
1AE
  8
EL-LYB4242C-39N4
  6
CONTINUOUS
 62
     7
 10
105.7067576055596
 20
48.45030015589872
 30
0.0
 11
105.7494767895766
 21
48.45030015589872
 31
0.0
  0
LINE
  5
1AF
  8
EL-LYB4242C-39N4
  6
CONTINUOUS
 62
     7
 10
105.7494767895766
 20
48.95862399474741
 30
0.0
 11
105.7494767895766
 21
48.4930193399158
 31
0.0
  0
LINE
  5
1B0
  8
EL-LYB4242C-39N4
  6
CONTINUOUS
 62
     7
 10
105.7494767895766
 20
48.95879624952161
 30
0.0
 11
105.7494767895766
 21
48.99996514057031
 31
0.0
  0
LINE
  5
1B1
  8
EL-LYB4242C-39N4
  6
CONTINUOUS
 62
     7
 10
105.7908179353997
 20
48.95879624952161
 30
0.0
 11
105.7908179353997
 21
48.4930193399158
 31
0.0
  0
LINE
  5
1B2
  8
EL-LYB4242C-39N4
  6
CONTINUOUS
 62
     7
 10
105.7908179353997
 20
48.95879624952161
 30
0.0
 11
105.7494767895766
 21
48.95879624952161
 31
0.0
  0
LINE
  5
1B3
  8
EL-LYB4242C-39N4
  6
CONTINUOUS
 62
     7
 10
105.7908179353997
 20
48.4930193399158
 30
0.0
 11
105.7494767895766
 21
48.45030015589872
 31
0.0
  0
LINE
  5
1B4
  8
EL-LYB4242C-39N4
  6
CONTINUOUS
 62
     7
 10
104.3094268767422
 20
50.10136216720471
 30
0.0
 11
104.266707692725
 21
50.10136216720471
 31
0.0
  0
LINE
  5
1B5
  8
EL-LYB4242C-39N4
  6
CONTINUOUS
 62
     7
 10
104.691143456508
 20
49.76236477145611
 30
0.0
 11
104.691143456508
 21
49.4247454139016
 31
0.0
  0
LINE
  5
1B6
  8
EL-LYB4242C-39N4
  6
CONTINUOUS
 62
     7
 10
103.9290883351706
 20
50.27068861030482
 30
0.0
 11
103.8863691511534
 21
50.3134077943218
 31
0.0
  0
LINE
  5
1B7
  8
EL-LYB4242C-39N4
  6
CONTINUOUS
 62
     7
 10
104.3521460607594
 20
49.76236477145611
 30
0.0
 11
104.3948652447764
 21
49.55135267298461
 31
0.0
  0
LINE
  5
1B8
  8
EL-LYB4242C-39N4
  6
CONTINUOUS
 62
     7
 10
104.3094268767422
 20
49.93169121455621
 30
0.0
 11
104.3521460607594
 21
49.93169121455621
 31
0.0
  0
LINE
  5
1B9
  8
EL-LYB4242C-39N4
  6
CONTINUOUS
 62
     7
 10
104.3948652447764
 20
49.55135267298461
 30
0.0
 11
104.3948652447764
 21
49.76236477145611
 31
0.0
  0
LINE
  5
1BA
  8
EL-LYB4242C-39N4
  6
CONTINUOUS
 62
     7
 10
104.3948652447764
 20
49.84763088471611
 30
0.0
 11
104.4362063905995
 21
49.84763088471611
 31
0.0
  0
LINE
  5
1BB
  8
EL-LYB4242C-39N4
  6
CONTINUOUS
 62
     7
 10
103.7168704532792
 20
50.27068861030482
 30
0.0
 11
103.7168704532792
 21
50.3134077943218
 31
0.0
  0
LINE
  5
1BC
  8
EL-LYB4242C-39N4
  6
CONTINUOUS
 62
     7
 10
104.3521460607594
 20
49.76236477145611
 30
0.0
 11
104.3948652447764
 21
49.76236477145611
 31
0.0
  0
LINE
  5
1BD
  8
EL-LYB4242C-39N4
  6
CONTINUOUS
 62
     7
 10
104.3948652447764
 20
49.55135267298461
 30
0.0
 11
104.3521460607594
 21
49.55135267298461
 31
0.0
  0
LINE
  5
1BE
  8
EL-LYB4242C-39N4
  6
CONTINUOUS
 62
     7
 10
103.9290883351706
 20
50.22796942628761
 30
0.0
 11
103.8863691511534
 21
50.27068861030482
 31
0.0
  0
LINE
  5
1BF
  8
EL-LYB4242C-39N4
  6
CONTINUOUS
 62
     7
 10
103.9290883351706
 20
50.18525024227061
 30
0.0
 11
104.3094268767422
 21
49.93169121455621
 31
0.0
  0
LINE
  5
1C0
  8
EL-LYB4242C-39N4
  6
CONTINUOUS
 62
     7
 10
103.7168704532792
 20
50.3134077943218
 30
0.0
 11
103.0388756617821
 21
50.10136216720471
 31
0.0
  0
LINE
  5
1C1
  8
EL-LYB4242C-39N4
  6
CONTINUOUS
 62
     7
 10
103.0815948457991
 20
50.05829847363911
 30
0.0
 11
103.7168704532792
 21
50.27068861030482
 31
0.0
  0
LINE
  5
1C2
  8
EL-LYB4242C-39N4
  6
CONTINUOUS
 62
     7
 10
103.9704294809936
 20
50.22796942628761
 30
0.0
 11
104.3521460607594
 21
49.93169121455621
 31
0.0
  0
LINE
  5
1C3
  8
EL-LYB4242C-39N4
  6
CONTINUOUS
 62
     7
 10
104.266707692725
 20
50.10136216720471
 30
0.0
 11
103.9290883351706
 21
50.27068861030482
 31
0.0
  0
LINE
  5
1C4
  8
EL-LYB4242C-39N4
  6
CONTINUOUS
 62
     7
 10
103.8863691511534
 20
50.27068861030482
 30
0.0
 11
103.8863691511534
 21
50.3134077943218
 31
0.0
  0
LINE
  5
1C5
  8
EL-LYB4242C-39N4
  6
CONTINUOUS
 62
     7
 10
103.9704294809936
 20
50.22796942628761
 30
0.0
 11
103.9290883351706
 21
50.18525024227061
 31
0.0
  0
LINE
  5
1C6
  8
EL-LYB4242C-39N4
  6
CONTINUOUS
 62
     7
 10
104.6057050884738
 20
49.5926938188076
 30
0.0
 11
104.5629859044566
 21
49.5926938188076
 31
0.0
  0
LINE
  5
1C7
  8
EL-LYB4242C-39N4
  6
CONTINUOUS
 62
     7
 10
104.691143456508
 20
49.76236477145611
 30
0.0
 11
104.4362063905995
 21
49.84763088471611
 31
0.0
  0
LINE
  5
1C8
  8
EL-LYB4242C-39N4
  6
CONTINUOUS
 62
     7
 10
104.691143456508
 20
49.76236477145611
 30
0.0
 11
104.266707692725
 21
50.10136216720471
 31
0.0
  0
LINE
  5
1C9
  8
EL-LYB4242C-39N4
  6
CONTINUOUS
 62
     7
 10
104.691143456508
 20
49.76236477145611
 30
0.0
 11
104.3094268767422
 21
50.10136216720471
 31
0.0
  0
LINE
  5
1CA
  8
EL-LYB4242C-39N4
  6
CONTINUOUS
 62
     7
 10
104.4789255746165
 20
49.84763088471611
 30
0.0
 11
104.691143456508
 21
49.76236477145611
 31
0.0
  0
LINE
  5
1CB
  8
EL-LYB4242C-39N4
  6
CONTINUOUS
 62
     7
 10
103.9290883351706
 20
50.22796942628761
 30
0.0
 11
103.9290883351706
 21
50.27068861030482
 31
0.0
  0
LINE
  5
1CC
  8
EL-LYB4242C-39N4
  6
CONTINUOUS
 62
     7
 10
105.7494767895766
 20
48.45030015589872
 30
0.0
 11
96.22447679195788
 21
45.69835788228121
 31
0.0
  0
LINE
  5
1CD
  8
EL-LYB4242C-39N4
  6
CONTINUOUS
 62
     7
 10
95.75869988235216
 20
45.9107480189468
 30
0.0
 11
95.80004102817507
 21
45.9107480189468
 31
0.0
  0
LINE
  5
1CE
  8
EL-LYB4242C-39N4
  6
CONTINUOUS
 62
     7
 10
103.0388756617821
 20
48.74675062240451
 30
0.0
 11
103.0815948457991
 21
48.74675062240451
 31
0.0
  0
LINE
  5
1CF
  8
EL-LYB4242C-39N4
  6
CONTINUOUS
 62
     7
 10
104.775203786348
 20
48.4930193399158
 30
0.0
 11
104.8179229703651
 21
48.45030015589872
 31
0.0
  0
LINE
  5
1D0
  8
EL-LYB4242C-39N4
  6
CONTINUOUS
 62
     7
 10
105.2409806959537
 20
48.66234578301581
 30
0.0
 11
105.2409806959537
 21
48.61962659899881
 31
0.0
  0
LINE
  5
1D1
  8
EL-LYB4242C-39N4
  6
CONTINUOUS
 62
     7
 10
105.3250410257938
 20
48.61962659899881
 30
0.0
 11
105.3250410257938
 21
48.66234578301581
 31
0.0
  0
LINE
  5
1D2
  8
EL-LYB4242C-39N4
  6
CONTINUOUS
 62
     7
 10
105.7494767895766
 20
48.45030015589872
 30
0.0
 11
105.7494767895766
 21
48.4930193399158
 31
0.0
  0
LINE
  5
1D3
  8
EL-LYB4242C-39N4
  6
CONTINUOUS
 62
     7
 10
105.3250410257938
 20
49.16963609321891
 30
0.0
 11
105.3250410257938
 21
49.12691690920181
 31
0.0
  0
LINE
  5
1D4
  8
EL-LYB4242C-39N4
  6
CONTINUOUS
 62
     7
 10
104.4362063905995
 20
49.84763088471611
 30
0.0
 11
104.3948652447764
 21
49.76236477145611
 31
0.0
  0
LINE
  5
1D5
  8
EL-LYB4242C-39N4
  6
CONTINUOUS
 62
     7
 10
104.4789255746165
 20
49.84763088471611
 30
0.0
 11
104.4362063905995
 21
49.84763088471611
 31
0.0
  0
LINE
  5
1D6
  8
EL-LYB4242C-39N4
  6
CONTINUOUS
 62
     7
 10
103.9290883351706
 20
50.27068861030482
 30
0.0
 11
103.9704294809936
 21
50.22796942628761
 31
0.0
  0
LINE
  5
1D7
  8
EL-LYB4242C-39N4
  6
CONTINUOUS
 62
     7
 10
103.8863691511534
 20
50.27068861030482
 30
0.0
 11
103.7168704532792
 21
50.27068861030482
 31
0.0
  0
LINE
  5
1D8
  8
EL-LYB4242C-39N4
  6
CONTINUOUS
 62
     7
 10
104.3521460607594
 20
49.93169121455621
 30
0.0
 11
104.4362063905995
 21
49.84763088471611
 31
0.0
  0
LINE
  5
1D9
  8
EL-LYB4242C-39N4
  6
CONTINUOUS
 62
     7
 10
104.3948652447764
 20
49.84763088471611
 30
0.0
 11
104.3521460607594
 21
49.76236477145611
 31
0.0
  0
LINE
  5
1DA
  8
EL-LYB4242C-39N4
  6
CONTINUOUS
 62
     7
 10
103.9290883351706
 20
50.22796942628761
 30
0.0
 11
103.9290883351706
 21
50.18525024227061
 31
0.0
  0
LINE
  5
1DB
  8
EL-LYB4242C-39N4
  6
CONTINUOUS
 62
     7
 10
103.8863691511534
 20
50.3134077943218
 30
0.0
 11
103.7168704532792
 21
50.3134077943218
 31
0.0
  0
LINE
  5
1DC
  8
EL-LYB4242C-39N4
  6
CONTINUOUS
 62
     7
 10
104.3094268767422
 20
49.93169121455621
 30
0.0
 11
104.3948652447764
 21
49.84763088471611
 31
0.0
  0
LINE
  5
1DD
  8
EL-LYB4242C-39N4
  6
CONTINUOUS
 62
     7
 10
104.6057050884738
 20
49.46591430495042
 30
0.0
 11
104.6057050884738
 21
49.5926938188076
 31
0.0
  0
LINE
  5
1DE
  8
EL-LYB4242C-39N4
  6
CONTINUOUS
 62
     7
 10
104.6057050884738
 20
49.5086334889675
 30
0.0
 11
104.6057050884738
 21
49.46591430495042
 31
0.0
  0
LINE
  5
1DF
  8
EL-LYB4242C-39N4
  6
CONTINUOUS
 62
     7
 10
103.2510935436734
 20
49.08574801815311
 30
0.0
 11
103.2510935436734
 21
48.7040314383874
 31
0.0
  0
LINE
  5
1E0
  8
EL-LYB4242C-39N4
  6
CONTINUOUS
 62
     7
 10
102.954815331942
 20
48.5770796697559
 30
0.0
 11
103.2083743596564
 21
48.61962659899881
 31
0.0
  0
LINE
  5
1E1
  8
EL-LYB4242C-39N4
  6
CONTINUOUS
 62
     7
 10
103.2083743596564
 20
48.61962659899881
 30
0.0
 11
103.2083743596564
 21
49.08574801815311
 31
0.0
  0
LINE
  5
1E2
  8
EL-LYB4242C-39N4
  6
CONTINUOUS
 62
     7
 10
103.2083743596564
 20
48.61962659899881
 30
0.0
 11
103.2083743596564
 21
48.83063869747031
 31
0.0
  0
LINE
  5
1E3
  8
EL-LYB4242C-39N4
  6
CONTINUOUS
 62
     7
 10
103.0388756617821
 20
48.74675062240451
 30
0.0
 11
102.997534515959
 21
48.78929755164731
 31
0.0
  0
LINE
  5
1E4
  8
EL-LYB4242C-39N4
  6
CONTINUOUS
 62
     7
 10
103.2083743596564
 20
48.87335788148741
 30
0.0
 11
103.2083743596564
 21
48.83063869747031
 31
0.0
  0
LINE
  5
1E5
  8
EL-LYB4242C-39N4
  6
CONTINUOUS
 62
     7
 10
103.2083743596564
 20
49.08574801815311
 30
0.0
 11
103.2083743596564
 21
48.87335788148741
 31
0.0
  0
LINE
  5
1E6
  8
EL-LYB4242C-39N4
  6
CONTINUOUS
 62
     7
 10
103.2083743596564
 20
49.08574801815311
 30
0.0
 11
102.997534515959
 21
49.08574801815311
 31
0.0
  0
LINE
  5
1E7
  8
EL-LYB4242C-39N4
  6
CONTINUOUS
 62
     7
 10
103.1670332138333
 20
48.91607706550451
 30
0.0
 11
103.1670332138333
 21
48.95862399474741
 31
0.0
  0
LINE
  5
1E8
  8
EL-LYB4242C-39N4
  6
CONTINUOUS
 62
     7
 10
103.2083743596564
 20
48.87335788148741
 30
0.0
 11
103.1243140298162
 21
48.95862399474741
 31
0.0
  0
LINE
  5
1E9
  8
EL-LYB4242C-39N4
  6
CONTINUOUS
 62
     7
 10
103.1670332138333
 20
48.74675062240451
 30
0.0
 11
103.2083743596564
 21
48.83063869747031
 31
0.0
  0
LINE
  5
1EA
  8
EL-LYB4242C-39N4
  6
CONTINUOUS
 62
     7
 10
102.997534515959
 20
48.78929755164731
 30
0.0
 11
103.1670332138333
 21
48.74675062240451
 31
0.0
  0
LINE
  5
1EB
  8
EL-LYB4242C-39N4
  6
CONTINUOUS
 62
     7
 10
103.2083743596564
 20
48.61962659899881
 30
0.0
 11
103.2510935436734
 21
48.7040314383874
 31
0.0
  0
LINE
  5
1EC
  8
EL-LYB4242C-39N4
  6
CONTINUOUS
 62
     7
 10
103.1670332138333
 20
48.95879624952161
 30
0.0
 11
103.1243140298162
 21
48.95879624952161
 31
0.0
  0
LINE
  5
1ED
  8
EL-LYB4242C-39N4
  6
CONTINUOUS
 62
     7
 10
102.3195397244619
 20
48.23791001923311
 30
0.0
 11
102.3195397244619
 21
48.28062920325021
 31
0.0
  0
LINE
  5
1EE
  8
EL-LYB4242C-39N4
  6
CONTINUOUS
 62
     7
 10
102.3195397244619
 20
48.23791001923311
 30
0.0
 11
102.4049780924961
 21
48.23791001923311
 31
0.0
  0
LINE
  5
1EF
  8
EL-LYB4242C-39N4
  6
CONTINUOUS
 62
     7
 10
102.3195397244619
 20
48.23791001923311
 30
0.0
 11
102.278198578639
 21
48.19674112818431
 31
0.0
  0
LINE
  5
1F0
  8
EL-LYB4242C-39N4
  6
CONTINUOUS
 62
     7
 10
102.3195397244619
 20
48.19674112818431
 30
0.0
 11
102.3622589084791
 21
48.19674112818431
 31
0.0
  0
LINE
  5
1F1
  8
EL-LYB4242C-39N4
  6
CONTINUOUS
 62
     7
 10
102.3195397244619
 20
48.23791001923311
 30
0.0
 11
102.278198578639
 21
48.23791001923311
 31
0.0
  0
LINE
  5
1F2
  8
EL-LYB4242C-39N4
  6
CONTINUOUS
 62
     7
 10
102.4463192383192
 20
48.23791001923311
 30
0.0
 11
102.4463192383192
 21
48.28062920325021
 31
0.0
  0
LINE
  5
1F3
  8
EL-LYB4242C-39N4
  6
CONTINUOUS
 62
     7
 10
102.4049780924961
 20
48.23791001923311
 30
0.0
 11
102.4890384223362
 21
48.28062920325021
 31
0.0
  0
LINE
  5
1F4
  8
EL-LYB4242C-39N4
  6
CONTINUOUS
 62
     7
 10
102.954815331942
 20
48.7040314383874
 30
0.0
 11
102.997534515959
 21
48.78929755164731
 31
0.0
  0
LINE
  5
1F5
  8
EL-LYB4242C-39N4
  6
CONTINUOUS
 62
     7
 10
102.954815331942
 20
48.83063869747031
 30
0.0
 11
102.954815331942
 21
48.78929755164731
 31
0.0
  0
LINE
  5
1F6
  8
EL-LYB4242C-39N4
  6
CONTINUOUS
 62
     7
 10
102.997534515959
 20
48.99996514057031
 30
0.0
 11
102.997534515959
 21
49.21235527723601
 31
0.0
  0
LINE
  5
1F7
  8
EL-LYB4242C-39N4
  6
CONTINUOUS
 62
     7
 10
102.278198578639
 20
48.11130276015011
 30
0.0
 11
102.4463192383192
 21
48.11130276015011
 31
0.0
  0
LINE
  5
1F8
  8
EL-LYB4242C-39N4
  6
CONTINUOUS
 62
     7
 10
102.278198578639
 20
48.11130276015011
 30
0.0
 11
102.278198578639
 21
48.15402194416731
 31
0.0
  0
LINE
  5
1F9
  8
EL-LYB4242C-39N4
  6
CONTINUOUS
 62
     7
 10
102.8707550021019
 20
48.40758097188171
 30
0.0
 11
102.6158179361934
 21
48.15402194416731
 31
0.0
  0
LINE
  5
1FA
  8
EL-LYB4242C-39N4
  6
CONTINUOUS
 62
     7
 10
102.954815331942
 20
48.7040314383874
 30
0.0
 11
102.8707550021019
 21
48.40758097188171
 31
0.0
  0
LINE
  5
1FB
  8
EL-LYB4242C-39N4
  6
CONTINUOUS
 62
     7
 10
102.6158179361934
 20
48.15402194416731
 30
0.0
 11
102.5744767903704
 21
48.15402194416731
 31
0.0
  0
LINE
  5
1FC
  8
EL-LYB4242C-39N4
  6
CONTINUOUS
 62
     7
 10
102.278198578639
 20
48.11130276015011
 30
0.0
 11
102.3195397244619
 21
48.11130276015011
 31
0.0
  0
LINE
  5
1FD
  8
EL-LYB4242C-39N4
  6
CONTINUOUS
 62
     7
 10
102.3195397244619
 20
48.11130276015011
 30
0.0
 11
102.4463192383192
 21
48.11130276015011
 31
0.0
  0
LINE
  5
1FE
  8
EL-LYB4242C-39N4
  6
CONTINUOUS
 62
     7
 10
102.4049780924961
 20
48.28062920325021
 30
0.0
 11
102.4049780924961
 21
48.23791001923311
 31
0.0
  0
LINE
  5
1FF
  8
EL-LYB4242C-39N4
  6
CONTINUOUS
 62
     7
 10
102.8280358180848
 20
48.36641208083292
 30
0.0
 11
102.954815331942
 21
48.7040314383874
 31
0.0
  0
LINE
  5
200
  8
EL-LYB4242C-39N4
  6
CONTINUOUS
 62
     7
 10
102.5744767903704
 20
48.15402194416731
 30
0.0
 11
102.8280358180848
 21
48.36641208083292
 31
0.0
  0
LINE
  5
201
  8
EL-LYB4242C-39N4
  6
CONTINUOUS
 62
     7
 10
102.3195397244619
 20
48.19674112818431
 30
0.0
 11
102.2354793946218
 21
48.23791001923311
 31
0.0
  0
LINE
  5
202
  8
EL-LYB4242C-39N4
  6
CONTINUOUS
 62
     7
 10
102.4463192383192
 20
48.19674112818431
 30
0.0
 11
102.5317576063533
 21
48.23791001923311
 31
0.0
  0
LINE
  5
203
  8
EL-LYB4242C-39N4
  6
CONTINUOUS
 62
     7
 10
102.278198578639
 20
48.15402194416731
 30
0.0
 11
102.1500410265876
 21
48.19674112818431
 31
0.0
  0
LINE
  5
204
  8
EL-LYB4242C-39N4
  6
CONTINUOUS
 62
     7
 10
102.1927602106048
 20
48.19674112818431
 30
0.0
 11
102.3195397244619
 21
48.15402194416731
 31
0.0
  0
LINE
  5
205
  8
EL-LYB4242C-39N4
  6
CONTINUOUS
 62
     7
 10
102.2354793946218
 20
48.23791001923311
 30
0.0
 11
102.278198578639
 21
48.23791001923311
 31
0.0
  0
LINE
  5
206
  8
EL-LYB4242C-39N4
  6
CONTINUOUS
 62
     7
 10
102.3195397244619
 20
48.15402194416731
 30
0.0
 11
102.278198578639
 21
48.15402194416731
 31
0.0
  0
LINE
  5
207
  8
EL-LYB4242C-39N4
  6
CONTINUOUS
 62
     7
 10
102.3195397244619
 20
48.15402194416731
 30
0.0
 11
102.3195397244619
 21
48.19674112818431
 31
0.0
  0
LINE
  5
208
  8
EL-LYB4242C-39N4
  6
CONTINUOUS
 62
     7
 10
102.5744767903704
 20
48.23791001923311
 30
0.0
 11
102.4049780924961
 21
48.32334838726732
 31
0.0
  0
LINE
  5
209
  8
EL-LYB4242C-39N4
  6
CONTINUOUS
 62
     7
 10
102.9120961479248
 20
48.83063869747031
 30
0.0
 11
102.954815331942
 21
48.78929755164731
 31
0.0
  0
LINE
  5
20A
  8
EL-LYB4242C-39N4
  6
CONTINUOUS
 62
     7
 10
102.8280358180848
 20
48.87335788148741
 30
0.0
 11
102.7853166340677
 21
48.87335788148741
 31
0.0
  0
LINE
  5
20B
  8
EL-LYB4242C-39N4
  6
CONTINUOUS
 62
     7
 10
102.8280358180848
 20
48.87335788148741
 30
0.0
 11
103.0815948457991
 21
48.74675062240451
 31
0.0
  0
LINE
  5
20C
  8
EL-LYB4242C-39N4
  6
CONTINUOUS
 62
     7
 10
102.7853166340677
 20
48.87335788148741
 30
0.0
 11
102.7425974500506
 21
48.87335788148741
 31
0.0
  0
LINE
  5
20D
  8
EL-LYB4242C-39N4
  6
CONTINUOUS
 62
     7
 10
102.9120961479248
 20
48.83063869747031
 30
0.0
 11
102.8280358180848
 21
48.87335788148741
 31
0.0
  0
LINE
  5
20E
  8
EL-LYB4242C-39N4
  6
CONTINUOUS
 62
     7
 10
102.7425974500506
 20
48.78929755164731
 30
0.0
 11
102.954815331942
 21
48.7040314383874
 31
0.0
  0
LINE
  5
20F
  8
EL-LYB4242C-39N4
  6
CONTINUOUS
 62
     7
 10
102.9120961479248
 20
48.83063869747031
 30
0.0
 11
103.0815948457991
 21
48.74675062240451
 31
0.0
  0
LINE
  5
210
  8
EL-LYB4242C-39N4
  6
CONTINUOUS
 62
     7
 10
102.8707550021019
 20
48.83063869747031
 30
0.0
 11
102.7425974500506
 21
48.87335788148741
 31
0.0
  0
LINE
  5
211
  8
EL-LYB4242C-39N4
  6
CONTINUOUS
 62
     7
 10
102.954815331942
 20
48.78929755164731
 30
0.0
 11
102.954815331942
 21
48.7040314383874
 31
0.0
  0
LINE
  5
212
  8
EL-LYB4242C-39N4
  6
CONTINUOUS
 62
     7
 10
103.0815948457991
 20
48.74675062240451
 30
0.0
 11
103.1243140298162
 21
48.74675062240451
 31
0.0
  0
LINE
  5
213
  8
EL-LYB4242C-39N4
  6
CONTINUOUS
 62
     7
 10
102.954815331942
 20
48.99996514057031
 30
0.0
 11
102.954815331942
 21
49.21235527723601
 31
0.0
  0
LINE
  5
214
  8
EL-LYB4242C-39N4
  6
CONTINUOUS
 62
     7
 10
102.7853166340677
 20
48.95879624952161
 30
0.0
 11
102.7853166340677
 21
48.99996514057031
 31
0.0
  0
LINE
  5
215
  8
EL-LYB4242C-39N4
  6
CONTINUOUS
 62
     7
 10
102.7425974500506
 20
48.87335788148741
 30
0.0
 11
102.7853166340677
 21
48.95862399474741
 31
0.0
  0
LINE
  5
216
  8
EL-LYB4242C-39N4
  6
CONTINUOUS
 62
     7
 10
102.7425974500506
 20
48.99996514057031
 30
0.0
 11
102.7853166340677
 21
48.99996514057031
 31
0.0
  0
LINE
  5
217
  8
EL-LYB4242C-39N4
  6
CONTINUOUS
 62
     7
 10
102.7853166340677
 20
49.04302883413601
 30
0.0
 11
102.7853166340677
 21
48.99996514057031
 31
0.0
  0
LINE
  5
218
  8
EL-LYB4242C-39N4
  6
CONTINUOUS
 62
     7
 10
103.1670332138333
 20
48.91607706550451
 30
0.0
 11
102.8276913085361
 21
49.04302883413601
 31
0.0
  0
LINE
  5
219
  8
EL-LYB4242C-39N4
  6
CONTINUOUS
 62
     7
 10
102.7853166340677
 20
49.04302883413601
 30
0.0
 11
102.8280358180848
 21
49.04302883413601
 31
0.0
  0
LINE
  5
21A
  8
EL-LYB4242C-39N4
  6
CONTINUOUS
 62
     7
 10
102.7853166340677
 20
49.04302883413601
 30
0.0
 11
102.7425974500506
 21
49.04302883413601
 31
0.0
  0
LINE
  5
21B
  8
EL-LYB4242C-39N4
  6
CONTINUOUS
 62
     7
 10
102.4463192383192
 20
48.11130276015011
 30
0.0
 11
102.5744767903704
 21
48.15402194416731
 31
0.0
  0
LINE
  5
21C
  8
EL-LYB4242C-39N4
  6
CONTINUOUS
 62
     7
 10
102.278198578639
 20
48.15402194416731
 30
0.0
 11
102.4463192383192
 21
48.11130276015011
 31
0.0
  0
LINE
  5
21D
  8
EL-LYB4242C-39N4
  6
CONTINUOUS
 62
     7
 10
102.5317576063533
 20
48.15402194416731
 30
0.0
 11
102.5744767903704
 21
48.23791001923311
 31
0.0
  0
LINE
  5
21E
  8
EL-LYB4242C-39N4
  6
CONTINUOUS
 62
     7
 10
102.3195397244619
 20
48.15402194416731
 30
0.0
 11
102.5317576063533
 21
48.15402194416731
 31
0.0
  0
LINE
  5
21F
  8
EL-LYB4242C-39N4
  6
CONTINUOUS
 62
     7
 10
102.3195397244619
 20
48.15402194416731
 30
0.0
 11
102.4463192383192
 21
48.19674112818431
 31
0.0
  0
LINE
  5
220
  8
EL-LYB4242C-39N4
  6
CONTINUOUS
 62
     7
 10
102.7853166340677
 20
48.87335788148741
 30
0.0
 11
102.7853166340677
 21
48.99996514057031
 31
0.0
  0
LINE
  5
221
  8
EL-LYB4242C-39N4
  6
CONTINUOUS
 62
     7
 10
102.7425974500506
 20
48.95879624952161
 30
0.0
 11
102.7853166340677
 21
48.95879624952161
 31
0.0
  0
LINE
  5
222
  8
EL-LYB4242C-39N4
  6
CONTINUOUS
 62
     7
 10
102.8280358180848
 20
49.04302883413601
 30
0.0
 11
102.7853166340677
 21
48.99996514057031
 31
0.0
  0
LINE
  5
223
  8
EL-LYB4242C-39N4
  6
CONTINUOUS
 62
     7
 10
102.8707550021019
 20
49.04302883413601
 30
0.0
 11
102.8280358180848
 21
49.04302883413601
 31
0.0
  0
LINE
  5
224
  8
EL-LYB4242C-39N4
  6
CONTINUOUS
 62
     7
 10
102.8280358180848
 20
48.87335788148741
 30
0.0
 11
102.8707550021019
 21
49.04302883413601
 31
0.0
  0
LINE
  5
225
  8
EL-LYB4242C-39N4
  6
CONTINUOUS
 62
     7
 10
98.38248460391826
 20
47.01025024306431
 30
0.0
 11
98.34114345809546
 21
47.01025024306431
 31
0.0
  0
LINE
  5
226
  8
EL-LYB4242C-39N4
  6
CONTINUOUS
 62
     7
 10
98.25570509006127
 20
46.88329847443281
 30
0.0
 11
98.21298590604407
 21
46.88329847443281
 31
0.0
  0
LINE
  5
227
  8
EL-LYB4242C-39N4
  6
CONTINUOUS
 62
     7
 10
98.12892557620397
 20
46.96908135201561
 30
0.0
 11
98.04486524636387
 21
47.01025024306431
 31
0.0
  0
LINE
  5
228
  8
EL-LYB4242C-39N4
  6
CONTINUOUS
 62
     7
 10
98.25570509006127
 20
47.01025024306431
 30
0.0
 11
98.34114345809546
 21
47.01025024306431
 31
0.0
  0
LINE
  5
229
  8
EL-LYB4242C-39N4
  6
CONTINUOUS
 62
     7
 10
98.08620639218698
 20
46.92636216799851
 30
0.0
 11
97.95942687832967
 21
46.96908135201561
 31
0.0
  0
LINE
  5
22A
  8
EL-LYB4242C-39N4
  6
CONTINUOUS
 62
     7
 10
98.00214606234688
 20
47.01025024306431
 30
0.0
 11
98.08620639218698
 21
46.92636216799851
 31
0.0
  0
LINE
  5
22B
  8
EL-LYB4242C-39N4
  6
CONTINUOUS
 62
     7
 10
98.08620639218698
 20
46.92636216799851
 30
0.0
 11
98.12892557620397
 21
46.92636216799851
 31
0.0
  0
LINE
  5
22C
  8
EL-LYB4242C-39N4
  6
CONTINUOUS
 62
     7
 10
98.12892557620397
 20
46.96908135201561
 30
0.0
 11
98.12892557620397
 21
46.92636216799851
 31
0.0
  0
LINE
  5
22D
  8
EL-LYB4242C-39N4
  6
CONTINUOUS
 62
     7
 10
98.38248460391826
 20
47.01025024306431
 30
0.0
 11
98.17164476022117
 21
47.09568861109851
 31
0.0
  0
LINE
  5
22E
  8
EL-LYB4242C-39N4
  6
CONTINUOUS
 62
     7
 10
98.67876281564996
 20
47.60401244994711
 30
0.0
 11
98.72148199966698
 21
47.56129326593
 31
0.0
  0
LINE
  5
22F
  8
EL-LYB4242C-39N4
  6
CONTINUOUS
 62
     7
 10
98.59470248580986
 20
47.68841728933572
 30
0.0
 11
98.84826151352418
 21
47.56129326593
 31
0.0
  0
LINE
  5
230
  8
EL-LYB4242C-39N4
  6
CONTINUOUS
 62
     7
 10
98.59470248580986
 20
47.68841728933572
 30
0.0
 11
98.55198330179267
 21
47.68841728933572
 31
0.0
  0
LINE
  5
231
  8
EL-LYB4242C-39N4
  6
CONTINUOUS
 62
     7
 10
98.72148199966698
 20
47.60401244994711
 30
0.0
 11
98.72148199966698
 21
47.56129326593
 31
0.0
  0
LINE
  5
232
  8
EL-LYB4242C-39N4
  6
CONTINUOUS
 62
     7
 10
98.72148199966698
 20
47.60401244994711
 30
0.0
 11
98.59470248580986
 21
47.6882450345615
 31
0.0
  0
LINE
  5
233
  8
EL-LYB4242C-39N4
  6
CONTINUOUS
 62
     7
 10
98.72148199966698
 20
47.51874633668722
 30
0.0
 11
98.55198330179267
 21
47.60401244994711
 31
0.0
  0
LINE
  5
234
  8
EL-LYB4242C-39N4
  6
CONTINUOUS
 62
     7
 10
98.72148199966698
 20
47.60401244994711
 30
0.0
 11
98.84826151352418
 21
47.56129326593
 31
0.0
  0
LINE
  5
235
  8
EL-LYB4242C-39N4
  6
CONTINUOUS
 62
     7
 10
98.67876281564996
 20
47.60401244994711
 30
0.0
 11
98.55198330179267
 21
47.6882450345615
 31
0.0
  0
LINE
  5
236
  8
EL-LYB4242C-39N4
  6
CONTINUOUS
 62
     7
 10
98.72148199966698
 20
47.56129326593
 30
0.0
 11
98.72148199966698
 21
47.51874633668722
 31
0.0
  0
LINE
  5
237
  8
EL-LYB4242C-39N4
  6
CONTINUOUS
 62
     7
 10
98.84826151352418
 20
47.56129326593
 30
0.0
 11
98.89098069754117
 21
47.56129326593
 31
0.0
  0
LINE
  5
238
  8
EL-LYB4242C-39N4
  6
CONTINUOUS
 62
     7
 10
98.76420118368408
 20
47.7723053644016
 30
0.0
 11
98.76420118368408
 21
47.98469550106721
 31
0.0
  0
LINE
  5
239
  8
EL-LYB4242C-39N4
  6
CONTINUOUS
 62
     7
 10
98.59470248580986
 20
47.81502454841861
 30
0.0
 11
98.55198330179267
 21
47.81502454841861
 31
0.0
  0
LINE
  5
23A
  8
EL-LYB4242C-39N4
  6
CONTINUOUS
 62
     7
 10
98.55198330179267
 20
47.7723053644016
 30
0.0
 11
98.55198330179267
 21
47.81502454841861
 31
0.0
  0
LINE
  5
23B
  8
EL-LYB4242C-39N4
  6
CONTINUOUS
 62
     7
 10
98.55198330179267
 20
47.68841728933572
 30
0.0
 11
98.55198330179267
 21
47.7723053644016
 31
0.0
  0
LINE
  5
23C
  8
EL-LYB4242C-39N4
  6
CONTINUOUS
 62
     7
 10
98.59470248580986
 20
47.81502454841861
 30
0.0
 11
98.59470248580986
 21
47.85774373243581
 31
0.0
  0
LINE
  5
23D
  8
EL-LYB4242C-39N4
  6
CONTINUOUS
 62
     7
 10
98.04486524636387
 20
46.92636216799851
 30
0.0
 11
97.91670769431266
 21
46.96908135201561
 31
0.0
  0
LINE
  5
23E
  8
EL-LYB4242C-39N4
  6
CONTINUOUS
 62
     7
 10
98.17164476022117
 20
47.09568861109851
 30
0.0
 11
98.34114345809546
 21
47.01025024306431
 31
0.0
  0
LINE
  5
23F
  8
EL-LYB4242C-39N4
  6
CONTINUOUS
 62
     7
 10
98.63742166982688
 20
47.85774373243581
 30
0.0
 11
98.55198330179267
 21
47.81502454841861
 31
0.0
  0
LINE
  5
240
  8
EL-LYB4242C-39N4
  6
CONTINUOUS
 62
     7
 10
98.97504102738127
 20
47.73096421857851
 30
0.0
 11
98.63742166982688
 21
47.85774373243581
 31
0.0
  0
LINE
  5
241
  8
EL-LYB4242C-39N4
  6
CONTINUOUS
 62
     7
 10
98.25570509006127
 20
46.88329847443281
 30
0.0
 11
98.34114345809546
 21
46.92636216799851
 31
0.0
  0
LINE
  5
242
  8
EL-LYB4242C-39N4
  6
CONTINUOUS
 62
     7
 10
98.04486524636387
 20
46.92636216799851
 30
0.0
 11
98.21298590604407
 21
46.88329847443281
 31
0.0
  0
LINE
  5
243
  8
EL-LYB4242C-39N4
  6
CONTINUOUS
 62
     7
 10
98.12892557620397
 20
46.92636216799851
 30
0.0
 11
98.34114345809546
 21
47.01025024306431
 31
0.0
  0
LINE
  5
244
  8
EL-LYB4242C-39N4
  6
CONTINUOUS
 62
     7
 10
98.12892557620397
 20
46.96908135201561
 30
0.0
 11
98.25570509006127
 21
47.01025024306431
 31
0.0
  0
LINE
  5
245
  8
EL-LYB4242C-39N4
  6
CONTINUOUS
 62
     7
 10
98.55198330179267
 20
47.05296942708141
 30
0.0
 11
98.72148199966698
 21
47.51874633668722
 31
0.0
  0
LINE
  5
246
  8
EL-LYB4242C-39N4
  6
CONTINUOUS
 62
     7
 10
98.34114345809546
 20
46.92636216799851
 30
0.0
 11
98.55198330179267
 21
47.05296942708141
 31
0.0
  0
LINE
  5
247
  8
EL-LYB4242C-39N4
  6
CONTINUOUS
 62
     7
 10
98.59470248580986
 20
47.85774373243581
 30
0.0
 11
98.55198330179267
 21
47.81502454841861
 31
0.0
  0
LINE
  5
248
  8
EL-LYB4242C-39N4
  6
CONTINUOUS
 62
     7
 10
98.59470248580986
 20
47.68841728933572
 30
0.0
 11
98.59470248580986
 21
47.81502454841861
 31
0.0
  0
LINE
  5
249
  8
EL-LYB4242C-39N4
  6
CONTINUOUS
 62
     7
 10
98.55198330179267
 20
47.73096421857851
 30
0.0
 11
98.55198330179267
 21
47.7723053644016
 31
0.0
  0
LINE
  5
24A
  8
EL-LYB4242C-39N4
  6
CONTINUOUS
 62
     7
 10
98.67876281564996
 20
47.81502454841861
 30
0.0
 11
98.63742166982688
 21
47.85774373243581
 31
0.0
  0
LINE
  5
24B
  8
EL-LYB4242C-39N4
  6
CONTINUOUS
 62
     7
 10
98.59470248580986
 20
47.68841728933572
 30
0.0
 11
98.67876281564996
 21
47.81502454841861
 31
0.0
  0
LINE
  5
24C
  8
EL-LYB4242C-39N4
  6
CONTINUOUS
 62
     7
 10
98.17164476022117
 20
47.01025024306431
 30
0.0
 11
98.12892557620397
 21
47.05296942708141
 31
0.0
  0
LINE
  5
24D
  8
EL-LYB4242C-39N4
  6
CONTINUOUS
 62
     7
 10
98.12892557620397
 20
46.96908135201561
 30
0.0
 11
98.08620639218698
 21
46.96908135201561
 31
0.0
  0
LINE
  5
24E
  8
EL-LYB4242C-39N4
  6
CONTINUOUS
 62
     7
 10
98.34114345809546
 20
46.92636216799851
 30
0.0
 11
98.38248460391826
 21
46.92636216799851
 31
0.0
  0
LINE
  5
24F
  8
EL-LYB4242C-39N4
  6
CONTINUOUS
 62
     7
 10
98.17164476022117
 20
47.01025024306431
 30
0.0
 11
98.17164476022117
 21
47.05296942708141
 31
0.0
  0
LINE
  5
250
  8
EL-LYB4242C-39N4
  6
CONTINUOUS
 62
     7
 10
98.21298590604407
 20
47.05296942708141
 30
0.0
 11
98.25570509006127
 21
47.05296942708141
 31
0.0
  0
LINE
  5
251
  8
EL-LYB4242C-39N4
  6
CONTINUOUS
 62
     7
 10
98.72148199966698
 20
47.47602715267011
 30
0.0
 11
98.76420118368408
 21
47.60401244994711
 31
0.0
  0
LINE
  5
252
  8
EL-LYB4242C-39N4
  6
CONTINUOUS
 62
     7
 10
98.76420118368408
 20
47.60401244994711
 30
0.0
 11
98.72148199966698
 21
47.56129326593
 31
0.0
  0
LINE
  5
253
  8
EL-LYB4242C-39N4
  6
CONTINUOUS
 62
     7
 10
98.80554232950696
 20
47.7723053644016
 30
0.0
 11
98.80554232950696
 21
47.98469550106721
 31
0.0
  0
LINE
  5
254
  8
EL-LYB4242C-39N4
  6
CONTINUOUS
 62
     7
 10
98.12892557620397
 20
46.92636216799851
 30
0.0
 11
98.04486524636387
 21
46.92636216799851
 31
0.0
  0
LINE
  5
255
  8
EL-LYB4242C-39N4
  6
CONTINUOUS
 62
     7
 10
98.12892557620397
 20
46.92636216799851
 30
0.0
 11
98.25570509006127
 21
46.88329847443281
 31
0.0
  0
LINE
  5
256
  8
EL-LYB4242C-39N4
  6
CONTINUOUS
 62
     7
 10
98.76420118368408
 20
47.47602715267011
 30
0.0
 11
98.76420118368408
 21
47.60401244994711
 31
0.0
  0
LINE
  5
257
  8
EL-LYB4242C-39N4
  6
CONTINUOUS
 62
     7
 10
98.67876281564996
 20
47.22229587018141
 30
0.0
 11
98.38248460391826
 21
46.92636216799851
 31
0.0
  0
LINE
  5
258
  8
EL-LYB4242C-39N4
  6
CONTINUOUS
 62
     7
 10
98.76420118368408
 20
47.47602715267011
 30
0.0
 11
98.67876281564996
 21
47.22229587018141
 31
0.0
  0
LINE
  5
259
  8
EL-LYB4242C-39N4
  6
CONTINUOUS
 62
     7
 10
98.80554232950696
 20
47.7723053644016
 30
0.0
 11
98.80554232950696
 21
47.94163180750161
 31
0.0
  0
LINE
  5
25A
  8
EL-LYB4242C-39N4
  6
CONTINUOUS
 62
     7
 10
98.04486524636387
 20
46.92636216799851
 30
0.0
 11
98.12892557620397
 21
46.88329847443281
 31
0.0
  0
LINE
  5
25B
  8
EL-LYB4242C-39N4
  6
CONTINUOUS
 62
     7
 10
98.12892557620397
 20
46.88329847443281
 30
0.0
 11
98.25570509006127
 21
46.88329847443281
 31
0.0
  0
LINE
  5
25C
  8
EL-LYB4242C-39N4
  6
CONTINUOUS
 62
     7
 10
98.08620639218698
 20
47.01025024306431
 30
0.0
 11
98.17164476022117
 21
47.01025024306431
 31
0.0
  0
LINE
  5
25D
  8
EL-LYB4242C-39N4
  6
CONTINUOUS
 62
     7
 10
98.04486524636387
 20
47.01025024306431
 30
0.0
 11
98.08620639218698
 21
47.01025024306431
 31
0.0
  0
LINE
  5
25E
  8
EL-LYB4242C-39N4
  6
CONTINUOUS
 62
     7
 10
98.21298590604407
 20
47.05296942708141
 30
0.0
 11
98.17164476022117
 21
47.05296942708141
 31
0.0
  0
LINE
  5
25F
  8
EL-LYB4242C-39N4
  6
CONTINUOUS
 62
     7
 10
98.55198330179267
 20
47.05296942708141
 30
0.0
 11
98.76420118368408
 21
47.47602715267011
 31
0.0
  0
LINE
  5
260
  8
EL-LYB4242C-39N4
  6
CONTINUOUS
 62
     7
 10
99.01776021139847
 20
47.85774373243581
 30
0.0
 11
99.01776021139847
 21
47.47602715267011
 31
0.0
  0
LINE
  5
261
  8
EL-LYB4242C-39N4
  6
CONTINUOUS
 62
     7
 10
98.72148199966698
 20
47.34924763881291
 30
0.0
 11
98.97504102738127
 21
47.43468600684712
 31
0.0
  0
LINE
  5
262
  8
EL-LYB4242C-39N4
  6
CONTINUOUS
 62
     7
 10
99.01776021139847
 20
47.43468600684712
 30
0.0
 11
99.01776021139847
 21
47.85774373243581
 31
0.0
  0
LINE
  5
263
  8
EL-LYB4242C-39N4
  6
CONTINUOUS
 62
     7
 10
99.01776021139847
 20
47.43468600684712
 30
0.0
 11
98.97504102738127
 21
47.43468600684712
 31
0.0
  0
LINE
  5
264
  8
EL-LYB4242C-39N4
  6
CONTINUOUS
 62
     7
 10
98.97504102738127
 20
47.43468600684712
 30
0.0
 11
98.97504102738127
 21
47.60401244994711
 31
0.0
  0
LINE
  5
265
  8
EL-LYB4242C-39N4
  6
CONTINUOUS
 62
     7
 10
98.80554232950696
 20
47.56129326593
 30
0.0
 11
98.84826151352418
 21
47.56129326593
 31
0.0
  0
LINE
  5
266
  8
EL-LYB4242C-39N4
  6
CONTINUOUS
 62
     7
 10
98.97504102738127
 20
47.68841728933572
 30
0.0
 11
98.97504102738127
 21
47.60401244994711
 31
0.0
  0
LINE
  5
267
  8
EL-LYB4242C-39N4
  6
CONTINUOUS
 62
     7
 10
98.97504102738127
 20
47.68841728933572
 30
0.0
 11
98.97504102738127
 21
47.85774373243581
 31
0.0
  0
LINE
  5
268
  8
EL-LYB4242C-39N4
  6
CONTINUOUS
 62
     7
 10
98.97504102738127
 20
47.85774373243581
 30
0.0
 11
98.80554232950696
 21
47.85774373243581
 31
0.0
  0
LINE
  5
269
  8
EL-LYB4242C-39N4
  6
CONTINUOUS
 62
     7
 10
98.97504102738127
 20
47.68841728933572
 30
0.0
 11
98.89098069754117
 21
47.73096421857851
 31
0.0
  0
LINE
  5
26A
  8
EL-LYB4242C-39N4
  6
CONTINUOUS
 62
     7
 10
98.89098069754117
 20
47.51874633668722
 30
0.0
 11
98.97504102738127
 21
47.60401244994711
 31
0.0
  0
LINE
  5
26B
  8
EL-LYB4242C-39N4
  6
CONTINUOUS
 62
     7
 10
98.80554232950696
 20
47.56129326593
 30
0.0
 11
98.89098069754117
 21
47.51874633668722
 31
0.0
  0
LINE
  5
26C
  8
EL-LYB4242C-39N4
  6
CONTINUOUS
 62
     7
 10
99.01776021139847
 20
47.43468600684712
 30
0.0
 11
99.01776021139847
 21
47.47602715267011
 31
0.0
  0
LINE
  5
26D
  8
EL-LYB4242C-39N4
  6
CONTINUOUS
 62
     7
 10
98.93369988155837
 20
47.73096421857851
 30
0.0
 11
98.89098069754117
 21
47.73096421857851
 31
0.0
  0
TEXT
  5
26E
  8
EL-LYB4242C-39N4
 62
     7
 10
25.47404573228627
 20
15.339468148855
 30
0.0
 40
4.5
  1
三菱　ＥＬ－ＬＹＢ４２４２Ｃ　ＡＨＮ（２５Ｎ５）
  7
_______
  0
TEXT
  5
26F
  8
EL-LYB4242C-39N4
 62
     7
 10
25.47404573228626
 20
99.33946314885492
 30
0.0
 40
4.5
  1
ＬＥＤランプ搭載　 埋込形器具
  7
_______
  0
VIEWPORT
  5
270
 67
     1
  8
0
 10
128.5
 20
97.5
 30
0.0
 40
314.226
 41
222.18
 68
     1
 69
     1
1001
ACAD
1000
MVIEW
1002
{
1070
    16
1010
0.0
1020
0.0
1030
0.0
1010
0.0
1020
0.0
1030
1.0
1040
0.0
1040
222.18
1040
128.5
1040
97.5
1040
50.0
1040
0.0
1040
0.0
1070
     0
1070
   100
1070
     0
1070
     3
1070
     0
1070
     0
1070
     0
1070
     0
1040
0.0
1040
0.0
1040
0.0
1040
10.0
1040
10.0
1040
10.0
1040
10.0
1070
     0
1002
{
1002
}
1002
}
  0
ENDSEC
  0
EOF
