  0
SECTION
  2
HEADER
  9
$ACADVER
  1
AC1009
  9
$INSBASE
 10
0
 20
0
 30
0
  9
$EXTMIN
 10
0
 20
0
  9
$EXTMAX
 10
2970
 20
2100
  9
$LIMMIN
 10
0
 20
0
  9
$LIMMAX
 10
2970
 20
2100
  9
$LTSCALE
 40
10
  0
ENDSEC
  0
SECTION
  2
TABLES
  0
TABLE
  2
LTYPE
 70
     9
  0
LTYPE
  2
CONTINUOUS
 70
    64
  3
実線
 72
    65
 73
     0
 40
0.0
  0
LTYPE
  2
DASHED1
 70
    64
  3
--  --  --  --  --  --  --  --  
 72
    65
 73
     2
 40
2.5
 49
1.25
 49
-1.25
  0
LTYPE
  2
DASHED2
 70
    64
  3
----    ----    ----    ----    
 72
    65
 73
     2
 40
5.0
 49
2.5
 49
-2.5
  0
LTYPE
  2
DASHED3
 70
    64
  3
------  ------  ------  ------  
 72
    65
 73
     2
 40
5.0
 49
3.75
 49
-1.25
  0
LTYPE
  2
CENTER1
 70
    64
  3
----- - ----- - ----- - ----- - 
 72
    65
 73
     4
 40
10.0
 49
6.25
 49
-1.25
 49
1.25
 49
-1.25
  0
LTYPE
  2
CENTER2
 70
    64
  3
----------  --  ----------  --  
 72
    65
 73
     4
 40
20.0
 49
12.5
 49
-2.5
 49
2.5
 49
-2.5
  0
LTYPE
  2
PHANTOM1
 70
    64
  3
--- - - --- - - --- - - --- - - 
 72
    65
 73
     6
 40
10.0
 49
3.25
 49
-1.25
 49
1.25
 49
-1.25
 49
1.25
 49
-1.25
  0
LTYPE
  2
PHANTOM2
 70
    64
  3
--------  -  -  --------  -  -  
 72
    65
 73
     6
 40
20.0
 49
10.0
 49
-2.5
 49
1.25
 49
-2.5
 49
1.25
 49
-2.5
  0
LTYPE
  2
DOT
 70
    64
  3
-   -   -   -   -   -   -   -   
 72
    65
 73
     2
 40
2.5
 49
0.625
 49
-1.875
  0
LTYPE
  2
DUMMY
 70
    64
  3
ダミー
 72
    65
 73
     0
 40
0.0
  0
LTYPE
  2
RAND1
 70
    64
  3
ランダム線1
 72
    65
 73
     4
 40
10.0
 49
1.0
 49
-2.0
 49
3.0
 49
-4.0
  0
LTYPE
  2
RAND2
 70
    64
  3
ランダム線2
 72
    65
 73
     4
 40
14.0
 49
2.0
 49
-3.0
 49
4.0
 49
-5.0
  0
LTYPE
  2
RAND3
 70
    64
  3
ランダム線3
 72
    65
 73
     4
 40
18.0
 49
3.0
 49
-4.0
 49
5.0
 49
-6.0
  0
LTYPE
  2
RAND4
 70
    64
  3
ランダム線4
 72
    65
 73
     4
 40
22.0
 49
4.0
 49
-5.0
 49
6.0
 49
-7.0
  0
LTYPE
  2
RAND5
 70
    64
  3
ランダム線5
 72
    65
 73
     4
 40
26.0
 49
5.0
 49
-6.0
 49
7.0
 49
-8.0
  0
LTYPE
  2
LONG1
 70
    64
  3
----------  --  ----------  --  
 72
    65
 73
     4
 40
40.0
 49
32.5
 49
-2.5
 49
2.5
 49
-2.5
  0
LTYPE
  2
LONG2
 70
    64
  3
--------  -  -  --------  -  -  
 72
    65
 73
     6
 40
40.0
 49
30.0
 49
-2.5
 49
1.25
 49
-2.5
 49
1.25
 49
-2.5
  0
LTYPE
  2
LONG3
 70
    64
  3
+++++++++++++++..+++++++++++++++
 72
    65
 73
     2
 40
40.0
 49
37.5
 49
-2.5
  0
LTYPE
  2
LONG4
 70
    64
  3
+++++++++++++++..+++++++++++++++
 72
    65
 73
     2
 40
80.0
 49
75.0
 49
-5.0
  0
LTYPE
  2
LONG5
 70
    64
  3
----------  --  ----------  --  
 72
    65
 73
     4
 40
60.0
 49
37.5
 49
-7.5
 49
7.5
 49
-7.5
  0
LTYPE
  2
dashed
 70
   64
  3
-------   -------------   ------
 72
   65
 73
    2
 40
7.5
 49
6
 49
-1.5
  0
LTYPE
  2
dashed_spaced
 70
   64
  3
----        --------        ----
 72
   65
 73
    2
 40
12
 49
6
 49
-6
  0
LTYPE
  2
long_dashed_dotted
 70
   64
  3
------------- --- --------------
 72
   65
 73
    4
 40
15.25
 49
12
 49
-1.5
 49
0.25
 49
-1.5
  0
LTYPE
  2
long_dashed_double-dotted
 70
   64
  3
----------- --- --- ------------
 72
   65
 73
    6
 40
17
 49
12
 49
-1.5
 49
0.25
 49
-1.5
 49
0.25
 49
-1.5
  0
LTYPE
  2
long_dashed_triplicate-dotted
 70
   64
  3
--------- --- --- --- ----------
 72
   65
 73
    8
 40
18.75
 49
12
 49
-1.5
 49
0.25
 49
-1.5
 49
0.25
 49
-1.5
 49
0.25
 49
-1.5
  0
LTYPE
  2
dotted
 70
   64
  3
   -       -       -       -    
 72
   65
 73
    2
 40
1.75
 49
0.25
 49
-1.5
  0
LTYPE
  2
chain
 70
   64
  3
-------------- -- --------------
 72
   65
 73
    4
 40
18.5
 49
12
 49
-1.5
 49
3.5
 49
-1.5
  0
LTYPE
  2
chain_double_dash
 70
   64
  3
------------ -- -- -------------
 72
   65
 73
    6
 40
23.5
 49
12
 49
-1.5
 49
3.5
 49
-1.5
 49
3.5
 49
-1.5
  0
LTYPE
  2
dashed_dotted
 70
   64
  3
-----------     -     ----------
 72
   65
 73
    4
 40
9.25
 49
6
 49
-1.5
 49
0.25
 49
-1.5
  0
LTYPE
  2
double-dashed_dotted
 70
   64
  3
------   -----------   -   -----
 72
   65
 73
    6
 40
16.75
 49
6
 49
-1.5
 49
6
 49
-1.5
 49
0.25
 49
-1.5
  0
LTYPE
  2
dashed_double-dotted
 70
   64
  3
---------    -    -    ---------
 72
   65
 73
    6
 40
11
 49
6
 49
-1.5
 49
0.25
 49
-1.5
 49
0.25
 49
-1.5
  0
LTYPE
  2
double-dashed_double-dotted
 70
   64
  3
-----   ---------   -   -   ----
 72
   65
 73
    8
 40
18.5
 49
6
 49
-1.5
 49
6
 49
-1.5
 49
0.25
 49
-1.5
 49
0.25
 49
-1.5
  0
LTYPE
  2
dashed_triplicate-dotted
 70
   64
  3
-------    -    -    -    ------
 72
   65
 73
    8
 40
12.75
 49
6
 49
-1.5
 49
0.25
 49
-1.5
 49
0.25
 49
-1.5
 49
0.25
 49
-1.5
  0
LTYPE
  2
double-dashed_triplicate-dotted
 70
   64
  3
-----  ---------  -  -  -  -----
 72
   65
 73
   10
 40
20.25
 49
6
 49
-1.5
 49
6
 49
-1.5
 49
0.25
 49
-1.5
 49
0.25
 49
-1.5
 49
0.25
 49
-1.5
  0
LTYPE
  2
undefined
 70
   64
  3
--------------------------------
 72
   65
 73
    0
 40
0
  0
LTYPE
  2
_
 70
   64
  3
                                
 72
   65
 73
    0
 40
0
  0
LTYPE
  2
__18
 70
   64
  3
                                
 72
   65
 73
    0
 40
0
  0
LTYPE
  2
__19
 70
   64
  3
                                
 72
   65
 73
    0
 40
0
  0
LTYPE
  2
__20
 70
   64
  3
                                
 72
   65
 73
    0
 40
0
  0
LTYPE
  2
__21
 70
   64
  3
                                
 72
   65
 73
    0
 40
0
  0
LTYPE
  2
__22
 70
   64
  3
                                
 72
   65
 73
    0
 40
0
  0
LTYPE
  2
__23
 70
   64
  3
                                
 72
   65
 73
    0
 40
0
  0
LTYPE
  2
__24
 70
   64
  3
                                
 72
   65
 73
    0
 40
0
  0
LTYPE
  2
__25
 70
   64
  3
                                
 72
   65
 73
    0
 40
0
  0
LTYPE
  2
__26
 70
   64
  3
                                
 72
   65
 73
    0
 40
0
  0
LTYPE
  2
__27
 70
   64
  3
                                
 72
   65
 73
    0
 40
0
  0
LTYPE
  2
__28
 70
   64
  3
                                
 72
   65
 73
    0
 40
0
  0
LTYPE
  2
__29
 70
   64
  3
                                
 72
   65
 73
    0
 40
0
  0
LTYPE
  2
__30
 70
   64
  3
                                
 72
   65
 73
    0
 40
0
  0
LTYPE
  2
__31
 70
   64
  3
                                
 72
   65
 73
    0
 40
0
  0
LTYPE
  2
__32
 70
   64
  3
                                
 72
   65
 73
    0
 40
0
  0
ENDTAB
  0
TABLE
  2
STYLE
  5
3
100
AcDbSymbolTable
 70
     1
  0
STYLE
  5
10
100
AcDbSymbolTableRecord
100
AcDbTextStyleTableRecord
  2
STANDARD
 70
     0
 40
0.0
 41
1.0
 50
0.0
 71
     0
 42
0.2
  3
txt
  4
bigfont.shx
  0
STYLE
  5
26
100
AcDbSymbolTableRecord
100
AcDbTextStyleTableRecord
  2
TATEGAKI
 70
    68
 40
0.0
 41
1.0
 50
0.0
 71
     0
 42
1.0
  3
txt
  4
bigfont.shx
  0
ENDTAB
  0
TABLE
  2
LAYER
 70
    7
  0
LAYER
  2
_0-0_0
 70
   64
 62
    7
  6
CONTINUOUS
  0
LAYER
  2
_0-2_02___PRT_ALL_AXES
 70
   64
 62
    7
  6
CONTINUOUS
  0
LAYER
  2
_0-3_7_ALL_FEATURES
 70
   64
 62
    7
  6
CONTINUOUS
  0
LAYER
  2
_0-4_EL-M10011N_______9
 70
   64
 62
    7
  6
CONTINUOUS
  0
LAYER
  2
_0-5_EL-M10011N_______8
 70
   64
 62
    7
  6
CONTINUOUS
  0
LAYER
  2
_0-6__V_K___I
 70
   64
 62
    7
  6
CONTINUOUS
  0
LAYER
  2
ADD_LINE
 70
   64
 62
    7
  6
CONTINUOUS
  0
ENDTAB
  0
ENDSEC
  0
SECTION
  2
BLOCKS
  0
BLOCK
  2
-000-SPECel-m10010nxaj004
 70
   64
 10
0
 20
0
 30
0
  0
TEXT
  8
_0-7_SPEC
 62
    7
 10
0
 20
0
 40
1.5
 41
1
 50
0
  1
ｴｸｽﾃﾘｱ 昼白色(5000K) Ra75
  0
TEXT
  8
_0-7_SPEC
 62
    7
 10
0
 20
-3
 40
1.5
 41
1
 50
0
  1
100V~242V共用ﾀｲﾌﾟ
  0
TEXT
  8
_0-7_SPEC
 62
    7
 10
0
 20
-6
 40
1.5
 41
1
 50
0
  1
本体:ｽﾃﾝﾚｽ 黒色塗装仕上
  0
TEXT
  8
_0-7_SPEC
 62
    7
 10
0
 20
-9
 40
1.5
 41
1
 50
0
  1
光源寿命:60,000時間(光束維持率90%)
  0
ENDBLK
  0
ENDSEC
  0
SECTION
  2
ENTITIES
  0
TEXT
  8
_0-0_0
 62
    7
 10
-92.721556321707226
 20
2064.96737895357
 40
114.3
 41
1
 50
0
  1
ＬＥＤ７０．８Ｗ×１　街路灯
  0
TEXT
  8
_0-0_0
 62
    7
 10
-65.733605138020152
 20
-68.632494046426871
 40
114.3
 41
1
 50
0
  1
三菱　EL-M10010N×1+EL-XAJ004/K+PL9045DMW
  0
LINE
  8
_0-2_02___PRT_ALL_AXES
  6
CONTINUOUS
 62
    7
 10
647.97523909499569
 20
535.88634392597487
 11
639.02754065977069
 21
1035.806276207848
  0
LINE
  8
_0-2_02___PRT_ALL_AXES
  6
CONTINUOUS
 62
    7
 10
802.81646936194693
 20
537.11377135045313
 11
793.86877092741588
 21
1037.0337036323381
  0
LINE
  8
_0-2_02___PRT_ALL_AXES
  6
CONTINUOUS
 62
    7
 10
627.22378346748565
 20
1090.310416508722
 11
627.63663856354196
 21
1089.5534694884559
  0
LINE
  8
_0-2_02___PRT_ALL_AXES
  6
CONTINUOUS
 62
    7
 10
627.63663856354196
 20
1089.5534694884559
 11
628.12157472803392
 21
1088.9361373654901
  0
LINE
  8
_0-2_02___PRT_ALL_AXES
  6
CONTINUOUS
 62
    7
 10
628.12157472803392
 20
1088.9361373654901
 11
628.67029169384386
 21
1088.4689738603979
  0
LINE
  8
_0-2_02___PRT_ALL_AXES
  6
CONTINUOUS
 62
    7
 10
628.67029169384386
 20
1088.4689738603979
 11
629.27339929763366
 21
1088.1599640412842
  0
LINE
  8
_0-2_02___PRT_ALL_AXES
  6
CONTINUOUS
 62
    7
 10
629.27339929763366
 20
1088.1599640412842
 11
629.92057802486261
 21
1088.0143881841
  0
LINE
  8
_0-2_02___PRT_ALL_AXES
  6
CONTINUOUS
 62
    7
 10
629.92057802486261
 20
1088.0143881841
 11
630.6007554005987
 21
1088.0347318048298
  0
LINE
  8
_0-2_02___PRT_ALL_AXES
  6
CONTINUOUS
 62
    7
 10
630.6007554005987
 20
1088.0347318048298
 11
631.30229520249577
 21
1088.2206433913502
  0
LINE
  8
_0-2_02___PRT_ALL_AXES
  6
CONTINUOUS
 62
    7
 10
631.30229520249577
 20
1088.2206433913502
 11
632.01319638013183
 21
1088.568940604584
  0
LINE
  8
_0-2_02___PRT_ALL_AXES
  6
CONTINUOUS
 62
    7
 10
627.22378346748565
 20
1090.3104165094842
 11
627.57845354961
 21
1089.5910110681862
  0
LINE
  8
_0-2_02___PRT_ALL_AXES
  6
CONTINUOUS
 62
    7
 10
627.57845354961
 20
1089.5910110681862
 11
627.99353000901601
 21
1088.8567624300058
  0
LINE
  8
_0-2_02___PRT_ALL_AXES
  6
CONTINUOUS
 62
    7
 10
627.99353000901601
 20
1088.8567624300058
 11
628.4684192583718
 21
1088.104616521804
  0
LINE
  8
_0-2_02___PRT_ALL_AXES
  6
CONTINUOUS
 62
    7
 10
628.4684192583718
 20
1088.104616521804
 11
629.00589124692578
 21
1087.326159715245
  0
LINE
  8
_0-2_02___PRT_ALL_AXES
  6
CONTINUOUS
 62
    7
 10
629.00589124692578
 20
1087.326159715245
 11
629.61431453756859
 21
1086.50684550196
  0
LINE
  8
_0-2_02___PRT_ALL_AXES
  6
CONTINUOUS
 62
    7
 10
638.86585972151261
 20
1101.3095141200838
 11
638.25745960252698
 21
1102.1287960344762
  0
LINE
  8
_0-2_02___PRT_ALL_AXES
  6
CONTINUOUS
 62
    7
 10
638.25745960252698
 20
1102.1287960344762
 11
637.71985969627076
 21
1102.9074433882779
  0
LINE
  8
_0-2_02___PRT_ALL_AXES
  6
CONTINUOUS
 62
    7
 10
637.71985969627076
 20
1102.9074433882779
 11
637.24496004028197
 21
1103.659623179572
  0
LINE
  8
_0-2_02___PRT_ALL_AXES
  6
CONTINUOUS
 62
    7
 10
637.24496004028197
 20
1103.659623179572
 11
636.82993402984675
 21
1104.393801782332
  0
LINE
  8
_0-2_02___PRT_ALL_AXES
  6
CONTINUOUS
 62
    7
 10
636.82993402984675
 20
1104.393801782332
 11
636.47532870400801
 21
1105.1130850018781
  0
LINE
  8
_0-2_02___PRT_ALL_AXES
  6
CONTINUOUS
 62
    7
 10
636.47532871010389
 20
1105.1130850209279
 11
636.06247353937079
 21
1105.8700321722581
  0
LINE
  8
_0-2_02___PRT_ALL_AXES
  6
CONTINUOUS
 62
    7
 10
636.06247353937079
 20
1105.8700321722581
 11
635.5775373543056
 21
1106.487364308939
  0
LINE
  8
_0-2_02___PRT_ALL_AXES
  6
CONTINUOUS
 62
    7
 10
635.5775373543056
 20
1106.487364308939
 11
635.02882036411074
 21
1106.9545278170799
  0
LINE
  8
_0-2_02___PRT_ALL_AXES
  6
CONTINUOUS
 62
    7
 10
635.02882036411074
 20
1106.9545278170799
 11
634.42571273365184
 21
1107.26353762705
  0
LINE
  8
_0-2_02___PRT_ALL_AXES
  6
CONTINUOUS
 62
    7
 10
634.42571273365184
 20
1107.26353762705
 11
633.77853397670378
 21
1107.409113462897
  0
LINE
  8
_0-2_02___PRT_ALL_AXES
  6
CONTINUOUS
 62
    7
 10
633.77853397670378
 20
1107.409113462897
 11
633.09835657201074
 21
1107.388769810163
  0
LINE
  8
_0-2_02___PRT_ALL_AXES
  6
CONTINUOUS
 62
    7
 10
633.09835657201074
 20
1107.388769810163
 11
632.39681674192161
 21
1107.2028581786858
  0
LINE
  8
_0-2_02___PRT_ALL_AXES
  6
CONTINUOUS
 62
    7
 10
632.39681674192161
 20
1107.2028581786858
 11
631.68591563896189
 21
1106.8545609601169
  0
LINE
  8
_0-2_02___PRT_ALL_AXES
  6
CONTINUOUS
 62
    7
 10
625.71325650759582
 20
1174.7055870505301
 11
626.12611160365077
 21
1173.948640030263
  0
LINE
  8
_0-2_02___PRT_ALL_AXES
  6
CONTINUOUS
 62
    7
 10
626.12611160365077
 20
1173.948640030263
 11
626.61104776814364
 21
1173.3313079072982
  0
LINE
  8
_0-2_02___PRT_ALL_AXES
  6
CONTINUOUS
 62
    7
 10
626.61104776814364
 20
1173.3313079072982
 11
627.15976473395267
 21
1172.864144402206
  0
LINE
  8
_0-2_02___PRT_ALL_AXES
  6
CONTINUOUS
 62
    7
 10
627.15976473395267
 20
1172.864144402206
 11
627.76287233774383
 21
1172.5551345830918
  0
LINE
  8
_0-2_02___PRT_ALL_AXES
  6
CONTINUOUS
 62
    7
 10
627.76287233774383
 20
1172.5551345830918
 11
628.41005106497278
 21
1172.409558725908
  0
LINE
  8
_0-2_02___PRT_ALL_AXES
  6
CONTINUOUS
 62
    7
 10
628.41005106497278
 20
1172.409558725908
 11
629.09022844147194
 21
1172.4299023458761
  0
LINE
  8
_0-2_02___PRT_ALL_AXES
  6
CONTINUOUS
 62
    7
 10
629.09022844147194
 20
1172.4299023458761
 11
629.79176824260503
 21
1172.6158139331578
  0
LINE
  8
_0-2_02___PRT_ALL_AXES
  6
CONTINUOUS
 62
    7
 10
629.79176824260503
 20
1172.6158139331578
 11
630.502669420242
 21
1172.964111146392
  0
LINE
  8
_0-2_02___PRT_ALL_AXES
  6
CONTINUOUS
 62
    7
 10
625.71325650759582
 20
1174.7055870512918
 11
626.06792658971881
 21
1173.9861816099942
  0
LINE
  8
_0-2_02___PRT_ALL_AXES
  6
CONTINUOUS
 62
    7
 10
626.06792658971881
 20
1173.9861816099942
 11
626.48300304912482
 21
1173.2519329718129
  0
LINE
  8
_0-2_02___PRT_ALL_AXES
  6
CONTINUOUS
 62
    7
 10
626.48300304912482
 20
1173.2519329718129
 11
626.9578922984806
 21
1172.4997870636121
  0
LINE
  8
_0-2_02___PRT_ALL_AXES
  6
CONTINUOUS
 62
    7
 10
626.9578922984806
 20
1172.4997870636121
 11
627.49536428703595
 21
1171.7213302562918
  0
LINE
  8
_0-2_02___PRT_ALL_AXES
  6
CONTINUOUS
 62
    7
 10
627.49536428703595
 20
1171.7213302562918
 11
628.10378757767967
 21
1170.9020160437681
  0
LINE
  8
_0-3_7_ALL_FEATURES
  6
CONTINUOUS
 62
    7
 10
641.57545342067988
 20
1107.1392330425379
 11
644.87748904316277
 21
1099.883042392642
  0
LINE
  8
_0-2_02___PRT_ALL_AXES
  6
CONTINUOUS
 62
    7
 10
636.47532870400801
 20
1105.1130850018781
 11
636.18185478930582
 21
1105.817969599726
  0
LINE
  8
_0-2_02___PRT_ALL_AXES
  6
CONTINUOUS
 62
    7
 10
636.18185478930582
 20
1105.817969599726
 11
635.94826731032981
 21
1106.5091535564461
  0
LINE
  8
_0-2_02___PRT_ALL_AXES
  6
CONTINUOUS
 62
    7
 10
635.94826731032981
 20
1106.5091535564461
 11
635.77071284222393
 21
1107.190746269458
  0
LINE
  8
_0-2_02___PRT_ALL_AXES
  6
CONTINUOUS
 62
    7
 10
635.77071284222393
 20
1107.190746269458
 11
635.64404750932181
 21
1107.871724664928
  0
LINE
  8
_0-2_02___PRT_ALL_AXES
  6
CONTINUOUS
 62
    7
 10
635.64404750932181
 20
1107.871724664928
 11
635.56382409979187
 21
1108.5657047699801
  0
LINE
  8
_0-2_02___PRT_ALL_AXES
  6
CONTINUOUS
 62
    7
 10
626.31227891508479
 20
1093.7630361518559
 11
626.39249815495077
 21
1093.0690838125602
  0
LINE
  8
_0-2_02___PRT_ALL_AXES
  6
CONTINUOUS
 62
    7
 10
626.39249815495077
 20
1093.0690838125602
 11
626.51919902296186
 21
1092.3879367704881
  0
LINE
  8
_0-2_02___PRT_ALL_AXES
  6
CONTINUOUS
 62
    7
 10
626.51919902296186
 20
1092.3879367704881
 11
626.69677514786872
 21
1091.7063074829998
  0
LINE
  8
_0-2_02___PRT_ALL_AXES
  6
CONTINUOUS
 62
    7
 10
626.69677514786872
 20
1091.7063074829998
 11
626.93035384784389
 21
1091.0151836518899
  0
LINE
  8
_0-2_02___PRT_ALL_AXES
  6
CONTINUOUS
 62
    7
 10
626.93035384784389
 20
1091.0151836518899
 11
627.22378346748565
 21
1090.3104165094842
  0
LINE
  8
_0-2_02___PRT_ALL_AXES
  6
CONTINUOUS
 62
    7
 10
638.95039910437799
 20
1034.2555027282478
 11
638.01501722711282
 21
1086.516544840701
  0
LINE
  8
_0-2_02___PRT_ALL_AXES
  6
CONTINUOUS
 62
    7
 10
637.62914698107579
 20
1108.0756338524861
 11
636.5044902672239
 21
1170.91171538251
  0
LINE
  8
_0-2_02___PRT_ALL_AXES
  6
CONTINUOUS
 62
    7
 10
636.11862002194675
 20
1192.470804393532
 11
631.39776430568963
 21
1456.231355436526
  0
LINE
  8
_0-2_02___PRT_ALL_AXES
  6
CONTINUOUS
 62
    7
 10
631.39776739255194
 20
1456.2313554913899
 11
631.39882361751597
 21
1456.693718391909
  0
LINE
  8
_0-2_02___PRT_ALL_AXES
  6
CONTINUOUS
 62
    7
 10
631.39882361751597
 20
1456.693718391909
 11
631.47490586108279
 21
1457.7821289161261
  0
LINE
  8
_0-2_02___PRT_ALL_AXES
  6
CONTINUOUS
 62
    7
 10
631.47490586108279
 20
1457.7821289161261
 11
631.65416932374001
 21
1458.8703188451518
  0
LINE
  8
_0-2_02___PRT_ALL_AXES
  6
CONTINUOUS
 62
    7
 10
631.65416932374001
 20
1458.8703188451518
 11
631.9363748129208
 21
1459.956836203989
  0
LINE
  8
_0-2_02___PRT_ALL_AXES
  6
CONTINUOUS
 62
    7
 10
631.9363748129208
 20
1459.956836203989
 11
632.32114578099481
 21
1461.040231248016
  0
LINE
  8
_0-2_02___PRT_ALL_AXES
  6
CONTINUOUS
 62
    7
 10
632.32114578099481
 20
1461.040231248016
 11
632.80796882665163
 21
1462.119058400745
  0
LINE
  8
_0-2_02___PRT_ALL_AXES
  6
CONTINUOUS
 62
    7
 10
632.80796882665163
 20
1462.119058400745
 11
633.39619438070395
 21
1463.191878178648
  0
LINE
  8
_0-2_02___PRT_ALL_AXES
  6
CONTINUOUS
 62
    7
 10
633.39619438070395
 20
1463.191878178648
 11
634.08503757248263
 21
1464.257259115192
  0
LINE
  8
_0-2_02___PRT_ALL_AXES
  6
CONTINUOUS
 62
    7
 10
634.08503757248263
 20
1464.257259115192
 11
634.87357927530502
 21
1465.3137796696601
  0
LINE
  8
_0-2_02___PRT_ALL_AXES
  6
CONTINUOUS
 62
    7
 10
634.87357927530502
 20
1465.3137796696601
 11
635.76076733557193
 21
1466.36003012224
  0
LINE
  8
_0-2_02___PRT_ALL_AXES
  6
CONTINUOUS
 62
    7
 10
635.76076733557193
 20
1466.36003012224
 11
636.74541797561278
 21
1467.394614458452
  0
LINE
  8
_0-2_02___PRT_ALL_AXES
  6
CONTINUOUS
 62
    7
 10
636.74541797561278
 20
1467.394614458452
 11
637.82621737255795
 21
1468.416152228428
  0
LINE
  8
_0-2_02___PRT_ALL_AXES
  6
CONTINUOUS
 62
    7
 10
637.82621737255795
 20
1468.416152228428
 11
639.00172341244661
 21
1469.4232803909522
  0
LINE
  8
_0-2_02___PRT_ALL_AXES
  6
CONTINUOUS
 62
    7
 10
639.00172341244661
 20
1469.4232803909522
 11
640.27036761353384
 21
1470.4146551323538
  0
LINE
  8
_0-2_02___PRT_ALL_AXES
  6
CONTINUOUS
 62
    7
 10
640.27036761353384
 20
1470.4146551323538
 11
641.63045722024663
 21
1471.3889536572101
  0
LINE
  8
_0-2_02___PRT_ALL_AXES
  6
CONTINUOUS
 62
    7
 10
641.63045722024663
 20
1471.3889536572101
 11
643.0801774602478
 21
1472.3448759569442
  0
LINE
  8
_0-2_02___PRT_ALL_AXES
  6
CONTINUOUS
 62
    7
 10
643.0801774602478
 20
1472.3448759569442
 11
644.617593966816
 21
1473.281146539568
  0
LINE
  8
_0-2_02___PRT_ALL_AXES
  6
CONTINUOUS
 62
    7
 10
644.617593966816
 20
1473.281146539568
 11
646.24065536051285
 21
1474.1965161380858
  0
LINE
  8
_0-2_02___PRT_ALL_AXES
  6
CONTINUOUS
 62
    7
 10
646.24065536051285
 20
1474.1965161380858
 11
647.94719598552592
 21
1475.0897633701302
  0
LINE
  8
_0-2_02___PRT_ALL_AXES
  6
CONTINUOUS
 62
    7
 10
647.94719598552592
 20
1475.0897633701302
 11
649.73493879839998
 21
1475.9596963739741
  0
LINE
  8
_0-2_02___PRT_ALL_AXES
  6
CONTINUOUS
 62
    7
 10
649.73493879839998
 20
1475.9596963739741
 11
651.60149840842769
 21
1476.805154395779
  0
LINE
  8
_0-2_02___PRT_ALL_AXES
  6
CONTINUOUS
 62
    7
 10
651.60149840842769
 20
1476.805154395779
 11
653.544384258234
 21
1477.62500933722
  0
LINE
  8
_0-2_02___PRT_ALL_AXES
  6
CONTINUOUS
 62
    7
 10
653.544384258234
 20
1477.62500933722
 11
655.56100395066596
 21
1478.4181672627119
  0
LINE
  8
_0-2_02___PRT_ALL_AXES
  6
CONTINUOUS
 62
    7
 10
655.56100395066596
 20
1478.4181672627119
 11
657.64866670217998
 21
1479.183569860174
  0
LINE
  8
_0-2_02___PRT_ALL_AXES
  6
CONTINUOUS
 62
    7
 10
657.64866670217998
 20
1479.183569860174
 11
659.80458693795572
 21
1479.9201958499621
  0
LINE
  8
_0-2_02___PRT_ALL_AXES
  6
CONTINUOUS
 62
    7
 10
659.80458693795572
 20
1479.9201958499621
 11
662.02588800664671
 21
1480.6270623496121
  0
LINE
  8
_0-2_02___PRT_ALL_AXES
  6
CONTINUOUS
 62
    7
 10
662.02588800664671
 20
1480.6270623496121
 11
664.30960601857669
 21
1481.3032261852418
  0
LINE
  8
_0-2_02___PRT_ALL_AXES
  6
CONTINUOUS
 62
    7
 10
664.30960601857669
 20
1481.3032261852418
 11
666.65269380127802
 21
1481.9477851488518
  0
LINE
  8
_0-2_02___PRT_ALL_AXES
  6
CONTINUOUS
 62
    7
 10
666.65269380127802
 20
1481.9477851488518
 11
669.05202496628272
 21
1482.559879203046
  0
LINE
  8
_0-2_02___PRT_ALL_AXES
  6
CONTINUOUS
 62
    7
 10
669.05202496628272
 20
1482.559879203046
 11
671.50439807651264
 21
1483.1386916286042
  0
LINE
  8
_0-2_02___PRT_ALL_AXES
  6
CONTINUOUS
 62
    7
 10
671.50439807651264
 20
1483.1386916286042
 11
674.0065409241347
 21
1483.6834501149042
  0
LINE
  8
_0-2_02___PRT_ALL_AXES
  6
CONTINUOUS
 62
    7
 10
674.0065409241347
 20
1483.6834501149042
 11
676.5551148907316
 21
1484.1934277886221
  0
LINE
  8
_0-2_02___PRT_ALL_AXES
  6
CONTINUOUS
 62
    7
 10
676.5551148907316
 20
1484.1934277886221
 11
679.14671940576
 21
1484.6679441852821
  0
LINE
  8
_0-2_02___PRT_ALL_AXES
  6
CONTINUOUS
 62
    7
 10
679.14671940576
 20
1484.6679441852821
 11
681.77789648350199
 21
1485.1063661560361
  0
LINE
  8
_0-2_02___PRT_ALL_AXES
  6
CONTINUOUS
 62
    7
 10
681.77789648350199
 20
1485.1063661560361
 11
684.44513533544978
 21
1485.5081087119602
  0
LINE
  8
_0-2_02___PRT_ALL_AXES
  6
CONTINUOUS
 62
    7
 10
684.44513533544978
 20
1485.5081087119602
 11
687.14487705584361
 21
1485.87263580739
  0
LINE
  8
_0-2_02___PRT_ALL_AXES
  6
CONTINUOUS
 62
    7
 10
687.14487705584361
 20
1485.87263580739
 11
689.87351937121684
 21
1486.1994610531542
  0
LINE
  8
_0-2_02___PRT_ALL_AXES
  6
CONTINUOUS
 62
    7
 10
689.87351937121684
 20
1486.1994610531542
 11
692.6274214448099
 21
1486.4881483650338
  0
LINE
  8
_0-2_02___PRT_ALL_AXES
  6
CONTINUOUS
 62
    7
 10
692.6274214448099
 20
1486.4881483650338
 11
695.40290873583581
 21
1486.7383125459341
  0
LINE
  8
_0-2_02___PRT_ALL_AXES
  6
CONTINUOUS
 62
    7
 10
695.40290873583581
 20
1486.7383125459341
 11
698.19627790295863
 21
1486.949619800992
  0
LINE
  8
_0-2_02___PRT_ALL_AXES
  6
CONTINUOUS
 62
    7
 10
698.19627790295863
 20
1486.949619800992
 11
701.00380174433985
 21
1487.12178818335
  0
LINE
  8
_0-2_02___PRT_ALL_AXES
  6
CONTINUOUS
 62
    7
 10
701.00380174433985
 20
1487.12178818335
 11
703.82173417196282
 21
1487.2545879667709
  0
LINE
  8
_0-2_02___PRT_ALL_AXES
  6
CONTINUOUS
 62
    7
 10
703.82173417196282
 20
1487.2545879667709
 11
706.64631520960802
 21
1487.3478419573021
  0
LINE
  8
_0-2_02___PRT_ALL_AXES
  6
CONTINUOUS
 62
    7
 10
706.64631520960802
 20
1487.3478419573021
 11
709.47377600908203
 21
1487.401425724911
  0
LINE
  8
_0-2_02___PRT_ALL_AXES
  6
CONTINUOUS
 62
    7
 10
709.47377600908203
 20
1487.401425724911
 11
712.30034388019203
 21
1487.4152677734278
  0
LINE
  8
_0-2_02___PRT_ALL_AXES
  6
CONTINUOUS
 62
    7
 10
712.30034388019203
 20
1487.4152677734278
 11
715.12224732451159
 21
1487.3893496327319
  0
LINE
  8
_0-2_02___PRT_ALL_AXES
  6
CONTINUOUS
 62
    7
 10
715.12224732451159
 20
1487.3893496327319
 11
717.93572106763077
 21
1487.323705885432
  0
LINE
  8
_0-2_02___PRT_ALL_AXES
  6
CONTINUOUS
 62
    7
 10
717.93572106763077
 20
1487.323705885432
 11
720.73701108149999
 21
1487.218424120379
  0
LINE
  8
_0-2_02___PRT_ALL_AXES
  6
CONTINUOUS
 62
    7
 10
720.73701108149999
 20
1487.218424120379
 11
723.52237959533386
 21
1487.073644816086
  0
LINE
  8
_0-2_02___PRT_ALL_AXES
  6
CONTINUOUS
 62
    7
 10
723.52237959533386
 20
1487.073644816086
 11
726.28811008443472
 21
1486.8895611509802
  0
LINE
  8
_0-2_02___PRT_ALL_AXES
  6
CONTINUOUS
 62
    7
 10
726.28811008443472
 20
1486.8895611509802
 11
729.03051222395379
 21
1486.6664187489041
  0
LINE
  8
_0-2_02___PRT_ALL_AXES
  6
CONTINUOUS
 62
    7
 10
729.03051222395379
 20
1486.6664187489041
 11
731.74592681902186
 21
1486.4045153499269
  0
LINE
  8
_0-2_02___PRT_ALL_AXES
  6
CONTINUOUS
 62
    7
 10
731.74592681902186
 20
1486.4045153499269
 11
734.43073068232161
 21
1486.104200411824
  0
LINE
  8
_0-2_02___PRT_ALL_AXES
  6
CONTINUOUS
 62
    7
 10
734.43073068232161
 20
1486.104200411824
 11
737.0813414720219
 21
1485.765874646007
  0
LINE
  8
_0-2_02___PRT_ALL_AXES
  6
CONTINUOUS
 62
    7
 10
737.0813414720219
 20
1485.765874646007
 11
739.69422246875274
 21
1485.3899894818528
  0
LINE
  8
_0-2_02___PRT_ALL_AXES
  6
CONTINUOUS
 62
    7
 10
739.69422246875274
 20
1485.3899894818528
 11
742.26588729696596
 21
1484.977046464714
  0
LINE
  8
_0-2_02___PRT_ALL_AXES
  6
CONTINUOUS
 62
    7
 10
742.26588729696596
 20
1484.977046464714
 11
744.7929045761698
 21
1484.5275965845958
  0
LINE
  8
_0-2_02___PRT_ALL_AXES
  6
CONTINUOUS
 62
    7
 10
744.7929045761698
 20
1484.5275965845958
 11
747.27190249903788
 21
1484.042239544644
  0
LINE
  8
_0-2_02___PRT_ALL_AXES
  6
CONTINUOUS
 62
    7
 10
747.27190249903788
 20
1484.042239544644
 11
749.69957333024877
 21
1483.5216229579901
  0
LINE
  8
_0-2_02___PRT_ALL_AXES
  6
CONTINUOUS
 62
    7
 10
749.69957333024877
 20
1483.5216229579901
 11
752.0726778207586
 21
1482.9664414859321
  0
LINE
  8
_0-2_02___PRT_ALL_AXES
  6
CONTINUOUS
 62
    7
 10
752.0726778207586
 20
1482.9664414859321
 11
754.38804952985902
 21
1482.377435907531
  0
LINE
  8
_0-2_02___PRT_ALL_AXES
  6
CONTINUOUS
 62
    7
 10
754.38804952985902
 20
1482.377435907531
 11
756.64259904970777
 21
1481.755392135874
  0
LINE
  8
_0-2_02___PRT_ALL_AXES
  6
CONTINUOUS
 62
    7
 10
756.64259904970777
 20
1481.755392135874
 11
758.83331812622282
 21
1481.101140165742
  0
LINE
  8
_0-2_02___PRT_ALL_AXES
  6
CONTINUOUS
 62
    7
 10
758.83331812622282
 20
1481.101140165742
 11
760.95728367711581
 21
1480.415552967957
  0
LINE
  8
_0-2_02___PRT_ALL_AXES
  6
CONTINUOUS
 62
    7
 10
760.95728367711581
 20
1480.415552967957
 11
763.011661687985
 21
1479.6995453235222
  0
LINE
  8
_0-2_02___PRT_ALL_AXES
  6
CONTINUOUS
 62
    7
 10
763.011661687985
 20
1479.6995453235222
 11
764.99371099565997
 21
1478.9540726028881
  0
LINE
  8
_0-2_02___PRT_ALL_AXES
  6
CONTINUOUS
 62
    7
 10
764.99371099565997
 20
1478.9540726028881
 11
766.90078694426302
 21
1478.1801294941861
  0
LINE
  8
_0-2_02___PRT_ALL_AXES
  6
CONTINUOUS
 62
    7
 10
766.90078694426302
 20
1478.1801294941861
 11
768.73034491785484
 21
1477.3787486712449
  0
LINE
  8
_0-2_02___PRT_ALL_AXES
  6
CONTINUOUS
 62
    7
 10
768.73034491785484
 20
1477.3787486712449
 11
770.47994372980202
 21
1476.5509994197118
  0
LINE
  8
_0-2_02___PRT_ALL_AXES
  6
CONTINUOUS
 62
    7
 10
770.47994372980202
 20
1476.5509994197118
 11
772.14724888489673
 21
1475.69798620753
  0
LINE
  8
_0-2_02___PRT_ALL_AXES
  6
CONTINUOUS
 62
    7
 10
772.14724888489673
 20
1475.69798620753
 11
773.73003569290086
 21
1474.8208472135261
  0
LINE
  8
_0-2_02___PRT_ALL_AXES
  6
CONTINUOUS
 62
    7
 10
773.73003569290086
 20
1474.8208472135261
 11
775.22619223652282
 21
1473.9207528072161
  0
LINE
  8
_0-2_02___PRT_ALL_AXES
  6
CONTINUOUS
 62
    7
 10
775.22619223652282
 20
1473.9207528072161
 11
776.63372218777795
 21
1472.998903986705
  0
LINE
  8
_0-2_02___PRT_ALL_AXES
  6
CONTINUOUS
 62
    7
 10
776.63372218777795
 20
1472.998903986705
 11
777.95074747650597
 21
1472.0565307784918
  0
LINE
  8
_0-2_02___PRT_ALL_AXES
  6
CONTINUOUS
 62
    7
 10
631.47832882985404
 20
1451.730279729526
 11
631.47938505557977
 21
1452.192642629283
  0
LINE
  8
_0-2_02___PRT_ALL_AXES
  6
CONTINUOUS
 62
    7
 10
631.47938505557977
 20
1452.192642629283
 11
631.55546729914795
 21
1453.2810531535001
  0
LINE
  8
_0-2_02___PRT_ALL_AXES
  6
CONTINUOUS
 62
    7
 10
631.55546729914795
 20
1453.2810531535001
 11
631.73473076104165
 21
1454.369243083288
  0
LINE
  8
_0-2_02___PRT_ALL_AXES
  6
CONTINUOUS
 62
    7
 10
631.73473076104165
 20
1454.369243083288
 11
632.01693625022381
 21
1455.455760441364
  0
LINE
  8
_0-2_02___PRT_ALL_AXES
  6
CONTINUOUS
 62
    7
 10
632.01693625022381
 20
1455.455760441364
 11
632.40170721829691
 21
1456.5391554861521
  0
LINE
  8
_0-2_02___PRT_ALL_AXES
  6
CONTINUOUS
 62
    7
 10
632.40170721829691
 20
1456.5391554861521
 11
632.88853026471588
 21
1457.617982638119
  0
LINE
  8
_0-2_02___PRT_ALL_AXES
  6
CONTINUOUS
 62
    7
 10
632.88853026471588
 20
1457.617982638119
 11
633.47675581876774
 21
1458.6908024167842
  0
LINE
  8
_0-2_02___PRT_ALL_AXES
  6
CONTINUOUS
 62
    7
 10
633.47675581876774
 20
1458.6908024167842
 11
634.16559901054779
 21
1459.7561833533282
  0
LINE
  8
_0-2_02___PRT_ALL_AXES
  6
CONTINUOUS
 62
    7
 10
634.16559901054779
 20
1459.7561833533282
 11
634.95414071336882
 21
1460.8127039077949
  0
LINE
  8
_0-2_02___PRT_ALL_AXES
  6
CONTINUOUS
 62
    7
 10
634.95414071336882
 20
1460.8127039077949
 11
635.84132877363572
 21
1461.8589543603762
  0
LINE
  8
_0-2_02___PRT_ALL_AXES
  6
CONTINUOUS
 62
    7
 10
635.84132877363572
 20
1461.8589543603762
 11
636.82597941291579
 21
1462.8935386965882
  0
LINE
  8
_0-2_02___PRT_ALL_AXES
  6
CONTINUOUS
 62
    7
 10
636.82597941291579
 20
1462.8935386965882
 11
637.90677880985868
 21
1463.9150764665642
  0
LINE
  8
_0-2_02___PRT_ALL_AXES
  6
CONTINUOUS
 62
    7
 10
637.90677880985868
 20
1463.9150764665642
 11
639.0822848497487
 21
1464.922204629087
  0
LINE
  8
_0-2_02___PRT_ALL_AXES
  6
CONTINUOUS
 62
    7
 10
639.0822848497487
 20
1464.922204629087
 11
640.35092905159763
 21
1465.91357937049
  0
LINE
  8
_0-2_02___PRT_ALL_AXES
  6
CONTINUOUS
 62
    7
 10
640.35092905159763
 20
1465.91357937049
 11
641.71101865831179
 21
1466.8878778953458
  0
LINE
  8
_0-2_02___PRT_ALL_AXES
  6
CONTINUOUS
 62
    7
 10
641.71101865831179
 20
1466.8878778953458
 11
643.16073889831068
 21
1467.8438001943182
  0
LINE
  8
_0-2_02___PRT_ALL_AXES
  6
CONTINUOUS
 62
    7
 10
643.16073889831068
 20
1467.8438001943182
 11
644.6981554048798
 21
1468.7800707777042
  0
LINE
  8
_0-2_02___PRT_ALL_AXES
  6
CONTINUOUS
 62
    7
 10
644.6981554048798
 20
1468.7800707777042
 11
646.32121679857801
 21
1469.6954403754598
  0
LINE
  8
_0-2_02___PRT_ALL_AXES
  6
CONTINUOUS
 62
    7
 10
646.32121679857801
 20
1469.6954403754598
 11
648.02775742282665
 21
1470.588687608265
  0
LINE
  8
_0-2_02___PRT_ALL_AXES
  6
CONTINUOUS
 62
    7
 10
648.02775742282665
 20
1470.588687608265
 11
649.81550023570162
 21
1471.4586206121089
  0
LINE
  8
_0-2_02___PRT_ALL_AXES
  6
CONTINUOUS
 62
    7
 10
649.81550023570162
 20
1471.4586206121089
 11
651.68205984572978
 21
1472.304078633153
  0
LINE
  8
_0-2_02___PRT_ALL_AXES
  6
CONTINUOUS
 62
    7
 10
651.68205984572978
 20
1472.304078633153
 11
653.6249456962978
 21
1473.123933574594
  0
LINE
  8
_0-2_02___PRT_ALL_AXES
  6
CONTINUOUS
 62
    7
 10
653.6249456962978
 20
1473.123933574594
 11
655.64156538872885
 21
1473.9170915008481
  0
LINE
  8
_0-2_02___PRT_ALL_AXES
  6
CONTINUOUS
 62
    7
 10
655.64156538872885
 20
1473.9170915008481
 11
657.72922814024378
 21
1474.6824940983101
  0
LINE
  8
_0-2_02___PRT_ALL_AXES
  6
CONTINUOUS
 62
    7
 10
657.72922814024378
 20
1474.6824940983101
 11
659.88514837601861
 21
1475.4191200880982
  0
LINE
  8
_0-2_02___PRT_ALL_AXES
  6
CONTINUOUS
 62
    7
 10
659.88514837601861
 20
1475.4191200880982
 11
662.1064494439488
 21
1476.1259865877469
  0
LINE
  8
_0-2_02___PRT_ALL_AXES
  6
CONTINUOUS
 62
    7
 10
662.1064494439488
 20
1476.1259865877469
 11
664.39016745587878
 21
1476.8021504226158
  0
LINE
  8
_0-2_02___PRT_ALL_AXES
  6
CONTINUOUS
 62
    7
 10
664.39016745587878
 20
1476.8021504226158
 11
666.73325523934182
 21
1477.4467093862258
  0
LINE
  8
_0-2_02___PRT_ALL_AXES
  6
CONTINUOUS
 62
    7
 10
666.73325523934182
 20
1477.4467093862258
 11
669.13258640358481
 21
1478.05880344042
  0
LINE
  8
_0-2_02___PRT_ALL_AXES
  6
CONTINUOUS
 62
    7
 10
669.13258640358481
 20
1478.05880344042
 11
671.5849595145778
 21
1478.6376158667399
  0
LINE
  8
_0-2_02___PRT_ALL_AXES
  6
CONTINUOUS
 62
    7
 10
671.5849595145778
 20
1478.6376158667399
 11
674.08710236143679
 21
1479.182374353039
  0
LINE
  8
_0-2_02___PRT_ALL_AXES
  6
CONTINUOUS
 62
    7
 10
674.08710236143679
 20
1479.182374353039
 11
676.6356763280337
 21
1479.6923520267569
  0
LINE
  8
_0-2_02___PRT_ALL_AXES
  6
CONTINUOUS
 62
    7
 10
676.6356763280337
 20
1479.6923520267569
 11
679.22728084382379
 21
1480.1668684234169
  0
LINE
  8
_0-2_02___PRT_ALL_AXES
  6
CONTINUOUS
 62
    7
 10
679.22728084382379
 20
1480.1668684234169
 11
681.85845792156579
 21
1480.6052903934101
  0
LINE
  8
_0-2_02___PRT_ALL_AXES
  6
CONTINUOUS
 62
    7
 10
681.85845792156579
 20
1480.6052903934101
 11
684.52569677351266
 21
1481.0070329493342
  0
LINE
  8
_0-2_02___PRT_ALL_AXES
  6
CONTINUOUS
 62
    7
 10
684.52569677351266
 20
1481.0070329493342
 11
687.22543849390786
 21
1481.3715600455262
  0
LINE
  8
_0-2_02___PRT_ALL_AXES
  6
CONTINUOUS
 62
    7
 10
687.22543849390786
 20
1481.3715600455262
 11
689.954080809282
 21
1481.6983852912899
  0
LINE
  8
_0-2_02___PRT_ALL_AXES
  6
CONTINUOUS
 62
    7
 10
689.954080809282
 20
1481.6983852912899
 11
692.70798288211199
 21
1481.9870726024078
  0
LINE
  8
_0-2_02___PRT_ALL_AXES
  6
CONTINUOUS
 62
    7
 10
692.70798288211199
 20
1481.9870726024078
 11
695.4834701738987
 21
1482.2372367833082
  0
LINE
  8
_0-2_02___PRT_ALL_AXES
  6
CONTINUOUS
 62
    7
 10
695.4834701738987
 20
1482.2372367833082
 11
698.27683934026072
 21
1482.4485440391281
  0
LINE
  8
_0-2_02___PRT_ALL_AXES
  6
CONTINUOUS
 62
    7
 10
698.27683934026072
 20
1482.4485440391281
 11
701.08436318240274
 21
1482.620712420724
  0
LINE
  8
_0-2_02___PRT_ALL_AXES
  6
CONTINUOUS
 62
    7
 10
701.08436318240274
 20
1482.620712420724
 11
703.90229561002661
 21
1482.753512204908
  0
LINE
  8
_0-2_02___PRT_ALL_AXES
  6
CONTINUOUS
 62
    7
 10
703.90229561002661
 20
1482.753512204908
 11
706.72687664690966
 21
1482.8467661946761
  0
LINE
  8
_0-2_02___PRT_ALL_AXES
  6
CONTINUOUS
 62
    7
 10
706.72687664690966
 20
1482.8467661946761
 11
709.55433744638276
 21
1482.900349963048
  0
LINE
  8
_0-2_02___PRT_ALL_AXES
  6
CONTINUOUS
 62
    7
 10
709.55433744638276
 20
1482.900349963048
 11
712.38090531825583
 21
1482.9141920108009
  0
LINE
  8
_0-2_02___PRT_ALL_AXES
  6
CONTINUOUS
 62
    7
 10
712.38090531825583
 20
1482.9141920108009
 11
715.20280876257584
 21
1482.8882738701059
  0
LINE
  8
_0-2_02___PRT_ALL_AXES
  6
CONTINUOUS
 62
    7
 10
715.20280876257584
 20
1482.8882738701059
 11
718.01628250493377
 21
1482.8226301235682
  0
LINE
  8
_0-2_02___PRT_ALL_AXES
  6
CONTINUOUS
 62
    7
 10
718.01628250493377
 20
1482.8226301235682
 11
720.81757251880072
 21
1482.7173483585161
  0
LINE
  8
_0-2_02___PRT_ALL_AXES
  6
CONTINUOUS
 62
    7
 10
720.81757251880072
 20
1482.7173483585161
 11
723.60294103339766
 21
1482.5725690542222
  0
LINE
  8
_0-2_02___PRT_ALL_AXES
  6
CONTINUOUS
 62
    7
 10
723.60294103339766
 20
1482.5725690542222
 11
726.36867152249988
 21
1482.3884853891159
  0
LINE
  8
_0-2_02___PRT_ALL_AXES
  6
CONTINUOUS
 62
    7
 10
726.36867152249988
 20
1482.3884853891159
 11
729.11107366201759
 21
1482.1653429870389
  0
LINE
  8
_0-2_02___PRT_ALL_AXES
  6
CONTINUOUS
 62
    7
 10
729.11107366201759
 20
1482.1653429870389
 11
731.82648825708566
 21
1481.9034395873009
  0
LINE
  8
_0-2_02___PRT_ALL_AXES
  6
CONTINUOUS
 62
    7
 10
731.82648825708566
 20
1481.9034395873009
 11
734.51129212038586
 21
1481.603124649198
  0
LINE
  8
_0-2_02___PRT_ALL_AXES
  6
CONTINUOUS
 62
    7
 10
734.51129212038586
 20
1481.603124649198
 11
737.16190291008479
 21
1481.2647988841441
  0
LINE
  8
_0-2_02___PRT_ALL_AXES
  6
CONTINUOUS
 62
    7
 10
737.16190291008479
 20
1481.2647988841441
 11
739.77478390605575
 21
1480.888913719989
  0
LINE
  8
_0-2_02___PRT_ALL_AXES
  6
CONTINUOUS
 62
    7
 10
739.77478390605575
 20
1480.888913719989
 11
742.34644873502884
 21
1480.475970702088
  0
LINE
  8
_0-2_02___PRT_ALL_AXES
  6
CONTINUOUS
 62
    7
 10
742.34644873502884
 20
1480.475970702088
 11
744.8734660142336
 21
1480.0265208219698
  0
LINE
  8
_0-2_02___PRT_ALL_AXES
  6
CONTINUOUS
 62
    7
 10
744.8734660142336
 20
1480.0265208219698
 11
747.35246393710167
 21
1479.541163782018
  0
LINE
  8
_0-2_02___PRT_ALL_AXES
  6
CONTINUOUS
 62
    7
 10
747.35246393710167
 20
1479.541163782018
 11
749.78013476831393
 21
1479.0205471961258
  0
LINE
  8
_0-2_02___PRT_ALL_AXES
  6
CONTINUOUS
 62
    7
 10
749.78013476831393
 20
1479.0205471961258
 11
752.15323925882285
 21
1478.4653657233061
  0
LINE
  8
_0-2_02___PRT_ALL_AXES
  6
CONTINUOUS
 62
    7
 10
752.15323925882285
 20
1478.4653657233061
 11
754.46861096792281
 21
1477.8763601456681
  0
LINE
  8
_0-2_02___PRT_ALL_AXES
  6
CONTINUOUS
 62
    7
 10
754.46861096792281
 20
1477.8763601456681
 11
756.72316048700986
 21
1477.2543163740102
  0
LINE
  8
_0-2_02___PRT_ALL_AXES
  6
CONTINUOUS
 62
    7
 10
756.72316048700986
 20
1477.2543163740102
 11
758.91387956428662
 21
1476.6000644038782
  0
LINE
  8
_0-2_02___PRT_ALL_AXES
  6
CONTINUOUS
 62
    7
 10
758.91387956428662
 20
1476.6000644038782
 11
761.0378451151787
 21
1475.914477206094
  0
LINE
  8
_0-2_02___PRT_ALL_AXES
  6
CONTINUOUS
 62
    7
 10
761.0378451151787
 20
1475.914477206094
 11
763.09222312604879
 21
1475.1984695608949
  0
LINE
  8
_0-2_02___PRT_ALL_AXES
  6
CONTINUOUS
 62
    7
 10
763.09222312604879
 20
1475.1984695608949
 11
765.07427243372285
 21
1474.4529968410229
  0
LINE
  8
_0-2_02___PRT_ALL_AXES
  6
CONTINUOUS
 62
    7
 10
765.07427243372285
 20
1474.4529968410229
 11
766.98134838232681
 21
1473.6790537315601
  0
LINE
  8
_0-2_02___PRT_ALL_AXES
  6
CONTINUOUS
 62
    7
 10
766.98134838232681
 20
1473.6790537315601
 11
768.81090635515784
 21
1472.877672909382
  0
LINE
  8
_0-2_02___PRT_ALL_AXES
  6
CONTINUOUS
 62
    7
 10
768.81090635515784
 20
1472.877672909382
 11
770.56050516710275
 21
1472.049923657848
  0
LINE
  8
_0-2_02___PRT_ALL_AXES
  6
CONTINUOUS
 62
    7
 10
770.56050516710275
 20
1472.049923657848
 11
772.22781032296189
 21
1471.1969104456662
  0
LINE
  8
_0-2_02___PRT_ALL_AXES
  6
CONTINUOUS
 62
    7
 10
772.22781032296189
 20
1471.1969104456662
 11
773.81059713096465
 21
1470.3197714516618
  0
LINE
  8
_0-2_02___PRT_ALL_AXES
  6
CONTINUOUS
 62
    7
 10
773.81059713096465
 20
1470.3197714516618
 11
775.30675367382582
 21
1469.4196770445901
  0
LINE
  8
_0-2_02___PRT_ALL_AXES
  6
CONTINUOUS
 62
    7
 10
775.30675367382582
 20
1469.4196770445901
 11
776.71428362584174
 21
1468.4978282248421
  0
LINE
  8
_0-2_02___PRT_ALL_AXES
  6
CONTINUOUS
 62
    7
 10
776.71428362584174
 20
1468.4978282248421
 11
778.03130891456885
 21
1467.555455016628
  0
LINE
  8
_0-2_02___PRT_ALL_AXES
  6
CONTINUOUS
 62
    7
 10
638.95040219123894
 20
1034.2555027831122
 11
638.95145841620388
 21
1034.7178656836322
  0
LINE
  8
_0-2_02___PRT_ALL_AXES
  6
CONTINUOUS
 62
    7
 10
638.95145841620388
 20
1034.7178656836322
 11
639.02754065977069
 21
1035.806276207848
  0
LINE
  8
_0-2_02___PRT_ALL_AXES
  6
CONTINUOUS
 62
    7
 10
639.02754065977069
 20
1035.806276207848
 11
639.20680412242791
 21
1036.8944661368741
  0
LINE
  8
_0-2_02___PRT_ALL_AXES
  6
CONTINUOUS
 62
    7
 10
639.20680412242791
 20
1036.8944661368741
 11
639.48900961160962
 21
1037.9809834957118
  0
LINE
  8
_0-2_02___PRT_ALL_AXES
  6
CONTINUOUS
 62
    7
 10
639.48900961160962
 20
1037.9809834957118
 11
639.87378057968363
 21
1039.0643785397378
  0
LINE
  8
_0-2_02___PRT_ALL_AXES
  6
CONTINUOUS
 62
    7
 10
639.87378057968363
 20
1039.0643785397378
 11
640.36060362533999
 21
1040.1432056924682
  0
LINE
  8
_0-2_02___PRT_ALL_AXES
  6
CONTINUOUS
 62
    7
 10
640.36060362533999
 20
1040.1432056924682
 11
640.94882918015401
 21
1041.216025470369
  0
LINE
  8
_0-2_02___PRT_ALL_AXES
  6
CONTINUOUS
 62
    7
 10
640.94882918015401
 20
1041.216025470369
 11
641.6376723711719
 21
1042.2814064069139
  0
LINE
  8
_0-2_02___PRT_ALL_AXES
  6
CONTINUOUS
 62
    7
 10
641.6376723711719
 20
1042.2814064069139
 11
642.42621407399383
 21
1043.337926961382
  0
LINE
  8
_0-2_02___PRT_ALL_AXES
  6
CONTINUOUS
 62
    7
 10
642.42621407399383
 20
1043.337926961382
 11
643.31340213425983
 21
1044.3841774139619
  0
LINE
  8
_0-2_02___PRT_ALL_AXES
  6
CONTINUOUS
 62
    7
 10
643.31340213425983
 20
1044.3841774139619
 11
644.2980527743016
 21
1045.418761750173
  0
LINE
  8
_0-2_02___PRT_ALL_AXES
  6
CONTINUOUS
 62
    7
 10
644.2980527743016
 20
1045.418761750173
 11
645.37885217124585
 21
1046.440299520149
  0
LINE
  8
_0-2_02___PRT_ALL_AXES
  6
CONTINUOUS
 62
    7
 10
645.37885217124585
 20
1046.440299520149
 11
646.55435821113588
 21
1047.4474276826741
  0
LINE
  8
_0-2_02___PRT_ALL_AXES
  6
CONTINUOUS
 62
    7
 10
646.55435821113588
 20
1047.4474276826741
 11
647.82300241222083
 21
1048.4388024240761
  0
LINE
  8
_0-2_02___PRT_ALL_AXES
  6
CONTINUOUS
 62
    7
 10
647.82300241222083
 20
1048.4388024240761
 11
649.18309201893589
 21
1049.413100948932
  0
LINE
  8
_0-2_02___PRT_ALL_AXES
  6
CONTINUOUS
 62
    7
 10
649.18309201893589
 20
1049.413100948932
 11
650.6328122589357
 21
1050.3690232486661
  0
LINE
  8
_0-2_02___PRT_ALL_AXES
  6
CONTINUOUS
 62
    7
 10
650.6328122589357
 20
1050.3690232486661
 11
652.17022876550391
 21
1051.3052938312899
  0
LINE
  8
_0-2_02___PRT_ALL_AXES
  6
CONTINUOUS
 62
    7
 10
652.17022876550391
 20
1051.3052938312899
 11
653.79329015920166
 21
1052.2206634298082
  0
LINE
  8
_0-2_02___PRT_ALL_AXES
  6
CONTINUOUS
 62
    7
 10
653.79329015920166
 20
1052.2206634298082
 11
655.49983078421383
 21
1053.1139106618521
  0
LINE
  8
_0-2_02___PRT_ALL_AXES
  6
CONTINUOUS
 62
    7
 10
655.49983078421383
 20
1053.1139106618521
 11
657.28757359708788
 21
1053.983843665696
  0
LINE
  8
_0-2_02___PRT_ALL_AXES
  6
CONTINUOUS
 62
    7
 10
657.28757359708788
 20
1053.983843665696
 11
659.15413320711559
 21
1054.8293016875018
  0
LINE
  8
_0-2_02___PRT_ALL_AXES
  6
CONTINUOUS
 62
    7
 10
659.15413320711559
 20
1054.8293016875018
 11
661.09701905768361
 21
1055.6491566289419
  0
LINE
  8
_0-2_02___PRT_ALL_AXES
  6
CONTINUOUS
 62
    7
 10
661.09701905768361
 20
1055.6491566289419
 11
663.11363874935387
 21
1056.4423145544338
  0
LINE
  8
_0-2_02___PRT_ALL_AXES
  6
CONTINUOUS
 62
    7
 10
663.11363874935387
 20
1056.4423145544338
 11
665.20130150086698
 21
1057.2077171518949
  0
LINE
  8
_0-2_02___PRT_ALL_AXES
  6
CONTINUOUS
 62
    7
 10
665.20130150086698
 20
1057.2077171518949
 11
667.35722173664271
 21
1057.944343141683
  0
LINE
  8
_0-2_02___PRT_ALL_AXES
  6
CONTINUOUS
 62
    7
 10
667.35722173664271
 20
1057.944343141683
 11
669.57852280533598
 21
1058.651209641333
  0
LINE
  8
_0-2_02___PRT_ALL_AXES
  6
CONTINUOUS
 62
    7
 10
669.57852280533598
 20
1058.651209641333
 11
671.86224081726596
 21
1059.3273734769641
  0
LINE
  8
_0-2_02___PRT_ALL_AXES
  6
CONTINUOUS
 62
    7
 10
671.86224081726596
 20
1059.3273734769641
 11
674.20532859996592
 21
1059.9719324405742
  0
LINE
  8
_0-2_02___PRT_ALL_AXES
  6
CONTINUOUS
 62
    7
 10
674.20532859996592
 20
1059.9719324405742
 11
676.60465976497198
 21
1060.5840264947669
  0
LINE
  8
_0-2_02___PRT_ALL_AXES
  6
CONTINUOUS
 62
    7
 10
676.60465976497198
 20
1060.5840264947669
 11
679.057032875201
 21
1061.1628389203261
  0
LINE
  8
_0-2_02___PRT_ALL_AXES
  6
CONTINUOUS
 62
    7
 10
679.057032875201
 20
1061.1628389203261
 11
681.55917572282397
 21
1061.7075974066261
  0
LINE
  8
_0-2_02___PRT_ALL_AXES
  6
CONTINUOUS
 62
    7
 10
681.55917572282397
 20
1061.7075974066261
 11
684.10774968941996
 21
1062.2175750811061
  0
LINE
  8
_0-2_02___PRT_ALL_AXES
  6
CONTINUOUS
 62
    7
 10
684.10774968941996
 20
1062.2175750811061
 11
686.6993542044479
 21
1062.692091477003
  0
LINE
  8
_0-2_02___PRT_ALL_AXES
  6
CONTINUOUS
 62
    7
 10
686.6993542044479
 20
1062.692091477003
 11
689.3305312821899
 21
1063.130513447757
  0
LINE
  8
_0-2_02___PRT_ALL_AXES
  6
CONTINUOUS
 62
    7
 10
689.3305312821899
 20
1063.130513447757
 11
691.99777013413677
 21
1063.5322560036821
  0
LINE
  8
_0-2_02___PRT_ALL_AXES
  6
CONTINUOUS
 62
    7
 10
691.99777013413677
 20
1063.5322560036821
 11
694.6975118545306
 21
1063.8967830991119
  0
LINE
  8
_0-2_02___PRT_ALL_AXES
  6
CONTINUOUS
 62
    7
 10
694.6975118545306
 20
1063.8967830991119
 11
697.42615416990475
 21
1064.2236083448761
  0
LINE
  8
_0-2_02___PRT_ALL_AXES
  6
CONTINUOUS
 62
    7
 10
697.42615416990475
 20
1064.2236083448761
 11
700.1800562434978
 21
1064.5122956567561
  0
LINE
  8
_0-2_02___PRT_ALL_AXES
  6
CONTINUOUS
 62
    7
 10
700.1800562434978
 20
1064.5122956567561
 11
702.9555435345228
 21
1064.762459837656
  0
LINE
  8
_0-2_02___PRT_ALL_AXES
  6
CONTINUOUS
 62
    7
 10
702.9555435345228
 20
1064.762459837656
 11
705.7489127016479
 21
1064.9737670927129
  0
LINE
  8
_0-2_02___PRT_ALL_AXES
  6
CONTINUOUS
 62
    7
 10
705.7489127016479
 20
1064.9737670927129
 11
708.55643654302685
 21
1065.1459354750709
  0
LINE
  8
_0-2_02___PRT_ALL_AXES
  6
CONTINUOUS
 62
    7
 10
708.55643654302685
 20
1065.1459354750709
 11
711.37436897065072
 21
1065.2787352584942
  0
LINE
  8
_0-2_02___PRT_ALL_AXES
  6
CONTINUOUS
 62
    7
 10
711.37436897065072
 20
1065.2787352584942
 11
714.19895000829592
 21
1065.371989249023
  0
LINE
  8
_0-2_02___PRT_ALL_AXES
  6
CONTINUOUS
 62
    7
 10
714.19895000829592
 20
1065.371989249023
 11
717.02641080776903
 21
1065.4255730166342
  0
LINE
  8
_0-2_02___PRT_ALL_AXES
  6
CONTINUOUS
 62
    7
 10
717.02641080776903
 20
1065.4255730166342
 11
719.85297867887994
 21
1065.4394150651501
  0
LINE
  8
_0-2_02___PRT_ALL_AXES
  6
CONTINUOUS
 62
    7
 10
719.85297867887994
 20
1065.4394150651501
 11
722.67488212319995
 21
1065.4134969244542
  0
LINE
  8
_0-2_02___PRT_ALL_AXES
  6
CONTINUOUS
 62
    7
 10
722.67488212319995
 20
1065.4134969244542
 11
725.48835586632003
 21
1065.347853177153
  0
LINE
  8
_0-2_02___PRT_ALL_AXES
  6
CONTINUOUS
 62
    7
 10
725.48835586632003
 20
1065.347853177153
 11
728.28964588018789
 21
1065.242571412864
  0
LINE
  8
_0-2_02___PRT_ALL_AXES
  6
CONTINUOUS
 62
    7
 10
728.28964588018789
 20
1065.242571412864
 11
731.07501439478392
 21
1065.0977921078079
  0
LINE
  8
_0-2_02___PRT_ALL_AXES
  6
CONTINUOUS
 62
    7
 10
731.07501439478392
 20
1065.0977921078079
 11
733.84074488312399
 21
1064.913708442702
  0
LINE
  8
_0-2_02___PRT_ALL_AXES
  6
CONTINUOUS
 62
    7
 10
733.84074488312399
 20
1064.913708442702
 11
736.58314702340385
 21
1064.690566040626
  0
LINE
  8
_0-2_02___PRT_ALL_AXES
  6
CONTINUOUS
 62
    7
 10
736.58314702340385
 20
1064.690566040626
 11
739.29856161770886
 21
1064.4286626416501
  0
LINE
  8
_0-2_02___PRT_ALL_AXES
  6
CONTINUOUS
 62
    7
 10
739.29856161770886
 20
1064.4286626416501
 11
741.98336548177076
 21
1064.1283477035449
  0
LINE
  8
_0-2_02___PRT_ALL_AXES
  6
CONTINUOUS
 62
    7
 10
741.98336548177076
 20
1064.1283477035449
 11
744.63397627070981
 21
1063.7900219377302
  0
LINE
  8
_0-2_02___PRT_ALL_AXES
  6
CONTINUOUS
 62
    7
 10
744.63397627070981
 20
1063.7900219377302
 11
747.24685726744201
 21
1063.414136773576
  0
LINE
  8
_0-2_02___PRT_ALL_AXES
  6
CONTINUOUS
 62
    7
 10
747.24685726744201
 20
1063.414136773576
 11
749.81852209565386
 21
1063.0011937564359
  0
LINE
  8
_0-2_02___PRT_ALL_AXES
  6
CONTINUOUS
 62
    7
 10
749.81852209565386
 20
1063.0011937564359
 11
752.3455393748568
 21
1062.5517438763181
  0
LINE
  8
_0-2_02___PRT_ALL_AXES
  6
CONTINUOUS
 62
    7
 10
752.3455393748568
 20
1062.5517438763181
 11
754.82453729772578
 21
1062.0663868363658
  0
LINE
  8
_0-2_02___PRT_ALL_AXES
  6
CONTINUOUS
 62
    7
 10
754.82453729772578
 20
1062.0663868363658
 11
757.25220812893667
 21
1061.545770249711
  0
LINE
  8
_0-2_02___PRT_ALL_AXES
  6
CONTINUOUS
 62
    7
 10
757.25220812893667
 20
1061.545770249711
 11
759.62531261944787
 21
1060.990588777654
  0
LINE
  8
_0-2_02___PRT_ALL_AXES
  6
CONTINUOUS
 62
    7
 10
759.62531261944787
 20
1060.990588777654
 11
761.94068432854783
 21
1060.4015831992542
  0
LINE
  8
_0-2_02___PRT_ALL_AXES
  6
CONTINUOUS
 62
    7
 10
761.94068432854783
 20
1060.4015831992542
 11
764.19523384839476
 21
1059.7795394275959
  0
LINE
  8
_0-2_02___PRT_ALL_AXES
  6
CONTINUOUS
 62
    7
 10
764.19523384839476
 20
1059.7795394275959
 11
766.38595292567379
 21
1059.1252874574629
  0
LINE
  8
_0-2_02___PRT_ALL_AXES
  6
CONTINUOUS
 62
    7
 10
766.38595292567379
 20
1059.1252874574629
 11
768.50991847656587
 21
1058.4397002596802
  0
LINE
  8
_0-2_02___PRT_ALL_AXES
  6
CONTINUOUS
 62
    7
 10
768.50991847656587
 20
1058.4397002596802
 11
770.5642964874346
 21
1057.7236926152441
  0
LINE
  8
_0-2_02___PRT_ALL_AXES
  6
CONTINUOUS
 62
    7
 10
770.5642964874346
 20
1057.7236926152441
 11
772.54634579434787
 21
1056.97821989461
  0
LINE
  8
_0-2_02___PRT_ALL_AXES
  6
CONTINUOUS
 62
    7
 10
772.54634579434787
 20
1056.97821989461
 11
774.45342174371262
 21
1056.204276785907
  0
LINE
  8
_0-2_02___PRT_ALL_AXES
  6
CONTINUOUS
 62
    7
 10
774.45342174371262
 20
1056.204276785907
 11
776.28297971654274
 21
1055.4028959629682
  0
LINE
  8
_0-2_02___PRT_ALL_AXES
  6
CONTINUOUS
 62
    7
 10
776.28297971654274
 20
1055.4028959629682
 11
778.03257852848992
 21
1054.5751467114342
  0
LINE
  8
_0-2_02___PRT_ALL_AXES
  6
CONTINUOUS
 62
    7
 10
778.03257852848992
 20
1054.5751467114342
 11
779.69988368358599
 21
1053.722133499251
  0
LINE
  8
_0-2_02___PRT_ALL_AXES
  6
CONTINUOUS
 62
    7
 10
779.69988368358599
 20
1053.722133499251
 11
781.28267049158967
 21
1052.844994505248
  0
LINE
  8
_0-2_02___PRT_ALL_AXES
  6
CONTINUOUS
 62
    7
 10
781.28267049158967
 20
1052.844994505248
 11
782.77882703521072
 21
1051.944900098938
  0
LINE
  8
_0-2_02___PRT_ALL_AXES
  6
CONTINUOUS
 62
    7
 10
782.77882703521072
 20
1051.944900098938
 11
784.18635698722665
 21
1051.0230512784278
  0
LINE
  8
_0-2_02___PRT_ALL_AXES
  6
CONTINUOUS
 62
    7
 10
784.18635698722665
 20
1051.0230512784278
 11
785.50338227519387
 21
1050.0806780702142
  0
LINE
  8
_0-2_02___PRT_ALL_AXES
  6
CONTINUOUS
 62
    7
 10
637.35533276162369
 20
1185.7046846618919
 11
636.74693264339885
 21
1186.5239665762838
  0
LINE
  8
_0-2_02___PRT_ALL_AXES
  6
CONTINUOUS
 62
    7
 10
636.74693264339885
 20
1186.5239665762838
 11
636.20933273638184
 21
1187.3026139293238
  0
LINE
  8
_0-2_02___PRT_ALL_AXES
  6
CONTINUOUS
 62
    7
 10
636.20933273638184
 20
1187.3026139293238
 11
635.73443308039077
 21
1188.0547937213801
  0
LINE
  8
_0-2_02___PRT_ALL_AXES
  6
CONTINUOUS
 62
    7
 10
635.73443308039077
 20
1188.0547937213801
 11
635.31940706995783
 21
1188.788972323377
  0
LINE
  8
_0-2_02___PRT_ALL_AXES
  6
CONTINUOUS
 62
    7
 10
635.31940706995783
 20
1188.788972323377
 11
634.96480174411681
 21
1189.5082555436861
  0
LINE
  8
_0-2_02___PRT_ALL_AXES
  6
CONTINUOUS
 62
    7
 10
634.9648017502127
 20
1189.5082555627359
 11
634.55194658024402
 21
1190.265202713304
  0
LINE
  8
_0-2_02___PRT_ALL_AXES
  6
CONTINUOUS
 62
    7
 10
634.55194658024402
 20
1190.265202713304
 11
634.06701039517702
 21
1190.882534850748
  0
LINE
  8
_0-2_02___PRT_ALL_AXES
  6
CONTINUOUS
 62
    7
 10
634.06701039517702
 20
1190.882534850748
 11
633.51829340422182
 21
1191.349698358888
  0
LINE
  8
_0-2_02___PRT_ALL_AXES
  6
CONTINUOUS
 62
    7
 10
633.51829340422182
 20
1191.349698358888
 11
632.91518577376064
 21
1191.6587081688581
  0
LINE
  8
_0-2_02___PRT_ALL_AXES
  6
CONTINUOUS
 62
    7
 10
632.91518577376064
 20
1191.6587081688581
 11
632.26800701757566
 21
1191.804284004706
  0
LINE
  8
_0-2_02___PRT_ALL_AXES
  6
CONTINUOUS
 62
    7
 10
632.26800701757566
 20
1191.804284004706
 11
631.58782961212182
 21
1191.7839403512098
  0
LINE
  8
_0-2_02___PRT_ALL_AXES
  6
CONTINUOUS
 62
    7
 10
631.58782961212182
 20
1191.7839403512098
 11
630.88628978203178
 21
1191.5980287204939
  0
LINE
  8
_0-2_02___PRT_ALL_AXES
  6
CONTINUOUS
 62
    7
 10
630.88628978203178
 20
1191.5980287204939
 11
630.17538867907069
 21
1191.2497315019259
  0
LINE
  8
_0-3_7_ALL_FEATURES
  6
CONTINUOUS
 62
    7
 10
640.06492646078868
 20
1191.534403584345
 11
643.36696208327385
 21
1184.27821293445
  0
LINE
  8
_0-2_02___PRT_ALL_AXES
  6
CONTINUOUS
 62
    7
 10
634.96480174411681
 20
1189.5082555436861
 11
634.67132782941599
 21
1190.213140141534
  0
LINE
  8
_0-2_02___PRT_ALL_AXES
  6
CONTINUOUS
 62
    7
 10
634.67132782941599
 20
1190.213140141534
 11
634.43774035043998
 21
1190.9043240982542
  0
LINE
  8
_0-2_02___PRT_ALL_AXES
  6
CONTINUOUS
 62
    7
 10
634.43774035043998
 20
1190.9043240982542
 11
634.26018588233364
 21
1191.5859168112661
  0
LINE
  8
_0-2_02___PRT_ALL_AXES
  6
CONTINUOUS
 62
    7
 10
634.26018588233364
 20
1191.5859168112661
 11
634.13352054943198
 21
1192.2668952059739
  0
LINE
  8
_0-2_02___PRT_ALL_AXES
  6
CONTINUOUS
 62
    7
 10
634.13352054943198
 20
1192.2668952059739
 11
634.05329713990068
 21
1192.9608753117882
  0
LINE
  8
_0-2_02___PRT_ALL_AXES
  6
CONTINUOUS
 62
    7
 10
624.80175195519587
 20
1178.1582066929018
 11
624.88197119582401
 21
1177.4642543543682
  0
LINE
  8
_0-2_02___PRT_ALL_AXES
  6
CONTINUOUS
 62
    7
 10
624.88197119582401
 20
1177.4642543543682
 11
625.00867206307203
 21
1176.7831073122961
  0
LINE
  8
_0-2_02___PRT_ALL_AXES
  6
CONTINUOUS
 62
    7
 10
625.00867206307203
 20
1176.7831073122961
 11
625.1862481879798
 21
1176.1014780240462
  0
LINE
  8
_0-2_02___PRT_ALL_AXES
  6
CONTINUOUS
 62
    7
 10
625.1862481879798
 20
1176.1014780240462
 11
625.41982688795269
 21
1175.4103541929362
  0
LINE
  8
_0-2_02___PRT_ALL_AXES
  6
CONTINUOUS
 62
    7
 10
625.41982688795269
 20
1175.4103541929362
 11
625.71325650759582
 21
1174.7055870512918
  0
LINE
  8
_0-2_02___PRT_ALL_AXES
  6
CONTINUOUS
 62
    7
 10
654.43892831597896
 20
1095.1562821227881
 11
654.42771345677284
 21
1095.4629072095622
  0
LINE
  8
_0-2_02___PRT_ALL_AXES
  6
CONTINUOUS
 62
    7
 10
654.42771345677284
 20
1095.4629072095622
 11
654.40518652163883
 21
1095.7628200097861
  0
LINE
  8
_0-2_02___PRT_ALL_AXES
  6
CONTINUOUS
 62
    7
 10
654.40518652163883
 20
1095.7628200097861
 11
654.37142773698588
 21
1096.0551244556559
  0
LINE
  8
_0-2_02___PRT_ALL_AXES
  6
CONTINUOUS
 62
    7
 10
654.37142773698588
 20
1096.0551244556559
 11
654.32655980538584
 21
1096.338940906563
  0
LINE
  8
_0-2_02___PRT_ALL_AXES
  6
CONTINUOUS
 62
    7
 10
654.32655980538584
 20
1096.338940906563
 11
654.27074784919068
 21
1096.6134077264369
  0
LINE
  8
_0-2_02___PRT_ALL_AXES
  6
CONTINUOUS
 62
    7
 10
654.27074784919068
 20
1096.6134077264369
 11
654.20419917964773
 21
1096.8776837808159
  0
LINE
  8
_0-2_02___PRT_ALL_AXES
  6
CONTINUOUS
 62
    7
 10
654.20419917964773
 20
1096.8776837808159
 11
654.12716303171283
 21
1097.1309506862699
  0
LINE
  8
_0-2_02___PRT_ALL_AXES
  6
CONTINUOUS
 62
    7
 10
654.12716303171283
 20
1097.1309506862699
 11
654.03992994608279
 21
1097.372416071003
  0
LINE
  8
_0-2_02___PRT_ALL_AXES
  6
CONTINUOUS
 62
    7
 10
654.03992994608279
 20
1097.372416071003
 11
653.94283102623604
 21
1097.60131659847
  0
LINE
  8
_0-2_02___PRT_ALL_AXES
  6
CONTINUOUS
 62
    7
 10
653.94283102623604
 20
1097.60131659847
 11
653.83623669865801
 21
1097.8169217628902
  0
LINE
  8
_0-2_02___PRT_ALL_AXES
  6
CONTINUOUS
 62
    7
 10
653.83623669865801
 20
1097.8169217628902
 11
653.72055523228073
 21
1098.0185374866578
  0
LINE
  8
_0-2_02___PRT_ALL_AXES
  6
CONTINUOUS
 62
    7
 10
653.72055523228073
 20
1098.0185374866578
 11
653.59623071994565
 21
1098.2055100499738
  0
LINE
  8
_0-2_02___PRT_ALL_AXES
  6
CONTINUOUS
 62
    7
 10
653.59623071994565
 20
1098.2055100499738
 11
653.46374069561989
 21
1098.377229822358
  0
LINE
  8
_0-2_02___PRT_ALL_AXES
  6
CONTINUOUS
 62
    7
 10
653.46374069561989
 20
1098.377229822358
 11
653.32359332567376
 21
1098.533134831096
  0
LINE
  8
_0-2_02___PRT_ALL_AXES
  6
CONTINUOUS
 62
    7
 10
653.32359332567376
 20
1098.533134831096
 11
653.1763241719018
 21
1098.672714065272
  0
LINE
  8
_0-2_02___PRT_ALL_AXES
  6
CONTINUOUS
 62
    7
 10
653.1763241719018
 20
1098.672714065272
 11
653.02249271603978
 21
1098.7955102471619
  0
LINE
  8
_0-2_02___PRT_ALL_AXES
  6
CONTINUOUS
 62
    7
 10
653.02249271603978
 20
1098.7955102471619
 11
652.86267854443076
 21
1098.901122197482
  0
LINE
  8
_0-2_02___PRT_ALL_AXES
  6
CONTINUOUS
 62
    7
 10
652.86267854443076
 20
1098.901122197482
 11
652.69747749688077
 21
1098.9892065163599
  0
LINE
  8
_0-2_02___PRT_ALL_AXES
  6
CONTINUOUS
 62
    7
 10
652.69747749688077
 20
1098.9892065163599
 11
652.52749765015187
 21
1099.0594787659602
  0
LINE
  8
_0-2_02___PRT_ALL_AXES
  6
CONTINUOUS
 62
    7
 10
652.52749765015187
 20
1099.0594787659602
 11
652.340496732053
 21
1099.114815978628
  0
LINE
  8
_0-2_02___PRT_ALL_AXES
  6
CONTINUOUS
 62
    7
 10
652.92840135609003
 20
1179.5514526645961
 11
652.91718649688391
 21
1179.8580777513689
  0
LINE
  8
_0-2_02___PRT_ALL_AXES
  6
CONTINUOUS
 62
    7
 10
652.91718649688391
 20
1179.8580777513689
 11
652.8946595617499
 21
1180.157990550832
  0
LINE
  8
_0-2_02___PRT_ALL_AXES
  6
CONTINUOUS
 62
    7
 10
652.8946595617499
 20
1180.157990550832
 11
652.86090077709468
 21
1180.450294997464
  0
LINE
  8
_0-2_02___PRT_ALL_AXES
  6
CONTINUOUS
 62
    7
 10
652.86090077709468
 20
1180.450294997464
 11
652.81603284549465
 21
1180.7341114476098
  0
LINE
  8
_0-2_02___PRT_ALL_AXES
  6
CONTINUOUS
 62
    7
 10
652.81603284549465
 20
1180.7341114476098
 11
652.76022088930085
 21
1181.0085782682459
  0
LINE
  8
_0-2_02___PRT_ALL_AXES
  6
CONTINUOUS
 62
    7
 10
652.76022088930085
 20
1181.0085782682459
 11
652.6936722197579
 21
1181.272854322624
  0
LINE
  8
_0-2_02___PRT_ALL_AXES
  6
CONTINUOUS
 62
    7
 10
652.6936722197579
 20
1181.272854322624
 11
652.6166360718239
 21
1181.526121228077
  0
LINE
  8
_0-2_02___PRT_ALL_AXES
  6
CONTINUOUS
 62
    7
 10
652.6166360718239
 20
1181.526121228077
 11
652.52940298619387
 21
1181.767586612812
  0
LINE
  8
_0-2_02___PRT_ALL_AXES
  6
CONTINUOUS
 62
    7
 10
652.52940298619387
 20
1181.767586612812
 11
652.43230406634575
 21
1181.996487139515
  0
LINE
  8
_0-2_02___PRT_ALL_AXES
  6
CONTINUOUS
 62
    7
 10
652.43230406634575
 20
1181.996487139515
 11
652.32570973876682
 21
1182.2120923046982
  0
LINE
  8
_0-2_02___PRT_ALL_AXES
  6
CONTINUOUS
 62
    7
 10
652.32570973876682
 20
1182.2120923046982
 11
652.21002827239181
 21
1182.4137080277042
  0
LINE
  8
_0-2_02___PRT_ALL_AXES
  6
CONTINUOUS
 62
    7
 10
652.21002827239181
 20
1182.4137080277042
 11
652.08570376005582
 21
1182.6006805917809
  0
LINE
  8
_0-2_02___PRT_ALL_AXES
  6
CONTINUOUS
 62
    7
 10
652.08570376005582
 20
1182.6006805917809
 11
651.9532137357287
 21
1182.7724003641661
  0
LINE
  8
_0-2_02___PRT_ALL_AXES
  6
CONTINUOUS
 62
    7
 10
651.9532137357287
 20
1182.7724003641661
 11
651.81306636654472
 21
1182.9283053729041
  0
LINE
  8
_0-2_02___PRT_ALL_AXES
  6
CONTINUOUS
 62
    7
 10
651.81306636654472
 20
1182.9283053729041
 11
651.6657972120106
 21
1183.0678846063179
  0
LINE
  8
_0-2_02___PRT_ALL_AXES
  6
CONTINUOUS
 62
    7
 10
651.6657972120106
 20
1183.0678846063179
 11
651.51196575614904
 21
1183.19068078897
  0
LINE
  8
_0-2_02___PRT_ALL_AXES
  6
CONTINUOUS
 62
    7
 10
651.51196575614904
 20
1183.19068078897
 11
651.35215158454184
 21
1183.296292738527
  0
LINE
  8
_0-2_02___PRT_ALL_AXES
  6
CONTINUOUS
 62
    7
 10
651.35215158454184
 20
1183.296292738527
 11
651.186950537754
 21
1183.384377058167
  0
LINE
  8
_0-2_02___PRT_ALL_AXES
  6
CONTINUOUS
 62
    7
 10
651.186950537754
 20
1183.384377058167
 11
651.01697069026068
 21
1183.4546493077678
  0
LINE
  8
_0-2_02___PRT_ALL_AXES
  6
CONTINUOUS
 62
    7
 10
651.01697069026068
 20
1183.4546493077678
 11
650.82996977292578
 21
1183.5099865204361
  0
LINE
  8
_0-2_02___PRT_ALL_AXES
  6
CONTINUOUS
 62
    7
 10
634.38057798089403
 20
1174.675255027882
 11
634.42667100656263
 21
1175.8879798894482
  0
LINE
  8
_0-2_02___PRT_ALL_AXES
  6
CONTINUOUS
 62
    7
 10
634.42667100656263
 20
1175.8879798894482
 11
634.52045082052791
 21
1177.0461757566941
  0
LINE
  8
_0-2_02___PRT_ALL_AXES
  6
CONTINUOUS
 62
    7
 10
634.52045082052791
 20
1177.0461757566941
 11
634.66569190291784
 21
1178.1711478448201
  0
LINE
  8
_0-2_02___PRT_ALL_AXES
  6
CONTINUOUS
 62
    7
 10
634.66569190291784
 20
1178.1711478448201
 11
634.86712739387394
 21
1179.2759070035981
  0
LINE
  8
_0-2_02___PRT_ALL_AXES
  6
CONTINUOUS
 62
    7
 10
634.86712739387394
 20
1179.2759070035981
 11
635.12844205183683
 21
1180.3654453243898
  0
LINE
  8
_0-2_02___PRT_ALL_AXES
  6
CONTINUOUS
 62
    7
 10
635.89110494078386
 20
1090.280084486074
 11
635.93719796569076
 21
1091.4928093484018
  0
LINE
  8
_0-2_02___PRT_ALL_AXES
  6
CONTINUOUS
 62
    7
 10
635.93719796569076
 20
1091.4928093484018
 11
636.03097778041774
 21
1092.651005214886
  0
LINE
  8
_0-2_02___PRT_ALL_AXES
  6
CONTINUOUS
 62
    7
 10
636.03097778041774
 20
1092.651005214886
 11
636.17621886280676
 21
1093.775977303012
  0
LINE
  8
_0-2_02___PRT_ALL_AXES
  6
CONTINUOUS
 62
    7
 10
636.17621886280676
 20
1093.775977303012
 11
636.37765435376377
 21
1094.8807364617901
  0
LINE
  8
_0-2_02___PRT_ALL_AXES
  6
CONTINUOUS
 62
    7
 10
636.37765435376377
 20
1094.8807364617901
 11
636.63896901172802
 21
1095.9702747825818
  0
LINE
  8
_0-2_02___PRT_ALL_AXES
  6
CONTINUOUS
 62
    7
 10
625.54961608709982
 20
1183.848397192864
 11
625.25432690094567
 21
1182.586743058569
  0
LINE
  8
_0-2_02___PRT_ALL_AXES
  6
CONTINUOUS
 62
    7
 10
625.25432690094567
 20
1182.586743058569
 11
625.04603835460784
 21
1181.316878974731
  0
LINE
  8
_0-2_02___PRT_ALL_AXES
  6
CONTINUOUS
 62
    7
 10
625.04603835460784
 20
1181.316878974731
 11
624.92831433961192
 21
1180.060532702314
  0
LINE
  8
_0-2_02___PRT_ALL_AXES
  6
CONTINUOUS
 62
    7
 10
624.92831433961192
 20
1180.060532702314
 11
624.903169156476
 21
1178.839200544779
  0
LINE
  8
_0-2_02___PRT_ALL_AXES
  6
CONTINUOUS
 62
    7
 10
624.903169156476
 20
1178.839200544779
 11
624.97103306773761
 21
1177.673780010753
  0
LINE
  8
_0-2_02___PRT_ALL_AXES
  6
CONTINUOUS
 62
    7
 10
624.97103306773761
 20
1177.673780010753
 11
625.13074487455197
 21
1176.584211914811
  0
LINE
  8
_0-2_02___PRT_ALL_AXES
  6
CONTINUOUS
 62
    7
 10
625.13074487455197
 20
1176.584211914811
 11
625.37957185975165
 21
1175.58913893214
  0
LINE
  8
_0-2_02___PRT_ALL_AXES
  6
CONTINUOUS
 62
    7
 10
625.37957185975165
 20
1175.58913893214
 11
625.71325650759582
 21
1174.7055870505301
  0
LINE
  8
_0-2_02___PRT_ALL_AXES
  6
CONTINUOUS
 62
    7
 10
625.54961608709982
 20
1183.8483971936262
 11
625.28826257704168
 21
1182.7586744269238
  0
LINE
  8
_0-2_02___PRT_ALL_AXES
  6
CONTINUOUS
 62
    7
 10
625.28826257704168
 20
1182.7586744269238
 11
625.08682122020991
 21
1181.653811364873
  0
LINE
  8
_0-2_02___PRT_ALL_AXES
  6
CONTINUOUS
 62
    7
 10
625.08682122020991
 20
1181.653811364873
 11
624.94160018984985
 21
1180.528891453936
  0
LINE
  8
_0-2_02___PRT_ALL_AXES
  6
CONTINUOUS
 62
    7
 10
624.94160018984985
 20
1180.528891453936
 11
624.84784780026484
 21
1179.3709794987458
  0
LINE
  8
_0-2_02___PRT_ALL_AXES
  6
CONTINUOUS
 62
    7
 10
624.84784780026484
 20
1179.3709794987458
 11
624.80175195519587
 21
1178.1582066929018
  0
LINE
  8
_0-2_02___PRT_ALL_AXES
  6
CONTINUOUS
 62
    7
 10
785.50338227519387
 20
1050.0806780702142
 11
786.72814558994878
 21
1049.1190378863098
  0
LINE
  8
_0-2_02___PRT_ALL_AXES
  6
CONTINUOUS
 62
    7
 10
786.72814558994878
 20
1049.1190378863098
 11
787.85901272419778
 21
1048.139413844799
  0
LINE
  8
_0-2_02___PRT_ALL_AXES
  6
CONTINUOUS
 62
    7
 10
787.85901272419778
 20
1048.139413844799
 11
788.89447475867883
 21
1047.143113062958
  0
LINE
  8
_0-2_02___PRT_ALL_AXES
  6
CONTINUOUS
 62
    7
 10
788.89447475867883
 20
1047.143113062958
 11
789.83315007309466
 21
1046.1314649076962
  0
LINE
  8
_0-2_02___PRT_ALL_AXES
  6
CONTINUOUS
 62
    7
 10
789.83315007309466
 20
1046.1314649076962
 11
790.6737861901438
 21
1045.1058192239138
  0
LINE
  8
_0-2_02___PRT_ALL_AXES
  6
CONTINUOUS
 62
    7
 10
790.6737861901438
 20
1045.1058192239138
 11
791.41526144582394
 21
1044.067544534656
  0
LINE
  8
_0-2_02___PRT_ALL_AXES
  6
CONTINUOUS
 62
    7
 10
791.41526144582394
 20
1044.067544534656
 11
792.05658648752978
 21
1043.0180262123099
  0
LINE
  8
_0-2_02___PRT_ALL_AXES
  6
CONTINUOUS
 62
    7
 10
792.05658648752978
 20
1043.0180262123099
 11
792.59690559383398
 21
1041.9586646338062
  0
LINE
  8
_0-2_02___PRT_ALL_AXES
  6
CONTINUOUS
 62
    7
 10
792.59690559383398
 20
1041.9586646338062
 11
793.03549781367565
 21
1040.89087330762
  0
LINE
  8
_0-2_02___PRT_ALL_AXES
  6
CONTINUOUS
 62
    7
 10
793.03549781367565
 20
1040.89087330762
 11
793.37177793334195
 21
1039.816076991634
  0
LINE
  8
_0-2_02___PRT_ALL_AXES
  6
CONTINUOUS
 62
    7
 10
793.37177793334195
 20
1039.816076991634
 11
793.60529725217884
 21
1038.735709790421
  0
LINE
  8
_0-2_02___PRT_ALL_AXES
  6
CONTINUOUS
 62
    7
 10
793.60529725217884
 20
1038.735709790421
 11
793.73574418610269
 21
1037.651213241867
  0
LINE
  8
_0-2_02___PRT_ALL_AXES
  6
CONTINUOUS
 62
    7
 10
793.73574418610269
 20
1037.651213241867
 11
793.764000902514
 21
1037.026397291349
  0
LINE
  8
_0-2_02___PRT_ALL_AXES
  6
CONTINUOUS
 62
    7
 10
635.12844217375778
 20
1180.365445725964
 11
635.42373136143578
 21
1181.6270999737958
  0
LINE
  8
_0-2_02___PRT_ALL_AXES
  6
CONTINUOUS
 62
    7
 10
635.42373136143578
 20
1181.6270999737958
 11
635.63201987272078
 21
1182.8969639616221
  0
LINE
  8
_0-2_02___PRT_ALL_AXES
  6
CONTINUOUS
 62
    7
 10
635.63201987272078
 20
1182.8969639616221
 11
635.74974386638178
 21
1184.1533101357422
  0
LINE
  8
_0-2_02___PRT_ALL_AXES
  6
CONTINUOUS
 62
    7
 10
635.74974386638178
 20
1184.1533101357422
 11
635.77488904265965
 21
1185.3746421995502
  0
LINE
  8
_0-2_02___PRT_ALL_AXES
  6
CONTINUOUS
 62
    7
 10
635.77488904265965
 20
1185.3746421995502
 11
635.70702513825563
 21
1186.5400626474702
  0
LINE
  8
_0-2_02___PRT_ALL_AXES
  6
CONTINUOUS
 62
    7
 10
635.70702513825563
 20
1186.5400626474702
 11
635.54731335201586
 21
1187.6296306694981
  0
LINE
  8
_0-2_02___PRT_ALL_AXES
  6
CONTINUOUS
 62
    7
 10
635.54731335201586
 20
1187.6296306694981
 11
635.29848639958072
 21
1188.62470359502
  0
LINE
  8
_0-2_02___PRT_ALL_AXES
  6
CONTINUOUS
 62
    7
 10
635.29848639958072
 20
1188.62470359502
 11
634.9648017502127
 21
1189.5082555627359
  0
LINE
  8
_0-2_02___PRT_ALL_AXES
  6
CONTINUOUS
 62
    7
 10
627.06014304698965
 20
1099.453226651055
 11
626.76485386083596
 21
1098.1915725167619
  0
LINE
  8
_0-2_02___PRT_ALL_AXES
  6
CONTINUOUS
 62
    7
 10
626.76485386083596
 20
1098.1915725167619
 11
626.55656531449767
 21
1096.921708433686
  0
LINE
  8
_0-2_02___PRT_ALL_AXES
  6
CONTINUOUS
 62
    7
 10
626.55656531449767
 20
1096.921708433686
 11
626.43884129950084
 21
1095.6653621612681
  0
LINE
  8
_0-2_02___PRT_ALL_AXES
  6
CONTINUOUS
 62
    7
 10
626.43884129950084
 20
1095.6653621612681
 11
626.41369611636583
 21
1094.4440300029719
  0
LINE
  8
_0-2_02___PRT_ALL_AXES
  6
CONTINUOUS
 62
    7
 10
626.41369611636583
 20
1094.4440300029719
 11
626.48156002686574
 21
1093.2786094689459
  0
LINE
  8
_0-2_02___PRT_ALL_AXES
  6
CONTINUOUS
 62
    7
 10
626.48156002686574
 20
1093.2786094689459
 11
626.6412718344418
 21
1092.1890413730039
  0
LINE
  8
_0-2_02___PRT_ALL_AXES
  6
CONTINUOUS
 62
    7
 10
626.6412718344418
 20
1092.1890413730039
 11
626.89009881964193
 21
1091.193968390332
  0
LINE
  8
_0-2_02___PRT_ALL_AXES
  6
CONTINUOUS
 62
    7
 10
626.89009881964193
 20
1091.193968390332
 11
627.22378346748565
 21
1090.310416508722
  0
LINE
  8
_0-2_02___PRT_ALL_AXES
  6
CONTINUOUS
 62
    7
 10
636.6389691336467
 20
1095.970275184156
 11
636.93425832132561
 21
1097.2319294319882
  0
LINE
  8
_0-2_02___PRT_ALL_AXES
  6
CONTINUOUS
 62
    7
 10
636.93425832132561
 20
1097.2319294319882
 11
637.14254683261197
 21
1098.501793419814
  0
LINE
  8
_0-2_02___PRT_ALL_AXES
  6
CONTINUOUS
 62
    7
 10
637.14254683261197
 20
1098.501793419814
 11
637.2602708262707
 21
1099.758139594695
  0
LINE
  8
_0-2_02___PRT_ALL_AXES
  6
CONTINUOUS
 62
    7
 10
637.2602708262707
 20
1099.758139594695
 11
637.28541600254903
 21
1100.9794716577421
  0
LINE
  8
_0-2_02___PRT_ALL_AXES
  6
CONTINUOUS
 62
    7
 10
637.28541600254903
 20
1100.9794716577421
 11
637.21755209814592
 21
1102.1448921056622
  0
LINE
  8
_0-2_02___PRT_ALL_AXES
  6
CONTINUOUS
 62
    7
 10
637.21755209814592
 20
1102.1448921056622
 11
637.05784031190478
 21
1103.23446012769
  0
LINE
  8
_0-2_02___PRT_ALL_AXES
  6
CONTINUOUS
 62
    7
 10
637.05784031190478
 20
1103.23446012769
 11
636.80901335947192
 21
1104.229533053212
  0
LINE
  8
_0-2_02___PRT_ALL_AXES
  6
CONTINUOUS
 62
    7
 10
636.80901335947192
 20
1104.229533053212
 11
636.47532871010389
 21
1105.1130850209279
  0
LINE
  8
_0-2_02___PRT_ALL_AXES
  6
CONTINUOUS
 62
    7
 10
627.06014304698965
 20
1099.4532266518181
 11
626.79878953693196
 21
1098.3635038851162
  0
LINE
  8
_0-2_02___PRT_ALL_AXES
  6
CONTINUOUS
 62
    7
 10
626.79878953693196
 20
1098.3635038851162
 11
626.59734818009883
 21
1097.258640823065
  0
LINE
  8
_0-2_02___PRT_ALL_AXES
  6
CONTINUOUS
 62
    7
 10
626.59734818009883
 20
1097.258640823065
 11
626.45212714973968
 21
1096.133720912127
  0
LINE
  8
_0-2_02___PRT_ALL_AXES
  6
CONTINUOUS
 62
    7
 10
626.45212714973968
 20
1096.133720912127
 11
626.35837476015604
 21
1094.9758089569382
  0
LINE
  8
_0-2_02___PRT_ALL_AXES
  6
CONTINUOUS
 62
    7
 10
626.35837476015604
 20
1094.9758089569382
 11
626.31227891508479
 21
1093.7630361518559
  0
LINE
  8
_0-3_7_ALL_FEATURES
  6
CONTINUOUS
 62
    7
 10
643.36696208327385
 20
1184.27821293445
 11
640.39220730254283
 21
1173.2487832996781
  0
LINE
  8
_0-2_02___PRT_ALL_AXES
  6
CONTINUOUS
 62
    7
 10
635.12844205183683
 20
1180.3654453243898
 11
635.45099184209403
 21
1181.440647324604
  0
LINE
  8
_0-2_02___PRT_ALL_AXES
  6
CONTINUOUS
 62
    7
 10
635.45099184209403
 20
1181.440647324604
 11
635.83392218011659
 21
1182.5024457059558
  0
LINE
  8
_0-2_02___PRT_ALL_AXES
  6
CONTINUOUS
 62
    7
 10
635.83392218011659
 20
1182.5024457059558
 11
636.27647799096485
 21
1183.5568124209422
  0
LINE
  8
_0-2_02___PRT_ALL_AXES
  6
CONTINUOUS
 62
    7
 10
636.27647799096485
 20
1183.5568124209422
 11
636.78103703696388
 21
1184.6172459642821
  0
LINE
  8
_0-2_02___PRT_ALL_AXES
  6
CONTINUOUS
 62
    7
 10
636.78103703696388
 20
1184.6172459642821
 11
637.35533276162369
 21
1185.7046846618919
  0
LINE
  8
_0-2_02___PRT_ALL_AXES
  6
CONTINUOUS
 62
    7
 10
784.84882059320989
 20
1086.651918638026
 11
784.69729115915879
 21
1086.77321081632
  0
LINE
  8
_0-2_02___PRT_ALL_AXES
  6
CONTINUOUS
 62
    7
 10
784.69729115915879
 20
1086.77321081632
 11
784.54457960707668
 21
1086.9109473660942
  0
LINE
  8
_0-2_02___PRT_ALL_AXES
  6
CONTINUOUS
 62
    7
 10
784.54457960707668
 20
1086.9109473660942
 11
784.3912348086119
 21
1087.064655671325
  0
LINE
  8
_0-2_02___PRT_ALL_AXES
  6
CONTINUOUS
 62
    7
 10
784.3912348086119
 20
1087.064655671325
 11
784.23764192275667
 21
1087.2339935833479
  0
LINE
  8
_0-2_02___PRT_ALL_AXES
  6
CONTINUOUS
 62
    7
 10
784.23764192275667
 20
1087.2339935833479
 11
784.0844249254078
 21
1087.4183330640458
  0
LINE
  8
_0-2_02___PRT_ALL_AXES
  6
CONTINUOUS
 62
    7
 10
784.0844249254078
 20
1087.4183330640458
 11
783.93195181607871
 21
1087.6173149683418
  0
LINE
  8
_0-2_02___PRT_ALL_AXES
  6
CONTINUOUS
 62
    7
 10
783.93195181607871
 20
1087.6173149683418
 11
783.7808914433208
 21
1087.8301709327739
  0
LINE
  8
_0-2_02___PRT_ALL_AXES
  6
CONTINUOUS
 62
    7
 10
783.7808914433208
 20
1087.8301709327739
 11
783.63162867428264
 21
1088.0564852512898
  0
LINE
  8
_0-2_02___PRT_ALL_AXES
  6
CONTINUOUS
 62
    7
 10
783.63162867428264
 20
1088.0564852512898
 11
783.48482784037697
 21
1088.2954019380481
  0
LINE
  8
_0-2_02___PRT_ALL_AXES
  6
CONTINUOUS
 62
    7
 10
783.48482784037697
 20
1088.2954019380481
 11
783.3409194898918
 21
1088.5463907225821
  0
LINE
  8
_0-2_02___PRT_ALL_AXES
  6
CONTINUOUS
 62
    7
 10
783.3409194898918
 20
1088.5463907225821
 11
783.2005162532987
 21
1088.8085809749341
  0
LINE
  8
_0-2_02___PRT_ALL_AXES
  6
CONTINUOUS
 62
    7
 10
783.2005162532987
 20
1088.8085809749341
 11
783.06411620809195
 21
1089.0812548263339
  0
LINE
  8
_0-2_02___PRT_ALL_AXES
  6
CONTINUOUS
 62
    7
 10
783.06411620809195
 20
1089.0812548263339
 11
782.93224227448172
 21
1089.3636073868502
  0
LINE
  8
_0-2_02___PRT_ALL_AXES
  6
CONTINUOUS
 62
    7
 10
782.93224227448172
 20
1089.3636073868502
 11
782.80545493013869
 21
1089.6546893904101
  0
LINE
  8
_0-2_02___PRT_ALL_AXES
  6
CONTINUOUS
 62
    7
 10
782.80545493013869
 20
1089.6546893904101
 11
782.68418256994073
 21
1089.9537929710182
  0
LINE
  8
_0-2_02___PRT_ALL_AXES
  6
CONTINUOUS
 62
    7
 10
782.68418256994073
 20
1089.9537929710182
 11
782.56900320822569
 21
1090.2597777156639
  0
LINE
  8
_0-2_02___PRT_ALL_AXES
  6
CONTINUOUS
 62
    7
 10
782.56900320822569
 20
1090.2597777156639
 11
782.460276464034
 21
1090.5719914498841
  0
LINE
  8
_0-2_02___PRT_ALL_AXES
  6
CONTINUOUS
 62
    7
 10
782.460276464034
 20
1090.5719914498841
 11
782.35854661948679
 21
1090.889183309529
  0
LINE
  8
_0-2_02___PRT_ALL_AXES
  6
CONTINUOUS
 62
    7
 10
782.35854661948679
 20
1090.889183309529
 11
782.26412607020302
 21
1091.2107007650461
  0
LINE
  8
_0-2_02___PRT_ALL_AXES
  6
CONTINUOUS
 62
    7
 10
782.26412607020302
 20
1091.2107007650461
 11
782.17748388737982
 21
1091.5352770866821
  0
LINE
  8
_0-2_02___PRT_ALL_AXES
  6
CONTINUOUS
 62
    7
 10
782.17748388737982
 20
1091.5352770866821
 11
782.09889997647588
 21
1091.8621931178882
  0
LINE
  8
_0-2_02___PRT_ALL_AXES
  6
CONTINUOUS
 62
    7
 10
782.09889997647588
 20
1091.8621931178882
 11
782.02874028189581
 21
1092.1902669806618
  0
LINE
  8
_0-2_02___PRT_ALL_AXES
  6
CONTINUOUS
 62
    7
 10
782.02874028189581
 20
1092.1902669806618
 11
781.96725818159302
 21
1092.5186392517789
  0
LINE
  8
_0-2_02___PRT_ALL_AXES
  6
CONTINUOUS
 62
    7
 10
781.96725818159302
 20
1092.5186392517789
 11
781.91470547237395
 21
1092.8463055878101
  0
LINE
  8
_0-2_02___PRT_ALL_AXES
  6
CONTINUOUS
 62
    7
 10
781.91470547237395
 20
1092.8463055878101
 11
781.87130008394979
 21
1093.1722159245578
  0
LINE
  8
_0-2_02___PRT_ALL_AXES
  6
CONTINUOUS
 62
    7
 10
781.87130008394979
 20
1093.1722159245578
 11
781.83719106885474
 21
1093.4955734553878
  0
LINE
  8
_0-2_02___PRT_ALL_AXES
  6
CONTINUOUS
 62
    7
 10
781.83719106885474
 20
1093.4955734553878
 11
781.81253353676402
 21
1093.8151887912641
  0
LINE
  8
_0-2_02___PRT_ALL_AXES
  6
CONTINUOUS
 62
    7
 10
781.81253353676402
 20
1093.8151887912641
 11
781.79739989748577
 21
1094.1304000772739
  0
LINE
  8
_0-2_02___PRT_ALL_AXES
  6
CONTINUOUS
 62
    7
 10
781.79739989748577
 20
1094.1304000772739
 11
781.79185929871164
 21
1094.439971317413
  0
LINE
  8
_0-2_02___PRT_ALL_AXES
  6
CONTINUOUS
 62
    7
 10
781.79185929871164
 20
1094.439971317413
 11
781.79592260808477
 21
1094.7432914776
  0
LINE
  8
_0-2_02___PRT_ALL_AXES
  6
CONTINUOUS
 62
    7
 10
781.79592260808477
 20
1094.7432914776
 11
781.80956447310473
 21
1095.0391698756821
  0
LINE
  8
_0-2_02___PRT_ALL_AXES
  6
CONTINUOUS
 62
    7
 10
781.80956447310473
 20
1095.0391698756821
 11
781.83273480979778
 21
1095.32696860336
  0
LINE
  8
_0-2_02___PRT_ALL_AXES
  6
CONTINUOUS
 62
    7
 10
781.83273480979778
 20
1095.32696860336
 11
781.86532075834202
 21
1095.605625494356
  0
LINE
  8
_0-2_02___PRT_ALL_AXES
  6
CONTINUOUS
 62
    7
 10
781.86532075834202
 20
1095.605625494356
 11
781.90719725929785
 21
1095.874412403567
  0
LINE
  8
_0-2_02___PRT_ALL_AXES
  6
CONTINUOUS
 62
    7
 10
781.90719725929785
 20
1095.874412403567
 11
781.9581852228539
 21
1096.132460659378
  0
LINE
  8
_0-2_02___PRT_ALL_AXES
  6
CONTINUOUS
 62
    7
 10
781.9581852228539
 20
1096.132460659378
 11
782.0180605249966
 21
1096.3789242307121
  0
LINE
  8
_0-2_02___PRT_ALL_AXES
  6
CONTINUOUS
 62
    7
 10
782.0180605249966
 20
1096.3789242307121
 11
782.08660260254283
 21
1096.6131398217162
  0
LINE
  8
_0-2_02___PRT_ALL_AXES
  6
CONTINUOUS
 62
    7
 10
782.08660260254283
 20
1096.6131398217162
 11
782.16347801038683
 21
1096.8342070112799
  0
LINE
  8
_0-2_02___PRT_ALL_AXES
  6
CONTINUOUS
 62
    7
 10
782.16347801038683
 20
1096.8342070112799
 11
782.24843271906502
 21
1097.0416043330861
  0
LINE
  8
_0-2_02___PRT_ALL_AXES
  6
CONTINUOUS
 62
    7
 10
782.24843271906502
 20
1097.0416043330861
 11
782.34103358491802
 21
1097.234468506666
  0
LINE
  8
_0-2_02___PRT_ALL_AXES
  6
CONTINUOUS
 62
    7
 10
782.34103358491802
 20
1097.234468506666
 11
782.44098814548579
 21
1097.4123630347981
  0
LINE
  8
_0-2_02___PRT_ALL_AXES
  6
CONTINUOUS
 62
    7
 10
782.44098814548579
 20
1097.4123630347981
 11
782.54778957094777
 21
1097.5745378534498
  0
LINE
  8
_0-2_02___PRT_ALL_AXES
  6
CONTINUOUS
 62
    7
 10
782.54778957094777
 20
1097.5745378534498
 11
782.6610928955206
 21
1097.720605498575
  0
LINE
  8
_0-2_02___PRT_ALL_AXES
  6
CONTINUOUS
 62
    7
 10
782.6610928955206
 20
1097.720605498575
 11
782.78035751678362
 21
1097.8499810970761
  0
LINE
  8
_0-2_02___PRT_ALL_AXES
  6
CONTINUOUS
 62
    7
 10
782.78035751678362
 20
1097.8499810970761
 11
782.90516473859361
 21
1097.9623118780009
  0
LINE
  8
_0-2_02___PRT_ALL_AXES
  6
CONTINUOUS
 62
    7
 10
782.90516473859361
 20
1097.9623118780009
 11
783.03498977307481
 21
1098.0572007486762
  0
LINE
  8
_0-2_02___PRT_ALL_AXES
  6
CONTINUOUS
 62
    7
 10
783.03498977307481
 20
1098.0572007486762
 11
783.16931625092866
 21
1098.1343393490338
  0
LINE
  8
_0-2_02___PRT_ALL_AXES
  6
CONTINUOUS
 62
    7
 10
783.16931625092866
 20
1098.1343393490338
 11
783.3076759178216
 21
1098.1935038408142
  0
LINE
  8
_0-2_02___PRT_ALL_AXES
  6
CONTINUOUS
 62
    7
 10
783.3076759178216
 20
1098.1935038408142
 11
783.44946524308079
 21
1098.23447472001
  0
LINE
  8
_0-2_02___PRT_ALL_AXES
  6
CONTINUOUS
 62
    7
 10
783.44946524308079
 20
1098.23447472001
 11
783.46389216088801
 21
1098.2375826574062
  0
LINE
  8
_0-2_02___PRT_ALL_AXES
  6
CONTINUOUS
 62
    7
 10
799.94899355739472
 20
1094.419424460616
 11
800.70531533761095
 21
1093.5801673563042
  0
LINE
  8
_0-2_02___PRT_ALL_AXES
  6
CONTINUOUS
 62
    7
 10
800.70531533761095
 20
1093.5801673563042
 11
801.38223153775061
 21
1092.7595441413182
  0
LINE
  8
_0-2_02___PRT_ALL_AXES
  6
CONTINUOUS
 62
    7
 10
801.38223153775061
 20
1092.7595441413182
 11
801.99032437947471
 21
1091.9416725532901
  0
LINE
  8
_0-2_02___PRT_ALL_AXES
  6
CONTINUOUS
 62
    7
 10
801.99032437947471
 20
1091.9416725532901
 11
802.53384099932282
 21
1091.1159213320502
  0
LINE
  8
_0-2_02___PRT_ALL_AXES
  6
CONTINUOUS
 62
    7
 10
802.53384099932282
 20
1091.1159213320502
 11
803.01270598901374
 21
1090.277494072408
  0
LINE
  8
_0-2_02___PRT_ALL_AXES
  6
CONTINUOUS
 62
    7
 10
806.64995600482189
 20
1103.6982417190479
 11
806.09156899688378
 21
1104.49578771298
  0
LINE
  8
_0-2_02___PRT_ALL_AXES
  6
CONTINUOUS
 62
    7
 10
806.09156899688378
 20
1104.49578771298
 11
805.51616874712681
 21
1105.156998421035
  0
LINE
  8
_0-2_02___PRT_ALL_AXES
  6
CONTINUOUS
 62
    7
 10
805.51616874712681
 20
1105.156998421035
 11
804.93360044719202
 21
1105.6705603834962
  0
LINE
  8
_0-2_02___PRT_ALL_AXES
  6
CONTINUOUS
 62
    7
 10
804.93360044719202
 20
1105.6705603834962
 11
804.35383208120265
 21
1106.027686313133
  0
LINE
  8
_0-2_02___PRT_ALL_AXES
  6
CONTINUOUS
 62
    7
 10
804.35383208120265
 20
1106.027686313133
 11
803.78678372330387
 21
1106.222265670227
  0
LINE
  8
_0-2_02___PRT_ALL_AXES
  6
CONTINUOUS
 62
    7
 10
803.78678372330387
 20
1106.222265670227
 11
803.24215765964982
 21
1106.2509692089602
  0
LINE
  8
_0-2_02___PRT_ALL_AXES
  6
CONTINUOUS
 62
    7
 10
803.24215765964982
 20
1106.2509692089602
 11
802.72927253302169
 21
1106.1133058043279
  0
LINE
  8
_0-2_02___PRT_ALL_AXES
  6
CONTINUOUS
 62
    7
 10
806.90595453473361
 20
1103.2763045545421
 11
806.64995600482189
 21
1103.6982417190479
  0
LINE
  8
_0-2_02___PRT_ALL_AXES
  6
CONTINUOUS
 62
    7
 10
806.89802154475683
 20
1103.2898108612858
 11
806.70282477106684
 21
1103.6165735377058
  0
LINE
  8
_0-2_02___PRT_ALL_AXES
  6
CONTINUOUS
 62
    7
 10
806.70282477106684
 20
1103.6165735377058
 11
806.15924511781759
 21
1104.4423973546859
  0
LINE
  8
_0-2_02___PRT_ALL_AXES
  6
CONTINUOUS
 62
    7
 10
806.15924511781759
 20
1104.4423973546859
 11
805.55116835429271
 21
1105.2602258531369
  0
LINE
  8
_0-2_02___PRT_ALL_AXES
  6
CONTINUOUS
 62
    7
 10
805.55116835429271
 20
1105.2602258531369
 11
804.87441407153392
 21
1106.080646160477
  0
LINE
  8
_0-2_02___PRT_ALL_AXES
  6
CONTINUOUS
 62
    7
 10
804.87441407153392
 20
1106.080646160477
 11
804.11806333912682
 21
1106.919936782122
  0
LINE
  8
_0-2_02___PRT_ALL_AXES
  6
CONTINUOUS
 62
    7
 10
806.89813246528774
 20
1103.2898382064182
 11
806.90596610798866
 21
1103.276347713459
  0
LINE
  8
_0-2_02___PRT_ALL_AXES
  6
CONTINUOUS
 62
    7
 10
803.01270598901374
 20
1090.2774940716449
 11
803.54452562082497
 21
1089.3572589583482
  0
LINE
  8
_0-2_02___PRT_ALL_AXES
  6
CONTINUOUS
 62
    7
 10
803.54452562082497
 20
1089.3572589583482
 11
804.10291266686363
 21
1088.559712877548
  0
LINE
  8
_0-2_02___PRT_ALL_AXES
  6
CONTINUOUS
 62
    7
 10
804.10291266686363
 20
1088.559712877548
 11
804.67831295776796
 21
1087.8985021009121
  0
LINE
  8
_0-2_02___PRT_ALL_AXES
  6
CONTINUOUS
 62
    7
 10
804.67831295776796
 20
1087.8985021009121
 11
805.26088130113794
 21
1087.384940090446
  0
LINE
  8
_0-2_02___PRT_ALL_AXES
  6
CONTINUOUS
 62
    7
 10
805.26088130113794
 20
1087.384940090446
 11
805.84064970979671
 21
1087.027814137185
  0
LINE
  8
_0-2_02___PRT_ALL_AXES
  6
CONTINUOUS
 62
    7
 10
805.84064970979671
 20
1087.027814137185
 11
806.40769810960774
 21
1086.8332347808541
  0
LINE
  8
_0-2_02___PRT_ALL_AXES
  6
CONTINUOUS
 62
    7
 10
806.40769810960774
 20
1086.8332347808541
 11
806.95232420907587
 21
1086.804531267268
  0
LINE
  8
_0-2_02___PRT_ALL_AXES
  6
CONTINUOUS
 62
    7
 10
806.95232420907587
 20
1086.804531267268
 11
807.46520929379267
 21
1086.9421947039041
  0
LINE
  8
_0-2_02___PRT_ALL_AXES
  6
CONTINUOUS
 62
    7
 10
807.18177569073578
 20
1102.7780065592669
 11
806.90595453473361
 21
1103.2763045545421
  0
LINE
  8
_0-3_7_ALL_FEATURES
  6
CONTINUOUS
 62
    7
 10
798.07212652500584
 20
1084.464035381086
 11
793.52514537997195
 21
1093.0779386457521
  0
LINE
  8
_0-2_02___PRT_ALL_AXES
  6
CONTINUOUS
 62
    7
 10
803.01270598901374
 20
1090.277494072408
 11
803.42626452994182
 21
1089.4252710862302
  0
LINE
  8
_0-2_02___PRT_ALL_AXES
  6
CONTINUOUS
 62
    7
 10
803.42626452994182
 20
1089.4252710862302
 11
803.77591046031603
 21
1088.5589482821761
  0
LINE
  8
_0-2_02___PRT_ALL_AXES
  6
CONTINUOUS
 62
    7
 10
803.77591046031603
 20
1088.5589482821761
 11
804.0662641259878
 21
1087.674769986274
  0
LINE
  8
_0-2_02___PRT_ALL_AXES
  6
CONTINUOUS
 62
    7
 10
804.0662641259878
 20
1087.674769986274
 11
804.30404264230083
 21
1086.76267880665
  0
LINE
  8
_0-2_02___PRT_ALL_AXES
  6
CONTINUOUS
 62
    7
 10
804.30404264230083
 20
1086.76267880665
 11
804.49597470242998
 21
1085.805521195949
  0
LINE
  8
_0-3_7_ALL_FEATURES
  6
CONTINUOUS
 62
    7
 10
644.87748904316277
 20
1099.883042392642
 11
641.90273426167096
 21
1088.8536127586322
  0
LINE
  8
_0-2_02___PRT_ALL_AXES
  6
CONTINUOUS
 62
    7
 10
636.63896901172802
 20
1095.9702747825818
 11
636.96151880198386
 21
1097.045476782795
  0
LINE
  8
_0-2_02___PRT_ALL_AXES
  6
CONTINUOUS
 62
    7
 10
636.96151880198386
 20
1097.045476782795
 11
637.34444914000778
 21
1098.1072751641482
  0
LINE
  8
_0-2_02___PRT_ALL_AXES
  6
CONTINUOUS
 62
    7
 10
637.34444914000778
 20
1098.1072751641482
 11
637.78700495085559
 21
1099.1616418791341
  0
LINE
  8
_0-2_02___PRT_ALL_AXES
  6
CONTINUOUS
 62
    7
 10
637.78700495085559
 20
1099.1616418791341
 11
638.2915639968528
 21
1100.2220754224741
  0
LINE
  8
_0-2_02___PRT_ALL_AXES
  6
CONTINUOUS
 62
    7
 10
638.2915639968528
 20
1100.2220754224741
 11
638.86585972151261
 21
1101.3095141200838
  0
LINE
  8
_0-2_02___PRT_ALL_AXES
  6
CONTINUOUS
 62
    7
 10
635.62594385845796
 20
1085.080373773756
 11
629.61431453756859
 21
1086.50684550196
  0
LINE
  8
_0-2_02___PRT_ALL_AXES
  6
CONTINUOUS
 62
    7
 10
641.90273426167096
 20
1088.8536127586322
 11
635.89110494078386
 21
1090.280084486074
  0
LINE
  8
_0-2_02___PRT_ALL_AXES
  6
CONTINUOUS
 62
    7
 10
641.95530769195784
 20
1089.048538050009
 11
649.52567175490685
 21
1087.2522013622738
  0
LINE
  8
_0-0_0
  6
CONTINUOUS
 62
    2
 10
651.41260411082885
 20
1087.8617234919702
 11
642.22331116229861
 21
1090.0422083301282
  0
LINE
  8
_0-0_0
  6
CONTINUOUS
 62
    2
 10
653.90024902910272
 20
1097.687445932434
 11
644.86364164616998
 21
1099.8317007193541
  0
LINE
  8
_0-2_02___PRT_ALL_AXES
  6
CONTINUOUS
 62
    7
 10
644.87748904316277
 20
1099.883042392642
 11
638.86585972151261
 21
1101.3095141200838
  0
LINE
  8
_0-2_02___PRT_ALL_AXES
  6
CONTINUOUS
 62
    7
 10
644.36599342963063
 20
1101.0070489482819
 11
652.34049672062383
 21
1099.1148159306222
  0
LINE
  8
_0-2_02___PRT_ALL_AXES
  6
CONTINUOUS
 62
    7
 10
783.3382936333187
 20
1171.0470891798341
 11
783.18676419926987
 21
1171.168381358128
  0
LINE
  8
_0-2_02___PRT_ALL_AXES
  6
CONTINUOUS
 62
    7
 10
783.18676419926987
 20
1171.168381358128
 11
783.03405264794992
 21
1171.3061179079018
  0
LINE
  8
_0-2_02___PRT_ALL_AXES
  6
CONTINUOUS
 62
    7
 10
783.03405264794992
 20
1171.3061179079018
 11
782.88070784872161
 21
1171.459826213134
  0
LINE
  8
_0-2_02___PRT_ALL_AXES
  6
CONTINUOUS
 62
    7
 10
782.88070784872161
 20
1171.459826213134
 11
782.72711496286684
 21
1171.629164125156
  0
LINE
  8
_0-2_02___PRT_ALL_AXES
  6
CONTINUOUS
 62
    7
 10
782.72711496286684
 20
1171.629164125156
 11
782.57389796627876
 21
1171.8135036058538
  0
LINE
  8
_0-2_02___PRT_ALL_AXES
  6
CONTINUOUS
 62
    7
 10
782.57389796627876
 20
1171.8135036058538
 11
782.42142485618979
 21
1172.0124855101499
  0
LINE
  8
_0-2_02___PRT_ALL_AXES
  6
CONTINUOUS
 62
    7
 10
782.42142485618979
 20
1172.0124855101499
 11
782.27036448343188
 21
1172.2253414738202
  0
LINE
  8
_0-2_02___PRT_ALL_AXES
  6
CONTINUOUS
 62
    7
 10
782.27036448343188
 20
1172.2253414738202
 11
782.12110171515587
 21
1172.451655793097
  0
LINE
  8
_0-2_02___PRT_ALL_AXES
  6
CONTINUOUS
 62
    7
 10
782.12110171515587
 20
1172.451655793097
 11
781.97430088048668
 21
1172.6905724798562
  0
LINE
  8
_0-2_02___PRT_ALL_AXES
  6
CONTINUOUS
 62
    7
 10
781.97430088048668
 20
1172.6905724798562
 11
781.83039253000197
 21
1172.9415612643902
  0
LINE
  8
_0-2_02___PRT_ALL_AXES
  6
CONTINUOUS
 62
    7
 10
781.83039253000197
 20
1172.9415612643902
 11
781.68998929340978
 21
1173.20375151598
  0
LINE
  8
_0-2_02___PRT_ALL_AXES
  6
CONTINUOUS
 62
    7
 10
781.68998929340978
 20
1173.20375151598
 11
781.55358924820075
 21
1173.4764253673802
  0
LINE
  8
_0-2_02___PRT_ALL_AXES
  6
CONTINUOUS
 62
    7
 10
781.55358924820075
 20
1173.4764253673802
 11
781.42171531459098
 21
1173.7587779286582
  0
LINE
  8
_0-2_02___PRT_ALL_AXES
  6
CONTINUOUS
 62
    7
 10
781.42171531459098
 20
1173.7587779286582
 11
781.29492797024977
 21
1174.0498599322182
  0
LINE
  8
_0-2_02___PRT_ALL_AXES
  6
CONTINUOUS
 62
    7
 10
781.29492797024977
 20
1174.0498599322182
 11
781.17365561005181
 21
1174.3489635128262
  0
LINE
  8
_0-2_02___PRT_ALL_AXES
  6
CONTINUOUS
 62
    7
 10
781.17365561005181
 20
1174.3489635128262
 11
781.05847624833586
 21
1174.654948257471
  0
LINE
  8
_0-2_02___PRT_ALL_AXES
  6
CONTINUOUS
 62
    7
 10
781.05847624833586
 20
1174.654948257471
 11
780.94974950490587
 21
1174.9671619916921
  0
LINE
  8
_0-2_02___PRT_ALL_AXES
  6
CONTINUOUS
 62
    7
 10
780.94974950490587
 20
1174.9671619916921
 11
780.84801965959787
 21
1175.2843538505758
  0
LINE
  8
_0-2_02___PRT_ALL_AXES
  6
CONTINUOUS
 62
    7
 10
780.84801965959787
 20
1175.2843538505758
 11
780.75359911031273
 21
1175.6058713068542
  0
LINE
  8
_0-2_02___PRT_ALL_AXES
  6
CONTINUOUS
 62
    7
 10
780.75359911031273
 20
1175.6058713068542
 11
780.66695692748999
 21
1175.930447627728
  0
LINE
  8
_0-2_02___PRT_ALL_AXES
  6
CONTINUOUS
 62
    7
 10
780.66695692748999
 20
1175.930447627728
 11
780.58837301658559
 21
1176.2573636596958
  0
LINE
  8
_0-2_02___PRT_ALL_AXES
  6
CONTINUOUS
 62
    7
 10
780.58837301658559
 20
1176.2573636596958
 11
780.51821332200461
 21
1176.585437522469
  0
LINE
  8
_0-2_02___PRT_ALL_AXES
  6
CONTINUOUS
 62
    7
 10
780.51821332200461
 20
1176.585437522469
 11
780.45673122170365
 21
1176.9138097928262
  0
LINE
  8
_0-2_02___PRT_ALL_AXES
  6
CONTINUOUS
 62
    7
 10
780.45673122170365
 20
1176.9138097928262
 11
780.40417851248367
 21
1177.2414761296181
  0
LINE
  8
_0-2_02___PRT_ALL_AXES
  6
CONTINUOUS
 62
    7
 10
780.40417851248367
 20
1177.2414761296181
 11
780.36077312482075
 21
1177.5673864663659
  0
LINE
  8
_0-2_02___PRT_ALL_AXES
  6
CONTINUOUS
 62
    7
 10
780.36077312482075
 20
1177.5673864663659
 11
780.32666410896582
 21
1177.8907439971949
  0
LINE
  8
_0-2_02___PRT_ALL_AXES
  6
CONTINUOUS
 62
    7
 10
780.32666410896582
 20
1177.8907439971949
 11
780.30200657687283
 21
1178.2103593330721
  0
LINE
  8
_0-2_02___PRT_ALL_AXES
  6
CONTINUOUS
 62
    7
 10
780.30200657687283
 20
1178.2103593330721
 11
780.28687293759504
 21
1178.5255706190819
  0
LINE
  8
_0-2_02___PRT_ALL_AXES
  6
CONTINUOUS
 62
    7
 10
780.28687293759504
 20
1178.5255706190819
 11
780.28133233882181
 21
1178.835141859221
  0
LINE
  8
_0-2_02___PRT_ALL_AXES
  6
CONTINUOUS
 62
    7
 10
780.28133233882181
 20
1178.835141859221
 11
780.28539564819584
 21
1179.1384620194081
  0
LINE
  8
_0-2_02___PRT_ALL_AXES
  6
CONTINUOUS
 62
    7
 10
780.28539564819584
 20
1179.1384620194081
 11
780.29903751321581
 21
1179.4343404174901
  0
LINE
  8
_0-2_02___PRT_ALL_AXES
  6
CONTINUOUS
 62
    7
 10
780.29903751321581
 20
1179.4343404174901
 11
780.32220784990795
 21
1179.7221391451681
  0
LINE
  8
_0-2_02___PRT_ALL_AXES
  6
CONTINUOUS
 62
    7
 10
780.32220784990795
 20
1179.7221391451681
 11
780.35479379845083
 21
1180.0007960354019
  0
LINE
  8
_0-2_02___PRT_ALL_AXES
  6
CONTINUOUS
 62
    7
 10
780.35479379845083
 20
1180.0007960354019
 11
780.39667029940802
 21
1180.269582945376
  0
LINE
  8
_0-2_02___PRT_ALL_AXES
  6
CONTINUOUS
 62
    7
 10
780.39667029940802
 20
1180.269582945376
 11
780.4476582629627
 21
1180.527631200423
  0
LINE
  8
_0-2_02___PRT_ALL_AXES
  6
CONTINUOUS
 62
    7
 10
780.4476582629627
 20
1180.527631200423
 11
780.50753356510677
 21
1180.7740947725201
  0
LINE
  8
_0-2_02___PRT_ALL_AXES
  6
CONTINUOUS
 62
    7
 10
780.50753356510677
 20
1180.7740947725201
 11
780.5760756426539
 21
1181.0083103635238
  0
LINE
  8
_0-2_02___PRT_ALL_AXES
  6
CONTINUOUS
 62
    7
 10
780.5760756426539
 20
1181.0083103635238
 11
780.6529510504979
 21
1181.229377553087
  0
LINE
  8
_0-2_02___PRT_ALL_AXES
  6
CONTINUOUS
 62
    7
 10
780.6529510504979
 20
1181.229377553087
 11
780.73790575917474
 21
1181.4367748748941
  0
LINE
  8
_0-2_02___PRT_ALL_AXES
  6
CONTINUOUS
 62
    7
 10
780.73790575917474
 20
1181.4367748748941
 11
780.83050662502683
 21
1181.629639048474
  0
LINE
  8
_0-2_02___PRT_ALL_AXES
  6
CONTINUOUS
 62
    7
 10
780.83050662502683
 20
1181.629639048474
 11
780.9304611855946
 21
1181.8075335766061
  0
LINE
  8
_0-2_02___PRT_ALL_AXES
  6
CONTINUOUS
 62
    7
 10
780.9304611855946
 20
1181.8075335766061
 11
781.03726261181964
 21
1181.9697083952578
  0
LINE
  8
_0-2_02___PRT_ALL_AXES
  6
CONTINUOUS
 62
    7
 10
781.03726261181964
 20
1181.9697083952578
 11
781.15056593563168
 21
1182.1157760403839
  0
LINE
  8
_0-2_02___PRT_ALL_AXES
  6
CONTINUOUS
 62
    7
 10
781.15056593563168
 20
1182.1157760403839
 11
781.26983055689379
 21
1182.2451516388842
  0
LINE
  8
_0-2_02___PRT_ALL_AXES
  6
CONTINUOUS
 62
    7
 10
781.26983055689379
 20
1182.2451516388842
 11
781.39463777870378
 21
1182.3574824198099
  0
LINE
  8
_0-2_02___PRT_ALL_AXES
  6
CONTINUOUS
 62
    7
 10
781.39463777870378
 20
1182.3574824198099
 11
781.52446281318589
 21
1182.4523712904838
  0
LINE
  8
_0-2_02___PRT_ALL_AXES
  6
CONTINUOUS
 62
    7
 10
781.52446281318589
 20
1182.4523712904838
 11
781.65878929103883
 21
1182.5295098908409
  0
LINE
  8
_0-2_02___PRT_ALL_AXES
  6
CONTINUOUS
 62
    7
 10
781.65878929103883
 20
1182.5295098908409
 11
781.79714895793086
 21
1182.5886743826222
  0
LINE
  8
_0-2_02___PRT_ALL_AXES
  6
CONTINUOUS
 62
    7
 10
781.79714895793086
 20
1182.5886743826222
 11
781.93893828319187
 21
1182.6296452610559
  0
LINE
  8
_0-2_02___PRT_ALL_AXES
  6
CONTINUOUS
 62
    7
 10
781.93893828319187
 20
1182.6296452610559
 11
781.95336520099772
 21
1182.6327531992142
  0
LINE
  8
_0-2_02___PRT_ALL_AXES
  6
CONTINUOUS
 62
    7
 10
798.43846659750579
 20
1178.8145950024241
 11
799.19478837772203
 21
1177.9753378981122
  0
LINE
  8
_0-2_02___PRT_ALL_AXES
  6
CONTINUOUS
 62
    7
 10
799.19478837772203
 20
1177.9753378981122
 11
799.87170457786078
 21
1177.1547146831258
  0
LINE
  8
_0-2_02___PRT_ALL_AXES
  6
CONTINUOUS
 62
    7
 10
799.87170457786078
 20
1177.1547146831258
 11
800.47979742034795
 21
1176.3368430950982
  0
LINE
  8
_0-2_02___PRT_ALL_AXES
  6
CONTINUOUS
 62
    7
 10
800.47979742034795
 20
1176.3368430950982
 11
801.02331403943299
 21
1175.5110918730961
  0
LINE
  8
_0-2_02___PRT_ALL_AXES
  6
CONTINUOUS
 62
    7
 10
801.02331403943299
 20
1175.5110918730961
 11
801.50217902912391
 21
1174.672664614216
  0
LINE
  8
_0-2_02___PRT_ALL_AXES
  6
CONTINUOUS
 62
    7
 10
805.13942904569376
 20
1188.093412260856
 11
804.58104203699395
 21
1188.8909582547881
  0
LINE
  8
_0-2_02___PRT_ALL_AXES
  6
CONTINUOUS
 62
    7
 10
804.58104203699395
 20
1188.8909582547881
 11
804.00564178723789
 21
1189.552168962844
  0
LINE
  8
_0-2_02___PRT_ALL_AXES
  6
CONTINUOUS
 62
    7
 10
804.00564178723789
 20
1189.552168962844
 11
803.42307348806298
 21
1190.0657309253038
  0
LINE
  8
_0-2_02___PRT_ALL_AXES
  6
CONTINUOUS
 62
    7
 10
803.42307348806298
 20
1190.0657309253038
 11
802.84330512207589
 21
1190.422856854942
  0
LINE
  8
_0-2_02___PRT_ALL_AXES
  6
CONTINUOUS
 62
    7
 10
802.84330512207589
 20
1190.422856854942
 11
802.27625676341268
 21
1190.617436212035
  0
LINE
  8
_0-2_02___PRT_ALL_AXES
  6
CONTINUOUS
 62
    7
 10
802.27625676341268
 20
1190.617436212035
 11
801.73163070052078
 21
1190.6461397507678
  0
LINE
  8
_0-2_02___PRT_ALL_AXES
  6
CONTINUOUS
 62
    7
 10
801.73163070052078
 20
1190.6461397507678
 11
801.21874557313186
 21
1190.5084763453742
  0
LINE
  8
_0-2_02___PRT_ALL_AXES
  6
CONTINUOUS
 62
    7
 10
805.39542757560594
 20
1187.671475095588
 11
805.13942904569376
 21
1188.093412260856
  0
LINE
  8
_0-2_02___PRT_ALL_AXES
  6
CONTINUOUS
 62
    7
 10
805.38749458486791
 20
1187.6849814030929
 11
805.19229781193872
 21
1188.0117440787521
  0
LINE
  8
_0-2_02___PRT_ALL_AXES
  6
CONTINUOUS
 62
    7
 10
805.19229781193872
 20
1188.0117440787521
 11
804.64871815792776
 21
1188.837567896494
  0
LINE
  8
_0-2_02___PRT_ALL_AXES
  6
CONTINUOUS
 62
    7
 10
804.64871815792776
 20
1188.837567896494
 11
804.04064139440288
 21
1189.6553963941842
  0
LINE
  8
_0-2_02___PRT_ALL_AXES
  6
CONTINUOUS
 62
    7
 10
804.04064139440288
 20
1189.6553963941842
 11
803.36388711164273
 21
1190.475816702286
  0
LINE
  8
_0-2_02___PRT_ALL_AXES
  6
CONTINUOUS
 62
    7
 10
803.36388711164273
 20
1190.475816702286
 11
802.6075363792379
 21
1191.3151073239301
  0
LINE
  8
_0-2_02___PRT_ALL_AXES
  6
CONTINUOUS
 62
    7
 10
805.387605505397
 20
1187.6850087474641
 11
805.39543914809883
 21
1187.671518255268
  0
LINE
  8
_0-2_02___PRT_ALL_AXES
  6
CONTINUOUS
 62
    7
 10
801.50217902988561
 20
1174.6726646134539
 11
802.03399866093559
 21
1173.7524295001558
  0
LINE
  8
_0-2_02___PRT_ALL_AXES
  6
CONTINUOUS
 62
    7
 10
802.03399866093559
 20
1173.7524295001558
 11
802.59238570697289
 21
1172.9548834193561
  0
LINE
  8
_0-2_02___PRT_ALL_AXES
  6
CONTINUOUS
 62
    7
 10
802.59238570697289
 20
1172.9548834193561
 11
803.16778599787676
 21
1172.2936726427201
  0
LINE
  8
_0-2_02___PRT_ALL_AXES
  6
CONTINUOUS
 62
    7
 10
803.16778599787676
 20
1172.2936726427201
 11
803.75035434124766
 21
1171.780110632254
  0
LINE
  8
_0-2_02___PRT_ALL_AXES
  6
CONTINUOUS
 62
    7
 10
803.75035434124766
 20
1171.780110632254
 11
804.33012275066903
 21
1171.422984678994
  0
LINE
  8
_0-2_02___PRT_ALL_AXES
  6
CONTINUOUS
 62
    7
 10
804.33012275066903
 20
1171.422984678994
 11
804.897171149717
 21
1171.2284053219
  0
LINE
  8
_0-2_02___PRT_ALL_AXES
  6
CONTINUOUS
 62
    7
 10
804.897171149717
 20
1171.2284053219
 11
805.44179724918604
 21
1171.199701809076
  0
LINE
  8
_0-2_02___PRT_ALL_AXES
  6
CONTINUOUS
 62
    7
 10
805.44179724918604
 20
1171.199701809076
 11
805.95468233390284
 21
1171.33736524495
  0
LINE
  8
_0-2_02___PRT_ALL_AXES
  6
CONTINUOUS
 62
    7
 10
805.67124873084504
 20
1187.1731771010759
 11
805.39542757560594
 21
1187.671475095588
  0
LINE
  8
_0-3_7_ALL_FEATURES
  6
CONTINUOUS
 62
    7
 10
796.5615995658768
 20
1168.8592059221319
 11
792.01461842008075
 21
1177.4731091875601
  0
LINE
  8
_0-2_02___PRT_ALL_AXES
  6
CONTINUOUS
 62
    7
 10
801.50217902912391
 20
1174.672664614216
 11
801.91573757005199
 21
1173.8204416272761
  0
LINE
  8
_0-2_02___PRT_ALL_AXES
  6
CONTINUOUS
 62
    7
 10
801.91573757005199
 20
1173.8204416272761
 11
802.26538350042483
 21
1172.9541188239841
  0
LINE
  8
_0-2_02___PRT_ALL_AXES
  6
CONTINUOUS
 62
    7
 10
802.26538350042483
 20
1172.9541188239841
 11
802.55573716609661
 21
1172.069940528082
  0
LINE
  8
_0-2_02___PRT_ALL_AXES
  6
CONTINUOUS
 62
    7
 10
802.55573716609661
 20
1172.069940528082
 11
802.79351568241191
 21
1171.1578493484581
  0
LINE
  8
_0-2_02___PRT_ALL_AXES
  6
CONTINUOUS
 62
    7
 10
802.79351568241191
 20
1171.1578493484581
 11
802.98544774330185
 21
1170.200691737758
  0
LINE
  8
_0-2_02___PRT_ALL_AXES
  6
CONTINUOUS
 62
    7
 10
799.76003787536365
 20
1104.9766322537021
 11
800.06193983772482
 21
1103.934743035732
  0
LINE
  8
_0-2_02___PRT_ALL_AXES
  6
CONTINUOUS
 62
    7
 10
800.06193983772482
 20
1103.934743035732
 11
800.30048405659772
 21
1102.9186436597561
  0
LINE
  8
_0-2_02___PRT_ALL_AXES
  6
CONTINUOUS
 62
    7
 10
800.30048405659772
 20
1102.9186436597561
 11
800.47800823672787
 21
1101.9087755174442
  0
LINE
  8
_0-2_02___PRT_ALL_AXES
  6
CONTINUOUS
 62
    7
 10
800.47800823672787
 20
1101.9087755174442
 11
800.59351071997071
 21
1100.8921668404801
  0
LINE
  8
_0-2_02___PRT_ALL_AXES
  6
CONTINUOUS
 62
    7
 10
800.59351071997071
 20
1100.8921668404801
 11
800.64473757814676
 21
1099.8630497887361
  0
LINE
  8
_0-2_02___PRT_ALL_AXES
  6
CONTINUOUS
 62
    7
 10
798.24951091623598
 20
1189.3718027955101
 11
798.5514128778359
 21
1188.3299135775401
  0
LINE
  8
_0-2_02___PRT_ALL_AXES
  6
CONTINUOUS
 62
    7
 10
798.5514128778359
 20
1188.3299135775401
 11
798.78995709670698
 21
1187.313814200802
  0
LINE
  8
_0-2_02___PRT_ALL_AXES
  6
CONTINUOUS
 62
    7
 10
798.78995709670698
 20
1187.313814200802
 11
798.96748127759884
 21
1186.3039460592522
  0
LINE
  8
_0-2_02___PRT_ALL_AXES
  6
CONTINUOUS
 62
    7
 10
798.96748127759884
 20
1186.3039460592522
 11
799.08298376084394
 21
1185.2873373822881
  0
LINE
  8
_0-2_02___PRT_ALL_AXES
  6
CONTINUOUS
 62
    7
 10
799.08298376084394
 20
1185.2873373822881
 11
799.13421061902
 21
1184.2582203305442
  0
LINE
  8
_0-0_0
  6
CONTINUOUS
 62
    7
 10
793.47133959527991
 20
1096.0599837669938
 11
793.45853852105984
 21
1096.2624075833801
  0
LINE
  8
_0-0_0
  6
CONTINUOUS
 62
    7
 10
793.45853852105984
 20
1096.2624075833801
 11
793.44828987861592
 21
1096.4828178154062
  0
LINE
  8
_0-0_0
  6
CONTINUOUS
 62
    7
 10
793.44828987861592
 20
1096.4828178154062
 11
793.44207079808984
 21
1096.7005496585798
  0
LINE
  8
_0-0_0
  6
CONTINUOUS
 62
    7
 10
793.44207079808984
 20
1096.7005496585798
 11
793.43989044634191
 21
1096.9152821394518
  0
LINE
  8
_0-0_0
  6
CONTINUOUS
 62
    7
 10
793.43989044634191
 20
1096.9152821394518
 11
793.44175203824989
 21
1097.1266987072199
  0
LINE
  8
_0-0_0
  6
CONTINUOUS
 62
    7
 10
793.44175203824989
 20
1097.1266987072199
 11
793.44825388173604
 21
1097.3498136696762
  0
LINE
  8
_0-0_0
  6
CONTINUOUS
 62
    7
 10
791.96081263538872
 20
1180.455154308801
 11
791.94801156116864
 21
1180.6575781251881
  0
LINE
  8
_0-0_0
  6
CONTINUOUS
 62
    7
 10
791.94801156116864
 20
1180.6575781251881
 11
791.9377629194878
 21
1180.8779883572138
  0
LINE
  8
_0-0_0
  6
CONTINUOUS
 62
    7
 10
791.9377629194878
 20
1180.8779883572138
 11
791.93154383819865
 21
1181.0957202003869
  0
LINE
  8
_0-0_0
  6
CONTINUOUS
 62
    7
 10
791.93154383819865
 20
1181.0957202003869
 11
791.92936348645162
 21
1181.310452681259
  0
LINE
  8
_0-0_0
  6
CONTINUOUS
 62
    7
 10
791.92936348645162
 20
1181.310452681259
 11
791.93122507912176
 21
1181.5218692482649
  0
LINE
  8
_0-0_0
  6
CONTINUOUS
 62
    7
 10
791.93122507912176
 20
1181.5218692482649
 11
791.93772692184575
 21
1181.7449842114838
  0
LINE
  8
_0-2_02___PRT_ALL_AXES
  6
CONTINUOUS
 62
    7
 10
800.64473757586165
 20
1099.8630496012838
 11
800.70418583949004
 21
1098.6411762652542
  0
LINE
  8
_0-2_02___PRT_ALL_AXES
  6
CONTINUOUS
 62
    7
 10
800.70418583949004
 20
1098.6411762652542
 11
800.83879653419899
 21
1097.3831401808739
  0
LINE
  8
_0-2_02___PRT_ALL_AXES
  6
CONTINUOUS
 62
    7
 10
800.83879653419899
 20
1097.3831401808739
 11
801.04626786601693
 21
1096.1104617369042
  0
LINE
  8
_0-2_02___PRT_ALL_AXES
  6
CONTINUOUS
 62
    7
 10
801.04626786601693
 20
1096.1104617369042
 11
801.32305216639679
 21
1094.8449122959478
  0
LINE
  8
_0-2_02___PRT_ALL_AXES
  6
CONTINUOUS
 62
    7
 10
801.32305216639679
 20
1094.8449122959478
 11
801.66441644074166
 21
1093.6081422447278
  0
LINE
  8
_0-2_02___PRT_ALL_AXES
  6
CONTINUOUS
 62
    7
 10
801.66441644074166
 20
1093.6081422447278
 11
802.06452314954277
 21
1092.421311084232
  0
LINE
  8
_0-2_02___PRT_ALL_AXES
  6
CONTINUOUS
 62
    7
 10
802.06452314954277
 20
1092.421311084232
 11
802.5165298475099
 21
1091.304725856904
  0
LINE
  8
_0-2_02___PRT_ALL_AXES
  6
CONTINUOUS
 62
    7
 10
802.5165298475099
 20
1091.304725856904
 11
803.01270598901374
 21
1090.2774940716449
  0
LINE
  8
_0-2_02___PRT_ALL_AXES
  6
CONTINUOUS
 62
    7
 10
799.13421061597182
 20
1184.2582201423302
 11
799.19365887959884
 21
1183.0363468070618
  0
LINE
  8
_0-2_02___PRT_ALL_AXES
  6
CONTINUOUS
 62
    7
 10
799.19365887959884
 20
1183.0363468070618
 11
799.32826957430871
 21
1181.778310722681
  0
LINE
  8
_0-2_02___PRT_ALL_AXES
  6
CONTINUOUS
 62
    7
 10
799.32826957430871
 20
1181.778310722681
 11
799.53574090612665
 21
1180.5056322787118
  0
LINE
  8
_0-2_02___PRT_ALL_AXES
  6
CONTINUOUS
 62
    7
 10
799.53574090612665
 20
1180.5056322787118
 11
799.81252520650787
 21
1179.2400828377558
  0
LINE
  8
_0-2_02___PRT_ALL_AXES
  6
CONTINUOUS
 62
    7
 10
799.81252520650787
 20
1179.2400828377558
 11
800.15388948085183
 21
1178.0033127865358
  0
LINE
  8
_0-2_02___PRT_ALL_AXES
  6
CONTINUOUS
 62
    7
 10
800.15388948085183
 20
1178.0033127865358
 11
800.55399618965384
 21
1176.8164816260401
  0
LINE
  8
_0-2_02___PRT_ALL_AXES
  6
CONTINUOUS
 62
    7
 10
800.55399618965384
 20
1176.8164816260401
 11
801.00600288761962
 21
1175.6998963987121
  0
LINE
  8
_0-2_02___PRT_ALL_AXES
  6
CONTINUOUS
 62
    7
 10
801.00600288761962
 20
1175.6998963987121
 11
801.50217902988561
 21
1174.6726646134539
  0
LINE
  8
_0-2_02___PRT_ALL_AXES
  6
CONTINUOUS
 62
    7
 10
809.54974419304199
 20
1093.1924506913019
 11
809.49029592103079
 21
1094.4143242003061
  0
LINE
  8
_0-2_02___PRT_ALL_AXES
  6
CONTINUOUS
 62
    7
 10
809.49029592103079
 20
1094.4143242003061
 11
809.35568522632093
 21
1095.672360284686
  0
LINE
  8
_0-2_02___PRT_ALL_AXES
  6
CONTINUOUS
 62
    7
 10
809.35568522632093
 20
1095.672360284686
 11
809.1482138945039
 21
1096.9450387286561
  0
LINE
  8
_0-2_02___PRT_ALL_AXES
  6
CONTINUOUS
 62
    7
 10
809.1482138945039
 20
1096.9450387286561
 11
808.87142959412404
 21
1098.210588169612
  0
LINE
  8
_0-2_02___PRT_ALL_AXES
  6
CONTINUOUS
 62
    7
 10
808.87142959412404
 20
1098.210588169612
 11
808.53006531977962
 21
1099.447358220832
  0
LINE
  8
_0-2_02___PRT_ALL_AXES
  6
CONTINUOUS
 62
    7
 10
808.53006531977962
 20
1099.447358220832
 11
808.12995861021591
 21
1100.6341893813278
  0
LINE
  8
_0-2_02___PRT_ALL_AXES
  6
CONTINUOUS
 62
    7
 10
808.12995861021591
 20
1100.6341893813278
 11
807.67795191301184
 21
1101.7507746086562
  0
LINE
  8
_0-2_02___PRT_ALL_AXES
  6
CONTINUOUS
 62
    7
 10
807.67795191301184
 20
1101.7507746086562
 11
807.18177569073578
 21
1102.7780065592669
  0
LINE
  8
_0-2_02___PRT_ALL_AXES
  6
CONTINUOUS
 62
    7
 10
808.03921723315079
 20
1177.58762123311
 11
807.97976896114187
 21
1178.809494741351
  0
LINE
  8
_0-2_02___PRT_ALL_AXES
  6
CONTINUOUS
 62
    7
 10
807.97976896114187
 20
1178.809494741351
 11
807.84515826643201
 21
1180.067530826494
  0
LINE
  8
_0-2_02___PRT_ALL_AXES
  6
CONTINUOUS
 62
    7
 10
807.84515826643201
 20
1180.067530826494
 11
807.6376869346127
 21
1181.340209269702
  0
LINE
  8
_0-2_02___PRT_ALL_AXES
  6
CONTINUOUS
 62
    7
 10
807.6376869346127
 20
1181.340209269702
 11
807.36090263423284
 21
1182.605758710657
  0
LINE
  8
_0-2_02___PRT_ALL_AXES
  6
CONTINUOUS
 62
    7
 10
807.36090263423284
 20
1182.605758710657
 11
807.01953835988979
 21
1183.8425287626401
  0
LINE
  8
_0-2_02___PRT_ALL_AXES
  6
CONTINUOUS
 62
    7
 10
807.01953835988979
 20
1183.8425287626401
 11
806.61943165108778
 21
1185.029359923135
  0
LINE
  8
_0-2_02___PRT_ALL_AXES
  6
CONTINUOUS
 62
    7
 10
806.61943165108778
 20
1185.029359923135
 11
806.16742495312201
 21
1186.1459451504629
  0
LINE
  8
_0-2_02___PRT_ALL_AXES
  6
CONTINUOUS
 62
    7
 10
806.16742495312201
 20
1186.1459451504629
 11
805.67124873084504
 21
1187.1731771010759
  0
LINE
  8
_0-2_02___PRT_ALL_AXES
  6
CONTINUOUS
 62
    7
 10
793.76400398937494
 20
1037.026397346976
 11
792.85624749399585
 21
1087.7439722659542
  0
LINE
  8
_0-2_02___PRT_ALL_AXES
  6
CONTINUOUS
 62
    7
 10
792.63415461356999
 20
1100.1525998575898
 11
791.34572053410466
 21
1172.1391428070001
  0
LINE
  8
_0-2_02___PRT_ALL_AXES
  6
CONTINUOUS
 62
    7
 10
791.1236276536788
 20
1184.547770399397
 11
788.4240226452298
 21
1335.378328996504
  0
LINE
  8
_0-2_02___PRT_ALL_AXES
  6
CONTINUOUS
 62
    7
 10
786.74444523781676
 20
1429.2185751619659
 11
786.21136919068795
 21
1459.0022500552541
  0
LINE
  8
_0-3_7_ALL_FEATURES
  6
CONTINUOUS
 62
    7
 10
793.52514537997195
 20
1093.0779386457521
 11
793.33618969870076
 21
1103.6351464388381
  0
LINE
  8
_0-3_7_ALL_FEATURES
  6
CONTINUOUS
 62
    7
 10
792.01461842008075
 20
1177.4731091875601
 11
791.82566273881184
 21
1188.0303169806461
  0
LINE
  8
_0-2_02___PRT_ALL_AXES
  6
CONTINUOUS
 62
    7
 10
799.13421061902
 20
1184.2582203305442
 11
799.12005908039373
 21
1183.215275249559
  0
LINE
  8
_0-2_02___PRT_ALL_AXES
  6
CONTINUOUS
 62
    7
 10
799.12005908039373
 20
1183.215275249559
 11
799.04165179118399
 21
1182.158077526266
  0
LINE
  8
_0-2_02___PRT_ALL_AXES
  6
CONTINUOUS
 62
    7
 10
799.04165179118399
 20
1182.158077526266
 11
798.90145796133584
 21
1181.081912077635
  0
LINE
  8
_0-2_02___PRT_ALL_AXES
  6
CONTINUOUS
 62
    7
 10
798.90145796133584
 20
1181.081912077635
 11
798.70097237500795
 21
1179.974392803219
  0
LINE
  8
_0-2_02___PRT_ALL_AXES
  6
CONTINUOUS
 62
    7
 10
798.70097237500795
 20
1179.974392803219
 11
798.43846659750579
 21
1178.8145950024241
  0
LINE
  8
_0-2_02___PRT_ALL_AXES
  6
CONTINUOUS
 62
    7
 10
800.64473757814676
 20
1099.8630497887361
 11
800.63058604028402
 21
1098.8201047077519
  0
LINE
  8
_0-2_02___PRT_ALL_AXES
  6
CONTINUOUS
 62
    7
 10
800.63058604028402
 20
1098.8201047077519
 11
800.55217875107382
 21
1097.7629069844579
  0
LINE
  8
_0-2_02___PRT_ALL_AXES
  6
CONTINUOUS
 62
    7
 10
800.55217875107382
 20
1097.7629069844579
 11
800.41198492122567
 21
1096.68674153659
  0
LINE
  8
_0-2_02___PRT_ALL_AXES
  6
CONTINUOUS
 62
    7
 10
800.41198492122567
 20
1096.68674153659
 11
800.21149933489778
 21
1095.5792222614118
  0
LINE
  8
_0-2_02___PRT_ALL_AXES
  6
CONTINUOUS
 62
    7
 10
800.21149933489778
 20
1095.5792222614118
 11
799.94899355739472
 21
1094.419424460616
  0
LINE
  8
_0-2_02___PRT_ALL_AXES
  6
CONTINUOUS
 62
    7
 10
627.77650673668677
 20
1189.1876363276742
 11
627.20223280827486
 21
1188.100241006151
  0
LINE
  8
_0-2_02___PRT_ALL_AXES
  6
CONTINUOUS
 62
    7
 10
627.20223280827486
 20
1188.100241006151
 11
626.69755393015794
 21
1187.0395454178702
  0
LINE
  8
_0-2_02___PRT_ALL_AXES
  6
CONTINUOUS
 62
    7
 10
626.69755393015794
 20
1187.0395454178702
 11
626.25498929077685
 21
1185.985123802307
  0
LINE
  8
_0-2_02___PRT_ALL_AXES
  6
CONTINUOUS
 62
    7
 10
626.25498929077685
 20
1185.985123802307
 11
625.87210646040603
 21
1184.9234193831762
  0
LINE
  8
_0-2_02___PRT_ALL_AXES
  6
CONTINUOUS
 62
    7
 10
625.87210646040603
 20
1184.9234193831762
 11
625.54961608709982
 21
1183.8483971936262
  0
LINE
  8
_0-2_02___PRT_ALL_AXES
  6
CONTINUOUS
 62
    7
 10
649.52567174347678
 20
1087.252201314267
 11
649.67472892948763
 21
1087.2250119655482
  0
LINE
  8
_0-2_02___PRT_ALL_AXES
  6
CONTINUOUS
 62
    7
 10
649.67472892948763
 20
1087.2250119655482
 11
649.83992470856992
 21
1087.2129438827501
  0
LINE
  8
_0-2_02___PRT_ALL_AXES
  6
CONTINUOUS
 62
    7
 10
649.83992470856992
 20
1087.2129438827501
 11
650.00926250705379
 21
1087.2187954880142
  0
LINE
  8
_0-2_02___PRT_ALL_AXES
  6
CONTINUOUS
 62
    7
 10
650.00926250705379
 20
1087.2187954880142
 11
650.18228917801798
 21
1087.2425193171221
  0
LINE
  8
_0-2_02___PRT_ALL_AXES
  6
CONTINUOUS
 62
    7
 10
650.18228917801798
 20
1087.2425193171221
 11
650.35853451717003
 21
1087.284017760921
  0
LINE
  8
_0-2_02___PRT_ALL_AXES
  6
CONTINUOUS
 62
    7
 10
650.35853451717003
 20
1087.284017760921
 11
650.53751195931591
 21
1087.3431446510499
  0
LINE
  8
_0-2_02___PRT_ALL_AXES
  6
CONTINUOUS
 62
    7
 10
650.53751195931591
 20
1087.3431446510499
 11
650.71871920853391
 21
1087.4197067145878
  0
LINE
  8
_0-2_02___PRT_ALL_AXES
  6
CONTINUOUS
 62
    7
 10
650.71871920853391
 20
1087.4197067145878
 11
650.90163884853473
 21
1087.5134648336502
  0
LINE
  8
_0-2_02___PRT_ALL_AXES
  6
CONTINUOUS
 62
    7
 10
650.90163884853473
 20
1087.5134648336502
 11
651.08573894617166
 21
1087.6241350359819
  0
LINE
  8
_0-2_02___PRT_ALL_AXES
  6
CONTINUOUS
 62
    7
 10
651.08573894617166
 20
1087.6241350359819
 11
651.27047372656079
 21
1087.7513892348638
  0
LINE
  8
_0-2_02___PRT_ALL_AXES
  6
CONTINUOUS
 62
    7
 10
651.27047372656079
 20
1087.7513892348638
 11
651.45528433661866
 21
1087.894855683262
  0
LINE
  8
_0-2_02___PRT_ALL_AXES
  6
CONTINUOUS
 62
    7
 10
651.45528433661866
 20
1087.894855683262
 11
651.63959979374386
 21
1088.054119219953
  0
LINE
  8
_0-2_02___PRT_ALL_AXES
  6
CONTINUOUS
 62
    7
 10
651.63959979374386
 20
1088.054119219953
 11
651.82283814253196
 21
1088.2287213274421
  0
LINE
  8
_0-2_02___PRT_ALL_AXES
  6
CONTINUOUS
 62
    7
 10
651.82283814253196
 20
1088.2287213274421
 11
652.00440791096298
 21
1088.418160121284
  0
LINE
  8
_0-2_02___PRT_ALL_AXES
  6
CONTINUOUS
 62
    7
 10
652.00440791096298
 20
1088.418160121284
 11
652.18370986909804
 21
1088.6218903310441
  0
LINE
  8
_0-2_02___PRT_ALL_AXES
  6
CONTINUOUS
 62
    7
 10
652.18370986909804
 20
1088.6218903310441
 11
652.36013916114598
 21
1088.8393234107821
  0
LINE
  8
_0-2_02___PRT_ALL_AXES
  6
CONTINUOUS
 62
    7
 10
652.36013916114598
 20
1088.8393234107821
 11
652.53308780254793
 21
1089.0698278644281
  0
LINE
  8
_0-2_02___PRT_ALL_AXES
  6
CONTINUOUS
 62
    7
 10
652.53308780254793
 20
1089.0698278644281
 11
652.70194752527868
 21
1089.3127298881482
  0
LINE
  8
_0-2_02___PRT_ALL_AXES
  6
CONTINUOUS
 62
    7
 10
652.70194752527868
 20
1089.3127298881482
 11
652.86611299958986
 21
1089.5673144508601
  0
LINE
  8
_0-2_02___PRT_ALL_AXES
  6
CONTINUOUS
 62
    7
 10
652.86611299958986
 20
1089.5673144508601
 11
653.02498528052365
 21
1089.8328267801339
  0
LINE
  8
_0-2_02___PRT_ALL_AXES
  6
CONTINUOUS
 62
    7
 10
653.02498528052365
 20
1089.8328267801339
 11
653.17797556610867
 21
1090.1084744851241
  0
LINE
  8
_0-2_02___PRT_ALL_AXES
  6
CONTINUOUS
 62
    7
 10
653.17797556610867
 20
1090.1084744851241
 11
653.32450897459194
 21
1090.3934300147798
  0
LINE
  8
_0-2_02___PRT_ALL_AXES
  6
CONTINUOUS
 62
    7
 10
653.32450897459194
 20
1090.3934300147798
 11
653.46402848396883
 21
1090.6868338079562
  0
LINE
  8
_0-2_02___PRT_ALL_AXES
  6
CONTINUOUS
 62
    7
 10
653.46402848396883
 20
1090.6868338079562
 11
653.59599869475596
 21
1090.9877976705939
  0
LINE
  8
_0-2_02___PRT_ALL_AXES
  6
CONTINUOUS
 62
    7
 10
653.59599869475596
 20
1090.9877976705939
 11
653.71990953024579
 21
1091.295408689356
  0
LINE
  8
_0-2_02___PRT_ALL_AXES
  6
CONTINUOUS
 62
    7
 10
653.71990953024579
 20
1091.295408689356
 11
653.83527959465391
 21
1091.6087331757358
  0
LINE
  8
_0-2_02___PRT_ALL_AXES
  6
CONTINUOUS
 62
    7
 10
653.83527959465391
 20
1091.6087331757358
 11
653.94165927216591
 21
1091.9268208829681
  0
LINE
  8
_0-2_02___PRT_ALL_AXES
  6
CONTINUOUS
 62
    7
 10
653.94165927216591
 20
1091.9268208829681
 11
654.03863340155885
 21
1092.2487091116818
  0
LINE
  8
_0-2_02___PRT_ALL_AXES
  6
CONTINUOUS
 62
    7
 10
654.03863340155885
 20
1092.2487091116818
 11
654.12582352029494
 21
1092.5734266204881
  0
LINE
  8
_0-2_02___PRT_ALL_AXES
  6
CONTINUOUS
 62
    7
 10
654.12582352029494
 20
1092.5734266204881
 11
654.20288974360801
 21
1092.899997490078
  0
LINE
  8
_0-2_02___PRT_ALL_AXES
  6
CONTINUOUS
 62
    7
 10
654.20288974360801
 20
1092.899997490078
 11
654.26953212543594
 21
1093.2274442809539
  0
LINE
  8
_0-2_02___PRT_ALL_AXES
  6
CONTINUOUS
 62
    7
 10
654.26953212543594
 20
1093.2274442809539
 11
654.32549176942075
 21
1093.554791316124
  0
LINE
  8
_0-2_02___PRT_ALL_AXES
  6
CONTINUOUS
 62
    7
 10
654.32549176942075
 20
1093.554791316124
 11
654.37055147965793
 21
1093.881066911475
  0
LINE
  8
_0-2_02___PRT_ALL_AXES
  6
CONTINUOUS
 62
    7
 10
654.37055147965793
 20
1093.881066911475
 11
654.40453627503484
 21
1094.2053059292398
  0
LINE
  8
_0-2_02___PRT_ALL_AXES
  6
CONTINUOUS
 62
    7
 10
654.40453627503484
 20
1094.2053059292398
 11
654.42731358508081
 21
1094.5265512059759
  0
LINE
  8
_0-2_02___PRT_ALL_AXES
  6
CONTINUOUS
 62
    7
 10
654.42731358508081
 20
1094.5265512059759
 11
654.4387934084516
 21
1094.8438554209979
  0
LINE
  8
_0-2_02___PRT_ALL_AXES
  6
CONTINUOUS
 62
    7
 10
654.4387934084516
 20
1094.8438554209979
 11
654.43892831597896
 21
1095.1562821227881
  0
LINE
  8
_0-2_02___PRT_ALL_AXES
  6
CONTINUOUS
 62
    7
 10
641.57545342067988
 20
1107.1392330425379
 11
635.56382409979187
 21
1108.5657047699801
  0
LINE
  8
_0-2_02___PRT_ALL_AXES
  6
CONTINUOUS
 62
    7
 10
807.94509452452075
 20
1175.4622018045061
 11
808.02248641215465
 21
1176.422812314574
  0
LINE
  8
_0-2_02___PRT_ALL_AXES
  6
CONTINUOUS
 62
    7
 10
808.02248641215465
 20
1176.422812314574
 11
808.03921723315079
 21
1177.58762123311
  0
LINE
  8
_0-2_02___PRT_ALL_AXES
  6
CONTINUOUS
 62
    7
 10
809.45562148441195
 20
1091.067031262698
 11
809.53301337204584
 21
1092.0276417735281
  0
LINE
  8
_0-2_02___PRT_ALL_AXES
  6
CONTINUOUS
 62
    7
 10
809.53301337204584
 20
1092.0276417735281
 11
809.54974419304199
 21
1093.1924506913019
  0
LINE
  8
_0-2_02___PRT_ALL_AXES
  6
CONTINUOUS
 62
    7
 10
807.76292878674576
 20
1174.3427765719362
 11
807.92986242112784
 21
1175.3349941645861
  0
LINE
  8
_0-2_02___PRT_ALL_AXES
  6
CONTINUOUS
 62
    7
 10
807.92986242112784
 20
1175.3349941645861
 11
807.94509452452075
 21
1175.4622018045061
  0
LINE
  8
_0-4_EL-M10011N_______9
  6
CONTINUOUS
 62
    7
 10
886.31631858694163
 20
1583.1644858951308
 11
886.34787873108598
 21
1583.3103621342402
  0
LINE
  8
_0-4_EL-M10011N_______9
  6
CONTINUOUS
 62
    7
 10
886.34787873108598
 20
1583.3103621342402
 11
886.45443663277683
 21
1583.448213621808
  0
LINE
  8
_0-4_EL-M10011N_______9
  6
CONTINUOUS
 62
    7
 10
886.45443663277683
 20
1583.448213621808
 11
886.6303053496199
 21
1583.5771246289082
  0
LINE
  8
_0-4_EL-M10011N_______9
  6
CONTINUOUS
 62
    7
 10
886.6303053496199
 20
1583.5771246289082
 11
886.86666608949463
 21
1583.6906310196241
  0
LINE
  8
_0-4_EL-M10011N_______9
  6
CONTINUOUS
 62
    7
 10
886.86666608949463
 20
1583.6906310196241
 11
887.15166673717204
 21
1583.7830411088698
  0
LINE
  8
_0-5_EL-M10011N_______8
  6
CONTINUOUS
 62
    7
 10
886.86427264216081
 20
1562.0658344262761
 11
886.90214481559178
 21
1562.240885913357
  0
LINE
  8
_0-5_EL-M10011N_______8
  6
CONTINUOUS
 62
    7
 10
886.90214481559178
 20
1562.240885913357
 11
887.03001429823189
 21
1562.4063076985922
  0
LINE
  8
_0-5_EL-M10011N_______8
  6
CONTINUOUS
 62
    7
 10
887.03001429823189
 20
1562.4063076985922
 11
887.24105675828878
 21
1562.561000907112
  0
LINE
  8
_0-5_EL-M10011N_______8
  6
CONTINUOUS
 62
    7
 10
887.24105675828878
 20
1562.561000907112
 11
887.52468964568379
 21
1562.6972085755142
  0
LINE
  8
_0-5_EL-M10011N_______8
  6
CONTINUOUS
 62
    7
 10
887.52468964568379
 20
1562.6972085755142
 11
887.86669042243784
 21
1562.8081006829129
  0
LINE
  8
_0-2_02___PRT_ALL_AXES
  6
CONTINUOUS
 62
    7
 10
629.28703369581581
 20
1104.7924657858662
 11
628.7127597681656
 21
1103.7050704643439
  0
LINE
  8
_0-2_02___PRT_ALL_AXES
  6
CONTINUOUS
 62
    7
 10
628.7127597681656
 20
1103.7050704643439
 11
628.20808089004686
 21
1102.6443748760621
  0
LINE
  8
_0-2_02___PRT_ALL_AXES
  6
CONTINUOUS
 62
    7
 10
628.20808089004686
 20
1102.6443748760621
 11
627.76551625066759
 21
1101.5899532604999
  0
LINE
  8
_0-2_02___PRT_ALL_AXES
  6
CONTINUOUS
 62
    7
 10
627.76551625066759
 20
1101.5899532604999
 11
627.38263342029586
 21
1100.5282488413682
  0
LINE
  8
_0-2_02___PRT_ALL_AXES
  6
CONTINUOUS
 62
    7
 10
627.38263342029586
 20
1100.5282488413682
 11
627.06014304698965
 21
1099.4532266518181
  0
LINE
  8
_0-4_EL-M10011N_______9
  6
CONTINUOUS
 62
    7
 10
887.97857442523764
 20
1564.1195717033502
 11
887.80344906225582
 21
1563.990997673985
  0
LINE
  8
_0-4_EL-M10011N_______9
  6
CONTINUOUS
 62
    7
 10
887.80344906225582
 20
1563.990997673985
 11
887.69730945512993
 21
1563.853687324528
  0
LINE
  8
_0-4_EL-M10011N_______9
  6
CONTINUOUS
 62
    7
 10
887.69730945512993
 20
1563.853687324528
 11
887.66561796047381
 21
1563.7075360971462
  0
LINE
  8
_0-2_02___PRT_ALL_AXES
  6
CONTINUOUS
 62
    7
 10
634.11541689856767
 20
1169.4755443155641
 11
628.10378757767967
 21
1170.9020160437681
  0
LINE
  8
_0-2_02___PRT_ALL_AXES
  6
CONTINUOUS
 62
    7
 10
640.39220730254283
 20
1173.2487832996781
 11
634.38057798089403
 21
1174.675255027882
  0
LINE
  8
_0-2_02___PRT_ALL_AXES
  6
CONTINUOUS
 62
    7
 10
640.44478073206801
 20
1173.443708591818
 11
648.01514479501793
 21
1171.6473719040819
  0
LINE
  8
_0-0_0
  6
CONTINUOUS
 62
    2
 10
649.90207715093993
 20
1172.2568940337778
 11
640.71278420240878
 21
1174.4373788719358
  0
LINE
  8
_0-0_0
  6
CONTINUOUS
 62
    2
 10
652.3897220692138
 20
1182.0826164742421
 11
643.35311468627879
 21
1184.2268712604
  0
LINE
  8
_0-2_02___PRT_ALL_AXES
  6
CONTINUOUS
 62
    7
 10
643.36696208327385
 20
1184.27821293445
 11
637.35533276162369
 21
1185.7046846618919
  0
LINE
  8
_0-2_02___PRT_ALL_AXES
  6
CONTINUOUS
 62
    7
 10
642.8554664697408
 20
1185.4022194893282
 11
650.8299697614957
 21
1183.5099864724302
  0
LINE
  8
_0-2_02___PRT_ALL_AXES
  6
CONTINUOUS
 62
    7
 10
640.06492646078868
 20
1191.534403584345
 11
634.05329713990068
 21
1192.9608753117882
  0
LINE
  8
_0-4_EL-M10011N_______9
  6
CONTINUOUS
 62
    7
 10
887.15166673717204
 20
1583.7830411088698
 11
887.1473950543259
 21
1584.0794316730598
  0
LINE
  8
_0-4_EL-M10011N_______9
  6
CONTINUOUS
 62
    7
 10
887.1473950543259
 20
1584.0794316730598
 11
887.17768635797984
 21
1584.3352298480258
  0
LINE
  8
_0-4_EL-M10011N_______9
  6
CONTINUOUS
 62
    7
 10
887.17768635797984
 20
1584.3352298480258
 11
887.24102171467075
 21
1584.5376088450962
  0
LINE
  8
_0-4_EL-M10011N_______9
  6
CONTINUOUS
 62
    7
 10
887.24102171467075
 20
1584.5376088450962
 11
887.33422522574983
 21
1584.6764205357222
  0
LINE
  8
_0-4_EL-M10011N_______9
  6
CONTINUOUS
 62
    7
 10
887.33422522574983
 20
1584.6764205357222
 11
887.44870415858986
 21
1584.7437093770141
  0
LINE
  8
_0-5_EL-M10011N_______8
  6
CONTINUOUS
 62
    7
 10
887.86669042243784
 20
1562.8081006829129
 11
887.86156440347895
 21
1563.1637693599409
  0
LINE
  8
_0-5_EL-M10011N_______8
  6
CONTINUOUS
 62
    7
 10
887.86156440347895
 20
1563.1637693599409
 11
887.89791396755982
 21
1563.470727170205
  0
LINE
  8
_0-5_EL-M10011N_______8
  6
CONTINUOUS
 62
    7
 10
887.89791396755982
 20
1563.470727170205
 11
887.973916396199
 21
1563.7135819666901
  0
LINE
  8
_0-5_EL-M10011N_______8
  6
CONTINUOUS
 62
    7
 10
887.973916396199
 20
1563.7135819666901
 11
888.0857606088839
 21
1563.880155995746
  0
LINE
  8
_0-5_EL-M10011N_______8
  6
CONTINUOUS
 62
    7
 10
888.0857606088839
 20
1563.880155995746
 11
888.22313532829185
 21
1563.960902605143
  0
LINE
  8
_0-5_EL-M10011N_______8
  6
CONTINUOUS
 62
    7
 10
886.86427264216081
 20
1562.0658344262761
 11
886.88403927877789
 21
1562.488565001946
  0
LINE
  8
_0-5_EL-M10011N_______8
  6
CONTINUOUS
 62
    7
 10
886.88403927877789
 20
1562.488565001946
 11
887.00468862015578
 21
1562.905546849971
  0
LINE
  8
_0-5_EL-M10011N_______8
  6
CONTINUOUS
 62
    7
 10
887.00468862015578
 20
1562.905546849971
 11
887.21402893299592
 21
1563.273963541636
  0
LINE
  8
_0-5_EL-M10011N_______8
  6
CONTINUOUS
 62
    7
 10
887.21402893299592
 20
1563.273963541636
 11
887.46292021346881
 21
1563.549554396091
  0
LINE
  8
_0-5_EL-M10011N_______8
  6
CONTINUOUS
 62
    7
 10
887.46292021346881
 20
1563.549554396091
 11
887.72640820744664
 21
1563.7475126501622
  0
LINE
  8
_0-5_EL-M10011N_______8
  6
CONTINUOUS
 62
    7
 10
887.72640820744664
 20
1563.7475126501622
 11
887.98380481762069
 21
1563.8798497334678
  0
LINE
  8
_0-5_EL-M10011N_______8
  6
CONTINUOUS
 62
    7
 10
887.98380481762069
 20
1563.8798497334678
 11
888.22313532829185
 21
1563.960902605143
  0
LINE
  8
_0-4_EL-M10011N_______9
  6
CONTINUOUS
 62
    7
 10
886.31631858694163
 20
1583.1644858951308
 11
886.33296761714382
 21
1583.5178363174609
  0
LINE
  8
_0-4_EL-M10011N_______9
  6
CONTINUOUS
 62
    7
 10
886.33296761714382
 20
1583.5178363174609
 11
886.43328999282585
 21
1583.8641472824461
  0
LINE
  8
_0-4_EL-M10011N_______9
  6
CONTINUOUS
 62
    7
 10
886.43328999282585
 20
1583.8641472824461
 11
886.60834768792074
 21
1584.1720306857278
  0
LINE
  8
_0-4_EL-M10011N_______9
  6
CONTINUOUS
 62
    7
 10
886.60834768792074
 20
1584.1720306857278
 11
886.84541374414084
 21
1584.427498578651
  0
LINE
  8
_0-4_EL-M10011N_______9
  6
CONTINUOUS
 62
    7
 10
886.84541374414084
 20
1584.427498578651
 11
887.13020986873062
 21
1584.6202862177138
  0
LINE
  8
_0-4_EL-M10011N_______9
  6
CONTINUOUS
 62
    7
 10
887.13020986873062
 20
1584.6202862177138
 11
887.44870415858986
 21
1584.7437093770141
  0
LINE
  8
_0-2_02___PRT_ALL_AXES
  6
CONTINUOUS
 62
    7
 10
809.27345574663559
 20
1089.9476060301281
 11
809.44038938101676
 21
1090.939823622778
  0
LINE
  8
_0-2_02___PRT_ALL_AXES
  6
CONTINUOUS
 62
    7
 10
809.44038938101676
 20
1090.939823622778
 11
809.45562148441195
 21
1091.067031262698
  0
LINE
  8
_0-2_02___PRT_ALL_AXES
  6
CONTINUOUS
 62
    7
 10
807.34347320630377
 20
1172.143996266178
 11
807.60596960968087
 21
1173.303748203718
  0
LINE
  8
_0-2_02___PRT_ALL_AXES
  6
CONTINUOUS
 62
    7
 10
807.60596960968087
 20
1173.303748203718
 11
807.80649987892684
 21
1174.411539041218
  0
LINE
  8
_0-2_02___PRT_ALL_AXES
  6
CONTINUOUS
 62
    7
 10
807.80649987892684
 20
1174.411539041218
 11
807.92190993690565
 21
1175.259728013873
  0
LINE
  8
_0-2_02___PRT_ALL_AXES
  6
CONTINUOUS
 62
    7
 10
808.85400016619269
 20
1087.7488257243699
 11
809.11649656880991
 21
1088.908577661909
  0
LINE
  8
_0-2_02___PRT_ALL_AXES
  6
CONTINUOUS
 62
    7
 10
809.11649656880991
 20
1088.908577661909
 11
809.31702683881804
 21
1090.01636849941
  0
LINE
  8
_0-2_02___PRT_ALL_AXES
  6
CONTINUOUS
 62
    7
 10
809.31702683881804
 20
1090.01636849941
 11
809.43243689679593
 21
1090.864557472828
  0
LINE
  8
_0-2_02___PRT_ALL_AXES
  6
CONTINUOUS
 62
    7
 10
628.10378757767967
 20
1170.9020160437681
 11
628.49419027058366
 21
1171.3581238005881
  0
LINE
  8
_0-2_02___PRT_ALL_AXES
  6
CONTINUOUS
 62
    7
 10
628.49419027058366
 20
1171.3581238005881
 11
628.92012045910678
 21
1171.78642249009
  0
LINE
  8
_0-2_02___PRT_ALL_AXES
  6
CONTINUOUS
 62
    7
 10
628.92012045910678
 20
1171.78642249009
 11
629.39159941480193
 21
1172.19449005978
  0
LINE
  8
_0-2_02___PRT_ALL_AXES
  6
CONTINUOUS
 62
    7
 10
629.39159941480193
 20
1172.19449005978
 11
629.91733724114965
 21
1172.5865980248641
  0
LINE
  8
_0-2_02___PRT_ALL_AXES
  6
CONTINUOUS
 62
    7
 10
629.91733724114965
 20
1172.5865980248641
 11
630.50266940347683
 21
1172.964111152487
  0
LINE
  8
_0-4_EL-M10011N_______9
  6
CONTINUOUS
 62
    7
 10
888.21466369880272
 20
1564.2331693435649
 11
887.97857442523764
 21
1564.1195717033502
  0
LINE
  8
_0-4_EL-M10011N_______9
  6
CONTINUOUS
 62
    7
 10
888.50095576350577
 20
1564.3260905907941
 11
888.21466369880272
 21
1564.2331693435649
  0
LINE
  8
_0-2_02___PRT_ALL_AXES
  6
CONTINUOUS
 62
    7
 10
648.01514478358695
 20
1171.647371856076
 11
648.16420197035995
 21
1171.6201825073549
  0
LINE
  8
_0-2_02___PRT_ALL_AXES
  6
CONTINUOUS
 62
    7
 10
648.16420197035995
 20
1171.6201825073549
 11
648.32939774867873
 21
1171.6081144245582
  0
LINE
  8
_0-2_02___PRT_ALL_AXES
  6
CONTINUOUS
 62
    7
 10
648.32939774867873
 20
1171.6081144245582
 11
648.49873554792475
 21
1171.6139660298222
  0
LINE
  8
_0-2_02___PRT_ALL_AXES
  6
CONTINUOUS
 62
    7
 10
648.49873554792475
 20
1171.6139660298222
 11
648.67176221812679
 21
1171.6376898589301
  0
LINE
  8
_0-2_02___PRT_ALL_AXES
  6
CONTINUOUS
 62
    7
 10
648.67176221812679
 20
1171.6376898589301
 11
648.84800755727883
 21
1171.679188302729
  0
LINE
  8
_0-2_02___PRT_ALL_AXES
  6
CONTINUOUS
 62
    7
 10
648.84800755727883
 20
1171.679188302729
 11
649.02698500018778
 21
1171.7383151920958
  0
LINE
  8
_0-2_02___PRT_ALL_AXES
  6
CONTINUOUS
 62
    7
 10
649.02698500018778
 20
1171.7383151920958
 11
649.20819224864272
 21
1171.814877256395
  0
LINE
  8
_0-2_02___PRT_ALL_AXES
  6
CONTINUOUS
 62
    7
 10
649.20819224864272
 20
1171.814877256395
 11
649.39111188864581
 21
1171.9086353754578
  0
LINE
  8
_0-2_02___PRT_ALL_AXES
  6
CONTINUOUS
 62
    7
 10
649.39111188864581
 20
1171.9086353754578
 11
649.57521198628183
 21
1172.01930557779
  0
LINE
  8
_0-2_02___PRT_ALL_AXES
  6
CONTINUOUS
 62
    7
 10
649.57521198628183
 20
1172.01930557779
 11
649.75994676667187
 21
1172.1465597759102
  0
LINE
  8
_0-2_02___PRT_ALL_AXES
  6
CONTINUOUS
 62
    7
 10
649.75994676667187
 20
1172.1465597759102
 11
649.94475737672883
 21
1172.2900262243079
  0
LINE
  8
_0-2_02___PRT_ALL_AXES
  6
CONTINUOUS
 62
    7
 10
649.94475737672883
 20
1172.2900262243079
 11
650.12907283385402
 21
1172.4492897609998
  0
LINE
  8
_0-2_02___PRT_ALL_AXES
  6
CONTINUOUS
 62
    7
 10
650.12907283385402
 20
1172.4492897609998
 11
650.31231118264168
 21
1172.623891868488
  0
LINE
  8
_0-2_02___PRT_ALL_AXES
  6
CONTINUOUS
 62
    7
 10
650.31231118264168
 20
1172.623891868488
 11
650.4938809510727
 21
1172.8133306630921
  0
LINE
  8
_0-2_02___PRT_ALL_AXES
  6
CONTINUOUS
 62
    7
 10
650.4938809510727
 20
1172.8133306630921
 11
650.67318290920684
 21
1173.0170608728522
  0
LINE
  8
_0-2_02___PRT_ALL_AXES
  6
CONTINUOUS
 62
    7
 10
650.67318290920684
 20
1173.0170608728522
 11
650.84961220201785
 21
1173.234493951828
  0
LINE
  8
_0-2_02___PRT_ALL_AXES
  6
CONTINUOUS
 62
    7
 10
650.84961220201785
 20
1173.234493951828
 11
651.02256084265673
 21
1173.4649984062362
  0
LINE
  8
_0-2_02___PRT_ALL_AXES
  6
CONTINUOUS
 62
    7
 10
651.02256084265673
 20
1173.4649984062362
 11
651.19142056615192
 21
1173.7079004299562
  0
LINE
  8
_0-2_02___PRT_ALL_AXES
  6
CONTINUOUS
 62
    7
 10
651.19142056615192
 20
1173.7079004299562
 11
651.35558603969866
 21
1173.9624849926681
  0
LINE
  8
_0-2_02___PRT_ALL_AXES
  6
CONTINUOUS
 62
    7
 10
651.35558603969866
 20
1173.9624849926681
 11
651.51445832063382
 21
1174.227997321942
  0
LINE
  8
_0-2_02___PRT_ALL_AXES
  6
CONTINUOUS
 62
    7
 10
651.51445832063382
 20
1174.227997321942
 11
651.66744860621884
 21
1174.5036450269322
  0
LINE
  8
_0-2_02___PRT_ALL_AXES
  6
CONTINUOUS
 62
    7
 10
651.66744860621884
 20
1174.5036450269322
 11
651.81398201470165
 21
1174.7886005565879
  0
LINE
  8
_0-2_02___PRT_ALL_AXES
  6
CONTINUOUS
 62
    7
 10
651.81398201470165
 20
1174.7886005565879
 11
651.953501524079
 21
1175.0820043497638
  0
LINE
  8
_0-2_02___PRT_ALL_AXES
  6
CONTINUOUS
 62
    7
 10
651.953501524079
 20
1175.0820043497638
 11
652.08547173486568
 21
1175.382968212401
  0
LINE
  8
_0-2_02___PRT_ALL_AXES
  6
CONTINUOUS
 62
    7
 10
652.08547173486568
 20
1175.382968212401
 11
652.20938257035459
 21
1175.690579230401
  0
LINE
  8
_0-2_02___PRT_ALL_AXES
  6
CONTINUOUS
 62
    7
 10
652.20938257035459
 20
1175.690579230401
 11
652.32475263476272
 21
1176.0039037175429
  0
LINE
  8
_0-2_02___PRT_ALL_AXES
  6
CONTINUOUS
 62
    7
 10
652.32475263476272
 20
1176.0039037175429
 11
652.43113231227471
 21
1176.3219914247761
  0
LINE
  8
_0-2_02___PRT_ALL_AXES
  6
CONTINUOUS
 62
    7
 10
652.43113231227471
 20
1176.3219914247761
 11
652.52810644166993
 21
1176.6438796527282
  0
LINE
  8
_0-2_02___PRT_ALL_AXES
  6
CONTINUOUS
 62
    7
 10
652.52810644166993
 20
1176.6438796527282
 11
652.61529656116682
 21
1176.968597161534
  0
LINE
  8
_0-2_02___PRT_ALL_AXES
  6
CONTINUOUS
 62
    7
 10
652.61529656116682
 20
1176.968597161534
 11
652.69236278447988
 21
1177.2951680318861
  0
LINE
  8
_0-2_02___PRT_ALL_AXES
  6
CONTINUOUS
 62
    7
 10
652.69236278447988
 20
1177.2951680318861
 11
652.75900516554475
 21
1177.622614822762
  0
LINE
  8
_0-2_02___PRT_ALL_AXES
  6
CONTINUOUS
 62
    7
 10
652.75900516554475
 20
1177.622614822762
 11
652.81496480953183
 21
1177.9499618579321
  0
LINE
  8
_0-2_02___PRT_ALL_AXES
  6
CONTINUOUS
 62
    7
 10
652.81496480953183
 20
1177.9499618579321
 11
652.86002452052981
 21
1178.276237453284
  0
LINE
  8
_0-2_02___PRT_ALL_AXES
  6
CONTINUOUS
 62
    7
 10
652.86002452052981
 20
1178.276237453284
 11
652.89400931514592
 21
1178.6004764702861
  0
LINE
  8
_0-2_02___PRT_ALL_AXES
  6
CONTINUOUS
 62
    7
 10
652.89400931514592
 20
1178.6004764702861
 11
652.91678662519189
 21
1178.921721747784
  0
LINE
  8
_0-2_02___PRT_ALL_AXES
  6
CONTINUOUS
 62
    7
 10
652.91678662519189
 20
1178.921721747784
 11
652.92826644856177
 21
1179.239025962805
  0
LINE
  8
_0-2_02___PRT_ALL_AXES
  6
CONTINUOUS
 62
    7
 10
652.92826644856177
 20
1179.239025962805
 11
652.92840135609003
 21
1179.5514526645961
  0
LINE
  8
_0-5_EL-M10011N_______8
  6
CONTINUOUS
 62
    7
 10
896.75263364822968
 20
1419.4741827760122
 11
886.86427264216081
 21
1562.0658344262761
  0
LINE
  8
_0-4_EL-M10011N_______9
  6
CONTINUOUS
 62
    7
 10
886.31631858694163
 20
1583.1644858951308
 11
887.66560761251276
 21
1563.707535377056
  0
LINE
  8
_0-5_EL-M10011N_______8
  6
CONTINUOUS
 62
    7
 10
897.75505142926795
 20
1420.21644903265
 11
887.86669042243784
 21
1562.8081006829129
  0
LINE
  8
_0-4_EL-M10011N_______9
  6
CONTINUOUS
 62
    7
 10
888.50095576350577
 20
1564.3260905907941
 11
887.15166673717204
 21
1583.7830411088698
  0
LINE
  8
_0-2_02___PRT_ALL_AXES
  6
CONTINUOUS
 62
    7
 10
798.07212652500584
 20
1084.464035381086
 11
804.49597470242998
 21
1085.805521195949
  0
LINE
  8
_0-2_02___PRT_ALL_AXES
  6
CONTINUOUS
 62
    7
 10
785.95617150448788
 20
1086.30303669571
 11
785.84134495791477
 21
1086.2867136872078
  0
LINE
  8
_0-2_02___PRT_ALL_AXES
  6
CONTINUOUS
 62
    7
 10
785.84134495791477
 20
1086.2867136872078
 11
785.70966932870897
 21
1086.285651597891
  0
LINE
  8
_0-2_02___PRT_ALL_AXES
  6
CONTINUOUS
 62
    7
 10
785.70966932870897
 20
1086.285651597891
 11
785.57395131922067
 21
1086.302549809714
  0
LINE
  8
_0-2_02___PRT_ALL_AXES
  6
CONTINUOUS
 62
    7
 10
785.57395131922067
 20
1086.302549809714
 11
785.43467246544469
 21
1086.3373144518941
  0
LINE
  8
_0-2_02___PRT_ALL_AXES
  6
CONTINUOUS
 62
    7
 10
785.43467246544469
 20
1086.3373144518941
 11
785.292077472252
 21
1086.3898476782979
  0
LINE
  8
_0-2_02___PRT_ALL_AXES
  6
CONTINUOUS
 62
    7
 10
785.292077472252
 20
1086.3898476782979
 11
785.14666304933962
 21
1086.4599353852141
  0
LINE
  8
_0-2_02___PRT_ALL_AXES
  6
CONTINUOUS
 62
    7
 10
785.14666304933962
 20
1086.4599353852141
 11
784.99874602183172
 21
1086.5473955978982
  0
LINE
  8
_0-2_02___PRT_ALL_AXES
  6
CONTINUOUS
 62
    7
 10
784.99874602183172
 20
1086.5473955978982
 11
784.84882059320989
 21
1086.651918638026
  0
LINE
  8
_0-2_02___PRT_ALL_AXES
  6
CONTINUOUS
 62
    7
 10
780.34870902499779
 20
1338.0791975434481
 11
779.71500695661462
 21
1338.5622363934722
  0
LINE
  8
_0-2_02___PRT_ALL_AXES
  6
CONTINUOUS
 62
    7
 10
779.71500695661462
 20
1338.5622363934722
 11
779.05844500634385
 21
1339.0791281145762
  0
LINE
  8
_0-2_02___PRT_ALL_AXES
  6
CONTINUOUS
 62
    7
 10
779.05844500634385
 20
1339.0791281145762
 11
778.37947188016778
 21
1339.629628621396
  0
LINE
  8
_0-2_02___PRT_ALL_AXES
  6
CONTINUOUS
 62
    7
 10
778.37947188016778
 20
1339.629628621396
 11
777.67783433424574
 21
1340.2141265263122
  0
LINE
  8
_0-2_02___PRT_ALL_AXES
  6
CONTINUOUS
 62
    7
 10
777.67783433424574
 20
1340.2141265263122
 11
776.95387369961963
 21
1340.832600640389
  0
LINE
  8
_0-2_02___PRT_ALL_AXES
  6
CONTINUOUS
 62
    7
 10
776.95387369961963
 20
1340.832600640389
 11
776.207841578022
 21
1341.4851657741701
  0
LINE
  8
_0-2_02___PRT_ALL_AXES
  6
CONTINUOUS
 62
    7
 10
776.207841578022
 20
1341.4851657741701
 11
775.43958190880267
 21
1342.1723749483899
  0
LINE
  8
_0-2_02___PRT_ALL_AXES
  6
CONTINUOUS
 62
    7
 10
775.43958190880267
 20
1342.1723749483899
 11
774.6496230665748
 21
1342.894256253418
  0
LINE
  8
_0-2_02___PRT_ALL_AXES
  6
CONTINUOUS
 62
    7
 10
774.6496230665748
 20
1342.894256253418
 11
773.8378188509696
 21
1343.651535020289
  0
LINE
  8
_0-2_02___PRT_ALL_AXES
  6
CONTINUOUS
 62
    7
 10
773.8378188509696
 20
1343.651535020289
 11
773.00479222060767
 21
1344.4443193524221
  0
LINE
  8
_0-2_02___PRT_ALL_AXES
  6
CONTINUOUS
 62
    7
 10
773.00479222060767
 20
1344.4443193524221
 11
772.15122798946186
 21
1345.2727314586118
  0
LINE
  8
_0-2_02___PRT_ALL_AXES
  6
CONTINUOUS
 62
    7
 10
772.15122798946186
 20
1345.2727314586118
 11
771.2772670406639
 21
1346.1375194757939
  0
LINE
  8
_0-2_02___PRT_ALL_AXES
  6
CONTINUOUS
 62
    7
 10
771.2772670406639
 20
1346.1375194757939
 11
770.38401901613861
 21
1347.0385835293901
  0
LINE
  8
_0-2_02___PRT_ALL_AXES
  6
CONTINUOUS
 62
    7
 10
770.38401901613861
 20
1347.0385835293901
 11
769.47200773526265
 21
1347.9765119070221
  0
LINE
  8
_0-2_02___PRT_ALL_AXES
  6
CONTINUOUS
 62
    7
 10
769.47200773526265
 20
1347.9765119070221
 11
768.54232981204768
 21
1348.9514307699819
  0
LINE
  8
_0-2_02___PRT_ALL_AXES
  6
CONTINUOUS
 62
    7
 10
768.54232981204768
 20
1348.9514307699819
 11
767.59641417784769
 21
1349.9632258548449
  0
LINE
  8
_0-2_02___PRT_ALL_AXES
  6
CONTINUOUS
 62
    7
 10
767.59641417784769
 20
1349.9632258548449
 11
766.63551430285179
 21
1351.0120876189421
  0
LINE
  8
_0-2_02___PRT_ALL_AXES
  6
CONTINUOUS
 62
    7
 10
766.63551430285179
 20
1351.0120876189421
 11
765.66167852154604
 21
1352.0974613757999
  0
LINE
  8
_0-2_02___PRT_ALL_AXES
  6
CONTINUOUS
 62
    7
 10
765.66167852154604
 20
1352.0974613757999
 11
764.67657730252085
 21
1353.219326915656
  0
LINE
  8
_0-2_02___PRT_ALL_AXES
  6
CONTINUOUS
 62
    7
 10
764.67657730252085
 20
1353.219326915656
 11
763.68312773798971
 21
1354.3763565929562
  0
LINE
  8
_0-2_02___PRT_ALL_AXES
  6
CONTINUOUS
 62
    7
 10
763.68312773798971
 20
1354.3763565929562
 11
762.68403423224299
 21
1355.567530350304
  0
LINE
  8
_0-2_02___PRT_ALL_AXES
  6
CONTINUOUS
 62
    7
 10
762.68403423224299
 20
1355.567530350304
 11
761.68192285521582
 21
1356.792013844944
  0
LINE
  8
_0-2_02___PRT_ALL_AXES
  6
CONTINUOUS
 62
    7
 10
761.68192285521582
 20
1356.792013844944
 11
760.68030064561162
 21
1358.0479700640399
  0
LINE
  8
_0-2_02___PRT_ALL_AXES
  6
CONTINUOUS
 62
    7
 10
760.68030064561162
 20
1358.0479700640399
 11
759.68251574684882
 21
1359.333781544482
  0
LINE
  8
_0-2_02___PRT_ALL_AXES
  6
CONTINUOUS
 62
    7
 10
759.68251574684882
 20
1359.333781544482
 11
758.69296011737879
 21
1360.646459753511
  0
LINE
  8
_0-2_02___PRT_ALL_AXES
  6
CONTINUOUS
 62
    7
 10
758.69296011737879
 20
1360.646459753511
 11
757.71606624719379
 21
1361.982813631726
  0
LINE
  8
_0-2_02___PRT_ALL_AXES
  6
CONTINUOUS
 62
    7
 10
757.71606624719379
 20
1361.982813631726
 11
756.75607729671583
 21
1363.339722830272
  0
LINE
  8
_0-2_02___PRT_ALL_AXES
  6
CONTINUOUS
 62
    7
 10
756.75607729671583
 20
1363.339722830272
 11
755.81694080923171
 21
1364.7142796958342
  0
LINE
  8
_0-2_02___PRT_ALL_AXES
  6
CONTINUOUS
 62
    7
 10
755.81694080923171
 20
1364.7142796958342
 11
754.90354830353272
 21
1366.1018772747102
  0
LINE
  8
_0-2_02___PRT_ALL_AXES
  6
CONTINUOUS
 62
    7
 10
754.90354830353272
 20
1366.1018772747102
 11
754.02057504433787
 21
1367.4976891815809
  0
LINE
  8
_0-2_02___PRT_ALL_AXES
  6
CONTINUOUS
 62
    7
 10
754.02057504433787
 20
1367.4976891815809
 11
753.17086618267194
 21
1368.899282595813
  0
LINE
  8
_0-2_02___PRT_ALL_AXES
  6
CONTINUOUS
 62
    7
 10
753.17086618267194
 20
1368.899282595813
 11
752.35746051052683
 21
1370.3035522508198
  0
LINE
  8
_0-2_02___PRT_ALL_AXES
  6
CONTINUOUS
 62
    7
 10
752.35746051052683
 20
1370.3035522508198
 11
751.58309528887685
 21
1371.70742625409
  0
LINE
  8
_0-2_02___PRT_ALL_AXES
  6
CONTINUOUS
 62
    7
 10
751.58309528887685
 20
1371.70742625409
 11
750.8502092225217
 21
1373.107819039024
  0
LINE
  8
_0-2_02___PRT_ALL_AXES
  6
CONTINUOUS
 62
    7
 10
750.8502092225217
 20
1373.107819039024
 11
750.16136334469184
 21
1374.5006991592782
  0
LINE
  8
_0-2_02___PRT_ALL_AXES
  6
CONTINUOUS
 62
    7
 10
750.16136334469184
 20
1374.5006991592782
 11
749.51781404174881
 21
1375.883896343601
  0
LINE
  8
_0-2_02___PRT_ALL_AXES
  6
CONTINUOUS
 62
    7
 10
749.51781404174881
 20
1375.883896343601
 11
748.92034126336785
 21
1377.255736179291
  0
LINE
  8
_0-2_02___PRT_ALL_AXES
  6
CONTINUOUS
 62
    7
 10
748.92034126336785
 20
1377.255736179291
 11
748.36908622795681
 21
1378.6156132436322
  0
LINE
  8
_0-2_02___PRT_ALL_AXES
  6
CONTINUOUS
 62
    7
 10
748.36908622795681
 20
1378.6156132436322
 11
747.8644852117618
 21
1379.9618218354349
  0
LINE
  8
_0-2_02___PRT_ALL_AXES
  6
CONTINUOUS
 62
    7
 10
747.8644852117618
 20
1379.9618218354349
 11
747.40623030658071
 21
1381.294186218453
  0
LINE
  8
_0-2_02___PRT_ALL_AXES
  6
CONTINUOUS
 62
    7
 10
747.40623030658071
 20
1381.294186218453
 11
746.99397290579964
 21
1382.61247646833
  0
LINE
  8
_0-2_02___PRT_ALL_AXES
  6
CONTINUOUS
 62
    7
 10
746.99397290579964
 20
1382.61247646833
 11
746.62731136531193
 21
1383.916419345579
  0
LINE
  8
_0-2_02___PRT_ALL_AXES
  6
CONTINUOUS
 62
    7
 10
746.62731136531193
 20
1383.916419345579
 11
746.30545596127104
 21
1385.2071037748742
  0
LINE
  8
_0-2_02___PRT_ALL_AXES
  6
CONTINUOUS
 62
    7
 10
746.30545596127104
 20
1385.2071037748742
 11
746.02795852490362
 21
1386.484447157698
  0
LINE
  8
_0-2_02___PRT_ALL_AXES
  6
CONTINUOUS
 62
    7
 10
746.02795852490362
 20
1386.484447157698
 11
745.79417233309186
 21
1387.7492988215381
  0
LINE
  8
_0-2_02___PRT_ALL_AXES
  6
CONTINUOUS
 62
    7
 10
745.79417233309186
 20
1387.7492988215381
 11
745.60348831161582
 21
1389.0028433456851
  0
LINE
  8
_0-2_02___PRT_ALL_AXES
  6
CONTINUOUS
 62
    7
 10
745.60348831161582
 20
1389.0028433456851
 11
745.45553236648084
 21
1390.2452711097462
  0
LINE
  8
_0-2_02___PRT_ALL_AXES
  6
CONTINUOUS
 62
    7
 10
745.45553236648084
 20
1390.2452711097462
 11
745.34983969597761
 21
1391.4781915506819
  0
LINE
  8
_0-2_02___PRT_ALL_AXES
  6
CONTINUOUS
 62
    7
 10
745.34983969597761
 20
1391.4781915506819
 11
745.28617912987784
 21
1392.702369103084
  0
LINE
  8
_0-2_02___PRT_ALL_AXES
  6
CONTINUOUS
 62
    7
 10
745.28617912987784
 20
1392.702369103084
 11
745.26441853585766
 21
1393.918217842323
  0
LINE
  8
_0-2_02___PRT_ALL_AXES
  6
CONTINUOUS
 62
    7
 10
745.26441853585766
 20
1393.918217842323
 11
745.28452766785085
 21
1395.12742125043
  0
LINE
  8
_0-2_02___PRT_ALL_AXES
  6
CONTINUOUS
 62
    7
 10
745.28452766785085
 20
1395.12742125043
 11
745.34662630844878
 21
1396.33028315509
  0
LINE
  8
_0-2_02___PRT_ALL_AXES
  6
CONTINUOUS
 62
    7
 10
745.34662630844878
 20
1396.33028315509
 11
745.4509216744068
 21
1397.527328190255
  0
LINE
  8
_0-2_02___PRT_ALL_AXES
  6
CONTINUOUS
 62
    7
 10
745.4509216744068
 20
1397.527328190255
 11
745.59782830667882
 21
1398.7197898266641
  0
LINE
  8
_0-2_02___PRT_ALL_AXES
  6
CONTINUOUS
 62
    7
 10
745.59782830667882
 20
1398.7197898266641
 11
745.78772218825679
 21
1399.907419146346
  0
LINE
  8
_0-2_02___PRT_ALL_AXES
  6
CONTINUOUS
 62
    7
 10
745.78772218825679
 20
1399.907419146346
 11
746.02117843406859
 21
1401.090777978759
  0
LINE
  8
_0-2_02___PRT_ALL_AXES
  6
CONTINUOUS
 62
    7
 10
746.02117843406859
 20
1401.090777978759
 11
746.29882895928586
 21
1402.2700115131001
  0
LINE
  8
_0-2_02___PRT_ALL_AXES
  6
CONTINUOUS
 62
    7
 10
746.29882895928586
 20
1402.2700115131001
 11
746.62113725802601
 21
1403.4442805450499
  0
LINE
  8
_0-2_02___PRT_ALL_AXES
  6
CONTINUOUS
 62
    7
 10
746.62113725802601
 20
1403.4442805450499
 11
746.98887051188876
 21
1404.6136920136901
  0
LINE
  8
_0-2_02___PRT_ALL_AXES
  6
CONTINUOUS
 62
    7
 10
746.98887051188876
 20
1404.6136920136901
 11
747.40245994277302
 21
1405.7770250959602
  0
LINE
  8
_0-2_02___PRT_ALL_AXES
  6
CONTINUOUS
 62
    7
 10
747.40245994277302
 20
1405.7770250959602
 11
747.86227765508875
 21
1406.9329856704958
  0
LINE
  8
_0-2_02___PRT_ALL_AXES
  6
CONTINUOUS
 62
    7
 10
747.86227765508875
 20
1406.9329856704958
 11
748.36866212999985
 21
1408.0802426223581
  0
LINE
  8
_0-2_02___PRT_ALL_AXES
  6
CONTINUOUS
 62
    7
 10
748.36866212999985
 20
1408.0802426223581
 11
748.92125480535469
 21
1409.2160854024842
  0
LINE
  8
_0-2_02___PRT_ALL_AXES
  6
CONTINUOUS
 62
    7
 10
748.92125480535469
 20
1409.2160854024842
 11
749.51995510553979
 21
1410.3386652175182
  0
LINE
  8
_0-2_02___PRT_ALL_AXES
  6
CONTINUOUS
 62
    7
 10
749.51995510553979
 20
1410.3386652175182
 11
750.16406721101384
 21
1411.4452122492762
  0
LINE
  8
_0-2_02___PRT_ALL_AXES
  6
CONTINUOUS
 62
    7
 10
750.16406721101384
 20
1411.4452122492762
 11
750.85242974081393
 21
1412.5325407624482
  0
LINE
  8
_0-2_02___PRT_ALL_AXES
  6
CONTINUOUS
 62
    7
 10
750.85242974081393
 20
1412.5325407624482
 11
751.58263476884395
 21
1413.5960878819842
  0
LINE
  8
_0-2_02___PRT_ALL_AXES
  6
CONTINUOUS
 62
    7
 10
751.58263476884395
 20
1413.5960878819842
 11
752.35236013896474
 21
1414.632144008242
  0
LINE
  8
_0-2_02___PRT_ALL_AXES
  6
CONTINUOUS
 62
    7
 10
752.35236013896474
 20
1414.632144008242
 11
753.15898960266577
 21
1415.6371335468989
  0
LINE
  8
_0-2_02___PRT_ALL_AXES
  6
CONTINUOUS
 62
    7
 10
753.15898960266577
 20
1415.6371335468989
 11
753.99960299153872
 21
1416.6075855399522
  0
LINE
  8
_0-2_02___PRT_ALL_AXES
  6
CONTINUOUS
 62
    7
 10
753.99960299153872
 20
1416.6075855399522
 11
754.8714539470966
 21
1417.540626298708
  0
LINE
  8
_0-2_02___PRT_ALL_AXES
  6
CONTINUOUS
 62
    7
 10
754.8714539470966
 20
1417.540626298708
 11
755.77003877273364
 21
1418.4319667834861
  0
LINE
  8
_0-2_02___PRT_ALL_AXES
  6
CONTINUOUS
 62
    7
 10
755.77003877273364
 20
1418.4319667834861
 11
756.69060244671482
 21
1419.2777931850478
  0
LINE
  8
_0-2_02___PRT_ALL_AXES
  6
CONTINUOUS
 62
    7
 10
756.69060244671482
 20
1419.2777931850478
 11
757.62929634250077
 21
1420.075684301733
  0
LINE
  8
_0-2_02___PRT_ALL_AXES
  6
CONTINUOUS
 62
    7
 10
757.62929634250077
 20
1420.075684301733
 11
758.58197600609992
 21
1420.823333897109
  0
LINE
  8
_0-2_02___PRT_ALL_AXES
  6
CONTINUOUS
 62
    7
 10
758.58197600609992
 20
1420.823333897109
 11
759.54430394529572
 21
1421.5186839730059
  0
LINE
  8
_0-2_02___PRT_ALL_AXES
  6
CONTINUOUS
 62
    7
 10
759.54430394529572
 20
1421.5186839730059
 11
760.51196532823178
 21
1422.1600982586278
  0
LINE
  8
_0-2_02___PRT_ALL_AXES
  6
CONTINUOUS
 62
    7
 10
760.51196532823178
 20
1422.1600982586278
 11
761.48165438097567
 21
1422.7469156290599
  0
LINE
  8
_0-2_02___PRT_ALL_AXES
  6
CONTINUOUS
 62
    7
 10
761.48165438097567
 20
1422.7469156290599
 11
762.449910373085
 21
1423.2785677130742
  0
LINE
  8
_0-2_02___PRT_ALL_AXES
  6
CONTINUOUS
 62
    7
 10
762.449910373085
 20
1423.2785677130742
 11
763.4141161088819
 21
1423.7551132883018
  0
LINE
  8
_0-2_02___PRT_ALL_AXES
  6
CONTINUOUS
 62
    7
 10
763.4141161088819
 20
1423.7551132883018
 11
764.37159431888995
 21
1424.1766664954862
  0
LINE
  8
_0-2_02___PRT_ALL_AXES
  6
CONTINUOUS
 62
    7
 10
764.37159431888995
 20
1424.1766664954862
 11
765.31944063020364
 21
1424.543388867196
  0
LINE
  8
_0-2_02___PRT_ALL_AXES
  6
CONTINUOUS
 62
    7
 10
765.31944063020364
 20
1424.543388867196
 11
766.25597144192398
 21
1424.856030735687
  0
LINE
  8
_0-2_02___PRT_ALL_AXES
  6
CONTINUOUS
 62
    7
 10
766.25597144192398
 20
1424.856030735687
 11
767.17913956561097
 21
1425.1152424016682
  0
LINE
  8
_0-2_02___PRT_ALL_AXES
  6
CONTINUOUS
 62
    7
 10
767.17913956561097
 20
1425.1152424016682
 11
767.95016152140579
 21
1425.2937683450969
  0
LINE
  8
_0-5_EL-M10011N_______8
  6
CONTINUOUS
 62
    7
 10
896.75263364822968
 20
1419.4741827760122
 11
896.8202718162288
 21
1419.0925354524402
  0
LINE
  8
_0-5_EL-M10011N_______8
  6
CONTINUOUS
 62
    7
 10
896.8202718162288
 20
1419.0925354524402
 11
896.9684669539256
 21
1418.7306649839038
  0
LINE
  8
_0-5_EL-M10011N_______8
  6
CONTINUOUS
 62
    7
 10
896.9684669539256
 20
1418.7306649839038
 11
897.19210333393085
 21
1418.406370462822
  0
LINE
  8
_0-5_EL-M10011N_______8
  6
CONTINUOUS
 62
    7
 10
897.19210333393085
 20
1418.406370462822
 11
897.48063021661665
 21
1418.1370182166661
  0
LINE
  8
_0-5_EL-M10011N_______8
  6
CONTINUOUS
 62
    7
 10
941.76413584297779
 20
1402.5564545063799
 11
941.76239086069063
 21
1402.5980333518469
  0
LINE
  8
_0-5_EL-M10011N_______8
  6
CONTINUOUS
 62
    7
 10
941.76239086069063
 20
1402.5980333518469
 11
941.83516008980268
 21
1402.9433343749861
  0
LINE
  8
_0-5_EL-M10011N_______8
  6
CONTINUOUS
 62
    7
 10
941.83516008980268
 20
1402.9433343749861
 11
942.06048255406677
 21
1403.2862333386661
  0
LINE
  8
_0-5_EL-M10011N_______8
  6
CONTINUOUS
 62
    7
 10
942.06048255406677
 20
1403.2862333386661
 11
942.42851837679473
 21
1403.6134991766389
  0
LINE
  8
_0-5_EL-M10011N_______8
  6
CONTINUOUS
 62
    7
 10
942.42851837679473
 20
1403.6134991766389
 11
942.93220466914181
 21
1403.9181831118481
  0
LINE
  8
_0-5_EL-M10011N_______8
  6
CONTINUOUS
 62
    7
 10
942.93220466914181
 20
1403.9181831118481
 11
943.55357754551869
 21
1404.1877462704601
  0
LINE
  8
_0-5_EL-M10011N_______8
  6
CONTINUOUS
 62
    7
 10
943.55357754551869
 20
1404.1877462704601
 11
944.27015868715671
 21
1404.412118646454
  0
LINE
  8
_0-5_EL-M10011N_______8
  6
CONTINUOUS
 62
    7
 10
950.88618458131668
 20
1403.189044908202
 11
950.88792956360385
 21
1403.1474660627341
  0
LINE
  8
_0-5_EL-M10011N_______8
  6
CONTINUOUS
 62
    7
 10
950.88792956360385
 20
1403.1474660627341
 11
950.81516033525395
 21
1402.8021650395958
  0
LINE
  8
_0-5_EL-M10011N_______8
  6
CONTINUOUS
 62
    7
 10
950.81516033525395
 20
1402.8021650395958
 11
950.58983787098896
 21
1402.4592660759149
  0
LINE
  8
_0-5_EL-M10011N_______8
  6
CONTINUOUS
 62
    7
 10
950.58983787098896
 20
1402.4592660759149
 11
950.22180204826191
 21
1402.1320002379421
  0
LINE
  8
_0-5_EL-M10011N_______8
  6
CONTINUOUS
 62
    7
 10
950.22180204826191
 20
1402.1320002379421
 11
949.71811575591482
 21
1401.8273163027329
  0
LINE
  8
_0-5_EL-M10011N_______8
  6
CONTINUOUS
 62
    7
 10
949.71811575591482
 20
1401.8273163027329
 11
949.09674287953794
 21
1401.5577531441222
  0
LINE
  8
_0-5_EL-M10011N_______8
  6
CONTINUOUS
 62
    7
 10
949.09674287953794
 20
1401.5577531441222
 11
948.38016173789993
 21
1401.333380768127
  0
LINE
  8
_0-2_02___PRT_ALL_AXES
  6
CONTINUOUS
 62
    7
 10
629.61431453756859
 20
1086.50684550196
 11
630.00471723047303
 21
1086.9629532587801
  0
LINE
  8
_0-2_02___PRT_ALL_AXES
  6
CONTINUOUS
 62
    7
 10
630.00471723047303
 20
1086.9629532587801
 11
630.43064741899661
 21
1087.3912519482819
  0
LINE
  8
_0-2_02___PRT_ALL_AXES
  6
CONTINUOUS
 62
    7
 10
630.43064741899661
 20
1087.3912519482819
 11
630.90212637469085
 21
1087.7993195187341
  0
LINE
  8
_0-2_02___PRT_ALL_AXES
  6
CONTINUOUS
 62
    7
 10
630.90212637469085
 20
1087.7993195187341
 11
631.42786420103994
 21
1088.191427483056
  0
LINE
  8
_0-2_02___PRT_ALL_AXES
  6
CONTINUOUS
 62
    7
 10
631.42786420103994
 20
1088.191427483056
 11
632.01319636336802
 21
1088.5689406106799
  0
LINE
  8
_0-2_02___PRT_ALL_AXES
  6
CONTINUOUS
 62
    7
 10
795.99478876757394
 20
1088.3993907133049
 11
785.95617158906998
 21
1086.3030362888021
  0
LINE
  8
_0-0_0
  6
CONTINUOUS
 62
    2
 10
784.42222256273863
 20
1087.0335944596359
 11
795.49513799827173
 21
1089.3459403589382
  0
LINE
  8
_0-2_02___PRT_ALL_AXES
  6
CONTINUOUS
 62
    7
 10
793.52514537997195
 20
1093.0779386457521
 11
799.94899355739472
 21
1094.419424460616
  0
LINE
  8
_0-0_0
  6
CONTINUOUS
 62
    2
 10
782.19972563867987
 20
1096.9226972323181
 11
793.41441400351778
 21
1099.264649430801
  0
LINE
  8
_0-2_02___PRT_ALL_AXES
  6
CONTINUOUS
 62
    7
 10
793.39567491628077
 20
1100.3116273838318
 11
783.46389207554284
 21
1098.237583068124
  0
LINE
  8
_0-2_02___PRT_ALL_AXES
  6
CONTINUOUS
 62
    7
 10
793.33618969870076
 20
1103.6351464388381
 11
799.76003787536365
 21
1104.9766322537021
  0
LINE
  8
_0-2_02___PRT_ALL_AXES
  6
CONTINUOUS
 62
    7
 10
797.69421516170269
 20
1105.578450967258
 11
804.11806333912682
 21
1106.919936782122
  0
LINE
  8
_0-2_02___PRT_ALL_AXES
  6
CONTINUOUS
 62
    7
 10
630.17538867907069
 20
1191.2497315019259
 11
629.46728734394264
 21
1190.7450075141701
  0
LINE
  8
_0-2_02___PRT_ALL_AXES
  6
CONTINUOUS
 62
    7
 10
629.46728734394264
 20
1190.7450075141701
 11
628.7740989462236
 21
1190.0924901745539
  0
LINE
  8
_0-2_02___PRT_ALL_AXES
  6
CONTINUOUS
 62
    7
 10
628.7740989462236
 20
1190.0924901745539
 11
628.10768184116387
 21
1189.303340029971
  0
LINE
  8
_0-2_02___PRT_ALL_AXES
  6
CONTINUOUS
 62
    7
 10
628.10768184116387
 20
1189.303340029971
 11
627.47943697141682
 21
1188.3910541654441
  0
LINE
  8
_0-2_02___PRT_ALL_AXES
  6
CONTINUOUS
 62
    7
 10
627.47943697141682
 20
1188.3910541654441
 11
626.90011305869393
 21
1187.3712357242621
  0
LINE
  8
_0-2_02___PRT_ALL_AXES
  6
CONTINUOUS
 62
    7
 10
626.90011305869393
 20
1187.3712357242621
 11
626.37962291298481
 21
1186.2613274708801
  0
LINE
  8
_0-2_02___PRT_ALL_AXES
  6
CONTINUOUS
 62
    7
 10
626.37962291298481
 20
1186.2613274708801
 11
625.92687399196802
 21
1185.080313934257
  0
LINE
  8
_0-2_02___PRT_ALL_AXES
  6
CONTINUOUS
 62
    7
 10
625.92687399196802
 20
1185.080313934257
 11
625.54961608709982
 21
1183.848397192864
  0
LINE
  8
_0-2_02___PRT_ALL_AXES
  6
CONTINUOUS
 62
    7
 10
630.502669420242
 20
1172.964111146392
 11
631.2107708559538
 21
1173.468835205013
  0
LINE
  8
_0-2_02___PRT_ALL_AXES
  6
CONTINUOUS
 62
    7
 10
631.2107708559538
 20
1173.468835205013
 11
631.90395925367284
 21
1174.1213525453918
  0
LINE
  8
_0-2_02___PRT_ALL_AXES
  6
CONTINUOUS
 62
    7
 10
631.90395925367284
 20
1174.1213525453918
 11
632.57037635873394
 21
1174.9105026899738
  0
LINE
  8
_0-2_02___PRT_ALL_AXES
  6
CONTINUOUS
 62
    7
 10
632.57037635873394
 20
1174.9105026899738
 11
633.19862122847871
 21
1175.822788553739
  0
LINE
  8
_0-2_02___PRT_ALL_AXES
  6
CONTINUOUS
 62
    7
 10
633.19862122847871
 20
1175.822788553739
 11
633.77794514120387
 21
1176.842606995684
  0
LINE
  8
_0-2_02___PRT_ALL_AXES
  6
CONTINUOUS
 62
    7
 10
633.77794514120387
 20
1176.842606995684
 11
634.29843528614992
 21
1177.952515249066
  0
LINE
  8
_0-2_02___PRT_ALL_AXES
  6
CONTINUOUS
 62
    7
 10
634.29843528614992
 20
1177.952515249066
 11
634.75118420792978
 21
1179.1335287849261
  0
LINE
  8
_0-2_02___PRT_ALL_AXES
  6
CONTINUOUS
 62
    7
 10
634.75118420792978
 20
1179.1335287849261
 11
635.12844217375778
 21
1180.365445725964
  0
LINE
  8
_0-2_02___PRT_ALL_AXES
  6
CONTINUOUS
 62
    7
 10
630.17538878498999
 20
1191.2497315697442
 11
629.58996319689004
 21
1190.8721536926942
  0
LINE
  8
_0-2_02___PRT_ALL_AXES
  6
CONTINUOUS
 62
    7
 10
629.58996319689004
 20
1190.8721536926942
 11
629.06418987048482
 21
1190.4800069280941
  0
LINE
  8
_0-2_02___PRT_ALL_AXES
  6
CONTINUOUS
 62
    7
 10
629.06418987048482
 20
1190.4800069280941
 11
628.59274698253785
 21
1190.0719563281441
  0
LINE
  8
_0-2_02___PRT_ALL_AXES
  6
CONTINUOUS
 62
    7
 10
628.59274698253785
 20
1190.0719563281441
 11
628.16692593146263
 21
1189.643761973206
  0
LINE
  8
_0-2_02___PRT_ALL_AXES
  6
CONTINUOUS
 62
    7
 10
628.16692593146263
 20
1189.643761973206
 11
627.77650673668677
 21
1189.1876363276742
  0
LINE
  8
_0-4_EL-M10011N_______9
  6
CONTINUOUS
 62
    7
 10
1453.7189859297059
 20
1733.8095739330302
 11
1453.6045069968659
 21
1733.7422850917369
  0
LINE
  8
_0-4_EL-M10011N_______9
  6
CONTINUOUS
 62
    7
 10
1453.6045069968659
 20
1733.7422850917369
 11
1453.511303486549
 21
1733.6034734011118
  0
LINE
  8
_0-4_EL-M10011N_______9
  6
CONTINUOUS
 62
    7
 10
1453.511303486549
 20
1733.6034734011118
 11
1453.4479681298576
 21
1733.401094404041
  0
LINE
  8
_0-4_EL-M10011N_______9
  6
CONTINUOUS
 62
    7
 10
1453.4479681298576
 20
1733.401094404041
 11
1453.4176768262028
 21
1733.145296229075
  0
LINE
  8
_0-4_EL-M10011N_______9
  6
CONTINUOUS
 62
    7
 10
1453.4176768262028
 20
1733.145296229075
 11
1453.4219485082876
 21
1732.848905664885
  0
LINE
  8
_0-5_EL-M10011N_______8
  6
CONTINUOUS
 62
    7
 10
1455.3081944835658
 20
1713.241250419263
 11
1455.17081976492
 21
1713.160503809866
  0
LINE
  8
_0-5_EL-M10011N_______8
  6
CONTINUOUS
 62
    7
 10
1455.17081976492
 20
1713.160503809866
 11
1455.0589755514729
 21
1712.99392978081
  0
LINE
  8
_0-5_EL-M10011N_______8
  6
CONTINUOUS
 62
    7
 10
1455.0589755514729
 20
1712.99392978081
 11
1454.982973123595
 21
1712.751074984325
  0
LINE
  8
_0-5_EL-M10011N_______8
  6
CONTINUOUS
 62
    7
 10
1454.982973123595
 20
1712.751074984325
 11
1454.9466235595146
 21
1712.4441171740618
  0
LINE
  8
_0-5_EL-M10011N_______8
  6
CONTINUOUS
 62
    7
 10
1454.9466235595146
 20
1712.4441171740618
 11
1454.951749578473
 21
1712.0884484970329
  0
LINE
  8
_0-5_EL-M10011N_______8
  6
CONTINUOUS
 62
    7
 10
897.75505142926795
 20
1420.21644903265
 11
897.41305065175175
 21
1420.1055569252489
  0
LINE
  8
_0-5_EL-M10011N_______8
  6
CONTINUOUS
 62
    7
 10
897.41305065175175
 20
1420.1055569252489
 11
897.12941776435673
 21
1419.9693492568481
  0
LINE
  8
_0-5_EL-M10011N_______8
  6
CONTINUOUS
 62
    7
 10
897.12941776435673
 20
1419.9693492568481
 11
896.91837530429984
 21
1419.8146560483269
  0
LINE
  8
_0-5_EL-M10011N_______8
  6
CONTINUOUS
 62
    7
 10
896.91837530429984
 20
1419.8146560483269
 11
896.79050582165883
 21
1419.6492342630941
  0
LINE
  8
_0-5_EL-M10011N_______8
  6
CONTINUOUS
 62
    7
 10
896.79050582165883
 20
1419.6492342630941
 11
896.75263364822968
 21
1419.4741827760122
  0
LINE
  8
_0-2_02___PRT_ALL_AXES
  6
CONTINUOUS
 62
    7
 10
796.5615995658768
 20
1168.8592059221319
 11
802.98544774330185
 21
1170.200691737758
  0
LINE
  8
_0-2_02___PRT_ALL_AXES
  6
CONTINUOUS
 62
    7
 10
794.48426180768365
 20
1172.7945612543522
 11
784.44564462917879
 21
1170.6982068306102
  0
LINE
  8
_0-0_0
  6
CONTINUOUS
 62
    2
 10
782.91169560361186
 20
1171.428765001443
 11
793.98461103838099
 21
1173.7411108999841
  0
LINE
  8
_0-2_02___PRT_ALL_AXES
  6
CONTINUOUS
 62
    7
 10
784.4456445445976
 20
1170.6982072375181
 11
784.33081799802585
 21
1170.6818842290158
  0
LINE
  8
_0-2_02___PRT_ALL_AXES
  6
CONTINUOUS
 62
    7
 10
784.33081799802585
 20
1170.6818842290158
 11
784.19914236958084
 21
1170.6808221389379
  0
LINE
  8
_0-2_02___PRT_ALL_AXES
  6
CONTINUOUS
 62
    7
 10
784.19914236958084
 20
1170.6808221389379
 11
784.06342435933175
 21
1170.6977203515221
  0
LINE
  8
_0-2_02___PRT_ALL_AXES
  6
CONTINUOUS
 62
    7
 10
784.06342435933175
 20
1170.6977203515221
 11
783.92414550555577
 21
1170.7324849937022
  0
LINE
  8
_0-2_02___PRT_ALL_AXES
  6
CONTINUOUS
 62
    7
 10
783.92414550555577
 20
1170.7324849937022
 11
783.78155051236081
 21
1170.7850182193438
  0
LINE
  8
_0-2_02___PRT_ALL_AXES
  6
CONTINUOUS
 62
    7
 10
783.78155051236081
 20
1170.7850182193438
 11
783.63613609021195
 21
1170.8551059270221
  0
LINE
  8
_0-2_02___PRT_ALL_AXES
  6
CONTINUOUS
 62
    7
 10
783.63613609021195
 20
1170.8551059270221
 11
783.48821906194189
 21
1170.9425661397058
  0
LINE
  8
_0-2_02___PRT_ALL_AXES
  6
CONTINUOUS
 62
    7
 10
783.48821906194189
 20
1170.9425661397058
 11
783.3382936333187
 21
1171.0470891798341
  0
LINE
  8
_0-2_02___PRT_ALL_AXES
  6
CONTINUOUS
 62
    7
 10
778.03130891456885
 20
1467.555455016628
 11
779.25607222856388
 21
1466.593814831961
  0
LINE
  8
_0-2_02___PRT_ALL_AXES
  6
CONTINUOUS
 62
    7
 10
779.25607222856388
 20
1466.593814831961
 11
780.38693936357276
 21
1465.6141907912138
  0
LINE
  8
_0-2_02___PRT_ALL_AXES
  6
CONTINUOUS
 62
    7
 10
780.38693936357276
 20
1465.6141907912138
 11
781.42240139805472
 21
1464.6178900093719
  0
LINE
  8
_0-2_02___PRT_ALL_AXES
  6
CONTINUOUS
 62
    7
 10
781.42240139805472
 20
1464.6178900093719
 11
782.361076712471
 21
1463.606241853347
  0
LINE
  8
_0-2_02___PRT_ALL_AXES
  6
CONTINUOUS
 62
    7
 10
782.361076712471
 20
1463.606241853347
 11
783.20171282951878
 21
1462.580596169566
  0
LINE
  8
_0-2_02___PRT_ALL_AXES
  6
CONTINUOUS
 62
    7
 10
783.20171282951878
 20
1462.580596169566
 11
783.94318808519893
 21
1461.5423214803081
  0
LINE
  8
_0-2_02___PRT_ALL_AXES
  6
CONTINUOUS
 62
    7
 10
783.94318808519893
 20
1461.5423214803081
 11
784.58451312690477
 21
1460.4928031587242
  0
LINE
  8
_0-2_02___PRT_ALL_AXES
  6
CONTINUOUS
 62
    7
 10
784.58451312690477
 20
1460.4928031587242
 11
785.12483223244681
 21
1459.4334415794569
  0
LINE
  8
_0-2_02___PRT_ALL_AXES
  6
CONTINUOUS
 62
    7
 10
785.12483223244681
 20
1459.4334415794569
 11
785.56342445305063
 21
1458.3656502532722
  0
LINE
  8
_0-2_02___PRT_ALL_AXES
  6
CONTINUOUS
 62
    7
 10
785.56342445305063
 20
1458.3656502532722
 11
785.89970457195477
 21
1457.2908539380478
  0
LINE
  8
_0-2_02___PRT_ALL_AXES
  6
CONTINUOUS
 62
    7
 10
785.89970457195477
 20
1457.2908539380478
 11
786.13322389155474
 21
1456.2104867368362
  0
LINE
  8
_0-2_02___PRT_ALL_AXES
  6
CONTINUOUS
 62
    7
 10
786.13322389155474
 20
1456.2104867368362
 11
786.26367082471779
 21
1455.1259901875201
  0
LINE
  8
_0-2_02___PRT_ALL_AXES
  6
CONTINUOUS
 62
    7
 10
786.26367082471779
 20
1455.1259901875201
 11
786.29192754188898
 21
1454.5011742377642
  0
LINE
  8
_0-2_02___PRT_ALL_AXES
  6
CONTINUOUS
 62
    7
 10
777.95074747650597
 20
1472.0565307784918
 11
779.17551079126179
 21
1471.0948905938262
  0
LINE
  8
_0-2_02___PRT_ALL_AXES
  6
CONTINUOUS
 62
    7
 10
779.17551079126179
 20
1471.0948905938262
 11
780.30637792550988
 21
1470.1152665530781
  0
LINE
  8
_0-2_02___PRT_ALL_AXES
  6
CONTINUOUS
 62
    7
 10
780.30637792550988
 20
1470.1152665530781
 11
781.34183995999183
 21
1469.1189657712362
  0
LINE
  8
_0-2_02___PRT_ALL_AXES
  6
CONTINUOUS
 62
    7
 10
781.34183995999183
 20
1469.1189657712362
 11
782.28051527440766
 21
1468.107317615973
  0
LINE
  8
_0-2_02___PRT_ALL_AXES
  6
CONTINUOUS
 62
    7
 10
782.28051527440766
 20
1468.107317615973
 11
783.1211513914559
 21
1467.081671932192
  0
LINE
  8
_0-2_02___PRT_ALL_AXES
  6
CONTINUOUS
 62
    7
 10
783.1211513914559
 20
1467.081671932192
 11
783.86262664713604
 21
1466.0433972429341
  0
LINE
  8
_0-2_02___PRT_ALL_AXES
  6
CONTINUOUS
 62
    7
 10
783.86262664713604
 20
1466.0433972429341
 11
784.50395168884188
 21
1464.993878920588
  0
LINE
  8
_0-2_02___PRT_ALL_AXES
  6
CONTINUOUS
 62
    7
 10
784.50395168884188
 20
1464.993878920588
 11
785.04427079514471
 21
1463.9345173420829
  0
LINE
  8
_0-2_02___PRT_ALL_AXES
  6
CONTINUOUS
 62
    7
 10
785.04427079514471
 20
1463.9345173420829
 11
785.48286301498683
 21
1462.8667260158982
  0
LINE
  8
_0-2_02___PRT_ALL_AXES
  6
CONTINUOUS
 62
    7
 10
785.48286301498683
 20
1462.8667260158982
 11
785.81914313465268
 21
1461.7919296999121
  0
LINE
  8
_0-2_02___PRT_ALL_AXES
  6
CONTINUOUS
 62
    7
 10
785.81914313465268
 20
1461.7919296999121
 11
786.05266245349185
 21
1460.7115624987
  0
LINE
  8
_0-2_02___PRT_ALL_AXES
  6
CONTINUOUS
 62
    7
 10
786.05266245349185
 20
1460.7115624987
 11
786.18310938665263
 21
1459.6270659493839
  0
LINE
  8
_0-2_02___PRT_ALL_AXES
  6
CONTINUOUS
 62
    7
 10
786.18310938665263
 20
1459.6270659493839
 11
786.21136610382473
 21
1459.002249999628
  0
LINE
  8
_0-5_EL-M10011N_______8
  6
CONTINUOUS
 62
    7
 10
898.69270538402998
 20
1417.9329628409309
 11
898.50689336957385
 21
1418.11179325594
  0
LINE
  8
_0-5_EL-M10011N_______8
  6
CONTINUOUS
 62
    7
 10
898.50689336957385
 20
1418.11179325594
 11
898.32459940396166
 21
1418.365283744386
  0
LINE
  8
_0-5_EL-M10011N_______8
  6
CONTINUOUS
 62
    7
 10
898.32459940396166
 20
1418.365283744386
 11
898.15496446814859
 21
1418.6807232364422
  0
LINE
  8
_0-5_EL-M10011N_______8
  6
CONTINUOUS
 62
    7
 10
898.15496446814859
 20
1418.6807232364422
 11
898.00649476508897
 21
1419.04229427784
  0
LINE
  8
_0-5_EL-M10011N_______8
  6
CONTINUOUS
 62
    7
 10
898.00649476508897
 20
1419.04229427784
 11
897.88663518565681
 21
1419.4318661865282
  0
LINE
  8
_0-5_EL-M10011N_______8
  6
CONTINUOUS
 62
    7
 10
897.88663518565681
 20
1419.4318661865282
 11
897.80139599113772
 21
1419.8299042009662
  0
LINE
  8
_0-5_EL-M10011N_______8
  6
CONTINUOUS
 62
    7
 10
897.80139599113772
 20
1419.8299042009662
 11
897.75505142926795
 21
1420.21644903265
  0
LINE
  8
_0-2_02___PRT_ALL_AXES
  6
CONTINUOUS
 62
    7
 10
802.6075363792379
 20
1191.3151073239301
 11
802.43531577244676
 21
1191.1714065551978
  0
LINE
  8
_0-2_02___PRT_ALL_AXES
  6
CONTINUOUS
 62
    7
 10
802.43531577244676
 20
1191.1714065551978
 11
802.21648105771692
 21
1191.021776108968
  0
LINE
  8
_0-2_02___PRT_ALL_AXES
  6
CONTINUOUS
 62
    7
 10
802.21648105771692
 20
1191.021776108968
 11
801.94476795572882
 21
1190.862953170581
  0
LINE
  8
_0-2_02___PRT_ALL_AXES
  6
CONTINUOUS
 62
    7
 10
801.94476795572882
 20
1190.862953170581
 11
801.61369843625971
 21
1190.6923405293342
  0
LINE
  8
_0-2_02___PRT_ALL_AXES
  6
CONTINUOUS
 62
    7
 10
801.61369843625971
 20
1190.6923405293342
 11
801.2187455883718
 21
1190.5084763385162
  0
LINE
  8
_0-2_02___PRT_ALL_AXES
  6
CONTINUOUS
 62
    7
 10
631.68591563896189
 20
1106.8545609601169
 11
630.97781430383384
 21
1106.349836972362
  0
LINE
  8
_0-2_02___PRT_ALL_AXES
  6
CONTINUOUS
 62
    7
 10
630.97781430383384
 20
1106.349836972362
 11
630.28462590535082
 21
1105.6973196327458
  0
LINE
  8
_0-2_02___PRT_ALL_AXES
  6
CONTINUOUS
 62
    7
 10
630.28462590535082
 20
1105.6973196327458
 11
629.61820880105279
 21
1104.9081694881638
  0
LINE
  8
_0-2_02___PRT_ALL_AXES
  6
CONTINUOUS
 62
    7
 10
629.61820880105279
 20
1104.9081694881638
 11
628.98996393130801
 21
1103.995883623636
  0
LINE
  8
_0-2_02___PRT_ALL_AXES
  6
CONTINUOUS
 62
    7
 10
628.98996393130801
 20
1103.995883623636
 11
628.41064001858285
 21
1102.976065182454
  0
LINE
  8
_0-2_02___PRT_ALL_AXES
  6
CONTINUOUS
 62
    7
 10
628.41064001858285
 20
1102.976065182454
 11
627.89014987287601
 21
1101.8661569290721
  0
LINE
  8
_0-2_02___PRT_ALL_AXES
  6
CONTINUOUS
 62
    7
 10
627.89014987287601
 20
1101.8661569290721
 11
627.43740095185785
 21
1100.685143393212
  0
LINE
  8
_0-2_02___PRT_ALL_AXES
  6
CONTINUOUS
 62
    7
 10
627.43740095185785
 20
1100.685143393212
 11
627.06014304698965
 21
1099.453226651055
  0
LINE
  8
_0-3_7_ALL_FEATURES
  6
CONTINUOUS
 62
    7
 10
640.39220730254283
 20
1173.2487832996781
 11
634.11541689856767
 21
1169.4755443155641
  0
LINE
  8
_0-5_EL-M10011N_______8
  6
CONTINUOUS
 62
    7
 10
948.26450839237077
 20
1403.001119383875
 11
948.97743465053964
 21
1403.2241436096569
  0
LINE
  8
_0-5_EL-M10011N_______8
  6
CONTINUOUS
 62
    7
 10
948.97743465053964
 20
1403.2241436096569
 11
949.59700032961791
 21
1403.4922700637521
  0
LINE
  8
_0-5_EL-M10011N_______8
  6
CONTINUOUS
 62
    7
 10
949.59700032961791
 20
1403.4922700637521
 11
950.10091899843474
 21
1403.795949961851
  0
LINE
  8
_0-5_EL-M10011N_______8
  6
CONTINUOUS
 62
    7
 10
950.10091899843474
 20
1403.795949961851
 11
950.31822442183784
 21
1403.9881921986521
  0
LINE
  8
_0-2_02___PRT_ALL_AXES
  6
CONTINUOUS
 62
    7
 10
792.01461842008075
 20
1177.4731091875601
 11
798.43846659750579
 21
1178.8145950024241
  0
LINE
  8
_0-0_0
  6
CONTINUOUS
 62
    2
 10
780.68919867879004
 20
1181.3178677741262
 11
791.90388704362704
 21
1183.65981997261
  0
LINE
  8
_0-2_02___PRT_ALL_AXES
  6
CONTINUOUS
 62
    7
 10
791.88514795715264
 20
1184.7067979256399
 11
781.95336511565392
 21
1182.632753609932
  0
LINE
  8
_0-2_02___PRT_ALL_AXES
  6
CONTINUOUS
 62
    7
 10
791.82566273881184
 20
1188.0303169806461
 11
798.24951091623598
 21
1189.3718027955101
  0
LINE
  8
_0-2_02___PRT_ALL_AXES
  6
CONTINUOUS
 62
    7
 10
796.18368820181286
 20
1189.9736215090661
 11
802.6075363792379
 21
1191.3151073239301
  0
LINE
  8
_0-5_EL-M10011N_______8
  6
CONTINUOUS
 62
    7
 10
1088.9694987865018
 20
1275.344293487979
 11
1089.1987488608938
 21
1275.389212790571
  0
LINE
  8
_0-5_EL-M10011N_______8
  6
CONTINUOUS
 62
    7
 10
1088.848846501518
 20
1275.4900236730241
 11
1088.4833367819419
 21
1275.436383331486
  0
LINE
  8
_0-5_EL-M10011N_______8
  6
CONTINUOUS
 62
    7
 10
1088.4833367819419
 20
1275.436383331486
 11
1088.1303559044659
 21
1275.4690601195739
  0
LINE
  8
_0-5_EL-M10011N_______8
  6
CONTINUOUS
 62
    7
 10
1089.1987488608938
 20
1275.389212790571
 11
1089.0288591740036
 21
1275.394820635845
  0
LINE
  8
_0-5_EL-M10011N_______8
  6
CONTINUOUS
 62
    7
 10
1089.0288591740036
 20
1275.394820635845
 11
1088.848846501518
 21
1275.4900236730241
  0
LINE
  8
_0-5_EL-M10011N_______8
  6
CONTINUOUS
 62
    7
 10
1088.4904199361767
 20
1275.3451479879218
 11
1088.7345658014528
 21
1275.3289628038842
  0
LINE
  8
_0-5_EL-M10011N_______8
  6
CONTINUOUS
 62
    7
 10
1088.7345658014528
 20
1275.3289628038842
 11
1088.9694987865018
 21
1275.344293487979
  0
LINE
  8
_0-5_EL-M10011N_______8
  6
CONTINUOUS
 62
    7
 10
1088.1303559044659
 20
1275.4690601195739
 11
1087.8076038039717
 21
1275.5864154858282
  0
LINE
  8
_0-5_EL-M10011N_______8
  6
CONTINUOUS
 62
    7
 10
1087.8076038039717
 20
1275.5864154858282
 11
1087.636771334106
 21
1275.6940790479962
  0
LINE
  8
_0-5_EL-M10011N_______8
  6
CONTINUOUS
 62
    7
 10
1087.636771334106
 20
1275.6940790479962
 11
1087.9396886507998
 21
1275.5100790543001
  0
LINE
  8
_0-5_EL-M10011N_______8
  6
CONTINUOUS
 62
    7
 10
1087.9396886507998
 20
1275.5100790543001
 11
1088.2277575371959
 21
1275.4001945730279
  0
LINE
  8
_0-5_EL-M10011N_______8
  6
CONTINUOUS
 62
    7
 10
1088.2277575371959
 20
1275.4001945730279
 11
1088.4904199361767
 21
1275.3451479879218
  0
LINE
  8
_0-5_EL-M10011N_______8
  6
CONTINUOUS
 62
    7
 10
897.48063021661665
 20
1418.1370182166661
 11
897.65146268572198
 21
1418.0293546537359
  0
LINE
  8
_0-5_EL-M10011N_______8
  6
CONTINUOUS
 62
    7
 10
897.65146268572198
 20
1418.0293546537359
 11
897.97421478697697
 21
1417.9119992882438
  0
LINE
  8
_0-5_EL-M10011N_______8
  6
CONTINUOUS
 62
    7
 10
897.97421478697697
 20
1417.9119992882438
 11
898.32719566445394
 21
1417.879322500155
  0
LINE
  8
_0-5_EL-M10011N_______8
  6
CONTINUOUS
 62
    7
 10
898.32719566445394
 20
1417.879322500155
 11
898.69270538402998
 21
1417.9329628409309
  0
LINE
  8
_0-5_EL-M10011N_______8
  6
CONTINUOUS
 62
    7
 10
1077.8466761297277
 20
1301.826684738483
 11
1077.9733162457628
 21
1301.731908654478
  0
LINE
  8
_0-5_EL-M10011N_______8
  6
CONTINUOUS
 62
    7
 10
1077.9733162457628
 20
1301.731908654478
 11
1078.48327864062
 21
1301.4895262111258
  0
LINE
  8
_0-5_EL-M10011N_______8
  6
CONTINUOUS
 62
    7
 10
1078.48327864062
 20
1301.4895262111258
 11
1079.1070676414506
 21
1301.296426213024
  0
LINE
  8
_0-5_EL-M10011N_______8
  6
CONTINUOUS
 62
    7
 10
1079.1070676414506
 20
1301.296426213024
 11
1079.8241851472699
 21
1301.1590561959179
  0
LINE
  8
_0-5_EL-M10011N_______8
  6
CONTINUOUS
 62
    7
 10
1079.8241851472699
 20
1301.1590561959179
 11
1080.6097714650959
 21
1301.0822704228958
  0
LINE
  8
_0-5_EL-M10011N_______8
  6
CONTINUOUS
 62
    7
 10
1080.6097714650959
 20
1301.0822704228958
 11
1081.4329642286639
 21
1301.0685854401049
  0
LINE
  8
_0-5_EL-M10011N_______8
  6
CONTINUOUS
 62
    7
 10
1081.4329642286639
 20
1301.0685854401049
 11
1082.2766454226798
 21
1301.1185846050298
  0
LINE
  8
_0-5_EL-M10011N_______8
  6
CONTINUOUS
 62
    7
 10
1082.2766454226798
 20
1301.1185846050298
 11
1083.107421278778
 21
1301.2312873242522
  0
LINE
  8
_0-5_EL-M10011N_______8
  6
CONTINUOUS
 62
    7
 10
1083.107421278778
 20
1301.2312873242522
 11
1083.894609045522
 21
1301.4027694006422
  0
LINE
  8
_0-5_EL-M10011N_______8
  6
CONTINUOUS
 62
    7
 10
942.21657547657787
 20
1403.4250347209559
 11
942.34321559261389
 21
1403.3302586377122
  0
LINE
  8
_0-5_EL-M10011N_______8
  6
CONTINUOUS
 62
    7
 10
942.34321559261389
 20
1403.3302586377122
 11
942.85317798746883
 21
1403.08787619436
  0
LINE
  8
_0-5_EL-M10011N_______8
  6
CONTINUOUS
 62
    7
 10
942.85317798746883
 20
1403.08787619436
 11
943.47696698830077
 21
1402.8947761962581
  0
LINE
  8
_0-5_EL-M10011N_______8
  6
CONTINUOUS
 62
    7
 10
943.47696698830077
 20
1402.8947761962581
 11
944.19408449411867
 21
1402.757406179152
  0
LINE
  8
_0-5_EL-M10011N_______8
  6
CONTINUOUS
 62
    7
 10
944.19408449411867
 20
1402.757406179152
 11
944.97967081194565
 21
1402.680620406129
  0
LINE
  8
_0-5_EL-M10011N_______8
  6
CONTINUOUS
 62
    7
 10
944.97967081194565
 20
1402.680620406129
 11
945.80286357627483
 21
1402.6669354225778
  0
LINE
  8
_0-5_EL-M10011N_______8
  6
CONTINUOUS
 62
    7
 10
945.80286357627483
 20
1402.6669354225778
 11
946.64654476952865
 21
1402.716934588263
  0
LINE
  8
_0-5_EL-M10011N_______8
  6
CONTINUOUS
 62
    7
 10
946.64654476952865
 20
1402.716934588263
 11
947.47732062562682
 21
1402.8296373067242
  0
LINE
  8
_0-5_EL-M10011N_______8
  6
CONTINUOUS
 62
    7
 10
947.47732062562682
 20
1402.8296373067242
 11
948.26450839237077
 21
1403.001119383875
  0
LINE
  8
_0-5_EL-M10011N_______8
  6
CONTINUOUS
 62
    7
 10
1087.636771334106
 20
1275.6940790479962
 11
897.48063021661665
 21
1418.1370182166661
  0
LINE
  8
_0-5_EL-M10011N_______8
  6
CONTINUOUS
 62
    7
 10
1088.848846501518
 20
1275.4900236730241
 11
898.69270538402998
 21
1417.9329628409309
  0
LINE
  8
_0-5_EL-M10011N_______8
  6
CONTINUOUS
 62
    7
 10
1077.3942364961276
 20
1300.9581045231462
 11
1077.3924915138418
 21
1300.9996833686141
  0
LINE
  8
_0-5_EL-M10011N_______8
  6
CONTINUOUS
 62
    7
 10
1077.3924915138418
 20
1300.9996833686141
 11
1077.4652607429539
 21
1301.344984391751
  0
LINE
  8
_0-5_EL-M10011N_______8
  6
CONTINUOUS
 62
    7
 10
1077.4652607429539
 20
1301.344984391751
 11
1077.690583207218
 21
1301.687883355431
  0
LINE
  8
_0-5_EL-M10011N_______8
  6
CONTINUOUS
 62
    7
 10
1077.690583207218
 20
1301.687883355431
 11
1078.058619029945
 21
1302.0151491934062
  0
LINE
  8
_0-5_EL-M10011N_______8
  6
CONTINUOUS
 62
    7
 10
1078.058619029945
 20
1302.0151491934062
 11
1078.5623053222916
 21
1302.319833128613
  0
LINE
  8
_0-5_EL-M10011N_______8
  6
CONTINUOUS
 62
    7
 10
1078.5623053222916
 20
1302.319833128613
 11
1079.1836781986699
 21
1302.589396287226
  0
LINE
  8
_0-5_EL-M10011N_______8
  6
CONTINUOUS
 62
    7
 10
1079.1836781986699
 20
1302.589396287226
 11
1079.9002593403079
 21
1302.8137686632199
  0
LINE
  8
_0-5_EL-M10011N_______8
  6
CONTINUOUS
 62
    7
 10
1086.5162852344679
 20
1301.590694924967
 11
1086.5180302167528
 21
1301.5491160795
  0
LINE
  8
_0-5_EL-M10011N_______8
  6
CONTINUOUS
 62
    7
 10
1086.5180302167528
 20
1301.5491160795
 11
1086.4452609884038
 21
1301.2038150563621
  0
LINE
  8
_0-5_EL-M10011N_______8
  6
CONTINUOUS
 62
    7
 10
1086.4452609884038
 20
1301.2038150563621
 11
1086.2199385241397
 21
1300.8609160926821
  0
LINE
  8
_0-5_EL-M10011N_______8
  6
CONTINUOUS
 62
    7
 10
1086.2199385241397
 20
1300.8609160926821
 11
1085.8519027014108
 21
1300.533650254707
  0
LINE
  8
_0-5_EL-M10011N_______8
  6
CONTINUOUS
 62
    7
 10
1085.8519027014108
 20
1300.533650254707
 11
1085.348216409066
 21
1300.2289663195002
  0
LINE
  8
_0-5_EL-M10011N_______8
  6
CONTINUOUS
 62
    7
 10
1085.348216409066
 20
1300.2289663195002
 11
1084.7268435326878
 21
1299.9594031608881
  0
LINE
  8
_0-5_EL-M10011N_______8
  6
CONTINUOUS
 62
    7
 10
1084.7268435326878
 20
1299.9594031608881
 11
1084.0102623902867
 21
1299.7350307848942
  0
LINE
  8
_0-5_EL-M10011N_______8
  6
CONTINUOUS
 62
    7
 10
1149.4441978701348
 20
1458.106505526705
 11
1150.0704565282076
 21
1458.5554149766122
  0
LINE
  8
_0-5_EL-M10011N_______8
  6
CONTINUOUS
 62
    7
 10
1150.0704565282076
 20
1458.5554149766122
 11
1150.8482131672558
 21
1458.9685505892521
  0
LINE
  8
_0-5_EL-M10011N_______8
  6
CONTINUOUS
 62
    7
 10
1150.8482131672558
 20
1458.9685505892521
 11
1151.7592358720026
 21
1459.3357955367519
  0
LINE
  8
_0-5_EL-M10011N_______8
  6
CONTINUOUS
 62
    7
 10
1151.7592358720026
 20
1459.3357955367519
 11
1152.7821119486748
 21
1459.648000465299
  0
LINE
  8
_0-2_02___PRT_ALL_AXES
  6
CONTINUOUS
 62
    7
 10
632.01319638013183
 20
1088.568940604584
 11
632.72129781584272
 21
1089.073664663968
  0
LINE
  8
_0-2_02___PRT_ALL_AXES
  6
CONTINUOUS
 62
    7
 10
632.72129781584272
 20
1089.073664663968
 11
633.41448621356403
 21
1089.7261820035842
  0
LINE
  8
_0-2_02___PRT_ALL_AXES
  6
CONTINUOUS
 62
    7
 10
633.41448621356403
 20
1089.7261820035842
 11
634.0809033178607
 21
1090.5153321481662
  0
LINE
  8
_0-2_02___PRT_ALL_AXES
  6
CONTINUOUS
 62
    7
 10
634.0809033178607
 20
1090.5153321481662
 11
634.70914818760684
 21
1091.427618012694
  0
LINE
  8
_0-2_02___PRT_ALL_AXES
  6
CONTINUOUS
 62
    7
 10
634.70914818760684
 20
1091.427618012694
 11
635.28847210109279
 21
1092.447436453876
  0
LINE
  8
_0-2_02___PRT_ALL_AXES
  6
CONTINUOUS
 62
    7
 10
635.28847210109279
 20
1092.447436453876
 11
635.80896224603885
 21
1093.557344707257
  0
LINE
  8
_0-2_02___PRT_ALL_AXES
  6
CONTINUOUS
 62
    7
 10
635.80896224603885
 20
1093.557344707257
 11
636.2617111678187
 21
1094.738358243118
  0
LINE
  8
_0-2_02___PRT_ALL_AXES
  6
CONTINUOUS
 62
    7
 10
636.2617111678187
 20
1094.738358243118
 11
636.6389691336467
 21
1095.970275184156
  0
LINE
  8
_0-2_02___PRT_ALL_AXES
  6
CONTINUOUS
 62
    7
 10
631.68591574487982
 20
1106.8545610279361
 11
631.10049015677987
 21
1106.4769831508861
  0
LINE
  8
_0-2_02___PRT_ALL_AXES
  6
CONTINUOUS
 62
    7
 10
631.10049015677987
 20
1106.4769831508861
 11
630.57471683037602
 21
1106.084836386286
  0
LINE
  8
_0-2_02___PRT_ALL_AXES
  6
CONTINUOUS
 62
    7
 10
630.57471683037602
 20
1106.084836386286
 11
630.10327394166598
 21
1105.676785786336
  0
LINE
  8
_0-2_02___PRT_ALL_AXES
  6
CONTINUOUS
 62
    7
 10
630.10327394166598
 20
1105.676785786336
 11
629.67745289135382
 21
1105.2485914321601
  0
LINE
  8
_0-2_02___PRT_ALL_AXES
  6
CONTINUOUS
 62
    7
 10
629.67745289135382
 20
1105.2485914321601
 11
629.28703369581581
 21
1104.7924657858662
  0
LINE
  8
_0-2_02___PRT_ALL_AXES
  6
CONTINUOUS
 62
    7
 10
630.50266940347683
 20
1172.964111152487
 11
631.14929122224476
 21
1173.3271680588341
  0
LINE
  8
_0-2_02___PRT_ALL_AXES
  6
CONTINUOUS
 62
    7
 10
631.14929122224476
 20
1173.3271680588341
 11
631.85655352907861
 21
1173.6762501427361
  0
LINE
  8
_0-2_02___PRT_ALL_AXES
  6
CONTINUOUS
 62
    7
 10
631.85655352907861
 20
1173.6762501427361
 11
632.62533119903992
 21
1174.0137475467341
  0
LINE
  8
_0-2_02___PRT_ALL_AXES
  6
CONTINUOUS
 62
    7
 10
632.62533119903992
 20
1174.0137475467341
 11
633.46195890576564
 21
1174.3444634890602
  0
LINE
  8
_0-2_02___PRT_ALL_AXES
  6
CONTINUOUS
 62
    7
 10
633.46195890576564
 20
1174.3444634890602
 11
634.38057798089403
 21
1174.675255027882
  0
LINE
  8
_0-5_EL-M10011N_______8
  6
CONTINUOUS
 62
    7
 10
1465.7777645393039
 20
1567.2133106550518
 11
1466.1374749176707
 21
1567.350578374419
  0
LINE
  8
_0-5_EL-M10011N_______8
  6
CONTINUOUS
 62
    7
 10
1466.1374749176707
 20
1567.350578374419
 11
1466.4733485735828
 21
1567.5645902943761
  0
LINE
  8
_0-5_EL-M10011N_______8
  6
CONTINUOUS
 62
    7
 10
1466.4733485735828
 20
1567.5645902943761
 11
1466.768543399754
 21
1567.844614965466
  0
LINE
  8
_0-5_EL-M10011N_______8
  6
CONTINUOUS
 62
    7
 10
1466.768543399754
 20
1567.844614965466
 11
1467.0082570958398
 21
1568.1766107797562
  0
LINE
  8
_0-5_EL-M10011N_______8
  6
CONTINUOUS
 62
    7
 10
1467.0082570958398
 20
1568.1766107797562
 11
1467.1804694143548
 21
1568.543930081692
  0
LINE
  8
_0-5_EL-M10011N_______8
  6
CONTINUOUS
 62
    7
 10
1467.1804694143548
 20
1568.543930081692
 11
1467.2765449125768
 21
1568.928153947481
  0
LINE
  8
_0-5_EL-M10011N_______8
  6
CONTINUOUS
 62
    7
 10
1467.2765449125768
 20
1568.928153947481
 11
1467.2916659620919
 21
1569.3100157877702
  0
LINE
  8
_0-5_EL-M10011N_______8
  6
CONTINUOUS
 62
    7
 10
1656.2838080161682
 20
1424.6695606054541
 11
1089.1987488608938
 21
1275.389212790571
  0
LINE
  8
_0-5_EL-M10011N_______8
  6
CONTINUOUS
 62
    7
 10
1655.9339056575536
 20
1424.7703714871441
 11
1088.848846501518
 21
1275.4900236730241
  0
LINE
  8
_0-5_EL-M10011N_______8
  6
CONTINUOUS
 62
    7
 10
1558.0098659098849
 20
1424.1648485887181
 11
1293.2072161606438
 21
1354.4577896241458
  0
LINE
  8
_0-5_EL-M10011N_______8
  6
CONTINUOUS
 62
    7
 10
1293.0915628151156
 20
1356.1255282398929
 11
1557.894212564358
 21
1425.8325872044661
  0
LINE
  8
_0-6__V_K___I
  6
CONTINUOUS
 62
    7
 10
1556.8727311572356
 20
1425.910412645716
 11
1293.428043714162
 21
1356.5608257782378
  0
LINE
  8
_0-6__V_K___I
  6
CONTINUOUS
 62
    7
 10
1293.2834770330128
 20
1358.6454990475422
 11
1556.7281644760878
 21
1427.9950859157821
  0
LINE
  8
_0-5_EL-M10011N_______8
  6
CONTINUOUS
 62
    7
 10
1293.2072161606438
 20
1354.4577896241458
 11
1292.099502860453
 21
1354.2091349096199
  0
LINE
  8
_0-5_EL-M10011N_______8
  6
CONTINUOUS
 62
    7
 10
1292.099502860453
 20
1354.2091349096199
 11
1290.9367312754098
 21
1354.0304710419041
  0
LINE
  8
_0-5_EL-M10011N_______8
  6
CONTINUOUS
 62
    7
 10
1290.9367312754098
 20
1354.0304710419041
 11
1289.7472538504567
 21
1353.9257489178449
  0
LINE
  8
_0-5_EL-M10011N_______8
  6
CONTINUOUS
 62
    7
 10
1289.7472538504567
 20
1353.9257489178449
 11
1288.5598078755947
 21
1353.8972159558621
  0
LINE
  8
_0-5_EL-M10011N_______8
  6
CONTINUOUS
 62
    7
 10
1288.5598078755947
 20
1353.8972159558621
 11
1287.4029361090788
 21
1353.9453883667561
  0
LINE
  8
_0-5_EL-M10011N_______8
  6
CONTINUOUS
 62
    7
 10
1287.4029361090788
 20
1353.9453883667561
 11
1286.3044178903219
 21
1354.069051409751
  0
LINE
  8
_0-5_EL-M10011N_______8
  6
CONTINUOUS
 62
    7
 10
1286.3044178903219
 20
1354.069051409751
 11
1285.2907160292348
 21
1354.265287180348
  0
LINE
  8
_0-5_EL-M10011N_______8
  6
CONTINUOUS
 62
    7
 10
1285.2907160292348
 20
1354.265287180348
 11
1284.386444654393
 21
1354.52952951013
  0
LINE
  8
_0-5_EL-M10011N_______8
  6
CONTINUOUS
 62
    7
 10
1284.386444654393
 20
1354.52952951013
 11
1283.6138632236898
 21
1354.8556455990702
  0
LINE
  8
_0-5_EL-M10011N_______8
  6
CONTINUOUS
 62
    7
 10
1283.6138632236898
 20
1354.8556455990702
 11
1282.9924020863759
 21
1355.236044035883
  0
LINE
  8
_0-6__V_K___I
  6
CONTINUOUS
 62
    7
 10
1293.428043714162
 20
1356.5608257782378
 11
1292.1949202291808
 21
1356.289061626821
  0
LINE
  8
_0-6__V_K___I
  6
CONTINUOUS
 62
    7
 10
1292.1949202291808
 20
1356.289061626821
 11
1290.8965732459978
 21
1356.1039567933231
  0
LINE
  8
_0-6__V_K___I
  6
CONTINUOUS
 62
    7
 10
1290.8965732459978
 20
1356.1039567933231
 11
1289.5721981373226
 21
1356.0108030797078
  0
LINE
  8
_0-6__V_K___I
  6
CONTINUOUS
 62
    7
 10
1289.5721981373226
 20
1356.0108030797078
 11
1288.2616199903869
 21
1356.0122030543021
  0
LINE
  8
_0-6__V_K___I
  6
CONTINUOUS
 62
    7
 10
1288.2616199903869
 20
1356.0122030543021
 11
1287.004054958406
 21
1356.1080122312378
  0
LINE
  8
_0-6__V_K___I
  6
CONTINUOUS
 62
    7
 10
1287.004054958406
 20
1356.1080122312378
 11
1285.8372013675548
 21
1356.2953594646201
  0
LINE
  8
_0-6__V_K___I
  6
CONTINUOUS
 62
    7
 10
1285.8372013675548
 20
1356.2953594646201
 11
1284.79612707963
 21
1356.5687316219642
  0
LINE
  8
_0-6__V_K___I
  6
CONTINUOUS
 62
    7
 10
1284.79612707963
 20
1356.5687316219642
 11
1283.9124316684606
 21
1356.9200860774949
  0
LINE
  8
_0-6__V_K___I
  6
CONTINUOUS
 62
    7
 10
1283.9124316684606
 20
1356.9200860774949
 11
1283.2132296406548
 21
1357.3390801907381
  0
LINE
  8
_0-5_EL-M10011N_______8
  6
CONTINUOUS
 62
    7
 10
1084.0102623902867
 20
1299.7350307848942
 11
1083.2274921730018
 21
1299.5643255575978
  0
LINE
  8
_0-5_EL-M10011N_______8
  6
CONTINUOUS
 62
    7
 10
1083.2274921730018
 20
1299.5643255575978
 11
1082.4004220631118
 21
1299.4516373704778
  0
LINE
  8
_0-5_EL-M10011N_______8
  6
CONTINUOUS
 62
    7
 10
1082.4004220631118
 20
1299.4516373704778
 11
1081.5586129720318
 21
1299.4010658117281
  0
LINE
  8
_0-5_EL-M10011N_______8
  6
CONTINUOUS
 62
    7
 10
1081.5586129720318
 20
1299.4010658117281
 11
1080.7348838915268
 21
1299.414006036292
  0
LINE
  8
_0-5_EL-M10011N_______8
  6
CONTINUOUS
 62
    7
 10
1080.7348838915268
 20
1299.414006036292
 11
1079.9462515884297
 21
1299.4904060216682
  0
LINE
  8
_0-5_EL-M10011N_______8
  6
CONTINUOUS
 62
    7
 10
1079.9462515884297
 20
1299.4904060216682
 11
1079.2250621839739
 21
1299.628110910342
  0
LINE
  8
_0-5_EL-M10011N_______8
  6
CONTINUOUS
 62
    7
 10
1079.2250621839739
 20
1299.628110910342
 11
1078.59824331036
 21
1299.8220521998778
  0
LINE
  8
_0-5_EL-M10011N_______8
  6
CONTINUOUS
 62
    7
 10
1078.59824331036
 20
1299.8220521998778
 11
1078.0872910188286
 21
1300.0651639793382
  0
LINE
  8
_0-5_EL-M10011N_______8
  6
CONTINUOUS
 62
    7
 10
1078.0872910188286
 20
1300.0651639793382
 11
1077.7087338521446
 21
1300.3489985795618
  0
LINE
  8
_0-5_EL-M10011N_______8
  6
CONTINUOUS
 62
    7
 10
1077.7087338521446
 20
1300.3489985795618
 11
1077.4746160402187
 21
1300.663994777356
  0
LINE
  8
_0-5_EL-M10011N_______8
  6
CONTINUOUS
 62
    7
 10
1077.4746160402187
 20
1300.663994777356
 11
1077.3942364961276
 21
1300.9581045231462
  0
LINE
  8
_0-5_EL-M10011N_______8
  6
CONTINUOUS
 62
    7
 10
1079.9002593403079
 20
1302.8137686632199
 11
1080.6830295575928
 21
1302.9844738905158
  0
LINE
  8
_0-5_EL-M10011N_______8
  6
CONTINUOUS
 62
    7
 10
1080.6830295575928
 20
1302.9844738905158
 11
1081.5100996682459
 21
1303.097162078398
  0
LINE
  8
_0-5_EL-M10011N_______8
  6
CONTINUOUS
 62
    7
 10
1081.5100996682459
 20
1303.097162078398
 11
1082.3519087593249
 21
1303.1477336371481
  0
LINE
  8
_0-5_EL-M10011N_______8
  6
CONTINUOUS
 62
    7
 10
1082.3519087593249
 20
1303.1477336371481
 11
1083.17563783983
 21
1303.1347934125838
  0
LINE
  8
_0-5_EL-M10011N_______8
  6
CONTINUOUS
 62
    7
 10
1083.17563783983
 20
1303.1347934125838
 11
1083.9642701421658
 21
1303.058393426445
  0
LINE
  8
_0-5_EL-M10011N_______8
  6
CONTINUOUS
 62
    7
 10
1083.9642701421658
 20
1303.058393426445
 11
1084.6854595466207
 21
1302.9206885385338
  0
LINE
  8
_0-5_EL-M10011N_______8
  6
CONTINUOUS
 62
    7
 10
1084.6854595466207
 20
1302.9206885385338
 11
1085.3122784202346
 21
1302.726747248998
  0
LINE
  8
_0-5_EL-M10011N_______8
  6
CONTINUOUS
 62
    7
 10
1085.3122784202346
 20
1302.726747248998
 11
1085.823230711766
 21
1302.483635468775
  0
LINE
  8
_0-5_EL-M10011N_______8
  6
CONTINUOUS
 62
    7
 10
1085.823230711766
 20
1302.483635468775
 11
1086.20178787845
 21
1302.199800869314
  0
LINE
  8
_0-5_EL-M10011N_______8
  6
CONTINUOUS
 62
    7
 10
1086.20178787845
 20
1302.199800869314
 11
1086.4359056911367
 21
1301.8848046707581
  0
LINE
  8
_0-5_EL-M10011N_______8
  6
CONTINUOUS
 62
    7
 10
1086.4359056911367
 20
1301.8848046707581
 11
1086.5162852344679
 21
1301.590694924967
  0
LINE
  8
_0-2_02___PRT_ALL_AXES
  6
CONTINUOUS
 62
    7
 10
804.11806333912682
 20
1106.919936782122
 11
803.94584273233795
 21
1106.7762360133902
  0
LINE
  8
_0-2_02___PRT_ALL_AXES
  6
CONTINUOUS
 62
    7
 10
803.94584273233795
 20
1106.7762360133902
 11
803.72700801760766
 21
1106.6266055671599
  0
LINE
  8
_0-2_02___PRT_ALL_AXES
  6
CONTINUOUS
 62
    7
 10
803.72700801760766
 20
1106.6266055671599
 11
803.45529491485786
 21
1106.467782628773
  0
LINE
  8
_0-2_02___PRT_ALL_AXES
  6
CONTINUOUS
 62
    7
 10
803.45529491485786
 20
1106.467782628773
 11
803.12422539614863
 21
1106.2971699875261
  0
LINE
  8
_0-2_02___PRT_ALL_AXES
  6
CONTINUOUS
 62
    7
 10
803.12422539614863
 20
1106.2971699875261
 11
802.72927254826072
 21
1106.1133057967081
  0
LINE
  8
_0-2_02___PRT_ALL_AXES
  6
CONTINUOUS
 62
    7
 10
801.21874557313186
 20
1190.5084763453742
 11
800.74635482500162
 21
1190.2067825126442
  0
LINE
  8
_0-2_02___PRT_ALL_AXES
  6
CONTINUOUS
 62
    7
 10
800.74635482500162
 20
1190.2067825126442
 11
800.32257607718384
 21
1189.746234225207
  0
LINE
  8
_0-2_02___PRT_ALL_AXES
  6
CONTINUOUS
 62
    7
 10
800.32257607718384
 20
1189.746234225207
 11
799.95465664081166
 21
1189.134719227005
  0
LINE
  8
_0-2_02___PRT_ALL_AXES
  6
CONTINUOUS
 62
    7
 10
799.95465664081166
 20
1189.134719227005
 11
799.64888813195375
 21
1188.382706046249
  0
LINE
  8
_0-2_02___PRT_ALL_AXES
  6
CONTINUOUS
 62
    7
 10
799.64888813195375
 20
1188.382706046249
 11
799.41049901818178
 21
1187.5030648111242
  0
LINE
  8
_0-2_02___PRT_ALL_AXES
  6
CONTINUOUS
 62
    7
 10
799.41049901818178
 20
1187.5030648111242
 11
799.2435653921807
 21
1186.5108471628482
  0
LINE
  8
_0-2_02___PRT_ALL_AXES
  6
CONTINUOUS
 62
    7
 10
799.2435653921807
 20
1186.5108471628482
 11
799.15094141486998
 21
1185.4230289549482
  0
LINE
  8
_0-2_02___PRT_ALL_AXES
  6
CONTINUOUS
 62
    7
 10
799.15094141486998
 20
1185.4230289549482
 11
799.13421061597182
 21
1184.2582201423302
  0
LINE
  8
_0-2_02___PRT_ALL_AXES
  6
CONTINUOUS
 62
    7
 10
805.95468233390284
 20
1171.33736524495
 11
806.42707300049869
 21
1171.6390590228161
  0
LINE
  8
_0-2_02___PRT_ALL_AXES
  6
CONTINUOUS
 62
    7
 10
806.42707300049869
 20
1171.6390590228161
 11
806.8508517353639
 21
1172.099607285867
  0
LINE
  8
_0-2_02___PRT_ALL_AXES
  6
CONTINUOUS
 62
    7
 10
806.8508517353639
 20
1172.099607285867
 11
807.21877116411588
 21
1172.711122249018
  0
LINE
  8
_0-2_02___PRT_ALL_AXES
  6
CONTINUOUS
 62
    7
 10
807.21877116411588
 20
1172.711122249018
 11
807.52453967068777
 21
1173.4631353871018
  0
LINE
  8
_0-2_02___PRT_ALL_AXES
  6
CONTINUOUS
 62
    7
 10
807.52453967068777
 20
1173.4631353871018
 11
807.76292878674576
 21
1174.3427765719362
  0
LINE
  8
_0-3_7_ALL_FEATURES
  6
CONTINUOUS
 62
    7
 10
641.90273426167096
 20
1088.8536127586322
 11
635.62594385845796
 21
1085.080373773756
  0
LINE
  8
_0-2_02___PRT_ALL_AXES
  6
CONTINUOUS
 62
    7
 10
632.01319636336802
 20
1088.5689406106799
 11
632.65981818213595
 21
1088.931997517026
  0
LINE
  8
_0-2_02___PRT_ALL_AXES
  6
CONTINUOUS
 62
    7
 10
632.65981818213595
 20
1088.931997517026
 11
633.3670804889698
 21
1089.281079600928
  0
LINE
  8
_0-2_02___PRT_ALL_AXES
  6
CONTINUOUS
 62
    7
 10
633.3670804889698
 20
1089.281079600928
 11
634.13585815892884
 21
1089.618577004926
  0
LINE
  8
_0-2_02___PRT_ALL_AXES
  6
CONTINUOUS
 62
    7
 10
634.13585815892884
 20
1089.618577004926
 11
634.97248586565593
 21
1089.9492929472522
  0
LINE
  8
_0-2_02___PRT_ALL_AXES
  6
CONTINUOUS
 62
    7
 10
634.97248586565593
 20
1089.9492929472522
 11
635.89110494078386
 21
1090.280084486074
  0
LINE
  8
_0-2_02___PRT_ALL_AXES
  6
CONTINUOUS
 62
    7
 10
634.05329713990068
 20
1192.9608753117882
 11
633.13471355339971
 21
1192.6300971430178
  0
LINE
  8
_0-2_02___PRT_ALL_AXES
  6
CONTINUOUS
 62
    7
 10
633.13471355339971
 20
1192.6300971430178
 11
632.29788430681765
 21
1192.2992987774378
  0
LINE
  8
_0-2_02___PRT_ALL_AXES
  6
CONTINUOUS
 62
    7
 10
632.29788430681765
 20
1192.2992987774378
 11
631.52908179337192
 21
1191.961781726794
  0
LINE
  8
_0-2_02___PRT_ALL_AXES
  6
CONTINUOUS
 62
    7
 10
631.52908179337192
 20
1191.961781726794
 11
630.82189662151177
 21
1191.612728550886
  0
LINE
  8
_0-2_02___PRT_ALL_AXES
  6
CONTINUOUS
 62
    7
 10
630.82189662151177
 20
1191.612728550886
 11
630.17538878498999
 21
1191.2497315697442
  0
LINE
  8
_0-5_EL-M10011N_______8
  6
CONTINUOUS
 62
    7
 10
1149.4173029589779
 20
1455.295025080336
 11
1149.3016496134496
 21
1456.962763696084
  0
LINE
  8
_0-6__V_K___I
  6
CONTINUOUS
 62
    7
 10
1150.3231310205706
 20
1456.8849382548328
 11
1150.2024264753409
 21
1458.625515934707
  0
LINE
  8
_0-5_EL-M10011N_______8
  6
CONTINUOUS
 62
    7
 10
1148.6054281745519
 20
1456.5552283536749
 11
1148.6024514893697
 21
1456.6562908912001
  0
LINE
  8
_0-5_EL-M10011N_______8
  6
CONTINUOUS
 62
    7
 10
1148.6024514893697
 20
1456.6562908912001
 11
1148.7012615381286
 21
1457.145386017402
  0
LINE
  8
_0-5_EL-M10011N_______8
  6
CONTINUOUS
 62
    7
 10
1148.7012615381286
 20
1457.145386017402
 11
1148.9841554874538
 21
1457.6326941354941
  0
LINE
  8
_0-5_EL-M10011N_______8
  6
CONTINUOUS
 62
    7
 10
1148.9841554874538
 20
1457.6326941354941
 11
1149.4441978701348
 21
1458.106505526705
  0
LINE
  8
_0-2_02___PRT_ALL_AXES
  6
CONTINUOUS
 62
    7
 10
802.72927253302169
 20
1106.1133058043279
 11
802.25688178412975
 21
1105.8116119708361
  0
LINE
  8
_0-2_02___PRT_ALL_AXES
  6
CONTINUOUS
 62
    7
 10
802.25688178412975
 20
1105.8116119708361
 11
801.83310303707367
 21
1105.3510636833998
  0
LINE
  8
_0-2_02___PRT_ALL_AXES
  6
CONTINUOUS
 62
    7
 10
801.83310303707367
 20
1105.3510636833998
 11
801.46518360070195
 21
1104.73954868596
  0
LINE
  8
_0-2_02___PRT_ALL_AXES
  6
CONTINUOUS
 62
    7
 10
801.46518360070195
 20
1104.73954868596
 11
801.15941509184404
 21
1103.9875355044419
  0
LINE
  8
_0-2_02___PRT_ALL_AXES
  6
CONTINUOUS
 62
    7
 10
801.15941509184404
 20
1103.9875355044419
 11
800.9210259780707
 21
1103.1078942700769
  0
LINE
  8
_0-2_02___PRT_ALL_AXES
  6
CONTINUOUS
 62
    7
 10
800.9210259780707
 20
1103.1078942700769
 11
800.75409235207098
 21
1102.1156766218019
  0
LINE
  8
_0-2_02___PRT_ALL_AXES
  6
CONTINUOUS
 62
    7
 10
800.75409235207098
 20
1102.1156766218019
 11
800.66146837475981
 21
1101.0278584131402
  0
LINE
  8
_0-2_02___PRT_ALL_AXES
  6
CONTINUOUS
 62
    7
 10
800.66146837475981
 20
1101.0278584131402
 11
800.64473757586165
 21
1099.8630496012838
  0
LINE
  8
_0-2_02___PRT_ALL_AXES
  6
CONTINUOUS
 62
    7
 10
805.95468233390284
 20
1171.33736524495
 11
806.34969617989191
 21
1171.521259231492
  0
LINE
  8
_0-2_02___PRT_ALL_AXES
  6
CONTINUOUS
 62
    7
 10
806.34969617989191
 20
1171.521259231492
 11
806.68078253880003
 21
1171.691884658338
  0
LINE
  8
_0-2_02___PRT_ALL_AXES
  6
CONTINUOUS
 62
    7
 10
806.68078253880003
 20
1171.691884658338
 11
806.95246848463103
 21
1171.8506969111982
  0
LINE
  8
_0-2_02___PRT_ALL_AXES
  6
CONTINUOUS
 62
    7
 10
806.95246848463103
 20
1171.8506969111982
 11
807.17124470519275
 21
1172.0002895706102
  0
LINE
  8
_0-2_02___PRT_ALL_AXES
  6
CONTINUOUS
 62
    7
 10
807.17124470519275
 20
1172.0002895706102
 11
807.34347320630377
 21
1172.143996266178
  0
LINE
  8
_0-3_7_ALL_FEATURES
  6
CONTINUOUS
 62
    7
 10
791.82566273881184
 20
1188.0303169806461
 11
796.18368820181286
 21
1189.9736215090661
  0
LINE
  8
_0-2_02___PRT_ALL_AXES
  6
CONTINUOUS
 62
    7
 10
801.2187455883718
 20
1190.5084763385162
 11
800.758339201338
 21
1190.310926475297
  0
LINE
  8
_0-2_02___PRT_ALL_AXES
  6
CONTINUOUS
 62
    7
 10
800.758339201338
 20
1190.310926475297
 11
800.23331911955393
 21
1190.09980206214
  0
LINE
  8
_0-2_02___PRT_ALL_AXES
  6
CONTINUOUS
 62
    7
 10
800.23331911955393
 20
1190.09980206214
 11
799.64391007586983
 21
1189.8746400110681
  0
LINE
  8
_0-2_02___PRT_ALL_AXES
  6
CONTINUOUS
 62
    7
 10
799.64391007586983
 20
1189.8746400110681
 11
798.98615808962359
 21
1189.6333764801338
  0
LINE
  8
_0-2_02___PRT_ALL_AXES
  6
CONTINUOUS
 62
    7
 10
798.98615808962359
 20
1189.6333764801338
 11
798.24951091623598
 21
1189.3718027955101
  0
LINE
  8
_0-2_02___PRT_ALL_AXES
  6
CONTINUOUS
 62
    7
 10
960.10061855855884
 20
1371.2293814834861
 11
786.79802257948086
 21
1335.0387730228358
  0
LINE
  8
_0-2_02___PRT_ALL_AXES
  6
CONTINUOUS
 62
    7
 10
786.79801952386197
 20
1335.0387876562841
 11
786.75473152991981
 21
1335.0302953049681
  0
LINE
  8
_0-2_02___PRT_ALL_AXES
  6
CONTINUOUS
 62
    7
 10
786.75473152991981
 20
1335.0302953049681
 11
786.45608129282982
 21
1334.999254127782
  0
LINE
  8
_0-2_02___PRT_ALL_AXES
  6
CONTINUOUS
 62
    7
 10
786.45608129282982
 20
1334.999254127782
 11
786.13205922179986
 21
1335.0100280937882
  0
LINE
  8
_0-2_02___PRT_ALL_AXES
  6
CONTINUOUS
 62
    7
 10
786.13205922179986
 20
1335.0100280937882
 11
785.78277895846168
 21
1335.0615506064401
  0
LINE
  8
_0-2_02___PRT_ALL_AXES
  6
CONTINUOUS
 62
    7
 10
785.78277895846168
 20
1335.0615506064401
 11
785.40866128454991
 21
1335.1527758054981
  0
LINE
  8
_0-2_02___PRT_ALL_AXES
  6
CONTINUOUS
 62
    7
 10
785.40866128454991
 20
1335.1527758054981
 11
785.00978195581683
 21
1335.282793864485
  0
LINE
  8
_0-2_02___PRT_ALL_AXES
  6
CONTINUOUS
 62
    7
 10
785.00978195581683
 20
1335.282793864485
 11
784.58649436424275
 21
1335.4507033427381
  0
LINE
  8
_0-2_02___PRT_ALL_AXES
  6
CONTINUOUS
 62
    7
 10
784.58649436424275
 20
1335.4507033427381
 11
784.13920372618668
 21
1335.655625940004
  0
LINE
  8
_0-2_02___PRT_ALL_AXES
  6
CONTINUOUS
 62
    7
 10
784.13920372618668
 20
1335.655625940004
 11
783.667911205986
 21
1335.8969452485762
  0
LINE
  8
_0-2_02___PRT_ALL_AXES
  6
CONTINUOUS
 62
    7
 10
783.667911205986
 20
1335.8969452485762
 11
783.17302574770065
 21
1336.1739316123062
  0
LINE
  8
_0-2_02___PRT_ALL_AXES
  6
CONTINUOUS
 62
    7
 10
783.17302574770065
 20
1336.1739316123062
 11
782.65452788375978
 21
1336.486163905035
  0
LINE
  8
_0-2_02___PRT_ALL_AXES
  6
CONTINUOUS
 62
    7
 10
782.65452788375978
 20
1336.486163905035
 11
782.11265010340685
 21
1336.8331638361301
  0
LINE
  8
_0-2_02___PRT_ALL_AXES
  6
CONTINUOUS
 62
    7
 10
782.11265010340685
 20
1336.8331638361301
 11
781.54773167038184
 21
1337.2144429506329
  0
LINE
  8
_0-2_02___PRT_ALL_AXES
  6
CONTINUOUS
 62
    7
 10
781.54773167038184
 20
1337.2144429506329
 11
780.95960846588378
 21
1337.6299252024719
  0
LINE
  8
_0-2_02___PRT_ALL_AXES
  6
CONTINUOUS
 62
    7
 10
780.95960846588378
 20
1337.6299252024719
 11
780.34870902499779
 21
1338.0791975434481
  0
LINE
  8
_0-2_02___PRT_ALL_AXES
  6
CONTINUOUS
 62
    7
 10
807.46520929379267
 20
1086.9421947039041
 11
807.93759996038898
 21
1087.2438884810081
  0
LINE
  8
_0-2_02___PRT_ALL_AXES
  6
CONTINUOUS
 62
    7
 10
807.93759996038898
 20
1087.2438884810081
 11
808.36137869525282
 21
1087.7044367440599
  0
LINE
  8
_0-2_02___PRT_ALL_AXES
  6
CONTINUOUS
 62
    7
 10
808.36137869525282
 20
1087.7044367440599
 11
808.7292981240048
 21
1088.315951707209
  0
LINE
  8
_0-2_02___PRT_ALL_AXES
  6
CONTINUOUS
 62
    7
 10
808.7292981240048
 20
1088.315951707209
 11
809.0350666305776
 21
1089.0679648452942
  0
LINE
  8
_0-2_02___PRT_ALL_AXES
  6
CONTINUOUS
 62
    7
 10
809.0350666305776
 20
1089.0679648452942
 11
809.27345574663559
 21
1089.9476060301281
  0
LINE
  8
_0-2_02___PRT_ALL_AXES
  6
CONTINUOUS
 62
    7
 10
635.56382409979187
 20
1108.5657047699801
 11
634.64524051328999
 21
1108.2349266012102
  0
LINE
  8
_0-2_02___PRT_ALL_AXES
  6
CONTINUOUS
 62
    7
 10
634.64524051328999
 20
1108.2349266012102
 11
633.80841126594578
 21
1107.9041282356302
  0
LINE
  8
_0-2_02___PRT_ALL_AXES
  6
CONTINUOUS
 62
    7
 10
633.80841126594578
 20
1107.9041282356302
 11
633.03960875326084
 21
1107.566611184985
  0
LINE
  8
_0-2_02___PRT_ALL_AXES
  6
CONTINUOUS
 62
    7
 10
633.03960875326084
 20
1107.566611184985
 11
632.3324235814016
 21
1107.217558009077
  0
LINE
  8
_0-2_02___PRT_ALL_AXES
  6
CONTINUOUS
 62
    7
 10
632.3324235814016
 20
1107.217558009077
 11
631.68591574487982
 21
1106.8545610279361
  0
LINE
  8
_0-2_02___PRT_ALL_AXES
  6
CONTINUOUS
 62
    7
 10
802.98544774330185
 20
1170.200691737758
 11
803.7220667463107
 21
1170.4622552649221
  0
LINE
  8
_0-2_02___PRT_ALL_AXES
  6
CONTINUOUS
 62
    7
 10
803.7220667463107
 20
1170.4622552649221
 11
804.37997597202002
 21
1170.7035772069662
  0
LINE
  8
_0-2_02___PRT_ALL_AXES
  6
CONTINUOUS
 62
    7
 10
804.37997597202002
 20
1170.7035772069662
 11
804.96940017721681
 21
1170.9287474426801
  0
LINE
  8
_0-2_02___PRT_ALL_AXES
  6
CONTINUOUS
 62
    7
 10
804.96940017721681
 20
1170.9287474426801
 11
805.49435891952589
 21
1171.1398497806981
  0
LINE
  8
_0-2_02___PRT_ALL_AXES
  6
CONTINUOUS
 62
    7
 10
805.49435891952589
 20
1171.1398497806981
 11
805.95468233390284
 21
1171.33736524495
  0
LINE
  8
_0-5_EL-M10011N_______8
  6
CONTINUOUS
 62
    7
 10
1083.894609045522
 20
1301.4027694006422
 11
1084.607535303689
 21
1301.6257936264242
  0
LINE
  8
_0-5_EL-M10011N_______8
  6
CONTINUOUS
 62
    7
 10
1084.607535303689
 20
1301.6257936264242
 11
1085.2271009827668
 21
1301.8939200812802
  0
LINE
  8
_0-5_EL-M10011N_______8
  6
CONTINUOUS
 62
    7
 10
1085.2271009827668
 20
1301.8939200812802
 11
1085.7310196515859
 21
1302.1975999786182
  0
LINE
  8
_0-5_EL-M10011N_______8
  6
CONTINUOUS
 62
    7
 10
1085.7310196515859
 20
1302.1975999786182
 11
1085.9483250742246
 21
1302.389842215417
  0
LINE
  8
_0-6__V_K___I
  6
CONTINUOUS
 62
    7
 10
1556.7281644760878
 20
1427.9950859157821
 11
1557.8568844375905
 21
1428.345057085281
  0
LINE
  8
_0-6__V_K___I
  6
CONTINUOUS
 62
    7
 10
1557.8568844375905
 20
1428.345057085281
 11
1558.8456985412395
 21
1428.7620280725209
  0
LINE
  8
_0-6__V_K___I
  6
CONTINUOUS
 62
    7
 10
1558.8456985412395
 20
1428.7620280725209
 11
1559.665341120899
 21
1429.2332688910242
  0
LINE
  8
_0-6__V_K___I
  6
CONTINUOUS
 62
    7
 10
1559.665341120899
 20
1429.2332688910242
 11
1560.0262446678234
 21
1429.5279116017118
  0
LINE
  8
_0-6__V_K___I
  6
CONTINUOUS
 62
    7
 10
1558.0014785057811
 20
1426.2603937364561
 11
1556.8727311572356
 21
1425.910412645716
  0
LINE
  8
_0-5_EL-M10011N_______8
  6
CONTINUOUS
 62
    7
 10
1557.894212564358
 20
1425.8325872044661
 11
1558.9170886410284
 21
1426.144792132251
  0
LINE
  8
_0-5_EL-M10011N_______8
  6
CONTINUOUS
 62
    7
 10
1558.9170886410284
 20
1426.144792132251
 11
1559.8281113465391
 21
1426.512037080513
  0
LINE
  8
_0-5_EL-M10011N_______8
  6
CONTINUOUS
 62
    7
 10
1559.8281113465391
 20
1426.512037080513
 11
1560.6058679855878
 21
1426.9251726923922
  0
LINE
  8
_0-5_EL-M10011N_______8
  6
CONTINUOUS
 62
    7
 10
1560.6058679855878
 20
1426.9251726923922
 11
1561.2321266436584
 21
1427.3740821430601
  0
LINE
  8
_0-5_EL-M10011N_______8
  6
CONTINUOUS
 62
    7
 10
1561.2321266436584
 20
1427.3740821430601
 11
1561.6921690263416
 21
1427.8478935342719
  0
LINE
  8
_0-5_EL-M10011N_______8
  6
CONTINUOUS
 62
    7
 10
1561.6921690263416
 20
1427.8478935342719
 11
1561.8312986447036
 21
1428.0875557564959
  0
LINE
  8
_0-5_EL-M10011N_______8
  6
CONTINUOUS
 62
    7
 10
1152.7821119486748
 20
1459.648000465299
 11
1417.5847616979167
 21
1529.3550594298708
  0
LINE
  8
_0-5_EL-M10011N_______8
  6
CONTINUOUS
 62
    7
 10
948.38016173789993
 20
1401.333380768127
 11
947.59739151985195
 21
1401.162675540832
  0
LINE
  8
_0-5_EL-M10011N_______8
  6
CONTINUOUS
 62
    7
 10
947.59739151985195
 20
1401.162675540832
 11
946.77032140996062
 21
1401.0499873537119
  0
LINE
  8
_0-5_EL-M10011N_______8
  6
CONTINUOUS
 62
    7
 10
946.77032140996062
 20
1401.0499873537119
 11
945.92851231888062
 21
1400.9994157942001
  0
LINE
  8
_0-5_EL-M10011N_______8
  6
CONTINUOUS
 62
    7
 10
945.92851231888062
 20
1400.9994157942001
 11
945.10478323837788
 21
1401.012356018764
  0
LINE
  8
_0-5_EL-M10011N_______8
  6
CONTINUOUS
 62
    7
 10
945.10478323837788
 20
1401.012356018764
 11
944.31615093527898
 21
1401.0887560049018
  0
LINE
  8
_0-5_EL-M10011N_______8
  6
CONTINUOUS
 62
    7
 10
944.31615093527898
 20
1401.0887560049018
 11
943.59496153082364
 21
1401.2264608935761
  0
LINE
  8
_0-5_EL-M10011N_______8
  6
CONTINUOUS
 62
    7
 10
943.59496153082364
 20
1401.2264608935761
 11
942.96814265720877
 21
1401.4204021823498
  0
LINE
  8
_0-5_EL-M10011N_______8
  6
CONTINUOUS
 62
    7
 10
942.96814265720877
 20
1401.4204021823498
 11
942.45719036567971
 21
1401.663513962571
  0
LINE
  8
_0-5_EL-M10011N_______8
  6
CONTINUOUS
 62
    7
 10
942.45719036567971
 20
1401.663513962571
 11
942.07863319899479
 21
1401.9473485620342
  0
LINE
  8
_0-5_EL-M10011N_______8
  6
CONTINUOUS
 62
    7
 10
942.07863319899479
 20
1401.9473485620342
 11
941.84451538706981
 21
1402.2623447605902
  0
LINE
  8
_0-5_EL-M10011N_______8
  6
CONTINUOUS
 62
    7
 10
941.84451538706981
 20
1402.2623447605902
 11
941.76413584297779
 21
1402.5564545063799
  0
LINE
  8
_0-5_EL-M10011N_______8
  6
CONTINUOUS
 62
    7
 10
944.27015868715671
 20
1404.412118646454
 11
945.05292890520559
 21
1404.582823873749
  0
LINE
  8
_0-5_EL-M10011N_______8
  6
CONTINUOUS
 62
    7
 10
945.05292890520559
 20
1404.582823873749
 11
945.87999901509465
 21
1404.69551206087
  0
LINE
  8
_0-5_EL-M10011N_______8
  6
CONTINUOUS
 62
    7
 10
945.87999901509465
 20
1404.69551206087
 11
946.72180810617601
 21
1404.7460836203818
  0
LINE
  8
_0-5_EL-M10011N_______8
  6
CONTINUOUS
 62
    7
 10
946.72180810617601
 20
1404.7460836203818
 11
947.54553718667876
 21
1404.7331433958179
  0
LINE
  8
_0-5_EL-M10011N_______8
  6
CONTINUOUS
 62
    7
 10
947.54553718667876
 20
1404.7331433958179
 11
948.33416948977674
 21
1404.6567434096801
  0
LINE
  8
_0-5_EL-M10011N_______8
  6
CONTINUOUS
 62
    7
 10
948.33416948977674
 20
1404.6567434096801
 11
949.055358894233
 21
1404.519038521767
  0
LINE
  8
_0-5_EL-M10011N_______8
  6
CONTINUOUS
 62
    7
 10
949.055358894233
 20
1404.519038521767
 11
949.68217776784786
 21
1404.3250972322321
  0
LINE
  8
_0-5_EL-M10011N_______8
  6
CONTINUOUS
 62
    7
 10
949.68217776784786
 20
1404.3250972322321
 11
950.19313005861477
 21
1404.08198545201
  0
LINE
  8
_0-5_EL-M10011N_______8
  6
CONTINUOUS
 62
    7
 10
950.19313005861477
 20
1404.08198545201
 11
950.57168722606184
 21
1403.7981508525481
  0
LINE
  8
_0-5_EL-M10011N_______8
  6
CONTINUOUS
 62
    7
 10
950.57168722606184
 20
1403.7981508525481
 11
950.80580503798683
 21
1403.4831546539922
  0
LINE
  8
_0-5_EL-M10011N_______8
  6
CONTINUOUS
 62
    7
 10
950.80580503798683
 20
1403.4831546539922
 11
950.88618458131668
 21
1403.189044908202
  0
LINE
  8
_0-6__V_K___I
  6
CONTINUOUS
 62
    7
 10
1283.0686629595079
 20
1359.423753460042
 11
1283.7678445093247
 21
1359.00476930995
  0
LINE
  8
_0-6__V_K___I
  6
CONTINUOUS
 62
    7
 10
1283.7678445093247
 20
1359.00476930995
 11
1284.6515167587409
 21
1358.6534190522761
  0
LINE
  8
_0-6__V_K___I
  6
CONTINUOUS
 62
    7
 10
1284.6515167587409
 20
1358.6534190522761
 11
1285.6925702638787
 21
1358.380046174841
  0
LINE
  8
_0-6__V_K___I
  6
CONTINUOUS
 62
    7
 10
1285.6925702638787
 20
1358.380046174841
 11
1286.8594096396187
 21
1358.192694684928
  0
LINE
  8
_0-6__V_K___I
  6
CONTINUOUS
 62
    7
 10
1286.8594096396187
 20
1358.192694684928
 11
1288.11697001121
 21
1358.0968794782862
  0
LINE
  8
_0-6__V_K___I
  6
CONTINUOUS
 62
    7
 10
1288.11697001121
 20
1358.0968794782862
 11
1289.4275545772339
 21
1358.0954736751542
  0
LINE
  8
_0-6__V_K___I
  6
CONTINUOUS
 62
    7
 10
1289.4275545772339
 20
1358.0954736751542
 11
1290.7519471052278
 21
1358.1886237578401
  0
LINE
  8
_0-6__V_K___I
  6
CONTINUOUS
 62
    7
 10
1290.7519471052278
 20
1358.1886237578401
 11
1292.050320802608
 21
1358.373728989101
  0
LINE
  8
_0-6__V_K___I
  6
CONTINUOUS
 62
    7
 10
1292.050320802608
 20
1358.373728989101
 11
1293.2834770330128
 21
1358.6454990475422
  0
LINE
  8
_0-5_EL-M10011N_______8
  6
CONTINUOUS
 62
    7
 10
1282.8767487416098
 20
1356.903782651631
 11
1283.4982098781607
 21
1356.5233842148182
  0
LINE
  8
_0-5_EL-M10011N_______8
  6
CONTINUOUS
 62
    7
 10
1283.4982098781607
 20
1356.5233842148182
 11
1284.2707913088648
 21
1356.1972681258781
  0
LINE
  8
_0-5_EL-M10011N_______8
  6
CONTINUOUS
 62
    7
 10
1284.2707913088648
 20
1356.1972681258781
 11
1285.1750626844696
 21
1355.933025796096
  0
LINE
  8
_0-5_EL-M10011N_______8
  6
CONTINUOUS
 62
    7
 10
1285.1750626844696
 20
1355.933025796096
 11
1286.1887645455558
 21
1355.736790025499
  0
LINE
  8
_0-5_EL-M10011N_______8
  6
CONTINUOUS
 62
    7
 10
1286.1887645455558
 20
1355.736790025499
 11
1287.2872827643127
 21
1355.6131269825041
  0
LINE
  8
_0-5_EL-M10011N_______8
  6
CONTINUOUS
 62
    7
 10
1287.2872827643127
 20
1355.6131269825041
 11
1288.444154530067
 21
1355.5649545716101
  0
LINE
  8
_0-5_EL-M10011N_______8
  6
CONTINUOUS
 62
    7
 10
1288.444154530067
 20
1355.5649545716101
 11
1289.6316005056919
 21
1355.5934875335929
  0
LINE
  8
_0-5_EL-M10011N_______8
  6
CONTINUOUS
 62
    7
 10
1289.6316005056919
 20
1355.5934875335929
 11
1290.8210779298806
 21
1355.6982096576521
  0
LINE
  8
_0-5_EL-M10011N_______8
  6
CONTINUOUS
 62
    7
 10
1290.8210779298806
 20
1355.6982096576521
 11
1291.9838495149247
 21
1355.876873525367
  0
LINE
  8
_0-5_EL-M10011N_______8
  6
CONTINUOUS
 62
    7
 10
1291.9838495149247
 20
1355.876873525367
 11
1293.0915628151156
 21
1356.1255282398929
  0
LINE
  8
_0-5_EL-M10011N_______8
  6
CONTINUOUS
 62
    7
 10
1282.9924020863759
 20
1355.236044035883
 11
1149.4173029589779
 21
1455.295025080336
  0
LINE
  8
_0-5_EL-M10011N_______8
  6
CONTINUOUS
 62
    7
 10
1149.3016496134496
 20
1456.962763696084
 11
1282.8767487416098
 21
1356.903782651631
  0
LINE
  8
_0-6__V_K___I
  6
CONTINUOUS
 62
    7
 10
1150.3231310205706
 20
1456.8849382548328
 11
1283.2132296406548
 21
1357.3390801907381
  0
LINE
  8
_0-6__V_K___I
  6
CONTINUOUS
 62
    7
 10
1283.0686629595079
 20
1359.423753460042
 11
1150.45723218798
 21
1458.7608658738118
  0
LINE
  8
_0-5_EL-M10011N_______8
  6
CONTINUOUS
 62
    7
 10
1149.4173029589779
 20
1455.295025080336
 11
1148.9640252754907
 21
1455.7196963892338
  0
LINE
  8
_0-5_EL-M10011N_______8
  6
CONTINUOUS
 62
    7
 10
1148.9640252754907
 20
1455.7196963892338
 11
1148.6905171819199
 21
1456.1771893157502
  0
LINE
  8
_0-5_EL-M10011N_______8
  6
CONTINUOUS
 62
    7
 10
1148.6905171819199
 20
1456.1771893157502
 11
1148.6054281745519
 21
1456.5552283536749
  0
LINE
  8
_0-6__V_K___I
  6
CONTINUOUS
 62
    7
 10
1150.3231310205706
 20
1456.8849382548328
 11
1149.8309216514226
 21
1457.3584060823441
  0
LINE
  8
_0-6__V_K___I
  6
CONTINUOUS
 62
    7
 10
1149.8309216514226
 20
1457.3584060823441
 11
1149.5608752004068
 21
1457.8712881434458
  0
LINE
  8
_0-6__V_K___I
  6
CONTINUOUS
 62
    7
 10
1149.5608752004068
 20
1457.8712881434458
 11
1149.5113630632118
 21
1458.14514892948
  0
LINE
  8
_0-5_EL-M10011N_______8
  6
CONTINUOUS
 62
    7
 10
1148.8450258690918
 20
1457.3930319132701
 11
1148.8483719307246
 21
1457.387435005744
  0
LINE
  8
_0-5_EL-M10011N_______8
  6
CONTINUOUS
 62
    7
 10
1148.8483719307246
 20
1457.387435005744
 11
1149.3016496134496
 21
1456.962763696084
  0
LINE
  8
_0-2_02___PRT_ALL_AXES
  6
CONTINUOUS
 62
    7
 10
807.46520929303188
 20
1086.942194703141
 11
807.86022313978174
 21
1087.126088689683
  0
LINE
  8
_0-2_02___PRT_ALL_AXES
  6
CONTINUOUS
 62
    7
 10
807.86022313978174
 20
1087.126088689683
 11
808.19130949868986
 21
1087.29671411653
  0
LINE
  8
_0-2_02___PRT_ALL_AXES
  6
CONTINUOUS
 62
    7
 10
808.19130949868986
 20
1087.29671411653
 11
808.46299544452086
 21
1087.4555263693901
  0
LINE
  8
_0-2_02___PRT_ALL_AXES
  6
CONTINUOUS
 62
    7
 10
808.46299544452086
 20
1087.4555263693901
 11
808.68177166432179
 21
1087.6051190288022
  0
LINE
  8
_0-2_02___PRT_ALL_AXES
  6
CONTINUOUS
 62
    7
 10
808.68177166432179
 20
1087.6051190288022
 11
808.85400016619269
 21
1087.7488257243699
  0
LINE
  8
_0-3_7_ALL_FEATURES
  6
CONTINUOUS
 62
    7
 10
793.33618969870076
 20
1103.6351464388381
 11
797.69421516170269
 21
1105.578450967258
  0
LINE
  8
_0-2_02___PRT_ALL_AXES
  6
CONTINUOUS
 62
    7
 10
802.72927254826072
 20
1106.1133057967081
 11
802.26886616122783
 21
1105.9157559334899
  0
LINE
  8
_0-2_02___PRT_ALL_AXES
  6
CONTINUOUS
 62
    7
 10
802.26886616122783
 20
1105.9157559334899
 11
801.74384607944285
 21
1105.704631520332
  0
LINE
  8
_0-2_02___PRT_ALL_AXES
  6
CONTINUOUS
 62
    7
 10
801.74384607944285
 20
1105.704631520332
 11
801.15443703499795
 21
1105.47946946926
  0
LINE
  8
_0-2_02___PRT_ALL_AXES
  6
CONTINUOUS
 62
    7
 10
801.15443703499795
 20
1105.47946946926
 11
800.49668504951387
 21
1105.2382059383258
  0
LINE
  8
_0-2_02___PRT_ALL_AXES
  6
CONTINUOUS
 62
    7
 10
800.49668504951387
 20
1105.2382059383258
 11
799.76003787536365
 21
1104.9766322537021
  0
LINE
  8
_0-5_EL-M10011N_______8
  6
CONTINUOUS
 62
    7
 10
1656.2838080161682
 20
1424.669560604691
 11
1656.5236510465138
 21
1424.7508276532321
  0
LINE
  8
_0-5_EL-M10011N_______8
  6
CONTINUOUS
 62
    7
 10
1656.5236510465138
 20
1424.7508276532321
 11
1656.7787308208335
 21
1424.881835553268
  0
LINE
  8
_0-5_EL-M10011N_______8
  6
CONTINUOUS
 62
    7
 10
1656.7787308208335
 20
1424.881835553268
 11
1657.0428087742612
 21
1425.0798130402181
  0
LINE
  8
_0-5_EL-M10011N_______8
  6
CONTINUOUS
 62
    7
 10
1657.0428087742612
 20
1425.0798130402181
 11
1657.2949738665775
 21
1425.3593131383159
  0
LINE
  8
_0-5_EL-M10011N_______8
  6
CONTINUOUS
 62
    7
 10
1657.2949738665775
 20
1425.3593131383159
 11
1657.5008714535115
 21
1425.721658942452
  0
LINE
  8
_0-5_EL-M10011N_______8
  6
CONTINUOUS
 62
    7
 10
1657.5008714535115
 20
1425.721658942452
 11
1657.6208466588232
 21
1426.129624995453
  0
LINE
  8
_0-5_EL-M10011N_______8
  6
CONTINUOUS
 62
    7
 10
1657.6208466588232
 20
1426.129624995453
 11
1657.6426707022974
 21
1426.5646287835598
  0
LINE
  8
_0-5_EL-M10011N_______8
  6
CONTINUOUS
 62
    7
 10
898.69270538402998
 20
1417.9329628409309
 11
1465.7777645393039
 21
1567.2133106550518
  0
LINE
  8
_0-5_EL-M10011N_______8
  6
CONTINUOUS
 62
    7
 10
1464.8401105845419
 20
1569.4967968467699
 11
897.75505142926795
 21
1420.21644903265
  0
LINE
  8
_0-5_EL-M10011N_______8
  6
CONTINUOUS
 62
    7
 10
1417.5847616979167
 20
1529.3550594298708
 11
1418.6924749981067
 21
1529.603714143635
  0
LINE
  8
_0-5_EL-M10011N_______8
  6
CONTINUOUS
 62
    7
 10
1418.6924749981067
 20
1529.603714143635
 11
1419.8552465831508
 21
1529.782378012113
  0
LINE
  8
_0-5_EL-M10011N_______8
  6
CONTINUOUS
 62
    7
 10
1419.8552465831508
 20
1529.782378012113
 11
1421.044724008103
 21
1529.8871001361722
  0
LINE
  8
_0-5_EL-M10011N_______8
  6
CONTINUOUS
 62
    7
 10
1421.044724008103
 20
1529.8871001361722
 11
1422.2321699829658
 21
1529.915633098155
  0
LINE
  8
_0-5_EL-M10011N_______8
  6
CONTINUOUS
 62
    7
 10
1422.2321699829658
 20
1529.915633098155
 11
1423.3890417494808
 21
1529.867460687261
  0
LINE
  8
_0-5_EL-M10011N_______8
  6
CONTINUOUS
 62
    7
 10
1423.3890417494808
 20
1529.867460687261
 11
1424.4875599682387
 21
1529.7437976442661
  0
LINE
  8
_0-5_EL-M10011N_______8
  6
CONTINUOUS
 62
    7
 10
1424.4875599682387
 20
1529.7437976442661
 11
1425.5012618293258
 21
1529.54756187367
  0
LINE
  8
_0-5_EL-M10011N_______8
  6
CONTINUOUS
 62
    7
 10
1425.5012618293258
 20
1529.54756187367
 11
1426.405533204168
 21
1529.283319543887
  0
LINE
  8
_0-5_EL-M10011N_______8
  6
CONTINUOUS
 62
    7
 10
1426.405533204168
 20
1529.283319543887
 11
1427.1781146348708
 21
1528.9572034549469
  0
LINE
  8
_0-5_EL-M10011N_______8
  6
CONTINUOUS
 62
    7
 10
1427.1781146348708
 20
1528.9572034549469
 11
1427.799575772186
 21
1528.576805017371
  0
LINE
  8
_0-2_02___PRT_ALL_AXES
  6
CONTINUOUS
 62
    7
 10
894.51616231625394
 20
1451.7244354691802
 11
767.95015846502383
 21
1425.2937829793082
  0
LINE
  8
_0-5_EL-M10011N_______8
  6
CONTINUOUS
 62
    7
 10
1282.8767487416098
 20
1356.903782651631
 11
1282.9924020863759
 21
1355.236044035883
  0
LINE
  8
_0-6__V_K___I
  6
CONTINUOUS
 62
    7
 10
1283.0686629595079
 20
1359.423753460042
 11
1283.2132296406548
 21
1357.3390801907381
  0
LINE
  8
_0-5_EL-M10011N_______8
  6
CONTINUOUS
 62
    7
 10
1293.2072161606438
 20
1354.4577896241458
 11
1293.0915628151156
 21
1356.1255282398929
  0
LINE
  8
_0-6__V_K___I
  6
CONTINUOUS
 62
    7
 10
1293.428043714162
 20
1356.5608257782378
 11
1293.2834770330128
 21
1358.6454990475422
  0
LINE
  8
_0-2_02___PRT_ALL_AXES
  6
CONTINUOUS
 62
    7
 10
804.49597470242998
 20
1085.805521195949
 11
805.23259370543883
 21
1086.067084723114
  0
LINE
  8
_0-2_02___PRT_ALL_AXES
  6
CONTINUOUS
 62
    7
 10
805.23259370543883
 20
1086.067084723114
 11
805.89050293190985
 21
1086.3084066651581
  0
LINE
  8
_0-2_02___PRT_ALL_AXES
  6
CONTINUOUS
 62
    7
 10
805.89050293190985
 20
1086.3084066651581
 11
806.47992713710664
 21
1086.533576900872
  0
LINE
  8
_0-2_02___PRT_ALL_AXES
  6
CONTINUOUS
 62
    7
 10
806.47992713710664
 20
1086.533576900872
 11
807.00488587865266
 21
1086.7446792388901
  0
LINE
  8
_0-2_02___PRT_ALL_AXES
  6
CONTINUOUS
 62
    7
 10
807.00488587865266
 20
1086.7446792388901
 11
807.46520929303188
 21
1086.942194703141
  0
LINE
  8
_0-5_EL-M10011N_______8
  6
CONTINUOUS
 62
    7
 10
887.86669042243784
 20
1562.8081006829129
 11
1454.951749578473
 21
1712.0884484970329
  0
LINE
  8
_0-5_EL-M10011N_______8
  6
CONTINUOUS
 62
    7
 10
1455.3081944835658
 20
1713.241250419263
 11
888.22313532829185
 21
1563.960902605143
  0
LINE
  8
_0-4_EL-M10011N_______9
  6
CONTINUOUS
 62
    7
 10
1454.7712375346209
 20
1713.3919551468089
 11
888.50095576350577
 21
1564.3260905907941
  0
LINE
  8
_0-4_EL-M10011N_______9
  6
CONTINUOUS
 62
    7
 10
887.15166673717204
 20
1583.7830411088698
 11
1453.4219485082876
 21
1732.848905664885
  0
LINE
  8
_0-4_EL-M10011N_______9
  6
CONTINUOUS
 62
    7
 10
1453.7189859297059
 20
1733.8095739330302
 11
887.44870415858986
 21
1584.7437093770141
  0
LINE
  8
_0-5_EL-M10011N_______8
  6
CONTINUOUS
 62
    7
 10
1454.951749578473
 20
1712.0884484970329
 11
1455.334968898901
 21
1712.1684644497768
  0
LINE
  8
_0-5_EL-M10011N_______8
  6
CONTINUOUS
 62
    7
 10
1455.334968898901
 20
1712.1684644497768
 11
1455.740190544896
 21
1712.213591914006
  0
LINE
  8
_0-5_EL-M10011N_______8
  6
CONTINUOUS
 62
    7
 10
1455.740190544896
 20
1712.213591914006
 11
1456.1470950122639
 21
1712.2215680103218
  0
LINE
  8
_0-5_EL-M10011N_______8
  6
CONTINUOUS
 62
    7
 10
1456.1470950122639
 20
1712.2215680103218
 11
1456.5352784106467
 21
1712.1919927832141
  0
LINE
  8
_0-5_EL-M10011N_______8
  6
CONTINUOUS
 62
    7
 10
1456.5352784106467
 20
1712.1919927832141
 11
1456.8852756039719
 21
1712.1263492591802
  0
LINE
  8
_0-5_EL-M10011N_______8
  6
CONTINUOUS
 62
    7
 10
1456.8852756039719
 20
1712.1263492591802
 11
1457.1795362722428
 21
1712.027929077813
  0
LINE
  8
_0-5_EL-M10011N_______8
  6
CONTINUOUS
 62
    7
 10
1457.1795362722428
 20
1712.027929077813
 11
1457.403304956023
 21
1711.9016674380341
  0
LINE
  8
_0-4_EL-M10011N_______9
  6
CONTINUOUS
 62
    7
 10
1453.4219485082876
 20
1732.848905664885
 11
1453.7412979419778
 21
1732.9155856255061
  0
LINE
  8
_0-4_EL-M10011N_______9
  6
CONTINUOUS
 62
    7
 10
1453.7412979419778
 20
1732.9155856255061
 11
1454.0789826478608
 21
1732.9531918449338
  0
LINE
  8
_0-4_EL-M10011N_______9
  6
CONTINUOUS
 62
    7
 10
1454.0789826478608
 20
1732.9531918449338
 11
1454.418069703494
 21
1732.959838591863
  0
LINE
  8
_0-4_EL-M10011N_______9
  6
CONTINUOUS
 62
    7
 10
1454.418069703494
 20
1732.959838591863
 11
1454.7415558690668
 21
1732.935192569782
  0
LINE
  8
_0-4_EL-M10011N_______9
  6
CONTINUOUS
 62
    7
 10
1454.7415558690668
 20
1732.935192569782
 11
1455.0332201968367
 21
1732.8804896329598
  0
LINE
  8
_0-4_EL-M10011N_______9
  6
CONTINUOUS
 62
    7
 10
1455.0332201968367
 20
1732.8804896329598
 11
1455.2784374203979
 21
1732.798472815281
  0
LINE
  8
_0-4_EL-M10011N_______9
  6
CONTINUOUS
 62
    7
 10
1455.2784374203979
 20
1732.798472815281
 11
1455.464911323294
 21
1732.6932547823849
  0
LINE
  8
_0-4_EL-M10011N_______9
  6
CONTINUOUS
 62
    7
 10
1455.0922166234218
 20
1713.458892897364
 11
1454.7712375346209
 21
1713.3919551468089
  0
LINE
  8
_0-5_EL-M10011N_______8
  6
CONTINUOUS
 62
    7
 10
1455.3081944835658
 20
1713.241250419263
 11
1455.520453536059
 21
1713.2838746418638
  0
LINE
  8
_0-5_EL-M10011N_______8
  6
CONTINUOUS
 62
    7
 10
1455.520453536059
 20
1713.2838746418638
 11
1455.731226552155
 21
1713.3010064706941
  0
LINE
  8
_0-5_EL-M10011N_______8
  6
CONTINUOUS
 62
    7
 10
1455.731226552155
 20
1713.3010064706941
 11
1455.940155551873
 21
1713.2939144444922
  0
LINE
  8
_0-5_EL-M10011N_______8
  6
CONTINUOUS
 62
    7
 10
1455.940155551873
 20
1713.2939144444922
 11
1456.1512987353767
 21
1713.2621048825081
  0
LINE
  8
_0-5_EL-M10011N_______8
  6
CONTINUOUS
 62
    7
 10
1456.1512987353767
 20
1713.2621048825081
 11
1456.3756574098488
 21
1713.1996106290362
  0
LINE
  8
_0-5_EL-M10011N_______8
  6
CONTINUOUS
 62
    7
 10
1456.3756574098488
 20
1713.1996106290362
 11
1456.6165964849938
 21
1713.095698013391
  0
LINE
  8
_0-5_EL-M10011N_______8
  6
CONTINUOUS
 62
    7
 10
1456.6165964849938
 20
1713.095698013391
 11
1456.8701720103536
 21
1712.9363841618401
  0
LINE
  8
_0-5_EL-M10011N_______8
  6
CONTINUOUS
 62
    7
 10
1655.9339056575536
 20
1424.7703714871441
 11
1656.1139183300384
 21
1424.6751684507281
  0
LINE
  8
_0-5_EL-M10011N_______8
  6
CONTINUOUS
 62
    7
 10
1656.1139183300384
 20
1424.6751684507281
 11
1656.2838080161682
 21
1424.669560604691
  0
LINE
  8
_0-5_EL-M10011N_______8
  6
CONTINUOUS
 62
    7
 10
1427.799575772186
 20
1528.576805017371
 11
1561.3746749003458
 21
1428.517823973682
  0
LINE
  8
_0-4_EL-M10011N_______9
  6
CONTINUOUS
 62
    7
 10
1453.4219485082876
 20
1732.848905664885
 11
1454.7712375346209
 21
1713.3919551468089
  0
LINE
  8
_0-5_EL-M10011N_______8
  6
CONTINUOUS
 62
    7
 10
1454.951749578473
 20
1712.0884484970329
 11
1464.8401105845419
 21
1569.4967968467699
  0
LINE
  8
_0-4_EL-M10011N_______9
  6
CONTINUOUS
 62
    7
 10
1456.8142003496268
 20
1713.2363042643101
 11
1455.464911323294
 21
1732.6932547823849
  0
LINE
  8
_0-5_EL-M10011N_______8
  6
CONTINUOUS
 62
    7
 10
1467.2916659620919
 20
1569.3100157877702
 11
1457.403304956023
 21
1711.9016674380341
  0
LINE
  8
_0-4_EL-M10011N_______9
  6
CONTINUOUS
 62
    7
 10
1453.7189859297059
 20
1733.8095739330302
 11
1454.057542969379
 21
1733.8589816350782
  0
LINE
  8
_0-4_EL-M10011N_______9
  6
CONTINUOUS
 62
    7
 10
1454.057542969379
 20
1733.8589816350782
 11
1454.3968471691037
 21
1733.831956158268
  0
LINE
  8
_0-4_EL-M10011N_______9
  6
CONTINUOUS
 62
    7
 10
1454.3968471691037
 20
1733.831956158268
 11
1454.72332985091
 21
1733.729572721938
  0
LINE
  8
_0-4_EL-M10011N_______9
  6
CONTINUOUS
 62
    7
 10
1454.72332985091
 20
1733.729572721938
 11
1455.0206338686949
 21
1733.5555187187638
  0
LINE
  8
_0-4_EL-M10011N_______9
  6
CONTINUOUS
 62
    7
 10
1455.4299513226019
 20
1713.4963495659099
 11
1455.0922166234218
 21
1713.458892897364
  0
LINE
  8
_0-5_EL-M10011N_______8
  6
CONTINUOUS
 62
    7
 10
1467.2916659620919
 20
1569.3100157877702
 11
1467.0678972783116
 21
1569.4362774275501
  0
LINE
  8
_0-5_EL-M10011N_______8
  6
CONTINUOUS
 62
    7
 10
1467.0678972783116
 20
1569.4362774275501
 11
1466.773636610802
 21
1569.5346976081541
  0
LINE
  8
_0-5_EL-M10011N_______8
  6
CONTINUOUS
 62
    7
 10
1466.773636610802
 20
1569.5346976081541
 11
1466.423639416716
 21
1569.6003411329498
  0
LINE
  8
_0-5_EL-M10011N_______8
  6
CONTINUOUS
 62
    7
 10
1466.423639416716
 20
1569.6003411329498
 11
1466.0354560183318
 21
1569.6299163592962
  0
LINE
  8
_0-5_EL-M10011N_______8
  6
CONTINUOUS
 62
    7
 10
1466.0354560183318
 20
1569.6299163592962
 11
1465.628551550963
 21
1569.6219402637421
  0
LINE
  8
_0-5_EL-M10011N_______8
  6
CONTINUOUS
 62
    7
 10
1465.628551550963
 20
1569.6219402637421
 11
1465.2233299049699
 21
1569.5768127995129
  0
LINE
  8
_0-5_EL-M10011N_______8
  6
CONTINUOUS
 62
    7
 10
1465.2233299049699
 20
1569.5768127995129
 11
1464.8401105845419
 21
1569.4967968467699
  0
LINE
  8
_0-5_EL-M10011N_______8
  6
CONTINUOUS
 62
    7
 10
1561.3746749003458
 20
1428.517823973682
 11
1561.8279525830694
 21
1428.093152664022
  0
LINE
  8
_0-5_EL-M10011N_______8
  6
CONTINUOUS
 62
    7
 10
1561.8279525830694
 20
1428.093152664022
 11
1562.1014606766412
 21
1427.6356597382669
  0
LINE
  8
_0-5_EL-M10011N_______8
  6
CONTINUOUS
 62
    7
 10
1562.1014606766412
 20
1427.6356597382669
 11
1562.1865496840092
 21
1427.2576207003422
  0
LINE
  8
_0-5_EL-M10011N_______8
  6
CONTINUOUS
 62
    7
 10
1465.7777645393039
 20
1567.2133106550518
 11
1655.9339056575536
 21
1424.7703714871441
  0
LINE
  8
_0-5_EL-M10011N_______8
  6
CONTINUOUS
 62
    7
 10
1657.4478070795794
 20
1426.867076619862
 11
1467.2916659620919
 21
1569.3100157877702
  0
LINE
  8
_0-5_EL-M10011N_______8
  6
CONTINUOUS
 62
    7
 10
1457.403304956023
 20
1711.9016674380341
 11
1457.336713325682
 21
1712.262019106457
  0
LINE
  8
_0-5_EL-M10011N_______8
  6
CONTINUOUS
 62
    7
 10
1457.336713325682
 20
1712.262019106457
 11
1457.1917481970199
 21
1712.5827910653702
  0
LINE
  8
_0-5_EL-M10011N_______8
  6
CONTINUOUS
 62
    7
 10
1457.1917481970199
 20
1712.5827910653702
 11
1456.9756787269498
 21
1712.8478984686062
  0
LINE
  8
_0-5_EL-M10011N_______8
  6
CONTINUOUS
 62
    7
 10
1456.9756787269498
 20
1712.8478984686062
 11
1456.8701720103536
 21
1712.9363841618401
  0
LINE
  8
_0-4_EL-M10011N_______9
  6
CONTINUOUS
 62
    7
 10
1455.464911323294
 20
1732.6932547823849
 11
1455.4094182976278
 21
1732.993547838897
  0
LINE
  8
_0-4_EL-M10011N_______9
  6
CONTINUOUS
 62
    7
 10
1455.4094182976278
 20
1732.993547838897
 11
1455.2886140241239
 21
1733.260857804657
  0
LINE
  8
_0-4_EL-M10011N_______9
  6
CONTINUOUS
 62
    7
 10
1455.2886140241239
 20
1733.260857804657
 11
1455.1085561322716
 21
1733.481780640941
  0
LINE
  8
_0-4_EL-M10011N_______9
  6
CONTINUOUS
 62
    7
 10
1455.1085561322716
 20
1733.481780640941
 11
1455.0206338686949
 21
1733.5555187187638
  0
LINE
  8
_0-5_EL-M10011N_______8
  6
CONTINUOUS
 62
    7
 10
1464.8401105845419
 20
1569.4967968467699
 11
1464.8864551464108
 21
1569.1102520150848
  0
LINE
  8
_0-5_EL-M10011N_______8
  6
CONTINUOUS
 62
    7
 10
1464.8864551464108
 20
1569.1102520150848
 11
1464.9716943416938
 21
1568.7122140006481
  0
LINE
  8
_0-5_EL-M10011N_______8
  6
CONTINUOUS
 62
    7
 10
1464.9716943416938
 20
1568.7122140006481
 11
1465.0915539203638
 21
1568.32264209196
  0
LINE
  8
_0-5_EL-M10011N_______8
  6
CONTINUOUS
 62
    7
 10
1465.0915539203638
 20
1568.32264209196
 11
1465.2400236234239
 21
1567.9610710505622
  0
LINE
  8
_0-5_EL-M10011N_______8
  6
CONTINUOUS
 62
    7
 10
1465.2400236234239
 20
1567.9610710505622
 11
1465.4096585599968
 21
1567.6456315592682
  0
LINE
  8
_0-5_EL-M10011N_______8
  6
CONTINUOUS
 62
    7
 10
1465.4096585599968
 20
1567.6456315592682
 11
1465.5919525256099
 21
1567.39214107006
  0
LINE
  8
_0-5_EL-M10011N_______8
  6
CONTINUOUS
 62
    7
 10
1465.5919525256099
 20
1567.39214107006
 11
1465.7777645393039
 21
1567.2133106550518
  0
LINE
  8
_0-6__V_K___I
  6
CONTINUOUS
 62
    7
 10
1556.7281644760878
 20
1427.9950859157821
 11
1556.8727311572356
 21
1425.910412645716
  0
LINE
  8
_0-5_EL-M10011N_______8
  6
CONTINUOUS
 62
    7
 10
1557.894212564358
 20
1425.8325872044661
 11
1558.0098659098849
 21
1424.1648485887181
  0
LINE
  8
_0-5_EL-M10011N_______8
  6
CONTINUOUS
 62
    7
 10
1562.1865496840092
 20
1427.2576207003422
 11
1562.1895263691904
 21
1427.156558162817
  0
LINE
  8
_0-5_EL-M10011N_______8
  6
CONTINUOUS
 62
    7
 10
1562.1895263691904
 20
1427.156558162817
 11
1562.0907163204311
 21
1426.667463036616
  0
LINE
  8
_0-5_EL-M10011N_______8
  6
CONTINUOUS
 62
    7
 10
1562.0907163204311
 20
1426.667463036616
 11
1561.8078223711072
 21
1426.1801549185238
  0
LINE
  8
_0-5_EL-M10011N_______8
  6
CONTINUOUS
 62
    7
 10
1561.8078223711072
 20
1426.1801549185238
 11
1561.3477799884258
 21
1425.7063435273121
  0
LINE
  8
_0-5_EL-M10011N_______8
  6
CONTINUOUS
 62
    7
 10
1561.3477799884258
 20
1425.7063435273121
 11
1560.7215213303534
 21
1425.2574340766441
  0
LINE
  8
_0-5_EL-M10011N_______8
  6
CONTINUOUS
 62
    7
 10
1560.7215213303534
 20
1425.2574340766441
 11
1559.9437646920669
 21
1424.844298464765
  0
LINE
  8
_0-5_EL-M10011N_______8
  6
CONTINUOUS
 62
    7
 10
1559.9437646920669
 20
1424.844298464765
 11
1559.032741986558
 21
1424.477053516503
  0
LINE
  8
_0-5_EL-M10011N_______8
  6
CONTINUOUS
 62
    7
 10
1559.032741986558
 20
1424.477053516503
 11
1558.0098659098849
 21
1424.1648485887181
  0
LINE
  8
_0-6__V_K___I
  6
CONTINUOUS
 62
    7
 10
1561.041197075303
 20
1428.767626905621
 11
1561.0402549621258
 21
1428.7402672178978
  0
LINE
  8
_0-6__V_K___I
  6
CONTINUOUS
 62
    7
 10
1561.0402549621258
 20
1428.7402672178978
 11
1560.8503978447616
 21
1428.1957768458701
  0
LINE
  8
_0-6__V_K___I
  6
CONTINUOUS
 62
    7
 10
1560.8503978447616
 20
1428.1957768458701
 11
1560.4361577039772
 21
1427.6598742877559
  0
LINE
  8
_0-6__V_K___I
  6
CONTINUOUS
 62
    7
 10
1560.4361577039772
 20
1427.6598742877559
 11
1559.8099499825576
 21
1427.1486242881601
  0
LINE
  8
_0-6__V_K___I
  6
CONTINUOUS
 62
    7
 10
1559.8099499825576
 20
1427.1486242881601
 11
1558.9903062157009
 21
1426.677374940592
  0
LINE
  8
_0-6__V_K___I
  6
CONTINUOUS
 62
    7
 10
1558.9903062157009
 20
1426.677374940592
 11
1558.0014785057811
 21
1426.2603937364561
  0
LINE
  8
_0-4_EL-M10011N_______9
  6
CONTINUOUS
 62
    7
 10
1646.6979173558811
 20
1570.7394410409279
 11
1646.7217171662951
 21
1570.8491983009649
  0
LINE
  8
_0-4_EL-M10011N_______9
  6
CONTINUOUS
 62
    7
 10
1456.8142003496268
 20
1713.2363042643101
 11
1456.6266544392229
 21
1713.3419859231522
  0
LINE
  8
_0-4_EL-M10011N_______9
  6
CONTINUOUS
 62
    7
 10
1456.6266544392229
 20
1713.3419859231522
 11
1456.3811744384388
 21
1713.423877019974
  0
LINE
  8
_0-4_EL-M10011N_______9
  6
CONTINUOUS
 62
    7
 10
1456.3811744384388
 20
1713.423877019974
 11
1456.0902321887279
 21
1713.478319169154
  0
LINE
  8
_0-4_EL-M10011N_______9
  6
CONTINUOUS
 62
    7
 10
1456.0902321887279
 20
1713.478319169154
 11
1455.768015872532
 21
1713.5028684431441
  0
LINE
  8
_0-4_EL-M10011N_______9
  6
CONTINUOUS
 62
    7
 10
1455.768015872532
 20
1713.5028684431441
 11
1455.4299513226019
 21
1713.4963495659099
  0
LINE
  8
_0-5_EL-M10011N_______8
  6
CONTINUOUS
 62
    7
 10
1457.403304956023
 20
1711.9016674380341
 11
1647.559446073511
 21
1569.458728270125
  0
LINE
  8
_0-5_EL-M10011N_______8
  6
CONTINUOUS
 62
    7
 10
1647.0263131278416
 20
1570.493444993931
 11
1456.8701720103536
 21
1712.9363841618401
  0
LINE
  8
_0-4_EL-M10011N_______9
  6
CONTINUOUS
 62
    7
 10
1646.5593411621176
 20
1571.1012388840049
 11
1456.8142003496268
 21
1713.2363042643101
  0
LINE
  8
_0-4_EL-M10011N_______9
  6
CONTINUOUS
 62
    7
 10
1455.464911323294
 20
1732.6932547823849
 11
1645.2100521357834
 21
1590.558189402082
  0
LINE
  8
_0-4_EL-M10011N_______9
  6
CONTINUOUS
 62
    7
 10
1644.7657746811856
 20
1591.4204533376978
 11
1455.0206338686949
 21
1733.5555187187638
  0
LINE
  8
_0-5_EL-M10011N_______8
  6
CONTINUOUS
 62
    7
 10
1647.0263131278416
 20
1570.493444993931
 11
1647.1318198444378
 21
1570.4049592999349
  0
LINE
  8
_0-5_EL-M10011N_______8
  6
CONTINUOUS
 62
    7
 10
1647.1318198444378
 20
1570.4049592999349
 11
1647.3478893145075
 21
1570.1398518966989
  0
LINE
  8
_0-5_EL-M10011N_______8
  6
CONTINUOUS
 62
    7
 10
1647.3478893145075
 20
1570.1398518966989
 11
1647.4928544431696
 21
1569.8190799385502
  0
LINE
  8
_0-5_EL-M10011N_______8
  6
CONTINUOUS
 62
    7
 10
1647.4928544431696
 20
1569.8190799385502
 11
1647.559446073511
 21
1569.458728270125
  0
LINE
  8
_0-4_EL-M10011N_______9
  6
CONTINUOUS
 62
    7
 10
1644.7657746811856
 20
1591.4204533376978
 11
1644.8536969447614
 21
1591.346715259876
  0
LINE
  8
_0-4_EL-M10011N_______9
  6
CONTINUOUS
 62
    7
 10
1644.8536969447614
 20
1591.346715259876
 11
1645.0337548366124
 21
1591.1257924243541
  0
LINE
  8
_0-4_EL-M10011N_______9
  6
CONTINUOUS
 62
    7
 10
1645.0337548366124
 20
1591.1257924243541
 11
1645.1545591101176
 21
1590.8584824585942
  0
LINE
  8
_0-4_EL-M10011N_______9
  6
CONTINUOUS
 62
    7
 10
1645.1545591101176
 20
1590.8584824585942
 11
1645.2100521357834
 21
1590.558189402082
  0
LINE
  8
_0-4_EL-M10011N_______9
  6
CONTINUOUS
 62
    7
 10
1644.7657746811856
 20
1591.4204533376978
 11
1645.0028365105909
 21
1591.199896005382
  0
LINE
  8
_0-4_EL-M10011N_______9
  6
CONTINUOUS
 62
    7
 10
1645.0028365105909
 20
1591.199896005382
 11
1645.1891242805095
 21
1590.9320960553341
  0
LINE
  8
_0-4_EL-M10011N_______9
  6
CONTINUOUS
 62
    7
 10
1645.1891242805095
 20
1590.9320960553341
 11
1645.3145975192756
 21
1590.629258150469
  0
LINE
  8
_0-5_EL-M10011N_______8
  6
CONTINUOUS
 62
    7
 10
1647.0263131278416
 20
1570.493444993931
 11
1647.3111838781397
 21
1570.2283193324142
  0
LINE
  8
_0-5_EL-M10011N_______8
  6
CONTINUOUS
 62
    7
 10
1647.3111838781397
 20
1570.2283193324142
 11
1647.5339550620092
 21
1569.9081061648658
  0
LINE
  8
_0-5_EL-M10011N_______8
  6
CONTINUOUS
 62
    7
 10
1647.5339550620092
 20
1569.9081061648658
 11
1647.684337394975
 21
1569.5459287413942
  0
LINE
  8
_0-5_EL-M10011N_______8
  6
CONTINUOUS
 62
    7
 10
1647.684337394975
 20
1569.5459287413942
 11
1647.754309696229
 21
1569.1562804345858
  0
LINE
  8
_0-5_EL-M10011N_______8
  6
CONTINUOUS
 62
    7
 10
1647.559446073511
 20
1569.458728270125
 11
1647.701502076673
 21
1569.310956458482
  0
LINE
  8
_0-5_EL-M10011N_______8
  6
CONTINUOUS
 62
    7
 10
1647.701502076673
 20
1569.310956458482
 11
1647.754309696229
 21
1569.1562804345858
  0
LINE
  8
_0-5_EL-M10011N_______8
  6
CONTINUOUS
 62
    7
 10
1657.6426707022974
 20
1426.5646287835598
 11
1657.5898630827414
 21
1426.719304807456
  0
LINE
  8
_0-5_EL-M10011N_______8
  6
CONTINUOUS
 62
    7
 10
1657.5898630827414
 20
1426.719304807456
 11
1657.4478070795794
 21
1426.867076619862
  0
LINE
  8
_0-4_EL-M10011N_______9
  6
CONTINUOUS
 62
    7
 10
1645.2100521357834
 20
1590.558189402082
 11
1646.5593411621176
 21
1571.1012388840049
  0
LINE
  8
_0-4_EL-M10011N_______9
  6
CONTINUOUS
 62
    7
 10
1645.3724384879215
 20
1590.306149538369
 11
1646.7217275142548
 21
1570.849199021055
  0
LINE
  8
_0-5_EL-M10011N_______8
  6
CONTINUOUS
 62
    7
 10
1647.559446073511
 20
1569.458728270125
 11
1657.4478070795794
 21
1426.867076619862
  0
LINE
  8
_0-5_EL-M10011N_______8
  6
CONTINUOUS
 62
    7
 10
1657.6426707022974
 20
1426.5646287835598
 11
1647.754309696229
 21
1569.1562804345858
  0
LINE
  8
_0-5_EL-M10011N_______8
  6
CONTINUOUS
 62
    7
 10
1657.4478070795794
 20
1426.867076619862
 11
1657.4326860300644
 21
1426.485214778811
  0
LINE
  8
_0-5_EL-M10011N_______8
  6
CONTINUOUS
 62
    7
 10
1657.4326860300644
 20
1426.485214778811
 11
1657.3366105318428
 21
1426.1009909130221
  0
LINE
  8
_0-5_EL-M10011N_______8
  6
CONTINUOUS
 62
    7
 10
1657.3366105318428
 20
1426.1009909130221
 11
1657.1643982133282
 21
1425.7336716110858
  0
LINE
  8
_0-5_EL-M10011N_______8
  6
CONTINUOUS
 62
    7
 10
1657.1643982133282
 20
1425.7336716110858
 11
1656.9246845180032
 21
1425.4016757967961
  0
LINE
  8
_0-5_EL-M10011N_______8
  6
CONTINUOUS
 62
    7
 10
1656.9246845180032
 20
1425.4016757967961
 11
1656.6294896910704
 21
1425.121651126467
  0
LINE
  8
_0-5_EL-M10011N_______8
  6
CONTINUOUS
 62
    7
 10
1656.6294896910704
 20
1425.121651126467
 11
1656.2936160351592
 21
1424.90763920575
  0
LINE
  8
_0-5_EL-M10011N_______8
  6
CONTINUOUS
 62
    7
 10
1656.2936160351592
 20
1424.90763920575
 11
1655.9339056575536
 21
1424.7703714871441
  0
LINE
  8
_0-4_EL-M10011N_______9
  6
CONTINUOUS
 62
    7
 10
1645.2100521357834
 20
1590.558189402082
 11
1645.3284321382916
 21
1590.4350462252041
  0
LINE
  8
_0-4_EL-M10011N_______9
  6
CONTINUOUS
 62
    7
 10
1645.3284321382916
 20
1590.4350462252041
 11
1645.3724384879215
 21
1590.306149538369
  0
LINE
  8
_0-4_EL-M10011N_______9
  6
CONTINUOUS
 62
    7
 10
1646.7217171662951
 20
1570.8491983009649
 11
1646.6781226410894
 21
1570.9774555699778
  0
LINE
  8
_0-4_EL-M10011N_______9
  6
CONTINUOUS
 62
    7
 10
1646.6781226410894
 20
1570.9774555699778
 11
1646.5593411621176
 21
1571.1012388840049
  0
LINE
  8
_0-4_EL-M10011N_______9
  6
CONTINUOUS
 62
    7
 10
1645.3145975192756
 20
1590.629258150469
 11
1645.3724384879215
 21
1590.306149538369
  0
INSERT
  2
-000-SPECel-m10010nxaj004
  8
_0-0_0
 10
2986.1472949270856
 20
-77.44638293531608
 41
1
 42
1
 50
0
  0
ENDSEC
  0
EOF
