  0
SECTION
  2
HEADER
  9
$ACADVER
  1
AC1009
  9
$INSBASE
 10
0
 20
0
 30
0
  9
$EXTMIN
 10
0
 20
0
  9
$EXTMAX
 10
1485
 20
1050
  9
$LIMMIN
 10
0
 20
0
  9
$LIMMAX
 10
1485
 20
1050
  9
$LTSCALE
 40
5
  0
ENDSEC
  0
SECTION
  2
TABLES
  0
TABLE
  2
LTYPE
 70
     9
  0
LTYPE
  2
CONTINUOUS
 70
    64
  3
実線
 72
    65
 73
     0
 40
0.0
  0
LTYPE
  2
DASHED1
 70
    64
  3
--  --  --  --  --  --  --  --  
 72
    65
 73
     2
 40
2.5
 49
1.25
 49
-1.25
  0
LTYPE
  2
DASHED2
 70
    64
  3
----    ----    ----    ----    
 72
    65
 73
     2
 40
5.0
 49
2.5
 49
-2.5
  0
LTYPE
  2
DASHED3
 70
    64
  3
------  ------  ------  ------  
 72
    65
 73
     2
 40
5.0
 49
3.75
 49
-1.25
  0
LTYPE
  2
CENTER1
 70
    64
  3
----- - ----- - ----- - ----- - 
 72
    65
 73
     4
 40
10.0
 49
6.25
 49
-1.25
 49
1.25
 49
-1.25
  0
LTYPE
  2
CENTER2
 70
    64
  3
----------  --  ----------  --  
 72
    65
 73
     4
 40
20.0
 49
12.5
 49
-2.5
 49
2.5
 49
-2.5
  0
LTYPE
  2
PHANTOM1
 70
    64
  3
--- - - --- - - --- - - --- - - 
 72
    65
 73
     6
 40
10.0
 49
3.25
 49
-1.25
 49
1.25
 49
-1.25
 49
1.25
 49
-1.25
  0
LTYPE
  2
PHANTOM2
 70
    64
  3
--------  -  -  --------  -  -  
 72
    65
 73
     6
 40
20.0
 49
10.0
 49
-2.5
 49
1.25
 49
-2.5
 49
1.25
 49
-2.5
  0
LTYPE
  2
DOT
 70
    64
  3
-   -   -   -   -   -   -   -   
 72
    65
 73
     2
 40
2.5
 49
0.625
 49
-1.875
  0
LTYPE
  2
DUMMY
 70
    64
  3
ダミー
 72
    65
 73
     0
 40
0.0
  0
LTYPE
  2
RAND1
 70
    64
  3
ランダム線1
 72
    65
 73
     4
 40
10.0
 49
1.0
 49
-2.0
 49
3.0
 49
-4.0
  0
LTYPE
  2
RAND2
 70
    64
  3
ランダム線2
 72
    65
 73
     4
 40
14.0
 49
2.0
 49
-3.0
 49
4.0
 49
-5.0
  0
LTYPE
  2
RAND3
 70
    64
  3
ランダム線3
 72
    65
 73
     4
 40
18.0
 49
3.0
 49
-4.0
 49
5.0
 49
-6.0
  0
LTYPE
  2
RAND4
 70
    64
  3
ランダム線4
 72
    65
 73
     4
 40
22.0
 49
4.0
 49
-5.0
 49
6.0
 49
-7.0
  0
LTYPE
  2
RAND5
 70
    64
  3
ランダム線5
 72
    65
 73
     4
 40
26.0
 49
5.0
 49
-6.0
 49
7.0
 49
-8.0
  0
LTYPE
  2
LONG1
 70
    64
  3
----------  --  ----------  --  
 72
    65
 73
     4
 40
40.0
 49
32.5
 49
-2.5
 49
2.5
 49
-2.5
  0
LTYPE
  2
LONG2
 70
    64
  3
--------  -  -  --------  -  -  
 72
    65
 73
     6
 40
40.0
 49
30.0
 49
-2.5
 49
1.25
 49
-2.5
 49
1.25
 49
-2.5
  0
LTYPE
  2
LONG3
 70
    64
  3
+++++++++++++++..+++++++++++++++
 72
    65
 73
     2
 40
40.0
 49
37.5
 49
-2.5
  0
LTYPE
  2
LONG4
 70
    64
  3
+++++++++++++++..+++++++++++++++
 72
    65
 73
     2
 40
80.0
 49
75.0
 49
-5.0
  0
LTYPE
  2
LONG5
 70
    64
  3
----------  --  ----------  --  
 72
    65
 73
     4
 40
60.0
 49
37.5
 49
-7.5
 49
7.5
 49
-7.5
  0
LTYPE
  2
dashed
 70
   64
  3
-------   -------------   ------
 72
   65
 73
    2
 40
7.5
 49
6
 49
-1.5
  0
LTYPE
  2
dashed_spaced
 70
   64
  3
----        --------        ----
 72
   65
 73
    2
 40
12
 49
6
 49
-6
  0
LTYPE
  2
long_dashed_dotted
 70
   64
  3
------------- --- --------------
 72
   65
 73
    4
 40
15.25
 49
12
 49
-1.5
 49
0.25
 49
-1.5
  0
LTYPE
  2
long_dashed_double-dotted
 70
   64
  3
----------- --- --- ------------
 72
   65
 73
    6
 40
17
 49
12
 49
-1.5
 49
0.25
 49
-1.5
 49
0.25
 49
-1.5
  0
LTYPE
  2
long_dashed_triplicate-dotted
 70
   64
  3
--------- --- --- --- ----------
 72
   65
 73
    8
 40
18.75
 49
12
 49
-1.5
 49
0.25
 49
-1.5
 49
0.25
 49
-1.5
 49
0.25
 49
-1.5
  0
LTYPE
  2
dotted
 70
   64
  3
   -       -       -       -    
 72
   65
 73
    2
 40
1.75
 49
0.25
 49
-1.5
  0
LTYPE
  2
chain
 70
   64
  3
-------------- -- --------------
 72
   65
 73
    4
 40
18.5
 49
12
 49
-1.5
 49
3.5
 49
-1.5
  0
LTYPE
  2
chain_double_dash
 70
   64
  3
------------ -- -- -------------
 72
   65
 73
    6
 40
23.5
 49
12
 49
-1.5
 49
3.5
 49
-1.5
 49
3.5
 49
-1.5
  0
LTYPE
  2
dashed_dotted
 70
   64
  3
-----------     -     ----------
 72
   65
 73
    4
 40
9.25
 49
6
 49
-1.5
 49
0.25
 49
-1.5
  0
LTYPE
  2
double-dashed_dotted
 70
   64
  3
------   -----------   -   -----
 72
   65
 73
    6
 40
16.75
 49
6
 49
-1.5
 49
6
 49
-1.5
 49
0.25
 49
-1.5
  0
LTYPE
  2
dashed_double-dotted
 70
   64
  3
---------    -    -    ---------
 72
   65
 73
    6
 40
11
 49
6
 49
-1.5
 49
0.25
 49
-1.5
 49
0.25
 49
-1.5
  0
LTYPE
  2
double-dashed_double-dotted
 70
   64
  3
-----   ---------   -   -   ----
 72
   65
 73
    8
 40
18.5
 49
6
 49
-1.5
 49
6
 49
-1.5
 49
0.25
 49
-1.5
 49
0.25
 49
-1.5
  0
LTYPE
  2
dashed_triplicate-dotted
 70
   64
  3
-------    -    -    -    ------
 72
   65
 73
    8
 40
12.75
 49
6
 49
-1.5
 49
0.25
 49
-1.5
 49
0.25
 49
-1.5
 49
0.25
 49
-1.5
  0
LTYPE
  2
double-dashed_triplicate-dotted
 70
   64
  3
-----  ---------  -  -  -  -----
 72
   65
 73
   10
 40
20.25
 49
6
 49
-1.5
 49
6
 49
-1.5
 49
0.25
 49
-1.5
 49
0.25
 49
-1.5
 49
0.25
 49
-1.5
  0
LTYPE
  2
undefined
 70
   64
  3
--------------------------------
 72
   65
 73
    0
 40
0
  0
LTYPE
  2
_
 70
   64
  3
                                
 72
   65
 73
    0
 40
0
  0
LTYPE
  2
__18
 70
   64
  3
                                
 72
   65
 73
    0
 40
0
  0
LTYPE
  2
__19
 70
   64
  3
                                
 72
   65
 73
    0
 40
0
  0
LTYPE
  2
__20
 70
   64
  3
                                
 72
   65
 73
    0
 40
0
  0
LTYPE
  2
__21
 70
   64
  3
                                
 72
   65
 73
    0
 40
0
  0
LTYPE
  2
__22
 70
   64
  3
                                
 72
   65
 73
    0
 40
0
  0
LTYPE
  2
__23
 70
   64
  3
                                
 72
   65
 73
    0
 40
0
  0
LTYPE
  2
__24
 70
   64
  3
                                
 72
   65
 73
    0
 40
0
  0
LTYPE
  2
__25
 70
   64
  3
                                
 72
   65
 73
    0
 40
0
  0
LTYPE
  2
__26
 70
   64
  3
                                
 72
   65
 73
    0
 40
0
  0
LTYPE
  2
__27
 70
   64
  3
                                
 72
   65
 73
    0
 40
0
  0
LTYPE
  2
__28
 70
   64
  3
                                
 72
   65
 73
    0
 40
0
  0
LTYPE
  2
__29
 70
   64
  3
                                
 72
   65
 73
    0
 40
0
  0
LTYPE
  2
__30
 70
   64
  3
                                
 72
   65
 73
    0
 40
0
  0
LTYPE
  2
__31
 70
   64
  3
                                
 72
   65
 73
    0
 40
0
  0
LTYPE
  2
__32
 70
   64
  3
                                
 72
   65
 73
    0
 40
0
  0
ENDTAB
  0
TABLE
  2
STYLE
  5
3
100
AcDbSymbolTable
 70
     1
  0
STYLE
  5
10
100
AcDbSymbolTableRecord
100
AcDbTextStyleTableRecord
  2
STANDARD
 70
     0
 40
0.0
 41
1.0
 50
0.0
 71
     0
 42
0.2
  3
txt
  4
bigfont.shx
  0
STYLE
  5
26
100
AcDbSymbolTableRecord
100
AcDbTextStyleTableRecord
  2
TATEGAKI
 70
    68
 40
0.0
 41
1.0
 50
0.0
 71
     0
 42
1.0
  3
txt
  4
bigfont.shx
  0
ENDTAB
  0
TABLE
  2
LAYER
 70
    3
  0
LAYER
  2
_0-0_0
 70
   64
 62
    7
  6
CONTINUOUS
  0
LAYER
  2
_0-2______1
 70
   64
 62
    7
  6
CONTINUOUS
  0
LAYER
  2
ADD_LINE
 70
   64
 62
    7
  6
CONTINUOUS
  0
ENDTAB
  0
ENDSEC
  0
SECTION
  2
BLOCKS
  0
BLOCK
  2
-000-SPECEL-M10011N
 70
   64
 10
0
 20
0
 30
0
  0
TEXT
  8
_0-3_SPEC
 62
    7
 10
0
 20
0
 40
1.5
 41
1
 50
0
  1
ｴｸｽﾃﾘｱ 昼白色(5000K) Ra75
  0
TEXT
  8
_0-3_SPEC
 62
    7
 10
0
 20
-3
 40
1.5
 41
1
 50
0
  1
100V~242V共用ﾀｲﾌﾟ
  0
TEXT
  8
_0-3_SPEC
 62
    7
 10
0
 20
-6
 40
1.5
 41
1
 50
0
  1
本体:ｽﾃﾝﾚｽ 黒色塗装仕上
  0
TEXT
  8
_0-3_SPEC
 62
    7
 10
0
 20
-9
 40
1.5
 41
1
 50
0
  1
光源寿命:60,000時間(光束維持率90%)
  0
TEXT
  8
_0-3_SPEC
 62
    7
 10
0
 20
-12
 40
1.5
 41
1
 50
0
  1
光束:12900lm 消費電力:96.8W 消費効率:133.2lm/W
  0
ENDBLK
  0
ENDSEC
  0
SECTION
  2
ENTITIES
  0
TEXT
  8
_0-0_0
 62
    7
 10
-75.420373395995313
 20
1539.863934189304
 40
114.3
 41
1
 50
0
  1
LED96.8W×１　 街路灯
  0
TEXT
  8
_0-0_0
 62
    7
 10
-75.420373395995313
 20
-593.73593881069291
 40
114.3
 41
1
 50
0
  1
三菱 EL-M10011N 
  0
INSERT
  2
-000-SPECEL-M10011N
  8
_0-0_0
 10
1502.7509190985879
 20
-599.54982769958201
 41
1
 42
1
 50
0
  0
LINE
  8
_0-2______1
  6
CONTINUOUS
 62
    7
 10
637.14725178026674
 20
499.97712097891099
 11
637.14725178026674
 21
636.56433936924304
  0
LINE
  8
_0-2______1
  6
CONTINUOUS
 62
    7
 10
638.23231905429975
 20
638.69509647591485
 11
638.23231905429975
 21
656.96622928384795
  0
LINE
  8
_0-2______1
  6
CONTINUOUS
 62
    7
 10
738.23351911610689
 20
502.15600606951284
 11
738.23351911610689
 21
503.20169590214982
  0
LINE
  8
_0-2______1
  6
CONTINUOUS
 62
    7
 10
739.28358422000974
 20
503.20169590214982
 11
739.28358422000974
 21
505.37183045021902
  0
LINE
  8
_0-2______1
  6
CONTINUOUS
 62
    7
 10
638.23231905429975
 20
656.96622928384795
 11
851.11551778580179
 21
841.92207152276615
  0
LINE
  8
_0-2______1
  6
CONTINUOUS
 62
    7
 10
637.14725178026674
 20
636.56433936924304
 11
851.11551778580179
 21
821.47205362423301
  0
LINE
  8
_0-2______1
  6
CONTINUOUS
 62
    7
 10
851.11551778580179
 20
821.47205362423301
 11
851.11551778580179
 21
684.93296321782918
  0
LINE
  8
_0-2______1
  6
CONTINUOUS
 62
    7
 10
851.11551778580179
 20
841.92207152276615
 11
851.11551778580179
 21
822.55712089826602
  0
LINE
  8
_0-2______1
  6
CONTINUOUS
 62
    7
 10
853.28565233387098
 20
686.01803049186219
 11
853.28565233387098
 21
822.55712089826602
  0
LINE
  8
_0-2______1
  6
CONTINUOUS
 62
    7
 10
853.28565233387098
 20
822.55712089826602
 11
853.28565233387098
 21
841.92207152276615
  0
LINE
  8
_0-2______1
  6
CONTINUOUS
 62
    7
 10
851.11551778580179
 20
684.93296321782918
 11
637.14725178026674
 21
499.97712097891099
  0
LINE
  8
_0-2______1
  6
CONTINUOUS
 62
    7
 10
639.28238415820488
 20
497.84636387224009
 11
852.2005850598357
 21
682.76282866975998
  0
LINE
  8
_0-2______1
  6
CONTINUOUS
 62
    7
 10
1195.2218523351917
 20
337.60205374520001
 11
639.28238415820488
 21
497.84636387224009
  0
LINE
  8
_0-2______1
  6
CONTINUOUS
 62
    7
 10
998.43965186355399
 20
431.17160504559206
 11
998.43965186355399
 21
429.02772212512082
  0
LINE
  8
_0-2______1
  6
CONTINUOUS
 62
    7
 10
998.43965186355399
 20
429.02772212512082
 11
998.43965186355399
 21
426.86196284831794
  0
LINE
  8
_0-2______1
  6
CONTINUOUS
 62
    7
 10
1008.1002508194729
 20
430.08653777155723
 11
1008.1002508194729
 21
432.25229704836011
  0
LINE
  8
_0-2______1
  6
CONTINUOUS
 62
    7
 10
1009.1853180935068
 20
427.9426548510869
 11
1009.1853180935068
 21
430.08653777155723
  0
LINE
  8
_0-2______1
  6
CONTINUOUS
 62
    7
 10
1389.833918258762
 20
439.78213889760491
 11
1387.6987858808229
 21
440.82782873024416
  0
LINE
  8
_0-2______1
  6
CONTINUOUS
 62
    7
 10
1415.6305176446726
 20
465.57873828351785
 11
1417.8006521927418
 21
465.57873828351785
  0
LINE
  8
_0-2______1
  6
CONTINUOUS
 62
    7
 10
1418.850717296647
 20
468.79456266422494
 11
1416.7155849187079
 21
469.87962993825795
  0
LINE
  8
_0-2______1
  6
CONTINUOUS
 62
    7
 10
852.2005850598357
 20
682.76282866975998
 11
1409.1901183407276
 21
522.55789598411593
  0
LINE
  8
_0-2______1
  6
CONTINUOUS
 62
    7
 10
1410.275185614762
 20
525.77372036482302
 11
853.28565233387098
 21
686.01803049186219
  0
LINE
  8
_0-2______1
  6
CONTINUOUS
 62
    7
 10
1157.5595172751628
 20
561.27029614804997
 11
1157.5595172751628
 21
559.13516377011183
  0
LINE
  8
_0-2______1
  6
CONTINUOUS
 62
    7
 10
1158.6445845491967
 20
559.13516377011183
 11
1158.6445845491967
 21
558.050096496077
  0
LINE
  8
_0-2______1
  6
CONTINUOUS
 62
    7
 10
853.28565233387098
 20
822.55712089826602
 11
1410.275185614762
 21
662.35218821262197
  0
LINE
  8
_0-2______1
  6
CONTINUOUS
 62
    7
 10
853.28565233387098
 20
841.92207152276615
 11
1409.1901183407276
 21
681.71713883712209
  0
LINE
  8
_0-2______1
  6
CONTINUOUS
 62
    7
 10
1409.1901183407276
 20
522.55789598411593
 11
1195.2218523351917
 21
337.60205374520001
  0
LINE
  8
_0-2______1
  6
CONTINUOUS
 62
    7
 10
1409.1901183407276
 20
681.71713883712209
 11
1409.1901183407276
 21
663.4460060291899
  0
LINE
  8
_0-2______1
  6
CONTINUOUS
 62
    7
 10
1410.275185614762
 20
662.35218821262197
 11
1410.275185614762
 21
525.77372036482302
  0
LINE
  8
_0-2______1
  6
CONTINUOUS
 62
    7
 10
1383.3935189548156
 20
460.18402881220982
 11
1383.3935189548156
 21
459.13396370830606
  0
LINE
  8
_0-2______1
  6
CONTINUOUS
 62
    7
 10
1397.3593848367409
 20
473.09545431896504
 11
1398.4444521107748
 21
473.09545431896504
  0
LINE
  8
_0-2______1
  6
CONTINUOUS
 62
    7
 10
1399.4945172146799
 20
469.87962993825795
 11
1399.4945172146799
 21
470.96469721229414
  0
LINE
  8
_0-2______1
  6
CONTINUOUS
 62
    7
 10
639.28238415820488
 20
658.05129655788323
 11
638.23231905429975
 21
658.05129655788323
  0
LINE
  8
_0-2______1
  6
CONTINUOUS
 62
    7
 10
637.14725178026674
 20
499.97712097891099
 11
637.14725178026674
 21
636.56433936924304
  0
LINE
  8
_0-2______1
  6
CONTINUOUS
 62
    7
 10
638.23231905429975
 20
656.96622928384795
 11
638.23231905429975
 21
637.61002920188184
  0
LINE
  8
_0-2______1
  6
CONTINUOUS
 62
    7
 10
851.11551778580179
 20
841.92207152276615
 11
639.28238415820488
 21
658.05129655788323
  0
LINE
  8
_0-2______1
  6
CONTINUOUS
 62
    7
 10
851.11551778580179
 20
822.55712089826602
 11
638.23231905429975
 21
638.69509647591485
  0
LINE
  8
_0-2______1
  6
CONTINUOUS
 62
    7
 10
851.11551778580179
 20
822.55712089826602
 11
637.14725178026674
 21
637.61002920188184
  0
LINE
  8
_0-2______1
  6
CONTINUOUS
 62
    7
 10
1194.1367850611578
 20
337.60205374520001
 11
638.23231905429975
 21
497.84636387224009
  0
LINE
  8
_0-2______1
  6
CONTINUOUS
 62
    7
 10
998.43965186355399
 20
426.86196284831794
 11
738.23351911610689
 21
502.15600606951284
  0
LINE
  8
_0-2______1
  6
CONTINUOUS
 62
    7
 10
738.23351911610689
 20
503.20169590214982
 11
998.43965186355399
 21
429.02772212512082
  0
LINE
  8
_0-2______1
  6
CONTINUOUS
 62
    7
 10
998.43965186355399
 20
429.02772212512082
 11
739.28358422000974
 21
503.20169590214982
  0
LINE
  8
_0-2______1
  6
CONTINUOUS
 62
    7
 10
739.28358422000974
 20
505.37183045021902
 11
998.43965186355399
 21
431.17160504559206
  0
LINE
  8
_0-2______1
  6
CONTINUOUS
 62
    7
 10
735.01331946413302
 20
507.50696282815716
 11
885.52265102372758
 21
636.56433936924304
  0
LINE
  8
_0-2______1
  6
CONTINUOUS
 62
    7
 10
1388.7488509847267
 20
439.78213889760491
 11
1386.613718606789
 21
440.82782873024416
  0
LINE
  8
_0-2______1
  6
CONTINUOUS
 62
    7
 10
1385.5286513327546
 20
447.29885493305392
 11
1383.3935189548156
 21
448.39267274962003
  0
LINE
  8
_0-2______1
  6
CONTINUOUS
 62
    7
 10
1376.91811748074
 20
449.43836258225792
 11
1338.2057173168077
 21
461.26909608624601
  0
LINE
  8
_0-2______1
  6
CONTINUOUS
 62
    7
 10
1416.7155849187079
 20
474.18052159299896
 11
1370.477718176795
 21
488.15076274619105
  0
LINE
  8
_0-2______1
  6
CONTINUOUS
 62
    7
 10
1416.7155849187079
 20
476.32002924220387
 11
1371.5627854508298
 21
490.31652202299301
  0
LINE
  8
_0-2______1
  6
CONTINUOUS
 62
    7
 10
1376.91811748074
 20
491.36658712689723
 11
1374.7829851028018
 21
491.36658712689723
  0
LINE
  8
_0-2______1
  6
CONTINUOUS
 62
    7
 10
896.30331942381099
 20
637.61002920188184
 11
1155.4243848972246
 21
563.43605542485193
  0
LINE
  8
_0-2______1
  6
CONTINUOUS
 62
    7
 10
1448.9875857786947
 20
513.94736213210308
 11
1446.8174512306259
 21
513.94736213210308
  0
LINE
  8
_0-2______1
  6
CONTINUOUS
 62
    7
 10
1446.8174512306259
 20
513.94736213210308
 11
1445.732383956592
 21
515.032429406137
  0
LINE
  8
_0-2______1
  6
CONTINUOUS
 62
    7
 10
1445.732383956592
 20
515.032429406137
 11
1440.3770519266809
 21
515.032429406137
  0
LINE
  8
_0-2______1
  6
CONTINUOUS
 62
    7
 10
1440.3770519266809
 20
515.032429406137
 11
1439.291984652647
 21
516.11749668017183
  0
LINE
  8
_0-2______1
  6
CONTINUOUS
 62
    7
 10
1439.291984652647
 20
516.11749668017183
 11
1438.2069173786117
 21
516.11749668017183
  0
LINE
  8
_0-2______1
  6
CONTINUOUS
 62
    7
 10
1438.2069173786117
 20
516.11749668017183
 11
1437.1568522747089
 21
515.032429406137
  0
LINE
  8
_0-2______1
  6
CONTINUOUS
 62
    7
 10
1437.1568522747089
 20
515.032429406137
 11
1431.7665180746667
 21
515.032429406137
  0
LINE
  8
_0-2______1
  6
CONTINUOUS
 62
    7
 10
1431.7665180746667
 20
515.032429406137
 11
1431.7665180746667
 21
513.94736213210308
  0
LINE
  8
_0-2______1
  6
CONTINUOUS
 62
    7
 10
1431.7665180746667
 20
513.94736213210308
 11
1428.5463184226946
 21
513.94736213210308
  0
LINE
  8
_0-2______1
  6
CONTINUOUS
 62
    7
 10
1428.5463184226946
 20
513.94736213210308
 11
1426.3761838746259
 21
513.94736213210308
  0
LINE
  8
_0-2______1
  6
CONTINUOUS
 62
    7
 10
1426.3761838746259
 20
513.94736213210308
 11
1426.3761838746259
 21
512.89729702819795
  0
LINE
  8
_0-2______1
  6
CONTINUOUS
 62
    7
 10
1426.3761838746259
 20
512.89729702819795
 11
1423.1559842226529
 21
512.89729702819795
  0
LINE
  8
_0-2______1
  6
CONTINUOUS
 62
    7
 10
1423.1559842226529
 20
512.89729702819795
 11
1422.1059191187487
 21
512.89729702819795
  0
LINE
  8
_0-2______1
  6
CONTINUOUS
 62
    7
 10
1422.1059191187487
 20
512.89729702819795
 11
1422.1059191187487
 21
511.81660502543082
  0
LINE
  8
_0-2______1
  6
CONTINUOUS
 62
    7
 10
1422.1059191187487
 20
511.81660502543082
 11
1419.9357845706809
 21
511.81660502543082
  0
LINE
  8
_0-2______1
  6
CONTINUOUS
 62
    7
 10
1419.9357845706809
 20
511.81660502543082
 11
1419.9357845706809
 21
510.73153775139599
  0
LINE
  8
_0-2______1
  6
CONTINUOUS
 62
    7
 10
1419.9357845706809
 20
510.73153775139599
 11
1418.850717296647
 21
510.73153775139599
  0
LINE
  8
_0-2______1
  6
CONTINUOUS
 62
    7
 10
1418.850717296647
 20
510.73153775139599
 11
1416.7155849187079
 21
510.73153775139599
  0
LINE
  8
_0-2______1
  6
CONTINUOUS
 62
    7
 10
1416.7155849187079
 20
510.73153775139599
 11
1416.7155849187079
 21
509.67272210496003
  0
LINE
  8
_0-2______1
  6
CONTINUOUS
 62
    7
 10
1416.7155849187079
 20
509.67272210496003
 11
1415.6305176446726
 21
509.67272210496003
  0
LINE
  8
_0-2______1
  6
CONTINUOUS
 62
    7
 10
1415.6305176446726
 20
509.67272210496003
 11
1414.5804525407698
 21
508.58765483092611
  0
LINE
  8
_0-2______1
  6
CONTINUOUS
 62
    7
 10
1414.5804525407698
 20
508.58765483092611
 11
1413.495385266735
 21
508.58765483092611
  0
LINE
  8
_0-2______1
  6
CONTINUOUS
 62
    7
 10
1413.495385266735
 20
508.58765483092611
 11
1413.495385266735
 21
507.50696282815716
  0
LINE
  8
_0-2______1
  6
CONTINUOUS
 62
    7
 10
1413.495385266735
 20
507.50696282815716
 11
1412.4103179927006
 21
507.50696282815716
  0
LINE
  8
_0-2______1
  6
CONTINUOUS
 62
    7
 10
1412.4103179927006
 20
507.50696282815716
 11
1410.275185614762
 21
507.50696282815716
  0
LINE
  8
_0-2______1
  6
CONTINUOUS
 62
    7
 10
1410.275185614762
 20
507.50696282815716
 11
1410.275185614762
 21
506.42189555412415
  0
LINE
  8
_0-2______1
  6
CONTINUOUS
 62
    7
 10
1410.275185614762
 20
506.42189555412415
 11
1409.1901183407276
 21
506.42189555412415
  0
LINE
  8
_0-2______1
  6
CONTINUOUS
 62
    7
 10
1409.1901183407276
 20
506.42189555412415
 11
1408.1050510666937
 21
505.37183045021902
  0
LINE
  8
_0-2______1
  6
CONTINUOUS
 62
    7
 10
1408.1050510666937
 20
505.37183045021902
 11
1407.0549859627899
 21
505.37183045021902
  0
LINE
  8
_0-2______1
  6
CONTINUOUS
 62
    7
 10
1407.0549859627899
 20
505.37183045021902
 11
1407.0549859627899
 21
504.28676317618601
  0
LINE
  8
_0-2______1
  6
CONTINUOUS
 62
    7
 10
1407.0549859627899
 20
504.28676317618601
 11
1405.9699186887556
 21
504.28676317618601
  0
LINE
  8
_0-2______1
  6
CONTINUOUS
 62
    7
 10
1405.9699186887556
 20
504.28676317618601
 11
1404.8848514147207
 21
503.20169590214982
  0
LINE
  8
_0-2______1
  6
CONTINUOUS
 62
    7
 10
1404.8848514147207
 20
503.20169590214982
 11
1403.7997841406868
 21
503.20169590214982
  0
LINE
  8
_0-2______1
  6
CONTINUOUS
 62
    7
 10
1403.7997841406868
 20
503.20169590214982
 11
1402.7497190367817
 21
503.20169590214982
  0
LINE
  8
_0-2______1
  6
CONTINUOUS
 62
    7
 10
1402.7497190367817
 20
503.20169590214982
 11
1402.7497190367817
 21
502.15600606951284
  0
LINE
  8
_0-2______1
  6
CONTINUOUS
 62
    7
 10
1402.7497190367817
 20
502.15600606951284
 11
1401.6646517627478
 21
501.06218825294491
  0
LINE
  8
_0-2______1
  6
CONTINUOUS
 62
    7
 10
1401.6646517627478
 20
501.06218825294491
 11
1400.5795844887139
 21
501.06218825294491
  0
LINE
  8
_0-2______1
  6
CONTINUOUS
 62
    7
 10
1440.3770519266809
 20
503.20169590214982
 11
1467.2587185866278
 21
494.59116205013606
  0
LINE
  8
_0-2______1
  6
CONTINUOUS
 62
    7
 10
1468.3437858606608
 20
495.67622932417089
 11
1494.1403852465737
 21
488.15076274619105
  0
LINE
  8
_0-2______1
  6
CONTINUOUS
 62
    7
 10
1469.393850964565
 20
497.84636387224009
 11
1495.2254525206076
 21
490.31652202299301
  0
LINE
  8
_0-2______1
  6
CONTINUOUS
 62
    7
 10
1444.6823188526878
 20
506.42189555412415
 11
1471.5639855126346
 21
497.84636387224009
  0
LINE
  8
_0-2______1
  6
CONTINUOUS
 62
    7
 10
1472.6140506165389
 20
499.97712097891099
 11
1498.4456521725806
 21
491.36658712689723
  0
LINE
  8
_0-2______1
  6
CONTINUOUS
 62
    7
 10
1472.6140506165389
 20
501.06218825294491
 11
1498.4456521725806
 21
493.54547221749817
  0
LINE
  8
_0-2______1
  6
CONTINUOUS
 62
    7
 10
1447.9025185046598
 20
509.67272210496003
 11
1474.7841851646067
 21
501.06218825294491
  0
LINE
  8
_0-2______1
  6
CONTINUOUS
 62
    7
 10
1475.869252438642
 20
503.20169590214982
 11
1501.665851824554
 21
494.59116205013606
  0
LINE
  8
_0-2______1
  6
CONTINUOUS
 62
    7
 10
1475.869252438642
 20
504.28676317618601
 11
1502.7509190985879
 21
497.84636387224009
  0
LINE
  8
_0-2______1
  6
CONTINUOUS
 62
    7
 10
1448.9875857786947
 20
513.94736213210308
 11
1475.869252438642
 21
506.42189555412415
  0
LINE
  8
_0-2______1
  6
CONTINUOUS
 62
    7
 10
1157.5595172751628
 20
561.27029614804997
 11
1008.1002508194729
 21
432.25229704836011
  0
LINE
  8
_0-2______1
  6
CONTINUOUS
 62
    7
 10
1008.1002508194729
 20
430.08653777155723
 11
1157.5595172751628
 21
559.13516377011183
  0
LINE
  8
_0-2______1
  6
CONTINUOUS
 62
    7
 10
1009.1853180935068
 20
430.08653777155723
 11
1158.6445845491967
 21
559.13516377011183
  0
LINE
  8
_0-2______1
  6
CONTINUOUS
 62
    7
 10
1158.6445845491967
 20
558.050096496077
 11
1009.1853180935068
 21
427.9426548510869
  0
LINE
  8
_0-2______1
  6
CONTINUOUS
 62
    7
 10
1409.1901183407276
 20
662.35218821262197
 11
853.28565233387098
 21
822.55712089826602
  0
LINE
  8
_0-2______1
  6
CONTINUOUS
 62
    7
 10
1409.1901183407276
 20
663.4460060291899
 11
853.28565233387098
 21
822.55712089826602
  0
LINE
  8
_0-2______1
  6
CONTINUOUS
 62
    7
 10
1409.1901183407276
 20
682.76282866975998
 11
853.28565233387098
 21
843.00713879679915
  0
LINE
  8
_0-2______1
  6
CONTINUOUS
 62
    7
 10
1410.275185614762
 20
501.06218825294491
 11
1412.4103179927006
 21
503.20169590214982
  0
LINE
  8
_0-2______1
  6
CONTINUOUS
 62
    7
 10
1412.4103179927006
 20
503.20169590214982
 11
1413.495385266735
 21
503.20169590214982
  0
LINE
  8
_0-2______1
  6
CONTINUOUS
 62
    7
 10
1413.495385266735
 20
503.20169590214982
 11
1415.6305176446726
 21
504.28676317618601
  0
LINE
  8
_0-2______1
  6
CONTINUOUS
 62
    7
 10
1415.6305176446726
 20
504.28676317618601
 11
1418.850717296647
 21
504.28676317618601
  0
LINE
  8
_0-2______1
  6
CONTINUOUS
 62
    7
 10
1418.850717296647
 20
504.28676317618601
 11
1419.9357845706809
 21
505.37183045021902
  0
LINE
  8
_0-2______1
  6
CONTINUOUS
 62
    7
 10
1419.9357845706809
 20
505.37183045021902
 11
1422.1059191187487
 21
506.42189555412415
  0
LINE
  8
_0-2______1
  6
CONTINUOUS
 62
    7
 10
1422.1059191187487
 20
506.42189555412415
 11
1425.3261187707208
 21
506.42189555412415
  0
LINE
  8
_0-2______1
  6
CONTINUOUS
 62
    7
 10
1425.3261187707208
 20
506.42189555412415
 11
1426.3761838746259
 21
507.50696282815716
  0
LINE
  8
_0-2______1
  6
CONTINUOUS
 62
    7
 10
1426.3761838746259
 20
507.50696282815716
 11
1429.631385696729
 21
507.50696282815716
  0
LINE
  8
_0-2______1
  6
CONTINUOUS
 62
    7
 10
1429.631385696729
 20
507.50696282815716
 11
1441.4621192007148
 21
507.50696282815716
  0
LINE
  8
_0-2______1
  6
CONTINUOUS
 62
    7
 10
1441.4621192007148
 20
507.50696282815716
 11
1442.51218430462
 21
506.42189555412415
  0
LINE
  8
_0-2______1
  6
CONTINUOUS
 62
    7
 10
1442.51218430462
 20
506.42189555412415
 11
1444.6823188526878
 21
506.42189555412415
  0
LINE
  8
_0-2______1
  6
CONTINUOUS
 62
    7
 10
1408.1050510666937
 20
505.37183045021902
 11
1407.0549859627899
 21
504.28676317618601
  0
LINE
  8
_0-2______1
  6
CONTINUOUS
 62
    7
 10
1407.0549859627899
 20
504.28676317618601
 11
1405.9699186887556
 21
504.28676317618601
  0
LINE
  8
_0-2______1
  6
CONTINUOUS
 62
    7
 10
1405.9699186887556
 20
504.28676317618601
 11
1404.8848514147207
 21
504.28676317618601
  0
LINE
  8
_0-2______1
  6
CONTINUOUS
 62
    7
 10
1404.8848514147207
 20
504.28676317618601
 11
1403.7997841406868
 21
503.20169590214982
  0
LINE
  8
_0-2______1
  6
CONTINUOUS
 62
    7
 10
1403.7997841406868
 20
503.20169590214982
 11
1402.7497190367817
 21
503.20169590214982
  0
LINE
  8
_0-2______1
  6
CONTINUOUS
 62
    7
 10
1402.7497190367817
 20
503.20169590214982
 11
1402.7497190367817
 21
502.15600606951284
  0
LINE
  8
_0-2______1
  6
CONTINUOUS
 62
    7
 10
1402.7497190367817
 20
502.15600606951284
 11
1401.6646517627478
 21
502.15600606951284
  0
LINE
  8
_0-2______1
  6
CONTINUOUS
 62
    7
 10
1401.6646517627478
 20
502.15600606951284
 11
1400.5795844887139
 21
501.06218825294491
  0
LINE
  8
_0-2______1
  6
CONTINUOUS
 62
    7
 10
1400.5795844887139
 20
501.06218825294491
 11
1399.4945172146799
 21
501.06218825294491
  0
LINE
  8
_0-2______1
  6
CONTINUOUS
 62
    7
 10
1399.4945172146799
 20
501.06218825294491
 11
1399.4945172146799
 21
499.97712097891099
  0
LINE
  8
_0-2______1
  6
CONTINUOUS
 62
    7
 10
1399.4945172146799
 20
499.97712097891099
 11
1397.3593848367409
 21
499.97712097891099
  0
LINE
  8
_0-2______1
  6
CONTINUOUS
 62
    7
 10
1397.3593848367409
 20
499.97712097891099
 11
1396.274317562707
 21
498.89205370487798
  0
LINE
  8
_0-2______1
  6
CONTINUOUS
 62
    7
 10
1396.274317562707
 20
498.89205370487798
 11
1396.274317562707
 21
497.84636387224009
  0
LINE
  8
_0-2______1
  6
CONTINUOUS
 62
    7
 10
1396.274317562707
 20
497.84636387224009
 11
1394.1391851847688
 21
497.84636387224009
  0
LINE
  8
_0-2______1
  6
CONTINUOUS
 62
    7
 10
1394.1391851847688
 20
497.84636387224009
 11
1393.054117910734
 21
496.76129659820481
  0
LINE
  8
_0-2______1
  6
CONTINUOUS
 62
    7
 10
1393.054117910734
 20
490.32089729425979
 11
1395.2242524588028
 21
491.36658712689723
  0
LINE
  8
_0-2______1
  6
CONTINUOUS
 62
    7
 10
1395.2242524588028
 20
491.36658712689723
 11
1396.274317562707
 21
492.46040494346516
  0
LINE
  8
_0-2______1
  6
CONTINUOUS
 62
    7
 10
1396.274317562707
 20
492.46040494346516
 11
1397.3593848367409
 21
492.46040494346516
  0
LINE
  8
_0-2______1
  6
CONTINUOUS
 62
    7
 10
1397.3593848367409
 20
492.46040494346516
 11
1397.3593848367409
 21
493.54547221749817
  0
LINE
  8
_0-2______1
  6
CONTINUOUS
 62
    7
 10
1397.3593848367409
 20
493.54547221749817
 11
1398.4444521107748
 21
493.54547221749817
  0
LINE
  8
_0-2______1
  6
CONTINUOUS
 62
    7
 10
1398.4444521107748
 20
493.54547221749817
 11
1399.4945172146799
 21
494.59116205013606
  0
LINE
  8
_0-2______1
  6
CONTINUOUS
 62
    7
 10
1399.4945172146799
 20
494.59116205013606
 11
1400.5795844887139
 21
495.67622932417089
  0
LINE
  8
_0-2______1
  6
CONTINUOUS
 62
    7
 10
1400.5795844887139
 20
495.67622932417089
 11
1401.6646517627478
 21
496.76129659820481
  0
LINE
  8
_0-2______1
  6
CONTINUOUS
 62
    7
 10
1401.6646517627478
 20
496.76129659820481
 11
1403.7997841406868
 21
496.76129659820481
  0
LINE
  8
_0-2______1
  6
CONTINUOUS
 62
    7
 10
1403.7997841406868
 20
496.76129659820481
 11
1403.7997841406868
 21
497.84636387224009
  0
LINE
  8
_0-2______1
  6
CONTINUOUS
 62
    7
 10
1403.7997841406868
 20
497.84636387224009
 11
1405.9699186887556
 21
497.84636387224009
  0
LINE
  8
_0-2______1
  6
CONTINUOUS
 62
    7
 10
1405.9699186887556
 20
497.84636387224009
 11
1405.9699186887556
 21
498.89205370487798
  0
LINE
  8
_0-2______1
  6
CONTINUOUS
 62
    7
 10
1405.9699186887556
 20
498.89205370487798
 11
1407.0549859627899
 21
499.97712097891099
  0
LINE
  8
_0-2______1
  6
CONTINUOUS
 62
    7
 10
1407.0549859627899
 20
499.97712097891099
 11
1408.1050510666937
 21
499.97712097891099
  0
LINE
  8
_0-2______1
  6
CONTINUOUS
 62
    7
 10
1408.1050510666937
 20
499.97712097891099
 11
1409.1901183407276
 21
501.06218825294491
  0
LINE
  8
_0-2______1
  6
CONTINUOUS
 62
    7
 10
1409.1901183407276
 20
501.06218825294491
 11
1410.275185614762
 21
501.06218825294491
  0
LINE
  8
_0-2______1
  6
CONTINUOUS
 62
    7
 10
1410.275185614762
 20
501.06218825294491
 11
1412.4103179927006
 21
502.15600606951284
  0
LINE
  8
_0-2______1
  6
CONTINUOUS
 62
    7
 10
1412.4103179927006
 20
502.15600606951284
 11
1413.495385266735
 21
503.20169590214982
  0
LINE
  8
_0-2______1
  6
CONTINUOUS
 62
    7
 10
1413.495385266735
 20
503.20169590214982
 11
1414.5804525407698
 21
504.28676317618601
  0
LINE
  8
_0-2______1
  6
CONTINUOUS
 62
    7
 10
1414.5804525407698
 20
504.28676317618601
 11
1415.6305176446726
 21
504.28676317618601
  0
LINE
  8
_0-2______1
  6
CONTINUOUS
 62
    7
 10
1415.6305176446726
 20
504.28676317618601
 11
1417.8006521927418
 21
505.37183045021902
  0
LINE
  8
_0-2______1
  6
CONTINUOUS
 62
    7
 10
1417.8006521927418
 20
505.37183045021902
 11
1418.850717296647
 21
506.42189555412415
  0
LINE
  8
_0-2______1
  6
CONTINUOUS
 62
    7
 10
1418.850717296647
 20
506.42189555412415
 11
1421.0208518447148
 21
506.42189555412415
  0
LINE
  8
_0-2______1
  6
CONTINUOUS
 62
    7
 10
1421.0208518447148
 20
506.42189555412415
 11
1422.1059191187487
 21
507.50696282815716
  0
LINE
  8
_0-2______1
  6
CONTINUOUS
 62
    7
 10
1422.1059191187487
 20
507.50696282815716
 11
1424.2410514966869
 21
507.50696282815716
  0
LINE
  8
_0-2______1
  6
CONTINUOUS
 62
    7
 10
1424.2410514966869
 20
507.50696282815716
 11
1425.3261187707208
 21
508.58765483092611
  0
LINE
  8
_0-2______1
  6
CONTINUOUS
 62
    7
 10
1425.3261187707208
 20
508.58765483092611
 11
1426.3761838746259
 21
508.58765483092611
  0
LINE
  8
_0-2______1
  6
CONTINUOUS
 62
    7
 10
1426.3761838746259
 20
508.58765483092611
 11
1428.5463184226946
 21
509.67272210496003
  0
LINE
  8
_0-2______1
  6
CONTINUOUS
 62
    7
 10
1428.5463184226946
 20
509.67272210496003
 11
1432.851585348702
 21
509.67272210496003
  0
LINE
  8
_0-2______1
  6
CONTINUOUS
 62
    7
 10
1432.851585348702
 20
509.67272210496003
 11
1433.936652622735
 21
510.73153775139599
  0
LINE
  8
_0-2______1
  6
CONTINUOUS
 62
    7
 10
1433.936652622735
 20
510.73153775139599
 11
1444.6823188526878
 21
510.73153775139599
  0
LINE
  8
_0-2______1
  6
CONTINUOUS
 62
    7
 10
1444.6823188526878
 20
510.73153775139599
 11
1445.732383956592
 21
509.67272210496003
  0
LINE
  8
_0-2______1
  6
CONTINUOUS
 62
    7
 10
1445.732383956592
 20
509.67272210496003
 11
1447.9025185046598
 21
509.67272210496003
  0
LINE
  8
_0-2______1
  6
CONTINUOUS
 62
    7
 10
1394.1391851847688
 20
496.76129659820481
 11
1389.833918258762
 21
493.54547221749817
  0
LINE
  8
_0-2______1
  6
CONTINUOUS
 62
    7
 10
1389.833918258762
 20
493.54547221749817
 11
1388.7488509847267
 21
492.46040494346516
  0
LINE
  8
_0-2______1
  6
CONTINUOUS
 62
    7
 10
1388.7488509847267
 20
492.46040494346516
 11
1387.6987858808229
 21
492.46040494346516
  0
LINE
  8
_0-2______1
  6
CONTINUOUS
 62
    7
 10
1387.6987858808229
 20
492.46040494346516
 11
1387.6987858808229
 21
491.36658712689723
  0
LINE
  8
_0-2______1
  6
CONTINUOUS
 62
    7
 10
1395.2242524588028
 20
497.84636387224009
 11
1394.1391851847688
 21
496.76129659820481
  0
LINE
  8
_0-2______1
  6
CONTINUOUS
 62
    7
 10
1396.274317562707
 20
497.84636387224009
 11
1395.2242524588028
 21
497.84636387224009
  0
LINE
  8
_0-2______1
  6
CONTINUOUS
 62
    7
 10
1387.6987858808229
 20
491.36658712689723
 11
1386.613718606789
 21
491.36658712689723
  0
LINE
  8
_0-2______1
  6
CONTINUOUS
 62
    7
 10
1397.3593848367409
 20
497.84636387224009
 11
1396.274317562707
 21
497.84636387224009
  0
LINE
  8
_0-2______1
  6
CONTINUOUS
 62
    7
 10
1397.3593848367409
 20
498.89205370487798
 11
1397.3593848367409
 21
497.84636387224009
  0
LINE
  8
_0-2______1
  6
CONTINUOUS
 62
    7
 10
1386.613718606789
 20
491.36658712689723
 11
1386.613718606789
 21
490.32089729425979
  0
LINE
  8
_0-2______1
  6
CONTINUOUS
 62
    7
 10
1398.4444521107748
 20
499.97712097891099
 11
1397.3593848367409
 21
498.89205370487798
  0
LINE
  8
_0-2______1
  6
CONTINUOUS
 62
    7
 10
1386.613718606789
 20
490.32089729425979
 11
1385.5286513327546
 21
490.32089729425979
  0
LINE
  8
_0-2______1
  6
CONTINUOUS
 62
    7
 10
1399.4945172146799
 20
499.97712097891099
 11
1398.4444521107748
 21
499.97712097891099
  0
LINE
  8
_0-2______1
  6
CONTINUOUS
 62
    7
 10
1385.5286513327546
 20
490.32089729425979
 11
1384.4435840587198
 21
490.32089729425979
  0
LINE
  8
_0-2______1
  6
CONTINUOUS
 62
    7
 10
1400.5795844887139
 20
501.06218825294491
 11
1399.4945172146799
 21
499.97712097891099
  0
LINE
  8
_0-2______1
  6
CONTINUOUS
 62
    7
 10
1384.4435840587198
 20
490.32089729425979
 11
1384.4435840587198
 21
489.23583002022497
  0
LINE
  8
_0-2______1
  6
CONTINUOUS
 62
    7
 10
1386.613718606789
 20
484.93493836548305
 11
1387.6987858808229
 21
486.015630368252
  0
LINE
  8
_0-2______1
  6
CONTINUOUS
 62
    7
 10
1387.6987858808229
 20
486.015630368252
 11
1387.6987858808229
 21
487.06569547215622
  0
LINE
  8
_0-2______1
  6
CONTINUOUS
 62
    7
 10
1387.6987858808229
 20
487.06569547215622
 11
1389.833918258762
 21
487.06569547215622
  0
LINE
  8
_0-2______1
  6
CONTINUOUS
 62
    7
 10
1389.833918258762
 20
487.06569547215622
 11
1389.833918258762
 21
488.15076274619105
  0
LINE
  8
_0-2______1
  6
CONTINUOUS
 62
    7
 10
1389.833918258762
 20
488.15076274619105
 11
1390.9189855327959
 21
488.15076274619105
  0
LINE
  8
_0-2______1
  6
CONTINUOUS
 62
    7
 10
1390.9189855327959
 20
488.15076274619105
 11
1391.9690506366996
 21
489.23583002022497
  0
LINE
  8
_0-2______1
  6
CONTINUOUS
 62
    7
 10
1391.9690506366996
 20
489.23583002022497
 11
1393.054117910734
 21
490.31652202299301
  0
LINE
  8
_0-2______1
  6
CONTINUOUS
 62
    7
 10
1384.4435840587198
 20
489.23583002022497
 11
1383.3935189548156
 21
489.23583002022497
  0
LINE
  8
_0-2______1
  6
CONTINUOUS
 62
    7
 10
1393.054117910734
 20
496.76129659820481
 11
1391.9690506366996
 21
495.67622932417089
  0
LINE
  8
_0-2______1
  6
CONTINUOUS
 62
    7
 10
1391.9690506366996
 20
495.67622932417089
 11
1390.9189855327959
 21
495.67622932417089
  0
LINE
  8
_0-2______1
  6
CONTINUOUS
 62
    7
 10
1390.9189855327959
 20
495.67622932417089
 11
1390.9189855327959
 21
494.59116205013606
  0
LINE
  8
_0-2______1
  6
CONTINUOUS
 62
    7
 10
1390.9189855327959
 20
494.59116205013606
 11
1389.833918258762
 21
494.59116205013606
  0
LINE
  8
_0-2______1
  6
CONTINUOUS
 62
    7
 10
1389.833918258762
 20
494.59116205013606
 11
1388.7488509847267
 21
493.54547221749817
  0
LINE
  8
_0-2______1
  6
CONTINUOUS
 62
    7
 10
1388.7488509847267
 20
493.54547221749817
 11
1387.6987858808229
 21
493.54547221749817
  0
LINE
  8
_0-2______1
  6
CONTINUOUS
 62
    7
 10
1387.6987858808229
 20
493.54547221749817
 11
1386.613718606789
 21
492.46040494346516
  0
LINE
  8
_0-2______1
  6
CONTINUOUS
 62
    7
 10
1386.613718606789
 20
492.46040494346516
 11
1385.5286513327546
 21
491.36658712689723
  0
LINE
  8
_0-2______1
  6
CONTINUOUS
 62
    7
 10
1385.5286513327546
 20
491.36658712689723
 11
1384.4435840587198
 21
491.36658712689723
  0
LINE
  8
_0-2______1
  6
CONTINUOUS
 62
    7
 10
1384.4435840587198
 20
491.36658712689723
 11
1383.3935189548156
 21
491.36658712689723
  0
LINE
  8
_0-2______1
  6
CONTINUOUS
 62
    7
 10
1383.3935189548156
 20
491.36658712689723
 11
1383.3935189548156
 21
490.31652202299301
  0
LINE
  8
_0-2______1
  6
CONTINUOUS
 62
    7
 10
1383.3935189548156
 20
490.31652202299301
 11
1381.2233844067468
 21
490.31652202299301
  0
LINE
  8
_0-2______1
  6
CONTINUOUS
 62
    7
 10
1381.2233844067468
 20
490.31652202299301
 11
1380.1733193028426
 21
489.23583002022497
  0
LINE
  8
_0-2______1
  6
CONTINUOUS
 62
    7
 10
1380.1733193028426
 20
489.23583002022497
 11
1379.0882520288087
 21
489.23583002022497
  0
LINE
  8
_0-2______1
  6
CONTINUOUS
 62
    7
 10
1379.0882520288087
 20
489.23583002022497
 11
1378.0031847547748
 21
488.15076274619105
  0
LINE
  8
_0-2______1
  6
CONTINUOUS
 62
    7
 10
1383.3935189548156
 20
489.23583002022497
 11
1383.3935189548156
 21
488.15076274619105
  0
LINE
  8
_0-2______1
  6
CONTINUOUS
 62
    7
 10
1383.3935189548156
 20
488.15076274619105
 11
1382.3084516807808
 21
488.15076274619105
  0
LINE
  8
_0-2______1
  6
CONTINUOUS
 62
    7
 10
1387.6987858808229
 20
484.93493836548305
 11
1389.833918258762
 21
484.93493836548305
  0
LINE
  8
_0-2______1
  6
CONTINUOUS
 62
    7
 10
1389.833918258762
 20
484.93493836548305
 11
1389.833918258762
 21
486.015630368252
  0
LINE
  8
_0-2______1
  6
CONTINUOUS
 62
    7
 10
1389.833918258762
 20
486.015630368252
 11
1390.9189855327959
 21
486.015630368252
  0
LINE
  8
_0-2______1
  6
CONTINUOUS
 62
    7
 10
1390.9189855327959
 20
486.015630368252
 11
1390.9189855327959
 21
487.06569547215622
  0
LINE
  8
_0-2______1
  6
CONTINUOUS
 62
    7
 10
1390.9189855327959
 20
487.06569547215622
 11
1393.054117910734
 21
487.06569547215622
  0
LINE
  8
_0-2______1
  6
CONTINUOUS
 62
    7
 10
1393.054117910734
 20
487.06569547215622
 11
1393.054117910734
 21
488.15076274619105
  0
LINE
  8
_0-2______1
  6
CONTINUOUS
 62
    7
 10
1393.054117910734
 20
488.15076274619105
 11
1394.1391851847688
 21
488.15076274619105
  0
LINE
  8
_0-2______1
  6
CONTINUOUS
 62
    7
 10
1394.1391851847688
 20
488.15076274619105
 11
1395.2242524588028
 21
489.23583002022497
  0
LINE
  8
_0-2______1
  6
CONTINUOUS
 62
    7
 10
1395.2242524588028
 20
489.23583002022497
 11
1396.274317562707
 21
490.31652202299301
  0
LINE
  8
_0-2______1
  6
CONTINUOUS
 62
    7
 10
1396.274317562707
 20
490.31652202299301
 11
1397.3593848367409
 21
490.31652202299301
  0
LINE
  8
_0-2______1
  6
CONTINUOUS
 62
    7
 10
1397.3593848367409
 20
490.31652202299301
 11
1399.4945172146799
 21
491.36658712689723
  0
LINE
  8
_0-2______1
  6
CONTINUOUS
 62
    7
 10
1399.4945172146799
 20
491.36658712689723
 11
1400.5795844887139
 21
492.46040494346516
  0
LINE
  8
_0-2______1
  6
CONTINUOUS
 62
    7
 10
1400.5795844887139
 20
492.46040494346516
 11
1402.7497190367817
 21
493.54547221749817
  0
LINE
  8
_0-2______1
  6
CONTINUOUS
 62
    7
 10
1402.7497190367817
 20
493.54547221749817
 11
1403.7997841406868
 21
494.59116205013606
  0
LINE
  8
_0-2______1
  6
CONTINUOUS
 62
    7
 10
1403.7997841406868
 20
494.59116205013606
 11
1405.9699186887556
 21
494.59116205013606
  0
LINE
  8
_0-2______1
  6
CONTINUOUS
 62
    7
 10
1405.9699186887556
 20
494.59116205013606
 11
1405.9699186887556
 21
495.67622932417089
  0
LINE
  8
_0-2______1
  6
CONTINUOUS
 62
    7
 10
1405.9699186887556
 20
495.67622932417089
 11
1407.0549859627899
 21
496.76129659820481
  0
LINE
  8
_0-2______1
  6
CONTINUOUS
 62
    7
 10
1407.0549859627899
 20
496.76129659820481
 11
1409.1901183407276
 21
496.76129659820481
  0
LINE
  8
_0-2______1
  6
CONTINUOUS
 62
    7
 10
1409.1901183407276
 20
496.76129659820481
 11
1410.275185614762
 21
497.84636387224009
  0
LINE
  8
_0-2______1
  6
CONTINUOUS
 62
    7
 10
1410.275185614762
 20
497.84636387224009
 11
1411.3252507186658
 21
497.84636387224009
  0
LINE
  8
_0-2______1
  6
CONTINUOUS
 62
    7
 10
1411.3252507186658
 20
497.84636387224009
 11
1412.4103179927006
 21
498.89205370487798
  0
LINE
  8
_0-2______1
  6
CONTINUOUS
 62
    7
 10
1412.4103179927006
 20
498.89205370487798
 11
1414.5804525407698
 21
499.97712097891099
  0
LINE
  8
_0-2______1
  6
CONTINUOUS
 62
    7
 10
1414.5804525407698
 20
499.97712097891099
 11
1415.6305176446726
 21
499.97712097891099
  0
LINE
  8
_0-2______1
  6
CONTINUOUS
 62
    7
 10
1415.6305176446726
 20
499.97712097891099
 11
1416.7155849187079
 21
501.06218825294491
  0
LINE
  8
_0-2______1
  6
CONTINUOUS
 62
    7
 10
1416.7155849187079
 20
501.06218825294491
 11
1419.9357845706809
 21
501.06218825294491
  0
LINE
  8
_0-2______1
  6
CONTINUOUS
 62
    7
 10
1419.9357845706809
 20
501.06218825294491
 11
1422.1059191187487
 21
502.15600606951284
  0
LINE
  8
_0-2______1
  6
CONTINUOUS
 62
    7
 10
1422.1059191187487
 20
502.15600606951284
 11
1423.1559842226529
 21
503.20169590214982
  0
LINE
  8
_0-2______1
  6
CONTINUOUS
 62
    7
 10
1423.1559842226529
 20
503.20169590214982
 11
1429.631385696729
 21
503.20169590214982
  0
LINE
  8
_0-2______1
  6
CONTINUOUS
 62
    7
 10
1429.631385696729
 20
503.20169590214982
 11
1430.6814508006328
 21
504.28676317618601
  0
LINE
  8
_0-2______1
  6
CONTINUOUS
 62
    7
 10
1430.6814508006328
 20
504.28676317618601
 11
1434.9867177266397
 21
504.28676317618601
  0
LINE
  8
_0-2______1
  6
CONTINUOUS
 62
    7
 10
1434.9867177266397
 20
504.28676317618601
 11
1436.0717850006736
 21
503.20169590214982
  0
LINE
  8
_0-2______1
  6
CONTINUOUS
 62
    7
 10
1436.0717850006736
 20
503.20169590214982
 11
1438.2069173786117
 21
503.20169590214982
  0
LINE
  8
_0-2______1
  6
CONTINUOUS
 62
    7
 10
1438.2069173786117
 20
503.20169590214982
 11
1440.3770519266809
 21
503.20169590214982
  0
LINE
  8
_0-2______1
  6
CONTINUOUS
 62
    7
 10
1382.3084516807808
 20
488.15076274619105
 11
1381.2233844067468
 21
488.15076274619105
  0
LINE
  8
_0-2______1
  6
CONTINUOUS
 62
    7
 10
1381.2233844067468
 20
488.15076274619105
 11
1381.2233844067468
 21
487.06569547215622
  0
LINE
  8
_0-2______1
  6
CONTINUOUS
 62
    7
 10
1381.2233844067468
 20
487.06569547215622
 11
1380.1733193028426
 21
487.06569547215622
  0
LINE
  8
_0-2______1
  6
CONTINUOUS
 62
    7
 10
1410.275185614762
 20
522.55789598411593
 11
1196.2719174390959
 21
337.60205374520001
  0
LINE
  8
_0-2______1
  6
CONTINUOUS
 62
    7
 10
1375.8680523768357
 20
458.05327170553801
 11
1375.8680523768357
 21
456.96820443150409
  0
LINE
  8
_0-2______1
  6
CONTINUOUS
 62
    7
 10
1376.91811748074
 20
456.96820443150409
 11
1376.91811748074
 21
442.997963278312
  0
LINE
  8
_0-2______1
  6
CONTINUOUS
 62
    7
 10
1383.3935189548156
 20
456.96820443150409
 11
1383.3935189548156
 21
442.997963278312
  0
LINE
  8
_0-2______1
  6
CONTINUOUS
 62
    7
 10
1383.3935189548156
 20
458.05327170553801
 11
1383.3935189548156
 21
456.96820443150409
  0
LINE
  8
_0-2______1
  6
CONTINUOUS
 62
    7
 10
1385.5286513327546
 20
441.91289600427717
 11
1385.5286513327546
 21
447.29885493305392
  0
LINE
  8
_0-2______1
  6
CONTINUOUS
 62
    7
 10
1390.9189855327959
 20
470.96469721229414
 11
1390.9189855327959
 21
469.87962993825795
  0
LINE
  8
_0-2______1
  6
CONTINUOUS
 62
    7
 10
1391.9690506366996
 20
469.87962993825795
 11
1391.9690506366996
 21
455.90938878506722
  0
LINE
  8
_0-2______1
  6
CONTINUOUS
 62
    7
 10
1398.4444521107748
 20
469.87962993825795
 11
1398.4444521107748
 21
455.90938878506722
  0
LINE
  8
_0-2______1
  6
CONTINUOUS
 62
    7
 10
1385.5286513327546
 20
447.29885493305392
 11
1394.1391851847688
 21
454.82432151103285
  0
LINE
  8
_0-2______1
  6
CONTINUOUS
 62
    7
 10
1398.4444521107748
 20
458.05327170553801
 11
1416.7155849187079
 21
474.18052159299896
  0
LINE
  8
_0-2______1
  6
CONTINUOUS
 62
    7
 10
1387.6987858808229
 20
440.82782873024416
 11
1415.6305176446726
 21
465.57873828351785
  0
LINE
  8
_0-2______1
  6
CONTINUOUS
 62
    7
 10
1417.8006521927418
 20
465.57873828351785
 11
1389.833918258762
 21
439.78213889760491
  0
LINE
  8
_0-2______1
  6
CONTINUOUS
 62
    7
 10
1410.275185614762
 20
681.71713883712209
 11
1410.275185614762
 21
662.35218821262197
  0
LINE
  8
_0-2______1
  6
CONTINUOUS
 62
    7
 10
1410.275185614762
 20
523.64296325815121
 11
1410.275185614762
 21
660.18205366455504
  0
LINE
  8
_0-2______1
  6
CONTINUOUS
 62
    7
 10
1416.7155849187079
 20
474.18052159299896
 11
1416.7155849187079
 21
469.87962993825795
  0
LINE
  8
_0-2______1
  6
CONTINUOUS
 62
    7
 10
1418.850717296647
 20
468.79456266422494
 11
1418.850717296647
 21
474.18052159299896
  0
LINE
  8
_0-2______1
  6
CONTINUOUS
 62
    7
 10
853.28565233387098
 20
822.55712089826602
 11
853.28565233387098
 21
823.64218817229994
  0
LINE
  8
_0-2______1
  6
CONTINUOUS
 62
    7
 10
735.01331946413302
 20
507.50696282815716
 11
735.01331946413302
 21
506.42189555412415
  0
LINE
  8
_0-2______1
  6
CONTINUOUS
 62
    7
 10
1194.1367850611578
 20
337.60205374520001
 11
1195.2218523351917
 21
337.60205374520001
  0
LINE
  8
_0-2______1
  6
CONTINUOUS
 62
    7
 10
637.14725178026674
 20
499.97712097891099
 11
637.14725178026674
 21
498.89205370487798
  0
LINE
  8
_0-2______1
  6
CONTINUOUS
 62
    7
 10
637.14725178026674
 20
498.89205370487798
 11
637.14725178026674
 21
497.84636387224009
  0
LINE
  8
_0-2______1
  6
CONTINUOUS
 62
    7
 10
637.14725178026674
 20
497.84636387224009
 11
638.23231905429975
 21
497.84636387224009
  0
LINE
  8
_0-2______1
  6
CONTINUOUS
 62
    7
 10
1410.275185614762
 20
660.18205366455504
 11
1410.275185614762
 21
661.26712093858896
  0
LINE
  8
_0-2______1
  6
CONTINUOUS
 62
    7
 10
1410.275185614762
 20
661.26712093858896
 11
1410.275185614762
 21
662.35218821262197
  0
LINE
  8
_0-2______1
  6
CONTINUOUS
 62
    7
 10
1410.275185614762
 20
662.35218821262197
 11
1409.1901183407276
 21
662.35218821262197
  0
LINE
  8
_0-2______1
  6
CONTINUOUS
 62
    7
 10
1410.275185614762
 20
681.71713883712209
 11
1409.1901183407276
 21
681.71713883712209
  0
LINE
  8
_0-2______1
  6
CONTINUOUS
 62
    7
 10
1409.1901183407276
 20
681.71713883712209
 11
1409.1901183407276
 21
682.76282866975998
  0
LINE
  8
_0-2______1
  6
CONTINUOUS
 62
    7
 10
1382.3084516807808
 20
441.91289600427717
 11
1383.3935189548156
 21
441.91289600427717
  0
LINE
  8
_0-2______1
  6
CONTINUOUS
 62
    7
 10
1383.3935189548156
 20
441.91289600427717
 11
1383.3935189548156
 21
442.997963278312
  0
LINE
  8
_0-2______1
  6
CONTINUOUS
 62
    7
 10
1376.91811748074
 20
442.997963278312
 11
1376.91811748074
 21
441.91289600427717
  0
LINE
  8
_0-2______1
  6
CONTINUOUS
 62
    7
 10
1376.91811748074
 20
441.91289600427717
 11
1378.0031847547748
 21
441.91289600427717
  0
LINE
  8
_0-2______1
  6
CONTINUOUS
 62
    7
 10
1378.0031847547748
 20
441.91289600427717
 11
1379.0882520288087
 21
441.91289600427717
  0
LINE
  8
_0-2______1
  6
CONTINUOUS
 62
    7
 10
1379.0882520288087
 20
441.91289600427717
 11
1380.1733193028426
 21
441.91289600427717
  0
LINE
  8
_0-2______1
  6
CONTINUOUS
 62
    7
 10
1380.1733193028426
 20
441.91289600427717
 11
1381.2233844067468
 21
441.91289600427717
  0
LINE
  8
_0-2______1
  6
CONTINUOUS
 62
    7
 10
1381.2233844067468
 20
441.91289600427717
 11
1382.3084516807808
 21
441.91289600427717
  0
LINE
  8
_0-2______1
  6
CONTINUOUS
 62
    7
 10
1383.3935189548156
 20
442.997963278312
 11
1382.3084516807808
 21
442.997963278312
  0
LINE
  8
_0-2______1
  6
CONTINUOUS
 62
    7
 10
1382.3084516807808
 20
442.997963278312
 11
1382.3084516807808
 21
444.08303055234592
  0
LINE
  8
_0-2______1
  6
CONTINUOUS
 62
    7
 10
1382.3084516807808
 20
444.08303055234592
 11
1381.2233844067468
 21
444.08303055234592
  0
LINE
  8
_0-2______1
  6
CONTINUOUS
 62
    7
 10
1381.2233844067468
 20
444.08303055234592
 11
1380.1733193028426
 21
444.08303055234592
  0
LINE
  8
_0-2______1
  6
CONTINUOUS
 62
    7
 10
1380.1733193028426
 20
444.08303055234592
 11
1379.0882520288087
 21
444.08303055234592
  0
LINE
  8
_0-2______1
  6
CONTINUOUS
 62
    7
 10
1379.0882520288087
 20
444.08303055234592
 11
1378.0031847547748
 21
444.08303055234592
  0
LINE
  8
_0-2______1
  6
CONTINUOUS
 62
    7
 10
1378.0031847547748
 20
444.08303055234592
 11
1376.91811748074
 21
442.997963278312
  0
LINE
  8
_0-2______1
  6
CONTINUOUS
 62
    7
 10
1397.3593848367409
 20
454.82432151103285
 11
1397.3593848367409
 21
455.90938878506722
  0
LINE
  8
_0-2______1
  6
CONTINUOUS
 62
    7
 10
1397.3593848367409
 20
455.90938878506722
 11
1398.4444521107748
 21
455.90938878506722
  0
LINE
  8
_0-2______1
  6
CONTINUOUS
 62
    7
 10
1391.9690506366996
 20
455.90938878506722
 11
1393.054117910734
 21
455.90938878506722
  0
LINE
  8
_0-2______1
  6
CONTINUOUS
 62
    7
 10
1393.054117910734
 20
455.90938878506722
 11
1393.054117910734
 21
454.82432151103285
  0
LINE
  8
_0-2______1
  6
CONTINUOUS
 62
    7
 10
1393.054117910734
 20
454.82432151103285
 11
1394.1304346422357
 21
454.82432151103285
  0
LINE
  8
_0-2______1
  6
CONTINUOUS
 62
    7
 10
1394.1304346422357
 20
454.82432151103285
 11
1395.2242524588028
 21
454.82432151103285
  0
LINE
  8
_0-2______1
  6
CONTINUOUS
 62
    7
 10
1395.2242524588028
 20
454.82432151103285
 11
1396.274317562707
 21
454.82432151103285
  0
LINE
  8
_0-2______1
  6
CONTINUOUS
 62
    7
 10
1396.274317562707
 20
454.82432151103285
 11
1397.3593848367409
 21
454.82432151103285
  0
LINE
  8
_0-2______1
  6
CONTINUOUS
 62
    7
 10
1393.054117910734
 20
456.96820443150409
 11
1393.054117910734
 21
455.90938878506722
  0
LINE
  8
_0-2______1
  6
CONTINUOUS
 62
    7
 10
1393.054117910734
 20
455.90938878506722
 11
1391.9690506366996
 21
455.90938878506722
  0
LINE
  8
_0-2______1
  6
CONTINUOUS
 62
    7
 10
1398.4444521107748
 20
455.90938878506722
 11
1397.3593848367409
 21
456.96820443150409
  0
LINE
  8
_0-2______1
  6
CONTINUOUS
 62
    7
 10
1397.3593848367409
 20
456.96820443150409
 11
1397.3593848367409
 21
458.04889643427123
  0
LINE
  8
_0-2______1
  6
CONTINUOUS
 62
    7
 10
1397.3593848367409
 20
458.04889643427123
 11
1396.274317562707
 21
458.04889643427123
  0
LINE
  8
_0-2______1
  6
CONTINUOUS
 62
    7
 10
1396.274317562707
 20
458.04889643427123
 11
1395.2242524588028
 21
458.04889643427123
  0
LINE
  8
_0-2______1
  6
CONTINUOUS
 62
    7
 10
1395.2242524588028
 20
458.04889643427123
 11
1394.1391851847688
 21
458.04889643427123
  0
LINE
  8
_0-2______1
  6
CONTINUOUS
 62
    7
 10
1394.1391851847688
 20
458.04889643427123
 11
1393.054117910734
 21
458.04889643427123
  0
LINE
  8
_0-2______1
  6
CONTINUOUS
 62
    7
 10
1393.054117910734
 20
458.04889643427123
 11
1393.054117910734
 21
456.96820443150409
  0
LINE
  8
_0-2______1
  6
CONTINUOUS
 62
    7
 10
1395.2242524588028
 20
482.79105544501408
 11
1396.274317562707
 21
482.79105544501408
  0
LINE
  8
_0-2______1
  6
CONTINUOUS
 62
    7
 10
1396.274317562707
 20
482.79105544501408
 11
1397.3593848367409
 21
482.79105544501408
  0
LINE
  8
_0-2______1
  6
CONTINUOUS
 62
    7
 10
1397.3593848367409
 20
482.79105544501408
 11
1399.4945172146799
 21
482.79105544501408
  0
LINE
  8
_0-2______1
  6
CONTINUOUS
 62
    7
 10
1399.4945172146799
 20
482.79105544501408
 11
1399.4945172146799
 21
481.70598817097789
  0
LINE
  8
_0-2______1
  6
CONTINUOUS
 62
    7
 10
1399.4945172146799
 20
481.70598817097789
 11
1400.5795844887139
 21
481.70598817097789
  0
LINE
  8
_0-2______1
  6
CONTINUOUS
 62
    7
 10
1400.5795844887139
 20
481.70598817097789
 11
1401.6646517627478
 21
481.70598817097789
  0
LINE
  8
_0-2______1
  6
CONTINUOUS
 62
    7
 10
1401.6646517627478
 20
481.70598817097789
 11
1402.7497190367817
 21
481.70598817097789
  0
LINE
  8
_0-2______1
  6
CONTINUOUS
 62
    7
 10
1402.7497190367817
 20
481.70598817097789
 11
1402.7497190367817
 21
480.62529616821121
  0
LINE
  8
_0-2______1
  6
CONTINUOUS
 62
    7
 10
1402.7497190367817
 20
480.62529616821121
 11
1403.7997841406868
 21
480.62529616821121
  0
LINE
  8
_0-2______1
  6
CONTINUOUS
 62
    7
 10
1403.7997841406868
 20
480.62529616821121
 11
1404.8848514147207
 21
480.62529616821121
  0
LINE
  8
_0-2______1
  6
CONTINUOUS
 62
    7
 10
1378.0031847547748
 20
488.15076274619105
 11
1378.0031847547748
 21
490.31652202299301
  0
LINE
  8
_0-2______1
  6
CONTINUOUS
 62
    7
 10
1378.0031847547748
 20
490.31652202299301
 11
1376.91811748074
 21
490.31652202299301
  0
LINE
  8
_0-2______1
  6
CONTINUOUS
 62
    7
 10
1376.91811748074
 20
490.31652202299301
 11
1376.91811748074
 21
491.36658712689723
  0
LINE
  8
_0-2______1
  6
CONTINUOUS
 62
    7
 10
1502.7509190985879
 20
497.84636387224009
 11
1502.7509190985879
 21
496.76129659820481
  0
LINE
  8
_0-2______1
  6
CONTINUOUS
 62
    7
 10
1475.869252438642
 20
506.42189555412415
 11
1475.869252438642
 21
504.28676317618601
  0
LINE
  8
_0-2______1
  6
CONTINUOUS
 62
    7
 10
1468.3437858606608
 20
498.89205370487798
 11
1469.393850964565
 21
498.89205370487798
  0
LINE
  8
_0-2______1
  6
CONTINUOUS
 62
    7
 10
1469.393850964565
 20
498.89205370487798
 11
1469.393850964565
 21
497.84636387224009
  0
LINE
  8
_0-2______1
  6
CONTINUOUS
 62
    7
 10
1472.6140506165389
 20
502.15600606951284
 11
1472.6140506165389
 21
501.06218825294491
  0
LINE
  8
_0-2______1
  6
CONTINUOUS
 62
    7
 10
1472.6140506165389
 20
501.06218825294491
 11
1472.6140506165389
 21
499.97712097891099
  0
LINE
  8
_0-2______1
  6
CONTINUOUS
 62
    7
 10
1472.6140506165389
 20
499.97712097891099
 11
1471.5639855126346
 21
498.89205370487798
  0
LINE
  8
_0-2______1
  6
CONTINUOUS
 62
    7
 10
1471.5639855126346
 20
498.89205370487798
 11
1471.5639855126346
 21
497.84636387224009
  0
LINE
  8
_0-2______1
  6
CONTINUOUS
 62
    7
 10
1469.393850964565
 20
497.84636387224009
 11
1468.3437858606608
 21
497.84636387224009
  0
LINE
  8
_0-2______1
  6
CONTINUOUS
 62
    7
 10
1468.3437858606608
 20
497.84636387224009
 11
1468.3437858606608
 21
494.59116205013606
  0
LINE
  8
_0-2______1
  6
CONTINUOUS
 62
    7
 10
1468.3437858606608
 20
494.59116205013606
 11
1467.2587185866278
 21
494.59116205013606
  0
LINE
  8
_0-2______1
  6
CONTINUOUS
 62
    7
 10
1475.869252438642
 20
504.28676317618601
 11
1475.869252438642
 21
502.15600606951284
  0
LINE
  8
_0-2______1
  6
CONTINUOUS
 62
    7
 10
1475.869252438642
 20
502.15600606951284
 11
1474.7841851646067
 21
502.15600606951284
  0
LINE
  8
_0-2______1
  6
CONTINUOUS
 62
    7
 10
1474.7841851646067
 20
502.15600606951284
 11
1474.7841851646067
 21
501.06218825294491
  0
LINE
  8
_0-2______1
  6
CONTINUOUS
 62
    7
 10
1495.2254525206076
 20
490.32089729425979
 11
1495.2254525206076
 21
489.23583002022497
  0
LINE
  8
_0-2______1
  6
CONTINUOUS
 62
    7
 10
1495.2254525206076
 20
489.23583002022497
 11
1494.1403852465737
 21
489.23583002022497
  0
LINE
  8
_0-2______1
  6
CONTINUOUS
 62
    7
 10
1494.1403852465737
 20
489.23583002022497
 11
1494.1403852465737
 21
488.15076274619105
  0
LINE
  8
_0-2______1
  6
CONTINUOUS
 62
    7
 10
1498.4456521725806
 20
493.54547221749817
 11
1498.4456521725806
 21
491.36658712689723
  0
LINE
  8
_0-2______1
  6
CONTINUOUS
 62
    7
 10
1502.7509190985879
 20
496.76129659820481
 11
1502.7509190985879
 21
495.67622932417089
  0
LINE
  8
_0-2______1
  6
CONTINUOUS
 62
    7
 10
1502.7509190985879
 20
495.67622932417089
 11
1501.665851824554
 21
495.67622932417089
  0
LINE
  8
_0-2______1
  6
CONTINUOUS
 62
    7
 10
1501.665851824554
 20
495.67622932417089
 11
1501.665851824554
 21
494.59116205013606
  0
LINE
  8
_0-2______1
  6
CONTINUOUS
 62
    7
 10
1450.0376508825998
 20
512.89729702819795
 11
1450.0376508825998
 21
510.73153775139599
  0
LINE
  8
_0-2______1
  6
CONTINUOUS
 62
    7
 10
1450.0376508825998
 20
510.73153775139599
 11
1448.9875857786947
 21
510.73153775139599
  0
LINE
  8
_0-2______1
  6
CONTINUOUS
 62
    7
 10
1448.9875857786947
 20
510.73153775139599
 11
1448.9875857786947
 21
509.67272210496003
  0
LINE
  8
_0-2______1
  6
CONTINUOUS
 62
    7
 10
1448.9875857786947
 20
509.67272210496003
 11
1447.9025185046598
 21
509.67272210496003
  0
LINE
  8
_0-2______1
  6
CONTINUOUS
 62
    7
 10
1448.9875857786947
 20
513.94736213210308
 11
1450.0376508825998
 21
513.94736213210308
  0
LINE
  8
_0-2______1
  6
CONTINUOUS
 62
    7
 10
1450.0376508825998
 20
513.94736213210308
 11
1450.0376508825998
 21
512.89729702819795
  0
LINE
  8
_0-2______1
  6
CONTINUOUS
 62
    7
 10
1445.732383956592
 20
509.67272210496003
 11
1445.732383956592
 21
506.42189555412415
  0
LINE
  8
_0-2______1
  6
CONTINUOUS
 62
    7
 10
1445.732383956592
 20
506.42189555412415
 11
1444.6823188526878
 21
506.42189555412415
  0
LINE
  8
_0-2______1
  6
CONTINUOUS
 62
    7
 10
1442.51218430462
 20
506.42189555412415
 11
1442.51218430462
 21
504.28676317618601
  0
LINE
  8
_0-2______1
  6
CONTINUOUS
 62
    7
 10
1442.51218430462
 20
504.28676317618601
 11
1441.4621192007148
 21
504.28676317618601
  0
LINE
  8
_0-2______1
  6
CONTINUOUS
 62
    7
 10
1441.4621192007148
 20
504.28676317618601
 11
1441.4621192007148
 21
503.20169590214982
  0
LINE
  8
_0-2______1
  6
CONTINUOUS
 62
    7
 10
1441.4621192007148
 20
503.20169590214982
 11
1440.3770519266809
 21
503.20169590214982
  0
LINE
  8
_0-2______1
  6
CONTINUOUS
 62
    7
 10
1390.9189855327959
 20
469.87962993825795
 11
1390.9189855327959
 21
468.79456266422494
  0
LINE
  8
_0-2______1
  6
CONTINUOUS
 62
    7
 10
1390.9189855327959
 20
468.79456266422494
 11
1391.9690506366996
 21
468.79456266422494
  0
LINE
  8
_0-2______1
  6
CONTINUOUS
 62
    7
 10
1391.9690506366996
 20
469.87962993825795
 11
1391.9690506366996
 21
470.96469721229414
  0
LINE
  8
_0-2______1
  6
CONTINUOUS
 62
    7
 10
1391.9690506366996
 20
470.96469721229414
 11
1393.054117910734
 21
470.96469721229414
  0
LINE
  8
_0-2______1
  6
CONTINUOUS
 62
    7
 10
1418.850717296647
 20
474.18052159299896
 11
1418.850717296647
 21
475.27433940956598
  0
LINE
  8
_0-2______1
  6
CONTINUOUS
 62
    7
 10
1418.850717296647
 20
475.27433940956598
 11
1417.8006521927418
 21
476.32002924220387
  0
LINE
  8
_0-2______1
  6
CONTINUOUS
 62
    7
 10
1417.8006521927418
 20
476.32002924220387
 11
1416.7155849187079
 21
476.32002924220387
  0
LINE
  8
_0-2______1
  6
CONTINUOUS
 62
    7
 10
1385.5286513327546
 20
441.91289600427717
 11
1386.613718606789
 21
441.91289600427717
  0
LINE
  8
_0-2______1
  6
CONTINUOUS
 62
    7
 10
1386.613718606789
 20
441.91289600427717
 11
1386.613718606789
 21
440.82782873024416
  0
LINE
  8
_0-2______1
  6
CONTINUOUS
 62
    7
 10
1418.850717296647
 20
468.79456266422494
 11
1418.850717296647
 21
465.57873828351785
  0
LINE
  8
_0-2______1
  6
CONTINUOUS
 62
    7
 10
1418.850717296647
 20
465.57873828351785
 11
1417.8006521927418
 21
465.57873828351785
  0
LINE
  8
_0-2______1
  6
CONTINUOUS
 62
    7
 10
1389.833918258762
 20
439.78213889760491
 11
1388.7488509847267
 21
439.78213889760491
  0
LINE
  8
_0-2______1
  6
CONTINUOUS
 62
    7
 10
1375.8680523768357
 20
456.96820443150409
 11
1375.8680523768357
 21
455.90938878506722
  0
LINE
  8
_0-2______1
  6
CONTINUOUS
 62
    7
 10
1375.8680523768357
 20
455.90938878506722
 11
1376.91811748074
 21
455.90938878506722
  0
LINE
  8
_0-2______1
  6
CONTINUOUS
 62
    7
 10
1376.91811748074
 20
456.96820443150409
 11
1376.91811748074
 21
458.05327170553801
  0
LINE
  8
_0-2______1
  6
CONTINUOUS
 62
    7
 10
1376.91811748074
 20
458.05327170553801
 11
1378.0031847547748
 21
458.05327170553801
  0
LINE
  8
_0-2______1
  6
CONTINUOUS
 62
    7
 10
1378.0031847547748
 20
458.05327170553801
 11
1379.0882520288087
 21
458.05327170553801
  0
LINE
  8
_0-2______1
  6
CONTINUOUS
 62
    7
 10
1379.0882520288087
 20
458.05327170553801
 11
1380.1733193028426
 21
458.05327170553801
  0
LINE
  8
_0-2______1
  6
CONTINUOUS
 62
    7
 10
1380.1733193028426
 20
458.05327170553801
 11
1381.2233844067468
 21
458.05327170553801
  0
LINE
  8
_0-2______1
  6
CONTINUOUS
 62
    7
 10
1381.2233844067468
 20
458.05327170553801
 11
1382.3084516807808
 21
458.05327170553801
  0
LINE
  8
_0-2______1
  6
CONTINUOUS
 62
    7
 10
1382.3084516807808
 20
458.05327170553801
 11
1383.3935189548156
 21
458.05327170553801
  0
LINE
  8
_0-2______1
  6
CONTINUOUS
 62
    7
 10
1383.3935189548156
 20
458.05327170553801
 11
1383.3935189548156
 21
456.96820443150409
  0
LINE
  8
_0-2______1
  6
CONTINUOUS
 62
    7
 10
1383.3935189548156
 20
455.90938878506722
 11
1383.3935189548156
 21
456.96820443150409
  0
LINE
  8
_0-2______1
  6
CONTINUOUS
 62
    7
 10
1393.054117910734
 20
470.96469721229414
 11
1394.1391851847688
 21
470.96469721229414
  0
LINE
  8
_0-2______1
  6
CONTINUOUS
 62
    7
 10
1394.1391851847688
 20
470.96469721229414
 11
1394.1391851847688
 21
472.01038704493021
  0
LINE
  8
_0-2______1
  6
CONTINUOUS
 62
    7
 10
1394.1391851847688
 20
472.01038704493021
 11
1395.2242524588028
 21
472.01038704493021
  0
LINE
  8
_0-2______1
  6
CONTINUOUS
 62
    7
 10
1395.2242524588028
 20
472.01038704493021
 11
1396.274317562707
 21
472.01038704493021
  0
LINE
  8
_0-2______1
  6
CONTINUOUS
 62
    7
 10
1396.274317562707
 20
472.01038704493021
 11
1396.274317562707
 21
470.96469721229414
  0
LINE
  8
_0-2______1
  6
CONTINUOUS
 62
    7
 10
1396.274317562707
 20
470.96469721229414
 11
1397.3593848367409
 21
470.96469721229414
  0
LINE
  8
_0-2______1
  6
CONTINUOUS
 62
    7
 10
1397.3593848367409
 20
470.96469721229414
 11
1398.4444521107748
 21
470.96469721229414
  0
LINE
  8
_0-2______1
  6
CONTINUOUS
 62
    7
 10
1398.4444521107748
 20
470.96469721229414
 11
1398.4444521107748
 21
469.87962993825795
  0
LINE
  8
_0-2______1
  6
CONTINUOUS
 62
    7
 10
1398.4444521107748
 20
468.79456266422494
 11
1399.4945172146799
 21
468.79456266422494
  0
LINE
  8
_0-2______1
  6
CONTINUOUS
 62
    7
 10
1399.4945172146799
 20
468.79456266422494
 11
1399.4945172146799
 21
469.87962993825795
  0
LINE
  8
_0-2______1
  6
CONTINUOUS
 62
    7
 10
1375.8680523768357
 20
456.96820443150409
 11
1374.7829851028018
 21
458.05327170553801
  0
LINE
  8
_0-2______1
  6
CONTINUOUS
 62
    7
 10
1374.7829851028018
 20
458.05327170553801
 11
1374.7829851028018
 21
459.13396370830606
  0
LINE
  8
_0-2______1
  6
CONTINUOUS
 62
    7
 10
1374.7829851028018
 20
459.13396370830606
 11
1375.8680523768357
 21
459.13396370830606
  0
LINE
  8
_0-2______1
  6
CONTINUOUS
 62
    7
 10
1375.8680523768357
 20
459.13396370830606
 11
1376.91811748074
 21
459.13396370830606
  0
LINE
  8
_0-2______1
  6
CONTINUOUS
 62
    7
 10
1376.91811748074
 20
459.13396370830606
 11
1376.91811748074
 21
460.18402881220982
  0
LINE
  8
_0-2______1
  6
CONTINUOUS
 62
    7
 10
1376.91811748074
 20
460.18402881220982
 11
1378.0031847547748
 21
460.18402881220982
  0
LINE
  8
_0-2______1
  6
CONTINUOUS
 62
    7
 10
1378.0031847547748
 20
460.18402881220982
 11
1379.0882520288087
 21
460.18402881220982
  0
LINE
  8
_0-2______1
  6
CONTINUOUS
 62
    7
 10
1379.0882520288087
 20
460.18402881220982
 11
1380.1733193028426
 21
460.18402881220982
  0
LINE
  8
_0-2______1
  6
CONTINUOUS
 62
    7
 10
1380.1733193028426
 20
460.18402881220982
 11
1381.2233844067468
 21
460.18402881220982
  0
LINE
  8
_0-2______1
  6
CONTINUOUS
 62
    7
 10
1381.2233844067468
 20
460.18402881220982
 11
1382.3084516807808
 21
460.18402881220982
  0
LINE
  8
_0-2______1
  6
CONTINUOUS
 62
    7
 10
1382.3084516807808
 20
460.18402881220982
 11
1383.3935189548156
 21
460.18402881220982
  0
LINE
  8
_0-2______1
  6
CONTINUOUS
 62
    7
 10
1383.3935189548156
 20
459.13396370830606
 11
1384.4435840587198
 21
459.13396370830606
  0
LINE
  8
_0-2______1
  6
CONTINUOUS
 62
    7
 10
1384.4435840587198
 20
459.13396370830606
 11
1384.4435840587198
 21
456.96820443150409
  0
LINE
  8
_0-2______1
  6
CONTINUOUS
 62
    7
 10
1384.4435840587198
 20
456.96820443150409
 11
1383.3935189548156
 21
456.96820443150409
  0
LINE
  8
_0-2______1
  6
CONTINUOUS
 62
    7
 10
1390.9189855327959
 20
469.87962993825795
 11
1390.9189855327959
 21
470.96469721229414
  0
LINE
  8
_0-2______1
  6
CONTINUOUS
 62
    7
 10
1390.9189855327959
 20
470.96469721229414
 11
1390.9189855327959
 21
472.01038704493021
  0
LINE
  8
_0-2______1
  6
CONTINUOUS
 62
    7
 10
1390.9189855327959
 20
472.01038704493021
 11
1390.9189855327959
 21
473.09545431896504
  0
LINE
  8
_0-2______1
  6
CONTINUOUS
 62
    7
 10
1390.9189855327959
 20
473.09545431896504
 11
1391.9690506366996
 21
473.09545431896504
  0
LINE
  8
_0-2______1
  6
CONTINUOUS
 62
    7
 10
1391.9690506366996
 20
473.09545431896504
 11
1393.054117910734
 21
473.09545431896504
  0
LINE
  8
_0-2______1
  6
CONTINUOUS
 62
    7
 10
1393.054117910734
 20
473.09545431896504
 11
1393.054117910734
 21
474.18052159299896
  0
LINE
  8
_0-2______1
  6
CONTINUOUS
 62
    7
 10
1393.054117910734
 20
474.18052159299896
 11
1394.1304346422357
 21
474.18052159299896
  0
LINE
  8
_0-2______1
  6
CONTINUOUS
 62
    7
 10
1394.1304346422357
 20
474.18052159299896
 11
1395.2242524588028
 21
474.18052159299896
  0
LINE
  8
_0-2______1
  6
CONTINUOUS
 62
    7
 10
1395.2242524588028
 20
474.18052159299896
 11
1396.274317562707
 21
474.18052159299896
  0
LINE
  8
_0-2______1
  6
CONTINUOUS
 62
    7
 10
1396.274317562707
 20
474.18052159299896
 11
1397.3593848367409
 21
474.18052159299896
  0
LINE
  8
_0-2______1
  6
CONTINUOUS
 62
    7
 10
1397.3593848367409
 20
474.18052159299896
 11
1397.3593848367409
 21
473.09545431896504
  0
LINE
  8
_0-2______1
  6
CONTINUOUS
 62
    7
 10
1398.4444521107748
 20
473.09545431896504
 11
1399.4945172146799
 21
473.09545431896504
  0
LINE
  8
_0-2______1
  6
CONTINUOUS
 62
    7
 10
1399.4945172146799
 20
473.09545431896504
 11
1399.4945172146799
 21
470.96469721229414
  0
LINE
  8
_0-2______1
  6
CONTINUOUS
 62
    7
 10
1415.6305176446726
 20
465.57873828351785
 11
1416.7155849187079
 21
465.57873828351785
  0
LINE
  8
_0-2______1
  6
CONTINUOUS
 62
    7
 10
1416.7155849187079
 20
465.57873828351785
 11
1416.7155849187079
 21
469.87962993825795
  0
LINE
  8
_0-2______1
  6
CONTINUOUS
 62
    7
 10
1383.3935189548156
 20
456.96820443150409
 11
1383.3935189548156
 21
458.05327170553801
  0
LINE
  8
_0-2______1
  6
CONTINUOUS
 62
    7
 10
1383.3935189548156
 20
458.05327170553801
 11
1382.3084516807808
 21
458.05327170553801
  0
LINE
  8
_0-2______1
  6
CONTINUOUS
 62
    7
 10
1382.3084516807808
 20
458.05327170553801
 11
1381.2233844067468
 21
458.05327170553801
  0
LINE
  8
_0-2______1
  6
CONTINUOUS
 62
    7
 10
1381.2233844067468
 20
458.05327170553801
 11
1381.2233844067468
 21
459.13396370830606
  0
LINE
  8
_0-2______1
  6
CONTINUOUS
 62
    7
 10
1381.2233844067468
 20
459.13396370830606
 11
1380.1733193028426
 21
459.13396370830606
  0
LINE
  8
_0-2______1
  6
CONTINUOUS
 62
    7
 10
1380.1733193028426
 20
459.13396370830606
 11
1379.0882520288087
 21
459.13396370830606
  0
LINE
  8
_0-2______1
  6
CONTINUOUS
 62
    7
 10
1379.0882520288087
 20
459.13396370830606
 11
1378.0031847547748
 21
458.05327170553801
  0
LINE
  8
_0-2______1
  6
CONTINUOUS
 62
    7
 10
1378.0031847547748
 20
458.05327170553801
 11
1376.91811748074
 21
458.05327170553801
  0
LINE
  8
_0-2______1
  6
CONTINUOUS
 62
    7
 10
1376.91811748074
 20
458.05327170553801
 11
1376.91811748074
 21
459.13396370830606
  0
LINE
  8
_0-2______1
  6
CONTINUOUS
 62
    7
 10
1376.91811748074
 20
459.13396370830606
 11
1378.0031847547748
 21
459.13396370830606
  0
LINE
  8
_0-2______1
  6
CONTINUOUS
 62
    7
 10
1378.0031847547748
 20
459.13396370830606
 11
1379.0882520288087
 21
459.13396370830606
  0
LINE
  8
_0-2______1
  6
CONTINUOUS
 62
    7
 10
1379.0882520288087
 20
459.13396370830606
 11
1380.1733193028426
 21
459.13396370830606
  0
LINE
  8
_0-2______1
  6
CONTINUOUS
 62
    7
 10
1380.1733193028426
 20
459.13396370830606
 11
1381.2233844067468
 21
459.13396370830606
  0
LINE
  8
_0-2______1
  6
CONTINUOUS
 62
    7
 10
1381.2233844067468
 20
459.13396370830606
 11
1382.3084516807808
 21
459.13396370830606
  0
LINE
  8
_0-2______1
  6
CONTINUOUS
 62
    7
 10
1382.3084516807808
 20
459.13396370830606
 11
1383.3935189548156
 21
459.13396370830606
  0
LINE
  8
_0-2______1
  6
CONTINUOUS
 62
    7
 10
1383.3935189548156
 20
459.13396370830606
 11
1383.3935189548156
 21
458.05327170553801
  0
LINE
  8
_0-2______1
  6
CONTINUOUS
 62
    7
 10
1399.4945172146799
 20
469.87962993825795
 11
1399.4945172146799
 21
470.96469721229414
  0
LINE
  8
_0-2______1
  6
CONTINUOUS
 62
    7
 10
1399.4945172146799
 20
470.96469721229414
 11
1398.4444521107748
 21
470.96469721229414
  0
LINE
  8
_0-2______1
  6
CONTINUOUS
 62
    7
 10
1398.4444521107748
 20
470.96469721229414
 11
1397.3593848367409
 21
470.96469721229414
  0
LINE
  8
_0-2______1
  6
CONTINUOUS
 62
    7
 10
1397.3593848367409
 20
470.96469721229414
 11
1397.3593848367409
 21
472.01038704493021
  0
LINE
  8
_0-2______1
  6
CONTINUOUS
 62
    7
 10
1397.3593848367409
 20
472.01038704493021
 11
1396.274317562707
 21
472.01038704493021
  0
LINE
  8
_0-2______1
  6
CONTINUOUS
 62
    7
 10
1396.274317562707
 20
472.01038704493021
 11
1395.2242524588028
 21
472.01038704493021
  0
LINE
  8
_0-2______1
  6
CONTINUOUS
 62
    7
 10
1395.2242524588028
 20
472.01038704493021
 11
1394.1391851847688
 21
472.01038704493021
  0
LINE
  8
_0-2______1
  6
CONTINUOUS
 62
    7
 10
1394.1391851847688
 20
472.01038704493021
 11
1393.054117910734
 21
472.01038704493021
  0
LINE
  8
_0-2______1
  6
CONTINUOUS
 62
    7
 10
1393.054117910734
 20
472.01038704493021
 11
1393.054117910734
 21
470.96469721229414
  0
LINE
  8
_0-2______1
  6
CONTINUOUS
 62
    7
 10
1393.054117910734
 20
470.96469721229414
 11
1391.9690506366996
 21
470.96469721229414
  0
LINE
  8
_0-2______1
  6
CONTINUOUS
 62
    7
 10
1376.91811748074
 20
458.05327170553801
 11
1375.8680523768357
 21
456.96820443150409
  0
LINE
  8
_0-2______1
  6
CONTINUOUS
 62
    7
 10
1391.9690506366996
 20
472.01038704493021
 11
1393.054117910734
 21
472.01038704493021
  0
LINE
  8
_0-2______1
  6
CONTINUOUS
 62
    7
 10
1393.054117910734
 20
472.01038704493021
 11
1394.1304346422357
 21
472.01038704493021
  0
LINE
  8
_0-2______1
  6
CONTINUOUS
 62
    7
 10
1394.1304346422357
 20
472.01038704493021
 11
1395.2242524588028
 21
472.01038704493021
  0
LINE
  8
_0-2______1
  6
CONTINUOUS
 62
    7
 10
1395.2242524588028
 20
472.01038704493021
 11
1396.274317562707
 21
472.01038704493021
  0
LINE
  8
_0-2______1
  6
CONTINUOUS
 62
    7
 10
1396.274317562707
 20
472.01038704493021
 11
1397.3593848367409
 21
472.01038704493021
  0
LINE
  8
_0-2______1
  6
CONTINUOUS
 62
    7
 10
1397.3593848367409
 20
472.01038704493021
 11
1398.4444521107748
 21
472.01038704493021
  0
LINE
  8
_0-2______1
  6
CONTINUOUS
 62
    7
 10
1398.4444521107748
 20
472.01038704493021
 11
1399.4945172146799
 21
472.01038704493021
  0
LINE
  8
_0-2______1
  6
CONTINUOUS
 62
    7
 10
1399.4945172146799
 20
472.01038704493021
 11
1399.4945172146799
 21
470.96469721229414
  0
LINE
  8
_0-2______1
  6
CONTINUOUS
 62
    7
 10
1390.9189855327959
 20
470.96469721229414
 11
1391.9690506366996
 21
470.96469721229414
  0
LINE
  8
_0-2______1
  6
CONTINUOUS
 62
    7
 10
1391.9690506366996
 20
470.96469721229414
 11
1391.9690506366996
 21
472.01038704493021
  0
LINE
  8
_0-2______1
  6
CONTINUOUS
 62
    7
 10
1391.9690506366996
 20
470.96469721229414
 11
1390.9189855327959
 21
470.96469721229414
  0
LINE
  8
_0-2______1
  6
CONTINUOUS
 62
    7
 10
1390.9189855327959
 20
470.96469721229414
 11
1390.9189855327959
 21
469.87962993825795
  0
LINE
  8
_0-2______1
  6
CONTINUOUS
 62
    7
 10
1375.8680523768357
 20
458.05327170553801
 11
1376.91811748074
 21
458.05327170553801
  0
LINE
  8
_0-2______1
  6
CONTINUOUS
 62
    7
 10
1386.613718606789
 20
440.82782873024416
 11
1387.6987858808229
 21
440.82782873024416
  0
LINE
  8
_0-2______1
  6
CONTINUOUS
 62
    7
 10
736.06338456803769
 20
507.50696282815716
 11
737.14845184207161
 21
507.50696282815716
  0
LINE
  8
_0-2______1
  6
CONTINUOUS
 62
    7
 10
737.14845184207161
 20
507.50696282815716
 11
737.14845184207161
 21
506.42189555412415
  0
LINE
  8
_0-2______1
  6
CONTINUOUS
 62
    7
 10
737.14845184207161
 20
506.42189555412415
 11
738.23351911610689
 21
506.42189555412415
  0
LINE
  8
_0-2______1
  6
CONTINUOUS
 62
    7
 10
738.23351911610689
 20
506.42189555412415
 11
739.28358422000974
 21
506.42189555412415
  0
LINE
  8
_0-2______1
  6
CONTINUOUS
 62
    7
 10
739.28358422000974
 20
506.42189555412415
 11
739.28358422000974
 21
505.37183045021902
  0
LINE
  8
_0-2______1
  6
CONTINUOUS
 62
    7
 10
1157.5595172751628
 20
561.27029614804997
 11
1157.5595172751628
 21
562.3509881508171
  0
LINE
  8
_0-2______1
  6
CONTINUOUS
 62
    7
 10
1157.5595172751628
 20
562.3509881508171
 11
1158.6445845491967
 21
562.3509881508171
  0
LINE
  8
_0-2______1
  6
CONTINUOUS
 62
    7
 10
998.43965186355399
 20
431.17160504559206
 11
998.43965186355399
 21
430.08653777155723
  0
LINE
  8
_0-2______1
  6
CONTINUOUS
 62
    7
 10
998.43965186355399
 20
430.08653777155723
 11
999.52471913758882
 21
430.08653777155723
  0
LINE
  8
_0-2______1
  6
CONTINUOUS
 62
    7
 10
999.52471913758882
 20
430.08653777155723
 11
1000.5747842414926
 21
430.08653777155723
  0
LINE
  8
_0-2______1
  6
CONTINUOUS
 62
    7
 10
1000.5747842414926
 20
430.08653777155723
 11
1001.6598515155279
 21
430.08653777155723
  0
LINE
  8
_0-2______1
  6
CONTINUOUS
 62
    7
 10
1001.6598515155279
 20
430.08653777155723
 11
1002.7449187895618
 21
430.08653777155723
  0
LINE
  8
_0-2______1
  6
CONTINUOUS
 62
    7
 10
1002.7449187895618
 20
430.08653777155723
 11
1003.8299860635957
 21
430.08653777155723
  0
LINE
  8
_0-2______1
  6
CONTINUOUS
 62
    7
 10
1003.8299860635957
 20
430.08653777155723
 11
1004.8800511674999
 21
430.08653777155723
  0
LINE
  8
_0-2______1
  6
CONTINUOUS
 62
    7
 10
1004.8800511674999
 20
430.08653777155723
 11
1005.9651184415338
 21
431.17160504559206
  0
LINE
  8
_0-2______1
  6
CONTINUOUS
 62
    7
 10
1005.9651184415338
 20
431.17160504559206
 11
1007.0501857155677
 21
431.17160504559206
  0
LINE
  8
_0-2______1
  6
CONTINUOUS
 62
    7
 10
1007.0501857155677
 20
431.17160504559206
 11
1008.1002508194729
 21
432.25229704836011
  0
LINE
  8
_0-2______1
  6
CONTINUOUS
 62
    7
 10
1158.6445845491967
 20
562.3509881508171
 11
1158.6445845491967
 21
561.27029614804997
  0
LINE
  8
_0-2______1
  6
CONTINUOUS
 62
    7
 10
1008.1002508194729
 20
430.08653777155723
 11
1007.0501857155677
 21
429.02772212512082
  0
LINE
  8
_0-2______1
  6
CONTINUOUS
 62
    7
 10
1007.0501857155677
 20
429.02772212512082
 11
1005.9651184415338
 21
429.02772212512082
  0
LINE
  8
_0-2______1
  6
CONTINUOUS
 62
    7
 10
1005.9651184415338
 20
429.02772212512082
 11
1004.8800511674999
 21
429.02772212512082
  0
LINE
  8
_0-2______1
  6
CONTINUOUS
 62
    7
 10
1004.8800511674999
 20
429.02772212512082
 11
1003.8299860635957
 21
429.02772212512082
  0
LINE
  8
_0-2______1
  6
CONTINUOUS
 62
    7
 10
1003.8299860635957
 20
429.02772212512082
 11
1002.7449187895618
 21
429.02772212512082
  0
LINE
  8
_0-2______1
  6
CONTINUOUS
 62
    7
 10
1002.7449187895618
 20
429.02772212512082
 11
1001.6598515155279
 21
429.02772212512082
  0
LINE
  8
_0-2______1
  6
CONTINUOUS
 62
    7
 10
1001.6598515155279
 20
429.02772212512082
 11
1000.5747842414926
 21
429.02772212512082
  0
LINE
  8
_0-2______1
  6
CONTINUOUS
 62
    7
 10
1000.5747842414926
 20
429.02772212512082
 11
999.52471913758882
 21
429.02772212512082
  0
LINE
  8
_0-2______1
  6
CONTINUOUS
 62
    7
 10
999.52471913758882
 20
429.02772212512082
 11
998.43965186355399
 21
429.02772212512082
  0
LINE
  8
_0-2______1
  6
CONTINUOUS
 62
    7
 10
1158.6445845491967
 20
561.27029614804997
 11
1158.6445845491967
 21
560.18522887401605
  0
LINE
  8
_0-2______1
  6
CONTINUOUS
 62
    7
 10
1158.6445845491967
 20
560.18522887401605
 11
1157.5595172751628
 21
560.18522887401605
  0
LINE
  8
_0-2______1
  6
CONTINUOUS
 62
    7
 10
1157.5595172751628
 20
560.18522887401605
 11
1157.5595172751628
 21
559.13516377011183
  0
LINE
  8
_0-2______1
  6
CONTINUOUS
 62
    7
 10
739.28358422000974
 20
503.20169590214982
 11
738.23351911610689
 21
503.20169590214982
  0
LINE
  8
_0-2______1
  6
CONTINUOUS
 62
    7
 10
738.23351911610689
 20
503.20169590214982
 11
738.23351911610689
 21
504.28676317618601
  0
LINE
  8
_0-2______1
  6
CONTINUOUS
 62
    7
 10
738.23351911610689
 20
504.28676317618601
 11
737.14845184207161
 21
504.28676317618601
  0
LINE
  8
_0-2______1
  6
CONTINUOUS
 62
    7
 10
737.14845184207161
 20
504.28676317618601
 11
737.14845184207161
 21
505.37183045021902
  0
LINE
  8
_0-2______1
  6
CONTINUOUS
 62
    7
 10
737.14845184207161
 20
505.37183045021902
 11
736.06338456803769
 21
505.37183045021902
  0
LINE
  8
_0-2______1
  6
CONTINUOUS
 62
    7
 10
736.06338456803769
 20
505.37183045021902
 11
736.06338456803769
 21
506.42189555412415
  0
LINE
  8
_0-2______1
  6
CONTINUOUS
 62
    7
 10
736.06338456803769
 20
506.42189555412415
 11
735.01331946413302
 21
506.42189555412415
  0
LINE
  8
_0-2______1
  6
CONTINUOUS
 62
    7
 10
639.28238415820488
 20
658.05129655788323
 11
638.23231905429975
 21
658.05129655788323
  0
LINE
  8
_0-2______1
  6
CONTINUOUS
 62
    7
 10
638.23231905429975
 20
658.05129655788323
 11
638.23231905429975
 21
656.96622928384795
  0
LINE
  8
_0-2______1
  6
CONTINUOUS
 62
    7
 10
853.28565233387098
 20
843.00713879679915
 11
852.2005850598357
 21
843.00713879679915
  0
LINE
  8
_0-2______1
  6
CONTINUOUS
 62
    7
 10
852.2005850598357
 20
843.00713879679915
 11
852.2005850598357
 21
841.92207152276615
  0
LINE
  8
_0-2______1
  6
CONTINUOUS
 62
    7
 10
852.2005850598357
 20
841.92207152276615
 11
851.11551778580179
 21
841.92207152276615
  0
LINE
  8
_0-2______1
  6
CONTINUOUS
 62
    7
 10
638.23231905429975
 20
638.69509647591485
 11
638.23231905429975
 21
637.61002920188184
  0
LINE
  8
_0-2______1
  6
CONTINUOUS
 62
    7
 10
853.28565233387098
 20
823.64218817229994
 11
852.2005850598357
 21
823.64218817229994
  0
LINE
  8
_0-2______1
  6
CONTINUOUS
 62
    7
 10
852.2005850598357
 20
823.64218817229994
 11
852.2005850598357
 21
822.55712089826602
  0
LINE
  8
_0-2______1
  6
CONTINUOUS
 62
    7
 10
852.2005850598357
 20
822.55712089826602
 11
851.11551778580179
 21
822.55712089826602
  0
LINE
  8
_0-2______1
  6
CONTINUOUS
 62
    7
 10
1409.1901183407276
 20
662.35218821262197
 11
1409.1901183407276
 21
663.4460060291899
  0
LINE
  8
_0-2______1
  6
CONTINUOUS
 62
    7
 10
1409.1901183407276
 20
681.71713883712209
 11
1410.275185614762
 21
681.71713883712209
  0
LINE
  8
_0-2______1
  6
CONTINUOUS
 62
    7
 10
853.28565233387098
 20
841.92207152276615
 11
853.28565233387098
 21
843.00713879679915
  0
LINE
  8
_0-2______1
  6
CONTINUOUS
 62
    7
 10
851.11551778580179
 20
841.92207152276615
 11
852.2005850598357
 21
841.92207152276615
  0
LINE
  8
_0-2______1
  6
CONTINUOUS
 62
    7
 10
852.2005850598357
 20
841.92207152276615
 11
853.28565233387098
 21
841.92207152276615
  0
LINE
  8
_0-2______1
  6
CONTINUOUS
 62
    7
 10
638.23231905429975
 20
656.96622928384795
 11
638.23231905429975
 21
658.05129655788323
  0
LINE
  8
_0-2______1
  6
CONTINUOUS
 62
    7
 10
1409.1901183407276
 20
682.76282866975998
 11
1409.1901183407276
 21
681.71713883712209
  0
LINE
  8
_0-2______1
  6
CONTINUOUS
 62
    7
 10
1355.4267850208348
 20
501.06218825294491
 11
1356.5118522948696
 21
501.06218825294491
  0
LINE
  8
_0-2______1
  6
CONTINUOUS
 62
    7
 10
1356.5118522948696
 20
501.06218825294491
 11
1357.5619173987739
 21
501.06218825294491
  0
LINE
  8
_0-2______1
  6
CONTINUOUS
 62
    7
 10
1357.5619173987739
 20
501.06218825294491
 11
1358.6469846728078
 21
501.06218825294491
  0
LINE
  8
_0-2______1
  6
CONTINUOUS
 62
    7
 10
1358.6469846728078
 20
501.06218825294491
 11
1359.7320519468417
 21
501.06218825294491
  0
LINE
  8
_0-2______1
  6
CONTINUOUS
 62
    7
 10
1359.7320519468417
 20
501.06218825294491
 11
1360.817119220877
 21
501.06218825294491
  0
LINE
  8
_0-2______1
  6
CONTINUOUS
 62
    7
 10
1360.817119220877
 20
501.06218825294491
 11
1361.8671843247807
 21
502.15600606951284
  0
LINE
  8
_0-2______1
  6
CONTINUOUS
 62
    7
 10
1361.8671843247807
 20
502.15600606951284
 11
1361.8671843247807
 21
503.20169590214982
  0
LINE
  8
_0-2______1
  6
CONTINUOUS
 62
    7
 10
1203.7973840170748
 20
369.87842987645308
 11
1204.8824512911096
 21
369.87842987645308
  0
LINE
  8
_0-2______1
  6
CONTINUOUS
 62
    7
 10
1204.8824512911096
 20
369.87842987645308
 11
1205.9587680226118
 21
369.87842987645308
  0
LINE
  8
_0-2______1
  6
CONTINUOUS
 62
    7
 10
1205.9587680226118
 20
369.87842987645308
 11
1207.0525858391788
 21
369.87842987645308
  0
LINE
  8
_0-2______1
  6
CONTINUOUS
 62
    7
 10
1207.0525858391788
 20
369.87842987645308
 11
1208.1026509430826
 21
369.87842987645308
  0
LINE
  8
_0-2______1
  6
CONTINUOUS
 62
    7
 10
1208.1026509430826
 20
369.87842987645308
 11
1209.1877182171179
 21
369.87842987645308
  0
LINE
  8
_0-2______1
  6
CONTINUOUS
 62
    7
 10
1209.1877182171179
 20
369.87842987645308
 11
1209.1877182171179
 21
370.963497150487
  0
LINE
  8
_0-2______1
  6
CONTINUOUS
 62
    7
 10
1209.1877182171179
 20
370.963497150487
 11
1210.2727854911518
 21
370.963497150487
  0
LINE
  8
_0-2______1
  6
CONTINUOUS
 62
    7
 10
1158.6445845491967
 20
559.13516377011183
 11
1158.6445845491967
 21
561.27029614804997
  0
LINE
  8
_0-2______1
  6
CONTINUOUS
 62
    7
 10
1158.6445845491967
 20
561.27029614804997
 11
1159.729651823232
 21
561.27029614804997
  0
LINE
  8
_0-2______1
  6
CONTINUOUS
 62
    7
 10
998.43965186355399
 20
429.02772212512082
 11
998.43965186355399
 21
427.9426548510869
  0
LINE
  8
_0-2______1
  6
CONTINUOUS
 62
    7
 10
998.43965186355399
 20
427.9426548510869
 11
999.52471913758882
 21
427.9426548510869
  0
LINE
  8
_0-2______1
  6
CONTINUOUS
 62
    7
 10
999.52471913758882
 20
427.9426548510869
 11
1000.5747842414926
 21
427.9426548510869
  0
LINE
  8
_0-2______1
  6
CONTINUOUS
 62
    7
 10
1000.5747842414926
 20
427.9426548510869
 11
1001.6598515155279
 21
427.9426548510869
  0
LINE
  8
_0-2______1
  6
CONTINUOUS
 62
    7
 10
1001.6598515155279
 20
427.9426548510869
 11
1002.7449187895618
 21
427.9426548510869
  0
LINE
  8
_0-2______1
  6
CONTINUOUS
 62
    7
 10
1002.7449187895618
 20
427.9426548510869
 11
1004.8800511674999
 21
427.9426548510869
  0
LINE
  8
_0-2______1
  6
CONTINUOUS
 62
    7
 10
1004.8800511674999
 20
427.9426548510869
 11
1005.9651184415338
 21
429.02772212512082
  0
LINE
  8
_0-2______1
  6
CONTINUOUS
 62
    7
 10
1005.9651184415338
 20
429.02772212512082
 11
1007.0501857155677
 21
429.02772212512082
  0
LINE
  8
_0-2______1
  6
CONTINUOUS
 62
    7
 10
1007.0501857155677
 20
429.02772212512082
 11
1008.1002508194729
 21
429.02772212512082
  0
LINE
  8
_0-2______1
  6
CONTINUOUS
 62
    7
 10
1008.1002508194729
 20
429.02772212512082
 11
1009.1853180935068
 21
430.08653777155723
  0
LINE
  8
_0-2______1
  6
CONTINUOUS
 62
    7
 10
1360.817119220877
 20
504.28676317618601
 11
1360.817119220877
 21
503.20169590214982
  0
LINE
  8
_0-2______1
  6
CONTINUOUS
 62
    7
 10
1360.817119220877
 20
503.20169590214982
 11
1361.8671843247807
 21
503.20169590214982
  0
LINE
  8
_0-2______1
  6
CONTINUOUS
 62
    7
 10
1361.8671843247807
 20
503.20169590214982
 11
1362.952251598816
 21
503.20169590214982
  0
LINE
  8
_0-2______1
  6
CONTINUOUS
 62
    7
 10
1362.952251598816
 20
503.20169590214982
 11
1362.952251598816
 21
502.15600606951284
  0
LINE
  8
_0-2______1
  6
CONTINUOUS
 62
    7
 10
1208.1026509430826
 20
372.01356225439213
 11
1209.1877182171179
 21
372.01356225439213
  0
LINE
  8
_0-2______1
  6
CONTINUOUS
 62
    7
 10
1209.1877182171179
 20
372.01356225439213
 11
1209.1877182171179
 21
370.963497150487
  0
LINE
  8
_0-2______1
  6
CONTINUOUS
 62
    7
 10
1209.1877182171179
 20
370.963497150487
 11
1210.2727854911518
 21
370.963497150487
  0
LINE
  8
_0-2______1
  6
CONTINUOUS
 62
    7
 10
1210.2727854911518
 20
370.963497150487
 11
1210.2727854911518
 21
369.87842987645308
  0
LINE
  8
_0-2______1
  6
CONTINUOUS
 62
    7
 10
1155.4243848972246
 20
563.43605542485193
 11
1156.509452171259
 21
563.43605542485193
  0
LINE
  8
_0-2______1
  6
CONTINUOUS
 62
    7
 10
1156.509452171259
 20
563.43605542485193
 11
1156.509452171259
 21
562.3509881508171
  0
LINE
  8
_0-2______1
  6
CONTINUOUS
 62
    7
 10
1156.509452171259
 20
562.3509881508171
 11
1157.5595172751628
 21
562.3509881508171
  0
LINE
  8
_0-2______1
  6
CONTINUOUS
 62
    7
 10
1157.5595172751628
 20
562.3509881508171
 11
1158.6445845491967
 21
562.3509881508171
  0
LINE
  8
_0-2______1
  6
CONTINUOUS
 62
    7
 10
1158.6445845491967
 20
562.3509881508171
 11
1158.6445845491967
 21
561.27029614804997
  0
LINE
  8
_0-2______1
  6
CONTINUOUS
 62
    7
 10
1158.6445845491967
 20
561.27029614804997
 11
1159.729651823232
 21
561.27029614804997
  0
LINE
  8
_0-2______1
  6
CONTINUOUS
 62
    7
 10
1159.729651823232
 20
561.27029614804997
 11
1159.729651823232
 21
560.18522887401605
  0
LINE
  8
_0-2______1
  6
CONTINUOUS
 62
    7
 10
885.52265102372758
 20
636.56433936924304
 11
885.52265102372758
 21
637.61002920188184
  0
LINE
  8
_0-2______1
  6
CONTINUOUS
 62
    7
 10
885.52265102372758
 20
637.61002920188184
 11
886.60771829776286
 21
637.61002920188184
  0
LINE
  8
_0-2______1
  6
CONTINUOUS
 62
    7
 10
886.60771829776286
 20
637.61002920188184
 11
887.69278557179678
 21
637.61002920188184
  0
LINE
  8
_0-2______1
  6
CONTINUOUS
 62
    7
 10
887.69278557179678
 20
637.61002920188184
 11
888.74285067570099
 21
637.61002920188184
  0
LINE
  8
_0-2______1
  6
CONTINUOUS
 62
    7
 10
888.74285067570099
 20
637.61002920188184
 11
888.74285067570099
 21
638.69509647591485
  0
LINE
  8
_0-2______1
  6
CONTINUOUS
 62
    7
 10
888.74285067570099
 20
638.69509647591485
 11
889.82791794973491
 21
638.69509647591485
  0
LINE
  8
_0-2______1
  6
CONTINUOUS
 62
    7
 10
889.82791794973491
 20
638.69509647591485
 11
890.91298522376883
 21
638.69509647591485
  0
LINE
  8
_0-2______1
  6
CONTINUOUS
 62
    7
 10
890.91298522376883
 20
638.69509647591485
 11
891.99805249780366
 21
638.69509647591485
  0
LINE
  8
_0-2______1
  6
CONTINUOUS
 62
    7
 10
891.99805249780366
 20
638.69509647591485
 11
893.04811760170787
 21
638.69509647591485
  0
LINE
  8
_0-2______1
  6
CONTINUOUS
 62
    7
 10
893.04811760170787
 20
638.69509647591485
 11
894.13318487574179
 21
638.69509647591485
  0
LINE
  8
_0-2______1
  6
CONTINUOUS
 62
    7
 10
894.13318487574179
 20
638.69509647591485
 11
895.21825214977571
 21
638.69509647591485
  0
LINE
  8
_0-2______1
  6
CONTINUOUS
 62
    7
 10
895.21825214977571
 20
638.69509647591485
 11
896.30331942381099
 21
637.61002920188184
  0
LINE
  8
_0-2______1
  6
CONTINUOUS
 62
    7
 10
735.01331946413302
 20
505.37183045021902
 11
735.01331946413302
 21
507.50696282815716
  0
LINE
  8
_0-2______1
  6
CONTINUOUS
 62
    7
 10
735.01331946413302
 20
506.42189555412415
 11
735.01331946413302
 21
504.28676317618601
  0
LINE
  8
_0-2______1
  6
CONTINUOUS
 62
    7
 10
735.01331946413302
 20
504.28676317618601
 11
736.06338456803769
 21
504.28676317618601
  0
LINE
  8
_0-2______1
  6
CONTINUOUS
 62
    7
 10
736.06338456803769
 20
504.28676317618601
 11
737.14845184207161
 21
504.28676317618601
  0
LINE
  8
_0-2______1
  6
CONTINUOUS
 62
    7
 10
737.14845184207161
 20
504.28676317618601
 11
737.14845184207161
 21
503.20169590214982
  0
LINE
  8
_0-2______1
  6
CONTINUOUS
 62
    7
 10
737.14845184207161
 20
503.20169590214982
 11
738.23351911610689
 21
503.20169590214982
  0
LINE
  8
_0-2______1
  6
CONTINUOUS
 62
    7
 10
1195.2218523351917
 20
337.60205374520001
 11
1196.2719174390959
 21
337.60205374520001
  0
LINE
  8
_0-2______1
  6
CONTINUOUS
 62
    7
 10
1410.275185614762
 20
522.55789598411593
 11
1410.275185614762
 21
523.64296325815121
  0
LINE
  8
_0-2______1
  6
CONTINUOUS
 62
    7
 10
637.14725178026674
 20
636.56433936924304
 11
637.14725178026674
 21
637.61002920188184
  0
LINE
  8
_0-2______1
  6
CONTINUOUS
 62
    7
 10
851.11551778580179
 20
822.55712089826602
 11
852.2005850598357
 21
822.55712089826602
  0
LINE
  8
_0-2______1
  6
CONTINUOUS
 62
    7
 10
852.2005850598357
 20
822.55712089826602
 11
853.28565233387098
 21
822.55712089826602
  0
LINE
  8
_0-2______1
  6
CONTINUOUS
 62
    7
 10
1201.6622516391376
 20
370.963497150487
 11
1202.747318913172
 21
370.963497150487
  0
LINE
  8
_0-2______1
  6
CONTINUOUS
 62
    7
 10
1202.747318913172
 20
370.963497150487
 11
1202.747318913172
 21
369.87842987645308
  0
LINE
  8
_0-2______1
  6
CONTINUOUS
 62
    7
 10
1202.747318913172
 20
369.87842987645308
 11
1203.7973840170748
 21
369.87842987645308
  0
LINE
  8
_0-2______1
  6
CONTINUOUS
 62
    7
 10
1200.5771843651037
 20
369.87842987645308
 11
1200.5771843651037
 21
370.963497150487
  0
LINE
  8
_0-2______1
  6
CONTINUOUS
 62
    7
 10
1200.5771843651037
 20
370.963497150487
 11
1201.6622516391376
 21
370.963497150487
  0
LINE
  8
_0-2______1
  6
CONTINUOUS
 62
    7
 10
1201.6622516391376
 20
370.963497150487
 11
1202.747318913172
 21
370.963497150487
  0
LINE
  8
_0-2______1
  6
CONTINUOUS
 62
    7
 10
1202.747318913172
 20
370.963497150487
 11
1202.747318913172
 21
372.01356225439213
  0
LINE
  8
_0-2______1
  6
CONTINUOUS
 62
    7
 10
1202.747318913172
 20
372.01356225439213
 11
1203.7973840170748
 21
372.01356225439213
  0
LINE
  8
_0-2______1
  6
CONTINUOUS
 62
    7
 10
1203.7973840170748
 20
372.01356225439213
 11
1203.7973840170748
 21
373.09862952842604
  0
LINE
  8
_0-2______1
  6
CONTINUOUS
 62
    7
 10
1203.7973840170748
 20
373.09862952842604
 11
1204.8824512911096
 21
373.09862952842604
  0
LINE
  8
_0-2______1
  6
CONTINUOUS
 62
    7
 10
1204.8824512911096
 20
373.09862952842604
 11
1205.967518565144
 21
373.09862952842604
  0
LINE
  8
_0-2______1
  6
CONTINUOUS
 62
    7
 10
1205.967518565144
 20
373.09862952842604
 11
1207.0525858391788
 21
373.09862952842604
  0
LINE
  8
_0-2______1
  6
CONTINUOUS
 62
    7
 10
1207.0525858391788
 20
373.09862952842604
 11
1207.0525858391788
 21
372.01356225439213
  0
LINE
  8
_0-2______1
  6
CONTINUOUS
 62
    7
 10
1207.0525858391788
 20
372.01356225439213
 11
1208.1026509430826
 21
372.01356225439213
  0
LINE
  8
_0-2______1
  6
CONTINUOUS
 62
    7
 10
1354.3417177468009
 20
503.20169590214982
 11
1354.3417177468009
 21
502.15600606951284
  0
LINE
  8
_0-2______1
  6
CONTINUOUS
 62
    7
 10
1354.3417177468009
 20
502.15600606951284
 11
1355.4267850208348
 21
502.15600606951284
  0
LINE
  8
_0-2______1
  6
CONTINUOUS
 62
    7
 10
1355.4267850208348
 20
502.15600606951284
 11
1355.4267850208348
 21
501.06218825294491
  0
LINE
  8
_0-2______1
  6
CONTINUOUS
 62
    7
 10
1353.2916526428958
 20
502.15600606951284
 11
1354.3417177468009
 21
502.15600606951284
  0
LINE
  8
_0-2______1
  6
CONTINUOUS
 62
    7
 10
1354.3417177468009
 20
502.15600606951284
 11
1354.3417177468009
 21
503.20169590214982
  0
LINE
  8
_0-2______1
  6
CONTINUOUS
 62
    7
 10
1354.3417177468009
 20
503.20169590214982
 11
1355.4267850208348
 21
503.20169590214982
  0
LINE
  8
_0-2______1
  6
CONTINUOUS
 62
    7
 10
1355.4267850208348
 20
503.20169590214982
 11
1355.4267850208348
 21
504.28676317618601
  0
LINE
  8
_0-2______1
  6
CONTINUOUS
 62
    7
 10
1355.4267850208348
 20
504.28676317618601
 11
1356.5118522948696
 21
504.28676317618601
  0
LINE
  8
_0-2______1
  6
CONTINUOUS
 62
    7
 10
1356.5118522948696
 20
504.28676317618601
 11
1357.5619173987739
 21
504.28676317618601
  0
LINE
  8
_0-2______1
  6
CONTINUOUS
 62
    7
 10
1357.5619173987739
 20
504.28676317618601
 11
1358.6469846728078
 21
504.28676317618601
  0
LINE
  8
_0-2______1
  6
CONTINUOUS
 62
    7
 10
1358.6469846728078
 20
504.28676317618601
 11
1359.7320519468417
 21
504.28676317618601
  0
LINE
  8
_0-2______1
  6
CONTINUOUS
 62
    7
 10
1359.7320519468417
 20
504.28676317618601
 11
1360.817119220877
 21
504.28676317618601
  0
LINE
  8
_0-2______1
  6
CONTINUOUS
 62
    7
 10
1203.7973840170748
 20
367.74767276978082
 11
1202.747318913172
 21
367.74767276978082
  0
LINE
  8
_0-2______1
  6
CONTINUOUS
 62
    7
 10
1202.747318913172
 20
367.74767276978082
 11
1202.747318913172
 21
368.79336260242007
  0
LINE
  8
_0-2______1
  6
CONTINUOUS
 62
    7
 10
1202.747318913172
 20
368.79336260242007
 11
1201.6622516391376
 21
368.79336260242007
  0
LINE
  8
_0-2______1
  6
CONTINUOUS
 62
    7
 10
1201.6622516391376
 20
368.79336260242007
 11
1201.6622516391376
 21
369.87842987645308
  0
LINE
  8
_0-2______1
  6
CONTINUOUS
 62
    7
 10
1201.6622516391376
 20
369.87842987645308
 11
1200.5771843651037
 21
369.87842987645308
  0
LINE
  8
_0-2______1
  6
CONTINUOUS
 62
    7
 10
1159.729651823232
 20
560.18522887401605
 11
1159.729651823232
 21
559.13516377011183
  0
LINE
  8
_0-2______1
  6
CONTINUOUS
 62
    7
 10
1159.729651823232
 20
559.13516377011183
 11
1158.6445845491967
 21
559.13516377011183
  0
LINE
  8
_0-2______1
  6
CONTINUOUS
 62
    7
 10
1158.6445845491967
 20
559.13516377011183
 11
1158.6445845491967
 21
558.050096496077
  0
LINE
  8
_0-2______1
  6
CONTINUOUS
 62
    7
 10
1009.1853180935068
 20
427.9426548510869
 11
1008.1002508194729
 21
427.9426548510869
  0
LINE
  8
_0-2______1
  6
CONTINUOUS
 62
    7
 10
1008.1002508194729
 20
427.9426548510869
 11
1008.1002508194729
 21
426.86196284831794
  0
LINE
  8
_0-2______1
  6
CONTINUOUS
 62
    7
 10
1008.1002508194729
 20
426.86196284831794
 11
1007.0501857155677
 21
426.86196284831794
  0
LINE
  8
_0-2______1
  6
CONTINUOUS
 62
    7
 10
1007.0501857155677
 20
426.86196284831794
 11
1005.9651184415338
 21
426.86196284831794
  0
LINE
  8
_0-2______1
  6
CONTINUOUS
 62
    7
 10
1005.9651184415338
 20
426.86196284831794
 11
1004.8800511674999
 21
426.86196284831794
  0
LINE
  8
_0-2______1
  6
CONTINUOUS
 62
    7
 10
1004.8800511674999
 20
426.86196284831794
 11
1003.8299860635957
 21
426.86196284831794
  0
LINE
  8
_0-2______1
  6
CONTINUOUS
 62
    7
 10
1003.8299860635957
 20
426.86196284831794
 11
1002.7449187895618
 21
425.77689557428494
  0
LINE
  8
_0-2______1
  6
CONTINUOUS
 62
    7
 10
1002.7449187895618
 20
425.77689557428494
 11
1001.6598515155279
 21
425.77689557428494
  0
LINE
  8
_0-2______1
  6
CONTINUOUS
 62
    7
 10
1001.6598515155279
 20
425.77689557428494
 11
1000.5747842414926
 21
426.86196284831794
  0
LINE
  8
_0-2______1
  6
CONTINUOUS
 62
    7
 10
1000.5747842414926
 20
426.86196284831794
 11
999.52471913758882
 21
426.86196284831794
  0
LINE
  8
_0-2______1
  6
CONTINUOUS
 62
    7
 10
999.52471913758882
 20
426.86196284831794
 11
998.43965186355399
 21
426.86196284831794
  0
LINE
  8
_0-2______1
  6
CONTINUOUS
 62
    7
 10
738.23351911610689
 20
502.15600606951284
 11
737.14845184207161
 21
502.15600606951284
  0
LINE
  8
_0-2______1
  6
CONTINUOUS
 62
    7
 10
737.14845184207161
 20
502.15600606951284
 11
737.14845184207161
 21
503.20169590214982
  0
LINE
  8
_0-2______1
  6
CONTINUOUS
 62
    7
 10
737.14845184207161
 20
503.20169590214982
 11
736.06338456803769
 21
503.20169590214982
  0
LINE
  8
_0-2______1
  6
CONTINUOUS
 62
    7
 10
736.06338456803769
 20
503.20169590214982
 11
735.01331946413302
 21
503.20169590214982
  0
LINE
  8
_0-2______1
  6
CONTINUOUS
 62
    7
 10
735.01331946413302
 20
503.20169590214982
 11
735.01331946413302
 21
505.37183045021902
  0
LINE
  8
_0-2______1
  6
CONTINUOUS
 62
    7
 10
851.11551778580179
 20
684.93296321782918
 11
851.11551778580179
 21
682.76282866975998
  0
LINE
  8
_0-2______1
  6
CONTINUOUS
 62
    7
 10
851.11551778580179
 20
682.76282866975998
 11
852.2005850598357
 21
682.76282866975998
  0
LINE
  8
_0-2______1
  6
CONTINUOUS
 62
    7
 10
853.28565233387098
 20
686.01803049186219
 11
852.2005850598357
 21
686.01803049186219
  0
LINE
  8
_0-2______1
  6
CONTINUOUS
 62
    7
 10
852.2005850598357
 20
686.01803049186219
 11
851.11551778580179
 21
686.01803049186219
  0
LINE
  8
_0-2______1
  6
CONTINUOUS
 62
    7
 10
851.11551778580179
 20
686.01803049186219
 11
851.11551778580179
 21
684.93296321782918
  0
LINE
  8
_0-2______1
  6
CONTINUOUS
 62
    7
 10
852.2005850598357
 20
682.76282866975998
 11
853.28565233387098
 21
682.76282866975998
  0
LINE
  8
_0-2______1
  6
CONTINUOUS
 62
    7
 10
853.28565233387098
 20
682.76282866975998
 11
853.28565233387098
 21
686.01803049186219
  0
LINE
  8
_0-2______1
  6
CONTINUOUS
 62
    7
 10
638.23231905429975
 20
497.84636387224009
 11
639.28238415820488
 21
497.84636387224009
  0
LINE
  8
_0-2______1
  6
CONTINUOUS
 62
    7
 10
1196.2719174390959
 20
337.60205374520001
 11
1195.2218523351917
 21
337.60205374520001
  0
LINE
  8
_0-2______1
  6
CONTINUOUS
 62
    7
 10
1410.275185614762
 20
523.64296325815121
 11
1410.275185614762
 21
525.77372036482302
  0
LINE
  8
_0-2______1
  6
CONTINUOUS
 62
    7
 10
851.11551778580179
 20
821.47205362423301
 11
851.11551778580179
 21
822.55712089826602
  0
LINE
  8
_0-2______1
  6
CONTINUOUS
 62
    7
 10
851.11551778580179
 20
822.55712089826602
 11
852.2005850598357
 21
822.55712089826602
  0
LINE
  8
_0-2______1
  6
CONTINUOUS
 62
    7
 10
852.2005850598357
 20
822.55712089826602
 11
853.28565233387098
 21
822.55712089826602
  0
LINE
  8
_0-2______1
  6
CONTINUOUS
 62
    7
 10
637.14725178026674
 20
636.56433936924304
 11
637.14725178026674
 21
637.61002920188184
  0
LINE
  8
_0-2______1
  6
CONTINUOUS
 62
    7
 10
851.11551778580179
 20
822.55712089826602
 11
851.11551778580179
 21
821.47205362423301
  0
LINE
  8
_0-2______1
  6
CONTINUOUS
 62
    7
 10
1409.1901183407276
 20
662.35218821262197
 11
1410.275185614762
 21
662.35218821262197
  0
LINE
  8
_0-2______1
  6
CONTINUOUS
 62
    7
 10
1410.275185614762
 20
662.35218821262197
 11
1410.275185614762
 21
660.18205366455504
  0
LINE
  8
_0-2______1
  6
CONTINUOUS
 62
    7
 10
1409.1901183407276
 20
522.55789598411593
 11
1410.275185614762
 21
522.55789598411593
  0
LINE
  8
_0-2______1
  6
CONTINUOUS
 62
    7
 10
1410.275185614762
 20
525.77372036482302
 11
1410.275185614762
 21
524.72803053218513
  0
LINE
  8
_0-2______1
  6
CONTINUOUS
 62
    7
 10
1410.275185614762
 20
524.72803053218513
 11
1409.1901183407276
 21
524.72803053218513
  0
LINE
  8
_0-2______1
  6
CONTINUOUS
 62
    7
 10
1409.1901183407276
 20
524.72803053218513
 11
1409.1901183407276
 21
522.55789598411593
  0
LINE
  8
_0-2______1
  6
CONTINUOUS
 62
    7
 10
1195.2218523351917
 20
337.60205374520001
 11
1194.1367850611578
 21
337.60205374520001
  0
LINE
  8
_0-2______1
  6
CONTINUOUS
 62
    7
 10
639.28238415820488
 20
497.84636387224009
 11
638.23231905429975
 21
497.84636387224009
  0
LINE
  8
_0-2______1
  6
CONTINUOUS
 62
    7
 10
638.23231905429975
 20
497.84636387224009
 11
638.23231905429975
 21
498.89205370487798
  0
LINE
  8
_0-2______1
  6
CONTINUOUS
 62
    7
 10
638.23231905429975
 20
498.89205370487798
 11
637.14725178026674
 21
498.89205370487798
  0
LINE
  8
_0-2______1
  6
CONTINUOUS
 62
    7
 10
637.14725178026674
 20
498.89205370487798
 11
637.14725178026674
 21
499.97712097891099
  0
LINE
  8
_0-2______1
  6
CONTINUOUS
 62
    7
 10
1210.2727854911518
 20
369.87842987645308
 11
1210.2727854911518
 21
368.79336260242007
  0
LINE
  8
_0-2______1
  6
CONTINUOUS
 62
    7
 10
1210.2727854911518
 20
368.79336260242007
 11
1209.1877182171179
 21
368.79336260242007
  0
LINE
  8
_0-2______1
  6
CONTINUOUS
 62
    7
 10
1209.1877182171179
 20
368.79336260242007
 11
1209.1877182171179
 21
367.74767276978082
  0
LINE
  8
_0-2______1
  6
CONTINUOUS
 62
    7
 10
1209.1877182171179
 20
367.74767276978082
 11
1208.1026509430826
 21
367.74767276978082
  0
LINE
  8
_0-2______1
  6
CONTINUOUS
 62
    7
 10
1208.1026509430826
 20
367.74767276978082
 11
1207.0525858391788
 21
367.74767276978082
  0
LINE
  8
_0-2______1
  6
CONTINUOUS
 62
    7
 10
1207.0525858391788
 20
367.74767276978082
 11
1205.967518565144
 21
367.74767276978082
  0
LINE
  8
_0-2______1
  6
CONTINUOUS
 62
    7
 10
1205.967518565144
 20
367.74767276978082
 11
1204.8824512911096
 21
367.74767276978082
  0
LINE
  8
_0-2______1
  6
CONTINUOUS
 62
    7
 10
1204.8824512911096
 20
367.74767276978082
 11
1203.7973840170748
 21
367.74767276978082
  0
LINE
  8
_0-2______1
  6
CONTINUOUS
 62
    7
 10
1362.952251598816
 20
502.15600606951284
 11
1362.952251598816
 21
501.06218825294491
  0
LINE
  8
_0-2______1
  6
CONTINUOUS
 62
    7
 10
1362.952251598816
 20
501.06218825294491
 11
1361.8671843247807
 21
501.06218825294491
  0
LINE
  8
_0-2______1
  6
CONTINUOUS
 62
    7
 10
1361.8671843247807
 20
501.06218825294491
 11
1361.8671843247807
 21
499.97712097891099
  0
LINE
  8
_0-2______1
  6
CONTINUOUS
 62
    7
 10
1361.8671843247807
 20
499.97712097891099
 11
1360.817119220877
 21
499.97712097891099
  0
LINE
  8
_0-2______1
  6
CONTINUOUS
 62
    7
 10
1360.817119220877
 20
499.97712097891099
 11
1359.7320519468417
 21
499.97712097891099
  0
LINE
  8
_0-2______1
  6
CONTINUOUS
 62
    7
 10
1359.7320519468417
 20
499.97712097891099
 11
1358.6469846728078
 21
499.97712097891099
  0
LINE
  8
_0-2______1
  6
CONTINUOUS
 62
    7
 10
1358.6469846728078
 20
499.97712097891099
 11
1357.5619173987739
 21
499.97712097891099
  0
LINE
  8
_0-2______1
  6
CONTINUOUS
 62
    7
 10
1357.5619173987739
 20
499.97712097891099
 11
1356.5118522948696
 21
499.97712097891099
  0
LINE
  8
_0-2______1
  6
CONTINUOUS
 62
    7
 10
1356.5118522948696
 20
499.97712097891099
 11
1355.4267850208348
 21
499.97712097891099
  0
LINE
  8
_0-2______1
  6
CONTINUOUS
 62
    7
 10
1355.4267850208348
 20
499.97712097891099
 11
1354.3417177468009
 21
499.97712097891099
  0
LINE
  8
_0-2______1
  6
CONTINUOUS
 62
    7
 10
1354.3417177468009
 20
499.97712097891099
 11
1354.3417177468009
 21
501.06218825294491
  0
LINE
  8
_0-2______1
  6
CONTINUOUS
 62
    7
 10
1354.3417177468009
 20
501.06218825294491
 11
1353.2916526428958
 21
501.06218825294491
  0
LINE
  8
_0-2______1
  6
CONTINUOUS
 62
    7
 10
1353.2916526428958
 20
501.06218825294491
 11
1353.2916526428958
 21
502.15600606951284
  0
ENDSEC
  0
EOF
