  0
SECTION
  2
HEADER
  9
$ACADVER
  1
AC1009
  9
$INSBASE
 10
0
 20
0
 30
0
  9
$EXTMIN
 10
0
 20
0
  9
$EXTMAX
 10
2970
 20
2100
  9
$LIMMIN
 10
0
 20
0
  9
$LIMMAX
 10
2970
 20
2100
  9
$LTSCALE
 40
10
  0
ENDSEC
  0
SECTION
  2
TABLES
  0
TABLE
  2
LTYPE
 70
     9
  0
LTYPE
  2
CONTINUOUS
 70
    64
  3
実線
 72
    65
 73
     0
 40
0.0
  0
LTYPE
  2
DASHED1
 70
    64
  3
--  --  --  --  --  --  --  --  
 72
    65
 73
     2
 40
2.5
 49
1.25
 49
-1.25
  0
LTYPE
  2
DASHED2
 70
    64
  3
----    ----    ----    ----    
 72
    65
 73
     2
 40
5.0
 49
2.5
 49
-2.5
  0
LTYPE
  2
DASHED3
 70
    64
  3
------  ------  ------  ------  
 72
    65
 73
     2
 40
5.0
 49
3.75
 49
-1.25
  0
LTYPE
  2
CENTER1
 70
    64
  3
----- - ----- - ----- - ----- - 
 72
    65
 73
     4
 40
10.0
 49
6.25
 49
-1.25
 49
1.25
 49
-1.25
  0
LTYPE
  2
CENTER2
 70
    64
  3
----------  --  ----------  --  
 72
    65
 73
     4
 40
20.0
 49
12.5
 49
-2.5
 49
2.5
 49
-2.5
  0
LTYPE
  2
PHANTOM1
 70
    64
  3
--- - - --- - - --- - - --- - - 
 72
    65
 73
     6
 40
10.0
 49
3.25
 49
-1.25
 49
1.25
 49
-1.25
 49
1.25
 49
-1.25
  0
LTYPE
  2
PHANTOM2
 70
    64
  3
--------  -  -  --------  -  -  
 72
    65
 73
     6
 40
20.0
 49
10.0
 49
-2.5
 49
1.25
 49
-2.5
 49
1.25
 49
-2.5
  0
LTYPE
  2
DOT
 70
    64
  3
-   -   -   -   -   -   -   -   
 72
    65
 73
     2
 40
2.5
 49
0.625
 49
-1.875
  0
LTYPE
  2
DUMMY
 70
    64
  3
ダミー
 72
    65
 73
     0
 40
0.0
  0
LTYPE
  2
RAND1
 70
    64
  3
ランダム線1
 72
    65
 73
     4
 40
10.0
 49
1.0
 49
-2.0
 49
3.0
 49
-4.0
  0
LTYPE
  2
RAND2
 70
    64
  3
ランダム線2
 72
    65
 73
     4
 40
14.0
 49
2.0
 49
-3.0
 49
4.0
 49
-5.0
  0
LTYPE
  2
RAND3
 70
    64
  3
ランダム線3
 72
    65
 73
     4
 40
18.0
 49
3.0
 49
-4.0
 49
5.0
 49
-6.0
  0
LTYPE
  2
RAND4
 70
    64
  3
ランダム線4
 72
    65
 73
     4
 40
22.0
 49
4.0
 49
-5.0
 49
6.0
 49
-7.0
  0
LTYPE
  2
RAND5
 70
    64
  3
ランダム線5
 72
    65
 73
     4
 40
26.0
 49
5.0
 49
-6.0
 49
7.0
 49
-8.0
  0
LTYPE
  2
LONG1
 70
    64
  3
----------  --  ----------  --  
 72
    65
 73
     4
 40
40.0
 49
32.5
 49
-2.5
 49
2.5
 49
-2.5
  0
LTYPE
  2
LONG2
 70
    64
  3
--------  -  -  --------  -  -  
 72
    65
 73
     6
 40
40.0
 49
30.0
 49
-2.5
 49
1.25
 49
-2.5
 49
1.25
 49
-2.5
  0
LTYPE
  2
LONG3
 70
    64
  3
+++++++++++++++..+++++++++++++++
 72
    65
 73
     2
 40
40.0
 49
37.5
 49
-2.5
  0
LTYPE
  2
LONG4
 70
    64
  3
+++++++++++++++..+++++++++++++++
 72
    65
 73
     2
 40
80.0
 49
75.0
 49
-5.0
  0
LTYPE
  2
LONG5
 70
    64
  3
----------  --  ----------  --  
 72
    65
 73
     4
 40
60.0
 49
37.5
 49
-7.5
 49
7.5
 49
-7.5
  0
LTYPE
  2
dashed
 70
   64
  3
-------   -------------   ------
 72
   65
 73
    2
 40
7.5
 49
6
 49
-1.5
  0
LTYPE
  2
dashed_spaced
 70
   64
  3
----        --------        ----
 72
   65
 73
    2
 40
12
 49
6
 49
-6
  0
LTYPE
  2
long_dashed_dotted
 70
   64
  3
------------- --- --------------
 72
   65
 73
    4
 40
15.25
 49
12
 49
-1.5
 49
0.25
 49
-1.5
  0
LTYPE
  2
long_dashed_double-dotted
 70
   64
  3
----------- --- --- ------------
 72
   65
 73
    6
 40
17
 49
12
 49
-1.5
 49
0.25
 49
-1.5
 49
0.25
 49
-1.5
  0
LTYPE
  2
long_dashed_triplicate-dotted
 70
   64
  3
--------- --- --- --- ----------
 72
   65
 73
    8
 40
18.75
 49
12
 49
-1.5
 49
0.25
 49
-1.5
 49
0.25
 49
-1.5
 49
0.25
 49
-1.5
  0
LTYPE
  2
dotted
 70
   64
  3
   -       -       -       -    
 72
   65
 73
    2
 40
1.75
 49
0.25
 49
-1.5
  0
LTYPE
  2
chain
 70
   64
  3
-------------- -- --------------
 72
   65
 73
    4
 40
18.5
 49
12
 49
-1.5
 49
3.5
 49
-1.5
  0
LTYPE
  2
chain_double_dash
 70
   64
  3
------------ -- -- -------------
 72
   65
 73
    6
 40
23.5
 49
12
 49
-1.5
 49
3.5
 49
-1.5
 49
3.5
 49
-1.5
  0
LTYPE
  2
dashed_dotted
 70
   64
  3
-----------     -     ----------
 72
   65
 73
    4
 40
9.25
 49
6
 49
-1.5
 49
0.25
 49
-1.5
  0
LTYPE
  2
double-dashed_dotted
 70
   64
  3
------   -----------   -   -----
 72
   65
 73
    6
 40
16.75
 49
6
 49
-1.5
 49
6
 49
-1.5
 49
0.25
 49
-1.5
  0
LTYPE
  2
dashed_double-dotted
 70
   64
  3
---------    -    -    ---------
 72
   65
 73
    6
 40
11
 49
6
 49
-1.5
 49
0.25
 49
-1.5
 49
0.25
 49
-1.5
  0
LTYPE
  2
double-dashed_double-dotted
 70
   64
  3
-----   ---------   -   -   ----
 72
   65
 73
    8
 40
18.5
 49
6
 49
-1.5
 49
6
 49
-1.5
 49
0.25
 49
-1.5
 49
0.25
 49
-1.5
  0
LTYPE
  2
dashed_triplicate-dotted
 70
   64
  3
-------    -    -    -    ------
 72
   65
 73
    8
 40
12.75
 49
6
 49
-1.5
 49
0.25
 49
-1.5
 49
0.25
 49
-1.5
 49
0.25
 49
-1.5
  0
LTYPE
  2
double-dashed_triplicate-dotted
 70
   64
  3
-----  ---------  -  -  -  -----
 72
   65
 73
   10
 40
20.25
 49
6
 49
-1.5
 49
6
 49
-1.5
 49
0.25
 49
-1.5
 49
0.25
 49
-1.5
 49
0.25
 49
-1.5
  0
LTYPE
  2
undefined
 70
   64
  3
--------------------------------
 72
   65
 73
    0
 40
0
  0
LTYPE
  2
_
 70
   64
  3
                                
 72
   65
 73
    0
 40
0
  0
LTYPE
  2
__18
 70
   64
  3
                                
 72
   65
 73
    0
 40
0
  0
LTYPE
  2
__19
 70
   64
  3
                                
 72
   65
 73
    0
 40
0
  0
LTYPE
  2
__20
 70
   64
  3
                                
 72
   65
 73
    0
 40
0
  0
LTYPE
  2
__21
 70
   64
  3
                                
 72
   65
 73
    0
 40
0
  0
LTYPE
  2
__22
 70
   64
  3
                                
 72
   65
 73
    0
 40
0
  0
LTYPE
  2
__23
 70
   64
  3
                                
 72
   65
 73
    0
 40
0
  0
LTYPE
  2
__24
 70
   64
  3
                                
 72
   65
 73
    0
 40
0
  0
LTYPE
  2
__25
 70
   64
  3
                                
 72
   65
 73
    0
 40
0
  0
LTYPE
  2
__26
 70
   64
  3
                                
 72
   65
 73
    0
 40
0
  0
LTYPE
  2
__27
 70
   64
  3
                                
 72
   65
 73
    0
 40
0
  0
LTYPE
  2
__28
 70
   64
  3
                                
 72
   65
 73
    0
 40
0
  0
LTYPE
  2
__29
 70
   64
  3
                                
 72
   65
 73
    0
 40
0
  0
LTYPE
  2
__30
 70
   64
  3
                                
 72
   65
 73
    0
 40
0
  0
LTYPE
  2
__31
 70
   64
  3
                                
 72
   65
 73
    0
 40
0
  0
LTYPE
  2
__32
 70
   64
  3
                                
 72
   65
 73
    0
 40
0
  0
ENDTAB
  0
TABLE
  2
STYLE
  5
3
100
AcDbSymbolTable
 70
     1
  0
STYLE
  5
10
100
AcDbSymbolTableRecord
100
AcDbTextStyleTableRecord
  2
STANDARD
 70
     0
 40
0.0
 41
1.0
 50
0.0
 71
     0
 42
0.2
  3
txt
  4
bigfont.shx
  0
STYLE
  5
26
100
AcDbSymbolTableRecord
100
AcDbTextStyleTableRecord
  2
TATEGAKI
 70
    68
 40
0.0
 41
1.0
 50
0.0
 71
     0
 42
1.0
  3
txt
  4
bigfont.shx
  0
ENDTAB
  0
TABLE
  2
LAYER
 70
    9
  0
LAYER
  2
_0-0_0
 70
   64
 62
    7
  6
CONTINUOUS
  0
LAYER
  2
_0-2_02___PRT_ALL_AXES
 70
   64
 62
    7
  6
CONTINUOUS
  0
LAYER
  2
_0-3_7_ALL_FEATURES
 70
   64
 62
    7
  6
CONTINUOUS
  0
LAYER
  2
_0-4_EL-M10011N_______9
 70
   64
 62
    7
  6
CONTINUOUS
  0
LAYER
  2
_0-5_EL-M10011N_______8
 70
   64
 62
    7
  6
CONTINUOUS
  0
LAYER
  2
_0-6__V_K___I
 70
   64
 62
    7
  6
CONTINUOUS
  0
LAYER
  2
_0-7__Z_P___M8_30
 70
   64
 62
    7
  6
CONTINUOUS
  0
LAYER
  2
_0-8_EL-M10011N_______3
 70
   64
 62
    7
  6
CONTINUOUS
  0
LAYER
  2
ADD_LINE
 70
   64
 62
    7
  6
CONTINUOUS
  0
ENDTAB
  0
ENDSEC
  0
SECTION
  2
BLOCKS
  0
BLOCK
  2
-000-SPECel-m10011nxaj005
 70
   64
 10
0
 20
0
 30
0
  0
TEXT
  8
_0-9_SPEC
 62
    7
 10
0
 20
0
 40
1.5
 41
1
 50
0
  1
ｴｸｽﾃﾘｱ 昼白色(5000K) Ra75
  0
TEXT
  8
_0-9_SPEC
 62
    7
 10
0
 20
-3
 40
1.5
 41
1
 50
0
  1
100V~242V共用ﾀｲﾌﾟ
  0
TEXT
  8
_0-9_SPEC
 62
    7
 10
0
 20
-6
 40
1.5
 41
1
 50
0
  1
本体:ｽﾃﾝﾚｽ 黒色塗装仕上
  0
TEXT
  8
_0-9_SPEC
 62
    7
 10
0
 20
-9
 40
1.5
 41
1
 50
0
  1
光源寿命:60,000時間(光束維持率90%)
  0
ENDBLK
  0
ENDSEC
  0
SECTION
  2
ENTITIES
  0
TEXT
  8
_0-0_0
 62
    7
 10
-92.721556321707226
 20
2064.96737895357
 40
114.3
 41
1
 50
0
  1
ＬＥＤ９６．８Ｗ×２　街路灯
  0
TEXT
  8
_0-0_0
 62
    7
 10
-65.733605138020152
 20
-68.632494046426871
 40
114.3
 41
1
 50
0
  1
三菱　EL-M10011N×2+EL-XAJ005/K+PL9045DMW
  0
LINE
  8
_0-2_02___PRT_ALL_AXES
  6
CONTINUOUS
 62
    7
 10
878.95377628839879
 20
538.6572385447671
 11
870.00607785317379
 21
1038.5771708266388
  0
LINE
  8
_0-2_02___PRT_ALL_AXES
  6
CONTINUOUS
 62
    7
 10
1033.7950065553487
 20
539.884665969244
 11
1024.8473081208176
 21
1039.8045982511289
  0
LINE
  8
_0-5_EL-M10011N_______8
  6
CONTINUOUS
 62
    7
 10
-4.0086467204341147
 20
1216.3031020908552
 11
-3.9708987126192596
 21
1215.8694583874048
  0
LINE
  8
_0-5_EL-M10011N_______8
  6
CONTINUOUS
 62
    7
 10
-3.9708987126192596
 20
1215.8694583874048
 11
-3.8294746833011573
 21
1215.4522839393071
  0
LINE
  8
_0-5_EL-M10011N_______8
  6
CONTINUOUS
 62
    7
 10
-3.8294746833011573
 20
1215.4522839393071
 11
-3.5906148897484513
 21
1215.0788613153131
  0
LINE
  8
_0-5_EL-M10011N_______8
  6
CONTINUOUS
 62
    7
 10
-3.5906148897484513
 20
1215.0788613153131
 11
-3.2772319838773001
 21
1214.780064365792
  0
LINE
  8
_0-4_EL-M10011N_______9
  6
CONTINUOUS
 62
    7
 10
1.694420969927819
 20
1363.5496210231872
 11
1.694516453860615
 21
1363.5339847267992
  0
LINE
  8
_0-4_EL-M10011N_______9
  6
CONTINUOUS
 62
    7
 10
1.694516453860615
 20
1363.5339847267992
 11
1.7048154797447523
 21
1363.5048115682289
  0
LINE
  8
_0-5_EL-M10011N_______8
  6
CONTINUOUS
 62
    7
 10
-4.0086467204341147
 20
1216.3031020908552
 11
0.7207919100778781
 21
1361.94737427671
  0
LINE
  8
_0-4_EL-M10011N_______9
  6
CONTINUOUS
 62
    7
 10
2.3397540805785866
 20
1383.423108763051
 11
1.6944115775149271
 21
1363.5496213302731
  0
LINE
  8
_0-5_EL-M10011N_______8
  6
CONTINUOUS
 62
    7
 10
-3.002810771989175
 20
1216.8594951810128
 11
1.7266278585231021
 21
1362.5037673668671
  0
LINE
  8
_0-4_EL-M10011N_______9
  6
CONTINUOUS
 62
    7
 10
2.5326082010937512
 20
1364.013282238358
 11
3.1779507041579791
 21
1383.886769671135
  0
LINE
  8
_0-4_EL-M10011N_______9
  6
CONTINUOUS
 62
    7
 10
3.1779507041579791
 20
1383.886769671135
 11
3.2053823985947361
 21
1384.1897808197468
  0
LINE
  8
_0-4_EL-M10011N_______9
  6
CONTINUOUS
 62
    7
 10
3.2053823985947361
 20
1384.1897808197468
 11
3.2657873387447012
 21
1384.4518675955469
  0
LINE
  8
_0-4_EL-M10011N_______9
  6
CONTINUOUS
 62
    7
 10
3.2657873387447012
 20
1384.4518675955469
 11
3.3561365692725076
 21
1384.6598878729269
  0
LINE
  8
_0-4_EL-M10011N_______9
  6
CONTINUOUS
 62
    7
 10
3.3561365692725076
 20
1384.6598878729269
 11
3.4718996016536607
 21
1384.8034106468408
  0
LINE
  8
_0-4_EL-M10011N_______9
  6
CONTINUOUS
 62
    7
 10
3.4718996016536607
 20
1384.8034106468408
 11
3.607271595322743
 21
1384.875239085608
  0
LINE
  8
_0-4_EL-M10011N_______9
  6
CONTINUOUS
 62
    7
 10
3.607271595322743
 20
1384.875239085608
 11
3.6302219677617131
 21
1384.8797718852788
  0
LINE
  8
_0-5_EL-M10011N_______8
  6
CONTINUOUS
 62
    7
 10
1.7266278585231021
 20
1362.5037673668671
 11
1.7595458912387585
 21
1362.8673807450491
  0
LINE
  8
_0-5_EL-M10011N_______8
  6
CONTINUOUS
 62
    7
 10
1.7595458912387585
 20
1362.8673807450491
 11
1.8320318194187735
 21
1363.181884876009
  0
LINE
  8
_0-5_EL-M10011N_______8
  6
CONTINUOUS
 62
    7
 10
1.8320318194187735
 20
1363.181884876009
 11
1.9404508962048794
 21
1363.431509208865
  0
LINE
  8
_0-5_EL-M10011N_______8
  6
CONTINUOUS
 62
    7
 10
1.9404508962048794
 20
1363.431509208865
 11
2.0793665358229418
 21
1363.6037365372572
  0
LINE
  8
_0-5_EL-M10011N_______8
  6
CONTINUOUS
 62
    7
 10
2.0793665358229418
 20
1363.6037365372572
 11
2.2418129282269206
 21
1363.689930663319
  0
LINE
  8
_0-5_EL-M10011N_______8
  6
CONTINUOUS
 62
    7
 10
2.2418129282269206
 20
1363.689930663319
 11
2.2693533745427885
 21
1363.6953700235349
  0
LINE
  8
_0-5_EL-M10011N_______8
  6
CONTINUOUS
 62
    7
 10
0.7207919100778781
 20
1361.94737427671
 11
0.7886687029500194
 21
1362.3850621077072
  0
LINE
  8
_0-5_EL-M10011N_______8
  6
CONTINUOUS
 62
    7
 10
0.7886687029500194
 20
1362.3850621077072
 11
0.9643370808467466
 21
1362.8015460573129
  0
LINE
  8
_0-5_EL-M10011N_______8
  6
CONTINUOUS
 62
    7
 10
0.9643370808467466
 20
1362.8015460573129
 11
1.214498797438921
 21
1363.1388624916449
  0
LINE
  8
_0-5_EL-M10011N_______8
  6
CONTINUOUS
 62
    7
 10
1.214498797438921
 20
1363.1388624916449
 11
1.4900501147627665
 21
1363.3793015576289
  0
LINE
  8
_0-5_EL-M10011N_______8
  6
CONTINUOUS
 62
    7
 10
1.4900501147627665
 20
1363.3793015576289
 11
1.7689339316456199
 21
1363.5422827292532
  0
LINE
  8
_0-5_EL-M10011N_______8
  6
CONTINUOUS
 62
    7
 10
1.7689339316456199
 20
1363.5422827292532
 11
2.03131643126369
 21
1363.6421285950928
  0
LINE
  8
_0-5_EL-M10011N_______8
  6
CONTINUOUS
 62
    7
 10
2.03131643126369
 20
1363.6421285950928
 11
2.2693533745427885
 21
1363.6953700235349
  0
LINE
  8
_0-4_EL-M10011N_______9
  6
CONTINUOUS
 62
    7
 10
2.3397540805785866
 20
1383.423108763051
 11
2.3721024451438666
 21
1383.5291997964869
  0
LINE
  8
_0-4_EL-M10011N_______9
  6
CONTINUOUS
 62
    7
 10
2.3721024451438666
 20
1383.5291997964869
 11
2.4790776035570161
 21
1383.6437386286229
  0
LINE
  8
_0-4_EL-M10011N_______9
  6
CONTINUOUS
 62
    7
 10
2.4790776035570161
 20
1383.6437386286229
 11
2.655445963036982
 21
1383.744733922696
  0
LINE
  8
_0-4_EL-M10011N_______9
  6
CONTINUOUS
 62
    7
 10
2.655445963036982
 20
1383.744733922696
 11
2.8923636776690387
 21
1383.8271213535509
  0
LINE
  8
_0-4_EL-M10011N_______9
  6
CONTINUOUS
 62
    7
 10
2.8923636776690387
 20
1383.8271213535509
 11
3.1779507041579791
 21
1383.886769671135
  0
LINE
  8
_0-5_EL-M10011N_______8
  6
CONTINUOUS
 62
    7
 10
0.7207919100778781
 20
1361.94737427671
 11
0.7596099480119278
 21
1362.0746835171371
  0
LINE
  8
_0-5_EL-M10011N_______8
  6
CONTINUOUS
 62
    7
 10
0.7596099480119278
 20
1362.0746835171371
 11
0.8879801378037655
 21
1362.2121301152429
  0
LINE
  8
_0-5_EL-M10011N_______8
  6
CONTINUOUS
 62
    7
 10
0.8879801378037655
 20
1362.2121301152429
 11
1.0996221691797814
 21
1362.3333244687392
  0
LINE
  8
_0-5_EL-M10011N_______8
  6
CONTINUOUS
 62
    7
 10
1.0996221691797814
 20
1362.3333244687392
 11
1.3839234265847722
 21
1362.4321893853089
  0
LINE
  8
_0-5_EL-M10011N_______8
  6
CONTINUOUS
 62
    7
 10
1.3839234265847722
 20
1362.4321893853089
 11
1.7266278585231021
 21
1362.5037673668671
  0
LINE
  8
_0-5_EL-M10011N_______8
  6
CONTINUOUS
 62
    7
 10
92.451701450176529
 20
1203.6080261627949
 11
92.507016522172876
 21
1205.3114679425948
  0
LINE
  8
_0-6__V_K___I
  6
CONTINUOUS
 62
    7
 10
93.529815510353842
 20
1205.1600274689972
 11
93.578201256100897
 21
1206.6500788884309
  0
LINE
  8
_0-5_EL-M10011N_______8
  6
CONTINUOUS
 62
    7
 10
92.041718018178074
 20
1205.746230838879
 11
92.053902021748968
 21
1205.7270220403652
  0
LINE
  8
_0-5_EL-M10011N_______8
  6
CONTINUOUS
 62
    7
 10
92.053902021748968
 20
1205.7270220403652
 11
92.507016522172876
 21
1205.3114679425948
  0
LINE
  8
_0-5_EL-M10011N_______8
  6
CONTINUOUS
 62
    7
 10
91.638706399258751
 20
1204.9065465733688
 11
91.738178808899704
 21
1205.317659527876
  0
LINE
  8
_0-5_EL-M10011N_______8
  6
CONTINUOUS
 62
    7
 10
91.738178808899704
 20
1205.317659527876
 11
92.022413091839894
 21
1205.730081397975
  0
LINE
  8
_0-5_EL-M10011N_______8
  6
CONTINUOUS
 62
    7
 10
92.022413091839894
 20
1205.730081397975
 11
92.484024307552772
 21
1206.1162399970049
  0
LINE
  8
_0-5_EL-M10011N_______8
  6
CONTINUOUS
 62
    7
 10
92.484024307552772
 20
1206.1162399970049
 11
93.11204273680687
 21
1206.4668286585388
  0
LINE
  8
_0-5_EL-M10011N_______8
  6
CONTINUOUS
 62
    7
 10
93.11204273680687
 20
1206.4668286585388
 11
93.891708111179923
 21
1206.7733206627749
  0
LINE
  8
_0-5_EL-M10011N_______8
  6
CONTINUOUS
 62
    7
 10
93.891708111179923
 20
1206.7733206627749
 11
94.804742943220788
 21
1207.0281453812172
  0
LINE
  8
_0-5_EL-M10011N_______8
  6
CONTINUOUS
 62
    7
 10
94.804742943220788
 20
1207.0281453812172
 11
95.829686252741908
 21
1207.224851221993
  0
LINE
  8
_0-5_EL-M10011N_______8
  6
CONTINUOUS
 62
    7
 10
-2.2361252332262893
 20
1214.5403058260049
 11
-2.4176507126952629
 21
1214.720031393656
  0
LINE
  8
_0-5_EL-M10011N_______8
  6
CONTINUOUS
 62
    7
 10
-2.4176507126952629
 20
1214.720031393656
 11
-2.5873000175403149
 21
1214.9761624544171
  0
LINE
  8
_0-5_EL-M10011N_______8
  6
CONTINUOUS
 62
    7
 10
-2.5873000175403149
 20
1214.9761624544171
 11
-2.7365662239611765
 21
1215.295855527248
  0
LINE
  8
_0-5_EL-M10011N_______8
  6
CONTINUOUS
 62
    7
 10
-2.7365662239611765
 20
1215.295855527248
 11
-2.8579645000863252
 21
1215.6630798679812
  0
LINE
  8
_0-5_EL-M10011N_______8
  6
CONTINUOUS
 62
    7
 10
-2.8579645000863252
 20
1215.6630798679812
 11
-2.9454074306099187
 21
1216.0594213130421
  0
LINE
  8
_0-5_EL-M10011N_______8
  6
CONTINUOUS
 62
    7
 10
-2.9454074306099187
 20
1216.0594213130421
 11
-2.994510261792982
 21
1216.465005648176
  0
LINE
  8
_0-5_EL-M10011N_______8
  6
CONTINUOUS
 62
    7
 10
-2.994510261792982
 20
1216.465005648176
 11
-3.002810771989175
 21
1216.8594951810128
  0
LINE
  8
_0-5_EL-M10011N_______8
  6
CONTINUOUS
 62
    7
 10
226.08211565033386
 20
1105.2524868989049
 11
226.0268005783378
 21
1103.5490451191049
  0
LINE
  8
_0-6__V_K___I
  6
CONTINUOUS
 62
    7
 10
226.48905797005185
 20
1107.7434716296511
 11
226.41991413043655
 21
1105.614169404902
  0
LINE
  8
_0-5_EL-M10011N_______8
  6
CONTINUOUS
 62
    7
 10
236.25479046394773
 20
1102.0346403808389
 11
236.31010553594393
 21
1103.738082161402
  0
LINE
  8
_0-6__V_K___I
  6
CONTINUOUS
 62
    7
 10
236.6479040160479
 20
1104.0997646673968
 11
236.71704785566178
 21
1106.2290668921469
  0
LINE
  8
_0-5_EL-M10011N_______8
  6
CONTINUOUS
 62
    7
 10
-3.2772319838773001
 20
1214.780064365792
 11
-3.2420396021410625
 21
1214.7546426780009
  0
LINE
  8
_0-5_EL-M10011N_______8
  6
CONTINUOUS
 62
    7
 10
-3.2420396021410625
 20
1214.7546426780009
 11
-2.939056659720336
 21
1214.5995348751871
  0
LINE
  8
_0-5_EL-M10011N_______8
  6
CONTINUOUS
 62
    7
 10
-2.939056659720336
 20
1214.5995348751871
 11
-2.5980520722373512
 21
1214.5268747637128
  0
LINE
  8
_0-5_EL-M10011N_______8
  6
CONTINUOUS
 62
    7
 10
-2.5980520722373512
 20
1214.5268747637128
 11
-2.2361252332262893
 21
1214.5403058260049
  0
LINE
  8
_0-5_EL-M10011N_______8
  6
CONTINUOUS
 62
    7
 10
186.87890913361059
 20
1072.3371251971212
 11
-3.2772319838773001
 21
1214.780064365792
  0
LINE
  8
_0-5_EL-M10011N_______8
  6
CONTINUOUS
 62
    7
 10
187.92001588426189
 20
1072.097366657335
 11
-2.2361252332262893
 21
1214.5403058260049
  0
LINE
  8
_0-5_EL-M10011N_______8
  6
CONTINUOUS
 62
    7
 10
92.451701450176529
 20
1203.6080261627949
 11
91.998586949752621
 21
1204.023580259804
  0
LINE
  8
_0-5_EL-M10011N_______8
  6
CONTINUOUS
 62
    7
 10
91.998586949752621
 20
1204.023580259804
 11
91.725563088892557
 21
1204.4540184586149
  0
LINE
  8
_0-5_EL-M10011N_______8
  6
CONTINUOUS
 62
    7
 10
91.725563088892557
 20
1204.4540184586149
 11
91.638706399258751
 21
1204.9065465733688
  0
LINE
  8
_0-6__V_K___I
  6
CONTINUOUS
 62
    7
 10
93.529815510353842
 20
1205.1600274689972
 11
93.03780695868511
 21
1205.622275350951
  0
LINE
  8
_0-6__V_K___I
  6
CONTINUOUS
 62
    7
 10
93.03780695868511
 20
1205.622275350951
 11
92.76835588646378
 21
1206.1018928042108
  0
LINE
  8
_0-6__V_K___I
  6
CONTINUOUS
 62
    7
 10
92.76835588646378
 20
1206.1018928042108
 11
92.745257193011525
 21
1206.262072162795
  0
LINE
  8
_0-6__V_K___I
  6
CONTINUOUS
 62
    7
 10
226.48905797005185
 20
1107.7434716296511
 11
227.1884403381118
 21
1107.3132675332408
  0
LINE
  8
_0-6__V_K___I
  6
CONTINUOUS
 62
    7
 10
227.1884403381118
 20
1107.3132675332408
 11
228.07270796632068
 21
1106.9286526684868
  0
LINE
  8
_0-6__V_K___I
  6
CONTINUOUS
 62
    7
 10
228.07270796632068
 20
1106.9286526684868
 11
229.11473231051374
 21
1106.6010376386789
  0
LINE
  8
_0-6__V_K___I
  6
CONTINUOUS
 62
    7
 10
229.11473231051374
 20
1106.6010376386789
 11
230.2828880397287
 21
1106.3401397360408
  0
LINE
  8
_0-6__V_K___I
  6
CONTINUOUS
 62
    7
 10
230.2828880397287
 20
1106.3401397360408
 11
231.54207049824478
 21
1106.153696352007
  0
LINE
  8
_0-6__V_K___I
  6
CONTINUOUS
 62
    7
 10
231.54207049824478
 20
1106.153696352007
 11
232.85453426294993
 21
1106.0472971878689
  0
LINE
  8
_0-6__V_K___I
  6
CONTINUOUS
 62
    7
 10
232.85453426294993
 20
1106.0472971878689
 11
234.1810070715178
 21
1106.0242192269129
  0
LINE
  8
_0-6__V_K___I
  6
CONTINUOUS
 62
    7
 10
234.1810070715178
 20
1106.0242192269129
 11
235.48159995673672
 21
1106.085335444533
  0
LINE
  8
_0-6__V_K___I
  6
CONTINUOUS
 62
    7
 10
235.48159995673672
 20
1106.085335444533
 11
236.71704785566178
 21
1106.2290668921469
  0
LINE
  8
_0-5_EL-M10011N_______8
  6
CONTINUOUS
 62
    7
 10
186.87890913361059
 20
1072.3371251971212
 11
187.14261026203673
 21
1072.1725929463032
  0
LINE
  8
_0-5_EL-M10011N_______8
  6
CONTINUOUS
 62
    7
 10
187.14261026203673
 20
1072.1725929463032
 11
187.39100412567495
 21
1072.067871163621
  0
LINE
  8
_0-5_EL-M10011N_______8
  6
CONTINUOUS
 62
    7
 10
187.39100412567495
 20
1072.067871163621
 11
187.61871295448287
 21
1072.007115865777
  0
LINE
  8
_0-5_EL-M10011N_______8
  6
CONTINUOUS
 62
    7
 10
187.61871295448287
 20
1072.007115865777
 11
187.83397330323567
 21
1071.9774797632508
  0
LINE
  8
_0-5_EL-M10011N_______8
  6
CONTINUOUS
 62
    7
 10
187.83397330323567
 20
1071.9774797632508
 11
188.0451054423105
 21
1071.973339980319
  0
LINE
  8
_0-5_EL-M10011N_______8
  6
CONTINUOUS
 62
    7
 10
226.08211565033386
 20
1105.2524868989049
 11
226.70373996918585
 21
1104.8629712494389
  0
LINE
  8
_0-5_EL-M10011N_______8
  6
CONTINUOUS
 62
    7
 10
226.70373996918585
 20
1104.8629712494389
 11
227.47680563260062
 21
1104.5098004335568
  0
LINE
  8
_0-5_EL-M10011N_______8
  6
CONTINUOUS
 62
    7
 10
227.47680563260062
 20
1104.5098004335568
 11
228.38186894261383
 21
1104.2013116563271
  0
LINE
  8
_0-5_EL-M10011N_______8
  6
CONTINUOUS
 62
    7
 10
228.38186894261383
 20
1104.2013116563271
 11
229.39665023308677
 21
1103.944766700025
  0
LINE
  8
_0-5_EL-M10011N_______8
  6
CONTINUOUS
 62
    7
 10
229.39665023308677
 20
1103.944766700025
 11
230.4965087854616
 21
1103.7462174090369
  0
LINE
  8
_0-5_EL-M10011N_______8
  6
CONTINUOUS
 62
    7
 10
230.4965087854616
 20
1103.7462174090369
 11
231.65494938424757
 21
1103.6103922067232
  0
LINE
  8
_0-5_EL-M10011N_______8
  6
CONTINUOUS
 62
    7
 10
231.65494938424757
 20
1103.6103922067232
 11
232.84415513105387
 21
1103.5406043788121
  0
LINE
  8
_0-5_EL-M10011N_______8
  6
CONTINUOUS
 62
    7
 10
232.84415513105387
 20
1103.5406043788121
 11
234.03554129056786
 21
1103.5386828952269
  0
LINE
  8
_0-5_EL-M10011N_______8
  6
CONTINUOUS
 62
    7
 10
234.03554129056786
 20
1103.5386828952269
 11
235.20032500290569
 21
1103.6049265338852
  0
LINE
  8
_0-5_EL-M10011N_______8
  6
CONTINUOUS
 62
    7
 10
235.20032500290569
 20
1103.6049265338852
 11
236.31010553594393
 21
1103.738082161402
  0
LINE
  8
_0-5_EL-M10011N_______8
  6
CONTINUOUS
 62
    7
 10
226.0268005783378
 20
1103.5490451191049
 11
92.451701450176529
 21
1203.6080261627949
  0
LINE
  8
_0-5_EL-M10011N_______8
  6
CONTINUOUS
 62
    7
 10
92.507016522172876
 20
1205.3114679425948
 11
226.08211565033386
 21
1105.2524868989049
  0
LINE
  8
_0-6__V_K___I
  6
CONTINUOUS
 62
    7
 10
226.41991413043655
 20
1105.614169404902
 11
93.529815510353842
 21
1205.1600274689972
  0
LINE
  8
_0-6__V_K___I
  6
CONTINUOUS
 62
    7
 10
94.180291294997005
 20
1206.8538631857132
 11
226.48905797005185
 21
1107.7434716296511
  0
LINE
  8
_0-6__V_K___I
  6
CONTINUOUS
 62
    7
 10
500.67295681019868
 20
1147.0160211331631
 11
500.60381297058569
 21
1144.886718908414
  0
LINE
  8
_0-5_EL-M10011N_______8
  6
CONTINUOUS
 62
    7
 10
501.62661195876581
 20
1144.7352784340528
 11
501.57129688753184
 21
1143.0318366542529
  0
LINE
  8
_0-4_EL-M10011N_______9
  6
CONTINUOUS
 62
    7
 10
2.009080890262851
 20
1363.8707904268208
 11
1.8334575976194856
 21
1363.7700363834729
  0
LINE
  8
_0-4_EL-M10011N_______9
  6
CONTINUOUS
 62
    7
 10
1.8334575976194856
 20
1363.7700363834729
 11
1.7269023720709242
 21
1363.6559471755331
  0
LINE
  8
_0-4_EL-M10011N_______9
  6
CONTINUOUS
 62
    7
 10
1.7269023720709242
 20
1363.6559471755331
 11
1.694420969927819
 21
1363.5496210231872
  0
LINE
  8
_0-5_EL-M10011N_______8
  6
CONTINUOUS
 62
    7
 10
371.37418256193587
 20
1246.7076427579032
 11
504.94928168933399
 21
1146.648661713451
  0
LINE
  8
_0-5_EL-M10011N_______8
  6
CONTINUOUS
 62
    7
 10
504.94928168933399
 20
1146.648661713451
 11
505.40239618975789
 21
1146.2331076164428
  0
LINE
  8
_0-5_EL-M10011N_______8
  6
CONTINUOUS
 62
    7
 10
505.40239618975789
 20
1146.2331076164428
 11
505.67542005137966
 21
1145.802669417631
  0
LINE
  8
_0-5_EL-M10011N_______8
  6
CONTINUOUS
 62
    7
 10
505.67542005137966
 20
1145.802669417631
 11
505.76227674025176
 21
1145.350141302878
  0
LINE
  8
_0-5_EL-M10011N_______8
  6
CONTINUOUS
 62
    7
 10
572.36684841704982
 20
1449.9373828637772
 11
572.3382215553288
 21
1450.3101088719432
  0
LINE
  8
_0-5_EL-M10011N_______8
  6
CONTINUOUS
 62
    7
 10
572.3382215553288
 20
1450.3101088719432
 11
572.229158917728
 21
1450.6514939450772
  0
LINE
  8
_0-5_EL-M10011N_______8
  6
CONTINUOUS
 62
    7
 10
572.229158917728
 20
1450.6514939450772
 11
572.04512936071797
 21
1450.9444196106851
  0
LINE
  8
_0-5_EL-M10011N_______8
  6
CONTINUOUS
 62
    7
 10
572.04512936071797
 20
1450.9444196106851
 11
571.83055327653483
 21
1451.1487756655229
  0
LINE
  8
_0-4_EL-M10011N_______9
  6
CONTINUOUS
 62
    7
 10
572.59269318583074
 20
1471.2548161386549
 11
572.56883746823996
 21
1471.5654211453329
  0
LINE
  8
_0-4_EL-M10011N_______9
  6
CONTINUOUS
 62
    7
 10
572.56883746823996
 20
1471.5654211453329
 11
572.47795193677803
 21
1471.849908706406
  0
LINE
  8
_0-4_EL-M10011N_______9
  6
CONTINUOUS
 62
    7
 10
572.47795193677803
 20
1471.849908706406
 11
572.32459397247567
 21
1472.094013427492
  0
LINE
  8
_0-4_EL-M10011N_______9
  6
CONTINUOUS
 62
    7
 10
572.32459397247567
 20
1472.094013427492
 11
572.1457805691166
 21
1472.264310140491
  0
LINE
  8
_0-5_EL-M10011N_______8
  6
CONTINUOUS
 62
    7
 10
565.18269221414266
 20
1304.6565678156248
 11
565.19099272433959
 21
1304.262078282788
  0
LINE
  8
_0-5_EL-M10011N_______8
  6
CONTINUOUS
 62
    7
 10
565.19099272433959
 20
1304.262078282788
 11
565.24009555475868
 21
1303.8564939476528
  0
LINE
  8
_0-5_EL-M10011N_______8
  6
CONTINUOUS
 62
    7
 10
565.24009555475868
 20
1303.8564939476528
 11
565.32753848528273
 21
1303.460152501832
  0
LINE
  8
_0-5_EL-M10011N_______8
  6
CONTINUOUS
 62
    7
 10
565.32753848528273
 20
1303.460152501832
 11
565.4489367621718
 21
1303.0929281618592
  0
LINE
  8
_0-5_EL-M10011N_______8
  6
CONTINUOUS
 62
    7
 10
565.4489367621718
 20
1303.0929281618592
 11
565.59820296859061
 21
1302.773235088267
  0
LINE
  8
_0-5_EL-M10011N_______8
  6
CONTINUOUS
 62
    7
 10
565.59820296859061
 20
1302.773235088267
 11
565.7678522734368
 21
1302.517104027505
  0
LINE
  8
_0-5_EL-M10011N_______8
  6
CONTINUOUS
 62
    7
 10
565.7678522734368
 20
1302.517104027505
 11
565.94937775214385
 21
1302.3373784598548
  0
LINE
  8
_0-4_EL-M10011N_______9
  6
CONTINUOUS
 62
    7
 10
570.54709520870983
 20
1471.5576970866132
 11
569.90175270564578
 21
1451.6842096538348
  0
LINE
  8
_0-5_EL-M10011N_______8
  6
CONTINUOUS
 62
    7
 10
569.91213084465562
 20
1450.300840000717
 11
565.18269221414266
 21
1304.6565678156248
  0
LINE
  8
_0-4_EL-M10011N_______9
  6
CONTINUOUS
 62
    7
 10
571.94735068276668
 20
1451.381328705877
 11
572.59269318583074
 21
1471.2548161386549
  0
LINE
  8
_0-5_EL-M10011N_______8
  6
CONTINUOUS
 62
    7
 10
567.63740978653777
 20
1304.293110678685
 11
572.36684841704982
 21
1449.9373828637772
  0
LINE
  8
_0-5_EL-M10011N_______8
  6
CONTINUOUS
 62
    7
 10
505.76227674025176
 20
1145.350141302878
 11
505.66280433061183
 21
1144.939028349133
  0
LINE
  8
_0-5_EL-M10011N_______8
  6
CONTINUOUS
 62
    7
 10
505.66280433061183
 20
1144.939028349133
 11
505.37857004767193
 21
1144.526606479033
  0
LINE
  8
_0-5_EL-M10011N_______8
  6
CONTINUOUS
 62
    7
 10
505.37857004767193
 20
1144.526606479033
 11
504.91695883272001
 21
1144.140447879241
  0
LINE
  8
_0-5_EL-M10011N_______8
  6
CONTINUOUS
 62
    7
 10
504.91695883272001
 20
1144.140447879241
 11
504.28894040346592
 21
1143.7898592184688
  0
LINE
  8
_0-5_EL-M10011N_______8
  6
CONTINUOUS
 62
    7
 10
504.28894040346592
 20
1143.7898592184688
 11
503.50927502909286
 21
1143.483367213471
  0
LINE
  8
_0-5_EL-M10011N_______8
  6
CONTINUOUS
 62
    7
 10
503.50927502909286
 20
1143.483367213471
 11
502.59624019705188
 21
1143.2285424957909
  0
LINE
  8
_0-5_EL-M10011N_______8
  6
CONTINUOUS
 62
    7
 10
502.59624019705188
 20
1143.2285424957909
 11
501.57129688753184
 21
1143.0318366542529
  0
LINE
  8
_0-5_EL-M10011N_______8
  6
CONTINUOUS
 62
    7
 10
568.23386920093162
 20
1278.9098387948352
 11
568.30712385528568
 21
1279.1846965077548
  0
LINE
  8
_0-5_EL-M10011N_______8
  6
CONTINUOUS
 62
    7
 10
568.30712385528568
 20
1279.1846965077548
 11
568.53342716747284
 21
1279.4727941840351
  0
LINE
  8
_0-5_EL-M10011N_______8
  6
CONTINUOUS
 62
    7
 10
568.53342716747284
 20
1279.4727941840351
 11
568.90261879637274
 21
1279.7354836111581
  0
LINE
  8
_0-5_EL-M10011N_______8
  6
CONTINUOUS
 62
    7
 10
568.90261879637274
 20
1279.7354836111581
 11
569.40761238963478
 21
1279.967126858563
  0
LINE
  8
_0-5_EL-M10011N_______8
  6
CONTINUOUS
 62
    7
 10
569.40761238963478
 20
1279.967126858563
 11
570.03039423296877
 21
1280.157969145916
  0
LINE
  8
_0-5_EL-M10011N_______8
  6
CONTINUOUS
 62
    7
 10
570.03039423296877
 20
1280.157969145916
 11
570.74843442706197
 21
1280.3008223237589
  0
LINE
  8
_0-5_EL-M10011N_______8
  6
CONTINUOUS
 62
    7
 10
188.25460604947182
 20
1071.9934582052592
 11
188.10431509173497
 21
1072.003058773561
  0
LINE
  8
_0-5_EL-M10011N_______8
  6
CONTINUOUS
 62
    7
 10
188.10431509173497
 20
1072.003058773561
 11
187.92001588426189
 21
1072.097366657335
  0
LINE
  8
_0-7__Z_P___M8_30
  6
CONTINUOUS
 62
    7
 10
636.23443504661873
 20
1319.7112511994669
 11
636.21269001111477
 21
1318.9228735803908
  0
LINE
  8
_0-7__Z_P___M8_30
  6
CONTINUOUS
 62
    7
 10
636.21269001111477
 20
1318.9228735803908
 11
636.12681392023069
 21
1318.1486232378611
  0
LINE
  8
_0-7__Z_P___M8_30
  6
CONTINUOUS
 62
    7
 10
636.12681392023069
 20
1318.1486232378611
 11
635.97244725766677
 21
1317.3791957236331
  0
LINE
  8
_0-7__Z_P___M8_30
  6
CONTINUOUS
 62
    7
 10
635.97244725766677
 20
1317.3791957236331
 11
635.74456701314875
 21
1316.6052880052589
  0
LINE
  8
_0-7__Z_P___M8_30
  6
CONTINUOUS
 62
    7
 10
635.74456701314875
 20
1316.6052880052589
 11
635.43924884476792
 21
1315.8209744948949
  0
LINE
  8
_0-7__Z_P___M8_30
  6
CONTINUOUS
 62
    7
 10
635.43924884476792
 20
1315.8209744948949
 11
635.0530255229819
 21
1315.019051528006
  0
LINE
  8
_0-7__Z_P___M8_30
  6
CONTINUOUS
 62
    7
 10
635.0530255229819
 20
1315.019051528006
 11
634.58065943774363
 21
1314.1882860800652
  0
LINE
  8
_0-7__Z_P___M8_30
  6
CONTINUOUS
 62
    7
 10
634.58065943774363
 20
1314.1882860800652
 11
634.01778532803564
 21
1313.319724600783
  0
LINE
  8
_0-7__Z_P___M8_30
  6
CONTINUOUS
 62
    7
 10
634.01778532803564
 20
1313.319724600783
 11
633.36415749610069
 21
1312.4099108387531
  0
LINE
  8
_0-7__Z_P___M8_30
  6
CONTINUOUS
 62
    7
 10
638.53922970042004
 20
1390.687992030817
 11
638.51748466567778
 21
1389.8996144109792
  0
LINE
  8
_0-7__Z_P___M8_30
  6
CONTINUOUS
 62
    7
 10
638.51748466567778
 20
1389.8996144109792
 11
638.43160857479279
 21
1389.1253640692112
  0
LINE
  8
_0-7__Z_P___M8_30
  6
CONTINUOUS
 62
    7
 10
638.43160857479279
 20
1389.1253640692112
 11
638.27724191146672
 21
1388.3559365549831
  0
LINE
  8
_0-7__Z_P___M8_30
  6
CONTINUOUS
 62
    7
 10
638.27724191146672
 20
1388.3559365549831
 11
638.0493616669487
 21
1387.582028836609
  0
LINE
  8
_0-7__Z_P___M8_30
  6
CONTINUOUS
 62
    7
 10
638.0493616669487
 20
1387.582028836609
 11
637.74404349933002
 21
1386.797715326245
  0
LINE
  8
_0-7__Z_P___M8_30
  6
CONTINUOUS
 62
    7
 10
637.74404349933002
 20
1386.797715326245
 11
637.357820177544
 21
1385.9957923593552
  0
LINE
  8
_0-7__Z_P___M8_30
  6
CONTINUOUS
 62
    7
 10
637.357820177544
 20
1385.9957923593552
 11
636.88545409230574
 21
1385.1650269114152
  0
LINE
  8
_0-7__Z_P___M8_30
  6
CONTINUOUS
 62
    7
 10
636.88545409230574
 20
1385.1650269114152
 11
636.32257998259774
 21
1384.2964654321331
  0
LINE
  8
_0-7__Z_P___M8_30
  6
CONTINUOUS
 62
    7
 10
636.32257998259774
 20
1384.2964654321331
 11
635.66895215066279
 21
1383.3866516701032
  0
LINE
  8
_0-8_EL-M10011N_______3
  6
CONTINUOUS
 62
    7
 10
617.62719593909878
 20
1400.3296800290891
 11
614.21609985071382
 21
1295.2841035986912
  0
LINE
  8
_0-0_0
  6
CONTINUOUS
 62
    7
 10
621.70898834547597
 20
1400.9604061255209
 11
618.2978922578518
 21
1295.9148296958861
  0
LINE
  8
_0-8_EL-M10011N_______3
  6
CONTINUOUS
 62
    7
 10
618.2978922578518
 20
1295.9148296958861
 11
621.70898834547597
 21
1400.9604061255209
  0
LINE
  8
_0-0_0
  6
CONTINUOUS
 62
    7
 10
627.83167695580187
 20
1401.9064952701692
 11
624.42058086741463
 21
1296.860918840533
  0
LINE
  8
_0-7__Z_P___M8_30
  6
CONTINUOUS
 62
    7
 10
645.93726803639265
 20
1374.798692518903
 11
645.98421229150199
 21
1375.178965661582
  0
LINE
  8
_0-7__Z_P___M8_30
  6
CONTINUOUS
 62
    7
 10
645.98421229150199
 20
1375.178965661582
 11
646.0715630383138
 21
1377.7132763323452
  0
LINE
  8
_0-7__Z_P___M8_30
  6
CONTINUOUS
 62
    7
 10
646.0715630383138
 20
1377.7132763323452
 11
645.81080165483263
 21
1380.4101019061709
  0
LINE
  8
_0-7__Z_P___M8_30
  6
CONTINUOUS
 62
    7
 10
645.81080165483263
 20
1380.4101019061709
 11
645.22316812906183
 21
1383.0461636401328
  0
LINE
  8
_0-7__Z_P___M8_30
  6
CONTINUOUS
 62
    7
 10
645.22316812906183
 20
1383.0461636401328
 11
644.2685210340419
 21
1385.5988662614131
  0
LINE
  8
_0-7__Z_P___M8_30
  6
CONTINUOUS
 62
    7
 10
643.63247338183191
 20
1303.821951688315
 11
643.67941763693989
 21
1304.202224830231
  0
LINE
  8
_0-7__Z_P___M8_30
  6
CONTINUOUS
 62
    7
 10
643.67941763693989
 20
1304.202224830231
 11
643.76676838451385
 21
1306.7365355009952
  0
LINE
  8
_0-7__Z_P___M8_30
  6
CONTINUOUS
 62
    7
 10
643.76676838451385
 20
1306.7365355009952
 11
643.50600700027098
 21
1309.4333610748208
  0
LINE
  8
_0-7__Z_P___M8_30
  6
CONTINUOUS
 62
    7
 10
643.50600700027098
 20
1309.4333610748208
 11
642.91837347449882
 21
1312.0694228095449
  0
LINE
  8
_0-7__Z_P___M8_30
  6
CONTINUOUS
 62
    7
 10
642.91837347449882
 20
1312.0694228095449
 11
641.96372638024195
 21
1314.6221254300631
  0
LINE
  8
_0-2_02___PRT_ALL_AXES
  6
CONTINUOUS
 62
    7
 10
655.31597239705798
 20
1335.707542911925
 11
655.53346184422071
 21
1337.2628688820391
  0
LINE
  8
_0-2_02___PRT_ALL_AXES
  6
CONTINUOUS
 62
    7
 10
655.53346184422071
 20
1337.2628688820391
 11
655.78249667482669
 21
1338.779368015405
  0
LINE
  8
_0-2_02___PRT_ALL_AXES
  6
CONTINUOUS
 62
    7
 10
655.78249667482669
 20
1338.779368015405
 11
656.06267838040185
 21
1340.2546352380932
  0
LINE
  8
_0-2_02___PRT_ALL_AXES
  6
CONTINUOUS
 62
    7
 10
656.06267838040185
 20
1340.2546352380932
 11
656.37355867481983
 21
1341.686332272332
  0
LINE
  8
_0-2_02___PRT_ALL_AXES
  6
CONTINUOUS
 62
    7
 10
656.37355867481983
 20
1341.686332272332
 11
656.71464026773674
 21
1343.0721913649709
  0
LINE
  8
_0-2_02___PRT_ALL_AXES
  6
CONTINUOUS
 62
    7
 10
656.71464026773674
 20
1343.0721913649709
 11
657.08537774470096
 21
1344.410018990809
  0
LINE
  8
_0-2_02___PRT_ALL_AXES
  6
CONTINUOUS
 62
    7
 10
657.08537774470096
 20
1344.410018990809
 11
657.48517851202678
 21
1345.697699333401
  0
LINE
  8
_0-2_02___PRT_ALL_AXES
  6
CONTINUOUS
 62
    7
 10
657.48517851202678
 20
1345.697699333401
 11
657.91340381635791
 21
1346.9331975929049
  0
LINE
  8
_0-2_02___PRT_ALL_AXES
  6
CONTINUOUS
 62
    7
 10
657.91340381635791
 20
1346.9331975929049
 11
658.36936986175169
 21
1348.1145632542989
  0
LINE
  8
_0-2_02___PRT_ALL_AXES
  6
CONTINUOUS
 62
    7
 10
658.36936986175169
 20
1348.1145632542989
 11
658.85234898469071
 21
1349.2399330904232
  0
LINE
  8
_0-2_02___PRT_ALL_AXES
  6
CONTINUOUS
 62
    7
 10
658.85234898469071
 20
1349.2399330904232
 11
659.36157087937772
 21
1350.3075340156688
  0
LINE
  8
_0-2_02___PRT_ALL_AXES
  6
CONTINUOUS
 62
    7
 10
659.36157087937772
 20
1350.3075340156688
 11
659.89622394189473
 21
1351.3156858604229
  0
LINE
  8
_0-2_02___PRT_ALL_AXES
  6
CONTINUOUS
 62
    7
 10
659.89622394189473
 20
1351.3156858604229
 11
660.45545662581571
 21
1352.2628038704252
  0
LINE
  8
_0-2_02___PRT_ALL_AXES
  6
CONTINUOUS
 62
    7
 10
660.45545662581571
 20
1352.2628038704252
 11
661.03837886484462
 21
1353.1474010704928
  0
LINE
  8
_0-2_02___PRT_ALL_AXES
  6
CONTINUOUS
 62
    7
 10
661.03837886484462
 20
1353.1474010704928
 11
661.64406359683062
 21
1353.9680905147088
  0
LINE
  8
_0-2_02___PRT_ALL_AXES
  6
CONTINUOUS
 62
    7
 10
661.64406359683062
 20
1353.9680905147088
 11
662.27154827632785
 21
1354.7235872638089
  0
LINE
  8
_0-2_02___PRT_ALL_AXES
  6
CONTINUOUS
 62
    7
 10
662.27154827632785
 20
1354.7235872638089
 11
662.919836464127
 21
1355.412710243701
  0
LINE
  8
_0-2_02___PRT_ALL_AXES
  6
CONTINUOUS
 62
    7
 10
662.919836464127
 20
1355.412710243701
 11
663.58789949299671
 21
1356.0343839523448
  0
LINE
  8
_0-2_02___PRT_ALL_AXES
  6
CONTINUOUS
 62
    7
 10
663.58789949299671
 20
1356.0343839523448
 11
664.27467811359566
 21
1356.5876399212689
  0
LINE
  8
_0-2_02___PRT_ALL_AXES
  6
CONTINUOUS
 62
    7
 10
664.27467811359566
 20
1356.5876399212689
 11
664.97908421430566
 21
1357.0716180505929
  0
LINE
  8
_0-2_02___PRT_ALL_AXES
  6
CONTINUOUS
 62
    7
 10
664.97908421430566
 20
1357.0716180505929
 11
665.70000260279403
 21
1357.4855677817468
  0
LINE
  8
_0-2_02___PRT_ALL_AXES
  6
CONTINUOUS
 62
    7
 10
665.70000260279403
 20
1357.4855677817468
 11
666.43629274793966
 21
1357.8288490453988
  0
LINE
  8
_0-2_02___PRT_ALL_AXES
  6
CONTINUOUS
 62
    7
 10
666.43629274793966
 20
1357.8288490453988
 11
667.18679060787599
 21
1358.1009330813672
  0
LINE
  8
_0-2_02___PRT_ALL_AXES
  6
CONTINUOUS
 62
    7
 10
667.18679060787599
 20
1358.1009330813672
 11
667.9899576273956
 21
1358.3097811711632
  0
LINE
  8
_0-7__Z_P___M8_30
  6
CONTINUOUS
 62
    7
 10
645.5550925751927
 20
1373.0029784865128
 11
645.93726803639265
 21
1374.798692518903
  0
LINE
  8
_0-7__Z_P___M8_30
  6
CONTINUOUS
 62
    7
 10
643.25029792139276
 20
1302.0262376559249
 11
643.63247338183191
 21
1303.821951688315
  0
LINE
  8
_0-5_EL-M10011N_______8
  6
CONTINUOUS
 62
    7
 10
577.37300270317201
 20
1278.61306797512
 11
577.29974804881795
 21
1278.338210262199
  0
LINE
  8
_0-5_EL-M10011N_______8
  6
CONTINUOUS
 62
    7
 10
577.29974804881795
 20
1278.338210262199
 11
577.07344473662988
 21
1278.0501125866808
  0
LINE
  8
_0-5_EL-M10011N_______8
  6
CONTINUOUS
 62
    7
 10
577.07344473662988
 20
1278.0501125866808
 11
576.70425310849078
 21
1277.787423158798
  0
LINE
  8
_0-5_EL-M10011N_______8
  6
CONTINUOUS
 62
    7
 10
576.70425310849078
 20
1277.787423158798
 11
576.19925951446794
 21
1277.5557799113908
  0
LINE
  8
_0-5_EL-M10011N_______8
  6
CONTINUOUS
 62
    7
 10
576.19925951446794
 20
1277.5557799113908
 11
575.57647767113394
 21
1277.3649376240401
  0
LINE
  8
_0-5_EL-M10011N_______8
  6
CONTINUOUS
 62
    7
 10
575.57647767113394
 20
1277.3649376240401
 11
574.85843747704166
 21
1277.2220844461949
  0
LINE
  8
_0-7__Z_P___M8_30
  6
CONTINUOUS
 62
    7
 10
629.13268665425994
 20
1382.3766558615489
 11
632.00296394036377
 21
1389.6779961811148
  0
LINE
  8
_0-7__Z_P___M8_30
  6
CONTINUOUS
 62
    7
 10
626.82789199969784
 20
1311.3999150301988
 11
629.69816928656383
 21
1318.7012553505269
  0
LINE
  8
_0-6__V_K___I
  6
CONTINUOUS
 62
    7
 10
504.68757465928178
 20
1146.8447022855548
 11
504.5915720806488
 21
1146.6082059005348
  0
LINE
  8
_0-4_EL-M10011N_______9
  6
CONTINUOUS
 62
    7
 10
2.2457269237006017
 20
1363.9532811140111
 11
2.009080890262851
 21
1363.8707904268208
  0
LINE
  8
_0-2_02___PRT_ALL_AXES
  6
CONTINUOUS
 62
    7
 10
1029.183690460482
 20
1086.617420390347
 11
1035.6075386379048
 21
1087.958906205211
  0
LINE
  8
_0-2_02___PRT_ALL_AXES
  6
CONTINUOUS
 62
    7
 10
1027.1063527030487
 20
1090.5527757225668
 11
1017.0677355245448
 21
1088.4564212988248
  0
LINE
  8
_0-0_0
  6
CONTINUOUS
 62
    2
 10
1015.5337864982157
 20
1089.186979469659
 11
1026.606701933747
 21
1091.4993253682001
  0
LINE
  8
_0-2_02___PRT_ALL_AXES
  6
CONTINUOUS
 62
    7
 10
1024.6367093154477
 20
1095.231323655014
 11
1031.0605574928718
 21
1096.572809469877
  0
LINE
  8
_0-0_0
  6
CONTINUOUS
 62
    2
 10
1013.3112895741547
 20
1099.0760822423408
 11
1024.5259779389939
 21
1101.418034440826
  0
LINE
  8
_0-2_02___PRT_ALL_AXES
  6
CONTINUOUS
 62
    7
 10
1024.5072388517578
 20
1102.465012393855
 11
1014.575456011019
 21
1100.3909680781471
  0
LINE
  8
_0-2_02___PRT_ALL_AXES
  6
CONTINUOUS
 62
    7
 10
1024.4477536334148
 20
1105.7885314488608
 11
1030.8716018108389
 21
1107.1300172637252
  0
LINE
  8
_0-2_02___PRT_ALL_AXES
  6
CONTINUOUS
 62
    7
 10
1028.8057790971789
 20
1107.7318359772812
 11
1035.2296272746039
 21
1109.0733217921452
  0
LINE
  8
_0-2_02___PRT_ALL_AXES
  6
CONTINUOUS
 62
    7
 10
1017.0677354399627
 20
1088.4564217057332
 11
1016.9529088926288
 21
1088.440098697231
  0
LINE
  8
_0-2_02___PRT_ALL_AXES
  6
CONTINUOUS
 62
    7
 10
1016.9529088926288
 20
1088.440098697231
 11
1016.8212332641847
 21
1088.439036607153
  0
LINE
  8
_0-2_02___PRT_ALL_AXES
  6
CONTINUOUS
 62
    7
 10
1016.8212332641847
 20
1088.439036607153
 11
1016.6855152546977
 21
1088.455934818975
  0
LINE
  8
_0-2_02___PRT_ALL_AXES
  6
CONTINUOUS
 62
    7
 10
1016.6855152546977
 20
1088.455934818975
 11
1016.5462364009209
 21
1088.4906994611561
  0
LINE
  8
_0-2_02___PRT_ALL_AXES
  6
CONTINUOUS
 62
    7
 10
1016.5462364009209
 20
1088.4906994611561
 11
1016.4036414077268
 21
1088.5432326875589
  0
LINE
  8
_0-2_02___PRT_ALL_AXES
  6
CONTINUOUS
 62
    7
 10
1016.4036414077268
 20
1088.5432326875589
 11
1016.2582269848158
 21
1088.6133203952372
  0
LINE
  8
_0-2_02___PRT_ALL_AXES
  6
CONTINUOUS
 62
    7
 10
1016.2582269848158
 20
1088.6133203952372
 11
1016.1103099573079
 21
1088.7007806071592
  0
LINE
  8
_0-2_02___PRT_ALL_AXES
  6
CONTINUOUS
 62
    7
 10
1016.1103099573079
 20
1088.7007806071592
 11
1015.9603845286847
 21
1088.8053036480492
  0
LINE
  8
_0-5_EL-M10011N_______8
  6
CONTINUOUS
 62
    7
 10
187.92001588426189
 20
1072.097366657335
 11
187.55808904525054
 21
1072.0839355950429
  0
LINE
  8
_0-5_EL-M10011N_______8
  6
CONTINUOUS
 62
    7
 10
187.55808904525054
 20
1072.0839355950429
 11
187.21708445776756
 21
1072.1565957065168
  0
LINE
  8
_0-5_EL-M10011N_______8
  6
CONTINUOUS
 62
    7
 10
187.21708445776756
 20
1072.1565957065168
 11
186.91410151610995
 21
1072.311703510094
  0
LINE
  8
_0-5_EL-M10011N_______8
  6
CONTINUOUS
 62
    7
 10
186.91410151610995
 20
1072.311703510094
 11
186.87890913361059
 21
1072.3371251971212
  0
LINE
  8
_0-2_02___PRT_ALL_AXES
  6
CONTINUOUS
 62
    7
 10
880.63723567895386
 20
1089.405586323529
 11
880.7862928649638
 21
1089.3783969755709
  0
LINE
  8
_0-2_02___PRT_ALL_AXES
  6
CONTINUOUS
 62
    7
 10
880.7862928649638
 20
1089.3783969755709
 11
880.95148864328394
 21
1089.3663288927728
  0
LINE
  8
_0-2_02___PRT_ALL_AXES
  6
CONTINUOUS
 62
    7
 10
880.95148864328394
 20
1089.3663288927728
 11
881.12082644252996
 21
1089.3721804972752
  0
LINE
  8
_0-2_02___PRT_ALL_AXES
  6
CONTINUOUS
 62
    7
 10
881.12082644252996
 20
1089.3721804972752
 11
881.29385311349279
 21
1089.3959043271452
  0
LINE
  8
_0-2_02___PRT_ALL_AXES
  6
CONTINUOUS
 62
    7
 10
881.29385311349279
 20
1089.3959043271452
 11
881.47009845264483
 21
1089.437402770945
  0
LINE
  8
_0-2_02___PRT_ALL_AXES
  6
CONTINUOUS
 62
    7
 10
881.47009845264483
 20
1089.437402770945
 11
881.64907589479071
 21
1089.4965296603109
  0
LINE
  8
_0-2_02___PRT_ALL_AXES
  6
CONTINUOUS
 62
    7
 10
881.64907589479071
 20
1089.4965296603109
 11
881.83028314400963
 21
1089.573091724611
  0
LINE
  8
_0-2_02___PRT_ALL_AXES
  6
CONTINUOUS
 62
    7
 10
881.83028314400963
 20
1089.573091724611
 11
882.01320278324965
 21
1089.6668498429108
  0
LINE
  8
_0-2_02___PRT_ALL_AXES
  6
CONTINUOUS
 62
    7
 10
882.01320278324965
 20
1089.6668498429108
 11
882.19730288164783
 21
1089.777520046006
  0
LINE
  8
_0-2_02___PRT_ALL_AXES
  6
CONTINUOUS
 62
    7
 10
882.19730288164783
 20
1089.777520046006
 11
882.38203766203696
 21
1089.9047742441248
  0
LINE
  8
_0-2_02___PRT_ALL_AXES
  6
CONTINUOUS
 62
    7
 10
882.38203766203696
 20
1089.9047742441248
 11
882.56684827209574
 21
1090.048240692523
  0
LINE
  8
_0-2_02___PRT_ALL_AXES
  6
CONTINUOUS
 62
    7
 10
882.56684827209574
 20
1090.048240692523
 11
882.75116372921866
 21
1090.2075042292149
  0
LINE
  8
_0-2_02___PRT_ALL_AXES
  6
CONTINUOUS
 62
    7
 10
882.75116372921866
 20
1090.2075042292149
 11
882.93440207800677
 21
1090.3821063367031
  0
LINE
  8
_0-2_02___PRT_ALL_AXES
  6
CONTINUOUS
 62
    7
 10
882.93440207800677
 20
1090.3821063367031
 11
883.11597184643961
 21
1090.571545130545
  0
LINE
  8
_0-2_02___PRT_ALL_AXES
  6
CONTINUOUS
 62
    7
 10
883.11597184643961
 20
1090.571545130545
 11
883.29527380457284
 21
1090.7752753410668
  0
LINE
  8
_0-2_02___PRT_ALL_AXES
  6
CONTINUOUS
 62
    7
 10
883.29527380457284
 20
1090.7752753410668
 11
883.47170309662079
 21
1090.992708420044
  0
LINE
  8
_0-2_02___PRT_ALL_AXES
  6
CONTINUOUS
 62
    7
 10
883.47170309662079
 20
1090.992708420044
 11
883.64465173802364
 21
1091.2232128744508
  0
LINE
  8
_0-2_02___PRT_ALL_AXES
  6
CONTINUOUS
 62
    7
 10
883.64465173802364
 20
1091.2232128744508
 11
883.81351146075576
 21
1091.4661148981709
  0
LINE
  8
_0-2_02___PRT_ALL_AXES
  6
CONTINUOUS
 62
    7
 10
883.81351146075576
 20
1091.4661148981709
 11
883.97767693506603
 21
1091.720699460122
  0
LINE
  8
_0-2_02___PRT_ALL_AXES
  6
CONTINUOUS
 62
    7
 10
883.97767693506603
 20
1091.720699460122
 11
884.13654921599982
 21
1091.986211790158
  0
LINE
  8
_0-2_02___PRT_ALL_AXES
  6
CONTINUOUS
 62
    7
 10
884.13654921599982
 20
1091.986211790158
 11
884.28953950158484
 21
1092.2618594951468
  0
LINE
  8
_0-2_02___PRT_ALL_AXES
  6
CONTINUOUS
 62
    7
 10
884.28953950158484
 20
1092.2618594951468
 11
884.43607291006674
 21
1092.546815024803
  0
LINE
  8
_0-2_02___PRT_ALL_AXES
  6
CONTINUOUS
 62
    7
 10
884.43607291006674
 20
1092.546815024803
 11
884.57559241944591
 21
1092.8402188172172
  0
LINE
  8
_0-2_02___PRT_ALL_AXES
  6
CONTINUOUS
 62
    7
 10
884.57559241944591
 20
1092.8402188172172
 11
884.70756263023077
 21
1093.1411826798549
  0
LINE
  8
_0-2_02___PRT_ALL_AXES
  6
CONTINUOUS
 62
    7
 10
884.70756263023077
 20
1093.1411826798549
 11
884.83147346572196
 21
1093.448793698617
  0
LINE
  8
_0-2_02___PRT_ALL_AXES
  6
CONTINUOUS
 62
    7
 10
884.83147346572196
 20
1093.448793698617
 11
884.94684353012963
 21
1093.7621181857589
  0
LINE
  8
_0-2_02___PRT_ALL_AXES
  6
CONTINUOUS
 62
    7
 10
884.94684353012963
 20
1093.7621181857589
 11
885.05322320764071
 21
1094.08020589223
  0
LINE
  8
_0-2_02___PRT_ALL_AXES
  6
CONTINUOUS
 62
    7
 10
885.05322320764071
 20
1094.08020589223
 11
885.15019733703502
 21
1094.4020941209428
  0
LINE
  8
_0-2_02___PRT_ALL_AXES
  6
CONTINUOUS
 62
    7
 10
885.15019733703502
 20
1094.4020941209428
 11
885.23738745577202
 21
1094.7268116297491
  0
LINE
  8
_0-2_02___PRT_ALL_AXES
  6
CONTINUOUS
 62
    7
 10
885.23738745577202
 20
1094.7268116297491
 11
885.31445367908282
 21
1095.0533825001012
  0
LINE
  8
_0-2_02___PRT_ALL_AXES
  6
CONTINUOUS
 62
    7
 10
885.31445367908282
 20
1095.0533825001012
 11
885.38109606091075
 21
1095.3808292902149
  0
LINE
  8
_0-2_02___PRT_ALL_AXES
  6
CONTINUOUS
 62
    7
 10
885.38109606091075
 20
1095.3808292902149
 11
885.43705570489692
 21
1095.708176325385
  0
LINE
  8
_0-2_02___PRT_ALL_AXES
  6
CONTINUOUS
 62
    7
 10
885.43705570489692
 20
1095.708176325385
 11
885.48211541513274
 21
1096.0344519215
  0
LINE
  8
_0-2_02___PRT_ALL_AXES
  6
CONTINUOUS
 62
    7
 10
885.48211541513274
 20
1096.0344519215
 11
885.51610021051192
 21
1096.3586909385008
  0
LINE
  8
_0-2_02___PRT_ALL_AXES
  6
CONTINUOUS
 62
    7
 10
885.51610021051192
 20
1096.3586909385008
 11
885.53887752055789
 21
1096.6799362152369
  0
LINE
  8
_0-2_02___PRT_ALL_AXES
  6
CONTINUOUS
 62
    7
 10
885.53887752055789
 20
1096.6799362152369
 11
885.55035734392777
 21
1096.997240431022
  0
LINE
  8
_0-2_02___PRT_ALL_AXES
  6
CONTINUOUS
 62
    7
 10
885.55035734392777
 20
1096.997240431022
 11
885.55049225145603
 21
1097.30966713205
  0
LINE
  8
_0-2_02___PRT_ALL_AXES
  6
CONTINUOUS
 62
    7
 10
866.73750779393276
 20
1087.2337587837792
 11
860.72587847304567
 21
1088.660230511221
  0
LINE
  8
_0-2_02___PRT_ALL_AXES
  6
CONTINUOUS
 62
    7
 10
873.01429819714804
 20
1091.0069977678932
 11
867.00266887625867
 21
1092.433469496098
  0
LINE
  8
_0-2_02___PRT_ALL_AXES
  6
CONTINUOUS
 62
    7
 10
873.06687162743401
 20
1091.201923060034
 11
880.63723569038302
 21
1089.4055863715348
  0
LINE
  8
_0-0_0
  6
CONTINUOUS
 62
    2
 10
882.52416804554377
 20
1090.0151085012312
 11
873.33487509701399
 21
1092.1955933401509
  0
LINE
  8
_0-0_0
  6
CONTINUOUS
 62
    2
 10
885.01181296457889
 20
1099.8408309424572
 11
875.97520558164479
 21
1101.985085728616
  0
LINE
  8
_0-2_02___PRT_ALL_AXES
  6
CONTINUOUS
 62
    7
 10
875.98905297863894
 20
1102.036427401903
 11
869.97742365698878
 21
1103.462899130107
  0
LINE
  8
_0-2_02___PRT_ALL_AXES
  6
CONTINUOUS
 62
    7
 10
875.47755736510771
 20
1103.1604339575429
 11
883.45206065609864
 21
1101.2682009406449
  0
LINE
  8
_0-2_02___PRT_ALL_AXES
  6
CONTINUOUS
 62
    7
 10
872.68701735615559
 20
1109.2926180517989
 11
866.67538803450498
 21
1110.7190897800028
  0
LINE
  8
_0-5_EL-M10011N_______8
  6
CONTINUOUS
 62
    7
 10
756.10551886963094
 20
1159.894439291947
 11
756.28981807786795
 21
1159.800131408173
  0
LINE
  8
_0-5_EL-M10011N_______8
  6
CONTINUOUS
 62
    7
 10
756.28981807786795
 20
1159.800131408173
 11
756.44010903560275
 21
1159.7905308398708
  0
LINE
  8
_0-5_EL-M10011N_______8
  6
CONTINUOUS
 62
    7
 10
704.54955897743866
 20
1178.1448580097308
 11
704.61468883117777
 21
1178.0961107536568
  0
LINE
  8
_0-5_EL-M10011N_______8
  6
CONTINUOUS
 62
    7
 10
704.61468883117777
 20
1178.0961107536568
 11
705.12491886786574
 21
1177.838774796397
  0
LINE
  8
_0-5_EL-M10011N_______8
  6
CONTINUOUS
 62
    7
 10
705.12491886786574
 20
1177.838774796397
 11
705.74923342619377
 21
1177.6163112090671
  0
LINE
  8
_0-5_EL-M10011N_______8
  6
CONTINUOUS
 62
    7
 10
705.74923342619377
 20
1177.6163112090671
 11
706.46711733027587
 21
1177.4361214919768
  0
LINE
  8
_0-5_EL-M10011N_______8
  6
CONTINUOUS
 62
    7
 10
706.46711733027587
 20
1177.4361214919768
 11
707.25368449602502
 21
1177.304534431556
  0
LINE
  8
_0-5_EL-M10011N_______8
  6
CONTINUOUS
 62
    7
 10
707.25368449602502
 20
1177.304534431556
 11
708.07803306500273
 21
1177.2262730386751
  0
LINE
  8
_0-5_EL-M10011N_______8
  6
CONTINUOUS
 62
    7
 10
708.07803306500273
 20
1177.2262730386751
 11
708.92302155993593
 21
1177.2032315157971
  0
LINE
  8
_0-5_EL-M10011N_______8
  6
CONTINUOUS
 62
    7
 10
708.92302155993593
 20
1177.2032315157971
 11
709.75520638298894
 21
1177.237213362997
  0
LINE
  8
_0-5_EL-M10011N_______8
  6
CONTINUOUS
 62
    7
 10
709.75520638298894
 20
1177.237213362997
 11
710.54385320218671
 21
1177.3271762427612
  0
LINE
  8
_0-5_EL-M10011N_______8
  6
CONTINUOUS
 62
    7
 10
568.91945832428883
 20
1279.7432079929649
 11
568.98458817802793
 21
1279.694460736891
  0
LINE
  8
_0-5_EL-M10011N_______8
  6
CONTINUOUS
 62
    7
 10
568.98458817802793
 20
1279.694460736891
 11
569.49481821471591
 21
1279.4371247796312
  0
LINE
  8
_0-5_EL-M10011N_______8
  6
CONTINUOUS
 62
    7
 10
569.49481821471591
 20
1279.4371247796312
 11
570.11913277304393
 21
1279.2146611923008
  0
LINE
  8
_0-5_EL-M10011N_______8
  6
CONTINUOUS
 62
    7
 10
570.11913277304393
 20
1279.2146611923008
 11
570.83701667712603
 21
1279.0344714752109
  0
LINE
  8
_0-5_EL-M10011N_______8
  6
CONTINUOUS
 62
    7
 10
570.83701667712603
 20
1279.0344714752109
 11
571.62358384287563
 21
1278.9028844147888
  0
LINE
  8
_0-5_EL-M10011N_______8
  6
CONTINUOUS
 62
    7
 10
571.62358384287563
 20
1278.9028844147888
 11
572.4479324118538
 21
1278.8246230219088
  0
LINE
  8
_0-5_EL-M10011N_______8
  6
CONTINUOUS
 62
    7
 10
572.4479324118538
 20
1278.8246230219088
 11
573.29292090678473
 21
1278.8015814982691
  0
LINE
  8
_0-5_EL-M10011N_______8
  6
CONTINUOUS
 62
    7
 10
573.29292090678473
 20
1278.8015814982691
 11
574.12510572984002
 21
1278.8355633462311
  0
LINE
  8
_0-5_EL-M10011N_______8
  6
CONTINUOUS
 62
    7
 10
574.12510572984002
 20
1278.8355633462311
 11
574.91375254903778
 21
1278.9255262259949
  0
LINE
  8
_0-5_EL-M10011N_______8
  6
CONTINUOUS
 62
    7
 10
565.94937775214385
 20
1302.3373784598548
 11
756.10551886963094
 21
1159.894439291947
  0
LINE
  8
_0-5_EL-M10011N_______8
  6
CONTINUOUS
 62
    7
 10
757.79355090402578
 20
1161.8501715100151
 11
567.63740978653777
 21
1304.293110678685
  0
LINE
  8
_0-7__Z_P___M8_30
  6
CONTINUOUS
 62
    7
 10
641.96372638024195
 20
1314.6221254300631
 11
640.956024262553
 21
1316.362425757939
  0
LINE
  8
_0-7__Z_P___M8_30
  6
CONTINUOUS
 62
    7
 10
640.956024262553
 20
1316.362425757939
 11
639.74289016736384
 21
1317.6480435760809
  0
LINE
  8
_0-7__Z_P___M8_30
  6
CONTINUOUS
 62
    7
 10
641.37582348670685
 20
1315.8599916594312
 11
641.12303346142789
 21
1316.303118444499
  0
LINE
  8
_0-7__Z_P___M8_30
  6
CONTINUOUS
 62
    7
 10
641.12303346142789
 20
1316.303118444499
 11
640.82608454478577
 21
1316.7238247374512
  0
LINE
  8
_0-7__Z_P___M8_30
  6
CONTINUOUS
 62
    7
 10
640.82608454478577
 20
1316.7238247374512
 11
640.47699584824795
 21
1317.129243217189
  0
LINE
  8
_0-7__Z_P___M8_30
  6
CONTINUOUS
 62
    7
 10
640.47699584824795
 20
1317.129243217189
 11
640.06810572013183
 21
1317.523584556267
  0
LINE
  8
_0-7__Z_P___M8_30
  6
CONTINUOUS
 62
    7
 10
641.54373015851388
 20
1315.5108545042649
 11
641.37574274518784
 21
1315.8599791832048
  0
LINE
  8
_0-7__Z_P___M8_30
  6
CONTINUOUS
 62
    7
 10
643.84852481307598
 20
1386.487595335615
 11
643.68053739898778
 21
1386.8367200137932
  0
LINE
  8
_0-7__Z_P___M8_30
  6
CONTINUOUS
 62
    7
 10
641.96383000462083
 20
1314.6223709098872
 11
641.54355694295873
 21
1315.5107707002671
  0
LINE
  8
_0-7__Z_P___M8_30
  6
CONTINUOUS
 62
    7
 10
644.26862465842078
 20
1385.5991117412368
 11
643.84835159675868
 21
1386.4875115316172
  0
LINE
  8
_0-7__Z_P___M8_30
  6
CONTINUOUS
 62
    7
 10
633.36415775975365
 20
1312.409910879901
 11
633.93094042654184
 21
1311.180676524812
  0
LINE
  8
_0-7__Z_P___M8_30
  6
CONTINUOUS
 62
    7
 10
633.93094042654184
 20
1311.180676524812
 11
634.41557155176588
 21
1309.979068305985
  0
LINE
  8
_0-7__Z_P___M8_30
  6
CONTINUOUS
 62
    7
 10
634.41557155176588
 20
1309.979068305985
 11
634.82016213831594
 21
1308.790934812052
  0
LINE
  8
_0-7__Z_P___M8_30
  6
CONTINUOUS
 62
    7
 10
634.82016213831594
 20
1308.790934812052
 11
635.14608176841602
 21
1307.6021844204429
  0
LINE
  8
_0-7__Z_P___M8_30
  6
CONTINUOUS
 62
    7
 10
635.14608176841602
 20
1307.6021844204429
 11
635.39339389837778
 21
1306.4039043486309
  0
LINE
  8
_0-7__Z_P___M8_30
  6
CONTINUOUS
 62
    7
 10
635.39339389837778
 20
1306.4039043486309
 11
635.5636302251628
 21
1305.185146313966
  0
LINE
  8
_0-7__Z_P___M8_30
  6
CONTINUOUS
 62
    7
 10
635.5636302251628
 20
1305.185146313966
 11
635.65936778629066
 21
1303.9288234654268
  0
LINE
  8
_0-7__Z_P___M8_30
  6
CONTINUOUS
 62
    7
 10
635.65936778629066
 20
1303.9288234654268
 11
635.68244810563783
 21
1302.621332848003
  0
LINE
  8
_0-7__Z_P___M8_30
  6
CONTINUOUS
 62
    7
 10
635.68244810563783
 20
1302.621332848003
 11
635.63518817221802
 21
1301.25729854255
  0
LINE
  8
_0-7__Z_P___M8_30
  6
CONTINUOUS
 62
    7
 10
635.66895241431575
 20
1383.3866517104889
 11
636.23573508110394
 21
1382.157417355399
  0
LINE
  8
_0-7__Z_P___M8_30
  6
CONTINUOUS
 62
    7
 10
636.23573508110394
 20
1382.157417355399
 11
636.72036620632798
 21
1380.955809136573
  0
LINE
  8
_0-7__Z_P___M8_30
  6
CONTINUOUS
 62
    7
 10
636.72036620632798
 20
1380.955809136573
 11
637.12495679211588
 21
1379.767675642639
  0
LINE
  8
_0-7__Z_P___M8_30
  6
CONTINUOUS
 62
    7
 10
637.12495679211588
 20
1379.767675642639
 11
637.45087642221597
 21
1378.5789252510308
  0
LINE
  8
_0-7__Z_P___M8_30
  6
CONTINUOUS
 62
    7
 10
637.45087642221597
 20
1378.5789252510308
 11
637.69818855217682
 21
1377.3806451792188
  0
LINE
  8
_0-7__Z_P___M8_30
  6
CONTINUOUS
 62
    7
 10
637.69818855217682
 20
1377.3806451792188
 11
637.86842487896274
 21
1376.1618871453152
  0
LINE
  8
_0-7__Z_P___M8_30
  6
CONTINUOUS
 62
    7
 10
637.86842487896274
 20
1376.1618871453152
 11
637.96416244009197
 21
1374.9055642960152
  0
LINE
  8
_0-7__Z_P___M8_30
  6
CONTINUOUS
 62
    7
 10
637.96416244009197
 20
1374.9055642960152
 11
637.98724275943778
 21
1373.5980736793531
  0
LINE
  8
_0-7__Z_P___M8_30
  6
CONTINUOUS
 62
    7
 10
637.98724275943778
 20
1373.5980736793531
 11
637.93998282677876
 21
1372.2340393738991
  0
LINE
  8
_0-7__Z_P___M8_30
  6
CONTINUOUS
 62
    7
 10
629.09892267657597
 20
1300.2473027339952
 11
626.82789199969784
 21
1311.3999150301988
  0
LINE
  8
_0-7__Z_P___M8_30
  6
CONTINUOUS
 62
    7
 10
631.403717330375
 20
1371.2240435653448
 11
629.13268665425994
 21
1382.3766558615489
  0
LINE
  8
_0-7__Z_P___M8_30
  6
CONTINUOUS
 62
    7
 10
718.43449604850503
 20
1258.1364936344712
 11
718.41275101300062
 21
1257.348116014633
  0
LINE
  8
_0-7__Z_P___M8_30
  6
CONTINUOUS
 62
    7
 10
718.41275101300062
 20
1257.348116014633
 11
718.32687492211699
 21
1256.5738656728649
  0
LINE
  8
_0-7__Z_P___M8_30
  6
CONTINUOUS
 62
    7
 10
718.32687492211699
 20
1256.5738656728649
 11
718.17250825955261
 21
1255.8044381586369
  0
LINE
  8
_0-7__Z_P___M8_30
  6
CONTINUOUS
 62
    7
 10
718.17250825955261
 20
1255.8044381586369
 11
717.9446280150346
 21
1255.030530439501
  0
LINE
  8
_0-7__Z_P___M8_30
  6
CONTINUOUS
 62
    7
 10
717.9446280150346
 20
1255.030530439501
 11
717.63930984665285
 21
1254.2462169298992
  0
LINE
  8
_0-7__Z_P___M8_30
  6
CONTINUOUS
 62
    7
 10
717.63930984665285
 20
1254.2462169298992
 11
717.25308652486683
 21
1253.4442939630089
  0
LINE
  8
_0-7__Z_P___M8_30
  6
CONTINUOUS
 62
    7
 10
717.25308652486683
 20
1253.4442939630089
 11
716.78072043962993
 21
1252.6135285143068
  0
LINE
  8
_0-7__Z_P___M8_30
  6
CONTINUOUS
 62
    7
 10
716.78072043962993
 20
1252.6135285143068
 11
716.21784632992194
 21
1251.7449670350252
  0
LINE
  8
_0-7__Z_P___M8_30
  6
CONTINUOUS
 62
    7
 10
716.21784632992194
 20
1251.7449670350252
 11
715.56421849798699
 21
1250.835153273757
  0
LINE
  8
_0-0_0
  6
CONTINUOUS
 62
    7
 10
723.06065406922198
 20
1222.971209761472
 11
723.50196875047186
 21
1236.5616082316228
  0
LINE
  8
_0-0_0
  6
CONTINUOUS
 62
    7
 10
724.04544176944091
 20
1253.2979988364991
 11
724.78193847754801
 21
1275.9786033291489
  0
LINE
  8
_0-7__Z_P___M8_30
  6
CONTINUOUS
 62
    7
 10
725.83253438371685
 20
1242.2471941225572
 11
725.87947863882482
 21
1242.6274672644731
  0
LINE
  8
_0-7__Z_P___M8_30
  6
CONTINUOUS
 62
    7
 10
725.87947863882482
 20
1242.6274672644731
 11
725.9668293863997
 21
1245.1617779352368
  0
LINE
  8
_0-7__Z_P___M8_30
  6
CONTINUOUS
 62
    7
 10
725.9668293863997
 20
1245.1617779352368
 11
725.70606800215774
 21
1247.8586035098251
  0
LINE
  8
_0-7__Z_P___M8_30
  6
CONTINUOUS
 62
    7
 10
725.70606800215774
 20
1247.8586035098251
 11
725.11843447638466
 21
1250.494665243787
  0
LINE
  8
_0-7__Z_P___M8_30
  6
CONTINUOUS
 62
    7
 10
725.11843447638466
 20
1250.494665243787
 11
724.16378738212779
 21
1253.0473678650669
  0
LINE
  8
_0-7__Z_P___M8_30
  6
CONTINUOUS
 62
    7
 10
643.08129105341277
 20
1368.3827674384088
 11
643.71666973363199
 21
1369.2659648620029
  0
LINE
  8
_0-7__Z_P___M8_30
  6
CONTINUOUS
 62
    7
 10
643.71666973363199
 20
1369.2659648620029
 11
644.26779648938873
 21
1370.112106595167
  0
LINE
  8
_0-7__Z_P___M8_30
  6
CONTINUOUS
 62
    7
 10
644.26779648938873
 20
1370.112106595167
 11
644.73753649631362
 21
1370.9302661810948
  0
LINE
  8
_0-7__Z_P___M8_30
  6
CONTINUOUS
 62
    7
 10
644.73753649631362
 20
1370.9302661810948
 11
645.12800442784783
 21
1371.72929724902
  0
LINE
  8
_0-7__Z_P___M8_30
  6
CONTINUOUS
 62
    7
 10
645.12800442784783
 20
1371.72929724902
 11
645.43972853972991
 21
1372.5146006171949
  0
LINE
  8
_0-7__Z_P___M8_30
  6
CONTINUOUS
 62
    7
 10
645.43972853972991
 20
1372.5146006171949
 11
645.6748231785059
 21
1373.293170900793
  0
LINE
  8
_0-7__Z_P___M8_30
  6
CONTINUOUS
 62
    7
 10
645.6748231785059
 20
1373.293170900793
 11
645.83677622162986
 21
1374.075970753021
  0
LINE
  8
_0-7__Z_P___M8_30
  6
CONTINUOUS
 62
    7
 10
645.83677622162986
 20
1374.075970753021
 11
645.86762323664379
 21
1374.2841998915528
  0
LINE
  8
_0-7__Z_P___M8_30
  6
CONTINUOUS
 62
    7
 10
640.77649639885203
 20
1297.4060266078209
 11
641.41187507906989
 21
1298.2892240306528
  0
LINE
  8
_0-7__Z_P___M8_30
  6
CONTINUOUS
 62
    7
 10
641.41187507906989
 20
1298.2892240306528
 11
641.96300183482663
 21
1299.1353657638169
  0
LINE
  8
_0-7__Z_P___M8_30
  6
CONTINUOUS
 62
    7
 10
641.96300183482663
 20
1299.1353657638169
 11
642.43274184175198
 21
1299.9535253497452
  0
LINE
  8
_0-7__Z_P___M8_30
  6
CONTINUOUS
 62
    7
 10
642.43274184175198
 20
1299.9535253497452
 11
642.82320977404788
 21
1300.752556417669
  0
LINE
  8
_0-7__Z_P___M8_30
  6
CONTINUOUS
 62
    7
 10
642.82320977404788
 20
1300.752556417669
 11
643.1349338851669
 21
1301.5378597858448
  0
LINE
  8
_0-7__Z_P___M8_30
  6
CONTINUOUS
 62
    7
 10
643.1349338851669
 20
1301.5378597858448
 11
643.37002852470459
 21
1302.316430070206
  0
LINE
  8
_0-7__Z_P___M8_30
  6
CONTINUOUS
 62
    7
 10
643.37002852470459
 20
1302.316430070206
 11
643.53198156782992
 21
1303.0992299216709
  0
LINE
  8
_0-7__Z_P___M8_30
  6
CONTINUOUS
 62
    7
 10
643.53198156782992
 20
1303.0992299216709
 11
643.56282858208078
 21
1303.3074590609649
  0
LINE
  8
_0-2_02___PRT_ALL_AXES
  6
CONTINUOUS
 62
    7
 10
1027.673163501353
 20
1171.012590932155
 11
1034.0970116780159
 21
1172.354076747019
  0
LINE
  8
_0-2_02___PRT_ALL_AXES
  6
CONTINUOUS
 62
    7
 10
1025.5958257431598
 20
1174.9479462643749
 11
1015.5572085646559
 21
1172.8515918398712
  0
LINE
  8
_0-0_0
  6
CONTINUOUS
 62
    2
 10
1014.0232595390867
 20
1173.582150011468
 11
1025.0961749738567
 21
1175.8944959100072
  0
LINE
  8
_0-2_02___PRT_ALL_AXES
  6
CONTINUOUS
 62
    7
 10
1023.1261823555569
 20
1179.6264941968211
 11
1029.550030532982
 21
1180.967980011686
  0
LINE
  8
_0-0_0
  6
CONTINUOUS
 62
    2
 10
1011.8007626142648
 20
1183.4712527841489
 11
1023.0154509791037
 21
1185.8132049826331
  0
LINE
  8
_0-2_02___PRT_ALL_AXES
  6
CONTINUOUS
 62
    7
 10
1022.996711891868
 20
1186.860182935663
 11
1013.0649290511287
 21
1184.786138619193
  0
LINE
  8
_0-2_02___PRT_ALL_AXES
  6
CONTINUOUS
 62
    7
 10
1022.937226674288
 20
1190.1837019899071
 11
1029.3610748517108
 21
1191.5251878055328
  0
LINE
  8
_0-2_02___PRT_ALL_AXES
  6
CONTINUOUS
 62
    7
 10
1015.5572084800738
 20
1172.8515922475408
 11
1015.442381933502
 21
1172.835269239039
  0
LINE
  8
_0-2_02___PRT_ALL_AXES
  6
CONTINUOUS
 62
    7
 10
1015.442381933502
 20
1172.835269239039
 11
1015.3107063050579
 21
1172.834207148961
  0
LINE
  8
_0-2_02___PRT_ALL_AXES
  6
CONTINUOUS
 62
    7
 10
1015.3107063050579
 20
1172.834207148961
 11
1015.174988294807
 21
1172.851105360784
  0
LINE
  8
_0-2_02___PRT_ALL_AXES
  6
CONTINUOUS
 62
    7
 10
1015.174988294807
 20
1172.851105360784
 11
1015.035709441031
 21
1172.8858700029632
  0
LINE
  8
_0-2_02___PRT_ALL_AXES
  6
CONTINUOUS
 62
    7
 10
1015.035709441031
 20
1172.8858700029632
 11
1014.8931144478379
 21
1172.9384032293669
  0
LINE
  8
_0-2_02___PRT_ALL_AXES
  6
CONTINUOUS
 62
    7
 10
1014.8931144478379
 20
1172.9384032293669
 11
1014.7477000256877
 21
1173.0084909370448
  0
LINE
  8
_0-2_02___PRT_ALL_AXES
  6
CONTINUOUS
 62
    7
 10
1014.7477000256877
 20
1173.0084909370448
 11
1014.5997829974167
 21
1173.0959511489668
  0
LINE
  8
_0-2_02___PRT_ALL_AXES
  6
CONTINUOUS
 62
    7
 10
1014.5997829974167
 20
1173.0959511489668
 11
1014.4498575687949
 21
1173.2004741898572
  0
LINE
  8
_0-5_EL-M10011N_______8
  6
CONTINUOUS
 62
    7
 10
188.0451054423105
 20
1071.973339980319
 11
188.25460604947182
 21
1071.9934582052592
  0
LINE
  8
_0-2_02___PRT_ALL_AXES
  6
CONTINUOUS
 62
    7
 10
879.12670871906403
 20
1173.800756865337
 11
879.27576590583476
 21
1173.7735675166168
  0
LINE
  8
_0-2_02___PRT_ALL_AXES
  6
CONTINUOUS
 62
    7
 10
879.27576590583476
 20
1173.7735675166168
 11
879.44096168415581
 21
1173.7614994338192
  0
LINE
  8
_0-2_02___PRT_ALL_AXES
  6
CONTINUOUS
 62
    7
 10
879.44096168415581
 20
1173.7614994338192
 11
879.61029948263877
 21
1173.7673510390832
  0
LINE
  8
_0-2_02___PRT_ALL_AXES
  6
CONTINUOUS
 62
    7
 10
879.61029948263877
 20
1173.7673510390832
 11
879.78332615360387
 21
1173.7910748689528
  0
LINE
  8
_0-2_02___PRT_ALL_AXES
  6
CONTINUOUS
 62
    7
 10
879.78332615360387
 20
1173.7910748689528
 11
879.95957149275591
 21
1173.8325733119909
  0
LINE
  8
_0-2_02___PRT_ALL_AXES
  6
CONTINUOUS
 62
    7
 10
879.95957149275591
 20
1173.8325733119909
 11
880.13854893490179
 21
1173.891700202119
  0
LINE
  8
_0-2_02___PRT_ALL_AXES
  6
CONTINUOUS
 62
    7
 10
880.13854893490179
 20
1173.891700202119
 11
880.3197561841198
 21
1173.96826226642
  0
LINE
  8
_0-2_02___PRT_ALL_AXES
  6
CONTINUOUS
 62
    7
 10
880.3197561841198
 20
1173.96826226642
 11
880.50267582412062
 21
1174.0620203847188
  0
LINE
  8
_0-2_02___PRT_ALL_AXES
  6
CONTINUOUS
 62
    7
 10
880.50267582412062
 20
1174.0620203847188
 11
880.686775921758
 21
1174.172690587051
  0
LINE
  8
_0-2_02___PRT_ALL_AXES
  6
CONTINUOUS
 62
    7
 10
880.686775921758
 20
1174.172690587051
 11
880.87151070214668
 21
1174.2999447859329
  0
LINE
  8
_0-2_02___PRT_ALL_AXES
  6
CONTINUOUS
 62
    7
 10
880.87151070214668
 20
1174.2999447859329
 11
881.056321312205
 21
1174.443411234332
  0
LINE
  8
_0-2_02___PRT_ALL_AXES
  6
CONTINUOUS
 62
    7
 10
881.056321312205
 20
1174.443411234332
 11
881.24063676932883
 21
1174.602674771023
  0
LINE
  8
_0-2_02___PRT_ALL_AXES
  6
CONTINUOUS
 62
    7
 10
881.24063676932883
 20
1174.602674771023
 11
881.42387511811785
 21
1174.7772768785112
  0
LINE
  8
_0-2_02___PRT_ALL_AXES
  6
CONTINUOUS
 62
    7
 10
881.42387511811785
 20
1174.7772768785112
 11
881.60544488654887
 21
1174.966715672354
  0
LINE
  8
_0-2_02___PRT_ALL_AXES
  6
CONTINUOUS
 62
    7
 10
881.60544488654887
 20
1174.966715672354
 11
881.78474684468392
 21
1175.1704458821132
  0
LINE
  8
_0-2_02___PRT_ALL_AXES
  6
CONTINUOUS
 62
    7
 10
881.78474684468392
 20
1175.1704458821132
 11
881.96117613673186
 21
1175.387878961852
  0
LINE
  8
_0-2_02___PRT_ALL_AXES
  6
CONTINUOUS
 62
    7
 10
881.96117613673186
 20
1175.387878961852
 11
882.1341247781329
 21
1175.6183834162589
  0
LINE
  8
_0-2_02___PRT_ALL_AXES
  6
CONTINUOUS
 62
    7
 10
882.1341247781329
 20
1175.6183834162589
 11
882.30298450162672
 21
1175.8612854392172
  0
LINE
  8
_0-2_02___PRT_ALL_AXES
  6
CONTINUOUS
 62
    7
 10
882.30298450162672
 20
1175.8612854392172
 11
882.46714997517483
 21
1176.11587000193
  0
LINE
  8
_0-2_02___PRT_ALL_AXES
  6
CONTINUOUS
 62
    7
 10
882.46714997517483
 20
1176.11587000193
 11
882.62602225610999
 21
1176.3813823319651
  0
LINE
  8
_0-2_02___PRT_ALL_AXES
  6
CONTINUOUS
 62
    7
 10
882.62602225610999
 20
1176.3813823319651
 11
882.77901254169501
 21
1176.6570300361932
  0
LINE
  8
_0-2_02___PRT_ALL_AXES
  6
CONTINUOUS
 62
    7
 10
882.77901254169501
 20
1176.6570300361932
 11
882.92554595017782
 21
1176.941985566611
  0
LINE
  8
_0-2_02___PRT_ALL_AXES
  6
CONTINUOUS
 62
    7
 10
882.92554595017782
 20
1176.941985566611
 11
883.06506545955563
 21
1177.2353893590248
  0
LINE
  8
_0-2_02___PRT_ALL_AXES
  6
CONTINUOUS
 62
    7
 10
883.06506545955563
 20
1177.2353893590248
 11
883.19703567034185
 21
1177.5363532216629
  0
LINE
  8
_0-2_02___PRT_ALL_AXES
  6
CONTINUOUS
 62
    7
 10
883.19703567034185
 20
1177.5363532216629
 11
883.32094650583076
 21
1177.843964240426
  0
LINE
  8
_0-2_02___PRT_ALL_AXES
  6
CONTINUOUS
 62
    7
 10
883.32094650583076
 20
1177.843964240426
 11
883.43631657023889
 21
1178.1572887268048
  0
LINE
  8
_0-2_02___PRT_ALL_AXES
  6
CONTINUOUS
 62
    7
 10
883.43631657023889
 20
1178.1572887268048
 11
883.54269624775179
 21
1178.4753764340371
  0
LINE
  8
_0-2_02___PRT_ALL_AXES
  6
CONTINUOUS
 62
    7
 10
883.54269624775179
 20
1178.4753764340371
 11
883.63967037714474
 21
1178.7972646627509
  0
LINE
  8
_0-2_02___PRT_ALL_AXES
  6
CONTINUOUS
 62
    7
 10
883.63967037714474
 20
1178.7972646627509
 11
883.72686049588174
 21
1179.1219821715572
  0
LINE
  8
_0-2_02___PRT_ALL_AXES
  6
CONTINUOUS
 62
    7
 10
883.72686049588174
 20
1179.1219821715572
 11
883.8039267199556
 21
1179.448553041148
  0
LINE
  8
_0-2_02___PRT_ALL_AXES
  6
CONTINUOUS
 62
    7
 10
883.8039267199556
 20
1179.448553041148
 11
883.87056910102092
 21
1179.775999832023
  0
LINE
  8
_0-2_02___PRT_ALL_AXES
  6
CONTINUOUS
 62
    7
 10
883.87056910102092
 20
1179.775999832023
 11
883.92652874500664
 21
1180.1033468671931
  0
LINE
  8
_0-2_02___PRT_ALL_AXES
  6
CONTINUOUS
 62
    7
 10
883.92652874500664
 20
1180.1033468671931
 11
883.97158845524382
 21
1180.4296224633081
  0
LINE
  8
_0-2_02___PRT_ALL_AXES
  6
CONTINUOUS
 62
    7
 10
883.97158845524382
 20
1180.4296224633081
 11
884.00557325062164
 21
1180.7538614803088
  0
LINE
  8
_0-2_02___PRT_ALL_AXES
  6
CONTINUOUS
 62
    7
 10
884.00557325062164
 20
1180.7538614803088
 11
884.0283505606676
 21
1181.075106757045
  0
LINE
  8
_0-2_02___PRT_ALL_AXES
  6
CONTINUOUS
 62
    7
 10
884.0283505606676
 20
1181.075106757045
 11
884.03983038403794
 21
1181.3924109728291
  0
LINE
  8
_0-2_02___PRT_ALL_AXES
  6
CONTINUOUS
 62
    7
 10
884.03983038403794
 20
1181.3924109728291
 11
884.03996529156575
 21
1181.704837673858
  0
LINE
  8
_0-2_02___PRT_ALL_AXES
  6
CONTINUOUS
 62
    7
 10
865.22698083404384
 20
1171.6289293255868
 11
859.21535151315584
 21
1173.05540105303
  0
LINE
  8
_0-2_02___PRT_ALL_AXES
  6
CONTINUOUS
 62
    7
 10
871.503771238019
 20
1175.4021683097012
 11
865.49214191636884
 21
1176.828640037143
  0
LINE
  8
_0-2_02___PRT_ALL_AXES
  6
CONTINUOUS
 62
    7
 10
871.55634466754282
 20
1175.5970936018412
 11
879.12670873049274
 21
1173.8007569133429
  0
LINE
  8
_0-0_0
  6
CONTINUOUS
 62
    2
 10
881.01364108641474
 20
1174.4102790430388
 11
871.82434813788586
 21
1176.590763881959
  0
LINE
  8
_0-0_0
  6
CONTINUOUS
 62
    2
 10
883.50128600468997
 20
1184.2360014842652
 11
874.46467862175587
 21
1186.3802562704232
  0
LINE
  8
_0-2_02___PRT_ALL_AXES
  6
CONTINUOUS
 62
    7
 10
874.47852601874865
 20
1186.431597943711
 11
868.46689669709986
 21
1187.858069671915
  0
LINE
  8
_0-2_02___PRT_ALL_AXES
  6
CONTINUOUS
 62
    7
 10
873.96703040521697
 20
1187.5556044993509
 11
881.94153369697187
 21
1185.6633714824529
  0
LINE
  8
_0-7__Z_P___M8_30
  6
CONTINUOUS
 62
    7
 10
717.83529885802682
 20
1239.6825486547032
 11
718.64684889405589
 21
1239.327563642551
  0
LINE
  8
_0-7__Z_P___M8_30
  6
CONTINUOUS
 62
    7
 10
718.64684889405589
 20
1239.327563642551
 11
719.38152859944466
 21
1238.9753632595771
  0
LINE
  8
_0-7__Z_P___M8_30
  6
CONTINUOUS
 62
    7
 10
719.38152859944466
 20
1238.9753632595771
 11
720.04960052847582
 21
1238.619169897544
  0
LINE
  8
_0-7__Z_P___M8_30
  6
CONTINUOUS
 62
    7
 10
720.04960052847582
 20
1238.619169897544
 11
720.65435906393986
 21
1238.2545931280961
  0
LINE
  8
_0-7__Z_P___M8_30
  6
CONTINUOUS
 62
    7
 10
720.65435906393986
 20
1238.2545931280961
 11
721.19542706079574
 21
1237.8791756292489
  0
LINE
  8
_0-7__Z_P___M8_30
  6
CONTINUOUS
 62
    7
 10
721.36214291633996
 20
1238.1871473208989
 11
722.59399664414377
 21
1237.638080075882
  0
LINE
  8
_0-7__Z_P___M8_30
  6
CONTINUOUS
 62
    7
 10
722.59399664414377
 20
1237.638080075882
 11
723.7444098876349
 21
1237.8608390380332
  0
LINE
  8
_0-7__Z_P___M8_30
  6
CONTINUOUS
 62
    7
 10
723.7444098876349
 20
1237.8608390380332
 11
724.71952307507263
 21
1238.8241977369148
  0
LINE
  8
_0-7__Z_P___M8_30
  6
CONTINUOUS
 62
    7
 10
724.71952307507263
 20
1238.8241977369148
 11
725.45035892327996
 21
1240.451480090167
  0
LINE
  8
_0-7__Z_P___M8_30
  6
CONTINUOUS
 62
    7
 10
721.94295116924968
 20
1256.073286010323
 11
720.71109744220803
 21
1256.6223532553408
  0
LINE
  8
_0-7__Z_P___M8_30
  6
CONTINUOUS
 62
    7
 10
720.71109744220803
 20
1256.6223532553408
 11
719.56068419871599
 21
1256.3995942939509
  0
LINE
  8
_0-7__Z_P___M8_30
  6
CONTINUOUS
 62
    7
 10
719.56068419871599
 20
1256.3995942939509
 11
718.58557101051474
 21
1255.4362355943081
  0
LINE
  8
_0-7__Z_P___M8_30
  6
CONTINUOUS
 62
    7
 10
718.58557101051474
 20
1255.4362355943081
 11
717.85473516307184
 21
1253.808953241055
  0
LINE
  8
_0-7__Z_P___M8_30
  6
CONTINUOUS
 62
    7
 10
717.85473516307184
 20
1253.808953241055
 11
717.425615446763
 21
1251.6329660667488
  0
LINE
  8
_0-7__Z_P___M8_30
  6
CONTINUOUS
 62
    7
 10
717.425615446763
 20
1251.6329660667488
 11
717.33826469995165
 21
1249.0986553959851
  0
LINE
  8
_0-7__Z_P___M8_30
  6
CONTINUOUS
 62
    7
 10
717.33826469995165
 20
1249.0986553959851
 11
717.59902608343191
 21
1246.4018298213969
  0
LINE
  8
_0-7__Z_P___M8_30
  6
CONTINUOUS
 62
    7
 10
717.59902608343191
 20
1246.4018298213969
 11
718.18665960920271
 21
1243.7657680874349
  0
LINE
  8
_0-7__Z_P___M8_30
  6
CONTINUOUS
 62
    7
 10
718.18665960920271
 20
1243.7657680874349
 11
719.05813871333385
 21
1241.391627023942
  0
LINE
  8
_0-7__Z_P___M8_30
  6
CONTINUOUS
 62
    7
 10
719.05813871333385
 20
1241.391627023942
 11
720.14900882191159
 21
1239.4727651390408
  0
LINE
  8
_0-7__Z_P___M8_30
  6
CONTINUOUS
 62
    7
 10
720.14900882191159
 20
1239.4727651390408
 11
721.36214291633996
 21
1238.1871473208989
  0
LINE
  8
_0-5_EL-M10011N_______8
  6
CONTINUOUS
 62
    7
 10
567.63740978653777
 20
1304.293110678685
 11
567.41356182046684
 21
1304.4238019562908
  0
LINE
  8
_0-5_EL-M10011N_______8
  6
CONTINUOUS
 62
    7
 10
567.41356182046684
 20
1304.4238019562908
 11
567.11906727915584
 21
1304.535288931183
  0
LINE
  8
_0-5_EL-M10011N_______8
  6
CONTINUOUS
 62
    7
 10
567.11906727915584
 20
1304.535288931183
 11
566.76869334998401
 21
1304.6219811819792
  0
LINE
  8
_0-5_EL-M10011N_______8
  6
CONTINUOUS
 62
    7
 10
566.76869334998401
 20
1304.6219811819792
 11
566.38000924444668
 21
1304.6795315954532
  0
LINE
  8
_0-5_EL-M10011N_______8
  6
CONTINUOUS
 62
    7
 10
566.38000924444668
 20
1304.6795315954532
 11
565.97250520576199
 21
1304.705054354923
  0
LINE
  8
_0-5_EL-M10011N_______8
  6
CONTINUOUS
 62
    7
 10
565.97250520576199
 20
1304.705054354923
 11
565.56661518899364
 21
1304.6972696425269
  0
LINE
  8
_0-5_EL-M10011N_______8
  6
CONTINUOUS
 62
    7
 10
565.56661518899364
 20
1304.6972696425269
 11
565.18269221414266
 21
1304.6565678156248
  0
LINE
  8
_0-7__Z_P___M8_30
  6
CONTINUOUS
 62
    7
 10
721.7946375100737
 20
1256.333106233888
 11
721.25313636117471
 21
1256.7088484712249
  0
LINE
  8
_0-7__Z_P___M8_30
  6
CONTINUOUS
 62
    7
 10
721.25313636117471
 20
1256.7088484712249
 11
720.64808935003794
 21
1257.0735510316331
  0
LINE
  8
_0-7__Z_P___M8_30
  6
CONTINUOUS
 62
    7
 10
720.64808935003794
 20
1257.0735510316331
 11
719.97971699488789
 21
1257.429849625868
  0
LINE
  8
_0-7__Z_P___M8_30
  6
CONTINUOUS
 62
    7
 10
719.97971699488789
 20
1257.429849625868
 11
719.24514721409378
 21
1257.78194966411
  0
LINE
  8
_0-7__Z_P___M8_30
  6
CONTINUOUS
 62
    7
 10
719.24514721409378
 20
1257.78194966411
 11
718.43460602872665
 21
1258.1365106285948
  0
LINE
  8
_0-7__Z_P___M8_30
  6
CONTINUOUS
 62
    7
 10
639.59457650894865
 20
1317.9078637996449
 11
639.05307535928978
 21
1318.283606036221
  0
LINE
  8
_0-7__Z_P___M8_30
  6
CONTINUOUS
 62
    7
 10
639.05307535928978
 20
1318.283606036221
 11
638.44802834815164
 21
1318.648308597391
  0
LINE
  8
_0-7__Z_P___M8_30
  6
CONTINUOUS
 62
    7
 10
638.44802834815164
 20
1318.648308597391
 11
637.77965599300069
 21
1319.0046071916249
  0
LINE
  8
_0-7__Z_P___M8_30
  6
CONTINUOUS
 62
    7
 10
637.77965599300069
 20
1319.0046071916249
 11
637.04508621220702
 21
1319.3567072291048
  0
LINE
  8
_0-7__Z_P___M8_30
  6
CONTINUOUS
 62
    7
 10
637.04508621220702
 20
1319.3567072291048
 11
636.23454502684081
 21
1319.711268194354
  0
LINE
  8
_0-8_EL-M10011N_______3
  6
CONTINUOUS
 62
    7
 10
614.21609985071382
 20
1295.2841035986912
 11
712.8561730532806
 21
1221.394394520391
  0
LINE
  8
_0-8_EL-M10011N_______3
  6
CONTINUOUS
 62
    7
 10
716.93796545965779
 20
1222.0251206168232
 11
618.2978922578518
 21
1295.9148296958861
  0
LINE
  8
_0-0_0
  6
CONTINUOUS
 62
    7
 10
618.2978922578518
 20
1295.9148296958861
 11
716.93796545965779
 21
1222.0251206168232
  0
LINE
  8
_0-0_0
  6
CONTINUOUS
 62
    7
 10
624.42058086741463
 20
1296.860918840533
 11
723.06065406922198
 21
1222.971209761472
  0
LINE
  8
_0-7__Z_P___M8_30
  6
CONTINUOUS
 62
    7
 10
629.09892267657597
 20
1300.2473027339952
 11
634.24023063879486
 21
1296.3960307581192
  0
LINE
  8
_0-7__Z_P___M8_30
  6
CONTINUOUS
 62
    7
 10
711.29898367769965
 20
1238.672545168999
 11
716.44029164068161
 21
1234.8212731923609
  0
LINE
  8
_0-2_02___PRT_ALL_AXES
  6
CONTINUOUS
 62
    7
 10
1016.6149462106696
 20
1052.2340630802369
 11
1017.839709525425
 21
1051.2724228955708
  0
LINE
  8
_0-2_02___PRT_ALL_AXES
  6
CONTINUOUS
 62
    7
 10
1017.839709525425
 20
1051.2724228955708
 11
1018.970576659674
 21
1050.292798854824
  0
LINE
  8
_0-2_02___PRT_ALL_AXES
  6
CONTINUOUS
 62
    7
 10
1018.970576659674
 20
1050.292798854824
 11
1020.006038694155
 21
1049.2964980729812
  0
LINE
  8
_0-2_02___PRT_ALL_AXES
  6
CONTINUOUS
 62
    7
 10
1020.006038694155
 20
1049.2964980729812
 11
1020.9447140085708
 21
1048.2848499169572
  0
LINE
  8
_0-2_02___PRT_ALL_AXES
  6
CONTINUOUS
 62
    7
 10
1020.9447140085708
 20
1048.2848499169572
 11
1021.7853501256186
 21
1047.259204233937
  0
LINE
  8
_0-2_02___PRT_ALL_AXES
  6
CONTINUOUS
 62
    7
 10
1021.7853501256186
 20
1047.259204233937
 11
1022.5268253812987
 21
1046.220929543917
  0
LINE
  8
_0-2_02___PRT_ALL_AXES
  6
CONTINUOUS
 62
    7
 10
1022.5268253812987
 20
1046.220929543917
 11
1023.168150423006
 21
1045.171411222334
  0
LINE
  8
_0-2_02___PRT_ALL_AXES
  6
CONTINUOUS
 62
    7
 10
1023.168150423006
 20
1045.171411222334
 11
1023.7084695293097
 21
1044.1120496430681
  0
LINE
  8
_0-2_02___PRT_ALL_AXES
  6
CONTINUOUS
 62
    7
 10
1023.7084695293097
 20
1044.1120496430681
 11
1024.1470617491518
 21
1043.0442583176432
  0
LINE
  8
_0-2_02___PRT_ALL_AXES
  6
CONTINUOUS
 62
    7
 10
1024.1470617491518
 20
1043.0442583176432
 11
1024.4833418688177
 21
1041.9694620016571
  0
LINE
  8
_0-2_02___PRT_ALL_AXES
  6
CONTINUOUS
 62
    7
 10
1024.4833418688177
 20
1041.9694620016571
 11
1024.716861187655
 21
1040.889094800445
  0
LINE
  8
_0-2_02___PRT_ALL_AXES
  6
CONTINUOUS
 62
    7
 10
1024.716861187655
 20
1040.889094800445
 11
1024.8473081208176
 21
1039.8045982511289
  0
LINE
  8
_0-2_02___PRT_ALL_AXES
  6
CONTINUOUS
 62
    7
 10
1024.8473081208176
 20
1039.8045982511289
 11
1024.8755648379888
 21
1039.179782301374
  0
LINE
  8
_0-2_02___PRT_ALL_AXES
  6
CONTINUOUS
 62
    7
 10
674.06072217164365
 20
1269.7737705054128
 11
673.23872296982381
 21
1270.4242802501112
  0
LINE
  8
_0-2_02___PRT_ALL_AXES
  6
CONTINUOUS
 62
    7
 10
673.23872296982381
 20
1270.4242802501112
 11
672.42022096928986
 21
1271.1416426208189
  0
LINE
  8
_0-2_02___PRT_ALL_AXES
  6
CONTINUOUS
 62
    7
 10
672.42022096928986
 20
1271.1416426208189
 11
671.60650390432193
 21
1271.9247307025948
  0
LINE
  8
_0-2_02___PRT_ALL_AXES
  6
CONTINUOUS
 62
    7
 10
671.60650390432193
 20
1271.9247307025948
 11
670.7988521848547
 21
1272.772315112833
  0
LINE
  8
_0-2_02___PRT_ALL_AXES
  6
CONTINUOUS
 62
    7
 10
670.7988521848547
 20
1272.772315112833
 11
669.99853694881085
 21
1273.683065833874
  0
LINE
  8
_0-2_02___PRT_ALL_AXES
  6
CONTINUOUS
 62
    7
 10
669.99853694881085
 20
1273.683065833874
 11
669.20681815480793
 21
1274.655554156102
  0
LINE
  8
_0-2_02___PRT_ALL_AXES
  6
CONTINUOUS
 62
    7
 10
669.20681815480793
 20
1274.655554156102
 11
668.4249426642059
 21
1275.6882547726868
  0
LINE
  8
_0-2_02___PRT_ALL_AXES
  6
CONTINUOUS
 62
    7
 10
668.4249426642059
 20
1275.6882547726868
 11
667.65414231706063
 21
1276.779548048059
  0
LINE
  8
_0-2_02___PRT_ALL_AXES
  6
CONTINUOUS
 62
    7
 10
667.65414231706063
 20
1276.779548048059
 11
666.89563208198979
 21
1277.9277223488612
  0
LINE
  8
_0-2_02___PRT_ALL_AXES
  6
CONTINUOUS
 62
    7
 10
666.89563208198979
 20
1277.9277223488612
 11
666.15060817630683
 21
1279.1309765646488
  0
LINE
  8
_0-2_02___PRT_ALL_AXES
  6
CONTINUOUS
 62
    7
 10
666.15060817630683
 20
1279.1309765646488
 11
665.42024619837593
 21
1280.3874227870829
  0
LINE
  8
_0-2_02___PRT_ALL_AXES
  6
CONTINUOUS
 62
    7
 10
665.42024619837593
 20
1280.3874227870829
 11
664.70569933841989
 21
1281.6950890348389
  0
LINE
  8
_0-2_02___PRT_ALL_AXES
  6
CONTINUOUS
 62
    7
 10
664.70569933841989
 20
1281.6950890348389
 11
664.00809656497086
 21
1283.051922177403
  0
LINE
  8
_0-2_02___PRT_ALL_AXES
  6
CONTINUOUS
 62
    7
 10
664.00809656497086
 20
1283.051922177403
 11
663.32854082807398
 21
1284.4557910219328
  0
LINE
  8
_0-2_02___PRT_ALL_AXES
  6
CONTINUOUS
 62
    7
 10
663.32854082807398
 20
1284.4557910219328
 11
662.66810736001798
 21
1285.904489405455
  0
LINE
  8
_0-2_02___PRT_ALL_AXES
  6
CONTINUOUS
 62
    7
 10
662.66810736001798
 20
1285.904489405455
 11
662.02784194179594
 21
1287.3957395255652
  0
LINE
  8
_0-2_02___PRT_ALL_AXES
  6
CONTINUOUS
 62
    7
 10
662.02784194179594
 20
1287.3957395255652
 11
661.40875921222187
 21
1288.927195401433
  0
LINE
  8
_0-2_02___PRT_ALL_AXES
  6
CONTINUOUS
 62
    7
 10
661.40875921222187
 20
1288.927195401433
 11
660.81184107154195
 21
1290.496446321853
  0
LINE
  8
_0-2_02___PRT_ALL_AXES
  6
CONTINUOUS
 62
    7
 10
660.81184107154195
 20
1290.496446321853
 11
660.2380350576118
 21
1292.1010205645648
  0
LINE
  8
_0-2_02___PRT_ALL_AXES
  6
CONTINUOUS
 62
    7
 10
660.2380350576118
 20
1292.1010205645648
 11
659.68825279065595
 21
1293.7383891910149
  0
LINE
  8
_0-2_02___PRT_ALL_AXES
  6
CONTINUOUS
 62
    7
 10
659.68825279065595
 20
1293.7383891910149
 11
659.16336850260586
 21
1295.405969835781
  0
LINE
  8
_0-2_02___PRT_ALL_AXES
  6
CONTINUOUS
 62
    7
 10
659.16336850260586
 20
1295.405969835781
 11
658.66421755348665
 21
1297.101130780225
  0
LINE
  8
_0-2_02___PRT_ALL_AXES
  6
CONTINUOUS
 62
    7
 10
658.66421755348665
 20
1297.101130780225
 11
658.19159504077061
 21
1298.821195034528
  0
LINE
  8
_0-2_02___PRT_ALL_AXES
  6
CONTINUOUS
 62
    7
 10
658.19159504077061
 20
1298.821195034528
 11
657.74625447882499
 21
1300.563444444866
  0
LINE
  8
_0-2_02___PRT_ALL_AXES
  6
CONTINUOUS
 62
    7
 10
657.74625447882499
 20
1300.563444444866
 11
657.32890649208593
 21
1302.325124059676
  0
LINE
  8
_0-2_02___PRT_ALL_AXES
  6
CONTINUOUS
 62
    7
 10
657.32890649208593
 20
1302.325124059676
 11
656.94021761185786
 21
1304.1034464623831
  0
LINE
  8
_0-2_02___PRT_ALL_AXES
  6
CONTINUOUS
 62
    7
 10
656.94021761185786
 20
1304.1034464623831
 11
656.5808091386516
 21
1305.8955961384272
  0
LINE
  8
_0-2_02___PRT_ALL_AXES
  6
CONTINUOUS
 62
    7
 10
656.5808091386516
 20
1305.8955961384272
 11
656.25125604490086
 21
1307.6987340769761
  0
LINE
  8
_0-2_02___PRT_ALL_AXES
  6
CONTINUOUS
 62
    7
 10
656.25125604490086
 20
1307.6987340769761
 11
655.95208597903184
 21
1309.510002290348
  0
LINE
  8
_0-2_02___PRT_ALL_AXES
  6
CONTINUOUS
 62
    7
 10
655.95208597903184
 20
1309.510002290348
 11
655.68377834876901
 21
1311.3265283829669
  0
LINE
  8
_0-2_02___PRT_ALL_AXES
  6
CONTINUOUS
 62
    7
 10
655.68377834876901
 20
1311.3265283829669
 11
655.44676345246762
 21
1313.145430304719
  0
LINE
  8
_0-2_02___PRT_ALL_AXES
  6
CONTINUOUS
 62
    7
 10
655.44676345246762
 20
1313.145430304719
 11
655.24142172472193
 21
1314.9638209945761
  0
LINE
  8
_0-2_02___PRT_ALL_AXES
  6
CONTINUOUS
 62
    7
 10
655.24142172472193
 20
1314.9638209945761
 11
655.06808305742879
 21
1316.7788130707049
  0
LINE
  8
_0-2_02___PRT_ALL_AXES
  6
CONTINUOUS
 62
    7
 10
655.06808305742879
 20
1316.7788130707049
 11
654.92702619247802
 21
1318.587523647841
  0
LINE
  8
_0-2_02___PRT_ALL_AXES
  6
CONTINUOUS
 62
    7
 10
654.92702619247802
 20
1318.587523647841
 11
654.81847822186774
 21
1320.3870790289111
  0
LINE
  8
_0-2_02___PRT_ALL_AXES
  6
CONTINUOUS
 62
    7
 10
654.81847822186774
 20
1320.3870790289111
 11
654.74261417166599
 21
1322.174619428677
  0
LINE
  8
_0-2_02___PRT_ALL_AXES
  6
CONTINUOUS
 62
    7
 10
654.74261417166599
 20
1322.174619428677
 11
654.69955667205477
 21
1323.9473037590951
  0
LINE
  8
_0-2_02___PRT_ALL_AXES
  6
CONTINUOUS
 62
    7
 10
654.69955667205477
 20
1323.9473037590951
 11
654.68937572950063
 21
1325.7023142828489
  0
LINE
  8
_0-2_02___PRT_ALL_AXES
  6
CONTINUOUS
 62
    7
 10
654.68937572950063
 20
1325.7023142828489
 11
654.71208858653972
 21
1327.436861282888
  0
LINE
  8
_0-2_02___PRT_ALL_AXES
  6
CONTINUOUS
 62
    7
 10
654.71208858653972
 20
1327.436861282888
 11
654.76765967910478
 21
1329.148187707573
  0
LINE
  8
_0-2_02___PRT_ALL_AXES
  6
CONTINUOUS
 62
    7
 10
654.76765967910478
 20
1329.148187707573
 11
654.85600068759004
 21
1330.833573710684
  0
LINE
  8
_0-2_02___PRT_ALL_AXES
  6
CONTINUOUS
 62
    7
 10
654.85600068759004
 20
1330.833573710684
 11
654.97697068237676
 21
1332.4903411677792
  0
LINE
  8
_0-2_02___PRT_ALL_AXES
  6
CONTINUOUS
 62
    7
 10
654.97697068237676
 20
1332.4903411677792
 11
655.13037636311992
 21
1334.1158580752349
  0
LINE
  8
_0-2_02___PRT_ALL_AXES
  6
CONTINUOUS
 62
    7
 10
655.13037636311992
 20
1334.1158580752349
 11
655.31597239705798
 21
1335.707542911925
  0
LINE
  8
_0-7__Z_P___M8_30
  6
CONTINUOUS
 62
    7
 10
640.06810572013183
 20
1317.523584556267
 11
639.59457650894865
 21
1317.9078637996449
  0
LINE
  8
_0-7__Z_P___M8_30
  6
CONTINUOUS
 62
    7
 10
722.26816672201767
 20
1255.9488269912708
 11
721.7946375100737
 21
1256.333106233888
  0
LINE
  8
_0-7__Z_P___M8_30
  6
CONTINUOUS
 62
    7
 10
638.99536605890989
 20
1299.453933194246
 11
639.47145643286285
 21
1299.067336068787
  0
LINE
  8
_0-7__Z_P___M8_30
  6
CONTINUOUS
 62
    7
 10
639.47145643286285
 20
1299.067336068787
 11
639.88139940418796
 21
1298.6714284288032
  0
LINE
  8
_0-7__Z_P___M8_30
  6
CONTINUOUS
 62
    7
 10
639.88139940418796
 20
1298.6714284288032
 11
640.23026647226379
 21
1298.265474733219
  0
LINE
  8
_0-7__Z_P___M8_30
  6
CONTINUOUS
 62
    7
 10
640.23026647226379
 20
1298.265474733219
 11
640.52590607478578
 21
1297.8458284394169
  0
LINE
  8
_0-7__Z_P___M8_30
  6
CONTINUOUS
 62
    7
 10
640.52590607478578
 20
1297.8458284394169
 11
640.77657433087779
 21
1297.4060386497072
  0
LINE
  8
_0-7__Z_P___M8_30
  6
CONTINUOUS
 62
    7
 10
721.19542706079574
 20
1237.8791756292489
 11
721.67151743474869
 21
1237.49257850303
  0
LINE
  8
_0-7__Z_P___M8_30
  6
CONTINUOUS
 62
    7
 10
721.67151743474869
 20
1237.49257850303
 11
722.0814604060738
 21
1237.096670863807
  0
LINE
  8
_0-7__Z_P___M8_30
  6
CONTINUOUS
 62
    7
 10
722.0814604060738
 20
1237.096670863807
 11
722.43032747414964
 21
1236.6907171674611
  0
LINE
  8
_0-7__Z_P___M8_30
  6
CONTINUOUS
 62
    7
 10
722.43032747414964
 20
1236.6907171674611
 11
722.72596707667162
 21
1236.271070873659
  0
LINE
  8
_0-7__Z_P___M8_30
  6
CONTINUOUS
 62
    7
 10
722.72596707667162
 20
1236.271070873659
 11
722.97663533276273
 21
1235.8312810839489
  0
LINE
  8
_0-2_02___PRT_ALL_AXES
  6
CONTINUOUS
 62
    7
 10
869.97742365698878
 20
1103.462899130107
 11
869.3690235380036
 21
1104.2821810444989
  0
LINE
  8
_0-2_02___PRT_ALL_AXES
  6
CONTINUOUS
 62
    7
 10
869.3690235380036
 20
1104.2821810444989
 11
868.83142363174784
 21
1105.0608283975389
  0
LINE
  8
_0-2_02___PRT_ALL_AXES
  6
CONTINUOUS
 62
    7
 10
868.83142363174784
 20
1105.0608283975389
 11
868.35652397575677
 21
1105.8130081895961
  0
LINE
  8
_0-2_02___PRT_ALL_AXES
  6
CONTINUOUS
 62
    7
 10
868.35652397575677
 20
1105.8130081895961
 11
867.94149796532292
 21
1106.547186791593
  0
LINE
  8
_0-2_02___PRT_ALL_AXES
  6
CONTINUOUS
 62
    7
 10
867.94149796532292
 20
1106.547186791593
 11
867.58689263948281
 21
1107.2664700119012
  0
LINE
  8
_0-7__Z_P___M8_30
  6
CONTINUOUS
 62
    7
 10
644.2685210340419
 20
1385.5988662614131
 11
643.26081891635386
 21
1387.3391665892891
  0
LINE
  8
_0-7__Z_P___M8_30
  6
CONTINUOUS
 62
    7
 10
643.26081891635386
 20
1387.3391665892891
 11
642.04768482192594
 21
1388.6247844066688
  0
LINE
  8
_0-7__Z_P___M8_30
  6
CONTINUOUS
 62
    7
 10
724.16378738212779
 20
1253.0473678650669
 11
723.15608526443975
 21
1254.7876681921821
  0
LINE
  8
_0-7__Z_P___M8_30
  6
CONTINUOUS
 62
    7
 10
723.15608526443975
 20
1254.7876681921821
 11
721.94295116924968
 21
1256.073286010323
  0
LINE
  8
_0-7__Z_P___M8_30
  6
CONTINUOUS
 62
    7
 10
643.68061814050679
 20
1386.8367324900191
 11
643.42782811599
 21
1387.279859275849
  0
LINE
  8
_0-7__Z_P___M8_30
  6
CONTINUOUS
 62
    7
 10
643.42782811599
 20
1387.279859275849
 11
643.13087919934787
 21
1387.7005655688008
  0
LINE
  8
_0-7__Z_P___M8_30
  6
CONTINUOUS
 62
    7
 10
643.13087919934787
 20
1387.7005655688008
 11
642.7817905020479
 21
1388.10598404854
  0
LINE
  8
_0-7__Z_P___M8_30
  6
CONTINUOUS
 62
    7
 10
642.7817905020479
 20
1388.10598404854
 11
642.37290037393086
 21
1388.5003253876171
  0
LINE
  8
_0-7__Z_P___M8_30
  6
CONTINUOUS
 62
    7
 10
723.57588448859269
 20
1254.2852340936729
 11
723.32309446331283
 21
1254.728360878742
  0
LINE
  8
_0-7__Z_P___M8_30
  6
CONTINUOUS
 62
    7
 10
723.32309446331283
 20
1254.728360878742
 11
723.0261455466707
 21
1255.1490671716929
  0
LINE
  8
_0-7__Z_P___M8_30
  6
CONTINUOUS
 62
    7
 10
723.0261455466707
 20
1255.1490671716929
 11
722.67705685013379
 21
1255.5544856521929
  0
LINE
  8
_0-7__Z_P___M8_30
  6
CONTINUOUS
 62
    7
 10
722.67705685013379
 20
1255.5544856521929
 11
722.26816672201767
 21
1255.9488269912708
  0
LINE
  8
_0-2_02___PRT_ALL_AXES
  6
CONTINUOUS
 62
    7
 10
858.33534740296182
 20
1092.4638015187452
 11
858.74820249901768
 21
1091.70685449848
  0
LINE
  8
_0-2_02___PRT_ALL_AXES
  6
CONTINUOUS
 62
    7
 10
858.74820249901768
 20
1091.70685449848
 11
859.23313866350873
 21
1091.0895223755128
  0
LINE
  8
_0-2_02___PRT_ALL_AXES
  6
CONTINUOUS
 62
    7
 10
859.23313866350873
 20
1091.0895223755128
 11
859.78185562932003
 21
1090.622358870422
  0
LINE
  8
_0-2_02___PRT_ALL_AXES
  6
CONTINUOUS
 62
    7
 10
859.78185562932003
 20
1090.622358870422
 11
860.38496323234676
 21
1090.3133490513069
  0
LINE
  8
_0-2_02___PRT_ALL_AXES
  6
CONTINUOUS
 62
    7
 10
860.38496323234676
 20
1090.3133490513069
 11
861.03214196033878
 21
1090.1677731941231
  0
LINE
  8
_0-2_02___PRT_ALL_AXES
  6
CONTINUOUS
 62
    7
 10
861.03214196033878
 20
1090.1677731941231
 11
861.71231933607578
 21
1090.1881168140908
  0
LINE
  8
_0-2_02___PRT_ALL_AXES
  6
CONTINUOUS
 62
    7
 10
861.71231933607578
 20
1090.1881168140908
 11
862.41385913797194
 21
1090.3740284013729
  0
LINE
  8
_0-2_02___PRT_ALL_AXES
  6
CONTINUOUS
 62
    7
 10
862.41385913797194
 20
1090.3740284013729
 11
863.12476031560664
 21
1090.7223256146081
  0
LINE
  8
_0-2_02___PRT_ALL_AXES
  6
CONTINUOUS
 62
    7
 10
858.33534740296182
 20
1092.4638015187452
 11
858.69001748508481
 21
1091.7443960782089
  0
LINE
  8
_0-2_02___PRT_ALL_AXES
  6
CONTINUOUS
 62
    7
 10
858.69001748508481
 20
1091.7443960782089
 11
859.10509394449082
 21
1091.010147440029
  0
LINE
  8
_0-2_02___PRT_ALL_AXES
  6
CONTINUOUS
 62
    7
 10
859.10509394449082
 20
1091.010147440029
 11
859.57998319384797
 21
1090.2580015318272
  0
LINE
  8
_0-2_02___PRT_ALL_AXES
  6
CONTINUOUS
 62
    7
 10
859.57998319384797
 20
1090.2580015318272
 11
860.11745518240195
 21
1089.4795447245069
  0
LINE
  8
_0-2_02___PRT_ALL_AXES
  6
CONTINUOUS
 62
    7
 10
860.11745518240195
 20
1089.4795447245069
 11
860.72587847304567
 21
1088.660230511221
  0
LINE
  8
_0-7__Z_P___M8_30
  6
CONTINUOUS
 62
    7
 10
723.74379116039881
 20
1253.9360969392692
 11
723.57580374707277
 21
1254.285221617447
  0
LINE
  8
_0-7__Z_P___M8_30
  6
CONTINUOUS
 62
    7
 10
724.16389100650804
 20
1253.0476133441289
 11
723.74361794484503
 21
1253.9360131345088
  0
LINE
  8
_0-7__Z_P___M8_30
  6
CONTINUOUS
 62
    7
 10
715.56421876163995
 20
1250.835153314144
 11
716.13100142842677
 21
1249.6059189590528
  0
LINE
  8
_0-7__Z_P___M8_30
  6
CONTINUOUS
 62
    7
 10
716.13100142842677
 20
1249.6059189590528
 11
716.61563255365081
 21
1248.4043107402272
  0
LINE
  8
_0-7__Z_P___M8_30
  6
CONTINUOUS
 62
    7
 10
716.61563255365081
 20
1248.4043107402272
 11
717.02022314020178
 21
1247.2161772462932
  0
LINE
  8
_0-7__Z_P___M8_30
  6
CONTINUOUS
 62
    7
 10
717.02022314020178
 20
1247.2161772462932
 11
717.34614277030187
 21
1246.027426854685
  0
LINE
  8
_0-7__Z_P___M8_30
  6
CONTINUOUS
 62
    7
 10
717.34614277030187
 20
1246.027426854685
 11
717.59345490026271
 21
1244.829146782874
  0
LINE
  8
_0-7__Z_P___M8_30
  6
CONTINUOUS
 62
    7
 10
717.59345490026271
 20
1244.829146782874
 11
717.76369122704864
 21
1243.6103887489689
  0
LINE
  8
_0-7__Z_P___M8_30
  6
CONTINUOUS
 62
    7
 10
717.76369122704864
 20
1243.6103887489689
 11
717.85942878817696
 21
1242.354065899669
  0
LINE
  8
_0-7__Z_P___M8_30
  6
CONTINUOUS
 62
    7
 10
717.85942878817696
 20
1242.354065899669
 11
717.88250910676061
 21
1241.0465752822452
  0
LINE
  8
_0-7__Z_P___M8_30
  6
CONTINUOUS
 62
    7
 10
717.88250910676061
 20
1241.0465752822452
 11
717.83524917410386
 21
1239.6825409775529
  0
LINE
  8
_0-7__Z_P___M8_30
  6
CONTINUOUS
 62
    7
 10
711.29898367769965
 20
1238.672545168999
 11
709.02795300158277
 21
1249.825157464441
  0
LINE
  8
_0-5_EL-M10011N_______8
  6
CONTINUOUS
 62
    7
 10
757.98867050006902
 20
1161.5385265866971
 11
757.98851379324469
 21
1161.558024042241
  0
LINE
  8
_0-5_EL-M10011N_______8
  6
CONTINUOUS
 62
    7
 10
757.98851379324469
 20
1161.558024042241
 11
757.93552762489662
 21
1161.7068293369589
  0
LINE
  8
_0-5_EL-M10011N_______8
  6
CONTINUOUS
 62
    7
 10
757.93552762489662
 20
1161.7068293369589
 11
757.79355090402578
 21
1161.8501715100151
  0
LINE
  8
_0-5_EL-M10011N_______8
  6
CONTINUOUS
 62
    7
 10
761.75028030424164
 20
1283.6986653218109
 11
757.79355090402578
 21
1161.8501715107768
  0
LINE
  8
_0-5_EL-M10011N_______8
  6
CONTINUOUS
 62
    7
 10
757.98867050006902
 20
1161.5385265866971
 11
761.95692107434797
 21
1283.7418179083529
  0
LINE
  8
_0-5_EL-M10011N_______8
  6
CONTINUOUS
 62
    7
 10
757.79355090402578
 20
1161.8501715100151
 11
757.74030651978501
 21
1161.4647946063992
  0
LINE
  8
_0-5_EL-M10011N_______8
  6
CONTINUOUS
 62
    7
 10
757.74030651978501
 20
1161.4647946063992
 11
757.60786078518504
 21
1161.086091213439
  0
LINE
  8
_0-5_EL-M10011N_______8
  6
CONTINUOUS
 62
    7
 10
757.60786078518504
 20
1161.086091213439
 11
757.402855081913
 21
1160.7330511018931
  0
LINE
  8
_0-5_EL-M10011N_______8
  6
CONTINUOUS
 62
    7
 10
757.402855081913
 20
1160.7330511018931
 11
757.13556925250259
 21
1160.4233771753952
  0
LINE
  8
_0-5_EL-M10011N_______8
  6
CONTINUOUS
 62
    7
 10
757.13556925250259
 20
1160.4233771753952
 11
756.81940612486187
 21
1160.172597778555
  0
LINE
  8
_0-5_EL-M10011N_______8
  6
CONTINUOUS
 62
    7
 10
756.81940612486187
 20
1160.172597778555
 11
756.47021943740992
 21
1159.9932880381152
  0
LINE
  8
_0-5_EL-M10011N_______8
  6
CONTINUOUS
 62
    7
 10
756.47021943740992
 20
1159.9932880381152
 11
756.10551886963094
 21
1159.894439291947
  0
LINE
  8
_0-7__Z_P___M8_30
  6
CONTINUOUS
 62
    7
 10
725.45035892327996
 20
1240.451480090167
 11
725.83253438371685
 21
1242.2471941225572
  0
LINE
  8
_0-5_EL-M10011N_______8
  6
CONTINUOUS
 62
    7
 10
703.86396985408101
 20
1177.311488811602
 11
703.93722450843461
 21
1177.5863465245211
  0
LINE
  8
_0-5_EL-M10011N_______8
  6
CONTINUOUS
 62
    7
 10
703.93722450843461
 20
1177.5863465245211
 11
704.16352782062268
 21
1177.874444200801
  0
LINE
  8
_0-5_EL-M10011N_______8
  6
CONTINUOUS
 62
    7
 10
704.16352782062268
 20
1177.874444200801
 11
704.53271944876087
 21
1178.137133627923
  0
LINE
  8
_0-5_EL-M10011N_______8
  6
CONTINUOUS
 62
    7
 10
704.53271944876087
 20
1178.137133627923
 11
705.03771304278462
 21
1178.3687768753289
  0
LINE
  8
_0-5_EL-M10011N_______8
  6
CONTINUOUS
 62
    7
 10
705.03771304278462
 20
1178.3687768753289
 11
705.66049488611998
 21
1178.559619162681
  0
LINE
  8
_0-5_EL-M10011N_______8
  6
CONTINUOUS
 62
    7
 10
705.66049488611998
 20
1178.559619162681
 11
706.3785350802118
 21
1178.7024723412869
  0
LINE
  8
_0-5_EL-M10011N_______8
  6
CONTINUOUS
 62
    7
 10
713.00310335632184
 20
1177.0147179918849
 11
712.92984870196688
 21
1176.7398602789649
  0
LINE
  8
_0-5_EL-M10011N_______8
  6
CONTINUOUS
 62
    7
 10
712.92984870196688
 20
1176.7398602789649
 11
712.70354538977972
 21
1176.4517626034481
  0
LINE
  8
_0-5_EL-M10011N_______8
  6
CONTINUOUS
 62
    7
 10
712.70354538977972
 20
1176.4517626034481
 11
712.33435376087891
 21
1176.189073175563
  0
LINE
  8
_0-5_EL-M10011N_______8
  6
CONTINUOUS
 62
    7
 10
712.33435376087891
 20
1176.189073175563
 11
711.82936016761778
 21
1175.9574299281571
  0
LINE
  8
_0-5_EL-M10011N_______8
  6
CONTINUOUS
 62
    7
 10
711.82936016761778
 20
1175.9574299281571
 11
711.20657832428378
 21
1175.7665876415681
  0
LINE
  8
_0-5_EL-M10011N_______8
  6
CONTINUOUS
 62
    7
 10
711.20657832428378
 20
1175.7665876415681
 11
710.48853813019059
 21
1175.6237344629608
  0
LINE
  8
_0-7__Z_P___M8_30
  6
CONTINUOUS
 62
    7
 10
709.02795300158277
 20
1249.825157464441
 11
711.89823028844967
 21
1257.1264977847691
  0
LINE
  8
_0-6__V_K___I
  6
CONTINUOUS
 62
    7
 10
504.5915720806488
 20
1146.6082059005348
 11
504.17570985293963
 21
1146.1629315198129
  0
LINE
  8
_0-6__V_K___I
  6
CONTINUOUS
 62
    7
 10
504.17570985293963
 20
1146.1629315198129
 11
503.54762293207796
 21
1145.756674881985
  0
LINE
  8
_0-6__V_K___I
  6
CONTINUOUS
 62
    7
 10
503.54762293207796
 20
1145.756674881985
 11
502.72589888540864
 21
1145.4016535780588
  0
LINE
  8
_0-6__V_K___I
  6
CONTINUOUS
 62
    7
 10
502.72589888540864
 20
1145.4016535780588
 11
501.73485198765007
 21
1145.1086613868029
  0
LINE
  8
_0-4_EL-M10011N_______9
  6
CONTINUOUS
 62
    7
 10
1119.6125196982198
 20
1566.4794756008168
 11
1119.3262276335167
 21
1566.386554353589
  0
LINE
  8
_0-5_EL-M10011N_______8
  6
CONTINUOUS
 62
    7
 10
1887.395371951643
 20
1426.8229456147151
 11
1320.3103127963686
 21
1277.5425978005951
  0
LINE
  8
_0-5_EL-M10011N_______8
  6
CONTINUOUS
 62
    7
 10
1887.0454695930284
 20
1426.923756496406
 11
1319.9604104369928
 21
1277.643408682286
  0
LINE
  8
_0-5_EL-M10011N_______8
  6
CONTINUOUS
 62
    7
 10
1789.1214298453615
 20
1426.3182335987408
 11
1524.31878009612
 21
1356.6111746334068
  0
LINE
  8
_0-5_EL-M10011N_______8
  6
CONTINUOUS
 62
    7
 10
1524.2031267505909
 20
1358.2789132491548
 11
1789.0057764998328
 21
1427.9859722144888
  0
LINE
  8
_0-6__V_K___I
  6
CONTINUOUS
 62
    7
 10
1787.9842950927114
 20
1428.0637976557391
 11
1524.5396076496368
 21
1358.7142107874988
  0
LINE
  8
_0-6__V_K___I
  6
CONTINUOUS
 62
    7
 10
1524.3950409684899
 20
1360.7988840575649
 11
1787.8397284115626
 21
1430.148470925044
  0
LINE
  8
_0-5_EL-M10011N_______8
  6
CONTINUOUS
 62
    7
 10
1524.31878009612
 20
1356.6111746334068
 11
1523.21106679593
 21
1356.3625199196431
  0
LINE
  8
_0-5_EL-M10011N_______8
  6
CONTINUOUS
 62
    7
 10
1523.21106679593
 20
1356.3625199196431
 11
1522.0482952108846
 21
1356.1838560519268
  0
LINE
  8
_0-5_EL-M10011N_______8
  6
CONTINUOUS
 62
    7
 10
1522.0482952108846
 20
1356.1838560519268
 11
1520.8588177859338
 21
1356.0791339271068
  0
LINE
  8
_0-5_EL-M10011N_______8
  6
CONTINUOUS
 62
    7
 10
1520.8588177859338
 20
1356.0791339271068
 11
1519.6713718110718
 21
1356.0506009658852
  0
LINE
  8
_0-5_EL-M10011N_______8
  6
CONTINUOUS
 62
    7
 10
1519.6713718110718
 20
1356.0506009658852
 11
1518.5145000445559
 21
1356.0987733767788
  0
LINE
  8
_0-5_EL-M10011N_______8
  6
CONTINUOUS
 62
    7
 10
1518.5145000445559
 20
1356.0987733767788
 11
1517.4159818257976
 21
1356.2224364190129
  0
LINE
  8
_0-5_EL-M10011N_______8
  6
CONTINUOUS
 62
    7
 10
1517.4159818257976
 20
1356.2224364190129
 11
1516.4022799647109
 21
1356.418672189609
  0
LINE
  8
_0-5_EL-M10011N_______8
  6
CONTINUOUS
 62
    7
 10
1516.4022799647109
 20
1356.418672189609
 11
1515.4980085898696
 21
1356.6829145201532
  0
LINE
  8
_0-5_EL-M10011N_______8
  6
CONTINUOUS
 62
    7
 10
1515.4980085898696
 20
1356.6829145201532
 11
1514.725427159166
 21
1357.0090306090929
  0
LINE
  8
_0-5_EL-M10011N_______8
  6
CONTINUOUS
 62
    7
 10
1514.725427159166
 20
1357.0090306090929
 11
1514.1039660218507
 21
1357.389429045907
  0
LINE
  8
_0-6__V_K___I
  6
CONTINUOUS
 62
    7
 10
1524.5396076496368
 20
1358.7142107874988
 11
1523.3064841646578
 21
1358.4424466360829
  0
LINE
  8
_0-6__V_K___I
  6
CONTINUOUS
 62
    7
 10
1523.3064841646578
 20
1358.4424466360829
 11
1522.0081371807119
 21
1358.257341803348
  0
LINE
  8
_0-6__V_K___I
  6
CONTINUOUS
 62
    7
 10
1522.0081371807119
 20
1358.257341803348
 11
1520.6837620727988
 21
1358.1641880897309
  0
LINE
  8
_0-6__V_K___I
  6
CONTINUOUS
 62
    7
 10
1520.6837620727988
 20
1358.1641880897309
 11
1519.3731839258639
 21
1358.1655880643252
  0
LINE
  8
_0-6__V_K___I
  6
CONTINUOUS
 62
    7
 10
1519.3731839258639
 20
1358.1655880643252
 11
1518.1156188938808
 21
1358.261397241261
  0
LINE
  8
_0-6__V_K___I
  6
CONTINUOUS
 62
    7
 10
1518.1156188938808
 20
1358.261397241261
 11
1516.948765303031
 21
1358.4487444746428
  0
LINE
  8
_0-6__V_K___I
  6
CONTINUOUS
 62
    7
 10
1516.948765303031
 20
1358.4487444746428
 11
1515.9076910151048
 21
1358.7221166319869
  0
LINE
  8
_0-6__V_K___I
  6
CONTINUOUS
 62
    7
 10
1515.9076910151048
 20
1358.7221166319869
 11
1515.0239956039377
 21
1359.0734710867569
  0
LINE
  8
_0-6__V_K___I
  6
CONTINUOUS
 62
    7
 10
1515.0239956039377
 20
1359.0734710867569
 11
1514.324793576131
 21
1359.4924651999991
  0
LINE
  8
_0-5_EL-M10011N_______8
  6
CONTINUOUS
 62
    7
 10
1315.1218263257638
 20
1301.8884157949169
 11
1314.3390561084766
 21
1301.717710567621
  0
LINE
  8
_0-5_EL-M10011N_______8
  6
CONTINUOUS
 62
    7
 10
1314.3390561084766
 20
1301.717710567621
 11
1313.511985998588
 21
1301.6050223797388
  0
LINE
  8
_0-5_EL-M10011N_______8
  6
CONTINUOUS
 62
    7
 10
1313.511985998588
 20
1301.6050223797388
 11
1312.6701769067458
 21
1301.55445082099
  0
LINE
  8
_0-5_EL-M10011N_______8
  6
CONTINUOUS
 62
    7
 10
1312.6701769067458
 20
1301.55445082099
 11
1311.8464478270039
 21
1301.567391045553
  0
LINE
  8
_0-5_EL-M10011N_______8
  6
CONTINUOUS
 62
    7
 10
1311.8464478270039
 20
1301.567391045553
 11
1311.0578155239059
 21
1301.6437910316909
  0
LINE
  8
_0-5_EL-M10011N_______8
  6
CONTINUOUS
 62
    7
 10
1311.0578155239059
 20
1301.6437910316909
 11
1310.3366261194496
 21
1301.781495919603
  0
LINE
  8
_0-5_EL-M10011N_______8
  6
CONTINUOUS
 62
    7
 10
1310.3366261194496
 20
1301.781495919603
 11
1309.7098072458348
 21
1301.9754372091388
  0
LINE
  8
_0-5_EL-M10011N_______8
  6
CONTINUOUS
 62
    7
 10
1309.7098072458348
 20
1301.9754372091388
 11
1309.1988549543048
 21
1302.2185489893609
  0
LINE
  8
_0-5_EL-M10011N_______8
  6
CONTINUOUS
 62
    7
 10
1309.1988549543048
 20
1302.2185489893609
 11
1308.8202977876217
 21
1302.5023835888228
  0
LINE
  8
_0-5_EL-M10011N_______8
  6
CONTINUOUS
 62
    7
 10
1308.8202977876217
 20
1302.5023835888228
 11
1308.5861799756958
 21
1302.8173797873792
  0
LINE
  8
_0-5_EL-M10011N_______8
  6
CONTINUOUS
 62
    7
 10
1308.5861799756958
 20
1302.8173797873792
 11
1308.5058004316038
 21
1303.1114895331689
  0
LINE
  8
_0-5_EL-M10011N_______8
  6
CONTINUOUS
 62
    7
 10
1311.0118232757827
 20
1304.967153673243
 11
1311.794593493069
 21
1305.137858900539
  0
LINE
  8
_0-5_EL-M10011N_______8
  6
CONTINUOUS
 62
    7
 10
1311.794593493069
 20
1305.137858900539
 11
1312.621663603722
 21
1305.250547087659
  0
LINE
  8
_0-5_EL-M10011N_______8
  6
CONTINUOUS
 62
    7
 10
1312.621663603722
 20
1305.250547087659
 11
1313.4634726948007
 21
1305.3011186464091
  0
LINE
  8
_0-5_EL-M10011N_______8
  6
CONTINUOUS
 62
    7
 10
1313.4634726948007
 20
1305.3011186464091
 11
1314.2872017753048
 21
1305.2881784218448
  0
LINE
  8
_0-5_EL-M10011N_______8
  6
CONTINUOUS
 62
    7
 10
1314.2872017753048
 20
1305.2881784218448
 11
1315.0758340776406
 21
1305.2117784364691
  0
LINE
  8
_0-5_EL-M10011N_______8
  6
CONTINUOUS
 62
    7
 10
1315.0758340776406
 20
1305.2117784364691
 11
1315.7970234820968
 21
1305.0740735477948
  0
LINE
  8
_0-5_EL-M10011N_______8
  6
CONTINUOUS
 62
    7
 10
1315.7970234820968
 20
1305.0740735477948
 11
1316.4238423557117
 21
1304.880132258259
  0
LINE
  8
_0-5_EL-M10011N_______8
  6
CONTINUOUS
 62
    7
 10
1316.4238423557117
 20
1304.880132258259
 11
1316.9347946472408
 21
1304.6370204787991
  0
LINE
  8
_0-5_EL-M10011N_______8
  6
CONTINUOUS
 62
    7
 10
1316.9347946472408
 20
1304.6370204787991
 11
1317.3133518139248
 21
1304.353185878575
  0
LINE
  8
_0-5_EL-M10011N_______8
  6
CONTINUOUS
 62
    7
 10
1317.3133518139248
 20
1304.353185878575
 11
1317.5474696258507
 21
1304.0381896807812
  0
LINE
  8
_0-5_EL-M10011N_______8
  6
CONTINUOUS
 62
    7
 10
1317.5474696258507
 20
1304.0381896807812
 11
1317.6278491699436
 21
1303.7440799349911
  0
LINE
  8
_0-5_EL-M10011N_______8
  6
CONTINUOUS
 62
    7
 10
756.44010903560275
 20
1159.7905308398708
 11
756.64610883035994
 21
1159.8346403841128
  0
LINE
  8
_0-5_EL-M10011N_______8
  6
CONTINUOUS
 62
    7
 10
756.64610883035994
 20
1159.8346403841128
 11
756.8696469397978
 21
1159.91203007795
  0
LINE
  8
_0-5_EL-M10011N_______8
  6
CONTINUOUS
 62
    7
 10
756.8696469397978
 20
1159.91203007795
 11
757.1098702386239
 21
1160.034602610554
  0
LINE
  8
_0-5_EL-M10011N_______8
  6
CONTINUOUS
 62
    7
 10
757.1098702386239
 20
1160.034602610554
 11
757.35581134313361
 21
1160.213490068119
  0
LINE
  8
_0-5_EL-M10011N_______8
  6
CONTINUOUS
 62
    7
 10
757.35581134313361
 20
1160.213490068119
 11
757.5950650381078
 21
1160.4632046415868
  0
LINE
  8
_0-5_EL-M10011N_______8
  6
CONTINUOUS
 62
    7
 10
757.5950650381078
 20
1160.4632046415868
 11
757.79801831266786
 21
1160.7829351987211
  0
LINE
  8
_0-5_EL-M10011N_______8
  6
CONTINUOUS
 62
    7
 10
757.79801831266786
 20
1160.7829351987211
 11
757.93296041717895
 21
1161.1461320311269
  0
LINE
  8
_0-5_EL-M10011N_______8
  6
CONTINUOUS
 62
    7
 10
757.93296041717895
 20
1161.1461320311269
 11
757.98867050006902
 21
1161.5385265866971
  0
LINE
  8
_0-2_02___PRT_ALL_AXES
  6
CONTINUOUS
 62
    7
 10
1027.295252137289
 20
1192.1270065190888
 11
1033.7191003147136
 21
1193.4684923339528
  0
LINE
  8
_0-5_EL-M10011N_______8
  6
CONTINUOUS
 62
    7
 10
710.54385320218671
 20
1177.3271762427612
 11
711.25823067944884
 21
1177.469118877088
  0
LINE
  8
_0-5_EL-M10011N_______8
  6
CONTINUOUS
 62
    7
 10
711.25823067944884
 20
1177.469118877088
 11
711.87919997700601
 21
1177.658823316322
  0
LINE
  8
_0-5_EL-M10011N_______8
  6
CONTINUOUS
 62
    7
 10
711.87919997700601
 20
1177.658823316322
 11
712.3734013238809
 21
1177.8845173683612
  0
LINE
  8
_0-6__V_K___I
  6
CONTINUOUS
 62
    7
 10
501.73485198765007
 20
1145.1086613868029
 11
500.60381297058569
 21
1144.886718908414
  0
LINE
  8
_0-6__V_K___I
  6
CONTINUOUS
 62
    7
 10
500.67295681019868
 20
1147.0160211331631
 11
501.80396838154678
 21
1147.2379569501491
  0
LINE
  8
_0-6__V_K___I
  6
CONTINUOUS
 62
    7
 10
501.80396838154678
 20
1147.2379569501491
 11
502.79500163417379
 21
1147.5309411106869
  0
LINE
  8
_0-6__V_K___I
  6
CONTINUOUS
 62
    7
 10
502.79500163417379
 20
1147.5309411106869
 11
503.41429307478575
 21
1147.7984972573108
  0
LINE
  8
_0-5_EL-M10011N_______8
  6
CONTINUOUS
 62
    7
 10
1320.0810627219767
 20
1277.497678498004
 11
1320.3103127963686
 21
1277.5425978005951
  0
LINE
  8
_0-5_EL-M10011N_______8
  6
CONTINUOUS
 62
    7
 10
501.62661195876581
 20
1144.7352784340528
 11
502.65155526828579
 21
1144.9319842755908
  0
LINE
  8
_0-5_EL-M10011N_______8
  6
CONTINUOUS
 62
    7
 10
502.65155526828579
 20
1144.9319842755908
 11
503.56459010108978
 21
1145.1868089932709
  0
LINE
  8
_0-5_EL-M10011N_______8
  6
CONTINUOUS
 62
    7
 10
503.56459010108978
 20
1145.1868089932709
 11
504.34425547469885
 21
1145.4933009982692
  0
LINE
  8
_0-5_EL-M10011N_______8
  6
CONTINUOUS
 62
    7
 10
504.34425547469885
 20
1145.4933009982692
 11
504.97227390395392
 21
1145.8438896598032
  0
LINE
  8
_0-5_EL-M10011N_______8
  6
CONTINUOUS
 62
    7
 10
504.97227390395392
 20
1145.8438896598032
 11
505.41458019333004
 21
1146.2138988171669
  0
LINE
  8
_0-5_EL-M10011N_______8
  6
CONTINUOUS
 62
    7
 10
756.44010903560275
 20
1159.7905308398708
 11
188.25460604947182
 21
1071.9934582052592
  0
LINE
  8
_0-5_EL-M10011N_______8
  6
CONTINUOUS
 62
    7
 10
756.10551886963094
 20
1159.894439291947
 11
187.92001588426189
 21
1072.097366657335
  0
LINE
  8
_0-5_EL-M10011N_______8
  6
CONTINUOUS
 62
    7
 10
501.57129688753184
 20
1143.0318366542529
 11
236.25479046394773
 21
1102.0346403808389
  0
LINE
  8
_0-5_EL-M10011N_______8
  6
CONTINUOUS
 62
    7
 10
236.31010553594393
 20
1103.738082161402
 11
501.62661195876581
 21
1144.7352784340528
  0
LINE
  8
_0-6__V_K___I
  6
CONTINUOUS
 62
    7
 10
500.60381297058569
 20
1144.886718908414
 11
236.6479040160479
 21
1104.0997646673968
  0
LINE
  8
_0-6__V_K___I
  6
CONTINUOUS
 62
    7
 10
236.71704785566178
 20
1106.2290668921469
 11
500.67295681019868
 21
1147.0160211331631
  0
LINE
  8
_0-5_EL-M10011N_______8
  6
CONTINUOUS
 62
    7
 10
1319.9604104369928
 20
1277.643408682286
 11
1319.5949007174167
 21
1277.5897683415092
  0
LINE
  8
_0-5_EL-M10011N_______8
  6
CONTINUOUS
 62
    7
 10
1319.5949007174167
 20
1277.5897683415092
 11
1319.2419198399416
 21
1277.622445129598
  0
LINE
  8
_0-5_EL-M10011N_______8
  6
CONTINUOUS
 62
    7
 10
236.25479046394773
 20
1102.0346403808389
 11
235.14500993090991
 21
1101.9014847540852
  0
LINE
  8
_0-5_EL-M10011N_______8
  6
CONTINUOUS
 62
    7
 10
235.14500993090991
 20
1101.9014847540852
 11
233.98022621933393
 21
1101.8352411154269
  0
LINE
  8
_0-5_EL-M10011N_______8
  6
CONTINUOUS
 62
    7
 10
233.98022621933393
 20
1101.8352411154269
 11
232.78884005905681
 21
1101.8371625990112
  0
LINE
  8
_0-5_EL-M10011N_______8
  6
CONTINUOUS
 62
    7
 10
232.78884005905681
 20
1101.8371625990112
 11
231.59963431301364
 21
1101.9069504269232
  0
LINE
  8
_0-5_EL-M10011N_______8
  6
CONTINUOUS
 62
    7
 10
231.59963431301364
 20
1101.9069504269232
 11
230.44119371346596
 21
1102.042775629237
  0
LINE
  8
_0-5_EL-M10011N_______8
  6
CONTINUOUS
 62
    7
 10
230.44119371346596
 20
1102.042775629237
 11
229.34133516109156
 21
1102.2413249194628
  0
LINE
  8
_0-5_EL-M10011N_______8
  6
CONTINUOUS
 62
    7
 10
229.34133516109156
 20
1102.2413249194628
 11
228.32655387061777
 21
1102.497869875765
  0
LINE
  8
_0-5_EL-M10011N_______8
  6
CONTINUOUS
 62
    7
 10
228.32655387061777
 20
1102.497869875765
 11
227.42149056060498
 21
1102.8063586529952
  0
LINE
  8
_0-5_EL-M10011N_______8
  6
CONTINUOUS
 62
    7
 10
227.42149056060498
 20
1102.8063586529952
 11
226.64842489718879
 21
1103.159529469639
  0
LINE
  8
_0-5_EL-M10011N_______8
  6
CONTINUOUS
 62
    7
 10
226.64842489718879
 20
1103.159529469639
 11
226.0268005783378
 21
1103.5490451191049
  0
LINE
  8
_0-6__V_K___I
  6
CONTINUOUS
 62
    7
 10
236.6479040160479
 20
1104.0997646673968
 11
235.41248892122397
 21
1103.956035867734
  0
LINE
  8
_0-6__V_K___I
  6
CONTINUOUS
 62
    7
 10
235.41248892122397
 20
1103.956035867734
 11
234.11192278829873
 21
1103.894917861699
  0
LINE
  8
_0-6__V_K___I
  6
CONTINUOUS
 62
    7
 10
234.11192278829873
 20
1103.894917861699
 11
232.78546741734004
 21
1103.9179911828369
  0
LINE
  8
_0-6__V_K___I
  6
CONTINUOUS
 62
    7
 10
232.78546741734004
 20
1103.9179911828369
 11
231.47301007019863
 21
1104.024384628166
  0
LINE
  8
_0-6__V_K___I
  6
CONTINUOUS
 62
    7
 10
231.47301007019863
 20
1104.024384628166
 11
230.21382293300306
 21
1104.210823002049
  0
LINE
  8
_0-6__V_K___I
  6
CONTINUOUS
 62
    7
 10
230.21382293300306
 20
1104.210823002049
 11
229.04565296048389
 21
1104.4717182453069
  0
LINE
  8
_0-6__V_K___I
  6
CONTINUOUS
 62
    7
 10
229.04565296048389
 20
1104.4717182453069
 11
228.00360780073788
 21
1104.799334298481
  0
LINE
  8
_0-6__V_K___I
  6
CONTINUOUS
 62
    7
 10
228.00360780073788
 20
1104.799334298481
 11
227.11931698639177
 21
1105.1839547692689
  0
LINE
  8
_0-6__V_K___I
  6
CONTINUOUS
 62
    7
 10
227.11931698639177
 20
1105.1839547692689
 11
226.41991413043655
 21
1105.614169404902
  0
LINE
  8
_0-5_EL-M10011N_______8
  6
CONTINUOUS
 62
    7
 10
710.48853813019059
 20
1175.6237344629608
 11
709.7043166930489
 21
1175.5341108271209
  0
LINE
  8
_0-5_EL-M10011N_______8
  6
CONTINUOUS
 62
    7
 10
709.7043166930489
 20
1175.5341108271209
 11
708.87584296544401
 21
1175.4998446548611
  0
LINE
  8
_0-5_EL-M10011N_______8
  6
CONTINUOUS
 62
    7
 10
708.87584296544401
 20
1175.4998446548611
 11
708.03272816297977
 21
1175.5222248943269
  0
LINE
  8
_0-5_EL-M10011N_______8
  6
CONTINUOUS
 62
    7
 10
708.03272816297977
 20
1175.5222248943269
 11
707.20784108021962
 21
1175.5998643199468
  0
LINE
  8
_0-5_EL-M10011N_______8
  6
CONTINUOUS
 62
    7
 10
707.20784108021962
 20
1175.5998643199468
 11
706.41822281541499
 21
1175.7313512802389
  0
LINE
  8
_0-5_EL-M10011N_______8
  6
CONTINUOUS
 62
    7
 10
706.41822281541499
 20
1175.7313512802389
 11
705.69626180823479
 21
1175.9121666785768
  0
LINE
  8
_0-5_EL-M10011N_______8
  6
CONTINUOUS
 62
    7
 10
705.69626180823479
 20
1175.9121666785768
 11
705.06891463925967
 21
1176.1356245318889
  0
LINE
  8
_0-5_EL-M10011N_______8
  6
CONTINUOUS
 62
    7
 10
705.06891463925967
 20
1176.1356245318889
 11
704.55769468227572
 21
1176.3936911305632
  0
LINE
  8
_0-5_EL-M10011N_______8
  6
CONTINUOUS
 62
    7
 10
704.55769468227572
 20
1176.3936911305632
 11
704.17913802079693
 21
1176.6774975146891
  0
LINE
  8
_0-5_EL-M10011N_______8
  6
CONTINUOUS
 62
    7
 10
704.17913802079693
 20
1176.6774975146891
 11
703.9452878507027
 21
1176.9775401985748
  0
LINE
  8
_0-5_EL-M10011N_______8
  6
CONTINUOUS
 62
    7
 10
703.9452878507027
 20
1176.9775401985748
 11
703.86396985408101
 21
1177.311488811602
  0
LINE
  8
_0-5_EL-M10011N_______8
  6
CONTINUOUS
 62
    7
 10
706.3785350802118
 20
1178.7024723412869
 11
707.16275651735259
 21
1178.7920959771268
  0
LINE
  8
_0-5_EL-M10011N_______8
  6
CONTINUOUS
 62
    7
 10
707.16275651735259
 20
1178.7920959771268
 11
707.99123024495884
 21
1178.826362149387
  0
LINE
  8
_0-5_EL-M10011N_______8
  6
CONTINUOUS
 62
    7
 10
707.99123024495884
 20
1178.826362149387
 11
708.83434504666093
 21
1178.8039819091591
  0
LINE
  8
_0-5_EL-M10011N_______8
  6
CONTINUOUS
 62
    7
 10
708.83434504666093
 20
1178.8039819091591
 11
709.65923213018277
 21
1178.7263424843009
  0
LINE
  8
_0-5_EL-M10011N_______8
  6
CONTINUOUS
 62
    7
 10
709.65923213018277
 20
1178.7263424843009
 11
710.4488503942257
 21
1178.5948555232471
  0
LINE
  8
_0-5_EL-M10011N_______8
  6
CONTINUOUS
 62
    7
 10
710.4488503942257
 20
1178.5948555232471
 11
711.1708114021676
 21
1178.4140401256709
  0
LINE
  8
_0-5_EL-M10011N_______8
  6
CONTINUOUS
 62
    7
 10
711.1708114021676
 20
1178.4140401256709
 11
711.79815857114272
 21
1178.1905822715971
  0
LINE
  8
_0-5_EL-M10011N_______8
  6
CONTINUOUS
 62
    7
 10
711.79815857114272
 20
1178.1905822715971
 11
712.30937852812667
 21
1177.932515673685
  0
LINE
  8
_0-5_EL-M10011N_______8
  6
CONTINUOUS
 62
    7
 10
712.30937852812667
 20
1177.932515673685
 11
712.68793518960592
 21
1177.64870928956
  0
LINE
  8
_0-5_EL-M10011N_______8
  6
CONTINUOUS
 62
    7
 10
712.68793518960592
 20
1177.64870928956
 11
712.92178535969879
 21
1177.3486666049121
  0
LINE
  8
_0-5_EL-M10011N_______8
  6
CONTINUOUS
 62
    7
 10
712.92178535969879
 20
1177.3486666049121
 11
713.00310335632184
 21
1177.0147179918849
  0
LINE
  8
_0-2_02___PRT_ALL_AXES
  6
CONTINUOUS
 62
    7
 10
871.17649039626485
 20
1193.6877885936069
 11
865.16486107537685
 21
1195.1142603218109
  0
LINE
  8
_0-7__Z_P___M8_30
  6
CONTINUOUS
 62
    7
 10
635.63523785614188
 20
1301.257306220461
 11
636.4467878921696
 21
1300.9023212075472
  0
LINE
  8
_0-7__Z_P___M8_30
  6
CONTINUOUS
 62
    7
 10
636.4467878921696
 20
1300.9023212075472
 11
637.18146759755882
 21
1300.5501208253349
  0
LINE
  8
_0-7__Z_P___M8_30
  6
CONTINUOUS
 62
    7
 10
637.18146759755882
 20
1300.5501208253349
 11
637.84953952658998
 21
1300.193927463301
  0
LINE
  8
_0-7__Z_P___M8_30
  6
CONTINUOUS
 62
    7
 10
637.84953952658998
 20
1300.193927463301
 11
638.45429806205402
 21
1299.8293506930909
  0
LINE
  8
_0-7__Z_P___M8_30
  6
CONTINUOUS
 62
    7
 10
638.45429806205402
 20
1299.8293506930909
 11
638.99536605890989
 21
1299.453933194246
  0
LINE
  8
_0-7__Z_P___M8_30
  6
CONTINUOUS
 62
    7
 10
639.16208191445367
 20
1299.7619048866568
 11
640.39393564225702
 21
1299.212837641639
  0
LINE
  8
_0-7__Z_P___M8_30
  6
CONTINUOUS
 62
    7
 10
640.39393564225702
 20
1299.212837641639
 11
641.54434888574997
 21
1299.4355966030289
  0
LINE
  8
_0-7__Z_P___M8_30
  6
CONTINUOUS
 62
    7
 10
641.54434888574997
 20
1299.4355966030289
 11
642.51946207394985
 21
1300.398955302674
  0
LINE
  8
_0-7__Z_P___M8_30
  6
CONTINUOUS
 62
    7
 10
642.51946207394985
 20
1300.398955302674
 11
643.25029792139276
 21
1302.0262376559249
  0
LINE
  8
_0-7__Z_P___M8_30
  6
CONTINUOUS
 62
    7
 10
639.74289016736384
 20
1317.6480435760809
 11
638.51103644032173
 21
1318.197110820337
  0
LINE
  8
_0-7__Z_P___M8_30
  6
CONTINUOUS
 62
    7
 10
638.51103644032173
 20
1318.197110820337
 11
637.36062319682969
 21
1317.974351858948
  0
LINE
  8
_0-7__Z_P___M8_30
  6
CONTINUOUS
 62
    7
 10
637.36062319682969
 20
1317.974351858948
 11
636.38551000862981
 21
1317.010993160065
  0
LINE
  8
_0-7__Z_P___M8_30
  6
CONTINUOUS
 62
    7
 10
636.38551000862981
 20
1317.010993160065
 11
635.65467416118599
 21
1315.3837108068128
  0
LINE
  8
_0-7__Z_P___M8_30
  6
CONTINUOUS
 62
    7
 10
635.65467416118599
 20
1315.3837108068128
 11
635.22555444487671
 21
1313.207723631745
  0
LINE
  8
_0-7__Z_P___M8_30
  6
CONTINUOUS
 62
    7
 10
635.22555444487671
 20
1313.207723631745
 11
635.13820369806581
 21
1310.673412961743
  0
LINE
  8
_0-7__Z_P___M8_30
  6
CONTINUOUS
 62
    7
 10
635.13820369806581
 20
1310.673412961743
 11
635.39896508154561
 21
1307.9765873871552
  0
LINE
  8
_0-7__Z_P___M8_30
  6
CONTINUOUS
 62
    7
 10
635.39896508154561
 20
1307.9765873871552
 11
635.98659860731777
 21
1305.3405256531928
  0
LINE
  8
_0-7__Z_P___M8_30
  6
CONTINUOUS
 62
    7
 10
635.98659860731777
 20
1305.3405256531928
 11
636.858077711448
 21
1302.9663845896989
  0
LINE
  8
_0-7__Z_P___M8_30
  6
CONTINUOUS
 62
    7
 10
636.858077711448
 20
1302.9663845896989
 11
637.94894782002484
 21
1301.047522704037
  0
LINE
  8
_0-7__Z_P___M8_30
  6
CONTINUOUS
 62
    7
 10
637.94894782002484
 20
1301.047522704037
 11
639.16208191445367
 21
1299.7619048866568
  0
LINE
  8
_0-7__Z_P___M8_30
  6
CONTINUOUS
 62
    7
 10
641.89937116274859
 20
1388.8846046302328
 11
641.35787001308881
 21
1389.260346867572
  0
LINE
  8
_0-7__Z_P___M8_30
  6
CONTINUOUS
 62
    7
 10
641.35787001308881
 20
1389.260346867572
 11
640.75282300195204
 21
1389.6250494279789
  0
LINE
  8
_0-7__Z_P___M8_30
  6
CONTINUOUS
 62
    7
 10
640.75282300195204
 20
1389.6250494279789
 11
640.08445064756279
 21
1389.9813480222128
  0
LINE
  8
_0-7__Z_P___M8_30
  6
CONTINUOUS
 62
    7
 10
640.08445064756279
 20
1389.9813480222128
 11
639.34988086676867
 21
1390.3334480604549
  0
LINE
  8
_0-7__Z_P___M8_30
  6
CONTINUOUS
 62
    7
 10
639.34988086676867
 20
1390.3334480604549
 11
638.53933968140382
 21
1390.688009024941
  0
LINE
  8
_0-7__Z_P___M8_30
  6
CONTINUOUS
 62
    7
 10
631.403717330375
 20
1371.2240435653448
 11
636.5450252925948
 21
1367.3727715894688
  0
LINE
  8
_0-0_0
  6
CONTINUOUS
 62
    7
 10
682.09852890752882
 20
1361.256060075139
 11
627.83167695580187
 21
1401.9064952701692
  0
LINE
  8
_0-5_EL-M10011N_______8
  6
CONTINUOUS
 62
    7
 10
572.36684841704982
 20
1449.9373828637772
 11
688.86643642604395
 21
1362.6693954597908
  0
LINE
  8
_0-5_EL-M10011N_______8
  6
CONTINUOUS
 62
    7
 10
689.71167244524486
 20
1362.845905255615
 11
571.83055327653483
 21
1451.1487756655229
  0
LINE
  8
_0-4_EL-M10011N_______9
  6
CONTINUOUS
 62
    7
 10
690.04577803636766
 20
1362.9156761930349
 11
571.94735068276668
 21
1451.381328705877
  0
LINE
  8
_0-4_EL-M10011N_______9
  6
CONTINUOUS
 62
    7
 10
572.59269318583074
 20
1471.2548161386549
 11
711.29708303481493
 21
1367.3535650434269
  0
LINE
  8
_0-4_EL-M10011N_______9
  6
CONTINUOUS
 62
    7
 10
712.00144638351503
 20
1367.5006565399472
 11
572.1457805691166
 21
1472.264310140491
  0
LINE
  8
_0-2_02___PRT_ALL_AXES
  6
CONTINUOUS
 62
    7
 10
1015.9603845286847
 20
1088.8053036480492
 11
1015.808855094635
 21
1088.9265958263431
  0
LINE
  8
_0-2_02___PRT_ALL_AXES
  6
CONTINUOUS
 62
    7
 10
1015.808855094635
 20
1088.9265958263431
 11
1015.6561435425529
 21
1089.0643323761169
  0
LINE
  8
_0-2_02___PRT_ALL_AXES
  6
CONTINUOUS
 62
    7
 10
1015.6561435425529
 20
1089.0643323761169
 11
1015.5027987440867
 21
1089.21804068135
  0
LINE
  8
_0-2_02___PRT_ALL_AXES
  6
CONTINUOUS
 62
    7
 10
1015.5027987440867
 20
1089.21804068135
 11
1015.3492058582328
 21
1089.387378593372
  0
LINE
  8
_0-2_02___PRT_ALL_AXES
  6
CONTINUOUS
 62
    7
 10
1015.3492058582328
 20
1089.387378593372
 11
1015.195988860884
 21
1089.5717180740689
  0
LINE
  8
_0-2_02___PRT_ALL_AXES
  6
CONTINUOUS
 62
    7
 10
1015.195988860884
 20
1089.5717180740689
 11
1015.0435157515558
 21
1089.770699978365
  0
LINE
  8
_0-2_02___PRT_ALL_AXES
  6
CONTINUOUS
 62
    7
 10
1015.0435157515558
 20
1089.770699978365
 11
1014.8924553787979
 21
1089.9835559420349
  0
LINE
  8
_0-2_02___PRT_ALL_AXES
  6
CONTINUOUS
 62
    7
 10
1014.8924553787979
 20
1089.9835559420349
 11
1014.7431926097597
 21
1090.2098702605508
  0
LINE
  8
_0-2_02___PRT_ALL_AXES
  6
CONTINUOUS
 62
    7
 10
1014.7431926097597
 20
1090.2098702605508
 11
1014.5963917758527
 21
1090.4487869473091
  0
LINE
  8
_0-2_02___PRT_ALL_AXES
  6
CONTINUOUS
 62
    7
 10
1014.5963917758527
 20
1090.4487869473091
 11
1014.4524834253666
 21
1090.6997757326048
  0
LINE
  8
_0-2_02___PRT_ALL_AXES
  6
CONTINUOUS
 62
    7
 10
1014.4524834253666
 20
1090.6997757326048
 11
1014.3120801887758
 21
1090.961965984196
  0
LINE
  8
_0-2_02___PRT_ALL_AXES
  6
CONTINUOUS
 62
    7
 10
1014.3120801887758
 20
1090.961965984196
 11
1014.1756801435668
 21
1091.2346398355949
  0
LINE
  8
_0-2_02___PRT_ALL_AXES
  6
CONTINUOUS
 62
    7
 10
1014.1756801435668
 20
1091.2346398355949
 11
1014.0438062099579
 21
1091.5169923968729
  0
LINE
  8
_0-2_02___PRT_ALL_AXES
  6
CONTINUOUS
 62
    7
 10
1014.0438062099579
 20
1091.5169923968729
 11
1013.9170188656158
 21
1091.8080744004328
  0
LINE
  8
_0-2_02___PRT_ALL_AXES
  6
CONTINUOUS
 62
    7
 10
1013.9170188656158
 20
1091.8080744004328
 11
1013.7957465054178
 21
1092.1071779810409
  0
LINE
  8
_0-2_02___PRT_ALL_AXES
  6
CONTINUOUS
 62
    7
 10
1013.7957465054178
 20
1092.1071779810409
 11
1013.6805671437019
 21
1092.4131627249249
  0
LINE
  8
_0-2_02___PRT_ALL_AXES
  6
CONTINUOUS
 62
    7
 10
1013.6805671437019
 20
1092.4131627249249
 11
1013.5718403995097
 21
1092.7253764599068
  0
LINE
  8
_0-2_02___PRT_ALL_AXES
  6
CONTINUOUS
 62
    7
 10
1013.5718403995097
 20
1092.7253764599068
 11
1013.4701105549639
 21
1093.0425683187909
  0
LINE
  8
_0-2_02___PRT_ALL_AXES
  6
CONTINUOUS
 62
    7
 10
1013.4701105549639
 20
1093.0425683187909
 11
1013.3756900056787
 21
1093.364085774308
  0
LINE
  8
_0-2_02___PRT_ALL_AXES
  6
CONTINUOUS
 62
    7
 10
1013.3756900056787
 20
1093.364085774308
 11
1013.289047822856
 21
1093.688662095944
  0
LINE
  8
_0-2_02___PRT_ALL_AXES
  6
CONTINUOUS
 62
    7
 10
1013.289047822856
 20
1093.688662095944
 11
1013.2104639119507
 21
1094.0155781271492
  0
LINE
  8
_0-2_02___PRT_ALL_AXES
  6
CONTINUOUS
 62
    7
 10
1013.2104639119507
 20
1094.0155781271492
 11
1013.140304217372
 21
1094.3436519899228
  0
LINE
  8
_0-2_02___PRT_ALL_AXES
  6
CONTINUOUS
 62
    7
 10
1013.140304217372
 20
1094.3436519899228
 11
1013.0788221163079
 21
1094.6720242610409
  0
LINE
  8
_0-2_02___PRT_ALL_AXES
  6
CONTINUOUS
 62
    7
 10
1013.0788221163079
 20
1094.6720242610409
 11
1013.0262694078488
 21
1094.9996905978328
  0
LINE
  8
_0-2_02___PRT_ALL_AXES
  6
CONTINUOUS
 62
    7
 10
1013.0262694078488
 20
1094.9996905978328
 11
1012.9828640194246
 21
1095.325600934581
  0
LINE
  8
_0-2_02___PRT_ALL_AXES
  6
CONTINUOUS
 62
    7
 10
1012.9828640194246
 20
1095.325600934581
 11
1012.9487550043318
 21
1095.6489584654109
  0
LINE
  8
_0-2_02___PRT_ALL_AXES
  6
CONTINUOUS
 62
    7
 10
1012.9487550043318
 20
1095.6489584654109
 11
1012.9240974722397
 21
1095.968573800526
  0
LINE
  8
_0-2_02___PRT_ALL_AXES
  6
CONTINUOUS
 62
    7
 10
1012.9240974722397
 20
1095.968573800526
 11
1012.9089638329619
 21
1096.283785087297
  0
LINE
  8
_0-2_02___PRT_ALL_AXES
  6
CONTINUOUS
 62
    7
 10
1012.9089638329619
 20
1096.283785087297
 11
1012.9034232341878
 21
1096.593356327437
  0
LINE
  8
_0-2_02___PRT_ALL_AXES
  6
CONTINUOUS
 62
    7
 10
1012.9034232341878
 20
1096.593356327437
 11
1012.9074865435618
 21
1096.8966764876232
  0
LINE
  8
_0-2_02___PRT_ALL_AXES
  6
CONTINUOUS
 62
    7
 10
1012.9074865435618
 20
1096.8966764876232
 11
1012.9211284085818
 21
1097.1925548849431
  0
LINE
  8
_0-2_02___PRT_ALL_AXES
  6
CONTINUOUS
 62
    7
 10
1012.9211284085818
 20
1097.1925548849431
 11
1012.9442987452726
 21
1097.4803536133832
  0
LINE
  8
_0-2_02___PRT_ALL_AXES
  6
CONTINUOUS
 62
    7
 10
1012.9442987452726
 20
1097.4803536133832
 11
1012.9768846930547
 21
1097.759010503617
  0
LINE
  8
_0-2_02___PRT_ALL_AXES
  6
CONTINUOUS
 62
    7
 10
1012.9768846930547
 20
1097.759010503617
 11
1013.018761194774
 21
1098.0277974128289
  0
LINE
  8
_0-2_02___PRT_ALL_AXES
  6
CONTINUOUS
 62
    7
 10
1013.018761194774
 20
1098.0277974128289
 11
1013.0697491583296
 21
1098.285845668639
  0
LINE
  8
_0-2_02___PRT_ALL_AXES
  6
CONTINUOUS
 62
    7
 10
1013.0697491583296
 20
1098.285845668639
 11
1013.1296244604737
 21
1098.5323092407352
  0
LINE
  8
_0-2_02___PRT_ALL_AXES
  6
CONTINUOUS
 62
    7
 10
1013.1296244604737
 20
1098.5323092407352
 11
1013.198166538019
 21
1098.7665248317389
  0
LINE
  8
_0-2_02___PRT_ALL_AXES
  6
CONTINUOUS
 62
    7
 10
1013.198166538019
 20
1098.7665248317389
 11
1013.2750419458639
 21
1098.987592021303
  0
LINE
  8
_0-2_02___PRT_ALL_AXES
  6
CONTINUOUS
 62
    7
 10
1013.2750419458639
 20
1098.987592021303
 11
1013.3599966545416
 21
1099.1949893431092
  0
LINE
  8
_0-2_02___PRT_ALL_AXES
  6
CONTINUOUS
 62
    7
 10
1013.3599966545416
 20
1099.1949893431092
 11
1013.4525975203928
 21
1099.38785351669
  0
LINE
  8
_0-2_02___PRT_ALL_AXES
  6
CONTINUOUS
 62
    7
 10
1013.4525975203928
 20
1099.38785351669
 11
1013.552552080962
 21
1099.5657480448208
  0
LINE
  8
_0-2_02___PRT_ALL_AXES
  6
CONTINUOUS
 62
    7
 10
1013.552552080962
 20
1099.5657480448208
 11
1013.659353506423
 21
1099.7279228634729
  0
LINE
  8
_0-2_02___PRT_ALL_AXES
  6
CONTINUOUS
 62
    7
 10
1013.659353506423
 20
1099.7279228634729
 11
1013.7726568309968
 21
1099.873990508599
  0
LINE
  8
_0-2_02___PRT_ALL_AXES
  6
CONTINUOUS
 62
    7
 10
1013.7726568309968
 20
1099.873990508599
 11
1013.8919214522598
 21
1100.0033661070988
  0
LINE
  8
_0-2_02___PRT_ALL_AXES
  6
CONTINUOUS
 62
    7
 10
1013.8919214522598
 20
1100.0033661070988
 11
1014.0167286740689
 21
1100.115696888025
  0
LINE
  8
_0-2_02___PRT_ALL_AXES
  6
CONTINUOUS
 62
    7
 10
1014.0167286740689
 20
1100.115696888025
 11
1014.1465537085519
 21
1100.2105857579372
  0
LINE
  8
_0-2_02___PRT_ALL_AXES
  6
CONTINUOUS
 62
    7
 10
1014.1465537085519
 20
1100.2105857579372
 11
1014.2808801864048
 21
1100.2877243590569
  0
LINE
  8
_0-2_02___PRT_ALL_AXES
  6
CONTINUOUS
 62
    7
 10
1014.2808801864048
 20
1100.2877243590569
 11
1014.4192398532969
 21
1100.3468888500752
  0
LINE
  8
_0-2_02___PRT_ALL_AXES
  6
CONTINUOUS
 62
    7
 10
1014.4192398532969
 20
1100.3468888500752
 11
1014.561029178557
 21
1100.387859729271
  0
LINE
  8
_0-2_02___PRT_ALL_AXES
  6
CONTINUOUS
 62
    7
 10
1014.561029178557
 20
1100.387859729271
 11
1014.5754560963628
 21
1100.3909676666672
  0
LINE
  8
_0-7__Z_P___M8_30
  6
CONTINUOUS
 62
    7
 10
642.37290037393086
 20
1388.5003253876171
 11
641.89937116274859
 21
1388.8846046302328
  0
LINE
  8
_0-7__Z_P___M8_30
  6
CONTINUOUS
 62
    7
 10
641.30016071270984
 20
1370.4306740255952
 11
641.77625108742586
 21
1370.044076900137
  0
LINE
  8
_0-7__Z_P___M8_30
  6
CONTINUOUS
 62
    7
 10
641.77625108742586
 20
1370.044076900137
 11
642.1861940579879
 21
1369.6481692601528
  0
LINE
  8
_0-7__Z_P___M8_30
  6
CONTINUOUS
 62
    7
 10
642.1861940579879
 20
1369.6481692601528
 11
642.53506112682589
 21
1369.2422155638069
  0
LINE
  8
_0-7__Z_P___M8_30
  6
CONTINUOUS
 62
    7
 10
642.53506112682589
 20
1369.2422155638069
 11
642.83070072934697
 21
1368.8225692700048
  0
LINE
  8
_0-7__Z_P___M8_30
  6
CONTINUOUS
 62
    7
 10
642.83070072934697
 20
1368.8225692700048
 11
643.08136898467683
 21
1368.3827794810568
  0
LINE
  8
_0-2_02___PRT_ALL_AXES
  6
CONTINUOUS
 62
    7
 10
868.46689669709986
 20
1187.858069671915
 11
867.85849657811286
 21
1188.6773515855448
  0
LINE
  8
_0-2_02___PRT_ALL_AXES
  6
CONTINUOUS
 62
    7
 10
867.85849657811286
 20
1188.6773515855448
 11
867.32089667185801
 21
1189.455998939347
  0
LINE
  8
_0-2_02___PRT_ALL_AXES
  6
CONTINUOUS
 62
    7
 10
867.32089667185801
 20
1189.455998939347
 11
866.84599701586785
 21
1190.2081787314032
  0
LINE
  8
_0-2_02___PRT_ALL_AXES
  6
CONTINUOUS
 62
    7
 10
866.84599701586785
 20
1190.2081787314032
 11
866.43097100543264
 21
1190.9423573334011
  0
LINE
  8
_0-2_02___PRT_ALL_AXES
  6
CONTINUOUS
 62
    7
 10
866.43097100543264
 20
1190.9423573334011
 11
866.07636567959389
 21
1191.6616405537088
  0
LINE
  8
_0-2_02___PRT_ALL_AXES
  6
CONTINUOUS
 62
    7
 10
867.58689264481791
 20
1107.266470030951
 11
867.17403747484786
 21
1108.0234171815191
  0
LINE
  8
_0-2_02___PRT_ALL_AXES
  6
CONTINUOUS
 62
    7
 10
867.17403747484786
 20
1108.0234171815191
 11
866.68910128978177
 21
1108.640749318201
  0
LINE
  8
_0-2_02___PRT_ALL_AXES
  6
CONTINUOUS
 62
    7
 10
866.68910128978177
 20
1108.640749318201
 11
866.14038429958691
 21
1109.107912827104
  0
LINE
  8
_0-2_02___PRT_ALL_AXES
  6
CONTINUOUS
 62
    7
 10
866.14038429958691
 20
1109.107912827104
 11
865.53727666912664
 21
1109.4169226370732
  0
LINE
  8
_0-2_02___PRT_ALL_AXES
  6
CONTINUOUS
 62
    7
 10
865.53727666912664
 20
1109.4169226370732
 11
864.89009791217859
 21
1109.5624984729211
  0
LINE
  8
_0-2_02___PRT_ALL_AXES
  6
CONTINUOUS
 62
    7
 10
864.89009791217859
 20
1109.5624984729211
 11
864.20992050672476
 21
1109.5421548194249
  0
LINE
  8
_0-2_02___PRT_ALL_AXES
  6
CONTINUOUS
 62
    7
 10
864.20992050672476
 20
1109.5421548194249
 11
863.50838067739778
 21
1109.3562431879468
  0
LINE
  8
_0-2_02___PRT_ALL_AXES
  6
CONTINUOUS
 62
    7
 10
863.50838067739778
 20
1109.3562431879468
 11
862.7974795744376
 21
1109.007945970141
  0
LINE
  8
_0-2_02___PRT_ALL_AXES
  6
CONTINUOUS
 62
    7
 10
856.82482044307062
 20
1176.8589720605528
 11
857.23767553912694
 21
1176.1020250402871
  0
LINE
  8
_0-2_02___PRT_ALL_AXES
  6
CONTINUOUS
 62
    7
 10
857.23767553912694
 20
1176.1020250402871
 11
857.7226117036198
 21
1175.4846929173209
  0
LINE
  8
_0-2_02___PRT_ALL_AXES
  6
CONTINUOUS
 62
    7
 10
857.7226117036198
 20
1175.4846929173209
 11
858.27132866942884
 21
1175.017529411467
  0
LINE
  8
_0-2_02___PRT_ALL_AXES
  6
CONTINUOUS
 62
    7
 10
858.27132866942884
 20
1175.017529411467
 11
858.87443627322
 21
1174.7085195923528
  0
LINE
  8
_0-2_02___PRT_ALL_AXES
  6
CONTINUOUS
 62
    7
 10
858.87443627322
 20
1174.7085195923528
 11
859.52161500044895
 21
1174.562943735169
  0
LINE
  8
_0-2_02___PRT_ALL_AXES
  6
CONTINUOUS
 62
    7
 10
859.52161500044895
 20
1174.562943735169
 11
860.20179237694765
 21
1174.5832873558988
  0
LINE
  8
_0-2_02___PRT_ALL_AXES
  6
CONTINUOUS
 62
    7
 10
860.20179237694765
 20
1174.5832873558988
 11
860.90333217808166
 21
1174.769198943181
  0
LINE
  8
_0-2_02___PRT_ALL_AXES
  6
CONTINUOUS
 62
    7
 10
860.90333217808166
 20
1174.769198943181
 11
861.61423335571681
 21
1175.117496155653
  0
LINE
  8
_0-2_02___PRT_ALL_AXES
  6
CONTINUOUS
 62
    7
 10
866.07636568568887
 20
1191.66164057276
 11
865.66351051495667
 21
1192.4185877233281
  0
LINE
  8
_0-2_02___PRT_ALL_AXES
  6
CONTINUOUS
 62
    7
 10
865.66351051495667
 20
1192.4185877233281
 11
865.17857433065365
 21
1193.035919860009
  0
LINE
  8
_0-2_02___PRT_ALL_AXES
  6
CONTINUOUS
 62
    7
 10
865.17857433065365
 20
1193.035919860009
 11
864.62985733969663
 21
1193.503083368149
  0
LINE
  8
_0-2_02___PRT_ALL_AXES
  6
CONTINUOUS
 62
    7
 10
864.62985733969663
 20
1193.503083368149
 11
864.02674970923681
 21
1193.8120931781191
  0
LINE
  8
_0-2_02___PRT_ALL_AXES
  6
CONTINUOUS
 62
    7
 10
864.02674970923681
 20
1193.8120931781191
 11
863.37957095228876
 21
1193.9576690147301
  0
LINE
  8
_0-2_02___PRT_ALL_AXES
  6
CONTINUOUS
 62
    7
 10
863.37957095228876
 20
1193.9576690147301
 11
862.69939354759799
 21
1193.937325361233
  0
LINE
  8
_0-2_02___PRT_ALL_AXES
  6
CONTINUOUS
 62
    7
 10
862.69939354759799
 20
1193.937325361233
 11
861.99785371750795
 21
1193.7514137297549
  0
LINE
  8
_0-2_02___PRT_ALL_AXES
  6
CONTINUOUS
 62
    7
 10
861.99785371750795
 20
1193.7514137297549
 11
861.28695261454686
 21
1193.4031165111869
  0
LINE
  8
_0-2_02___PRT_ALL_AXES
  6
CONTINUOUS
 62
    7
 10
856.82482044307062
 20
1176.8589720605528
 11
857.17949052519589
 21
1176.1395666200169
  0
LINE
  8
_0-2_02___PRT_ALL_AXES
  6
CONTINUOUS
 62
    7
 10
857.17949052519589
 20
1176.1395666200169
 11
857.5945669846019
 21
1175.405317981837
  0
LINE
  8
_0-2_02___PRT_ALL_AXES
  6
CONTINUOUS
 62
    7
 10
857.5945669846019
 20
1175.405317981837
 11
858.06945623395677
 21
1174.653172072874
  0
LINE
  8
_0-2_02___PRT_ALL_AXES
  6
CONTINUOUS
 62
    7
 10
858.06945623395677
 20
1174.653172072874
 11
858.60692822251167
 21
1173.874715266315
  0
LINE
  8
_0-2_02___PRT_ALL_AXES
  6
CONTINUOUS
 62
    7
 10
858.60692822251167
 20
1173.874715266315
 11
859.21535151315584
 21
1173.05540105303
  0
LINE
  8
_0-3_7_ALL_FEATURES
  6
CONTINUOUS
 62
    7
 10
872.68701735615559
 20
1109.2926180517989
 11
875.98905297863894
 21
1102.036427401903
  0
LINE
  8
_0-3_7_ALL_FEATURES
  6
CONTINUOUS
 62
    7
 10
871.17649039626485
 20
1193.6877885936069
 11
874.47852601874865
 21
1186.431597943711
  0
LINE
  8
_0-2_02___PRT_ALL_AXES
  6
CONTINUOUS
 62
    7
 10
867.58689263948281
 20
1107.2664700119012
 11
867.29341872478062
 21
1107.9713546097501
  0
LINE
  8
_0-2_02___PRT_ALL_AXES
  6
CONTINUOUS
 62
    7
 10
867.29341872478062
 20
1107.9713546097501
 11
867.05983124580598
 21
1108.6625385664688
  0
LINE
  8
_0-2_02___PRT_ALL_AXES
  6
CONTINUOUS
 62
    7
 10
867.05983124580598
 20
1108.6625385664688
 11
866.88227677769873
 21
1109.3441312794812
  0
LINE
  8
_0-2_02___PRT_ALL_AXES
  6
CONTINUOUS
 62
    7
 10
866.88227677769873
 20
1109.3441312794812
 11
866.75561144479661
 21
1110.025109674189
  0
LINE
  8
_0-2_02___PRT_ALL_AXES
  6
CONTINUOUS
 62
    7
 10
866.75561144479661
 20
1110.025109674189
 11
866.67538803450498
 21
1110.7190897800028
  0
LINE
  8
_0-2_02___PRT_ALL_AXES
  6
CONTINUOUS
 62
    7
 10
866.07636567959389
 20
1191.6616405537088
 11
865.78289176489079
 21
1192.366525150795
  0
LINE
  8
_0-2_02___PRT_ALL_AXES
  6
CONTINUOUS
 62
    7
 10
865.78289176489079
 20
1192.366525150795
 11
865.54930428591479
 21
1193.0577091082769
  0
LINE
  8
_0-2_02___PRT_ALL_AXES
  6
CONTINUOUS
 62
    7
 10
865.54930428591479
 20
1193.0577091082769
 11
865.37174981780981
 21
1193.7393018212888
  0
LINE
  8
_0-2_02___PRT_ALL_AXES
  6
CONTINUOUS
 62
    7
 10
865.37174981780981
 20
1193.7393018212888
 11
865.24508448490678
 21
1194.420280215998
  0
LINE
  8
_0-2_02___PRT_ALL_AXES
  6
CONTINUOUS
 62
    7
 10
865.24508448490678
 20
1194.420280215998
 11
865.16486107537685
 21
1195.1142603218109
  0
LINE
  8
_0-2_02___PRT_ALL_AXES
  6
CONTINUOUS
 62
    7
 10
864.24384138402002
 20
1388.1869230393149
 11
864.3445116515627
 21
1387.2103917767349
  0
LINE
  8
_0-2_02___PRT_ALL_AXES
  6
CONTINUOUS
 62
    7
 10
864.3445116515627
 20
1387.2103917767349
 11
864.4448992757807
 21
1386.2109103017369
  0
LINE
  8
_0-2_02___PRT_ALL_AXES
  6
CONTINUOUS
 62
    7
 10
864.4448992757807
 20
1386.2109103017369
 11
864.54362259598793
 21
1385.1900176104809
  0
LINE
  8
_0-2_02___PRT_ALL_AXES
  6
CONTINUOUS
 62
    7
 10
864.54362259598793
 20
1385.1900176104809
 11
864.6393727141126
 21
1384.1500756880828
  0
LINE
  8
_0-2_02___PRT_ALL_AXES
  6
CONTINUOUS
 62
    7
 10
864.6393727141126
 20
1384.1500756880828
 11
864.7311026299667
 21
1383.0922683495492
  0
LINE
  8
_0-2_02___PRT_ALL_AXES
  6
CONTINUOUS
 62
    7
 10
864.7311026299667
 20
1383.0922683495492
 11
864.81790188080276
 21
1382.0177764792329
  0
LINE
  8
_0-2_02___PRT_ALL_AXES
  6
CONTINUOUS
 62
    7
 10
864.81790188080276
 20
1382.0177764792329
 11
864.89899388651384
 21
1380.9277493903051
  0
LINE
  8
_0-2_02___PRT_ALL_AXES
  6
CONTINUOUS
 62
    7
 10
864.89899388651384
 20
1380.9277493903051
 11
864.97380671123301
 21
1379.8221206950388
  0
LINE
  8
_0-2_02___PRT_ALL_AXES
  6
CONTINUOUS
 62
    7
 10
864.97380671123301
 20
1379.8221206950388
 11
865.04180556431265
 21
1378.7017143066969
  0
LINE
  8
_0-2_02___PRT_ALL_AXES
  6
CONTINUOUS
 62
    7
 10
865.04180556431265
 20
1378.7017143066969
 11
865.10260934821781
 21
1377.5664385117211
  0
LINE
  8
_0-2_02___PRT_ALL_AXES
  6
CONTINUOUS
 62
    7
 10
865.10260934821781
 20
1377.5664385117211
 11
865.15593226265401
 21
1376.4157908297848
  0
LINE
  8
_0-2_02___PRT_ALL_AXES
  6
CONTINUOUS
 62
    7
 10
865.15593226265401
 20
1376.4157908297848
 11
865.20152325452864
 21
1375.2500464686191
  0
LINE
  8
_0-2_02___PRT_ALL_AXES
  6
CONTINUOUS
 62
    7
 10
865.20152325452864
 20
1375.2500464686191
 11
865.23925472389783
 21
1374.0680324602872
  0
LINE
  8
_0-2_02___PRT_ALL_AXES
  6
CONTINUOUS
 62
    7
 10
865.23925472389783
 20
1374.0680324602872
 11
865.26902452084687
 21
1372.869245387204
  0
LINE
  8
_0-2_02___PRT_ALL_AXES
  6
CONTINUOUS
 62
    7
 10
865.26902452084687
 20
1372.869245387204
 11
865.29078627539366
 21
1371.6533971684089
  0
LINE
  8
_0-2_02___PRT_ALL_AXES
  6
CONTINUOUS
 62
    7
 10
865.29078627539366
 20
1371.6533971684089
 11
865.30457009644078
 21
1370.4188042830151
  0
LINE
  8
_0-2_02___PRT_ALL_AXES
  6
CONTINUOUS
 62
    7
 10
865.30457009644078
 20
1370.4188042830151
 11
865.31043528740383
 21
1369.165037046841
  0
LINE
  8
_0-2_02___PRT_ALL_AXES
  6
CONTINUOUS
 62
    7
 10
865.31043528740383
 20
1369.165037046841
 11
865.30850691838668
 21
1367.8913095826169
  0
LINE
  8
_0-2_02___PRT_ALL_AXES
  6
CONTINUOUS
 62
    7
 10
865.30850691838668
 20
1367.8913095826169
 11
865.298963569428
 21
1366.5959521105992
  0
LINE
  8
_0-2_02___PRT_ALL_AXES
  6
CONTINUOUS
 62
    7
 10
865.298963569428
 20
1366.5959521105992
 11
865.28205537921485
 21
1365.278748201451
  0
LINE
  8
_0-2_02___PRT_ALL_AXES
  6
CONTINUOUS
 62
    7
 10
865.28205537921485
 20
1365.278748201451
 11
865.25809897246791
 21
1363.9384531853229
  0
LINE
  8
_0-2_02___PRT_ALL_AXES
  6
CONTINUOUS
 62
    7
 10
865.25809897246791
 20
1363.9384531853229
 11
865.2274937187176
 21
1362.5741650492869
  0
LINE
  8
_0-2_02___PRT_ALL_AXES
  6
CONTINUOUS
 62
    7
 10
865.2274937187176
 20
1362.5741650492869
 11
865.19075771091002
 21
1361.1859813430592
  0
LINE
  8
_0-2_02___PRT_ALL_AXES
  6
CONTINUOUS
 62
    7
 10
865.19075771091002
 20
1361.1859813430592
 11
865.1484841203237
 21
1359.772772310961
  0
LINE
  8
_0-2_02___PRT_ALL_AXES
  6
CONTINUOUS
 62
    7
 10
865.1484841203237
 20
1359.772772310961
 11
865.10142318930002
 21
1358.3348835489492
  0
LINE
  8
_0-2_02___PRT_ALL_AXES
  6
CONTINUOUS
 62
    7
 10
865.10142318930002
 20
1358.3348835489492
 11
865.05045758053666
 21
1356.8726572917972
  0
LINE
  8
_0-2_02___PRT_ALL_AXES
  6
CONTINUOUS
 62
    7
 10
865.05045758053666
 20
1356.8726572917972
 11
864.99660779491796
 21
1355.386417221865
  0
LINE
  8
_0-2_02___PRT_ALL_AXES
  6
CONTINUOUS
 62
    7
 10
864.99660779491796
 20
1355.386417221865
 11
864.88528202188672
 21
1352.3489709371052
  0
LINE
  8
_0-2_02___PRT_ALL_AXES
  6
CONTINUOUS
 62
    7
 10
885.55049225145603
 20
1097.30966713205
 11
885.53927739224991
 21
1097.6162922195849
  0
LINE
  8
_0-2_02___PRT_ALL_AXES
  6
CONTINUOUS
 62
    7
 10
885.53927739224991
 20
1097.6162922195849
 11
885.5167504571159
 21
1097.9162050190471
  0
LINE
  8
_0-2_02___PRT_ALL_AXES
  6
CONTINUOUS
 62
    7
 10
885.5167504571159
 20
1097.9162050190471
 11
885.48299167246068
 21
1098.20850946568
  0
LINE
  8
_0-2_02___PRT_ALL_AXES
  6
CONTINUOUS
 62
    7
 10
885.48299167246068
 20
1098.20850946568
 11
885.43812374086201
 21
1098.4923259158249
  0
LINE
  8
_0-2_02___PRT_ALL_AXES
  6
CONTINUOUS
 62
    7
 10
885.43812374086201
 20
1098.4923259158249
 11
885.38231178466685
 21
1098.766792736461
  0
LINE
  8
_0-2_02___PRT_ALL_AXES
  6
CONTINUOUS
 62
    7
 10
885.38231178466685
 20
1098.766792736461
 11
885.3157631151239
 21
1099.03106879084
  0
LINE
  8
_0-2_02___PRT_ALL_AXES
  6
CONTINUOUS
 62
    7
 10
885.3157631151239
 20
1099.03106879084
 11
885.238726967189
 21
1099.2843356955309
  0
LINE
  8
_0-2_02___PRT_ALL_AXES
  6
CONTINUOUS
 62
    7
 10
885.238726967189
 20
1099.2843356955309
 11
885.15149388155896
 21
1099.525801081028
  0
LINE
  8
_0-2_02___PRT_ALL_AXES
  6
CONTINUOUS
 62
    7
 10
885.15149388155896
 20
1099.525801081028
 11
885.05439496094868
 21
1099.754701607731
  0
LINE
  8
_0-2_02___PRT_ALL_AXES
  6
CONTINUOUS
 62
    7
 10
885.05439496094868
 20
1099.754701607731
 11
884.94780063413282
 21
1099.9703067729129
  0
LINE
  8
_0-2_02___PRT_ALL_AXES
  6
CONTINUOUS
 62
    7
 10
884.94780063413282
 20
1099.9703067729129
 11
884.83211916775781
 21
1100.1719224959188
  0
LINE
  8
_0-2_02___PRT_ALL_AXES
  6
CONTINUOUS
 62
    7
 10
884.83211916775781
 20
1100.1719224959188
 11
884.70779465542182
 21
1100.3588950599969
  0
LINE
  8
_0-2_02___PRT_ALL_AXES
  6
CONTINUOUS
 62
    7
 10
884.70779465542182
 20
1100.3588950599969
 11
884.57530463109561
 21
1100.530614831619
  0
LINE
  8
_0-2_02___PRT_ALL_AXES
  6
CONTINUOUS
 62
    7
 10
884.57530463109561
 20
1100.530614831619
 11
884.43515726114993
 21
1100.6865198411192
  0
LINE
  8
_0-2_02___PRT_ALL_AXES
  6
CONTINUOUS
 62
    7
 10
884.43515726114993
 20
1100.6865198411192
 11
884.28788810737797
 21
1100.826099074533
  0
LINE
  8
_0-2_02___PRT_ALL_AXES
  6
CONTINUOUS
 62
    7
 10
884.28788810737797
 20
1100.826099074533
 11
884.13405665075379
 21
1100.948895257186
  0
LINE
  8
_0-2_02___PRT_ALL_AXES
  6
CONTINUOUS
 62
    7
 10
884.13405665075379
 20
1100.948895257186
 11
883.97424247990693
 21
1101.054507206743
  0
LINE
  8
_0-2_02___PRT_ALL_AXES
  6
CONTINUOUS
 62
    7
 10
883.97424247990693
 20
1101.054507206743
 11
883.80904143235784
 21
1101.142591526384
  0
LINE
  8
_0-2_02___PRT_ALL_AXES
  6
CONTINUOUS
 62
    7
 10
883.80904143235784
 20
1101.142591526384
 11
883.63906158562668
 21
1101.2128637759829
  0
LINE
  8
_0-2_02___PRT_ALL_AXES
  6
CONTINUOUS
 62
    7
 10
883.63906158562668
 20
1101.2128637759829
 11
883.45206066752871
 21
1101.2682009886512
  0
LINE
  8
_0-2_02___PRT_ALL_AXES
  6
CONTINUOUS
 62
    7
 10
884.03996529156575
 20
1181.704837673858
 11
884.02875043235963
 21
1182.011462761393
  0
LINE
  8
_0-2_02___PRT_ALL_AXES
  6
CONTINUOUS
 62
    7
 10
884.02875043235963
 20
1182.011462761393
 11
884.00622349722471
 21
1182.3113755608551
  0
LINE
  8
_0-2_02___PRT_ALL_AXES
  6
CONTINUOUS
 62
    7
 10
884.00622349722471
 20
1182.3113755608551
 11
883.97246471257085
 21
1182.6036800074871
  0
LINE
  8
_0-2_02___PRT_ALL_AXES
  6
CONTINUOUS
 62
    7
 10
883.97246471257085
 20
1182.6036800074871
 11
883.92759678097082
 21
1182.887496457633
  0
LINE
  8
_0-2_02___PRT_ALL_AXES
  6
CONTINUOUS
 62
    7
 10
883.92759678097082
 20
1182.887496457633
 11
883.87178482477702
 21
1183.161963278269
  0
LINE
  8
_0-2_02___PRT_ALL_AXES
  6
CONTINUOUS
 62
    7
 10
883.87178482477702
 20
1183.161963278269
 11
883.80523615523271
 21
1183.4262393326471
  0
LINE
  8
_0-2_02___PRT_ALL_AXES
  6
CONTINUOUS
 62
    7
 10
883.80523615523271
 20
1183.4262393326471
 11
883.72820000729871
 21
1183.679506237339
  0
LINE
  8
_0-2_02___PRT_ALL_AXES
  6
CONTINUOUS
 62
    7
 10
883.72820000729871
 20
1183.679506237339
 11
883.64096692166868
 21
1183.920971622073
  0
LINE
  8
_0-2_02___PRT_ALL_AXES
  6
CONTINUOUS
 62
    7
 10
883.64096692166868
 20
1183.920971622073
 11
883.54386800182192
 21
1184.14987214954
  0
LINE
  8
_0-2_02___PRT_ALL_AXES
  6
CONTINUOUS
 62
    7
 10
883.54386800182192
 20
1184.14987214954
 11
883.4372736742439
 21
1184.3654773139592
  0
LINE
  8
_0-2_02___PRT_ALL_AXES
  6
CONTINUOUS
 62
    7
 10
883.4372736742439
 20
1184.3654773139592
 11
883.32159220786798
 21
1184.5670930377269
  0
LINE
  8
_0-2_02___PRT_ALL_AXES
  6
CONTINUOUS
 62
    7
 10
883.32159220786798
 20
1184.5670930377269
 11
883.19726769553063
 21
1184.754065601805
  0
LINE
  8
_0-2_02___PRT_ALL_AXES
  6
CONTINUOUS
 62
    7
 10
883.19726769553063
 20
1184.754065601805
 11
883.06477767120487
 21
1184.925785373428
  0
LINE
  8
_0-2_02___PRT_ALL_AXES
  6
CONTINUOUS
 62
    7
 10
883.06477767120487
 20
1184.925785373428
 11
882.92463030125964
 21
1185.0816903821651
  0
LINE
  8
_0-2_02___PRT_ALL_AXES
  6
CONTINUOUS
 62
    7
 10
882.92463030125964
 20
1185.0816903821651
 11
882.77736114748768
 21
1185.221269616341
  0
LINE
  8
_0-2_02___PRT_ALL_AXES
  6
CONTINUOUS
 62
    7
 10
882.77736114748768
 20
1185.221269616341
 11
882.62352969162475
 21
1185.3440657989931
  0
LINE
  8
_0-2_02___PRT_ALL_AXES
  6
CONTINUOUS
 62
    7
 10
882.62352969162475
 20
1185.3440657989931
 11
882.46371552001665
 21
1185.449677748551
  0
LINE
  8
_0-2_02___PRT_ALL_AXES
  6
CONTINUOUS
 62
    7
 10
882.46371552001665
 20
1185.449677748551
 11
882.29851447246801
 21
1185.537762067429
  0
LINE
  8
_0-2_02___PRT_ALL_AXES
  6
CONTINUOUS
 62
    7
 10
882.29851447246801
 20
1185.537762067429
 11
882.12853462573685
 21
1185.6080343170288
  0
LINE
  8
_0-2_02___PRT_ALL_AXES
  6
CONTINUOUS
 62
    7
 10
882.12853462573685
 20
1185.6080343170288
 11
881.94153370763888
 21
1185.6633715304588
  0
LINE
  8
_0-2_02___PRT_ALL_AXES
  6
CONTINUOUS
 62
    7
 10
863.63736956013463
 20
1395.35955647939
 11
863.65177241017182
 21
1394.8513909719732
  0
LINE
  8
_0-2_02___PRT_ALL_AXES
  6
CONTINUOUS
 62
    7
 10
863.65177241017182
 20
1394.8513909719732
 11
863.68582880306985
 21
1394.1548139625388
  0
LINE
  8
_0-2_02___PRT_ALL_AXES
  6
CONTINUOUS
 62
    7
 10
863.68582880306985
 20
1394.1548139625388
 11
863.73550869990004
 21
1393.414215488443
  0
LINE
  8
_0-2_02___PRT_ALL_AXES
  6
CONTINUOUS
 62
    7
 10
863.73550869990004
 20
1393.414215488443
 11
863.79869316763688
 21
1392.632501309432
  0
LINE
  8
_0-2_02___PRT_ALL_AXES
  6
CONTINUOUS
 62
    7
 10
863.79869316763688
 20
1392.632501309432
 11
863.87329251500978
 21
1391.811535529725
  0
LINE
  8
_0-2_02___PRT_ALL_AXES
  6
CONTINUOUS
 62
    7
 10
863.87329251500978
 20
1391.811535529725
 11
863.95718385878399
 21
1390.9537369811651
  0
LINE
  8
_0-2_02___PRT_ALL_AXES
  6
CONTINUOUS
 62
    7
 10
863.95718385878399
 20
1390.9537369811651
 11
864.04826797049373
 21
1390.0616974497789
  0
LINE
  8
_0-2_02___PRT_ALL_AXES
  6
CONTINUOUS
 62
    7
 10
864.04826797049373
 20
1390.0616974497789
 11
864.24384138402002
 21
1388.1869230393149
  0
LINE
  8
_0-2_02___PRT_ALL_AXES
  6
CONTINUOUS
 62
    7
 10
870.0619630398528
 20
1036.4088877375088
 11
869.12658116258899
 21
1088.669929850726
  0
LINE
  8
_0-2_02___PRT_ALL_AXES
  6
CONTINUOUS
 62
    7
 10
868.74071091655196
 20
1110.2290188617471
 11
867.61605420269871
 21
1173.065100391771
  0
LINE
  8
_0-2_02___PRT_ALL_AXES
  6
CONTINUOUS
 62
    7
 10
867.23018395666077
 20
1194.6241894035561
 11
864.65409548299203
 21
1338.5537132779932
  0
LINE
  8
_0-2_02___PRT_ALL_AXES
  6
CONTINUOUS
 62
    7
 10
863.63736941154593
 20
1395.3595647737588
 11
862.50932824040274
 21
1458.384740445787
  0
LINE
  8
_0-2_02___PRT_ALL_AXES
  6
CONTINUOUS
 62
    7
 10
862.50933132802766
 20
1458.384740501413
 11
862.51038755299078
 21
1458.8471034011709
  0
LINE
  8
_0-2_02___PRT_ALL_AXES
  6
CONTINUOUS
 62
    7
 10
862.51038755299078
 20
1458.8471034011709
 11
862.58646979655896
 21
1459.9355139253871
  0
LINE
  8
_0-2_02___PRT_ALL_AXES
  6
CONTINUOUS
 62
    7
 10
862.58646979655896
 20
1459.9355139253871
 11
862.76573325921481
 21
1461.023703855175
  0
LINE
  8
_0-2_02___PRT_ALL_AXES
  6
CONTINUOUS
 62
    7
 10
862.76573325921481
 20
1461.023703855175
 11
863.04793874763482
 21
1462.110221213251
  0
LINE
  8
_0-2_02___PRT_ALL_AXES
  6
CONTINUOUS
 62
    7
 10
863.04793874763482
 20
1462.110221213251
 11
863.43270971647189
 21
1463.1936162580391
  0
LINE
  8
_0-2_02___PRT_ALL_AXES
  6
CONTINUOUS
 62
    7
 10
863.43270971647189
 20
1463.1936162580391
 11
863.9195327621278
 21
1464.2724434100069
  0
LINE
  8
_0-2_02___PRT_ALL_AXES
  6
CONTINUOUS
 62
    7
 10
863.9195327621278
 20
1464.2724434100069
 11
864.50775831617875
 21
1465.3452631886712
  0
LINE
  8
_0-2_02___PRT_ALL_AXES
  6
CONTINUOUS
 62
    7
 10
864.50775831617875
 20
1465.3452631886712
 11
865.19660150795971
 21
1466.4106441252152
  0
LINE
  8
_0-2_02___PRT_ALL_AXES
  6
CONTINUOUS
 62
    7
 10
865.19660150795971
 20
1466.4106441252152
 11
865.98514321078164
 21
1467.4671646796828
  0
LINE
  8
_0-2_02___PRT_ALL_AXES
  6
CONTINUOUS
 62
    7
 10
865.98514321078164
 20
1467.4671646796828
 11
866.87233127104673
 21
1468.5134151322641
  0
LINE
  8
_0-2_02___PRT_ALL_AXES
  6
CONTINUOUS
 62
    7
 10
866.87233127104673
 20
1468.5134151322641
 11
867.85698191108986
 21
1469.5479994684752
  0
LINE
  8
_0-2_02___PRT_ALL_AXES
  6
CONTINUOUS
 62
    7
 10
867.85698191108986
 20
1469.5479994684752
 11
868.93778130803366
 21
1470.5695372384512
  0
LINE
  8
_0-2_02___PRT_ALL_AXES
  6
CONTINUOUS
 62
    7
 10
868.93778130803366
 20
1470.5695372384512
 11
870.11328734792278
 21
1471.5766654009749
  0
LINE
  8
_0-2_02___PRT_ALL_AXES
  6
CONTINUOUS
 62
    7
 10
870.11328734792278
 20
1471.5766654009749
 11
871.38193154900864
 21
1472.568040142377
  0
LINE
  8
_0-2_02___PRT_ALL_AXES
  6
CONTINUOUS
 62
    7
 10
871.38193154900864
 20
1472.568040142377
 11
872.74202115572371
 21
1473.5423386672328
  0
LINE
  8
_0-2_02___PRT_ALL_AXES
  6
CONTINUOUS
 62
    7
 10
872.74202115572371
 20
1473.5423386672328
 11
874.1917413957226
 21
1474.4982609662052
  0
LINE
  8
_0-2_02___PRT_ALL_AXES
  6
CONTINUOUS
 62
    7
 10
874.1917413957226
 20
1474.4982609662052
 11
875.72915790229081
 21
1475.4345315495912
  0
LINE
  8
_0-2_02___PRT_ALL_AXES
  6
CONTINUOUS
 62
    7
 10
875.72915790229081
 20
1475.4345315495912
 11
877.35221929598902
 21
1476.3499011473468
  0
LINE
  8
_0-2_02___PRT_ALL_AXES
  6
CONTINUOUS
 62
    7
 10
877.35221929598902
 20
1476.3499011473468
 11
879.05875992100073
 21
1477.2431483801529
  0
LINE
  8
_0-2_02___PRT_ALL_AXES
  6
CONTINUOUS
 62
    7
 10
879.05875992100073
 20
1477.2431483801529
 11
880.84650273387479
 21
1478.1130813839968
  0
LINE
  8
_0-2_02___PRT_ALL_AXES
  6
CONTINUOUS
 62
    7
 10
880.84650273387479
 20
1478.1130813839968
 11
882.71306234314079
 21
1478.9585394050409
  0
LINE
  8
_0-2_02___PRT_ALL_AXES
  6
CONTINUOUS
 62
    7
 10
882.71306234314079
 20
1478.9585394050409
 11
884.65594819370881
 21
1479.778394346481
  0
LINE
  8
_0-2_02___PRT_ALL_AXES
  6
CONTINUOUS
 62
    7
 10
884.65594819370881
 20
1479.778394346481
 11
886.67256788614077
 21
1480.5715522727351
  0
LINE
  8
_0-2_02___PRT_ALL_AXES
  6
CONTINUOUS
 62
    7
 10
886.67256788614077
 20
1480.5715522727351
 11
888.7602306376557
 21
1481.3369548701971
  0
LINE
  8
_0-2_02___PRT_ALL_AXES
  6
CONTINUOUS
 62
    7
 10
888.7602306376557
 20
1481.3369548701971
 11
890.91615087343189
 21
1482.0735808599852
  0
LINE
  8
_0-2_02___PRT_ALL_AXES
  6
CONTINUOUS
 62
    7
 10
890.91615087343189
 20
1482.0735808599852
 11
893.13745194136072
 21
1482.7804473596352
  0
LINE
  8
_0-2_02___PRT_ALL_AXES
  6
CONTINUOUS
 62
    7
 10
893.13745194136072
 20
1482.7804473596352
 11
895.42116995405286
 21
1483.4566111945028
  0
LINE
  8
_0-2_02___PRT_ALL_AXES
  6
CONTINUOUS
 62
    7
 10
895.42116995405286
 20
1483.4566111945028
 11
897.76425773675282
 21
1484.1011701581128
  0
LINE
  8
_0-2_02___PRT_ALL_AXES
  6
CONTINUOUS
 62
    7
 10
897.76425773675282
 20
1484.1011701581128
 11
900.16358890099764
 21
1484.713264212307
  0
LINE
  8
_0-2_02___PRT_ALL_AXES
  6
CONTINUOUS
 62
    7
 10
900.16358890099764
 20
1484.713264212307
 11
902.61596201198881
 21
1485.2920766386269
  0
LINE
  8
_0-2_02___PRT_ALL_AXES
  6
CONTINUOUS
 62
    7
 10
902.61596201198881
 20
1485.2920766386269
 11
905.11810485961178
 21
1485.8368351249269
  0
LINE
  8
_0-2_02___PRT_ALL_AXES
  6
CONTINUOUS
 62
    7
 10
905.11810485961178
 20
1485.8368351249269
 11
907.66667882620777
 21
1486.3468127986448
  0
LINE
  8
_0-2_02___PRT_ALL_AXES
  6
CONTINUOUS
 62
    7
 10
907.66667882620777
 20
1486.3468127986448
 11
910.2582833412348
 21
1486.8213291953052
  0
LINE
  8
_0-2_02___PRT_ALL_AXES
  6
CONTINUOUS
 62
    7
 10
910.2582833412348
 20
1486.8213291953052
 11
912.8894604189768
 21
1487.2597511652971
  0
LINE
  8
_0-2_02___PRT_ALL_AXES
  6
CONTINUOUS
 62
    7
 10
912.8894604189768
 20
1487.2597511652971
 11
915.55669927092595
 21
1487.6614937212212
  0
LINE
  8
_0-2_02___PRT_ALL_AXES
  6
CONTINUOUS
 62
    7
 10
915.55669927092595
 20
1487.6614937212212
 11
918.25644099131978
 21
1488.0260208174132
  0
LINE
  8
_0-2_02___PRT_ALL_AXES
  6
CONTINUOUS
 62
    7
 10
918.25644099131978
 20
1488.0260208174132
 11
920.98508330669301
 21
1488.3528460631769
  0
LINE
  8
_0-2_02___PRT_ALL_AXES
  6
CONTINUOUS
 62
    7
 10
920.98508330669301
 20
1488.3528460631769
 11
923.7389853802847
 21
1488.6415333742948
  0
LINE
  8
_0-2_02___PRT_ALL_AXES
  6
CONTINUOUS
 62
    7
 10
923.7389853802847
 20
1488.6415333742948
 11
926.51447267131198
 21
1488.8916975551952
  0
LINE
  8
_0-2_02___PRT_ALL_AXES
  6
CONTINUOUS
 62
    7
 10
926.51447267131198
 20
1488.8916975551952
 11
929.3078418384348
 21
1489.103004811016
  0
LINE
  8
_0-2_02___PRT_ALL_AXES
  6
CONTINUOUS
 62
    7
 10
929.3078418384348
 20
1489.103004811016
 11
932.11536567981466
 21
1489.275173192611
  0
LINE
  8
_0-2_02___PRT_ALL_AXES
  6
CONTINUOUS
 62
    7
 10
932.11536567981466
 20
1489.275173192611
 11
934.9332981074399
 21
1489.407972976795
  0
LINE
  8
_0-2_02___PRT_ALL_AXES
  6
CONTINUOUS
 62
    7
 10
934.9332981074399
 20
1489.407972976795
 11
937.75787914432067
 21
1489.501226966564
  0
LINE
  8
_0-2_02___PRT_ALL_AXES
  6
CONTINUOUS
 62
    7
 10
937.75787914432067
 20
1489.501226966564
 11
940.58533994379559
 21
1489.554810734935
  0
LINE
  8
_0-2_02___PRT_ALL_AXES
  6
CONTINUOUS
 62
    7
 10
940.58533994379559
 20
1489.554810734935
 11
943.41190781566684
 21
1489.5686527826888
  0
LINE
  8
_0-2_02___PRT_ALL_AXES
  6
CONTINUOUS
 62
    7
 10
943.41190781566684
 20
1489.5686527826888
 11
946.23381125998685
 21
1489.5427346419929
  0
LINE
  8
_0-2_02___PRT_ALL_AXES
  6
CONTINUOUS
 62
    7
 10
946.23381125998685
 20
1489.5427346419929
 11
949.04728500310785
 21
1489.4770908954551
  0
LINE
  8
_0-2_02___PRT_ALL_AXES
  6
CONTINUOUS
 62
    7
 10
949.04728500310785
 20
1489.4770908954551
 11
951.848575016214
 21
1489.3718091304031
  0
LINE
  8
_0-2_02___PRT_ALL_AXES
  6
CONTINUOUS
 62
    7
 10
951.848575016214
 20
1489.3718091304031
 11
954.63394353080866
 21
1489.2270298261092
  0
LINE
  8
_0-2_02___PRT_ALL_AXES
  6
CONTINUOUS
 62
    7
 10
954.63394353080866
 20
1489.2270298261092
 11
957.3996740199118
 21
1489.0429461610029
  0
LINE
  8
_0-2_02___PRT_ALL_AXES
  6
CONTINUOUS
 62
    7
 10
957.3996740199118
 20
1489.0429461610029
 11
960.1420761594286
 21
1488.8198037589268
  0
LINE
  8
_0-2_02___PRT_ALL_AXES
  6
CONTINUOUS
 62
    7
 10
960.1420761594286
 20
1488.8198037589268
 11
962.85749075449667
 21
1488.5579003591888
  0
LINE
  8
_0-2_02___PRT_ALL_AXES
  6
CONTINUOUS
 62
    7
 10
962.85749075449667
 20
1488.5579003591888
 11
965.54229461779778
 21
1488.257585421085
  0
LINE
  8
_0-2_02___PRT_ALL_AXES
  6
CONTINUOUS
 62
    7
 10
965.54229461779778
 20
1488.257585421085
 11
968.19290540749671
 21
1487.919259656031
  0
LINE
  8
_0-2_02___PRT_ALL_AXES
  6
CONTINUOUS
 62
    7
 10
968.19290540749671
 20
1487.919259656031
 11
970.80578640422982
 21
1487.5433744918769
  0
LINE
  8
_0-2_02___PRT_ALL_AXES
  6
CONTINUOUS
 62
    7
 10
970.80578640422982
 20
1487.5433744918769
 11
973.37745123244167
 21
1487.130431473975
  0
LINE
  8
_0-2_02___PRT_ALL_AXES
  6
CONTINUOUS
 62
    7
 10
973.37745123244167
 20
1487.130431473975
 11
975.90446851164461
 21
1486.6809815938568
  0
LINE
  8
_0-2_02___PRT_ALL_AXES
  6
CONTINUOUS
 62
    7
 10
975.90446851164461
 20
1486.6809815938568
 11
978.38346643451268
 21
1486.195624553905
  0
LINE
  8
_0-2_02___PRT_ALL_AXES
  6
CONTINUOUS
 62
    7
 10
978.38346643451268
 20
1486.195624553905
 11
980.81113726572494
 21
1485.6750079680132
  0
LINE
  8
_0-2_02___PRT_ALL_AXES
  6
CONTINUOUS
 62
    7
 10
980.81113726572494
 20
1485.6750079680132
 11
983.18424175623477
 21
1485.1198264951931
  0
LINE
  8
_0-2_02___PRT_ALL_AXES
  6
CONTINUOUS
 62
    7
 10
983.18424175623477
 20
1485.1198264951931
 11
985.49961346533473
 21
1484.530820917555
  0
LINE
  8
_0-2_02___PRT_ALL_AXES
  6
CONTINUOUS
 62
    7
 10
985.49961346533473
 20
1484.530820917555
 11
987.75416298518394
 21
1483.9087771458971
  0
LINE
  8
_0-2_02___PRT_ALL_AXES
  6
CONTINUOUS
 62
    7
 10
987.75416298518394
 20
1483.9087771458971
 11
989.9448820616999
 21
1483.2545251757651
  0
LINE
  8
_0-2_02___PRT_ALL_AXES
  6
CONTINUOUS
 62
    7
 10
989.9448820616999
 20
1483.2545251757651
 11
992.06884761259198
 21
1482.568937977981
  0
LINE
  8
_0-2_02___PRT_ALL_AXES
  6
CONTINUOUS
 62
    7
 10
992.06884761259198
 20
1482.568937977981
 11
994.12322562346071
 21
1481.8529303327832
  0
LINE
  8
_0-2_02___PRT_ALL_AXES
  6
CONTINUOUS
 62
    7
 10
994.12322562346071
 20
1481.8529303327832
 11
996.10527493113568
 21
1481.1074576129108
  0
LINE
  8
_0-2_02___PRT_ALL_AXES
  6
CONTINUOUS
 62
    7
 10
996.10527493113568
 20
1481.1074576129108
 11
998.01235087973873
 21
1480.3335145042088
  0
LINE
  8
_0-2_02___PRT_ALL_AXES
  6
CONTINUOUS
 62
    7
 10
998.01235087973873
 20
1480.3335145042088
 11
999.84190885333101
 21
1479.532133681269
  0
LINE
  8
_0-2_02___PRT_ALL_AXES
  6
CONTINUOUS
 62
    7
 10
999.84190885333101
 20
1479.532133681269
 11
1001.591507664516
 21
1478.704384429735
  0
LINE
  8
_0-2_02___PRT_ALL_AXES
  6
CONTINUOUS
 62
    7
 10
1001.591507664516
 20
1478.704384429735
 11
1003.2588128203738
 21
1477.8513712175532
  0
LINE
  8
_0-2_02___PRT_ALL_AXES
  6
CONTINUOUS
 62
    7
 10
1003.2588128203738
 20
1477.8513712175532
 11
1004.8415996283779
 21
1476.9742322235488
  0
LINE
  8
_0-2_02___PRT_ALL_AXES
  6
CONTINUOUS
 62
    7
 10
1004.8415996283779
 20
1476.9742322235488
 11
1006.3377561712368
 21
1476.074137816478
  0
LINE
  8
_0-2_02___PRT_ALL_AXES
  6
CONTINUOUS
 62
    7
 10
1006.3377561712368
 20
1476.074137816478
 11
1007.7452861232528
 21
1475.1522889967291
  0
LINE
  8
_0-2_02___PRT_ALL_AXES
  6
CONTINUOUS
 62
    7
 10
1007.7452861232528
 20
1475.1522889967291
 11
1009.0623114119817
 21
1474.209915788515
  0
LINE
  8
_0-2_02___PRT_ALL_AXES
  6
CONTINUOUS
 62
    7
 10
862.58989276532975
 20
1453.883664738787
 11
862.59094899105594
 21
1454.346027639308
  0
LINE
  8
_0-2_02___PRT_ALL_AXES
  6
CONTINUOUS
 62
    7
 10
862.59094899105594
 20
1454.346027639308
 11
862.66703123462275
 21
1455.4344381635228
  0
LINE
  8
_0-2_02___PRT_ALL_AXES
  6
CONTINUOUS
 62
    7
 10
862.66703123462275
 20
1455.4344381635228
 11
862.84629469651782
 21
1456.522628092549
  0
LINE
  8
_0-2_02___PRT_ALL_AXES
  6
CONTINUOUS
 62
    7
 10
862.84629469651782
 20
1456.522628092549
 11
863.12850018569998
 21
1457.6091454513871
  0
LINE
  8
_0-2_02___PRT_ALL_AXES
  6
CONTINUOUS
 62
    7
 10
863.12850018569998
 20
1457.6091454513871
 11
863.51327115377399
 21
1458.6925404954131
  0
LINE
  8
_0-2_02___PRT_ALL_AXES
  6
CONTINUOUS
 62
    7
 10
863.51327115377399
 20
1458.6925404954131
 11
864.0000942001916
 21
1459.771367648143
  0
LINE
  8
_0-2_02___PRT_ALL_AXES
  6
CONTINUOUS
 62
    7
 10
864.0000942001916
 20
1459.771367648143
 11
864.58831975424391
 21
1460.8441874260452
  0
LINE
  8
_0-2_02___PRT_ALL_AXES
  6
CONTINUOUS
 62
    7
 10
864.58831975424391
 20
1460.8441874260452
 11
865.2771629460226
 21
1461.9095683633509
  0
LINE
  8
_0-2_02___PRT_ALL_AXES
  6
CONTINUOUS
 62
    7
 10
865.2771629460226
 20
1461.9095683633509
 11
866.06570464808374
 21
1462.9660889170568
  0
LINE
  8
_0-2_02___PRT_ALL_AXES
  6
CONTINUOUS
 62
    7
 10
866.06570464808374
 20
1462.9660889170568
 11
866.95289270834883
 21
1464.0123393696372
  0
LINE
  8
_0-2_02___PRT_ALL_AXES
  6
CONTINUOUS
 62
    7
 10
866.95289270834883
 20
1464.0123393696372
 11
867.93754334839059
 21
1465.0469237058492
  0
LINE
  8
_0-2_02___PRT_ALL_AXES
  6
CONTINUOUS
 62
    7
 10
867.93754334839059
 20
1465.0469237058492
 11
869.01834274533485
 21
1466.0684614758252
  0
LINE
  8
_0-2_02___PRT_ALL_AXES
  6
CONTINUOUS
 62
    7
 10
869.01834274533485
 20
1466.0684614758252
 11
870.19384878522487
 21
1467.075589639112
  0
LINE
  8
_0-2_02___PRT_ALL_AXES
  6
CONTINUOUS
 62
    7
 10
870.19384878522487
 20
1467.075589639112
 11
871.4624929870738
 21
1468.066964379751
  0
LINE
  8
_0-2_02___PRT_ALL_AXES
  6
CONTINUOUS
 62
    7
 10
871.4624929870738
 20
1468.066964379751
 11
872.82258259378659
 21
1469.0412629046068
  0
LINE
  8
_0-2_02___PRT_ALL_AXES
  6
CONTINUOUS
 62
    7
 10
872.82258259378659
 20
1469.0412629046068
 11
874.2723028330247
 21
1469.9971852043409
  0
LINE
  8
_0-2_02___PRT_ALL_AXES
  6
CONTINUOUS
 62
    7
 10
874.2723028330247
 20
1469.9971852043409
 11
875.80971934035597
 21
1470.9334557869652
  0
LINE
  8
_0-2_02___PRT_ALL_AXES
  6
CONTINUOUS
 62
    7
 10
875.80971934035597
 20
1470.9334557869652
 11
877.43278073405281
 21
1471.848825385483
  0
LINE
  8
_0-2_02___PRT_ALL_AXES
  6
CONTINUOUS
 62
    7
 10
877.43278073405281
 20
1471.848825385483
 11
879.13932135830282
 21
1472.7420726175269
  0
LINE
  8
_0-2_02___PRT_ALL_AXES
  6
CONTINUOUS
 62
    7
 10
879.13932135830282
 20
1472.7420726175269
 11
880.92706417117779
 21
1473.612005622133
  0
LINE
  8
_0-2_02___PRT_ALL_AXES
  6
CONTINUOUS
 62
    7
 10
880.92706417117779
 20
1473.612005622133
 11
882.79362378120595
 21
1474.4574636431771
  0
LINE
  8
_0-2_02___PRT_ALL_AXES
  6
CONTINUOUS
 62
    7
 10
882.79362378120595
 20
1474.4574636431771
 11
884.73650963177397
 21
1475.2773185846172
  0
LINE
  8
_0-2_02___PRT_ALL_AXES
  6
CONTINUOUS
 62
    7
 10
884.73650963177397
 20
1475.2773185846172
 11
886.75312932420593
 21
1476.0704765101091
  0
LINE
  8
_0-2_02___PRT_ALL_AXES
  6
CONTINUOUS
 62
    7
 10
886.75312932420593
 20
1476.0704765101091
 11
888.84079207571904
 21
1476.8358791075711
  0
LINE
  8
_0-2_02___PRT_ALL_AXES
  6
CONTINUOUS
 62
    7
 10
888.84079207571904
 20
1476.8358791075711
 11
890.99671231149478
 21
1477.5725050973592
  0
LINE
  8
_0-2_02___PRT_ALL_AXES
  6
CONTINUOUS
 62
    7
 10
890.99671231149478
 20
1477.5725050973592
 11
893.21801337942588
 21
1478.2793715970092
  0
LINE
  8
_0-2_02___PRT_ALL_AXES
  6
CONTINUOUS
 62
    7
 10
893.21801337942588
 20
1478.2793715970092
 11
895.50173139135495
 21
1478.955535432639
  0
LINE
  8
_0-2_02___PRT_ALL_AXES
  6
CONTINUOUS
 62
    7
 10
895.50173139135495
 20
1478.955535432639
 11
897.84481917481799
 21
1479.600094396249
  0
LINE
  8
_0-2_02___PRT_ALL_AXES
  6
CONTINUOUS
 62
    7
 10
897.84481917481799
 20
1479.600094396249
 11
900.24415033906098
 21
1480.212188450444
  0
LINE
  8
_0-2_02___PRT_ALL_AXES
  6
CONTINUOUS
 62
    7
 10
900.24415033906098
 20
1480.212188450444
 11
902.69652345005397
 21
1480.7910008760009
  0
LINE
  8
_0-2_02___PRT_ALL_AXES
  6
CONTINUOUS
 62
    7
 10
902.69652345005397
 20
1480.7910008760009
 11
905.19866629691387
 21
1481.3357593623009
  0
LINE
  8
_0-2_02___PRT_ALL_AXES
  6
CONTINUOUS
 62
    7
 10
905.19866629691387
 20
1481.3357593623009
 11
907.74724026350987
 21
1481.845737036781
  0
LINE
  8
_0-2_02___PRT_ALL_AXES
  6
CONTINUOUS
 62
    7
 10
907.74724026350987
 20
1481.845737036781
 11
910.33884477929996
 21
1482.3202534326788
  0
LINE
  8
_0-2_02___PRT_ALL_AXES
  6
CONTINUOUS
 62
    7
 10
910.33884477929996
 20
1482.3202534326788
 11
912.9700218562798
 21
1482.7586754034328
  0
LINE
  8
_0-2_02___PRT_ALL_AXES
  6
CONTINUOUS
 62
    7
 10
912.9700218562798
 20
1482.7586754034328
 11
915.63726070822759
 21
1483.1604179593569
  0
LINE
  8
_0-2_02___PRT_ALL_AXES
  6
CONTINUOUS
 62
    7
 10
915.63726070822759
 20
1483.1604179593569
 11
918.33700242938266
 21
1483.5249450547872
  0
LINE
  8
_0-2_02___PRT_ALL_AXES
  6
CONTINUOUS
 62
    7
 10
918.33700242938266
 20
1483.5249450547872
 11
921.06564474475681
 21
1483.8517703005509
  0
LINE
  8
_0-2_02___PRT_ALL_AXES
  6
CONTINUOUS
 62
    7
 10
921.06564474475681
 20
1483.8517703005509
 11
923.8195468175868
 21
1484.140457612431
  0
LINE
  8
_0-2_02___PRT_ALL_AXES
  6
CONTINUOUS
 62
    7
 10
923.8195468175868
 20
1484.140457612431
 11
926.59503410861362
 21
1484.3906217933309
  0
LINE
  8
_0-2_02___PRT_ALL_AXES
  6
CONTINUOUS
 62
    7
 10
926.59503410861362
 20
1484.3906217933309
 11
929.38840327573689
 21
1484.6019290483891
  0
LINE
  8
_0-2_02___PRT_ALL_AXES
  6
CONTINUOUS
 62
    7
 10
929.38840327573689
 20
1484.6019290483891
 11
932.19592711711675
 21
1484.7740974307471
  0
LINE
  8
_0-2_02___PRT_ALL_AXES
  6
CONTINUOUS
 62
    7
 10
932.19592711711675
 20
1484.7740974307471
 11
935.01385954550369
 21
1484.906897214169
  0
LINE
  8
_0-2_02___PRT_ALL_AXES
  6
CONTINUOUS
 62
    7
 10
935.01385954550369
 20
1484.906897214169
 11
937.83844058238583
 21
1485.0001512046988
  0
LINE
  8
_0-2_02___PRT_ALL_AXES
  6
CONTINUOUS
 62
    7
 10
937.83844058238583
 20
1485.0001512046988
 11
940.66590138185893
 21
1485.053734972309
  0
LINE
  8
_0-2_02___PRT_ALL_AXES
  6
CONTINUOUS
 62
    7
 10
940.66590138185893
 20
1485.053734972309
 11
943.49246925296984
 21
1485.067577020825
  0
LINE
  8
_0-2_02___PRT_ALL_AXES
  6
CONTINUOUS
 62
    7
 10
943.49246925296984
 20
1485.067577020825
 11
946.31437269805201
 21
1485.041658880129
  0
LINE
  8
_0-2_02___PRT_ALL_AXES
  6
CONTINUOUS
 62
    7
 10
946.31437269805201
 20
1485.041658880129
 11
949.12784644040994
 21
1484.9760151328292
  0
LINE
  8
_0-2_02___PRT_ALL_AXES
  6
CONTINUOUS
 62
    7
 10
949.12784644040994
 20
1484.9760151328292
 11
951.9291364542778
 21
1484.8707333685388
  0
LINE
  8
_0-2_02___PRT_ALL_AXES
  6
CONTINUOUS
 62
    7
 10
951.9291364542778
 20
1484.8707333685388
 11
954.71450496887383
 21
1484.7259540634832
  0
LINE
  8
_0-2_02___PRT_ALL_AXES
  6
CONTINUOUS
 62
    7
 10
954.71450496887383
 20
1484.7259540634832
 11
957.48023545721298
 21
1484.5418703983769
  0
LINE
  8
_0-2_02___PRT_ALL_AXES
  6
CONTINUOUS
 62
    7
 10
957.48023545721298
 20
1484.5418703983769
 11
960.22263759749285
 21
1484.3187279963008
  0
LINE
  8
_0-2_02___PRT_ALL_AXES
  6
CONTINUOUS
 62
    7
 10
960.22263759749285
 20
1484.3187279963008
 11
962.93805219256183
 21
1484.056824597325
  0
LINE
  8
_0-2_02___PRT_ALL_AXES
  6
CONTINUOUS
 62
    7
 10
962.93805219256183
 20
1484.056824597325
 11
965.62285605586067
 21
1483.7565096592211
  0
LINE
  8
_0-2_02___PRT_ALL_AXES
  6
CONTINUOUS
 62
    7
 10
965.62285605586067
 20
1483.7565096592211
 11
968.2734668447988
 21
1483.4181838934051
  0
LINE
  8
_0-2_02___PRT_ALL_AXES
  6
CONTINUOUS
 62
    7
 10
968.2734668447988
 20
1483.4181838934051
 11
970.88634784153192
 21
1483.0422987292509
  0
LINE
  8
_0-2_02___PRT_ALL_AXES
  6
CONTINUOUS
 62
    7
 10
970.88634784153192
 20
1483.0422987292509
 11
973.45801266974286
 21
1482.6293557121112
  0
LINE
  8
_0-2_02___PRT_ALL_AXES
  6
CONTINUOUS
 62
    7
 10
973.45801266974286
 20
1482.6293557121112
 11
975.98502994970977
 21
1482.179905831993
  0
LINE
  8
_0-2_02___PRT_ALL_AXES
  6
CONTINUOUS
 62
    7
 10
975.98502994970977
 20
1482.179905831993
 11
978.46402787181478
 21
1481.6945487920411
  0
LINE
  8
_0-2_02___PRT_ALL_AXES
  6
CONTINUOUS
 62
    7
 10
978.46402787181478
 20
1481.6945487920411
 11
980.89169870378873
 21
1481.1739322053868
  0
LINE
  8
_0-2_02___PRT_ALL_AXES
  6
CONTINUOUS
 62
    7
 10
980.89169870378873
 20
1481.1739322053868
 11
983.26480319429902
 21
1480.6187507333289
  0
LINE
  8
_0-2_02___PRT_ALL_AXES
  6
CONTINUOUS
 62
    7
 10
983.26480319429902
 20
1480.6187507333289
 11
985.58017490339898
 21
1480.02974515493
  0
LINE
  8
_0-2_02___PRT_ALL_AXES
  6
CONTINUOUS
 62
    7
 10
985.58017490339898
 20
1480.02974515493
 11
987.83472442248467
 21
1479.4077013832712
  0
LINE
  8
_0-2_02___PRT_ALL_AXES
  6
CONTINUOUS
 62
    7
 10
987.83472442248467
 20
1479.4077013832712
 11
990.02544349976279
 21
1478.7534494131392
  0
LINE
  8
_0-2_02___PRT_ALL_AXES
  6
CONTINUOUS
 62
    7
 10
990.02544349976279
 20
1478.7534494131392
 11
992.14940905065578
 21
1478.067862215355
  0
LINE
  8
_0-2_02___PRT_ALL_AXES
  6
CONTINUOUS
 62
    7
 10
992.14940905065578
 20
1478.067862215355
 11
994.20378706152587
 21
1477.3518545709189
  0
LINE
  8
_0-2_02___PRT_ALL_AXES
  6
CONTINUOUS
 62
    7
 10
994.20378706152587
 20
1477.3518545709189
 11
996.18583636843778
 21
1476.6063818502848
  0
LINE
  8
_0-2_02___PRT_ALL_AXES
  6
CONTINUOUS
 62
    7
 10
996.18583636843778
 20
1476.6063818502848
 11
998.09291231780389
 21
1475.8324387415828
  0
LINE
  8
_0-2_02___PRT_ALL_AXES
  6
CONTINUOUS
 62
    7
 10
998.09291231780389
 20
1475.8324387415828
 11
999.92247029063265
 21
1475.031057918643
  0
LINE
  8
_0-2_02___PRT_ALL_AXES
  6
CONTINUOUS
 62
    7
 10
999.92247029063265
 20
1475.031057918643
 11
1001.6720691025798
 21
1474.203308667109
  0
LINE
  8
_0-2_02___PRT_ALL_AXES
  6
CONTINUOUS
 62
    7
 10
1001.6720691025798
 20
1474.203308667109
 11
1003.3393742576759
 21
1473.3502954549272
  0
LINE
  8
_0-2_02___PRT_ALL_AXES
  6
CONTINUOUS
 62
    7
 10
1003.3393742576759
 20
1473.3502954549272
 11
1004.9221610664417
 21
1472.4731564609228
  0
LINE
  8
_0-2_02___PRT_ALL_AXES
  6
CONTINUOUS
 62
    7
 10
1004.9221610664417
 20
1472.4731564609228
 11
1006.4183176093006
 21
1471.5730620546128
  0
LINE
  8
_0-2_02___PRT_ALL_AXES
  6
CONTINUOUS
 62
    7
 10
1006.4183176093006
 20
1471.5730620546128
 11
1007.8258475613179
 21
1470.6512132341031
  0
LINE
  8
_0-2_02___PRT_ALL_AXES
  6
CONTINUOUS
 62
    7
 10
1007.8258475613179
 20
1470.6512132341031
 11
1009.142872850045
 21
1469.708840025889
  0
LINE
  8
_0-2_02___PRT_ALL_AXES
  6
CONTINUOUS
 62
    7
 10
870.06196612671602
 20
1036.4088877931349
 11
870.06302235167868
 21
1036.8712506928932
  0
LINE
  8
_0-2_02___PRT_ALL_AXES
  6
CONTINUOUS
 62
    7
 10
870.06302235167868
 20
1036.8712506928932
 11
870.13910459524777
 21
1037.959661217109
  0
LINE
  8
_0-2_02___PRT_ALL_AXES
  6
CONTINUOUS
 62
    7
 10
870.13910459524777
 20
1037.959661217109
 11
870.31836805790272
 21
1039.0478511468968
  0
LINE
  8
_0-2_02___PRT_ALL_AXES
  6
CONTINUOUS
 62
    7
 10
870.31836805790272
 20
1039.0478511468968
 11
870.60057354708579
 21
1040.1343685049728
  0
LINE
  8
_0-2_02___PRT_ALL_AXES
  6
CONTINUOUS
 62
    7
 10
870.60057354708579
 20
1040.1343685049728
 11
870.9853445151598
 21
1041.217763549761
  0
LINE
  8
_0-2_02___PRT_ALL_AXES
  6
CONTINUOUS
 62
    7
 10
870.9853445151598
 20
1041.217763549761
 11
871.4721675608148
 21
1042.2965907017292
  0
LINE
  8
_0-2_02___PRT_ALL_AXES
  6
CONTINUOUS
 62
    7
 10
871.4721675608148
 20
1042.2965907017292
 11
872.06039311562881
 21
1043.369410480394
  0
LINE
  8
_0-2_02___PRT_ALL_AXES
  6
CONTINUOUS
 62
    7
 10
872.06039311562881
 20
1043.369410480394
 11
872.74923630664762
 21
1044.434791416938
  0
LINE
  8
_0-2_02___PRT_ALL_AXES
  6
CONTINUOUS
 62
    7
 10
872.74923630664762
 20
1044.434791416938
 11
873.53777800947
 21
1045.4913119714051
  0
LINE
  8
_0-2_02___PRT_ALL_AXES
  6
CONTINUOUS
 62
    7
 10
873.53777800947
 20
1045.4913119714051
 11
874.424966069736
 21
1046.537562423985
  0
LINE
  8
_0-2_02___PRT_ALL_AXES
  6
CONTINUOUS
 62
    7
 10
874.424966069736
 20
1046.537562423985
 11
875.40961670977777
 21
1047.572146760197
  0
LINE
  8
_0-2_02___PRT_ALL_AXES
  6
CONTINUOUS
 62
    7
 10
875.40961670977777
 20
1047.572146760197
 11
876.49041610672202
 21
1048.5936845301731
  0
LINE
  8
_0-2_02___PRT_ALL_AXES
  6
CONTINUOUS
 62
    7
 10
876.49041610672202
 20
1048.5936845301731
 11
877.66592214661159
 21
1049.6008126926972
  0
LINE
  8
_0-2_02___PRT_ALL_AXES
  6
CONTINUOUS
 62
    7
 10
877.66592214661159
 20
1049.6008126926972
 11
878.93456634769791
 21
1050.5921874340988
  0
LINE
  8
_0-2_02___PRT_ALL_AXES
  6
CONTINUOUS
 62
    7
 10
878.93456634769791
 20
1050.5921874340988
 11
880.29465595441161
 21
1051.5664859589551
  0
LINE
  8
_0-2_02___PRT_ALL_AXES
  6
CONTINUOUS
 62
    7
 10
880.29465595441161
 20
1051.5664859589551
 11
881.74437619441187
 21
1052.522408257928
  0
LINE
  8
_0-2_02___PRT_ALL_AXES
  6
CONTINUOUS
 62
    7
 10
881.74437619441187
 20
1052.522408257928
 11
883.28179270097871
 21
1053.458678841313
  0
LINE
  8
_0-2_02___PRT_ALL_AXES
  6
CONTINUOUS
 62
    7
 10
883.28179270097871
 20
1053.458678841313
 11
884.90485409467692
 21
1054.3740484390701
  0
LINE
  8
_0-2_02___PRT_ALL_AXES
  6
CONTINUOUS
 62
    7
 10
884.90485409467692
 20
1054.3740484390701
 11
886.61139471968863
 21
1055.2672956718752
  0
LINE
  8
_0-2_02___PRT_ALL_AXES
  6
CONTINUOUS
 62
    7
 10
886.61139471968863
 20
1055.2672956718752
 11
888.39913753256269
 21
1056.1372286757201
  0
LINE
  8
_0-2_02___PRT_ALL_AXES
  6
CONTINUOUS
 62
    7
 10
888.39913753256269
 20
1056.1372286757201
 11
890.26569714259085
 21
1056.9826866967628
  0
LINE
  8
_0-2_02___PRT_ALL_AXES
  6
CONTINUOUS
 62
    7
 10
890.26569714259085
 20
1056.9826866967628
 11
892.20858299315978
 21
1057.8025416382029
  0
LINE
  8
_0-2_02___PRT_ALL_AXES
  6
CONTINUOUS
 62
    7
 10
892.20858299315978
 20
1057.8025416382029
 11
894.22520268482867
 21
1058.5956995644569
  0
LINE
  8
_0-2_02___PRT_ALL_AXES
  6
CONTINUOUS
 62
    7
 10
894.22520268482867
 20
1058.5956995644569
 11
896.3128654363436
 21
1059.361102161919
  0
LINE
  8
_0-2_02___PRT_ALL_AXES
  6
CONTINUOUS
 62
    7
 10
896.3128654363436
 20
1059.361102161919
 11
898.46878567211979
 21
1060.097728151708
  0
LINE
  8
_0-2_02___PRT_ALL_AXES
  6
CONTINUOUS
 62
    7
 10
898.46878567211979
 20
1060.097728151708
 11
900.69008674081078
 21
1060.804594651358
  0
LINE
  8
_0-2_02___PRT_ALL_AXES
  6
CONTINUOUS
 62
    7
 10
900.69008674081078
 20
1060.804594651358
 11
902.97380475274076
 21
1061.4807584869868
  0
LINE
  8
_0-2_02___PRT_ALL_AXES
  6
CONTINUOUS
 62
    7
 10
902.97380475274076
 20
1061.4807584869868
 11
905.31689253544073
 21
1062.1253174498352
  0
LINE
  8
_0-2_02___PRT_ALL_AXES
  6
CONTINUOUS
 62
    7
 10
905.31689253544073
 20
1062.1253174498352
 11
907.7162237004477
 21
1062.7374115040288
  0
LINE
  8
_0-2_02___PRT_ALL_AXES
  6
CONTINUOUS
 62
    7
 10
907.7162237004477
 20
1062.7374115040288
 11
910.16859681067672
 21
1063.3162239303492
  0
LINE
  8
_0-2_02___PRT_ALL_AXES
  6
CONTINUOUS
 62
    7
 10
910.16859681067672
 20
1063.3162239303492
 11
912.67073965829968
 21
1063.8609824166492
  0
LINE
  8
_0-2_02___PRT_ALL_AXES
  6
CONTINUOUS
 62
    7
 10
912.67073965829968
 20
1063.8609824166492
 11
915.21931362489477
 21
1064.3709600903671
  0
LINE
  8
_0-2_02___PRT_ALL_AXES
  6
CONTINUOUS
 62
    7
 10
915.21931362489477
 20
1064.3709600903671
 11
917.81091813992271
 21
1064.8454764870271
  0
LINE
  8
_0-2_02___PRT_ALL_AXES
  6
CONTINUOUS
 62
    7
 10
917.81091813992271
 20
1064.8454764870271
 11
920.4420952176647
 21
1065.2838984570189
  0
LINE
  8
_0-2_02___PRT_ALL_AXES
  6
CONTINUOUS
 62
    7
 10
920.4420952176647
 20
1065.2838984570189
 11
923.10933406961385
 21
1065.6856410137052
  0
LINE
  8
_0-2_02___PRT_ALL_AXES
  6
CONTINUOUS
 62
    7
 10
923.10933406961385
 20
1065.6856410137052
 11
925.80907579000677
 21
1066.050168109135
  0
LINE
  8
_0-2_02___PRT_ALL_AXES
  6
CONTINUOUS
 62
    7
 10
925.80907579000677
 20
1066.050168109135
 11
928.53771810538183
 21
1066.3769933548988
  0
LINE
  8
_0-2_02___PRT_ALL_AXES
  6
CONTINUOUS
 62
    7
 10
928.53771810538183
 20
1066.3769933548988
 11
931.29162017897261
 21
1066.665680666018
  0
LINE
  8
_0-2_02___PRT_ALL_AXES
  6
CONTINUOUS
 62
    7
 10
931.29162017897261
 20
1066.665680666018
 11
934.06710746999988
 21
1066.915844846917
  0
LINE
  8
_0-2_02___PRT_ALL_AXES
  6
CONTINUOUS
 62
    7
 10
934.06710746999988
 20
1066.915844846917
 11
936.86047663712361
 21
1067.127152102737
  0
LINE
  8
_0-2_02___PRT_ALL_AXES
  6
CONTINUOUS
 62
    7
 10
936.86047663712361
 20
1067.127152102737
 11
939.66800047850302
 21
1067.2993204843328
  0
LINE
  8
_0-2_02___PRT_ALL_AXES
  6
CONTINUOUS
 62
    7
 10
939.66800047850302
 20
1067.2993204843328
 11
942.4859329061278
 21
1067.4321202685169
  0
LINE
  8
_0-2_02___PRT_ALL_AXES
  6
CONTINUOUS
 62
    7
 10
942.4859329061278
 20
1067.4321202685169
 11
945.31051394377073
 21
1067.525374258285
  0
LINE
  8
_0-2_02___PRT_ALL_AXES
  6
CONTINUOUS
 62
    7
 10
945.31051394377073
 20
1067.525374258285
 11
948.13797474324565
 21
1067.5789580266569
  0
LINE
  8
_0-2_02___PRT_ALL_AXES
  6
CONTINUOUS
 62
    7
 10
948.13797474324565
 20
1067.5789580266569
 11
950.96454261435474
 21
1067.592800074412
  0
LINE
  8
_0-2_02___PRT_ALL_AXES
  6
CONTINUOUS
 62
    7
 10
950.96454261435474
 20
1067.592800074412
 11
953.78644605867476
 21
1067.5668819337152
  0
LINE
  8
_0-2_02___PRT_ALL_AXES
  6
CONTINUOUS
 62
    7
 10
953.78644605867476
 20
1067.5668819337152
 11
956.59991980179484
 21
1067.501238187177
  0
LINE
  8
_0-2_02___PRT_ALL_AXES
  6
CONTINUOUS
 62
    7
 10
956.59991980179484
 20
1067.501238187177
 11
959.40120981566361
 21
1067.395956422125
  0
LINE
  8
_0-2_02___PRT_ALL_AXES
  6
CONTINUOUS
 62
    7
 10
959.40120981566361
 20
1067.395956422125
 11
962.18657832949793
 21
1067.251177117831
  0
LINE
  8
_0-2_02___PRT_ALL_AXES
  6
CONTINUOUS
 62
    7
 10
962.18657832949793
 20
1067.251177117831
 11
964.9523088185997
 21
1067.0670934527252
  0
LINE
  8
_0-2_02___PRT_ALL_AXES
  6
CONTINUOUS
 62
    7
 10
964.9523088185997
 20
1067.0670934527252
 11
967.69471095811696
 21
1066.84395105065
  0
LINE
  8
_0-2_02___PRT_ALL_AXES
  6
CONTINUOUS
 62
    7
 10
967.69471095811696
 20
1066.84395105065
 11
970.41012555318594
 21
1066.582047650912
  0
LINE
  8
_0-2_02___PRT_ALL_AXES
  6
CONTINUOUS
 62
    7
 10
970.41012555318594
 20
1066.582047650912
 11
973.09492941648477
 21
1066.2817327128068
  0
LINE
  8
_0-2_02___PRT_ALL_AXES
  6
CONTINUOUS
 62
    7
 10
973.09492941648477
 20
1066.2817327128068
 11
975.74554020618461
 21
1065.9434069477529
  0
LINE
  8
_0-2_02___PRT_ALL_AXES
  6
CONTINUOUS
 62
    7
 10
975.74554020618461
 20
1065.9434069477529
 11
978.35842120291682
 21
1065.5675217835992
  0
LINE
  8
_0-2_02___PRT_ALL_AXES
  6
CONTINUOUS
 62
    7
 10
978.35842120291682
 20
1065.5675217835992
 11
980.93008603112867
 21
1065.1545787656969
  0
LINE
  8
_0-2_02___PRT_ALL_AXES
  6
CONTINUOUS
 62
    7
 10
980.93008603112867
 20
1065.1545787656969
 11
983.45710331033297
 21
1064.7051288855791
  0
LINE
  8
_0-2_02___PRT_ALL_AXES
  6
CONTINUOUS
 62
    7
 10
983.45710331033297
 20
1064.7051288855791
 11
985.93610123320195
 21
1064.2197718456268
  0
LINE
  8
_0-2_02___PRT_ALL_AXES
  6
CONTINUOUS
 62
    7
 10
985.93610123320195
 20
1064.2197718456268
 11
988.36377206441375
 21
1063.6991552597351
  0
LINE
  8
_0-2_02___PRT_ALL_AXES
  6
CONTINUOUS
 62
    7
 10
988.36377206441375
 20
1063.6991552597351
 11
990.73687655492404
 21
1063.143973786915
  0
LINE
  8
_0-2_02___PRT_ALL_AXES
  6
CONTINUOUS
 62
    7
 10
990.73687655492404
 20
1063.143973786915
 11
993.052248264024
 21
1062.5549682092769
  0
LINE
  8
_0-2_02___PRT_ALL_AXES
  6
CONTINUOUS
 62
    7
 10
993.052248264024
 20
1062.5549682092769
 11
995.30679778387093
 21
1061.932924437619
  0
LINE
  8
_0-2_02___PRT_ALL_AXES
  6
CONTINUOUS
 62
    7
 10
995.30679778387093
 20
1061.932924437619
 11
997.4975168603869
 21
1061.278672467487
  0
LINE
  8
_0-2_02___PRT_ALL_AXES
  6
CONTINUOUS
 62
    7
 10
997.4975168603869
 20
1061.278672467487
 11
999.62148241204159
 21
1060.5930852697029
  0
LINE
  8
_0-2_02___PRT_ALL_AXES
  6
CONTINUOUS
 62
    7
 10
999.62148241204159
 20
1060.5930852697029
 11
1001.67586042215
 21
1059.877077624506
  0
LINE
  8
_0-2_02___PRT_ALL_AXES
  6
CONTINUOUS
 62
    7
 10
1001.67586042215
 20
1059.877077624506
 11
1003.6579097298236
 21
1059.1316049046331
  0
LINE
  8
_0-2_02___PRT_ALL_AXES
  6
CONTINUOUS
 62
    7
 10
1003.6579097298236
 20
1059.1316049046331
 11
1005.5649856791888
 21
1058.3576617959311
  0
LINE
  8
_0-2_02___PRT_ALL_AXES
  6
CONTINUOUS
 62
    7
 10
1005.5649856791888
 20
1058.3576617959311
 11
1007.3945436520189
 21
1057.5562809729909
  0
LINE
  8
_0-2_02___PRT_ALL_AXES
  6
CONTINUOUS
 62
    7
 10
1007.3945436520189
 20
1057.5562809729909
 11
1009.1441424639656
 21
1056.7285317214569
  0
LINE
  8
_0-2_02___PRT_ALL_AXES
  6
CONTINUOUS
 62
    7
 10
1009.1441424639656
 20
1056.7285317214569
 11
1010.8114476190608
 21
1055.875518509275
  0
LINE
  8
_0-2_02___PRT_ALL_AXES
  6
CONTINUOUS
 62
    7
 10
1010.8114476190608
 20
1055.875518509275
 11
1012.3942344270658
 21
1054.9983795152712
  0
LINE
  8
_0-2_02___PRT_ALL_AXES
  6
CONTINUOUS
 62
    7
 10
1012.3942344270658
 20
1054.9983795152712
 11
1013.8903909706869
 21
1054.098285108199
  0
LINE
  8
_0-2_02___PRT_ALL_AXES
  6
CONTINUOUS
 62
    7
 10
1013.8903909706869
 20
1054.098285108199
 11
1015.2979209219407
 21
1053.176436288451
  0
LINE
  8
_0-2_02___PRT_ALL_AXES
  6
CONTINUOUS
 62
    7
 10
1015.2979209219407
 20
1053.176436288451
 11
1016.6149462106696
 21
1052.2340630802369
  0
LINE
  8
_0-2_02___PRT_ALL_AXES
  6
CONTINUOUS
 62
    7
 10
864.88528202188672
 20
1352.3489709371052
 11
864.83067352124863
 21
1350.8008367557568
  0
LINE
  8
_0-2_02___PRT_ALL_AXES
  6
CONTINUOUS
 62
    7
 10
864.83067352124863
 20
1350.8008367557568
 11
864.77896965945592
 21
1349.2365998692512
  0
LINE
  8
_0-2_02___PRT_ALL_AXES
  6
CONTINUOUS
 62
    7
 10
864.77896965945592
 20
1349.2365998692512
 11
864.73204795192669
 21
1347.6612147703449
  0
LINE
  8
_0-2_02___PRT_ALL_AXES
  6
CONTINUOUS
 62
    7
 10
864.73204795192669
 20
1347.6612147703449
 11
864.691833643481
 21
1346.078680529527
  0
LINE
  8
_0-2_02___PRT_ALL_AXES
  6
CONTINUOUS
 62
    7
 10
864.691833643481
 20
1346.078680529527
 11
864.66030726203371
 21
1344.4930551175989
  0
LINE
  8
_0-2_02___PRT_ALL_AXES
  6
CONTINUOUS
 62
    7
 10
864.66030726203371
 20
1344.4930551175989
 11
864.63947413250389
 21
1342.908499281637
  0
LINE
  8
_0-2_02___PRT_ALL_AXES
  6
CONTINUOUS
 62
    7
 10
864.63947413250389
 20
1342.908499281637
 11
864.63132917698795
 21
1341.328458201187
  0
LINE
  8
_0-2_02___PRT_ALL_AXES
  6
CONTINUOUS
 62
    7
 10
864.63132917698795
 20
1341.328458201187
 11
864.63782821174073
 21
1339.7591405501412
  0
LINE
  8
_0-2_02___PRT_ALL_AXES
  6
CONTINUOUS
 62
    7
 10
864.63782821174073
 20
1339.7591405501412
 11
864.65409542126963
 21
1338.5537166955628
  0
LINE
  8
_0-2_02___PRT_ALL_AXES
  6
CONTINUOUS
 62
    7
 10
865.49214191636884
 20
1176.828640037143
 11
865.53823494127801
 21
1178.0413648994709
  0
LINE
  8
_0-2_02___PRT_ALL_AXES
  6
CONTINUOUS
 62
    7
 10
865.53823494127801
 20
1178.0413648994709
 11
865.63201475600272
 21
1179.1995607667168
  0
LINE
  8
_0-2_02___PRT_ALL_AXES
  6
CONTINUOUS
 62
    7
 10
865.63201475600272
 20
1179.1995607667168
 11
865.77725583839265
 21
1180.3245328548428
  0
LINE
  8
_0-2_02___PRT_ALL_AXES
  6
CONTINUOUS
 62
    7
 10
865.77725583839265
 20
1180.3245328548428
 11
865.97869132934875
 21
1181.4292920136209
  0
LINE
  8
_0-2_02___PRT_ALL_AXES
  6
CONTINUOUS
 62
    7
 10
865.97869132934875
 20
1181.4292920136209
 11
866.24000598731391
 21
1182.5188303336508
  0
LINE
  8
_0-2_02___PRT_ALL_AXES
  6
CONTINUOUS
 62
    7
 10
867.00266887625867
 20
1092.433469496098
 11
867.04876190116784
 21
1093.6461943576628
  0
LINE
  8
_0-2_02___PRT_ALL_AXES
  6
CONTINUOUS
 62
    7
 10
867.04876190116784
 20
1093.6461943576628
 11
867.14254171589391
 21
1094.8043902249092
  0
LINE
  8
_0-2_02___PRT_ALL_AXES
  6
CONTINUOUS
 62
    7
 10
867.14254171589391
 20
1094.8043902249092
 11
867.28778279828293
 21
1095.9293623130352
  0
LINE
  8
_0-2_02___PRT_ALL_AXES
  6
CONTINUOUS
 62
    7
 10
867.28778279828293
 20
1095.9293623130352
 11
867.48921828923903
 21
1097.0341214718128
  0
LINE
  8
_0-2_02___PRT_ALL_AXES
  6
CONTINUOUS
 62
    7
 10
867.48921828923903
 20
1097.0341214718128
 11
867.75053294720283
 21
1098.1236597918428
  0
LINE
  8
_0-7__Z_P___M8_30
  6
CONTINUOUS
 62
    7
 10
722.97655740073697
 20
1235.831269042063
 11
723.61193608095482
 21
1236.7144664648949
  0
LINE
  8
_0-7__Z_P___M8_30
  6
CONTINUOUS
 62
    7
 10
723.61193608095482
 20
1236.7144664648949
 11
724.16306283671383
 21
1237.5606081988212
  0
LINE
  8
_0-7__Z_P___M8_30
  6
CONTINUOUS
 62
    7
 10
724.16306283671383
 20
1237.5606081988212
 11
724.63280284363782
 21
1238.3787677839869
  0
LINE
  8
_0-7__Z_P___M8_30
  6
CONTINUOUS
 62
    7
 10
724.63280284363782
 20
1238.3787677839869
 11
725.02327077593282
 21
1239.177798851912
  0
LINE
  8
_0-7__Z_P___M8_30
  6
CONTINUOUS
 62
    7
 10
725.02327077593282
 20
1239.177798851912
 11
725.33499488705365
 21
1239.96310222085
  0
LINE
  8
_0-7__Z_P___M8_30
  6
CONTINUOUS
 62
    7
 10
725.33499488705365
 20
1239.96310222085
 11
725.57008952582964
 21
1240.7416725044468
  0
LINE
  8
_0-7__Z_P___M8_30
  6
CONTINUOUS
 62
    7
 10
725.57008952582964
 20
1240.7416725044468
 11
725.73204256971485
 21
1241.524472355914
  0
LINE
  8
_0-7__Z_P___M8_30
  6
CONTINUOUS
 62
    7
 10
725.73204256971485
 20
1241.524472355914
 11
725.76288958396663
 21
1241.732701495207
  0
LINE
  8
_0-4_EL-M10011N_______9
  6
CONTINUOUS
 62
    7
 10
1119.3262276335167
 20
1566.386554353589
 11
1119.0901383607138
 21
1566.2729567126112
  0
LINE
  8
_0-2_02___PRT_ALL_AXES
  6
CONTINUOUS
 62
    7
 10
682.9241154476158
 20
1267.2374758670649
 11
682.18842620271471
 21
1267.117302387067
  0
LINE
  8
_0-2_02___PRT_ALL_AXES
  6
CONTINUOUS
 62
    7
 10
682.18842620271471
 20
1267.117302387067
 11
681.40249677076781
 21
1267.0608609327669
  0
LINE
  8
_0-2_02___PRT_ALL_AXES
  6
CONTINUOUS
 62
    7
 10
681.40249677076781
 20
1267.0608609327669
 11
680.60721375148069
 21
1267.0766084141001
  0
LINE
  8
_0-2_02___PRT_ALL_AXES
  6
CONTINUOUS
 62
    7
 10
680.60721375148069
 20
1267.0766084141001
 11
679.80383074687188
 21
1267.164510822241
  0
LINE
  8
_0-2_02___PRT_ALL_AXES
  6
CONTINUOUS
 62
    7
 10
679.80383074687188
 20
1267.164510822241
 11
678.99361354180792
 21
1267.3244214973388
  0
LINE
  8
_0-2_02___PRT_ALL_AXES
  6
CONTINUOUS
 62
    7
 10
678.99361354180792
 20
1267.3244214973388
 11
678.1778381632007
 21
1267.5560814698829
  0
LINE
  8
_0-2_02___PRT_ALL_AXES
  6
CONTINUOUS
 62
    7
 10
678.1778381632007
 20
1267.5560814698829
 11
677.35778896281499
 21
1267.85911995677
  0
LINE
  8
_0-2_02___PRT_ALL_AXES
  6
CONTINUOUS
 62
    7
 10
677.35778896281499
 20
1267.85911995677
 11
676.53475664063399
 21
1268.233055008237
  0
LINE
  8
_0-2_02___PRT_ALL_AXES
  6
CONTINUOUS
 62
    7
 10
676.53475664063399
 20
1268.233055008237
 11
675.71003629185589
 21
1268.6772943178771
  0
LINE
  8
_0-2_02___PRT_ALL_AXES
  6
CONTINUOUS
 62
    7
 10
675.71003629185589
 20
1268.6772943178771
 11
674.88492546074986
 21
1269.1911361614129
  0
LINE
  8
_0-2_02___PRT_ALL_AXES
  6
CONTINUOUS
 62
    7
 10
674.88492546074986
 20
1269.1911361614129
 11
674.06072217164365
 21
1269.7737705054128
  0
LINE
  8
_0-8_EL-M10011N_______3
  6
CONTINUOUS
 62
    7
 10
716.93796545965779
 20
1222.0251206168232
 11
712.8561730532806
 21
1221.394394520391
  0
LINE
  8
_0-0_0
  6
CONTINUOUS
 62
    7
 10
716.93796545965779
 20
1222.0251206168232
 11
723.06065406922198
 21
1222.971209761472
  0
LINE
  8
_0-7__Z_P___M8_30
  6
CONTINUOUS
 62
    7
 10
722.97655740073697
 20
1235.831269042063
 11
716.44029164068161
 21
1234.8212731923609
  0
LINE
  8
_0-7__Z_P___M8_30
  6
CONTINUOUS
 62
    7
 10
711.29898367769965
 20
1238.672545168999
 11
717.83524917410386
 21
1239.6825409775529
  0
LINE
  8
_0-7__Z_P___M8_30
  6
CONTINUOUS
 62
    7
 10
709.02795300158277
 20
1249.825157464441
 11
715.56421849798699
 21
1250.835153273757
  0
LINE
  8
_0-7__Z_P___M8_30
  6
CONTINUOUS
 62
    7
 10
711.89823028844967
 20
1257.1264977847691
 11
718.43460602872665
 21
1258.1365106285948
  0
LINE
  8
_0-5_EL-M10011N_______8
  6
CONTINUOUS
 62
    7
 10
1320.3103127963686
 20
1277.5425978005951
 11
1320.1404231094798
 21
1277.5482056458691
  0
LINE
  8
_0-5_EL-M10011N_______8
  6
CONTINUOUS
 62
    7
 10
1320.1404231094798
 20
1277.5482056458691
 11
1319.9604104369928
 21
1277.643408682286
  0
LINE
  8
_0-5_EL-M10011N_______8
  6
CONTINUOUS
 62
    7
 10
1319.6019838708908
 20
1277.4985329971828
 11
1319.846129736929
 21
1277.4823478131452
  0
LINE
  8
_0-5_EL-M10011N_______8
  6
CONTINUOUS
 62
    7
 10
1319.846129736929
 20
1277.4823478131452
 11
1320.0810627219767
 21
1277.497678498004
  0
LINE
  8
_0-7__Z_P___M8_30
  6
CONTINUOUS
 62
    7
 10
637.94003251070399
 20
1372.2340470510489
 11
638.7515825467317
 21
1371.8790620388968
  0
LINE
  8
_0-7__Z_P___M8_30
  6
CONTINUOUS
 62
    7
 10
638.7515825467317
 20
1371.8790620388968
 11
639.48626225135877
 21
1371.5268616559229
  0
LINE
  8
_0-7__Z_P___M8_30
  6
CONTINUOUS
 62
    7
 10
639.48626225135877
 20
1371.5268616559229
 11
640.15433418115072
 21
1371.1706682938889
  0
LINE
  8
_0-7__Z_P___M8_30
  6
CONTINUOUS
 62
    7
 10
640.15433418115072
 20
1371.1706682938889
 11
640.75909271661567
 21
1370.8060915244409
  0
LINE
  8
_0-7__Z_P___M8_30
  6
CONTINUOUS
 62
    7
 10
640.75909271661567
 20
1370.8060915244409
 11
641.30016071270984
 21
1370.4306740255952
  0
LINE
  8
_0-7__Z_P___M8_30
  6
CONTINUOUS
 62
    7
 10
641.46687656901577
 20
1370.7386457172452
 11
642.69873029605787
 21
1370.18957847299
  0
LINE
  8
_0-7__Z_P___M8_30
  6
CONTINUOUS
 62
    7
 10
642.69873029605787
 20
1370.18957847299
 11
643.84914353954991
 21
1370.412337434379
  0
LINE
  8
_0-7__Z_P___M8_30
  6
CONTINUOUS
 62
    7
 10
643.84914353954991
 20
1370.412337434379
 11
644.8242567277498
 21
1371.3756961340232
  0
LINE
  8
_0-7__Z_P___M8_30
  6
CONTINUOUS
 62
    7
 10
644.8242567277498
 20
1371.3756961340232
 11
645.5550925751927
 21
1373.0029784865128
  0
LINE
  8
_0-7__Z_P___M8_30
  6
CONTINUOUS
 62
    7
 10
642.04768482192594
 20
1388.6247844066688
 11
640.81583109412168
 21
1389.173851651688
  0
LINE
  8
_0-7__Z_P___M8_30
  6
CONTINUOUS
 62
    7
 10
640.81583109412168
 20
1389.173851651688
 11
639.66541785062964
 21
1388.9510926902972
  0
LINE
  8
_0-7__Z_P___M8_30
  6
CONTINUOUS
 62
    7
 10
639.66541785062964
 20
1388.9510926902972
 11
638.69030466319191
 21
1387.9877339906529
  0
LINE
  8
_0-7__Z_P___M8_30
  6
CONTINUOUS
 62
    7
 10
638.69030466319191
 20
1387.9877339906529
 11
637.95946881498594
 21
1386.3604516374012
  0
LINE
  8
_0-7__Z_P___M8_30
  6
CONTINUOUS
 62
    7
 10
637.95946881498594
 20
1386.3604516374012
 11
637.53034909943881
 21
1384.184464463096
  0
LINE
  8
_0-7__Z_P___M8_30
  6
CONTINUOUS
 62
    7
 10
637.53034909943881
 20
1384.184464463096
 11
637.44299835186575
 21
1381.6501537923309
  0
LINE
  8
_0-7__Z_P___M8_30
  6
CONTINUOUS
 62
    7
 10
637.44299835186575
 20
1381.6501537923309
 11
637.70375973610771
 21
1378.9533282185048
  0
LINE
  8
_0-7__Z_P___M8_30
  6
CONTINUOUS
 62
    7
 10
637.70375973610771
 20
1378.9533282185048
 11
638.29139326187988
 21
1376.3172664845429
  0
LINE
  8
_0-7__Z_P___M8_30
  6
CONTINUOUS
 62
    7
 10
638.29139326187988
 20
1376.3172664845429
 11
639.16287236600965
 21
1373.943125421049
  0
LINE
  8
_0-7__Z_P___M8_30
  6
CONTINUOUS
 62
    7
 10
639.16287236600965
 20
1373.943125421049
 11
640.25374247382479
 21
1372.024263535387
  0
LINE
  8
_0-7__Z_P___M8_30
  6
CONTINUOUS
 62
    7
 10
640.25374247382479
 20
1372.024263535387
 11
641.46687656901577
 21
1370.7386457172452
  0
LINE
  8
_0-4_EL-M10011N_______9
  6
CONTINUOUS
 62
    7
 10
571.94735068276668
 20
1451.381328705877
 11
571.75973805240574
 21
1451.490738079387
  0
LINE
  8
_0-4_EL-M10011N_______9
  6
CONTINUOUS
 62
    7
 10
571.75973805240574
 20
1451.490738079387
 11
571.51406253994674
 21
1451.5835527174809
  0
LINE
  8
_0-4_EL-M10011N_______9
  6
CONTINUOUS
 62
    7
 10
571.51406253994674
 20
1451.5835527174809
 11
571.222806880397
 21
1451.6555054719752
  0
LINE
  8
_0-4_EL-M10011N_______9
  6
CONTINUOUS
 62
    7
 10
571.222806880397
 20
1451.6555054719752
 11
570.90017494654194
 21
1451.7032758882451
  0
LINE
  8
_0-4_EL-M10011N_______9
  6
CONTINUOUS
 62
    7
 10
570.90017494654194
 20
1451.7032758882451
 11
570.56161246695001
 21
1451.7245769962651
  0
LINE
  8
_0-4_EL-M10011N_______9
  6
CONTINUOUS
 62
    7
 10
572.1457805691166
 20
1472.264310140491
 11
571.88859295649263
 21
1472.4199240164612
  0
LINE
  8
_0-4_EL-M10011N_______9
  6
CONTINUOUS
 62
    7
 10
571.88859295649263
 20
1472.4199240164612
 11
571.60397377211302
 21
1472.5225060101789
  0
LINE
  8
_0-4_EL-M10011N_______9
  6
CONTINUOUS
 62
    7
 10
571.60397377211302
 20
1472.5225060101789
 11
571.30334684149193
 21
1472.5669076038748
  0
LINE
  8
_0-4_EL-M10011N_______9
  6
CONTINUOUS
 62
    7
 10
571.30334684149193
 20
1472.5669076038748
 11
570.9993664723138
 21
1472.5506992999949
  0
LINE
  8
_0-2_02___PRT_ALL_AXES
  6
CONTINUOUS
 62
    7
 10
1014.4498575687949
 20
1173.2004741898572
 11
1014.2983281347447
 21
1173.3217663681512
  0
LINE
  8
_0-2_02___PRT_ALL_AXES
  6
CONTINUOUS
 62
    7
 10
1014.2983281347447
 20
1173.3217663681512
 11
1014.1456165826639
 21
1173.459502917925
  0
LINE
  8
_0-2_02___PRT_ALL_AXES
  6
CONTINUOUS
 62
    7
 10
1014.1456165826639
 20
1173.459502917925
 11
1013.9922717841978
 21
1173.613211223158
  0
LINE
  8
_0-2_02___PRT_ALL_AXES
  6
CONTINUOUS
 62
    7
 10
1013.9922717841978
 20
1173.613211223158
 11
1013.8386788983439
 21
1173.7825491351791
  0
LINE
  8
_0-2_02___PRT_ALL_AXES
  6
CONTINUOUS
 62
    7
 10
1013.8386788983439
 20
1173.7825491351791
 11
1013.6854619017558
 21
1173.966888615877
  0
LINE
  8
_0-2_02___PRT_ALL_AXES
  6
CONTINUOUS
 62
    7
 10
1013.6854619017558
 20
1173.966888615877
 11
1013.5329887916646
 21
1174.165870520173
  0
LINE
  8
_0-2_02___PRT_ALL_AXES
  6
CONTINUOUS
 62
    7
 10
1013.5329887916646
 20
1174.165870520173
 11
1013.3819284189076
 21
1174.3787264838429
  0
LINE
  8
_0-2_02___PRT_ALL_AXES
  6
CONTINUOUS
 62
    7
 10
1013.3819284189076
 20
1174.3787264838429
 11
1013.232665649869
 21
1174.6050408023589
  0
LINE
  8
_0-2_02___PRT_ALL_AXES
  6
CONTINUOUS
 62
    7
 10
1013.232665649869
 20
1174.6050408023589
 11
1013.0858648159629
 21
1174.8439574891172
  0
LINE
  8
_0-2_02___PRT_ALL_AXES
  6
CONTINUOUS
 62
    7
 10
1013.0858648159629
 20
1174.8439574891172
 11
1012.9419564654768
 21
1175.0949462744129
  0
LINE
  8
_0-2_02___PRT_ALL_AXES
  6
CONTINUOUS
 62
    7
 10
1012.9419564654768
 20
1175.0949462744129
 11
1012.801553228886
 21
1175.3571365260032
  0
LINE
  8
_0-2_02___PRT_ALL_AXES
  6
CONTINUOUS
 62
    7
 10
1012.801553228886
 20
1175.3571365260032
 11
1012.6651531836769
 21
1175.6298103774029
  0
LINE
  8
_0-2_02___PRT_ALL_AXES
  6
CONTINUOUS
 62
    7
 10
1012.6651531836769
 20
1175.6298103774029
 11
1012.5332792500676
 21
1175.9121629386809
  0
LINE
  8
_0-2_02___PRT_ALL_AXES
  6
CONTINUOUS
 62
    7
 10
1012.5332792500676
 20
1175.9121629386809
 11
1012.4064919057259
 21
1176.2032449414792
  0
LINE
  8
_0-2_02___PRT_ALL_AXES
  6
CONTINUOUS
 62
    7
 10
1012.4064919057259
 20
1176.2032449414792
 11
1012.2852195455266
 21
1176.5023485228489
  0
LINE
  8
_0-2_02___PRT_ALL_AXES
  6
CONTINUOUS
 62
    7
 10
1012.2852195455266
 20
1176.5023485228489
 11
1012.1700401838107
 21
1176.8083332667329
  0
LINE
  8
_0-2_02___PRT_ALL_AXES
  6
CONTINUOUS
 62
    7
 10
1012.1700401838107
 20
1176.8083332667329
 11
1012.0613134403807
 21
1177.1205470017148
  0
LINE
  8
_0-2_02___PRT_ALL_AXES
  6
CONTINUOUS
 62
    7
 10
1012.0613134403807
 20
1177.1205470017148
 11
1011.9595835950727
 21
1177.437738860599
  0
LINE
  8
_0-2_02___PRT_ALL_AXES
  6
CONTINUOUS
 62
    7
 10
1011.9595835950727
 20
1177.437738860599
 11
1011.8651630457898
 21
1177.7592563161152
  0
LINE
  8
_0-2_02___PRT_ALL_AXES
  6
CONTINUOUS
 62
    7
 10
1011.8651630457898
 20
1177.7592563161152
 11
1011.7785208629657
 21
1178.083832637752
  0
LINE
  8
_0-2_02___PRT_ALL_AXES
  6
CONTINUOUS
 62
    7
 10
1011.7785208629657
 20
1178.083832637752
 11
1011.6999369520609
 21
1178.4107486689568
  0
LINE
  8
_0-2_02___PRT_ALL_AXES
  6
CONTINUOUS
 62
    7
 10
1011.6999369520609
 20
1178.4107486689568
 11
1011.6297772574817
 21
1178.7388225317309
  0
LINE
  8
_0-2_02___PRT_ALL_AXES
  6
CONTINUOUS
 62
    7
 10
1011.6297772574817
 20
1178.7388225317309
 11
1011.5682951571789
 21
1179.0671948028489
  0
LINE
  8
_0-2_02___PRT_ALL_AXES
  6
CONTINUOUS
 62
    7
 10
1011.5682951571789
 20
1179.0671948028489
 11
1011.5157424479598
 21
1179.3948611396409
  0
LINE
  8
_0-2_02___PRT_ALL_AXES
  6
CONTINUOUS
 62
    7
 10
1011.5157424479598
 20
1179.3948611396409
 11
1011.4723370602969
 21
1179.720771476389
  0
LINE
  8
_0-2_02___PRT_ALL_AXES
  6
CONTINUOUS
 62
    7
 10
1011.4723370602969
 20
1179.720771476389
 11
1011.438228044442
 21
1180.0441290064568
  0
LINE
  8
_0-2_02___PRT_ALL_AXES
  6
CONTINUOUS
 62
    7
 10
1011.438228044442
 20
1180.0441290064568
 11
1011.413570512349
 21
1180.3637443423331
  0
LINE
  8
_0-2_02___PRT_ALL_AXES
  6
CONTINUOUS
 62
    7
 10
1011.413570512349
 20
1180.3637443423331
 11
1011.3984368730708
 21
1180.6789556283429
  0
LINE
  8
_0-2_02___PRT_ALL_AXES
  6
CONTINUOUS
 62
    7
 10
1011.3984368730708
 20
1180.6789556283429
 11
1011.392896274298
 21
1180.988526869246
  0
LINE
  8
_0-2_02___PRT_ALL_AXES
  6
CONTINUOUS
 62
    7
 10
1011.392896274298
 20
1180.988526869246
 11
1011.396959583672
 21
1181.2918470294312
  0
LINE
  8
_0-2_02___PRT_ALL_AXES
  6
CONTINUOUS
 62
    7
 10
1011.396959583672
 20
1181.2918470294312
 11
1011.410601448692
 21
1181.5877254267511
  0
LINE
  8
_0-2_02___PRT_ALL_AXES
  6
CONTINUOUS
 62
    7
 10
1011.410601448692
 20
1181.5877254267511
 11
1011.4337717853828
 21
1181.8755241551912
  0
LINE
  8
_0-2_02___PRT_ALL_AXES
  6
CONTINUOUS
 62
    7
 10
1011.4337717853828
 20
1181.8755241551912
 11
1011.466357733927
 21
1182.154181045425
  0
LINE
  8
_0-2_02___PRT_ALL_AXES
  6
CONTINUOUS
 62
    7
 10
1011.466357733927
 20
1182.154181045425
 11
1011.5082342348828
 21
1182.422967954637
  0
LINE
  8
_0-2_02___PRT_ALL_AXES
  6
CONTINUOUS
 62
    7
 10
1011.5082342348828
 20
1182.422967954637
 11
1011.5592221984389
 21
1182.6810162104471
  0
LINE
  8
_0-2_02___PRT_ALL_AXES
  6
CONTINUOUS
 62
    7
 10
1011.5592221984389
 20
1182.6810162104471
 11
1011.6190975005829
 21
1182.9274797817811
  0
LINE
  8
_0-2_02___PRT_ALL_AXES
  6
CONTINUOUS
 62
    7
 10
1011.6190975005829
 20
1182.9274797817811
 11
1011.6876395781287
 21
1183.161695373547
  0
LINE
  8
_0-2_02___PRT_ALL_AXES
  6
CONTINUOUS
 62
    7
 10
1011.6876395781287
 20
1183.161695373547
 11
1011.7645149859727
 21
1183.3827625631111
  0
LINE
  8
_0-2_02___PRT_ALL_AXES
  6
CONTINUOUS
 62
    7
 10
1011.7645149859727
 20
1183.3827625631111
 11
1011.8494696946518
 21
1183.5901598849168
  0
LINE
  8
_0-2_02___PRT_ALL_AXES
  6
CONTINUOUS
 62
    7
 10
1011.8494696946518
 20
1183.5901598849168
 11
1011.9420705605039
 21
1183.7830240584972
  0
LINE
  8
_0-2_02___PRT_ALL_AXES
  6
CONTINUOUS
 62
    7
 10
1011.9420705605039
 20
1183.7830240584972
 11
1012.0420251210708
 21
1183.9609185866288
  0
LINE
  8
_0-2_02___PRT_ALL_AXES
  6
CONTINUOUS
 62
    7
 10
1012.0420251210708
 20
1183.9609185866288
 11
1012.1488265465327
 21
1184.1230934045188
  0
LINE
  8
_0-2_02___PRT_ALL_AXES
  6
CONTINUOUS
 62
    7
 10
1012.1488265465327
 20
1184.1230934045188
 11
1012.2621298711078
 21
1184.2691610496449
  0
LINE
  8
_0-2_02___PRT_ALL_AXES
  6
CONTINUOUS
 62
    7
 10
1012.2621298711078
 20
1184.2691610496449
 11
1012.38139449237
 21
1184.3985366489069
  0
LINE
  8
_0-2_02___PRT_ALL_AXES
  6
CONTINUOUS
 62
    7
 10
1012.38139449237
 20
1184.3985366489069
 11
1012.5062017141786
 21
1184.510867429834
  0
LINE
  8
_0-2_02___PRT_ALL_AXES
  6
CONTINUOUS
 62
    7
 10
1012.5062017141786
 20
1184.510867429834
 11
1012.6360267486616
 21
1184.6057562997448
  0
LINE
  8
_0-2_02___PRT_ALL_AXES
  6
CONTINUOUS
 62
    7
 10
1012.6360267486616
 20
1184.6057562997448
 11
1012.770353226515
 21
1184.682894900865
  0
LINE
  8
_0-2_02___PRT_ALL_AXES
  6
CONTINUOUS
 62
    7
 10
1012.770353226515
 20
1184.682894900865
 11
1012.908712893407
 21
1184.7420593918832
  0
LINE
  8
_0-2_02___PRT_ALL_AXES
  6
CONTINUOUS
 62
    7
 10
1012.908712893407
 20
1184.7420593918832
 11
1013.0505022186667
 21
1184.783030271079
  0
LINE
  8
_0-2_02___PRT_ALL_AXES
  6
CONTINUOUS
 62
    7
 10
1013.0505022186667
 20
1184.783030271079
 11
1013.0649291364739
 21
1184.7861382084752
  0
LINE
  8
_0-2_02___PRT_ALL_AXES
  6
CONTINUOUS
 62
    7
 10
1031.0605574928718
 20
1096.572809469877
 11
1031.816879273088
 21
1095.7335523655652
  0
LINE
  8
_0-2_02___PRT_ALL_AXES
  6
CONTINUOUS
 62
    7
 10
1031.816879273088
 20
1095.7335523655652
 11
1032.493795472466
 21
1094.9129291513409
  0
LINE
  8
_0-2_02___PRT_ALL_AXES
  6
CONTINUOUS
 62
    7
 10
1032.493795472466
 20
1094.9129291513409
 11
1033.1018883149509
 21
1094.0950575633128
  0
LINE
  8
_0-2_02___PRT_ALL_AXES
  6
CONTINUOUS
 62
    7
 10
1033.1018883149509
 20
1094.0950575633128
 11
1033.6454049347999
 21
1093.2693063413112
  0
LINE
  8
_0-2_02___PRT_ALL_AXES
  6
CONTINUOUS
 62
    7
 10
1033.6454049347999
 20
1093.2693063413112
 11
1034.1242699244899
 21
1092.4308790824321
  0
LINE
  8
_0-2_02___PRT_ALL_AXES
  6
CONTINUOUS
 62
    7
 10
1029.550030532982
 20
1180.967980011686
 11
1030.3063523131977
 21
1180.1287229073732
  0
LINE
  8
_0-2_02___PRT_ALL_AXES
  6
CONTINUOUS
 62
    7
 10
1030.3063523131977
 20
1180.1287229073732
 11
1030.9832685133379
 21
1179.308099693149
  0
LINE
  8
_0-2_02___PRT_ALL_AXES
  6
CONTINUOUS
 62
    7
 10
1030.9832685133379
 20
1179.308099693149
 11
1031.591361355062
 21
1178.4902281051209
  0
LINE
  8
_0-2_02___PRT_ALL_AXES
  6
CONTINUOUS
 62
    7
 10
1031.591361355062
 20
1178.4902281051209
 11
1032.1348779749096
 21
1177.6644768831188
  0
LINE
  8
_0-2_02___PRT_ALL_AXES
  6
CONTINUOUS
 62
    7
 10
1032.1348779749096
 20
1177.6644768831188
 11
1032.6137429645987
 21
1176.826049623477
  0
LINE
  8
_0-2_02___PRT_ALL_AXES
  6
CONTINUOUS
 62
    7
 10
1037.7615199402976
 20
1105.851626729072
 11
1037.2031329315978
 21
1106.6491727230032
  0
LINE
  8
_0-2_02___PRT_ALL_AXES
  6
CONTINUOUS
 62
    7
 10
1037.2031329315978
 20
1106.6491727230032
 11
1036.627732682603
 21
1107.31038343106
  0
LINE
  8
_0-2_02___PRT_ALL_AXES
  6
CONTINUOUS
 62
    7
 10
1036.627732682603
 20
1107.31038343106
 11
1036.0451643826668
 21
1107.8239453935189
  0
LINE
  8
_0-2_02___PRT_ALL_AXES
  6
CONTINUOUS
 62
    7
 10
1036.0451643826668
 20
1107.8239453935189
 11
1035.4653960166797
 21
1108.1810713231571
  0
LINE
  8
_0-2_02___PRT_ALL_AXES
  6
CONTINUOUS
 62
    7
 10
1035.4653960166797
 20
1108.1810713231571
 11
1034.8983476587787
 21
1108.375650680252
  0
LINE
  8
_0-2_02___PRT_ALL_AXES
  6
CONTINUOUS
 62
    7
 10
1034.8983476587787
 20
1108.375650680252
 11
1034.353721595126
 21
1108.4043542189829
  0
LINE
  8
_0-2_02___PRT_ALL_AXES
  6
CONTINUOUS
 62
    7
 10
1034.353721595126
 20
1108.4043542189829
 11
1033.8408364684979
 21
1108.2666908135889
  0
LINE
  8
_0-2_02___PRT_ALL_AXES
  6
CONTINUOUS
 62
    7
 10
1034.1242699244899
 20
1092.430879081669
 11
1034.6560895563016
 21
1091.5106439683709
  0
LINE
  8
_0-2_02___PRT_ALL_AXES
  6
CONTINUOUS
 62
    7
 10
1034.6560895563016
 20
1091.5106439683709
 11
1035.2144766015767
 21
1090.7130978875712
  0
LINE
  8
_0-2_02___PRT_ALL_AXES
  6
CONTINUOUS
 62
    7
 10
1035.2144766015767
 20
1090.7130978875712
 11
1035.7898768932437
 21
1090.0518871101731
  0
LINE
  8
_0-2_02___PRT_ALL_AXES
  6
CONTINUOUS
 62
    7
 10
1035.7898768932437
 20
1090.0518871101731
 11
1036.3724452358506
 21
1089.5383251004691
  0
LINE
  8
_0-2_02___PRT_ALL_AXES
  6
CONTINUOUS
 62
    7
 10
1036.3724452358506
 20
1089.5383251004691
 11
1036.9522136452738
 21
1089.1811991464469
  0
LINE
  8
_0-2_02___PRT_ALL_AXES
  6
CONTINUOUS
 62
    7
 10
1036.9522136452738
 20
1089.1811991464469
 11
1037.5192620450839
 21
1088.986619790116
  0
LINE
  8
_0-2_02___PRT_ALL_AXES
  6
CONTINUOUS
 62
    7
 10
1037.5192620450839
 20
1088.986619790116
 11
1038.0638881445507
 21
1088.9579162772911
  0
LINE
  8
_0-2_02___PRT_ALL_AXES
  6
CONTINUOUS
 62
    7
 10
1038.0638881445507
 20
1088.9579162772911
 11
1038.5767732292688
 21
1089.095579713166
  0
LINE
  8
_0-2_02___PRT_ALL_AXES
  6
CONTINUOUS
 62
    7
 10
857.42384285056187
 20
1095.9164211611169
 11
857.50406209042785
 21
1095.2224688225829
  0
LINE
  8
_0-2_02___PRT_ALL_AXES
  6
CONTINUOUS
 62
    7
 10
857.50406209042785
 20
1095.2224688225829
 11
857.63076295843666
 21
1094.5413217805112
  0
LINE
  8
_0-2_02___PRT_ALL_AXES
  6
CONTINUOUS
 62
    7
 10
857.63076295843666
 20
1094.5413217805112
 11
857.80833908258273
 21
1093.8596924922608
  0
LINE
  8
_0-2_02___PRT_ALL_AXES
  6
CONTINUOUS
 62
    7
 10
857.80833908258273
 20
1093.8596924922608
 11
858.0419177825579
 21
1093.1685686611509
  0
LINE
  8
_0-2_02___PRT_ALL_AXES
  6
CONTINUOUS
 62
    7
 10
858.0419177825579
 20
1093.1685686611509
 11
858.33534740296182
 21
1092.4638015187452
  0
LINE
  8
_0-2_02___PRT_ALL_AXES
  6
CONTINUOUS
 62
    7
 10
855.91331589067204
 20
1180.3115917029249
 11
855.99353513129972
 21
1179.6176393643909
  0
LINE
  8
_0-2_02___PRT_ALL_AXES
  6
CONTINUOUS
 62
    7
 10
855.99353513129972
 20
1179.6176393643909
 11
856.12023599854683
 21
1178.9364923215571
  0
LINE
  8
_0-2_02___PRT_ALL_AXES
  6
CONTINUOUS
 62
    7
 10
856.12023599854683
 20
1178.9364923215571
 11
856.29781212345461
 21
1178.2548630340689
  0
LINE
  8
_0-2_02___PRT_ALL_AXES
  6
CONTINUOUS
 62
    7
 10
856.29781212345461
 20
1178.2548630340689
 11
856.53139082342977
 21
1177.5637392029589
  0
LINE
  8
_0-2_02___PRT_ALL_AXES
  6
CONTINUOUS
 62
    7
 10
856.53139082342977
 20
1177.5637392029589
 11
856.82482044307062
 21
1176.8589720605528
  0
LINE
  8
_0-2_02___PRT_ALL_AXES
  6
CONTINUOUS
 62
    7
 10
856.66118002257599
 20
1186.001782202125
 11
856.36589083642184
 21
1184.7401280685931
  0
LINE
  8
_0-2_02___PRT_ALL_AXES
  6
CONTINUOUS
 62
    7
 10
856.36589083642184
 20
1184.7401280685931
 11
856.15760229008401
 21
1183.4702639847551
  0
LINE
  8
_0-2_02___PRT_ALL_AXES
  6
CONTINUOUS
 62
    7
 10
856.15760229008401
 20
1183.4702639847551
 11
856.03987827508672
 21
1182.2139177123372
  0
LINE
  8
_0-2_02___PRT_ALL_AXES
  6
CONTINUOUS
 62
    7
 10
856.03987827508672
 20
1182.2139177123372
 11
856.01473309195171
 21
1180.9925855548031
  0
LINE
  8
_0-2_02___PRT_ALL_AXES
  6
CONTINUOUS
 62
    7
 10
856.01473309195171
 20
1180.9925855548031
 11
856.08259700245162
 21
1179.8271650200149
  0
LINE
  8
_0-2_02___PRT_ALL_AXES
  6
CONTINUOUS
 62
    7
 10
856.08259700245162
 20
1179.8271650200149
 11
856.24230881002768
 21
1178.7375969248351
  0
LINE
  8
_0-2_02___PRT_ALL_AXES
  6
CONTINUOUS
 62
    7
 10
856.24230881002768
 20
1178.7375969248351
 11
856.49113579522782
 21
1177.742523941401
  0
LINE
  8
_0-2_02___PRT_ALL_AXES
  6
CONTINUOUS
 62
    7
 10
856.49113579522782
 20
1177.742523941401
 11
856.82482044307062
 21
1176.8589720605528
  0
LINE
  8
_0-2_02___PRT_ALL_AXES
  6
CONTINUOUS
 62
    7
 10
866.24000610923304
 20
1182.518830735225
 11
866.53529529691059
 21
1183.7804849830568
  0
LINE
  8
_0-2_02___PRT_ALL_AXES
  6
CONTINUOUS
 62
    7
 10
866.53529529691059
 20
1183.7804849830568
 11
866.74358380819785
 21
1185.050348970884
  0
LINE
  8
_0-2_02___PRT_ALL_AXES
  6
CONTINUOUS
 62
    7
 10
866.74358380819785
 20
1185.050348970884
 11
866.86130780185795
 21
1186.3066951457649
  0
LINE
  8
_0-2_02___PRT_ALL_AXES
  6
CONTINUOUS
 62
    7
 10
866.86130780185795
 20
1186.3066951457649
 11
866.88645297813491
 21
1187.5280272095729
  0
LINE
  8
_0-2_02___PRT_ALL_AXES
  6
CONTINUOUS
 62
    7
 10
866.88645297813491
 20
1187.5280272095729
 11
866.8185890737318
 21
1188.6934476574929
  0
LINE
  8
_0-2_02___PRT_ALL_AXES
  6
CONTINUOUS
 62
    7
 10
866.8185890737318
 20
1188.6934476574929
 11
866.65887728749067
 21
1189.78301567876
  0
LINE
  8
_0-2_02___PRT_ALL_AXES
  6
CONTINUOUS
 62
    7
 10
866.65887728749067
 20
1189.78301567876
 11
866.4100503350578
 21
1190.778088604281
  0
LINE
  8
_0-2_02___PRT_ALL_AXES
  6
CONTINUOUS
 62
    7
 10
866.4100503350578
 20
1190.778088604281
 11
866.07636568568887
 21
1191.66164057276
  0
LINE
  8
_0-2_02___PRT_ALL_AXES
  6
CONTINUOUS
 62
    7
 10
858.17170698246582
 20
1101.606611660317
 11
857.87641779631076
 21
1100.344957526785
  0
LINE
  8
_0-2_02___PRT_ALL_AXES
  6
CONTINUOUS
 62
    7
 10
857.87641779631076
 20
1100.344957526785
 11
857.66812924997384
 21
1099.075093442947
  0
LINE
  8
_0-2_02___PRT_ALL_AXES
  6
CONTINUOUS
 62
    7
 10
857.66812924997384
 20
1099.075093442947
 11
857.55040523497701
 21
1097.8187471705292
  0
LINE
  8
_0-2_02___PRT_ALL_AXES
  6
CONTINUOUS
 62
    7
 10
857.55040523497701
 20
1097.8187471705292
 11
857.525260051842
 21
1096.597415012995
  0
LINE
  8
_0-2_02___PRT_ALL_AXES
  6
CONTINUOUS
 62
    7
 10
857.525260051842
 20
1096.597415012995
 11
857.59312396234191
 21
1095.4319944782069
  0
LINE
  8
_0-2_02___PRT_ALL_AXES
  6
CONTINUOUS
 62
    7
 10
857.59312396234191
 20
1095.4319944782069
 11
857.75283576991797
 21
1094.342426383027
  0
LINE
  8
_0-2_02___PRT_ALL_AXES
  6
CONTINUOUS
 62
    7
 10
857.75283576991797
 20
1094.342426383027
 11
858.00166275511765
 21
1093.347353399593
  0
LINE
  8
_0-2_02___PRT_ALL_AXES
  6
CONTINUOUS
 62
    7
 10
858.00166275511765
 20
1093.347353399593
 11
858.33534740296182
 21
1092.4638015187452
  0
LINE
  8
_0-2_02___PRT_ALL_AXES
  6
CONTINUOUS
 62
    7
 10
867.75053306836162
 20
1098.123660193417
 11
868.04582225603872
 21
1099.3853144420109
  0
LINE
  8
_0-2_02___PRT_ALL_AXES
  6
CONTINUOUS
 62
    7
 10
868.04582225603872
 20
1099.3853144420109
 11
868.25411076808678
 21
1100.6551784298372
  0
LINE
  8
_0-2_02___PRT_ALL_AXES
  6
CONTINUOUS
 62
    7
 10
868.25411076808678
 20
1100.6551784298372
 11
868.37183476174687
 21
1101.9115246039569
  0
LINE
  8
_0-2_02___PRT_ALL_AXES
  6
CONTINUOUS
 62
    7
 10
868.37183476174687
 20
1101.9115246039569
 11
868.39697993802474
 21
1103.1328566677648
  0
LINE
  8
_0-2_02___PRT_ALL_AXES
  6
CONTINUOUS
 62
    7
 10
868.39697993802474
 20
1103.1328566677648
 11
868.32911603362072
 21
1104.2982771156849
  0
LINE
  8
_0-2_02___PRT_ALL_AXES
  6
CONTINUOUS
 62
    7
 10
868.32911603362072
 20
1104.2982771156849
 11
868.1694042466188
 21
1105.387845136951
  0
LINE
  8
_0-2_02___PRT_ALL_AXES
  6
CONTINUOUS
 62
    7
 10
868.1694042466188
 20
1105.387845136951
 11
867.92057729494672
 21
1106.382918062473
  0
LINE
  8
_0-2_02___PRT_ALL_AXES
  6
CONTINUOUS
 62
    7
 10
867.92057729494672
 20
1106.382918062473
 11
867.58689264481791
 21
1107.266470030951
  0
LINE
  8
_0-2_02___PRT_ALL_AXES
  6
CONTINUOUS
 62
    7
 10
856.66118002257599
 20
1186.0017822028872
 11
856.39982651251785
 21
1184.9120594369469
  0
LINE
  8
_0-2_02___PRT_ALL_AXES
  6
CONTINUOUS
 62
    7
 10
856.39982651251785
 20
1184.9120594369469
 11
856.19838515568472
 21
1183.8071963741349
  0
LINE
  8
_0-2_02___PRT_ALL_AXES
  6
CONTINUOUS
 62
    7
 10
856.19838515568472
 20
1183.8071963741349
 11
856.05316412532602
 21
1182.6822764639592
  0
LINE
  8
_0-2_02___PRT_ALL_AXES
  6
CONTINUOUS
 62
    7
 10
856.05316412532602
 20
1182.6822764639592
 11
855.95941173574192
 21
1181.5243645087689
  0
LINE
  8
_0-2_02___PRT_ALL_AXES
  6
CONTINUOUS
 62
    7
 10
855.95941173574192
 20
1181.5243645087689
 11
855.91331589067204
 21
1180.3115917029249
  0
LINE
  8
_0-2_02___PRT_ALL_AXES
  6
CONTINUOUS
 62
    7
 10
858.17170698246582
 20
1101.60661166108
 11
857.91035347240677
 21
1100.5168888951389
  0
LINE
  8
_0-2_02___PRT_ALL_AXES
  6
CONTINUOUS
 62
    7
 10
857.91035347240677
 20
1100.5168888951389
 11
857.70891211557591
 21
1099.412025833089
  0
LINE
  8
_0-2_02___PRT_ALL_AXES
  6
CONTINUOUS
 62
    7
 10
857.70891211557591
 20
1099.412025833089
 11
857.56369108521585
 21
1098.287105922152
  0
LINE
  8
_0-2_02___PRT_ALL_AXES
  6
CONTINUOUS
 62
    7
 10
857.56369108521585
 20
1098.287105922152
 11
857.46993869563175
 21
1097.1291939669609
  0
LINE
  8
_0-2_02___PRT_ALL_AXES
  6
CONTINUOUS
 62
    7
 10
857.46993869563175
 20
1097.1291939669609
 11
857.42384285056187
 21
1095.9164211611169
  0
LINE
  8
_0-3_7_ALL_FEATURES
  6
CONTINUOUS
 62
    7
 10
874.47852601874865
 20
1186.431597943711
 11
871.503771238019
 21
1175.4021683097012
  0
LINE
  8
_0-3_7_ALL_FEATURES
  6
CONTINUOUS
 62
    7
 10
875.98905297863894
 20
1102.036427401903
 11
873.01429819714804
 21
1091.0069977678932
  0
LINE
  8
_0-2_02___PRT_ALL_AXES
  6
CONTINUOUS
 62
    7
 10
866.24000598731391
 20
1182.5188303336508
 11
866.56255577756883
 21
1183.594032333865
  0
LINE
  8
_0-2_02___PRT_ALL_AXES
  6
CONTINUOUS
 62
    7
 10
866.56255577756883
 20
1183.594032333865
 11
866.94548611559276
 21
1184.6558307152168
  0
LINE
  8
_0-2_02___PRT_ALL_AXES
  6
CONTINUOUS
 62
    7
 10
866.94548611559276
 20
1184.6558307152168
 11
867.38804192644193
 21
1185.7101974302032
  0
LINE
  8
_0-2_02___PRT_ALL_AXES
  6
CONTINUOUS
 62
    7
 10
867.38804192644193
 20
1185.7101974302032
 11
867.89260097243869
 21
1186.770630973544
  0
LINE
  8
_0-2_02___PRT_ALL_AXES
  6
CONTINUOUS
 62
    7
 10
867.89260097243869
 20
1186.770630973544
 11
868.46689669709986
 21
1187.858069671915
  0
LINE
  8
_0-2_02___PRT_ALL_AXES
  6
CONTINUOUS
 62
    7
 10
867.75053294720283
 20
1098.1236597918428
 11
868.07308273745866
 21
1099.19886179282
  0
LINE
  8
_0-2_02___PRT_ALL_AXES
  6
CONTINUOUS
 62
    7
 10
868.07308273745866
 20
1099.19886179282
 11
868.45601307548395
 21
1100.2606601734092
  0
LINE
  8
_0-2_02___PRT_ALL_AXES
  6
CONTINUOUS
 62
    7
 10
868.45601307548395
 20
1100.2606601734092
 11
868.89856888633085
 21
1101.315026888396
  0
LINE
  8
_0-2_02___PRT_ALL_AXES
  6
CONTINUOUS
 62
    7
 10
868.89856888633085
 20
1101.315026888396
 11
869.40312793232897
 21
1102.375460431736
  0
LINE
  8
_0-2_02___PRT_ALL_AXES
  6
CONTINUOUS
 62
    7
 10
869.40312793232897
 20
1102.375460431736
 11
869.97742365698878
 21
1103.462899130107
  0
LINE
  8
_0-4_EL-M10011N_______9
  6
CONTINUOUS
 62
    7
 10
1119.0901383607138
 20
1566.2729567126112
 11
1118.915012997732
 21
1566.14438268401
  0
LINE
  8
_0-4_EL-M10011N_______9
  6
CONTINUOUS
 62
    7
 10
1118.915012997732
 20
1566.14438268401
 11
1118.8088733898439
 21
1566.007072333789
  0
LINE
  8
_0-4_EL-M10011N_______9
  6
CONTINUOUS
 62
    7
 10
1118.8088733898439
 20
1566.007072333789
 11
1118.77718189595
 21
1565.8609211071689
  0
LINE
  8
_0-5_EL-M10011N_______8
  6
CONTINUOUS
 62
    7
 10
1383.8936758841519
 20
1461.8013854745609
 11
1648.6963256333929
 21
1531.5084444398949
  0
LINE
  8
_0-5_EL-M10011N_______8
  6
CONTINUOUS
 62
    7
 10
1129.8042693195057
 20
1420.086347850955
 11
1696.8893284747801
 21
1569.366695665075
  0
LINE
  8
_0-5_EL-M10011N_______8
  6
CONTINUOUS
 62
    7
 10
1695.9516745200171
 20
1571.6501818567931
 11
1128.8666153647437
 21
1422.369834041911
  0
LINE
  8
_0-5_EL-M10011N_______8
  6
CONTINUOUS
 62
    7
 10
1648.6963256333929
 20
1531.5084444398949
 11
1649.8040389335838
 21
1531.7570991536591
  0
LINE
  8
_0-5_EL-M10011N_______8
  6
CONTINUOUS
 62
    7
 10
1649.8040389335838
 20
1531.7570991536591
 11
1650.9668105186274
 21
1531.9357630213749
  0
LINE
  8
_0-5_EL-M10011N_______8
  6
CONTINUOUS
 62
    7
 10
1650.9668105186274
 20
1531.9357630213749
 11
1652.1562879435796
 21
1532.0404851454332
  0
LINE
  8
_0-5_EL-M10011N_______8
  6
CONTINUOUS
 62
    7
 10
1652.1562879435796
 20
1532.0404851454332
 11
1653.3437339184411
 21
1532.0690181074169
  0
LINE
  8
_0-5_EL-M10011N_______8
  6
CONTINUOUS
 62
    7
 10
1653.3437339184411
 20
1532.0690181074169
 11
1654.500605684957
 21
1532.0208456965229
  0
LINE
  8
_0-5_EL-M10011N_______8
  6
CONTINUOUS
 62
    7
 10
1654.500605684957
 20
1532.0208456965229
 11
1655.5991239037157
 21
1531.8971826542888
  0
LINE
  8
_0-5_EL-M10011N_______8
  6
CONTINUOUS
 62
    7
 10
1655.5991239037157
 20
1531.8971826542888
 11
1656.6128257648015
 21
1531.700946882931
  0
LINE
  8
_0-5_EL-M10011N_______8
  6
CONTINUOUS
 62
    7
 10
1656.6128257648015
 20
1531.700946882931
 11
1657.5170971396428
 21
1531.436704553149
  0
LINE
  8
_0-5_EL-M10011N_______8
  6
CONTINUOUS
 62
    7
 10
1657.5170971396428
 20
1531.436704553149
 11
1658.289678570347
 21
1531.1105884642088
  0
LINE
  8
_0-5_EL-M10011N_______8
  6
CONTINUOUS
 62
    7
 10
1658.289678570347
 20
1531.1105884642088
 11
1658.9111397076604
 21
1530.730190027396
  0
LINE
  8
_0-5_EL-M10011N_______8
  6
CONTINUOUS
 62
    7
 10
1179.491725672613
 20
1403.486765778151
 11
1178.7089554553268
 21
1403.3160605508551
  0
LINE
  8
_0-5_EL-M10011N_______8
  6
CONTINUOUS
 62
    7
 10
1178.7089554553268
 20
1403.3160605508551
 11
1177.8818853454377
 21
1403.2033723629729
  0
LINE
  8
_0-5_EL-M10011N_______8
  6
CONTINUOUS
 62
    7
 10
1177.8818853454377
 20
1403.2033723629729
 11
1177.0400762543568
 21
1403.1528008042228
  0
LINE
  8
_0-5_EL-M10011N_______8
  6
CONTINUOUS
 62
    7
 10
1177.0400762543568
 20
1403.1528008042228
 11
1176.2163471738527
 21
1403.165741028788
  0
LINE
  8
_0-5_EL-M10011N_______8
  6
CONTINUOUS
 62
    7
 10
1176.2163471738527
 20
1403.165741028788
 11
1175.4277148707547
 21
1403.242141014925
  0
LINE
  8
_0-5_EL-M10011N_______8
  6
CONTINUOUS
 62
    7
 10
1175.4277148707547
 20
1403.242141014925
 11
1174.7065254662998
 21
1403.379845902838
  0
LINE
  8
_0-5_EL-M10011N_______8
  6
CONTINUOUS
 62
    7
 10
1174.7065254662998
 20
1403.379845902838
 11
1174.0797065926859
 21
1403.5737871923729
  0
LINE
  8
_0-5_EL-M10011N_______8
  6
CONTINUOUS
 62
    7
 10
1174.0797065926859
 20
1403.5737871923729
 11
1173.5687543011559
 21
1403.816898972595
  0
LINE
  8
_0-5_EL-M10011N_______8
  6
CONTINUOUS
 62
    7
 10
1173.5687543011559
 20
1403.816898972595
 11
1173.1901971344719
 21
1404.1007335720569
  0
LINE
  8
_0-5_EL-M10011N_______8
  6
CONTINUOUS
 62
    7
 10
1173.1901971344719
 20
1404.1007335720569
 11
1172.956079322546
 21
1404.4157297698512
  0
LINE
  8
_0-5_EL-M10011N_______8
  6
CONTINUOUS
 62
    7
 10
1172.956079322546
 20
1404.4157297698512
 11
1172.8756997784526
 21
1404.709839516403
  0
LINE
  8
_0-5_EL-M10011N_______8
  6
CONTINUOUS
 62
    7
 10
1175.3817226226338
 20
1406.5655036564772
 11
1176.1644928399187
 21
1406.7362088830109
  0
LINE
  8
_0-5_EL-M10011N_______8
  6
CONTINUOUS
 62
    7
 10
1176.1644928399187
 20
1406.7362088830109
 11
1176.9915629505708
 21
1406.8488970708931
  0
LINE
  8
_0-5_EL-M10011N_______8
  6
CONTINUOUS
 62
    7
 10
1176.9915629505708
 20
1406.8488970708931
 11
1177.8333720416508
 21
1406.8994686296428
  0
LINE
  8
_0-5_EL-M10011N_______8
  6
CONTINUOUS
 62
    7
 10
1177.8333720416508
 20
1406.8994686296428
 11
1178.6571011221549
 21
1406.8865284050789
  0
LINE
  8
_0-5_EL-M10011N_______8
  6
CONTINUOUS
 62
    7
 10
1178.6571011221549
 20
1406.8865284050789
 11
1179.4457334244917
 21
1406.8101284197032
  0
LINE
  8
_0-5_EL-M10011N_______8
  6
CONTINUOUS
 62
    7
 10
1179.4457334244917
 20
1406.8101284197032
 11
1180.1669228297096
 21
1406.6724235310289
  0
LINE
  8
_0-5_EL-M10011N_______8
  6
CONTINUOUS
 62
    7
 10
1180.1669228297096
 20
1406.6724235310289
 11
1180.793741703324
 21
1406.478482241494
  0
LINE
  8
_0-5_EL-M10011N_______8
  6
CONTINUOUS
 62
    7
 10
1180.793741703324
 20
1406.478482241494
 11
1181.3046939940918
 21
1406.235370461271
  0
LINE
  8
_0-5_EL-M10011N_______8
  6
CONTINUOUS
 62
    7
 10
1181.3046939940918
 20
1406.235370461271
 11
1181.6832511607759
 21
1405.9515358618091
  0
LINE
  8
_0-5_EL-M10011N_______8
  6
CONTINUOUS
 62
    7
 10
1181.6832511607759
 20
1405.9515358618091
 11
1181.9173689734639
 21
1405.6365396640149
  0
LINE
  8
_0-5_EL-M10011N_______8
  6
CONTINUOUS
 62
    7
 10
1181.9173689734639
 20
1405.6365396640149
 11
1181.9977485167929
 21
1405.3424299182252
  0
LINE
  8
_0-2_02___PRT_ALL_AXES
  6
CONTINUOUS
 62
    7
 10
1191.212182494035
 20
1373.3827664935088
 11
1017.9095865149579
 21
1337.1921580320968
  0
LINE
  8
_0-2_02___PRT_ALL_AXES
  6
CONTINUOUS
 62
    7
 10
682.92411545142568
 20
1267.237475848015
 11
865.24906060700278
 21
1305.3122124992528
  0
LINE
  8
_0-5_EL-M10011N_______8
  6
CONTINUOUS
 62
    7
 10
574.91375254903778
 20
1278.9255262259949
 11
575.62813002629991
 21
1279.0674688603208
  0
LINE
  8
_0-5_EL-M10011N_______8
  6
CONTINUOUS
 62
    7
 10
575.62813002629991
 20
1279.0674688603208
 11
576.24909932385481
 21
1279.2571732995548
  0
LINE
  8
_0-5_EL-M10011N_______8
  6
CONTINUOUS
 62
    7
 10
576.24909932385481
 20
1279.2571732995548
 11
576.74330067073197
 21
1279.4828673515949
  0
LINE
  8
_0-2_02___PRT_ALL_AXES
  6
CONTINUOUS
 62
    7
 10
1017.9095834585746
 20
1337.1921726663072
 11
1017.866295465396
 21
1337.1836803149909
  0
LINE
  8
_0-2_02___PRT_ALL_AXES
  6
CONTINUOUS
 62
    7
 10
1017.866295465396
 20
1337.1836803149909
 11
1017.5676452275429
 21
1337.152639137043
  0
LINE
  8
_0-2_02___PRT_ALL_AXES
  6
CONTINUOUS
 62
    7
 10
1017.5676452275429
 20
1337.152639137043
 11
1017.243623157276
 21
1337.1634131038109
  0
LINE
  8
_0-2_02___PRT_ALL_AXES
  6
CONTINUOUS
 62
    7
 10
1017.243623157276
 20
1337.1634131038109
 11
1016.8943428939378
 21
1337.2149356164632
  0
LINE
  8
_0-2_02___PRT_ALL_AXES
  6
CONTINUOUS
 62
    7
 10
1016.8943428939378
 20
1337.2149356164632
 11
1016.5202252200247
 21
1337.30616081476
  0
LINE
  8
_0-2_02___PRT_ALL_AXES
  6
CONTINUOUS
 62
    7
 10
1016.5202252200247
 20
1337.30616081476
 11
1016.1213458912939
 21
1337.4361788737469
  0
LINE
  8
_0-2_02___PRT_ALL_AXES
  6
CONTINUOUS
 62
    7
 10
1016.1213458912939
 20
1337.4361788737469
 11
1015.6980582997198
 21
1337.6040883527612
  0
LINE
  8
_0-2_02___PRT_ALL_AXES
  6
CONTINUOUS
 62
    7
 10
1015.6980582997198
 20
1337.6040883527612
 11
1015.2507676616628
 21
1337.8090109500272
  0
LINE
  8
_0-2_02___PRT_ALL_AXES
  6
CONTINUOUS
 62
    7
 10
1015.2507676616628
 20
1337.8090109500272
 11
1014.7794751414608
 21
1338.0503302578372
  0
LINE
  8
_0-2_02___PRT_ALL_AXES
  6
CONTINUOUS
 62
    7
 10
1014.7794751414608
 20
1338.0503302578372
 11
1014.2845896831777
 21
1338.3273166215672
  0
LINE
  8
_0-2_02___PRT_ALL_AXES
  6
CONTINUOUS
 62
    7
 10
1014.2845896831777
 20
1338.3273166215672
 11
1013.766091819236
 21
1338.6395489150591
  0
LINE
  8
_0-2_02___PRT_ALL_AXES
  6
CONTINUOUS
 62
    7
 10
1013.766091819236
 20
1338.6395489150591
 11
1013.2242140388839
 21
1338.986548845392
  0
LINE
  8
_0-2_02___PRT_ALL_AXES
  6
CONTINUOUS
 62
    7
 10
1013.2242140388839
 20
1338.986548845392
 11
1012.659295605858
 21
1339.367827960657
  0
LINE
  8
_0-2_02___PRT_ALL_AXES
  6
CONTINUOUS
 62
    7
 10
1012.659295605858
 20
1339.367827960657
 11
1012.071172401359
 21
1339.783310212496
  0
LINE
  8
_0-2_02___PRT_ALL_AXES
  6
CONTINUOUS
 62
    7
 10
1012.071172401359
 20
1339.783310212496
 11
1011.460272960474
 21
1340.2325825534708
  0
LINE
  8
_0-5_EL-M10011N_______8
  6
CONTINUOUS
 62
    7
 10
95.829686252741908
 20
1207.224851221993
 11
361.14619267556282
 21
1248.222047495407
  0
LINE
  8
_0-7__Z_P___M8_30
  6
CONTINUOUS
 62
    7
 10
640.77649639885203
 20
1297.4060266078209
 11
634.24023063879486
 21
1296.3960307581192
  0
LINE
  8
_0-8_EL-M10011N_______3
  6
CONTINUOUS
 62
    7
 10
618.2978922578518
 20
1295.9148296958861
 11
614.21609985071382
 21
1295.2841035986912
  0
LINE
  8
_0-0_0
  6
CONTINUOUS
 62
    7
 10
618.2978922578518
 20
1295.9148296958861
 11
624.42058086741463
 21
1296.860918840533
  0
LINE
  8
_0-7__Z_P___M8_30
  6
CONTINUOUS
 62
    7
 10
629.09892267657597
 20
1300.2473027339952
 11
635.63518817221802
 21
1301.25729854255
  0
LINE
  8
_0-7__Z_P___M8_30
  6
CONTINUOUS
 62
    7
 10
626.82789199969784
 20
1311.3999150301988
 11
633.36415749610069
 21
1312.4099108387531
  0
LINE
  8
_0-5_EL-M10011N_______8
  6
CONTINUOUS
 62
    7
 10
-2.2361252332262893
 20
1214.5403058260049
 11
565.94937775214385
 21
1302.3373784598548
  0
LINE
  8
_0-5_EL-M10011N_______8
  6
CONTINUOUS
 62
    7
 10
565.18269221414266
 20
1304.6565678156248
 11
-3.002810771989175
 21
1216.8594951810128
  0
LINE
  8
_0-7__Z_P___M8_30
  6
CONTINUOUS
 62
    7
 10
629.69816928656383
 20
1318.7012553505269
 11
636.23454502684081
 21
1319.711268194354
  0
LINE
  8
_0-5_EL-M10011N_______8
  6
CONTINUOUS
 62
    7
 10
361.14619267556282
 20
1248.222047495407
 11
362.25597320860061
 21
1248.3552031229228
  0
LINE
  8
_0-5_EL-M10011N_______8
  6
CONTINUOUS
 62
    7
 10
362.25597320860061
 20
1248.3552031229228
 11
363.42075692093886
 21
1248.421446760819
  0
LINE
  8
_0-5_EL-M10011N_______8
  6
CONTINUOUS
 62
    7
 10
363.42075692093886
 20
1248.421446760819
 11
364.61214308045282
 21
1248.4195252772352
  0
LINE
  8
_0-5_EL-M10011N_______8
  6
CONTINUOUS
 62
    7
 10
364.61214308045282
 20
1248.4195252772352
 11
365.80134882725861
 21
1248.3497374500848
  0
LINE
  8
_0-5_EL-M10011N_______8
  6
CONTINUOUS
 62
    7
 10
365.80134882725861
 20
1248.3497374500848
 11
366.95978942604455
 21
1248.2139122470089
  0
LINE
  8
_0-5_EL-M10011N_______8
  6
CONTINUOUS
 62
    7
 10
366.95978942604455
 20
1248.2139122470089
 11
368.05964797841898
 21
1248.015362956784
  0
LINE
  8
_0-5_EL-M10011N_______8
  6
CONTINUOUS
 62
    7
 10
368.05964797841898
 20
1248.015362956784
 11
369.07442926965587
 21
1247.7588180004809
  0
LINE
  8
_0-5_EL-M10011N_______8
  6
CONTINUOUS
 62
    7
 10
369.07442926965587
 20
1247.7588180004809
 11
369.97949257890554
 21
1247.4503292232512
  0
LINE
  8
_0-5_EL-M10011N_______8
  6
CONTINUOUS
 62
    7
 10
369.97949257890554
 20
1247.4503292232512
 11
370.75255824232187
 21
1247.0971584066069
  0
LINE
  8
_0-5_EL-M10011N_______8
  6
CONTINUOUS
 62
    7
 10
370.75255824232187
 20
1247.0971584066069
 11
371.37418256193587
 21
1246.7076427579032
  0
LINE
  8
_0-5_EL-M10011N_______8
  6
CONTINUOUS
 62
    7
 10
574.85843747704166
 20
1277.2220844461949
 11
574.07421603989997
 21
1277.1324608095929
  0
LINE
  8
_0-5_EL-M10011N_______8
  6
CONTINUOUS
 62
    7
 10
574.07421603989997
 20
1277.1324608095929
 11
573.2457423122928
 21
1277.0981946373331
  0
LINE
  8
_0-5_EL-M10011N_______8
  6
CONTINUOUS
 62
    7
 10
573.2457423122928
 20
1277.0981946373331
 11
572.40262751059163
 21
1277.120574877561
  0
LINE
  8
_0-5_EL-M10011N_______8
  6
CONTINUOUS
 62
    7
 10
572.40262751059163
 20
1277.120574877561
 11
571.57774042706978
 21
1277.1982143024188
  0
LINE
  8
_0-5_EL-M10011N_______8
  6
CONTINUOUS
 62
    7
 10
571.57774042706978
 20
1277.1982143024188
 11
570.78812216302686
 21
1277.329701263473
  0
LINE
  8
_0-5_EL-M10011N_______8
  6
CONTINUOUS
 62
    7
 10
570.78812216302686
 20
1277.329701263473
 11
570.06616115508587
 21
1277.5105166618109
  0
LINE
  8
_0-5_EL-M10011N_______8
  6
CONTINUOUS
 62
    7
 10
570.06616115508587
 20
1277.5105166618109
 11
569.43881398610984
 21
1277.733974515123
  0
LINE
  8
_0-5_EL-M10011N_______8
  6
CONTINUOUS
 62
    7
 10
569.43881398610984
 20
1277.733974515123
 11
568.92759402912588
 21
1277.9920411130352
  0
LINE
  8
_0-5_EL-M10011N_______8
  6
CONTINUOUS
 62
    7
 10
568.92759402912588
 20
1277.9920411130352
 11
568.549037367648
 21
1278.2758474979232
  0
LINE
  8
_0-5_EL-M10011N_______8
  6
CONTINUOUS
 62
    7
 10
568.549037367648
 20
1278.2758474979232
 11
568.31518719755377
 21
1278.575890181809
  0
LINE
  8
_0-5_EL-M10011N_______8
  6
CONTINUOUS
 62
    7
 10
568.31518719755377
 20
1278.575890181809
 11
568.23386920093162
 21
1278.9098387948352
  0
LINE
  8
_0-5_EL-M10011N_______8
  6
CONTINUOUS
 62
    7
 10
570.74843442706197
 20
1280.3008223237589
 11
571.53265586420275
 21
1280.3904459603609
  0
LINE
  8
_0-5_EL-M10011N_______8
  6
CONTINUOUS
 62
    7
 10
571.53265586420275
 20
1280.3904459603609
 11
572.36112959180991
 21
1280.4247121326212
  0
LINE
  8
_0-5_EL-M10011N_______8
  6
CONTINUOUS
 62
    7
 10
572.36112959180991
 20
1280.4247121326212
 11
573.20424439427279
 21
1280.4023318923928
  0
LINE
  8
_0-5_EL-M10011N_______8
  6
CONTINUOUS
 62
    7
 10
573.20424439427279
 20
1280.4023318923928
 11
574.02913147779464
 21
1280.324692467535
  0
LINE
  8
_0-5_EL-M10011N_______8
  6
CONTINUOUS
 62
    7
 10
574.02913147779464
 20
1280.324692467535
 11
574.81874974183802
 21
1280.1932055064808
  0
LINE
  8
_0-5_EL-M10011N_______8
  6
CONTINUOUS
 62
    7
 10
574.81874974183802
 20
1280.1932055064808
 11
575.54071074901685
 21
1280.0123901081429
  0
LINE
  8
_0-5_EL-M10011N_______8
  6
CONTINUOUS
 62
    7
 10
575.54071074901685
 20
1280.0123901081429
 11
576.16805791799379
 21
1279.7889322548308
  0
LINE
  8
_0-5_EL-M10011N_______8
  6
CONTINUOUS
 62
    7
 10
576.16805791799379
 20
1279.7889322548308
 11
576.67927787497683
 21
1279.5308656569191
  0
LINE
  8
_0-5_EL-M10011N_______8
  6
CONTINUOUS
 62
    7
 10
576.67927787497683
 20
1279.5308656569191
 11
577.05783453645563
 21
1279.247059272031
  0
LINE
  8
_0-5_EL-M10011N_______8
  6
CONTINUOUS
 62
    7
 10
577.05783453645563
 20
1279.247059272031
 11
577.29168470654895
 21
1278.9470165881448
  0
LINE
  8
_0-5_EL-M10011N_______8
  6
CONTINUOUS
 62
    7
 10
577.29168470654895
 20
1278.9470165881448
 11
577.37300270317201
 21
1278.61306797512
  0
LINE
  8
_0-2_02___PRT_ALL_AXES
  6
CONTINUOUS
 62
    7
 10
1036.2509929804078
 20
1190.2467972708791
 11
1035.6926059724688
 21
1191.04434326405
  0
LINE
  8
_0-2_02___PRT_ALL_AXES
  6
CONTINUOUS
 62
    7
 10
1035.6926059724688
 20
1191.04434326405
 11
1035.1172057227127
 21
1191.705553972105
  0
LINE
  8
_0-2_02___PRT_ALL_AXES
  6
CONTINUOUS
 62
    7
 10
1035.1172057227127
 20
1191.705553972105
 11
1034.5346374227779
 21
1192.219115935327
  0
LINE
  8
_0-2_02___PRT_ALL_AXES
  6
CONTINUOUS
 62
    7
 10
1034.5346374227779
 20
1192.219115935327
 11
1033.954869056789
 21
1192.5762418649661
  0
LINE
  8
_0-2_02___PRT_ALL_AXES
  6
CONTINUOUS
 62
    7
 10
1033.954869056789
 20
1192.5762418649661
 11
1033.3878206988888
 21
1192.770821221297
  0
LINE
  8
_0-2_02___PRT_ALL_AXES
  6
CONTINUOUS
 62
    7
 10
1033.3878206988888
 20
1192.770821221297
 11
1032.8431946352348
 21
1192.799524760791
  0
LINE
  8
_0-2_02___PRT_ALL_AXES
  6
CONTINUOUS
 62
    7
 10
1032.8431946352348
 20
1192.799524760791
 11
1032.330309508608
 21
1192.6618613553969
  0
LINE
  8
_0-2_02___PRT_ALL_AXES
  6
CONTINUOUS
 62
    7
 10
1038.0175184702098
 20
1105.429689563804
 11
1037.7615199402976
 21
1105.851626729072
  0
LINE
  8
_0-2_02___PRT_ALL_AXES
  6
CONTINUOUS
 62
    7
 10
1036.5069915103199
 20
1189.8248601056121
 11
1036.2509929804078
 21
1190.2467972708791
  0
LINE
  8
_0-2_02___PRT_ALL_AXES
  6
CONTINUOUS
 62
    7
 10
1038.009585480233
 20
1105.4431958705468
 11
1037.8143887065439
 21
1105.7699585469668
  0
LINE
  8
_0-2_02___PRT_ALL_AXES
  6
CONTINUOUS
 62
    7
 10
1037.8143887065439
 20
1105.7699585469668
 11
1037.2708090532929
 21
1106.5957823639469
  0
LINE
  8
_0-2_02___PRT_ALL_AXES
  6
CONTINUOUS
 62
    7
 10
1037.2708090532929
 20
1106.5957823639469
 11
1036.6627322897698
 21
1107.4136108623989
  0
LINE
  8
_0-2_02___PRT_ALL_AXES
  6
CONTINUOUS
 62
    7
 10
1036.6627322897698
 20
1107.4136108623989
 11
1035.9859780070087
 21
1108.234031169739
  0
LINE
  8
_0-2_02___PRT_ALL_AXES
  6
CONTINUOUS
 62
    7
 10
1035.9859780070087
 20
1108.234031169739
 11
1035.2296272746039
 21
1109.0733217921452
  0
LINE
  8
_0-2_02___PRT_ALL_AXES
  6
CONTINUOUS
 62
    7
 10
1036.4990585203427
 20
1189.8383664123548
 11
1036.3038617466536
 21
1190.1651290887748
  0
LINE
  8
_0-2_02___PRT_ALL_AXES
  6
CONTINUOUS
 62
    7
 10
1036.3038617466536
 20
1190.1651290887748
 11
1035.7602820934039
 21
1190.990952905755
  0
LINE
  8
_0-2_02___PRT_ALL_AXES
  6
CONTINUOUS
 62
    7
 10
1035.7602820934039
 20
1190.990952905755
 11
1035.15220532988
 21
1191.8087814042069
  0
LINE
  8
_0-2_02___PRT_ALL_AXES
  6
CONTINUOUS
 62
    7
 10
1035.15220532988
 20
1191.8087814042069
 11
1034.4754510471198
 21
1192.629201711547
  0
LINE
  8
_0-2_02___PRT_ALL_AXES
  6
CONTINUOUS
 62
    7
 10
1034.4754510471198
 20
1192.629201711547
 11
1033.7191003147136
 21
1193.4684923339528
  0
LINE
  8
_0-2_02___PRT_ALL_AXES
  6
CONTINUOUS
 62
    7
 10
1038.009696400763
 20
1105.4432232156792
 11
1038.0175300434648
 21
1105.429732723484
  0
LINE
  8
_0-2_02___PRT_ALL_AXES
  6
CONTINUOUS
 62
    7
 10
1036.4991694408736
 20
1189.8383937574872
 11
1036.507003083575
 21
1189.8249032652921
  0
LINE
  8
_0-2_02___PRT_ALL_AXES
  6
CONTINUOUS
 62
    7
 10
1032.6137429653618
 20
1176.826049623477
 11
1033.1455625964118
 21
1175.9058145094168
  0
LINE
  8
_0-2_02___PRT_ALL_AXES
  6
CONTINUOUS
 62
    7
 10
1033.1455625964118
 20
1175.9058145094168
 11
1033.70394964245
 21
1175.108268428618
  0
LINE
  8
_0-2_02___PRT_ALL_AXES
  6
CONTINUOUS
 62
    7
 10
1033.70394964245
 20
1175.108268428618
 11
1034.2793499333538
 21
1174.447057651982
  0
LINE
  8
_0-2_02___PRT_ALL_AXES
  6
CONTINUOUS
 62
    7
 10
1034.2793499333538
 20
1174.447057651982
 11
1034.8619182767238
 21
1173.9334956422772
  0
LINE
  8
_0-2_02___PRT_ALL_AXES
  6
CONTINUOUS
 62
    7
 10
1034.8619182767238
 20
1173.9334956422772
 11
1035.4416866861457
 21
1173.576369688255
  0
LINE
  8
_0-2_02___PRT_ALL_AXES
  6
CONTINUOUS
 62
    7
 10
1035.4416866861457
 20
1173.576369688255
 11
1036.0087350851927
 21
1173.3817903319232
  0
LINE
  8
_0-2_02___PRT_ALL_AXES
  6
CONTINUOUS
 62
    7
 10
1036.0087350851927
 20
1173.3817903319232
 11
1036.5533611846608
 21
1173.3530868191001
  0
LINE
  8
_0-2_02___PRT_ALL_AXES
  6
CONTINUOUS
 62
    7
 10
1036.5533611846608
 20
1173.3530868191001
 11
1037.066246269379
 21
1173.490750254974
  0
LINE
  8
_0-2_02___PRT_ALL_AXES
  6
CONTINUOUS
 62
    7
 10
1038.2933396262119
 20
1104.931391569291
 11
1038.0175184702098
 21
1105.429689563804
  0
LINE
  8
_0-2_02___PRT_ALL_AXES
  6
CONTINUOUS
 62
    7
 10
1036.7828126663217
 20
1189.3265621103369
 11
1036.5069915103199
 21
1189.8248601056121
  0
LINE
  8
_0-3_7_ALL_FEATURES
  6
CONTINUOUS
 62
    7
 10
1029.183690460482
 20
1086.617420390347
 11
1024.6367093154477
 21
1095.231323655014
  0
LINE
  8
_0-3_7_ALL_FEATURES
  6
CONTINUOUS
 62
    7
 10
1027.673163501353
 20
1171.012590932155
 11
1023.1261823555569
 21
1179.6264941968211
  0
LINE
  8
_0-2_02___PRT_ALL_AXES
  6
CONTINUOUS
 62
    7
 10
1034.1242699244899
 20
1092.4308790824321
 11
1034.5378284654166
 21
1091.5786560954921
  0
LINE
  8
_0-2_02___PRT_ALL_AXES
  6
CONTINUOUS
 62
    7
 10
1034.5378284654166
 20
1091.5786560954921
 11
1034.8874743957908
 21
1090.7123332921992
  0
LINE
  8
_0-2_02___PRT_ALL_AXES
  6
CONTINUOUS
 62
    7
 10
1034.8874743957908
 20
1090.7123332921992
 11
1035.177828061464
 21
1089.828154995535
  0
LINE
  8
_0-2_02___PRT_ALL_AXES
  6
CONTINUOUS
 62
    7
 10
1035.177828061464
 20
1089.828154995535
 11
1035.415606577777
 21
1088.9160638166732
  0
LINE
  8
_0-2_02___PRT_ALL_AXES
  6
CONTINUOUS
 62
    7
 10
1035.415606577777
 20
1088.9160638166732
 11
1035.6075386379048
 21
1087.958906205211
  0
LINE
  8
_0-2_02___PRT_ALL_AXES
  6
CONTINUOUS
 62
    7
 10
1032.6137429645987
 20
1176.826049623477
 11
1033.0273015055268
 21
1175.9738266372992
  0
LINE
  8
_0-2_02___PRT_ALL_AXES
  6
CONTINUOUS
 62
    7
 10
1033.0273015055268
 20
1175.9738266372992
 11
1033.3769474359019
 21
1175.1075038340068
  0
LINE
  8
_0-2_02___PRT_ALL_AXES
  6
CONTINUOUS
 62
    7
 10
1033.3769474359019
 20
1175.1075038340068
 11
1033.6673011015728
 21
1174.223325537343
  0
LINE
  8
_0-2_02___PRT_ALL_AXES
  6
CONTINUOUS
 62
    7
 10
1033.6673011015728
 20
1174.223325537343
 11
1033.9050796178867
 21
1173.3112343584812
  0
LINE
  8
_0-2_02___PRT_ALL_AXES
  6
CONTINUOUS
 62
    7
 10
1033.9050796178867
 20
1173.3112343584812
 11
1034.0970116780159
 21
1172.354076747019
  0
LINE
  8
_0-0_0
  6
CONTINUOUS
 62
    7
 10
1024.5829035307547
 20
1098.2133687762548
 11
1024.5701024565346
 21
1098.415792592642
  0
LINE
  8
_0-0_0
  6
CONTINUOUS
 62
    7
 10
1024.5701024565346
 20
1098.415792592642
 11
1024.5598538140907
 21
1098.6362028254289
  0
LINE
  8
_0-0_0
  6
CONTINUOUS
 62
    7
 10
1024.5598538140907
 20
1098.6362028254289
 11
1024.553634733566
 21
1098.853934668603
  0
LINE
  8
_0-0_0
  6
CONTINUOUS
 62
    7
 10
1024.553634733566
 20
1098.853934668603
 11
1024.5514543818167
 21
1099.068667149475
  0
LINE
  8
_0-0_0
  6
CONTINUOUS
 62
    7
 10
1024.5514543818167
 20
1099.068667149475
 11
1024.5533159737247
 21
1099.2800837164809
  0
LINE
  8
_0-0_0
  6
CONTINUOUS
 62
    7
 10
1024.5533159737247
 20
1099.2800837164809
 11
1024.5598178172108
 21
1099.5031986796989
  0
LINE
  8
_0-0_0
  6
CONTINUOUS
 62
    7
 10
1023.0723765708658
 20
1182.6085393180629
 11
1023.0595754966448
 21
1182.8109631344491
  0
LINE
  8
_0-0_0
  6
CONTINUOUS
 62
    7
 10
1023.0595754966448
 20
1182.8109631344491
 11
1023.0493268542018
 21
1183.0313733672369
  0
LINE
  8
_0-0_0
  6
CONTINUOUS
 62
    7
 10
1023.0493268542018
 20
1183.0313733672369
 11
1023.0431077736748
 21
1183.249105210411
  0
LINE
  8
_0-0_0
  6
CONTINUOUS
 62
    7
 10
1023.0431077736748
 20
1183.249105210411
 11
1023.0409274219278
 21
1183.463837691284
  0
LINE
  8
_0-0_0
  6
CONTINUOUS
 62
    7
 10
1023.0409274219278
 20
1183.463837691284
 11
1023.0427890138358
 21
1183.675254258289
  0
LINE
  8
_0-0_0
  6
CONTINUOUS
 62
    7
 10
1023.0427890138358
 20
1183.675254258289
 11
1023.0492908573219
 21
1183.898369221507
  0
LINE
  8
_0-2_02___PRT_ALL_AXES
  6
CONTINUOUS
 62
    7
 10
1031.7563015113378
 20
1102.0164346105448
 11
1031.8157497749648
 21
1100.7945612752769
  0
LINE
  8
_0-2_02___PRT_ALL_AXES
  6
CONTINUOUS
 62
    7
 10
1031.8157497749648
 20
1100.7945612752769
 11
1031.9503604696756
 21
1099.5365251901349
  0
LINE
  8
_0-2_02___PRT_ALL_AXES
  6
CONTINUOUS
 62
    7
 10
1031.9503604696756
 20
1099.5365251901349
 11
1032.1578318007319
 21
1098.2638467469269
  0
LINE
  8
_0-2_02___PRT_ALL_AXES
  6
CONTINUOUS
 62
    7
 10
1032.1578318007319
 20
1098.2638467469269
 11
1032.4346161018739
 21
1096.9982973059709
  0
LINE
  8
_0-2_02___PRT_ALL_AXES
  6
CONTINUOUS
 62
    7
 10
1032.4346161018739
 20
1096.9982973059709
 11
1032.7759803762178
 21
1095.7615272547509
  0
LINE
  8
_0-2_02___PRT_ALL_AXES
  6
CONTINUOUS
 62
    7
 10
1032.7759803762178
 20
1095.7615272547509
 11
1033.1760870850198
 21
1094.5746960942552
  0
LINE
  8
_0-2_02___PRT_ALL_AXES
  6
CONTINUOUS
 62
    7
 10
1033.1760870850198
 20
1094.5746960942552
 11
1033.6280937829847
 21
1093.4581108669272
  0
LINE
  8
_0-2_02___PRT_ALL_AXES
  6
CONTINUOUS
 62
    7
 10
1033.6280937829847
 20
1093.4581108669272
 11
1034.1242699244899
 21
1092.430879081669
  0
LINE
  8
_0-2_02___PRT_ALL_AXES
  6
CONTINUOUS
 62
    7
 10
1024.8755679248507
 20
1039.179782356237
 11
1023.9678114294707
 21
1089.8973572752152
  0
LINE
  8
_0-2_02___PRT_ALL_AXES
  6
CONTINUOUS
 62
    7
 10
1023.7457185490448
 20
1102.305984867613
 11
1022.4572844695808
 21
1174.2925278170228
  0
LINE
  8
_0-2_02___PRT_ALL_AXES
  6
CONTINUOUS
 62
    7
 10
1022.235191589155
 20
1186.701155409422
 11
1019.5355865807046
 21
1337.531714005765
  0
LINE
  8
_0-2_02___PRT_ALL_AXES
  6
CONTINUOUS
 62
    7
 10
1017.8560091725308
 20
1431.3719601712269
 11
1017.3229331261637
 21
1461.1556350645151
  0
LINE
  8
_0-2_02___PRT_ALL_AXES
  6
CONTINUOUS
 62
    7
 10
858.88807067216294
 20
1191.3410213369352
 11
858.31379674375194
 21
1190.2536260154129
  0
LINE
  8
_0-2_02___PRT_ALL_AXES
  6
CONTINUOUS
 62
    7
 10
858.31379674375194
 20
1190.2536260154129
 11
857.80911786563274
 21
1189.1929304278929
  0
LINE
  8
_0-2_02___PRT_ALL_AXES
  6
CONTINUOUS
 62
    7
 10
857.80911786563274
 20
1189.1929304278929
 11
857.36655322625302
 21
1188.138508811569
  0
LINE
  8
_0-2_02___PRT_ALL_AXES
  6
CONTINUOUS
 62
    7
 10
857.36655322625302
 20
1188.138508811569
 11
856.98367039588175
 21
1187.0768043924372
  0
LINE
  8
_0-2_02___PRT_ALL_AXES
  6
CONTINUOUS
 62
    7
 10
856.98367039588175
 20
1187.0768043924372
 11
856.66118002257599
 21
1186.0017822028872
  0
LINE
  8
_0-2_02___PRT_ALL_AXES
  6
CONTINUOUS
 62
    7
 10
860.39859763129198
 20
1106.9458507951272
 11
859.82432370364086
 21
1105.858455474367
  0
LINE
  8
_0-2_02___PRT_ALL_AXES
  6
CONTINUOUS
 62
    7
 10
859.82432370364086
 20
1105.858455474367
 11
859.31964482552394
 21
1104.7977598860848
  0
LINE
  8
_0-2_02___PRT_ALL_AXES
  6
CONTINUOUS
 62
    7
 10
859.31964482552394
 20
1104.7977598860848
 11
858.87708018614376
 21
1103.743338270524
  0
LINE
  8
_0-2_02___PRT_ALL_AXES
  6
CONTINUOUS
 62
    7
 10
858.87708018614376
 20
1103.743338270524
 11
858.49419735577067
 21
1102.6816338506292
  0
LINE
  8
_0-2_02___PRT_ALL_AXES
  6
CONTINUOUS
 62
    7
 10
858.49419735577067
 20
1102.6816338506292
 11
858.17170698246582
 21
1101.60661166108
  0
LINE
  8
_0-2_02___PRT_ALL_AXES
  6
CONTINUOUS
 62
    7
 10
859.21535151315584
 20
1173.05540105303
 11
859.60575420605892
 21
1173.5115088098491
  0
LINE
  8
_0-2_02___PRT_ALL_AXES
  6
CONTINUOUS
 62
    7
 10
859.60575420605892
 20
1173.5115088098491
 11
860.03168439458386
 21
1173.9398075001131
  0
LINE
  8
_0-2_02___PRT_ALL_AXES
  6
CONTINUOUS
 62
    7
 10
860.03168439458386
 20
1173.9398075001131
 11
860.50316335027765
 21
1174.3478750698032
  0
LINE
  8
_0-2_02___PRT_ALL_AXES
  6
CONTINUOUS
 62
    7
 10
860.50316335027765
 20
1174.3478750698032
 11
861.02890117662582
 21
1174.7399830341251
  0
LINE
  8
_0-2_02___PRT_ALL_AXES
  6
CONTINUOUS
 62
    7
 10
861.02890117662582
 20
1174.7399830341251
 11
861.61423333895391
 21
1175.1174961617489
  0
LINE
  8
_0-4_EL-M10011N_______9
  6
CONTINUOUS
 62
    7
 10
1684.8305498651807
 20
1735.9629589430529
 11
1684.7160709323416
 21
1735.895670101761
  0
LINE
  8
_0-4_EL-M10011N_______9
  6
CONTINUOUS
 62
    7
 10
1684.7160709323416
 20
1735.895670101761
 11
1684.6228674220256
 21
1735.7568584103728
  0
LINE
  8
_0-4_EL-M10011N_______9
  6
CONTINUOUS
 62
    7
 10
1684.6228674220256
 20
1735.7568584103728
 11
1684.5595320653329
 21
1735.5544794133029
  0
LINE
  8
_0-4_EL-M10011N_______9
  6
CONTINUOUS
 62
    7
 10
1684.5595320653329
 20
1735.5544794133029
 11
1684.5292407616789
 21
1735.2986812383369
  0
LINE
  8
_0-4_EL-M10011N_______9
  6
CONTINUOUS
 62
    7
 10
1684.5292407616789
 20
1735.2986812383369
 11
1684.5335124437643
 21
1735.0022906741469
  0
LINE
  8
_0-5_EL-M10011N_______8
  6
CONTINUOUS
 62
    7
 10
1128.8666153647437
 20
1422.369834041911
 11
1128.524614587227
 21
1422.258941935273
  0
LINE
  8
_0-5_EL-M10011N_______8
  6
CONTINUOUS
 62
    7
 10
1128.524614587227
 20
1422.258941935273
 11
1128.2409816998338
 21
1422.12273426611
  0
LINE
  8
_0-5_EL-M10011N_______8
  6
CONTINUOUS
 62
    7
 10
1128.2409816998338
 20
1422.12273426611
 11
1128.029939239776
 21
1421.9680410575888
  0
LINE
  8
_0-5_EL-M10011N_______8
  6
CONTINUOUS
 62
    7
 10
1128.029939239776
 20
1421.9680410575888
 11
1127.902069757135
 21
1421.8026192731172
  0
LINE
  8
_0-5_EL-M10011N_______8
  6
CONTINUOUS
 62
    7
 10
1127.902069757135
 20
1421.8026192731172
 11
1127.8641975837058
 21
1421.6275677852732
  0
LINE
  8
_0-5_EL-M10011N_______8
  6
CONTINUOUS
 62
    7
 10
1179.3760723278479
 20
1405.1545043939
 11
1180.0889985860158
 21
1405.377528619681
  0
LINE
  8
_0-5_EL-M10011N_______8
  6
CONTINUOUS
 62
    7
 10
1180.0889985860158
 20
1405.377528619681
 11
1180.7085642650927
 21
1405.6456550737748
  0
LINE
  8
_0-5_EL-M10011N_______8
  6
CONTINUOUS
 62
    7
 10
1180.7085642650927
 20
1405.6456550737748
 11
1181.2124829339109
 21
1405.9493349711129
  0
LINE
  8
_0-5_EL-M10011N_______8
  6
CONTINUOUS
 62
    7
 10
1181.2124829339109
 20
1405.9493349711129
 11
1181.429788357314
 21
1406.141577207914
  0
LINE
  8
_0-5_EL-M10011N_______8
  6
CONTINUOUS
 62
    7
 10
565.94937775214385
 20
1302.3373784598548
 11
566.31407831992192
 21
1302.436227206023
  0
LINE
  8
_0-5_EL-M10011N_______8
  6
CONTINUOUS
 62
    7
 10
566.31407831992192
 20
1302.436227206023
 11
566.66326500737387
 21
1302.6155369472249
  0
LINE
  8
_0-5_EL-M10011N_______8
  6
CONTINUOUS
 62
    7
 10
566.66326500737387
 20
1302.6155369472249
 11
566.97942813501595
 21
1302.866316343303
  0
LINE
  8
_0-5_EL-M10011N_______8
  6
CONTINUOUS
 62
    7
 10
566.97942813501595
 20
1302.866316343303
 11
567.246713964425
 21
1303.1759902698009
  0
LINE
  8
_0-5_EL-M10011N_______8
  6
CONTINUOUS
 62
    7
 10
567.246713964425
 20
1303.1759902698009
 11
567.45171966769703
 21
1303.5290303821089
  0
LINE
  8
_0-5_EL-M10011N_______8
  6
CONTINUOUS
 62
    7
 10
567.45171966769703
 20
1303.5290303821089
 11
567.58416540229791
 21
1303.90773377507
  0
LINE
  8
_0-5_EL-M10011N_______8
  6
CONTINUOUS
 62
    7
 10
567.58416540229791
 20
1303.90773377507
 11
567.63740978653777
 21
1304.293110678685
  0
LINE
  8
_0-5_EL-M10011N_______8
  6
CONTINUOUS
 62
    7
 10
-3.002810771989175
 20
1216.8594951810128
 11
-3.3455152039272207
 21
1216.7879172002172
  0
LINE
  8
_0-5_EL-M10011N_______8
  6
CONTINUOUS
 62
    7
 10
-3.3455152039272207
 20
1216.7879172002172
 11
-3.6298164613322115
 21
1216.6890522828849
  0
LINE
  8
_0-5_EL-M10011N_______8
  6
CONTINUOUS
 62
    7
 10
-3.6298164613322115
 20
1216.6890522828849
 11
-3.8414584927082274
 21
1216.5678579301511
  0
LINE
  8
_0-5_EL-M10011N_______8
  6
CONTINUOUS
 62
    7
 10
-3.8414584927082274
 20
1216.5678579301511
 11
-3.969828682500065
 21
1216.430411332045
  0
LINE
  8
_0-5_EL-M10011N_______8
  6
CONTINUOUS
 62
    7
 10
-3.969828682500065
 20
1216.430411332045
 11
-4.0086467204341147
 21
1216.3031020908552
  0
LINE
  8
_0-2_02___PRT_ALL_AXES
  6
CONTINUOUS
 62
    7
 10
1125.6277262517297
 20
1453.8778204784412
 11
999.06172240049864
 21
1427.4471679893309
  0
LINE
  8
_0-2_02___PRT_ALL_AXES
  6
CONTINUOUS
 62
    7
 10
667.98995762358481
 20
1358.309781190213
 11
863.56948319959201
 21
1399.1524586647151
  0
LINE
  8
_0-7__Z_P___M8_30
  6
CONTINUOUS
 62
    7
 10
643.08129105341277
 20
1368.3827674384088
 11
636.5450252925948
 21
1367.3727715894688
  0
LINE
  8
_0-7__Z_P___M8_30
  6
CONTINUOUS
 62
    7
 10
631.403717330375
 20
1371.2240435653448
 11
637.93998282677876
 21
1372.2340393738991
  0
LINE
  8
_0-7__Z_P___M8_30
  6
CONTINUOUS
 62
    7
 10
629.13268665425994
 20
1382.3766558615489
 11
635.66895215066279
 21
1383.3866516701032
  0
LINE
  8
_0-7__Z_P___M8_30
  6
CONTINUOUS
 62
    7
 10
632.00296394036377
 20
1389.6779961811148
 11
638.53933968140382
 21
1390.688009024941
  0
LINE
  8
_0-5_EL-M10011N_______8
  6
CONTINUOUS
 62
    7
 10
1319.2419198399416
 20
1277.622445129598
 11
1318.9191677386848
 21
1277.7398004950892
  0
LINE
  8
_0-5_EL-M10011N_______8
  6
CONTINUOUS
 62
    7
 10
1318.9191677386848
 20
1277.7398004950892
 11
1318.7483352695817
 21
1277.8474640580189
  0
LINE
  8
_0-2_02___PRT_ALL_AXES
  6
CONTINUOUS
 62
    7
 10
1011.460272960474
 20
1340.2325825534708
 11
1010.8265708920908
 21
1340.7156214034949
  0
LINE
  8
_0-2_02___PRT_ALL_AXES
  6
CONTINUOUS
 62
    7
 10
1010.8265708920908
 20
1340.7156214034949
 11
1010.1700089418187
 21
1341.2325131245989
  0
LINE
  8
_0-2_02___PRT_ALL_AXES
  6
CONTINUOUS
 62
    7
 10
1010.1700089418187
 20
1341.2325131245989
 11
1009.4910358156426
 21
1341.783013630657
  0
LINE
  8
_0-2_02___PRT_ALL_AXES
  6
CONTINUOUS
 62
    7
 10
1009.4910358156426
 20
1341.783013630657
 11
1008.7893982697219
 21
1342.3675115363349
  0
LINE
  8
_0-2_02___PRT_ALL_AXES
  6
CONTINUOUS
 62
    7
 10
1008.7893982697219
 20
1342.3675115363349
 11
1008.0654376350958
 21
1342.985985649651
  0
LINE
  8
_0-2_02___PRT_ALL_AXES
  6
CONTINUOUS
 62
    7
 10
1008.0654376350958
 20
1342.985985649651
 11
1007.3194055134968
 21
1343.6385507841928
  0
LINE
  8
_0-2_02___PRT_ALL_AXES
  6
CONTINUOUS
 62
    7
 10
1007.3194055134968
 20
1343.6385507841928
 11
1006.5511458442788
 21
1344.325759958414
  0
LINE
  8
_0-2_02___PRT_ALL_AXES
  6
CONTINUOUS
 62
    7
 10
1006.5511458442788
 20
1344.325759958414
 11
1005.761187002051
 21
1345.0476412634421
  0
LINE
  8
_0-2_02___PRT_ALL_AXES
  6
CONTINUOUS
 62
    7
 10
1005.761187002051
 20
1345.0476412634421
 11
1004.9493827864449
 21
1345.804920030313
  0
LINE
  8
_0-2_02___PRT_ALL_AXES
  6
CONTINUOUS
 62
    7
 10
1004.9493827864449
 20
1345.804920030313
 11
1004.1163561560838
 21
1346.597704361684
  0
LINE
  8
_0-2_02___PRT_ALL_AXES
  6
CONTINUOUS
 62
    7
 10
1004.1163561560838
 20
1346.597704361684
 11
1003.2627919249367
 21
1347.4261164678728
  0
LINE
  8
_0-2_02___PRT_ALL_AXES
  6
CONTINUOUS
 62
    7
 10
1003.2627919249367
 20
1347.4261164678728
 11
1002.3888309761396
 21
1348.290904485817
  0
LINE
  8
_0-2_02___PRT_ALL_AXES
  6
CONTINUOUS
 62
    7
 10
1002.3888309761396
 20
1348.290904485817
 11
1001.4955829516148
 21
1349.1919685394132
  0
LINE
  8
_0-2_02___PRT_ALL_AXES
  6
CONTINUOUS
 62
    7
 10
1001.4955829516148
 20
1349.1919685394132
 11
1000.5835716707397
 21
1350.129896916284
  0
LINE
  8
_0-2_02___PRT_ALL_AXES
  6
CONTINUOUS
 62
    7
 10
1000.5835716707397
 20
1350.129896916284
 11
999.65389374752385
 21
1351.1048157792429
  0
LINE
  8
_0-2_02___PRT_ALL_AXES
  6
CONTINUOUS
 62
    7
 10
999.65389374752385
 20
1351.1048157792429
 11
998.70797811332386
 21
1352.116610864869
  0
LINE
  8
_0-2_02___PRT_ALL_AXES
  6
CONTINUOUS
 62
    7
 10
998.70797811332386
 20
1352.116610864869
 11
997.74707823832659
 21
1353.165472628204
  0
LINE
  8
_0-2_02___PRT_ALL_AXES
  6
CONTINUOUS
 62
    7
 10
997.74707823832659
 20
1353.165472628204
 11
996.77324245702084
 21
1354.250846385823
  0
LINE
  8
_0-2_02___PRT_ALL_AXES
  6
CONTINUOUS
 62
    7
 10
996.77324245702084
 20
1354.250846385823
 11
995.78814123799793
 21
1355.3727119256791
  0
LINE
  8
_0-2_02___PRT_ALL_AXES
  6
CONTINUOUS
 62
    7
 10
995.78814123799793
 20
1355.3727119256791
 11
994.79469167346588
 21
1356.5297416029789
  0
LINE
  8
_0-2_02___PRT_ALL_AXES
  6
CONTINUOUS
 62
    7
 10
994.79469167346588
 20
1356.5297416029789
 11
993.79559816771962
 21
1357.720915360328
  0
LINE
  8
_0-2_02___PRT_ALL_AXES
  6
CONTINUOUS
 62
    7
 10
993.79559816771962
 20
1357.720915360328
 11
992.79348679069062
 21
1358.945398854205
  0
LINE
  8
_0-2_02___PRT_ALL_AXES
  6
CONTINUOUS
 62
    7
 10
992.79348679069062
 20
1358.945398854205
 11
991.79186458108779
 21
1360.201355074063
  0
LINE
  8
_0-2_02___PRT_ALL_AXES
  6
CONTINUOUS
 62
    7
 10
991.79186458108779
 20
1360.201355074063
 11
990.79407968232499
 21
1361.487166553743
  0
LINE
  8
_0-2_02___PRT_ALL_AXES
  6
CONTINUOUS
 62
    7
 10
990.79407968232499
 20
1361.487166553743
 11
989.80452405285587
 21
1362.7998447627729
  0
LINE
  8
_0-2_02___PRT_ALL_AXES
  6
CONTINUOUS
 62
    7
 10
989.80452405285587
 20
1362.7998447627729
 11
988.8276301826686
 21
1364.1361986417492
  0
LINE
  8
_0-2_02___PRT_ALL_AXES
  6
CONTINUOUS
 62
    7
 10
988.8276301826686
 20
1364.1361986417492
 11
987.86764123219064
 21
1365.4931078402951
  0
LINE
  8
_0-2_02___PRT_ALL_AXES
  6
CONTINUOUS
 62
    7
 10
987.86764123219064
 20
1365.4931078402951
 11
986.92850474470788
 21
1366.8676647058569
  0
LINE
  8
_0-2_02___PRT_ALL_AXES
  6
CONTINUOUS
 62
    7
 10
986.92850474470788
 20
1366.8676647058569
 11
986.01511223900889
 21
1368.2552622847329
  0
LINE
  8
_0-2_02___PRT_ALL_AXES
  6
CONTINUOUS
 62
    7
 10
986.01511223900889
 20
1368.2552622847329
 11
985.13213897981268
 21
1369.6510741916049
  0
LINE
  8
_0-2_02___PRT_ALL_AXES
  6
CONTINUOUS
 62
    7
 10
985.13213897981268
 20
1369.6510741916049
 11
984.28243011814675
 21
1371.0526676058371
  0
LINE
  8
_0-2_02___PRT_ALL_AXES
  6
CONTINUOUS
 62
    7
 10
984.28243011814675
 20
1371.0526676058371
 11
983.46902444600391
 21
1372.456937260843
  0
LINE
  8
_0-2_02___PRT_ALL_AXES
  6
CONTINUOUS
 62
    7
 10
983.46902444600391
 20
1372.456937260843
 11
982.69465922435302
 21
1373.8608112641141
  0
LINE
  8
_0-2_02___PRT_ALL_AXES
  6
CONTINUOUS
 62
    7
 10
982.69465922435302
 20
1373.8608112641141
 11
981.96177315799787
 21
1375.261204048285
  0
LINE
  8
_0-2_02___PRT_ALL_AXES
  6
CONTINUOUS
 62
    7
 10
981.96177315799787
 20
1375.261204048285
 11
981.27292728016664
 21
1376.6540841693009
  0
LINE
  8
_0-2_02___PRT_ALL_AXES
  6
CONTINUOUS
 62
    7
 10
981.27292728016664
 20
1376.6540841693009
 11
980.62937797722498
 21
1378.0372813536251
  0
LINE
  8
_0-2_02___PRT_ALL_AXES
  6
CONTINUOUS
 62
    7
 10
980.62937797722498
 20
1378.0372813536251
 11
980.03190519884402
 21
1379.4091211885529
  0
LINE
  8
_0-2_02___PRT_ALL_AXES
  6
CONTINUOUS
 62
    7
 10
980.03190519884402
 20
1379.4091211885529
 11
979.48065016343389
 21
1380.7689982528932
  0
LINE
  8
_0-2_02___PRT_ALL_AXES
  6
CONTINUOUS
 62
    7
 10
979.48065016343389
 20
1380.7689982528932
 11
978.97604914723661
 21
1382.1152068454589
  0
LINE
  8
_0-2_02___PRT_ALL_AXES
  6
CONTINUOUS
 62
    7
 10
978.97604914723661
 20
1382.1152068454589
 11
978.51779424205688
 21
1383.447571228477
  0
LINE
  8
_0-2_02___PRT_ALL_AXES
  6
CONTINUOUS
 62
    7
 10
978.51779424205688
 20
1383.447571228477
 11
978.10553684127581
 21
1384.7658614783531
  0
LINE
  8
_0-2_02___PRT_ALL_AXES
  6
CONTINUOUS
 62
    7
 10
978.10553684127581
 20
1384.7658614783531
 11
977.73887530078673
 21
1386.0698043548409
  0
LINE
  8
_0-2_02___PRT_ALL_AXES
  6
CONTINUOUS
 62
    7
 10
977.73887530078673
 20
1386.0698043548409
 11
977.41701989674766
 21
1387.3604887841352
  0
LINE
  8
_0-2_02___PRT_ALL_AXES
  6
CONTINUOUS
 62
    7
 10
977.41701989674766
 20
1387.3604887841352
 11
977.13952246037979
 21
1388.6378321677212
  0
LINE
  8
_0-2_02___PRT_ALL_AXES
  6
CONTINUOUS
 62
    7
 10
977.13952246037979
 20
1388.6378321677212
 11
976.90573626856667
 21
1389.9026838307991
  0
LINE
  8
_0-2_02___PRT_ALL_AXES
  6
CONTINUOUS
 62
    7
 10
976.90573626856667
 20
1389.9026838307991
 11
976.71505224709063
 21
1391.1562283557091
  0
LINE
  8
_0-2_02___PRT_ALL_AXES
  6
CONTINUOUS
 62
    7
 10
976.71505224709063
 20
1391.1562283557091
 11
976.56709630195792
 21
1392.3986561190072
  0
LINE
  8
_0-2_02___PRT_ALL_AXES
  6
CONTINUOUS
 62
    7
 10
976.56709630195792
 20
1392.3986561190072
 11
976.46140363145378
 21
1393.6315765599429
  0
LINE
  8
_0-2_02___PRT_ALL_AXES
  6
CONTINUOUS
 62
    7
 10
976.46140363145378
 20
1393.6315765599429
 11
976.39774306459094
 21
1394.855754112345
  0
LINE
  8
_0-2_02___PRT_ALL_AXES
  6
CONTINUOUS
 62
    7
 10
976.39774306459094
 20
1394.855754112345
 11
976.37598247133383
 21
1396.071602852347
  0
LINE
  8
_0-2_02___PRT_ALL_AXES
  6
CONTINUOUS
 62
    7
 10
976.37598247133383
 20
1396.071602852347
 11
976.39609160332793
 21
1397.280806259691
  0
LINE
  8
_0-2_02___PRT_ALL_AXES
  6
CONTINUOUS
 62
    7
 10
976.39609160332793
 20
1397.280806259691
 11
976.45819024392586
 21
1398.4836681651132
  0
LINE
  8
_0-2_02___PRT_ALL_AXES
  6
CONTINUOUS
 62
    7
 10
976.45819024392586
 20
1398.4836681651132
 11
976.56248560912081
 21
1399.6807132002791
  0
LINE
  8
_0-2_02___PRT_ALL_AXES
  6
CONTINUOUS
 62
    7
 10
976.56248560912081
 20
1399.6807132002791
 11
976.7093922421559
 21
1400.8731748366872
  0
LINE
  8
_0-2_02___PRT_ALL_AXES
  6
CONTINUOUS
 62
    7
 10
976.7093922421559
 20
1400.8731748366872
 11
976.89928612373296
 21
1402.060804155607
  0
LINE
  8
_0-2_02___PRT_ALL_AXES
  6
CONTINUOUS
 62
    7
 10
976.89928612373296
 20
1402.060804155607
 11
977.13274236954567
 21
1403.2441629880209
  0
LINE
  8
_0-2_02___PRT_ALL_AXES
  6
CONTINUOUS
 62
    7
 10
977.13274236954567
 20
1403.2441629880209
 11
977.41039289399987
 21
1404.4233965231228
  0
LINE
  8
_0-2_02___PRT_ALL_AXES
  6
CONTINUOUS
 62
    7
 10
977.41039289399987
 20
1404.4233965231228
 11
977.73270119350082
 21
1405.597665555073
  0
LINE
  8
_0-2_02___PRT_ALL_AXES
  6
CONTINUOUS
 62
    7
 10
977.73270119350082
 20
1405.597665555073
 11
978.10043444736584
 21
1406.7670770237132
  0
LINE
  8
_0-2_02___PRT_ALL_AXES
  6
CONTINUOUS
 62
    7
 10
978.10043444736584
 20
1406.7670770237132
 11
978.51402387748794
 21
1407.9304101059829
  0
LINE
  8
_0-2_02___PRT_ALL_AXES
  6
CONTINUOUS
 62
    7
 10
978.51402387748794
 20
1407.9304101059829
 11
978.97384159056583
 21
1409.0863706805189
  0
LINE
  8
_0-2_02___PRT_ALL_AXES
  6
CONTINUOUS
 62
    7
 10
978.97384159056583
 20
1409.0863706805189
 11
979.48022606547465
 21
1410.2336276316191
  0
LINE
  8
_0-2_02___PRT_ALL_AXES
  6
CONTINUOUS
 62
    7
 10
979.48022606547465
 20
1410.2336276316191
 11
980.03281874083177
 21
1411.3694704117452
  0
LINE
  8
_0-2_02___PRT_ALL_AXES
  6
CONTINUOUS
 62
    7
 10
980.03281874083177
 20
1411.3694704117452
 11
980.6315190410146
 21
1412.4920502275409
  0
LINE
  8
_0-2_02___PRT_ALL_AXES
  6
CONTINUOUS
 62
    7
 10
980.6315190410146
 20
1412.4920502275409
 11
981.27563114648865
 21
1413.5985972585372
  0
LINE
  8
_0-2_02___PRT_ALL_AXES
  6
CONTINUOUS
 62
    7
 10
981.27563114648865
 20
1413.5985972585372
 11
981.96399367628965
 21
1414.6859257724709
  0
LINE
  8
_0-2_02___PRT_ALL_AXES
  6
CONTINUOUS
 62
    7
 10
981.96399367628965
 20
1414.6859257724709
 11
982.69419870431875
 21
1415.7494728920069
  0
LINE
  8
_0-2_02___PRT_ALL_AXES
  6
CONTINUOUS
 62
    7
 10
982.69419870431875
 20
1415.7494728920069
 11
983.46392407444091
 21
1416.785529017503
  0
LINE
  8
_0-2_02___PRT_ALL_AXES
  6
CONTINUOUS
 62
    7
 10
983.46392407444091
 20
1416.785529017503
 11
984.27055353814103
 21
1417.7905185561608
  0
LINE
  8
_0-2_02___PRT_ALL_AXES
  6
CONTINUOUS
 62
    7
 10
984.27055353814103
 20
1417.7905185561608
 11
985.1111669270158
 21
1418.7609705492132
  0
LINE
  8
_0-2_02___PRT_ALL_AXES
  6
CONTINUOUS
 62
    7
 10
985.1111669270158
 20
1418.7609705492132
 11
985.98301788257277
 21
1419.694011307969
  0
LINE
  8
_0-2_02___PRT_ALL_AXES
  6
CONTINUOUS
 62
    7
 10
985.98301788257277
 20
1419.694011307969
 11
986.88160270820981
 21
1420.5853517927471
  0
LINE
  8
_0-2_02___PRT_ALL_AXES
  6
CONTINUOUS
 62
    7
 10
986.88160270820981
 20
1420.5853517927471
 11
987.8021663821919
 21
1421.431178195071
  0
LINE
  8
_0-2_02___PRT_ALL_AXES
  6
CONTINUOUS
 62
    7
 10
987.8021663821919
 20
1421.431178195071
 11
988.74086027797694
 21
1422.2290693109949
  0
LINE
  8
_0-2_02___PRT_ALL_AXES
  6
CONTINUOUS
 62
    7
 10
988.74086027797694
 20
1422.2290693109949
 11
989.69353994157473
 21
1422.976718907134
  0
LINE
  8
_0-2_02___PRT_ALL_AXES
  6
CONTINUOUS
 62
    7
 10
989.69353994157473
 20
1422.976718907134
 11
990.65586788077189
 21
1423.6720689822669
  0
LINE
  8
_0-2_02___PRT_ALL_AXES
  6
CONTINUOUS
 62
    7
 10
990.65586788077189
 20
1423.6720689822669
 11
991.62352926294579
 21
1424.3134832678888
  0
LINE
  8
_0-2_02___PRT_ALL_AXES
  6
CONTINUOUS
 62
    7
 10
991.62352926294579
 20
1424.3134832678888
 11
992.59321831645184
 21
1424.900300639084
  0
LINE
  8
_0-2_02___PRT_ALL_AXES
  6
CONTINUOUS
 62
    7
 10
992.59321831645184
 20
1424.900300639084
 11
993.56147430856163
 21
1425.4319527230969
  0
LINE
  8
_0-2_02___PRT_ALL_AXES
  6
CONTINUOUS
 62
    7
 10
993.56147430856163
 20
1425.4319527230969
 11
994.52568004435761
 21
1425.9084982975628
  0
LINE
  8
_0-2_02___PRT_ALL_AXES
  6
CONTINUOUS
 62
    7
 10
994.52568004435761
 20
1425.9084982975628
 11
995.48315825436566
 21
1426.3300515047472
  0
LINE
  8
_0-2_02___PRT_ALL_AXES
  6
CONTINUOUS
 62
    7
 10
995.48315825436566
 20
1426.3300515047472
 11
996.43100456567981
 21
1426.6967738772191
  0
LINE
  8
_0-2_02___PRT_ALL_AXES
  6
CONTINUOUS
 62
    7
 10
996.43100456567981
 20
1426.6967738772191
 11
997.36753537739969
 21
1427.009415745712
  0
LINE
  8
_0-2_02___PRT_ALL_AXES
  6
CONTINUOUS
 62
    7
 10
997.36753537739969
 20
1427.009415745712
 11
998.29070350108759
 21
1427.2686274116909
  0
LINE
  8
_0-2_02___PRT_ALL_AXES
  6
CONTINUOUS
 62
    7
 10
998.29070350108759
 20
1427.2686274116909
 11
999.0617254561198
 21
1427.4471533551209
  0
LINE
  8
_0-2_02___PRT_ALL_AXES
  6
CONTINUOUS
 62
    7
 10
1030.8716018108389
 20
1107.1300172637252
 11
1031.1735037732019
 21
1106.0881280457552
  0
LINE
  8
_0-2_02___PRT_ALL_AXES
  6
CONTINUOUS
 62
    7
 10
1031.1735037732019
 20
1106.0881280457552
 11
1031.412047992073
 21
1105.0720286690171
  0
LINE
  8
_0-2_02___PRT_ALL_AXES
  6
CONTINUOUS
 62
    7
 10
1031.412047992073
 20
1105.0720286690171
 11
1031.5895721722036
 21
1104.0621605274669
  0
LINE
  8
_0-2_02___PRT_ALL_AXES
  6
CONTINUOUS
 62
    7
 10
1031.5895721722036
 20
1104.0621605274669
 11
1031.7050746554469
 21
1103.045551849742
  0
LINE
  8
_0-2_02___PRT_ALL_AXES
  6
CONTINUOUS
 62
    7
 10
1031.7050746554469
 20
1103.045551849742
 11
1031.7563015136238
 21
1102.0164347987588
  0
LINE
  8
_0-2_02___PRT_ALL_AXES
  6
CONTINUOUS
 62
    7
 10
1029.3610748517108
 20
1191.5251878055328
 11
1029.6629768133116
 21
1190.4832985875628
  0
LINE
  8
_0-2_02___PRT_ALL_AXES
  6
CONTINUOUS
 62
    7
 10
1029.6629768133116
 20
1190.4832985875628
 11
1029.9015210321827
 21
1189.467199210826
  0
LINE
  8
_0-2_02___PRT_ALL_AXES
  6
CONTINUOUS
 62
    7
 10
1029.9015210321827
 20
1189.467199210826
 11
1030.0790452130759
 21
1188.4573310692749
  0
LINE
  8
_0-2_02___PRT_ALL_AXES
  6
CONTINUOUS
 62
    7
 10
1030.0790452130759
 20
1188.4573310692749
 11
1030.1945476963188
 21
1187.44072239155
  0
LINE
  8
_0-2_02___PRT_ALL_AXES
  6
CONTINUOUS
 62
    7
 10
1030.1945476963188
 20
1187.44072239155
 11
1030.2457745537326
 21
1186.4116053405669
  0
LINE
  8
_0-2_02___PRT_ALL_AXES
  6
CONTINUOUS
 62
    7
 10
1030.245774551448
 20
1186.4116051523529
 11
1030.3052228150759
 21
1185.1897318163228
  0
LINE
  8
_0-2_02___PRT_ALL_AXES
  6
CONTINUOUS
 62
    7
 10
1030.3052228150759
 20
1185.1897318163228
 11
1030.4398335097849
 21
1183.9316957319429
  0
LINE
  8
_0-2_02___PRT_ALL_AXES
  6
CONTINUOUS
 62
    7
 10
1030.4398335097849
 20
1183.9316957319429
 11
1030.6473048416028
 21
1182.659017288735
  0
LINE
  8
_0-2_02___PRT_ALL_AXES
  6
CONTINUOUS
 62
    7
 10
1030.6473048416028
 20
1182.659017288735
 11
1030.9240891419827
 21
1181.393467847779
  0
LINE
  8
_0-2_02___PRT_ALL_AXES
  6
CONTINUOUS
 62
    7
 10
1030.9240891419827
 20
1181.393467847779
 11
1031.265453416328
 21
1180.1566977957968
  0
LINE
  8
_0-2_02___PRT_ALL_AXES
  6
CONTINUOUS
 62
    7
 10
1031.265453416328
 20
1180.1566977957968
 11
1031.66556012513
 21
1178.969866635302
  0
LINE
  8
_0-2_02___PRT_ALL_AXES
  6
CONTINUOUS
 62
    7
 10
1031.66556012513
 20
1178.969866635302
 11
1032.1175668230958
 21
1177.853281407974
  0
LINE
  8
_0-2_02___PRT_ALL_AXES
  6
CONTINUOUS
 62
    7
 10
1032.1175668230958
 20
1177.853281407974
 11
1032.6137429653618
 21
1176.826049623477
  0
LINE
  8
_0-2_02___PRT_ALL_AXES
  6
CONTINUOUS
 62
    7
 10
1040.6613081285168
 20
1095.345835701326
 11
1040.601859856507
 21
1096.567709209568
  0
LINE
  8
_0-2_02___PRT_ALL_AXES
  6
CONTINUOUS
 62
    7
 10
1040.601859856507
 20
1096.567709209568
 11
1040.467249161798
 21
1097.8257452947091
  0
LINE
  8
_0-2_02___PRT_ALL_AXES
  6
CONTINUOUS
 62
    7
 10
1040.467249161798
 20
1097.8257452947091
 11
1040.2597778299796
 21
1099.098423737918
  0
LINE
  8
_0-2_02___PRT_ALL_AXES
  6
CONTINUOUS
 62
    7
 10
1040.2597778299796
 20
1099.098423737918
 11
1039.9829935295988
 21
1100.363973178873
  0
LINE
  8
_0-2_02___PRT_ALL_AXES
  6
CONTINUOUS
 62
    7
 10
1039.9829935295988
 20
1100.363973178873
 11
1039.6416292544927
 21
1101.600743230093
  0
LINE
  8
_0-2_02___PRT_ALL_AXES
  6
CONTINUOUS
 62
    7
 10
1039.6416292544927
 20
1101.600743230093
 11
1039.2415225456916
 21
1102.7875743905888
  0
LINE
  8
_0-2_02___PRT_ALL_AXES
  6
CONTINUOUS
 62
    7
 10
1039.2415225456916
 20
1102.7875743905888
 11
1038.7895158477249
 21
1103.9041596179172
  0
LINE
  8
_0-2_02___PRT_ALL_AXES
  6
CONTINUOUS
 62
    7
 10
1038.7895158477249
 20
1103.9041596179172
 11
1038.2933396262119
 21
1104.931391569291
  0
LINE
  8
_0-2_02___PRT_ALL_AXES
  6
CONTINUOUS
 62
    7
 10
1039.150781168627
 20
1179.741006242371
 11
1039.0913328966167
 21
1180.9628797513751
  0
LINE
  8
_0-2_02___PRT_ALL_AXES
  6
CONTINUOUS
 62
    7
 10
1039.0913328966167
 20
1180.9628797513751
 11
1038.9567222019077
 21
1182.220915835755
  0
LINE
  8
_0-2_02___PRT_ALL_AXES
  6
CONTINUOUS
 62
    7
 10
1038.9567222019077
 20
1182.220915835755
 11
1038.7492508700898
 21
1183.4935942797251
  0
LINE
  8
_0-2_02___PRT_ALL_AXES
  6
CONTINUOUS
 62
    7
 10
1038.7492508700898
 20
1183.4935942797251
 11
1038.4724665697099
 21
1184.7591437206811
  0
LINE
  8
_0-2_02___PRT_ALL_AXES
  6
CONTINUOUS
 62
    7
 10
1038.4724665697099
 20
1184.7591437206811
 11
1038.1311022953646
 21
1185.9959137719011
  0
LINE
  8
_0-2_02___PRT_ALL_AXES
  6
CONTINUOUS
 62
    7
 10
1038.1311022953646
 20
1185.9959137719011
 11
1037.730995586563
 21
1187.1827449323969
  0
LINE
  8
_0-2_02___PRT_ALL_AXES
  6
CONTINUOUS
 62
    7
 10
1037.730995586563
 20
1187.1827449323969
 11
1037.2789888885968
 21
1188.2993301597248
  0
LINE
  8
_0-2_02___PRT_ALL_AXES
  6
CONTINUOUS
 62
    7
 10
1037.2789888885968
 20
1188.2993301597248
 11
1036.7828126663217
 21
1189.3265621103369
  0
LINE
  8
_0-3_7_ALL_FEATURES
  6
CONTINUOUS
 62
    7
 10
1024.6367093154477
 20
1095.231323655014
 11
1024.4477536334148
 21
1105.7885314488608
  0
LINE
  8
_0-3_7_ALL_FEATURES
  6
CONTINUOUS
 62
    7
 10
1023.1261823555569
 20
1179.6264941968211
 11
1022.937226674288
 21
1190.1837019899071
  0
LINE
  8
_0-2_02___PRT_ALL_AXES
  6
CONTINUOUS
 62
    7
 10
1030.2457745537326
 20
1186.4116053405669
 11
1030.2316230158699
 21
1185.3686602588209
  0
LINE
  8
_0-2_02___PRT_ALL_AXES
  6
CONTINUOUS
 62
    7
 10
1030.2316230158699
 20
1185.3686602588209
 11
1030.1532157266588
 21
1184.3114625362891
  0
LINE
  8
_0-2_02___PRT_ALL_AXES
  6
CONTINUOUS
 62
    7
 10
1030.1532157266588
 20
1184.3114625362891
 11
1030.013021896812
 21
1183.2352970876591
  0
LINE
  8
_0-2_02___PRT_ALL_AXES
  6
CONTINUOUS
 62
    7
 10
1030.013021896812
 20
1183.2352970876591
 11
1029.8125363104837
 21
1182.127777813243
  0
LINE
  8
_0-2_02___PRT_ALL_AXES
  6
CONTINUOUS
 62
    7
 10
1029.8125363104837
 20
1182.127777813243
 11
1029.550030532982
 21
1180.967980011686
  0
LINE
  8
_0-2_02___PRT_ALL_AXES
  6
CONTINUOUS
 62
    7
 10
1031.7563015136238
 20
1102.0164347987588
 11
1031.7421499757588
 21
1100.973489717775
  0
LINE
  8
_0-2_02___PRT_ALL_AXES
  6
CONTINUOUS
 62
    7
 10
1031.7421499757588
 20
1100.973489717775
 11
1031.6637426865486
 21
1099.916291994482
  0
LINE
  8
_0-2_02___PRT_ALL_AXES
  6
CONTINUOUS
 62
    7
 10
1031.6637426865486
 20
1099.916291994482
 11
1031.5235488567018
 21
1098.840126545851
  0
LINE
  8
_0-2_02___PRT_ALL_AXES
  6
CONTINUOUS
 62
    7
 10
1031.5235488567018
 20
1098.840126545851
 11
1031.323063270374
 21
1097.732607271435
  0
LINE
  8
_0-2_02___PRT_ALL_AXES
  6
CONTINUOUS
 62
    7
 10
1031.323063270374
 20
1097.732607271435
 11
1031.0605574928718
 21
1096.572809469877
  0
LINE
  8
_0-2_02___PRT_ALL_AXES
  6
CONTINUOUS
 62
    7
 10
1039.0566584599978
 20
1177.6155868145288
 11
1039.1340503476308
 21
1178.5761973245972
  0
LINE
  8
_0-2_02___PRT_ALL_AXES
  6
CONTINUOUS
 62
    7
 10
1039.1340503476308
 20
1178.5761973245972
 11
1039.150781168627
 21
1179.741006242371
  0
LINE
  8
_0-2_02___PRT_ALL_AXES
  6
CONTINUOUS
 62
    7
 10
1040.5671854198868
 20
1093.2204162727212
 11
1040.6445773075206
 21
1094.18102678279
  0
LINE
  8
_0-2_02___PRT_ALL_AXES
  6
CONTINUOUS
 62
    7
 10
1040.6445773075206
 20
1094.18102678279
 11
1040.6613081285168
 21
1095.345835701326
  0
LINE
  8
_0-2_02___PRT_ALL_AXES
  6
CONTINUOUS
 62
    7
 10
1038.8744927222219
 20
1176.4961615811981
 11
1039.041426356604
 21
1177.4883791746088
  0
LINE
  8
_0-2_02___PRT_ALL_AXES
  6
CONTINUOUS
 62
    7
 10
1039.041426356604
 20
1177.4883791746088
 11
1039.0566584599978
 21
1177.6155868145288
  0
LINE
  8
_0-2_02___PRT_ALL_AXES
  6
CONTINUOUS
 62
    7
 10
1040.3850196821109
 20
1092.10099103939
 11
1040.5519533164938
 21
1093.0932086328012
  0
LINE
  8
_0-2_02___PRT_ALL_AXES
  6
CONTINUOUS
 62
    7
 10
1040.5519533164938
 20
1093.0932086328012
 11
1040.5671854198868
 21
1093.2204162727212
  0
LINE
  8
_0-4_EL-M10011N_______9
  6
CONTINUOUS
 62
    7
 10
1117.4278825216547
 20
1585.3178709043932
 11
1117.4594426665617
 21
1585.4637471442629
  0
LINE
  8
_0-4_EL-M10011N_______9
  6
CONTINUOUS
 62
    7
 10
1117.4594426665617
 20
1585.4637471442629
 11
1117.5660005682539
 21
1585.6015986318312
  0
LINE
  8
_0-4_EL-M10011N_______9
  6
CONTINUOUS
 62
    7
 10
1117.5660005682539
 20
1585.6015986318312
 11
1117.7418692850947
 21
1585.7305096389309
  0
LINE
  8
_0-4_EL-M10011N_______9
  6
CONTINUOUS
 62
    7
 10
1117.7418692850947
 20
1585.7305096389309
 11
1117.97823002421
 21
1585.8440160288851
  0
LINE
  8
_0-4_EL-M10011N_______9
  6
CONTINUOUS
 62
    7
 10
1117.97823002421
 20
1585.8440160288851
 11
1118.2632306726468
 21
1585.9364261181308
  0
LINE
  8
_0-5_EL-M10011N_______8
  6
CONTINUOUS
 62
    7
 10
1117.975836577637
 20
1564.2192194362992
 11
1118.013708751068
 21
1564.394270923382
  0
LINE
  8
_0-5_EL-M10011N_______8
  6
CONTINUOUS
 62
    7
 10
1118.013708751068
 20
1564.394270923382
 11
1118.1415782337076
 21
1564.5596927086149
  0
LINE
  8
_0-5_EL-M10011N_______8
  6
CONTINUOUS
 62
    7
 10
1118.1415782337076
 20
1564.5596927086149
 11
1118.3526206937659
 21
1564.714385917136
  0
LINE
  8
_0-5_EL-M10011N_______8
  6
CONTINUOUS
 62
    7
 10
1118.3526206937659
 20
1564.714385917136
 11
1118.6362535803978
 21
1564.8505935855369
  0
LINE
  8
_0-5_EL-M10011N_______8
  6
CONTINUOUS
 62
    7
 10
1118.6362535803978
 20
1564.8505935855369
 11
1118.9782543579126
 21
1564.961485692937
  0
LINE
  8
_0-2_02___PRT_ALL_AXES
  6
CONTINUOUS
 62
    7
 10
1038.4550371417799
 20
1174.297381275439
 11
1038.7175335443958
 21
1175.457133212979
  0
LINE
  8
_0-2_02___PRT_ALL_AXES
  6
CONTINUOUS
 62
    7
 10
1038.7175335443958
 20
1175.457133212979
 11
1038.9180638144039
 21
1176.5649240512412
  0
LINE
  8
_0-2_02___PRT_ALL_AXES
  6
CONTINUOUS
 62
    7
 10
1038.9180638144039
 20
1176.5649240512412
 11
1039.0334738723818
 21
1177.413113023897
  0
LINE
  8
_0-2_02___PRT_ALL_AXES
  6
CONTINUOUS
 62
    7
 10
860.72587847304567
 20
1088.660230511221
 11
861.11628116594875
 21
1089.116338268042
  0
LINE
  8
_0-2_02___PRT_ALL_AXES
  6
CONTINUOUS
 62
    7
 10
861.11628116594875
 20
1089.116338268042
 11
861.54221135447369
 21
1089.544636958306
  0
LINE
  8
_0-2_02___PRT_ALL_AXES
  6
CONTINUOUS
 62
    7
 10
861.54221135447369
 20
1089.544636958306
 11
862.01369031016793
 21
1089.9527045279951
  0
LINE
  8
_0-2_02___PRT_ALL_AXES
  6
CONTINUOUS
 62
    7
 10
862.01369031016793
 20
1089.9527045279951
 11
862.53942813651474
 21
1090.344812492317
  0
LINE
  8
_0-2_02___PRT_ALL_AXES
  6
CONTINUOUS
 62
    7
 10
862.53942813651474
 20
1090.344812492317
 11
863.12476029884283
 21
1090.7223256199409
  0
LINE
  8
_0-2_02___PRT_ALL_AXES
  6
CONTINUOUS
 62
    7
 10
861.28695261454686
 20
1193.4031165111869
 11
860.57885127941972
 21
1192.8983925241928
  0
LINE
  8
_0-2_02___PRT_ALL_AXES
  6
CONTINUOUS
 62
    7
 10
860.57885127941972
 20
1192.8983925241928
 11
859.88566288169977
 21
1192.2458751838149
  0
LINE
  8
_0-2_02___PRT_ALL_AXES
  6
CONTINUOUS
 62
    7
 10
859.88566288169977
 20
1192.2458751838149
 11
859.21924577664004
 21
1191.4567250392329
  0
LINE
  8
_0-2_02___PRT_ALL_AXES
  6
CONTINUOUS
 62
    7
 10
859.21924577664004
 20
1191.4567250392329
 11
858.59100090689299
 21
1190.5444391754672
  0
LINE
  8
_0-2_02___PRT_ALL_AXES
  6
CONTINUOUS
 62
    7
 10
858.59100090689299
 20
1190.5444391754672
 11
858.01167699416965
 21
1189.524620733524
  0
LINE
  8
_0-2_02___PRT_ALL_AXES
  6
CONTINUOUS
 62
    7
 10
858.01167699416965
 20
1189.524620733524
 11
857.49118684846189
 21
1188.4147124801411
  0
LINE
  8
_0-2_02___PRT_ALL_AXES
  6
CONTINUOUS
 62
    7
 10
857.49118684846189
 20
1188.4147124801411
 11
857.03843792744283
 21
1187.233698944282
  0
LINE
  8
_0-2_02___PRT_ALL_AXES
  6
CONTINUOUS
 62
    7
 10
857.03843792744283
 20
1187.233698944282
 11
856.66118002257599
 21
1186.001782202125
  0
LINE
  8
_0-2_02___PRT_ALL_AXES
  6
CONTINUOUS
 62
    7
 10
861.61423335571681
 20
1175.117496155653
 11
862.32233479142997
 21
1175.622220215037
  0
LINE
  8
_0-2_02___PRT_ALL_AXES
  6
CONTINUOUS
 62
    7
 10
862.32233479142997
 20
1175.622220215037
 11
863.01552318914992
 21
1176.2747375546528
  0
LINE
  8
_0-2_02___PRT_ALL_AXES
  6
CONTINUOUS
 62
    7
 10
863.01552318914992
 20
1176.2747375546528
 11
863.68194029420965
 21
1177.0638876992348
  0
LINE
  8
_0-2_02___PRT_ALL_AXES
  6
CONTINUOUS
 62
    7
 10
863.68194029420965
 20
1177.0638876992348
 11
864.31018516319364
 21
1177.976173563763
  0
LINE
  8
_0-2_02___PRT_ALL_AXES
  6
CONTINUOUS
 62
    7
 10
864.31018516319364
 20
1177.976173563763
 11
864.88950907667868
 21
1178.995992004945
  0
LINE
  8
_0-2_02___PRT_ALL_AXES
  6
CONTINUOUS
 62
    7
 10
864.88950907667868
 20
1178.995992004945
 11
865.40999922162473
 21
1180.105900258327
  0
LINE
  8
_0-2_02___PRT_ALL_AXES
  6
CONTINUOUS
 62
    7
 10
865.40999922162473
 20
1180.105900258327
 11
865.86274814340459
 21
1181.2869137949492
  0
LINE
  8
_0-2_02___PRT_ALL_AXES
  6
CONTINUOUS
 62
    7
 10
865.86274814340459
 20
1181.2869137949492
 11
866.24000610923304
 21
1182.518830735225
  0
LINE
  8
_0-2_02___PRT_ALL_AXES
  6
CONTINUOUS
 62
    7
 10
861.2869527204648
 20
1193.4031165797669
 11
860.70152713236484
 21
1193.0255387019552
  0
LINE
  8
_0-2_02___PRT_ALL_AXES
  6
CONTINUOUS
 62
    7
 10
860.70152713236484
 20
1193.0255387019552
 11
860.1757538059619
 21
1192.6333919373551
  0
LINE
  8
_0-2_02___PRT_ALL_AXES
  6
CONTINUOUS
 62
    7
 10
860.1757538059619
 20
1192.6333919373551
 11
859.70431091725095
 21
1192.225341337406
  0
LINE
  8
_0-2_02___PRT_ALL_AXES
  6
CONTINUOUS
 62
    7
 10
859.70431091725095
 20
1192.225341337406
 11
859.27848986693971
 21
1191.7971469832291
  0
LINE
  8
_0-2_02___PRT_ALL_AXES
  6
CONTINUOUS
 62
    7
 10
859.27848986693971
 20
1191.7971469832291
 11
858.88807067216294
 21
1191.3410213369352
  0
LINE
  8
_0-3_7_ALL_FEATURES
  6
CONTINUOUS
 62
    7
 10
871.503771238019
 20
1175.4021683097012
 11
865.22698083404384
 21
1171.6289293255868
  0
LINE
  8
_0-5_EL-M10011N_______8
  6
CONTINUOUS
 62
    7
 10
1686.4197584190415
 20
1715.394635429288
 11
1686.2823836996331
 21
1715.3138888198891
  0
LINE
  8
_0-5_EL-M10011N_______8
  6
CONTINUOUS
 62
    7
 10
1686.2823836996331
 20
1715.3138888198891
 11
1686.1705394869496
 21
1715.1473147900711
  0
LINE
  8
_0-5_EL-M10011N_______8
  6
CONTINUOUS
 62
    7
 10
1686.1705394869496
 20
1715.1473147900711
 11
1686.0945370590716
 21
1714.9044599943491
  0
LINE
  8
_0-5_EL-M10011N_______8
  6
CONTINUOUS
 62
    7
 10
1686.0945370590716
 20
1714.9044599943491
 11
1686.0581874949912
 21
1714.597502184085
  0
LINE
  8
_0-5_EL-M10011N_______8
  6
CONTINUOUS
 62
    7
 10
1686.0581874949912
 20
1714.597502184085
 11
1686.0633135139497
 21
1714.241833507057
  0
LINE
  8
_0-2_02___PRT_ALL_AXES
  6
CONTINUOUS
 62
    7
 10
861.61423333895391
 20
1175.1174961617489
 11
862.26085515772183
 21
1175.4805530688568
  0
LINE
  8
_0-2_02___PRT_ALL_AXES
  6
CONTINUOUS
 62
    7
 10
862.26085515772183
 20
1175.4805530688568
 11
862.96811746455569
 21
1175.829635151998
  0
LINE
  8
_0-2_02___PRT_ALL_AXES
  6
CONTINUOUS
 62
    7
 10
862.96811746455569
 20
1175.829635151998
 11
863.73689513451473
 21
1176.1671325567572
  0
LINE
  8
_0-2_02___PRT_ALL_AXES
  6
CONTINUOUS
 62
    7
 10
863.73689513451473
 20
1176.1671325567572
 11
864.57352284124181
 21
1176.4978484990829
  0
LINE
  8
_0-2_02___PRT_ALL_AXES
  6
CONTINUOUS
 62
    7
 10
864.57352284124181
 20
1176.4978484990829
 11
865.49214191636884
 21
1176.828640037143
  0
LINE
  8
_0-5_EL-M10011N_______8
  6
CONTINUOUS
 62
    7
 10
1696.8893284747801
 20
1569.366695665075
 11
1697.2490388531469
 21
1569.5039633836809
  0
LINE
  8
_0-5_EL-M10011N_______8
  6
CONTINUOUS
 62
    7
 10
1697.2490388531469
 20
1569.5039633836809
 11
1697.584912509059
 21
1569.7179753043988
  0
LINE
  8
_0-5_EL-M10011N_______8
  6
CONTINUOUS
 62
    7
 10
1697.584912509059
 20
1569.7179753043988
 11
1697.8801073352297
 21
1569.997999974727
  0
LINE
  8
_0-5_EL-M10011N_______8
  6
CONTINUOUS
 62
    7
 10
1697.8801073352297
 20
1569.997999974727
 11
1698.119821031315
 21
1570.3299957890172
  0
LINE
  8
_0-5_EL-M10011N_______8
  6
CONTINUOUS
 62
    7
 10
1698.119821031315
 20
1570.3299957890172
 11
1698.2920333498314
 21
1570.697315090953
  0
LINE
  8
_0-5_EL-M10011N_______8
  6
CONTINUOUS
 62
    7
 10
1698.2920333498314
 20
1570.697315090953
 11
1698.388108848053
 21
1571.0815389567429
  0
LINE
  8
_0-5_EL-M10011N_______8
  6
CONTINUOUS
 62
    7
 10
1698.388108848053
 20
1571.0815389567429
 11
1698.4032298975671
 21
1571.4634007977929
  0
LINE
  8
_0-2_02___PRT_ALL_AXES
  6
CONTINUOUS
 62
    7
 10
865.16486107537685
 20
1195.1142603218109
 11
864.24627748887588
 21
1194.7834821522788
  0
LINE
  8
_0-2_02___PRT_ALL_AXES
  6
CONTINUOUS
 62
    7
 10
864.24627748887588
 20
1194.7834821522788
 11
863.40944824153075
 21
1194.452683787461
  0
LINE
  8
_0-2_02___PRT_ALL_AXES
  6
CONTINUOUS
 62
    7
 10
863.40944824153075
 20
1194.452683787461
 11
862.64064572884763
 21
1194.1151667368172
  0
LINE
  8
_0-2_02___PRT_ALL_AXES
  6
CONTINUOUS
 62
    7
 10
862.64064572884763
 20
1194.1151667368172
 11
861.93346055698794
 21
1193.766113560147
  0
LINE
  8
_0-2_02___PRT_ALL_AXES
  6
CONTINUOUS
 62
    7
 10
861.93346055698794
 20
1193.766113560147
 11
861.2869527204648
 21
1193.4031165797669
  0
LINE
  8
_0-5_EL-M10011N_______8
  6
CONTINUOUS
 62
    7
 10
1118.9782543579126
 20
1564.961485692937
 11
1686.0633135139497
 21
1714.241833507057
  0
LINE
  8
_0-5_EL-M10011N_______8
  6
CONTINUOUS
 62
    7
 10
1686.4197584190415
 20
1715.394635429288
 11
1119.3346992637667
 21
1566.1142876151671
  0
LINE
  8
_0-4_EL-M10011N_______9
  6
CONTINUOUS
 62
    7
 10
1685.8828014700975
 20
1715.5453401568329
 11
1119.6125196982198
 21
1566.4794756008168
  0
LINE
  8
_0-8_EL-M10011N_______3
  6
CONTINUOUS
 62
    7
 10
621.70898834547597
 20
1400.9604061255209
 11
617.62719593909878
 21
1400.3296800290891
  0
LINE
  8
_0-0_0
  6
CONTINUOUS
 62
    7
 10
621.70898834547597
 20
1400.9604061255209
 11
627.83167695580187
 21
1401.9064952701692
  0
LINE
  8
_0-5_EL-M10011N_______8
  6
CONTINUOUS
 62
    7
 10
1.7266278585231021
 20
1362.5037673668671
 11
569.91213084465562
 21
1450.300840000717
  0
LINE
  8
_0-5_EL-M10011N_______8
  6
CONTINUOUS
 62
    7
 10
570.45485636067497
 20
1451.4924426573848
 11
2.2693533745427885
 21
1363.6953700235349
  0
LINE
  8
_0-4_EL-M10011N_______9
  6
CONTINUOUS
 62
    7
 10
569.90175270564578
 20
1451.6842096538348
 11
2.5326082010937512
 21
1364.013282238358
  0
LINE
  8
_0-5_EL-M10011N_______8
  6
CONTINUOUS
 62
    7
 10
569.91213084465562
 20
1450.300840000717
 11
570.29605381950478
 21
1450.341541827619
  0
LINE
  8
_0-5_EL-M10011N_______8
  6
CONTINUOUS
 62
    7
 10
570.29605381950478
 20
1450.341541827619
 11
570.70194383627268
 21
1450.3493265400152
  0
LINE
  8
_0-5_EL-M10011N_______8
  6
CONTINUOUS
 62
    7
 10
570.70194383627268
 20
1450.3493265400152
 11
571.10944787419794
 21
1450.3238037805449
  0
LINE
  8
_0-5_EL-M10011N_______8
  6
CONTINUOUS
 62
    7
 10
571.10944787419794
 20
1450.3238037805449
 11
571.4981319804956
 21
1450.2662533670709
  0
LINE
  8
_0-5_EL-M10011N_______8
  6
CONTINUOUS
 62
    7
 10
571.4981319804956
 20
1450.2662533670709
 11
571.84850590966789
 21
1450.1795611170369
  0
LINE
  8
_0-5_EL-M10011N_______8
  6
CONTINUOUS
 62
    7
 10
571.84850590966789
 20
1450.1795611170369
 11
572.14300045021673
 21
1450.068074141383
  0
LINE
  8
_0-5_EL-M10011N_______8
  6
CONTINUOUS
 62
    7
 10
572.14300045021673
 20
1450.068074141383
 11
572.36684841704982
 21
1449.9373828637772
  0
LINE
  8
_0-4_EL-M10011N_______9
  6
CONTINUOUS
 62
    7
 10
570.54709520870983
 20
1471.5576970866132
 11
570.86703102121191
 21
1471.5916152755708
  0
LINE
  8
_0-4_EL-M10011N_______9
  6
CONTINUOUS
 62
    7
 10
570.86703102121191
 20
1471.5916152755708
 11
571.20527270185084
 21
1471.598102535901
  0
LINE
  8
_0-4_EL-M10011N_______9
  6
CONTINUOUS
 62
    7
 10
571.20527270185084
 20
1471.598102535901
 11
571.54485940088398
 21
1471.576833569804
  0
LINE
  8
_0-4_EL-M10011N_______9
  6
CONTINUOUS
 62
    7
 10
571.54485940088398
 20
1471.576833569804
 11
571.86876282241701
 21
1471.5288748915268
  0
LINE
  8
_0-4_EL-M10011N_______9
  6
CONTINUOUS
 62
    7
 10
571.86876282241701
 20
1471.5288748915268
 11
572.16074109647388
 21
1471.4566313494511
  0
LINE
  8
_0-4_EL-M10011N_______9
  6
CONTINUOUS
 62
    7
 10
572.16074109647388
 20
1471.4566313494511
 11
572.40615321372479
 21
1471.3637255365329
  0
LINE
  8
_0-4_EL-M10011N_______9
  6
CONTINUOUS
 62
    7
 10
572.40615321372479
 20
1471.3637255365329
 11
572.59269318583074
 21
1471.2548161386549
  0
LINE
  8
_0-4_EL-M10011N_______9
  6
CONTINUOUS
 62
    7
 10
570.22332100713584
 20
1451.7182272807449
 11
569.90175270564578
 21
1451.6842096538348
  0
LINE
  8
_0-5_EL-M10011N_______8
  6
CONTINUOUS
 62
    7
 10
570.45485636067497
 20
1451.4924426573848
 11
570.64804638298074
 21
1451.5118652083288
  0
LINE
  8
_0-5_EL-M10011N_______8
  6
CONTINUOUS
 62
    7
 10
570.64804638298074
 20
1451.5118652083288
 11
570.83729897221792
 21
1451.510980127804
  0
LINE
  8
_0-5_EL-M10011N_______8
  6
CONTINUOUS
 62
    7
 10
570.83729897221792
 20
1451.510980127804
 11
571.02281200073276
 21
1451.490964231843
  0
LINE
  8
_0-5_EL-M10011N_______8
  6
CONTINUOUS
 62
    7
 10
571.02281200073276
 20
1451.490964231843
 11
571.20828980579972
 21
1451.4513549475869
  0
LINE
  8
_0-5_EL-M10011N_______8
  6
CONTINUOUS
 62
    7
 10
571.20828980579972
 20
1451.4513549475869
 11
571.40199345039491
 21
1451.3875817190251
  0
LINE
  8
_0-5_EL-M10011N_______8
  6
CONTINUOUS
 62
    7
 10
571.40199345039491
 20
1451.3875817190251
 11
571.61172320086189
 21
1451.289568092091
  0
LINE
  8
_0-5_EL-M10011N_______8
  6
CONTINUOUS
 62
    7
 10
571.61172320086189
 20
1451.289568092091
 11
571.83055327653483
 21
1451.1487756655229
  0
LINE
  8
_0-4_EL-M10011N_______9
  6
CONTINUOUS
 62
    7
 10
570.56161246695001
 20
1451.7245769962651
 11
570.22332100713584
 21
1451.7182272807449
  0
LINE
  8
_0-5_EL-M10011N_______8
  6
CONTINUOUS
 62
    7
 10
1318.7483352695817
 20
1277.8474640580189
 11
1319.0512525862746
 21
1277.6634640643229
  0
LINE
  8
_0-5_EL-M10011N_______8
  6
CONTINUOUS
 62
    7
 10
1319.0512525862746
 20
1277.6634640643229
 11
1319.3393214719099
 21
1277.553579583051
  0
LINE
  8
_0-5_EL-M10011N_______8
  6
CONTINUOUS
 62
    7
 10
1319.3393214719099
 20
1277.553579583051
 11
1319.6019838708908
 21
1277.4985329971828
  0
LINE
  8
_0-5_EL-M10011N_______8
  6
CONTINUOUS
 62
    7
 10
1128.5921941520937
 20
1420.290403225928
 11
1128.7630266211968
 21
1420.18273966376
  0
LINE
  8
_0-5_EL-M10011N_______8
  6
CONTINUOUS
 62
    7
 10
1128.7630266211968
 20
1420.18273966376
 11
1129.0857787224527
 21
1420.0653842975048
  0
LINE
  8
_0-5_EL-M10011N_______8
  6
CONTINUOUS
 62
    7
 10
1129.0857787224527
 20
1420.0653842975048
 11
1129.4387595999297
 21
1420.03270751018
  0
LINE
  8
_0-5_EL-M10011N_______8
  6
CONTINUOUS
 62
    7
 10
1129.4387595999297
 20
1420.03270751018
 11
1129.8042693195057
 21
1420.086347850955
  0
LINE
  8
_0-2_02___PRT_ALL_AXES
  6
CONTINUOUS
 62
    7
 10
1009.142872850045
 20
1469.708840025889
 11
1010.3676361640387
 21
1468.7471998419851
  0
LINE
  8
_0-2_02___PRT_ALL_AXES
  6
CONTINUOUS
 62
    7
 10
1010.3676361640387
 20
1468.7471998419851
 11
1011.4985032982868
 21
1467.7675758004748
  0
LINE
  8
_0-2_02___PRT_ALL_AXES
  6
CONTINUOUS
 62
    7
 10
1011.4985032982868
 20
1467.7675758004748
 11
1012.5339653335318
 21
1466.7712750186329
  0
LINE
  8
_0-2_02___PRT_ALL_AXES
  6
CONTINUOUS
 62
    7
 10
1012.5339653335318
 20
1466.7712750186329
 11
1013.4726406479476
 21
1465.759626863372
  0
LINE
  8
_0-2_02___PRT_ALL_AXES
  6
CONTINUOUS
 62
    7
 10
1013.4726406479476
 20
1465.759626863372
 11
1014.3132767649959
 21
1464.7339811795891
  0
LINE
  8
_0-2_02___PRT_ALL_AXES
  6
CONTINUOUS
 62
    7
 10
1014.3132767649959
 20
1464.7339811795891
 11
1015.054752020676
 21
1463.6957064903308
  0
LINE
  8
_0-2_02___PRT_ALL_AXES
  6
CONTINUOUS
 62
    7
 10
1015.054752020676
 20
1463.6957064903308
 11
1015.6960770623818
 21
1462.6461881679852
  0
LINE
  8
_0-2_02___PRT_ALL_AXES
  6
CONTINUOUS
 62
    7
 10
1015.6960770623818
 20
1462.6461881679852
 11
1016.236396167923
 21
1461.586826589481
  0
LINE
  8
_0-2_02___PRT_ALL_AXES
  6
CONTINUOUS
 62
    7
 10
1016.236396167923
 20
1461.586826589481
 11
1016.6749883885268
 21
1460.5190352632949
  0
LINE
  8
_0-2_02___PRT_ALL_AXES
  6
CONTINUOUS
 62
    7
 10
1016.6749883885268
 20
1460.5190352632949
 11
1017.0112685074309
 21
1459.4442389473088
  0
LINE
  8
_0-2_02___PRT_ALL_AXES
  6
CONTINUOUS
 62
    7
 10
1017.0112685074309
 20
1459.4442389473088
 11
1017.2447878270318
 21
1458.3638717460972
  0
LINE
  8
_0-2_02___PRT_ALL_AXES
  6
CONTINUOUS
 62
    7
 10
1017.2447878270318
 20
1458.3638717460972
 11
1017.3752347601926
 21
1457.2793751975432
  0
LINE
  8
_0-2_02___PRT_ALL_AXES
  6
CONTINUOUS
 62
    7
 10
1017.3752347601926
 20
1457.2793751975432
 11
1017.4034914766039
 21
1456.6545592470252
  0
LINE
  8
_0-2_02___PRT_ALL_AXES
  6
CONTINUOUS
 62
    7
 10
1009.0623114119817
 20
1474.209915788515
 11
1010.2870747267366
 21
1473.2482756038489
  0
LINE
  8
_0-2_02___PRT_ALL_AXES
  6
CONTINUOUS
 62
    7
 10
1010.2870747267366
 20
1473.2482756038489
 11
1011.4179418609856
 21
1472.2686515631012
  0
LINE
  8
_0-2_02___PRT_ALL_AXES
  6
CONTINUOUS
 62
    7
 10
1011.4179418609856
 20
1472.2686515631012
 11
1012.453403895468
 21
1471.2723507812589
  0
LINE
  8
_0-2_02___PRT_ALL_AXES
  6
CONTINUOUS
 62
    7
 10
1012.453403895468
 20
1471.2723507812589
 11
1013.3920792098838
 21
1470.2607026252349
  0
LINE
  8
_0-2_02___PRT_ALL_AXES
  6
CONTINUOUS
 62
    7
 10
1013.3920792098838
 20
1470.2607026252349
 11
1014.2327153269316
 21
1469.2350569422151
  0
LINE
  8
_0-2_02___PRT_ALL_AXES
  6
CONTINUOUS
 62
    7
 10
1014.2327153269316
 20
1469.2350569422151
 11
1014.9741905826108
 21
1468.1967822521951
  0
LINE
  8
_0-2_02___PRT_ALL_AXES
  6
CONTINUOUS
 62
    7
 10
1014.9741905826108
 20
1468.1967822521951
 11
1015.6155156243176
 21
1467.1472639306112
  0
LINE
  8
_0-2_02___PRT_ALL_AXES
  6
CONTINUOUS
 62
    7
 10
1015.6155156243176
 20
1467.1472639306112
 11
1016.1558347298596
 21
1466.0879023513448
  0
LINE
  8
_0-2_02___PRT_ALL_AXES
  6
CONTINUOUS
 62
    7
 10
1016.1558347298596
 20
1466.0879023513448
 11
1016.5944269504639
 21
1465.0201110259209
  0
LINE
  8
_0-2_02___PRT_ALL_AXES
  6
CONTINUOUS
 62
    7
 10
1016.5944269504639
 20
1465.0201110259209
 11
1016.9307070701288
 21
1463.9453147099348
  0
LINE
  8
_0-2_02___PRT_ALL_AXES
  6
CONTINUOUS
 62
    7
 10
1016.9307070701288
 20
1463.9453147099348
 11
1017.1642263889667
 21
1462.8649475087232
  0
LINE
  8
_0-2_02___PRT_ALL_AXES
  6
CONTINUOUS
 62
    7
 10
1017.1642263889667
 20
1462.8649475087232
 11
1017.2946733221288
 21
1461.7804509594071
  0
LINE
  8
_0-2_02___PRT_ALL_AXES
  6
CONTINUOUS
 62
    7
 10
1017.2946733221288
 20
1461.7804509594071
 11
1017.3229300393018
 21
1461.1556350096512
  0
LINE
  8
_0-5_EL-M10011N_______8
  6
CONTINUOUS
 62
    7
 10
1127.8641975837058
 20
1421.6275677852732
 11
1117.975836577637
 21
1564.2192194362992
  0
LINE
  8
_0-4_EL-M10011N_______9
  6
CONTINUOUS
 62
    7
 10
1117.4278825216547
 20
1585.3178709043932
 11
1118.7771715479898
 21
1565.8609203870792
  0
LINE
  8
_0-5_EL-M10011N_______8
  6
CONTINUOUS
 62
    7
 10
1128.8666153647437
 20
1422.369834041911
 11
1118.9782543579126
 21
1564.961485692937
  0
LINE
  8
_0-4_EL-M10011N_______9
  6
CONTINUOUS
 62
    7
 10
1119.6125196982198
 20
1566.4794756008168
 11
1118.2632306726468
 21
1585.9364261181308
  0
LINE
  8
_0-4_EL-M10011N_______9
  6
CONTINUOUS
 62
    7
 10
1118.2632306726468
 20
1585.9364261181308
 11
1118.2589589898016
 21
1586.2328166823208
  0
LINE
  8
_0-4_EL-M10011N_______9
  6
CONTINUOUS
 62
    7
 10
1118.2589589898016
 20
1586.2328166823208
 11
1118.289250293456
 21
1586.4886148572868
  0
LINE
  8
_0-4_EL-M10011N_______9
  6
CONTINUOUS
 62
    7
 10
1118.289250293456
 20
1586.4886148572868
 11
1118.3525856501478
 21
1586.6909938543572
  0
LINE
  8
_0-4_EL-M10011N_______9
  6
CONTINUOUS
 62
    7
 10
1118.3525856501478
 20
1586.6909938543572
 11
1118.445789161226
 21
1586.8298055457449
  0
LINE
  8
_0-4_EL-M10011N_______9
  6
CONTINUOUS
 62
    7
 10
1118.445789161226
 20
1586.8298055457449
 11
1118.560268094066
 21
1586.8970943870372
  0
LINE
  8
_0-5_EL-M10011N_______8
  6
CONTINUOUS
 62
    7
 10
1118.9782543579126
 20
1564.961485692937
 11
1118.973128338956
 21
1565.317154369965
  0
LINE
  8
_0-5_EL-M10011N_______8
  6
CONTINUOUS
 62
    7
 10
1118.973128338956
 20
1565.317154369965
 11
1119.0094779030346
 21
1565.6241121794669
  0
LINE
  8
_0-5_EL-M10011N_______8
  6
CONTINUOUS
 62
    7
 10
1119.0094779030346
 20
1565.6241121794669
 11
1119.0854803316747
 21
1565.8669669759511
  0
LINE
  8
_0-5_EL-M10011N_______8
  6
CONTINUOUS
 62
    7
 10
1119.0854803316747
 20
1565.8669669759511
 11
1119.1973245443596
 21
1566.033541005007
  0
LINE
  8
_0-5_EL-M10011N_______8
  6
CONTINUOUS
 62
    7
 10
1119.1973245443596
 20
1566.033541005007
 11
1119.3346992637667
 21
1566.1142876151671
  0
LINE
  8
_0-5_EL-M10011N_______8
  6
CONTINUOUS
 62
    7
 10
1117.975836577637
 20
1564.2192194362992
 11
1117.9956032142536
 21
1564.6419500119691
  0
LINE
  8
_0-5_EL-M10011N_______8
  6
CONTINUOUS
 62
    7
 10
1117.9956032142536
 20
1564.6419500119691
 11
1118.1162525556319
 21
1565.058931859995
  0
LINE
  8
_0-5_EL-M10011N_______8
  6
CONTINUOUS
 62
    7
 10
1118.1162525556319
 20
1565.058931859995
 11
1118.3255928684707
 21
1565.4273485516601
  0
LINE
  8
_0-5_EL-M10011N_______8
  6
CONTINUOUS
 62
    7
 10
1118.3255928684707
 20
1565.4273485516601
 11
1118.5744841489459
 21
1565.7029394061151
  0
LINE
  8
_0-5_EL-M10011N_______8
  6
CONTINUOUS
 62
    7
 10
1118.5744841489459
 20
1565.7029394061151
 11
1118.8379721429237
 21
1565.9008976601849
  0
LINE
  8
_0-5_EL-M10011N_______8
  6
CONTINUOUS
 62
    7
 10
1118.8379721429237
 20
1565.9008976601849
 11
1119.0953687530978
 21
1566.033234743491
  0
LINE
  8
_0-5_EL-M10011N_______8
  6
CONTINUOUS
 62
    7
 10
1119.0953687530978
 20
1566.033234743491
 11
1119.3346992637667
 21
1566.1142876151671
  0
LINE
  8
_0-4_EL-M10011N_______9
  6
CONTINUOUS
 62
    7
 10
1117.4278825216547
 20
1585.3178709043932
 11
1117.4445315526186
 21
1585.671221327485
  0
LINE
  8
_0-4_EL-M10011N_______9
  6
CONTINUOUS
 62
    7
 10
1117.4445315526186
 20
1585.671221327485
 11
1117.544853928302
 21
1586.017532291708
  0
LINE
  8
_0-4_EL-M10011N_______9
  6
CONTINUOUS
 62
    7
 10
1117.544853928302
 20
1586.017532291708
 11
1117.7199116233969
 21
1586.3254156949888
  0
LINE
  8
_0-4_EL-M10011N_______9
  6
CONTINUOUS
 62
    7
 10
1117.7199116233969
 20
1586.3254156949888
 11
1117.9569776796179
 21
1586.5808835879129
  0
LINE
  8
_0-4_EL-M10011N_______9
  6
CONTINUOUS
 62
    7
 10
1117.9569776796179
 20
1586.5808835879129
 11
1118.2417738042068
 21
1586.7736712277369
  0
LINE
  8
_0-4_EL-M10011N_______9
  6
CONTINUOUS
 62
    7
 10
1118.2417738042068
 20
1586.7736712277369
 11
1118.560268094066
 21
1586.8970943870372
  0
LINE
  8
_0-2_02___PRT_ALL_AXES
  6
CONTINUOUS
 62
    7
 10
1039.9655641016689
 20
1089.9022107336309
 11
1040.2280605042847
 21
1091.061962671934
  0
LINE
  8
_0-2_02___PRT_ALL_AXES
  6
CONTINUOUS
 62
    7
 10
1040.2280605042847
 20
1091.061962671934
 11
1040.4285907742928
 21
1092.169753509434
  0
LINE
  8
_0-2_02___PRT_ALL_AXES
  6
CONTINUOUS
 62
    7
 10
1040.4285907742928
 20
1092.169753509434
 11
1040.5440008322707
 21
1093.017942482089
  0
LINE
  8
_0-2_02___PRT_ALL_AXES
  6
CONTINUOUS
 62
    7
 10
1033.7191003147136
 20
1193.4684923339528
 11
1033.5468797079238
 21
1193.3247915652209
  0
LINE
  8
_0-2_02___PRT_ALL_AXES
  6
CONTINUOUS
 62
    7
 10
1033.5468797079238
 20
1193.3247915652209
 11
1033.328044993194
 21
1193.1751611189911
  0
LINE
  8
_0-2_02___PRT_ALL_AXES
  6
CONTINUOUS
 62
    7
 10
1033.328044993194
 20
1193.1751611189911
 11
1033.0563318912059
 21
1193.0163381798429
  0
LINE
  8
_0-2_02___PRT_ALL_AXES
  6
CONTINUOUS
 62
    7
 10
1033.0563318912059
 20
1193.0163381798429
 11
1032.725262371735
 21
1192.8457255385961
  0
LINE
  8
_0-2_02___PRT_ALL_AXES
  6
CONTINUOUS
 62
    7
 10
1032.725262371735
 20
1192.8457255385961
 11
1032.3303095238466
 21
1192.6618613477772
  0
LINE
  8
_0-5_EL-M10011N_______8
  6
CONTINUOUS
 62
    7
 10
1380.5557618056118
 20
1460.2598905359669
 11
1381.1820204636838
 21
1460.7087999866349
  0
LINE
  8
_0-5_EL-M10011N_______8
  6
CONTINUOUS
 62
    7
 10
1381.1820204636838
 20
1460.7087999866349
 11
1381.9597771019698
 21
1461.1219355992748
  0
LINE
  8
_0-5_EL-M10011N_______8
  6
CONTINUOUS
 62
    7
 10
1381.9597771019698
 20
1461.1219355992748
 11
1382.8707998074788
 21
1461.489180546776
  0
LINE
  8
_0-5_EL-M10011N_______8
  6
CONTINUOUS
 62
    7
 10
1382.8707998074788
 20
1461.489180546776
 11
1383.8936758841519
 21
1461.8013854745609
  0
LINE
  8
_0-2_02___PRT_ALL_AXES
  6
CONTINUOUS
 62
    7
 10
862.7974795744376
 20
1109.007945970141
 11
862.08937823931001
 21
1108.5032219823852
  0
LINE
  8
_0-2_02___PRT_ALL_AXES
  6
CONTINUOUS
 62
    7
 10
862.08937823931001
 20
1108.5032219823852
 11
861.39618984082699
 21
1107.8507046420068
  0
LINE
  8
_0-2_02___PRT_ALL_AXES
  6
CONTINUOUS
 62
    7
 10
861.39618984082699
 20
1107.8507046420068
 11
860.72977273652987
 21
1107.061554498187
  0
LINE
  8
_0-2_02___PRT_ALL_AXES
  6
CONTINUOUS
 62
    7
 10
860.72977273652987
 20
1107.061554498187
 11
860.10152786678282
 21
1106.1492686336592
  0
LINE
  8
_0-2_02___PRT_ALL_AXES
  6
CONTINUOUS
 62
    7
 10
860.10152786678282
 20
1106.1492686336592
 11
859.52220395405993
 21
1105.129450191715
  0
LINE
  8
_0-2_02___PRT_ALL_AXES
  6
CONTINUOUS
 62
    7
 10
859.52220395405993
 20
1105.129450191715
 11
859.00171380835081
 21
1104.0195419390948
  0
LINE
  8
_0-2_02___PRT_ALL_AXES
  6
CONTINUOUS
 62
    7
 10
859.00171380835081
 20
1104.0195419390948
 11
858.54896488733402
 21
1102.838528402473
  0
LINE
  8
_0-2_02___PRT_ALL_AXES
  6
CONTINUOUS
 62
    7
 10
858.54896488733402
 20
1102.838528402473
 11
858.17170698246582
 21
1101.606611660317
  0
LINE
  8
_0-2_02___PRT_ALL_AXES
  6
CONTINUOUS
 62
    7
 10
863.12476031560664
 20
1090.7223256146081
 11
863.8328617513198
 21
1091.227049673229
  0
LINE
  8
_0-2_02___PRT_ALL_AXES
  6
CONTINUOUS
 62
    7
 10
863.8328617513198
 20
1091.227049673229
 11
864.52605014903884
 21
1091.8795670136069
  0
LINE
  8
_0-2_02___PRT_ALL_AXES
  6
CONTINUOUS
 62
    7
 10
864.52605014903884
 20
1091.8795670136069
 11
865.19246725333778
 21
1092.6687171574272
  0
LINE
  8
_0-2_02___PRT_ALL_AXES
  6
CONTINUOUS
 62
    7
 10
865.19246725333778
 20
1092.6687171574272
 11
865.82071212308392
 21
1093.581003021955
  0
LINE
  8
_0-2_02___PRT_ALL_AXES
  6
CONTINUOUS
 62
    7
 10
865.82071212308392
 20
1093.581003021955
 11
866.40003603656987
 21
1094.6008214638991
  0
LINE
  8
_0-2_02___PRT_ALL_AXES
  6
CONTINUOUS
 62
    7
 10
866.40003603656987
 20
1094.6008214638991
 11
866.92052618151502
 21
1095.710729717282
  0
LINE
  8
_0-2_02___PRT_ALL_AXES
  6
CONTINUOUS
 62
    7
 10
866.92052618151502
 20
1095.710729717282
 11
867.37327510253363
 21
1096.8917432531412
  0
LINE
  8
_0-2_02___PRT_ALL_AXES
  6
CONTINUOUS
 62
    7
 10
867.37327510253363
 20
1096.8917432531412
 11
867.75053306836162
 21
1098.123660193417
  0
LINE
  8
_0-2_02___PRT_ALL_AXES
  6
CONTINUOUS
 62
    7
 10
862.79747968035599
 20
1109.0079460379588
 11
862.21205409225468
 21
1108.6303681609088
  0
LINE
  8
_0-2_02___PRT_ALL_AXES
  6
CONTINUOUS
 62
    7
 10
862.21205409225468
 20
1108.6303681609088
 11
861.68628076585082
 21
1108.2382213963092
  0
LINE
  8
_0-2_02___PRT_ALL_AXES
  6
CONTINUOUS
 62
    7
 10
861.68628076585082
 20
1108.2382213963092
 11
861.21483787714169
 21
1107.8301707963592
  0
LINE
  8
_0-2_02___PRT_ALL_AXES
  6
CONTINUOUS
 62
    7
 10
861.21483787714169
 20
1107.8301707963592
 11
860.78901682682999
 21
1107.401976441422
  0
LINE
  8
_0-2_02___PRT_ALL_AXES
  6
CONTINUOUS
 62
    7
 10
860.78901682682999
 20
1107.401976441422
 11
860.39859763129198
 21
1106.9458507951272
  0
LINE
  8
_0-2_02___PRT_ALL_AXES
  6
CONTINUOUS
 62
    7
 10
1032.330309508608
 20
1192.6618613553969
 11
1031.8579187604778
 21
1192.3601675219061
  0
LINE
  8
_0-2_02___PRT_ALL_AXES
  6
CONTINUOUS
 62
    7
 10
1031.8579187604778
 20
1192.3601675219061
 11
1031.43414001266
 21
1191.8996192344689
  0
LINE
  8
_0-2_02___PRT_ALL_AXES
  6
CONTINUOUS
 62
    7
 10
1031.43414001266
 20
1191.8996192344689
 11
1031.0662205762878
 21
1191.28810423703
  0
LINE
  8
_0-2_02___PRT_ALL_AXES
  6
CONTINUOUS
 62
    7
 10
1031.0662205762878
 20
1191.28810423703
 11
1030.7604520674299
 21
1190.536091055511
  0
LINE
  8
_0-2_02___PRT_ALL_AXES
  6
CONTINUOUS
 62
    7
 10
1030.7604520674299
 20
1190.536091055511
 11
1030.5220629536566
 21
1189.6564498211469
  0
LINE
  8
_0-2_02___PRT_ALL_AXES
  6
CONTINUOUS
 62
    7
 10
1030.5220629536566
 20
1189.6564498211469
 11
1030.3551293276569
 21
1188.6642321728709
  0
LINE
  8
_0-2_02___PRT_ALL_AXES
  6
CONTINUOUS
 62
    7
 10
1030.3551293276569
 20
1188.6642321728709
 11
1030.2625053503448
 21
1187.5764139642092
  0
LINE
  8
_0-2_02___PRT_ALL_AXES
  6
CONTINUOUS
 62
    7
 10
1030.2625053503448
 20
1187.5764139642092
 11
1030.245774551448
 21
1186.4116051523529
  0
LINE
  8
_0-3_7_ALL_FEATURES
  6
CONTINUOUS
 62
    7
 10
873.01429819714804
 20
1091.0069977678932
 11
866.73750779393276
 21
1087.2337587837792
  0
LINE
  8
_0-2_02___PRT_ALL_AXES
  6
CONTINUOUS
 62
    7
 10
863.12476029884283
 20
1090.7223256199409
 11
863.77138211761076
 21
1091.0853825270492
  0
LINE
  8
_0-2_02___PRT_ALL_AXES
  6
CONTINUOUS
 62
    7
 10
863.77138211761076
 20
1091.0853825270492
 11
864.47864442444597
 21
1091.434464610189
  0
LINE
  8
_0-2_02___PRT_ALL_AXES
  6
CONTINUOUS
 62
    7
 10
864.47864442444597
 20
1091.434464610189
 11
865.24742209440501
 21
1091.7719620149492
  0
LINE
  8
_0-2_02___PRT_ALL_AXES
  6
CONTINUOUS
 62
    7
 10
865.24742209440501
 20
1091.7719620149492
 11
866.08404980113073
 21
1092.1026779572749
  0
LINE
  8
_0-2_02___PRT_ALL_AXES
  6
CONTINUOUS
 62
    7
 10
866.08404980113073
 20
1092.1026779572749
 11
867.00266887625867
 21
1092.433469496098
  0
LINE
  8
_0-3_7_ALL_FEATURES
  6
CONTINUOUS
 62
    7
 10
1022.937226674288
 20
1190.1837019899071
 11
1027.295252137289
 21
1192.1270065190888
  0
LINE
  8
_0-2_02___PRT_ALL_AXES
  6
CONTINUOUS
 62
    7
 10
1032.3303095238466
 20
1192.6618613477772
 11
1031.8699031368128
 21
1192.4643114845589
  0
LINE
  8
_0-2_02___PRT_ALL_AXES
  6
CONTINUOUS
 62
    7
 10
1031.8699031368128
 20
1192.4643114845589
 11
1031.3448830550287
 21
1192.2531870721632
  0
LINE
  8
_0-2_02___PRT_ALL_AXES
  6
CONTINUOUS
 62
    7
 10
1031.3448830550287
 20
1192.2531870721632
 11
1030.7554740105838
 21
1192.0280250210908
  0
LINE
  8
_0-2_02___PRT_ALL_AXES
  6
CONTINUOUS
 62
    7
 10
1030.7554740105838
 20
1192.0280250210908
 11
1030.0977220250998
 21
1191.7867614893948
  0
LINE
  8
_0-2_02___PRT_ALL_AXES
  6
CONTINUOUS
 62
    7
 10
1030.0977220250998
 20
1191.7867614893948
 11
1029.3610748517108
 21
1191.5251878055328
  0
LINE
  8
_0-5_EL-M10011N_______8
  6
CONTINUOUS
 62
    7
 10
1315.0061729809968
 20
1303.5561544106649
 11
1315.7190992391647
 21
1303.7791786364469
  0
LINE
  8
_0-5_EL-M10011N_______8
  6
CONTINUOUS
 62
    7
 10
1315.7190992391647
 20
1303.7791786364469
 11
1316.3386649182439
 21
1304.0473050905421
  0
LINE
  8
_0-5_EL-M10011N_______8
  6
CONTINUOUS
 62
    7
 10
1316.3386649182439
 20
1304.0473050905421
 11
1316.8425835870607
 21
1304.3509849878792
  0
LINE
  8
_0-5_EL-M10011N_______8
  6
CONTINUOUS
 62
    7
 10
1316.8425835870607
 20
1304.3509849878792
 11
1317.0598890097008
 21
1304.543227224679
  0
LINE
  8
_0-6__V_K___I
  6
CONTINUOUS
 62
    7
 10
1787.8397284115626
 20
1430.148470925044
 11
1788.9684483723049
 21
1430.498442094543
  0
LINE
  8
_0-6__V_K___I
  6
CONTINUOUS
 62
    7
 10
1788.9684483723049
 20
1430.498442094543
 11
1789.9572624767152
 21
1430.915413082545
  0
LINE
  8
_0-6__V_K___I
  6
CONTINUOUS
 62
    7
 10
1789.9572624767152
 20
1430.915413082545
 11
1790.7769050563757
 21
1431.3866539002852
  0
LINE
  8
_0-6__V_K___I
  6
CONTINUOUS
 62
    7
 10
1790.7769050563757
 20
1431.3866539002852
 11
1791.1378086032992
 21
1431.681296611735
  0
LINE
  8
_0-6__V_K___I
  6
CONTINUOUS
 62
    7
 10
1789.1130424412577
 20
1428.4137787464788
 11
1787.9842950927114
 21
1428.0637976557391
  0
LINE
  8
_0-5_EL-M10011N_______8
  6
CONTINUOUS
 62
    7
 10
1789.0057764998328
 20
1427.9859722144888
 11
1790.028652576505
 21
1428.2981771422751
  0
LINE
  8
_0-5_EL-M10011N_______8
  6
CONTINUOUS
 62
    7
 10
1790.028652576505
 20
1428.2981771422751
 11
1790.9396752820148
 21
1428.6654220897749
  0
LINE
  8
_0-5_EL-M10011N_______8
  6
CONTINUOUS
 62
    7
 10
1790.9396752820148
 20
1428.6654220897749
 11
1791.7174319210635
 21
1429.0785577024149
  0
LINE
  8
_0-5_EL-M10011N_______8
  6
CONTINUOUS
 62
    7
 10
1791.7174319210635
 20
1429.0785577024149
 11
1792.343690579135
 21
1429.5274671530829
  0
LINE
  8
_0-5_EL-M10011N_______8
  6
CONTINUOUS
 62
    7
 10
1792.343690579135
 20
1429.5274671530829
 11
1792.8037329618182
 21
1430.001278544295
  0
LINE
  8
_0-5_EL-M10011N_______8
  6
CONTINUOUS
 62
    7
 10
1792.8037329618182
 20
1430.001278544295
 11
1792.9428625801784
 21
1430.24094076652
  0
LINE
  8
_0-4_EL-M10011N_______9
  6
CONTINUOUS
 62
    7
 10
1118.2632306726468
 20
1585.9364261181308
 11
1684.5335124437643
 21
1735.0022906741469
  0
LINE
  8
_0-4_EL-M10011N_______9
  6
CONTINUOUS
 62
    7
 10
1684.8305498651807
 20
1735.9629589430529
 11
1118.560268094066
 21
1586.8970943870372
  0
LINE
  8
_0-4_EL-M10011N_______9
  6
CONTINUOUS
 62
    7
 10
2.5326082010937512
 20
1364.013282238358
 11
2.2457269237006017
 21
1363.9532811140111
  0
LINE
  8
_0-5_EL-M10011N_______8
  6
CONTINUOUS
 62
    7
 10
1686.0633135139497
 20
1714.241833507057
 11
1686.4465328336155
 21
1714.3218494598009
  0
LINE
  8
_0-5_EL-M10011N_______8
  6
CONTINUOUS
 62
    7
 10
1686.4465328336155
 20
1714.3218494598009
 11
1686.8517544803717
 21
1714.36697692403
  0
LINE
  8
_0-5_EL-M10011N_______8
  6
CONTINUOUS
 62
    7
 10
1686.8517544803717
 20
1714.36697692403
 11
1687.2586589477396
 21
1714.3749530195828
  0
LINE
  8
_0-5_EL-M10011N_______8
  6
CONTINUOUS
 62
    7
 10
1687.2586589477396
 20
1714.3749530195828
 11
1687.6468423461238
 21
1714.3453777932368
  0
LINE
  8
_0-5_EL-M10011N_______8
  6
CONTINUOUS
 62
    7
 10
1687.6468423461238
 20
1714.3453777932368
 11
1687.9968395394471
 21
1714.2797342684412
  0
LINE
  8
_0-5_EL-M10011N_______8
  6
CONTINUOUS
 62
    7
 10
1687.9968395394471
 20
1714.2797342684412
 11
1688.291100207719
 21
1714.181314087838
  0
LINE
  8
_0-5_EL-M10011N_______8
  6
CONTINUOUS
 62
    7
 10
1688.291100207719
 20
1714.181314087838
 11
1688.5148688914987
 21
1714.0550524480568
  0
LINE
  8
_0-4_EL-M10011N_______9
  6
CONTINUOUS
 62
    7
 10
1684.5335124437643
 20
1735.0022906741469
 11
1684.8528618774535
 21
1735.068970634768
  0
LINE
  8
_0-4_EL-M10011N_______9
  6
CONTINUOUS
 62
    7
 10
1684.8528618774535
 20
1735.068970634768
 11
1685.190546583337
 21
1735.106576854957
  0
LINE
  8
_0-4_EL-M10011N_______9
  6
CONTINUOUS
 62
    7
 10
1685.190546583337
 20
1735.106576854957
 11
1685.5296336389692
 21
1735.113223601888
  0
LINE
  8
_0-4_EL-M10011N_______9
  6
CONTINUOUS
 62
    7
 10
1685.5296336389692
 20
1735.113223601888
 11
1685.853119804543
 21
1735.088577579043
  0
LINE
  8
_0-4_EL-M10011N_______9
  6
CONTINUOUS
 62
    7
 10
1685.853119804543
 20
1735.088577579043
 11
1686.1447841323134
 21
1735.0338746422208
  0
LINE
  8
_0-4_EL-M10011N_______9
  6
CONTINUOUS
 62
    7
 10
1686.1447841323134
 20
1735.0338746422208
 11
1686.3900013558732
 21
1734.9518578245429
  0
LINE
  8
_0-4_EL-M10011N_______9
  6
CONTINUOUS
 62
    7
 10
1686.3900013558732
 20
1734.9518578245429
 11
1686.5764752587684
 21
1734.8466397916468
  0
LINE
  8
_0-4_EL-M10011N_______9
  6
CONTINUOUS
 62
    7
 10
1686.2037805588971
 20
1715.612277906625
 11
1685.8828014700975
 21
1715.5453401568329
  0
LINE
  8
_0-5_EL-M10011N_______8
  6
CONTINUOUS
 62
    7
 10
1686.4197584190415
 20
1715.394635429288
 11
1686.6320174715356
 21
1715.437259651887
  0
LINE
  8
_0-5_EL-M10011N_______8
  6
CONTINUOUS
 62
    7
 10
1686.6320174715356
 20
1715.437259651887
 11
1686.8427904868695
 21
1715.4543914799551
  0
LINE
  8
_0-5_EL-M10011N_______8
  6
CONTINUOUS
 62
    7
 10
1686.8427904868695
 20
1715.4543914799551
 11
1687.0517194873491
 21
1715.4472994537532
  0
LINE
  8
_0-5_EL-M10011N_______8
  6
CONTINUOUS
 62
    7
 10
1687.0517194873491
 20
1715.4472994537532
 11
1687.2628626708529
 21
1715.41548989177
  0
LINE
  8
_0-5_EL-M10011N_______8
  6
CONTINUOUS
 62
    7
 10
1687.2628626708529
 20
1715.41548989177
 11
1687.4872213453255
 21
1715.3529956382972
  0
LINE
  8
_0-5_EL-M10011N_______8
  6
CONTINUOUS
 62
    7
 10
1687.4872213453255
 20
1715.3529956382972
 11
1687.72816042047
 21
1715.249083023416
  0
LINE
  8
_0-5_EL-M10011N_______8
  6
CONTINUOUS
 62
    7
 10
1687.72816042047
 20
1715.249083023416
 11
1687.9817359458302
 21
1715.0897691718628
  0
LINE
  8
_0-5_EL-M10011N_______8
  6
CONTINUOUS
 62
    7
 10
570.45485636067497
 20
1451.4924426573848
 11
570.42731591359779
 21
1451.487003297932
  0
LINE
  8
_0-5_EL-M10011N_______8
  6
CONTINUOUS
 62
    7
 10
570.42731591359779
 20
1451.487003297932
 11
570.26486952119376
 21
1451.4008091711071
  0
LINE
  8
_0-5_EL-M10011N_______8
  6
CONTINUOUS
 62
    7
 10
570.26486952119376
 20
1451.4008091711071
 11
570.12595388233785
 21
1451.2285818434771
  0
LINE
  8
_0-5_EL-M10011N_______8
  6
CONTINUOUS
 62
    7
 10
570.12595388233785
 20
1451.2285818434771
 11
570.0175348055518
 21
1450.9789575106211
  0
LINE
  8
_0-5_EL-M10011N_______8
  6
CONTINUOUS
 62
    7
 10
570.0175348055518
 20
1450.9789575106211
 11
569.94504887737185
 21
1450.6644533796612
  0
LINE
  8
_0-5_EL-M10011N_______8
  6
CONTINUOUS
 62
    7
 10
569.94504887737185
 20
1450.6644533796612
 11
569.91213084465562
 21
1450.300840000717
  0
LINE
  8
_0-4_EL-M10011N_______9
  6
CONTINUOUS
 62
    7
 10
570.9993664723138
 20
1472.5506992999949
 11
570.97641609987568
 21
1472.5461665003231
  0
LINE
  8
_0-4_EL-M10011N_______9
  6
CONTINUOUS
 62
    7
 10
570.97641609987568
 20
1472.5461665003231
 11
570.84104410620466
 21
1472.4743380615569
  0
LINE
  8
_0-4_EL-M10011N_______9
  6
CONTINUOUS
 62
    7
 10
570.84104410620466
 20
1472.4743380615569
 11
570.72528107382595
 21
1472.330815288406
  0
LINE
  8
_0-4_EL-M10011N_______9
  6
CONTINUOUS
 62
    7
 10
570.72528107382595
 20
1472.330815288406
 11
570.63493184329764
 21
1472.1227950110251
  0
LINE
  8
_0-4_EL-M10011N_______9
  6
CONTINUOUS
 62
    7
 10
570.63493184329764
 20
1472.1227950110251
 11
570.57452690314767
 21
1471.860708235225
  0
LINE
  8
_0-4_EL-M10011N_______9
  6
CONTINUOUS
 62
    7
 10
570.57452690314767
 20
1471.860708235225
 11
570.54709520870983
 21
1471.5576970866132
  0
LINE
  8
_0-4_EL-M10011N_______9
  6
CONTINUOUS
 62
    7
 10
3.1779507041579791
 20
1383.886769671135
 11
570.54709520870983
 21
1471.5576970866132
  0
LINE
  8
_0-4_EL-M10011N_______9
  6
CONTINUOUS
 62
    7
 10
570.9993664723138
 20
1472.5506992999949
 11
3.6302219677617131
 21
1384.8797718852788
  0
LINE
  8
_0-5_EL-M10011N_______8
  6
CONTINUOUS
 62
    7
 10
1308.9582400644408
 20
1303.9800697477449
 11
1309.0848801812399
 21
1303.8852936645012
  0
LINE
  8
_0-5_EL-M10011N_______8
  6
CONTINUOUS
 62
    7
 10
1309.0848801812399
 20
1303.8852936645012
 11
1309.5948425760948
 21
1303.6429112203868
  0
LINE
  8
_0-5_EL-M10011N_______8
  6
CONTINUOUS
 62
    7
 10
1309.5948425760948
 20
1303.6429112203868
 11
1310.2186315769277
 21
1303.4498112230472
  0
LINE
  8
_0-5_EL-M10011N_______8
  6
CONTINUOUS
 62
    7
 10
1310.2186315769277
 20
1303.4498112230472
 11
1310.9357490827456
 21
1303.3124412051789
  0
LINE
  8
_0-5_EL-M10011N_______8
  6
CONTINUOUS
 62
    7
 10
1310.9357490827456
 20
1303.3124412051789
 11
1311.7213354005708
 21
1303.2356554321568
  0
LINE
  8
_0-5_EL-M10011N_______8
  6
CONTINUOUS
 62
    7
 10
1311.7213354005708
 20
1303.2356554321568
 11
1312.5445281641387
 21
1303.2219704493668
  0
LINE
  8
_0-5_EL-M10011N_______8
  6
CONTINUOUS
 62
    7
 10
1312.5445281641387
 20
1303.2219704493668
 11
1313.3882093581547
 21
1303.2719696142908
  0
LINE
  8
_0-5_EL-M10011N_______8
  6
CONTINUOUS
 62
    7
 10
1313.3882093581547
 20
1303.2719696142908
 11
1314.2189852142528
 21
1303.3846723335132
  0
LINE
  8
_0-5_EL-M10011N_______8
  6
CONTINUOUS
 62
    7
 10
1314.2189852142528
 20
1303.3846723335132
 11
1315.0061729809968
 21
1303.5561544106649
  0
LINE
  8
_0-5_EL-M10011N_______8
  6
CONTINUOUS
 62
    7
 10
1173.3281394120527
 20
1405.578419730979
 11
1173.4547795280887
 21
1405.4836436469732
  0
LINE
  8
_0-5_EL-M10011N_______8
  6
CONTINUOUS
 62
    7
 10
1173.4547795280887
 20
1405.4836436469732
 11
1173.964741922945
 21
1405.241261203621
  0
LINE
  8
_0-5_EL-M10011N_______8
  6
CONTINUOUS
 62
    7
 10
1173.964741922945
 20
1405.241261203621
 11
1174.5885309237779
 21
1405.0481612062808
  0
LINE
  8
_0-5_EL-M10011N_______8
  6
CONTINUOUS
 62
    7
 10
1174.5885309237779
 20
1405.0481612062808
 11
1175.3056484295948
 21
1404.910791188413
  0
LINE
  8
_0-5_EL-M10011N_______8
  6
CONTINUOUS
 62
    7
 10
1175.3056484295948
 20
1404.910791188413
 11
1176.0912347474218
 21
1404.8340054153909
  0
LINE
  8
_0-5_EL-M10011N_______8
  6
CONTINUOUS
 62
    7
 10
1176.0912347474218
 20
1404.8340054153909
 11
1176.9144275117519
 21
1404.820320432601
  0
LINE
  8
_0-5_EL-M10011N_______8
  6
CONTINUOUS
 62
    7
 10
1176.9144275117519
 20
1404.820320432601
 11
1177.7581087050057
 21
1404.8703195975249
  0
LINE
  8
_0-5_EL-M10011N_______8
  6
CONTINUOUS
 62
    7
 10
1177.7581087050057
 20
1404.8703195975249
 11
1178.5888845611039
 21
1404.9830223167469
  0
LINE
  8
_0-5_EL-M10011N_______8
  6
CONTINUOUS
 62
    7
 10
1178.5888845611039
 20
1404.9830223167469
 11
1179.3760723278479
 21
1405.1545043939
  0
LINE
  8
_0-5_EL-M10011N_______8
  6
CONTINUOUS
 62
    7
 10
1318.7483352695817
 20
1277.8474640580189
 11
1128.5921941520937
 21
1420.290403225928
  0
LINE
  8
_0-5_EL-M10011N_______8
  6
CONTINUOUS
 62
    7
 10
1319.9604104369928
 20
1277.643408682286
 11
1129.8042693195057
 21
1420.086347850955
  0
LINE
  8
_0-5_EL-M10011N_______8
  6
CONTINUOUS
 62
    7
 10
1129.8042693195057
 20
1420.086347850955
 11
1129.6184573050487
 21
1420.265178265201
  0
LINE
  8
_0-5_EL-M10011N_______8
  6
CONTINUOUS
 62
    7
 10
1129.6184573050487
 20
1420.265178265201
 11
1129.4361633394378
 21
1420.5186687544092
  0
LINE
  8
_0-5_EL-M10011N_______8
  6
CONTINUOUS
 62
    7
 10
1129.4361633394378
 20
1420.5186687544092
 11
1129.266528402864
 21
1420.8341082464649
  0
LINE
  8
_0-5_EL-M10011N_______8
  6
CONTINUOUS
 62
    7
 10
1129.266528402864
 20
1420.8341082464649
 11
1129.1180586998039
 21
1421.195679287101
  0
LINE
  8
_0-5_EL-M10011N_______8
  6
CONTINUOUS
 62
    7
 10
1129.1180586998039
 20
1421.195679287101
 11
1128.9981991211339
 21
1421.5852511965509
  0
LINE
  8
_0-5_EL-M10011N_______8
  6
CONTINUOUS
 62
    7
 10
1128.9981991211339
 20
1421.5852511965509
 11
1128.9129599266139
 21
1421.9832892102272
  0
LINE
  8
_0-5_EL-M10011N_______8
  6
CONTINUOUS
 62
    7
 10
1128.9129599266139
 20
1421.9832892102272
 11
1128.8666153647437
 21
1422.369834041911
  0
LINE
  8
_0-5_EL-M10011N_______8
  6
CONTINUOUS
 62
    7
 10
1127.8641975837058
 20
1421.6275677852732
 11
1127.9318357509428
 21
1421.2459204624629
  0
LINE
  8
_0-5_EL-M10011N_______8
  6
CONTINUOUS
 62
    7
 10
1127.9318357509428
 20
1421.2459204624629
 11
1128.0800308894018
 21
1420.884049993927
  0
LINE
  8
_0-5_EL-M10011N_______8
  6
CONTINUOUS
 62
    7
 10
1128.0800308894018
 20
1420.884049993927
 11
1128.303667269407
 21
1420.559755472083
  0
LINE
  8
_0-5_EL-M10011N_______8
  6
CONTINUOUS
 62
    7
 10
1128.303667269407
 20
1420.559755472083
 11
1128.5921941520937
 21
1420.290403225928
  0
LINE
  8
_0-5_EL-M10011N_______8
  6
CONTINUOUS
 62
    7
 10
1172.8756997784526
 20
1404.709839516403
 11
1172.8739547961668
 21
1404.7514183618709
  0
LINE
  8
_0-5_EL-M10011N_______8
  6
CONTINUOUS
 62
    7
 10
1172.8739547961668
 20
1404.7514183618709
 11
1172.9467240252789
 21
1405.0967193850088
  0
LINE
  8
_0-5_EL-M10011N_______8
  6
CONTINUOUS
 62
    7
 10
1172.9467240252789
 20
1405.0967193850088
 11
1173.1720464895438
 21
1405.4396183486888
  0
LINE
  8
_0-5_EL-M10011N_______8
  6
CONTINUOUS
 62
    7
 10
1173.1720464895438
 20
1405.4396183486888
 11
1173.5400823122718
 21
1405.766884186663
  0
LINE
  8
_0-5_EL-M10011N_______8
  6
CONTINUOUS
 62
    7
 10
1173.5400823122718
 20
1405.766884186663
 11
1174.0437686046166
 21
1406.0715681218712
  0
LINE
  8
_0-5_EL-M10011N_______8
  6
CONTINUOUS
 62
    7
 10
1174.0437686046166
 20
1406.0715681218712
 11
1174.6651414809949
 21
1406.3411312804828
  0
LINE
  8
_0-5_EL-M10011N_______8
  6
CONTINUOUS
 62
    7
 10
1174.6651414809949
 20
1406.3411312804828
 11
1175.3817226226338
 21
1406.5655036564772
  0
LINE
  8
_0-5_EL-M10011N_______8
  6
CONTINUOUS
 62
    7
 10
1181.9977485167929
 20
1405.3424299182252
 11
1181.9994934990787
 21
1405.3008510719951
  0
LINE
  8
_0-5_EL-M10011N_______8
  6
CONTINUOUS
 62
    7
 10
1181.9994934990787
 20
1405.3008510719951
 11
1181.9267242707288
 21
1404.955550049619
  0
LINE
  8
_0-5_EL-M10011N_______8
  6
CONTINUOUS
 62
    7
 10
1181.9267242707288
 20
1404.955550049619
 11
1181.701401806466
 21
1404.612651085939
  0
LINE
  8
_0-5_EL-M10011N_______8
  6
CONTINUOUS
 62
    7
 10
1181.701401806466
 20
1404.612651085939
 11
1181.3333659837367
 21
1404.285385247204
  0
LINE
  8
_0-5_EL-M10011N_______8
  6
CONTINUOUS
 62
    7
 10
1181.3333659837367
 20
1404.285385247204
 11
1180.829679691391
 21
1403.980701312757
  0
LINE
  8
_0-5_EL-M10011N_______8
  6
CONTINUOUS
 62
    7
 10
1180.829679691391
 20
1403.980701312757
 11
1180.2083068150127
 21
1403.7111381533832
  0
LINE
  8
_0-5_EL-M10011N_______8
  6
CONTINUOUS
 62
    7
 10
1180.2083068150127
 20
1403.7111381533832
 11
1179.491725672613
 21
1403.486765778151
  0
LINE
  8
_0-2_02___PRT_ALL_AXES
  6
CONTINUOUS
 62
    7
 10
1035.2296272746039
 20
1109.0733217921452
 11
1035.0574066678137
 21
1108.9296210234129
  0
LINE
  8
_0-2_02___PRT_ALL_AXES
  6
CONTINUOUS
 62
    7
 10
1035.0574066678137
 20
1108.9296210234129
 11
1034.8385719530838
 21
1108.779990577184
  0
LINE
  8
_0-2_02___PRT_ALL_AXES
  6
CONTINUOUS
 62
    7
 10
1034.8385719530838
 20
1108.779990577184
 11
1034.5668588503327
 21
1108.621167638797
  0
LINE
  8
_0-2_02___PRT_ALL_AXES
  6
CONTINUOUS
 62
    7
 10
1034.5668588503327
 20
1108.621167638797
 11
1034.2357893316257
 21
1108.4505549967871
  0
LINE
  8
_0-2_02___PRT_ALL_AXES
  6
CONTINUOUS
 62
    7
 10
1034.2357893316257
 20
1108.4505549967871
 11
1033.8408364837369
 21
1108.2666908067308
  0
LINE
  8
_0-2_02___PRT_ALL_AXES
  6
CONTINUOUS
 62
    7
 10
1037.066246269379
 20
1173.490750254974
 11
1037.5386369359758
 21
1173.7924440328388
  0
LINE
  8
_0-2_02___PRT_ALL_AXES
  6
CONTINUOUS
 62
    7
 10
1037.5386369359758
 20
1173.7924440328388
 11
1037.9624156708396
 21
1174.2529922958911
  0
LINE
  8
_0-2_02___PRT_ALL_AXES
  6
CONTINUOUS
 62
    7
 10
1037.9624156708396
 20
1174.2529922958911
 11
1038.3303350995907
 21
1174.864507258279
  0
LINE
  8
_0-2_02___PRT_ALL_AXES
  6
CONTINUOUS
 62
    7
 10
1038.3303350995907
 20
1174.864507258279
 11
1038.6361036061639
 21
1175.6165203963628
  0
LINE
  8
_0-2_02___PRT_ALL_AXES
  6
CONTINUOUS
 62
    7
 10
1038.6361036061639
 20
1175.6165203963628
 11
1038.8744927222219
 21
1176.4961615811981
  0
LINE
  8
_0-2_02___PRT_ALL_AXES
  6
CONTINUOUS
 62
    7
 10
1033.8408364684979
 20
1108.2666908135889
 11
1033.368445719605
 21
1107.9649969800971
  0
LINE
  8
_0-2_02___PRT_ALL_AXES
  6
CONTINUOUS
 62
    7
 10
1033.368445719605
 20
1107.9649969800971
 11
1032.9446669725498
 21
1107.5044486926608
  0
LINE
  8
_0-2_02___PRT_ALL_AXES
  6
CONTINUOUS
 62
    7
 10
1032.9446669725498
 20
1107.5044486926608
 11
1032.5767475361768
 21
1106.892933695221
  0
LINE
  8
_0-2_02___PRT_ALL_AXES
  6
CONTINUOUS
 62
    7
 10
1032.5767475361768
 20
1106.892933695221
 11
1032.2709790265567
 21
1106.140920514466
  0
LINE
  8
_0-2_02___PRT_ALL_AXES
  6
CONTINUOUS
 62
    7
 10
1032.2709790265567
 20
1106.140920514466
 11
1032.0325899135478
 21
1105.2612792793389
  0
LINE
  8
_0-2_02___PRT_ALL_AXES
  6
CONTINUOUS
 62
    7
 10
1032.0325899135478
 20
1105.2612792793389
 11
1031.8656562875476
 21
1104.2690616310629
  0
LINE
  8
_0-2_02___PRT_ALL_AXES
  6
CONTINUOUS
 62
    7
 10
1031.8656562875476
 20
1104.2690616310629
 11
1031.7730323102346
 21
1103.1812434231629
  0
LINE
  8
_0-2_02___PRT_ALL_AXES
  6
CONTINUOUS
 62
    7
 10
1031.7730323102346
 20
1103.1812434231629
 11
1031.7563015113378
 21
1102.0164346105448
  0
LINE
  8
_0-2_02___PRT_ALL_AXES
  6
CONTINUOUS
 62
    7
 10
1037.066246269379
 20
1173.490750254974
 11
1037.4612601153676
 21
1173.674644240753
  0
LINE
  8
_0-2_02___PRT_ALL_AXES
  6
CONTINUOUS
 62
    7
 10
1037.4612601153676
 20
1173.674644240753
 11
1037.7923464742748
 21
1173.845269667599
  0
LINE
  8
_0-2_02___PRT_ALL_AXES
  6
CONTINUOUS
 62
    7
 10
1037.7923464742748
 20
1173.845269667599
 11
1038.0640324201077
 21
1174.0040819204592
  0
LINE
  8
_0-2_02___PRT_ALL_AXES
  6
CONTINUOUS
 62
    7
 10
1038.0640324201077
 20
1174.0040819204592
 11
1038.2828086399068
 21
1174.1536745798712
  0
LINE
  8
_0-2_02___PRT_ALL_AXES
  6
CONTINUOUS
 62
    7
 10
1038.2828086399068
 20
1174.1536745798712
 11
1038.4550371417799
 21
1174.297381275439
  0
LINE
  8
_0-3_7_ALL_FEATURES
  6
CONTINUOUS
 62
    7
 10
1024.4477536334148
 20
1105.7885314488608
 11
1028.8057790971789
 21
1107.7318359772812
  0
LINE
  8
_0-2_02___PRT_ALL_AXES
  6
CONTINUOUS
 62
    7
 10
1033.8408364837369
 20
1108.2666908067308
 11
1033.3804300967026
 21
1108.069140943513
  0
LINE
  8
_0-2_02___PRT_ALL_AXES
  6
CONTINUOUS
 62
    7
 10
1033.3804300967026
 20
1108.069140943513
 11
1032.8554100149199
 21
1107.8580165303561
  0
LINE
  8
_0-2_02___PRT_ALL_AXES
  6
CONTINUOUS
 62
    7
 10
1032.8554100149199
 20
1107.8580165303561
 11
1032.2660009704728
 21
1107.6328544792832
  0
LINE
  8
_0-2_02___PRT_ALL_AXES
  6
CONTINUOUS
 62
    7
 10
1032.2660009704728
 20
1107.6328544792832
 11
1031.6082489849896
 21
1107.3915909475868
  0
LINE
  8
_0-2_02___PRT_ALL_AXES
  6
CONTINUOUS
 62
    7
 10
1031.6082489849896
 20
1107.3915909475868
 11
1030.8716018108389
 21
1107.1300172637252
  0
LINE
  8
_0-2_02___PRT_ALL_AXES
  6
CONTINUOUS
 62
    7
 10
866.67538803450498
 20
1110.7190897800028
 11
865.7568044487648
 21
1110.3883116112329
  0
LINE
  8
_0-2_02___PRT_ALL_AXES
  6
CONTINUOUS
 62
    7
 10
865.7568044487648
 20
1110.3883116112329
 11
864.91997520142195
 21
1110.0575132456529
  0
LINE
  8
_0-2_02___PRT_ALL_AXES
  6
CONTINUOUS
 62
    7
 10
864.91997520142195
 20
1110.0575132456529
 11
864.15117268797485
 21
1109.71999619501
  0
LINE
  8
_0-2_02___PRT_ALL_AXES
  6
CONTINUOUS
 62
    7
 10
864.15117268797485
 20
1109.71999619501
 11
863.44398751687777
 21
1109.3709430183389
  0
LINE
  8
_0-2_02___PRT_ALL_AXES
  6
CONTINUOUS
 62
    7
 10
863.44398751687777
 20
1109.3709430183389
 11
862.79747968035599
 21
1109.0079460379588
  0
LINE
  8
_0-2_02___PRT_ALL_AXES
  6
CONTINUOUS
 62
    7
 10
1034.0970116780159
 20
1172.354076747019
 11
1034.8336306810247
 21
1172.615640274184
  0
LINE
  8
_0-2_02___PRT_ALL_AXES
  6
CONTINUOUS
 62
    7
 10
1034.8336306810247
 20
1172.615640274184
 11
1035.4915399074948
 21
1172.8569622169889
  0
LINE
  8
_0-2_02___PRT_ALL_AXES
  6
CONTINUOUS
 62
    7
 10
1035.4915399074948
 20
1172.8569622169889
 11
1036.0809641126939
 21
1173.082132451942
  0
LINE
  8
_0-2_02___PRT_ALL_AXES
  6
CONTINUOUS
 62
    7
 10
1036.0809641126939
 20
1173.082132451942
 11
1036.605922854239
 21
1173.29323478996
  0
LINE
  8
_0-2_02___PRT_ALL_AXES
  6
CONTINUOUS
 62
    7
 10
1036.605922854239
 20
1173.29323478996
 11
1037.066246269379
 21
1173.490750254974
  0
LINE
  8
_0-5_EL-M10011N_______8
  6
CONTINUOUS
 62
    7
 10
1887.395371951643
 20
1426.8229456147151
 11
1887.6352149819895
 21
1426.904212662494
  0
LINE
  8
_0-5_EL-M10011N_______8
  6
CONTINUOUS
 62
    7
 10
1887.6352149819895
 20
1426.904212662494
 11
1887.8902947563092
 21
1427.035220562529
  0
LINE
  8
_0-5_EL-M10011N_______8
  6
CONTINUOUS
 62
    7
 10
1887.8902947563092
 20
1427.035220562529
 11
1888.1543727097378
 21
1427.2331980494791
  0
LINE
  8
_0-5_EL-M10011N_______8
  6
CONTINUOUS
 62
    7
 10
1888.1543727097378
 20
1427.2331980494791
 11
1888.4065378020532
 21
1427.512698148339
  0
LINE
  8
_0-5_EL-M10011N_______8
  6
CONTINUOUS
 62
    7
 10
1888.4065378020532
 20
1427.512698148339
 11
1888.6124353889873
 21
1427.8750439524761
  0
LINE
  8
_0-5_EL-M10011N_______8
  6
CONTINUOUS
 62
    7
 10
1888.6124353889873
 20
1427.8750439524761
 11
1888.7324105942989
 21
1428.2830100054771
  0
LINE
  8
_0-5_EL-M10011N_______8
  6
CONTINUOUS
 62
    7
 10
1888.7324105942989
 20
1428.2830100054771
 11
1888.7542346377732
 21
1428.7180137935829
  0
LINE
  8
_0-4_EL-M10011N_______9
  6
CONTINUOUS
 62
    7
 10
3.6302219677617131
 20
1384.8797718852788
 11
3.2896909129857477
 21
1384.7857191503472
  0
LINE
  8
_0-4_EL-M10011N_______9
  6
CONTINUOUS
 62
    7
 10
3.2896909129857477
 20
1384.7857191503472
 11
2.9733039257448013
 21
1384.6110244453812
  0
LINE
  8
_0-4_EL-M10011N_______9
  6
CONTINUOUS
 62
    7
 10
2.9733039257448013
 20
1384.6110244453812
 11
2.7111785432148849
 21
1384.3716425423831
  0
LINE
  8
_0-4_EL-M10011N_______9
  6
CONTINUOUS
 62
    7
 10
2.7111785432148849
 20
1384.3716425423831
 11
2.5139347197711004
 21
1384.0826816008748
  0
LINE
  8
_0-4_EL-M10011N_______9
  6
CONTINUOUS
 62
    7
 10
2.5139347197711004
 20
1384.0826816008748
 11
2.3891235523245768
 21
1383.7614714294791
  0
LINE
  8
_0-4_EL-M10011N_______9
  6
CONTINUOUS
 62
    7
 10
2.3891235523245768
 20
1383.7614714294791
 11
2.3397540805785866
 21
1383.423108763051
  0
LINE
  8
_0-4_EL-M10011N_______9
  6
CONTINUOUS
 62
    7
 10
1684.8305498651807
 20
1735.9629589430529
 11
1685.1691069048557
 21
1736.0123666451009
  0
LINE
  8
_0-4_EL-M10011N_______9
  6
CONTINUOUS
 62
    7
 10
1685.1691069048557
 20
1736.0123666451009
 11
1685.508411104579
 21
1735.985341167529
  0
LINE
  8
_0-4_EL-M10011N_______9
  6
CONTINUOUS
 62
    7
 10
1685.508411104579
 20
1735.985341167529
 11
1685.8348937863857
 21
1735.8829577319611
  0
LINE
  8
_0-4_EL-M10011N_______9
  6
CONTINUOUS
 62
    7
 10
1685.8348937863857
 20
1735.8829577319611
 11
1686.1321978041706
 21
1735.7089037280248
  0
LINE
  8
_0-4_EL-M10011N_______9
  6
CONTINUOUS
 62
    7
 10
1686.5415152580772
 20
1715.649734575934
 11
1686.2037805588971
 21
1715.612277906625
  0
LINE
  8
_0-2_02___PRT_ALL_AXES
  6
CONTINUOUS
 62
    7
 10
1038.5767732292688
 20
1089.095579713166
 11
1039.0491638951039
 21
1089.3972734910312
  0
LINE
  8
_0-2_02___PRT_ALL_AXES
  6
CONTINUOUS
 62
    7
 10
1039.0491638951039
 20
1089.3972734910312
 11
1039.4729426307299
 21
1089.857821754083
  0
LINE
  8
_0-2_02___PRT_ALL_AXES
  6
CONTINUOUS
 62
    7
 10
1039.4729426307299
 20
1089.857821754083
 11
1039.840862059481
 21
1090.469336717234
  0
LINE
  8
_0-2_02___PRT_ALL_AXES
  6
CONTINUOUS
 62
    7
 10
1039.840862059481
 20
1090.469336717234
 11
1040.1466305660538
 21
1091.2213498553169
  0
LINE
  8
_0-2_02___PRT_ALL_AXES
  6
CONTINUOUS
 62
    7
 10
1040.1466305660538
 20
1091.2213498553169
 11
1040.3850196821109
 21
1092.10099103939
  0
LINE
  8
_0-2_02___PRT_ALL_AXES
  6
CONTINUOUS
 62
    7
 10
1038.5767732285076
 20
1089.095579713166
 11
1038.9717870752579
 21
1089.279473699708
  0
LINE
  8
_0-2_02___PRT_ALL_AXES
  6
CONTINUOUS
 62
    7
 10
1038.9717870752579
 20
1089.279473699708
 11
1039.3028734341647
 21
1089.450099125791
  0
LINE
  8
_0-2_02___PRT_ALL_AXES
  6
CONTINUOUS
 62
    7
 10
1039.3028734341647
 20
1089.450099125791
 11
1039.5745593799979
 21
1089.6089113794128
  0
LINE
  8
_0-2_02___PRT_ALL_AXES
  6
CONTINUOUS
 62
    7
 10
1039.5745593799979
 20
1089.6089113794128
 11
1039.793335599798
 21
1089.7585040388249
  0
LINE
  8
_0-2_02___PRT_ALL_AXES
  6
CONTINUOUS
 62
    7
 10
1039.793335599798
 20
1089.7585040388249
 11
1039.9655641016689
 21
1089.9022107336309
  0
LINE
  8
_0-2_02___PRT_ALL_AXES
  6
CONTINUOUS
 62
    7
 10
1035.6075386379048
 20
1087.958906205211
 11
1036.344157640915
 21
1088.220469732375
  0
LINE
  8
_0-2_02___PRT_ALL_AXES
  6
CONTINUOUS
 62
    7
 10
1036.344157640915
 20
1088.220469732375
 11
1037.0020668673847
 21
1088.4617916751808
  0
LINE
  8
_0-2_02___PRT_ALL_AXES
  6
CONTINUOUS
 62
    7
 10
1037.0020668673847
 20
1088.4617916751808
 11
1037.5914910725828
 21
1088.686961910133
  0
LINE
  8
_0-2_02___PRT_ALL_AXES
  6
CONTINUOUS
 62
    7
 10
1037.5914910725828
 20
1088.686961910133
 11
1038.1164498141288
 21
1088.8980642489132
  0
LINE
  8
_0-2_02___PRT_ALL_AXES
  6
CONTINUOUS
 62
    7
 10
1038.1164498141288
 20
1088.8980642489132
 11
1038.5767732285076
 21
1089.095579713166
  0
LINE
  8
_0-6__V_K___I
  6
CONTINUOUS
 62
    7
 10
1514.1802268942206
 20
1361.5771384700652
 11
1514.8794084448018
 21
1361.158154319211
  0
LINE
  8
_0-6__V_K___I
  6
CONTINUOUS
 62
    7
 10
1514.8794084448018
 20
1361.158154319211
 11
1515.763080694217
 21
1360.8068040622989
  0
LINE
  8
_0-6__V_K___I
  6
CONTINUOUS
 62
    7
 10
1515.763080694217
 20
1360.8068040622989
 11
1516.8041341993548
 21
1360.5334311841029
  0
LINE
  8
_0-6__V_K___I
  6
CONTINUOUS
 62
    7
 10
1516.8041341993548
 20
1360.5334311841029
 11
1517.9709735750948
 21
1360.346079694189
  0
LINE
  8
_0-6__V_K___I
  6
CONTINUOUS
 62
    7
 10
1517.9709735750948
 20
1360.346079694189
 11
1519.2285339466848
 21
1360.2502644883089
  0
LINE
  8
_0-6__V_K___I
  6
CONTINUOUS
 62
    7
 10
1519.2285339466848
 20
1360.2502644883089
 11
1520.5391185127096
 21
1360.2488586851769
  0
LINE
  8
_0-6__V_K___I
  6
CONTINUOUS
 62
    7
 10
1520.5391185127096
 20
1360.2488586851769
 11
1521.8635110407026
 21
1360.342008767102
  0
LINE
  8
_0-6__V_K___I
  6
CONTINUOUS
 62
    7
 10
1521.8635110407026
 20
1360.342008767102
 11
1523.1618847380828
 21
1360.5271139983629
  0
LINE
  8
_0-6__V_K___I
  6
CONTINUOUS
 62
    7
 10
1523.1618847380828
 20
1360.5271139983629
 11
1524.3950409684899
 21
1360.7988840575649
  0
LINE
  8
_0-5_EL-M10011N_______8
  6
CONTINUOUS
 62
    7
 10
1513.988312677086
 20
1359.057167661656
 11
1514.6097738136368
 21
1358.6767692248409
  0
LINE
  8
_0-5_EL-M10011N_______8
  6
CONTINUOUS
 62
    7
 10
1514.6097738136368
 20
1358.6767692248409
 11
1515.3823552443409
 21
1358.3506531359012
  0
LINE
  8
_0-5_EL-M10011N_______8
  6
CONTINUOUS
 62
    7
 10
1515.3823552443409
 20
1358.3506531359012
 11
1516.2866266199449
 21
1358.0864108061191
  0
LINE
  8
_0-5_EL-M10011N_______8
  6
CONTINUOUS
 62
    7
 10
1516.2866266199449
 20
1358.0864108061191
 11
1517.3003284810306
 21
1357.8901750347609
  0
LINE
  8
_0-5_EL-M10011N_______8
  6
CONTINUOUS
 62
    7
 10
1517.3003284810306
 20
1357.8901750347609
 11
1518.3988466990277
 21
1357.7665119925268
  0
LINE
  8
_0-5_EL-M10011N_______8
  6
CONTINUOUS
 62
    7
 10
1518.3988466990277
 20
1357.7665119925268
 11
1519.555718465544
 21
1357.7183395816328
  0
LINE
  8
_0-5_EL-M10011N_______8
  6
CONTINUOUS
 62
    7
 10
1519.555718465544
 20
1357.7183395816328
 11
1520.7431644411668
 21
1357.746872543617
  0
LINE
  8
_0-5_EL-M10011N_______8
  6
CONTINUOUS
 62
    7
 10
1520.7431644411668
 20
1357.746872543617
 11
1521.9326418653568
 21
1357.8515946676748
  0
LINE
  8
_0-5_EL-M10011N_______8
  6
CONTINUOUS
 62
    7
 10
1521.9326418653568
 20
1357.8515946676748
 11
1523.0954134504018
 21
1358.0302585353911
  0
LINE
  8
_0-5_EL-M10011N_______8
  6
CONTINUOUS
 62
    7
 10
1523.0954134504018
 20
1358.0302585353911
 11
1524.2031267505909
 21
1358.2789132491548
  0
LINE
  8
_0-5_EL-M10011N_______8
  6
CONTINUOUS
 62
    7
 10
1514.1039660218507
 20
1357.389429045907
 11
1380.5288668936919
 21
1457.448410089597
  0
LINE
  8
_0-5_EL-M10011N_______8
  6
CONTINUOUS
 62
    7
 10
1380.4132135489258
 20
1459.116148705345
 11
1513.988312677086
 21
1359.057167661656
  0
LINE
  8
_0-6__V_K___I
  6
CONTINUOUS
 62
    7
 10
1381.4346949560468
 20
1459.0383232640952
 11
1514.324793576131
 21
1359.4924651999991
  0
LINE
  8
_0-6__V_K___I
  6
CONTINUOUS
 62
    7
 10
1514.1802268942206
 20
1361.5771384700652
 11
1381.5687961234548
 21
1460.9142508838349
  0
LINE
  8
_0-5_EL-M10011N_______8
  6
CONTINUOUS
 62
    7
 10
1308.5058004316038
 20
1303.1114895331689
 11
1308.5040554493166
 21
1303.1530683786368
  0
LINE
  8
_0-5_EL-M10011N_______8
  6
CONTINUOUS
 62
    7
 10
1308.5040554493166
 20
1303.1530683786368
 11
1308.5768246784287
 21
1303.498369401776
  0
LINE
  8
_0-5_EL-M10011N_______8
  6
CONTINUOUS
 62
    7
 10
1308.5768246784287
 20
1303.498369401776
 11
1308.8021471426937
 21
1303.841268365456
  0
LINE
  8
_0-5_EL-M10011N_______8
  6
CONTINUOUS
 62
    7
 10
1308.8021471426937
 20
1303.841268365456
 11
1309.1701829654207
 21
1304.1685342034289
  0
LINE
  8
_0-5_EL-M10011N_______8
  6
CONTINUOUS
 62
    7
 10
1309.1701829654207
 20
1304.1685342034289
 11
1309.6738692570048
 21
1304.4732181386371
  0
LINE
  8
_0-5_EL-M10011N_______8
  6
CONTINUOUS
 62
    7
 10
1309.6738692570048
 20
1304.4732181386371
 11
1310.2952421341456
 21
1304.7427812972492
  0
LINE
  8
_0-5_EL-M10011N_______8
  6
CONTINUOUS
 62
    7
 10
1310.2952421341456
 20
1304.7427812972492
 11
1311.0118232757827
 21
1304.967153673243
  0
LINE
  8
_0-5_EL-M10011N_______8
  6
CONTINUOUS
 62
    7
 10
1317.6278491699436
 20
1303.7440799349911
 11
1317.6295941522289
 21
1303.702501088761
  0
LINE
  8
_0-5_EL-M10011N_______8
  6
CONTINUOUS
 62
    7
 10
1317.6295941522289
 20
1303.702501088761
 11
1317.5568249238786
 21
1303.3572000663848
  0
LINE
  8
_0-5_EL-M10011N_______8
  6
CONTINUOUS
 62
    7
 10
1317.5568249238786
 20
1303.3572000663848
 11
1317.331502459615
 21
1303.0143011027048
  0
LINE
  8
_0-5_EL-M10011N_______8
  6
CONTINUOUS
 62
    7
 10
1317.331502459615
 20
1303.0143011027048
 11
1316.9634666368879
 21
1302.6870352647311
  0
LINE
  8
_0-5_EL-M10011N_______8
  6
CONTINUOUS
 62
    7
 10
1316.9634666368879
 20
1302.6870352647311
 11
1316.4597803445417
 21
1302.3823513295229
  0
LINE
  8
_0-5_EL-M10011N_______8
  6
CONTINUOUS
 62
    7
 10
1316.4597803445417
 20
1302.3823513295229
 11
1315.8384074681626
 21
1302.11278817015
  0
LINE
  8
_0-5_EL-M10011N_______8
  6
CONTINUOUS
 62
    7
 10
1315.8384074681626
 20
1302.11278817015
 11
1315.1218263257638
 21
1301.8884157949169
  0
LINE
  8
_0-5_EL-M10011N_______8
  6
CONTINUOUS
 62
    7
 10
1380.5288668936919
 20
1457.448410089597
 11
1380.0755892109678
 21
1457.873081399257
  0
LINE
  8
_0-5_EL-M10011N_______8
  6
CONTINUOUS
 62
    7
 10
1380.0755892109678
 20
1457.873081399257
 11
1379.802081117396
 21
1458.3305743250112
  0
LINE
  8
_0-5_EL-M10011N_______8
  6
CONTINUOUS
 62
    7
 10
1379.802081117396
 20
1458.3305743250112
 11
1379.7169921100267
 21
1458.7086133629368
  0
LINE
  8
_0-6__V_K___I
  6
CONTINUOUS
 62
    7
 10
1381.4346949560468
 20
1459.0383232640952
 11
1380.9424855868988
 21
1459.5117910923668
  0
LINE
  8
_0-6__V_K___I
  6
CONTINUOUS
 62
    7
 10
1380.9424855868988
 20
1459.5117910923668
 11
1380.672439135883
 21
1460.0246731534689
  0
LINE
  8
_0-6__V_K___I
  6
CONTINUOUS
 62
    7
 10
1380.672439135883
 20
1460.0246731534689
 11
1380.6229269986879
 21
1460.2985339395032
  0
LINE
  8
_0-5_EL-M10011N_______8
  6
CONTINUOUS
 62
    7
 10
1380.5288668936919
 20
1457.448410089597
 11
1380.4132135489258
 21
1459.116148705345
  0
LINE
  8
_0-6__V_K___I
  6
CONTINUOUS
 62
    7
 10
1381.4346949560468
 20
1459.0383232640952
 11
1381.313990410818
 21
1460.7789009439689
  0
LINE
  8
_0-5_EL-M10011N_______8
  6
CONTINUOUS
 62
    7
 10
1379.7169921100267
 20
1458.7086133629368
 11
1379.7140154248459
 21
1458.8096759012228
  0
LINE
  8
_0-5_EL-M10011N_______8
  6
CONTINUOUS
 62
    7
 10
1379.7140154248459
 20
1458.8096759012228
 11
1379.8128254736048
 21
1459.2987710274251
  0
LINE
  8
_0-5_EL-M10011N_______8
  6
CONTINUOUS
 62
    7
 10
1379.8128254736048
 20
1459.2987710274251
 11
1380.0957194229286
 21
1459.7860791447551
  0
LINE
  8
_0-5_EL-M10011N_______8
  6
CONTINUOUS
 62
    7
 10
1380.0957194229286
 20
1459.7860791447551
 11
1380.5557618056118
 21
1460.2598905359669
  0
LINE
  8
_0-5_EL-M10011N_______8
  6
CONTINUOUS
 62
    7
 10
1379.956589804568
 20
1459.546416922532
 11
1379.9599358662017
 21
1459.540820015005
  0
LINE
  8
_0-5_EL-M10011N_______8
  6
CONTINUOUS
 62
    7
 10
1379.9599358662017
 20
1459.540820015005
 11
1380.4132135489258
 21
1459.116148705345
  0
LINE
  8
_0-5_EL-M10011N_______8
  6
CONTINUOUS
 62
    7
 10
1887.0454695930284
 20
1426.923756496406
 11
1887.225482265515
 21
1426.8285534599891
  0
LINE
  8
_0-5_EL-M10011N_______8
  6
CONTINUOUS
 62
    7
 10
1887.225482265515
 20
1426.8285534599891
 11
1887.395371951643
 21
1426.8229456147151
  0
LINE
  8
_0-5_EL-M10011N_______8
  6
CONTINUOUS
 62
    7
 10
1698.4032298975671
 20
1571.4634007977929
 11
1698.1794612137874
 21
1571.589662436812
  0
LINE
  8
_0-5_EL-M10011N_______8
  6
CONTINUOUS
 62
    7
 10
1698.1794612137874
 20
1571.589662436812
 11
1697.8852005462777
 21
1571.6880826181768
  0
LINE
  8
_0-5_EL-M10011N_______8
  6
CONTINUOUS
 62
    7
 10
1697.8852005462777
 20
1571.6880826181768
 11
1697.5352033521904
 21
1571.7537261422108
  0
LINE
  8
_0-5_EL-M10011N_______8
  6
CONTINUOUS
 62
    7
 10
1697.5352033521904
 20
1571.7537261422108
 11
1697.1470199538071
 21
1571.7833013693189
  0
LINE
  8
_0-5_EL-M10011N_______8
  6
CONTINUOUS
 62
    7
 10
1697.1470199538071
 20
1571.7833013693189
 11
1696.7401154864392
 21
1571.775325273004
  0
LINE
  8
_0-5_EL-M10011N_______8
  6
CONTINUOUS
 62
    7
 10
1696.7401154864392
 20
1571.775325273004
 11
1696.3348938404451
 21
1571.7301978087748
  0
LINE
  8
_0-5_EL-M10011N_______8
  6
CONTINUOUS
 62
    7
 10
1696.3348938404451
 20
1571.7301978087748
 11
1695.9516745200171
 21
1571.6501818567931
  0
LINE
  8
_0-5_EL-M10011N_______8
  6
CONTINUOUS
 62
    7
 10
1513.988312677086
 20
1359.057167661656
 11
1514.1039660218507
 21
1357.389429045907
  0
LINE
  8
_0-6__V_K___I
  6
CONTINUOUS
 62
    7
 10
1514.1802268942206
 20
1361.5771384700652
 11
1514.324793576131
 21
1359.4924651999991
  0
LINE
  8
_0-5_EL-M10011N_______8
  6
CONTINUOUS
 62
    7
 10
1524.31878009612
 20
1356.6111746334068
 11
1524.2031267505909
 21
1358.2789132491548
  0
LINE
  8
_0-6__V_K___I
  6
CONTINUOUS
 62
    7
 10
1524.5396076496368
 20
1358.7142107874988
 11
1524.3950409684899
 21
1360.7988840575649
  0
LINE
  8
_0-5_EL-M10011N_______8
  6
CONTINUOUS
 62
    7
 10
1658.9111397076604
 20
1530.730190027396
 11
1792.4862388350602
 21
1430.6712089837051
  0
LINE
  8
_0-5_EL-M10011N_______8
  6
CONTINUOUS
 62
    7
 10
1696.8893284747801
 20
1569.366695665075
 11
1887.0454695930284
 21
1426.923756496406
  0
LINE
  8
_0-5_EL-M10011N_______8
  6
CONTINUOUS
 62
    7
 10
1888.5593710150551
 20
1429.020461629123
 11
1698.4032298975671
 21
1571.4634007977929
  0
LINE
  8
_0-4_EL-M10011N_______9
  6
CONTINUOUS
 62
    7
 10
1687.9257642851035
 20
1715.3896892743328
 11
1687.7382183746995
 21
1715.4953709331749
  0
LINE
  8
_0-4_EL-M10011N_______9
  6
CONTINUOUS
 62
    7
 10
1687.7382183746995
 20
1715.4953709331749
 11
1687.492738373915
 21
1715.577262029235
  0
LINE
  8
_0-4_EL-M10011N_______9
  6
CONTINUOUS
 62
    7
 10
1687.492738373915
 20
1715.577262029235
 11
1687.2017961242036
 21
1715.6317041791772
  0
LINE
  8
_0-4_EL-M10011N_______9
  6
CONTINUOUS
 62
    7
 10
1687.2017961242036
 20
1715.6317041791772
 11
1686.8795798080064
 21
1715.6562534531672
  0
LINE
  8
_0-4_EL-M10011N_______9
  6
CONTINUOUS
 62
    7
 10
1686.8795798080064
 20
1715.6562534531672
 11
1686.5415152580772
 21
1715.649734575934
  0
LINE
  8
_0-5_EL-M10011N_______8
  6
CONTINUOUS
 62
    7
 10
1792.4862388350602
 20
1430.6712089837051
 11
1792.9395165185451
 21
1430.2465376740461
  0
LINE
  8
_0-5_EL-M10011N_______8
  6
CONTINUOUS
 62
    7
 10
1792.9395165185451
 20
1430.2465376740461
 11
1793.2130246121178
 21
1429.789044748291
  0
LINE
  8
_0-5_EL-M10011N_______8
  6
CONTINUOUS
 62
    7
 10
1793.2130246121178
 20
1429.789044748291
 11
1793.2981136194849
 21
1429.4110057103649
  0
LINE
  8
_0-5_EL-M10011N_______8
  6
CONTINUOUS
 62
    7
 10
1688.5148688914987
 20
1714.0550524480568
 11
1878.6710100089867
 21
1571.6121132801491
  0
LINE
  8
_0-5_EL-M10011N_______8
  6
CONTINUOUS
 62
    7
 10
1878.1378770633182
 20
1572.6468300031929
 11
1687.9817359458302
 21
1715.0897691718628
  0
LINE
  8
_0-4_EL-M10011N_______9
  6
CONTINUOUS
 62
    7
 10
1877.6709050975924
 20
1573.254623894029
 11
1687.9257642851035
 21
1715.3896892743328
  0
LINE
  8
_0-4_EL-M10011N_______9
  6
CONTINUOUS
 62
    7
 10
1686.5764752587684
 20
1734.8466397916468
 11
1876.3216160712591
 21
1592.711574411343
  0
LINE
  8
_0-4_EL-M10011N_______9
  6
CONTINUOUS
 62
    7
 10
1875.8773386166604
 20
1593.573838347721
 11
1686.1321978041706
 21
1735.7089037280248
  0
LINE
  8
_0-4_EL-M10011N_______9
  6
CONTINUOUS
 62
    7
 10
1684.5335124437643
 20
1735.0022906741469
 11
1685.8828014700975
 21
1715.5453401568329
  0
LINE
  8
_0-5_EL-M10011N_______8
  6
CONTINUOUS
 62
    7
 10
1686.0633135139497
 20
1714.241833507057
 11
1695.9516745200171
 21
1571.6501818567931
  0
LINE
  8
_0-4_EL-M10011N_______9
  6
CONTINUOUS
 62
    7
 10
1687.9257642851035
 20
1715.3896892743328
 11
1686.5764752587684
 21
1734.8466397916468
  0
LINE
  8
_0-5_EL-M10011N_______8
  6
CONTINUOUS
 62
    7
 10
1698.4032298975671
 20
1571.4634007977929
 11
1688.5148688914987
 21
1714.0550524480568
  0
LINE
  8
_0-5_EL-M10011N_______8
  6
CONTINUOUS
 62
    7
 10
1878.1378770633182
 20
1572.6468300031929
 11
1878.2433837799135
 21
1572.558344309959
  0
LINE
  8
_0-5_EL-M10011N_______8
  6
CONTINUOUS
 62
    7
 10
1878.2433837799135
 20
1572.558344309959
 11
1878.4594532499832
 21
1572.293236906723
  0
LINE
  8
_0-5_EL-M10011N_______8
  6
CONTINUOUS
 62
    7
 10
1878.4594532499832
 20
1572.293236906723
 11
1878.6044183786444
 21
1571.9724649478112
  0
LINE
  8
_0-5_EL-M10011N_______8
  6
CONTINUOUS
 62
    7
 10
1878.6044183786444
 20
1571.9724649478112
 11
1878.6710100089867
 21
1571.6121132801491
  0
LINE
  8
_0-4_EL-M10011N_______9
  6
CONTINUOUS
 62
    7
 10
1875.8773386166604
 20
1593.573838347721
 11
1875.9652608802371
 21
1593.5001002698991
  0
LINE
  8
_0-4_EL-M10011N_______9
  6
CONTINUOUS
 62
    7
 10
1875.9652608802371
 20
1593.5001002698991
 11
1876.145318772089
 21
1593.2791774336151
  0
LINE
  8
_0-4_EL-M10011N_______9
  6
CONTINUOUS
 62
    7
 10
1876.145318772089
 20
1593.2791774336151
 11
1876.2661230455924
 21
1593.0118674686169
  0
LINE
  8
_0-4_EL-M10011N_______9
  6
CONTINUOUS
 62
    7
 10
1876.2661230455924
 20
1593.0118674686169
 11
1876.3216160712591
 21
1592.711574411343
  0
LINE
  8
_0-4_EL-M10011N_______9
  6
CONTINUOUS
 62
    7
 10
1875.8773386166604
 20
1593.573838347721
 11
1876.1144004460675
 21
1593.3532810154052
  0
LINE
  8
_0-4_EL-M10011N_______9
  6
CONTINUOUS
 62
    7
 10
1876.1144004460675
 20
1593.3532810154052
 11
1876.3006882159852
 21
1593.0854810653568
  0
LINE
  8
_0-4_EL-M10011N_______9
  6
CONTINUOUS
 62
    7
 10
1876.3006882159852
 20
1593.0854810653568
 11
1876.4261614547504
 21
1592.7826431597309
  0
LINE
  8
_0-5_EL-M10011N_______8
  6
CONTINUOUS
 62
    7
 10
1878.1378770633182
 20
1572.6468300031929
 11
1878.4227478128532
 21
1572.3817043424369
  0
LINE
  8
_0-5_EL-M10011N_______8
  6
CONTINUOUS
 62
    7
 10
1878.4227478128532
 20
1572.3817043424369
 11
1878.6455189974849
 21
1572.0614911748889
  0
LINE
  8
_0-5_EL-M10011N_______8
  6
CONTINUOUS
 62
    7
 10
1878.6455189974849
 20
1572.0614911748889
 11
1878.7959013304508
 21
1571.6993137506552
  0
LINE
  8
_0-5_EL-M10011N_______8
  6
CONTINUOUS
 62
    7
 10
1878.7959013304508
 20
1571.6993137506552
 11
1878.8658736317047
 21
1571.3096654438468
  0
LINE
  8
_0-5_EL-M10011N_______8
  6
CONTINUOUS
 62
    7
 10
1878.6710100089867
 20
1571.6121132801491
 11
1878.8130660121487
 21
1571.464341467743
  0
LINE
  8
_0-5_EL-M10011N_______8
  6
CONTINUOUS
 62
    7
 10
1878.8130660121487
 20
1571.464341467743
 11
1878.8658736317047
 21
1571.3096654438468
  0
LINE
  8
_0-5_EL-M10011N_______8
  6
CONTINUOUS
 62
    7
 10
1688.5148688914987
 20
1714.0550524480568
 11
1688.4482772603951
 21
1714.4154041164811
  0
LINE
  8
_0-5_EL-M10011N_______8
  6
CONTINUOUS
 62
    7
 10
1688.4482772603951
 20
1714.4154041164811
 11
1688.303312131733
 21
1714.7361760746312
  0
LINE
  8
_0-5_EL-M10011N_______8
  6
CONTINUOUS
 62
    7
 10
1688.303312131733
 20
1714.7361760746312
 11
1688.0872426624255
 21
1715.0012834778672
  0
LINE
  8
_0-5_EL-M10011N_______8
  6
CONTINUOUS
 62
    7
 10
1688.0872426624255
 20
1715.0012834778672
 11
1687.9817359458302
 21
1715.0897691718628
  0
LINE
  8
_0-4_EL-M10011N_______9
  6
CONTINUOUS
 62
    7
 10
1686.5764752587684
 20
1734.8466397916468
 11
1686.5209822331026
 21
1735.1469328489211
  0
LINE
  8
_0-4_EL-M10011N_______9
  6
CONTINUOUS
 62
    7
 10
1686.5209822331026
 20
1735.1469328489211
 11
1686.4001779595992
 21
1735.4142428139189
  0
LINE
  8
_0-4_EL-M10011N_______9
  6
CONTINUOUS
 62
    7
 10
1686.4001779595992
 20
1735.4142428139189
 11
1686.2201200677464
 21
1735.6351656502029
  0
LINE
  8
_0-4_EL-M10011N_______9
  6
CONTINUOUS
 62
    7
 10
1686.2201200677464
 20
1735.6351656502029
 11
1686.1321978041706
 21
1735.7089037280248
  0
LINE
  8
_0-5_EL-M10011N_______8
  6
CONTINUOUS
 62
    7
 10
1695.9516745200171
 20
1571.6501818567931
 11
1695.9980190818869
 21
1571.2636370251089
  0
LINE
  8
_0-5_EL-M10011N_______8
  6
CONTINUOUS
 62
    7
 10
1695.9980190818869
 20
1571.2636370251089
 11
1696.0832582764069
 21
1570.8655990106708
  0
LINE
  8
_0-5_EL-M10011N_______8
  6
CONTINUOUS
 62
    7
 10
1696.0832582764069
 20
1570.8655990106708
 11
1696.2031178558391
 21
1570.476027101221
  0
LINE
  8
_0-5_EL-M10011N_______8
  6
CONTINUOUS
 62
    7
 10
1696.2031178558391
 20
1570.476027101221
 11
1696.3515875588992
 21
1570.1144560605849
  0
LINE
  8
_0-5_EL-M10011N_______8
  6
CONTINUOUS
 62
    7
 10
1696.3515875588992
 20
1570.1144560605849
 11
1696.521222495473
 21
1569.7990165685292
  0
LINE
  8
_0-5_EL-M10011N_______8
  6
CONTINUOUS
 62
    7
 10
1696.521222495473
 20
1569.7990165685292
 11
1696.7035164610852
 21
1569.545526079321
  0
LINE
  8
_0-5_EL-M10011N_______8
  6
CONTINUOUS
 62
    7
 10
1696.7035164610852
 20
1569.545526079321
 11
1696.8893284747801
 21
1569.366695665075
  0
LINE
  8
_0-6__V_K___I
  6
CONTINUOUS
 62
    7
 10
1787.8397284115626
 20
1430.148470925044
 11
1787.9842950927114
 21
1428.0637976557391
  0
LINE
  8
_0-5_EL-M10011N_______8
  6
CONTINUOUS
 62
    7
 10
1789.0057764998328
 20
1427.9859722144888
 11
1789.1214298453615
 21
1426.3182335987408
  0
LINE
  8
_0-5_EL-M10011N_______8
  6
CONTINUOUS
 62
    7
 10
1793.2981136194849
 20
1429.4110057103649
 11
1793.301090304667
 21
1429.3099431720789
  0
LINE
  8
_0-5_EL-M10011N_______8
  6
CONTINUOUS
 62
    7
 10
1793.301090304667
 20
1429.3099431720789
 11
1793.2022802559077
 21
1428.820848045877
  0
LINE
  8
_0-5_EL-M10011N_______8
  6
CONTINUOUS
 62
    7
 10
1793.2022802559077
 20
1428.820848045877
 11
1792.9193863065839
 21
1428.333539928547
  0
LINE
  8
_0-5_EL-M10011N_______8
  6
CONTINUOUS
 62
    7
 10
1792.9193863065839
 20
1428.333539928547
 11
1792.4593439239015
 21
1427.8597285365731
  0
LINE
  8
_0-5_EL-M10011N_______8
  6
CONTINUOUS
 62
    7
 10
1792.4593439239015
 20
1427.8597285365731
 11
1791.8330852658301
 21
1427.4108190866668
  0
LINE
  8
_0-5_EL-M10011N_______8
  6
CONTINUOUS
 62
    7
 10
1791.8330852658301
 20
1427.4108190866668
 11
1791.0553286267814
 21
1426.9976834740269
  0
LINE
  8
_0-5_EL-M10011N_______8
  6
CONTINUOUS
 62
    7
 10
1791.0553286267814
 20
1426.9976834740269
 11
1790.1443059220337
 21
1426.6304385265271
  0
LINE
  8
_0-5_EL-M10011N_______8
  6
CONTINUOUS
 62
    7
 10
1790.1443059220337
 20
1426.6304385265271
 11
1789.1214298453615
 21
1426.3182335987408
  0
LINE
  8
_0-6__V_K___I
  6
CONTINUOUS
 62
    7
 10
1792.1527610107796
 20
1430.9210119148829
 11
1792.1518188976015
 21
1430.8936522279209
  0
LINE
  8
_0-6__V_K___I
  6
CONTINUOUS
 62
    7
 10
1792.1518188976015
 20
1430.8936522279209
 11
1791.9619617802364
 21
1430.3491618551311
  0
LINE
  8
_0-6__V_K___I
  6
CONTINUOUS
 62
    7
 10
1791.9619617802364
 20
1430.3491618551311
 11
1791.5477216394538
 21
1429.8132592970169
  0
LINE
  8
_0-6__V_K___I
  6
CONTINUOUS
 62
    7
 10
1791.5477216394538
 20
1429.8132592970169
 11
1790.9215139180324
 21
1429.3020092974211
  0
LINE
  8
_0-6__V_K___I
  6
CONTINUOUS
 62
    7
 10
1790.9215139180324
 20
1429.3020092974211
 11
1790.1018701511775
 21
1428.8307599506152
  0
LINE
  8
_0-6__V_K___I
  6
CONTINUOUS
 62
    7
 10
1790.1018701511775
 20
1428.8307599506152
 11
1789.1130424412577
 21
1428.4137787464788
  0
LINE
  8
_0-4_EL-M10011N_______9
  6
CONTINUOUS
 62
    7
 10
1877.8094812913569
 20
1572.8928260501889
 11
1877.8332811017717
 21
1573.0025833109889
  0
LINE
  8
_0-4_EL-M10011N_______9
  6
CONTINUOUS
 62
    7
 10
1876.3216160712591
 20
1592.711574411343
 11
1876.4399960737674
 21
1592.5884312352268
  0
LINE
  8
_0-4_EL-M10011N_______9
  6
CONTINUOUS
 62
    7
 10
1876.4399960737674
 20
1592.5884312352268
 11
1876.4840024233972
 21
1592.4595345483931
  0
LINE
  8
_0-4_EL-M10011N_______9
  6
CONTINUOUS
 62
    7
 10
1876.3216160712591
 20
1592.711574411343
 11
1877.6709050975924
 21
1573.254623894029
  0
LINE
  8
_0-4_EL-M10011N_______9
  6
CONTINUOUS
 62
    7
 10
1876.4840024233972
 20
1592.4595345483931
 11
1877.8332914497314
 21
1573.0025840303169
  0
LINE
  8
_0-5_EL-M10011N_______8
  6
CONTINUOUS
 62
    7
 10
1878.6710100089867
 20
1571.6121132801491
 11
1888.5593710150551
 21
1429.020461629123
  0
LINE
  8
_0-5_EL-M10011N_______8
  6
CONTINUOUS
 62
    7
 10
1888.7542346377732
 20
1428.7180137935829
 11
1878.8658736317047
 21
1571.3096654438468
  0
LINE
  8
_0-5_EL-M10011N_______8
  6
CONTINUOUS
 62
    7
 10
1888.5593710150551
 20
1429.020461629123
 11
1888.544249965541
 21
1428.638599788836
  0
LINE
  8
_0-5_EL-M10011N_______8
  6
CONTINUOUS
 62
    7
 10
1888.544249965541
 20
1428.638599788836
 11
1888.4481744673194
 21
1428.2543759230448
  0
LINE
  8
_0-5_EL-M10011N_______8
  6
CONTINUOUS
 62
    7
 10
1888.4481744673194
 20
1428.2543759230448
 11
1888.275962148803
 21
1427.887056621109
  0
LINE
  8
_0-5_EL-M10011N_______8
  6
CONTINUOUS
 62
    7
 10
1888.275962148803
 20
1427.887056621109
 11
1888.0362484527168
 21
1427.5550608068188
  0
LINE
  8
_0-5_EL-M10011N_______8
  6
CONTINUOUS
 62
    7
 10
1888.0362484527168
 20
1427.5550608068188
 11
1887.741053626547
 21
1427.275036136492
  0
LINE
  8
_0-5_EL-M10011N_______8
  6
CONTINUOUS
 62
    7
 10
1887.741053626547
 20
1427.275036136492
 11
1887.4051799706349
 21
1427.0610242157732
  0
LINE
  8
_0-5_EL-M10011N_______8
  6
CONTINUOUS
 62
    7
 10
1887.4051799706349
 20
1427.0610242157732
 11
1887.0454695930284
 21
1426.923756496406
  0
LINE
  8
_0-5_EL-M10011N_______8
  6
CONTINUOUS
 62
    7
 10
1888.7542346377732
 20
1428.7180137935829
 11
1888.7014270182171
 21
1428.8726898174791
  0
LINE
  8
_0-5_EL-M10011N_______8
  6
CONTINUOUS
 62
    7
 10
1888.7014270182171
 20
1428.8726898174791
 11
1888.5593710150551
 21
1429.020461629123
  0
LINE
  8
_0-4_EL-M10011N_______9
  6
CONTINUOUS
 62
    7
 10
1877.8332811017717
 20
1573.0025833109889
 11
1877.7896865765651
 21
1573.1308405800009
  0
LINE
  8
_0-4_EL-M10011N_______9
  6
CONTINUOUS
 62
    7
 10
1877.7896865765651
 20
1573.1308405800009
 11
1877.6709050975924
 21
1573.254623894029
  0
LINE
  8
_0-4_EL-M10011N_______9
  6
CONTINUOUS
 62
    7
 10
1876.4261614547504
 20
1592.7826431597309
 11
1876.4840024233972
 21
1592.4595345483931
  0
INSERT
  2
-000-SPECel-m10011nxaj005
  8
_0-0_0
 10
2986.1472949270856
 20
-77.44638293531608
 41
1
 42
1
 50
0
  0
ENDSEC
  0
EOF
