  0
SECTION
  2
HEADER
  9
$ACADVER
  1
AC1009
  9
$INSBASE
 10
0
 20
0
 30
0
  9
$EXTMIN
 10
0
 20
0
  9
$EXTMAX
 10
2376
 20
1680
  9
$LIMMIN
 10
0
 20
0
  9
$LIMMAX
 10
2376
 20
1680
  9
$LTSCALE
 40
8
  0
ENDSEC
  0
SECTION
  2
TABLES
  0
TABLE
  2
LTYPE
 70
     9
  0
LTYPE
  2
CONTINUOUS
 70
    64
  3
実線
 72
    65
 73
     0
 40
0.0
  0
LTYPE
  2
DASHED1
 70
    64
  3
--  --  --  --  --  --  --  --  
 72
    65
 73
     2
 40
2.5
 49
1.25
 49
-1.25
  0
LTYPE
  2
DASHED2
 70
    64
  3
----    ----    ----    ----    
 72
    65
 73
     2
 40
5.0
 49
2.5
 49
-2.5
  0
LTYPE
  2
DASHED3
 70
    64
  3
------  ------  ------  ------  
 72
    65
 73
     2
 40
5.0
 49
3.75
 49
-1.25
  0
LTYPE
  2
CENTER1
 70
    64
  3
----- - ----- - ----- - ----- - 
 72
    65
 73
     4
 40
10.0
 49
6.25
 49
-1.25
 49
1.25
 49
-1.25
  0
LTYPE
  2
CENTER2
 70
    64
  3
----------  --  ----------  --  
 72
    65
 73
     4
 40
20.0
 49
12.5
 49
-2.5
 49
2.5
 49
-2.5
  0
LTYPE
  2
PHANTOM1
 70
    64
  3
--- - - --- - - --- - - --- - - 
 72
    65
 73
     6
 40
10.0
 49
3.25
 49
-1.25
 49
1.25
 49
-1.25
 49
1.25
 49
-1.25
  0
LTYPE
  2
PHANTOM2
 70
    64
  3
--------  -  -  --------  -  -  
 72
    65
 73
     6
 40
20.0
 49
10.0
 49
-2.5
 49
1.25
 49
-2.5
 49
1.25
 49
-2.5
  0
LTYPE
  2
DOT
 70
    64
  3
-   -   -   -   -   -   -   -   
 72
    65
 73
     2
 40
2.5
 49
0.625
 49
-1.875
  0
LTYPE
  2
DUMMY
 70
    64
  3
ダミー
 72
    65
 73
     0
 40
0.0
  0
LTYPE
  2
RAND1
 70
    64
  3
ランダム線1
 72
    65
 73
     4
 40
10.0
 49
1.0
 49
-2.0
 49
3.0
 49
-4.0
  0
LTYPE
  2
RAND2
 70
    64
  3
ランダム線2
 72
    65
 73
     4
 40
14.0
 49
2.0
 49
-3.0
 49
4.0
 49
-5.0
  0
LTYPE
  2
RAND3
 70
    64
  3
ランダム線3
 72
    65
 73
     4
 40
18.0
 49
3.0
 49
-4.0
 49
5.0
 49
-6.0
  0
LTYPE
  2
RAND4
 70
    64
  3
ランダム線4
 72
    65
 73
     4
 40
22.0
 49
4.0
 49
-5.0
 49
6.0
 49
-7.0
  0
LTYPE
  2
RAND5
 70
    64
  3
ランダム線5
 72
    65
 73
     4
 40
26.0
 49
5.0
 49
-6.0
 49
7.0
 49
-8.0
  0
LTYPE
  2
LONG1
 70
    64
  3
----------  --  ----------  --  
 72
    65
 73
     4
 40
40.0
 49
32.5
 49
-2.5
 49
2.5
 49
-2.5
  0
LTYPE
  2
LONG2
 70
    64
  3
--------  -  -  --------  -  -  
 72
    65
 73
     6
 40
40.0
 49
30.0
 49
-2.5
 49
1.25
 49
-2.5
 49
1.25
 49
-2.5
  0
LTYPE
  2
LONG3
 70
    64
  3
+++++++++++++++..+++++++++++++++
 72
    65
 73
     2
 40
40.0
 49
37.5
 49
-2.5
  0
LTYPE
  2
LONG4
 70
    64
  3
+++++++++++++++..+++++++++++++++
 72
    65
 73
     2
 40
80.0
 49
75.0
 49
-5.0
  0
LTYPE
  2
LONG5
 70
    64
  3
----------  --  ----------  --  
 72
    65
 73
     4
 40
60.0
 49
37.5
 49
-7.5
 49
7.5
 49
-7.5
  0
LTYPE
  2
dashed
 70
   64
  3
-------   -------------   ------
 72
   65
 73
    2
 40
7.5
 49
6
 49
-1.5
  0
LTYPE
  2
dashed_spaced
 70
   64
  3
----        --------        ----
 72
   65
 73
    2
 40
12
 49
6
 49
-6
  0
LTYPE
  2
long_dashed_dotted
 70
   64
  3
------------- --- --------------
 72
   65
 73
    4
 40
15.25
 49
12
 49
-1.5
 49
0.25
 49
-1.5
  0
LTYPE
  2
long_dashed_double-dotted
 70
   64
  3
----------- --- --- ------------
 72
   65
 73
    6
 40
17
 49
12
 49
-1.5
 49
0.25
 49
-1.5
 49
0.25
 49
-1.5
  0
LTYPE
  2
long_dashed_triplicate-dotted
 70
   64
  3
--------- --- --- --- ----------
 72
   65
 73
    8
 40
18.75
 49
12
 49
-1.5
 49
0.25
 49
-1.5
 49
0.25
 49
-1.5
 49
0.25
 49
-1.5
  0
LTYPE
  2
dotted
 70
   64
  3
   -       -       -       -    
 72
   65
 73
    2
 40
1.75
 49
0.25
 49
-1.5
  0
LTYPE
  2
chain
 70
   64
  3
-------------- -- --------------
 72
   65
 73
    4
 40
18.5
 49
12
 49
-1.5
 49
3.5
 49
-1.5
  0
LTYPE
  2
chain_double_dash
 70
   64
  3
------------ -- -- -------------
 72
   65
 73
    6
 40
23.5
 49
12
 49
-1.5
 49
3.5
 49
-1.5
 49
3.5
 49
-1.5
  0
LTYPE
  2
dashed_dotted
 70
   64
  3
-----------     -     ----------
 72
   65
 73
    4
 40
9.25
 49
6
 49
-1.5
 49
0.25
 49
-1.5
  0
LTYPE
  2
double-dashed_dotted
 70
   64
  3
------   -----------   -   -----
 72
   65
 73
    6
 40
16.75
 49
6
 49
-1.5
 49
6
 49
-1.5
 49
0.25
 49
-1.5
  0
LTYPE
  2
dashed_double-dotted
 70
   64
  3
---------    -    -    ---------
 72
   65
 73
    6
 40
11
 49
6
 49
-1.5
 49
0.25
 49
-1.5
 49
0.25
 49
-1.5
  0
LTYPE
  2
double-dashed_double-dotted
 70
   64
  3
-----   ---------   -   -   ----
 72
   65
 73
    8
 40
18.5
 49
6
 49
-1.5
 49
6
 49
-1.5
 49
0.25
 49
-1.5
 49
0.25
 49
-1.5
  0
LTYPE
  2
dashed_triplicate-dotted
 70
   64
  3
-------    -    -    -    ------
 72
   65
 73
    8
 40
12.75
 49
6
 49
-1.5
 49
0.25
 49
-1.5
 49
0.25
 49
-1.5
 49
0.25
 49
-1.5
  0
LTYPE
  2
double-dashed_triplicate-dotted
 70
   64
  3
-----  ---------  -  -  -  -----
 72
   65
 73
   10
 40
20.25
 49
6
 49
-1.5
 49
6
 49
-1.5
 49
0.25
 49
-1.5
 49
0.25
 49
-1.5
 49
0.25
 49
-1.5
  0
LTYPE
  2
undefined
 70
   64
  3
--------------------------------
 72
   65
 73
    0
 40
0
  0
LTYPE
  2
_
 70
   64
  3
                                
 72
   65
 73
    0
 40
0
  0
LTYPE
  2
__18
 70
   64
  3
                                
 72
   65
 73
    0
 40
0
  0
LTYPE
  2
__19
 70
   64
  3
                                
 72
   65
 73
    0
 40
0
  0
LTYPE
  2
__20
 70
   64
  3
                                
 72
   65
 73
    0
 40
0
  0
LTYPE
  2
__21
 70
   64
  3
                                
 72
   65
 73
    0
 40
0
  0
LTYPE
  2
__22
 70
   64
  3
                                
 72
   65
 73
    0
 40
0
  0
LTYPE
  2
__23
 70
   64
  3
                                
 72
   65
 73
    0
 40
0
  0
LTYPE
  2
__24
 70
   64
  3
                                
 72
   65
 73
    0
 40
0
  0
LTYPE
  2
__25
 70
   64
  3
                                
 72
   65
 73
    0
 40
0
  0
LTYPE
  2
__26
 70
   64
  3
                                
 72
   65
 73
    0
 40
0
  0
LTYPE
  2
__27
 70
   64
  3
                                
 72
   65
 73
    0
 40
0
  0
LTYPE
  2
__28
 70
   64
  3
                                
 72
   65
 73
    0
 40
0
  0
LTYPE
  2
__29
 70
   64
  3
                                
 72
   65
 73
    0
 40
0
  0
LTYPE
  2
__30
 70
   64
  3
                                
 72
   65
 73
    0
 40
0
  0
LTYPE
  2
__31
 70
   64
  3
                                
 72
   65
 73
    0
 40
0
  0
LTYPE
  2
__32
 70
   64
  3
                                
 72
   65
 73
    0
 40
0
  0
ENDTAB
  0
TABLE
  2
STYLE
  5
3
100
AcDbSymbolTable
 70
     1
  0
STYLE
  5
10
100
AcDbSymbolTableRecord
100
AcDbTextStyleTableRecord
  2
STANDARD
 70
     0
 40
0.0
 41
1.0
 50
0.0
 71
     0
 42
0.2
  3
txt
  4
bigfont.shx
  0
STYLE
  5
26
100
AcDbSymbolTableRecord
100
AcDbTextStyleTableRecord
  2
TATEGAKI
 70
    68
 40
0.0
 41
1.0
 50
0.0
 71
     0
 42
1.0
  3
txt
  4
bigfont.shx
  0
ENDTAB
  0
TABLE
  2
LAYER
 70
    3
  0
LAYER
  2
_0-0_0
 70
   64
 62
    7
  6
CONTINUOUS
  0
LAYER
  2
_0-2______1
 70
   64
 62
    7
  6
CONTINUOUS
  0
LAYER
  2
ADD_LINE
 70
   64
 62
    7
  6
CONTINUOUS
  0
ENDTAB
  0
ENDSEC
  0
SECTION
  2
BLOCKS
  0
BLOCK
  2
-000-SPECEL-M4010NAM10L
 70
   64
 10
0
 20
0
 30
0
  0
TEXT
  8
_0-3_SPEC
 62
    7
 10
0
 20
0
 40
1.5
 41
1
 50
0
  1
ｴｸｽﾃﾘｱ 昼白色(5000K) Ra75
  0
TEXT
  8
_0-3_SPEC
 62
    7
 10
0
 20
-3
 40
1.5
 41
1
 50
0
  1
100V~242V共用ﾀｲﾌﾟ
  0
TEXT
  8
_0-3_SPEC
 62
    7
 10
0
 20
-6
 40
1.5
 41
1
 50
0
  1
本体:ｽﾃﾝﾚｽ 黒色塗装仕上
  0
TEXT
  8
_0-3_SPEC
 62
    7
 10
0
 20
-9
 40
1.5
 41
1
 50
0
  1
光源寿命:60,000時間(光束維持率90%)
  0
ENDBLK
  0
ENDSEC
  0
SECTION
  2
ENTITIES
  0
TEXT
  8
_0-0_0
 62
    7
 10
11.498575006462033
 20
1854.96737895357
 40
114.3
 41
1
 50
0
  1
LED34W×１　 街路灯
  0
TEXT
  8
_0-0_0
 62
    7
 10
11.498575006462033
 20
-278.63249404642693
 40
114.3
 41
1
 50
0
  1
三菱 EL-M4010N +EL-X0055 +AM10L
  0
LINE
  8
_0-2______1
  6
CONTINUOUS
 62
    1
 10
544.85747921818893
 20
865.10145118551509
 11
544.85747921818893
 21
1008.332956520801
  0
LINE
  8
_0-2______1
  6
CONTINUOUS
 62
    1
 10
555.82015890294906
 20
867.0309458139368
 11
555.82015890294906
 21
869.61673113230199
  0
LINE
  8
_0-2______1
  6
CONTINUOUS
 62
    1
 10
544.85747921818893
 20
1008.332956520801
 11
735.17127864977692
 21
1172.833530535665
  0
LINE
  8
_0-2______1
  6
CONTINUOUS
 62
    1
 10
637.74623830955125
 20
884.44627556218893
 11
637.74623830955125
 21
886.375770190612
  0
LINE
  8
_0-2______1
  6
CONTINUOUS
 62
    1
 10
638.39727867397096
 20
886.375770190612
 11
638.39727867397096
 21
888.32889128387296
  0
LINE
  8
_0-2______1
  6
CONTINUOUS
 62
    1
 10
875.81699866670033
 20
770.25694583813083
 11
550.00279822731909
 21
865.10145118551509
  0
LINE
  8
_0-2______1
  6
CONTINUOUS
 62
    1
 10
872.58279814667503
 20
773.47277021883792
 11
557.10123832971203
 21
865.10145118551509
  0
LINE
  8
_0-2______1
  6
CONTINUOUS
 62
    1
 10
735.17127864977692
 20
1172.833530535665
 11
735.17127864977692
 21
1029.6072755258979
  0
LINE
  8
_0-2______1
  6
CONTINUOUS
 62
    1
 10
737.75443880538114
 20
1027.021490207535
 11
737.75443880538114
 21
1024.4619565167682
  0
LINE
  8
_0-2______1
  6
CONTINUOUS
 62
    1
 10
737.75443880538114
 20
1030.2583158903199
 11
737.75443880538114
 21
1173.481945737326
  0
LINE
  8
_0-2______1
  6
CONTINUOUS
 62
    1
 10
735.17127864977692
 20
1029.6072755258979
 11
544.85747921818893
 21
865.10145118551509
  0
LINE
  8
_0-2______1
  6
CONTINUOUS
 62
    1
 10
717.11015886262612
 20
1008.332956520801
 11
705.49643881344628
 21
998.64873110004419
  0
LINE
  8
_0-2______1
  6
CONTINUOUS
 62
    1
 10
696.46587891987019
 20
991.54766583489209
 11
684.85215887068989
 21
980.58498615013286
  0
LINE
  8
_0-2______1
  6
CONTINUOUS
 62
    1
 10
602.27503909966799
 20
908.97317122662889
 11
590.01027868606798
 21
898.63790544145422
  0
LINE
  8
_0-2______1
  6
CONTINUOUS
 62
    1
 10
581.63075915691297
 20
890.89105013739891
 11
569.36599874331205
 21
881.2304511814832
  0
LINE
  8
_0-2______1
  6
CONTINUOUS
 62
    1
 10
737.75443880538114
 20
1024.4619565167682
 11
728.72387891180597
 21
1016.7098508871959
  0
LINE
  8
_0-2______1
  6
CONTINUOUS
 62
    1
 10
674.51951824827393
 20
970.25759585323522
 11
613.88875914884829
 21
916.70427555412289
  0
LINE
  8
_0-2______1
  6
CONTINUOUS
 62
    1
 10
559.68439848531625
 20
870.24677019464389
 11
555.82015890294906
 21
867.0309458139368
  0
LINE
  8
_0-2______1
  6
CONTINUOUS
 62
    1
 10
557.10123832971203
 20
865.10145118551509
 11
560.33543884973597
 21
867.68198617835878
  0
LINE
  8
_0-2______1
  6
CONTINUOUS
 62
    1
 10
613.88875914884829
 20
914.11849023576087
 11
675.82159897711426
 21
967.02077017045121
  0
LINE
  8
_0-2______1
  6
CONTINUOUS
 62
    1
 10
729.35391797414923
 20
1013.4782755299302
 11
739.03551823214411
 21
1021.876171198403
  0
LINE
  8
_0-2______1
  6
CONTINUOUS
 62
    1
 10
740.33759896098627
 20
1025.0893704163518
 11
740.33759896098627
 21
1026.3914511451908
  0
LINE
  8
_0-2______1
  6
CONTINUOUS
 62
    1
 10
810.64995831840815
 20
838.6398105671301
 11
810.64995831840815
 21
836.71031593870521
  0
LINE
  8
_0-2______1
  6
CONTINUOUS
 62
    1
 10
810.64995831840815
 20
836.05927557428504
 11
810.64995831840815
 21
834.12453062034319
  0
LINE
  8
_0-2______1
  6
CONTINUOUS
 62
    1
 10
820.98259894082503
 20
837.98877020270993
 11
820.98259894082503
 21
839.9418912959718
  0
LINE
  8
_0-2______1
  6
CONTINUOUS
 62
    1
 10
821.61263800316692
 20
836.05927557428504
 11
821.61263800316692
 21
837.35873114036622
  0
LINE
  8
_0-2______1
  6
CONTINUOUS
 62
    1
 10
739.03551823214411
 20
1021.876171198403
 11
1054.5170780491071
 21
931.54694579781017
  0
LINE
  8
_0-2______1
  6
CONTINUOUS
 62
    1
 10
1055.8191587779493
 20
933.48431591451299
 11
740.33759896098627
 21
1025.0893704163518
  0
LINE
  8
_0-2______1
  6
CONTINUOUS
 62
    1
 10
1068.062917889471
 20
934.76277017851589
 11
737.75443880538114
 21
1030.2583158903199
  0
LINE
  8
_0-2______1
  6
CONTINUOUS
 62
    1
 10
919.68871870781504
 20
925.72958512218111
 11
919.68871870781504
 21
923.80009049375485
  0
LINE
  8
_0-2______1
  6
CONTINUOUS
 62
    1
 10
920.96979813457801
 20
923.80009049375485
 11
920.96979813457801
 21
922.52163622975195
  0
LINE
  8
_0-2______1
  6
CONTINUOUS
 62
    1
 10
1054.5170780491071
 20
931.54694579781017
 11
1021.6290389948299
 21
902.50477018658012
  0
LINE
  8
_0-2______1
  6
CONTINUOUS
 62
    1
 10
1012.5984791012543
 20
894.77366585908612
 11
906.14287886745115
 21
802.51494583006797
  0
LINE
  8
_0-2______1
  6
CONTINUOUS
 62
    1
 10
896.46127860945489
 20
794.76809052601493
 11
872.58279814667503
 21
773.47277021883792
  0
LINE
  8
_0-2______1
  6
CONTINUOUS
 62
    1
 10
1063.5476379426841
 20
933.48431591451299
 11
875.81699866670033
 21
770.25694583813083
  0
LINE
  8
_0-2______1
  6
CONTINUOUS
 62
    1
 10
737.75443880538114
 20
1173.481945737326
 11
1068.062917889471
 21
1077.9942755138022
  0
LINE
  8
_0-2______1
  6
CONTINUOUS
 62
    1
 10
1055.8191587779493
 20
935.41381054293697
 11
1055.8191587779493
 21
933.48431591451299
  0
LINE
  8
_0-2______1
  6
CONTINUOUS
 62
    1
 10
1068.062917889471
 20
1077.9942755138022
 11
1068.062917889471
 21
934.76277017851589
  0
LINE
  8
_0-2______1
  6
CONTINUOUS
 62
    1
 10
877.09807809346194
 20
767.67641084528714
 11
877.74911845788301
 21
767.67641084528714
  0
LINE
  8
_0-2______1
  6
CONTINUOUS
 62
    1
 10
544.85747921818893
 20
864.4504108210931
 11
544.85747921818893
 21
1007.6766658308602
  0
LINE
  8
_0-2______1
  6
CONTINUOUS
 62
    1
 10
555.16911853852798
 20
865.73149024785698
 11
555.16911853852798
 21
869.61673113230199
  0
LINE
  8
_0-2______1
  6
CONTINUOUS
 62
    1
 10
560.98647921415704
 20
873.4835958774288
 11
560.98647921415704
 21
874.76205014143216
  0
LINE
  8
_0-2______1
  6
CONTINUOUS
 62
    1
 10
581.63075915691297
 20
890.89105013739891
 11
581.63075915691297
 21
891.5420905018218
  0
LINE
  8
_0-2______1
  6
CONTINUOUS
 62
    1
 10
610.65455862882391
 20
917.35531591854578
 11
610.65455862882391
 21
916.70427555412289
  0
LINE
  8
_0-2______1
  6
CONTINUOUS
 62
    1
 10
611.30559899324408
 20
916.06898616626086
 11
611.30559899324408
 21
918.00373112020588
  0
LINE
  8
_0-2______1
  6
CONTINUOUS
 62
    1
 10
612.58667842000705
 20
918.63377018254823
 11
612.58667842000705
 21
914.76953060018104
  0
LINE
  8
_0-2______1
  6
CONTINUOUS
 62
    1
 10
613.88875914884829
 20
915.41794580184205
 11
613.88875914884829
 21
919.93585091138993
  0
LINE
  8
_0-2______1
  6
CONTINUOUS
 62
    1
 10
735.822319014198
 20
1174.1329861017462
 11
545.48751828053219
 21
1008.9603704203828
  0
LINE
  8
_0-2______1
  6
CONTINUOUS
 62
    1
 10
875.81699866670033
 20
767.67641084528714
 11
546.1385586449519
 21
863.17195655708883
  0
LINE
  8
_0-2______1
  6
CONTINUOUS
 62
    1
 10
871.95275908433223
 20
773.47277021883792
 11
556.45019796529095
 21
864.4504108210931
  0
LINE
  8
_0-2______1
  6
CONTINUOUS
 62
    1
 10
562.26755864092002
 20
873.4835958774288
 11
560.98647921415704
 21
873.4835958774288
  0
LINE
  8
_0-2______1
  6
CONTINUOUS
 62
    1
 10
676.45163803945707
 20
974.11658511008318
 11
676.45163803945707
 21
974.7676254745038
  0
LINE
  8
_0-2______1
  6
CONTINUOUS
 62
    1
 10
684.85215887068989
 20
981.2202755379958
 11
684.85215887068989
 21
980.58498615013286
  0
LINE
  8
_0-2______1
  6
CONTINUOUS
 62
    1
 10
581.63075915691297
 20
891.5420905018218
 11
582.91183858367503
 21
890.89105013739891
  0
LINE
  8
_0-2______1
  6
CONTINUOUS
 62
    1
 10
810.64995831840815
 20
834.12453062034319
 11
637.74623830955125
 21
884.44627556218893
  0
LINE
  8
_0-2______1
  6
CONTINUOUS
 62
    1
 10
637.74623830955125
 20
886.375770190612
 11
810.64995831840815
 21
836.05927557428504
  0
LINE
  8
_0-2______1
  6
CONTINUOUS
 62
    1
 10
810.64995831840815
 20
836.71031593870521
 11
638.39727867397096
 21
886.375770190612
  0
LINE
  8
_0-2______1
  6
CONTINUOUS
 62
    1
 10
810.64995831840815
 20
838.6398105671301
 11
638.39727867397096
 21
888.32626612111517
  0
LINE
  8
_0-2______1
  6
CONTINUOUS
 62
    1
 10
602.27503909966799
 20
908.97317122662889
 11
602.90507816201125
 21
908.97317122662889
  0
LINE
  8
_0-2______1
  6
CONTINUOUS
 62
    1
 10
717.11015886262612
 20
1008.332956520801
 11
717.11015886262612
 21
1008.9603704203828
  0
LINE
  8
_0-2______1
  6
CONTINUOUS
 62
    1
 10
725.48967839178113
 20
1017.3608912516161
 11
725.48967839178113
 21
1016.0588105227739
  0
LINE
  8
_0-2______1
  6
CONTINUOUS
 62
    1
 10
726.79175912062192
 20
1016.0588105227739
 11
726.79175912062192
 21
1017.9883051511988
  0
LINE
  8
_0-2______1
  6
CONTINUOUS
 62
    1
 10
727.42179818296518
 20
1019.2956362055579
 11
727.42179818296518
 21
1014.1266907315912
  0
LINE
  8
_0-2______1
  6
CONTINUOUS
 62
    1
 10
728.72387891180597
 20
1015.4077701583551
 11
728.72387891180597
 21
1019.923050105142
  0
LINE
  8
_0-2______1
  6
CONTINUOUS
 62
    1
 10
548.72171880055612
 20
863.79937045667293
 11
737.10339844096097
 21
1027.021490207535
  0
LINE
  8
_0-2______1
  6
CONTINUOUS
 62
    1
 10
560.98647921415704
 20
873.4835958774288
 11
569.36599874331205
 21
881.2304511814832
  0
LINE
  8
_0-2______1
  6
CONTINUOUS
 62
    1
 10
581.63075915691297
 20
891.5420905018218
 11
590.01027868606798
 21
898.64053060421202
  0
LINE
  8
_0-2______1
  6
CONTINUOUS
 62
    1
 10
602.27503909966799
 20
908.97317122662889
 11
610.65455862882391
 21
916.70427555412289
  0
LINE
  8
_0-2______1
  6
CONTINUOUS
 62
    1
 10
676.45163803945707
 20
974.11658511008318
 11
684.85215887068989
 21
981.2202755379958
  0
LINE
  8
_0-2______1
  6
CONTINUOUS
 62
    1
 10
696.46587891987019
 20
991.54766583489209
 11
705.49643881344628
 21
998.64873110004419
  0
LINE
  8
_0-2______1
  6
CONTINUOUS
 62
    1
 10
717.11015886262612
 20
1008.9603704203828
 11
725.48967839178113
 21
1016.0588105227739
  0
LINE
  8
_0-2______1
  6
CONTINUOUS
 62
    1
 10
724.83863802736005
 20
1014.1293158943522
 11
675.17055861269409
 21
972.1870904816592
  0
LINE
  8
_0-2______1
  6
CONTINUOUS
 62
    1
 10
560.33543884973597
 20
871.54885092348604
 11
609.37347920206003
 21
914.76690543742097
  0
LINE
  8
_0-2______1
  6
CONTINUOUS
 62
    1
 10
726.79175912062192
 20
1016.0588105227739
 11
724.83863802736005
 21
1014.1293158943522
  0
LINE
  8
_0-2______1
  6
CONTINUOUS
 62
    1
 10
611.30559899324408
 20
916.06898616626086
 11
610.00351826440328
 21
914.76953060018104
  0
LINE
  8
_0-2______1
  6
CONTINUOUS
 62
    1
 10
556.45019796529095
 20
863.79937045667293
 11
557.10123832971203
 21
865.10145118551509
  0
LINE
  8
_0-2______1
  6
CONTINUOUS
 62
    1
 10
729.35391797414923
 20
1008.9603704203828
 11
680.33687892390299
 21
966.39073110810796
  0
LINE
  8
_0-2______1
  6
CONTINUOUS
 62
    1
 10
565.50175916094531
 20
866.38253061227715
 11
614.5187982111911
 21
908.97317122662889
  0
LINE
  8
_0-2______1
  6
CONTINUOUS
 62
    1
 10
610.65455862882391
 20
916.70427555412289
 11
611.30559899324408
 21
916.06898616626086
  0
LINE
  8
_0-2______1
  6
CONTINUOUS
 62
    1
 10
634.53303909160331
 20
889.612595873396
 11
734.52023828535721
 21
976.07495652886382
  0
LINE
  8
_0-2______1
  6
CONTINUOUS
 62
    1
 10
677.10267840387814
 20
973.4891712105009
 11
676.45163803945707
 21
974.11658511008318
  0
LINE
  8
_0-2______1
  6
CONTINUOUS
 62
    1
 10
696.46587891987019
 20
991.54766583489209
 11
697.74695834663407
 21
991.54766583489209
  0
LINE
  8
_0-2______1
  6
CONTINUOUS
 62
    1
 10
744.85287890777408
 20
978.00445115728917
 11
918.38663797897334
 21
927.6879565409622
  0
LINE
  8
_0-2______1
  6
CONTINUOUS
 62
    1
 10
717.11015886262612
 20
1008.9603704203828
 11
718.39123828938909
 21
1008.332956520801
  0
LINE
  8
_0-2______1
  6
CONTINUOUS
 62
    1
 10
725.48967839178113
 20
1016.0588105227739
 11
726.79175912062192
 21
1016.0588105227739
  0
LINE
  8
_0-2______1
  6
CONTINUOUS
 62
    1
 10
871.30171871991206
 20
772.84273115649603
 11
871.30171871991206
 21
773.47277021883792
  0
LINE
  8
_0-2______1
  6
CONTINUOUS
 62
    1
 10
875.81699866670033
 20
775.42589131209888
 11
875.81699866670033
 21
770.25694583813083
  0
LINE
  8
_0-2______1
  6
CONTINUOUS
 62
    1
 10
737.10339844096097
 20
1027.021490207535
 11
1065.5007590359451
 21
932.19798616222897
  0
LINE
  8
_0-2______1
  6
CONTINUOUS
 62
    1
 10
886.12863798703802
 20
805.73077021077415
 11
886.12863798703802
 21
803.80127558234881
  0
LINE
  8
_0-2______1
  6
CONTINUOUS
 62
    1
 10
893.87811845385113
 20
795.4191308904351
 11
893.87811845385113
 21
794.76809052601493
  0
LINE
  8
_0-2______1
  6
CONTINUOUS
 62
    1
 10
894.52915881827221
 20
797.34862551885817
 11
894.52915881827221
 21
796.07017125485481
  0
LINE
  8
_0-2______1
  6
CONTINUOUS
 62
    1
 10
895.81023824503427
 20
796.07017125485481
 11
895.81023824503427
 21
797.34862551885817
  0
LINE
  8
_0-2______1
  6
CONTINUOUS
 62
    1
 10
896.46127860945489
 20
797.99966588327879
 11
896.46127860945489
 21
796.697585154438
  0
LINE
  8
_0-2______1
  6
CONTINUOUS
 62
    1
 10
899.69547912948019
 20
795.4191308904351
 11
899.69547912948019
 21
796.07017125485481
  0
LINE
  8
_0-2______1
  6
CONTINUOUS
 62
    1
 10
905.49183850303007
 20
805.73077021077415
 11
905.49183850303007
 21
803.80127558234881
  0
LINE
  8
_0-2______1
  6
CONTINUOUS
 62
    1
 10
820.98259894082503
 20
839.9418912959718
 11
919.68871870781504
 21
925.72958512218111
  0
LINE
  8
_0-2______1
  6
CONTINUOUS
 62
    1
 10
820.98259894082503
 20
837.98877020270993
 11
919.68871870781504
 21
923.80009049375485
  0
LINE
  8
_0-2______1
  6
CONTINUOUS
 62
    1
 10
821.61263800316692
 20
837.35873114036622
 11
920.96979813457801
 21
923.80009049375485
  0
LINE
  8
_0-2______1
  6
CONTINUOUS
 62
    1
 10
920.96979813457801
 20
922.52163622975195
 11
821.61263800316692
 21
836.05927557428504
  0
LINE
  8
_0-2______1
  6
CONTINUOUS
 62
    1
 10
1018.3948384748051
 20
927.6879565409622
 11
1015.8116783192013
 21
925.10217122259701
  0
LINE
  8
_0-2______1
  6
CONTINUOUS
 62
    1
 10
1000.984759052074
 20
905.08530517942381
 11
1000.984759052074
 21
903.15581055099983
  0
LINE
  8
_0-2______1
  6
CONTINUOUS
 62
    1
 10
1008.7132382168079
 20
895.42995654902597
 11
1008.7132382168079
 21
894.77366585908612
  0
LINE
  8
_0-2______1
  6
CONTINUOUS
 62
    1
 10
1010.0153189456501
 20
896.70841081302797
 11
1010.0153189456501
 21
896.05737044860916
  0
LINE
  8
_0-2______1
  6
CONTINUOUS
 62
    1
 10
1011.296398372413
 20
896.05737044860916
 11
1011.296398372413
 21
897.35945117745086
  0
LINE
  8
_0-2______1
  6
CONTINUOUS
 62
    1
 10
1011.9474387368341
 20
897.98949023979321
 11
1011.9474387368341
 21
896.70841081302797
  0
LINE
  8
_0-2______1
  6
CONTINUOUS
 62
    1
 10
1014.530598892437
 20
895.42995654902597
 11
1014.530598892437
 21
896.05737044860916
  0
LINE
  8
_0-2______1
  6
CONTINUOUS
 62
    1
 10
1015.8116783192013
 20
928.31537044054494
 11
1015.8116783192013
 21
925.10217122259701
  0
LINE
  8
_0-2______1
  6
CONTINUOUS
 62
    1
 10
899.69547912948019
 20
806.38181057519387
 11
900.32551819182208
 21
807.03285093961586
  0
LINE
  8
_0-2______1
  6
CONTINUOUS
 62
    1
 10
1015.1606379547802
 20
906.39263623378383
 11
1016.462718683621
 21
907.02005013336793
  0
LINE
  8
_0-2______1
  6
CONTINUOUS
 62
    1
 10
872.58279814667503
 20
773.47277021883792
 11
871.30171871991206
 21
772.84273115649603
  0
LINE
  8
_0-2______1
  6
CONTINUOUS
 62
    1
 10
1055.8191587779493
 20
931.54694579781017
 11
1021.6290389948299
 21
901.87473112423822
  0
LINE
  8
_0-2______1
  6
CONTINUOUS
 62
    1
 10
1013.8795585280172
 20
894.77366585908612
 11
906.14287886745115
 21
801.86653062840696
  0
LINE
  8
_0-2______1
  6
CONTINUOUS
 62
    1
 10
897.74235803621832
 20
794.76809052601493
 11
873.2338385110952
 21
773.47277021883792
  0
LINE
  8
_0-2______1
  6
CONTINUOUS
 62
    1
 10
877.74911845788301
 20
767.67641084528714
 11
1068.062917889471
 21
932.833275550091
  0
LINE
  8
_0-2______1
  6
CONTINUOUS
 62
    1
 10
1067.4328788271291
 20
1079.2937310798829
 11
737.10339844096097
 21
1174.7682754896082
  0
LINE
  8
_0-2______1
  6
CONTINUOUS
 62
    1
 10
1020.3269582659891
 20
905.08530517942381
 11
1020.3269582659891
 21
903.15581055099983
  0
LINE
  8
_0-2______1
  6
CONTINUOUS
 62
    1
 10
1056.4491978402921
 20
935.41381054293697
 11
1056.4491978402921
 21
932.833275550091
  0
LINE
  8
_0-2______1
  6
CONTINUOUS
 62
    1
 10
1068.7139582538921
 20
934.132731116174
 11
1068.7139582538921
 21
1077.3589861259402
  0
LINE
  8
_0-2______1
  6
CONTINUOUS
 62
    1
 10
589.3592383216469
 20
892.84417123066214
 11
589.3592383216469
 21
892.19313086624197
  0
LINE
  8
_0-2______1
  6
CONTINUOUS
 62
    1
 10
600.9729583708272
 20
902.50477018658012
 11
601.62399873524828
 21
902.50477018658012
  0
LINE
  8
_0-2______1
  6
CONTINUOUS
 62
    1
 10
601.62399873524828
 20
902.50477018658012
 11
602.27503909966799
 21
902.50477018658012
  0
LINE
  8
_0-2______1
  6
CONTINUOUS
 62
    1
 10
602.27503909966799
 20
902.50477018658012
 11
602.27503909966799
 21
901.87473112423822
  0
LINE
  8
_0-2______1
  6
CONTINUOUS
 62
    1
 10
580.97971879249189
 20
885.09731592661001
 11
581.63075915691297
 21
884.44627556218893
  0
LINE
  8
_0-2______1
  6
CONTINUOUS
 62
    1
 10
589.3592383216469
 20
892.19313086624197
 11
589.3592383216469
 21
891.5420905018218
  0
LINE
  8
_0-2______1
  6
CONTINUOUS
 62
    1
 10
589.3592383216469
 20
891.5420905018218
 11
590.01027868606798
 21
891.5420905018218
  0
LINE
  8
_0-2______1
  6
CONTINUOUS
 62
    1
 10
569.36599874331205
 20
874.76205014143216
 11
569.36599874331205
 21
874.13463624184988
  0
LINE
  8
_0-2______1
  6
CONTINUOUS
 62
    1
 10
569.36599874331205
 20
874.13463624184988
 11
570.01703910773313
 21
874.13463624184988
  0
LINE
  8
_0-2______1
  6
CONTINUOUS
 62
    1
 10
600.9729583708272
 20
903.15581055099983
 11
600.9729583708272
 21
902.50477018658012
  0
LINE
  8
_0-2______1
  6
CONTINUOUS
 62
    1
 10
580.32867842807218
 20
885.74573112827011
 11
580.97971879249189
 21
885.74573112827011
  0
LINE
  8
_0-2______1
  6
CONTINUOUS
 62
    1
 10
580.97971879249189
 20
885.74573112827011
 11
580.97971879249189
 21
885.09731592661001
  0
LINE
  8
_0-2______1
  6
CONTINUOUS
 62
    1
 10
588.70819795722718
 20
892.84417123066214
 11
589.3592383216469
 21
892.84417123066214
  0
LINE
  8
_0-2______1
  6
CONTINUOUS
 62
    1
 10
568.71495837889097
 20
875.41309050585278
 11
568.71495837889097
 21
874.76205014143216
  0
LINE
  8
_0-2______1
  6
CONTINUOUS
 62
    1
 10
568.71495837889097
 20
874.76205014143216
 11
569.36599874331205
 21
874.76205014143216
  0
LINE
  8
_0-2______1
  6
CONTINUOUS
 62
    1
 10
590.01027868606798
 20
891.5420905018218
 11
590.66131905048906
 21
891.5420905018218
  0
LINE
  8
_0-2______1
  6
CONTINUOUS
 62
    1
 10
570.01703910773313
 20
874.13463624184988
 11
570.01703910773313
 21
873.4835958774288
  0
LINE
  8
_0-2______1
  6
CONTINUOUS
 62
    1
 10
602.27503909966799
 20
901.22631592257721
 11
602.27503909966799
 21
901.87473112423822
  0
LINE
  8
_0-2______1
  6
CONTINUOUS
 62
    1
 10
582.26079821925532
 20
884.44627556218893
 11
581.63075915691297
 21
884.44627556218893
  0
LINE
  8
_0-2______1
  6
CONTINUOUS
 62
    1
 10
588.70819795722718
 20
893.47158513024397
 11
588.70819795722718
 21
892.84417123066214
  0
LINE
  8
_0-2______1
  6
CONTINUOUS
 62
    1
 10
568.06391801447126
 20
876.06413087027295
 11
568.06391801447126
 21
875.41309050585278
  0
LINE
  8
_0-2______1
  6
CONTINUOUS
 62
    1
 10
568.06391801447126
 20
875.41309050585278
 11
568.71495837889097
 21
875.41309050585278
  0
LINE
  8
_0-2______1
  6
CONTINUOUS
 62
    1
 10
600.32191800640703
 20
903.80685091542182
 11
600.9729583708272
 21
903.80685091542182
  0
LINE
  8
_0-2______1
  6
CONTINUOUS
 62
    1
 10
600.9729583708272
 20
903.80685091542182
 11
600.9729583708272
 21
903.15581055099983
  0
LINE
  8
_0-2______1
  6
CONTINUOUS
 62
    1
 10
580.32867842807218
 20
886.375770190612
 11
580.32867842807218
 21
885.74573112827011
  0
LINE
  8
_0-2______1
  6
CONTINUOUS
 62
    1
 10
584.19291801043892
 20
883.15994580990491
 11
584.84395837485908
 21
883.15994580990491
  0
LINE
  8
_0-2______1
  6
CONTINUOUS
 62
    1
 10
604.20715889085204
 20
901.22631592257721
 11
604.83719795319394
 21
901.22631592257721
  0
LINE
  8
_0-2______1
  6
CONTINUOUS
 62
    1
 10
571.94915889891627
 20
873.4835958774288
 11
572.57919796125907
 21
873.4835958774288
  0
LINE
  8
_0-2______1
  6
CONTINUOUS
 62
    1
 10
592.5934388416722
 20
890.89105013739891
 11
593.24447920609191
 21
890.89105013739891
  0
LINE
  8
_0-2______1
  6
CONTINUOUS
 62
    1
 10
584.84395837485908
 20
883.8109861743269
 11
585.49499873928016
 21
883.8109861743269
  0
LINE
  8
_0-2______1
  6
CONTINUOUS
 62
    1
 10
585.49499873928016
 20
883.8109861743269
 11
585.49499873928016
 21
884.44627556218893
  0
LINE
  8
_0-2______1
  6
CONTINUOUS
 62
    1
 10
605.4882383176141
 20
901.22631592257721
 11
606.13927868203518
 21
901.22631592257721
  0
LINE
  8
_0-2______1
  6
CONTINUOUS
 62
    1
 10
580.97971879249189
 20
889.612595873396
 11
580.32867842807218
 21
889.612595873396
  0
LINE
  8
_0-2______1
  6
CONTINUOUS
 62
    1
 10
580.32867842807218
 20
889.612595873396
 11
580.32867842807218
 21
888.95630518345706
  0
LINE
  8
_0-2______1
  6
CONTINUOUS
 62
    1
 10
573.23023832567924
 20
873.4835958774288
 11
573.88127869010032
 21
873.4835958774288
  0
LINE
  8
_0-2______1
  6
CONTINUOUS
 62
    1
 10
593.24447920609191
 20
890.89105013739891
 11
593.87451826843517
 21
890.89105013739891
  0
LINE
  8
_0-2______1
  6
CONTINUOUS
 62
    1
 10
593.87451826843517
 20
890.89105013739891
 11
593.87451826843517
 21
891.5420905018218
  0
LINE
  8
_0-2______1
  6
CONTINUOUS
 62
    1
 10
589.3592383216469
 20
896.70841081302797
 11
588.70819795722718
 21
896.70841081302797
  0
LINE
  8
_0-2______1
  6
CONTINUOUS
 62
    1
 10
568.71495837889097
 20
879.30095655305786
 11
568.06391801447126
 21
879.30095655305786
  0
LINE
  8
_0-2______1
  6
CONTINUOUS
 62
    1
 10
568.06391801447126
 20
879.30095655305786
 11
568.06391801447126
 21
878.64466586311801
  0
LINE
  8
_0-2______1
  6
CONTINUOUS
 62
    1
 10
609.37347920206003
 20
914.76953060018104
 11
610.00351826440328
 21
914.76953060018104
  0
LINE
  8
_0-2______1
  6
CONTINUOUS
 62
    1
 10
684.20111850627018
 20
974.7676254745038
 11
684.85215887068989
 21
974.11658511008318
  0
LINE
  8
_0-2______1
  6
CONTINUOUS
 62
    1
 10
704.19435808460503
 20
992.20395652483194
 11
704.8453984490252
 21
992.20395652483194
  0
LINE
  8
_0-2______1
  6
CONTINUOUS
 62
    1
 10
696.46587891987019
 20
985.10289125967984
 11
696.46587891987019
 21
984.45185089526012
  0
LINE
  8
_0-2______1
  6
CONTINUOUS
 62
    1
 10
716.45911849820595
 20
1003.1666362095912
 11
716.45911849820595
 21
1002.515595845171
  0
LINE
  8
_0-2______1
  6
CONTINUOUS
 62
    1
 10
716.45911849820595
 20
1002.515595845171
 11
717.11015886262612
 21
1002.515595845171
  0
LINE
  8
_0-2______1
  6
CONTINUOUS
 62
    1
 10
696.46587891987019
 20
984.45185089526012
 11
697.09591798221209
 21
984.45185089526012
  0
LINE
  8
_0-2______1
  6
CONTINUOUS
 62
    1
 10
717.11015886262612
 20
1002.515595845171
 11
717.11015886262612
 21
1001.8593051552311
  0
LINE
  8
_0-2______1
  6
CONTINUOUS
 62
    1
 10
717.11015886262612
 20
1001.8593051552311
 11
717.74019792496802
 21
1001.8593051552311
  0
LINE
  8
_0-2______1
  6
CONTINUOUS
 62
    1
 10
704.8453984490252
 20
992.20395652483194
 11
705.49643881344628
 21
992.20395652483194
  0
LINE
  8
_0-2______1
  6
CONTINUOUS
 62
    1
 10
705.49643881344628
 20
992.20395652483194
 11
705.49643881344628
 21
991.54766583489209
  0
LINE
  8
_0-2______1
  6
CONTINUOUS
 62
    1
 10
695.81483855545002
 20
985.73030515926303
 11
695.81483855545002
 21
985.10289125967984
  0
LINE
  8
_0-2______1
  6
CONTINUOUS
 62
    1
 10
695.81483855545002
 20
985.10289125967984
 11
696.46587891987019
 21
985.10289125967984
  0
LINE
  8
_0-2______1
  6
CONTINUOUS
 62
    1
 10
715.80807813378533
 20
1003.1666362095912
 11
716.45911849820595
 21
1003.1666362095912
  0
LINE
  8
_0-2______1
  6
CONTINUOUS
 62
    1
 10
684.20111850627018
 20
975.41866583892488
 11
684.20111850627018
 21
974.7676254745038
  0
LINE
  8
_0-2______1
  6
CONTINUOUS
 62
    1
 10
704.19435808460503
 20
992.83137042441604
 11
704.19435808460503
 21
992.20395652483194
  0
LINE
  8
_0-2______1
  6
CONTINUOUS
 62
    1
 10
684.85215887068989
 20
974.11658511008318
 11
685.48219793303315
 21
974.11658511008318
  0
LINE
  8
_0-2______1
  6
CONTINUOUS
 62
    1
 10
685.48219793303315
 20
974.11658511008318
 11
685.48219793303315
 21
973.4891712105009
  0
LINE
  8
_0-2______1
  6
CONTINUOUS
 62
    1
 10
705.49643881344628
 20
991.54766583489209
 11
706.14747917786599
 21
991.54766583489209
  0
LINE
  8
_0-2______1
  6
CONTINUOUS
 62
    1
 10
697.74695834663407
 20
983.80081053084086
 11
697.09591798221209
 21
984.45185089526012
  0
LINE
  8
_0-2______1
  6
CONTINUOUS
 62
    1
 10
683.5500781418491
 20
976.07495652886382
 11
683.5500781418491
 21
975.41866583892488
  0
LINE
  8
_0-2______1
  6
CONTINUOUS
 62
    1
 10
683.5500781418491
 20
975.41866583892488
 11
684.20111850627018
 21
975.41866583892488
  0
LINE
  8
_0-2______1
  6
CONTINUOUS
 62
    1
 10
704.19435808460503
 20
993.48241078883484
 11
704.19435808460503
 21
992.83137042441604
  0
LINE
  8
_0-2______1
  6
CONTINUOUS
 62
    1
 10
695.81483855545002
 20
986.38659584920288
 11
695.81483855545002
 21
985.73030515926303
  0
LINE
  8
_0-2______1
  6
CONTINUOUS
 62
    1
 10
715.80807813378533
 20
1003.7940501091739
 11
715.80807813378533
 21
1003.1666362095912
  0
LINE
  8
_0-2______1
  6
CONTINUOUS
 62
    1
 10
726.79175912062192
 20
1008.332956520801
 11
727.42179818296518
 21
1008.332956520801
  0
LINE
  8
_0-2______1
  6
CONTINUOUS
 62
    1
 10
727.42179818296518
 20
1008.9603704203828
 11
726.79175912062192
 21
1008.9603704203828
  0
LINE
  8
_0-2______1
  6
CONTINUOUS
 62
    1
 10
719.69331901822989
 20
1001.231891255648
 11
720.32335808057314
 21
1001.231891255648
  0
LINE
  8
_0-2______1
  6
CONTINUOUS
 62
    1
 10
687.43531902629502
 20
972.83813084607891
 11
688.06535808863691
 21
972.83813084607891
  0
LINE
  8
_0-2______1
  6
CONTINUOUS
 62
    1
 10
720.97439844499331
 20
1001.231891255648
 11
720.97439844499331
 21
1001.8593051552311
  0
LINE
  8
_0-2______1
  6
CONTINUOUS
 62
    1
 10
700.33011850223829
 20
983.80081053084086
 11
700.98115886665801
 21
983.80081053084086
  0
LINE
  8
_0-2______1
  6
CONTINUOUS
 62
    1
 10
695.81483855545002
 20
989.61817120646811
 11
695.81483855545002
 21
988.96713084204703
  0
LINE
  8
_0-2______1
  6
CONTINUOUS
 62
    1
 10
716.45911849820595
 20
1007.0256254664391
 11
715.80807813378533
 21
1007.0256254664391
  0
LINE
  8
_0-2______1
  6
CONTINUOUS
 62
    1
 10
688.71639845305799
 20
972.83813084607891
 11
688.71639845305799
 21
973.4891712105009
  0
LINE
  8
_0-2______1
  6
CONTINUOUS
 62
    1
 10
708.7096380313933
 20
990.89662547047283
 11
709.36067839581392
 21
990.89662547047283
  0
LINE
  8
_0-2______1
  6
CONTINUOUS
 62
    1
 10
709.36067839581392
 20
990.89662547047283
 11
709.36067839581392
 21
991.54766583489209
  0
LINE
  8
_0-2______1
  6
CONTINUOUS
 62
    1
 10
684.20111850627018
 20
979.28553058405123
 11
684.20111850627018
 21
978.63449021963197
  0
LINE
  8
_0-2______1
  6
CONTINUOUS
 62
    1
 10
684.20111850627018
 20
978.63449021963197
 11
683.5500781418491
 21
978.63449021963197
  0
LINE
  8
_0-2______1
  6
CONTINUOUS
 62
    1
 10
704.19435808460503
 20
996.71398614610098
 11
704.19435808460503
 21
996.06294578167899
  0
LINE
  8
_0-2______1
  6
CONTINUOUS
 62
    1
 10
737.10339844096097
 20
1174.7682754896082
 11
736.45235807654126
 21
1174.7682754896082
  0
LINE
  8
_0-2______1
  6
CONTINUOUS
 62
    1
 10
736.45235807654126
 20
1174.7682754896082
 11
736.45235807654126
 21
1174.1329861017462
  0
LINE
  8
_0-2______1
  6
CONTINUOUS
 62
    1
 10
736.45235807654126
 20
1174.1329861017462
 11
735.822319014198
 21
1174.1329861017462
  0
LINE
  8
_0-2______1
  6
CONTINUOUS
 62
    1
 10
544.85747921818893
 20
1008.332956520801
 11
544.85747921818893
 21
1007.6766658308602
  0
LINE
  8
_0-2______1
  6
CONTINUOUS
 62
    1
 10
901.62759892066333
 20
805.73077021077415
 11
900.32551819182208
 21
807.03285093961586
  0
LINE
  8
_0-2______1
  6
CONTINUOUS
 62
    1
 10
899.69547912948019
 20
806.38181057519387
 11
898.39339840063803
 21
807.68126614127596
  0
LINE
  8
_0-2______1
  6
CONTINUOUS
 62
    1
 10
899.69547912948019
 20
806.38181057519387
 11
900.32551819182208
 21
806.38181057519387
  0
LINE
  8
_0-2______1
  6
CONTINUOUS
 62
    1
 10
899.69547912948019
 20
805.73077021077415
 11
900.97655855624316
 21
805.73077021077415
  0
LINE
  8
_0-2______1
  6
CONTINUOUS
 62
    1
 10
900.97655855624316
 20
805.73077021077415
 11
900.32551819182208
 21
806.38181057519387
  0
LINE
  8
_0-2______1
  6
CONTINUOUS
 62
    1
 10
875.81699866670033
 20
767.67641084528714
 11
876.46803903112004
 21
767.67641084528714
  0
LINE
  8
_0-2______1
  6
CONTINUOUS
 62
    1
 10
896.46127860945489
 20
798.65595657322001
 11
897.74235803621832
 21
799.2833704728032
  0
LINE
  8
_0-2______1
  6
CONTINUOUS
 62
    1
 10
898.39339840063803
 20
807.68389130403602
 11
897.74235803621832
 21
807.68389130403602
  0
LINE
  8
_0-2______1
  6
CONTINUOUS
 62
    1
 10
898.39339840063803
 20
807.68389130403602
 11
899.69547912948019
 21
807.68389130403602
  0
LINE
  8
_0-2______1
  6
CONTINUOUS
 62
    1
 10
896.46127860945489
 20
798.65595657322001
 11
896.46127860945489
 21
797.99966588327879
  0
LINE
  8
_0-2______1
  6
CONTINUOUS
 62
    1
 10
900.32551819182208
 20
807.68389130403602
 11
899.69547912948019
 21
807.68389130403602
  0
LINE
  8
_0-2______1
  6
CONTINUOUS
 62
    1
 10
902.25763798300613
 20
805.10073114843181
 11
901.62759892066333
 21
805.10073114843181
  0
LINE
  8
_0-2______1
  6
CONTINUOUS
 62
    1
 10
901.62759892066333
 20
805.10073114843181
 11
900.97655855624316
 21
805.10073114843181
  0
LINE
  8
_0-2______1
  6
CONTINUOUS
 62
    1
 10
900.97655855624316
 20
805.10073114843181
 11
900.97655855624316
 21
805.73077021077415
  0
LINE
  8
_0-2______1
  6
CONTINUOUS
 62
    1
 10
894.52915881827221
 20
797.34862551885817
 11
895.1591978806141
 21
796.697585154438
  0
LINE
  8
_0-2______1
  6
CONTINUOUS
 62
    1
 10
900.97655855624316
 20
805.73077021077415
 11
902.25763798300613
 21
805.73077021077415
  0
LINE
  8
_0-2______1
  6
CONTINUOUS
 62
    1
 10
898.39339840063803
 20
799.2833704728032
 11
897.74235803621832
 21
799.2833704728032
  0
LINE
  8
_0-2______1
  6
CONTINUOUS
 62
    1
 10
893.87811845385113
 20
794.76809052601493
 11
892.59703902708816
 21
795.4191308904351
  0
LINE
  8
_0-2______1
  6
CONTINUOUS
 62
    1
 10
899.69547912948019
 20
796.07017125485481
 11
900.32551819182208
 21
796.07017125485481
  0
LINE
  8
_0-2______1
  6
CONTINUOUS
 62
    1
 10
899.69547912948019
 20
795.4191308904351
 11
899.04443876505911
 21
795.4191308904351
  0
LINE
  8
_0-2______1
  6
CONTINUOUS
 62
    1
 10
891.94599866266708
 20
798.65595657322001
 11
891.294958298246
 21
797.99966588327879
  0
LINE
  8
_0-2______1
  6
CONTINUOUS
 62
    1
 10
891.294958298246
 20
797.99966588327879
 11
890.64391793382629
 21
797.99966588327879
  0
LINE
  8
_0-2______1
  6
CONTINUOUS
 62
    1
 10
886.12863798703802
 20
803.80127558234881
 11
886.12863798703802
 21
803.16598619448723
  0
LINE
  8
_0-2______1
  6
CONTINUOUS
 62
    1
 10
904.8407981386099
 20
803.80127558234881
 11
904.8407981386099
 21
803.16598619448723
  0
LINE
  8
_0-2______1
  6
CONTINUOUS
 62
    1
 10
906.14287886745115
 20
801.21549026398588
 11
906.14287886745115
 21
801.86653062840696
  0
LINE
  8
_0-2______1
  6
CONTINUOUS
 62
    1
 10
1016.462718683621
 20
906.39263623378383
 11
1016.462718683621
 21
907.02005013336793
  0
LINE
  8
_0-2______1
  6
CONTINUOUS
 62
    1
 10
1016.462718683621
 20
906.39263623378383
 11
1016.462718683621
 21
905.74159586936503
  0
LINE
  8
_0-2______1
  6
CONTINUOUS
 62
    1
 10
1014.530598892437
 20
906.39263623378383
 11
1013.8795585280172
 21
907.6710904977881
  0
LINE
  8
_0-2______1
  6
CONTINUOUS
 62
    1
 10
1014.530598892437
 20
906.39263623378383
 11
1015.8116783192013
 21
906.39263623378383
  0
LINE
  8
_0-2______1
  6
CONTINUOUS
 62
    1
 10
1013.8795585280172
 20
907.6710904977881
 11
1012.5984791012543
 21
908.32213086221009
  0
LINE
  8
_0-2______1
  6
CONTINUOUS
 62
    1
 10
1015.1606379547802
 20
905.74159586936503
 11
1016.462718683621
 21
905.08530517942381
  0
LINE
  8
_0-2______1
  6
CONTINUOUS
 62
    1
 10
1015.8116783192013
 20
906.39263623378383
 11
1016.462718683621
 21
905.74159586936503
  0
LINE
  8
_0-2______1
  6
CONTINUOUS
 62
    1
 10
1014.530598892437
 20
907.6710904977881
 11
1013.8795585280172
 21
907.6710904977881
  0
LINE
  8
_0-2______1
  6
CONTINUOUS
 62
    1
 10
1017.743798110384
 20
905.08530517942381
 11
1017.1137590480421
 21
905.08530517942381
  0
LINE
  8
_0-2______1
  6
CONTINUOUS
 62
    1
 10
1017.1137590480421
 20
905.08530517942381
 11
1016.462718683621
 21
905.08530517942381
  0
LINE
  8
_0-2______1
  6
CONTINUOUS
 62
    1
 10
1016.462718683621
 20
905.74159586936503
 11
1017.743798110384
 21
905.08530517942381
  0
LINE
  8
_0-2______1
  6
CONTINUOUS
 62
    1
 10
1012.5984791012543
 20
899.28894580587303
 11
1012.5984791012543
 21
898.64053060421202
  0
LINE
  8
_0-2______1
  6
CONTINUOUS
 62
    1
 10
1012.5984791012543
 20
898.64053060421202
 11
1011.9474387368341
 21
897.98949023979321
  0
LINE
  8
_0-2______1
  6
CONTINUOUS
 62
    1
 10
1014.530598892437
 20
907.6710904977881
 11
1015.8116783192013
 21
907.02005013336793
  0
LINE
  8
_0-2______1
  6
CONTINUOUS
 62
    1
 10
1010.6453580079919
 20
896.70841081302797
 11
1010.0153189456501
 21
896.70841081302797
  0
LINE
  8
_0-2______1
  6
CONTINUOUS
 62
    1
 10
1013.8795585280172
 20
899.28894580587303
 11
1012.5984791012543
 21
899.28894580587303
  0
LINE
  8
_0-2______1
  6
CONTINUOUS
 62
    1
 10
1008.7132382168079
 20
894.77366585908612
 11
1008.0621978523882
 21
894.77366585908612
  0
LINE
  8
_0-2______1
  6
CONTINUOUS
 62
    1
 10
1015.8116783192013
 20
896.05737044860916
 11
1015.1606379547802
 21
896.05737044860916
  0
LINE
  8
_0-2______1
  6
CONTINUOUS
 62
    1
 10
1015.1606379547802
 20
895.42995654902597
 11
1015.8116783192013
 21
896.05737044860916
  0
LINE
  8
_0-2______1
  6
CONTINUOUS
 62
    1
 10
1014.530598892437
 20
895.42995654902597
 11
1015.1606379547802
 21
895.42995654902597
  0
LINE
  8
_0-2______1
  6
CONTINUOUS
 62
    1
 10
1006.7811184256252
 20
898.64053060421202
 11
1006.7811184256252
 21
897.98949023979321
  0
LINE
  8
_0-2______1
  6
CONTINUOUS
 62
    1
 10
1020.3269582659891
 20
903.15581055099983
 11
1020.9779986304093
 21
903.15581055099983
  0
LINE
  8
_0-2______1
  6
CONTINUOUS
 62
    1
 10
1021.6290389948299
 20
901.22631592257721
 11
1021.6290389948299
 21
901.87473112423822
  0
LINE
  8
_0-2______1
  6
CONTINUOUS
 62
    1
 10
1021.6290389948299
 20
900.57527555815614
 11
1021.6290389948299
 21
901.22631592257721
  0
LINE
  8
_0-2______1
  6
CONTINUOUS
 62
    1
 10
1000.3337186876543
 20
901.22631592257721
 11
1000.3337186876543
 21
900.57527555815614
  0
LINE
  8
_0-2______1
  6
CONTINUOUS
 62
    1
 10
1055.8191587779493
 20
931.54694579781017
 11
1056.4491978402921
 21
931.54694579781017
  0
LINE
  8
_0-2______1
  6
CONTINUOUS
 62
    1
 10
1056.4491978402921
 20
931.54694579781017
 11
1056.4491978402921
 21
932.19798616222897
  0
LINE
  8
_0-2______1
  6
CONTINUOUS
 62
    1
 10
1056.4491978402921
 20
932.19798616222897
 11
1056.4491978402921
 21
932.833275550091
  0
LINE
  8
_0-2______1
  6
CONTINUOUS
 62
    1
 10
1068.062917889471
 20
932.833275550091
 11
1068.7139582538921
 21
933.48431591451299
  0
LINE
  8
_0-2______1
  6
CONTINUOUS
 62
    1
 10
1068.7139582538921
 20
933.48431591451299
 11
1068.7139582538921
 21
934.132731116174
  0
LINE
  8
_0-2______1
  6
CONTINUOUS
 62
    1
 10
904.8407981386099
 20
797.99966588327879
 11
905.49183850303007
 21
797.99966588327879
  0
LINE
  8
_0-2______1
  6
CONTINUOUS
 62
    1
 10
905.49183850303007
 20
797.99966588327879
 11
905.49183850303007
 21
799.2833704728032
  0
LINE
  8
_0-2______1
  6
CONTINUOUS
 62
    1
 10
905.49183850303007
 20
799.2833704728032
 11
906.14287886745115
 21
799.2833704728032
  0
LINE
  8
_0-2______1
  6
CONTINUOUS
 62
    1
 10
906.14287886745115
 20
799.2833704728032
 11
906.14287886745115
 21
801.21549026398588
  0
LINE
  8
_0-2______1
  6
CONTINUOUS
 62
    1
 10
904.8407981386099
 20
797.99966588327879
 11
904.2107590762671
 21
797.99966588327879
  0
LINE
  8
_0-2______1
  6
CONTINUOUS
 62
    1
 10
904.2107590762671
 20
797.99966588327879
 11
904.2107590762671
 21
797.34862551885817
  0
LINE
  8
_0-2______1
  6
CONTINUOUS
 62
    1
 10
904.2107590762671
 20
797.34862551885817
 11
903.55971871184602
 21
797.34862551885817
  0
LINE
  8
_0-2______1
  6
CONTINUOUS
 62
    1
 10
903.55971871184602
 20
797.34862551885817
 11
903.55971871184602
 21
796.697585154438
  0
LINE
  8
_0-2______1
  6
CONTINUOUS
 62
    1
 10
903.55971871184602
 20
796.697585154438
 11
902.90867834742721
 21
796.697585154438
  0
LINE
  8
_0-2______1
  6
CONTINUOUS
 62
    1
 10
902.90867834742721
 20
796.697585154438
 11
902.25763798300613
 21
796.07017125485481
  0
LINE
  8
_0-2______1
  6
CONTINUOUS
 62
    1
 10
902.25763798300613
 20
796.07017125485481
 11
901.62759892066333
 21
796.07017125485481
  0
LINE
  8
_0-2______1
  6
CONTINUOUS
 62
    1
 10
901.62759892066333
 20
796.07017125485481
 11
900.97655855624316
 21
795.4191308904351
  0
LINE
  8
_0-2______1
  6
CONTINUOUS
 62
    1
 10
900.97655855624316
 20
795.4191308904351
 11
900.32551819182208
 21
795.4191308904351
  0
LINE
  8
_0-2______1
  6
CONTINUOUS
 62
    1
 10
900.32551819182208
 20
795.4191308904351
 11
899.69547912948019
 21
795.4191308904351
  0
LINE
  8
_0-2______1
  6
CONTINUOUS
 62
    1
 10
899.69547912948019
 20
795.4191308904351
 11
899.04443876505911
 21
795.4191308904351
  0
LINE
  8
_0-2______1
  6
CONTINUOUS
 62
    1
 10
899.04443876505911
 20
795.4191308904351
 11
898.39339840063803
 21
794.76809052601493
  0
LINE
  8
_0-2______1
  6
CONTINUOUS
 62
    1
 10
898.39339840063803
 20
794.76809052601493
 11
897.74235803621832
 21
794.76809052601493
  0
LINE
  8
_0-2______1
  6
CONTINUOUS
 62
    1
 10
897.74235803621832
 20
794.76809052601493
 11
896.46127860945489
 21
794.76809052601493
  0
LINE
  8
_0-2______1
  6
CONTINUOUS
 62
    1
 10
896.46127860945489
 20
794.76809052601493
 11
896.46127860945489
 21
794.11705016159385
  0
LINE
  8
_0-2______1
  6
CONTINUOUS
 62
    1
 10
896.46127860945489
 20
794.11705016159385
 11
895.81023824503427
 21
794.11705016159385
  0
LINE
  8
_0-2______1
  6
CONTINUOUS
 62
    1
 10
895.81023824503427
 20
794.11705016159385
 11
894.52915881827221
 21
794.11705016159385
  0
LINE
  8
_0-2______1
  6
CONTINUOUS
 62
    1
 10
894.52915881827221
 20
794.11705016159385
 11
893.87811845385113
 21
794.76809052601493
  0
LINE
  8
_0-2______1
  6
CONTINUOUS
 62
    1
 10
893.87811845385113
 20
794.76809052601493
 11
893.22707808943005
 21
794.76809052601493
  0
LINE
  8
_0-2______1
  6
CONTINUOUS
 62
    1
 10
893.22707808943005
 20
794.76809052601493
 11
892.59703902708816
 21
794.76809052601493
  0
LINE
  8
_0-2______1
  6
CONTINUOUS
 62
    1
 10
892.59703902708816
 20
794.76809052601493
 11
891.94599866266708
 21
795.4191308904351
  0
LINE
  8
_0-2______1
  6
CONTINUOUS
 62
    1
 10
891.94599866266708
 20
795.4191308904351
 11
890.64391793382629
 21
795.4191308904351
  0
LINE
  8
_0-2______1
  6
CONTINUOUS
 62
    1
 10
890.64391793382629
 20
795.4191308904351
 11
890.01387887148303
 21
795.4191308904351
  0
LINE
  8
_0-2______1
  6
CONTINUOUS
 62
    1
 10
890.01387887148303
 20
795.4191308904351
 11
890.01387887148303
 21
796.07017125485481
  0
LINE
  8
_0-2______1
  6
CONTINUOUS
 62
    1
 10
890.01387887148303
 20
796.07017125485481
 11
889.36283850706332
 21
796.07017125485481
  0
LINE
  8
_0-2______1
  6
CONTINUOUS
 62
    1
 10
889.36283850706332
 20
796.07017125485481
 11
888.71179814264315
 21
796.07017125485481
  0
LINE
  8
_0-2______1
  6
CONTINUOUS
 62
    1
 10
888.71179814264315
 20
796.07017125485481
 11
888.08175908029989
 21
796.07017125485481
  0
LINE
  8
_0-2______1
  6
CONTINUOUS
 62
    1
 10
888.08175908029989
 20
796.07017125485481
 11
888.08175908029989
 21
797.34862551885817
  0
LINE
  8
_0-2______1
  6
CONTINUOUS
 62
    1
 10
888.08175908029989
 20
797.34862551885817
 11
887.43071871587927
 21
797.34862551885817
  0
LINE
  8
_0-2______1
  6
CONTINUOUS
 62
    1
 10
887.43071871587927
 20
797.34862551885817
 11
886.7796783514591
 21
797.34862551885817
  0
LINE
  8
_0-2______1
  6
CONTINUOUS
 62
    1
 10
886.7796783514591
 20
797.34862551885817
 11
886.7796783514591
 21
797.99966588327879
  0
LINE
  8
_0-2______1
  6
CONTINUOUS
 62
    1
 10
886.7796783514591
 20
797.99966588327879
 11
886.12863798703802
 21
797.99966588327879
  0
LINE
  8
_0-2______1
  6
CONTINUOUS
 62
    1
 10
902.25763798300613
 20
805.73077021077415
 11
902.25763798300613
 21
805.10073114843181
  0
LINE
  8
_0-2______1
  6
CONTINUOUS
 62
    1
 10
902.25763798300613
 20
805.10073114843181
 11
902.90867834742721
 21
805.10073114843181
  0
LINE
  8
_0-2______1
  6
CONTINUOUS
 62
    1
 10
902.90867834742721
 20
805.10073114843181
 11
903.55971871184602
 21
805.10073114843181
  0
LINE
  8
_0-2______1
  6
CONTINUOUS
 62
    1
 10
903.55971871184602
 20
805.10073114843181
 11
904.2107590762671
 21
805.10073114843181
  0
LINE
  8
_0-2______1
  6
CONTINUOUS
 62
    1
 10
904.2107590762671
 20
805.10073114843181
 11
904.2107590762671
 21
803.80127558234881
  0
LINE
  8
_0-2______1
  6
CONTINUOUS
 62
    1
 10
904.2107590762671
 20
803.80127558234881
 11
904.8407981386099
 21
803.80127558234881
  0
LINE
  8
_0-2______1
  6
CONTINUOUS
 62
    1
 10
904.8407981386099
 20
803.80127558234881
 11
905.49183850303007
 21
803.80127558234881
  0
LINE
  8
_0-2______1
  6
CONTINUOUS
 62
    1
 10
905.49183850303007
 20
803.80127558234881
 11
905.49183850303007
 21
803.16598619448723
  0
LINE
  8
_0-2______1
  6
CONTINUOUS
 62
    1
 10
905.49183850303007
 20
803.16598619448723
 11
906.14287886745115
 21
803.16598619448723
  0
LINE
  8
_0-2______1
  6
CONTINUOUS
 62
    1
 10
906.14287886745115
 20
803.16598619448723
 11
906.14287886745115
 21
801.86653062840696
  0
LINE
  8
_0-2______1
  6
CONTINUOUS
 62
    1
 10
900.32551819182208
 20
809.61863625797787
 11
900.97655855624316
 21
809.61863625797787
  0
LINE
  8
_0-2______1
  6
CONTINUOUS
 62
    1
 10
900.97655855624316
 20
809.61863625797787
 11
901.62759892066333
 21
809.61863625797787
  0
LINE
  8
_0-2______1
  6
CONTINUOUS
 62
    1
 10
901.62759892066333
 20
809.61863625797787
 11
901.62759892066333
 21
808.96759589355815
  0
LINE
  8
_0-2______1
  6
CONTINUOUS
 62
    1
 10
901.62759892066333
 20
808.96759589355815
 11
902.25763798300613
 21
808.96759589355815
  0
LINE
  8
_0-2______1
  6
CONTINUOUS
 62
    1
 10
902.25763798300613
 20
808.96759589355815
 11
902.90867834742721
 21
808.96759589355815
  0
LINE
  8
_0-2______1
  6
CONTINUOUS
 62
    1
 10
902.90867834742721
 20
808.96759589355815
 11
902.90867834742721
 21
808.31130520361921
  0
LINE
  8
_0-2______1
  6
CONTINUOUS
 62
    1
 10
902.90867834742721
 20
808.31130520361921
 11
903.55971871184602
 21
808.31130520361921
  0
LINE
  8
_0-2______1
  6
CONTINUOUS
 62
    1
 10
903.55971871184602
 20
808.31130520361921
 11
903.55971871184602
 21
807.68126614127596
  0
LINE
  8
_0-2______1
  6
CONTINUOUS
 62
    1
 10
903.55971871184602
 20
807.68126614127596
 11
904.2107590762671
 21
807.68126614127596
  0
LINE
  8
_0-2______1
  6
CONTINUOUS
 62
    1
 10
904.2107590762671
 20
807.68126614127596
 11
904.2107590762671
 21
807.03285093961586
  0
LINE
  8
_0-2______1
  6
CONTINUOUS
 62
    1
 10
904.2107590762671
 20
807.03285093961586
 11
904.8407981386099
 21
807.03285093961586
  0
LINE
  8
_0-2______1
  6
CONTINUOUS
 62
    1
 10
904.8407981386099
 20
807.03285093961586
 11
904.8407981386099
 21
806.38181057519387
  0
LINE
  8
_0-2______1
  6
CONTINUOUS
 62
    1
 10
904.8407981386099
 20
806.38181057519387
 11
905.49183850303007
 21
806.38181057519387
  0
LINE
  8
_0-2______1
  6
CONTINUOUS
 62
    1
 10
905.49183850303007
 20
806.38181057519387
 11
905.49183850303007
 21
805.73077021077415
  0
LINE
  8
_0-2______1
  6
CONTINUOUS
 62
    1
 10
886.12863798703802
 20
805.73077021077415
 11
886.12863798703802
 21
807.03285093961586
  0
LINE
  8
_0-2______1
  6
CONTINUOUS
 62
    1
 10
886.12863798703802
 20
807.03285093961586
 11
886.7796783514591
 21
807.03285093961586
  0
LINE
  8
_0-2______1
  6
CONTINUOUS
 62
    1
 10
886.7796783514591
 20
807.03285093961586
 11
886.7796783514591
 21
807.68389130403602
  0
LINE
  8
_0-2______1
  6
CONTINUOUS
 62
    1
 10
886.7796783514591
 20
807.68389130403602
 11
887.43071871587927
 21
807.68389130403602
  0
LINE
  8
_0-2______1
  6
CONTINUOUS
 62
    1
 10
887.43071871587927
 20
807.68389130403602
 11
887.43071871587927
 21
808.31130520361921
  0
LINE
  8
_0-2______1
  6
CONTINUOUS
 62
    1
 10
887.43071871587927
 20
808.31130520361921
 11
888.08175908029989
 21
808.31130520361921
  0
LINE
  8
_0-2______1
  6
CONTINUOUS
 62
    1
 10
888.08175908029989
 20
808.31130520361921
 11
888.08175908029989
 21
808.96759589355815
  0
LINE
  8
_0-2______1
  6
CONTINUOUS
 62
    1
 10
888.08175908029989
 20
808.96759589355815
 11
888.71179814264315
 21
808.96759589355815
  0
LINE
  8
_0-2______1
  6
CONTINUOUS
 62
    1
 10
888.71179814264315
 20
808.96759589355815
 11
889.36283850706332
 21
808.96759589355815
  0
LINE
  8
_0-2______1
  6
CONTINUOUS
 62
    1
 10
889.36283850706332
 20
808.96759589355815
 11
890.01387887148303
 21
808.96759589355815
  0
LINE
  8
_0-2______1
  6
CONTINUOUS
 62
    1
 10
890.01387887148303
 20
808.96759589355815
 11
890.01387887148303
 21
809.61863625797787
  0
LINE
  8
_0-2______1
  6
CONTINUOUS
 62
    1
 10
890.01387887148303
 20
809.61863625797787
 11
890.64391793382629
 21
809.61863625797787
  0
LINE
  8
_0-2______1
  6
CONTINUOUS
 62
    1
 10
890.64391793382629
 20
809.61863625797787
 11
891.294958298246
 21
809.61863625797787
  0
LINE
  8
_0-2______1
  6
CONTINUOUS
 62
    1
 10
891.294958298246
 20
809.61863625797787
 11
891.94599866266708
 21
809.61863625797787
  0
LINE
  8
_0-2______1
  6
CONTINUOUS
 62
    1
 10
891.94599866266708
 20
809.61863625797787
 11
892.59703902708816
 21
809.61863625797787
  0
LINE
  8
_0-2______1
  6
CONTINUOUS
 62
    1
 10
892.59703902708816
 20
809.61863625797787
 11
892.59703902708816
 21
810.24605015756197
  0
LINE
  8
_0-2______1
  6
CONTINUOUS
 62
    1
 10
892.59703902708816
 20
810.24605015756197
 11
893.22707808943005
 21
810.24605015756197
  0
LINE
  8
_0-2______1
  6
CONTINUOUS
 62
    1
 10
893.22707808943005
 20
810.24605015756197
 11
893.87811845385113
 21
810.24605015756197
  0
LINE
  8
_0-2______1
  6
CONTINUOUS
 62
    1
 10
893.87811845385113
 20
810.24605015756197
 11
894.52915881827221
 21
810.24605015756197
  0
LINE
  8
_0-2______1
  6
CONTINUOUS
 62
    1
 10
894.52915881827221
 20
810.24605015756197
 11
895.81023824503427
 21
810.24605015756197
  0
LINE
  8
_0-2______1
  6
CONTINUOUS
 62
    1
 10
895.81023824503427
 20
810.24605015756197
 11
896.46127860945489
 21
810.24605015756197
  0
LINE
  8
_0-2______1
  6
CONTINUOUS
 62
    1
 10
896.46127860945489
 20
810.24605015756197
 11
897.11231897387506
 21
810.24605015756197
  0
LINE
  8
_0-2______1
  6
CONTINUOUS
 62
    1
 10
897.11231897387506
 20
810.24605015756197
 11
897.74235803621832
 21
810.24605015756197
  0
LINE
  8
_0-2______1
  6
CONTINUOUS
 62
    1
 10
897.74235803621832
 20
810.24605015756197
 11
898.39339840063803
 21
810.24605015756197
  0
LINE
  8
_0-2______1
  6
CONTINUOUS
 62
    1
 10
898.39339840063803
 20
810.24605015756197
 11
898.39339840063803
 21
809.61863625797787
  0
LINE
  8
_0-2______1
  6
CONTINUOUS
 62
    1
 10
898.39339840063803
 20
809.61863625797787
 11
899.04443876505911
 21
809.61863625797787
  0
LINE
  8
_0-2______1
  6
CONTINUOUS
 62
    1
 10
899.04443876505911
 20
809.61863625797787
 11
899.69547912948019
 21
809.61863625797787
  0
LINE
  8
_0-2______1
  6
CONTINUOUS
 62
    1
 10
899.69547912948019
 20
809.61863625797787
 11
900.32551819182208
 21
809.61863625797787
  0
LINE
  8
_0-2______1
  6
CONTINUOUS
 62
    1
 10
892.59703902708816
 20
795.4191308904351
 11
893.22707808943005
 21
795.4191308904351
  0
LINE
  8
_0-2______1
  6
CONTINUOUS
 62
    1
 10
893.22707808943005
 20
795.4191308904351
 11
893.87811845385113
 21
795.4191308904351
  0
LINE
  8
_0-2______1
  6
CONTINUOUS
 62
    1
 10
893.87811845385113
 20
795.4191308904351
 11
893.87811845385113
 21
796.07017125485481
  0
LINE
  8
_0-2______1
  6
CONTINUOUS
 62
    1
 10
893.87811845385113
 20
796.07017125485481
 11
894.52915881827221
 21
796.07017125485481
  0
LINE
  8
_0-2______1
  6
CONTINUOUS
 62
    1
 10
884.84755856027505
 20
801.21549026398588
 11
884.84755856027505
 21
799.934410837222
  0
LINE
  8
_0-2______1
  6
CONTINUOUS
 62
    1
 10
884.84755856027505
 20
799.934410837222
 11
884.84755856027505
 21
799.2833704728032
  0
LINE
  8
_0-2______1
  6
CONTINUOUS
 62
    1
 10
884.84755856027505
 20
799.2833704728032
 11
885.49859892469613
 21
799.2833704728032
  0
LINE
  8
_0-2______1
  6
CONTINUOUS
 62
    1
 10
885.49859892469613
 20
799.2833704728032
 11
885.49859892469613
 21
798.65595657322001
  0
LINE
  8
_0-2______1
  6
CONTINUOUS
 62
    1
 10
885.49859892469613
 20
798.65595657322001
 11
886.12863798703802
 21
798.65595657322001
  0
LINE
  8
_0-2______1
  6
CONTINUOUS
 62
    1
 10
886.12863798703802
 20
798.65595657322001
 11
886.12863798703802
 21
797.99966588327879
  0
LINE
  8
_0-2______1
  6
CONTINUOUS
 62
    1
 10
884.84755856027505
 20
801.21549026398588
 11
884.84755856027505
 21
803.16598619448723
  0
LINE
  8
_0-2______1
  6
CONTINUOUS
 62
    1
 10
884.84755856027505
 20
803.16598619448723
 11
885.49859892469613
 21
803.16598619448723
  0
LINE
  8
_0-2______1
  6
CONTINUOUS
 62
    1
 10
885.49859892469613
 20
803.16598619448723
 11
885.49859892469613
 21
803.80127558234881
  0
LINE
  8
_0-2______1
  6
CONTINUOUS
 62
    1
 10
885.49859892469613
 20
803.80127558234881
 11
886.12863798703802
 21
803.80127558234881
  0
LINE
  8
_0-2______1
  6
CONTINUOUS
 62
    1
 10
886.12863798703802
 20
803.80127558234881
 11
886.7796783514591
 21
803.80127558234881
  0
LINE
  8
_0-2______1
  6
CONTINUOUS
 62
    1
 10
886.7796783514591
 20
803.80127558234881
 11
886.7796783514591
 21
805.10073114843181
  0
LINE
  8
_0-2______1
  6
CONTINUOUS
 62
    1
 10
886.7796783514591
 20
805.10073114843181
 11
887.43071871587927
 21
805.10073114843181
  0
LINE
  8
_0-2______1
  6
CONTINUOUS
 62
    1
 10
887.43071871587927
 20
805.10073114843181
 11
888.08175908029989
 21
805.10073114843181
  0
LINE
  8
_0-2______1
  6
CONTINUOUS
 62
    1
 10
888.08175908029989
 20
805.10073114843181
 11
888.71179814264315
 21
805.73077021077415
  0
LINE
  8
_0-2______1
  6
CONTINUOUS
 62
    1
 10
888.71179814264315
 20
805.73077021077415
 11
889.36283850706332
 21
805.73077021077415
  0
LINE
  8
_0-2______1
  6
CONTINUOUS
 62
    1
 10
889.36283850706332
 20
805.73077021077415
 11
890.01387887148303
 21
805.73077021077415
  0
LINE
  8
_0-2______1
  6
CONTINUOUS
 62
    1
 10
890.01387887148303
 20
805.73077021077415
 11
890.64391793382629
 21
805.73077021077415
  0
LINE
  8
_0-2______1
  6
CONTINUOUS
 62
    1
 10
890.64391793382629
 20
805.73077021077415
 11
890.64391793382629
 21
806.38181057519387
  0
LINE
  8
_0-2______1
  6
CONTINUOUS
 62
    1
 10
890.64391793382629
 20
806.38181057519387
 11
891.294958298246
 21
806.38181057519387
  0
LINE
  8
_0-2______1
  6
CONTINUOUS
 62
    1
 10
891.294958298246
 20
806.38181057519387
 11
891.94074833714831
 21
806.38181057519387
  0
LINE
  8
_0-2______1
  6
CONTINUOUS
 62
    1
 10
891.94074833714831
 20
806.38181057519387
 11
892.59703902708816
 21
806.38181057519387
  0
LINE
  8
_0-2______1
  6
CONTINUOUS
 62
    1
 10
892.59703902708816
 20
806.38181057519387
 11
893.22707808943005
 21
807.03285093961586
  0
LINE
  8
_0-2______1
  6
CONTINUOUS
 62
    1
 10
893.22707808943005
 20
807.03285093961586
 11
893.87811845385113
 21
807.03285093961586
  0
LINE
  8
_0-2______1
  6
CONTINUOUS
 62
    1
 10
893.87811845385113
 20
807.03285093961586
 11
894.52915881827221
 21
807.03285093961586
  0
LINE
  8
_0-2______1
  6
CONTINUOUS
 62
    1
 10
894.52915881827221
 20
807.03285093961586
 11
895.1591978806141
 21
807.03285093961586
  0
LINE
  8
_0-2______1
  6
CONTINUOUS
 62
    1
 10
895.1591978806141
 20
807.03285093961586
 11
895.81023824503427
 21
807.03285093961586
  0
LINE
  8
_0-2______1
  6
CONTINUOUS
 62
    1
 10
895.81023824503427
 20
807.03285093961586
 11
896.46127860945489
 21
807.03285093961586
  0
LINE
  8
_0-2______1
  6
CONTINUOUS
 62
    1
 10
896.46127860945489
 20
807.03285093961586
 11
897.11231897387506
 21
807.03285093961586
  0
LINE
  8
_0-2______1
  6
CONTINUOUS
 62
    1
 10
897.11231897387506
 20
807.03285093961586
 11
897.74235803621832
 21
807.03285093961586
  0
LINE
  8
_0-2______1
  6
CONTINUOUS
 62
    1
 10
897.74235803621832
 20
807.03285093961586
 11
898.39339840063803
 21
806.38181057519387
  0
LINE
  8
_0-2______1
  6
CONTINUOUS
 62
    1
 10
898.39339840063803
 20
806.38181057519387
 11
899.69547912948019
 21
806.38181057519387
  0
LINE
  8
_0-2______1
  6
CONTINUOUS
 62
    1
 10
891.94599866266708
 20
798.65595657322001
 11
891.94599866266708
 21
797.99966588327879
  0
LINE
  8
_0-2______1
  6
CONTINUOUS
 62
    1
 10
891.94599866266708
 20
797.99966588327879
 11
892.59703902708816
 21
797.99966588327879
  0
LINE
  8
_0-2______1
  6
CONTINUOUS
 62
    1
 10
892.59703902708816
 20
797.99966588327879
 11
893.22707808943005
 21
797.99966588327879
  0
LINE
  8
_0-2______1
  6
CONTINUOUS
 62
    1
 10
893.22707808943005
 20
797.99966588327879
 11
893.22707808943005
 21
797.34862551885817
  0
LINE
  8
_0-2______1
  6
CONTINUOUS
 62
    1
 10
893.22707808943005
 20
797.34862551885817
 11
893.87811845385113
 21
797.34862551885817
  0
LINE
  8
_0-2______1
  6
CONTINUOUS
 62
    1
 10
893.87811845385113
 20
797.34862551885817
 11
894.52915881827221
 21
797.34862551885817
  0
LINE
  8
_0-2______1
  6
CONTINUOUS
 62
    1
 10
895.1591978806141
 20
796.697585154438
 11
895.81023824503427
 21
797.34862551885817
  0
LINE
  8
_0-2______1
  6
CONTINUOUS
 62
    1
 10
895.81023824503427
 20
797.34862551885817
 11
895.81023824503427
 21
797.99966588327879
  0
LINE
  8
_0-2______1
  6
CONTINUOUS
 62
    1
 10
895.81023824503427
 20
797.99966588327879
 11
896.46127860945489
 21
797.99966588327879
  0
LINE
  8
_0-2______1
  6
CONTINUOUS
 62
    1
 10
896.46127860945489
 20
796.697585154438
 11
896.46127860945489
 21
796.07017125485481
  0
LINE
  8
_0-2______1
  6
CONTINUOUS
 62
    1
 10
896.46127860945489
 20
796.07017125485481
 11
897.11231897387506
 21
796.07017125485481
  0
LINE
  8
_0-2______1
  6
CONTINUOUS
 62
    1
 10
897.11231897387506
 20
796.07017125485481
 11
897.74235803621832
 21
796.07017125485481
  0
LINE
  8
_0-2______1
  6
CONTINUOUS
 62
    1
 10
897.74235803621832
 20
796.07017125485481
 11
898.39339840063803
 21
796.07017125485481
  0
LINE
  8
_0-2______1
  6
CONTINUOUS
 62
    1
 10
898.39339840063803
 20
796.07017125485481
 11
899.04443876505911
 21
796.07017125485481
  0
LINE
  8
_0-2______1
  6
CONTINUOUS
 62
    1
 10
899.04443876505911
 20
796.07017125485481
 11
899.69547912948019
 21
796.07017125485481
  0
LINE
  8
_0-2______1
  6
CONTINUOUS
 62
    1
 10
894.52915881827221
 20
796.07017125485481
 11
893.87811845385113
 21
796.697585154438
  0
LINE
  8
_0-2______1
  6
CONTINUOUS
 62
    1
 10
893.87811845385113
 20
796.697585154438
 11
893.22707808943005
 21
796.697585154438
  0
LINE
  8
_0-2______1
  6
CONTINUOUS
 62
    1
 10
893.22707808943005
 20
796.697585154438
 11
893.22707808943005
 21
797.34862551885817
  0
LINE
  8
_0-2______1
  6
CONTINUOUS
 62
    1
 10
893.22707808943005
 20
797.34862551885817
 11
892.59703902708816
 21
797.34862551885817
  0
LINE
  8
_0-2______1
  6
CONTINUOUS
 62
    1
 10
892.59703902708816
 20
797.34862551885817
 11
891.94599866266708
 21
797.34862551885817
  0
LINE
  8
_0-2______1
  6
CONTINUOUS
 62
    1
 10
891.94599866266708
 20
797.34862551885817
 11
891.94599866266708
 21
797.99966588327879
  0
LINE
  8
_0-2______1
  6
CONTINUOUS
 62
    1
 10
891.94599866266708
 20
797.99966588327879
 11
891.294958298246
 21
797.99966588327879
  0
LINE
  8
_0-2______1
  6
CONTINUOUS
 62
    1
 10
891.294958298246
 20
797.99966588327879
 11
890.64391793382629
 21
797.99966588327879
  0
LINE
  8
_0-2______1
  6
CONTINUOUS
 62
    1
 10
900.32551819182208
 20
807.03285093961586
 11
900.97655855624316
 21
807.03285093961586
  0
LINE
  8
_0-2______1
  6
CONTINUOUS
 62
    1
 10
900.97655855624316
 20
807.03285093961586
 11
901.62759892066333
 21
807.03285093961586
  0
LINE
  8
_0-2______1
  6
CONTINUOUS
 62
    1
 10
901.62759892066333
 20
807.03285093961586
 11
902.25763798300613
 21
807.03285093961586
  0
LINE
  8
_0-2______1
  6
CONTINUOUS
 62
    1
 10
902.25763798300613
 20
807.03285093961586
 11
902.25763798300613
 21
806.38181057519387
  0
LINE
  8
_0-2______1
  6
CONTINUOUS
 62
    1
 10
902.25763798300613
 20
806.38181057519387
 11
902.90867834742721
 21
806.38181057519387
  0
LINE
  8
_0-2______1
  6
CONTINUOUS
 62
    1
 10
902.90867834742721
 20
806.38181057519387
 11
902.90867834742721
 21
805.73077021077415
  0
LINE
  8
_0-2______1
  6
CONTINUOUS
 62
    1
 10
902.90867834742721
 20
805.73077021077415
 11
903.55971871184602
 21
805.73077021077415
  0
LINE
  8
_0-2______1
  6
CONTINUOUS
 62
    1
 10
903.55971871184602
 20
805.73077021077415
 11
904.2107590762671
 21
805.73077021077415
  0
LINE
  8
_0-2______1
  6
CONTINUOUS
 62
    1
 10
904.2107590762671
 20
805.73077021077415
 11
904.2107590762671
 21
804.44969078400982
  0
LINE
  8
_0-2______1
  6
CONTINUOUS
 62
    1
 10
904.2107590762671
 20
804.44969078400982
 11
904.8407981386099
 21
804.44969078400982
  0
LINE
  8
_0-2______1
  6
CONTINUOUS
 62
    1
 10
904.8407981386099
 20
804.44969078400982
 11
904.8407981386099
 21
803.80127558234881
  0
LINE
  8
_0-2______1
  6
CONTINUOUS
 62
    1
 10
895.81023824503427
 20
796.07017125485481
 11
895.1591978806141
 21
795.4191308904351
  0
LINE
  8
_0-2______1
  6
CONTINUOUS
 62
    1
 10
895.1591978806141
 20
795.4191308904351
 11
894.52915881827221
 21
795.4191308904351
  0
LINE
  8
_0-2______1
  6
CONTINUOUS
 62
    1
 10
894.52915881827221
 20
795.4191308904351
 11
893.87811845385113
 21
795.4191308904351
  0
LINE
  8
_0-2______1
  6
CONTINUOUS
 62
    1
 10
893.87811845385113
 20
795.4191308904351
 11
893.87811845385113
 21
794.76809052601493
  0
LINE
  8
_0-2______1
  6
CONTINUOUS
 62
    1
 10
899.04443876505911
 20
795.4191308904351
 11
898.39339840063803
 21
795.4191308904351
  0
LINE
  8
_0-2______1
  6
CONTINUOUS
 62
    1
 10
898.39339840063803
 20
795.4191308904351
 11
897.74235803621832
 21
795.4191308904351
  0
LINE
  8
_0-2______1
  6
CONTINUOUS
 62
    1
 10
897.74235803621832
 20
795.4191308904351
 11
897.11231897387506
 21
796.07017125485481
  0
LINE
  8
_0-2______1
  6
CONTINUOUS
 62
    1
 10
897.11231897387506
 20
796.07017125485481
 11
896.46127860945489
 21
796.07017125485481
  0
LINE
  8
_0-2______1
  6
CONTINUOUS
 62
    1
 10
896.46127860945489
 20
796.07017125485481
 11
895.81023824503427
 21
796.07017125485481
  0
LINE
  8
_0-2______1
  6
CONTINUOUS
 62
    1
 10
905.49183850303007
 20
803.80127558234881
 11
904.8407981386099
 21
803.80127558234881
  0
LINE
  8
_0-2______1
  6
CONTINUOUS
 62
    1
 10
904.8407981386099
 20
803.80127558234881
 11
904.8407981386099
 21
805.10073114843181
  0
LINE
  8
_0-2______1
  6
CONTINUOUS
 62
    1
 10
904.8407981386099
 20
805.10073114843181
 11
904.2107590762671
 21
805.10073114843181
  0
LINE
  8
_0-2______1
  6
CONTINUOUS
 62
    1
 10
904.2107590762671
 20
805.10073114843181
 11
904.2107590762671
 21
805.73077021077415
  0
LINE
  8
_0-2______1
  6
CONTINUOUS
 62
    1
 10
904.2107590762671
 20
805.73077021077415
 11
903.55971871184602
 21
805.73077021077415
  0
LINE
  8
_0-2______1
  6
CONTINUOUS
 62
    1
 10
903.55971871184602
 20
805.73077021077415
 11
903.55971871184602
 21
806.38181057519387
  0
LINE
  8
_0-2______1
  6
CONTINUOUS
 62
    1
 10
903.55971871184602
 20
806.38181057519387
 11
902.90867834742721
 21
806.38181057519387
  0
LINE
  8
_0-2______1
  6
CONTINUOUS
 62
    1
 10
902.90867834742721
 20
806.38181057519387
 11
902.25763798300613
 21
807.03285093961586
  0
LINE
  8
_0-2______1
  6
CONTINUOUS
 62
    1
 10
902.25763798300613
 20
807.03285093961586
 11
901.62759892066333
 21
807.03285093961586
  0
LINE
  8
_0-2______1
  6
CONTINUOUS
 62
    1
 10
901.62759892066333
 20
807.03285093961586
 11
900.97655855624316
 21
807.03285093961586
  0
LINE
  8
_0-2______1
  6
CONTINUOUS
 62
    1
 10
900.97655855624316
 20
807.03285093961586
 11
900.97655855624316
 21
807.68389130403602
  0
LINE
  8
_0-2______1
  6
CONTINUOUS
 62
    1
 10
900.97655855624316
 20
807.68389130403602
 11
900.32551819182208
 21
807.68389130403602
  0
LINE
  8
_0-2______1
  6
CONTINUOUS
 62
    1
 10
886.12863798703802
 20
803.16598619448723
 11
885.49859892469613
 21
803.16598619448723
  0
LINE
  8
_0-2______1
  6
CONTINUOUS
 62
    1
 10
885.49859892469613
 20
803.16598619448723
 11
885.49859892469613
 21
802.51494583006797
  0
LINE
  8
_0-2______1
  6
CONTINUOUS
 62
    1
 10
885.49859892469613
 20
802.51494583006797
 11
884.84755856027505
 21
802.51494583006797
  0
LINE
  8
_0-2______1
  6
CONTINUOUS
 62
    1
 10
884.84755856027505
 20
802.51494583006797
 11
884.84755856027505
 21
801.21549026398588
  0
LINE
  8
_0-2______1
  6
CONTINUOUS
 62
    1
 10
897.74235803621832
 20
807.68389130403602
 11
897.11231897387506
 21
807.68389130403602
  0
LINE
  8
_0-2______1
  6
CONTINUOUS
 62
    1
 10
897.11231897387506
 20
807.68389130403602
 11
896.46127860945489
 21
807.68389130403602
  0
LINE
  8
_0-2______1
  6
CONTINUOUS
 62
    1
 10
896.46127860945489
 20
807.68389130403602
 11
896.46127860945489
 21
808.31130520361921
  0
LINE
  8
_0-2______1
  6
CONTINUOUS
 62
    1
 10
896.46127860945489
 20
808.31130520361921
 11
895.81023824503427
 21
808.31130520361921
  0
LINE
  8
_0-2______1
  6
CONTINUOUS
 62
    1
 10
895.81023824503427
 20
808.31130520361921
 11
895.1591978806141
 21
808.31130520361921
  0
LINE
  8
_0-2______1
  6
CONTINUOUS
 62
    1
 10
895.1591978806141
 20
808.31130520361921
 11
894.52915881827221
 21
808.31130520361921
  0
LINE
  8
_0-2______1
  6
CONTINUOUS
 62
    1
 10
894.52915881827221
 20
808.31130520361921
 11
894.52915881827221
 21
807.68389130403602
  0
LINE
  8
_0-2______1
  6
CONTINUOUS
 62
    1
 10
894.52915881827221
 20
807.68389130403602
 11
893.87811845385113
 21
807.68389130403602
  0
LINE
  8
_0-2______1
  6
CONTINUOUS
 62
    1
 10
893.87811845385113
 20
807.68389130403602
 11
893.22707808943005
 21
807.68389130403602
  0
LINE
  8
_0-2______1
  6
CONTINUOUS
 62
    1
 10
893.22707808943005
 20
807.68389130403602
 11
892.59703902708816
 21
807.68389130403602
  0
LINE
  8
_0-2______1
  6
CONTINUOUS
 62
    1
 10
892.59703902708816
 20
807.68389130403602
 11
891.94599866266708
 21
807.68389130403602
  0
LINE
  8
_0-2______1
  6
CONTINUOUS
 62
    1
 10
891.94599866266708
 20
807.68389130403602
 11
891.294958298246
 21
807.68389130403602
  0
LINE
  8
_0-2______1
  6
CONTINUOUS
 62
    1
 10
891.294958298246
 20
807.68389130403602
 11
890.64391793382629
 21
807.68389130403602
  0
LINE
  8
_0-2______1
  6
CONTINUOUS
 62
    1
 10
890.64391793382629
 20
807.68389130403602
 11
890.01387887148303
 21
807.68389130403602
  0
LINE
  8
_0-2______1
  6
CONTINUOUS
 62
    1
 10
890.01387887148303
 20
807.68389130403602
 11
890.01387887148303
 21
807.03285093961586
  0
LINE
  8
_0-2______1
  6
CONTINUOUS
 62
    1
 10
890.01387887148303
 20
807.03285093961586
 11
889.36283850706332
 21
807.03285093961586
  0
LINE
  8
_0-2______1
  6
CONTINUOUS
 62
    1
 10
889.36283850706332
 20
807.03285093961586
 11
888.71179814264315
 21
807.03285093961586
  0
LINE
  8
_0-2______1
  6
CONTINUOUS
 62
    1
 10
888.71179814264315
 20
807.03285093961586
 11
888.08175908029989
 21
806.38181057519387
  0
LINE
  8
_0-2______1
  6
CONTINUOUS
 62
    1
 10
888.08175908029989
 20
806.38181057519387
 11
888.08175908029989
 21
805.73077021077415
  0
LINE
  8
_0-2______1
  6
CONTINUOUS
 62
    1
 10
888.08175908029989
 20
805.73077021077415
 11
887.43071871587927
 21
805.73077021077415
  0
LINE
  8
_0-2______1
  6
CONTINUOUS
 62
    1
 10
887.43071871587927
 20
805.73077021077415
 11
886.7796783514591
 21
805.73077021077415
  0
LINE
  8
_0-2______1
  6
CONTINUOUS
 62
    1
 10
886.7796783514591
 20
805.73077021077415
 11
886.7796783514591
 21
805.10073114843181
  0
LINE
  8
_0-2______1
  6
CONTINUOUS
 62
    1
 10
886.7796783514591
 20
805.10073114843181
 11
886.12863798703802
 21
805.10073114843181
  0
LINE
  8
_0-2______1
  6
CONTINUOUS
 62
    1
 10
886.12863798703802
 20
805.10073114843181
 11
886.12863798703802
 21
803.80127558234881
  0
LINE
  8
_0-2______1
  6
CONTINUOUS
 62
    1
 10
886.12863798703802
 20
803.80127558234881
 11
886.12863798703802
 21
804.4523159467708
  0
LINE
  8
_0-2______1
  6
CONTINUOUS
 62
    1
 10
886.12863798703802
 20
804.4523159467708
 11
886.7796783514591
 21
804.4523159467708
  0
LINE
  8
_0-2______1
  6
CONTINUOUS
 62
    1
 10
886.7796783514591
 20
804.4523159467708
 11
886.7796783514591
 21
805.73077021077415
  0
LINE
  8
_0-2______1
  6
CONTINUOUS
 62
    1
 10
886.7796783514591
 20
805.73077021077415
 11
887.43071871587927
 21
805.73077021077415
  0
LINE
  8
_0-2______1
  6
CONTINUOUS
 62
    1
 10
887.43071871587927
 20
805.73077021077415
 11
888.08175908029989
 21
805.73077021077415
  0
LINE
  8
_0-2______1
  6
CONTINUOUS
 62
    1
 10
888.08175908029989
 20
805.73077021077415
 11
888.08175908029989
 21
806.38181057519387
  0
LINE
  8
_0-2______1
  6
CONTINUOUS
 62
    1
 10
888.08175908029989
 20
806.38181057519387
 11
888.71179814264315
 21
806.38181057519387
  0
LINE
  8
_0-2______1
  6
CONTINUOUS
 62
    1
 10
888.71179814264315
 20
806.38181057519387
 11
888.71179814264315
 21
807.03285093961586
  0
LINE
  8
_0-2______1
  6
CONTINUOUS
 62
    1
 10
888.71179814264315
 20
807.03285093961586
 11
889.36283850706332
 21
807.03285093961586
  0
LINE
  8
_0-2______1
  6
CONTINUOUS
 62
    1
 10
889.36283850706332
 20
807.03285093961586
 11
890.01387887148303
 21
807.03285093961586
  0
LINE
  8
_0-2______1
  6
CONTINUOUS
 62
    1
 10
890.01387887148303
 20
807.03285093961586
 11
890.64391793382629
 21
807.03285093961586
  0
LINE
  8
_0-2______1
  6
CONTINUOUS
 62
    1
 10
890.64391793382629
 20
807.03285093961586
 11
890.64391793382629
 21
807.68389130403602
  0
LINE
  8
_0-2______1
  6
CONTINUOUS
 62
    1
 10
890.64391793382629
 20
807.68389130403602
 11
891.294958298246
 21
807.68389130403602
  0
LINE
  8
_0-2______1
  6
CONTINUOUS
 62
    1
 10
891.294958298246
 20
807.68389130403602
 11
891.94599866266708
 21
807.68389130403602
  0
LINE
  8
_0-2______1
  6
CONTINUOUS
 62
    1
 10
891.94599866266708
 20
807.68389130403602
 11
892.59703902708816
 21
807.68389130403602
  0
LINE
  8
_0-2______1
  6
CONTINUOUS
 62
    1
 10
892.59703902708816
 20
807.68389130403602
 11
893.22707808943005
 21
807.68389130403602
  0
LINE
  8
_0-2______1
  6
CONTINUOUS
 62
    1
 10
893.22707808943005
 20
807.68389130403602
 11
893.87811845385113
 21
807.68389130403602
  0
LINE
  8
_0-2______1
  6
CONTINUOUS
 62
    1
 10
893.87811845385113
 20
807.68389130403602
 11
894.52915881827221
 21
807.68389130403602
  0
LINE
  8
_0-2______1
  6
CONTINUOUS
 62
    1
 10
894.52915881827221
 20
807.68389130403602
 11
895.81023824503427
 21
807.68389130403602
  0
LINE
  8
_0-2______1
  6
CONTINUOUS
 62
    1
 10
895.81023824503427
 20
807.68389130403602
 11
896.46127860945489
 21
807.68389130403602
  0
LINE
  8
_0-2______1
  6
CONTINUOUS
 62
    1
 10
896.46127860945489
 20
807.68389130403602
 11
897.74235803621832
 21
807.68389130403602
  0
LINE
  8
_0-2______1
  6
CONTINUOUS
 62
    1
 10
897.74235803621832
 20
807.68389130403602
 11
898.39339840063803
 21
807.68389130403602
  0
LINE
  8
_0-2______1
  6
CONTINUOUS
 62
    1
 10
898.39339840063803
 20
799.2833704728032
 11
898.39339840063803
 21
798.65595657322001
  0
LINE
  8
_0-2______1
  6
CONTINUOUS
 62
    1
 10
898.39339840063803
 20
798.65595657322001
 11
897.74235803621832
 21
797.99966588327879
  0
LINE
  8
_0-2______1
  6
CONTINUOUS
 62
    1
 10
897.74235803621832
 20
797.99966588327879
 11
897.74235803621832
 21
797.34862551885817
  0
LINE
  8
_0-2______1
  6
CONTINUOUS
 62
    1
 10
897.74235803621832
 20
797.34862551885817
 11
897.11231897387506
 21
797.34862551885817
  0
LINE
  8
_0-2______1
  6
CONTINUOUS
 62
    1
 10
897.11231897387506
 20
797.34862551885817
 11
896.46127860945489
 21
797.34862551885817
  0
LINE
  8
_0-2______1
  6
CONTINUOUS
 62
    1
 10
896.46127860945489
 20
797.34862551885817
 11
896.46127860945489
 21
796.697585154438
  0
LINE
  8
_0-2______1
  6
CONTINUOUS
 62
    1
 10
906.14287886745115
 20
801.86653062840696
 11
906.14287886745115
 21
802.51494583006797
  0
LINE
  8
_0-2______1
  6
CONTINUOUS
 62
    1
 10
906.14287886745115
 20
802.51494583006797
 11
905.49183850303007
 21
802.51494583006797
  0
LINE
  8
_0-2______1
  6
CONTINUOUS
 62
    1
 10
905.49183850303007
 20
802.51494583006797
 11
905.49183850303007
 21
803.16598619448723
  0
LINE
  8
_0-2______1
  6
CONTINUOUS
 62
    1
 10
905.49183850303007
 20
803.16598619448723
 11
904.8407981386099
 21
803.16598619448723
  0
LINE
  8
_0-2______1
  6
CONTINUOUS
 62
    1
 10
904.8407981386099
 20
803.80127558234881
 11
904.2107590762671
 21
803.80127558234881
  0
LINE
  8
_0-2______1
  6
CONTINUOUS
 62
    1
 10
904.2107590762671
 20
803.80127558234881
 11
903.55971871184602
 21
803.80127558234881
  0
LINE
  8
_0-2______1
  6
CONTINUOUS
 62
    1
 10
903.55971871184602
 20
803.80127558234881
 11
903.55971871184602
 21
804.4523159467708
  0
LINE
  8
_0-2______1
  6
CONTINUOUS
 62
    1
 10
903.55971871184602
 20
804.4523159467708
 11
902.90867834742721
 21
804.4523159467708
  0
LINE
  8
_0-2______1
  6
CONTINUOUS
 62
    1
 10
902.90867834742721
 20
804.4523159467708
 11
902.90867834742721
 21
805.10073114843181
  0
LINE
  8
_0-2______1
  6
CONTINUOUS
 62
    1
 10
902.90867834742721
 20
805.10073114843181
 11
902.25763798300613
 21
805.10073114843181
  0
LINE
  8
_0-2______1
  6
CONTINUOUS
 62
    1
 10
899.69547912948019
 20
805.73077021077415
 11
898.39339840063803
 21
805.73077021077415
  0
LINE
  8
_0-2______1
  6
CONTINUOUS
 62
    1
 10
898.39339840063803
 20
805.73077021077415
 11
897.74235803621832
 21
805.73077021077415
  0
LINE
  8
_0-2______1
  6
CONTINUOUS
 62
    1
 10
897.74235803621832
 20
805.73077021077415
 11
896.46127860945489
 21
805.73077021077415
  0
LINE
  8
_0-2______1
  6
CONTINUOUS
 62
    1
 10
896.46127860945489
 20
805.73077021077415
 11
895.81023824503427
 21
805.73077021077415
  0
LINE
  8
_0-2______1
  6
CONTINUOUS
 62
    1
 10
895.81023824503427
 20
805.73077021077415
 11
894.52915881827221
 21
805.73077021077415
  0
LINE
  8
_0-2______1
  6
CONTINUOUS
 62
    1
 10
894.52915881827221
 20
805.73077021077415
 11
893.87811845385113
 21
805.73077021077415
  0
LINE
  8
_0-2______1
  6
CONTINUOUS
 62
    1
 10
893.87811845385113
 20
805.73077021077415
 11
892.59703902708816
 21
805.73077021077415
  0
LINE
  8
_0-2______1
  6
CONTINUOUS
 62
    1
 10
892.59703902708816
 20
805.73077021077415
 11
891.94599866266708
 21
805.73077021077415
  0
LINE
  8
_0-2______1
  6
CONTINUOUS
 62
    1
 10
891.94599866266708
 20
805.73077021077415
 11
890.64391793382629
 21
805.73077021077415
  0
LINE
  8
_0-2______1
  6
CONTINUOUS
 62
    1
 10
890.64391793382629
 20
805.73077021077415
 11
890.01387887148303
 21
805.73077021077415
  0
LINE
  8
_0-2______1
  6
CONTINUOUS
 62
    1
 10
890.01387887148303
 20
805.73077021077415
 11
890.01387887148303
 21
805.10073114843181
  0
LINE
  8
_0-2______1
  6
CONTINUOUS
 62
    1
 10
890.01387887148303
 20
805.10073114843181
 11
889.36283850706332
 21
805.10073114843181
  0
LINE
  8
_0-2______1
  6
CONTINUOUS
 62
    1
 10
889.36283850706332
 20
805.10073114843181
 11
888.71179814264315
 21
805.10073114843181
  0
LINE
  8
_0-2______1
  6
CONTINUOUS
 62
    1
 10
888.71179814264315
 20
805.10073114843181
 11
888.08175908029989
 21
805.10073114843181
  0
LINE
  8
_0-2______1
  6
CONTINUOUS
 62
    1
 10
888.08175908029989
 20
805.10073114843181
 11
888.08175908029989
 21
804.4523159467708
  0
LINE
  8
_0-2______1
  6
CONTINUOUS
 62
    1
 10
888.08175908029989
 20
804.4523159467708
 11
887.43071871587927
 21
804.4523159467708
  0
LINE
  8
_0-2______1
  6
CONTINUOUS
 62
    1
 10
887.43071871587927
 20
804.4523159467708
 11
886.7796783514591
 21
803.80127558234881
  0
LINE
  8
_0-2______1
  6
CONTINUOUS
 62
    1
 10
886.7796783514591
 20
803.80127558234881
 11
886.12863798703802
 21
803.80127558234881
  0
LINE
  8
_0-2______1
  6
CONTINUOUS
 62
    1
 10
1020.3269582659891
 20
897.98949023979321
 11
1020.3269582659891
 21
898.64053060421202
  0
LINE
  8
_0-2______1
  6
CONTINUOUS
 62
    1
 10
1020.3269582659891
 20
898.64053060421202
 11
1020.9779986304093
 21
898.64053060421202
  0
LINE
  8
_0-2______1
  6
CONTINUOUS
 62
    1
 10
1020.9779986304093
 20
898.64053060421202
 11
1021.6290389948299
 21
898.64053060421202
  0
LINE
  8
_0-2______1
  6
CONTINUOUS
 62
    1
 10
1021.6290389948299
 20
898.64053060421202
 11
1021.6290389948299
 21
900.57527555815614
  0
LINE
  8
_0-2______1
  6
CONTINUOUS
 62
    1
 10
1020.3269582659891
 20
897.98949023979321
 11
1019.675917901568
 21
897.35945117745086
  0
LINE
  8
_0-2______1
  6
CONTINUOUS
 62
    1
 10
1019.675917901568
 20
897.35945117745086
 11
1019.0458788392252
 21
897.35945117745086
  0
LINE
  8
_0-2______1
  6
CONTINUOUS
 62
    1
 10
1019.0458788392252
 20
897.35945117745086
 11
1019.0458788392252
 21
896.70841081302797
  0
LINE
  8
_0-2______1
  6
CONTINUOUS
 62
    1
 10
1019.0458788392252
 20
896.70841081302797
 11
1018.3948384748051
 21
896.70841081302797
  0
LINE
  8
_0-2______1
  6
CONTINUOUS
 62
    1
 10
1018.3948384748051
 20
896.70841081302797
 11
1017.743798110384
 21
896.05737044860916
  0
LINE
  8
_0-2______1
  6
CONTINUOUS
 62
    1
 10
1017.743798110384
 20
896.05737044860916
 11
1017.1137590480421
 21
895.42995654902597
  0
LINE
  8
_0-2______1
  6
CONTINUOUS
 62
    1
 10
1017.1137590480421
 20
895.42995654902597
 11
1016.462718683621
 21
895.42995654902597
  0
LINE
  8
_0-2______1
  6
CONTINUOUS
 62
    1
 10
1016.462718683621
 20
895.42995654902597
 11
1015.8116783192013
 21
895.42995654902597
  0
LINE
  8
_0-2______1
  6
CONTINUOUS
 62
    1
 10
1015.8116783192013
 20
895.42995654902597
 11
1015.1606379547802
 21
894.77366585908612
  0
LINE
  8
_0-2______1
  6
CONTINUOUS
 62
    1
 10
1015.1606379547802
 20
894.77366585908612
 11
1014.530598892437
 21
894.77366585908612
  0
LINE
  8
_0-2______1
  6
CONTINUOUS
 62
    1
 10
1014.530598892437
 20
894.77366585908612
 11
1013.8795585280172
 21
894.77366585908612
  0
LINE
  8
_0-2______1
  6
CONTINUOUS
 62
    1
 10
1013.8795585280172
 20
894.77366585908612
 11
1012.5984791012543
 21
894.77366585908612
  0
LINE
  8
_0-2______1
  6
CONTINUOUS
 62
    1
 10
1012.5984791012543
 20
894.77366585908612
 11
1011.9474387368341
 21
894.77366585908612
  0
LINE
  8
_0-2______1
  6
CONTINUOUS
 62
    1
 10
1011.9474387368341
 20
894.77366585908612
 11
1011.296398372413
 21
894.77366585908612
  0
LINE
  8
_0-2______1
  6
CONTINUOUS
 62
    1
 10
1011.296398372413
 20
894.77366585908612
 11
1010.6453580079919
 21
894.77366585908612
  0
LINE
  8
_0-2______1
  6
CONTINUOUS
 62
    1
 10
1010.6453580079919
 20
894.77366585908612
 11
1010.0153189456501
 21
894.77366585908612
  0
LINE
  8
_0-2______1
  6
CONTINUOUS
 62
    1
 10
1010.0153189456501
 20
894.77366585908612
 11
1009.364278581229
 21
894.77366585908612
  0
LINE
  8
_0-2______1
  6
CONTINUOUS
 62
    1
 10
1009.364278581229
 20
894.77366585908612
 11
1008.7132382168079
 21
894.77366585908612
  0
LINE
  8
_0-2______1
  6
CONTINUOUS
 62
    1
 10
1008.7132382168079
 20
894.77366585908612
 11
1008.0621978523882
 21
894.77366585908612
  0
LINE
  8
_0-2______1
  6
CONTINUOUS
 62
    1
 10
1008.0621978523882
 20
894.77366585908612
 11
1006.7811184256252
 21
894.77366585908612
  0
LINE
  8
_0-2______1
  6
CONTINUOUS
 62
    1
 10
1006.7811184256252
 20
894.77366585908612
 11
1006.130078061205
 21
895.42995654902597
  0
LINE
  8
_0-2______1
  6
CONTINUOUS
 62
    1
 10
1006.130078061205
 20
895.42995654902597
 11
1004.8489986344412
 21
895.42995654902597
  0
LINE
  8
_0-2______1
  6
CONTINUOUS
 62
    1
 10
1004.8489986344412
 20
895.42995654902597
 11
1004.1979582700201
 21
896.05737044860916
  0
LINE
  8
_0-2______1
  6
CONTINUOUS
 62
    1
 10
1004.1979582700201
 20
896.05737044860916
 11
1004.1979582700201
 21
896.70841081302797
  0
LINE
  8
_0-2______1
  6
CONTINUOUS
 62
    1
 10
1004.1979582700201
 20
896.70841081302797
 11
1003.5469179055999
 21
896.70841081302797
  0
LINE
  8
_0-2______1
  6
CONTINUOUS
 62
    1
 10
1003.5469179055999
 20
896.70841081302797
 11
1002.916878843258
 21
896.70841081302797
  0
LINE
  8
_0-2______1
  6
CONTINUOUS
 62
    1
 10
1002.916878843258
 20
896.70841081302797
 11
1002.916878843258
 21
897.35945117745086
  0
LINE
  8
_0-2______1
  6
CONTINUOUS
 62
    1
 10
1002.916878843258
 20
897.35945117745086
 11
1002.2658384788369
 21
897.35945117745086
  0
LINE
  8
_0-2______1
  6
CONTINUOUS
 62
    1
 10
1002.2658384788369
 20
897.35945117745086
 11
1001.6147981144172
 21
897.98949023979321
  0
LINE
  8
_0-2______1
  6
CONTINUOUS
 62
    1
 10
1017.743798110384
 20
905.08530517942381
 11
1018.3948384748051
 21
905.08530517942381
  0
LINE
  8
_0-2______1
  6
CONTINUOUS
 62
    1
 10
1018.3948384748051
 20
905.08530517942381
 11
1019.0458788392252
 21
905.08530517942381
  0
LINE
  8
_0-2______1
  6
CONTINUOUS
 62
    1
 10
1019.0458788392252
 20
905.08530517942381
 11
1019.0458788392252
 21
904.45789127984199
  0
LINE
  8
_0-2______1
  6
CONTINUOUS
 62
    1
 10
1019.0458788392252
 20
904.45789127984199
 11
1019.675917901568
 21
904.45789127984199
  0
LINE
  8
_0-2______1
  6
CONTINUOUS
 62
    1
 10
1019.675917901568
 20
904.45789127984199
 11
1020.3269582659891
 21
904.45789127984199
  0
LINE
  8
_0-2______1
  6
CONTINUOUS
 62
    1
 10
1020.3269582659891
 20
904.45789127984199
 11
1020.3269582659891
 21
903.15581055099983
  0
LINE
  8
_0-2______1
  6
CONTINUOUS
 62
    1
 10
1020.9779986304093
 20
903.15581055099983
 11
1021.6290389948299
 21
903.15581055099983
  0
LINE
  8
_0-2______1
  6
CONTINUOUS
 62
    1
 10
1021.6290389948299
 20
903.15581055099983
 11
1021.6290389948299
 21
901.87473112423822
  0
LINE
  8
_0-2______1
  6
CONTINUOUS
 62
    1
 10
1015.8116783192013
 20
909.60058512621299
 11
1015.8116783192013
 21
908.97317122662889
  0
LINE
  8
_0-2______1
  6
CONTINUOUS
 62
    1
 10
1015.8116783192013
 20
908.97317122662889
 11
1016.462718683621
 21
908.97317122662889
  0
LINE
  8
_0-2______1
  6
CONTINUOUS
 62
    1
 10
1016.462718683621
 20
908.97317122662889
 11
1017.743798110384
 21
908.97317122662889
  0
LINE
  8
_0-2______1
  6
CONTINUOUS
 62
    1
 10
1017.743798110384
 20
908.97317122662889
 11
1017.743798110384
 21
908.32213086221009
  0
LINE
  8
_0-2______1
  6
CONTINUOUS
 62
    1
 10
1017.743798110384
 20
908.32213086221009
 11
1018.3948384748051
 21
908.32213086221009
  0
LINE
  8
_0-2______1
  6
CONTINUOUS
 62
    1
 10
1018.3948384748051
 20
908.32213086221009
 11
1019.0458788392252
 21
908.32213086221009
  0
LINE
  8
_0-2______1
  6
CONTINUOUS
 62
    1
 10
1019.0458788392252
 20
908.32213086221009
 11
1019.0458788392252
 21
907.6710904977881
  0
LINE
  8
_0-2______1
  6
CONTINUOUS
 62
    1
 10
1019.0458788392252
 20
907.6710904977881
 11
1019.675917901568
 21
907.6710904977881
  0
LINE
  8
_0-2______1
  6
CONTINUOUS
 62
    1
 10
1019.675917901568
 20
907.6710904977881
 11
1019.675917901568
 21
907.02005013336793
  0
LINE
  8
_0-2______1
  6
CONTINUOUS
 62
    1
 10
1019.675917901568
 20
907.02005013336793
 11
1020.3269582659891
 21
907.02005013336793
  0
LINE
  8
_0-2______1
  6
CONTINUOUS
 62
    1
 10
1020.3269582659891
 20
907.02005013336793
 11
1020.3269582659891
 21
905.08530517942381
  0
LINE
  8
_0-2______1
  6
CONTINUOUS
 62
    1
 10
1000.984759052074
 20
905.08530517942381
 11
1000.984759052074
 21
905.74159586936503
  0
LINE
  8
_0-2______1
  6
CONTINUOUS
 62
    1
 10
1000.984759052074
 20
905.74159586936503
 11
1001.6147981144172
 21
906.39263623378383
  0
LINE
  8
_0-2______1
  6
CONTINUOUS
 62
    1
 10
1001.6147981144172
 20
906.39263623378383
 11
1001.6147981144172
 21
907.02005013336793
  0
LINE
  8
_0-2______1
  6
CONTINUOUS
 62
    1
 10
1001.6147981144172
 20
907.02005013336793
 11
1002.2658384788369
 21
907.02005013336793
  0
LINE
  8
_0-2______1
  6
CONTINUOUS
 62
    1
 10
1002.2658384788369
 20
907.02005013336793
 11
1002.2658384788369
 21
907.6710904977881
  0
LINE
  8
_0-2______1
  6
CONTINUOUS
 62
    1
 10
1002.2658384788369
 20
907.6710904977881
 11
1002.916878843258
 21
907.6710904977881
  0
LINE
  8
_0-2______1
  6
CONTINUOUS
 62
    1
 10
1002.916878843258
 20
907.6710904977881
 11
1002.916878843258
 21
908.32213086221009
  0
LINE
  8
_0-2______1
  6
CONTINUOUS
 62
    1
 10
1002.916878843258
 20
908.32213086221009
 11
1003.5469179055999
 21
908.32213086221009
  0
LINE
  8
_0-2______1
  6
CONTINUOUS
 62
    1
 10
1003.5469179055999
 20
908.32213086221009
 11
1004.1979582700201
 21
908.32213086221009
  0
LINE
  8
_0-2______1
  6
CONTINUOUS
 62
    1
 10
1004.1979582700201
 20
908.32213086221009
 11
1004.1979582700201
 21
908.97317122662889
  0
LINE
  8
_0-2______1
  6
CONTINUOUS
 62
    1
 10
1004.1979582700201
 20
908.97317122662889
 11
1004.8489986344412
 21
908.97317122662889
  0
LINE
  8
_0-2______1
  6
CONTINUOUS
 62
    1
 10
1004.8489986344412
 20
908.97317122662889
 11
1005.5000389988622
 21
908.97317122662889
  0
LINE
  8
_0-2______1
  6
CONTINUOUS
 62
    1
 10
1005.5000389988622
 20
908.97317122662889
 11
1006.130078061205
 21
908.97317122662889
  0
LINE
  8
_0-2______1
  6
CONTINUOUS
 62
    1
 10
1006.130078061205
 20
908.97317122662889
 11
1006.130078061205
 21
909.60058512621299
  0
LINE
  8
_0-2______1
  6
CONTINUOUS
 62
    1
 10
1006.130078061205
 20
909.60058512621299
 11
1006.7811184256252
 21
909.60058512621299
  0
LINE
  8
_0-2______1
  6
CONTINUOUS
 62
    1
 10
1006.7811184256252
 20
909.60058512621299
 11
1007.4321587900463
 21
909.60058512621299
  0
LINE
  8
_0-2______1
  6
CONTINUOUS
 62
    1
 10
1007.4321587900463
 20
909.60058512621299
 11
1007.4321587900463
 21
910.2516254906318
  0
LINE
  8
_0-2______1
  6
CONTINUOUS
 62
    1
 10
1007.4321587900463
 20
910.2516254906318
 11
1008.0621978523882
 21
910.2516254906318
  0
LINE
  8
_0-2______1
  6
CONTINUOUS
 62
    1
 10
1008.0621978523882
 20
910.2516254906318
 11
1008.7132382168079
 21
910.2516254906318
  0
LINE
  8
_0-2______1
  6
CONTINUOUS
 62
    1
 10
1008.7132382168079
 20
910.2516254906318
 11
1010.0153189456501
 21
910.2516254906318
  0
LINE
  8
_0-2______1
  6
CONTINUOUS
 62
    1
 10
1010.0153189456501
 20
910.2516254906318
 11
1010.6453580079919
 21
910.2516254906318
  0
LINE
  8
_0-2______1
  6
CONTINUOUS
 62
    1
 10
1010.6453580079919
 20
910.2516254906318
 11
1011.9474387368341
 21
910.2516254906318
  0
LINE
  8
_0-2______1
  6
CONTINUOUS
 62
    1
 10
1011.9474387368341
 20
910.2516254906318
 11
1012.5984791012543
 21
910.2516254906318
  0
LINE
  8
_0-2______1
  6
CONTINUOUS
 62
    1
 10
1012.5984791012543
 20
910.2516254906318
 11
1013.2285181635971
 21
910.2516254906318
  0
LINE
  8
_0-2______1
  6
CONTINUOUS
 62
    1
 10
1013.2285181635971
 20
910.2516254906318
 11
1013.8795585280172
 21
910.2516254906318
  0
LINE
  8
_0-2______1
  6
CONTINUOUS
 62
    1
 10
1013.8795585280172
 20
910.2516254906318
 11
1014.530598892437
 21
910.2516254906318
  0
LINE
  8
_0-2______1
  6
CONTINUOUS
 62
    1
 10
1014.530598892437
 20
910.2516254906318
 11
1014.530598892437
 21
909.60058512621299
  0
LINE
  8
_0-2______1
  6
CONTINUOUS
 62
    1
 10
1014.530598892437
 20
909.60058512621299
 11
1015.1606379547802
 21
909.60058512621299
  0
LINE
  8
_0-2______1
  6
CONTINUOUS
 62
    1
 10
1015.1606379547802
 20
909.60058512621299
 11
1015.8116783192013
 21
909.60058512621299
  0
LINE
  8
_0-2______1
  6
CONTINUOUS
 62
    1
 10
1008.0621978523882
 20
894.77366585908612
 11
1008.0621978523882
 21
895.42995654902597
  0
LINE
  8
_0-2______1
  6
CONTINUOUS
 62
    1
 10
1008.0621978523882
 20
895.42995654902597
 11
1008.7132382168079
 21
895.42995654902597
  0
LINE
  8
_0-2______1
  6
CONTINUOUS
 62
    1
 10
1008.7132382168079
 20
895.42995654902597
 11
1009.364278581229
 21
895.42995654902597
  0
LINE
  8
_0-2______1
  6
CONTINUOUS
 62
    1
 10
1009.364278581229
 20
895.42995654902597
 11
1010.0153189456501
 21
895.42995654902597
  0
LINE
  8
_0-2______1
  6
CONTINUOUS
 62
    1
 10
1010.0153189456501
 20
895.42995654902597
 11
1010.0153189456501
 21
896.05737044860916
  0
LINE
  8
_0-2______1
  6
CONTINUOUS
 62
    1
 10
1000.3337186876543
 20
900.57527555815614
 11
1000.3337186876543
 21
899.28894580587303
  0
LINE
  8
_0-2______1
  6
CONTINUOUS
 62
    1
 10
1000.3337186876543
 20
899.28894580587303
 11
1000.984759052074
 21
899.28894580587303
  0
LINE
  8
_0-2______1
  6
CONTINUOUS
 62
    1
 10
1000.984759052074
 20
899.28894580587303
 11
1000.984759052074
 21
897.98949023979321
  0
LINE
  8
_0-2______1
  6
CONTINUOUS
 62
    1
 10
1000.984759052074
 20
897.98949023979321
 11
1001.6147981144172
 21
897.98949023979321
  0
LINE
  8
_0-2______1
  6
CONTINUOUS
 62
    1
 10
1000.3337186876543
 20
901.22631592257721
 11
1000.3337186876543
 21
902.50477018658012
  0
LINE
  8
_0-2______1
  6
CONTINUOUS
 62
    1
 10
1000.3337186876543
 20
902.50477018658012
 11
1000.984759052074
 21
902.50477018658012
  0
LINE
  8
_0-2______1
  6
CONTINUOUS
 62
    1
 10
1000.984759052074
 20
902.50477018658012
 11
1000.984759052074
 21
903.15581055099983
  0
LINE
  8
_0-2______1
  6
CONTINUOUS
 62
    1
 10
1000.984759052074
 20
903.15581055099983
 11
1001.6147981144172
 21
903.80685091542182
  0
LINE
  8
_0-2______1
  6
CONTINUOUS
 62
    1
 10
1001.6147981144172
 20
903.80685091542182
 11
1002.2658384788369
 21
904.45526611708283
  0
LINE
  8
_0-2______1
  6
CONTINUOUS
 62
    1
 10
1002.2658384788369
 20
904.45526611708283
 11
1002.916878843258
 21
904.45526611708283
  0
LINE
  8
_0-2______1
  6
CONTINUOUS
 62
    1
 10
1002.916878843258
 20
904.45526611708283
 11
1002.916878843258
 21
905.08530517942381
  0
LINE
  8
_0-2______1
  6
CONTINUOUS
 62
    1
 10
1002.916878843258
 20
905.08530517942381
 11
1003.5469179055999
 21
905.08530517942381
  0
LINE
  8
_0-2______1
  6
CONTINUOUS
 62
    1
 10
1003.5469179055999
 20
905.08530517942381
 11
1004.1979582700201
 21
905.08530517942381
  0
LINE
  8
_0-2______1
  6
CONTINUOUS
 62
    1
 10
1004.1979582700201
 20
905.08530517942381
 11
1004.8489986344412
 21
905.08530517942381
  0
LINE
  8
_0-2______1
  6
CONTINUOUS
 62
    1
 10
1004.8489986344412
 20
905.08530517942381
 11
1004.8489986344412
 21
905.74159586936503
  0
LINE
  8
_0-2______1
  6
CONTINUOUS
 62
    1
 10
1004.8489986344412
 20
905.74159586936503
 11
1005.5000389988622
 21
905.74159586936503
  0
LINE
  8
_0-2______1
  6
CONTINUOUS
 62
    1
 10
1005.5000389988622
 20
905.74159586936503
 11
1006.130078061205
 21
905.74159586936503
  0
LINE
  8
_0-2______1
  6
CONTINUOUS
 62
    1
 10
1006.130078061205
 20
905.74159586936503
 11
1006.130078061205
 21
906.39263623378383
  0
LINE
  8
_0-2______1
  6
CONTINUOUS
 62
    1
 10
1006.130078061205
 20
906.39263623378383
 11
1006.7811184256252
 21
906.39263623378383
  0
LINE
  8
_0-2______1
  6
CONTINUOUS
 62
    1
 10
1006.7811184256252
 20
906.39263623378383
 11
1007.4321587900463
 21
906.39263623378383
  0
LINE
  8
_0-2______1
  6
CONTINUOUS
 62
    1
 10
1007.4321587900463
 20
906.39263623378383
 11
1008.0621978523882
 21
906.39263623378383
  0
LINE
  8
_0-2______1
  6
CONTINUOUS
 62
    1
 10
1008.0621978523882
 20
906.39263623378383
 11
1008.7132382168079
 21
906.39263623378383
  0
LINE
  8
_0-2______1
  6
CONTINUOUS
 62
    1
 10
1008.7132382168079
 20
906.39263623378383
 11
1010.0153189456501
 21
906.39263623378383
  0
LINE
  8
_0-2______1
  6
CONTINUOUS
 62
    1
 10
1010.0153189456501
 20
906.39263623378383
 11
1010.6453580079919
 21
906.39263623378383
  0
LINE
  8
_0-2______1
  6
CONTINUOUS
 62
    1
 10
1010.6453580079919
 20
906.39263623378383
 11
1011.9474387368341
 21
906.39263623378383
  0
LINE
  8
_0-2______1
  6
CONTINUOUS
 62
    1
 10
1011.9474387368341
 20
906.39263623378383
 11
1012.5984791012543
 21
906.39263623378383
  0
LINE
  8
_0-2______1
  6
CONTINUOUS
 62
    1
 10
1012.5984791012543
 20
906.39263623378383
 11
1013.2285181635971
 21
906.39263623378383
  0
LINE
  8
_0-2______1
  6
CONTINUOUS
 62
    1
 10
1013.2285181635971
 20
906.39263623378383
 11
1013.8795585280172
 21
906.39263623378383
  0
LINE
  8
_0-2______1
  6
CONTINUOUS
 62
    1
 10
1013.8795585280172
 20
906.39263623378383
 11
1014.530598892437
 21
906.39263623378383
  0
LINE
  8
_0-2______1
  6
CONTINUOUS
 62
    1
 10
1006.7811184256252
 20
898.64053060421202
 11
1007.4321587900463
 21
898.64053060421202
  0
LINE
  8
_0-2______1
  6
CONTINUOUS
 62
    1
 10
1007.4321587900463
 20
898.64053060421202
 11
1008.0621978523882
 21
897.98949023979321
  0
LINE
  8
_0-2______1
  6
CONTINUOUS
 62
    1
 10
1008.0621978523882
 20
897.98949023979321
 11
1008.7132382168079
 21
897.35945117745086
  0
LINE
  8
_0-2______1
  6
CONTINUOUS
 62
    1
 10
1008.7132382168079
 20
897.35945117745086
 11
1009.364278581229
 21
897.35945117745086
  0
LINE
  8
_0-2______1
  6
CONTINUOUS
 62
    1
 10
1009.364278581229
 20
897.35945117745086
 11
1010.0153189456501
 21
897.35945117745086
  0
LINE
  8
_0-2______1
  6
CONTINUOUS
 62
    1
 10
1010.0153189456501
 20
897.35945117745086
 11
1010.0153189456501
 21
896.70841081302797
  0
LINE
  8
_0-2______1
  6
CONTINUOUS
 62
    1
 10
1010.6453580079919
 20
896.70841081302797
 11
1011.296398372413
 21
897.35945117745086
  0
LINE
  8
_0-2______1
  6
CONTINUOUS
 62
    1
 10
1011.296398372413
 20
897.35945117745086
 11
1011.9474387368341
 21
897.35945117745086
  0
LINE
  8
_0-2______1
  6
CONTINUOUS
 62
    1
 10
1011.9474387368341
 20
897.35945117745086
 11
1011.9474387368341
 21
897.98949023979321
  0
LINE
  8
_0-2______1
  6
CONTINUOUS
 62
    1
 10
1011.9474387368341
 20
896.70841081302797
 11
1012.5984791012543
 21
896.70841081302797
  0
LINE
  8
_0-2______1
  6
CONTINUOUS
 62
    1
 10
1012.5984791012543
 20
896.70841081302797
 11
1012.5984791012543
 21
896.05737044860916
  0
LINE
  8
_0-2______1
  6
CONTINUOUS
 62
    1
 10
1012.5984791012543
 20
896.05737044860916
 11
1013.2285181635971
 21
896.05737044860916
  0
LINE
  8
_0-2______1
  6
CONTINUOUS
 62
    1
 10
1013.2285181635971
 20
896.05737044860916
 11
1013.8795585280172
 21
896.05737044860916
  0
LINE
  8
_0-2______1
  6
CONTINUOUS
 62
    1
 10
1013.8795585280172
 20
896.05737044860916
 11
1014.530598892437
 21
896.05737044860916
  0
LINE
  8
_0-2______1
  6
CONTINUOUS
 62
    1
 10
1014.530598892437
 20
896.05737044860916
 11
1015.1606379547802
 21
896.05737044860916
  0
LINE
  8
_0-2______1
  6
CONTINUOUS
 62
    1
 10
1010.0153189456501
 20
896.05737044860916
 11
1010.0153189456501
 21
896.70841081302797
  0
LINE
  8
_0-2______1
  6
CONTINUOUS
 62
    1
 10
1010.0153189456501
 20
896.70841081302797
 11
1009.364278581229
 21
896.70841081302797
  0
LINE
  8
_0-2______1
  6
CONTINUOUS
 62
    1
 10
1009.364278581229
 20
896.70841081302797
 11
1008.7132382168079
 21
896.70841081302797
  0
LINE
  8
_0-2______1
  6
CONTINUOUS
 62
    1
 10
1008.7132382168079
 20
896.70841081302797
 11
1008.0621978523882
 21
896.70841081302797
  0
LINE
  8
_0-2______1
  6
CONTINUOUS
 62
    1
 10
1008.0621978523882
 20
896.70841081302797
 11
1008.0621978523882
 21
897.35945117745086
  0
LINE
  8
_0-2______1
  6
CONTINUOUS
 62
    1
 10
1008.0621978523882
 20
897.35945117745086
 11
1007.4321587900463
 21
897.35945117745086
  0
LINE
  8
_0-2______1
  6
CONTINUOUS
 62
    1
 10
1007.4321587900463
 20
897.35945117745086
 11
1006.7811184256252
 21
897.35945117745086
  0
LINE
  8
_0-2______1
  6
CONTINUOUS
 62
    1
 10
1006.7811184256252
 20
897.35945117745086
 11
1006.7811184256252
 21
897.98949023979321
  0
LINE
  8
_0-2______1
  6
CONTINUOUS
 62
    1
 10
1016.462718683621
 20
907.02005013336793
 11
1017.1137590480421
 21
907.02005013336793
  0
LINE
  8
_0-2______1
  6
CONTINUOUS
 62
    1
 10
1017.1137590480421
 20
907.02005013336793
 11
1017.743798110384
 21
906.39263623378383
  0
LINE
  8
_0-2______1
  6
CONTINUOUS
 62
    1
 10
1017.743798110384
 20
906.39263623378383
 11
1018.3948384748051
 21
906.39263623378383
  0
LINE
  8
_0-2______1
  6
CONTINUOUS
 62
    1
 10
1018.3948384748051
 20
906.39263623378383
 11
1018.3948384748051
 21
905.74159586936503
  0
LINE
  8
_0-2______1
  6
CONTINUOUS
 62
    1
 10
1018.3948384748051
 20
905.74159586936503
 11
1019.0458788392252
 21
905.74159586936503
  0
LINE
  8
_0-2______1
  6
CONTINUOUS
 62
    1
 10
1019.0458788392252
 20
905.74159586936503
 11
1019.0458788392252
 21
905.08530517942381
  0
LINE
  8
_0-2______1
  6
CONTINUOUS
 62
    1
 10
1019.0458788392252
 20
905.08530517942381
 11
1019.675917901568
 21
905.08530517942381
  0
LINE
  8
_0-2______1
  6
CONTINUOUS
 62
    1
 10
1019.675917901568
 20
905.08530517942381
 11
1019.675917901568
 21
904.45526611708283
  0
LINE
  8
_0-2______1
  6
CONTINUOUS
 62
    1
 10
1019.675917901568
 20
904.45526611708283
 11
1020.3269582659891
 21
904.45526611708283
  0
LINE
  8
_0-2______1
  6
CONTINUOUS
 62
    1
 10
1020.3269582659891
 20
904.45526611708283
 11
1020.3269582659891
 21
903.80685091542182
  0
LINE
  8
_0-2______1
  6
CONTINUOUS
 62
    1
 10
1011.296398372413
 20
896.05737044860916
 11
1011.296398372413
 21
895.42995654902597
  0
LINE
  8
_0-2______1
  6
CONTINUOUS
 62
    1
 10
1011.296398372413
 20
895.42995654902597
 11
1010.6453580079919
 21
895.42995654902597
  0
LINE
  8
_0-2______1
  6
CONTINUOUS
 62
    1
 10
1010.6453580079919
 20
895.42995654902597
 11
1010.0153189456501
 21
895.42995654902597
  0
LINE
  8
_0-2______1
  6
CONTINUOUS
 62
    1
 10
1010.0153189456501
 20
895.42995654902597
 11
1010.0153189456501
 21
894.77366585908612
  0
LINE
  8
_0-2______1
  6
CONTINUOUS
 62
    1
 10
1010.0153189456501
 20
894.77366585908612
 11
1009.364278581229
 21
894.77366585908612
  0
LINE
  8
_0-2______1
  6
CONTINUOUS
 62
    1
 10
1009.364278581229
 20
894.77366585908612
 11
1008.7132382168079
 21
894.77366585908612
  0
LINE
  8
_0-2______1
  6
CONTINUOUS
 62
    1
 10
1014.530598892437
 20
895.42995654902597
 11
1013.8795585280172
 21
895.42995654902597
  0
LINE
  8
_0-2______1
  6
CONTINUOUS
 62
    1
 10
1013.8795585280172
 20
895.42995654902597
 11
1013.2285181635971
 21
895.42995654902597
  0
LINE
  8
_0-2______1
  6
CONTINUOUS
 62
    1
 10
1013.2285181635971
 20
895.42995654902597
 11
1012.5984791012543
 21
895.42995654902597
  0
LINE
  8
_0-2______1
  6
CONTINUOUS
 62
    1
 10
1012.5984791012543
 20
895.42995654902597
 11
1011.9474387368341
 21
895.42995654902597
  0
LINE
  8
_0-2______1
  6
CONTINUOUS
 62
    1
 10
1011.9474387368341
 20
895.42995654902597
 11
1011.296398372413
 21
895.42995654902597
  0
LINE
  8
_0-2______1
  6
CONTINUOUS
 62
    1
 10
1011.296398372413
 20
895.42995654902597
 11
1011.296398372413
 21
896.05737044860916
  0
LINE
  8
_0-2______1
  6
CONTINUOUS
 62
    1
 10
1020.3269582659891
 20
903.80685091542182
 11
1020.3269582659891
 21
905.08530517942381
  0
LINE
  8
_0-2______1
  6
CONTINUOUS
 62
    1
 10
1020.3269582659891
 20
905.08530517942381
 11
1019.675917901568
 21
905.08530517942381
  0
LINE
  8
_0-2______1
  6
CONTINUOUS
 62
    1
 10
1019.675917901568
 20
905.08530517942381
 11
1019.675917901568
 21
905.74159586936503
  0
LINE
  8
_0-2______1
  6
CONTINUOUS
 62
    1
 10
1019.675917901568
 20
905.74159586936503
 11
1019.0458788392252
 21
905.74159586936503
  0
LINE
  8
_0-2______1
  6
CONTINUOUS
 62
    1
 10
1019.0458788392252
 20
905.74159586936503
 11
1018.3948384748051
 21
906.39263623378383
  0
LINE
  8
_0-2______1
  6
CONTINUOUS
 62
    1
 10
1018.3948384748051
 20
906.39263623378383
 11
1017.743798110384
 21
906.39263623378383
  0
LINE
  8
_0-2______1
  6
CONTINUOUS
 62
    1
 10
1017.743798110384
 20
906.39263623378383
 11
1017.743798110384
 21
907.02005013336793
  0
LINE
  8
_0-2______1
  6
CONTINUOUS
 62
    1
 10
1017.743798110384
 20
907.02005013336793
 11
1017.1137590480421
 21
907.02005013336793
  0
LINE
  8
_0-2______1
  6
CONTINUOUS
 62
    1
 10
1017.1137590480421
 20
907.02005013336793
 11
1016.462718683621
 21
907.02005013336793
  0
LINE
  8
_0-2______1
  6
CONTINUOUS
 62
    1
 10
1016.462718683621
 20
907.02005013336793
 11
1015.8116783192013
 21
907.02005013336793
  0
LINE
  8
_0-2______1
  6
CONTINUOUS
 62
    1
 10
1001.6147981144172
 20
903.15581055099983
 11
1000.984759052074
 21
903.15581055099983
  0
LINE
  8
_0-2______1
  6
CONTINUOUS
 62
    1
 10
1000.984759052074
 20
903.15581055099983
 11
1000.984759052074
 21
902.50477018658012
  0
LINE
  8
_0-2______1
  6
CONTINUOUS
 62
    1
 10
1000.984759052074
 20
902.50477018658012
 11
1000.3337186876543
 21
902.50477018658012
  0
LINE
  8
_0-2______1
  6
CONTINUOUS
 62
    1
 10
1000.3337186876543
 20
902.50477018658012
 11
1000.3337186876543
 21
901.22631592257721
  0
LINE
  8
_0-2______1
  6
CONTINUOUS
 62
    1
 10
1012.5984791012543
 20
908.32213086221009
 11
1011.9474387368341
 21
908.32213086221009
  0
LINE
  8
_0-2______1
  6
CONTINUOUS
 62
    1
 10
1011.9474387368341
 20
908.32213086221009
 11
1011.296398372413
 21
908.32213086221009
  0
LINE
  8
_0-2______1
  6
CONTINUOUS
 62
    1
 10
1011.296398372413
 20
908.32213086221009
 11
1010.6453580079919
 21
908.32213086221009
  0
LINE
  8
_0-2______1
  6
CONTINUOUS
 62
    1
 10
1010.6453580079919
 20
908.32213086221009
 11
1010.0153189456501
 21
908.32213086221009
  0
LINE
  8
_0-2______1
  6
CONTINUOUS
 62
    1
 10
1010.0153189456501
 20
908.32213086221009
 11
1008.7132382168079
 21
908.32213086221009
  0
LINE
  8
_0-2______1
  6
CONTINUOUS
 62
    1
 10
1008.7132382168079
 20
908.32213086221009
 11
1008.7132382168079
 21
907.6710904977881
  0
LINE
  8
_0-2______1
  6
CONTINUOUS
 62
    1
 10
1008.7132382168079
 20
907.6710904977881
 11
1008.0621978523882
 21
907.6710904977881
  0
LINE
  8
_0-2______1
  6
CONTINUOUS
 62
    1
 10
1008.0621978523882
 20
907.6710904977881
 11
1006.7811184256252
 21
907.6710904977881
  0
LINE
  8
_0-2______1
  6
CONTINUOUS
 62
    1
 10
1006.7811184256252
 20
907.6710904977881
 11
1006.7811184256252
 21
907.02005013336793
  0
LINE
  8
_0-2______1
  6
CONTINUOUS
 62
    1
 10
1006.7811184256252
 20
907.02005013336793
 11
1006.130078061205
 21
907.02005013336793
  0
LINE
  8
_0-2______1
  6
CONTINUOUS
 62
    1
 10
1006.130078061205
 20
907.02005013336793
 11
1005.5000389988622
 21
907.02005013336793
  0
LINE
  8
_0-2______1
  6
CONTINUOUS
 62
    1
 10
1005.5000389988622
 20
907.02005013336793
 11
1004.8489986344412
 21
907.02005013336793
  0
LINE
  8
_0-2______1
  6
CONTINUOUS
 62
    1
 10
1004.8489986344412
 20
907.02005013336793
 11
1004.1979582700201
 21
907.02005013336793
  0
LINE
  8
_0-2______1
  6
CONTINUOUS
 62
    1
 10
1004.1979582700201
 20
907.02005013336793
 11
1004.1979582700201
 21
906.39263623378383
  0
LINE
  8
_0-2______1
  6
CONTINUOUS
 62
    1
 10
1004.1979582700201
 20
906.39263623378383
 11
1003.5469179055999
 21
906.39263623378383
  0
LINE
  8
_0-2______1
  6
CONTINUOUS
 62
    1
 10
1003.5469179055999
 20
906.39263623378383
 11
1002.916878843258
 21
906.39263623378383
  0
LINE
  8
_0-2______1
  6
CONTINUOUS
 62
    1
 10
1002.916878843258
 20
906.39263623378383
 11
1002.916878843258
 21
905.74159586936503
  0
LINE
  8
_0-2______1
  6
CONTINUOUS
 62
    1
 10
1002.916878843258
 20
905.74159586936503
 11
1002.2658384788369
 21
905.08530517942381
  0
LINE
  8
_0-2______1
  6
CONTINUOUS
 62
    1
 10
1002.2658384788369
 20
905.08530517942381
 11
1002.2658384788369
 21
904.45526611708283
  0
LINE
  8
_0-2______1
  6
CONTINUOUS
 62
    1
 10
1002.2658384788369
 20
904.45526611708283
 11
1001.6147981144172
 21
904.45526611708283
  0
LINE
  8
_0-2______1
  6
CONTINUOUS
 62
    1
 10
1001.6147981144172
 20
904.45526611708283
 11
1001.6147981144172
 21
903.80685091542182
  0
LINE
  8
_0-2______1
  6
CONTINUOUS
 62
    1
 10
1001.6147981144172
 20
903.80685091542182
 11
1000.984759052074
 21
903.80685091542182
  0
LINE
  8
_0-2______1
  6
CONTINUOUS
 62
    1
 10
1000.984759052074
 20
903.80685091542182
 11
1000.984759052074
 21
903.15581055099983
  0
LINE
  8
_0-2______1
  6
CONTINUOUS
 62
    1
 10
1001.6147981144172
 20
903.80685091542182
 11
1001.6147981144172
 21
904.45526611708283
  0
LINE
  8
_0-2______1
  6
CONTINUOUS
 62
    1
 10
1001.6147981144172
 20
904.45526611708283
 11
1002.2658384788369
 21
904.45526611708283
  0
LINE
  8
_0-2______1
  6
CONTINUOUS
 62
    1
 10
1002.2658384788369
 20
904.45526611708283
 11
1002.2658384788369
 21
905.08530517942381
  0
LINE
  8
_0-2______1
  6
CONTINUOUS
 62
    1
 10
1002.2658384788369
 20
905.08530517942381
 11
1002.916878843258
 21
905.08530517942381
  0
LINE
  8
_0-2______1
  6
CONTINUOUS
 62
    1
 10
1002.916878843258
 20
905.08530517942381
 11
1002.916878843258
 21
905.74159586936503
  0
LINE
  8
_0-2______1
  6
CONTINUOUS
 62
    1
 10
1002.916878843258
 20
905.74159586936503
 11
1003.5469179055999
 21
906.39263623378383
  0
LINE
  8
_0-2______1
  6
CONTINUOUS
 62
    1
 10
1003.5469179055999
 20
906.39263623378383
 11
1004.1979582700201
 21
906.39263623378383
  0
LINE
  8
_0-2______1
  6
CONTINUOUS
 62
    1
 10
1004.1979582700201
 20
906.39263623378383
 11
1004.8489986344412
 21
906.39263623378383
  0
LINE
  8
_0-2______1
  6
CONTINUOUS
 62
    1
 10
1004.8489986344412
 20
906.39263623378383
 11
1004.8489986344412
 21
907.02005013336793
  0
LINE
  8
_0-2______1
  6
CONTINUOUS
 62
    1
 10
1004.8489986344412
 20
907.02005013336793
 11
1005.5000389988622
 21
907.02005013336793
  0
LINE
  8
_0-2______1
  6
CONTINUOUS
 62
    1
 10
1005.5000389988622
 20
907.02005013336793
 11
1006.130078061205
 21
907.02005013336793
  0
LINE
  8
_0-2______1
  6
CONTINUOUS
 62
    1
 10
1006.130078061205
 20
907.02005013336793
 11
1006.7811184256252
 21
907.02005013336793
  0
LINE
  8
_0-2______1
  6
CONTINUOUS
 62
    1
 10
1006.7811184256252
 20
907.02005013336793
 11
1006.7811184256252
 21
907.6710904977881
  0
LINE
  8
_0-2______1
  6
CONTINUOUS
 62
    1
 10
1006.7811184256252
 20
907.6710904977881
 11
1007.4321587900463
 21
907.6710904977881
  0
LINE
  8
_0-2______1
  6
CONTINUOUS
 62
    1
 10
1007.4321587900463
 20
907.6710904977881
 11
1008.0621978523882
 21
907.6710904977881
  0
LINE
  8
_0-2______1
  6
CONTINUOUS
 62
    1
 10
1008.0621978523882
 20
907.6710904977881
 11
1008.7132382168079
 21
907.6710904977881
  0
LINE
  8
_0-2______1
  6
CONTINUOUS
 62
    1
 10
1008.7132382168079
 20
907.6710904977881
 11
1009.364278581229
 21
907.6710904977881
  0
LINE
  8
_0-2______1
  6
CONTINUOUS
 62
    1
 10
1009.364278581229
 20
907.6710904977881
 11
1010.0153189456501
 21
907.6710904977881
  0
LINE
  8
_0-2______1
  6
CONTINUOUS
 62
    1
 10
1010.0153189456501
 20
907.6710904977881
 11
1010.6453580079919
 21
908.32213086221009
  0
LINE
  8
_0-2______1
  6
CONTINUOUS
 62
    1
 10
1010.6453580079919
 20
908.32213086221009
 11
1011.9474387368341
 21
908.32213086221009
  0
LINE
  8
_0-2______1
  6
CONTINUOUS
 62
    1
 10
1011.9474387368341
 20
908.32213086221009
 11
1011.9474387368341
 21
907.6710904977881
  0
LINE
  8
_0-2______1
  6
CONTINUOUS
 62
    1
 10
1011.9474387368341
 20
907.6710904977881
 11
1012.5984791012543
 21
907.6710904977881
  0
LINE
  8
_0-2______1
  6
CONTINUOUS
 62
    1
 10
1012.5984791012543
 20
907.6710904977881
 11
1013.8795585280172
 21
907.6710904977881
  0
LINE
  8
_0-2______1
  6
CONTINUOUS
 62
    1
 10
1013.8795585280172
 20
899.28894580587303
 11
1013.8795585280172
 21
898.64053060421202
  0
LINE
  8
_0-2______1
  6
CONTINUOUS
 62
    1
 10
1013.8795585280172
 20
898.64053060421202
 11
1013.2285181635971
 21
898.64053060421202
  0
LINE
  8
_0-2______1
  6
CONTINUOUS
 62
    1
 10
1013.2285181635971
 20
898.64053060421202
 11
1013.2285181635971
 21
897.98949023979321
  0
LINE
  8
_0-2______1
  6
CONTINUOUS
 62
    1
 10
1013.2285181635971
 20
897.98949023979321
 11
1012.5984791012543
 21
897.35945117745086
  0
LINE
  8
_0-2______1
  6
CONTINUOUS
 62
    1
 10
1012.5984791012543
 20
897.35945117745086
 11
1012.5984791012543
 21
896.70841081302797
  0
LINE
  8
_0-2______1
  6
CONTINUOUS
 62
    1
 10
1012.5984791012543
 20
896.70841081302797
 11
1011.9474387368341
 21
896.70841081302797
  0
LINE
  8
_0-2______1
  6
CONTINUOUS
 62
    1
 10
1021.6290389948299
 20
901.22631592257721
 11
1021.6290389948299
 21
902.50477018658012
  0
LINE
  8
_0-2______1
  6
CONTINUOUS
 62
    1
 10
1021.6290389948299
 20
902.50477018658012
 11
1020.9779986304093
 21
902.50477018658012
  0
LINE
  8
_0-2______1
  6
CONTINUOUS
 62
    1
 10
1020.9779986304093
 20
902.50477018658012
 11
1020.9779986304093
 21
903.15581055099983
  0
LINE
  8
_0-2______1
  6
CONTINUOUS
 62
    1
 10
1020.9779986304093
 20
903.15581055099983
 11
1020.3269582659891
 21
903.15581055099983
  0
LINE
  8
_0-2______1
  6
CONTINUOUS
 62
    1
 10
1020.3269582659891
 20
903.15581055099983
 11
1019.675917901568
 21
903.80685091542182
  0
LINE
  8
_0-2______1
  6
CONTINUOUS
 62
    1
 10
1019.675917901568
 20
903.80685091542182
 11
1019.675917901568
 21
904.45526611708283
  0
LINE
  8
_0-2______1
  6
CONTINUOUS
 62
    1
 10
1019.675917901568
 20
904.45526611708283
 11
1019.0458788392252
 21
904.45526611708283
  0
LINE
  8
_0-2______1
  6
CONTINUOUS
 62
    1
 10
1019.0458788392252
 20
904.45526611708283
 11
1018.3948384748051
 21
904.45526611708283
  0
LINE
  8
_0-2______1
  6
CONTINUOUS
 62
    1
 10
1018.3948384748051
 20
904.45526611708283
 11
1017.743798110384
 21
904.45526611708283
  0
LINE
  8
_0-2______1
  6
CONTINUOUS
 62
    1
 10
1017.743798110384
 20
904.45526611708283
 11
1017.743798110384
 21
905.08530517942381
  0
LINE
  8
_0-2______1
  6
CONTINUOUS
 62
    1
 10
1015.1606379547802
 20
905.74159586936503
 11
1014.530598892437
 21
905.74159586936503
  0
LINE
  8
_0-2______1
  6
CONTINUOUS
 62
    1
 10
1014.530598892437
 20
905.74159586936503
 11
1013.8795585280172
 21
905.74159586936503
  0
LINE
  8
_0-2______1
  6
CONTINUOUS
 62
    1
 10
1013.8795585280172
 20
905.74159586936503
 11
1013.2285181635971
 21
905.74159586936503
  0
LINE
  8
_0-2______1
  6
CONTINUOUS
 62
    1
 10
1013.2285181635971
 20
905.74159586936503
 11
1012.5984791012543
 21
906.39263623378383
  0
LINE
  8
_0-2______1
  6
CONTINUOUS
 62
    1
 10
1012.5984791012543
 20
906.39263623378383
 11
1011.9474387368341
 21
906.39263623378383
  0
LINE
  8
_0-2______1
  6
CONTINUOUS
 62
    1
 10
1011.9474387368341
 20
906.39263623378383
 11
1010.6453580079919
 21
906.39263623378383
  0
LINE
  8
_0-2______1
  6
CONTINUOUS
 62
    1
 10
1010.6453580079919
 20
906.39263623378383
 11
1010.0153189456501
 21
906.39263623378383
  0
LINE
  8
_0-2______1
  6
CONTINUOUS
 62
    1
 10
1010.0153189456501
 20
906.39263623378383
 11
1008.7132382168079
 21
906.39263623378383
  0
LINE
  8
_0-2______1
  6
CONTINUOUS
 62
    1
 10
1008.7132382168079
 20
906.39263623378383
 11
1008.7132382168079
 21
905.74159586936503
  0
LINE
  8
_0-2______1
  6
CONTINUOUS
 62
    1
 10
1008.7132382168079
 20
905.74159586936503
 11
1008.0621978523882
 21
905.74159586936503
  0
LINE
  8
_0-2______1
  6
CONTINUOUS
 62
    1
 10
1008.0621978523882
 20
905.74159586936503
 11
1007.4321587900463
 21
905.74159586936503
  0
LINE
  8
_0-2______1
  6
CONTINUOUS
 62
    1
 10
1007.4321587900463
 20
905.74159586936503
 11
1006.7811184256252
 21
905.74159586936503
  0
LINE
  8
_0-2______1
  6
CONTINUOUS
 62
    1
 10
1006.7811184256252
 20
905.74159586936503
 11
1006.7811184256252
 21
905.08530517942381
  0
LINE
  8
_0-2______1
  6
CONTINUOUS
 62
    1
 10
1006.7811184256252
 20
905.08530517942381
 11
1006.130078061205
 21
905.08530517942381
  0
LINE
  8
_0-2______1
  6
CONTINUOUS
 62
    1
 10
1006.130078061205
 20
905.08530517942381
 11
1005.5000389988622
 21
905.08530517942381
  0
LINE
  8
_0-2______1
  6
CONTINUOUS
 62
    1
 10
1005.5000389988622
 20
905.08530517942381
 11
1004.8489986344412
 21
905.08530517942381
  0
LINE
  8
_0-2______1
  6
CONTINUOUS
 62
    1
 10
1004.8489986344412
 20
905.08530517942381
 11
1004.1979582700201
 21
905.08530517942381
  0
LINE
  8
_0-2______1
  6
CONTINUOUS
 62
    1
 10
1004.1979582700201
 20
905.08530517942381
 11
1004.1979582700201
 21
904.45789127984199
  0
LINE
  8
_0-2______1
  6
CONTINUOUS
 62
    1
 10
1004.1979582700201
 20
904.45789127984199
 11
1003.5469179055999
 21
904.45789127984199
  0
LINE
  8
_0-2______1
  6
CONTINUOUS
 62
    1
 10
1003.5469179055999
 20
904.45789127984199
 11
1002.916878843258
 21
904.45789127984199
  0
LINE
  8
_0-2______1
  6
CONTINUOUS
 62
    1
 10
1002.916878843258
 20
904.45789127984199
 11
1002.2658384788369
 21
903.80685091542182
  0
LINE
  8
_0-2______1
  6
CONTINUOUS
 62
    1
 10
1002.2658384788369
 20
903.80685091542182
 11
1002.2658384788369
 21
903.15581055099983
  0
LINE
  8
_0-2______1
  6
CONTINUOUS
 62
    1
 10
1002.2658384788369
 20
903.15581055099983
 11
1001.6147981144172
 21
903.15581055099983
  0
LINE
  8
_0-2______1
  6
CONTINUOUS
 62
    1
 10
611.93563805558597
 20
914.11849023576087
 11
611.93563805558597
 21
914.76953060018104
  0
LINE
  8
_0-2______1
  6
CONTINUOUS
 62
    1
 10
611.93563805558597
 20
914.76953060018104
 11
611.30559899324408
 21
914.76953060018104
  0
LINE
  8
_0-2______1
  6
CONTINUOUS
 62
    1
 10
611.30559899324408
 20
914.76953060018104
 11
610.65455862882391
 21
914.76953060018104
  0
LINE
  8
_0-2______1
  6
CONTINUOUS
 62
    1
 10
610.65455862882391
 20
914.76953060018104
 11
610.65455862882391
 21
914.11849023576087
  0
LINE
  8
_0-2______1
  6
CONTINUOUS
 62
    1
 10
610.65455862882391
 20
914.11849023576087
 11
610.00351826440328
 21
914.11849023576087
  0
LINE
  8
_0-2______1
  6
CONTINUOUS
 62
    1
 10
610.00351826440328
 20
914.11849023576087
 11
610.00351826440328
 21
913.48845117341716
  0
LINE
  8
_0-2______1
  6
CONTINUOUS
 62
    1
 10
610.00351826440328
 20
913.48845117341716
 11
609.37347920206003
 21
913.48845117341716
  0
LINE
  8
_0-2______1
  6
CONTINUOUS
 62
    1
 10
609.37347920206003
 20
913.48845117341716
 11
609.37347920206003
 21
912.83741080899699
  0
LINE
  8
_0-2______1
  6
CONTINUOUS
 62
    1
 10
609.37347920206003
 20
912.83741080899699
 11
609.37347920206003
 21
912.18637044457682
  0
LINE
  8
_0-2______1
  6
CONTINUOUS
 62
    1
 10
609.37347920206003
 20
912.18637044457682
 11
609.37347920206003
 21
910.90266585505378
  0
LINE
  8
_0-2______1
  6
CONTINUOUS
 62
    1
 10
609.37347920206003
 20
910.90266585505378
 11
610.00351826440328
 21
910.90266585505378
  0
LINE
  8
_0-2______1
  6
CONTINUOUS
 62
    1
 10
610.00351826440328
 20
910.90266585505378
 11
610.00351826440328
 21
910.2516254906318
  0
LINE
  8
_0-2______1
  6
CONTINUOUS
 62
    1
 10
610.00351826440328
 20
910.2516254906318
 11
610.65455862882391
 21
910.2516254906318
  0
LINE
  8
_0-2______1
  6
CONTINUOUS
 62
    1
 10
610.65455862882391
 20
910.2516254906318
 11
610.65455862882391
 21
909.60058512621299
  0
LINE
  8
_0-2______1
  6
CONTINUOUS
 62
    1
 10
610.65455862882391
 20
909.60058512621299
 11
611.30559899324408
 21
908.97317122662889
  0
LINE
  8
_0-2______1
  6
CONTINUOUS
 62
    1
 10
611.30559899324408
 20
908.97317122662889
 11
611.93563805558597
 21
908.97317122662889
  0
LINE
  8
_0-2______1
  6
CONTINUOUS
 62
    1
 10
611.93563805558597
 20
908.97317122662889
 11
612.58667842000705
 21
908.97317122662889
  0
LINE
  8
_0-2______1
  6
CONTINUOUS
 62
    1
 10
612.58667842000705
 20
908.97317122662889
 11
613.23771878442722
 21
908.97317122662889
  0
LINE
  8
_0-2______1
  6
CONTINUOUS
 62
    1
 10
613.23771878442722
 20
908.97317122662889
 11
613.88875914884829
 21
908.97317122662889
  0
LINE
  8
_0-2______1
  6
CONTINUOUS
 62
    1
 10
613.88875914884829
 20
908.97317122662889
 11
613.88875914884829
 21
909.60058512621299
  0
LINE
  8
_0-2______1
  6
CONTINUOUS
 62
    1
 10
613.88875914884829
 20
909.60058512621299
 11
614.5187982111911
 21
909.60058512621299
  0
LINE
  8
_0-2______1
  6
CONTINUOUS
 62
    1
 10
614.5187982111911
 20
909.60058512621299
 11
614.5187982111911
 21
912.18637044457682
  0
LINE
  8
_0-2______1
  6
CONTINUOUS
 62
    1
 10
612.58667842000705
 20
914.11849023576087
 11
613.23771878442722
 21
914.11849023576087
  0
LINE
  8
_0-2______1
  6
CONTINUOUS
 62
    1
 10
613.23771878442722
 20
914.11849023576087
 11
613.23771878442722
 21
913.48845117341716
  0
LINE
  8
_0-2______1
  6
CONTINUOUS
 62
    1
 10
613.23771878442722
 20
913.48845117341716
 11
613.88875914884829
 21
913.48845117341716
  0
LINE
  8
_0-2______1
  6
CONTINUOUS
 62
    1
 10
613.88875914884829
 20
913.48845117341716
 11
613.88875914884829
 21
912.83741080899699
  0
LINE
  8
_0-2______1
  6
CONTINUOUS
 62
    1
 10
613.88875914884829
 20
912.83741080899699
 11
614.5187982111911
 21
912.18637044457682
  0
LINE
  8
_0-2______1
  6
CONTINUOUS
 62
    1
 10
612.58667842000705
 20
914.11849023576087
 11
611.93563805558597
 21
914.11849023576087
  0
LINE
  8
_0-2______1
  6
CONTINUOUS
 62
    1
 10
571.2981185344961
 20
873.4835958774288
 11
570.64707817007502
 21
873.4835958774288
  0
LINE
  8
_0-2______1
  6
CONTINUOUS
 62
    1
 10
570.64707817007502
 20
873.4835958774288
 11
570.01703910773313
 21
873.4835958774288
  0
LINE
  8
_0-2______1
  6
CONTINUOUS
 62
    1
 10
570.01703910773313
 20
873.4835958774288
 11
570.01703910773313
 21
874.13463624184988
  0
LINE
  8
_0-2______1
  6
CONTINUOUS
 62
    1
 10
570.01703910773313
 20
874.13463624184988
 11
569.36599874331205
 21
874.13463624184988
  0
LINE
  8
_0-2______1
  6
CONTINUOUS
 62
    1
 10
569.36599874331205
 20
874.13463624184988
 11
569.36599874331205
 21
874.76205014143216
  0
LINE
  8
_0-2______1
  6
CONTINUOUS
 62
    1
 10
569.36599874331205
 20
874.76205014143216
 11
568.71495837889097
 21
874.76205014143216
  0
LINE
  8
_0-2______1
  6
CONTINUOUS
 62
    1
 10
568.71495837889097
 20
874.76205014143216
 11
568.71495837889097
 21
875.41309050585278
  0
LINE
  8
_0-2______1
  6
CONTINUOUS
 62
    1
 10
568.71495837889097
 20
875.41309050585278
 11
568.06391801447126
 21
875.41309050585278
  0
LINE
  8
_0-2______1
  6
CONTINUOUS
 62
    1
 10
568.06391801447126
 20
875.41309050585278
 11
568.06391801447126
 21
879.30095655305786
  0
LINE
  8
_0-2______1
  6
CONTINUOUS
 62
    1
 10
568.06391801447126
 20
879.30095655305786
 11
568.71495837889097
 21
879.30095655305786
  0
LINE
  8
_0-2______1
  6
CONTINUOUS
 62
    1
 10
591.29135811283004
 20
890.89105013739891
 11
590.66131905048906
 21
890.89105013739891
  0
LINE
  8
_0-2______1
  6
CONTINUOUS
 62
    1
 10
590.66131905048906
 20
890.89105013739891
 11
590.66131905048906
 21
891.5420905018218
  0
LINE
  8
_0-2______1
  6
CONTINUOUS
 62
    1
 10
590.66131905048906
 20
891.5420905018218
 11
590.01027868606798
 21
891.5420905018218
  0
LINE
  8
_0-2______1
  6
CONTINUOUS
 62
    1
 10
590.01027868606798
 20
891.5420905018218
 11
589.3592383216469
 21
891.5420905018218
  0
LINE
  8
_0-2______1
  6
CONTINUOUS
 62
    1
 10
589.3592383216469
 20
891.5420905018218
 11
589.3592383216469
 21
892.84417123066214
  0
LINE
  8
_0-2______1
  6
CONTINUOUS
 62
    1
 10
589.3592383216469
 20
892.84417123066214
 11
588.70819795722718
 21
892.84417123066214
  0
LINE
  8
_0-2______1
  6
CONTINUOUS
 62
    1
 10
588.70819795722718
 20
892.84417123066214
 11
588.70819795722718
 21
896.70841081302797
  0
LINE
  8
_0-2______1
  6
CONTINUOUS
 62
    1
 10
588.70819795722718
 20
896.70841081302797
 11
589.3592383216469
 21
896.70841081302797
  0
LINE
  8
_0-2______1
  6
CONTINUOUS
 62
    1
 10
593.87451826843517
 20
891.5420905018218
 11
593.87451826843517
 21
890.89105013739891
  0
LINE
  8
_0-2______1
  6
CONTINUOUS
 62
    1
 10
593.87451826843517
 20
890.89105013739891
 11
593.24447920609191
 21
890.89105013739891
  0
LINE
  8
_0-2______1
  6
CONTINUOUS
 62
    1
 10
593.24447920609191
 20
890.89105013739891
 11
592.5934388416722
 21
890.89105013739891
  0
LINE
  8
_0-2______1
  6
CONTINUOUS
 62
    1
 10
592.5934388416722
 20
890.89105013739891
 11
591.94239847725112
 21
890.89105013739891
  0
LINE
  8
_0-2______1
  6
CONTINUOUS
 62
    1
 10
591.94239847725112
 20
890.89105013739891
 11
591.29135811283004
 21
890.89105013739891
  0
LINE
  8
_0-2______1
  6
CONTINUOUS
 62
    1
 10
589.3592383216469
 20
896.70841081302797
 11
589.3592383216469
 21
897.35945117745086
  0
LINE
  8
_0-2______1
  6
CONTINUOUS
 62
    1
 10
589.3592383216469
 20
897.35945117745086
 11
590.01027868606798
 21
897.35945117745086
  0
LINE
  8
_0-2______1
  6
CONTINUOUS
 62
    1
 10
590.01027868606798
 20
897.35945117745086
 11
590.01027868606798
 21
898.64053060421202
  0
LINE
  8
_0-2______1
  6
CONTINUOUS
 62
    1
 10
569.36599874331205
 20
879.30095655305786
 11
569.36599874331205
 21
881.2304511814832
  0
LINE
  8
_0-2______1
  6
CONTINUOUS
 62
    1
 10
573.88127869010032
 20
873.4835958774288
 11
573.23023832567924
 21
873.4835958774288
  0
LINE
  8
_0-2______1
  6
CONTINUOUS
 62
    1
 10
573.23023832567924
 20
873.4835958774288
 11
572.57919796125907
 21
873.4835958774288
  0
LINE
  8
_0-2______1
  6
CONTINUOUS
 62
    1
 10
572.57919796125907
 20
873.4835958774288
 11
571.94915889891627
 21
873.4835958774288
  0
LINE
  8
_0-2______1
  6
CONTINUOUS
 62
    1
 10
571.94915889891627
 20
873.4835958774288
 11
571.2981185344961
 21
873.4835958774288
  0
LINE
  8
_0-2______1
  6
CONTINUOUS
 62
    1
 10
602.27503909966799
 20
908.97317122662889
 11
602.27503909966799
 21
908.32213086221009
  0
LINE
  8
_0-2______1
  6
CONTINUOUS
 62
    1
 10
602.27503909966799
 20
908.32213086221009
 11
601.62399873524828
 21
908.32213086221009
  0
LINE
  8
_0-2______1
  6
CONTINUOUS
 62
    1
 10
601.62399873524828
 20
908.32213086221009
 11
601.62399873524828
 21
907.6710904977881
  0
LINE
  8
_0-2______1
  6
CONTINUOUS
 62
    1
 10
601.62399873524828
 20
907.6710904977881
 11
600.9729583708272
 21
907.6710904977881
  0
LINE
  8
_0-2______1
  6
CONTINUOUS
 62
    1
 10
600.9729583708272
 20
907.6710904977881
 11
600.9729583708272
 21
907.02005013336793
  0
LINE
  8
_0-2______1
  6
CONTINUOUS
 62
    1
 10
600.9729583708272
 20
907.02005013336793
 11
600.9729583708272
 21
906.39263623378383
  0
LINE
  8
_0-2______1
  6
CONTINUOUS
 62
    1
 10
600.9729583708272
 20
906.39263623378383
 11
600.32191800640703
 21
906.39263623378383
  0
LINE
  8
_0-2______1
  6
CONTINUOUS
 62
    1
 10
600.32191800640703
 20
905.74159586936503
 11
600.32191800640703
 21
905.08530517942381
  0
LINE
  8
_0-2______1
  6
CONTINUOUS
 62
    1
 10
600.32191800640703
 20
905.08530517942381
 11
600.32191800640703
 21
904.45789127984199
  0
LINE
  8
_0-2______1
  6
CONTINUOUS
 62
    1
 10
600.32191800640703
 20
904.45789127984199
 11
600.32191800640703
 21
903.80685091542182
  0
LINE
  8
_0-2______1
  6
CONTINUOUS
 62
    1
 10
581.63075915691297
 20
890.89105013739891
 11
581.63075915691297
 21
890.2636362378189
  0
LINE
  8
_0-2______1
  6
CONTINUOUS
 62
    1
 10
581.63075915691297
 20
890.2636362378189
 11
580.97971879249189
 21
890.2636362378189
  0
LINE
  8
_0-2______1
  6
CONTINUOUS
 62
    1
 10
580.32867842807218
 20
888.95630518345706
 11
579.6776380636511
 21
888.95630518345706
  0
LINE
  8
_0-2______1
  6
CONTINUOUS
 62
    1
 10
579.6776380636511
 20
888.32889128387296
 11
579.6776380636511
 21
887.02681055503399
  0
LINE
  8
_0-2______1
  6
CONTINUOUS
 62
    1
 10
579.6776380636511
 20
886.375770190612
 11
580.32867842807218
 21
886.375770190612
  0
LINE
  8
_0-2______1
  6
CONTINUOUS
 62
    1
 10
727.42179818296518
 20
1014.1293158943522
 11
726.79175912062192
 21
1014.1293158943522
  0
LINE
  8
_0-2______1
  6
CONTINUOUS
 62
    1
 10
726.79175912062192
 20
1014.1293158943522
 11
726.1407187562022
 21
1014.1293158943522
  0
LINE
  8
_0-2______1
  6
CONTINUOUS
 62
    1
 10
726.1407187562022
 20
1014.1293158943522
 11
725.48967839178113
 21
1014.1293158943522
  0
LINE
  8
_0-2______1
  6
CONTINUOUS
 62
    1
 10
725.48967839178113
 20
1014.1293158943522
 11
724.83863802736005
 21
1013.4782755299302
  0
LINE
  8
_0-2______1
  6
CONTINUOUS
 62
    1
 10
724.83863802736005
 20
1013.4782755299302
 11
724.83863802736005
 21
1012.191945777648
  0
LINE
  8
_0-2______1
  6
CONTINUOUS
 62
    1
 10
724.83863802736005
 20
1012.191945777648
 11
724.83863802736005
 21
1010.2624511492249
  0
LINE
  8
_0-2______1
  6
CONTINUOUS
 62
    1
 10
724.83863802736005
 20
1010.2624511492249
 11
725.48967839178113
 21
1010.2624511492249
  0
LINE
  8
_0-2______1
  6
CONTINUOUS
 62
    1
 10
725.48967839178113
 20
1010.2624511492249
 11
725.48967839178113
 21
1009.6114107848039
  0
LINE
  8
_0-2______1
  6
CONTINUOUS
 62
    1
 10
725.48967839178113
 20
1009.6114107848039
 11
726.1407187562022
 21
1009.6114107848039
  0
LINE
  8
_0-2______1
  6
CONTINUOUS
 62
    1
 10
726.1407187562022
 20
1009.6114107848039
 11
726.79175912062192
 21
1009.6114107848039
  0
LINE
  8
_0-2______1
  6
CONTINUOUS
 62
    1
 10
726.79175912062192
 20
1009.6114107848039
 11
726.79175912062192
 21
1008.9603704203828
  0
LINE
  8
_0-2______1
  6
CONTINUOUS
 62
    1
 10
727.42179818296518
 20
1008.9603704203828
 11
728.07283854738489
 21
1008.9603704203828
  0
LINE
  8
_0-2______1
  6
CONTINUOUS
 62
    1
 10
728.07283854738489
 20
1008.9603704203828
 11
728.72387891180597
 21
1008.9603704203828
  0
LINE
  8
_0-2______1
  6
CONTINUOUS
 62
    1
 10
728.72387891180597
 20
1008.9603704203828
 11
729.35391797414923
 21
1008.9603704203828
  0
LINE
  8
_0-2______1
  6
CONTINUOUS
 62
    1
 10
729.35391797414923
 20
1008.9603704203828
 11
729.35391797414923
 21
1010.2624511492249
  0
LINE
  8
_0-2______1
  6
CONTINUOUS
 62
    1
 10
729.35391797414923
 20
1010.2624511492249
 11
730.00495833856894
 21
1010.2624511492249
  0
LINE
  8
_0-2______1
  6
CONTINUOUS
 62
    1
 10
730.00495833856894
 20
1010.2624511492249
 11
730.00495833856894
 21
1011.543530575987
  0
LINE
  8
_0-2______1
  6
CONTINUOUS
 62
    1
 10
730.00495833856894
 20
1011.543530575987
 11
729.35391797414923
 21
1011.543530575987
  0
LINE
  8
_0-2______1
  6
CONTINUOUS
 62
    1
 10
729.35391797414923
 20
1011.543530575987
 11
729.35391797414923
 21
1012.8429861420682
  0
LINE
  8
_0-2______1
  6
CONTINUOUS
 62
    1
 10
729.35391797414923
 20
1012.8429861420682
 11
728.72387891180597
 21
1013.4782755299302
  0
LINE
  8
_0-2______1
  6
CONTINUOUS
 62
    1
 10
728.72387891180597
 20
1013.4782755299302
 11
728.07283854738489
 21
1013.4782755299302
  0
LINE
  8
_0-2______1
  6
CONTINUOUS
 62
    1
 10
728.07283854738489
 20
1013.4782755299302
 11
728.07283854738489
 21
1014.1293158943522
  0
LINE
  8
_0-2______1
  6
CONTINUOUS
 62
    1
 10
728.07283854738489
 20
1014.1293158943522
 11
727.42179818296518
 21
1014.1293158943522
  0
LINE
  8
_0-2______1
  6
CONTINUOUS
 62
    1
 10
562.26755864092002
 20
865.73149024785698
 11
562.26755864092002
 21
866.38253061227715
  0
LINE
  8
_0-2______1
  6
CONTINUOUS
 62
    1
 10
562.26755864092002
 20
866.38253061227715
 11
561.6165182765003
 21
866.38253061227715
  0
LINE
  8
_0-2______1
  6
CONTINUOUS
 62
    1
 10
561.6165182765003
 20
866.38253061227715
 11
561.6165182765003
 21
867.0309458139368
  0
LINE
  8
_0-2______1
  6
CONTINUOUS
 62
    1
 10
561.6165182765003
 20
867.0309458139368
 11
560.98647921415704
 21
867.0309458139368
  0
LINE
  8
_0-2______1
  6
CONTINUOUS
 62
    1
 10
560.98647921415704
 20
867.0309458139368
 11
560.33543884973597
 21
867.0309458139368
  0
LINE
  8
_0-2______1
  6
CONTINUOUS
 62
    1
 10
560.33543884973597
 20
867.0309458139368
 11
560.33543884973597
 21
868.31727556622081
  0
LINE
  8
_0-2______1
  6
CONTINUOUS
 62
    1
 10
560.33543884973597
 20
868.31727556622081
 11
559.68439848531625
 21
868.31727556622081
  0
LINE
  8
_0-2______1
  6
CONTINUOUS
 62
    1
 10
559.68439848531625
 20
868.31727556622081
 11
559.68439848531625
 21
871.54885092348604
  0
LINE
  8
_0-2______1
  6
CONTINUOUS
 62
    1
 10
559.68439848531625
 20
871.54885092348604
 11
560.33543884973597
 21
871.54885092348604
  0
LINE
  8
_0-2______1
  6
CONTINUOUS
 62
    1
 10
614.5187982111911
 20
912.83741080899699
 11
614.5187982111911
 21
913.48845117341716
  0
LINE
  8
_0-2______1
  6
CONTINUOUS
 62
    1
 10
614.5187982111911
 20
913.48845117341716
 11
613.88875914884829
 21
913.48845117341716
  0
LINE
  8
_0-2______1
  6
CONTINUOUS
 62
    1
 10
613.88875914884829
 20
913.48845117341716
 11
613.88875914884829
 21
915.41794580184205
  0
LINE
  8
_0-2______1
  6
CONTINUOUS
 62
    1
 10
611.93563805558597
 20
914.76953060018104
 11
611.30559899324408
 21
914.76953060018104
  0
LINE
  8
_0-2______1
  6
CONTINUOUS
 62
    1
 10
611.30559899324408
 20
914.76953060018104
 11
610.65455862882391
 21
914.76953060018104
  0
LINE
  8
_0-2______1
  6
CONTINUOUS
 62
    1
 10
610.65455862882391
 20
914.76953060018104
 11
610.00351826440328
 21
914.76953060018104
  0
LINE
  8
_0-2______1
  6
CONTINUOUS
 62
    1
 10
612.58667842000705
 20
914.76953060018104
 11
611.93563805558597
 21
914.76953060018104
  0
LINE
  8
_0-2______1
  6
CONTINUOUS
 62
    1
 10
603.55611852643096
 20
901.22631592257721
 11
602.90507816201125
 21
901.22631592257721
  0
LINE
  8
_0-2______1
  6
CONTINUOUS
 62
    1
 10
602.90507816201125
 20
901.22631592257721
 11
602.27503909966799
 21
901.22631592257721
  0
LINE
  8
_0-2______1
  6
CONTINUOUS
 62
    1
 10
602.27503909966799
 20
901.22631592257721
 11
602.27503909966799
 21
902.50477018658012
  0
LINE
  8
_0-2______1
  6
CONTINUOUS
 62
    1
 10
602.27503909966799
 20
902.50477018658012
 11
601.62399873524828
 21
902.50477018658012
  0
LINE
  8
_0-2______1
  6
CONTINUOUS
 62
    1
 10
601.62399873524828
 20
902.50477018658012
 11
600.9729583708272
 21
902.50477018658012
  0
LINE
  8
_0-2______1
  6
CONTINUOUS
 62
    1
 10
600.9729583708272
 20
902.50477018658012
 11
600.9729583708272
 21
903.80685091542182
  0
LINE
  8
_0-2______1
  6
CONTINUOUS
 62
    1
 10
600.9729583708272
 20
903.80685091542182
 11
600.32191800640703
 21
903.80685091542182
  0
LINE
  8
_0-2______1
  6
CONTINUOUS
 62
    1
 10
600.32191800640703
 20
903.80685091542182
 11
600.32191800640703
 21
904.45526611708283
  0
LINE
  8
_0-2______1
  6
CONTINUOUS
 62
    1
 10
600.32191800640703
 20
904.45526611708283
 11
600.32191800640703
 21
906.39263623378383
  0
LINE
  8
_0-2______1
  6
CONTINUOUS
 62
    1
 10
600.32191800640703
 20
906.39263623378383
 11
600.9729583708272
 21
907.02005013336793
  0
LINE
  8
_0-2______1
  6
CONTINUOUS
 62
    1
 10
582.91183858367503
 20
883.8109861743269
 11
582.26079821925532
 21
883.8109861743269
  0
LINE
  8
_0-2______1
  6
CONTINUOUS
 62
    1
 10
582.26079821925532
 20
883.8109861743269
 11
582.26079821925532
 21
884.44627556218893
  0
LINE
  8
_0-2______1
  6
CONTINUOUS
 62
    1
 10
582.26079821925532
 20
884.44627556218893
 11
581.63075915691297
 21
884.44627556218893
  0
LINE
  8
_0-2______1
  6
CONTINUOUS
 62
    1
 10
581.63075915691297
 20
884.44627556218893
 11
580.97971879249189
 21
884.44627556218893
  0
LINE
  8
_0-2______1
  6
CONTINUOUS
 62
    1
 10
580.97971879249189
 20
884.44627556218893
 11
580.97971879249189
 21
885.74573112827011
  0
LINE
  8
_0-2______1
  6
CONTINUOUS
 62
    1
 10
580.97971879249189
 20
885.74573112827011
 11
580.32867842807218
 21
885.74573112827011
  0
LINE
  8
_0-2______1
  6
CONTINUOUS
 62
    1
 10
580.32867842807218
 20
885.74573112827011
 11
580.32867842807218
 21
886.375770190612
  0
LINE
  8
_0-2______1
  6
CONTINUOUS
 62
    1
 10
580.32867842807218
 20
886.375770190612
 11
579.6776380636511
 21
886.375770190612
  0
LINE
  8
_0-2______1
  6
CONTINUOUS
 62
    1
 10
579.6776380636511
 20
886.375770190612
 11
579.6776380636511
 21
888.95630518345706
  0
LINE
  8
_0-2______1
  6
CONTINUOUS
 62
    1
 10
579.6776380636511
 20
888.95630518345706
 11
580.32867842807218
 21
888.95630518345706
  0
LINE
  8
_0-2______1
  6
CONTINUOUS
 62
    1
 10
580.32867842807218
 20
888.95630518345706
 11
580.32867842807218
 21
889.612595873396
  0
LINE
  8
_0-2______1
  6
CONTINUOUS
 62
    1
 10
580.32867842807218
 20
889.612595873396
 11
580.97971879249189
 21
889.612595873396
  0
LINE
  8
_0-2______1
  6
CONTINUOUS
 62
    1
 10
614.5187982111911
 20
908.97317122662889
 11
614.5187982111911
 21
909.60058512621299
  0
LINE
  8
_0-2______1
  6
CONTINUOUS
 62
    1
 10
614.5187982111911
 20
909.60058512621299
 11
615.16983857561127
 21
910.2516254906318
  0
LINE
  8
_0-2______1
  6
CONTINUOUS
 62
    1
 10
615.16983857561127
 20
910.2516254906318
 11
615.16983857561127
 21
912.18637044457682
  0
LINE
  8
_0-2______1
  6
CONTINUOUS
 62
    1
 10
615.16983857561127
 20
912.18637044457682
 11
614.5187982111911
 21
912.18637044457682
  0
LINE
  8
_0-2______1
  6
CONTINUOUS
 62
    1
 10
614.5187982111911
 20
912.18637044457682
 11
614.5187982111911
 21
912.83741080899699
  0
LINE
  8
_0-2______1
  6
CONTINUOUS
 62
    1
 10
606.13927868203518
 20
901.22631592257721
 11
605.4882383176141
 21
901.22631592257721
  0
LINE
  8
_0-2______1
  6
CONTINUOUS
 62
    1
 10
605.4882383176141
 20
901.22631592257721
 11
604.83719795319394
 21
901.22631592257721
  0
LINE
  8
_0-2______1
  6
CONTINUOUS
 62
    1
 10
604.83719795319394
 20
901.22631592257721
 11
604.20715889085204
 21
901.22631592257721
  0
LINE
  8
_0-2______1
  6
CONTINUOUS
 62
    1
 10
604.20715889085204
 20
901.22631592257721
 11
603.55611852643096
 21
901.22631592257721
  0
LINE
  8
_0-2______1
  6
CONTINUOUS
 62
    1
 10
585.49499873928016
 20
884.44627556218893
 11
585.49499873928016
 21
883.8109861743269
  0
LINE
  8
_0-2______1
  6
CONTINUOUS
 62
    1
 10
585.49499873928016
 20
883.8109861743269
 11
584.84395837485908
 21
883.8109861743269
  0
LINE
  8
_0-2______1
  6
CONTINUOUS
 62
    1
 10
584.84395837485908
 20
883.8109861743269
 11
584.84395837485908
 21
883.15994580990491
  0
LINE
  8
_0-2______1
  6
CONTINUOUS
 62
    1
 10
584.84395837485908
 20
883.15994580990491
 11
584.19291801043892
 21
883.15994580990491
  0
LINE
  8
_0-2______1
  6
CONTINUOUS
 62
    1
 10
584.19291801043892
 20
883.15994580990491
 11
583.56287894809611
 21
883.15994580990491
  0
LINE
  8
_0-2______1
  6
CONTINUOUS
 62
    1
 10
583.56287894809611
 20
883.15994580990491
 11
583.56287894809611
 21
883.8109861743269
  0
LINE
  8
_0-2______1
  6
CONTINUOUS
 62
    1
 10
583.56287894809611
 20
883.8109861743269
 11
582.91183858367503
 21
883.8109861743269
  0
LINE
  8
_0-2______1
  6
CONTINUOUS
 62
    1
 10
565.50175916094531
 20
866.38253061227715
 11
564.85071879652423
 21
866.38253061227715
  0
LINE
  8
_0-2______1
  6
CONTINUOUS
 62
    1
 10
564.85071879652423
 20
866.38253061227715
 11
564.85071879652423
 21
865.73149024785698
  0
LINE
  8
_0-2______1
  6
CONTINUOUS
 62
    1
 10
564.85071879652423
 20
865.73149024785698
 11
564.19967843210406
 21
865.73149024785698
  0
LINE
  8
_0-2______1
  6
CONTINUOUS
 62
    1
 10
564.19967843210406
 20
865.73149024785698
 11
563.54863806768299
 21
865.73149024785698
  0
LINE
  8
_0-2______1
  6
CONTINUOUS
 62
    1
 10
563.54863806768299
 20
865.73149024785698
 11
562.91859900534109
 21
865.73149024785698
  0
LINE
  8
_0-2______1
  6
CONTINUOUS
 62
    1
 10
562.91859900534109
 20
865.73149024785698
 11
562.26755864092002
 21
865.73149024785698
  0
LINE
  8
_0-2______1
  6
CONTINUOUS
 62
    1
 10
611.93563805558597
 20
908.32213086221009
 11
612.58667842000705
 21
908.32213086221009
  0
LINE
  8
_0-2______1
  6
CONTINUOUS
 62
    1
 10
612.58667842000705
 20
908.32213086221009
 11
613.23771878442722
 21
908.32213086221009
  0
LINE
  8
_0-2______1
  6
CONTINUOUS
 62
    1
 10
613.23771878442722
 20
908.32213086221009
 11
613.88875914884829
 21
908.32213086221009
  0
LINE
  8
_0-2______1
  6
CONTINUOUS
 62
    1
 10
613.88875914884829
 20
908.32213086221009
 11
613.88875914884829
 21
908.97317122662889
  0
LINE
  8
_0-2______1
  6
CONTINUOUS
 62
    1
 10
613.88875914884829
 20
908.97317122662889
 11
614.5187982111911
 21
908.97317122662889
  0
LINE
  8
_0-2______1
  6
CONTINUOUS
 62
    1
 10
609.37347920206003
 20
914.76953060018104
 11
609.37347920206003
 21
914.11849023576087
  0
LINE
  8
_0-2______1
  6
CONTINUOUS
 62
    1
 10
609.37347920206003
 20
914.11849023576087
 11
608.72243883764031
 21
914.11849023576087
  0
LINE
  8
_0-2______1
  6
CONTINUOUS
 62
    1
 10
608.72243883764031
 20
914.11849023576087
 11
608.72243883764031
 21
911.55895654499409
  0
LINE
  8
_0-2______1
  6
CONTINUOUS
 62
    1
 10
608.72243883764031
 20
911.55895654499409
 11
608.72243883764031
 21
910.90266585505378
  0
LINE
  8
_0-2______1
  6
CONTINUOUS
 62
    1
 10
608.72243883764031
 20
910.90266585505378
 11
609.37347920206003
 21
910.90266585505378
  0
LINE
  8
_0-2______1
  6
CONTINUOUS
 62
    1
 10
609.37347920206003
 20
910.90266585505378
 11
609.37347920206003
 21
910.2516254906318
  0
LINE
  8
_0-2______1
  6
CONTINUOUS
 62
    1
 10
609.37347920206003
 20
910.2516254906318
 11
610.00351826440328
 21
910.2516254906318
  0
LINE
  8
_0-2______1
  6
CONTINUOUS
 62
    1
 10
610.00351826440328
 20
910.2516254906318
 11
610.00351826440328
 21
909.60058512621299
  0
LINE
  8
_0-2______1
  6
CONTINUOUS
 62
    1
 10
610.00351826440328
 20
909.60058512621299
 11
610.65455862882391
 21
908.97317122662889
  0
LINE
  8
_0-2______1
  6
CONTINUOUS
 62
    1
 10
610.65455862882391
 20
908.97317122662889
 11
611.30559899324408
 21
908.97317122662889
  0
LINE
  8
_0-2______1
  6
CONTINUOUS
 62
    1
 10
611.30559899324408
 20
908.97317122662889
 11
611.93563805558597
 21
908.97317122662889
  0
LINE
  8
_0-2______1
  6
CONTINUOUS
 62
    1
 10
611.93563805558597
 20
908.97317122662889
 11
611.93563805558597
 21
908.32213086221009
  0
LINE
  8
_0-2______1
  6
CONTINUOUS
 62
    1
 10
588.70819795722718
 20
896.70841081302797
 11
588.70819795722718
 21
896.05737044860916
  0
LINE
  8
_0-2______1
  6
CONTINUOUS
 62
    1
 10
588.70819795722718
 20
896.05737044860916
 11
588.70819795722718
 21
895.42995654902597
  0
LINE
  8
_0-2______1
  6
CONTINUOUS
 62
    1
 10
568.06391801447126
 20
878.64466586311801
 11
568.06391801447126
 21
877.99362549869784
  0
LINE
  8
_0-2______1
  6
CONTINUOUS
 62
    1
 10
704.8453984490252
 20
997.3492755339621
 11
705.49643881344628
 21
997.3492755339621
  0
LINE
  8
_0-2______1
  6
CONTINUOUS
 62
    1
 10
705.49643881344628
 20
997.3492755339621
 11
705.49643881344628
 21
998.64873110004419
  0
LINE
  8
_0-2______1
  6
CONTINUOUS
 62
    1
 10
706.77751824020925
 20
990.89662547047283
 11
706.14747917786599
 21
990.89662547047283
  0
LINE
  8
_0-2______1
  6
CONTINUOUS
 62
    1
 10
706.14747917786599
 20
990.89662547047283
 11
706.14747917786599
 21
991.54766583489209
  0
LINE
  8
_0-2______1
  6
CONTINUOUS
 62
    1
 10
706.14747917786599
 20
991.54766583489209
 11
705.49643881344628
 21
991.54766583489209
  0
LINE
  8
_0-2______1
  6
CONTINUOUS
 62
    1
 10
705.49643881344628
 20
991.54766583489209
 11
704.8453984490252
 21
992.20395652483194
  0
LINE
  8
_0-2______1
  6
CONTINUOUS
 62
    1
 10
704.8453984490252
 20
992.20395652483194
 11
704.19435808460503
 21
992.20395652483194
  0
LINE
  8
_0-2______1
  6
CONTINUOUS
 62
    1
 10
704.19435808460503
 20
992.20395652483194
 11
704.19435808460503
 21
993.48241078883484
  0
LINE
  8
_0-2______1
  6
CONTINUOUS
 62
    1
 10
704.19435808460503
 20
993.48241078883484
 11
703.56431902226313
 21
994.13345115325683
  0
LINE
  8
_0-2______1
  6
CONTINUOUS
 62
    1
 10
703.56431902226313
 20
994.13345115325683
 11
703.56431902226313
 21
996.06294578167899
  0
LINE
  8
_0-2______1
  6
CONTINUOUS
 62
    1
 10
703.56431902226313
 20
996.06294578167899
 11
704.19435808460503
 21
996.06294578167899
  0
LINE
  8
_0-2______1
  6
CONTINUOUS
 62
    1
 10
704.19435808460503
 20
996.06294578167899
 11
704.19435808460503
 21
996.71398614610098
  0
LINE
  8
_0-2______1
  6
CONTINUOUS
 62
    1
 10
684.20111850627018
 20
979.28553058405123
 11
684.20111850627018
 21
979.93394578571178
  0
LINE
  8
_0-2______1
  6
CONTINUOUS
 62
    1
 10
684.20111850627018
 20
979.93394578571178
 11
684.85215887068989
 21
979.93394578571178
  0
LINE
  8
_0-2______1
  6
CONTINUOUS
 62
    1
 10
684.85215887068989
 20
979.93394578571178
 11
684.85215887068989
 21
980.58498615013286
  0
LINE
  8
_0-2______1
  6
CONTINUOUS
 62
    1
 10
686.78427866187394
 20
972.83813084607891
 11
686.13323829745423
 21
972.83813084607891
  0
LINE
  8
_0-2______1
  6
CONTINUOUS
 62
    1
 10
686.13323829745423
 20
972.83813084607891
 11
686.13323829745423
 21
973.4891712105009
  0
LINE
  8
_0-2______1
  6
CONTINUOUS
 62
    1
 10
686.13323829745423
 20
973.4891712105009
 11
685.48219793303315
 21
973.4891712105009
  0
LINE
  8
_0-2______1
  6
CONTINUOUS
 62
    1
 10
685.48219793303315
 20
973.4891712105009
 11
685.48219793303315
 21
974.11658511008318
  0
LINE
  8
_0-2______1
  6
CONTINUOUS
 62
    1
 10
685.48219793303315
 20
974.11658511008318
 11
684.85215887068989
 21
974.11658511008318
  0
LINE
  8
_0-2______1
  6
CONTINUOUS
 62
    1
 10
684.85215887068989
 20
974.11658511008318
 11
684.20111850627018
 21
974.7676254745038
  0
LINE
  8
_0-2______1
  6
CONTINUOUS
 62
    1
 10
684.20111850627018
 20
974.7676254745038
 11
684.20111850627018
 21
975.41866583892488
  0
LINE
  8
_0-2______1
  6
CONTINUOUS
 62
    1
 10
684.20111850627018
 20
975.41866583892488
 11
683.5500781418491
 21
975.41866583892488
  0
LINE
  8
_0-2______1
  6
CONTINUOUS
 62
    1
 10
683.5500781418491
 20
975.41866583892488
 11
683.5500781418491
 21
976.70237042844701
  0
LINE
  8
_0-2______1
  6
CONTINUOUS
 62
    1
 10
683.5500781418491
 20
976.70237042844701
 11
682.92003907950721
 21
976.70237042844701
  0
LINE
  8
_0-2______1
  6
CONTINUOUS
 62
    1
 10
682.92003907950721
 20
976.70237042844701
 11
682.92003907950721
 21
978.00445115728917
  0
LINE
  8
_0-2______1
  6
CONTINUOUS
 62
    1
 10
682.92003907950721
 20
978.00445115728917
 11
683.5500781418491
 21
978.00445115728917
  0
LINE
  8
_0-2______1
  6
CONTINUOUS
 62
    1
 10
683.5500781418491
 20
978.00445115728917
 11
683.5500781418491
 21
978.63449021963197
  0
LINE
  8
_0-2______1
  6
CONTINUOUS
 62
    1
 10
683.5500781418491
 20
978.63449021963197
 11
684.20111850627018
 21
978.63449021963197
  0
LINE
  8
_0-2______1
  6
CONTINUOUS
 62
    1
 10
684.20111850627018
 20
978.63449021963197
 11
684.20111850627018
 21
979.28553058405123
  0
LINE
  8
_0-2______1
  6
CONTINUOUS
 62
    1
 10
688.71639845305799
 20
973.4891712105009
 11
688.71639845305799
 21
972.83813084607891
  0
LINE
  8
_0-2______1
  6
CONTINUOUS
 62
    1
 10
688.71639845305799
 20
972.83813084607891
 11
688.06535808863691
 21
972.83813084607891
  0
LINE
  8
_0-2______1
  6
CONTINUOUS
 62
    1
 10
688.06535808863691
 20
972.83813084607891
 11
687.43531902629502
 21
972.83813084607891
  0
LINE
  8
_0-2______1
  6
CONTINUOUS
 62
    1
 10
687.43531902629502
 20
972.83813084607891
 11
686.78427866187394
 21
972.83813084607891
  0
LINE
  8
_0-2______1
  6
CONTINUOUS
 62
    1
 10
709.36067839581392
 20
991.54766583489209
 11
709.36067839581392
 21
990.89662547047283
  0
LINE
  8
_0-2______1
  6
CONTINUOUS
 62
    1
 10
709.36067839581392
 20
990.89662547047283
 11
708.7096380313933
 21
990.89662547047283
  0
LINE
  8
_0-2______1
  6
CONTINUOUS
 62
    1
 10
708.7096380313933
 20
990.89662547047283
 11
708.07959896905004
 21
990.89662547047283
  0
LINE
  8
_0-2______1
  6
CONTINUOUS
 62
    1
 10
708.07959896905004
 20
990.89662547047283
 11
707.42855860463033
 21
990.89662547047283
  0
LINE
  8
_0-2______1
  6
CONTINUOUS
 62
    1
 10
707.42855860463033
 20
990.89662547047283
 11
706.77751824020925
 21
990.89662547047283
  0
LINE
  8
_0-2______1
  6
CONTINUOUS
 62
    1
 10
695.81483855545002
 20
988.96713084204703
 11
695.81483855545002
 21
988.31609047762822
  0
LINE
  8
_0-2______1
  6
CONTINUOUS
 62
    1
 10
695.16379819103031
 20
988.31609047762822
 11
695.16379819103031
 21
987.66505011320578
  0
LINE
  8
_0-2______1
  6
CONTINUOUS
 62
    1
 10
695.16379819103031
 20
987.66505011320578
 11
695.16379819103031
 21
987.03763621362486
  0
LINE
  8
_0-2______1
  6
CONTINUOUS
 62
    1
 10
695.16379819103031
 20
987.03763621362486
 11
695.16379819103031
 21
986.38659584920288
  0
LINE
  8
_0-2______1
  6
CONTINUOUS
 62
    1
 10
717.11015886262612
 20
1008.332956520801
 11
717.11015886262612
 21
1007.6766658308602
  0
LINE
  8
_0-2______1
  6
CONTINUOUS
 62
    1
 10
717.11015886262612
 20
1007.6766658308602
 11
716.45911849820595
 21
1007.6766658308602
  0
LINE
  8
_0-2______1
  6
CONTINUOUS
 62
    1
 10
716.45911849820595
 20
1007.6766658308602
 11
716.45911849820595
 21
1007.0256254664391
  0
LINE
  8
_0-2______1
  6
CONTINUOUS
 62
    1
 10
696.46587891987019
 20
991.54766583489209
 11
696.46587891987019
 21
989.61817120646811
  0
LINE
  8
_0-2______1
  6
CONTINUOUS
 62
    1
 10
715.80807813378533
 20
1007.0256254664391
 11
715.80807813378533
 21
1006.374585102019
  0
LINE
  8
_0-2______1
  6
CONTINUOUS
 62
    1
 10
715.80807813378533
 20
1005.7471712024362
 11
715.80807813378533
 21
1005.0961308380161
  0
LINE
  8
_0-2______1
  6
CONTINUOUS
 62
    1
 10
715.80807813378533
 20
1005.0961308380161
 11
715.80807813378533
 21
1004.4450904735959
  0
LINE
  8
_0-2______1
  6
CONTINUOUS
 62
    1
 10
719.04227865380926
 20
1001.231891255648
 11
718.39123828938909
 21
1001.231891255648
  0
LINE
  8
_0-2______1
  6
CONTINUOUS
 62
    1
 10
718.39123828938909
 20
1001.231891255648
 11
717.74019792496802
 21
1001.231891255648
  0
LINE
  8
_0-2______1
  6
CONTINUOUS
 62
    1
 10
717.74019792496802
 20
1001.231891255648
 11
717.74019792496802
 21
1001.8593051552311
  0
LINE
  8
_0-2______1
  6
CONTINUOUS
 62
    1
 10
717.74019792496802
 20
1001.8593051552311
 11
717.11015886262612
 21
1001.8593051552311
  0
LINE
  8
_0-2______1
  6
CONTINUOUS
 62
    1
 10
717.11015886262612
 20
1001.8593051552311
 11
717.11015886262612
 21
1002.515595845171
  0
LINE
  8
_0-2______1
  6
CONTINUOUS
 62
    1
 10
717.11015886262612
 20
1002.515595845171
 11
716.45911849820595
 21
1002.515595845171
  0
LINE
  8
_0-2______1
  6
CONTINUOUS
 62
    1
 10
716.45911849820595
 20
1002.515595845171
 11
716.45911849820595
 21
1003.1666362095912
  0
LINE
  8
_0-2______1
  6
CONTINUOUS
 62
    1
 10
716.45911849820595
 20
1003.1666362095912
 11
715.80807813378533
 21
1003.1666362095912
  0
LINE
  8
_0-2______1
  6
CONTINUOUS
 62
    1
 10
715.80807813378533
 20
1003.1666362095912
 11
715.80807813378533
 21
1003.7940501091739
  0
LINE
  8
_0-2______1
  6
CONTINUOUS
 62
    1
 10
715.80807813378533
 20
1003.7940501091739
 11
715.80807813378533
 21
1007.0256254664391
  0
LINE
  8
_0-2______1
  6
CONTINUOUS
 62
    1
 10
715.80807813378533
 20
1007.0256254664391
 11
716.45911849820595
 21
1007.0256254664391
  0
LINE
  8
_0-2______1
  6
CONTINUOUS
 62
    1
 10
729.35391797414923
 20
1013.4782755299302
 11
729.35391797414923
 21
1014.1293158943522
  0
LINE
  8
_0-2______1
  6
CONTINUOUS
 62
    1
 10
729.35391797414923
 20
1014.1293158943522
 11
728.72387891180597
 21
1014.1293158943522
  0
LINE
  8
_0-2______1
  6
CONTINUOUS
 62
    1
 10
728.72387891180597
 20
1014.1293158943522
 11
728.72387891180597
 21
1015.4077701583551
  0
LINE
  8
_0-2______1
  6
CONTINUOUS
 62
    1
 10
727.42179818296518
 20
1014.7777310960118
 11
726.79175912062192
 21
1014.7777310960118
  0
LINE
  8
_0-2______1
  6
CONTINUOUS
 62
    1
 10
726.79175912062192
 20
1014.7777310960118
 11
726.1407187562022
 21
1014.7777310960118
  0
LINE
  8
_0-2______1
  6
CONTINUOUS
 62
    1
 10
726.1407187562022
 20
1014.7777310960118
 11
725.48967839178113
 21
1014.7777310960118
  0
LINE
  8
_0-2______1
  6
CONTINUOUS
 62
    1
 10
725.48967839178113
 20
1014.7777310960118
 11
724.83863802736005
 21
1014.1293158943522
  0
LINE
  8
_0-2______1
  6
CONTINUOUS
 62
    1
 10
727.42179818296518
 20
1014.1293158943522
 11
727.42179818296518
 21
1014.7777310960118
  0
LINE
  8
_0-2______1
  6
CONTINUOUS
 62
    1
 10
698.39799871105424
 20
983.80081053084086
 11
697.74695834663407
 21
983.80081053084086
  0
LINE
  8
_0-2______1
  6
CONTINUOUS
 62
    1
 10
697.74695834663407
 20
983.80081053084086
 11
697.09591798221209
 21
983.80081053084086
  0
LINE
  8
_0-2______1
  6
CONTINUOUS
 62
    1
 10
697.09591798221209
 20
983.80081053084086
 11
697.09591798221209
 21
984.45185089526012
  0
LINE
  8
_0-2______1
  6
CONTINUOUS
 62
    1
 10
697.09591798221209
 20
984.45185089526012
 11
696.46587891987019
 21
984.45185089526012
  0
LINE
  8
_0-2______1
  6
CONTINUOUS
 62
    1
 10
696.46587891987019
 20
984.45185089526012
 11
696.46587891987019
 21
985.10026609692204
  0
LINE
  8
_0-2______1
  6
CONTINUOUS
 62
    1
 10
696.46587891987019
 20
985.10026609692204
 11
695.81483855545002
 21
985.10026609692204
  0
LINE
  8
_0-2______1
  6
CONTINUOUS
 62
    1
 10
695.81483855545002
 20
985.10026609692204
 11
695.81483855545002
 21
986.38659584920288
  0
LINE
  8
_0-2______1
  6
CONTINUOUS
 62
    1
 10
695.81483855545002
 20
986.38659584920288
 11
695.16379819103031
 21
986.38659584920288
  0
LINE
  8
_0-2______1
  6
CONTINUOUS
 62
    1
 10
695.16379819103031
 20
986.38659584920288
 11
695.16379819103031
 21
988.31609047762822
  0
LINE
  8
_0-2______1
  6
CONTINUOUS
 62
    1
 10
695.16379819103031
 20
988.31609047762822
 11
695.81483855545002
 21
988.31609047762822
  0
LINE
  8
_0-2______1
  6
CONTINUOUS
 62
    1
 10
695.81483855545002
 20
988.31609047762822
 11
695.81483855545002
 21
989.61817120646811
  0
LINE
  8
_0-2______1
  6
CONTINUOUS
 62
    1
 10
680.33687892390299
 20
966.39073110810796
 11
680.33687892390299
 21
965.74231590644786
  0
LINE
  8
_0-2______1
  6
CONTINUOUS
 62
    1
 10
680.33687892390299
 20
965.74231590644786
 11
679.68583855948191
 21
965.74231590644786
  0
LINE
  8
_0-2______1
  6
CONTINUOUS
 62
    1
 10
679.68583855948191
 20
965.74231590644786
 11
679.03479819506219
 21
965.74231590644786
  0
LINE
  8
_0-2______1
  6
CONTINUOUS
 62
    1
 10
679.03479819506219
 20
965.74231590644786
 11
678.40475913271894
 21
965.74231590644786
  0
LINE
  8
_0-2______1
  6
CONTINUOUS
 62
    1
 10
678.40475913271894
 20
965.74231590644786
 11
677.75371876829831
 21
965.74231590644786
  0
LINE
  8
_0-2______1
  6
CONTINUOUS
 62
    1
 10
677.75371876829831
 20
965.74231590644786
 11
677.75371876829831
 21
966.39073110810796
  0
LINE
  8
_0-2______1
  6
CONTINUOUS
 62
    1
 10
677.75371876829831
 20
966.39073110810796
 11
677.10267840387814
 21
966.39073110810796
  0
LINE
  8
_0-2______1
  6
CONTINUOUS
 62
    1
 10
677.10267840387814
 20
966.39073110810796
 11
676.45163803945707
 21
966.39073110810796
  0
LINE
  8
_0-2______1
  6
CONTINUOUS
 62
    1
 10
676.45163803945707
 20
966.39073110810796
 11
676.45163803945707
 21
967.02077017045121
  0
LINE
  8
_0-2______1
  6
CONTINUOUS
 62
    1
 10
676.45163803945707
 20
967.02077017045121
 11
675.82159897711426
 21
967.02077017045121
  0
LINE
  8
_0-2______1
  6
CONTINUOUS
 62
    1
 10
675.82159897711426
 20
967.02077017045121
 11
675.82159897711426
 21
967.67181053487184
  0
LINE
  8
_0-2______1
  6
CONTINUOUS
 62
    1
 10
675.82159897711426
 20
967.67181053487184
 11
675.17055861269409
 21
967.67181053487184
  0
LINE
  8
_0-2______1
  6
CONTINUOUS
 62
    1
 10
675.17055861269409
 20
967.67181053487184
 11
675.17055861269409
 21
968.97389126371218
  0
LINE
  8
_0-2______1
  6
CONTINUOUS
 62
    1
 10
675.17055861269409
 20
968.97389126371218
 11
675.17055861269409
 21
969.60130516329491
  0
LINE
  8
_0-2______1
  6
CONTINUOUS
 62
    1
 10
675.17055861269409
 20
969.60130516329491
 11
674.51951824827393
 21
969.60130516329491
  0
LINE
  8
_0-2______1
  6
CONTINUOUS
 62
    1
 10
674.51951824827393
 20
969.60130516329491
 11
674.51951824827393
 21
970.25759585323522
  0
LINE
  8
_0-2______1
  6
CONTINUOUS
 62
    1
 10
674.51951824827393
 20
970.25759585323522
 11
675.17055861269409
 21
970.25759585323522
  0
LINE
  8
_0-2______1
  6
CONTINUOUS
 62
    1
 10
675.17055861269409
 20
970.25759585323522
 11
675.17055861269409
 21
972.1870904816592
  0
LINE
  8
_0-2______1
  6
CONTINUOUS
 62
    1
 10
700.98115886665801
 20
983.80081053084086
 11
700.33011850223829
 21
983.80081053084086
  0
LINE
  8
_0-2______1
  6
CONTINUOUS
 62
    1
 10
700.33011850223829
 20
983.80081053084086
 11
699.67907813781721
 21
983.80081053084086
  0
LINE
  8
_0-2______1
  6
CONTINUOUS
 62
    1
 10
699.67907813781721
 20
983.80081053084086
 11
699.04903907547532
 21
983.80081053084086
  0
LINE
  8
_0-2______1
  6
CONTINUOUS
 62
    1
 10
699.04903907547532
 20
983.80081053084086
 11
698.39799871105424
 21
983.80081053084086
  0
LINE
  8
_0-2______1
  6
CONTINUOUS
 62
    1
 10
720.97439844499331
 20
1001.8593051552311
 11
720.97439844499331
 21
1001.231891255648
  0
LINE
  8
_0-2______1
  6
CONTINUOUS
 62
    1
 10
720.97439844499331
 20
1001.231891255648
 11
720.32335808057314
 21
1001.231891255648
  0
LINE
  8
_0-2______1
  6
CONTINUOUS
 62
    1
 10
720.32335808057314
 20
1001.231891255648
 11
719.69331901822989
 21
1001.231891255648
  0
LINE
  8
_0-2______1
  6
CONTINUOUS
 62
    1
 10
719.69331901822989
 20
1001.231891255648
 11
719.04227865380926
 21
1001.231891255648
  0
LINE
  8
_0-2______1
  6
CONTINUOUS
 62
    1
 10
729.35391797414923
 20
1008.9603704203828
 11
730.00495833856894
 21
1008.9603704203828
  0
LINE
  8
_0-2______1
  6
CONTINUOUS
 62
    1
 10
730.00495833856894
 20
1008.9603704203828
 11
730.00495833856894
 21
1009.6114107848039
  0
LINE
  8
_0-2______1
  6
CONTINUOUS
 62
    1
 10
730.00495833856894
 20
1009.6114107848039
 11
730.65599870298911
 21
1009.6114107848039
  0
LINE
  8
_0-2______1
  6
CONTINUOUS
 62
    1
 10
730.65599870298911
 20
1009.6114107848039
 11
730.65599870298911
 21
1012.191945777648
  0
LINE
  8
_0-2______1
  6
CONTINUOUS
 62
    1
 10
730.65599870298911
 20
1012.191945777648
 11
730.00495833856894
 21
1012.191945777648
  0
LINE
  8
_0-2______1
  6
CONTINUOUS
 62
    1
 10
730.00495833856894
 20
1012.191945777648
 11
730.00495833856894
 21
1012.8429861420682
  0
LINE
  8
_0-2______1
  6
CONTINUOUS
 62
    1
 10
730.00495833856894
 20
1012.8429861420682
 11
729.35391797414923
 21
1012.8429861420682
  0
LINE
  8
_0-2______1
  6
CONTINUOUS
 62
    1
 10
729.35391797414923
 20
1012.8429861420682
 11
729.35391797414923
 21
1013.4782755299302
  0
LINE
  8
_0-2______1
  6
CONTINUOUS
 62
    1
 10
683.5500781418491
 20
978.63449021963197
 11
683.5500781418491
 21
978.00445115728917
  0
LINE
  8
_0-2______1
  6
CONTINUOUS
 62
    1
 10
683.5500781418491
 20
978.00445115728917
 11
682.92003907950721
 21
978.00445115728917
  0
LINE
  8
_0-2______1
  6
CONTINUOUS
 62
    1
 10
704.19435808460503
 20
996.06294578167899
 11
703.56431902226313
 21
996.06294578167899
  0
LINE
  8
_0-2______1
  6
CONTINUOUS
 62
    1
 10
703.56431902226313
 20
996.06294578167899
 11
703.56431902226313
 21
995.41453058001889
  0
LINE
  8
_0-2______1
  6
CONTINUOUS
 62
    1
 10
727.42179818296518
 20
1008.332956520801
 11
728.07283854738489
 21
1008.332956520801
  0
LINE
  8
_0-2______1
  6
CONTINUOUS
 62
    1
 10
728.07283854738489
 20
1008.332956520801
 11
728.72387891180597
 21
1008.332956520801
  0
LINE
  8
_0-2______1
  6
CONTINUOUS
 62
    1
 10
728.72387891180597
 20
1008.332956520801
 11
729.35391797414923
 21
1008.332956520801
  0
LINE
  8
_0-2______1
  6
CONTINUOUS
 62
    1
 10
729.35391797414923
 20
1008.332956520801
 11
729.35391797414923
 21
1008.9603704203828
  0
LINE
  8
_0-2______1
  6
CONTINUOUS
 62
    1
 10
724.83863802736005
 20
1014.1293158943522
 11
724.20859896501815
 21
1013.4782755299302
  0
LINE
  8
_0-2______1
  6
CONTINUOUS
 62
    1
 10
724.20859896501815
 20
1013.4782755299302
 11
724.20859896501815
 21
1010.8924902115682
  0
LINE
  8
_0-2______1
  6
CONTINUOUS
 62
    1
 10
724.20859896501815
 20
1010.8924902115682
 11
724.83863802736005
 21
1010.8924902115682
  0
LINE
  8
_0-2______1
  6
CONTINUOUS
 62
    1
 10
724.83863802736005
 20
1010.8924902115682
 11
724.83863802736005
 21
1009.6114107848039
  0
LINE
  8
_0-2______1
  6
CONTINUOUS
 62
    1
 10
724.83863802736005
 20
1009.6114107848039
 11
725.48967839178113
 21
1009.6114107848039
  0
LINE
  8
_0-2______1
  6
CONTINUOUS
 62
    1
 10
725.48967839178113
 20
1009.6114107848039
 11
725.48967839178113
 21
1008.9603704203828
  0
LINE
  8
_0-2______1
  6
CONTINUOUS
 62
    1
 10
725.48967839178113
 20
1008.9603704203828
 11
726.1407187562022
 21
1008.9603704203828
  0
LINE
  8
_0-2______1
  6
CONTINUOUS
 62
    1
 10
726.1407187562022
 20
1008.9603704203828
 11
726.79175912062192
 21
1008.332956520801
  0
LINE
  8
_0-2______1
  6
CONTINUOUS
 62
    1
 10
635.16307815394612
 20
890.2636362378189
 11
635.8141185183672
 21
890.2636362378189
  0
LINE
  8
_0-2______1
  6
CONTINUOUS
 62
    1
 10
635.8141185183672
 20
890.2636362378189
 11
635.8141185183672
 21
888.95630518345706
  0
LINE
  8
_0-2______1
  6
CONTINUOUS
 62
    1
 10
635.8141185183672
 20
888.95630518345706
 11
636.46515888278691
 21
888.95630518345706
  0
LINE
  8
_0-2______1
  6
CONTINUOUS
 62
    1
 10
636.46515888278691
 20
888.95630518345706
 11
637.09519794513017
 21
888.95630518345706
  0
LINE
  8
_0-2______1
  6
CONTINUOUS
 62
    1
 10
637.09519794513017
 20
888.95630518345706
 11
637.74623830955125
 21
888.32626612111517
  0
LINE
  8
_0-2______1
  6
CONTINUOUS
 62
    1
 10
637.74623830955125
 20
888.32626612111517
 11
638.39727867397096
 21
888.32626612111517
  0
LINE
  8
_0-2______1
  6
CONTINUOUS
 62
    1
 10
920.96979813457801
 20
926.38062548659991
 11
920.96979813457801
 21
925.72958512218111
  0
LINE
  8
_0-2______1
  6
CONTINUOUS
 62
    1
 10
919.68871870781504
 20
925.72958512218111
 11
920.33975907223521
 21
925.72958512218111
  0
LINE
  8
_0-2______1
  6
CONTINUOUS
 62
    1
 10
920.33975907223521
 20
925.72958512218111
 11
920.33975907223521
 21
926.38062548659991
  0
LINE
  8
_0-2______1
  6
CONTINUOUS
 62
    1
 10
920.33975907223521
 20
926.38062548659991
 11
920.96979813457801
 21
926.38062548659991
  0
LINE
  8
_0-2______1
  6
CONTINUOUS
 62
    1
 10
810.64995831840815
 20
838.6398105671301
 11
811.30099868282832
 21
838.6398105671301
  0
LINE
  8
_0-2______1
  6
CONTINUOUS
 62
    1
 10
811.30099868282832
 20
838.6398105671301
 11
811.95203904724895
 21
837.98877020270993
  0
LINE
  8
_0-2______1
  6
CONTINUOUS
 62
    1
 10
811.95203904724895
 20
837.98877020270993
 11
812.5820781095922
 21
837.98877020270993
  0
LINE
  8
_0-2______1
  6
CONTINUOUS
 62
    1
 10
812.5820781095922
 20
837.98877020270993
 11
813.23311847401192
 21
837.98877020270993
  0
LINE
  8
_0-2______1
  6
CONTINUOUS
 62
    1
 10
813.23311847401192
 20
837.98877020270993
 11
813.88415883843209
 21
837.98877020270993
  0
LINE
  8
_0-2______1
  6
CONTINUOUS
 62
    1
 10
813.88415883843209
 20
837.98877020270993
 11
814.51419790077489
 21
837.98877020270993
  0
LINE
  8
_0-2______1
  6
CONTINUOUS
 62
    1
 10
814.51419790077489
 20
837.98877020270993
 11
815.81627862961614
 21
837.98877020270993
  0
LINE
  8
_0-2______1
  6
CONTINUOUS
 62
    1
 10
815.81627862961614
 20
837.98877020270993
 11
816.46731899403721
 21
837.98877020270993
  0
LINE
  8
_0-2______1
  6
CONTINUOUS
 62
    1
 10
816.46731899403721
 20
837.98877020270993
 11
817.09735805637911
 21
837.98877020270993
  0
LINE
  8
_0-2______1
  6
CONTINUOUS
 62
    1
 10
817.09735805637911
 20
837.98877020270993
 11
817.74839842080019
 21
838.6398105671301
  0
LINE
  8
_0-2______1
  6
CONTINUOUS
 62
    1
 10
817.74839842080019
 20
838.6398105671301
 11
818.39943878522126
 21
838.6398105671301
  0
LINE
  8
_0-2______1
  6
CONTINUOUS
 62
    1
 10
818.39943878522126
 20
838.6398105671301
 11
819.05047914964098
 21
838.6398105671301
  0
LINE
  8
_0-2______1
  6
CONTINUOUS
 62
    1
 10
819.05047914964098
 20
838.6398105671301
 11
819.68051821198333
 21
838.6398105671301
  0
LINE
  8
_0-2______1
  6
CONTINUOUS
 62
    1
 10
819.68051821198333
 20
838.6398105671301
 11
819.68051821198333
 21
839.29085093154981
  0
LINE
  8
_0-2______1
  6
CONTINUOUS
 62
    1
 10
819.68051821198333
 20
839.29085093154981
 11
820.33155857640395
 21
839.29085093154981
  0
LINE
  8
_0-2______1
  6
CONTINUOUS
 62
    1
 10
820.33155857640395
 20
839.29085093154981
 11
820.33155857640395
 21
839.93926613320991
  0
LINE
  8
_0-2______1
  6
CONTINUOUS
 62
    1
 10
820.33155857640395
 20
839.93926613320991
 11
820.98259894082503
 21
839.93926613320991
  0
LINE
  8
_0-2______1
  6
CONTINUOUS
 62
    1
 10
920.96979813457801
 20
925.72958512218111
 11
920.96979813457801
 21
924.4511308581782
  0
LINE
  8
_0-2______1
  6
CONTINUOUS
 62
    1
 10
920.96979813457801
 20
924.4511308581782
 11
920.33975907223521
 21
924.4511308581782
  0
LINE
  8
_0-2______1
  6
CONTINUOUS
 62
    1
 10
920.33975907223521
 20
924.4511308581782
 11
920.33975907223521
 21
923.80009049375485
  0
LINE
  8
_0-2______1
  6
CONTINUOUS
 62
    1
 10
920.33975907223521
 20
923.80009049375485
 11
919.68871870781504
 21
923.80009049375485
  0
LINE
  8
_0-2______1
  6
CONTINUOUS
 62
    1
 10
638.39727867397096
 20
886.375770190612
 11
637.74623830955125
 21
886.375770190612
  0
LINE
  8
_0-2______1
  6
CONTINUOUS
 62
    1
 10
637.74623830955125
 20
886.375770190612
 11
637.09519794513017
 21
886.375770190612
  0
LINE
  8
_0-2______1
  6
CONTINUOUS
 62
    1
 10
637.09519794513017
 20
886.375770190612
 11
637.09519794513017
 21
887.02681055503399
  0
LINE
  8
_0-2______1
  6
CONTINUOUS
 62
    1
 10
637.09519794513017
 20
887.02681055503399
 11
636.46515888278691
 21
887.02681055503399
  0
LINE
  8
_0-2______1
  6
CONTINUOUS
 62
    1
 10
636.46515888278691
 20
887.02681055503399
 11
635.8141185183672
 21
887.02681055503399
  0
LINE
  8
_0-2______1
  6
CONTINUOUS
 62
    1
 10
635.8141185183672
 20
887.02681055503399
 11
635.8141185183672
 21
888.32889128387296
  0
LINE
  8
_0-2______1
  6
CONTINUOUS
 62
    1
 10
635.8141185183672
 20
888.32889128387296
 11
635.16307815394612
 21
888.32889128387296
  0
LINE
  8
_0-2______1
  6
CONTINUOUS
 62
    1
 10
635.16307815394612
 20
888.32889128387296
 11
634.53303909160331
 21
888.32889128387296
  0
LINE
  8
_0-2______1
  6
CONTINUOUS
 62
    1
 10
634.53303909160331
 20
888.32889128387296
 11
634.53303909160331
 21
889.612595873396
  0
LINE
  8
_0-2______1
  6
CONTINUOUS
 62
    1
 10
820.98259894082503
 20
837.98877020270993
 11
820.33155857640395
 21
837.98877020270993
  0
LINE
  8
_0-2______1
  6
CONTINUOUS
 62
    1
 10
820.33155857640395
 20
837.98877020270993
 11
820.33155857640395
 21
837.35873114036622
  0
LINE
  8
_0-2______1
  6
CONTINUOUS
 62
    1
 10
820.33155857640395
 20
837.35873114036622
 11
819.68051821198333
 21
837.35873114036622
  0
LINE
  8
_0-2______1
  6
CONTINUOUS
 62
    1
 10
819.68051821198333
 20
837.35873114036622
 11
819.68051821198333
 21
836.71031593870521
  0
LINE
  8
_0-2______1
  6
CONTINUOUS
 62
    1
 10
819.68051821198333
 20
836.71031593870521
 11
819.05047914964098
 21
836.71031593870521
  0
LINE
  8
_0-2______1
  6
CONTINUOUS
 62
    1
 10
819.05047914964098
 20
836.71031593870521
 11
818.39943878522126
 21
836.71031593870521
  0
LINE
  8
_0-2______1
  6
CONTINUOUS
 62
    1
 10
818.39943878522126
 20
836.71031593870521
 11
817.74839842080019
 21
836.71031593870521
  0
LINE
  8
_0-2______1
  6
CONTINUOUS
 62
    1
 10
817.74839842080019
 20
836.71031593870521
 11
817.09735805637911
 21
836.05927557428504
  0
LINE
  8
_0-2______1
  6
CONTINUOUS
 62
    1
 10
817.09735805637911
 20
836.05927557428504
 11
816.46731899403721
 21
836.05927557428504
  0
LINE
  8
_0-2______1
  6
CONTINUOUS
 62
    1
 10
816.46731899403721
 20
836.05927557428504
 11
815.81627862961614
 21
836.05927557428504
  0
LINE
  8
_0-2______1
  6
CONTINUOUS
 62
    1
 10
815.81627862961614
 20
836.05927557428504
 11
815.16523826519506
 21
836.05927557428504
  0
LINE
  8
_0-2______1
  6
CONTINUOUS
 62
    1
 10
815.16523826519506
 20
836.05927557428504
 11
814.51419790077489
 21
836.05927557428504
  0
LINE
  8
_0-2______1
  6
CONTINUOUS
 62
    1
 10
814.51419790077489
 20
836.05927557428504
 11
813.88415883843209
 21
836.05927557428504
  0
LINE
  8
_0-2______1
  6
CONTINUOUS
 62
    1
 10
813.88415883843209
 20
836.05927557428504
 11
812.5820781095922
 21
836.05927557428504
  0
LINE
  8
_0-2______1
  6
CONTINUOUS
 62
    1
 10
812.5820781095922
 20
836.05927557428504
 11
811.95203904724895
 21
836.05927557428504
  0
LINE
  8
_0-2______1
  6
CONTINUOUS
 62
    1
 10
811.95203904724895
 20
836.05927557428504
 11
811.30099868282832
 21
836.05927557428504
  0
LINE
  8
_0-2______1
  6
CONTINUOUS
 62
    1
 10
811.30099868282832
 20
836.05927557428504
 11
811.30099868282832
 21
836.71031593870521
  0
LINE
  8
_0-2______1
  6
CONTINUOUS
 62
    1
 10
811.30099868282832
 20
836.71031593870521
 11
810.64995831840815
 21
836.71031593870521
  0
LINE
  8
_0-2______1
  6
CONTINUOUS
 62
    1
 10
633.88199872718315
 20
888.32889128387296
 11
634.53303909160331
 21
888.32889128387296
  0
LINE
  8
_0-2______1
  6
CONTINUOUS
 62
    1
 10
634.53303909160331
 20
888.32889128387296
 11
634.53303909160331
 21
887.02681055503399
  0
LINE
  8
_0-2______1
  6
CONTINUOUS
 62
    1
 10
634.53303909160331
 20
887.02681055503399
 11
635.16307815394612
 21
887.02681055503399
  0
LINE
  8
_0-2______1
  6
CONTINUOUS
 62
    1
 10
635.16307815394612
 20
887.02681055503399
 11
635.8141185183672
 21
887.02681055503399
  0
LINE
  8
_0-2______1
  6
CONTINUOUS
 62
    1
 10
635.8141185183672
 20
887.02681055503399
 11
635.8141185183672
 21
886.375770190612
  0
LINE
  8
_0-2______1
  6
CONTINUOUS
 62
    1
 10
635.8141185183672
 20
886.375770190612
 11
636.46515888278691
 21
886.375770190612
  0
LINE
  8
_0-2______1
  6
CONTINUOUS
 62
    1
 10
636.46515888278691
 20
886.375770190612
 11
637.09519794513017
 21
886.375770190612
  0
LINE
  8
_0-2______1
  6
CONTINUOUS
 62
    1
 10
637.09519794513017
 20
886.375770190612
 11
637.74623830955125
 21
886.375770190612
  0
LINE
  8
_0-2______1
  6
CONTINUOUS
 62
    1
 10
633.88199872718315
 20
887.67785091945416
 11
633.88199872718315
 21
888.32626612111517
  0
LINE
  8
_0-2______1
  6
CONTINUOUS
 62
    1
 10
633.88199872718315
 20
888.32626612111517
 11
633.88199872718315
 21
888.95630518345706
  0
LINE
  8
_0-2______1
  6
CONTINUOUS
 62
    1
 10
633.88199872718315
 20
888.95630518345706
 11
634.53303909160331
 21
888.95630518345706
  0
LINE
  8
_0-2______1
  6
CONTINUOUS
 62
    1
 10
634.53303909160331
 20
888.95630518345706
 11
634.53303909160331
 21
889.612595873396
  0
LINE
  8
_0-2______1
  6
CONTINUOUS
 62
    1
 10
1010.6453580079919
 20
925.72958512218111
 11
1010.6453580079919
 21
926.38062548659991
  0
LINE
  8
_0-2______1
  6
CONTINUOUS
 62
    1
 10
1010.6453580079919
 20
926.38062548659991
 11
1010.6453580079919
 21
927.0316658510219
  0
LINE
  8
_0-2______1
  6
CONTINUOUS
 62
    1
 10
1010.6453580079919
 20
927.0316658510219
 11
1011.296398372413
 21
927.0316658510219
  0
LINE
  8
_0-2______1
  6
CONTINUOUS
 62
    1
 10
1011.296398372413
 20
927.0316658510219
 11
1011.296398372413
 21
927.6879565409622
  0
LINE
  8
_0-2______1
  6
CONTINUOUS
 62
    1
 10
1011.296398372413
 20
927.6879565409622
 11
1011.9474387368341
 21
927.6879565409622
  0
LINE
  8
_0-2______1
  6
CONTINUOUS
 62
    1
 10
1011.9474387368341
 20
927.6879565409622
 11
1012.5984791012543
 21
927.6879565409622
  0
LINE
  8
_0-2______1
  6
CONTINUOUS
 62
    1
 10
1012.5984791012543
 20
927.6879565409622
 11
1013.2285181635971
 21
928.31537044054494
  0
LINE
  8
_0-2______1
  6
CONTINUOUS
 62
    1
 10
1013.2285181635971
 20
928.31537044054494
 11
1013.8795585280172
 21
928.31537044054494
  0
LINE
  8
_0-2______1
  6
CONTINUOUS
 62
    1
 10
1013.8795585280172
 20
928.31537044054494
 11
1014.530598892437
 21
928.31537044054494
  0
LINE
  8
_0-2______1
  6
CONTINUOUS
 62
    1
 10
1014.530598892437
 20
928.31537044054494
 11
1015.1606379547802
 21
928.31537044054494
  0
LINE
  8
_0-2______1
  6
CONTINUOUS
 62
    1
 10
1015.1606379547802
 20
928.31537044054494
 11
1015.8116783192013
 21
928.31537044054494
  0
LINE
  8
_0-2______1
  6
CONTINUOUS
 62
    1
 10
1015.8116783192013
 20
928.31537044054494
 11
1016.462718683621
 21
928.31537044054494
  0
LINE
  8
_0-2______1
  6
CONTINUOUS
 62
    1
 10
1016.462718683621
 20
928.31537044054494
 11
1017.1137590480421
 21
928.31537044054494
  0
LINE
  8
_0-2______1
  6
CONTINUOUS
 62
    1
 10
1017.1137590480421
 20
928.31537044054494
 11
1017.743798110384
 21
928.31537044054494
  0
LINE
  8
_0-2______1
  6
CONTINUOUS
 62
    1
 10
1017.743798110384
 20
928.31537044054494
 11
1017.743798110384
 21
927.6879565409622
  0
LINE
  8
_0-2______1
  6
CONTINUOUS
 62
    1
 10
1010.6453580079919
 20
926.38062548659991
 11
1011.296398372413
 21
926.38062548659991
  0
LINE
  8
_0-2______1
  6
CONTINUOUS
 62
    1
 10
1011.296398372413
 20
926.38062548659991
 11
1011.9474387368341
 21
926.38062548659991
  0
LINE
  8
_0-2______1
  6
CONTINUOUS
 62
    1
 10
1011.9474387368341
 20
926.38062548659991
 11
1011.9474387368341
 21
925.72958512218111
  0
LINE
  8
_0-2______1
  6
CONTINUOUS
 62
    1
 10
1011.9474387368341
 20
925.72958512218111
 11
1012.5984791012543
 21
925.72958512218111
  0
LINE
  8
_0-2______1
  6
CONTINUOUS
 62
    1
 10
857.10483851512708
 20
793.48963626201021
 11
857.75587887954816
 21
794.11705016159385
  0
LINE
  8
_0-2______1
  6
CONTINUOUS
 62
    1
 10
857.75587887954816
 20
794.11705016159385
 11
858.38591794189006
 21
794.11705016159385
  0
LINE
  8
_0-2______1
  6
CONTINUOUS
 62
    1
 10
858.38591794189006
 20
794.11705016159385
 11
858.38591794189006
 21
794.76809052601493
  0
LINE
  8
_0-2______1
  6
CONTINUOUS
 62
    1
 10
858.38591794189006
 20
794.76809052601493
 11
859.03695830631113
 21
794.76809052601493
  0
LINE
  8
_0-2______1
  6
CONTINUOUS
 62
    1
 10
859.03695830631113
 20
794.76809052601493
 11
859.03695830631113
 21
795.4191308904351
  0
LINE
  8
_0-2______1
  6
CONTINUOUS
 62
    1
 10
859.03695830631113
 20
795.4191308904351
 11
859.68799867073221
 21
795.4191308904351
  0
LINE
  8
_0-2______1
  6
CONTINUOUS
 62
    1
 10
859.68799867073221
 20
795.4191308904351
 11
860.33903903515193
 21
795.4191308904351
  0
LINE
  8
_0-2______1
  6
CONTINUOUS
 62
    1
 10
860.33903903515193
 20
795.4191308904351
 11
860.96907809749428
 21
795.4191308904351
  0
LINE
  8
_0-2______1
  6
CONTINUOUS
 62
    1
 10
860.96907809749428
 20
795.4191308904351
 11
861.62011846191626
 21
795.4191308904351
  0
LINE
  8
_0-2______1
  6
CONTINUOUS
 62
    1
 10
861.62011846191626
 20
795.4191308904351
 11
862.27115882633507
 21
795.4191308904351
  0
LINE
  8
_0-2______1
  6
CONTINUOUS
 62
    1
 10
862.27115882633507
 20
795.4191308904351
 11
862.90119788867833
 21
795.4191308904351
  0
LINE
  8
_0-2______1
  6
CONTINUOUS
 62
    1
 10
862.90119788867833
 20
795.4191308904351
 11
863.55223825309895
 21
795.4191308904351
  0
LINE
  8
_0-2______1
  6
CONTINUOUS
 62
    1
 10
863.55223825309895
 20
795.4191308904351
 11
864.20327861752003
 21
795.4191308904351
  0
LINE
  8
_0-2______1
  6
CONTINUOUS
 62
    1
 10
857.75587887954816
 20
794.11705016159385
 11
858.38591794189006
 21
794.11705016159385
  0
LINE
  8
_0-2______1
  6
CONTINUOUS
 62
    1
 10
858.38591794189006
 20
794.11705016159385
 11
858.38591794189006
 21
793.48963626201021
  0
LINE
  8
_0-2______1
  6
CONTINUOUS
 62
    1
 10
858.38591794189006
 20
793.48963626201021
 11
859.03695830631113
 21
793.48963626201021
  0
LINE
  8
_0-2______1
  6
CONTINUOUS
 62
    1
 10
859.03695830631113
 20
793.48963626201021
 11
859.03695830631113
 21
792.83859589759004
  0
LINE
  8
_0-2______1
  6
CONTINUOUS
 62
    1
 10
859.03695830631113
 20
792.83859589759004
 11
859.68274834521208
 21
792.83859589759004
  0
LINE
  8
_0-2______1
  6
CONTINUOUS
 62
    1
 10
859.68274834521208
 20
792.83859589759004
 11
860.33903903515193
 21
792.83859589759004
  0
LINE
  8
_0-2______1
  6
CONTINUOUS
 62
    1
 10
860.33903903515193
 20
792.83859589759004
 11
860.96907809749428
 21
792.83859589759004
  0
LINE
  8
_0-2______1
  6
CONTINUOUS
 62
    1
 10
860.96907809749428
 20
792.83859589759004
 11
860.96907809749428
 21
792.18230520765019
  0
LINE
  8
_0-2______1
  6
CONTINUOUS
 62
    1
 10
860.96907809749428
 20
792.18230520765019
 11
861.62011846191626
 21
792.18230520765019
  0
LINE
  8
_0-2______1
  6
CONTINUOUS
 62
    1
 10
861.62011846191626
 20
792.18230520765019
 11
862.27115882633507
 21
792.18230520765019
  0
LINE
  8
_0-2______1
  6
CONTINUOUS
 62
    1
 10
862.27115882633507
 20
792.18230520765019
 11
862.90119788867833
 21
792.18230520765019
  0
LINE
  8
_0-2______1
  6
CONTINUOUS
 62
    1
 10
862.90119788867833
 20
792.18230520765019
 11
862.90119788867833
 21
792.83859589759004
  0
LINE
  8
_0-2______1
  6
CONTINUOUS
 62
    1
 10
862.90119788867833
 20
792.83859589759004
 11
863.55223825309895
 21
792.83859589759004
  0
LINE
  8
_0-2______1
  6
CONTINUOUS
 62
    1
 10
863.55223825309895
 20
792.83859589759004
 11
864.20327861752003
 21
792.83859589759004
  0
LINE
  8
_0-2______1
  6
CONTINUOUS
 62
    1
 10
864.20327861752003
 20
792.83859589759004
 11
864.8543189819402
 21
792.83859589759004
  0
LINE
  8
_0-2______1
  6
CONTINUOUS
 62
    1
 10
864.8543189819402
 20
792.83859589759004
 11
864.8543189819402
 21
793.48963626201021
  0
LINE
  8
_0-2______1
  6
CONTINUOUS
 62
    1
 10
864.8543189819402
 20
793.48963626201021
 11
865.484358044283
 21
793.48963626201021
  0
LINE
  8
_0-2______1
  6
CONTINUOUS
 62
    1
 10
865.484358044283
 20
793.48963626201021
 11
866.13539840870408
 21
793.48963626201021
  0
LINE
  8
_0-2______1
  6
CONTINUOUS
 62
    1
 10
866.13539840870408
 20
793.48963626201021
 11
866.13539840870408
 21
794.11705016159385
  0
LINE
  8
_0-2______1
  6
CONTINUOUS
 62
    1
 10
1012.5984791012543
 20
925.72958512218111
 11
1013.2285181635971
 21
925.72958512218111
  0
LINE
  8
_0-2______1
  6
CONTINUOUS
 62
    1
 10
1013.2285181635971
 20
925.72958512218111
 11
1013.8795585280172
 21
925.72958512218111
  0
LINE
  8
_0-2______1
  6
CONTINUOUS
 62
    1
 10
1013.8795585280172
 20
925.72958512218111
 11
1014.530598892437
 21
925.72958512218111
  0
LINE
  8
_0-2______1
  6
CONTINUOUS
 62
    1
 10
1014.530598892437
 20
925.72958512218111
 11
1014.530598892437
 21
925.10217122259701
  0
LINE
  8
_0-2______1
  6
CONTINUOUS
 62
    1
 10
1014.530598892437
 20
925.10217122259701
 11
1015.1606379547802
 21
925.10217122259701
  0
LINE
  8
_0-2______1
  6
CONTINUOUS
 62
    1
 10
1015.1606379547802
 20
925.10217122259701
 11
1015.8116783192013
 21
925.10217122259701
  0
LINE
  8
_0-2______1
  6
CONTINUOUS
 62
    1
 10
1015.8116783192013
 20
925.10217122259701
 11
1016.462718683621
 21
925.72958512218111
  0
LINE
  8
_0-2______1
  6
CONTINUOUS
 62
    1
 10
1016.462718683621
 20
925.72958512218111
 11
1017.1137590480421
 21
925.72958512218111
  0
LINE
  8
_0-2______1
  6
CONTINUOUS
 62
    1
 10
1017.1137590480421
 20
925.72958512218111
 11
1017.743798110384
 21
925.72958512218111
  0
LINE
  8
_0-2______1
  6
CONTINUOUS
 62
    1
 10
1017.743798110384
 20
925.72958512218111
 11
1018.3948384748051
 21
925.72958512218111
  0
LINE
  8
_0-2______1
  6
CONTINUOUS
 62
    1
 10
1018.3948384748051
 20
925.72958512218111
 11
1018.3948384748051
 21
926.38062548659991
  0
LINE
  8
_0-2______1
  6
CONTINUOUS
 62
    1
 10
1018.3948384748051
 20
926.38062548659991
 11
1019.0458788392252
 21
926.38062548659991
  0
LINE
  8
_0-2______1
  6
CONTINUOUS
 62
    1
 10
1019.0458788392252
 20
926.38062548659991
 11
1019.675917901568
 21
926.38062548659991
  0
LINE
  8
_0-2______1
  6
CONTINUOUS
 62
    1
 10
810.64995831840815
 20
836.05927557428504
 11
811.30099868282832
 21
836.05927557428504
  0
LINE
  8
_0-2______1
  6
CONTINUOUS
 62
    1
 10
811.30099868282832
 20
836.05927557428504
 11
811.95203904724895
 21
836.05927557428504
  0
LINE
  8
_0-2______1
  6
CONTINUOUS
 62
    1
 10
811.95203904724895
 20
836.05927557428504
 11
812.5820781095922
 21
836.05927557428504
  0
LINE
  8
_0-2______1
  6
CONTINUOUS
 62
    1
 10
812.5820781095922
 20
836.05927557428504
 11
813.23311847401192
 21
835.42398618642301
  0
LINE
  8
_0-2______1
  6
CONTINUOUS
 62
    1
 10
813.23311847401192
 20
835.42398618642301
 11
813.88415883843209
 21
835.42398618642301
  0
LINE
  8
_0-2______1
  6
CONTINUOUS
 62
    1
 10
813.88415883843209
 20
835.42398618642301
 11
814.51419790077489
 21
835.42398618642301
  0
LINE
  8
_0-2______1
  6
CONTINUOUS
 62
    1
 10
814.51419790077489
 20
835.42398618642301
 11
815.16523826519506
 21
835.42398618642301
  0
LINE
  8
_0-2______1
  6
CONTINUOUS
 62
    1
 10
815.16523826519506
 20
835.42398618642301
 11
815.81627862961614
 21
835.42398618642301
  0
LINE
  8
_0-2______1
  6
CONTINUOUS
 62
    1
 10
815.81627862961614
 20
835.42398618642301
 11
816.46731899403721
 21
836.05927557428504
  0
LINE
  8
_0-2______1
  6
CONTINUOUS
 62
    1
 10
816.46731899403721
 20
836.05927557428504
 11
817.09735805637911
 21
836.05927557428504
  0
LINE
  8
_0-2______1
  6
CONTINUOUS
 62
    1
 10
817.09735805637911
 20
836.05927557428504
 11
817.74839842080019
 21
836.05927557428504
  0
LINE
  8
_0-2______1
  6
CONTINUOUS
 62
    1
 10
817.74839842080019
 20
836.05927557428504
 11
818.39943878522126
 21
836.05927557428504
  0
LINE
  8
_0-2______1
  6
CONTINUOUS
 62
    1
 10
818.39943878522126
 20
836.05927557428504
 11
819.68051821198333
 21
836.05927557428504
  0
LINE
  8
_0-2______1
  6
CONTINUOUS
 62
    1
 10
819.68051821198333
 20
836.05927557428504
 11
819.68051821198333
 21
836.71031593870521
  0
LINE
  8
_0-2______1
  6
CONTINUOUS
 62
    1
 10
819.68051821198333
 20
836.71031593870521
 11
820.33155857640395
 21
836.71031593870521
  0
LINE
  8
_0-2______1
  6
CONTINUOUS
 62
    1
 10
820.33155857640395
 20
836.71031593870521
 11
820.98259894082503
 21
836.71031593870521
  0
LINE
  8
_0-2______1
  6
CONTINUOUS
 62
    1
 10
820.98259894082503
 20
836.71031593870521
 11
820.98259894082503
 21
837.35873114036622
  0
LINE
  8
_0-2______1
  6
CONTINUOUS
 62
    1
 10
820.98259894082503
 20
837.35873114036622
 11
821.61263800316692
 21
837.35873114036622
  0
LINE
  8
_0-2______1
  6
CONTINUOUS
 62
    1
 10
920.96979813457801
 20
923.80009049375485
 11
921.62083849899909
 21
923.80009049375485
  0
LINE
  8
_0-2______1
  6
CONTINUOUS
 62
    1
 10
921.62083849899909
 20
923.80009049375485
 11
921.62083849899909
 21
925.10217122259701
  0
LINE
  8
_0-2______1
  6
CONTINUOUS
 62
    1
 10
864.20327861752003
 20
795.4191308904351
 11
864.8543189819402
 21
795.4191308904351
  0
LINE
  8
_0-2______1
  6
CONTINUOUS
 62
    1
 10
864.8543189819402
 20
795.4191308904351
 11
865.484358044283
 21
794.76809052601493
  0
LINE
  8
_0-2______1
  6
CONTINUOUS
 62
    1
 10
865.484358044283
 20
794.76809052601493
 11
865.484358044283
 21
794.11705016159385
  0
LINE
  8
_0-2______1
  6
CONTINUOUS
 62
    1
 10
865.484358044283
 20
794.11705016159385
 11
866.13539840870408
 21
794.11705016159385
  0
LINE
  8
_0-2______1
  6
CONTINUOUS
 62
    1
 10
866.13539840870408
 20
794.11705016159385
 11
866.78643877312425
 21
794.11705016159385
  0
LINE
  8
_0-2______1
  6
CONTINUOUS
 62
    1
 10
866.78643877312425
 20
794.11705016159385
 11
866.78643877312425
 21
793.48963626201021
  0
LINE
  8
_0-2______1
  6
CONTINUOUS
 62
    1
 10
1017.743798110384
 20
927.6879565409622
 11
1018.3948384748051
 21
927.6879565409622
  0
LINE
  8
_0-2______1
  6
CONTINUOUS
 62
    1
 10
1018.3948384748051
 20
927.6879565409622
 11
1019.0458788392252
 21
927.6879565409622
  0
LINE
  8
_0-2______1
  6
CONTINUOUS
 62
    1
 10
1019.0458788392252
 20
927.6879565409622
 11
1019.0458788392252
 21
927.0316658510219
  0
LINE
  8
_0-2______1
  6
CONTINUOUS
 62
    1
 10
1019.0458788392252
 20
927.0316658510219
 11
1019.675917901568
 21
927.0316658510219
  0
LINE
  8
_0-2______1
  6
CONTINUOUS
 62
    1
 10
1019.675917901568
 20
927.0316658510219
 11
1019.675917901568
 21
926.38062548659991
  0
LINE
  8
_0-2______1
  6
CONTINUOUS
 62
    1
 10
1019.675917901568
 20
926.38062548659991
 11
1019.675917901568
 21
925.72958512218111
  0
LINE
  8
_0-2______1
  6
CONTINUOUS
 62
    1
 10
918.38663797897334
 20
927.6879565409622
 11
919.03767834339396
 21
927.6879565409622
  0
LINE
  8
_0-2______1
  6
CONTINUOUS
 62
    1
 10
919.03767834339396
 20
927.6879565409622
 11
919.68871870781504
 21
927.6879565409622
  0
LINE
  8
_0-2______1
  6
CONTINUOUS
 62
    1
 10
919.68871870781504
 20
927.6879565409622
 11
919.68871870781504
 21
927.0316658510219
  0
LINE
  8
_0-2______1
  6
CONTINUOUS
 62
    1
 10
919.68871870781504
 20
927.0316658510219
 11
920.33975907223521
 21
927.0316658510219
  0
LINE
  8
_0-2______1
  6
CONTINUOUS
 62
    1
 10
920.33975907223521
 20
927.0316658510219
 11
920.33975907223521
 21
926.38062548659991
  0
LINE
  8
_0-2______1
  6
CONTINUOUS
 62
    1
 10
920.33975907223521
 20
926.38062548659991
 11
920.96979813457801
 21
926.38062548659991
  0
LINE
  8
_0-2______1
  6
CONTINUOUS
 62
    1
 10
920.96979813457801
 20
926.38062548659991
 11
921.62083849899909
 21
926.38062548659991
  0
LINE
  8
_0-2______1
  6
CONTINUOUS
 62
    1
 10
921.62083849899909
 20
926.38062548659991
 11
921.62083849899909
 21
925.72958512218111
  0
LINE
  8
_0-2______1
  6
CONTINUOUS
 62
    1
 10
921.62083849899909
 20
925.72958512218111
 11
921.62083849899909
 21
925.10217122259701
  0
LINE
  8
_0-2______1
  6
CONTINUOUS
 62
    1
 10
921.62083849899909
 20
925.10217122259701
 11
922.27187886341926
 21
925.10217122259701
  0
LINE
  8
_0-2______1
  6
CONTINUOUS
 62
    1
 10
922.27187886341926
 20
925.10217122259701
 11
922.27187886341926
 21
924.4511308581782
  0
LINE
  8
_0-2______1
  6
CONTINUOUS
 62
    1
 10
734.52023828535721
 20
976.07495652886382
 11
735.17127864977692
 21
976.70237042844701
  0
LINE
  8
_0-2______1
  6
CONTINUOUS
 62
    1
 10
735.17127864977692
 20
976.70237042844701
 11
735.822319014198
 21
976.70237042844701
  0
LINE
  8
_0-2______1
  6
CONTINUOUS
 62
    1
 10
735.822319014198
 20
976.70237042844701
 11
736.45235807654126
 21
976.70237042844701
  0
LINE
  8
_0-2______1
  6
CONTINUOUS
 62
    1
 10
736.45235807654126
 20
976.70237042844701
 11
736.45235807654126
 21
977.35341079286718
  0
LINE
  8
_0-2______1
  6
CONTINUOUS
 62
    1
 10
736.45235807654126
 20
977.35341079286718
 11
737.10339844096097
 21
977.35341079286718
  0
LINE
  8
_0-2______1
  6
CONTINUOUS
 62
    1
 10
737.10339844096097
 20
977.35341079286718
 11
737.10339844096097
 21
978.00445115728917
  0
LINE
  8
_0-2______1
  6
CONTINUOUS
 62
    1
 10
737.10339844096097
 20
978.00445115728917
 11
737.75443880538114
 21
978.00445115728917
  0
LINE
  8
_0-2______1
  6
CONTINUOUS
 62
    1
 10
737.75443880538114
 20
978.00445115728917
 11
738.40547916980313
 21
978.00445115728917
  0
LINE
  8
_0-2______1
  6
CONTINUOUS
 62
    1
 10
738.40547916980313
 20
978.00445115728917
 11
739.03551823214411
 21
978.00445115728917
  0
LINE
  8
_0-2______1
  6
CONTINUOUS
 62
    1
 10
739.03551823214411
 20
978.00445115728917
 11
740.33759896098627
 21
978.00445115728917
  0
LINE
  8
_0-2______1
  6
CONTINUOUS
 62
    1
 10
740.33759896098627
 20
978.00445115728917
 11
740.96763802332816
 21
978.00445115728917
  0
LINE
  8
_0-2______1
  6
CONTINUOUS
 62
    1
 10
740.96763802332816
 20
978.00445115728917
 11
741.61867838774924
 21
978.00445115728917
  0
LINE
  8
_0-2______1
  6
CONTINUOUS
 62
    1
 10
741.61867838774924
 20
978.00445115728917
 11
742.26971875216896
 21
978.00445115728917
  0
LINE
  8
_0-2______1
  6
CONTINUOUS
 62
    1
 10
742.26971875216896
 20
978.00445115728917
 11
742.92075911659003
 21
978.00445115728917
  0
LINE
  8
_0-2______1
  6
CONTINUOUS
 62
    1
 10
742.92075911659003
 20
978.00445115728917
 11
744.20183854335301
 21
978.00445115728917
  0
LINE
  8
_0-2______1
  6
CONTINUOUS
 62
    1
 10
744.20183854335301
 20
978.00445115728917
 11
744.85287890777408
 21
978.00445115728917
  0
LINE
  8
_0-2______1
  6
CONTINUOUS
 62
    1
 10
871.30171871991206
 20
772.84273115649603
 11
871.95275908433223
 21
772.84273115649603
  0
LINE
  8
_0-2______1
  6
CONTINUOUS
 62
    1
 10
871.95275908433223
 20
772.84273115649603
 11
872.58279814667503
 21
772.84273115649603
  0
LINE
  8
_0-2______1
  6
CONTINUOUS
 62
    1
 10
872.58279814667503
 20
772.84273115649603
 11
872.58279814667503
 21
773.47277021883792
  0
LINE
  8
_0-2______1
  6
CONTINUOUS
 62
    1
 10
872.58279814667503
 20
773.47277021883792
 11
873.2338385110952
 21
773.47277021883792
  0
LINE
  8
_0-2______1
  6
CONTINUOUS
 62
    1
 10
556.45019796529095
 20
863.79937045667293
 11
555.82015890294906
 21
863.79937045667293
  0
LINE
  8
_0-2______1
  6
CONTINUOUS
 62
    1
 10
555.82015890294906
 20
863.79937045667293
 11
555.82015890294906
 21
865.10145118551509
  0
LINE
  8
_0-2______1
  6
CONTINUOUS
 62
    1
 10
555.82015890294906
 20
865.10145118551509
 11
555.16911853852798
 21
865.10145118551509
  0
LINE
  8
_0-2______1
  6
CONTINUOUS
 62
    1
 10
555.16911853852798
 20
865.10145118551509
 11
555.16911853852798
 21
865.73149024785698
  0
LINE
  8
_0-2______1
  6
CONTINUOUS
 62
    1
 10
1019.675917901568
 20
925.72958512218111
 11
1019.675917901568
 21
924.4511308581782
  0
LINE
  8
_0-2______1
  6
CONTINUOUS
 62
    1
 10
1019.675917901568
 20
924.4511308581782
 11
1019.0458788392252
 21
924.4511308581782
  0
LINE
  8
_0-2______1
  6
CONTINUOUS
 62
    1
 10
1019.0458788392252
 20
924.4511308581782
 11
1018.3948384748051
 21
924.4511308581782
  0
LINE
  8
_0-2______1
  6
CONTINUOUS
 62
    1
 10
1018.3948384748051
 20
924.4511308581782
 11
1017.743798110384
 21
923.80009049375485
  0
LINE
  8
_0-2______1
  6
CONTINUOUS
 62
    1
 10
1017.743798110384
 20
923.80009049375485
 11
1017.1137590480421
 21
923.80009049375485
  0
LINE
  8
_0-2______1
  6
CONTINUOUS
 62
    1
 10
1017.1137590480421
 20
923.80009049375485
 11
1016.462718683621
 21
923.80009049375485
  0
LINE
  8
_0-2______1
  6
CONTINUOUS
 62
    1
 10
1016.462718683621
 20
923.80009049375485
 11
1015.8116783192013
 21
923.80009049375485
  0
LINE
  8
_0-2______1
  6
CONTINUOUS
 62
    1
 10
1015.8116783192013
 20
923.80009049375485
 11
1015.1606379547802
 21
923.80009049375485
  0
LINE
  8
_0-2______1
  6
CONTINUOUS
 62
    1
 10
1015.1606379547802
 20
923.80009049375485
 11
1014.530598892437
 21
923.80009049375485
  0
LINE
  8
_0-2______1
  6
CONTINUOUS
 62
    1
 10
1014.530598892437
 20
923.80009049375485
 11
1013.8795585280172
 21
923.80009049375485
  0
LINE
  8
_0-2______1
  6
CONTINUOUS
 62
    1
 10
1013.8795585280172
 20
923.80009049375485
 11
1013.2285181635971
 21
923.80009049375485
  0
LINE
  8
_0-2______1
  6
CONTINUOUS
 62
    1
 10
1013.2285181635971
 20
923.80009049375485
 11
1012.5984791012543
 21
923.80009049375485
  0
LINE
  8
_0-2______1
  6
CONTINUOUS
 62
    1
 10
866.78643877312425
 20
793.48963626201021
 11
866.78643877312425
 21
792.83859589759004
  0
LINE
  8
_0-2______1
  6
CONTINUOUS
 62
    1
 10
866.78643877312425
 20
792.83859589759004
 11
866.13539840870408
 21
792.18230520765019
  0
LINE
  8
_0-2______1
  6
CONTINUOUS
 62
    1
 10
866.13539840870408
 20
792.18230520765019
 11
865.484358044283
 21
792.18230520765019
  0
LINE
  8
_0-2______1
  6
CONTINUOUS
 62
    1
 10
865.484358044283
 20
792.18230520765019
 11
865.484358044283
 21
791.5522661453092
  0
LINE
  8
_0-2______1
  6
CONTINUOUS
 62
    1
 10
865.484358044283
 20
791.5522661453092
 11
864.8543189819402
 21
791.5522661453092
  0
LINE
  8
_0-2______1
  6
CONTINUOUS
 62
    1
 10
864.8543189819402
 20
791.5522661453092
 11
864.20327861752003
 21
791.5522661453092
  0
LINE
  8
_0-2______1
  6
CONTINUOUS
 62
    1
 10
864.20327861752003
 20
791.5522661453092
 11
863.55223825309895
 21
791.5522661453092
  0
LINE
  8
_0-2______1
  6
CONTINUOUS
 62
    1
 10
863.55223825309895
 20
791.5522661453092
 11
862.90119788867833
 21
791.5522661453092
  0
LINE
  8
_0-2______1
  6
CONTINUOUS
 62
    1
 10
862.90119788867833
 20
791.5522661453092
 11
862.90119788867833
 21
790.90385094364819
  0
LINE
  8
_0-2______1
  6
CONTINUOUS
 62
    1
 10
862.90119788867833
 20
790.90385094364819
 11
862.27115882633507
 21
790.90385094364819
  0
LINE
  8
_0-2______1
  6
CONTINUOUS
 62
    1
 10
862.27115882633507
 20
790.90385094364819
 11
861.62011846191626
 21
790.90385094364819
  0
LINE
  8
_0-2______1
  6
CONTINUOUS
 62
    1
 10
861.62011846191626
 20
790.90385094364819
 11
860.96907809749428
 21
790.90385094364819
  0
LINE
  8
_0-2______1
  6
CONTINUOUS
 62
    1
 10
860.96907809749428
 20
790.90385094364819
 11
860.96907809749428
 21
791.5522661453092
  0
LINE
  8
_0-2______1
  6
CONTINUOUS
 62
    1
 10
860.96907809749428
 20
791.5522661453092
 11
860.33903903515193
 21
791.5522661453092
  0
LINE
  8
_0-2______1
  6
CONTINUOUS
 62
    1
 10
860.33903903515193
 20
791.5522661453092
 11
859.68799867073221
 21
791.5522661453092
  0
LINE
  8
_0-2______1
  6
CONTINUOUS
 62
    1
 10
1056.4491978402921
 20
932.833275550091
 11
1056.4491978402921
 21
933.48431591451299
  0
LINE
  8
_0-2______1
  6
CONTINUOUS
 62
    1
 10
1056.4491978402921
 20
933.48431591451299
 11
1055.8191587779493
 21
933.48431591451299
  0
LINE
  8
_0-2______1
  6
CONTINUOUS
 62
    1
 10
555.16911853852798
 20
865.73149024785698
 11
555.82015890294906
 21
865.73149024785698
  0
LINE
  8
_0-2______1
  6
CONTINUOUS
 62
    1
 10
555.82015890294906
 20
865.73149024785698
 11
555.82015890294906
 21
867.0309458139368
  0
LINE
  8
_0-2______1
  6
CONTINUOUS
 62
    1
 10
739.03551823214411
 20
1023.8056658268292
 11
739.03551823214411
 21
1021.876171198403
  0
LINE
  8
_0-2______1
  6
CONTINUOUS
 62
    1
 10
922.27187886341926
 20
924.4511308581782
 11
922.27187886341926
 21
923.80009049375485
  0
LINE
  8
_0-2______1
  6
CONTINUOUS
 62
    1
 10
922.27187886341926
 20
923.80009049375485
 11
921.62083849899909
 21
923.80009049375485
  0
LINE
  8
_0-2______1
  6
CONTINUOUS
 62
    1
 10
921.62083849899909
 20
923.80009049375485
 11
921.62083849899909
 21
922.52163622975195
  0
LINE
  8
_0-2______1
  6
CONTINUOUS
 62
    1
 10
921.62083849899909
 20
922.52163622975195
 11
920.96979813457801
 21
922.52163622975195
  0
LINE
  8
_0-2______1
  6
CONTINUOUS
 62
    1
 10
859.68799867073221
 20
791.554891308067
 11
859.03695830631113
 21
791.554891308067
  0
LINE
  8
_0-2______1
  6
CONTINUOUS
 62
    1
 10
859.03695830631113
 20
791.554891308067
 11
858.38591794189006
 21
791.554891308067
  0
LINE
  8
_0-2______1
  6
CONTINUOUS
 62
    1
 10
858.38591794189006
 20
791.554891308067
 11
858.38591794189006
 21
792.18230520765019
  0
LINE
  8
_0-2______1
  6
CONTINUOUS
 62
    1
 10
858.38591794189006
 20
792.18230520765019
 11
857.75587887954816
 21
792.18230520765019
  0
LINE
  8
_0-2______1
  6
CONTINUOUS
 62
    1
 10
857.75587887954816
 20
792.18230520765019
 11
857.75587887954816
 21
792.83859589759004
  0
LINE
  8
_0-2______1
  6
CONTINUOUS
 62
    1
 10
857.75587887954816
 20
792.83859589759004
 11
857.10483851512708
 21
792.83859589759004
  0
LINE
  8
_0-2______1
  6
CONTINUOUS
 62
    1
 10
857.10483851512708
 20
792.83859589759004
 11
857.10483851512708
 21
793.48963626201021
  0
LINE
  8
_0-2______1
  6
CONTINUOUS
 62
    1
 10
1012.5984791012543
 20
923.80009049375485
 11
1012.5984791012543
 21
924.4511308581782
  0
LINE
  8
_0-2______1
  6
CONTINUOUS
 62
    1
 10
1012.5984791012543
 20
924.4511308581782
 11
1011.9474387368341
 21
924.4511308581782
  0
LINE
  8
_0-2______1
  6
CONTINUOUS
 62
    1
 10
1011.9474387368341
 20
924.4511308581782
 11
1011.296398372413
 21
924.4511308581782
  0
LINE
  8
_0-2______1
  6
CONTINUOUS
 62
    1
 10
1011.296398372413
 20
924.4511308581782
 11
1011.296398372413
 21
925.10217122259701
  0
LINE
  8
_0-2______1
  6
CONTINUOUS
 62
    1
 10
1011.296398372413
 20
925.10217122259701
 11
1010.6453580079919
 21
925.10217122259701
  0
LINE
  8
_0-2______1
  6
CONTINUOUS
 62
    1
 10
1010.6453580079919
 20
925.10217122259701
 11
1010.6453580079919
 21
925.72958512218111
  0
LINE
  8
_0-2______1
  6
CONTINUOUS
 62
    1
 10
637.74623830955125
 20
884.44627556218893
 11
637.09519794513017
 21
884.44627556218893
  0
LINE
  8
_0-2______1
  6
CONTINUOUS
 62
    1
 10
637.09519794513017
 20
884.44627556218893
 11
636.46515888278691
 21
884.44627556218893
  0
LINE
  8
_0-2______1
  6
CONTINUOUS
 62
    1
 10
636.46515888278691
 20
884.44627556218893
 11
636.46515888278691
 21
885.09731592661001
  0
LINE
  8
_0-2______1
  6
CONTINUOUS
 62
    1
 10
636.46515888278691
 20
885.09731592661001
 11
635.8141185183672
 21
885.09731592661001
  0
LINE
  8
_0-2______1
  6
CONTINUOUS
 62
    1
 10
635.8141185183672
 20
885.09731592661001
 11
635.16307815394612
 21
885.09731592661001
  0
LINE
  8
_0-2______1
  6
CONTINUOUS
 62
    1
 10
635.16307815394612
 20
885.09731592661001
 11
635.16307815394612
 21
885.74573112827011
  0
LINE
  8
_0-2______1
  6
CONTINUOUS
 62
    1
 10
635.16307815394612
 20
885.74573112827011
 11
634.53303909160331
 21
885.74573112827011
  0
LINE
  8
_0-2______1
  6
CONTINUOUS
 62
    1
 10
634.53303909160331
 20
885.74573112827011
 11
634.53303909160331
 21
886.375770190612
  0
LINE
  8
_0-2______1
  6
CONTINUOUS
 62
    1
 10
634.53303909160331
 20
886.375770190612
 11
633.88199872718315
 21
886.375770190612
  0
LINE
  8
_0-2______1
  6
CONTINUOUS
 62
    1
 10
633.88199872718315
 20
886.375770190612
 11
633.88199872718315
 21
887.67785091945416
  0
LINE
  8
_0-2______1
  6
CONTINUOUS
 62
    1
 10
821.61263800316692
 20
836.05927557428504
 11
820.98259894082503
 21
836.05927557428504
  0
LINE
  8
_0-2______1
  6
CONTINUOUS
 62
    1
 10
820.98259894082503
 20
836.05927557428504
 11
820.98259894082503
 21
835.42398618642301
  0
LINE
  8
_0-2______1
  6
CONTINUOUS
 62
    1
 10
820.98259894082503
 20
835.42398618642301
 11
820.33155857640395
 21
835.42398618642301
  0
LINE
  8
_0-2______1
  6
CONTINUOUS
 62
    1
 10
820.33155857640395
 20
835.42398618642301
 11
820.33155857640395
 21
834.7729458220042
  0
LINE
  8
_0-2______1
  6
CONTINUOUS
 62
    1
 10
820.33155857640395
 20
834.7729458220042
 11
819.68051821198333
 21
834.7729458220042
  0
LINE
  8
_0-2______1
  6
CONTINUOUS
 62
    1
 10
819.68051821198333
 20
834.7729458220042
 11
819.05047914964098
 21
834.7729458220042
  0
LINE
  8
_0-2______1
  6
CONTINUOUS
 62
    1
 10
819.05047914964098
 20
834.7729458220042
 11
818.39943878522126
 21
834.7729458220042
  0
LINE
  8
_0-2______1
  6
CONTINUOUS
 62
    1
 10
818.39943878522126
 20
834.7729458220042
 11
818.39943878522126
 21
834.12453062034319
  0
LINE
  8
_0-2______1
  6
CONTINUOUS
 62
    1
 10
818.39943878522126
 20
834.12453062034319
 11
817.74839842080019
 21
834.12453062034319
  0
LINE
  8
_0-2______1
  6
CONTINUOUS
 62
    1
 10
817.74839842080019
 20
834.12453062034319
 11
817.09735805637911
 21
834.12453062034319
  0
LINE
  8
_0-2______1
  6
CONTINUOUS
 62
    1
 10
817.09735805637911
 20
834.12453062034319
 11
816.46731899403721
 21
834.12453062034319
  0
LINE
  8
_0-2______1
  6
CONTINUOUS
 62
    1
 10
816.46731899403721
 20
834.12453062034319
 11
815.81627862961614
 21
834.12453062034319
  0
LINE
  8
_0-2______1
  6
CONTINUOUS
 62
    1
 10
815.81627862961614
 20
834.12453062034319
 11
815.16523826519506
 21
834.12453062034319
  0
LINE
  8
_0-2______1
  6
CONTINUOUS
 62
    1
 10
815.16523826519506
 20
834.12453062034319
 11
814.51419790077489
 21
834.12453062034319
  0
LINE
  8
_0-2______1
  6
CONTINUOUS
 62
    1
 10
814.51419790077489
 20
834.12453062034319
 11
813.88415883843209
 21
834.12453062034319
  0
LINE
  8
_0-2______1
  6
CONTINUOUS
 62
    1
 10
813.88415883843209
 20
834.12453062034319
 11
813.23311847401192
 21
834.12453062034319
  0
LINE
  8
_0-2______1
  6
CONTINUOUS
 62
    1
 10
813.23311847401192
 20
834.12453062034319
 11
812.5820781095922
 21
834.12453062034319
  0
LINE
  8
_0-2______1
  6
CONTINUOUS
 62
    1
 10
812.5820781095922
 20
834.12453062034319
 11
811.95203904724895
 21
834.12453062034319
  0
LINE
  8
_0-2______1
  6
CONTINUOUS
 62
    1
 10
811.95203904724895
 20
834.12453062034319
 11
811.30099868282832
 21
834.12453062034319
  0
LINE
  8
_0-2______1
  6
CONTINUOUS
 62
    1
 10
811.30099868282832
 20
834.12453062034319
 11
810.64995831840815
 21
834.12453062034319
  0
LINE
  8
_0-2______1
  6
CONTINUOUS
 62
    1
 10
1054.5170780491071
 20
931.54694579781017
 11
1055.1681184135282
 21
931.54694579781017
  0
LINE
  8
_0-2______1
  6
CONTINUOUS
 62
    1
 10
1055.1681184135282
 20
931.54694579781017
 11
1055.8191587779493
 21
931.54694579781017
  0
LINE
  8
_0-2______1
  6
CONTINUOUS
 62
    1
 10
872.58279814667503
 20
773.47277021883792
 11
871.95275908433223
 21
773.47277021883792
  0
LINE
  8
_0-2______1
  6
CONTINUOUS
 62
    1
 10
1055.8191587779493
 20
933.48431591451299
 11
1055.8191587779493
 21
932.833275550091
  0
LINE
  8
_0-2______1
  6
CONTINUOUS
 62
    1
 10
1055.8191587779493
 20
932.833275550091
 11
1055.1681184135282
 21
932.833275550091
  0
LINE
  8
_0-2______1
  6
CONTINUOUS
 62
    1
 10
1055.1681184135282
 20
932.833275550091
 11
1055.1681184135282
 21
931.54694579781017
  0
LINE
  8
_0-2______1
  6
CONTINUOUS
 62
    1
 10
1055.1681184135282
 20
931.54694579781017
 11
1054.5170780491071
 21
931.54694579781017
  0
LINE
  8
_0-2______1
  6
CONTINUOUS
 62
    1
 10
739.03551823214411
 20
1023.8056658268292
 11
739.68655859656519
 21
1023.8056658268292
  0
LINE
  8
_0-2______1
  6
CONTINUOUS
 62
    1
 10
739.68655859656519
 20
1023.8056658268292
 11
739.68655859656519
 21
1024.4619565167682
  0
LINE
  8
_0-2______1
  6
CONTINUOUS
 62
    1
 10
739.68655859656519
 20
1024.4619565167682
 11
740.33759896098627
 21
1024.4619565167682
  0
LINE
  8
_0-2______1
  6
CONTINUOUS
 62
    1
 10
740.33759896098627
 20
1024.4619565167682
 11
740.33759896098627
 21
1025.0893704163518
  0
LINE
  8
_0-2______1
  6
CONTINUOUS
 62
    1
 10
737.75443880538114
 20
1024.4619565167682
 11
737.75443880538114
 21
1023.8056658268292
  0
LINE
  8
_0-2______1
  6
CONTINUOUS
 62
    1
 10
737.75443880538114
 20
1023.8056658268292
 11
738.40547916980313
 21
1023.8056658268292
  0
LINE
  8
_0-2______1
  6
CONTINUOUS
 62
    1
 10
738.40547916980313
 20
1023.8056658268292
 11
739.03551823214411
 21
1023.8056658268292
  0
LINE
  8
_0-2______1
  6
CONTINUOUS
 62
    1
 10
876.46803903112004
 20
767.67641084528714
 11
877.09807809346194
 21
767.67641084528714
  0
LINE
  8
_0-2______1
  6
CONTINUOUS
 62
    1
 10
877.09807809346194
 20
767.67641084528714
 11
877.74911845788301
 21
767.67641084528714
  0
LINE
  8
_0-2______1
  6
CONTINUOUS
 62
    1
 10
544.85747921818893
 20
864.4504108210931
 11
544.85747921818893
 21
863.17195655708883
  0
LINE
  8
_0-2______1
  6
CONTINUOUS
 62
    1
 10
544.85747921818893
 20
863.17195655708883
 11
545.48751828053219
 21
863.17195655708883
  0
LINE
  8
_0-2______1
  6
CONTINUOUS
 62
    1
 10
545.48751828053219
 20
863.17195655708883
 11
546.1385586449519
 21
863.17195655708883
  0
LINE
  8
_0-2______1
  6
CONTINUOUS
 62
    1
 10
1068.7139582538921
 20
1077.3589861259402
 11
1068.7139582538921
 21
1078.6426907154632
  0
LINE
  8
_0-2______1
  6
CONTINUOUS
 62
    1
 10
1068.7139582538921
 20
1078.6426907154632
 11
1068.062917889471
 21
1078.6426907154632
  0
LINE
  8
_0-2______1
  6
CONTINUOUS
 62
    1
 10
1068.062917889471
 20
1078.6426907154632
 11
1068.062917889471
 21
1079.2937310798829
  0
LINE
  8
_0-2______1
  6
CONTINUOUS
 62
    1
 10
1068.062917889471
 20
1079.2937310798829
 11
1067.4328788271291
 21
1079.2937310798829
  0
LINE
  8
_0-2______1
  6
CONTINUOUS
 62
    1
 10
544.85747921818893
 20
1008.332956520801
 11
544.85747921818893
 21
1008.9603704203828
  0
LINE
  8
_0-2______1
  6
CONTINUOUS
 62
    1
 10
544.85747921818893
 20
1008.9603704203828
 11
545.48751828053219
 21
1008.9603704203828
  0
LINE
  8
_0-2______1
  6
CONTINUOUS
 62
    1
 10
546.1385586449519
 20
863.17195655708883
 11
546.78959900937298
 21
863.17195655708883
  0
LINE
  8
_0-2______1
  6
CONTINUOUS
 62
    1
 10
877.09807809346194
 20
767.67641084528714
 11
876.46803903112004
 21
767.67641084528714
  0
LINE
  8
_0-2______1
  6
CONTINUOUS
 62
    1
 10
1068.7139582538921
 20
934.132731116174
 11
1068.7139582538921
 21
934.76277017851589
  0
LINE
  8
_0-2______1
  6
CONTINUOUS
 62
    1
 10
1068.7139582538921
 20
934.76277017851589
 11
1068.062917889471
 21
934.76277017851589
  0
LINE
  8
_0-2______1
  6
CONTINUOUS
 62
    1
 10
1067.4328788271291
 20
1079.2937310798829
 11
1068.062917889471
 21
1079.2937310798829
  0
LINE
  8
_0-2______1
  6
CONTINUOUS
 62
    1
 10
1068.062917889471
 20
1079.2937310798829
 11
1068.062917889471
 21
1077.9942755138022
  0
LINE
  8
_0-2______1
  6
CONTINUOUS
 62
    1
 10
1065.5007590359451
 20
932.19798616222897
 11
1066.130798098287
 21
932.19798616222897
  0
LINE
  8
_0-2______1
  6
CONTINUOUS
 62
    1
 10
1066.130798098287
 20
932.19798616222897
 11
1066.781838462708
 21
932.19798616222897
  0
LINE
  8
_0-2______1
  6
CONTINUOUS
 62
    1
 10
876.46803903112004
 20
767.67641084528714
 11
876.46803903112004
 21
768.32745120970822
  0
LINE
  8
_0-2______1
  6
CONTINUOUS
 62
    1
 10
876.46803903112004
 20
768.32745120970822
 11
875.81699866670033
 21
768.32745120970822
  0
LINE
  8
_0-2______1
  6
CONTINUOUS
 62
    1
 10
875.81699866670033
 20
768.32745120970822
 11
875.81699866670033
 21
770.25694583813083
  0
LINE
  8
_0-2______1
  6
CONTINUOUS
 62
    1
 10
737.10339844096097
 20
1027.021490207535
 11
737.10339844096097
 21
1027.6725305719551
  0
LINE
  8
_0-2______1
  6
CONTINUOUS
 62
    1
 10
544.85747921818893
 20
1007.6766658308602
 11
544.85747921818893
 21
1008.332956520801
  0
LINE
  8
_0-2______1
  6
CONTINUOUS
 62
    1
 10
735.822319014198
 20
1174.1329861017462
 11
735.822319014198
 21
1173.481945737326
  0
LINE
  8
_0-2______1
  6
CONTINUOUS
 62
    1
 10
735.822319014198
 20
1173.481945737326
 11
735.17127864977692
 21
1173.481945737326
  0
LINE
  8
_0-2______1
  6
CONTINUOUS
 62
    1
 10
735.17127864977692
 20
1173.481945737326
 11
735.17127864977692
 21
1172.833530535665
  0
LINE
  8
_0-2______1
  6
CONTINUOUS
 62
    1
 10
1068.062917889471
 20
1077.9942755138022
 11
1068.7139582538921
 21
1077.9942755138022
  0
LINE
  8
_0-2______1
  6
CONTINUOUS
 62
    1
 10
1068.7139582538921
 20
1077.9942755138022
 11
1068.7139582538921
 21
1077.3589861259402
  0
LINE
  8
_0-2______1
  6
CONTINUOUS
 62
    1
 10
737.75443880538114
 20
1173.481945737326
 11
737.75443880538114
 21
1174.7682754896082
  0
LINE
  8
_0-2______1
  6
CONTINUOUS
 62
    1
 10
737.75443880538114
 20
1174.7682754896082
 11
737.10339844096097
 21
1174.7682754896082
  0
LINE
  8
_0-2______1
  6
CONTINUOUS
 62
    1
 10
735.17127864977692
 20
1172.833530535665
 11
735.17127864977692
 21
1173.481945737326
  0
LINE
  8
_0-2______1
  6
CONTINUOUS
 62
    1
 10
735.17127864977692
 20
1173.481945737326
 11
735.822319014198
 21
1173.481945737326
  0
LINE
  8
_0-2______1
  6
CONTINUOUS
 62
    1
 10
735.822319014198
 20
1173.481945737326
 11
736.45235807654126
 21
1173.481945737326
  0
LINE
  8
_0-2______1
  6
CONTINUOUS
 62
    1
 10
736.45235807654126
 20
1173.481945737326
 11
737.10339844096097
 21
1173.481945737326
  0
LINE
  8
_0-2______1
  6
CONTINUOUS
 62
    1
 10
737.10339844096097
 20
1173.481945737326
 11
737.75443880538114
 21
1173.481945737326
  0
LINE
  8
_0-2______1
  6
CONTINUOUS
 62
    1
 10
544.85747921818893
 20
865.10145118551509
 11
544.85747921818893
 21
864.4504108210931
  0
LINE
  8
_0-2______1
  6
CONTINUOUS
 62
    1
 10
546.78959900937298
 20
863.17195655708883
 11
546.1385586449519
 21
863.17195655708883
  0
LINE
  8
_0-2______1
  6
CONTINUOUS
 62
    1
 10
546.1385586449519
 20
863.17195655708883
 11
545.48751828053219
 21
863.79937045667293
  0
LINE
  8
_0-2______1
  6
CONTINUOUS
 62
    1
 10
545.48751828053219
 20
863.79937045667293
 11
544.85747921818893
 21
863.79937045667293
  0
LINE
  8
_0-2______1
  6
CONTINUOUS
 62
    1
 10
544.85747921818893
 20
863.79937045667293
 11
544.85747921818893
 21
865.10145118551509
  0
LINE
  8
_0-2______1
  6
CONTINUOUS
 62
    1
 10
546.78959900937298
 20
863.17195655708883
 11
547.41963807171533
 21
863.17195655708883
  0
LINE
  8
_0-2______1
  6
CONTINUOUS
 62
    1
 10
547.41963807171533
 20
863.17195655708883
 11
548.07067843613504
 21
863.17195655708883
  0
LINE
  8
_0-2______1
  6
CONTINUOUS
 62
    1
 10
548.07067843613504
 20
863.17195655708883
 11
548.07067843613504
 21
863.79937045667293
  0
LINE
  8
_0-2______1
  6
CONTINUOUS
 62
    1
 10
548.07067843613504
 20
863.79937045667293
 11
548.72171880055612
 21
863.79937045667293
  0
LINE
  8
_0-2______1
  6
CONTINUOUS
 62
    1
 10
737.75443880538114
 20
1030.2583158903199
 11
737.10339844096097
 21
1030.2583158903199
  0
LINE
  8
_0-2______1
  6
CONTINUOUS
 62
    1
 10
737.10339844096097
 20
1030.2583158903199
 11
736.45235807654126
 21
1030.2583158903199
  0
LINE
  8
_0-2______1
  6
CONTINUOUS
 62
    1
 10
736.45235807654126
 20
1030.2583158903199
 11
735.822319014198
 21
1029.6072755258979
  0
LINE
  8
_0-2______1
  6
CONTINUOUS
 62
    1
 10
735.822319014198
 20
1029.6072755258979
 11
735.17127864977692
 21
1029.6072755258979
  0
LINE
  8
_0-2______1
  6
CONTINUOUS
 62
    1
 10
737.10339844096097
 20
1027.6725305719551
 11
737.10339844096097
 21
1028.3209457736161
  0
LINE
  8
_0-2______1
  6
CONTINUOUS
 62
    1
 10
737.10339844096097
 20
1028.3209457736161
 11
737.75443880538114
 21
1028.3209457736161
  0
LINE
  8
_0-2______1
  6
CONTINUOUS
 62
    1
 10
737.75443880538114
 20
1028.3209457736161
 11
737.75443880538114
 21
1030.255690727558
  0
LINE
  8
_0-2______1
  6
CONTINUOUS
 62
    1
 10
735.17127864977692
 20
1029.6072755258979
 11
735.17127864977692
 21
1028.9719861380358
  0
LINE
  8
_0-2______1
  6
CONTINUOUS
 62
    1
 10
735.17127864977692
 20
1028.9719861380358
 11
735.822319014198
 21
1028.9719861380358
  0
LINE
  8
_0-2______1
  6
CONTINUOUS
 62
    1
 10
735.822319014198
 20
1028.9719861380358
 11
735.822319014198
 21
1028.3209457736161
  0
LINE
  8
_0-2______1
  6
CONTINUOUS
 62
    1
 10
735.822319014198
 20
1028.3209457736161
 11
736.45235807654126
 21
1028.3209457736161
  0
LINE
  8
_0-2______1
  6
CONTINUOUS
 62
    1
 10
736.45235807654126
 20
1028.3209457736161
 11
736.45235807654126
 21
1027.6725305719551
  0
LINE
  8
_0-2______1
  6
CONTINUOUS
 62
    1
 10
736.45235807654126
 20
1027.6725305719551
 11
737.10339844096097
 21
1027.6725305719551
  0
LINE
  8
_0-2______1
  6
CONTINUOUS
 62
    1
 10
1066.781838462708
 20
932.19798616222897
 11
1067.4328788271291
 21
932.19798616222897
  0
LINE
  8
_0-2______1
  6
CONTINUOUS
 62
    1
 10
1067.4328788271291
 20
932.19798616222897
 11
1068.062917889471
 21
932.19798616222897
  0
LINE
  8
_0-2______1
  6
CONTINUOUS
 62
    1
 10
1068.062917889471
 20
932.19798616222897
 11
1068.062917889471
 21
932.833275550091
  0
LINE
  8
_0-2______1
  6
CONTINUOUS
 62
    1
 10
1068.062917889471
 20
934.76277017851589
 11
1068.062917889471
 21
933.48431591451299
  0
LINE
  8
_0-2______1
  6
CONTINUOUS
 62
    1
 10
1068.062917889471
 20
933.48431591451299
 11
1067.4328788271291
 21
933.48431591451299
  0
LINE
  8
_0-2______1
  6
CONTINUOUS
 62
    1
 10
1067.4328788271291
 20
933.48431591451299
 11
1067.4328788271291
 21
932.833275550091
  0
LINE
  8
_0-2______1
  6
CONTINUOUS
 62
    1
 10
1067.4328788271291
 20
932.833275550091
 11
1066.781838462708
 21
932.833275550091
  0
LINE
  8
_0-2______1
  6
CONTINUOUS
 62
    1
 10
1066.781838462708
 20
932.833275550091
 11
1066.781838462708
 21
932.19798616222897
  0
LINE
  8
_0-2______1
  6
CONTINUOUS
 62
    1
 10
876.46803903112004
 20
767.67641084528714
 11
875.81699866670033
 21
767.67641084528714
  0
LINE
  8
_0-2______1
  6
CONTINUOUS
 62
    1
 10
579.6776380636511
 20
887.02681055503399
 11
579.6776380636511
 21
886.375770190612
  0
LINE
  8
_0-2______1
  6
CONTINUOUS
 62
    1
 10
695.16379819103031
 20
986.38659584920288
 11
695.81483855545002
 21
986.38659584920288
  0
LINE
  8
_0-2______1
  6
CONTINUOUS
 62
    1
 10
715.80807813378533
 20
1004.4450904735959
 11
715.80807813378533
 21
1003.7940501091739
  0
LINE
  8
_0-0_0
  6
CONTINUOUS
 62
    1
 10
2118.8940390216394
 20
398.31308411331383
 11
2118.8940390216394
 21
213.73864839556381
  0
LINE
  8
_0-0_0
  6
CONTINUOUS
 62
    1
 10
2037.6173463336227
 20
398.31308411331383
 11
2037.6173463336227
 21
213.73864839556381
  0
LINE
  8
_0-0_0
  6
CONTINUOUS
 62
    1
 10
1914.0073203228667
 20
599.81671904557379
 11
1102.0356451534153
 21
822.02122486095004
  0
LINE
  8
_0-0_0
  6
CONTINUOUS
 62
    1
 10
2101.9717299980912
 20
413.5541865400578
 11
2052.8584487603675
 21
413.5541865400578
  0
LINE
  8
_0-0_0
  6
CONTINUOUS
 62
    1
 10
2037.6173463336227
 20
398.31308411331383
 11
2037.6173463336227
 21
401.69616787982613
  0
LINE
  8
_0-0_0
  6
CONTINUOUS
 62
    1
 10
2037.6173463336227
 20
401.69616787982613
 11
2041.0073202911153
 21
406.77423862508385
  0
LINE
  8
_0-0_0
  6
CONTINUOUS
 62
    1
 10
2041.0073202911153
 20
406.77423862508385
 11
2044.397294248598
 21
410.16421258257105
  0
LINE
  8
_0-0_0
  6
CONTINUOUS
 62
    1
 10
2044.397294248598
 20
410.16421258257105
 11
2047.773487824139
 21
411.85919956131193
  0
LINE
  8
_0-0_0
  6
CONTINUOUS
 62
    1
 10
2047.773487824139
 20
411.85919956131193
 11
2052.8584487603675
 21
413.5541865400578
  0
LINE
  8
_0-0_0
  6
CONTINUOUS
 62
    1
 10
2101.9717299980912
 20
413.5541865400578
 11
2107.0429105523872
 21
411.85919956131193
  0
LINE
  8
_0-0_0
  6
CONTINUOUS
 62
    1
 10
2107.0429105523872
 20
411.85919956131193
 11
2112.1278714886075
 21
410.16421258257105
  0
LINE
  8
_0-0_0
  6
CONTINUOUS
 62
    1
 10
2112.1278714886075
 20
410.16421258257105
 11
2115.5178454460984
 21
406.77423862508385
  0
LINE
  8
_0-0_0
  6
CONTINUOUS
 62
    1
 10
2115.5178454460984
 20
406.77423862508385
 11
2117.1990520429035
 21
401.69616787982613
  0
LINE
  8
_0-0_0
  6
CONTINUOUS
 62
    1
 10
2117.1990520429035
 20
401.69616787982613
 11
2118.8940390216394
 21
398.31308411331383
  0
LINE
  8
_0-0_0
  6
CONTINUOUS
 62
    1
 10
1914.0073203228667
 20
599.81671904557379
 11
1947.8657187519057
 21
587.96559057630793
  0
LINE
  8
_0-0_0
  6
CONTINUOUS
 62
    1
 10
1947.8657187519057
 20
587.96559057630793
 11
1978.3479236053927
 21
569.33451419208586
  0
LINE
  8
_0-0_0
  6
CONTINUOUS
 62
    1
 10
1978.3479236053927
 20
569.33451419208586
 11
2005.4401545013898
 21
543.93727027481782
  0
LINE
  8
_0-0_0
  6
CONTINUOUS
 62
    1
 10
2005.4401545013898
 20
543.93727027481782
 11
2029.156191821854
 21
516.84503937881709
  0
LINE
  8
_0-0_0
  6
CONTINUOUS
 62
    1
 10
2029.156191821854
 20
516.84503937881709
 11
2046.0922812273438
 21
484.66784754658283
  0
LINE
  8
_0-0_0
  6
CONTINUOUS
 62
    1
 10
2046.0922812273438
 20
484.66784754658283
 11
2056.2484227178593
 21
449.107571947829
  0
LINE
  8
_0-0_0
  6
CONTINUOUS
 62
    1
 10
2056.2484227178593
 20
449.107571947829
 11
2061.3196032721462
 21
413.5541865400578
  0
LINE
  8
_0-0_0
  6
CONTINUOUS
 62
    1
 10
1922.4684748346372
 20
633.68200766558311
 11
1111.8448824419429
 21
853.85850058082588
  0
LINE
  8
_0-0_0
  6
CONTINUOUS
 62
    1
 10
1922.4684748346372
 20
633.68200766558311
 11
1958.0356406243545
 21
620.13589221757093
  0
LINE
  8
_0-0_0
  6
CONTINUOUS
 62
    1
 10
1958.0356406243545
 20
620.13589221757093
 11
1990.1990520746549
 21
601.51170602431603
  0
LINE
  8
_0-0_0
  6
CONTINUOUS
 62
    1
 10
1990.1990520746549
 20
601.51170602431603
 11
2018.986269949397
 21
579.49754587356801
  0
LINE
  8
_0-0_0
  6
CONTINUOUS
 62
    1
 10
2018.986269949397
 20
579.49754587356801
 11
2046.0922812273438
 21
550.71032799882596
  0
LINE
  8
_0-0_0
  6
CONTINUOUS
 62
    1
 10
2046.0922812273438
 20
550.71032799882596
 11
2066.4045642083747
 21
520.22812314532894
  0
LINE
  8
_0-0_0
  6
CONTINUOUS
 62
    1
 10
2066.4045642083747
 20
520.22812314532894
 11
2081.6456666351187
 21
486.36283452532507
  0
LINE
  8
_0-0_0
  6
CONTINUOUS
 62
    1
 10
2081.6456666351187
 20
486.36283452532507
 11
2090.1068211468973
 21
450.80255892657397
  0
LINE
  8
_0-0_0
  6
CONTINUOUS
 62
    1
 10
2090.1068211468973
 20
450.80255892657397
 11
2095.1917820831168
 21
413.5541865400578
  0
LINE
  8
_0-0_0
  6
CONTINUOUS
 62
    1
 10
2037.6173463336227
 20
311.95143048906493
 11
2020.6812569281428
 21
311.95143048906493
  0
LINE
  8
_0-0_0
  6
CONTINUOUS
 62
    1
 10
2037.6173463336227
 20
306.87335974380812
 11
2020.6812569281428
 21
306.87335974380812
  0
LINE
  8
_0-0_0
  6
CONTINUOUS
 62
    1
 10
2020.6812569281428
 20
311.95143048906493
 11
2020.6812569281428
 21
306.87335974380812
  0
LINE
  8
_0-0_0
  6
CONTINUOUS
 62
    1
 10
2037.6173463336227
 20
240.83087929157
 11
2020.6812569281428
 21
240.83087929157
  0
LINE
  8
_0-0_0
  6
CONTINUOUS
 62
    1
 10
2037.6173463336227
 20
234.05782156757004
 11
2020.6812569281428
 21
234.05782156757004
  0
LINE
  8
_0-0_0
  6
CONTINUOUS
 62
    1
 10
2020.6812569281428
 20
240.83087929157
 11
2020.6812569281428
 21
234.05782156757004
  0
LINE
  8
_0-0_0
  6
CONTINUOUS
 62
    1
 10
2091.8018081256341
 20
310.25644351032406
 11
2093.49679510438
 21
310.25644351032406
  0
LINE
  8
_0-0_0
  6
CONTINUOUS
 62
    1
 10
2093.49679510438
 20
310.25644351032406
 11
2093.49679510438
 21
311.95143048906493
  0
LINE
  8
_0-0_0
  6
CONTINUOUS
 62
    1
 10
2093.49679510438
 20
311.95143048906493
 11
2095.1917820831168
 21
311.95143048906493
  0
LINE
  8
_0-0_0
  6
CONTINUOUS
 62
    1
 10
2095.1917820831168
 20
311.95143048906493
 11
2095.1917820831168
 21
313.64641746781081
  0
LINE
  8
_0-0_0
  6
CONTINUOUS
 62
    1
 10
2095.1917820831168
 20
313.64641746781081
 11
2096.8867690618636
 21
313.64641746781081
  0
LINE
  8
_0-0_0
  6
CONTINUOUS
 62
    1
 10
2096.8867690618636
 20
313.64641746781081
 11
2098.5817560406085
 21
313.64641746781081
  0
LINE
  8
_0-0_0
  6
CONTINUOUS
 62
    1
 10
2098.5817560406085
 20
313.64641746781081
 11
2098.5817560406085
 21
311.95143048906493
  0
LINE
  8
_0-0_0
  6
CONTINUOUS
 62
    1
 10
2098.5817560406085
 20
311.95143048906493
 11
2100.2767430193544
 21
311.95143048906493
  0
LINE
  8
_0-0_0
  6
CONTINUOUS
 62
    1
 10
2100.2767430193544
 20
311.95143048906493
 11
2100.2767430193544
 21
310.25644351032406
  0
LINE
  8
_0-0_0
  6
CONTINUOUS
 62
    1
 10
2100.2767430193544
 20
310.25644351032406
 11
2100.2767430193544
 21
308.56145653157819
  0
LINE
  8
_0-0_0
  6
CONTINUOUS
 62
    1
 10
2100.2767430193544
 20
308.56145653157819
 11
2100.2767430193544
 21
306.87335974380812
  0
LINE
  8
_0-0_0
  6
CONTINUOUS
 62
    1
 10
2100.2767430193544
 20
306.87335974380812
 11
2098.5817560406085
 21
306.87335974380812
  0
LINE
  8
_0-0_0
  6
CONTINUOUS
 62
    1
 10
2098.5817560406085
 20
306.87335974380812
 11
2098.5817560406085
 21
305.17837276506179
  0
LINE
  8
_0-0_0
  6
CONTINUOUS
 62
    1
 10
2098.5817560406085
 20
305.17837276506179
 11
2096.8867690618636
 21
305.17837276506179
  0
LINE
  8
_0-0_0
  6
CONTINUOUS
 62
    1
 10
2096.8867690618636
 20
305.17837276506179
 11
2095.1917820831168
 21
305.17837276506179
  0
LINE
  8
_0-0_0
  6
CONTINUOUS
 62
    1
 10
2095.1917820831168
 20
305.17837276506179
 11
2095.1917820831168
 21
306.87335974380812
  0
LINE
  8
_0-0_0
  6
CONTINUOUS
 62
    1
 10
2095.1917820831168
 20
306.87335974380812
 11
2093.49679510438
 21
306.87335974380812
  0
LINE
  8
_0-0_0
  6
CONTINUOUS
 62
    1
 10
2093.49679510438
 20
306.87335974380812
 11
2093.49679510438
 21
308.56145653157819
  0
LINE
  8
_0-0_0
  6
CONTINUOUS
 62
    1
 10
2093.49679510438
 20
308.56145653157819
 11
2091.8018081256341
 21
310.25644351032406
  0
LINE
  8
_0-0_0
  6
CONTINUOUS
 62
    1
 10
2091.8018081256341
 20
237.44090533408689
 11
2093.49679510438
 21
239.13589231282413
  0
LINE
  8
_0-0_0
  6
CONTINUOUS
 62
    1
 10
2093.49679510438
 20
239.13589231282413
 11
2095.1917820831168
 21
240.83087929157
  0
LINE
  8
_0-0_0
  6
CONTINUOUS
 62
    1
 10
2095.1917820831168
 20
240.83087929157
 11
2096.8867690618636
 21
240.83087929157
  0
LINE
  8
_0-0_0
  6
CONTINUOUS
 62
    1
 10
2096.8867690618636
 20
240.83087929157
 11
2098.5817560406085
 21
240.83087929157
  0
LINE
  8
_0-0_0
  6
CONTINUOUS
 62
    1
 10
2098.5817560406085
 20
240.83087929157
 11
2100.2767430193544
 21
239.13589231282413
  0
LINE
  8
_0-0_0
  6
CONTINUOUS
 62
    1
 10
2100.2767430193544
 20
239.13589231282413
 11
2100.2767430193544
 21
237.44090533408689
  0
LINE
  8
_0-0_0
  6
CONTINUOUS
 62
    1
 10
2100.2767430193544
 20
237.44090533408689
 11
2100.2767430193544
 21
235.75280854631592
  0
LINE
  8
_0-0_0
  6
CONTINUOUS
 62
    1
 10
2100.2767430193544
 20
235.75280854631592
 11
2098.5817560406085
 21
234.05782156757004
  0
LINE
  8
_0-0_0
  6
CONTINUOUS
 62
    1
 10
2098.5817560406085
 20
234.05782156757004
 11
2096.8867690618636
 21
234.05782156757004
  0
LINE
  8
_0-0_0
  6
CONTINUOUS
 62
    1
 10
2096.8867690618636
 20
234.05782156757004
 11
2095.1917820831168
 21
234.05782156757004
  0
LINE
  8
_0-0_0
  6
CONTINUOUS
 62
    1
 10
2095.1917820831168
 20
234.05782156757004
 11
2093.49679510438
 21
235.75280854631592
  0
LINE
  8
_0-0_0
  6
CONTINUOUS
 62
    1
 10
2093.49679510438
 20
235.75280854631592
 11
2091.8018081256341
 21
237.44090533408689
  0
LINE
  8
_0-0_0
  6
CONTINUOUS
 62
    1
 10
2041.0073202911153
 20
213.73864839556381
 11
2042.7023072698521
 21
215.43363537431014
  0
LINE
  8
_0-0_0
  6
CONTINUOUS
 62
    1
 10
2042.7023072698521
 20
215.43363537431014
 11
2044.397294248598
 21
215.43363537431014
  0
LINE
  8
_0-0_0
  6
CONTINUOUS
 62
    1
 10
2044.397294248598
 20
215.43363537431014
 11
2046.0922812273438
 21
217.12173216208112
  0
LINE
  8
_0-0_0
  6
CONTINUOUS
 62
    1
 10
2046.0922812273438
 20
217.12173216208112
 11
2049.4684748028849
 21
217.12173216208112
  0
LINE
  8
_0-0_0
  6
CONTINUOUS
 62
    1
 10
2049.4684748028849
 20
217.12173216208112
 11
2054.5534357391134
 21
218.81671914082699
  0
LINE
  8
_0-0_0
  6
CONTINUOUS
 62
    1
 10
2054.5534357391134
 20
218.81671914082699
 11
2059.6383966753419
 21
220.51170611956786
  0
LINE
  8
_0-0_0
  6
CONTINUOUS
 62
    1
 10
2059.6383966753419
 20
220.51170611956786
 11
2064.7095772296379
 21
220.51170611956786
  0
LINE
  8
_0-0_0
  6
CONTINUOUS
 62
    1
 10
2064.7095772296379
 20
220.51170611956786
 11
2071.4895251446032
 21
220.51170611956786
  0
LINE
  8
_0-0_0
  6
CONTINUOUS
 62
    1
 10
2071.4895251446032
 20
220.51170611956786
 11
2078.255692677636
 21
220.51170611956786
  0
LINE
  8
_0-0_0
  6
CONTINUOUS
 62
    1
 10
2078.255692677636
 20
220.51170611956786
 11
2085.0356405926104
 21
220.51170611956786
  0
LINE
  8
_0-0_0
  6
CONTINUOUS
 62
    1
 10
2085.0356405926104
 20
220.51170611956786
 11
2090.1068211468973
 21
220.51170611956786
  0
LINE
  8
_0-0_0
  6
CONTINUOUS
 62
    1
 10
2090.1068211468973
 20
220.51170611956786
 11
2096.8867690618636
 21
220.51170611956786
  0
LINE
  8
_0-0_0
  6
CONTINUOUS
 62
    1
 10
2096.8867690618636
 20
220.51170611956786
 11
2101.9717299980912
 21
218.81671914082699
  0
LINE
  8
_0-0_0
  6
CONTINUOUS
 62
    1
 10
2101.9717299980912
 20
218.81671914082699
 11
2105.3479235736504
 21
217.12173216208112
  0
LINE
  8
_0-0_0
  6
CONTINUOUS
 62
    1
 10
2105.3479235736504
 20
217.12173216208112
 11
2110.4328845098698
 21
217.12173216208112
  0
LINE
  8
_0-0_0
  6
CONTINUOUS
 62
    1
 10
2110.4328845098698
 20
217.12173216208112
 11
2112.1278714886075
 21
215.43363537431014
  0
LINE
  8
_0-0_0
  6
CONTINUOUS
 62
    1
 10
2112.1278714886075
 20
215.43363537431014
 11
2113.8228584673525
 21
215.43363537431014
  0
LINE
  8
_0-0_0
  6
CONTINUOUS
 62
    1
 10
2113.8228584673525
 20
215.43363537431014
 11
2113.8228584673525
 21
213.73864839556381
  0
LINE
  8
_0-0_0
  6
CONTINUOUS
 62
    1
 10
2113.8228584673525
 20
213.73864839556381
 11
2113.8228584673525
 21
212.04366141682294
  0
LINE
  8
_0-0_0
  6
CONTINUOUS
 62
    1
 10
2113.8228584673525
 20
212.04366141682294
 11
2112.1278714886075
 21
210.34867443807707
  0
LINE
  8
_0-0_0
  6
CONTINUOUS
 62
    1
 10
2112.1278714886075
 20
210.34867443807707
 11
2110.4328845098698
 21
210.34867443807707
  0
LINE
  8
_0-0_0
  6
CONTINUOUS
 62
    1
 10
2110.4328845098698
 20
210.34867443807707
 11
2105.3479235736504
 21
208.6536874593362
  0
LINE
  8
_0-0_0
  6
CONTINUOUS
 62
    1
 10
2105.3479235736504
 20
208.6536874593362
 11
2101.9717299980912
 21
208.6536874593362
  0
LINE
  8
_0-0_0
  6
CONTINUOUS
 62
    1
 10
2101.9717299980912
 20
208.6536874593362
 11
2096.8867690618636
 21
206.96559067156522
  0
LINE
  8
_0-0_0
  6
CONTINUOUS
 62
    1
 10
2096.8867690618636
 20
206.96559067156522
 11
2090.1068211468973
 21
206.96559067156522
  0
LINE
  8
_0-0_0
  6
CONTINUOUS
 62
    1
 10
2090.1068211468973
 20
206.96559067156522
 11
2085.0356405926104
 21
206.96559067156522
  0
LINE
  8
_0-0_0
  6
CONTINUOUS
 62
    1
 10
2085.0356405926104
 20
206.96559067156522
 11
2078.255692677636
 21
206.96559067156522
  0
LINE
  8
_0-0_0
  6
CONTINUOUS
 62
    1
 10
2078.255692677636
 20
206.96559067156522
 11
2071.4895251446032
 21
206.96559067156522
  0
LINE
  8
_0-0_0
  6
CONTINUOUS
 62
    1
 10
2071.4895251446032
 20
206.96559067156522
 11
2064.7095772296379
 21
206.96559067156522
  0
LINE
  8
_0-0_0
  6
CONTINUOUS
 62
    1
 10
2064.7095772296379
 20
206.96559067156522
 11
2059.6383966753419
 21
206.96559067156522
  0
LINE
  8
_0-0_0
  6
CONTINUOUS
 62
    1
 10
2059.6383966753419
 20
206.96559067156522
 11
2054.5534357391134
 21
208.6536874593362
  0
LINE
  8
_0-0_0
  6
CONTINUOUS
 62
    1
 10
2054.5534357391134
 20
208.6536874593362
 11
2049.4684748028849
 21
208.6536874593362
  0
LINE
  8
_0-0_0
  6
CONTINUOUS
 62
    1
 10
2049.4684748028849
 20
208.6536874593362
 11
2046.0922812273438
 21
210.34867443807707
  0
LINE
  8
_0-0_0
  6
CONTINUOUS
 62
    1
 10
2046.0922812273438
 20
210.34867443807707
 11
2044.397294248598
 21
210.34867443807707
  0
LINE
  8
_0-0_0
  6
CONTINUOUS
 62
    1
 10
2044.397294248598
 20
210.34867443807707
 11
2042.7023072698521
 21
212.04366141682294
  0
LINE
  8
_0-0_0
  6
CONTINUOUS
 62
    1
 10
2042.7023072698521
 20
212.04366141682294
 11
2041.0073202911153
 21
213.73864839556381
  0
LINE
  8
_0-0_0
  6
CONTINUOUS
 62
    1
 10
2037.6173463336227
 20
213.73864839556381
 11
2037.6173463336227
 21
215.43363537431014
  0
LINE
  8
_0-0_0
  6
CONTINUOUS
 62
    1
 10
2037.6173463336227
 20
215.43363537431014
 11
2039.3123333123694
 21
217.12173216208112
  0
LINE
  8
_0-0_0
  6
CONTINUOUS
 62
    1
 10
2039.3123333123694
 20
217.12173216208112
 11
2042.7023072698521
 21
217.12173216208112
  0
LINE
  8
_0-0_0
  6
CONTINUOUS
 62
    1
 10
2042.7023072698521
 20
217.12173216208112
 11
2047.773487824139
 21
218.81671914082699
  0
LINE
  8
_0-0_0
  6
CONTINUOUS
 62
    1
 10
2047.773487824139
 20
218.81671914082699
 11
2051.1634617816308
 21
218.81671914082699
  0
LINE
  8
_0-0_0
  6
CONTINUOUS
 62
    1
 10
2051.1634617816308
 20
218.81671914082699
 11
2057.9434096965961
 21
220.51170611956786
  0
LINE
  8
_0-0_0
  6
CONTINUOUS
 62
    1
 10
2057.9434096965961
 20
220.51170611956786
 11
2064.7095772296379
 21
220.51170611956786
  0
LINE
  8
_0-0_0
  6
CONTINUOUS
 62
    1
 10
2064.7095772296379
 20
220.51170611956786
 11
2071.4895251446032
 21
222.20669309830919
  0
LINE
  8
_0-0_0
  6
CONTINUOUS
 62
    1
 10
2071.4895251446032
 20
222.20669309830919
 11
2078.255692677636
 21
222.20669309830919
  0
LINE
  8
_0-0_0
  6
CONTINUOUS
 62
    1
 10
2078.255692677636
 20
222.20669309830919
 11
2085.0356405926104
 21
222.20669309830919
  0
LINE
  8
_0-0_0
  6
CONTINUOUS
 62
    1
 10
2085.0356405926104
 20
222.20669309830919
 11
2091.8018081256341
 21
220.51170611956786
  0
LINE
  8
_0-0_0
  6
CONTINUOUS
 62
    1
 10
2091.8018081256341
 20
220.51170611956786
 11
2098.5817560406085
 21
220.51170611956786
  0
LINE
  8
_0-0_0
  6
CONTINUOUS
 62
    1
 10
2098.5817560406085
 20
220.51170611956786
 11
2103.6529365948954
 21
218.81671914082699
  0
LINE
  8
_0-0_0
  6
CONTINUOUS
 62
    1
 10
2103.6529365948954
 20
218.81671914082699
 11
2108.737897531124
 21
218.81671914082699
  0
LINE
  8
_0-0_0
  6
CONTINUOUS
 62
    1
 10
2108.737897531124
 20
218.81671914082699
 11
2113.8228584673525
 21
217.12173216208112
  0
LINE
  8
_0-0_0
  6
CONTINUOUS
 62
    1
 10
2113.8228584673525
 20
217.12173216208112
 11
2115.5178454460984
 21
217.12173216208112
  0
LINE
  8
_0-0_0
  6
CONTINUOUS
 62
    1
 10
2115.5178454460984
 20
217.12173216208112
 11
2118.8940390216394
 21
215.43363537431014
  0
LINE
  8
_0-0_0
  6
CONTINUOUS
 62
    1
 10
2118.8940390216394
 20
215.43363537431014
 11
2118.8940390216394
 21
213.73864839556381
  0
LINE
  8
_0-0_0
  6
CONTINUOUS
 62
    1
 10
2118.8940390216394
 20
213.73864839556381
 11
2118.8940390216394
 21
212.04366141682294
  0
LINE
  8
_0-0_0
  6
CONTINUOUS
 62
    1
 10
2118.8940390216394
 20
212.04366141682294
 11
2115.5178454460984
 21
210.34867443807707
  0
LINE
  8
_0-0_0
  6
CONTINUOUS
 62
    1
 10
2115.5178454460984
 20
210.34867443807707
 11
2113.8228584673525
 21
208.6536874593362
  0
LINE
  8
_0-0_0
  6
CONTINUOUS
 62
    1
 10
2113.8228584673525
 20
208.6536874593362
 11
2108.737897531124
 21
208.6536874593362
  0
LINE
  8
_0-0_0
  6
CONTINUOUS
 62
    1
 10
2108.737897531124
 20
208.6536874593362
 11
2103.6529365948954
 21
206.96559067156522
  0
LINE
  8
_0-0_0
  6
CONTINUOUS
 62
    1
 10
2103.6529365948954
 20
206.96559067156522
 11
2098.5817560406085
 21
206.96559067156522
  0
LINE
  8
_0-0_0
  6
CONTINUOUS
 62
    1
 10
2098.5817560406085
 20
206.96559067156522
 11
2091.8018081256341
 21
205.2706036928189
  0
LINE
  8
_0-0_0
  6
CONTINUOUS
 62
    1
 10
2091.8018081256341
 20
205.2706036928189
 11
2085.0356405926104
 21
205.2706036928189
  0
LINE
  8
_0-0_0
  6
CONTINUOUS
 62
    1
 10
2085.0356405926104
 20
205.2706036928189
 11
2078.255692677636
 21
205.2706036928189
  0
LINE
  8
_0-0_0
  6
CONTINUOUS
 62
    1
 10
2078.255692677636
 20
205.2706036928189
 11
2071.4895251446032
 21
205.2706036928189
  0
LINE
  8
_0-0_0
  6
CONTINUOUS
 62
    1
 10
2071.4895251446032
 20
205.2706036928189
 11
2064.7095772296379
 21
205.2706036928189
  0
LINE
  8
_0-0_0
  6
CONTINUOUS
 62
    1
 10
2064.7095772296379
 20
205.2706036928189
 11
2057.9434096965961
 21
206.96559067156522
  0
LINE
  8
_0-0_0
  6
CONTINUOUS
 62
    1
 10
2057.9434096965961
 20
206.96559067156522
 11
2051.1634617816308
 21
206.96559067156522
  0
LINE
  8
_0-0_0
  6
CONTINUOUS
 62
    1
 10
2051.1634617816308
 20
206.96559067156522
 11
2047.773487824139
 21
208.6536874593362
  0
LINE
  8
_0-0_0
  6
CONTINUOUS
 62
    1
 10
2047.773487824139
 20
208.6536874593362
 11
2042.7023072698521
 21
208.6536874593362
  0
LINE
  8
_0-0_0
  6
CONTINUOUS
 62
    1
 10
2042.7023072698521
 20
208.6536874593362
 11
2039.3123333123694
 21
210.34867443807707
  0
LINE
  8
_0-0_0
  6
CONTINUOUS
 62
    1
 10
2039.3123333123694
 20
210.34867443807707
 11
2037.6173463336227
 21
212.04366141682294
  0
LINE
  8
_0-0_0
  6
CONTINUOUS
 62
    1
 10
2037.6173463336227
 20
212.04366141682294
 11
2037.6173463336227
 21
213.73864839556381
  0
LINE
  8
_0-0_0
  6
CONTINUOUS
 62
    1
 10
1091.1367183278853
 20
816.27937900725919
 11
972.90601817367724
 21
850.25484319768884
  0
LINE
  8
_0-0_0
  6
CONTINUOUS
 62
    1
 10
1105.278752613654
 20
865.49202863700793
 11
1019.218365989298
 21
890.2228437312001
  0
LINE
  8
_0-0_0
  6
CONTINUOUS
 62
    1
 10
1103.3095919449411
 20
823.87382523060205
 11
1111.855236264124
 21
853.61168268744086
  0
LINE
  8
_0-0_0
  6
CONTINUOUS
 62
    1
 10
1105.278752613654
 20
865.49202863700793
 11
1107.3271936926772
 21
864.90337665037214
  0
LINE
  8
_0-0_0
  6
CONTINUOUS
 62
    1
 10
1107.3271936926772
 20
864.90337665037214
 11
1109.8120904295829
 21
861.96718617170018
  0
LINE
  8
_0-0_0
  6
CONTINUOUS
 62
    1
 10
1109.8120904295829
 20
861.96718617170018
 11
1111.2748526158571
 21
859.32472224440016
  0
LINE
  8
_0-0_0
  6
CONTINUOUS
 62
    1
 10
1111.2748526158571
 20
859.32472224440016
 11
1111.7137060414971
 21
856.9855277078741
  0
LINE
  8
_0-0_0
  6
CONTINUOUS
 62
    1
 10
1111.7137060414971
 20
856.9855277078741
 11
1111.855236264124
 21
853.61168268744086
  0
LINE
  8
_0-0_0
  6
CONTINUOUS
 62
    1
 10
1103.3095919449411
 20
823.87382523060205
 11
1101.4009068785399
 21
821.09817503619888
  0
LINE
  8
_0-0_0
  6
CONTINUOUS
 62
    1
 10
1101.4009068785399
 20
821.09817503619888
 11
1099.4898240443822
 21
818.31418088627697
  0
LINE
  8
_0-0_0
  6
CONTINUOUS
 62
    1
 10
1099.4898240443822
 20
818.31418088627697
 11
1096.8473601170772
 21
816.85141870001098
  0
LINE
  8
_0-0_0
  6
CONTINUOUS
 62
    1
 10
1096.8473601170772
 20
816.85141870001098
 11
1093.4800848421642
 21
816.71703354902002
  0
LINE
  8
_0-0_0
  6
CONTINUOUS
 62
    1
 10
1093.4800848421642
 20
816.71703354902002
 11
1091.1367183278853
 21
816.27937900725919
  0
INSERT
  2
-000-SPECEL-M4010NAM10L
  8
_0-0_0
 10
2319.0181917056807
 20
-287.44638293531602
 41
1
 42
1
 50
0
  0
ENDSEC
  0
EOF
