  0
SECTION
  2
HEADER
  9
$ACADVER
  1
AC1009
  9
$INSBASE
 10
0
 20
0
 30
0
  9
$EXTMIN
 10
0
 20
0
  9
$EXTMAX
 10
1485
 20
1050
  9
$LIMMIN
 10
0
 20
0
  9
$LIMMAX
 10
1485
 20
1050
  9
$LTSCALE
 40
5
  0
ENDSEC
  0
SECTION
  2
TABLES
  0
TABLE
  2
LTYPE
 70
     9
  0
LTYPE
  2
CONTINUOUS
 70
    64
  3
実線
 72
    65
 73
     0
 40
0.0
  0
LTYPE
  2
DASHED1
 70
    64
  3
--  --  --  --  --  --  --  --  
 72
    65
 73
     2
 40
2.5
 49
1.25
 49
-1.25
  0
LTYPE
  2
DASHED2
 70
    64
  3
----    ----    ----    ----    
 72
    65
 73
     2
 40
5.0
 49
2.5
 49
-2.5
  0
LTYPE
  2
DASHED3
 70
    64
  3
------  ------  ------  ------  
 72
    65
 73
     2
 40
5.0
 49
3.75
 49
-1.25
  0
LTYPE
  2
CENTER1
 70
    64
  3
----- - ----- - ----- - ----- - 
 72
    65
 73
     4
 40
10.0
 49
6.25
 49
-1.25
 49
1.25
 49
-1.25
  0
LTYPE
  2
CENTER2
 70
    64
  3
----------  --  ----------  --  
 72
    65
 73
     4
 40
20.0
 49
12.5
 49
-2.5
 49
2.5
 49
-2.5
  0
LTYPE
  2
PHANTOM1
 70
    64
  3
--- - - --- - - --- - - --- - - 
 72
    65
 73
     6
 40
10.0
 49
3.25
 49
-1.25
 49
1.25
 49
-1.25
 49
1.25
 49
-1.25
  0
LTYPE
  2
PHANTOM2
 70
    64
  3
--------  -  -  --------  -  -  
 72
    65
 73
     6
 40
20.0
 49
10.0
 49
-2.5
 49
1.25
 49
-2.5
 49
1.25
 49
-2.5
  0
LTYPE
  2
DOT
 70
    64
  3
-   -   -   -   -   -   -   -   
 72
    65
 73
     2
 40
2.5
 49
0.625
 49
-1.875
  0
LTYPE
  2
DUMMY
 70
    64
  3
ダミー
 72
    65
 73
     0
 40
0.0
  0
LTYPE
  2
RAND1
 70
    64
  3
ランダム線1
 72
    65
 73
     4
 40
10.0
 49
1.0
 49
-2.0
 49
3.0
 49
-4.0
  0
LTYPE
  2
RAND2
 70
    64
  3
ランダム線2
 72
    65
 73
     4
 40
14.0
 49
2.0
 49
-3.0
 49
4.0
 49
-5.0
  0
LTYPE
  2
RAND3
 70
    64
  3
ランダム線3
 72
    65
 73
     4
 40
18.0
 49
3.0
 49
-4.0
 49
5.0
 49
-6.0
  0
LTYPE
  2
RAND4
 70
    64
  3
ランダム線4
 72
    65
 73
     4
 40
22.0
 49
4.0
 49
-5.0
 49
6.0
 49
-7.0
  0
LTYPE
  2
RAND5
 70
    64
  3
ランダム線5
 72
    65
 73
     4
 40
26.0
 49
5.0
 49
-6.0
 49
7.0
 49
-8.0
  0
LTYPE
  2
LONG1
 70
    64
  3
----------  --  ----------  --  
 72
    65
 73
     4
 40
40.0
 49
32.5
 49
-2.5
 49
2.5
 49
-2.5
  0
LTYPE
  2
LONG2
 70
    64
  3
--------  -  -  --------  -  -  
 72
    65
 73
     6
 40
40.0
 49
30.0
 49
-2.5
 49
1.25
 49
-2.5
 49
1.25
 49
-2.5
  0
LTYPE
  2
LONG3
 70
    64
  3
+++++++++++++++..+++++++++++++++
 72
    65
 73
     2
 40
40.0
 49
37.5
 49
-2.5
  0
LTYPE
  2
LONG4
 70
    64
  3
+++++++++++++++..+++++++++++++++
 72
    65
 73
     2
 40
80.0
 49
75.0
 49
-5.0
  0
LTYPE
  2
LONG5
 70
    64
  3
----------  --  ----------  --  
 72
    65
 73
     4
 40
60.0
 49
37.5
 49
-7.5
 49
7.5
 49
-7.5
  0
LTYPE
  2
dashed
 70
   64
  3
-------   -------------   ------
 72
   65
 73
    2
 40
7.5
 49
6
 49
-1.5
  0
LTYPE
  2
dashed_spaced
 70
   64
  3
----        --------        ----
 72
   65
 73
    2
 40
12
 49
6
 49
-6
  0
LTYPE
  2
long_dashed_dotted
 70
   64
  3
------------- --- --------------
 72
   65
 73
    4
 40
15.25
 49
12
 49
-1.5
 49
0.25
 49
-1.5
  0
LTYPE
  2
long_dashed_double-dotted
 70
   64
  3
----------- --- --- ------------
 72
   65
 73
    6
 40
17
 49
12
 49
-1.5
 49
0.25
 49
-1.5
 49
0.25
 49
-1.5
  0
LTYPE
  2
long_dashed_triplicate-dotted
 70
   64
  3
--------- --- --- --- ----------
 72
   65
 73
    8
 40
18.75
 49
12
 49
-1.5
 49
0.25
 49
-1.5
 49
0.25
 49
-1.5
 49
0.25
 49
-1.5
  0
LTYPE
  2
dotted
 70
   64
  3
   -       -       -       -    
 72
   65
 73
    2
 40
1.75
 49
0.25
 49
-1.5
  0
LTYPE
  2
chain
 70
   64
  3
-------------- -- --------------
 72
   65
 73
    4
 40
18.5
 49
12
 49
-1.5
 49
3.5
 49
-1.5
  0
LTYPE
  2
chain_double_dash
 70
   64
  3
------------ -- -- -------------
 72
   65
 73
    6
 40
23.5
 49
12
 49
-1.5
 49
3.5
 49
-1.5
 49
3.5
 49
-1.5
  0
LTYPE
  2
dashed_dotted
 70
   64
  3
-----------     -     ----------
 72
   65
 73
    4
 40
9.25
 49
6
 49
-1.5
 49
0.25
 49
-1.5
  0
LTYPE
  2
double-dashed_dotted
 70
   64
  3
------   -----------   -   -----
 72
   65
 73
    6
 40
16.75
 49
6
 49
-1.5
 49
6
 49
-1.5
 49
0.25
 49
-1.5
  0
LTYPE
  2
dashed_double-dotted
 70
   64
  3
---------    -    -    ---------
 72
   65
 73
    6
 40
11
 49
6
 49
-1.5
 49
0.25
 49
-1.5
 49
0.25
 49
-1.5
  0
LTYPE
  2
double-dashed_double-dotted
 70
   64
  3
-----   ---------   -   -   ----
 72
   65
 73
    8
 40
18.5
 49
6
 49
-1.5
 49
6
 49
-1.5
 49
0.25
 49
-1.5
 49
0.25
 49
-1.5
  0
LTYPE
  2
dashed_triplicate-dotted
 70
   64
  3
-------    -    -    -    ------
 72
   65
 73
    8
 40
12.75
 49
6
 49
-1.5
 49
0.25
 49
-1.5
 49
0.25
 49
-1.5
 49
0.25
 49
-1.5
  0
LTYPE
  2
double-dashed_triplicate-dotted
 70
   64
  3
-----  ---------  -  -  -  -----
 72
   65
 73
   10
 40
20.25
 49
6
 49
-1.5
 49
6
 49
-1.5
 49
0.25
 49
-1.5
 49
0.25
 49
-1.5
 49
0.25
 49
-1.5
  0
LTYPE
  2
undefined
 70
   64
  3
--------------------------------
 72
   65
 73
    0
 40
0
  0
LTYPE
  2
_
 70
   64
  3
                                
 72
   65
 73
    0
 40
0
  0
LTYPE
  2
__18
 70
   64
  3
                                
 72
   65
 73
    0
 40
0
  0
LTYPE
  2
__19
 70
   64
  3
                                
 72
   65
 73
    0
 40
0
  0
LTYPE
  2
__20
 70
   64
  3
                                
 72
   65
 73
    0
 40
0
  0
LTYPE
  2
__21
 70
   64
  3
                                
 72
   65
 73
    0
 40
0
  0
LTYPE
  2
__22
 70
   64
  3
                                
 72
   65
 73
    0
 40
0
  0
LTYPE
  2
__23
 70
   64
  3
                                
 72
   65
 73
    0
 40
0
  0
LTYPE
  2
__24
 70
   64
  3
                                
 72
   65
 73
    0
 40
0
  0
LTYPE
  2
__25
 70
   64
  3
                                
 72
   65
 73
    0
 40
0
  0
LTYPE
  2
__26
 70
   64
  3
                                
 72
   65
 73
    0
 40
0
  0
LTYPE
  2
__27
 70
   64
  3
                                
 72
   65
 73
    0
 40
0
  0
LTYPE
  2
__28
 70
   64
  3
                                
 72
   65
 73
    0
 40
0
  0
LTYPE
  2
__29
 70
   64
  3
                                
 72
   65
 73
    0
 40
0
  0
LTYPE
  2
__30
 70
   64
  3
                                
 72
   65
 73
    0
 40
0
  0
LTYPE
  2
__31
 70
   64
  3
                                
 72
   65
 73
    0
 40
0
  0
LTYPE
  2
__32
 70
   64
  3
                                
 72
   65
 73
    0
 40
0
  0
ENDTAB
  0
TABLE
  2
STYLE
  5
3
100
AcDbSymbolTable
 70
     1
  0
STYLE
  5
10
100
AcDbSymbolTableRecord
100
AcDbTextStyleTableRecord
  2
STANDARD
 70
     0
 40
0.0
 41
1.0
 50
0.0
 71
     0
 42
0.2
  3
txt
  4
bigfont.shx
  0
STYLE
  5
26
100
AcDbSymbolTableRecord
100
AcDbTextStyleTableRecord
  2
TATEGAKI
 70
    68
 40
0.0
 41
1.0
 50
0.0
 71
     0
 42
1.0
  3
txt
  4
bigfont.shx
  0
ENDTAB
  0
TABLE
  2
LAYER
 70
    3
  0
LAYER
  2
_0-0_0
 70
   64
 62
    7
  6
CONTINUOUS
  0
LAYER
  2
_0-2______1
 70
   64
 62
    7
  6
CONTINUOUS
  0
LAYER
  2
ADD_LINE
 70
   64
 62
    7
  6
CONTINUOUS
  0
ENDTAB
  0
ENDSEC
  0
SECTION
  2
BLOCKS
  0
BLOCK
  2
-000-SPECEL-M6010N
 70
   64
 10
0
 20
0
 30
0
  0
TEXT
  8
_0-3_SPEC
 62
    7
 10
0
 20
0
 40
1.5
 41
1
 50
0
  1
ｴｸｽﾃﾘｱ 昼白色(5000K) Ra75
  0
TEXT
  8
_0-3_SPEC
 62
    7
 10
0
 20
-3
 40
1.5
 41
1
 50
0
  1
100V~242V共用ﾀｲﾌﾟ
  0
TEXT
  8
_0-3_SPEC
 62
    7
 10
0
 20
-6
 40
1.5
 41
1
 50
0
  1
本体:ｽﾃﾝﾚｽ 黒色塗装仕上
  0
TEXT
  8
_0-3_SPEC
 62
    7
 10
0
 20
-9
 40
1.5
 41
1
 50
0
  1
光源寿命:60,000時間(光束維持率90%)
  0
TEXT
  8
_0-3_SPEC
 62
    7
 10
0
 20
-12
 40
1.5
 41
1
 50
0
  1
光束:6500lm 消費電力:42.7W 消費効率:152.2lm/W
  0
ENDBLK
  0
ENDSEC
  0
SECTION
  2
ENTITIES
  0
TEXT
  8
_0-0_0
 62
    7
 10
-67.3312718936441
 20
1539.863934189304
 40
114.3
 41
1
 50
0
  1
LED42.7W×１　 街路灯
  0
TEXT
  8
_0-0_0
 62
    7
 10
-67.3312718936441
 20
-593.73593881069291
 40
114.3
 41
1
 50
0
  1
三菱 EL-M6010N 
  0
INSERT
  2
-000-SPECEL-M6010N
  8
_0-0_0
 10
1495.8272336944628
 20
-599.54982769958201
 41
1
 42
1
 50
0
  0
LINE
  8
_0-2______1
  6
CONTINUOUS
 62
    7
 10
669.77987497786989
 20
520.86116578705787
 11
669.77987497786989
 21
664.0926711223442
  0
LINE
  8
_0-2______1
  6
CONTINUOUS
 62
    7
 10
680.74255466263003
 20
522.79066041548094
 11
680.74255466263003
 21
525.37644573384523
  0
LINE
  8
_0-2______1
  6
CONTINUOUS
 62
    7
 10
669.77987497786989
 20
664.0926711223442
 11
860.09367440945789
 21
828.59324513720821
  0
LINE
  8
_0-2______1
  6
CONTINUOUS
 62
    7
 10
762.66863406923221
 20
540.20599016373217
 11
762.66863406923221
 21
542.13548479215615
  0
LINE
  8
_0-2______1
  6
CONTINUOUS
 62
    7
 10
763.31967443365193
 20
542.13548479215615
 11
763.31967443365193
 21
544.08860588541711
  0
LINE
  8
_0-2______1
  6
CONTINUOUS
 62
    7
 10
1000.7393944263808
 20
426.01666043967498
 11
674.92519398700006
 21
520.86116578705787
  0
LINE
  8
_0-2______1
  6
CONTINUOUS
 62
    7
 10
997.505193906356
 20
429.23248482038207
 11
682.023634089393
 21
520.86116578705787
  0
LINE
  8
_0-2______1
  6
CONTINUOUS
 62
    7
 10
860.09367440945789
 20
828.59324513720821
 11
860.09367440945789
 21
685.36699012744202
  0
LINE
  8
_0-2______1
  6
CONTINUOUS
 62
    7
 10
862.67683456506211
 20
682.78120480907819
 11
862.67683456506211
 21
680.22167111831095
  0
LINE
  8
_0-2______1
  6
CONTINUOUS
 62
    7
 10
862.67683456506211
 20
686.0180304918631
 11
862.67683456506211
 21
829.24166033886922
  0
LINE
  8
_0-2______1
  6
CONTINUOUS
 62
    7
 10
860.09367440945789
 20
685.36699012744202
 11
669.77987497786989
 21
520.86116578705787
  0
LINE
  8
_0-2______1
  6
CONTINUOUS
 62
    7
 10
842.03255462230709
 20
664.0926711223442
 11
830.41883457312724
 21
654.40844570158697
  0
LINE
  8
_0-2______1
  6
CONTINUOUS
 62
    7
 10
821.38827467955116
 20
647.30738043643487
 11
809.77455463037086
 21
636.3447007516761
  0
LINE
  8
_0-2______1
  6
CONTINUOUS
 62
    7
 10
727.19743485934896
 20
564.73288582817304
 11
714.93267444574894
 21
554.397620042997
  0
LINE
  8
_0-2______1
  6
CONTINUOUS
 62
    7
 10
706.55315491659394
 20
546.65076473894305
 11
694.28839450299301
 21
536.99016578302599
  0
LINE
  8
_0-2______1
  6
CONTINUOUS
 62
    7
 10
862.67683456506211
 20
680.22167111831095
 11
853.64627467148694
 21
672.46956548873914
  0
LINE
  8
_0-2______1
  6
CONTINUOUS
 62
    7
 10
799.44191400795489
 20
626.01731045477891
 11
738.81115490852926
 21
572.46399015566703
  0
LINE
  8
_0-2______1
  6
CONTINUOUS
 62
    7
 10
684.60679424499722
 20
526.00648479618803
 11
680.74255466263003
 21
522.79066041548094
  0
LINE
  8
_0-2______1
  6
CONTINUOUS
 62
    7
 10
682.023634089393
 20
520.86116578705787
 11
685.25783460941693
 21
523.44170077990202
  0
LINE
  8
_0-2______1
  6
CONTINUOUS
 62
    7
 10
738.81115490852926
 20
569.87820483730411
 11
800.74399473679523
 21
622.78048477199491
  0
LINE
  8
_0-2______1
  6
CONTINUOUS
 62
    7
 10
854.27631373383019
 20
669.23799013147391
 11
863.95791399182508
 21
677.63588579994712
  0
LINE
  8
_0-2______1
  6
CONTINUOUS
 62
    7
 10
865.25999472066724
 20
680.84908501789505
 11
865.25999472066724
 21
682.15116574673493
  0
LINE
  8
_0-2______1
  6
CONTINUOUS
 62
    7
 10
1183.9547537555773
 20
521.49120484940022
 11
1182.0226339643932
 21
522.14224521382084
  0
LINE
  8
_0-2______1
  6
CONTINUOUS
 62
    7
 10
935.57235407808912
 20
494.39952516867288
 11
935.57235407808912
 21
492.4700305402489
  0
LINE
  8
_0-2______1
  6
CONTINUOUS
 62
    7
 10
935.57235407808912
 20
491.81899017582919
 11
935.57235407808912
 21
489.88424522188598
  0
LINE
  8
_0-2______1
  6
CONTINUOUS
 62
    7
 10
945.90499470050599
 20
493.74848480425317
 11
945.90499470050599
 21
495.70160589751504
  0
LINE
  8
_0-2______1
  6
CONTINUOUS
 62
    7
 10
946.53503376284789
 20
491.81899017582919
 11
946.53503376284789
 21
493.11844574190991
  0
LINE
  8
_0-2______1
  6
CONTINUOUS
 62
    7
 10
1210.4163943739609
 20
546.65076473894305
 11
1212.3485141651449
 21
546.02335083936214
  0
LINE
  8
_0-2______1
  6
CONTINUOUS
 62
    7
 10
1213.629593591907
 20
550.5333804606289
 11
1212.3485141651449
 21
550.5333804606289
  0
LINE
  8
_0-2______1
  6
CONTINUOUS
 62
    7
 10
863.95791399182508
 20
677.63588579994712
 11
1179.4394738087881
 21
587.30666039935295
  0
LINE
  8
_0-2______1
  6
CONTINUOUS
 62
    7
 10
1180.7415545376302
 20
589.24403051605623
 11
865.25999472066724
 21
680.84908501789505
  0
LINE
  8
_0-2______1
  6
CONTINUOUS
 62
    7
 10
1192.985313649152
 20
590.52248478005913
 11
862.67683456506211
 21
686.0180304918631
  0
LINE
  8
_0-2______1
  6
CONTINUOUS
 62
    7
 10
1044.611114467496
 20
581.48929972372389
 11
1044.611114467496
 21
579.559805095299
  0
LINE
  8
_0-2______1
  6
CONTINUOUS
 62
    7
 10
1045.892193894259
 20
579.559805095299
 11
1045.892193894259
 21
578.28135083129609
  0
LINE
  8
_0-2______1
  6
CONTINUOUS
 62
    7
 10
1179.4394738087881
 20
587.30666039935295
 11
1146.5514347545109
 21
558.2644847881229
  0
LINE
  8
_0-2______1
  6
CONTINUOUS
 62
    7
 10
1137.5208748609352
 20
550.5333804606289
 11
1031.0652746271321
 21
458.27466043161121
  0
LINE
  8
_0-2______1
  6
CONTINUOUS
 62
    7
 10
1021.3836743691359
 20
450.52780512755817
 11
997.505193906356
 21
429.23248482038207
  0
LINE
  8
_0-2______1
  6
CONTINUOUS
 62
    7
 10
1188.4700337023651
 20
589.24403051605623
 11
1000.7393944263808
 21
426.01666043967498
  0
LINE
  8
_0-2______1
  6
CONTINUOUS
 62
    7
 10
862.67683456506211
 20
829.24166033886922
 11
1192.985313649152
 21
733.753990115345
  0
LINE
  8
_0-2______1
  6
CONTINUOUS
 62
    7
 10
1180.7415545376302
 20
591.17352514448021
 11
1180.7415545376302
 21
589.24403051605623
  0
LINE
  8
_0-2______1
  6
CONTINUOUS
 62
    7
 10
1192.985313649152
 20
733.753990115345
 11
1192.985313649152
 21
590.52248478005913
  0
LINE
  8
_0-2______1
  6
CONTINUOUS
 62
    7
 10
1002.0204738531429
 20
423.43612544683083
 11
1002.671514217564
 21
423.43612544683083
  0
LINE
  8
_0-2______1
  6
CONTINUOUS
 62
    7
 10
1171.7109946440542
 20
539.57070077587014
 11
1171.0599542796331
 21
539.57070077587014
  0
LINE
  8
_0-2______1
  6
CONTINUOUS
 62
    7
 10
1187.1889542756012
 20
554.40024520575616
 11
1186.537913911181
 21
554.40024520575616
  0
LINE
  8
_0-2______1
  6
CONTINUOUS
 62
    7
 10
669.77987497786989
 20
520.21012542263679
 11
669.77987497786989
 21
663.43638043240298
  0
LINE
  8
_0-2______1
  6
CONTINUOUS
 62
    7
 10
680.09151429820895
 20
521.49120484940022
 11
680.09151429820895
 21
525.37644573384523
  0
LINE
  8
_0-2______1
  6
CONTINUOUS
 62
    7
 10
685.90887497383801
 20
529.24331047897294
 11
685.90887497383801
 21
530.52176474297585
  0
LINE
  8
_0-2______1
  6
CONTINUOUS
 62
    7
 10
706.55315491659394
 20
546.65076473894305
 11
706.55315491659394
 21
547.30180510336504
  0
LINE
  8
_0-2______1
  6
CONTINUOUS
 62
    7
 10
735.57695438850487
 20
573.11503052008902
 11
735.57695438850487
 21
572.46399015566703
  0
LINE
  8
_0-2______1
  6
CONTINUOUS
 62
    7
 10
736.22799475292504
 20
571.828700767805
 11
736.22799475292504
 21
573.76344572174912
  0
LINE
  8
_0-2______1
  6
CONTINUOUS
 62
    7
 10
737.50907417968801
 20
574.39348478409102
 11
737.50907417968801
 21
570.52924520172382
  0
LINE
  8
_0-2______1
  6
CONTINUOUS
 62
    7
 10
738.81115490852926
 20
571.17766040338483
 11
738.81115490852926
 21
575.69556551293317
  0
LINE
  8
_0-2______1
  6
CONTINUOUS
 62
    7
 10
860.74471477387897
 20
829.89270070328894
 11
670.40991404021315
 21
664.72008502192602
  0
LINE
  8
_0-2______1
  6
CONTINUOUS
 62
    7
 10
1000.7393944263808
 20
423.43612544683083
 11
671.06095440463287
 21
518.93167115863298
  0
LINE
  8
_0-2______1
  6
CONTINUOUS
 62
    7
 10
996.8751548440132
 20
429.23248482038207
 11
681.37259372497192
 21
520.21012542263679
  0
LINE
  8
_0-2______1
  6
CONTINUOUS
 62
    7
 10
687.18995440060098
 20
529.24331047897294
 11
685.90887497383801
 21
529.24331047897294
  0
LINE
  8
_0-2______1
  6
CONTINUOUS
 62
    7
 10
801.37403379913803
 20
629.87629971162687
 11
801.37403379913803
 21
630.52734007604704
  0
LINE
  8
_0-2______1
  6
CONTINUOUS
 62
    7
 10
809.77455463037086
 20
636.97999013953904
 11
809.77455463037086
 21
636.3447007516761
  0
LINE
  8
_0-2______1
  6
CONTINUOUS
 62
    7
 10
706.55315491659394
 20
547.30180510336504
 11
707.834234343356
 21
546.65076473894305
  0
LINE
  8
_0-2______1
  6
CONTINUOUS
 62
    7
 10
935.57235407808912
 20
489.88424522188598
 11
762.66863406923221
 21
540.20599016373217
  0
LINE
  8
_0-2______1
  6
CONTINUOUS
 62
    7
 10
762.66863406923221
 20
542.13548479215615
 11
935.57235407808912
 21
491.81899017582919
  0
LINE
  8
_0-2______1
  6
CONTINUOUS
 62
    7
 10
935.57235407808912
 20
492.4700305402489
 11
763.31967443365193
 21
542.13548479215615
  0
LINE
  8
_0-2______1
  6
CONTINUOUS
 62
    7
 10
935.57235407808912
 20
494.39952516867288
 11
763.31967443365193
 21
544.08598072265795
  0
LINE
  8
_0-2______1
  6
CONTINUOUS
 62
    7
 10
727.19743485934896
 20
564.73288582817304
 11
727.82747392169222
 21
564.73288582817304
  0
LINE
  8
_0-2______1
  6
CONTINUOUS
 62
    7
 10
842.03255462230709
 20
664.0926711223442
 11
842.03255462230709
 21
664.72008502192602
  0
LINE
  8
_0-2______1
  6
CONTINUOUS
 62
    7
 10
850.41207415146209
 20
673.12060585315885
 11
850.41207415146209
 21
671.81852512431806
  0
LINE
  8
_0-2______1
  6
CONTINUOUS
 62
    7
 10
851.71415488030289
 20
671.81852512431806
 11
851.71415488030289
 21
673.74801975274204
  0
LINE
  8
_0-2______1
  6
CONTINUOUS
 62
    7
 10
852.34419394264614
 20
675.05535080710206
 11
852.34419394264614
 21
669.88640533313492
  0
LINE
  8
_0-2______1
  6
CONTINUOUS
 62
    7
 10
853.64627467148694
 20
671.16748475989789
 11
853.64627467148694
 21
675.68276470668616
  0
LINE
  8
_0-2______1
  6
CONTINUOUS
 62
    7
 10
673.64411456023709
 20
519.55908505821708
 11
862.02579420064194
 21
682.78120480907819
  0
LINE
  8
_0-2______1
  6
CONTINUOUS
 62
    7
 10
685.90887497383801
 20
529.24331047897294
 11
694.28839450299301
 21
536.99016578302599
  0
LINE
  8
_0-2______1
  6
CONTINUOUS
 62
    7
 10
706.55315491659394
 20
547.30180510336504
 11
714.93267444574894
 21
554.40024520575616
  0
LINE
  8
_0-2______1
  6
CONTINUOUS
 62
    7
 10
727.19743485934896
 20
564.73288582817304
 11
735.57695438850487
 21
572.46399015566703
  0
LINE
  8
_0-2______1
  6
CONTINUOUS
 62
    7
 10
801.37403379913803
 20
629.87629971162687
 11
809.77455463037086
 21
636.97999013953904
  0
LINE
  8
_0-2______1
  6
CONTINUOUS
 62
    7
 10
821.38827467955116
 20
647.30738043643487
 11
830.41883457312724
 21
654.40844570158697
  0
LINE
  8
_0-2______1
  6
CONTINUOUS
 62
    7
 10
842.03255462230709
 20
664.72008502192602
 11
850.41207415146209
 21
671.81852512431806
  0
LINE
  8
_0-2______1
  6
CONTINUOUS
 62
    7
 10
849.76103378704101
 20
669.88903049589499
 11
800.09295437237506
 21
627.94680508320198
  0
LINE
  8
_0-2______1
  6
CONTINUOUS
 62
    7
 10
685.25783460941693
 20
527.30856552502883
 11
734.29587496174099
 21
570.52662003896421
  0
LINE
  8
_0-2______1
  6
CONTINUOUS
 62
    7
 10
851.71415488030289
 20
671.81852512431806
 11
849.76103378704101
 21
669.88903049589499
  0
LINE
  8
_0-2______1
  6
CONTINUOUS
 62
    7
 10
736.22799475292504
 20
571.828700767805
 11
734.92591402408425
 21
570.52924520172382
  0
LINE
  8
_0-2______1
  6
CONTINUOUS
 62
    7
 10
681.37259372497192
 20
519.55908505821708
 11
682.023634089393
 21
520.86116578705787
  0
LINE
  8
_0-2______1
  6
CONTINUOUS
 62
    7
 10
854.27631373383019
 20
664.72008502192602
 11
805.25927468358395
 21
622.1504457096521
  0
LINE
  8
_0-2______1
  6
CONTINUOUS
 62
    7
 10
690.42415492062582
 20
522.14224521382084
 11
739.44119397087206
 21
564.73288582817304
  0
LINE
  8
_0-2______1
  6
CONTINUOUS
 62
    7
 10
735.57695438850487
 20
572.46399015566703
 11
736.22799475292504
 21
571.828700767805
  0
LINE
  8
_0-2______1
  6
CONTINUOUS
 62
    7
 10
759.45543485128383
 20
545.37231047494015
 11
859.44263404503818
 21
631.83467113040797
  0
LINE
  8
_0-2______1
  6
CONTINUOUS
 62
    7
 10
1173.6431144352382
 20
511.83060589348315
 11
1200.7347941159651
 21
504.08112542667004
  0
LINE
  8
_0-2______1
  6
CONTINUOUS
 62
    7
 10
1201.3858344803853
 20
505.36220485343301
 11
1227.1964347343501
 21
497.63635085145779
  0
LINE
  8
_0-2______1
  6
CONTINUOUS
 62
    7
 10
1202.0368748448059
 20
507.31270078393391
 11
1227.8264737966911
 21
499.56584547988086
  0
LINE
  8
_0-2______1
  6
CONTINUOUS
 62
    7
 10
1177.5073540176049
 20
515.04380511142881
 11
1204.5990336983318
 21
507.31270078393391
  0
LINE
  8
_0-2______1
  6
CONTINUOUS
 62
    7
 10
1205.250074062752
 20
508.59903053621701
 11
1231.0606743167168
 21
500.84429974388513
  0
LINE
  8
_0-2______1
  6
CONTINUOUS
 62
    7
 10
1205.9011144271731
 20
510.528525164641
 11
1231.711714681137
 21
503.43008506224896
  0
LINE
  8
_0-2______1
  6
CONTINUOUS
 62
    7
 10
1181.371593599973
 20
518.93167115863298
 11
1208.4842745827768
 21
511.17956552906207
  0
LINE
  8
_0-2______1
  6
CONTINUOUS
 62
    7
 10
1209.1143136451201
 20
511.83060589348315
 11
1234.924913899084
 21
504.08112542667004
  0
LINE
  8
_0-2______1
  6
CONTINUOUS
 62
    7
 10
802.02507416355911
 20
629.24888581204414
 11
801.37403379913803
 21
629.87629971162687
  0
LINE
  8
_0-2______1
  6
CONTINUOUS
 62
    7
 10
1183.324714693234
 20
521.49120484940022
 11
1181.371593599973
 21
521.49120484940022
  0
LINE
  8
_0-2______1
  6
CONTINUOUS
 62
    7
 10
1209.7653540095403
 20
513.765350847425
 11
1235.5759542635051
 21
506.66166041951419
  0
LINE
  8
_0-2______1
  6
CONTINUOUS
 62
    7
 10
1185.2568344844181
 20
522.79066041548094
 11
1209.1143136451201
 21
515.04380511142881
  0
LINE
  8
_0-2______1
  6
CONTINUOUS
 62
    7
 10
1180.0905141732092
 20
528.58701978903309
 11
1177.5073540176049
 21
529.24331047897294
  0
LINE
  8
_0-2______1
  6
CONTINUOUS
 62
    7
 10
1171.7109946440542
 20
530.52176474297585
 11
1137.5208748609352
 21
540.20599016373217
  0
LINE
  8
_0-2______1
  6
CONTINUOUS
 62
    7
 10
1176.8563136531839
 20
520.21012542263679
 11
1176.226274590842
 21
520.86116578705787
  0
LINE
  8
_0-2______1
  6
CONTINUOUS
 62
    7
 10
1176.226274590842
 20
520.86116578705787
 11
1175.5752342264223
 21
520.86116578705787
  0
LINE
  8
_0-2______1
  6
CONTINUOUS
 62
    7
 10
1175.5752342264223
 20
520.86116578705787
 11
1174.2941547996579
 21
521.49120484940022
  0
LINE
  8
_0-2______1
  6
CONTINUOUS
 62
    7
 10
1174.2941547996579
 20
521.49120484940022
 11
1173.6431144352382
 21
521.49120484940022
  0
LINE
  8
_0-2______1
  6
CONTINUOUS
 62
    7
 10
1173.6431144352382
 20
521.49120484940022
 11
1172.9920740708171
 21
522.14224521382084
  0
LINE
  8
_0-2______1
  6
CONTINUOUS
 62
    7
 10
1172.9920740708171
 20
522.14224521382084
 11
1172.341033706396
 21
522.79066041548094
  0
LINE
  8
_0-2______1
  6
CONTINUOUS
 62
    7
 10
1172.341033706396
 20
522.79066041548094
 11
1171.7109946440542
 21
522.79066041548094
  0
LINE
  8
_0-2______1
  6
CONTINUOUS
 62
    7
 10
1171.7109946440542
 20
522.79066041548094
 11
1170.408913915212
 21
523.44170077990202
  0
LINE
  8
_0-2______1
  6
CONTINUOUS
 62
    7
 10
1170.408913915212
 20
523.44170077990202
 11
1169.778874852871
 21
524.72803053218513
  0
LINE
  8
_0-2______1
  6
CONTINUOUS
 62
    7
 10
1169.778874852871
 20
524.72803053218513
 11
1169.1278344884499
 21
524.72803053218513
  0
LINE
  8
_0-2______1
  6
CONTINUOUS
 62
    7
 10
1169.1278344884499
 20
524.72803053218513
 11
1168.4767941240289
 21
525.37644573384523
  0
LINE
  8
_0-2______1
  6
CONTINUOUS
 62
    7
 10
1168.4767941240289
 20
525.37644573384523
 11
1168.4767941240289
 21
526.00648479618803
  0
LINE
  8
_0-2______1
  6
CONTINUOUS
 62
    7
 10
1168.4767941240289
 20
526.00648479618803
 11
1167.8257537596091
 21
526.6575251606082
  0
LINE
  8
_0-2______1
  6
CONTINUOUS
 62
    7
 10
1167.8257537596091
 20
526.6575251606082
 11
1167.1957146972659
 21
527.30856552502883
  0
LINE
  8
_0-2______1
  6
CONTINUOUS
 62
    7
 10
1167.1957146972659
 20
527.30856552502883
 11
1167.1957146972659
 21
527.95960588944899
  0
LINE
  8
_0-2______1
  6
CONTINUOUS
 62
    7
 10
1167.1957146972659
 20
527.95960588944899
 11
1166.5446743328462
 21
528.58701978903309
  0
LINE
  8
_0-2______1
  6
CONTINUOUS
 62
    7
 10
1166.5446743328462
 20
528.58701978903309
 11
1166.5446743328462
 21
530.52176474297585
  0
LINE
  8
_0-2______1
  6
CONTINUOUS
 62
    7
 10
821.38827467955116
 20
647.30738043643487
 11
822.66935410631504
 21
647.30738043643487
  0
LINE
  8
_0-2______1
  6
CONTINUOUS
 62
    7
 10
869.77527466745505
 20
633.76416575883195
 11
1043.3090337386539
 21
583.44767114250499
  0
LINE
  8
_0-2______1
  6
CONTINUOUS
 62
    7
 10
1180.0905141732092
 20
523.44170077990202
 11
1180.0905141732092
 21
524.07699016776405
  0
LINE
  8
_0-2______1
  6
CONTINUOUS
 62
    7
 10
1180.0905141732092
 20
524.07699016776405
 11
1179.4394738087881
 21
524.07699016776405
  0
LINE
  8
_0-2______1
  6
CONTINUOUS
 62
    7
 10
1179.4394738087881
 20
524.07699016776405
 11
1178.158394382026
 21
524.72540536942506
  0
LINE
  8
_0-2______1
  6
CONTINUOUS
 62
    7
 10
1178.158394382026
 20
524.72540536942506
 11
1177.5073540176049
 21
525.37644573384523
  0
LINE
  8
_0-2______1
  6
CONTINUOUS
 62
    7
 10
1170.408913915212
 20
517.62434010427296
 11
1170.408913915212
 21
518.27538046869404
  0
LINE
  8
_0-2______1
  6
CONTINUOUS
 62
    7
 10
1170.408913915212
 20
518.27538046869404
 11
1169.778874852871
 21
518.93167115863298
  0
LINE
  8
_0-2______1
  6
CONTINUOUS
 62
    7
 10
1169.778874852871
 20
518.93167115863298
 11
1168.4767941240289
 21
518.93167115863298
  0
LINE
  8
_0-2______1
  6
CONTINUOUS
 62
    7
 10
1168.4767941240289
 20
518.93167115863298
 11
1167.8257537596091
 21
519.55908505821708
  0
LINE
  8
_0-2______1
  6
CONTINUOUS
 62
    7
 10
1167.8257537596091
 20
519.55908505821708
 11
1166.5446743328462
 21
520.86116578705787
  0
LINE
  8
_0-2______1
  6
CONTINUOUS
 62
    7
 10
1166.5446743328462
 20
520.86116578705787
 11
1165.8936339684251
 21
521.49120484940022
  0
LINE
  8
_0-2______1
  6
CONTINUOUS
 62
    7
 10
1165.8936339684251
 20
521.49120484940022
 11
1165.8936339684251
 21
522.14224521382084
  0
LINE
  8
_0-2______1
  6
CONTINUOUS
 62
    7
 10
1212.3485141651449
 20
555.04866040741717
 11
1169.1278344884499
 21
567.94608504612006
  0
LINE
  8
_0-2______1
  6
CONTINUOUS
 62
    7
 10
1212.3485141651449
 20
556.98603052412
 11
1170.408913915212
 21
569.24816577496085
  0
LINE
  8
_0-2______1
  6
CONTINUOUS
 62
    7
 10
842.03255462230709
 20
664.72008502192602
 11
843.31363404907006
 21
664.0926711223442
  0
LINE
  8
_0-2______1
  6
CONTINUOUS
 62
    7
 10
850.41207415146209
 20
671.81852512431806
 11
851.71415488030289
 21
671.81852512431806
  0
LINE
  8
_0-2______1
  6
CONTINUOUS
 62
    7
 10
1176.226274590842
 20
520.86116578705787
 11
1177.5073540176049
 21
520.21012542263679
  0
LINE
  8
_0-2______1
  6
CONTINUOUS
 62
    7
 10
1177.5073540176049
 20
520.21012542263679
 11
1178.1531440565059
 21
519.55908505821708
  0
LINE
  8
_0-2______1
  6
CONTINUOUS
 62
    7
 10
1178.1531440565059
 20
519.55908505821708
 11
1179.4394738087881
 21
519.55908505821708
  0
LINE
  8
_0-2______1
  6
CONTINUOUS
 62
    7
 10
1179.4394738087881
 20
519.55908505821708
 11
1180.0905141732092
 21
518.93167115863298
  0
LINE
  8
_0-2______1
  6
CONTINUOUS
 62
    7
 10
1180.0905141732092
 20
518.93167115863298
 11
1181.371593599973
 21
518.93167115863298
  0
LINE
  8
_0-2______1
  6
CONTINUOUS
 62
    7
 10
1170.408913915212
 20
518.27538046869404
 11
1171.7109946440542
 21
517.62434010427296
  0
LINE
  8
_0-2______1
  6
CONTINUOUS
 62
    7
 10
1171.7109946440542
 20
517.62434010427296
 11
1172.341033706396
 21
516.97329973985325
  0
LINE
  8
_0-2______1
  6
CONTINUOUS
 62
    7
 10
1172.341033706396
 20
516.97329973985325
 11
1173.6431144352382
 21
516.97329973985325
  0
LINE
  8
_0-2______1
  6
CONTINUOUS
 62
    7
 10
1173.6431144352382
 20
516.97329973985325
 11
1174.9241938620012
 21
516.34588584027006
  0
LINE
  8
_0-2______1
  6
CONTINUOUS
 62
    7
 10
1174.9241938620012
 20
516.34588584027006
 11
1176.226274590842
 21
515.69484547584898
  0
LINE
  8
_0-2______1
  6
CONTINUOUS
 62
    7
 10
1176.226274590842
 20
515.69484547584898
 11
1177.5073540176049
 21
515.04380511142881
  0
LINE
  8
_0-2______1
  6
CONTINUOUS
 62
    7
 10
996.22411447959303
 20
428.60244575803881
 11
996.22411447959303
 21
429.23248482038207
  0
LINE
  8
_0-2______1
  6
CONTINUOUS
 62
    7
 10
1000.7393944263808
 20
431.18560591364303
 11
1000.7393944263808
 21
426.01666043967498
  0
LINE
  8
_0-2______1
  6
CONTINUOUS
 62
    7
 10
862.02579420064194
 20
682.78120480907819
 11
1190.423154795626
 21
587.95770076377312
  0
LINE
  8
_0-2______1
  6
CONTINUOUS
 62
    7
 10
1011.051033746719
 20
461.49048481231694
 11
1011.051033746719
 21
459.56099018389295
  0
LINE
  8
_0-2______1
  6
CONTINUOUS
 62
    7
 10
1018.8005142135321
 20
451.17884549197788
 11
1018.8005142135321
 21
450.52780512755817
  0
LINE
  8
_0-2______1
  6
CONTINUOUS
 62
    7
 10
1019.4515545779532
 20
453.10834012040186
 11
1019.4515545779532
 21
451.82988585639896
  0
LINE
  8
_0-2______1
  6
CONTINUOUS
 62
    7
 10
1020.7326340047152
 20
451.82988585639896
 11
1020.7326340047152
 21
453.10834012040186
  0
LINE
  8
_0-2______1
  6
CONTINUOUS
 62
    7
 10
1021.3836743691359
 20
453.75938048482203
 11
1021.3836743691359
 21
452.45729975598124
  0
LINE
  8
_0-2______1
  6
CONTINUOUS
 62
    7
 10
1024.6178748891612
 20
451.17884549197788
 11
1024.6178748891612
 21
451.82988585639896
  0
LINE
  8
_0-2______1
  6
CONTINUOUS
 62
    7
 10
1173.6431144352382
 20
522.79066041548094
 11
1173.6431144352382
 21
522.14224521382084
  0
LINE
  8
_0-2______1
  6
CONTINUOUS
 62
    7
 10
1173.6431144352382
 20
522.14224521382084
 11
1174.2941547996579
 21
521.49120484940022
  0
LINE
  8
_0-2______1
  6
CONTINUOUS
 62
    7
 10
1174.2941547996579
 20
521.49120484940022
 11
1175.5752342264223
 21
520.86116578705787
  0
LINE
  8
_0-2______1
  6
CONTINUOUS
 62
    7
 10
1175.5752342264223
 20
520.86116578705787
 11
1176.226274590842
 21
520.86116578705787
  0
LINE
  8
_0-2______1
  6
CONTINUOUS
 62
    7
 10
1030.414234262711
 20
461.49048481231694
 11
1030.414234262711
 21
459.56099018389295
  0
LINE
  8
_0-2______1
  6
CONTINUOUS
 62
    7
 10
945.90499470050599
 20
495.70160589751504
 11
1044.611114467496
 21
581.48929972372389
  0
LINE
  8
_0-2______1
  6
CONTINUOUS
 62
    7
 10
945.90499470050599
 20
493.74848480425317
 11
1044.611114467496
 21
579.559805095299
  0
LINE
  8
_0-2______1
  6
CONTINUOUS
 62
    7
 10
1165.242593604004
 20
522.14224521382084
 11
1165.8936339684251
 21
521.49120484940022
  0
LINE
  8
_0-2______1
  6
CONTINUOUS
 62
    7
 10
1165.8936339684251
 20
521.49120484940022
 11
1166.5446743328462
 21
520.86116578705787
  0
LINE
  8
_0-2______1
  6
CONTINUOUS
 62
    7
 10
1166.5446743328462
 20
520.86116578705787
 11
1167.8257537596091
 21
520.21012542263679
  0
LINE
  8
_0-2______1
  6
CONTINUOUS
 62
    7
 10
1167.8257537596091
 20
520.21012542263679
 11
1168.4767941240289
 21
519.55908505821708
  0
LINE
  8
_0-2______1
  6
CONTINUOUS
 62
    7
 10
1168.4767941240289
 20
519.55908505821708
 11
1169.1278344884499
 21
518.93167115863298
  0
LINE
  8
_0-2______1
  6
CONTINUOUS
 62
    7
 10
1169.1278344884499
 20
518.93167115863298
 11
1170.408913915212
 21
518.27538046869404
  0
LINE
  8
_0-2______1
  6
CONTINUOUS
 62
    7
 10
946.53503376284789
 20
493.11844574190991
 11
1045.892193894259
 21
579.559805095299
  0
LINE
  8
_0-2______1
  6
CONTINUOUS
 62
    7
 10
1045.892193894259
 20
578.28135083129609
 11
946.53503376284789
 21
491.81899017582919
  0
LINE
  8
_0-2______1
  6
CONTINUOUS
 62
    7
 10
1143.317234234486
 20
583.44767114250499
 11
1140.7340740788823
 21
580.86188582414024
  0
LINE
  8
_0-2______1
  6
CONTINUOUS
 62
    7
 10
1125.9071548117549
 20
560.84501978096705
 11
1125.9071548117549
 21
558.91552515254398
  0
LINE
  8
_0-2______1
  6
CONTINUOUS
 62
    7
 10
1133.6356339764889
 20
551.18967115056921
 11
1133.6356339764889
 21
550.5333804606289
  0
LINE
  8
_0-2______1
  6
CONTINUOUS
 62
    7
 10
1134.937714705331
 20
552.46812541457211
 11
1134.937714705331
 21
551.81708505015195
  0
LINE
  8
_0-2______1
  6
CONTINUOUS
 62
    7
 10
1136.218794132094
 20
551.81708505015195
 11
1136.218794132094
 21
553.1191657789941
  0
LINE
  8
_0-2______1
  6
CONTINUOUS
 62
    7
 10
1136.8698344965151
 20
553.749204841336
 11
1136.8698344965151
 21
552.46812541457211
  0
LINE
  8
_0-2______1
  6
CONTINUOUS
 62
    7
 10
1139.4529946521179
 20
551.18967115056921
 11
1139.4529946521179
 21
551.81708505015195
  0
LINE
  8
_0-2______1
  6
CONTINUOUS
 62
    7
 10
1140.7340740788823
 20
584.07508504208818
 11
1140.7340740788823
 21
580.86188582414024
  0
LINE
  8
_0-2______1
  6
CONTINUOUS
 62
    7
 10
1024.6178748891612
 20
462.14152517673801
 11
1025.2479139515031
 21
462.79256554115909
  0
LINE
  8
_0-2______1
  6
CONTINUOUS
 62
    7
 10
1140.0830337144612
 20
562.15235083532798
 11
1141.385114443302
 21
562.77976473491208
  0
LINE
  8
_0-2______1
  6
CONTINUOUS
 62
    7
 10
997.505193906356
 20
429.23248482038207
 11
996.22411447959303
 21
428.60244575803881
  0
LINE
  8
_0-2______1
  6
CONTINUOUS
 62
    7
 10
1180.7415545376302
 20
587.30666039935295
 11
1146.5514347545109
 21
557.63444572578101
  0
LINE
  8
_0-2______1
  6
CONTINUOUS
 62
    7
 10
1138.8019542876982
 20
550.5333804606289
 11
1031.0652746271321
 21
457.6262452299502
  0
LINE
  8
_0-2______1
  6
CONTINUOUS
 62
    7
 10
1022.6647537958988
 20
450.52780512755817
 11
998.15623427077617
 21
429.23248482038207
  0
LINE
  8
_0-2______1
  6
CONTINUOUS
 62
    7
 10
1002.671514217564
 20
423.43612544683083
 11
1192.985313649152
 21
588.59299015163515
  0
LINE
  8
_0-2______1
  6
CONTINUOUS
 62
    7
 10
1192.3552745868101
 20
735.05344568142709
 11
862.02579420064194
 21
830.52799009115097
  0
LINE
  8
_0-2______1
  6
CONTINUOUS
 62
    7
 10
1167.1957146972659
 20
531.82384547181709
 11
1167.8257537596091
 21
531.17280510739602
  0
LINE
  8
_0-2______1
  6
CONTINUOUS
 62
    7
 10
1167.8257537596091
 20
531.17280510739602
 11
1167.8257537596091
 21
530.52176474297585
  0
LINE
  8
_0-2______1
  6
CONTINUOUS
 62
    7
 10
1167.8257537596091
 20
530.52176474297585
 11
1168.4767941240289
 21
529.24331047897294
  0
LINE
  8
_0-2______1
  6
CONTINUOUS
 62
    7
 10
1168.4767941240289
 20
529.24331047897294
 11
1168.4767941240289
 21
527.95698072668984
  0
LINE
  8
_0-2______1
  6
CONTINUOUS
 62
    7
 10
1168.4767941240289
 20
527.95698072668984
 11
1169.1278344884499
 21
527.30856552502883
  0
LINE
  8
_0-2______1
  6
CONTINUOUS
 62
    7
 10
1169.1278344884499
 20
527.30856552502883
 11
1169.778874852871
 21
526.6575251606082
  0
LINE
  8
_0-2______1
  6
CONTINUOUS
 62
    7
 10
1169.778874852871
 20
526.6575251606082
 11
1170.408913915212
 21
525.37644573384523
  0
LINE
  8
_0-2______1
  6
CONTINUOUS
 62
    7
 10
1170.408913915212
 20
525.37644573384523
 11
1171.0599542796331
 21
524.72803053218513
  0
LINE
  8
_0-2______1
  6
CONTINUOUS
 62
    7
 10
1171.0599542796331
 20
524.72803053218513
 11
1171.7109946440542
 21
524.72803053218513
  0
LINE
  8
_0-2______1
  6
CONTINUOUS
 62
    7
 10
1166.5446743328462
 20
530.52176474297585
 11
1166.5446743328462
 21
531.17280510739602
  0
LINE
  8
_0-2______1
  6
CONTINUOUS
 62
    7
 10
1162.029394386057
 20
531.17280510739602
 11
1162.029394386057
 21
527.95960588944899
  0
LINE
  8
_0-2______1
  6
CONTINUOUS
 62
    7
 10
1162.029394386057
 20
527.95960588944899
 11
1162.6804347504781
 21
526.6575251606082
  0
LINE
  8
_0-2______1
  6
CONTINUOUS
 62
    7
 10
1162.6804347504781
 20
526.6575251606082
 11
1162.6804347504781
 21
526.00648479618803
  0
LINE
  8
_0-2______1
  6
CONTINUOUS
 62
    7
 10
1162.6804347504781
 20
526.00648479618803
 11
1163.3104738128209
 21
525.37644573384523
  0
LINE
  8
_0-2______1
  6
CONTINUOUS
 62
    7
 10
1163.3104738128209
 20
525.37644573384523
 11
1163.961514177241
 21
524.72803053218513
  0
LINE
  8
_0-2______1
  6
CONTINUOUS
 62
    7
 10
1163.961514177241
 20
524.72803053218513
 11
1163.961514177241
 21
523.44170077990202
  0
LINE
  8
_0-2______1
  6
CONTINUOUS
 62
    7
 10
1163.961514177241
 20
523.44170077990202
 11
1164.6125545416621
 21
522.79066041548094
  0
LINE
  8
_0-2______1
  6
CONTINUOUS
 62
    7
 10
1164.6125545416621
 20
522.79066041548094
 11
1165.242593604004
 21
522.14224521382084
  0
LINE
  8
_0-2______1
  6
CONTINUOUS
 62
    7
 10
1162.029394386057
 20
531.82384547181709
 11
1162.029394386057
 21
531.17280510739602
  0
LINE
  8
_0-2______1
  6
CONTINUOUS
 62
    7
 10
1166.5446743328462
 20
531.17280510739602
 11
1166.5446743328462
 21
532.47488583623681
  0
LINE
  8
_0-2______1
  6
CONTINUOUS
 62
    7
 10
1162.029394386057
 20
532.47488583623681
 11
1162.029394386057
 21
531.82384547181709
  0
LINE
  8
_0-2______1
  6
CONTINUOUS
 62
    7
 10
1145.2493540256701
 20
560.84501978096705
 11
1145.2493540256701
 21
558.91552515254398
  0
LINE
  8
_0-2______1
  6
CONTINUOUS
 62
    7
 10
1158.1651548036903
 20
527.95960588944899
 11
1158.1651548036903
 21
527.30856552502883
  0
LINE
  8
_0-2______1
  6
CONTINUOUS
 62
    7
 10
1158.1651548036903
 20
527.30856552502883
 11
1158.7951938660331
 21
526.00648479618803
  0
LINE
  8
_0-2______1
  6
CONTINUOUS
 62
    7
 10
1158.7951938660331
 20
526.00648479618803
 11
1158.7951938660331
 21
524.72803053218513
  0
LINE
  8
_0-2______1
  6
CONTINUOUS
 62
    7
 10
1158.7951938660331
 20
524.72803053218513
 11
1159.4462342304541
 21
523.44170077990202
  0
LINE
  8
_0-2______1
  6
CONTINUOUS
 62
    7
 10
1159.4462342304541
 20
523.44170077990202
 11
1160.0972745948739
 21
522.79066041548094
  0
LINE
  8
_0-2______1
  6
CONTINUOUS
 62
    7
 10
1160.0972745948739
 20
522.79066041548094
 11
1160.0972745948739
 21
521.49120484940022
  0
LINE
  8
_0-2______1
  6
CONTINUOUS
 62
    7
 10
1160.0972745948739
 20
521.49120484940022
 11
1160.7273136572162
 21
520.86116578705787
  0
LINE
  8
_0-2______1
  6
CONTINUOUS
 62
    7
 10
1160.7273136572162
 20
520.86116578705787
 11
1160.7273136572162
 21
520.21012542263679
  0
LINE
  8
_0-2______1
  6
CONTINUOUS
 62
    7
 10
1160.7273136572162
 20
520.21012542263679
 11
1162.029394386057
 21
519.55908505821708
  0
LINE
  8
_0-2______1
  6
CONTINUOUS
 62
    7
 10
1162.029394386057
 20
519.55908505821708
 11
1162.029394386057
 21
518.93167115863298
  0
LINE
  8
_0-2______1
  6
CONTINUOUS
 62
    7
 10
1162.029394386057
 20
518.93167115863298
 11
1162.6804347504781
 21
517.62434010427296
  0
LINE
  8
_0-2______1
  6
CONTINUOUS
 62
    7
 10
1162.6804347504781
 20
517.62434010427296
 11
1163.961514177241
 21
516.97329973985325
  0
LINE
  8
_0-2______1
  6
CONTINUOUS
 62
    7
 10
1163.961514177241
 20
516.97329973985325
 11
1164.6125545416621
 21
516.34588584027006
  0
LINE
  8
_0-2______1
  6
CONTINUOUS
 62
    7
 10
1164.6125545416621
 20
516.34588584027006
 11
1165.242593604004
 21
515.69484547584898
  0
LINE
  8
_0-2______1
  6
CONTINUOUS
 62
    7
 10
1165.242593604004
 20
515.69484547584898
 11
1165.8936339684251
 21
515.04380511142881
  0
LINE
  8
_0-2______1
  6
CONTINUOUS
 62
    7
 10
1165.8936339684251
 20
515.04380511142881
 11
1167.1957146972659
 21
515.04380511142881
  0
LINE
  8
_0-2______1
  6
CONTINUOUS
 62
    7
 10
1167.1957146972659
 20
515.04380511142881
 11
1167.8257537596091
 21
513.765350847425
  0
LINE
  8
_0-2______1
  6
CONTINUOUS
 62
    7
 10
1167.8257537596091
 20
513.765350847425
 11
1169.1278344884499
 21
513.765350847425
  0
LINE
  8
_0-2______1
  6
CONTINUOUS
 62
    7
 10
1169.1278344884499
 20
513.765350847425
 11
1169.778874852871
 21
513.11431048300483
  0
LINE
  8
_0-2______1
  6
CONTINUOUS
 62
    7
 10
1169.778874852871
 20
513.11431048300483
 11
1171.0599542796331
 21
513.11431048300483
  0
LINE
  8
_0-2______1
  6
CONTINUOUS
 62
    7
 10
1171.0599542796331
 20
513.11431048300483
 11
1172.341033706396
 21
512.45801979306498
  0
LINE
  8
_0-2______1
  6
CONTINUOUS
 62
    7
 10
1172.341033706396
 20
512.45801979306498
 11
1173.6431144352382
 21
511.83060589348315
  0
LINE
  8
_0-2______1
  6
CONTINUOUS
 62
    7
 10
1171.7109946440542
 20
538.27124520978805
 11
1171.7109946440542
 21
523.44170077990202
  0
LINE
  8
_0-2______1
  6
CONTINUOUS
 62
    7
 10
1177.5073540176049
 20
538.27124520978805
 11
1177.5073540176049
 21
523.44170077990202
  0
LINE
  8
_0-2______1
  6
CONTINUOUS
 62
    7
 10
1180.0905141732092
 20
523.44170077990202
 11
1180.0905141732092
 21
528.58701978903309
  0
LINE
  8
_0-2______1
  6
CONTINUOUS
 62
    7
 10
1181.371593599973
 20
591.17352514448021
 11
1181.371593599973
 21
588.59299015163515
  0
LINE
  8
_0-2______1
  6
CONTINUOUS
 62
    7
 10
1185.9078748488391
 20
551.81708505015195
 11
1185.9078748488391
 21
551.18967115056921
  0
LINE
  8
_0-2______1
  6
CONTINUOUS
 62
    7
 10
1187.1889542756012
 20
551.18967115056921
 11
1187.1889542756012
 21
536.99016578302599
  0
LINE
  8
_0-2______1
  6
CONTINUOUS
 62
    7
 10
1158.1651548036903
 20
534.40438046466215
 11
1158.1651548036903
 21
527.95698072668984
  0
LINE
  8
_0-2______1
  6
CONTINUOUS
 62
    7
 10
1180.0905141732092
 20
528.58701978903309
 11
1189.1210740667852
 21
535.68808505418519
  0
LINE
  8
_0-2______1
  6
CONTINUOUS
 62
    7
 10
1192.985313649152
 20
538.91966041144906
 11
1212.3485141651449
 21
555.04866040741717
  0
LINE
  8
_0-2______1
  6
CONTINUOUS
 62
    7
 10
1182.0226339643932
 20
522.14224521382084
 11
1210.4111440484421
 21
546.65076473894305
  0
LINE
  8
_0-2______1
  6
CONTINUOUS
 62
    7
 10
1212.3485141651449
 20
546.02335083936214
 11
1183.9547537555773
 21
521.49120484940022
  0
LINE
  8
_0-2______1
  6
CONTINUOUS
 62
    7
 10
1192.985313649152
 20
551.18967115056921
 11
1192.985313649152
 21
536.99016578302599
  0
LINE
  8
_0-2______1
  6
CONTINUOUS
 62
    7
 10
1193.6363540135731
 20
551.81708505015195
 11
1193.6363540135731
 21
551.18967115056921
  0
LINE
  8
_0-2______1
  6
CONTINUOUS
 62
    7
 10
1193.6363540135731
 20
589.89244571771724
 11
1193.6363540135731
 21
733.11870072748297
  0
LINE
  8
_0-2______1
  6
CONTINUOUS
 62
    7
 10
1212.3485141651449
 20
555.04866040741717
 11
1212.3485141651449
 21
550.5333804606289
  0
LINE
  8
_0-2______1
  6
CONTINUOUS
 62
    7
 10
1213.629593591907
 20
550.5333804606289
 11
1213.629593591907
 21
555.04866040741717
  0
LINE
  8
_0-2______1
  6
CONTINUOUS
 62
    7
 10
714.28163408132787
 20
548.60388583220583
 11
714.28163408132787
 21
547.95284546778521
  0
LINE
  8
_0-2______1
  6
CONTINUOUS
 62
    7
 10
725.89535413050817
 20
558.2644847881229
 11
726.54639449492925
 21
558.2644847881229
  0
LINE
  8
_0-2______1
  6
CONTINUOUS
 62
    7
 10
726.54639449492925
 20
558.2644847881229
 11
727.19743485934896
 21
558.2644847881229
  0
LINE
  8
_0-2______1
  6
CONTINUOUS
 62
    7
 10
727.19743485934896
 20
558.2644847881229
 11
727.19743485934896
 21
557.63444572578101
  0
LINE
  8
_0-2______1
  6
CONTINUOUS
 62
    7
 10
705.90211455217286
 20
540.85703052815325
 11
706.55315491659394
 21
540.20599016373217
  0
LINE
  8
_0-2______1
  6
CONTINUOUS
 62
    7
 10
714.28163408132787
 20
547.95284546778521
 11
714.28163408132787
 21
547.30180510336504
  0
LINE
  8
_0-2______1
  6
CONTINUOUS
 62
    7
 10
714.28163408132787
 20
547.30180510336504
 11
714.93267444574894
 21
547.30180510336504
  0
LINE
  8
_0-2______1
  6
CONTINUOUS
 62
    7
 10
694.28839450299301
 20
530.52176474297585
 11
694.28839450299301
 21
529.89435084339311
  0
LINE
  8
_0-2______1
  6
CONTINUOUS
 62
    7
 10
694.28839450299301
 20
529.89435084339311
 11
694.93943486741409
 21
529.89435084339311
  0
LINE
  8
_0-2______1
  6
CONTINUOUS
 62
    7
 10
725.89535413050817
 20
558.91552515254398
 11
725.89535413050817
 21
558.2644847881229
  0
LINE
  8
_0-2______1
  6
CONTINUOUS
 62
    7
 10
705.25107418775315
 20
541.50544572981289
 11
705.90211455217286
 21
541.50544572981289
  0
LINE
  8
_0-2______1
  6
CONTINUOUS
 62
    7
 10
705.90211455217286
 20
541.50544572981289
 11
705.90211455217286
 21
540.85703052815325
  0
LINE
  8
_0-2______1
  6
CONTINUOUS
 62
    7
 10
713.63059371690815
 20
548.60388583220583
 11
714.28163408132787
 21
548.60388583220583
  0
LINE
  8
_0-2______1
  6
CONTINUOUS
 62
    7
 10
693.63735413857194
 20
531.17280510739602
 11
693.63735413857194
 21
530.52176474297585
  0
LINE
  8
_0-2______1
  6
CONTINUOUS
 62
    7
 10
693.63735413857194
 20
530.52176474297585
 11
694.28839450299301
 21
530.52176474297585
  0
LINE
  8
_0-2______1
  6
CONTINUOUS
 62
    7
 10
714.93267444574894
 20
547.30180510336504
 11
715.58371481017002
 21
547.30180510336504
  0
LINE
  8
_0-2______1
  6
CONTINUOUS
 62
    7
 10
694.93943486741409
 20
529.89435084339311
 11
694.93943486741409
 21
529.24331047897294
  0
LINE
  8
_0-2______1
  6
CONTINUOUS
 62
    7
 10
727.19743485934896
 20
556.98603052412
 11
727.19743485934896
 21
557.63444572578101
  0
LINE
  8
_0-2______1
  6
CONTINUOUS
 62
    7
 10
707.18319397893583
 20
540.20599016373217
 11
706.55315491659394
 21
540.20599016373217
  0
LINE
  8
_0-2______1
  6
CONTINUOUS
 62
    7
 10
713.63059371690815
 20
549.23129973178811
 11
713.63059371690815
 21
548.60388583220583
  0
LINE
  8
_0-2______1
  6
CONTINUOUS
 62
    7
 10
692.98631377415222
 20
531.82384547181709
 11
692.98631377415222
 21
531.17280510739602
  0
LINE
  8
_0-2______1
  6
CONTINUOUS
 62
    7
 10
692.98631377415222
 20
531.17280510739602
 11
693.63735413857194
 21
531.17280510739602
  0
LINE
  8
_0-2______1
  6
CONTINUOUS
 62
    7
 10
725.244313766088
 20
559.56656551696506
 11
725.89535413050817
 21
559.56656551696506
  0
LINE
  8
_0-2______1
  6
CONTINUOUS
 62
    7
 10
725.89535413050817
 20
559.56656551696506
 11
725.89535413050817
 21
558.91552515254398
  0
LINE
  8
_0-2______1
  6
CONTINUOUS
 62
    7
 10
705.25107418775315
 20
542.13548479215615
 11
705.25107418775315
 21
541.50544572981289
  0
LINE
  8
_0-2______1
  6
CONTINUOUS
 62
    7
 10
709.11531377011988
 20
538.91966041144906
 11
709.76635413454005
 21
538.91966041144906
  0
LINE
  8
_0-2______1
  6
CONTINUOUS
 62
    7
 10
729.12955465053301
 20
556.98603052412
 11
729.7595937128749
 21
556.98603052412
  0
LINE
  8
_0-2______1
  6
CONTINUOUS
 62
    7
 10
696.87155465859723
 20
529.24331047897294
 11
697.50159372094004
 21
529.24331047897294
  0
LINE
  8
_0-2______1
  6
CONTINUOUS
 62
    7
 10
717.51583460135316
 20
546.65076473894305
 11
718.16687496577288
 21
546.65076473894305
  0
LINE
  8
_0-2______1
  6
CONTINUOUS
 62
    7
 10
709.76635413454005
 20
539.57070077587014
 11
710.41739449896113
 21
539.57070077587014
  0
LINE
  8
_0-2______1
  6
CONTINUOUS
 62
    7
 10
710.41739449896113
 20
539.57070077587014
 11
710.41739449896113
 21
540.20599016373217
  0
LINE
  8
_0-2______1
  6
CONTINUOUS
 62
    7
 10
730.41063407729507
 20
556.98603052412
 11
731.06167444171615
 21
556.98603052412
  0
LINE
  8
_0-2______1
  6
CONTINUOUS
 62
    7
 10
705.90211455217286
 20
545.37231047494015
 11
705.25107418775315
 21
545.37231047494015
  0
LINE
  8
_0-2______1
  6
CONTINUOUS
 62
    7
 10
705.25107418775315
 20
545.37231047494015
 11
705.25107418775315
 21
544.71601978499984
  0
LINE
  8
_0-2______1
  6
CONTINUOUS
 62
    7
 10
698.15263408536021
 20
529.24331047897294
 11
698.80367444978083
 21
529.24331047897294
  0
LINE
  8
_0-2______1
  6
CONTINUOUS
 62
    7
 10
718.16687496577288
 20
546.65076473894305
 11
718.79691402811613
 21
546.65076473894305
  0
LINE
  8
_0-2______1
  6
CONTINUOUS
 62
    7
 10
718.79691402811613
 20
546.65076473894305
 11
718.79691402811613
 21
547.30180510336504
  0
LINE
  8
_0-2______1
  6
CONTINUOUS
 62
    7
 10
714.28163408132787
 20
552.46812541457211
 11
713.63059371690815
 21
552.46812541457211
  0
LINE
  8
_0-2______1
  6
CONTINUOUS
 62
    7
 10
693.63735413857194
 20
535.06067115460201
 11
692.98631377415222
 21
535.06067115460201
  0
LINE
  8
_0-2______1
  6
CONTINUOUS
 62
    7
 10
692.98631377415222
 20
535.06067115460201
 11
692.98631377415222
 21
534.40438046466215
  0
LINE
  8
_0-2______1
  6
CONTINUOUS
 62
    7
 10
734.29587496174099
 20
570.52924520172382
 11
734.92591402408425
 21
570.52924520172382
  0
LINE
  8
_0-2______1
  6
CONTINUOUS
 62
    7
 10
809.12351426595114
 20
630.52734007604704
 11
809.77455463037086
 21
629.87629971162687
  0
LINE
  8
_0-2______1
  6
CONTINUOUS
 62
    7
 10
829.116753844286
 20
647.96367112637608
 11
829.76779420870616
 21
647.96367112637608
  0
LINE
  8
_0-2______1
  6
CONTINUOUS
 62
    7
 10
821.38827467955116
 20
640.86260586122398
 11
821.38827467955116
 21
640.2115654968029
  0
LINE
  8
_0-2______1
  6
CONTINUOUS
 62
    7
 10
841.38151425788692
 20
658.92635081113485
 11
841.38151425788692
 21
658.27531044671514
  0
LINE
  8
_0-2______1
  6
CONTINUOUS
 62
    7
 10
841.38151425788692
 20
658.27531044671514
 11
842.03255462230709
 21
658.27531044671514
  0
LINE
  8
_0-2______1
  6
CONTINUOUS
 62
    7
 10
821.38827467955116
 20
640.2115654968029
 11
822.01831374189305
 21
640.2115654968029
  0
LINE
  8
_0-2______1
  6
CONTINUOUS
 62
    7
 10
842.03255462230709
 20
658.27531044671514
 11
842.03255462230709
 21
657.61901975677392
  0
LINE
  8
_0-2______1
  6
CONTINUOUS
 62
    7
 10
842.03255462230709
 20
657.61901975677392
 11
842.66259368464898
 21
657.61901975677392
  0
LINE
  8
_0-2______1
  6
CONTINUOUS
 62
    7
 10
829.76779420870616
 20
647.96367112637608
 11
830.41883457312724
 21
647.96367112637608
  0
LINE
  8
_0-2______1
  6
CONTINUOUS
 62
    7
 10
830.41883457312724
 20
647.96367112637608
 11
830.41883457312724
 21
647.30738043643487
  0
LINE
  8
_0-2______1
  6
CONTINUOUS
 62
    7
 10
820.73723431513099
 20
641.49001976080717
 11
820.73723431513099
 21
640.86260586122398
  0
LINE
  8
_0-2______1
  6
CONTINUOUS
 62
    7
 10
820.73723431513099
 20
640.86260586122398
 11
821.38827467955116
 21
640.86260586122398
  0
LINE
  8
_0-2______1
  6
CONTINUOUS
 62
    7
 10
840.73047389346584
 20
658.92635081113485
 11
841.38151425788692
 21
658.92635081113485
  0
LINE
  8
_0-2______1
  6
CONTINUOUS
 62
    7
 10
809.12351426595114
 20
631.17838044046903
 11
809.12351426595114
 21
630.52734007604704
  0
LINE
  8
_0-2______1
  6
CONTINUOUS
 62
    7
 10
829.116753844286
 20
648.59108502595882
 11
829.116753844286
 21
647.96367112637608
  0
LINE
  8
_0-2______1
  6
CONTINUOUS
 62
    7
 10
809.77455463037086
 20
629.87629971162687
 11
810.40459369271412
 21
629.87629971162687
  0
LINE
  8
_0-2______1
  6
CONTINUOUS
 62
    7
 10
810.40459369271412
 20
629.87629971162687
 11
810.40459369271412
 21
629.24888581204414
  0
LINE
  8
_0-2______1
  6
CONTINUOUS
 62
    7
 10
830.41883457312724
 20
647.30738043643487
 11
831.06987493754696
 21
647.30738043643487
  0
LINE
  8
_0-2______1
  6
CONTINUOUS
 62
    7
 10
822.66935410631504
 20
639.5605251323841
 11
822.01831374189305
 21
640.2115654968029
  0
LINE
  8
_0-2______1
  6
CONTINUOUS
 62
    7
 10
808.47247390153007
 20
631.83467113040797
 11
808.47247390153007
 21
631.17838044046903
  0
LINE
  8
_0-2______1
  6
CONTINUOUS
 62
    7
 10
808.47247390153007
 20
631.17838044046903
 11
809.12351426595114
 21
631.17838044046903
  0
LINE
  8
_0-2______1
  6
CONTINUOUS
 62
    7
 10
829.116753844286
 20
649.24212539037899
 11
829.116753844286
 21
648.59108502595882
  0
LINE
  8
_0-2______1
  6
CONTINUOUS
 62
    7
 10
820.73723431513099
 20
642.14631045074702
 11
820.73723431513099
 21
641.49001976080717
  0
LINE
  8
_0-2______1
  6
CONTINUOUS
 62
    7
 10
840.73047389346584
 20
659.55376471071804
 11
840.73047389346584
 21
658.92635081113485
  0
LINE
  8
_0-2______1
  6
CONTINUOUS
 62
    7
 10
851.71415488030289
 20
664.0926711223442
 11
852.34419394264614
 21
664.0926711223442
  0
LINE
  8
_0-2______1
  6
CONTINUOUS
 62
    7
 10
852.34419394264614
 20
664.72008502192602
 11
851.71415488030289
 21
664.72008502192602
  0
LINE
  8
_0-2______1
  6
CONTINUOUS
 62
    7
 10
844.61571477791085
 20
656.9916058571921
 11
845.24575384025411
 21
656.9916058571921
  0
LINE
  8
_0-2______1
  6
CONTINUOUS
 62
    7
 10
812.35771478597599
 20
628.59784544762306
 11
812.98775384831788
 21
628.59784544762306
  0
LINE
  8
_0-2______1
  6
CONTINUOUS
 62
    7
 10
845.89679420467382
 20
656.9916058571921
 11
845.89679420467382
 21
657.61901975677392
  0
LINE
  8
_0-2______1
  6
CONTINUOUS
 62
    7
 10
825.25251426191926
 20
639.5605251323841
 11
825.90355462633897
 21
639.5605251323841
  0
LINE
  8
_0-2______1
  6
CONTINUOUS
 62
    7
 10
820.73723431513099
 20
645.3778858080118
 11
820.73723431513099
 21
644.72684544359117
  0
LINE
  8
_0-2______1
  6
CONTINUOUS
 62
    7
 10
841.38151425788692
 20
662.78534006798282
 11
840.73047389346584
 21
662.78534006798282
  0
LINE
  8
_0-2______1
  6
CONTINUOUS
 62
    7
 10
813.63879421273896
 20
628.59784544762306
 11
813.63879421273896
 21
629.24888581204414
  0
LINE
  8
_0-2______1
  6
CONTINUOUS
 62
    7
 10
833.63203379107381
 20
646.65634007201606
 11
834.28307415549489
 21
646.65634007201606
  0
LINE
  8
_0-2______1
  6
CONTINUOUS
 62
    7
 10
834.28307415549489
 20
646.65634007201606
 11
834.28307415549489
 21
647.30738043643487
  0
LINE
  8
_0-2______1
  6
CONTINUOUS
 62
    7
 10
809.12351426595114
 20
635.04524518559492
 11
809.12351426595114
 21
634.39420482117521
  0
LINE
  8
_0-2______1
  6
CONTINUOUS
 62
    7
 10
809.12351426595114
 20
634.39420482117521
 11
808.47247390153007
 21
634.39420482117521
  0
LINE
  8
_0-2______1
  6
CONTINUOUS
 62
    7
 10
829.116753844286
 20
652.47370074764422
 11
829.116753844286
 21
651.82266038322314
  0
LINE
  8
_0-2______1
  6
CONTINUOUS
 62
    7
 10
862.02579420064194
 20
830.52799009115097
 11
861.37475383622223
 21
830.52799009115097
  0
LINE
  8
_0-2______1
  6
CONTINUOUS
 62
    7
 10
861.37475383622223
 20
830.52799009115097
 11
861.37475383622223
 21
829.89270070328894
  0
LINE
  8
_0-2______1
  6
CONTINUOUS
 62
    7
 10
861.37475383622223
 20
829.89270070328894
 11
860.74471477387897
 21
829.89270070328894
  0
LINE
  8
_0-2______1
  6
CONTINUOUS
 62
    7
 10
669.77987497786989
 20
664.0926711223442
 11
669.77987497786989
 21
663.43638043240298
  0
LINE
  8
_0-2______1
  6
CONTINUOUS
 62
    7
 10
1026.5499946803438
 20
461.49048481231694
 11
1025.2479139515031
 21
462.79256554115909
  0
LINE
  8
_0-2______1
  6
CONTINUOUS
 62
    7
 10
1024.6178748891612
 20
462.14152517673801
 11
1023.315794160319
 21
463.44098074281919
  0
LINE
  8
_0-2______1
  6
CONTINUOUS
 62
    7
 10
1024.6178748891612
 20
462.14152517673801
 11
1025.2479139515031
 21
462.14152517673801
  0
LINE
  8
_0-2______1
  6
CONTINUOUS
 62
    7
 10
1024.6178748891612
 20
461.49048481231694
 11
1025.8989543159241
 21
461.49048481231694
  0
LINE
  8
_0-2______1
  6
CONTINUOUS
 62
    7
 10
1025.8989543159241
 20
461.49048481231694
 11
1025.2479139515031
 21
462.14152517673801
  0
LINE
  8
_0-2______1
  6
CONTINUOUS
 62
    7
 10
1000.7393944263808
 20
423.43612544683083
 11
1001.390434790801
 21
423.43612544683083
  0
LINE
  8
_0-2______1
  6
CONTINUOUS
 62
    7
 10
1021.3836743691359
 20
454.41567117476279
 11
1022.6647537958988
 21
455.04308507434598
  0
LINE
  8
_0-2______1
  6
CONTINUOUS
 62
    7
 10
1023.315794160319
 20
463.44360590557881
 11
1022.6647537958988
 21
463.44360590557881
  0
LINE
  8
_0-2______1
  6
CONTINUOUS
 62
    7
 10
1023.315794160319
 20
463.44360590557881
 11
1024.6178748891612
 21
463.44360590557881
  0
LINE
  8
_0-2______1
  6
CONTINUOUS
 62
    7
 10
1021.3836743691359
 20
454.41567117476279
 11
1021.3836743691359
 21
453.75938048482203
  0
LINE
  8
_0-2______1
  6
CONTINUOUS
 62
    7
 10
1025.2479139515031
 20
463.44360590557881
 11
1024.6178748891612
 21
463.44360590557881
  0
LINE
  8
_0-2______1
  6
CONTINUOUS
 62
    7
 10
1027.1800337426871
 20
460.86044574997504
 11
1026.5499946803438
 21
460.86044574997504
  0
LINE
  8
_0-2______1
  6
CONTINUOUS
 62
    7
 10
1026.5499946803438
 20
460.86044574997504
 11
1025.8989543159241
 21
460.86044574997504
  0
LINE
  8
_0-2______1
  6
CONTINUOUS
 62
    7
 10
1025.8989543159241
 20
460.86044574997504
 11
1025.8989543159241
 21
461.49048481231694
  0
LINE
  8
_0-2______1
  6
CONTINUOUS
 62
    7
 10
1019.4515545779532
 20
453.10834012040186
 11
1020.0815936402951
 21
452.45729975598124
  0
LINE
  8
_0-2______1
  6
CONTINUOUS
 62
    7
 10
1025.8989543159241
 20
461.49048481231694
 11
1027.1800337426871
 21
461.49048481231694
  0
LINE
  8
_0-2______1
  6
CONTINUOUS
 62
    7
 10
1023.315794160319
 20
455.04308507434598
 11
1022.6647537958988
 21
455.04308507434598
  0
LINE
  8
_0-2______1
  6
CONTINUOUS
 62
    7
 10
1018.8005142135321
 20
450.52780512755817
 11
1017.5194347867691
 21
451.17884549197788
  0
LINE
  8
_0-2______1
  6
CONTINUOUS
 62
    7
 10
1024.6178748891612
 20
451.82988585639896
 11
1025.2479139515031
 21
451.82988585639896
  0
LINE
  8
_0-2______1
  6
CONTINUOUS
 62
    7
 10
1024.6178748891612
 20
451.17884549197788
 11
1023.9668345247401
 21
451.17884549197788
  0
LINE
  8
_0-2______1
  6
CONTINUOUS
 62
    7
 10
1024.6178748891612
 20
451.82988585639896
 11
1025.2479139515031
 21
451.82988585639896
  0
LINE
  8
_0-2______1
  6
CONTINUOUS
 62
    7
 10
1016.868394422348
 20
454.41567117476279
 11
1016.217354057927
 21
453.75938048482203
  0
LINE
  8
_0-2______1
  6
CONTINUOUS
 62
    7
 10
1024.6178748891612
 20
451.17884549197788
 11
1024.6178748891612
 21
451.82988585639896
  0
LINE
  8
_0-2______1
  6
CONTINUOUS
 62
    7
 10
1016.217354057927
 20
453.75938048482203
 11
1015.5663136935073
 21
453.75938048482203
  0
LINE
  8
_0-2______1
  6
CONTINUOUS
 62
    7
 10
1011.051033746719
 20
459.56099018389295
 11
1011.051033746719
 21
458.92570079603092
  0
LINE
  8
_0-2______1
  6
CONTINUOUS
 62
    7
 10
1029.7631938982909
 20
459.56099018389295
 11
1029.7631938982909
 21
458.92570079603092
  0
LINE
  8
_0-2______1
  6
CONTINUOUS
 62
    7
 10
1031.0652746271321
 20
456.97520486552912
 11
1031.0652746271321
 21
457.6262452299502
  0
LINE
  8
_0-2______1
  6
CONTINUOUS
 62
    7
 10
1031.0652746271321
 20
456.97520486552912
 11
1031.0652746271321
 21
457.6262452299502
  0
LINE
  8
_0-2______1
  6
CONTINUOUS
 62
    7
 10
1141.385114443302
 20
562.15235083532798
 11
1141.385114443302
 21
562.77976473491208
  0
LINE
  8
_0-2______1
  6
CONTINUOUS
 62
    7
 10
1141.385114443302
 20
562.15235083532798
 11
1141.385114443302
 21
561.50131047090781
  0
LINE
  8
_0-2______1
  6
CONTINUOUS
 62
    7
 10
1139.4529946521179
 20
562.15235083532798
 11
1138.8019542876982
 21
563.43080509933179
  0
LINE
  8
_0-2______1
  6
CONTINUOUS
 62
    7
 10
1139.4529946521179
 20
562.15235083532798
 11
1140.7340740788823
 21
562.15235083532798
  0
LINE
  8
_0-2______1
  6
CONTINUOUS
 62
    7
 10
1138.8019542876982
 20
563.43080509933179
 11
1137.5208748609352
 21
564.08184546375287
  0
LINE
  8
_0-2______1
  6
CONTINUOUS
 62
    7
 10
1140.0830337144612
 20
561.50131047090781
 11
1141.385114443302
 21
560.84501978096705
  0
LINE
  8
_0-2______1
  6
CONTINUOUS
 62
    7
 10
1140.7340740788823
 20
562.15235083532798
 11
1141.385114443302
 21
561.50131047090781
  0
LINE
  8
_0-2______1
  6
CONTINUOUS
 62
    7
 10
1139.4529946521179
 20
563.43080509933179
 11
1138.8019542876982
 21
563.43080509933179
  0
LINE
  8
_0-2______1
  6
CONTINUOUS
 62
    7
 10
1142.6661938700649
 20
560.84501978096705
 11
1142.0361548077231
 21
560.84501978096705
  0
LINE
  8
_0-2______1
  6
CONTINUOUS
 62
    7
 10
1142.0361548077231
 20
560.84501978096705
 11
1141.385114443302
 21
560.84501978096705
  0
LINE
  8
_0-2______1
  6
CONTINUOUS
 62
    7
 10
1141.385114443302
 20
561.50131047090781
 11
1142.6661938700649
 21
560.84501978096705
  0
LINE
  8
_0-2______1
  6
CONTINUOUS
 62
    7
 10
1137.5208748609352
 20
555.04866040741717
 11
1137.5208748609352
 21
554.40024520575616
  0
LINE
  8
_0-2______1
  6
CONTINUOUS
 62
    7
 10
1137.5208748609352
 20
554.40024520575616
 11
1136.8698344965151
 21
553.749204841336
  0
LINE
  8
_0-2______1
  6
CONTINUOUS
 62
    7
 10
1139.4529946521179
 20
563.43080509933179
 11
1140.7340740788823
 21
562.77976473491208
  0
LINE
  8
_0-2______1
  6
CONTINUOUS
 62
    7
 10
1135.5677537676729
 20
552.46812541457211
 11
1134.937714705331
 21
552.46812541457211
  0
LINE
  8
_0-2______1
  6
CONTINUOUS
 62
    7
 10
1138.8019542876982
 20
555.04866040741717
 11
1137.5208748609352
 21
555.04866040741717
  0
LINE
  8
_0-2______1
  6
CONTINUOUS
 62
    7
 10
1133.6356339764889
 20
550.5333804606289
 11
1132.9845936120691
 21
550.5333804606289
  0
LINE
  8
_0-2______1
  6
CONTINUOUS
 62
    7
 10
1140.7340740788823
 20
551.81708505015195
 11
1140.0830337144612
 21
551.81708505015195
  0
LINE
  8
_0-2______1
  6
CONTINUOUS
 62
    7
 10
1140.0830337144612
 20
551.18967115056921
 11
1140.7340740788823
 21
551.81708505015195
  0
LINE
  8
_0-2______1
  6
CONTINUOUS
 62
    7
 10
1139.4529946521179
 20
551.18967115056921
 11
1140.0830337144612
 21
551.18967115056921
  0
LINE
  8
_0-2______1
  6
CONTINUOUS
 62
    7
 10
1131.7035141853062
 20
554.40024520575616
 11
1131.7035141853062
 21
553.749204841336
  0
LINE
  8
_0-2______1
  6
CONTINUOUS
 62
    7
 10
1145.2493540256701
 20
558.91552515254398
 11
1145.9003943900902
 21
558.91552515254398
  0
LINE
  8
_0-2______1
  6
CONTINUOUS
 62
    7
 10
1146.5514347545109
 20
556.98603052412
 11
1146.5514347545109
 21
557.63444572578101
  0
LINE
  8
_0-2______1
  6
CONTINUOUS
 62
    7
 10
1146.5514347545109
 20
556.33499015969983
 11
1146.5514347545109
 21
556.98603052412
  0
LINE
  8
_0-2______1
  6
CONTINUOUS
 62
    7
 10
1125.2561144473352
 20
556.98603052412
 11
1125.2561144473352
 21
556.33499015969983
  0
LINE
  8
_0-2______1
  6
CONTINUOUS
 62
    7
 10
1205.9011144271731
 20
510.528525164641
 11
1205.9011144271731
 21
511.17956552906207
  0
LINE
  8
_0-2______1
  6
CONTINUOUS
 62
    7
 10
1171.7109946440542
 20
538.91966041144906
 11
1171.0599542796331
 21
538.91966041144906
  0
LINE
  8
_0-2______1
  6
CONTINUOUS
 62
    7
 10
1171.0599542796331
 20
536.99016578302599
 11
1171.7109946440542
 21
536.99016578302599
  0
LINE
  8
_0-2______1
  6
CONTINUOUS
 62
    7
 10
1180.7415545376302
 20
587.30666039935295
 11
1181.371593599973
 21
587.30666039935295
  0
LINE
  8
_0-2______1
  6
CONTINUOUS
 62
    7
 10
1181.371593599973
 20
587.30666039935295
 11
1181.371593599973
 21
587.95770076377312
  0
LINE
  8
_0-2______1
  6
CONTINUOUS
 62
    7
 10
1181.371593599973
 20
587.95770076377312
 11
1181.371593599973
 21
588.59299015163515
  0
LINE
  8
_0-2______1
  6
CONTINUOUS
 62
    7
 10
1192.985313649152
 20
588.59299015163515
 11
1193.6363540135731
 21
589.24403051605623
  0
LINE
  8
_0-2______1
  6
CONTINUOUS
 62
    7
 10
1193.6363540135731
 20
589.24403051605623
 11
1193.6363540135731
 21
589.89244571771724
  0
LINE
  8
_0-2______1
  6
CONTINUOUS
 62
    7
 10
1177.5073540176049
 20
522.79066041548094
 11
1177.5073540176049
 21
523.44170077990202
  0
LINE
  8
_0-2______1
  6
CONTINUOUS
 62
    7
 10
1171.7109946440542
 20
523.44170077990202
 11
1171.7109946440542
 21
522.79066041548094
  0
LINE
  8
_0-2______1
  6
CONTINUOUS
 62
    7
 10
1171.7109946440542
 20
522.79066041548094
 11
1172.341033706396
 21
522.79066041548094
  0
LINE
  8
_0-2______1
  6
CONTINUOUS
 62
    7
 10
1172.341033706396
 20
522.79066041548094
 11
1172.9920740708171
 21
522.79066041548094
  0
LINE
  8
_0-2______1
  6
CONTINUOUS
 62
    7
 10
1172.9920740708171
 20
522.79066041548094
 11
1173.6431144352382
 21
522.79066041548094
  0
LINE
  8
_0-2______1
  6
CONTINUOUS
 62
    7
 10
1173.6431144352382
 20
522.79066041548094
 11
1174.2941547996579
 21
522.79066041548094
  0
LINE
  8
_0-2______1
  6
CONTINUOUS
 62
    7
 10
1174.2941547996579
 20
522.79066041548094
 11
1174.2941547996579
 21
522.14224521382084
  0
LINE
  8
_0-2______1
  6
CONTINUOUS
 62
    7
 10
1174.2941547996579
 20
522.14224521382084
 11
1174.9241938620012
 21
522.79066041548094
  0
LINE
  8
_0-2______1
  6
CONTINUOUS
 62
    7
 10
1174.9241938620012
 20
522.79066041548094
 11
1175.5752342264223
 21
522.79066041548094
  0
LINE
  8
_0-2______1
  6
CONTINUOUS
 62
    7
 10
1175.5752342264223
 20
522.79066041548094
 11
1176.226274590842
 21
522.79066041548094
  0
LINE
  8
_0-2______1
  6
CONTINUOUS
 62
    7
 10
1176.226274590842
 20
522.79066041548094
 11
1176.8563136531839
 21
522.79066041548094
  0
LINE
  8
_0-2______1
  6
CONTINUOUS
 62
    7
 10
1176.8563136531839
 20
522.79066041548094
 11
1177.5073540176049
 21
522.79066041548094
  0
LINE
  8
_0-2______1
  6
CONTINUOUS
 62
    7
 10
1171.7109946440542
 20
524.72803053218513
 11
1171.7109946440542
 21
523.44170077990202
  0
LINE
  8
_0-2______1
  6
CONTINUOUS
 62
    7
 10
1177.5073540176049
 20
523.44170077990202
 11
1177.5073540176049
 21
524.72540536942506
  0
LINE
  8
_0-2______1
  6
CONTINUOUS
 62
    7
 10
1177.5073540176049
 20
524.72540536942506
 11
1176.8563136531839
 21
524.72540536942506
  0
LINE
  8
_0-2______1
  6
CONTINUOUS
 62
    7
 10
1176.8563136531839
 20
524.72540536942506
 11
1176.226274590842
 21
524.72540536942506
  0
LINE
  8
_0-2______1
  6
CONTINUOUS
 62
    7
 10
1176.226274590842
 20
524.72540536942506
 11
1176.226274590842
 21
525.37644573384523
  0
LINE
  8
_0-2______1
  6
CONTINUOUS
 62
    7
 10
1176.226274590842
 20
525.37644573384523
 11
1175.5752342264223
 21
525.37644573384523
  0
LINE
  8
_0-2______1
  6
CONTINUOUS
 62
    7
 10
1175.5752342264223
 20
525.37644573384523
 11
1174.9241938620012
 21
525.37644573384523
  0
LINE
  8
_0-2______1
  6
CONTINUOUS
 62
    7
 10
1174.9241938620012
 20
525.37644573384523
 11
1174.2941547996579
 21
525.37644573384523
  0
LINE
  8
_0-2______1
  6
CONTINUOUS
 62
    7
 10
1174.2941547996579
 20
525.37644573384523
 11
1173.6431144352382
 21
525.37644573384523
  0
LINE
  8
_0-2______1
  6
CONTINUOUS
 62
    7
 10
1173.6431144352382
 20
525.37644573384523
 11
1172.9920740708171
 21
525.37644573384523
  0
LINE
  8
_0-2______1
  6
CONTINUOUS
 62
    7
 10
1172.9920740708171
 20
525.37644573384523
 11
1172.341033706396
 21
525.37644573384523
  0
LINE
  8
_0-2______1
  6
CONTINUOUS
 62
    7
 10
1172.341033706396
 20
525.37644573384523
 11
1172.341033706396
 21
524.72540536942506
  0
LINE
  8
_0-2______1
  6
CONTINUOUS
 62
    7
 10
1172.341033706396
 20
524.72540536942506
 11
1171.7109946440542
 21
524.72540536942506
  0
LINE
  8
_0-2______1
  6
CONTINUOUS
 62
    7
 10
1192.3552745868101
 20
536.33912541860491
 11
1192.985313649152
 21
536.33912541860491
  0
LINE
  8
_0-2______1
  6
CONTINUOUS
 62
    7
 10
1192.985313649152
 20
536.33912541860491
 11
1192.985313649152
 21
536.99016578302599
  0
LINE
  8
_0-2______1
  6
CONTINUOUS
 62
    7
 10
1187.1889542756012
 20
536.99016578302599
 11
1187.1889542756012
 21
536.33912541860491
  0
LINE
  8
_0-2______1
  6
CONTINUOUS
 62
    7
 10
1187.1889542756012
 20
536.33912541860491
 11
1187.8399946400218
 21
536.33912541860491
  0
LINE
  8
_0-2______1
  6
CONTINUOUS
 62
    7
 10
1187.8399946400218
 20
536.33912541860491
 11
1187.8399946400218
 21
535.68808505418519
  0
LINE
  8
_0-2______1
  6
CONTINUOUS
 62
    7
 10
1187.8399946400218
 20
535.68808505418519
 11
1188.4700337023651
 21
535.68808505418519
  0
LINE
  8
_0-2______1
  6
CONTINUOUS
 62
    7
 10
1188.4700337023651
 20
535.68808505418519
 11
1189.1210740667852
 21
535.68808505418519
  0
LINE
  8
_0-2______1
  6
CONTINUOUS
 62
    7
 10
1189.1210740667852
 20
535.68808505418519
 11
1189.7721144312059
 21
535.68808505418519
  0
LINE
  8
_0-2______1
  6
CONTINUOUS
 62
    7
 10
1189.7721144312059
 20
535.68808505418519
 11
1190.423154795626
 21
535.68808505418519
  0
LINE
  8
_0-2______1
  6
CONTINUOUS
 62
    7
 10
1190.423154795626
 20
535.68808505418519
 11
1191.0531938579679
 21
535.68808505418519
  0
LINE
  8
_0-2______1
  6
CONTINUOUS
 62
    7
 10
1191.0531938579679
 20
535.68808505418519
 11
1191.704234222389
 21
536.33912541860491
  0
LINE
  8
_0-2______1
  6
CONTINUOUS
 62
    7
 10
1191.704234222389
 20
536.33912541860491
 11
1192.3552745868101
 21
536.33912541860491
  0
LINE
  8
_0-2______1
  6
CONTINUOUS
 62
    7
 10
1187.1889542756012
 20
538.27124520978805
 11
1187.1889542756012
 21
536.99016578302599
  0
LINE
  8
_0-2______1
  6
CONTINUOUS
 62
    7
 10
1192.985313649152
 20
536.99016578302599
 11
1192.985313649152
 21
538.27124520978805
  0
LINE
  8
_0-2______1
  6
CONTINUOUS
 62
    7
 10
1192.985313649152
 20
538.27124520978805
 11
1192.3552745868101
 21
538.27124520978805
  0
LINE
  8
_0-2______1
  6
CONTINUOUS
 62
    7
 10
1192.3552745868101
 20
538.27124520978805
 11
1191.704234222389
 21
538.27124520978805
  0
LINE
  8
_0-2______1
  6
CONTINUOUS
 62
    7
 10
1191.704234222389
 20
538.27124520978805
 11
1191.0531938579679
 21
538.27124520978805
  0
LINE
  8
_0-2______1
  6
CONTINUOUS
 62
    7
 10
1191.0531938579679
 20
538.27124520978805
 11
1191.0531938579679
 21
538.91966041144906
  0
LINE
  8
_0-2______1
  6
CONTINUOUS
 62
    7
 10
1191.0531938579679
 20
538.91966041144906
 11
1190.423154795626
 21
538.91966041144906
  0
LINE
  8
_0-2______1
  6
CONTINUOUS
 62
    7
 10
1190.423154795626
 20
538.91966041144906
 11
1189.7721144312059
 21
538.91966041144906
  0
LINE
  8
_0-2______1
  6
CONTINUOUS
 62
    7
 10
1189.7721144312059
 20
538.91966041144906
 11
1189.1210740667852
 21
538.91966041144906
  0
LINE
  8
_0-2______1
  6
CONTINUOUS
 62
    7
 10
1189.1210740667852
 20
538.91966041144906
 11
1188.4700337023651
 21
538.91966041144906
  0
LINE
  8
_0-2______1
  6
CONTINUOUS
 62
    7
 10
1188.4700337023651
 20
538.91966041144906
 11
1188.4700337023651
 21
538.27124520978805
  0
LINE
  8
_0-2______1
  6
CONTINUOUS
 62
    7
 10
1188.4700337023651
 20
538.27124520978805
 11
1187.8399946400218
 21
538.27124520978805
  0
LINE
  8
_0-2______1
  6
CONTINUOUS
 62
    7
 10
1187.8399946400218
 20
538.27124520978805
 11
1187.1889542756012
 21
538.27124520978805
  0
LINE
  8
_0-2______1
  6
CONTINUOUS
 62
    7
 10
1199.4537146892021
 20
560.84501978096705
 11
1198.802674324781
 21
560.84501978096705
  0
LINE
  8
_0-2______1
  6
CONTINUOUS
 62
    7
 10
1198.802674324781
 20
560.84501978096705
 11
1198.802674324781
 21
561.50131047090781
  0
LINE
  8
_0-2______1
  6
CONTINUOUS
 62
    7
 10
1198.802674324781
 20
561.50131047090781
 11
1198.1516339603609
 21
562.15235083532798
  0
LINE
  8
_0-2______1
  6
CONTINUOUS
 62
    7
 10
1198.1516339603609
 20
562.15235083532798
 11
1197.5005935959402
 21
562.15235083532798
  0
LINE
  8
_0-2______1
  6
CONTINUOUS
 62
    7
 10
1197.5005935959402
 20
562.15235083532798
 11
1196.870554533597
 21
562.15235083532798
  0
LINE
  8
_0-2______1
  6
CONTINUOUS
 62
    7
 10
1196.870554533597
 20
562.15235083532798
 11
1196.870554533597
 21
562.77976473491208
  0
LINE
  8
_0-2______1
  6
CONTINUOUS
 62
    7
 10
1196.870554533597
 20
562.77976473491208
 11
1195.5684738047562
 21
562.77976473491208
  0
LINE
  8
_0-2______1
  6
CONTINUOUS
 62
    7
 10
1195.5684738047562
 20
562.77976473491208
 11
1194.9384347424138
 21
562.77976473491208
  0
LINE
  8
_0-2______1
  6
CONTINUOUS
 62
    7
 10
1194.9384347424138
 20
562.77976473491208
 11
1194.9384347424138
 21
563.43080509933179
  0
LINE
  8
_0-2______1
  6
CONTINUOUS
 62
    7
 10
1194.9384347424138
 20
563.43080509933179
 11
1193.6363540135731
 21
563.43080509933179
  0
LINE
  8
_0-2______1
  6
CONTINUOUS
 62
    7
 10
1193.6363540135731
 20
563.43080509933179
 11
1192.985313649152
 21
563.43080509933179
  0
LINE
  8
_0-2______1
  6
CONTINUOUS
 62
    7
 10
1192.985313649152
 20
563.43080509933179
 11
1192.3552745868101
 21
564.08184546375287
  0
LINE
  8
_0-2______1
  6
CONTINUOUS
 62
    7
 10
1192.3552745868101
 20
564.08184546375287
 11
1191.0531938579679
 21
564.08184546375287
  0
LINE
  8
_0-2______1
  6
CONTINUOUS
 62
    7
 10
1191.0531938579679
 20
564.08184546375287
 11
1189.7721144312059
 21
564.08184546375287
  0
LINE
  8
_0-2______1
  6
CONTINUOUS
 62
    7
 10
1029.7631938982909
 20
453.75938048482203
 11
1030.414234262711
 21
453.75938048482203
  0
LINE
  8
_0-2______1
  6
CONTINUOUS
 62
    7
 10
1030.414234262711
 20
453.75938048482203
 11
1030.414234262711
 21
455.04308507434598
  0
LINE
  8
_0-2______1
  6
CONTINUOUS
 62
    7
 10
1030.414234262711
 20
455.04308507434598
 11
1031.0652746271321
 21
455.04308507434598
  0
LINE
  8
_0-2______1
  6
CONTINUOUS
 62
    7
 10
1031.0652746271321
 20
455.04308507434598
 11
1031.0652746271321
 21
456.97520486552912
  0
LINE
  8
_0-2______1
  6
CONTINUOUS
 62
    7
 10
1029.7631938982909
 20
453.75938048482203
 11
1029.1331548359481
 21
453.75938048482203
  0
LINE
  8
_0-2______1
  6
CONTINUOUS
 62
    7
 10
1029.1331548359481
 20
453.75938048482203
 11
1029.1331548359481
 21
453.10834012040186
  0
LINE
  8
_0-2______1
  6
CONTINUOUS
 62
    7
 10
1029.1331548359481
 20
453.10834012040186
 11
1028.482114471527
 21
453.10834012040186
  0
LINE
  8
_0-2______1
  6
CONTINUOUS
 62
    7
 10
1028.482114471527
 20
453.10834012040186
 11
1028.482114471527
 21
452.45729975598124
  0
LINE
  8
_0-2______1
  6
CONTINUOUS
 62
    7
 10
1028.482114471527
 20
452.45729975598124
 11
1027.8310741071082
 21
452.45729975598124
  0
LINE
  8
_0-2______1
  6
CONTINUOUS
 62
    7
 10
1027.8310741071082
 20
452.45729975598124
 11
1027.1800337426871
 21
451.82988585639896
  0
LINE
  8
_0-2______1
  6
CONTINUOUS
 62
    7
 10
1027.1800337426871
 20
451.82988585639896
 11
1026.5499946803438
 21
451.82988585639896
  0
LINE
  8
_0-2______1
  6
CONTINUOUS
 62
    7
 10
1026.5499946803438
 20
451.82988585639896
 11
1025.8989543159241
 21
451.17884549197788
  0
LINE
  8
_0-2______1
  6
CONTINUOUS
 62
    7
 10
1025.8989543159241
 20
451.17884549197788
 11
1025.2479139515031
 21
451.17884549197788
  0
LINE
  8
_0-2______1
  6
CONTINUOUS
 62
    7
 10
1025.2479139515031
 20
451.17884549197788
 11
1024.6178748891612
 21
451.17884549197788
  0
LINE
  8
_0-2______1
  6
CONTINUOUS
 62
    7
 10
1024.6178748891612
 20
451.17884549197788
 11
1023.9668345247401
 21
451.17884549197788
  0
LINE
  8
_0-2______1
  6
CONTINUOUS
 62
    7
 10
1023.9668345247401
 20
451.17884549197788
 11
1023.315794160319
 21
450.52780512755817
  0
LINE
  8
_0-2______1
  6
CONTINUOUS
 62
    7
 10
1023.315794160319
 20
450.52780512755817
 11
1022.6647537958988
 21
450.52780512755817
  0
LINE
  8
_0-2______1
  6
CONTINUOUS
 62
    7
 10
1022.6647537958988
 20
450.52780512755817
 11
1021.3836743691359
 21
450.52780512755817
  0
LINE
  8
_0-2______1
  6
CONTINUOUS
 62
    7
 10
1021.3836743691359
 20
450.52780512755817
 11
1021.3836743691359
 21
449.876764763138
  0
LINE
  8
_0-2______1
  6
CONTINUOUS
 62
    7
 10
1021.3836743691359
 20
449.876764763138
 11
1020.7326340047152
 21
449.876764763138
  0
LINE
  8
_0-2______1
  6
CONTINUOUS
 62
    7
 10
1020.7326340047152
 20
449.876764763138
 11
1019.4515545779532
 21
449.876764763138
  0
LINE
  8
_0-2______1
  6
CONTINUOUS
 62
    7
 10
1019.4515545779532
 20
449.876764763138
 11
1018.8005142135321
 21
450.52780512755817
  0
LINE
  8
_0-2______1
  6
CONTINUOUS
 62
    7
 10
1018.8005142135321
 20
450.52780512755817
 11
1018.149473849111
 21
450.52780512755817
  0
LINE
  8
_0-2______1
  6
CONTINUOUS
 62
    7
 10
1018.149473849111
 20
450.52780512755817
 11
1017.5194347867691
 21
450.52780512755817
  0
LINE
  8
_0-2______1
  6
CONTINUOUS
 62
    7
 10
1017.5194347867691
 20
450.52780512755817
 11
1016.868394422348
 21
451.17884549197788
  0
LINE
  8
_0-2______1
  6
CONTINUOUS
 62
    7
 10
1016.868394422348
 20
451.17884549197788
 11
1015.5663136935073
 21
451.17884549197788
  0
LINE
  8
_0-2______1
  6
CONTINUOUS
 62
    7
 10
1015.5663136935073
 20
451.17884549197788
 11
1014.936274631164
 21
451.17884549197788
  0
LINE
  8
_0-2______1
  6
CONTINUOUS
 62
    7
 10
1014.936274631164
 20
451.17884549197788
 11
1014.936274631164
 21
451.82988585639896
  0
LINE
  8
_0-2______1
  6
CONTINUOUS
 62
    7
 10
1014.936274631164
 20
451.82988585639896
 11
1014.2852342667438
 21
451.82988585639896
  0
LINE
  8
_0-2______1
  6
CONTINUOUS
 62
    7
 10
1014.2852342667438
 20
451.82988585639896
 11
1013.6341939023241
 21
451.82988585639896
  0
LINE
  8
_0-2______1
  6
CONTINUOUS
 62
    7
 10
1013.6341939023241
 20
451.82988585639896
 11
1013.0041548399809
 21
451.82988585639896
  0
LINE
  8
_0-2______1
  6
CONTINUOUS
 62
    7
 10
1013.0041548399809
 20
451.82988585639896
 11
1013.0041548399809
 21
453.10834012040186
  0
LINE
  8
_0-2______1
  6
CONTINUOUS
 62
    7
 10
1013.0041548399809
 20
453.10834012040186
 11
1012.3531144755602
 21
453.10834012040186
  0
LINE
  8
_0-2______1
  6
CONTINUOUS
 62
    7
 10
1012.3531144755602
 20
453.10834012040186
 11
1011.7020741111401
 21
453.10834012040186
  0
LINE
  8
_0-2______1
  6
CONTINUOUS
 62
    7
 10
1011.7020741111401
 20
453.10834012040186
 11
1011.7020741111401
 21
453.75938048482203
  0
LINE
  8
_0-2______1
  6
CONTINUOUS
 62
    7
 10
1011.7020741111401
 20
453.75938048482203
 11
1011.051033746719
 21
453.75938048482203
  0
LINE
  8
_0-2______1
  6
CONTINUOUS
 62
    7
 10
1027.1800337426871
 20
461.49048481231694
 11
1027.1800337426871
 21
460.86044574997504
  0
LINE
  8
_0-2______1
  6
CONTINUOUS
 62
    7
 10
1027.1800337426871
 20
460.86044574997504
 11
1027.8310741071082
 21
460.86044574997504
  0
LINE
  8
_0-2______1
  6
CONTINUOUS
 62
    7
 10
1027.8310741071082
 20
460.86044574997504
 11
1028.482114471527
 21
460.86044574997504
  0
LINE
  8
_0-2______1
  6
CONTINUOUS
 62
    7
 10
1028.482114471527
 20
460.86044574997504
 11
1029.1331548359481
 21
460.86044574997504
  0
LINE
  8
_0-2______1
  6
CONTINUOUS
 62
    7
 10
1029.1331548359481
 20
460.86044574997504
 11
1029.1331548359481
 21
459.56099018389295
  0
LINE
  8
_0-2______1
  6
CONTINUOUS
 62
    7
 10
1029.1331548359481
 20
459.56099018389295
 11
1029.7631938982909
 21
459.56099018389295
  0
LINE
  8
_0-2______1
  6
CONTINUOUS
 62
    7
 10
1029.7631938982909
 20
459.56099018389295
 11
1030.414234262711
 21
459.56099018389295
  0
LINE
  8
_0-2______1
  6
CONTINUOUS
 62
    7
 10
1030.414234262711
 20
459.56099018389295
 11
1030.414234262711
 21
458.92570079603092
  0
LINE
  8
_0-2______1
  6
CONTINUOUS
 62
    7
 10
1030.414234262711
 20
458.92570079603092
 11
1031.0652746271321
 21
458.92570079603092
  0
LINE
  8
_0-2______1
  6
CONTINUOUS
 62
    7
 10
1031.0652746271321
 20
458.92570079603092
 11
1031.0652746271321
 21
457.6262452299502
  0
LINE
  8
_0-2______1
  6
CONTINUOUS
 62
    7
 10
1025.2479139515031
 20
465.37835085952202
 11
1025.8989543159241
 21
465.37835085952202
  0
LINE
  8
_0-2______1
  6
CONTINUOUS
 62
    7
 10
1025.8989543159241
 20
465.37835085952202
 11
1026.5499946803438
 21
465.37835085952202
  0
LINE
  8
_0-2______1
  6
CONTINUOUS
 62
    7
 10
1026.5499946803438
 20
465.37835085952202
 11
1026.5499946803438
 21
464.72731049510094
  0
LINE
  8
_0-2______1
  6
CONTINUOUS
 62
    7
 10
1026.5499946803438
 20
464.72731049510094
 11
1027.1800337426871
 21
464.72731049510094
  0
LINE
  8
_0-2______1
  6
CONTINUOUS
 62
    7
 10
1027.1800337426871
 20
464.72731049510094
 11
1027.8310741071082
 21
464.72731049510094
  0
LINE
  8
_0-2______1
  6
CONTINUOUS
 62
    7
 10
1027.8310741071082
 20
464.72731049510094
 11
1027.8310741071082
 21
464.071019805162
  0
LINE
  8
_0-2______1
  6
CONTINUOUS
 62
    7
 10
1027.8310741071082
 20
464.071019805162
 11
1028.482114471527
 21
464.071019805162
  0
LINE
  8
_0-2______1
  6
CONTINUOUS
 62
    7
 10
1028.482114471527
 20
464.071019805162
 11
1028.482114471527
 21
463.44098074281919
  0
LINE
  8
_0-2______1
  6
CONTINUOUS
 62
    7
 10
1028.482114471527
 20
463.44098074281919
 11
1029.1331548359481
 21
463.44098074281919
  0
LINE
  8
_0-2______1
  6
CONTINUOUS
 62
    7
 10
1029.1331548359481
 20
463.44098074281919
 11
1029.1331548359481
 21
462.79256554115909
  0
LINE
  8
_0-2______1
  6
CONTINUOUS
 62
    7
 10
1029.1331548359481
 20
462.79256554115909
 11
1029.7631938982909
 21
462.79256554115909
  0
LINE
  8
_0-2______1
  6
CONTINUOUS
 62
    7
 10
1029.7631938982909
 20
462.79256554115909
 11
1029.7631938982909
 21
462.14152517673801
  0
LINE
  8
_0-2______1
  6
CONTINUOUS
 62
    7
 10
1029.7631938982909
 20
462.14152517673801
 11
1030.414234262711
 21
462.14152517673801
  0
LINE
  8
_0-2______1
  6
CONTINUOUS
 62
    7
 10
1030.414234262711
 20
462.14152517673801
 11
1030.414234262711
 21
461.49048481231694
  0
LINE
  8
_0-2______1
  6
CONTINUOUS
 62
    7
 10
1011.051033746719
 20
461.49048481231694
 11
1011.051033746719
 21
462.79256554115909
  0
LINE
  8
_0-2______1
  6
CONTINUOUS
 62
    7
 10
1011.051033746719
 20
462.79256554115909
 11
1011.7020741111401
 21
462.79256554115909
  0
LINE
  8
_0-2______1
  6
CONTINUOUS
 62
    7
 10
1011.7020741111401
 20
462.79256554115909
 11
1011.7020741111401
 21
463.44360590557881
  0
LINE
  8
_0-2______1
  6
CONTINUOUS
 62
    7
 10
1011.7020741111401
 20
463.44360590557881
 11
1012.3531144755602
 21
463.44360590557881
  0
LINE
  8
_0-2______1
  6
CONTINUOUS
 62
    7
 10
1012.3531144755602
 20
463.44360590557881
 11
1012.3531144755602
 21
464.071019805162
  0
LINE
  8
_0-2______1
  6
CONTINUOUS
 62
    7
 10
1012.3531144755602
 20
464.071019805162
 11
1013.0041548399809
 21
464.071019805162
  0
LINE
  8
_0-2______1
  6
CONTINUOUS
 62
    7
 10
1013.0041548399809
 20
464.071019805162
 11
1013.0041548399809
 21
464.72731049510094
  0
LINE
  8
_0-2______1
  6
CONTINUOUS
 62
    7
 10
1013.0041548399809
 20
464.72731049510094
 11
1013.6341939023241
 21
464.72731049510094
  0
LINE
  8
_0-2______1
  6
CONTINUOUS
 62
    7
 10
1013.6341939023241
 20
464.72731049510094
 11
1014.2852342667438
 21
464.72731049510094
  0
LINE
  8
_0-2______1
  6
CONTINUOUS
 62
    7
 10
1014.2852342667438
 20
464.72731049510094
 11
1014.936274631164
 21
464.72731049510094
  0
LINE
  8
_0-2______1
  6
CONTINUOUS
 62
    7
 10
1014.936274631164
 20
464.72731049510094
 11
1014.936274631164
 21
465.37835085952202
  0
LINE
  8
_0-2______1
  6
CONTINUOUS
 62
    7
 10
1014.936274631164
 20
465.37835085952202
 11
1015.5663136935073
 21
465.37835085952202
  0
LINE
  8
_0-2______1
  6
CONTINUOUS
 62
    7
 10
1015.5663136935073
 20
465.37835085952202
 11
1016.217354057927
 21
465.37835085952202
  0
LINE
  8
_0-2______1
  6
CONTINUOUS
 62
    7
 10
1016.217354057927
 20
465.37835085952202
 11
1016.868394422348
 21
465.37835085952202
  0
LINE
  8
_0-2______1
  6
CONTINUOUS
 62
    7
 10
1016.868394422348
 20
465.37835085952202
 11
1017.5194347867691
 21
465.37835085952202
  0
LINE
  8
_0-2______1
  6
CONTINUOUS
 62
    7
 10
1017.5194347867691
 20
465.37835085952202
 11
1017.5194347867691
 21
466.0057647591052
  0
LINE
  8
_0-2______1
  6
CONTINUOUS
 62
    7
 10
1017.5194347867691
 20
466.0057647591052
 11
1018.149473849111
 21
466.0057647591052
  0
LINE
  8
_0-2______1
  6
CONTINUOUS
 62
    7
 10
1018.149473849111
 20
466.0057647591052
 11
1018.8005142135321
 21
466.0057647591052
  0
LINE
  8
_0-2______1
  6
CONTINUOUS
 62
    7
 10
1018.8005142135321
 20
466.0057647591052
 11
1019.4515545779532
 21
466.0057647591052
  0
LINE
  8
_0-2______1
  6
CONTINUOUS
 62
    7
 10
1019.4515545779532
 20
466.0057647591052
 11
1020.7326340047152
 21
466.0057647591052
  0
LINE
  8
_0-2______1
  6
CONTINUOUS
 62
    7
 10
1020.7326340047152
 20
466.0057647591052
 11
1021.3836743691359
 21
466.0057647591052
  0
LINE
  8
_0-2______1
  6
CONTINUOUS
 62
    7
 10
1021.3836743691359
 20
466.0057647591052
 11
1022.034714733556
 21
466.0057647591052
  0
LINE
  8
_0-2______1
  6
CONTINUOUS
 62
    7
 10
1022.034714733556
 20
466.0057647591052
 11
1022.6647537958988
 21
466.0057647591052
  0
LINE
  8
_0-2______1
  6
CONTINUOUS
 62
    7
 10
1022.6647537958988
 20
466.0057647591052
 11
1023.315794160319
 21
466.0057647591052
  0
LINE
  8
_0-2______1
  6
CONTINUOUS
 62
    7
 10
1023.315794160319
 20
466.0057647591052
 11
1023.315794160319
 21
465.37835085952202
  0
LINE
  8
_0-2______1
  6
CONTINUOUS
 62
    7
 10
1023.315794160319
 20
465.37835085952202
 11
1023.9668345247401
 21
465.37835085952202
  0
LINE
  8
_0-2______1
  6
CONTINUOUS
 62
    7
 10
1023.9668345247401
 20
465.37835085952202
 11
1024.6178748891612
 21
465.37835085952202
  0
LINE
  8
_0-2______1
  6
CONTINUOUS
 62
    7
 10
1024.6178748891612
 20
465.37835085952202
 11
1025.2479139515031
 21
465.37835085952202
  0
LINE
  8
_0-2______1
  6
CONTINUOUS
 62
    7
 10
1017.5194347867691
 20
451.17884549197788
 11
1018.149473849111
 21
451.17884549197788
  0
LINE
  8
_0-2______1
  6
CONTINUOUS
 62
    7
 10
1018.149473849111
 20
451.17884549197788
 11
1018.8005142135321
 21
451.17884549197788
  0
LINE
  8
_0-2______1
  6
CONTINUOUS
 62
    7
 10
1018.8005142135321
 20
451.17884549197788
 11
1018.8005142135321
 21
451.82988585639896
  0
LINE
  8
_0-2______1
  6
CONTINUOUS
 62
    7
 10
1018.8005142135321
 20
451.82988585639896
 11
1019.4515545779532
 21
451.82988585639896
  0
LINE
  8
_0-2______1
  6
CONTINUOUS
 62
    7
 10
1009.769954319956
 20
456.97520486552912
 11
1009.769954319956
 21
455.69412543876615
  0
LINE
  8
_0-2______1
  6
CONTINUOUS
 62
    7
 10
1009.769954319956
 20
455.69412543876615
 11
1009.769954319956
 21
455.04308507434598
  0
LINE
  8
_0-2______1
  6
CONTINUOUS
 62
    7
 10
1009.769954319956
 20
455.04308507434598
 11
1010.4209946843771
 21
455.04308507434598
  0
LINE
  8
_0-2______1
  6
CONTINUOUS
 62
    7
 10
1010.4209946843771
 20
455.04308507434598
 11
1010.4209946843771
 21
454.41567117476279
  0
LINE
  8
_0-2______1
  6
CONTINUOUS
 62
    7
 10
1010.4209946843771
 20
454.41567117476279
 11
1011.051033746719
 21
454.41567117476279
  0
LINE
  8
_0-2______1
  6
CONTINUOUS
 62
    7
 10
1011.051033746719
 20
454.41567117476279
 11
1011.051033746719
 21
453.75938048482203
  0
LINE
  8
_0-2______1
  6
CONTINUOUS
 62
    7
 10
1009.769954319956
 20
456.97520486552912
 11
1009.769954319956
 21
458.92570079603092
  0
LINE
  8
_0-2______1
  6
CONTINUOUS
 62
    7
 10
1009.769954319956
 20
458.92570079603092
 11
1010.4209946843771
 21
458.92570079603092
  0
LINE
  8
_0-2______1
  6
CONTINUOUS
 62
    7
 10
1010.4209946843771
 20
458.92570079603092
 11
1010.4209946843771
 21
459.56099018389295
  0
LINE
  8
_0-2______1
  6
CONTINUOUS
 62
    7
 10
1010.4209946843771
 20
459.56099018389295
 11
1011.051033746719
 21
459.56099018389295
  0
LINE
  8
_0-2______1
  6
CONTINUOUS
 62
    7
 10
1011.051033746719
 20
459.56099018389295
 11
1011.7020741111401
 21
459.56099018389295
  0
LINE
  8
_0-2______1
  6
CONTINUOUS
 62
    7
 10
1011.7020741111401
 20
459.56099018389295
 11
1011.7020741111401
 21
460.86044574997504
  0
LINE
  8
_0-2______1
  6
CONTINUOUS
 62
    7
 10
1011.7020741111401
 20
460.86044574997504
 11
1012.3531144755602
 21
460.86044574997504
  0
LINE
  8
_0-2______1
  6
CONTINUOUS
 62
    7
 10
1012.3531144755602
 20
460.86044574997504
 11
1013.0041548399809
 21
460.86044574997504
  0
LINE
  8
_0-2______1
  6
CONTINUOUS
 62
    7
 10
1013.0041548399809
 20
460.86044574997504
 11
1013.6341939023241
 21
461.49048481231694
  0
LINE
  8
_0-2______1
  6
CONTINUOUS
 62
    7
 10
1013.6341939023241
 20
461.49048481231694
 11
1014.2852342667438
 21
461.49048481231694
  0
LINE
  8
_0-2______1
  6
CONTINUOUS
 62
    7
 10
1014.2852342667438
 20
461.49048481231694
 11
1014.936274631164
 21
461.49048481231694
  0
LINE
  8
_0-2______1
  6
CONTINUOUS
 62
    7
 10
1014.936274631164
 20
461.49048481231694
 11
1015.5663136935073
 21
461.49048481231694
  0
LINE
  8
_0-2______1
  6
CONTINUOUS
 62
    7
 10
1015.5663136935073
 20
461.49048481231694
 11
1015.5663136935073
 21
462.14152517673801
  0
LINE
  8
_0-2______1
  6
CONTINUOUS
 62
    7
 10
1015.5663136935073
 20
462.14152517673801
 11
1016.217354057927
 21
462.14152517673801
  0
LINE
  8
_0-2______1
  6
CONTINUOUS
 62
    7
 10
1016.217354057927
 20
462.14152517673801
 11
1016.8631440968288
 21
462.14152517673801
  0
LINE
  8
_0-2______1
  6
CONTINUOUS
 62
    7
 10
1016.8631440968288
 20
462.14152517673801
 11
1017.5194347867691
 21
462.14152517673801
  0
LINE
  8
_0-2______1
  6
CONTINUOUS
 62
    7
 10
1017.5194347867691
 20
462.14152517673801
 11
1018.149473849111
 21
462.79256554115909
  0
LINE
  8
_0-2______1
  6
CONTINUOUS
 62
    7
 10
1018.149473849111
 20
462.79256554115909
 11
1018.8005142135321
 21
462.79256554115909
  0
LINE
  8
_0-2______1
  6
CONTINUOUS
 62
    7
 10
1018.8005142135321
 20
462.79256554115909
 11
1019.4515545779532
 21
462.79256554115909
  0
LINE
  8
_0-2______1
  6
CONTINUOUS
 62
    7
 10
1019.4515545779532
 20
462.79256554115909
 11
1020.0815936402951
 21
462.79256554115909
  0
LINE
  8
_0-2______1
  6
CONTINUOUS
 62
    7
 10
1020.0815936402951
 20
462.79256554115909
 11
1020.7326340047152
 21
462.79256554115909
  0
LINE
  8
_0-2______1
  6
CONTINUOUS
 62
    7
 10
1020.7326340047152
 20
462.79256554115909
 11
1021.3836743691359
 21
462.79256554115909
  0
LINE
  8
_0-2______1
  6
CONTINUOUS
 62
    7
 10
1021.3836743691359
 20
462.79256554115909
 11
1022.034714733556
 21
462.79256554115909
  0
LINE
  8
_0-2______1
  6
CONTINUOUS
 62
    7
 10
1022.034714733556
 20
462.79256554115909
 11
1022.6647537958988
 21
462.79256554115909
  0
LINE
  8
_0-2______1
  6
CONTINUOUS
 62
    7
 10
1022.6647537958988
 20
462.79256554115909
 11
1023.315794160319
 21
462.14152517673801
  0
LINE
  8
_0-2______1
  6
CONTINUOUS
 62
    7
 10
1023.315794160319
 20
462.14152517673801
 11
1024.6178748891612
 21
462.14152517673801
  0
LINE
  8
_0-2______1
  6
CONTINUOUS
 62
    7
 10
1016.868394422348
 20
454.41567117476279
 11
1016.868394422348
 21
453.75938048482203
  0
LINE
  8
_0-2______1
  6
CONTINUOUS
 62
    7
 10
1016.868394422348
 20
453.75938048482203
 11
1017.5194347867691
 21
453.75938048482203
  0
LINE
  8
_0-2______1
  6
CONTINUOUS
 62
    7
 10
1017.5194347867691
 20
453.75938048482203
 11
1018.149473849111
 21
453.75938048482203
  0
LINE
  8
_0-2______1
  6
CONTINUOUS
 62
    7
 10
1018.149473849111
 20
453.75938048482203
 11
1018.149473849111
 21
453.10834012040186
  0
LINE
  8
_0-2______1
  6
CONTINUOUS
 62
    7
 10
1018.149473849111
 20
453.10834012040186
 11
1018.8005142135321
 21
453.10834012040186
  0
LINE
  8
_0-2______1
  6
CONTINUOUS
 62
    7
 10
1018.8005142135321
 20
453.10834012040186
 11
1019.4515545779532
 21
453.10834012040186
  0
LINE
  8
_0-2______1
  6
CONTINUOUS
 62
    7
 10
1020.0815936402951
 20
452.45729975598124
 11
1020.7326340047152
 21
453.10834012040186
  0
LINE
  8
_0-2______1
  6
CONTINUOUS
 62
    7
 10
1020.7326340047152
 20
453.10834012040186
 11
1020.7326340047152
 21
453.75938048482203
  0
LINE
  8
_0-2______1
  6
CONTINUOUS
 62
    7
 10
1020.7326340047152
 20
453.75938048482203
 11
1021.3836743691359
 21
453.75938048482203
  0
LINE
  8
_0-2______1
  6
CONTINUOUS
 62
    7
 10
1021.3836743691359
 20
452.45729975598124
 11
1021.3836743691359
 21
451.82988585639896
  0
LINE
  8
_0-2______1
  6
CONTINUOUS
 62
    7
 10
1021.3836743691359
 20
451.82988585639896
 11
1022.034714733556
 21
451.82988585639896
  0
LINE
  8
_0-2______1
  6
CONTINUOUS
 62
    7
 10
1022.034714733556
 20
451.82988585639896
 11
1022.6647537958988
 21
451.82988585639896
  0
LINE
  8
_0-2______1
  6
CONTINUOUS
 62
    7
 10
1022.6647537958988
 20
451.82988585639896
 11
1023.315794160319
 21
451.82988585639896
  0
LINE
  8
_0-2______1
  6
CONTINUOUS
 62
    7
 10
1023.315794160319
 20
451.82988585639896
 11
1023.9668345247401
 21
451.82988585639896
  0
LINE
  8
_0-2______1
  6
CONTINUOUS
 62
    7
 10
1023.9668345247401
 20
451.82988585639896
 11
1024.6178748891612
 21
451.82988585639896
  0
LINE
  8
_0-2______1
  6
CONTINUOUS
 62
    7
 10
1019.4515545779532
 20
451.82988585639896
 11
1018.8005142135321
 21
452.45729975598124
  0
LINE
  8
_0-2______1
  6
CONTINUOUS
 62
    7
 10
1018.8005142135321
 20
452.45729975598124
 11
1018.149473849111
 21
452.45729975598124
  0
LINE
  8
_0-2______1
  6
CONTINUOUS
 62
    7
 10
1018.149473849111
 20
452.45729975598124
 11
1018.149473849111
 21
453.10834012040186
  0
LINE
  8
_0-2______1
  6
CONTINUOUS
 62
    7
 10
1018.149473849111
 20
453.10834012040186
 11
1017.5194347867691
 21
453.10834012040186
  0
LINE
  8
_0-2______1
  6
CONTINUOUS
 62
    7
 10
1017.5194347867691
 20
453.10834012040186
 11
1016.868394422348
 21
453.10834012040186
  0
LINE
  8
_0-2______1
  6
CONTINUOUS
 62
    7
 10
1016.868394422348
 20
453.10834012040186
 11
1016.868394422348
 21
453.75938048482203
  0
LINE
  8
_0-2______1
  6
CONTINUOUS
 62
    7
 10
1016.868394422348
 20
453.75938048482203
 11
1016.217354057927
 21
453.75938048482203
  0
LINE
  8
_0-2______1
  6
CONTINUOUS
 62
    7
 10
1016.217354057927
 20
453.75938048482203
 11
1015.5663136935073
 21
453.75938048482203
  0
LINE
  8
_0-2______1
  6
CONTINUOUS
 62
    7
 10
1025.2479139515031
 20
462.79256554115909
 11
1025.8989543159241
 21
462.79256554115909
  0
LINE
  8
_0-2______1
  6
CONTINUOUS
 62
    7
 10
1025.8989543159241
 20
462.79256554115909
 11
1026.5499946803438
 21
462.79256554115909
  0
LINE
  8
_0-2______1
  6
CONTINUOUS
 62
    7
 10
1026.5499946803438
 20
462.79256554115909
 11
1027.1800337426871
 21
462.79256554115909
  0
LINE
  8
_0-2______1
  6
CONTINUOUS
 62
    7
 10
1027.1800337426871
 20
462.79256554115909
 11
1027.1800337426871
 21
462.14152517673801
  0
LINE
  8
_0-2______1
  6
CONTINUOUS
 62
    7
 10
1027.1800337426871
 20
462.14152517673801
 11
1027.8310741071082
 21
462.14152517673801
  0
LINE
  8
_0-2______1
  6
CONTINUOUS
 62
    7
 10
1027.8310741071082
 20
462.14152517673801
 11
1027.8310741071082
 21
461.49048481231694
  0
LINE
  8
_0-2______1
  6
CONTINUOUS
 62
    7
 10
1027.8310741071082
 20
461.49048481231694
 11
1028.482114471527
 21
461.49048481231694
  0
LINE
  8
_0-2______1
  6
CONTINUOUS
 62
    7
 10
1028.482114471527
 20
461.49048481231694
 11
1029.1331548359481
 21
461.49048481231694
  0
LINE
  8
_0-2______1
  6
CONTINUOUS
 62
    7
 10
1029.1331548359481
 20
461.49048481231694
 11
1029.1331548359481
 21
460.20940538555396
  0
LINE
  8
_0-2______1
  6
CONTINUOUS
 62
    7
 10
1029.1331548359481
 20
460.20940538555396
 11
1029.7631938982909
 21
460.20940538555396
  0
LINE
  8
_0-2______1
  6
CONTINUOUS
 62
    7
 10
1029.7631938982909
 20
460.20940538555396
 11
1029.7631938982909
 21
459.56099018389295
  0
LINE
  8
_0-2______1
  6
CONTINUOUS
 62
    7
 10
1020.7326340047152
 20
451.82988585639896
 11
1020.0815936402951
 21
451.17884549197788
  0
LINE
  8
_0-2______1
  6
CONTINUOUS
 62
    7
 10
1020.0815936402951
 20
451.17884549197788
 11
1019.4515545779532
 21
451.17884549197788
  0
LINE
  8
_0-2______1
  6
CONTINUOUS
 62
    7
 10
1019.4515545779532
 20
451.17884549197788
 11
1018.8005142135321
 21
451.17884549197788
  0
LINE
  8
_0-2______1
  6
CONTINUOUS
 62
    7
 10
1018.8005142135321
 20
451.17884549197788
 11
1018.8005142135321
 21
450.52780512755817
  0
LINE
  8
_0-2______1
  6
CONTINUOUS
 62
    7
 10
1023.9668345247401
 20
451.17884549197788
 11
1023.315794160319
 21
451.17884549197788
  0
LINE
  8
_0-2______1
  6
CONTINUOUS
 62
    7
 10
1023.315794160319
 20
451.17884549197788
 11
1022.6647537958988
 21
451.17884549197788
  0
LINE
  8
_0-2______1
  6
CONTINUOUS
 62
    7
 10
1022.6647537958988
 20
451.17884549197788
 11
1022.034714733556
 21
451.82988585639896
  0
LINE
  8
_0-2______1
  6
CONTINUOUS
 62
    7
 10
1022.034714733556
 20
451.82988585639896
 11
1021.3836743691359
 21
451.82988585639896
  0
LINE
  8
_0-2______1
  6
CONTINUOUS
 62
    7
 10
1021.3836743691359
 20
451.82988585639896
 11
1020.7326340047152
 21
451.82988585639896
  0
LINE
  8
_0-2______1
  6
CONTINUOUS
 62
    7
 10
1030.414234262711
 20
459.56099018389295
 11
1029.7631938982909
 21
459.56099018389295
  0
LINE
  8
_0-2______1
  6
CONTINUOUS
 62
    7
 10
1029.7631938982909
 20
459.56099018389295
 11
1029.7631938982909
 21
460.86044574997504
  0
LINE
  8
_0-2______1
  6
CONTINUOUS
 62
    7
 10
1029.7631938982909
 20
460.86044574997504
 11
1029.1331548359481
 21
460.86044574997504
  0
LINE
  8
_0-2______1
  6
CONTINUOUS
 62
    7
 10
1029.1331548359481
 20
460.86044574997504
 11
1029.1331548359481
 21
461.49048481231694
  0
LINE
  8
_0-2______1
  6
CONTINUOUS
 62
    7
 10
1029.1331548359481
 20
461.49048481231694
 11
1028.482114471527
 21
461.49048481231694
  0
LINE
  8
_0-2______1
  6
CONTINUOUS
 62
    7
 10
1028.482114471527
 20
461.49048481231694
 11
1028.482114471527
 21
462.14152517673801
  0
LINE
  8
_0-2______1
  6
CONTINUOUS
 62
    7
 10
1028.482114471527
 20
462.14152517673801
 11
1027.8310741071082
 21
462.14152517673801
  0
LINE
  8
_0-2______1
  6
CONTINUOUS
 62
    7
 10
1027.8310741071082
 20
462.14152517673801
 11
1027.1800337426871
 21
462.79256554115909
  0
LINE
  8
_0-2______1
  6
CONTINUOUS
 62
    7
 10
1027.1800337426871
 20
462.79256554115909
 11
1026.5499946803438
 21
462.79256554115909
  0
LINE
  8
_0-2______1
  6
CONTINUOUS
 62
    7
 10
1026.5499946803438
 20
462.79256554115909
 11
1025.8989543159241
 21
462.79256554115909
  0
LINE
  8
_0-2______1
  6
CONTINUOUS
 62
    7
 10
1025.8989543159241
 20
462.79256554115909
 11
1025.8989543159241
 21
463.44360590557881
  0
LINE
  8
_0-2______1
  6
CONTINUOUS
 62
    7
 10
1025.8989543159241
 20
463.44360590557881
 11
1025.2479139515031
 21
463.44360590557881
  0
LINE
  8
_0-2______1
  6
CONTINUOUS
 62
    7
 10
1011.051033746719
 20
458.92570079603092
 11
1010.4209946843771
 21
458.92570079603092
  0
LINE
  8
_0-2______1
  6
CONTINUOUS
 62
    7
 10
1010.4209946843771
 20
458.92570079603092
 11
1010.4209946843771
 21
458.27466043161121
  0
LINE
  8
_0-2______1
  6
CONTINUOUS
 62
    7
 10
1010.4209946843771
 20
458.27466043161121
 11
1009.769954319956
 21
458.27466043161121
  0
LINE
  8
_0-2______1
  6
CONTINUOUS
 62
    7
 10
1009.769954319956
 20
458.27466043161121
 11
1009.769954319956
 21
456.97520486552912
  0
LINE
  8
_0-2______1
  6
CONTINUOUS
 62
    7
 10
1022.6647537958988
 20
463.44360590557881
 11
1022.034714733556
 21
463.44360590557881
  0
LINE
  8
_0-2______1
  6
CONTINUOUS
 62
    7
 10
1022.034714733556
 20
463.44360590557881
 11
1021.3836743691359
 21
463.44360590557881
  0
LINE
  8
_0-2______1
  6
CONTINUOUS
 62
    7
 10
1021.3836743691359
 20
463.44360590557881
 11
1021.3836743691359
 21
464.071019805162
  0
LINE
  8
_0-2______1
  6
CONTINUOUS
 62
    7
 10
1021.3836743691359
 20
464.071019805162
 11
1020.7326340047152
 21
464.071019805162
  0
LINE
  8
_0-2______1
  6
CONTINUOUS
 62
    7
 10
1020.7326340047152
 20
464.071019805162
 11
1020.0815936402951
 21
464.071019805162
  0
LINE
  8
_0-2______1
  6
CONTINUOUS
 62
    7
 10
1020.0815936402951
 20
464.071019805162
 11
1019.4515545779532
 21
464.071019805162
  0
LINE
  8
_0-2______1
  6
CONTINUOUS
 62
    7
 10
1019.4515545779532
 20
464.071019805162
 11
1019.4515545779532
 21
463.44360590557881
  0
LINE
  8
_0-2______1
  6
CONTINUOUS
 62
    7
 10
1019.4515545779532
 20
463.44360590557881
 11
1018.8005142135321
 21
463.44360590557881
  0
LINE
  8
_0-2______1
  6
CONTINUOUS
 62
    7
 10
1018.8005142135321
 20
463.44360590557881
 11
1018.149473849111
 21
463.44360590557881
  0
LINE
  8
_0-2______1
  6
CONTINUOUS
 62
    7
 10
1018.149473849111
 20
463.44360590557881
 11
1017.5194347867691
 21
463.44360590557881
  0
LINE
  8
_0-2______1
  6
CONTINUOUS
 62
    7
 10
1017.5194347867691
 20
463.44360590557881
 11
1016.868394422348
 21
463.44360590557881
  0
LINE
  8
_0-2______1
  6
CONTINUOUS
 62
    7
 10
1016.868394422348
 20
463.44360590557881
 11
1016.217354057927
 21
463.44360590557881
  0
LINE
  8
_0-2______1
  6
CONTINUOUS
 62
    7
 10
1016.217354057927
 20
463.44360590557881
 11
1015.5663136935073
 21
463.44360590557881
  0
LINE
  8
_0-2______1
  6
CONTINUOUS
 62
    7
 10
1015.5663136935073
 20
463.44360590557881
 11
1014.936274631164
 21
463.44360590557881
  0
LINE
  8
_0-2______1
  6
CONTINUOUS
 62
    7
 10
1014.936274631164
 20
463.44360590557881
 11
1014.936274631164
 21
462.79256554115909
  0
LINE
  8
_0-2______1
  6
CONTINUOUS
 62
    7
 10
1014.936274631164
 20
462.79256554115909
 11
1014.2852342667438
 21
462.79256554115909
  0
LINE
  8
_0-2______1
  6
CONTINUOUS
 62
    7
 10
1014.2852342667438
 20
462.79256554115909
 11
1013.6341939023241
 21
462.79256554115909
  0
LINE
  8
_0-2______1
  6
CONTINUOUS
 62
    7
 10
1013.6341939023241
 20
462.79256554115909
 11
1013.0041548399809
 21
462.14152517673801
  0
LINE
  8
_0-2______1
  6
CONTINUOUS
 62
    7
 10
1013.0041548399809
 20
462.14152517673801
 11
1013.0041548399809
 21
461.49048481231694
  0
LINE
  8
_0-2______1
  6
CONTINUOUS
 62
    7
 10
1013.0041548399809
 20
461.49048481231694
 11
1012.3531144755602
 21
461.49048481231694
  0
LINE
  8
_0-2______1
  6
CONTINUOUS
 62
    7
 10
1012.3531144755602
 20
461.49048481231694
 11
1011.7020741111401
 21
461.49048481231694
  0
LINE
  8
_0-2______1
  6
CONTINUOUS
 62
    7
 10
1011.7020741111401
 20
461.49048481231694
 11
1011.7020741111401
 21
460.86044574997504
  0
LINE
  8
_0-2______1
  6
CONTINUOUS
 62
    7
 10
1011.7020741111401
 20
460.86044574997504
 11
1011.051033746719
 21
460.86044574997504
  0
LINE
  8
_0-2______1
  6
CONTINUOUS
 62
    7
 10
1011.051033746719
 20
460.86044574997504
 11
1011.051033746719
 21
459.56099018389295
  0
LINE
  8
_0-2______1
  6
CONTINUOUS
 62
    7
 10
1011.051033746719
 20
459.56099018389295
 11
1011.051033746719
 21
460.21203054831403
  0
LINE
  8
_0-2______1
  6
CONTINUOUS
 62
    7
 10
1011.051033746719
 20
460.21203054831403
 11
1011.7020741111401
 21
460.21203054831403
  0
LINE
  8
_0-2______1
  6
CONTINUOUS
 62
    7
 10
1011.7020741111401
 20
460.21203054831403
 11
1011.7020741111401
 21
461.49048481231694
  0
LINE
  8
_0-2______1
  6
CONTINUOUS
 62
    7
 10
1011.7020741111401
 20
461.49048481231694
 11
1012.3531144755602
 21
461.49048481231694
  0
LINE
  8
_0-2______1
  6
CONTINUOUS
 62
    7
 10
1012.3531144755602
 20
461.49048481231694
 11
1013.0041548399809
 21
461.49048481231694
  0
LINE
  8
_0-2______1
  6
CONTINUOUS
 62
    7
 10
1013.0041548399809
 20
461.49048481231694
 11
1013.0041548399809
 21
462.14152517673801
  0
LINE
  8
_0-2______1
  6
CONTINUOUS
 62
    7
 10
1013.0041548399809
 20
462.14152517673801
 11
1013.6341939023241
 21
462.14152517673801
  0
LINE
  8
_0-2______1
  6
CONTINUOUS
 62
    7
 10
1013.6341939023241
 20
462.14152517673801
 11
1013.6341939023241
 21
462.79256554115909
  0
LINE
  8
_0-2______1
  6
CONTINUOUS
 62
    7
 10
1013.6341939023241
 20
462.79256554115909
 11
1014.2852342667438
 21
462.79256554115909
  0
LINE
  8
_0-2______1
  6
CONTINUOUS
 62
    7
 10
1014.2852342667438
 20
462.79256554115909
 11
1014.936274631164
 21
462.79256554115909
  0
LINE
  8
_0-2______1
  6
CONTINUOUS
 62
    7
 10
1014.936274631164
 20
462.79256554115909
 11
1015.5663136935073
 21
462.79256554115909
  0
LINE
  8
_0-2______1
  6
CONTINUOUS
 62
    7
 10
1015.5663136935073
 20
462.79256554115909
 11
1015.5663136935073
 21
463.44360590557881
  0
LINE
  8
_0-2______1
  6
CONTINUOUS
 62
    7
 10
1015.5663136935073
 20
463.44360590557881
 11
1016.217354057927
 21
463.44360590557881
  0
LINE
  8
_0-2______1
  6
CONTINUOUS
 62
    7
 10
1016.217354057927
 20
463.44360590557881
 11
1016.868394422348
 21
463.44360590557881
  0
LINE
  8
_0-2______1
  6
CONTINUOUS
 62
    7
 10
1016.868394422348
 20
463.44360590557881
 11
1017.5194347867691
 21
463.44360590557881
  0
LINE
  8
_0-2______1
  6
CONTINUOUS
 62
    7
 10
1017.5194347867691
 20
463.44360590557881
 11
1018.149473849111
 21
463.44360590557881
  0
LINE
  8
_0-2______1
  6
CONTINUOUS
 62
    7
 10
1018.149473849111
 20
463.44360590557881
 11
1018.8005142135321
 21
463.44360590557881
  0
LINE
  8
_0-2______1
  6
CONTINUOUS
 62
    7
 10
1018.8005142135321
 20
463.44360590557881
 11
1019.4515545779532
 21
463.44360590557881
  0
LINE
  8
_0-2______1
  6
CONTINUOUS
 62
    7
 10
1019.4515545779532
 20
463.44360590557881
 11
1020.7326340047152
 21
463.44360590557881
  0
LINE
  8
_0-2______1
  6
CONTINUOUS
 62
    7
 10
1020.7326340047152
 20
463.44360590557881
 11
1021.3836743691359
 21
463.44360590557881
  0
LINE
  8
_0-2______1
  6
CONTINUOUS
 62
    7
 10
1021.3836743691359
 20
463.44360590557881
 11
1022.6647537958988
 21
463.44360590557881
  0
LINE
  8
_0-2______1
  6
CONTINUOUS
 62
    7
 10
1022.6647537958988
 20
463.44360590557881
 11
1023.315794160319
 21
463.44360590557881
  0
LINE
  8
_0-2______1
  6
CONTINUOUS
 62
    7
 10
1023.315794160319
 20
455.04308507434598
 11
1023.315794160319
 21
454.41567117476279
  0
LINE
  8
_0-2______1
  6
CONTINUOUS
 62
    7
 10
1023.315794160319
 20
454.41567117476279
 11
1022.6647537958988
 21
453.75938048482203
  0
LINE
  8
_0-2______1
  6
CONTINUOUS
 62
    7
 10
1022.6647537958988
 20
453.75938048482203
 11
1022.6647537958988
 21
453.10834012040186
  0
LINE
  8
_0-2______1
  6
CONTINUOUS
 62
    7
 10
1022.6647537958988
 20
453.10834012040186
 11
1022.034714733556
 21
453.10834012040186
  0
LINE
  8
_0-2______1
  6
CONTINUOUS
 62
    7
 10
1022.034714733556
 20
453.10834012040186
 11
1021.3836743691359
 21
453.10834012040186
  0
LINE
  8
_0-2______1
  6
CONTINUOUS
 62
    7
 10
1021.3836743691359
 20
453.10834012040186
 11
1021.3836743691359
 21
452.45729975598124
  0
LINE
  8
_0-2______1
  6
CONTINUOUS
 62
    7
 10
1031.0652746271321
 20
457.6262452299502
 11
1031.0652746271321
 21
458.27466043161121
  0
LINE
  8
_0-2______1
  6
CONTINUOUS
 62
    7
 10
1031.0652746271321
 20
458.27466043161121
 11
1030.414234262711
 21
458.27466043161121
  0
LINE
  8
_0-2______1
  6
CONTINUOUS
 62
    7
 10
1030.414234262711
 20
458.27466043161121
 11
1030.414234262711
 21
458.92570079603092
  0
LINE
  8
_0-2______1
  6
CONTINUOUS
 62
    7
 10
1030.414234262711
 20
458.92570079603092
 11
1029.7631938982909
 21
458.92570079603092
  0
LINE
  8
_0-2______1
  6
CONTINUOUS
 62
    7
 10
1029.7631938982909
 20
459.56099018389295
 11
1029.1331548359481
 21
459.56099018389295
  0
LINE
  8
_0-2______1
  6
CONTINUOUS
 62
    7
 10
1029.1331548359481
 20
459.56099018389295
 11
1028.482114471527
 21
459.56099018389295
  0
LINE
  8
_0-2______1
  6
CONTINUOUS
 62
    7
 10
1028.482114471527
 20
459.56099018389295
 11
1028.482114471527
 21
460.21203054831403
  0
LINE
  8
_0-2______1
  6
CONTINUOUS
 62
    7
 10
1028.482114471527
 20
460.21203054831403
 11
1027.8310741071082
 21
460.21203054831403
  0
LINE
  8
_0-2______1
  6
CONTINUOUS
 62
    7
 10
1027.8310741071082
 20
460.21203054831403
 11
1027.8310741071082
 21
460.86044574997504
  0
LINE
  8
_0-2______1
  6
CONTINUOUS
 62
    7
 10
1027.8310741071082
 20
460.86044574997504
 11
1027.1800337426871
 21
460.86044574997504
  0
LINE
  8
_0-2______1
  6
CONTINUOUS
 62
    7
 10
1024.6178748891612
 20
461.49048481231694
 11
1023.315794160319
 21
461.49048481231694
  0
LINE
  8
_0-2______1
  6
CONTINUOUS
 62
    7
 10
1023.315794160319
 20
461.49048481231694
 11
1022.6647537958988
 21
461.49048481231694
  0
LINE
  8
_0-2______1
  6
CONTINUOUS
 62
    7
 10
1022.6647537958988
 20
461.49048481231694
 11
1021.3836743691359
 21
461.49048481231694
  0
LINE
  8
_0-2______1
  6
CONTINUOUS
 62
    7
 10
1021.3836743691359
 20
461.49048481231694
 11
1020.7326340047152
 21
461.49048481231694
  0
LINE
  8
_0-2______1
  6
CONTINUOUS
 62
    7
 10
1020.7326340047152
 20
461.49048481231694
 11
1019.4515545779532
 21
461.49048481231694
  0
LINE
  8
_0-2______1
  6
CONTINUOUS
 62
    7
 10
1019.4515545779532
 20
461.49048481231694
 11
1018.8005142135321
 21
461.49048481231694
  0
LINE
  8
_0-2______1
  6
CONTINUOUS
 62
    7
 10
1018.8005142135321
 20
461.49048481231694
 11
1017.5194347867691
 21
461.49048481231694
  0
LINE
  8
_0-2______1
  6
CONTINUOUS
 62
    7
 10
1017.5194347867691
 20
461.49048481231694
 11
1016.868394422348
 21
461.49048481231694
  0
LINE
  8
_0-2______1
  6
CONTINUOUS
 62
    7
 10
1016.868394422348
 20
461.49048481231694
 11
1015.5663136935073
 21
461.49048481231694
  0
LINE
  8
_0-2______1
  6
CONTINUOUS
 62
    7
 10
1015.5663136935073
 20
461.49048481231694
 11
1014.936274631164
 21
461.49048481231694
  0
LINE
  8
_0-2______1
  6
CONTINUOUS
 62
    7
 10
1014.936274631164
 20
461.49048481231694
 11
1014.936274631164
 21
460.86044574997504
  0
LINE
  8
_0-2______1
  6
CONTINUOUS
 62
    7
 10
1014.936274631164
 20
460.86044574997504
 11
1014.2852342667438
 21
460.86044574997504
  0
LINE
  8
_0-2______1
  6
CONTINUOUS
 62
    7
 10
1014.2852342667438
 20
460.86044574997504
 11
1013.6341939023241
 21
460.86044574997504
  0
LINE
  8
_0-2______1
  6
CONTINUOUS
 62
    7
 10
1013.6341939023241
 20
460.86044574997504
 11
1013.0041548399809
 21
460.86044574997504
  0
LINE
  8
_0-2______1
  6
CONTINUOUS
 62
    7
 10
1013.0041548399809
 20
460.86044574997504
 11
1013.0041548399809
 21
460.21203054831403
  0
LINE
  8
_0-2______1
  6
CONTINUOUS
 62
    7
 10
1013.0041548399809
 20
460.21203054831403
 11
1012.3531144755602
 21
460.21203054831403
  0
LINE
  8
_0-2______1
  6
CONTINUOUS
 62
    7
 10
1012.3531144755602
 20
460.21203054831403
 11
1011.7020741111401
 21
459.56099018389295
  0
LINE
  8
_0-2______1
  6
CONTINUOUS
 62
    7
 10
1011.7020741111401
 20
459.56099018389295
 11
1011.051033746719
 21
459.56099018389295
  0
LINE
  8
_0-2______1
  6
CONTINUOUS
 62
    7
 10
1145.2493540256701
 20
553.749204841336
 11
1145.2493540256701
 21
554.40024520575616
  0
LINE
  8
_0-2______1
  6
CONTINUOUS
 62
    7
 10
1145.2493540256701
 20
554.40024520575616
 11
1145.9003943900902
 21
554.40024520575616
  0
LINE
  8
_0-2______1
  6
CONTINUOUS
 62
    7
 10
1145.9003943900902
 20
554.40024520575616
 11
1146.5514347545109
 21
554.40024520575616
  0
LINE
  8
_0-2______1
  6
CONTINUOUS
 62
    7
 10
1146.5514347545109
 20
554.40024520575616
 11
1146.5514347545109
 21
556.33499015969983
  0
LINE
  8
_0-2______1
  6
CONTINUOUS
 62
    7
 10
1145.2493540256701
 20
553.749204841336
 11
1144.598313661249
 21
553.1191657789941
  0
LINE
  8
_0-2______1
  6
CONTINUOUS
 62
    7
 10
1144.598313661249
 20
553.1191657789941
 11
1143.9682745989062
 21
553.1191657789941
  0
LINE
  8
_0-2______1
  6
CONTINUOUS
 62
    7
 10
1143.9682745989062
 20
553.1191657789941
 11
1143.9682745989062
 21
552.46812541457211
  0
LINE
  8
_0-2______1
  6
CONTINUOUS
 62
    7
 10
1143.9682745989062
 20
552.46812541457211
 11
1143.317234234486
 21
552.46812541457211
  0
LINE
  8
_0-2______1
  6
CONTINUOUS
 62
    7
 10
1143.317234234486
 20
552.46812541457211
 11
1142.6661938700649
 21
551.81708505015195
  0
LINE
  8
_0-2______1
  6
CONTINUOUS
 62
    7
 10
1142.6661938700649
 20
551.81708505015195
 11
1142.0361548077231
 21
551.18967115056921
  0
LINE
  8
_0-2______1
  6
CONTINUOUS
 62
    7
 10
1142.0361548077231
 20
551.18967115056921
 11
1141.385114443302
 21
551.18967115056921
  0
LINE
  8
_0-2______1
  6
CONTINUOUS
 62
    7
 10
1141.385114443302
 20
551.18967115056921
 11
1140.7340740788823
 21
551.18967115056921
  0
LINE
  8
_0-2______1
  6
CONTINUOUS
 62
    7
 10
1140.7340740788823
 20
551.18967115056921
 11
1140.0830337144612
 21
550.5333804606289
  0
LINE
  8
_0-2______1
  6
CONTINUOUS
 62
    7
 10
1140.0830337144612
 20
550.5333804606289
 11
1139.4529946521179
 21
550.5333804606289
  0
LINE
  8
_0-2______1
  6
CONTINUOUS
 62
    7
 10
1139.4529946521179
 20
550.5333804606289
 11
1138.8019542876982
 21
550.5333804606289
  0
LINE
  8
_0-2______1
  6
CONTINUOUS
 62
    7
 10
1138.8019542876982
 20
550.5333804606289
 11
1137.5208748609352
 21
550.5333804606289
  0
LINE
  8
_0-2______1
  6
CONTINUOUS
 62
    7
 10
1137.5208748609352
 20
550.5333804606289
 11
1136.8698344965151
 21
550.5333804606289
  0
LINE
  8
_0-2______1
  6
CONTINUOUS
 62
    7
 10
1136.8698344965151
 20
550.5333804606289
 11
1136.218794132094
 21
550.5333804606289
  0
LINE
  8
_0-2______1
  6
CONTINUOUS
 62
    7
 10
1136.218794132094
 20
550.5333804606289
 11
1135.5677537676729
 21
550.5333804606289
  0
LINE
  8
_0-2______1
  6
CONTINUOUS
 62
    7
 10
1135.5677537676729
 20
550.5333804606289
 11
1134.937714705331
 21
550.5333804606289
  0
LINE
  8
_0-2______1
  6
CONTINUOUS
 62
    7
 10
1134.937714705331
 20
550.5333804606289
 11
1134.2866743409099
 21
550.5333804606289
  0
LINE
  8
_0-2______1
  6
CONTINUOUS
 62
    7
 10
1134.2866743409099
 20
550.5333804606289
 11
1133.6356339764889
 21
550.5333804606289
  0
LINE
  8
_0-2______1
  6
CONTINUOUS
 62
    7
 10
1133.6356339764889
 20
550.5333804606289
 11
1132.9845936120691
 21
550.5333804606289
  0
LINE
  8
_0-2______1
  6
CONTINUOUS
 62
    7
 10
1132.9845936120691
 20
550.5333804606289
 11
1131.7035141853062
 21
550.5333804606289
  0
LINE
  8
_0-2______1
  6
CONTINUOUS
 62
    7
 10
1131.7035141853062
 20
550.5333804606289
 11
1131.052473820886
 21
551.18967115056921
  0
LINE
  8
_0-2______1
  6
CONTINUOUS
 62
    7
 10
1131.052473820886
 20
551.18967115056921
 11
1129.7713943941221
 21
551.18967115056921
  0
LINE
  8
_0-2______1
  6
CONTINUOUS
 62
    7
 10
1129.7713943941221
 20
551.18967115056921
 11
1129.120354029701
 21
551.81708505015195
  0
LINE
  8
_0-2______1
  6
CONTINUOUS
 62
    7
 10
1129.120354029701
 20
551.81708505015195
 11
1129.120354029701
 21
552.46812541457211
  0
LINE
  8
_0-2______1
  6
CONTINUOUS
 62
    7
 10
1129.120354029701
 20
552.46812541457211
 11
1128.4693136652809
 21
552.46812541457211
  0
LINE
  8
_0-2______1
  6
CONTINUOUS
 62
    7
 10
1128.4693136652809
 20
552.46812541457211
 11
1127.839274602939
 21
552.46812541457211
  0
LINE
  8
_0-2______1
  6
CONTINUOUS
 62
    7
 10
1127.839274602939
 20
552.46812541457211
 11
1127.839274602939
 21
553.1191657789941
  0
LINE
  8
_0-2______1
  6
CONTINUOUS
 62
    7
 10
1127.839274602939
 20
553.1191657789941
 11
1127.1882342385179
 21
553.1191657789941
  0
LINE
  8
_0-2______1
  6
CONTINUOUS
 62
    7
 10
1127.1882342385179
 20
553.1191657789941
 11
1126.5371938740982
 21
553.749204841336
  0
LINE
  8
_0-2______1
  6
CONTINUOUS
 62
    7
 10
1142.6661938700649
 20
560.84501978096705
 11
1143.317234234486
 21
560.84501978096705
  0
LINE
  8
_0-2______1
  6
CONTINUOUS
 62
    7
 10
1143.317234234486
 20
560.84501978096705
 11
1143.9682745989062
 21
560.84501978096705
  0
LINE
  8
_0-2______1
  6
CONTINUOUS
 62
    7
 10
1143.9682745989062
 20
560.84501978096705
 11
1143.9682745989062
 21
560.21760588138613
  0
LINE
  8
_0-2______1
  6
CONTINUOUS
 62
    7
 10
1143.9682745989062
 20
560.21760588138613
 11
1144.598313661249
 21
560.21760588138613
  0
LINE
  8
_0-2______1
  6
CONTINUOUS
 62
    7
 10
1144.598313661249
 20
560.21760588138613
 11
1145.2493540256701
 21
560.21760588138613
  0
LINE
  8
_0-2______1
  6
CONTINUOUS
 62
    7
 10
1145.2493540256701
 20
560.21760588138613
 11
1145.2493540256701
 21
558.91552515254398
  0
LINE
  8
_0-2______1
  6
CONTINUOUS
 62
    7
 10
1145.9003943900902
 20
558.91552515254398
 11
1146.5514347545109
 21
558.91552515254398
  0
LINE
  8
_0-2______1
  6
CONTINUOUS
 62
    7
 10
1146.5514347545109
 20
558.91552515254398
 11
1146.5514347545109
 21
557.63444572578101
  0
LINE
  8
_0-2______1
  6
CONTINUOUS
 62
    7
 10
1140.7340740788823
 20
565.36029972775623
 11
1140.7340740788823
 21
564.73288582817304
  0
LINE
  8
_0-2______1
  6
CONTINUOUS
 62
    7
 10
1140.7340740788823
 20
564.73288582817304
 11
1141.385114443302
 21
564.73288582817304
  0
LINE
  8
_0-2______1
  6
CONTINUOUS
 62
    7
 10
1141.385114443302
 20
564.73288582817304
 11
1142.6661938700649
 21
564.73288582817304
  0
LINE
  8
_0-2______1
  6
CONTINUOUS
 62
    7
 10
1142.6661938700649
 20
564.73288582817304
 11
1142.6661938700649
 21
564.08184546375287
  0
LINE
  8
_0-2______1
  6
CONTINUOUS
 62
    7
 10
1142.6661938700649
 20
564.08184546375287
 11
1143.317234234486
 21
564.08184546375287
  0
LINE
  8
_0-2______1
  6
CONTINUOUS
 62
    7
 10
1143.317234234486
 20
564.08184546375287
 11
1143.9682745989062
 21
564.08184546375287
  0
LINE
  8
_0-2______1
  6
CONTINUOUS
 62
    7
 10
1143.9682745989062
 20
564.08184546375287
 11
1143.9682745989062
 21
563.43080509933179
  0
LINE
  8
_0-2______1
  6
CONTINUOUS
 62
    7
 10
1143.9682745989062
 20
563.43080509933179
 11
1144.598313661249
 21
563.43080509933179
  0
LINE
  8
_0-2______1
  6
CONTINUOUS
 62
    7
 10
1144.598313661249
 20
563.43080509933179
 11
1144.598313661249
 21
562.77976473491208
  0
LINE
  8
_0-2______1
  6
CONTINUOUS
 62
    7
 10
1144.598313661249
 20
562.77976473491208
 11
1145.2493540256701
 21
562.77976473491208
  0
LINE
  8
_0-2______1
  6
CONTINUOUS
 62
    7
 10
1145.2493540256701
 20
562.77976473491208
 11
1145.2493540256701
 21
560.84501978096705
  0
LINE
  8
_0-2______1
  6
CONTINUOUS
 62
    7
 10
1125.9071548117549
 20
560.84501978096705
 11
1125.9071548117549
 21
561.50131047090781
  0
LINE
  8
_0-2______1
  6
CONTINUOUS
 62
    7
 10
1125.9071548117549
 20
561.50131047090781
 11
1126.5371938740982
 21
562.15235083532798
  0
LINE
  8
_0-2______1
  6
CONTINUOUS
 62
    7
 10
1126.5371938740982
 20
562.15235083532798
 11
1126.5371938740982
 21
562.77976473491208
  0
LINE
  8
_0-2______1
  6
CONTINUOUS
 62
    7
 10
1126.5371938740982
 20
562.77976473491208
 11
1127.1882342385179
 21
562.77976473491208
  0
LINE
  8
_0-2______1
  6
CONTINUOUS
 62
    7
 10
1127.1882342385179
 20
562.77976473491208
 11
1127.1882342385179
 21
563.43080509933179
  0
LINE
  8
_0-2______1
  6
CONTINUOUS
 62
    7
 10
1127.1882342385179
 20
563.43080509933179
 11
1127.839274602939
 21
563.43080509933179
  0
LINE
  8
_0-2______1
  6
CONTINUOUS
 62
    7
 10
1127.839274602939
 20
563.43080509933179
 11
1127.839274602939
 21
564.08184546375287
  0
LINE
  8
_0-2______1
  6
CONTINUOUS
 62
    7
 10
1127.839274602939
 20
564.08184546375287
 11
1128.4693136652809
 21
564.08184546375287
  0
LINE
  8
_0-2______1
  6
CONTINUOUS
 62
    7
 10
1128.4693136652809
 20
564.08184546375287
 11
1129.120354029701
 21
564.08184546375287
  0
LINE
  8
_0-2______1
  6
CONTINUOUS
 62
    7
 10
1129.120354029701
 20
564.08184546375287
 11
1129.120354029701
 21
564.73288582817304
  0
LINE
  8
_0-2______1
  6
CONTINUOUS
 62
    7
 10
1129.120354029701
 20
564.73288582817304
 11
1129.7713943941221
 21
564.73288582817304
  0
LINE
  8
_0-2______1
  6
CONTINUOUS
 62
    7
 10
1129.7713943941221
 20
564.73288582817304
 11
1130.4224347585432
 21
564.73288582817304
  0
LINE
  8
_0-2______1
  6
CONTINUOUS
 62
    7
 10
1130.4224347585432
 20
564.73288582817304
 11
1131.052473820886
 21
564.73288582817304
  0
LINE
  8
_0-2______1
  6
CONTINUOUS
 62
    7
 10
1131.052473820886
 20
564.73288582817304
 11
1131.052473820886
 21
565.36029972775623
  0
LINE
  8
_0-2______1
  6
CONTINUOUS
 62
    7
 10
1131.052473820886
 20
565.36029972775623
 11
1131.7035141853062
 21
565.36029972775623
  0
LINE
  8
_0-2______1
  6
CONTINUOUS
 62
    7
 10
1131.7035141853062
 20
565.36029972775623
 11
1132.3545545497273
 21
565.36029972775623
  0
LINE
  8
_0-2______1
  6
CONTINUOUS
 62
    7
 10
1132.3545545497273
 20
565.36029972775623
 11
1132.3545545497273
 21
566.01134009217594
  0
LINE
  8
_0-2______1
  6
CONTINUOUS
 62
    7
 10
1132.3545545497273
 20
566.01134009217594
 11
1132.9845936120691
 21
566.01134009217594
  0
LINE
  8
_0-2______1
  6
CONTINUOUS
 62
    7
 10
1132.9845936120691
 20
566.01134009217594
 11
1133.6356339764889
 21
566.01134009217594
  0
LINE
  8
_0-2______1
  6
CONTINUOUS
 62
    7
 10
1133.6356339764889
 20
566.01134009217594
 11
1134.937714705331
 21
566.01134009217594
  0
LINE
  8
_0-2______1
  6
CONTINUOUS
 62
    7
 10
1134.937714705331
 20
566.01134009217594
 11
1135.5677537676729
 21
566.01134009217594
  0
LINE
  8
_0-2______1
  6
CONTINUOUS
 62
    7
 10
1135.5677537676729
 20
566.01134009217594
 11
1136.8698344965151
 21
566.01134009217594
  0
LINE
  8
_0-2______1
  6
CONTINUOUS
 62
    7
 10
1136.8698344965151
 20
566.01134009217594
 11
1137.5208748609352
 21
566.01134009217594
  0
LINE
  8
_0-2______1
  6
CONTINUOUS
 62
    7
 10
1137.5208748609352
 20
566.01134009217594
 11
1138.150913923278
 21
566.01134009217594
  0
LINE
  8
_0-2______1
  6
CONTINUOUS
 62
    7
 10
1138.150913923278
 20
566.01134009217594
 11
1138.8019542876982
 21
566.01134009217594
  0
LINE
  8
_0-2______1
  6
CONTINUOUS
 62
    7
 10
1138.8019542876982
 20
566.01134009217594
 11
1139.4529946521179
 21
566.01134009217594
  0
LINE
  8
_0-2______1
  6
CONTINUOUS
 62
    7
 10
1139.4529946521179
 20
566.01134009217594
 11
1139.4529946521179
 21
565.36029972775623
  0
LINE
  8
_0-2______1
  6
CONTINUOUS
 62
    7
 10
1139.4529946521179
 20
565.36029972775623
 11
1140.0830337144612
 21
565.36029972775623
  0
LINE
  8
_0-2______1
  6
CONTINUOUS
 62
    7
 10
1140.0830337144612
 20
565.36029972775623
 11
1140.7340740788823
 21
565.36029972775623
  0
LINE
  8
_0-2______1
  6
CONTINUOUS
 62
    7
 10
1132.9845936120691
 20
550.5333804606289
 11
1132.9845936120691
 21
551.18967115056921
  0
LINE
  8
_0-2______1
  6
CONTINUOUS
 62
    7
 10
1132.9845936120691
 20
551.18967115056921
 11
1133.6356339764889
 21
551.18967115056921
  0
LINE
  8
_0-2______1
  6
CONTINUOUS
 62
    7
 10
1133.6356339764889
 20
551.18967115056921
 11
1134.2866743409099
 21
551.18967115056921
  0
LINE
  8
_0-2______1
  6
CONTINUOUS
 62
    7
 10
1134.2866743409099
 20
551.18967115056921
 11
1134.937714705331
 21
551.18967115056921
  0
LINE
  8
_0-2______1
  6
CONTINUOUS
 62
    7
 10
1134.937714705331
 20
551.18967115056921
 11
1134.937714705331
 21
551.81708505015195
  0
LINE
  8
_0-2______1
  6
CONTINUOUS
 62
    7
 10
1125.2561144473352
 20
556.33499015969983
 11
1125.2561144473352
 21
555.04866040741717
  0
LINE
  8
_0-2______1
  6
CONTINUOUS
 62
    7
 10
1125.2561144473352
 20
555.04866040741717
 11
1125.9071548117549
 21
555.04866040741717
  0
LINE
  8
_0-2______1
  6
CONTINUOUS
 62
    7
 10
1125.9071548117549
 20
555.04866040741717
 11
1125.9071548117549
 21
553.749204841336
  0
LINE
  8
_0-2______1
  6
CONTINUOUS
 62
    7
 10
1125.9071548117549
 20
553.749204841336
 11
1126.5371938740982
 21
553.749204841336
  0
LINE
  8
_0-2______1
  6
CONTINUOUS
 62
    7
 10
1125.2561144473352
 20
556.98603052412
 11
1125.2561144473352
 21
558.2644847881229
  0
LINE
  8
_0-2______1
  6
CONTINUOUS
 62
    7
 10
1125.2561144473352
 20
558.2644847881229
 11
1125.9071548117549
 21
558.2644847881229
  0
LINE
  8
_0-2______1
  6
CONTINUOUS
 62
    7
 10
1125.9071548117549
 20
558.2644847881229
 11
1125.9071548117549
 21
558.91552515254398
  0
LINE
  8
_0-2______1
  6
CONTINUOUS
 62
    7
 10
1125.9071548117549
 20
558.91552515254398
 11
1126.5371938740982
 21
559.56656551696506
  0
LINE
  8
_0-2______1
  6
CONTINUOUS
 62
    7
 10
1126.5371938740982
 20
559.56656551696506
 11
1127.1882342385179
 21
560.21498071862607
  0
LINE
  8
_0-2______1
  6
CONTINUOUS
 62
    7
 10
1127.1882342385179
 20
560.21498071862607
 11
1127.839274602939
 21
560.21498071862607
  0
LINE
  8
_0-2______1
  6
CONTINUOUS
 62
    7
 10
1127.839274602939
 20
560.21498071862607
 11
1127.839274602939
 21
560.84501978096705
  0
LINE
  8
_0-2______1
  6
CONTINUOUS
 62
    7
 10
1127.839274602939
 20
560.84501978096705
 11
1128.4693136652809
 21
560.84501978096705
  0
LINE
  8
_0-2______1
  6
CONTINUOUS
 62
    7
 10
1128.4693136652809
 20
560.84501978096705
 11
1129.120354029701
 21
560.84501978096705
  0
LINE
  8
_0-2______1
  6
CONTINUOUS
 62
    7
 10
1129.120354029701
 20
560.84501978096705
 11
1129.7713943941221
 21
560.84501978096705
  0
LINE
  8
_0-2______1
  6
CONTINUOUS
 62
    7
 10
1129.7713943941221
 20
560.84501978096705
 11
1129.7713943941221
 21
561.50131047090781
  0
LINE
  8
_0-2______1
  6
CONTINUOUS
 62
    7
 10
1129.7713943941221
 20
561.50131047090781
 11
1130.4224347585432
 21
561.50131047090781
  0
LINE
  8
_0-2______1
  6
CONTINUOUS
 62
    7
 10
1130.4224347585432
 20
561.50131047090781
 11
1131.052473820886
 21
561.50131047090781
  0
LINE
  8
_0-2______1
  6
CONTINUOUS
 62
    7
 10
1131.052473820886
 20
561.50131047090781
 11
1131.052473820886
 21
562.15235083532798
  0
LINE
  8
_0-2______1
  6
CONTINUOUS
 62
    7
 10
1131.052473820886
 20
562.15235083532798
 11
1131.7035141853062
 21
562.15235083532798
  0
LINE
  8
_0-2______1
  6
CONTINUOUS
 62
    7
 10
1131.7035141853062
 20
562.15235083532798
 11
1132.3545545497273
 21
562.15235083532798
  0
LINE
  8
_0-2______1
  6
CONTINUOUS
 62
    7
 10
1132.3545545497273
 20
562.15235083532798
 11
1132.9845936120691
 21
562.15235083532798
  0
LINE
  8
_0-2______1
  6
CONTINUOUS
 62
    7
 10
1132.9845936120691
 20
562.15235083532798
 11
1133.6356339764889
 21
562.15235083532798
  0
LINE
  8
_0-2______1
  6
CONTINUOUS
 62
    7
 10
1133.6356339764889
 20
562.15235083532798
 11
1134.937714705331
 21
562.15235083532798
  0
LINE
  8
_0-2______1
  6
CONTINUOUS
 62
    7
 10
1134.937714705331
 20
562.15235083532798
 11
1135.5677537676729
 21
562.15235083532798
  0
LINE
  8
_0-2______1
  6
CONTINUOUS
 62
    7
 10
1135.5677537676729
 20
562.15235083532798
 11
1136.8698344965151
 21
562.15235083532798
  0
LINE
  8
_0-2______1
  6
CONTINUOUS
 62
    7
 10
1136.8698344965151
 20
562.15235083532798
 11
1137.5208748609352
 21
562.15235083532798
  0
LINE
  8
_0-2______1
  6
CONTINUOUS
 62
    7
 10
1137.5208748609352
 20
562.15235083532798
 11
1138.150913923278
 21
562.15235083532798
  0
LINE
  8
_0-2______1
  6
CONTINUOUS
 62
    7
 10
1138.150913923278
 20
562.15235083532798
 11
1138.8019542876982
 21
562.15235083532798
  0
LINE
  8
_0-2______1
  6
CONTINUOUS
 62
    7
 10
1138.8019542876982
 20
562.15235083532798
 11
1139.4529946521179
 21
562.15235083532798
  0
LINE
  8
_0-2______1
  6
CONTINUOUS
 62
    7
 10
1131.7035141853062
 20
554.40024520575616
 11
1132.3545545497273
 21
554.40024520575616
  0
LINE
  8
_0-2______1
  6
CONTINUOUS
 62
    7
 10
1132.3545545497273
 20
554.40024520575616
 11
1132.9845936120691
 21
553.749204841336
  0
LINE
  8
_0-2______1
  6
CONTINUOUS
 62
    7
 10
1132.9845936120691
 20
553.749204841336
 11
1133.6356339764889
 21
553.1191657789941
  0
LINE
  8
_0-2______1
  6
CONTINUOUS
 62
    7
 10
1133.6356339764889
 20
553.1191657789941
 11
1134.2866743409099
 21
553.1191657789941
  0
LINE
  8
_0-2______1
  6
CONTINUOUS
 62
    7
 10
1134.2866743409099
 20
553.1191657789941
 11
1134.937714705331
 21
553.1191657789941
  0
LINE
  8
_0-2______1
  6
CONTINUOUS
 62
    7
 10
1134.937714705331
 20
553.1191657789941
 11
1134.937714705331
 21
552.46812541457211
  0
LINE
  8
_0-2______1
  6
CONTINUOUS
 62
    7
 10
1135.5677537676729
 20
552.46812541457211
 11
1136.218794132094
 21
553.1191657789941
  0
LINE
  8
_0-2______1
  6
CONTINUOUS
 62
    7
 10
1136.218794132094
 20
553.1191657789941
 11
1136.8698344965151
 21
553.1191657789941
  0
LINE
  8
_0-2______1
  6
CONTINUOUS
 62
    7
 10
1136.8698344965151
 20
553.1191657789941
 11
1136.8698344965151
 21
553.749204841336
  0
LINE
  8
_0-2______1
  6
CONTINUOUS
 62
    7
 10
1136.8698344965151
 20
552.46812541457211
 11
1137.5208748609352
 21
552.46812541457211
  0
LINE
  8
_0-2______1
  6
CONTINUOUS
 62
    7
 10
1137.5208748609352
 20
552.46812541457211
 11
1137.5208748609352
 21
551.81708505015195
  0
LINE
  8
_0-2______1
  6
CONTINUOUS
 62
    7
 10
1137.5208748609352
 20
551.81708505015195
 11
1138.150913923278
 21
551.81708505015195
  0
LINE
  8
_0-2______1
  6
CONTINUOUS
 62
    7
 10
1138.150913923278
 20
551.81708505015195
 11
1138.8019542876982
 21
551.81708505015195
  0
LINE
  8
_0-2______1
  6
CONTINUOUS
 62
    7
 10
1138.8019542876982
 20
551.81708505015195
 11
1139.4529946521179
 21
551.81708505015195
  0
LINE
  8
_0-2______1
  6
CONTINUOUS
 62
    7
 10
1139.4529946521179
 20
551.81708505015195
 11
1140.0830337144612
 21
551.81708505015195
  0
LINE
  8
_0-2______1
  6
CONTINUOUS
 62
    7
 10
1134.937714705331
 20
551.81708505015195
 11
1134.937714705331
 21
552.46812541457211
  0
LINE
  8
_0-2______1
  6
CONTINUOUS
 62
    7
 10
1134.937714705331
 20
552.46812541457211
 11
1134.2866743409099
 21
552.46812541457211
  0
LINE
  8
_0-2______1
  6
CONTINUOUS
 62
    7
 10
1134.2866743409099
 20
552.46812541457211
 11
1133.6356339764889
 21
552.46812541457211
  0
LINE
  8
_0-2______1
  6
CONTINUOUS
 62
    7
 10
1133.6356339764889
 20
552.46812541457211
 11
1132.9845936120691
 21
552.46812541457211
  0
LINE
  8
_0-2______1
  6
CONTINUOUS
 62
    7
 10
1132.9845936120691
 20
552.46812541457211
 11
1132.9845936120691
 21
553.1191657789941
  0
LINE
  8
_0-2______1
  6
CONTINUOUS
 62
    7
 10
1132.9845936120691
 20
553.1191657789941
 11
1132.3545545497273
 21
553.1191657789941
  0
LINE
  8
_0-2______1
  6
CONTINUOUS
 62
    7
 10
1132.3545545497273
 20
553.1191657789941
 11
1131.7035141853062
 21
553.1191657789941
  0
LINE
  8
_0-2______1
  6
CONTINUOUS
 62
    7
 10
1131.7035141853062
 20
553.1191657789941
 11
1131.7035141853062
 21
553.749204841336
  0
LINE
  8
_0-2______1
  6
CONTINUOUS
 62
    7
 10
1141.385114443302
 20
562.77976473491208
 11
1142.0361548077231
 21
562.77976473491208
  0
LINE
  8
_0-2______1
  6
CONTINUOUS
 62
    7
 10
1142.0361548077231
 20
562.77976473491208
 11
1142.6661938700649
 21
562.15235083532798
  0
LINE
  8
_0-2______1
  6
CONTINUOUS
 62
    7
 10
1142.6661938700649
 20
562.15235083532798
 11
1143.317234234486
 21
562.15235083532798
  0
LINE
  8
_0-2______1
  6
CONTINUOUS
 62
    7
 10
1143.317234234486
 20
562.15235083532798
 11
1143.317234234486
 21
561.50131047090781
  0
LINE
  8
_0-2______1
  6
CONTINUOUS
 62
    7
 10
1143.317234234486
 20
561.50131047090781
 11
1143.9682745989062
 21
561.50131047090781
  0
LINE
  8
_0-2______1
  6
CONTINUOUS
 62
    7
 10
1143.9682745989062
 20
561.50131047090781
 11
1143.9682745989062
 21
560.84501978096705
  0
LINE
  8
_0-2______1
  6
CONTINUOUS
 62
    7
 10
1143.9682745989062
 20
560.84501978096705
 11
1144.598313661249
 21
560.84501978096705
  0
LINE
  8
_0-2______1
  6
CONTINUOUS
 62
    7
 10
1144.598313661249
 20
560.84501978096705
 11
1144.598313661249
 21
560.21498071862607
  0
LINE
  8
_0-2______1
  6
CONTINUOUS
 62
    7
 10
1144.598313661249
 20
560.21498071862607
 11
1145.2493540256701
 21
560.21498071862607
  0
LINE
  8
_0-2______1
  6
CONTINUOUS
 62
    7
 10
1145.2493540256701
 20
560.21498071862607
 11
1145.2493540256701
 21
559.56656551696506
  0
LINE
  8
_0-2______1
  6
CONTINUOUS
 62
    7
 10
1136.218794132094
 20
551.81708505015195
 11
1136.218794132094
 21
551.18967115056921
  0
LINE
  8
_0-2______1
  6
CONTINUOUS
 62
    7
 10
1136.218794132094
 20
551.18967115056921
 11
1135.5677537676729
 21
551.18967115056921
  0
LINE
  8
_0-2______1
  6
CONTINUOUS
 62
    7
 10
1135.5677537676729
 20
551.18967115056921
 11
1134.937714705331
 21
551.18967115056921
  0
LINE
  8
_0-2______1
  6
CONTINUOUS
 62
    7
 10
1134.937714705331
 20
551.18967115056921
 11
1134.937714705331
 21
550.5333804606289
  0
LINE
  8
_0-2______1
  6
CONTINUOUS
 62
    7
 10
1134.937714705331
 20
550.5333804606289
 11
1134.2866743409099
 21
550.5333804606289
  0
LINE
  8
_0-2______1
  6
CONTINUOUS
 62
    7
 10
1134.2866743409099
 20
550.5333804606289
 11
1133.6356339764889
 21
550.5333804606289
  0
LINE
  8
_0-2______1
  6
CONTINUOUS
 62
    7
 10
1139.4529946521179
 20
551.18967115056921
 11
1138.8019542876982
 21
551.18967115056921
  0
LINE
  8
_0-2______1
  6
CONTINUOUS
 62
    7
 10
1138.8019542876982
 20
551.18967115056921
 11
1138.150913923278
 21
551.18967115056921
  0
LINE
  8
_0-2______1
  6
CONTINUOUS
 62
    7
 10
1138.150913923278
 20
551.18967115056921
 11
1137.5208748609352
 21
551.18967115056921
  0
LINE
  8
_0-2______1
  6
CONTINUOUS
 62
    7
 10
1137.5208748609352
 20
551.18967115056921
 11
1136.8698344965151
 21
551.18967115056921
  0
LINE
  8
_0-2______1
  6
CONTINUOUS
 62
    7
 10
1136.8698344965151
 20
551.18967115056921
 11
1136.218794132094
 21
551.18967115056921
  0
LINE
  8
_0-2______1
  6
CONTINUOUS
 62
    7
 10
1136.218794132094
 20
551.18967115056921
 11
1136.218794132094
 21
551.81708505015195
  0
LINE
  8
_0-2______1
  6
CONTINUOUS
 62
    7
 10
1145.2493540256701
 20
559.56656551696506
 11
1145.2493540256701
 21
560.84501978096705
  0
LINE
  8
_0-2______1
  6
CONTINUOUS
 62
    7
 10
1145.2493540256701
 20
560.84501978096705
 11
1144.598313661249
 21
560.84501978096705
  0
LINE
  8
_0-2______1
  6
CONTINUOUS
 62
    7
 10
1144.598313661249
 20
560.84501978096705
 11
1144.598313661249
 21
561.50131047090781
  0
LINE
  8
_0-2______1
  6
CONTINUOUS
 62
    7
 10
1144.598313661249
 20
561.50131047090781
 11
1143.9682745989062
 21
561.50131047090781
  0
LINE
  8
_0-2______1
  6
CONTINUOUS
 62
    7
 10
1143.9682745989062
 20
561.50131047090781
 11
1143.317234234486
 21
562.15235083532798
  0
LINE
  8
_0-2______1
  6
CONTINUOUS
 62
    7
 10
1143.317234234486
 20
562.15235083532798
 11
1142.6661938700649
 21
562.15235083532798
  0
LINE
  8
_0-2______1
  6
CONTINUOUS
 62
    7
 10
1142.6661938700649
 20
562.15235083532798
 11
1142.6661938700649
 21
562.77976473491208
  0
LINE
  8
_0-2______1
  6
CONTINUOUS
 62
    7
 10
1142.6661938700649
 20
562.77976473491208
 11
1142.0361548077231
 21
562.77976473491208
  0
LINE
  8
_0-2______1
  6
CONTINUOUS
 62
    7
 10
1142.0361548077231
 20
562.77976473491208
 11
1141.385114443302
 21
562.77976473491208
  0
LINE
  8
_0-2______1
  6
CONTINUOUS
 62
    7
 10
1141.385114443302
 20
562.77976473491208
 11
1140.7340740788823
 21
562.77976473491208
  0
LINE
  8
_0-2______1
  6
CONTINUOUS
 62
    7
 10
1126.5371938740982
 20
558.91552515254398
 11
1125.9071548117549
 21
558.91552515254398
  0
LINE
  8
_0-2______1
  6
CONTINUOUS
 62
    7
 10
1125.9071548117549
 20
558.91552515254398
 11
1125.9071548117549
 21
558.2644847881229
  0
LINE
  8
_0-2______1
  6
CONTINUOUS
 62
    7
 10
1125.9071548117549
 20
558.2644847881229
 11
1125.2561144473352
 21
558.2644847881229
  0
LINE
  8
_0-2______1
  6
CONTINUOUS
 62
    7
 10
1125.2561144473352
 20
558.2644847881229
 11
1125.2561144473352
 21
556.98603052412
  0
LINE
  8
_0-2______1
  6
CONTINUOUS
 62
    7
 10
1137.5208748609352
 20
564.08184546375287
 11
1136.8698344965151
 21
564.08184546375287
  0
LINE
  8
_0-2______1
  6
CONTINUOUS
 62
    7
 10
1136.8698344965151
 20
564.08184546375287
 11
1136.218794132094
 21
564.08184546375287
  0
LINE
  8
_0-2______1
  6
CONTINUOUS
 62
    7
 10
1136.218794132094
 20
564.08184546375287
 11
1135.5677537676729
 21
564.08184546375287
  0
LINE
  8
_0-2______1
  6
CONTINUOUS
 62
    7
 10
1135.5677537676729
 20
564.08184546375287
 11
1134.937714705331
 21
564.08184546375287
  0
LINE
  8
_0-2______1
  6
CONTINUOUS
 62
    7
 10
1134.937714705331
 20
564.08184546375287
 11
1133.6356339764889
 21
564.08184546375287
  0
LINE
  8
_0-2______1
  6
CONTINUOUS
 62
    7
 10
1133.6356339764889
 20
564.08184546375287
 11
1133.6356339764889
 21
563.43080509933179
  0
LINE
  8
_0-2______1
  6
CONTINUOUS
 62
    7
 10
1133.6356339764889
 20
563.43080509933179
 11
1132.9845936120691
 21
563.43080509933179
  0
LINE
  8
_0-2______1
  6
CONTINUOUS
 62
    7
 10
1132.9845936120691
 20
563.43080509933179
 11
1131.7035141853062
 21
563.43080509933179
  0
LINE
  8
_0-2______1
  6
CONTINUOUS
 62
    7
 10
1131.7035141853062
 20
563.43080509933179
 11
1131.7035141853062
 21
562.77976473491208
  0
LINE
  8
_0-2______1
  6
CONTINUOUS
 62
    7
 10
1131.7035141853062
 20
562.77976473491208
 11
1131.052473820886
 21
562.77976473491208
  0
LINE
  8
_0-2______1
  6
CONTINUOUS
 62
    7
 10
1131.052473820886
 20
562.77976473491208
 11
1130.4224347585432
 21
562.77976473491208
  0
LINE
  8
_0-2______1
  6
CONTINUOUS
 62
    7
 10
1130.4224347585432
 20
562.77976473491208
 11
1129.7713943941221
 21
562.77976473491208
  0
LINE
  8
_0-2______1
  6
CONTINUOUS
 62
    7
 10
1129.7713943941221
 20
562.77976473491208
 11
1129.120354029701
 21
562.77976473491208
  0
LINE
  8
_0-2______1
  6
CONTINUOUS
 62
    7
 10
1129.120354029701
 20
562.77976473491208
 11
1129.120354029701
 21
562.15235083532798
  0
LINE
  8
_0-2______1
  6
CONTINUOUS
 62
    7
 10
1129.120354029701
 20
562.15235083532798
 11
1128.4693136652809
 21
562.15235083532798
  0
LINE
  8
_0-2______1
  6
CONTINUOUS
 62
    7
 10
1128.4693136652809
 20
562.15235083532798
 11
1127.839274602939
 21
562.15235083532798
  0
LINE
  8
_0-2______1
  6
CONTINUOUS
 62
    7
 10
1127.839274602939
 20
562.15235083532798
 11
1127.839274602939
 21
561.50131047090781
  0
LINE
  8
_0-2______1
  6
CONTINUOUS
 62
    7
 10
1127.839274602939
 20
561.50131047090781
 11
1127.1882342385179
 21
560.84501978096705
  0
LINE
  8
_0-2______1
  6
CONTINUOUS
 62
    7
 10
1127.1882342385179
 20
560.84501978096705
 11
1127.1882342385179
 21
560.21498071862607
  0
LINE
  8
_0-2______1
  6
CONTINUOUS
 62
    7
 10
1127.1882342385179
 20
560.21498071862607
 11
1126.5371938740982
 21
560.21498071862607
  0
LINE
  8
_0-2______1
  6
CONTINUOUS
 62
    7
 10
1126.5371938740982
 20
560.21498071862607
 11
1126.5371938740982
 21
559.56656551696506
  0
LINE
  8
_0-2______1
  6
CONTINUOUS
 62
    7
 10
1126.5371938740982
 20
559.56656551696506
 11
1125.9071548117549
 21
559.56656551696506
  0
LINE
  8
_0-2______1
  6
CONTINUOUS
 62
    7
 10
1125.9071548117549
 20
559.56656551696506
 11
1125.9071548117549
 21
558.91552515254398
  0
LINE
  8
_0-2______1
  6
CONTINUOUS
 62
    7
 10
1126.5371938740982
 20
559.56656551696506
 11
1126.5371938740982
 21
560.21498071862607
  0
LINE
  8
_0-2______1
  6
CONTINUOUS
 62
    7
 10
1126.5371938740982
 20
560.21498071862607
 11
1127.1882342385179
 21
560.21498071862607
  0
LINE
  8
_0-2______1
  6
CONTINUOUS
 62
    7
 10
1127.1882342385179
 20
560.21498071862607
 11
1127.1882342385179
 21
560.84501978096705
  0
LINE
  8
_0-2______1
  6
CONTINUOUS
 62
    7
 10
1127.1882342385179
 20
560.84501978096705
 11
1127.839274602939
 21
560.84501978096705
  0
LINE
  8
_0-2______1
  6
CONTINUOUS
 62
    7
 10
1127.839274602939
 20
560.84501978096705
 11
1127.839274602939
 21
561.50131047090781
  0
LINE
  8
_0-2______1
  6
CONTINUOUS
 62
    7
 10
1127.839274602939
 20
561.50131047090781
 11
1128.4693136652809
 21
562.15235083532798
  0
LINE
  8
_0-2______1
  6
CONTINUOUS
 62
    7
 10
1128.4693136652809
 20
562.15235083532798
 11
1129.120354029701
 21
562.15235083532798
  0
LINE
  8
_0-2______1
  6
CONTINUOUS
 62
    7
 10
1129.120354029701
 20
562.15235083532798
 11
1129.7713943941221
 21
562.15235083532798
  0
LINE
  8
_0-2______1
  6
CONTINUOUS
 62
    7
 10
1129.7713943941221
 20
562.15235083532798
 11
1129.7713943941221
 21
562.77976473491208
  0
LINE
  8
_0-2______1
  6
CONTINUOUS
 62
    7
 10
1129.7713943941221
 20
562.77976473491208
 11
1130.4224347585432
 21
562.77976473491208
  0
LINE
  8
_0-2______1
  6
CONTINUOUS
 62
    7
 10
1130.4224347585432
 20
562.77976473491208
 11
1131.052473820886
 21
562.77976473491208
  0
LINE
  8
_0-2______1
  6
CONTINUOUS
 62
    7
 10
1131.052473820886
 20
562.77976473491208
 11
1131.7035141853062
 21
562.77976473491208
  0
LINE
  8
_0-2______1
  6
CONTINUOUS
 62
    7
 10
1131.7035141853062
 20
562.77976473491208
 11
1131.7035141853062
 21
563.43080509933179
  0
LINE
  8
_0-2______1
  6
CONTINUOUS
 62
    7
 10
1131.7035141853062
 20
563.43080509933179
 11
1132.3545545497273
 21
563.43080509933179
  0
LINE
  8
_0-2______1
  6
CONTINUOUS
 62
    7
 10
1132.3545545497273
 20
563.43080509933179
 11
1132.9845936120691
 21
563.43080509933179
  0
LINE
  8
_0-2______1
  6
CONTINUOUS
 62
    7
 10
1132.9845936120691
 20
563.43080509933179
 11
1133.6356339764889
 21
563.43080509933179
  0
LINE
  8
_0-2______1
  6
CONTINUOUS
 62
    7
 10
1133.6356339764889
 20
563.43080509933179
 11
1134.2866743409099
 21
563.43080509933179
  0
LINE
  8
_0-2______1
  6
CONTINUOUS
 62
    7
 10
1134.2866743409099
 20
563.43080509933179
 11
1134.937714705331
 21
563.43080509933179
  0
LINE
  8
_0-2______1
  6
CONTINUOUS
 62
    7
 10
1134.937714705331
 20
563.43080509933179
 11
1135.5677537676729
 21
564.08184546375287
  0
LINE
  8
_0-2______1
  6
CONTINUOUS
 62
    7
 10
1135.5677537676729
 20
564.08184546375287
 11
1136.8698344965151
 21
564.08184546375287
  0
LINE
  8
_0-2______1
  6
CONTINUOUS
 62
    7
 10
1136.8698344965151
 20
564.08184546375287
 11
1136.8698344965151
 21
563.43080509933179
  0
LINE
  8
_0-2______1
  6
CONTINUOUS
 62
    7
 10
1136.8698344965151
 20
563.43080509933179
 11
1137.5208748609352
 21
563.43080509933179
  0
LINE
  8
_0-2______1
  6
CONTINUOUS
 62
    7
 10
1137.5208748609352
 20
563.43080509933179
 11
1138.8019542876982
 21
563.43080509933179
  0
LINE
  8
_0-2______1
  6
CONTINUOUS
 62
    7
 10
1138.8019542876982
 20
555.04866040741717
 11
1138.8019542876982
 21
554.40024520575616
  0
LINE
  8
_0-2______1
  6
CONTINUOUS
 62
    7
 10
1138.8019542876982
 20
554.40024520575616
 11
1138.150913923278
 21
554.40024520575616
  0
LINE
  8
_0-2______1
  6
CONTINUOUS
 62
    7
 10
1138.150913923278
 20
554.40024520575616
 11
1138.150913923278
 21
553.749204841336
  0
LINE
  8
_0-2______1
  6
CONTINUOUS
 62
    7
 10
1138.150913923278
 20
553.749204841336
 11
1137.5208748609352
 21
553.1191657789941
  0
LINE
  8
_0-2______1
  6
CONTINUOUS
 62
    7
 10
1137.5208748609352
 20
553.1191657789941
 11
1137.5208748609352
 21
552.46812541457211
  0
LINE
  8
_0-2______1
  6
CONTINUOUS
 62
    7
 10
1137.5208748609352
 20
552.46812541457211
 11
1136.8698344965151
 21
552.46812541457211
  0
LINE
  8
_0-2______1
  6
CONTINUOUS
 62
    7
 10
1146.5514347545109
 20
556.98603052412
 11
1146.5514347545109
 21
558.2644847881229
  0
LINE
  8
_0-2______1
  6
CONTINUOUS
 62
    7
 10
1146.5514347545109
 20
558.2644847881229
 11
1145.9003943900902
 21
558.2644847881229
  0
LINE
  8
_0-2______1
  6
CONTINUOUS
 62
    7
 10
1145.9003943900902
 20
558.2644847881229
 11
1145.9003943900902
 21
558.91552515254398
  0
LINE
  8
_0-2______1
  6
CONTINUOUS
 62
    7
 10
1145.9003943900902
 20
558.91552515254398
 11
1145.2493540256701
 21
558.91552515254398
  0
LINE
  8
_0-2______1
  6
CONTINUOUS
 62
    7
 10
1145.2493540256701
 20
558.91552515254398
 11
1144.598313661249
 21
559.56656551696506
  0
LINE
  8
_0-2______1
  6
CONTINUOUS
 62
    7
 10
1144.598313661249
 20
559.56656551696506
 11
1144.598313661249
 21
560.21498071862607
  0
LINE
  8
_0-2______1
  6
CONTINUOUS
 62
    7
 10
1144.598313661249
 20
560.21498071862607
 11
1143.9682745989062
 21
560.21498071862607
  0
LINE
  8
_0-2______1
  6
CONTINUOUS
 62
    7
 10
1143.9682745989062
 20
560.21498071862607
 11
1143.317234234486
 21
560.21498071862607
  0
LINE
  8
_0-2______1
  6
CONTINUOUS
 62
    7
 10
1143.317234234486
 20
560.21498071862607
 11
1142.6661938700649
 21
560.21498071862607
  0
LINE
  8
_0-2______1
  6
CONTINUOUS
 62
    7
 10
1142.6661938700649
 20
560.21498071862607
 11
1142.6661938700649
 21
560.84501978096705
  0
LINE
  8
_0-2______1
  6
CONTINUOUS
 62
    7
 10
1140.0830337144612
 20
561.50131047090781
 11
1139.4529946521179
 21
561.50131047090781
  0
LINE
  8
_0-2______1
  6
CONTINUOUS
 62
    7
 10
1139.4529946521179
 20
561.50131047090781
 11
1138.8019542876982
 21
561.50131047090781
  0
LINE
  8
_0-2______1
  6
CONTINUOUS
 62
    7
 10
1138.8019542876982
 20
561.50131047090781
 11
1138.150913923278
 21
561.50131047090781
  0
LINE
  8
_0-2______1
  6
CONTINUOUS
 62
    7
 10
1138.150913923278
 20
561.50131047090781
 11
1137.5208748609352
 21
562.15235083532798
  0
LINE
  8
_0-2______1
  6
CONTINUOUS
 62
    7
 10
1137.5208748609352
 20
562.15235083532798
 11
1136.8698344965151
 21
562.15235083532798
  0
LINE
  8
_0-2______1
  6
CONTINUOUS
 62
    7
 10
1136.8698344965151
 20
562.15235083532798
 11
1135.5677537676729
 21
562.15235083532798
  0
LINE
  8
_0-2______1
  6
CONTINUOUS
 62
    7
 10
1135.5677537676729
 20
562.15235083532798
 11
1134.937714705331
 21
562.15235083532798
  0
LINE
  8
_0-2______1
  6
CONTINUOUS
 62
    7
 10
1134.937714705331
 20
562.15235083532798
 11
1133.6356339764889
 21
562.15235083532798
  0
LINE
  8
_0-2______1
  6
CONTINUOUS
 62
    7
 10
1133.6356339764889
 20
562.15235083532798
 11
1133.6356339764889
 21
561.50131047090781
  0
LINE
  8
_0-2______1
  6
CONTINUOUS
 62
    7
 10
1133.6356339764889
 20
561.50131047090781
 11
1132.9845936120691
 21
561.50131047090781
  0
LINE
  8
_0-2______1
  6
CONTINUOUS
 62
    7
 10
1132.9845936120691
 20
561.50131047090781
 11
1132.3545545497273
 21
561.50131047090781
  0
LINE
  8
_0-2______1
  6
CONTINUOUS
 62
    7
 10
1132.3545545497273
 20
561.50131047090781
 11
1131.7035141853062
 21
561.50131047090781
  0
LINE
  8
_0-2______1
  6
CONTINUOUS
 62
    7
 10
1131.7035141853062
 20
561.50131047090781
 11
1131.7035141853062
 21
560.84501978096705
  0
LINE
  8
_0-2______1
  6
CONTINUOUS
 62
    7
 10
1131.7035141853062
 20
560.84501978096705
 11
1131.052473820886
 21
560.84501978096705
  0
LINE
  8
_0-2______1
  6
CONTINUOUS
 62
    7
 10
1131.052473820886
 20
560.84501978096705
 11
1130.4224347585432
 21
560.84501978096705
  0
LINE
  8
_0-2______1
  6
CONTINUOUS
 62
    7
 10
1130.4224347585432
 20
560.84501978096705
 11
1129.7713943941221
 21
560.84501978096705
  0
LINE
  8
_0-2______1
  6
CONTINUOUS
 62
    7
 10
1129.7713943941221
 20
560.84501978096705
 11
1129.120354029701
 21
560.84501978096705
  0
LINE
  8
_0-2______1
  6
CONTINUOUS
 62
    7
 10
1129.120354029701
 20
560.84501978096705
 11
1129.120354029701
 21
560.21760588138613
  0
LINE
  8
_0-2______1
  6
CONTINUOUS
 62
    7
 10
1129.120354029701
 20
560.21760588138613
 11
1128.4693136652809
 21
560.21760588138613
  0
LINE
  8
_0-2______1
  6
CONTINUOUS
 62
    7
 10
1128.4693136652809
 20
560.21760588138613
 11
1127.839274602939
 21
560.21760588138613
  0
LINE
  8
_0-2______1
  6
CONTINUOUS
 62
    7
 10
1127.839274602939
 20
560.21760588138613
 11
1127.1882342385179
 21
559.56656551696506
  0
LINE
  8
_0-2______1
  6
CONTINUOUS
 62
    7
 10
1127.1882342385179
 20
559.56656551696506
 11
1127.1882342385179
 21
558.91552515254398
  0
LINE
  8
_0-2______1
  6
CONTINUOUS
 62
    7
 10
1127.1882342385179
 20
558.91552515254398
 11
1126.5371938740982
 21
558.91552515254398
  0
LINE
  8
_0-2______1
  6
CONTINUOUS
 62
    7
 10
736.85803381526694
 20
569.87820483730411
 11
736.85803381526694
 21
570.52924520172382
  0
LINE
  8
_0-2______1
  6
CONTINUOUS
 62
    7
 10
736.85803381526694
 20
570.52924520172382
 11
736.22799475292504
 21
570.52924520172382
  0
LINE
  8
_0-2______1
  6
CONTINUOUS
 62
    7
 10
736.22799475292504
 20
570.52924520172382
 11
735.57695438850487
 21
570.52924520172382
  0
LINE
  8
_0-2______1
  6
CONTINUOUS
 62
    7
 10
735.57695438850487
 20
570.52924520172382
 11
735.57695438850487
 21
569.87820483730411
  0
LINE
  8
_0-2______1
  6
CONTINUOUS
 62
    7
 10
735.57695438850487
 20
569.87820483730411
 11
734.92591402408425
 21
569.87820483730411
  0
LINE
  8
_0-2______1
  6
CONTINUOUS
 62
    7
 10
734.92591402408425
 20
569.87820483730411
 11
734.92591402408425
 21
569.24816577496085
  0
LINE
  8
_0-2______1
  6
CONTINUOUS
 62
    7
 10
734.92591402408425
 20
569.24816577496085
 11
734.29587496174099
 21
569.24816577496085
  0
LINE
  8
_0-2______1
  6
CONTINUOUS
 62
    7
 10
734.29587496174099
 20
569.24816577496085
 11
734.29587496174099
 21
568.59712541054114
  0
LINE
  8
_0-2______1
  6
CONTINUOUS
 62
    7
 10
734.29587496174099
 20
568.59712541054114
 11
734.29587496174099
 21
567.94608504612006
  0
LINE
  8
_0-2______1
  6
CONTINUOUS
 62
    7
 10
734.29587496174099
 20
567.94608504612006
 11
734.29587496174099
 21
566.66238045659702
  0
LINE
  8
_0-2______1
  6
CONTINUOUS
 62
    7
 10
734.29587496174099
 20
566.66238045659702
 11
734.92591402408425
 21
566.66238045659702
  0
LINE
  8
_0-2______1
  6
CONTINUOUS
 62
    7
 10
734.92591402408425
 20
566.66238045659702
 11
734.92591402408425
 21
566.01134009217594
  0
LINE
  8
_0-2______1
  6
CONTINUOUS
 62
    7
 10
734.92591402408425
 20
566.01134009217594
 11
735.57695438850487
 21
566.01134009217594
  0
LINE
  8
_0-2______1
  6
CONTINUOUS
 62
    7
 10
735.57695438850487
 20
566.01134009217594
 11
735.57695438850487
 21
565.36029972775623
  0
LINE
  8
_0-2______1
  6
CONTINUOUS
 62
    7
 10
735.57695438850487
 20
565.36029972775623
 11
736.22799475292504
 21
564.73288582817304
  0
LINE
  8
_0-2______1
  6
CONTINUOUS
 62
    7
 10
736.22799475292504
 20
564.73288582817304
 11
736.85803381526694
 21
564.73288582817304
  0
LINE
  8
_0-2______1
  6
CONTINUOUS
 62
    7
 10
736.85803381526694
 20
564.73288582817304
 11
737.50907417968801
 21
564.73288582817304
  0
LINE
  8
_0-2______1
  6
CONTINUOUS
 62
    7
 10
737.50907417968801
 20
564.73288582817304
 11
738.16011454410818
 21
564.73288582817304
  0
LINE
  8
_0-2______1
  6
CONTINUOUS
 62
    7
 10
738.16011454410818
 20
564.73288582817304
 11
738.81115490852926
 21
564.73288582817304
  0
LINE
  8
_0-2______1
  6
CONTINUOUS
 62
    7
 10
738.81115490852926
 20
564.73288582817304
 11
738.81115490852926
 21
565.36029972775623
  0
LINE
  8
_0-2______1
  6
CONTINUOUS
 62
    7
 10
738.81115490852926
 20
565.36029972775623
 11
739.44119397087206
 21
565.36029972775623
  0
LINE
  8
_0-2______1
  6
CONTINUOUS
 62
    7
 10
739.44119397087206
 20
565.36029972775623
 11
739.44119397087206
 21
567.94608504612006
  0
LINE
  8
_0-2______1
  6
CONTINUOUS
 62
    7
 10
737.50907417968801
 20
569.87820483730411
 11
738.16011454410818
 21
569.87820483730411
  0
LINE
  8
_0-2______1
  6
CONTINUOUS
 62
    7
 10
738.16011454410818
 20
569.87820483730411
 11
738.16011454410818
 21
569.24816577496085
  0
LINE
  8
_0-2______1
  6
CONTINUOUS
 62
    7
 10
738.16011454410818
 20
569.24816577496085
 11
738.81115490852926
 21
569.24816577496085
  0
LINE
  8
_0-2______1
  6
CONTINUOUS
 62
    7
 10
738.81115490852926
 20
569.24816577496085
 11
738.81115490852926
 21
568.59712541054114
  0
LINE
  8
_0-2______1
  6
CONTINUOUS
 62
    7
 10
738.81115490852926
 20
568.59712541054114
 11
739.44119397087206
 21
567.94608504612006
  0
LINE
  8
_0-2______1
  6
CONTINUOUS
 62
    7
 10
737.50907417968801
 20
569.87820483730411
 11
736.85803381526694
 21
569.87820483730411
  0
LINE
  8
_0-2______1
  6
CONTINUOUS
 62
    7
 10
696.22051429417706
 20
529.24331047897294
 11
695.56947392975599
 21
529.24331047897294
  0
LINE
  8
_0-2______1
  6
CONTINUOUS
 62
    7
 10
695.56947392975599
 20
529.24331047897294
 11
694.93943486741409
 21
529.24331047897294
  0
LINE
  8
_0-2______1
  6
CONTINUOUS
 62
    7
 10
694.93943486741409
 20
529.24331047897294
 11
694.93943486741409
 21
529.89435084339311
  0
LINE
  8
_0-2______1
  6
CONTINUOUS
 62
    7
 10
694.93943486741409
 20
529.89435084339311
 11
694.28839450299301
 21
529.89435084339311
  0
LINE
  8
_0-2______1
  6
CONTINUOUS
 62
    7
 10
694.28839450299301
 20
529.89435084339311
 11
694.28839450299301
 21
530.52176474297585
  0
LINE
  8
_0-2______1
  6
CONTINUOUS
 62
    7
 10
694.28839450299301
 20
530.52176474297585
 11
693.63735413857194
 21
530.52176474297585
  0
LINE
  8
_0-2______1
  6
CONTINUOUS
 62
    7
 10
693.63735413857194
 20
530.52176474297585
 11
693.63735413857194
 21
531.17280510739602
  0
LINE
  8
_0-2______1
  6
CONTINUOUS
 62
    7
 10
693.63735413857194
 20
531.17280510739602
 11
692.98631377415222
 21
531.17280510739602
  0
LINE
  8
_0-2______1
  6
CONTINUOUS
 62
    7
 10
692.98631377415222
 20
531.17280510739602
 11
692.98631377415222
 21
535.06067115460201
  0
LINE
  8
_0-2______1
  6
CONTINUOUS
 62
    7
 10
692.98631377415222
 20
535.06067115460201
 11
693.63735413857194
 21
535.06067115460201
  0
LINE
  8
_0-2______1
  6
CONTINUOUS
 62
    7
 10
716.21375387251101
 20
546.65076473894305
 11
715.58371481017002
 21
546.65076473894305
  0
LINE
  8
_0-2______1
  6
CONTINUOUS
 62
    7
 10
715.58371481017002
 20
546.65076473894305
 11
715.58371481017002
 21
547.30180510336504
  0
LINE
  8
_0-2______1
  6
CONTINUOUS
 62
    7
 10
715.58371481017002
 20
547.30180510336504
 11
714.93267444574894
 21
547.30180510336504
  0
LINE
  8
_0-2______1
  6
CONTINUOUS
 62
    7
 10
714.93267444574894
 20
547.30180510336504
 11
714.28163408132787
 21
547.30180510336504
  0
LINE
  8
_0-2______1
  6
CONTINUOUS
 62
    7
 10
714.28163408132787
 20
547.30180510336504
 11
714.28163408132787
 21
548.60388583220583
  0
LINE
  8
_0-2______1
  6
CONTINUOUS
 62
    7
 10
714.28163408132787
 20
548.60388583220583
 11
713.63059371690815
 21
548.60388583220583
  0
LINE
  8
_0-2______1
  6
CONTINUOUS
 62
    7
 10
713.63059371690815
 20
548.60388583220583
 11
713.63059371690815
 21
552.46812541457211
  0
LINE
  8
_0-2______1
  6
CONTINUOUS
 62
    7
 10
713.63059371690815
 20
552.46812541457211
 11
714.28163408132787
 21
552.46812541457211
  0
LINE
  8
_0-2______1
  6
CONTINUOUS
 62
    7
 10
718.79691402811613
 20
547.30180510336504
 11
718.79691402811613
 21
546.65076473894305
  0
LINE
  8
_0-2______1
  6
CONTINUOUS
 62
    7
 10
718.79691402811613
 20
546.65076473894305
 11
718.16687496577288
 21
546.65076473894305
  0
LINE
  8
_0-2______1
  6
CONTINUOUS
 62
    7
 10
718.16687496577288
 20
546.65076473894305
 11
717.51583460135316
 21
546.65076473894305
  0
LINE
  8
_0-2______1
  6
CONTINUOUS
 62
    7
 10
717.51583460135316
 20
546.65076473894305
 11
716.86479423693208
 21
546.65076473894305
  0
LINE
  8
_0-2______1
  6
CONTINUOUS
 62
    7
 10
716.86479423693208
 20
546.65076473894305
 11
716.21375387251101
 21
546.65076473894305
  0
LINE
  8
_0-2______1
  6
CONTINUOUS
 62
    7
 10
714.28163408132787
 20
552.46812541457211
 11
714.28163408132787
 21
553.1191657789941
  0
LINE
  8
_0-2______1
  6
CONTINUOUS
 62
    7
 10
714.28163408132787
 20
553.1191657789941
 11
714.93267444574894
 21
553.1191657789941
  0
LINE
  8
_0-2______1
  6
CONTINUOUS
 62
    7
 10
714.93267444574894
 20
553.1191657789941
 11
714.93267444574894
 21
554.40024520575616
  0
LINE
  8
_0-2______1
  6
CONTINUOUS
 62
    7
 10
694.28839450299301
 20
535.06067115460201
 11
694.28839450299301
 21
536.99016578302599
  0
LINE
  8
_0-2______1
  6
CONTINUOUS
 62
    7
 10
698.80367444978083
 20
529.24331047897294
 11
698.15263408536021
 21
529.24331047897294
  0
LINE
  8
_0-2______1
  6
CONTINUOUS
 62
    7
 10
698.15263408536021
 20
529.24331047897294
 11
697.50159372094004
 21
529.24331047897294
  0
LINE
  8
_0-2______1
  6
CONTINUOUS
 62
    7
 10
697.50159372094004
 20
529.24331047897294
 11
696.87155465859723
 21
529.24331047897294
  0
LINE
  8
_0-2______1
  6
CONTINUOUS
 62
    7
 10
696.87155465859723
 20
529.24331047897294
 11
696.22051429417706
 21
529.24331047897294
  0
LINE
  8
_0-2______1
  6
CONTINUOUS
 62
    7
 10
727.19743485934896
 20
564.73288582817304
 11
727.19743485934896
 21
564.08184546375287
  0
LINE
  8
_0-2______1
  6
CONTINUOUS
 62
    7
 10
727.19743485934896
 20
564.08184546375287
 11
726.54639449492925
 21
564.08184546375287
  0
LINE
  8
_0-2______1
  6
CONTINUOUS
 62
    7
 10
726.54639449492925
 20
564.08184546375287
 11
726.54639449492925
 21
563.43080509933179
  0
LINE
  8
_0-2______1
  6
CONTINUOUS
 62
    7
 10
726.54639449492925
 20
563.43080509933179
 11
725.89535413050817
 21
563.43080509933179
  0
LINE
  8
_0-2______1
  6
CONTINUOUS
 62
    7
 10
725.89535413050817
 20
563.43080509933179
 11
725.89535413050817
 21
562.77976473491208
  0
LINE
  8
_0-2______1
  6
CONTINUOUS
 62
    7
 10
725.89535413050817
 20
562.77976473491208
 11
725.89535413050817
 21
562.15235083532798
  0
LINE
  8
_0-2______1
  6
CONTINUOUS
 62
    7
 10
725.89535413050817
 20
562.15235083532798
 11
725.244313766088
 21
562.15235083532798
  0
LINE
  8
_0-2______1
  6
CONTINUOUS
 62
    7
 10
725.244313766088
 20
561.50131047090781
 11
725.244313766088
 21
560.84501978096705
  0
LINE
  8
_0-2______1
  6
CONTINUOUS
 62
    7
 10
725.244313766088
 20
560.84501978096705
 11
725.244313766088
 21
560.21760588138613
  0
LINE
  8
_0-2______1
  6
CONTINUOUS
 62
    7
 10
725.244313766088
 20
560.21760588138613
 11
725.244313766088
 21
559.56656551696506
  0
LINE
  8
_0-2______1
  6
CONTINUOUS
 62
    7
 10
706.55315491659394
 20
546.65076473894305
 11
706.55315491659394
 21
546.02335083936214
  0
LINE
  8
_0-2______1
  6
CONTINUOUS
 62
    7
 10
706.55315491659394
 20
546.02335083936214
 11
705.90211455217286
 21
546.02335083936214
  0
LINE
  8
_0-2______1
  6
CONTINUOUS
 62
    7
 10
705.25107418775315
 20
544.71601978499984
 11
704.60003382333207
 21
544.71601978499984
  0
LINE
  8
_0-2______1
  6
CONTINUOUS
 62
    7
 10
704.60003382333207
 20
544.08860588541711
 11
704.60003382333207
 21
542.78652515657723
  0
LINE
  8
_0-2______1
  6
CONTINUOUS
 62
    7
 10
704.60003382333207
 20
542.13548479215615
 11
705.25107418775315
 21
542.13548479215615
  0
LINE
  8
_0-2______1
  6
CONTINUOUS
 62
    7
 10
852.34419394264614
 20
669.88903049589499
 11
851.71415488030289
 21
669.88903049589499
  0
LINE
  8
_0-2______1
  6
CONTINUOUS
 62
    7
 10
851.71415488030289
 20
669.88903049589499
 11
851.06311451588317
 21
669.88903049589499
  0
LINE
  8
_0-2______1
  6
CONTINUOUS
 62
    7
 10
851.06311451588317
 20
669.88903049589499
 11
850.41207415146209
 21
669.88903049589499
  0
LINE
  8
_0-2______1
  6
CONTINUOUS
 62
    7
 10
850.41207415146209
 20
669.88903049589499
 11
849.76103378704101
 21
669.23799013147391
  0
LINE
  8
_0-2______1
  6
CONTINUOUS
 62
    7
 10
849.76103378704101
 20
669.23799013147391
 11
849.76103378704101
 21
667.95166037919216
  0
LINE
  8
_0-2______1
  6
CONTINUOUS
 62
    7
 10
849.76103378704101
 20
667.95166037919216
 11
849.76103378704101
 21
666.02216575076818
  0
LINE
  8
_0-2______1
  6
CONTINUOUS
 62
    7
 10
849.76103378704101
 20
666.02216575076818
 11
850.41207415146209
 21
666.02216575076818
  0
LINE
  8
_0-2______1
  6
CONTINUOUS
 62
    7
 10
850.41207415146209
 20
666.02216575076818
 11
850.41207415146209
 21
665.37112538634801
  0
LINE
  8
_0-2______1
  6
CONTINUOUS
 62
    7
 10
850.41207415146209
 20
665.37112538634801
 11
851.06311451588317
 21
665.37112538634801
  0
LINE
  8
_0-2______1
  6
CONTINUOUS
 62
    7
 10
851.06311451588317
 20
665.37112538634801
 11
851.71415488030289
 21
665.37112538634801
  0
LINE
  8
_0-2______1
  6
CONTINUOUS
 62
    7
 10
851.71415488030289
 20
665.37112538634801
 11
851.71415488030289
 21
664.72008502192602
  0
LINE
  8
_0-2______1
  6
CONTINUOUS
 62
    7
 10
852.34419394264614
 20
664.72008502192602
 11
852.99523430706586
 21
664.72008502192602
  0
LINE
  8
_0-2______1
  6
CONTINUOUS
 62
    7
 10
852.99523430706586
 20
664.72008502192602
 11
853.64627467148694
 21
664.72008502192602
  0
LINE
  8
_0-2______1
  6
CONTINUOUS
 62
    7
 10
853.64627467148694
 20
664.72008502192602
 11
854.27631373383019
 21
664.72008502192602
  0
LINE
  8
_0-2______1
  6
CONTINUOUS
 62
    7
 10
854.27631373383019
 20
664.72008502192602
 11
854.27631373383019
 21
666.02216575076818
  0
LINE
  8
_0-2______1
  6
CONTINUOUS
 62
    7
 10
854.27631373383019
 20
666.02216575076818
 11
854.92735409824991
 21
666.02216575076818
  0
LINE
  8
_0-2______1
  6
CONTINUOUS
 62
    7
 10
854.92735409824991
 20
666.02216575076818
 11
854.92735409824991
 21
667.30324517753024
  0
LINE
  8
_0-2______1
  6
CONTINUOUS
 62
    7
 10
854.92735409824991
 20
667.30324517753024
 11
854.27631373383019
 21
667.30324517753024
  0
LINE
  8
_0-2______1
  6
CONTINUOUS
 62
    7
 10
854.27631373383019
 20
667.30324517753024
 11
854.27631373383019
 21
668.60270074361188
  0
LINE
  8
_0-2______1
  6
CONTINUOUS
 62
    7
 10
854.27631373383019
 20
668.60270074361188
 11
853.64627467148694
 21
669.23799013147391
  0
LINE
  8
_0-2______1
  6
CONTINUOUS
 62
    7
 10
853.64627467148694
 20
669.23799013147391
 11
852.99523430706586
 21
669.23799013147391
  0
LINE
  8
_0-2______1
  6
CONTINUOUS
 62
    7
 10
852.99523430706586
 20
669.23799013147391
 11
852.99523430706586
 21
669.88903049589499
  0
LINE
  8
_0-2______1
  6
CONTINUOUS
 62
    7
 10
852.99523430706586
 20
669.88903049589499
 11
852.34419394264614
 21
669.88903049589499
  0
LINE
  8
_0-2______1
  6
CONTINUOUS
 62
    7
 10
687.18995440060098
 20
521.49120484940022
 11
687.18995440060098
 21
522.14224521382084
  0
LINE
  8
_0-2______1
  6
CONTINUOUS
 62
    7
 10
687.18995440060098
 20
522.14224521382084
 11
686.53891403618081
 21
522.14224521382084
  0
LINE
  8
_0-2______1
  6
CONTINUOUS
 62
    7
 10
686.53891403618081
 20
522.14224521382084
 11
686.53891403618081
 21
522.79066041548094
  0
LINE
  8
_0-2______1
  6
CONTINUOUS
 62
    7
 10
686.53891403618081
 20
522.79066041548094
 11
685.90887497383801
 21
522.79066041548094
  0
LINE
  8
_0-2______1
  6
CONTINUOUS
 62
    7
 10
685.90887497383801
 20
522.79066041548094
 11
685.25783460941693
 21
522.79066041548094
  0
LINE
  8
_0-2______1
  6
CONTINUOUS
 62
    7
 10
685.25783460941693
 20
522.79066041548094
 11
685.25783460941693
 21
524.07699016776405
  0
LINE
  8
_0-2______1
  6
CONTINUOUS
 62
    7
 10
685.25783460941693
 20
524.07699016776405
 11
684.60679424499722
 21
524.07699016776405
  0
LINE
  8
_0-2______1
  6
CONTINUOUS
 62
    7
 10
684.60679424499722
 20
524.07699016776405
 11
684.60679424499722
 21
527.30856552502883
  0
LINE
  8
_0-2______1
  6
CONTINUOUS
 62
    7
 10
684.60679424499722
 20
527.30856552502883
 11
685.25783460941693
 21
527.30856552502883
  0
LINE
  8
_0-2______1
  6
CONTINUOUS
 62
    7
 10
739.44119397087206
 20
568.59712541054114
 11
739.44119397087206
 21
569.24816577496085
  0
LINE
  8
_0-2______1
  6
CONTINUOUS
 62
    7
 10
739.44119397087206
 20
569.24816577496085
 11
738.81115490852926
 21
569.24816577496085
  0
LINE
  8
_0-2______1
  6
CONTINUOUS
 62
    7
 10
738.81115490852926
 20
569.24816577496085
 11
738.81115490852926
 21
571.17766040338483
  0
LINE
  8
_0-2______1
  6
CONTINUOUS
 62
    7
 10
736.85803381526694
 20
570.52924520172382
 11
736.22799475292504
 21
570.52924520172382
  0
LINE
  8
_0-2______1
  6
CONTINUOUS
 62
    7
 10
736.22799475292504
 20
570.52924520172382
 11
735.57695438850487
 21
570.52924520172382
  0
LINE
  8
_0-2______1
  6
CONTINUOUS
 62
    7
 10
735.57695438850487
 20
570.52924520172382
 11
734.92591402408425
 21
570.52924520172382
  0
LINE
  8
_0-2______1
  6
CONTINUOUS
 62
    7
 10
737.50907417968801
 20
570.52924520172382
 11
736.85803381526694
 21
570.52924520172382
  0
LINE
  8
_0-2______1
  6
CONTINUOUS
 62
    7
 10
728.47851428611193
 20
556.98603052412
 11
727.82747392169222
 21
556.98603052412
  0
LINE
  8
_0-2______1
  6
CONTINUOUS
 62
    7
 10
727.82747392169222
 20
556.98603052412
 11
727.19743485934896
 21
556.98603052412
  0
LINE
  8
_0-2______1
  6
CONTINUOUS
 62
    7
 10
727.19743485934896
 20
556.98603052412
 11
727.19743485934896
 21
558.2644847881229
  0
LINE
  8
_0-2______1
  6
CONTINUOUS
 62
    7
 10
727.19743485934896
 20
558.2644847881229
 11
726.54639449492925
 21
558.2644847881229
  0
LINE
  8
_0-2______1
  6
CONTINUOUS
 62
    7
 10
726.54639449492925
 20
558.2644847881229
 11
725.89535413050817
 21
558.2644847881229
  0
LINE
  8
_0-2______1
  6
CONTINUOUS
 62
    7
 10
725.89535413050817
 20
558.2644847881229
 11
725.89535413050817
 21
559.56656551696506
  0
LINE
  8
_0-2______1
  6
CONTINUOUS
 62
    7
 10
725.89535413050817
 20
559.56656551696506
 11
725.244313766088
 21
559.56656551696506
  0
LINE
  8
_0-2______1
  6
CONTINUOUS
 62
    7
 10
725.244313766088
 20
559.56656551696506
 11
725.244313766088
 21
560.21498071862607
  0
LINE
  8
_0-2______1
  6
CONTINUOUS
 62
    7
 10
725.244313766088
 20
560.21498071862607
 11
725.244313766088
 21
562.15235083532798
  0
LINE
  8
_0-2______1
  6
CONTINUOUS
 62
    7
 10
725.244313766088
 20
562.15235083532798
 11
725.89535413050817
 21
562.77976473491208
  0
LINE
  8
_0-2______1
  6
CONTINUOUS
 62
    7
 10
707.834234343356
 20
539.57070077587014
 11
707.18319397893583
 21
539.57070077587014
  0
LINE
  8
_0-2______1
  6
CONTINUOUS
 62
    7
 10
707.18319397893583
 20
539.57070077587014
 11
707.18319397893583
 21
540.20599016373217
  0
LINE
  8
_0-2______1
  6
CONTINUOUS
 62
    7
 10
707.18319397893583
 20
540.20599016373217
 11
706.55315491659394
 21
540.20599016373217
  0
LINE
  8
_0-2______1
  6
CONTINUOUS
 62
    7
 10
706.55315491659394
 20
540.20599016373217
 11
705.90211455217286
 21
540.20599016373217
  0
LINE
  8
_0-2______1
  6
CONTINUOUS
 62
    7
 10
705.90211455217286
 20
540.20599016373217
 11
705.90211455217286
 21
541.50544572981289
  0
LINE
  8
_0-2______1
  6
CONTINUOUS
 62
    7
 10
705.90211455217286
 20
541.50544572981289
 11
705.25107418775315
 21
541.50544572981289
  0
LINE
  8
_0-2______1
  6
CONTINUOUS
 62
    7
 10
705.25107418775315
 20
541.50544572981289
 11
705.25107418775315
 21
542.13548479215615
  0
LINE
  8
_0-2______1
  6
CONTINUOUS
 62
    7
 10
705.25107418775315
 20
542.13548479215615
 11
704.60003382333207
 21
542.13548479215615
  0
LINE
  8
_0-2______1
  6
CONTINUOUS
 62
    7
 10
704.60003382333207
 20
542.13548479215615
 11
704.60003382333207
 21
544.71601978499984
  0
LINE
  8
_0-2______1
  6
CONTINUOUS
 62
    7
 10
704.60003382333207
 20
544.71601978499984
 11
705.25107418775315
 21
544.71601978499984
  0
LINE
  8
_0-2______1
  6
CONTINUOUS
 62
    7
 10
705.25107418775315
 20
544.71601978499984
 11
705.25107418775315
 21
545.37231047494015
  0
LINE
  8
_0-2______1
  6
CONTINUOUS
 62
    7
 10
705.25107418775315
 20
545.37231047494015
 11
705.90211455217286
 21
545.37231047494015
  0
LINE
  8
_0-2______1
  6
CONTINUOUS
 62
    7
 10
739.44119397087206
 20
564.73288582817304
 11
739.44119397087206
 21
565.36029972775623
  0
LINE
  8
_0-2______1
  6
CONTINUOUS
 62
    7
 10
739.44119397087206
 20
565.36029972775623
 11
740.09223433529223
 21
566.01134009217594
  0
LINE
  8
_0-2______1
  6
CONTINUOUS
 62
    7
 10
740.09223433529223
 20
566.01134009217594
 11
740.09223433529223
 21
567.94608504612006
  0
LINE
  8
_0-2______1
  6
CONTINUOUS
 62
    7
 10
740.09223433529223
 20
567.94608504612006
 11
739.44119397087206
 21
567.94608504612006
  0
LINE
  8
_0-2______1
  6
CONTINUOUS
 62
    7
 10
739.44119397087206
 20
567.94608504612006
 11
739.44119397087206
 21
568.59712541054114
  0
LINE
  8
_0-2______1
  6
CONTINUOUS
 62
    7
 10
731.06167444171615
 20
556.98603052412
 11
730.41063407729507
 21
556.98603052412
  0
LINE
  8
_0-2______1
  6
CONTINUOUS
 62
    7
 10
730.41063407729507
 20
556.98603052412
 11
729.7595937128749
 21
556.98603052412
  0
LINE
  8
_0-2______1
  6
CONTINUOUS
 62
    7
 10
729.7595937128749
 20
556.98603052412
 11
729.12955465053301
 21
556.98603052412
  0
LINE
  8
_0-2______1
  6
CONTINUOUS
 62
    7
 10
729.12955465053301
 20
556.98603052412
 11
728.47851428611193
 21
556.98603052412
  0
LINE
  8
_0-2______1
  6
CONTINUOUS
 62
    7
 10
710.41739449896113
 20
540.20599016373217
 11
710.41739449896113
 21
539.57070077587014
  0
LINE
  8
_0-2______1
  6
CONTINUOUS
 62
    7
 10
710.41739449896113
 20
539.57070077587014
 11
709.76635413454005
 21
539.57070077587014
  0
LINE
  8
_0-2______1
  6
CONTINUOUS
 62
    7
 10
709.76635413454005
 20
539.57070077587014
 11
709.76635413454005
 21
538.91966041144906
  0
LINE
  8
_0-2______1
  6
CONTINUOUS
 62
    7
 10
709.76635413454005
 20
538.91966041144906
 11
709.11531377011988
 21
538.91966041144906
  0
LINE
  8
_0-2______1
  6
CONTINUOUS
 62
    7
 10
709.11531377011988
 20
538.91966041144906
 11
708.48527470777708
 21
538.91966041144906
  0
LINE
  8
_0-2______1
  6
CONTINUOUS
 62
    7
 10
708.48527470777708
 20
538.91966041144906
 11
708.48527470777708
 21
539.57070077587014
  0
LINE
  8
_0-2______1
  6
CONTINUOUS
 62
    7
 10
708.48527470777708
 20
539.57070077587014
 11
707.834234343356
 21
539.57070077587014
  0
LINE
  8
_0-2______1
  6
CONTINUOUS
 62
    7
 10
690.42415492062582
 20
522.14224521382084
 11
689.7731145562052
 21
522.14224521382084
  0
LINE
  8
_0-2______1
  6
CONTINUOUS
 62
    7
 10
689.7731145562052
 20
522.14224521382084
 11
689.7731145562052
 21
521.49120484940022
  0
LINE
  8
_0-2______1
  6
CONTINUOUS
 62
    7
 10
689.7731145562052
 20
521.49120484940022
 11
689.12207419178503
 21
521.49120484940022
  0
LINE
  8
_0-2______1
  6
CONTINUOUS
 62
    7
 10
689.12207419178503
 20
521.49120484940022
 11
688.47103382736395
 21
521.49120484940022
  0
LINE
  8
_0-2______1
  6
CONTINUOUS
 62
    7
 10
688.47103382736395
 20
521.49120484940022
 11
687.84099476502206
 21
521.49120484940022
  0
LINE
  8
_0-2______1
  6
CONTINUOUS
 62
    7
 10
687.84099476502206
 20
521.49120484940022
 11
687.18995440060098
 21
521.49120484940022
  0
LINE
  8
_0-2______1
  6
CONTINUOUS
 62
    7
 10
736.85803381526694
 20
564.08184546375287
 11
737.50907417968801
 21
564.08184546375287
  0
LINE
  8
_0-2______1
  6
CONTINUOUS
 62
    7
 10
737.50907417968801
 20
564.08184546375287
 11
738.16011454410818
 21
564.08184546375287
  0
LINE
  8
_0-2______1
  6
CONTINUOUS
 62
    7
 10
738.16011454410818
 20
564.08184546375287
 11
738.81115490852926
 21
564.08184546375287
  0
LINE
  8
_0-2______1
  6
CONTINUOUS
 62
    7
 10
738.81115490852926
 20
564.08184546375287
 11
738.81115490852926
 21
564.73288582817304
  0
LINE
  8
_0-2______1
  6
CONTINUOUS
 62
    7
 10
738.81115490852926
 20
564.73288582817304
 11
739.44119397087206
 21
564.73288582817304
  0
LINE
  8
_0-2______1
  6
CONTINUOUS
 62
    7
 10
734.29587496174099
 20
570.52924520172382
 11
734.29587496174099
 21
569.87820483730411
  0
LINE
  8
_0-2______1
  6
CONTINUOUS
 62
    7
 10
734.29587496174099
 20
569.87820483730411
 11
733.64483459732082
 21
569.87820483730411
  0
LINE
  8
_0-2______1
  6
CONTINUOUS
 62
    7
 10
733.64483459732082
 20
569.87820483730411
 11
733.64483459732082
 21
567.31867114653687
  0
LINE
  8
_0-2______1
  6
CONTINUOUS
 62
    7
 10
733.64483459732082
 20
567.31867114653687
 11
733.64483459732082
 21
566.66238045659702
  0
LINE
  8
_0-2______1
  6
CONTINUOUS
 62
    7
 10
733.64483459732082
 20
566.66238045659702
 11
734.29587496174099
 21
566.66238045659702
  0
LINE
  8
_0-2______1
  6
CONTINUOUS
 62
    7
 10
734.29587496174099
 20
566.66238045659702
 11
734.29587496174099
 21
566.01134009217594
  0
LINE
  8
_0-2______1
  6
CONTINUOUS
 62
    7
 10
734.29587496174099
 20
566.01134009217594
 11
734.92591402408425
 21
566.01134009217594
  0
LINE
  8
_0-2______1
  6
CONTINUOUS
 62
    7
 10
734.92591402408425
 20
566.01134009217594
 11
734.92591402408425
 21
565.36029972775623
  0
LINE
  8
_0-2______1
  6
CONTINUOUS
 62
    7
 10
734.92591402408425
 20
565.36029972775623
 11
735.57695438850487
 21
564.73288582817304
  0
LINE
  8
_0-2______1
  6
CONTINUOUS
 62
    7
 10
735.57695438850487
 20
564.73288582817304
 11
736.22799475292504
 21
564.73288582817304
  0
LINE
  8
_0-2______1
  6
CONTINUOUS
 62
    7
 10
736.22799475292504
 20
564.73288582817304
 11
736.85803381526694
 21
564.73288582817304
  0
LINE
  8
_0-2______1
  6
CONTINUOUS
 62
    7
 10
736.85803381526694
 20
564.73288582817304
 11
736.85803381526694
 21
564.08184546375287
  0
LINE
  8
_0-2______1
  6
CONTINUOUS
 62
    7
 10
713.63059371690815
 20
552.46812541457211
 11
713.63059371690815
 21
551.81708505015195
  0
LINE
  8
_0-2______1
  6
CONTINUOUS
 62
    7
 10
713.63059371690815
 20
551.81708505015195
 11
713.63059371690815
 21
551.18967115056921
  0
LINE
  8
_0-2______1
  6
CONTINUOUS
 62
    7
 10
692.98631377415222
 20
534.40438046466215
 11
692.98631377415222
 21
533.75334010024108
  0
LINE
  8
_0-2______1
  6
CONTINUOUS
 62
    7
 10
829.76779420870616
 20
653.10899013550579
 11
830.41883457312724
 21
653.10899013550579
  0
LINE
  8
_0-2______1
  6
CONTINUOUS
 62
    7
 10
830.41883457312724
 20
653.10899013550579
 11
830.41883457312724
 21
654.40844570158697
  0
LINE
  8
_0-2______1
  6
CONTINUOUS
 62
    7
 10
831.69991399989021
 20
646.65634007201606
 11
831.06987493754696
 21
646.65634007201606
  0
LINE
  8
_0-2______1
  6
CONTINUOUS
 62
    7
 10
831.06987493754696
 20
646.65634007201606
 11
831.06987493754696
 21
647.30738043643487
  0
LINE
  8
_0-2______1
  6
CONTINUOUS
 62
    7
 10
831.06987493754696
 20
647.30738043643487
 11
830.41883457312724
 21
647.30738043643487
  0
LINE
  8
_0-2______1
  6
CONTINUOUS
 62
    7
 10
830.41883457312724
 20
647.30738043643487
 11
829.76779420870616
 21
647.96367112637608
  0
LINE
  8
_0-2______1
  6
CONTINUOUS
 62
    7
 10
829.76779420870616
 20
647.96367112637608
 11
829.116753844286
 21
647.96367112637608
  0
LINE
  8
_0-2______1
  6
CONTINUOUS
 62
    7
 10
829.116753844286
 20
647.96367112637608
 11
829.116753844286
 21
649.24212539037899
  0
LINE
  8
_0-2______1
  6
CONTINUOUS
 62
    7
 10
829.116753844286
 20
649.24212539037899
 11
828.4867147819441
 21
649.89316575480007
  0
LINE
  8
_0-2______1
  6
CONTINUOUS
 62
    7
 10
828.4867147819441
 20
649.89316575480007
 11
828.4867147819441
 21
651.82266038322314
  0
LINE
  8
_0-2______1
  6
CONTINUOUS
 62
    7
 10
828.4867147819441
 20
651.82266038322314
 11
829.116753844286
 21
651.82266038322314
  0
LINE
  8
_0-2______1
  6
CONTINUOUS
 62
    7
 10
829.116753844286
 20
651.82266038322314
 11
829.116753844286
 21
652.47370074764422
  0
LINE
  8
_0-2______1
  6
CONTINUOUS
 62
    7
 10
809.12351426595114
 20
635.04524518559492
 11
809.12351426595114
 21
635.69366038725593
  0
LINE
  8
_0-2______1
  6
CONTINUOUS
 62
    7
 10
809.12351426595114
 20
635.69366038725593
 11
809.77455463037086
 21
635.69366038725593
  0
LINE
  8
_0-2______1
  6
CONTINUOUS
 62
    7
 10
809.77455463037086
 20
635.69366038725593
 11
809.77455463037086
 21
636.3447007516761
  0
LINE
  8
_0-2______1
  6
CONTINUOUS
 62
    7
 10
811.70667442155491
 20
628.59784544762306
 11
811.05563405713519
 21
628.59784544762306
  0
LINE
  8
_0-2______1
  6
CONTINUOUS
 62
    7
 10
811.05563405713519
 20
628.59784544762306
 11
811.05563405713519
 21
629.24888581204414
  0
LINE
  8
_0-2______1
  6
CONTINUOUS
 62
    7
 10
811.05563405713519
 20
629.24888581204414
 11
810.40459369271412
 21
629.24888581204414
  0
LINE
  8
_0-2______1
  6
CONTINUOUS
 62
    7
 10
810.40459369271412
 20
629.24888581204414
 11
810.40459369271412
 21
629.87629971162687
  0
LINE
  8
_0-2______1
  6
CONTINUOUS
 62
    7
 10
810.40459369271412
 20
629.87629971162687
 11
809.77455463037086
 21
629.87629971162687
  0
LINE
  8
_0-2______1
  6
CONTINUOUS
 62
    7
 10
809.77455463037086
 20
629.87629971162687
 11
809.12351426595114
 21
630.52734007604704
  0
LINE
  8
_0-2______1
  6
CONTINUOUS
 62
    7
 10
809.12351426595114
 20
630.52734007604704
 11
809.12351426595114
 21
631.17838044046903
  0
LINE
  8
_0-2______1
  6
CONTINUOUS
 62
    7
 10
809.12351426595114
 20
631.17838044046903
 11
808.47247390153007
 21
631.17838044046903
  0
LINE
  8
_0-2______1
  6
CONTINUOUS
 62
    7
 10
808.47247390153007
 20
631.17838044046903
 11
808.47247390153007
 21
632.46208502999116
  0
LINE
  8
_0-2______1
  6
CONTINUOUS
 62
    7
 10
808.47247390153007
 20
632.46208502999116
 11
807.84243483918817
 21
632.46208502999116
  0
LINE
  8
_0-2______1
  6
CONTINUOUS
 62
    7
 10
807.84243483918817
 20
632.46208502999116
 11
807.84243483918817
 21
633.76416575883195
  0
LINE
  8
_0-2______1
  6
CONTINUOUS
 62
    7
 10
807.84243483918817
 20
633.76416575883195
 11
808.47247390153007
 21
633.76416575883195
  0
LINE
  8
_0-2______1
  6
CONTINUOUS
 62
    7
 10
808.47247390153007
 20
633.76416575883195
 11
808.47247390153007
 21
634.39420482117521
  0
LINE
  8
_0-2______1
  6
CONTINUOUS
 62
    7
 10
808.47247390153007
 20
634.39420482117521
 11
809.12351426595114
 21
634.39420482117521
  0
LINE
  8
_0-2______1
  6
CONTINUOUS
 62
    7
 10
809.12351426595114
 20
634.39420482117521
 11
809.12351426595114
 21
635.04524518559492
  0
LINE
  8
_0-2______1
  6
CONTINUOUS
 62
    7
 10
813.63879421273896
 20
629.24888581204414
 11
813.63879421273896
 21
628.59784544762306
  0
LINE
  8
_0-2______1
  6
CONTINUOUS
 62
    7
 10
813.63879421273896
 20
628.59784544762306
 11
812.98775384831788
 21
628.59784544762306
  0
LINE
  8
_0-2______1
  6
CONTINUOUS
 62
    7
 10
812.98775384831788
 20
628.59784544762306
 11
812.35771478597599
 21
628.59784544762306
  0
LINE
  8
_0-2______1
  6
CONTINUOUS
 62
    7
 10
812.35771478597599
 20
628.59784544762306
 11
811.70667442155491
 21
628.59784544762306
  0
LINE
  8
_0-2______1
  6
CONTINUOUS
 62
    7
 10
834.28307415549489
 20
647.30738043643487
 11
834.28307415549489
 21
646.65634007201606
  0
LINE
  8
_0-2______1
  6
CONTINUOUS
 62
    7
 10
834.28307415549489
 20
646.65634007201606
 11
833.63203379107381
 21
646.65634007201606
  0
LINE
  8
_0-2______1
  6
CONTINUOUS
 62
    7
 10
833.63203379107381
 20
646.65634007201606
 11
833.00199472873101
 21
646.65634007201606
  0
LINE
  8
_0-2______1
  6
CONTINUOUS
 62
    7
 10
833.00199472873101
 20
646.65634007201606
 11
832.35095436431084
 21
646.65634007201606
  0
LINE
  8
_0-2______1
  6
CONTINUOUS
 62
    7
 10
832.35095436431084
 20
646.65634007201606
 11
831.69991399989021
 21
646.65634007201606
  0
LINE
  8
_0-2______1
  6
CONTINUOUS
 62
    7
 10
820.73723431513099
 20
644.72684544359117
 11
820.73723431513099
 21
644.075805079171
  0
LINE
  8
_0-2______1
  6
CONTINUOUS
 62
    7
 10
820.08619395071082
 20
644.075805079171
 11
820.08619395071082
 21
643.42476471474993
  0
LINE
  8
_0-2______1
  6
CONTINUOUS
 62
    7
 10
820.08619395071082
 20
643.42476471474993
 11
820.08619395071082
 21
642.7973508151681
  0
LINE
  8
_0-2______1
  6
CONTINUOUS
 62
    7
 10
820.08619395071082
 20
642.7973508151681
 11
820.08619395071082
 21
642.14631045074702
  0
LINE
  8
_0-2______1
  6
CONTINUOUS
 62
    7
 10
842.03255462230709
 20
664.0926711223442
 11
842.03255462230709
 21
663.43638043240298
  0
LINE
  8
_0-2______1
  6
CONTINUOUS
 62
    7
 10
842.03255462230709
 20
663.43638043240298
 11
841.38151425788692
 21
663.43638043240298
  0
LINE
  8
_0-2______1
  6
CONTINUOUS
 62
    7
 10
841.38151425788692
 20
663.43638043240298
 11
841.38151425788692
 21
662.78534006798282
  0
LINE
  8
_0-2______1
  6
CONTINUOUS
 62
    7
 10
821.38827467955116
 20
647.30738043643487
 11
821.38827467955116
 21
645.3778858080118
  0
LINE
  8
_0-2______1
  6
CONTINUOUS
 62
    7
 10
840.73047389346584
 20
662.78534006798282
 11
840.73047389346584
 21
662.1342997035631
  0
LINE
  8
_0-2______1
  6
CONTINUOUS
 62
    7
 10
840.73047389346584
 20
661.50688580397991
 11
840.73047389346584
 21
660.85584543955883
  0
LINE
  8
_0-2______1
  6
CONTINUOUS
 62
    7
 10
840.73047389346584
 20
660.85584543955883
 11
840.73047389346584
 21
660.20480507513912
  0
LINE
  8
_0-2______1
  6
CONTINUOUS
 62
    7
 10
843.96467441349023
 20
656.9916058571921
 11
843.31363404907006
 21
656.9916058571921
  0
LINE
  8
_0-2______1
  6
CONTINUOUS
 62
    7
 10
843.31363404907006
 20
656.9916058571921
 11
842.66259368464898
 21
656.9916058571921
  0
LINE
  8
_0-2______1
  6
CONTINUOUS
 62
    7
 10
842.66259368464898
 20
656.9916058571921
 11
842.66259368464898
 21
657.61901975677392
  0
LINE
  8
_0-2______1
  6
CONTINUOUS
 62
    7
 10
842.66259368464898
 20
657.61901975677392
 11
842.03255462230709
 21
657.61901975677392
  0
LINE
  8
_0-2______1
  6
CONTINUOUS
 62
    7
 10
842.03255462230709
 20
657.61901975677392
 11
842.03255462230709
 21
658.27531044671514
  0
LINE
  8
_0-2______1
  6
CONTINUOUS
 62
    7
 10
842.03255462230709
 20
658.27531044671514
 11
841.38151425788692
 21
658.27531044671514
  0
LINE
  8
_0-2______1
  6
CONTINUOUS
 62
    7
 10
841.38151425788692
 20
658.27531044671514
 11
841.38151425788692
 21
658.92635081113485
  0
LINE
  8
_0-2______1
  6
CONTINUOUS
 62
    7
 10
841.38151425788692
 20
658.92635081113485
 11
840.73047389346584
 21
658.92635081113485
  0
LINE
  8
_0-2______1
  6
CONTINUOUS
 62
    7
 10
840.73047389346584
 20
658.92635081113485
 11
840.73047389346584
 21
659.55376471071804
  0
LINE
  8
_0-2______1
  6
CONTINUOUS
 62
    7
 10
840.73047389346584
 20
659.55376471071804
 11
840.73047389346584
 21
662.78534006798282
  0
LINE
  8
_0-2______1
  6
CONTINUOUS
 62
    7
 10
840.73047389346584
 20
662.78534006798282
 11
841.38151425788692
 21
662.78534006798282
  0
LINE
  8
_0-2______1
  6
CONTINUOUS
 62
    7
 10
854.27631373383019
 20
669.23799013147391
 11
854.27631373383019
 21
669.88903049589499
  0
LINE
  8
_0-2______1
  6
CONTINUOUS
 62
    7
 10
854.27631373383019
 20
669.88903049589499
 11
853.64627467148694
 21
669.88903049589499
  0
LINE
  8
_0-2______1
  6
CONTINUOUS
 62
    7
 10
853.64627467148694
 20
669.88903049589499
 11
853.64627467148694
 21
671.16748475989789
  0
LINE
  8
_0-2______1
  6
CONTINUOUS
 62
    7
 10
852.34419394264614
 20
670.53744569755509
 11
851.71415488030289
 21
670.53744569755509
  0
LINE
  8
_0-2______1
  6
CONTINUOUS
 62
    7
 10
851.71415488030289
 20
670.53744569755509
 11
851.06311451588317
 21
670.53744569755509
  0
LINE
  8
_0-2______1
  6
CONTINUOUS
 62
    7
 10
851.06311451588317
 20
670.53744569755509
 11
850.41207415146209
 21
670.53744569755509
  0
LINE
  8
_0-2______1
  6
CONTINUOUS
 62
    7
 10
850.41207415146209
 20
670.53744569755509
 11
849.76103378704101
 21
669.88903049589499
  0
LINE
  8
_0-2______1
  6
CONTINUOUS
 62
    7
 10
852.34419394264614
 20
669.88903049589499
 11
852.34419394264614
 21
670.53744569755509
  0
LINE
  8
_0-2______1
  6
CONTINUOUS
 62
    7
 10
823.32039447073521
 20
639.5605251323841
 11
822.66935410631504
 21
639.5605251323841
  0
LINE
  8
_0-2______1
  6
CONTINUOUS
 62
    7
 10
822.66935410631504
 20
639.5605251323841
 11
822.01831374189305
 21
639.5605251323841
  0
LINE
  8
_0-2______1
  6
CONTINUOUS
 62
    7
 10
822.01831374189305
 20
639.5605251323841
 11
822.01831374189305
 21
640.2115654968029
  0
LINE
  8
_0-2______1
  6
CONTINUOUS
 62
    7
 10
822.01831374189305
 20
640.2115654968029
 11
821.38827467955116
 21
640.2115654968029
  0
LINE
  8
_0-2______1
  6
CONTINUOUS
 62
    7
 10
821.38827467955116
 20
640.2115654968029
 11
821.38827467955116
 21
640.85998069846482
  0
LINE
  8
_0-2______1
  6
CONTINUOUS
 62
    7
 10
821.38827467955116
 20
640.85998069846482
 11
820.73723431513099
 21
640.85998069846482
  0
LINE
  8
_0-2______1
  6
CONTINUOUS
 62
    7
 10
820.73723431513099
 20
640.85998069846482
 11
820.73723431513099
 21
642.14631045074702
  0
LINE
  8
_0-2______1
  6
CONTINUOUS
 62
    7
 10
820.73723431513099
 20
642.14631045074702
 11
820.08619395071082
 21
642.14631045074702
  0
LINE
  8
_0-2______1
  6
CONTINUOUS
 62
    7
 10
820.08619395071082
 20
642.14631045074702
 11
820.08619395071082
 21
644.075805079171
  0
LINE
  8
_0-2______1
  6
CONTINUOUS
 62
    7
 10
820.08619395071082
 20
644.075805079171
 11
820.73723431513099
 21
644.075805079171
  0
LINE
  8
_0-2______1
  6
CONTINUOUS
 62
    7
 10
820.73723431513099
 20
644.075805079171
 11
820.73723431513099
 21
645.3778858080118
  0
LINE
  8
_0-2______1
  6
CONTINUOUS
 62
    7
 10
805.25927468358395
 20
622.1504457096521
 11
805.25927468358395
 21
621.502030507992
  0
LINE
  8
_0-2______1
  6
CONTINUOUS
 62
    7
 10
805.25927468358395
 20
621.502030507992
 11
804.60823431916288
 21
621.502030507992
  0
LINE
  8
_0-2______1
  6
CONTINUOUS
 62
    7
 10
804.60823431916288
 20
621.502030507992
 11
803.95719395474316
 21
621.502030507992
  0
LINE
  8
_0-2______1
  6
CONTINUOUS
 62
    7
 10
803.95719395474316
 20
621.502030507992
 11
803.3271548923999
 21
621.502030507992
  0
LINE
  8
_0-2______1
  6
CONTINUOUS
 62
    7
 10
803.3271548923999
 20
621.502030507992
 11
802.67611452797883
 21
621.502030507992
  0
LINE
  8
_0-2______1
  6
CONTINUOUS
 62
    7
 10
802.67611452797883
 20
621.502030507992
 11
802.67611452797883
 21
622.1504457096521
  0
LINE
  8
_0-2______1
  6
CONTINUOUS
 62
    7
 10
802.67611452797883
 20
622.1504457096521
 11
802.02507416355911
 21
622.1504457096521
  0
LINE
  8
_0-2______1
  6
CONTINUOUS
 62
    7
 10
802.02507416355911
 20
622.1504457096521
 11
801.37403379913803
 21
622.1504457096521
  0
LINE
  8
_0-2______1
  6
CONTINUOUS
 62
    7
 10
801.37403379913803
 20
622.1504457096521
 11
801.37403379913803
 21
622.78048477199491
  0
LINE
  8
_0-2______1
  6
CONTINUOUS
 62
    7
 10
801.37403379913803
 20
622.78048477199491
 11
800.74399473679523
 21
622.78048477199491
  0
LINE
  8
_0-2______1
  6
CONTINUOUS
 62
    7
 10
800.74399473679523
 20
622.78048477199491
 11
800.74399473679523
 21
623.43152513641508
  0
LINE
  8
_0-2______1
  6
CONTINUOUS
 62
    7
 10
800.74399473679523
 20
623.43152513641508
 11
800.09295437237506
 21
623.43152513641508
  0
LINE
  8
_0-2______1
  6
CONTINUOUS
 62
    7
 10
800.09295437237506
 20
623.43152513641508
 11
800.09295437237506
 21
624.73360586525587
  0
LINE
  8
_0-2______1
  6
CONTINUOUS
 62
    7
 10
800.09295437237506
 20
624.73360586525587
 11
800.09295437237506
 21
625.36101976483906
  0
LINE
  8
_0-2______1
  6
CONTINUOUS
 62
    7
 10
800.09295437237506
 20
625.36101976483906
 11
799.44191400795489
 21
625.36101976483906
  0
LINE
  8
_0-2______1
  6
CONTINUOUS
 62
    7
 10
799.44191400795489
 20
625.36101976483906
 11
799.44191400795489
 21
626.01731045477891
  0
LINE
  8
_0-2______1
  6
CONTINUOUS
 62
    7
 10
799.44191400795489
 20
626.01731045477891
 11
800.09295437237506
 21
626.01731045477891
  0
LINE
  8
_0-2______1
  6
CONTINUOUS
 62
    7
 10
800.09295437237506
 20
626.01731045477891
 11
800.09295437237506
 21
627.94680508320198
  0
LINE
  8
_0-2______1
  6
CONTINUOUS
 62
    7
 10
825.90355462633897
 20
639.5605251323841
 11
825.25251426191926
 21
639.5605251323841
  0
LINE
  8
_0-2______1
  6
CONTINUOUS
 62
    7
 10
825.25251426191926
 20
639.5605251323841
 11
824.60147389749818
 21
639.5605251323841
  0
LINE
  8
_0-2______1
  6
CONTINUOUS
 62
    7
 10
824.60147389749818
 20
639.5605251323841
 11
823.97143483515583
 21
639.5605251323841
  0
LINE
  8
_0-2______1
  6
CONTINUOUS
 62
    7
 10
823.97143483515583
 20
639.5605251323841
 11
823.32039447073521
 21
639.5605251323841
  0
LINE
  8
_0-2______1
  6
CONTINUOUS
 62
    7
 10
845.89679420467382
 20
657.61901975677392
 11
845.89679420467382
 21
656.9916058571921
  0
LINE
  8
_0-2______1
  6
CONTINUOUS
 62
    7
 10
845.89679420467382
 20
656.9916058571921
 11
845.24575384025411
 21
656.9916058571921
  0
LINE
  8
_0-2______1
  6
CONTINUOUS
 62
    7
 10
845.24575384025411
 20
656.9916058571921
 11
844.61571477791085
 21
656.9916058571921
  0
LINE
  8
_0-2______1
  6
CONTINUOUS
 62
    7
 10
844.61571477791085
 20
656.9916058571921
 11
843.96467441349023
 21
656.9916058571921
  0
LINE
  8
_0-2______1
  6
CONTINUOUS
 62
    7
 10
854.27631373383019
 20
664.72008502192602
 11
854.92735409824991
 21
664.72008502192602
  0
LINE
  8
_0-2______1
  6
CONTINUOUS
 62
    7
 10
854.92735409824991
 20
664.72008502192602
 11
854.92735409824991
 21
665.37112538634801
  0
LINE
  8
_0-2______1
  6
CONTINUOUS
 62
    7
 10
854.92735409824991
 20
665.37112538634801
 11
855.57839446267008
 21
665.37112538634801
  0
LINE
  8
_0-2______1
  6
CONTINUOUS
 62
    7
 10
855.57839446267008
 20
665.37112538634801
 11
855.57839446267008
 21
667.95166037919216
  0
LINE
  8
_0-2______1
  6
CONTINUOUS
 62
    7
 10
855.57839446267008
 20
667.95166037919216
 11
854.92735409824991
 21
667.95166037919216
  0
LINE
  8
_0-2______1
  6
CONTINUOUS
 62
    7
 10
854.92735409824991
 20
667.95166037919216
 11
854.92735409824991
 21
668.60270074361188
  0
LINE
  8
_0-2______1
  6
CONTINUOUS
 62
    7
 10
854.92735409824991
 20
668.60270074361188
 11
854.27631373383019
 21
668.60270074361188
  0
LINE
  8
_0-2______1
  6
CONTINUOUS
 62
    7
 10
854.27631373383019
 20
668.60270074361188
 11
854.27631373383019
 21
669.23799013147391
  0
LINE
  8
_0-2______1
  6
CONTINUOUS
 62
    7
 10
808.47247390153007
 20
634.39420482117521
 11
808.47247390153007
 21
633.76416575883195
  0
LINE
  8
_0-2______1
  6
CONTINUOUS
 62
    7
 10
808.47247390153007
 20
633.76416575883195
 11
807.84243483918817
 21
633.76416575883195
  0
LINE
  8
_0-2______1
  6
CONTINUOUS
 62
    7
 10
829.116753844286
 20
651.82266038322314
 11
828.4867147819441
 21
651.82266038322314
  0
LINE
  8
_0-2______1
  6
CONTINUOUS
 62
    7
 10
828.4867147819441
 20
651.82266038322314
 11
828.4867147819441
 21
651.17424518156304
  0
LINE
  8
_0-2______1
  6
CONTINUOUS
 62
    7
 10
852.34419394264614
 20
664.0926711223442
 11
852.99523430706586
 21
664.0926711223442
  0
LINE
  8
_0-2______1
  6
CONTINUOUS
 62
    7
 10
852.99523430706586
 20
664.0926711223442
 11
853.64627467148694
 21
664.0926711223442
  0
LINE
  8
_0-2______1
  6
CONTINUOUS
 62
    7
 10
853.64627467148694
 20
664.0926711223442
 11
854.27631373383019
 21
664.0926711223442
  0
LINE
  8
_0-2______1
  6
CONTINUOUS
 62
    7
 10
854.27631373383019
 20
664.0926711223442
 11
854.27631373383019
 21
664.72008502192602
  0
LINE
  8
_0-2______1
  6
CONTINUOUS
 62
    7
 10
849.76103378704101
 20
669.88903049589499
 11
849.13099472469912
 21
669.23799013147391
  0
LINE
  8
_0-2______1
  6
CONTINUOUS
 62
    7
 10
849.13099472469912
 20
669.23799013147391
 11
849.13099472469912
 21
666.65220481311098
  0
LINE
  8
_0-2______1
  6
CONTINUOUS
 62
    7
 10
849.13099472469912
 20
666.65220481311098
 11
849.76103378704101
 21
666.65220481311098
  0
LINE
  8
_0-2______1
  6
CONTINUOUS
 62
    7
 10
849.76103378704101
 20
666.65220481311098
 11
849.76103378704101
 21
665.37112538634801
  0
LINE
  8
_0-2______1
  6
CONTINUOUS
 62
    7
 10
849.76103378704101
 20
665.37112538634801
 11
850.41207415146209
 21
665.37112538634801
  0
LINE
  8
_0-2______1
  6
CONTINUOUS
 62
    7
 10
850.41207415146209
 20
665.37112538634801
 11
850.41207415146209
 21
664.72008502192602
  0
LINE
  8
_0-2______1
  6
CONTINUOUS
 62
    7
 10
850.41207415146209
 20
664.72008502192602
 11
851.06311451588317
 21
664.72008502192602
  0
LINE
  8
_0-2______1
  6
CONTINUOUS
 62
    7
 10
851.06311451588317
 20
664.72008502192602
 11
851.71415488030289
 21
664.0926711223442
  0
LINE
  8
_0-2______1
  6
CONTINUOUS
 62
    7
 10
1185.9078748488391
 20
551.18967115056921
 11
1185.9078748488391
 21
550.5333804606289
  0
LINE
  8
_0-2______1
  6
CONTINUOUS
 62
    7
 10
1185.9078748488391
 20
550.5333804606289
 11
1186.537913911181
 21
550.5333804606289
  0
LINE
  8
_0-2______1
  6
CONTINUOUS
 62
    7
 10
1186.537913911181
 20
550.5333804606289
 11
1186.537913911181
 21
549.88234009620919
  0
LINE
  8
_0-2______1
  6
CONTINUOUS
 62
    7
 10
1186.537913911181
 20
549.88234009620919
 11
1187.1889542756012
 21
549.88234009620919
  0
LINE
  8
_0-2______1
  6
CONTINUOUS
 62
    7
 10
1192.985313649152
 20
549.88234009620919
 11
1192.985313649152
 21
550.5333804606289
  0
LINE
  8
_0-2______1
  6
CONTINUOUS
 62
    7
 10
1187.1889542756012
 20
551.18967115056921
 11
1187.1889542756012
 21
551.81708505015195
  0
LINE
  8
_0-2______1
  6
CONTINUOUS
 62
    7
 10
1213.629593591907
 20
555.04866040741717
 11
1213.629593591907
 21
556.33499015969983
  0
LINE
  8
_0-2______1
  6
CONTINUOUS
 62
    7
 10
1213.629593591907
 20
556.33499015969983
 11
1212.999554529566
 21
556.33499015969983
  0
LINE
  8
_0-2______1
  6
CONTINUOUS
 62
    7
 10
1212.999554529566
 20
556.33499015969983
 11
1212.999554529566
 21
556.98603052412
  0
LINE
  8
_0-2______1
  6
CONTINUOUS
 62
    7
 10
1212.999554529566
 20
556.98603052412
 11
1212.3485141651449
 21
556.98603052412
  0
LINE
  8
_0-2______1
  6
CONTINUOUS
 62
    7
 10
1180.0905141732092
 20
523.44170077990202
 11
1180.0905141732092
 21
522.79066041548094
  0
LINE
  8
_0-2______1
  6
CONTINUOUS
 62
    7
 10
1180.0905141732092
 20
522.79066041548094
 11
1180.7415545376302
 21
522.79066041548094
  0
LINE
  8
_0-2______1
  6
CONTINUOUS
 62
    7
 10
1180.7415545376302
 20
522.79066041548094
 11
1180.7415545376302
 21
521.49120484940022
  0
LINE
  8
_0-2______1
  6
CONTINUOUS
 62
    7
 10
1180.7415545376302
 20
521.49120484940022
 11
1181.371593599973
 21
521.49120484940022
  0
LINE
  8
_0-2______1
  6
CONTINUOUS
 62
    7
 10
1213.629593591907
 20
550.5333804606289
 11
1213.629593591907
 21
547.95284546778521
  0
LINE
  8
_0-2______1
  6
CONTINUOUS
 62
    7
 10
1213.629593591907
 20
547.95284546778521
 11
1212.999554529566
 21
547.30180510336504
  0
LINE
  8
_0-2______1
  6
CONTINUOUS
 62
    7
 10
1212.999554529566
 20
547.30180510336504
 11
1212.999554529566
 21
546.65076473894305
  0
LINE
  8
_0-2______1
  6
CONTINUOUS
 62
    7
 10
1212.999554529566
 20
546.65076473894305
 11
1212.3485141651449
 21
546.65076473894305
  0
LINE
  8
_0-2______1
  6
CONTINUOUS
 62
    7
 10
1212.3485141651449
 20
546.65076473894305
 11
1212.3485141651449
 21
546.02335083936214
  0
LINE
  8
_0-2______1
  6
CONTINUOUS
 62
    7
 10
1183.9547537555773
 20
521.49120484940022
 11
1183.324714693234
 21
521.49120484940022
  0
LINE
  8
_0-2______1
  6
CONTINUOUS
 62
    7
 10
1170.408913915212
 20
538.27124520978805
 11
1170.408913915212
 21
536.99016578302599
  0
LINE
  8
_0-2______1
  6
CONTINUOUS
 62
    7
 10
1170.408913915212
 20
536.99016578302599
 11
1171.0599542796331
 21
536.99016578302599
  0
LINE
  8
_0-2______1
  6
CONTINUOUS
 62
    7
 10
1171.7109946440542
 20
538.27124520978805
 11
1171.7109946440542
 21
538.91966041144906
  0
LINE
  8
_0-2______1
  6
CONTINUOUS
 62
    7
 10
1171.7109946440542
 20
538.91966041144906
 11
1172.341033706396
 21
538.91966041144906
  0
LINE
  8
_0-2______1
  6
CONTINUOUS
 62
    7
 10
1172.341033706396
 20
538.91966041144906
 11
1172.9920740708171
 21
538.91966041144906
  0
LINE
  8
_0-2______1
  6
CONTINUOUS
 62
    7
 10
1172.9920740708171
 20
538.91966041144906
 11
1173.6431144352382
 21
538.91966041144906
  0
LINE
  8
_0-2______1
  6
CONTINUOUS
 62
    7
 10
1173.6431144352382
 20
538.91966041144906
 11
1173.6431144352382
 21
539.57070077587014
  0
LINE
  8
_0-2______1
  6
CONTINUOUS
 62
    7
 10
1173.6431144352382
 20
539.57070077587014
 11
1174.2941547996579
 21
539.57070077587014
  0
LINE
  8
_0-2______1
  6
CONTINUOUS
 62
    7
 10
1174.2941547996579
 20
539.57070077587014
 11
1174.9241938620012
 21
539.57070077587014
  0
LINE
  8
_0-2______1
  6
CONTINUOUS
 62
    7
 10
1174.9241938620012
 20
539.57070077587014
 11
1175.5752342264223
 21
538.91966041144906
  0
LINE
  8
_0-2______1
  6
CONTINUOUS
 62
    7
 10
1175.5752342264223
 20
538.91966041144906
 11
1176.226274590842
 21
538.91966041144906
  0
LINE
  8
_0-2______1
  6
CONTINUOUS
 62
    7
 10
1176.226274590842
 20
538.91966041144906
 11
1176.8563136531839
 21
538.91966041144906
  0
LINE
  8
_0-2______1
  6
CONTINUOUS
 62
    7
 10
1176.8563136531839
 20
538.91966041144906
 11
1177.5073540176049
 21
538.91966041144906
  0
LINE
  8
_0-2______1
  6
CONTINUOUS
 62
    7
 10
1177.5073540176049
 20
538.91966041144906
 11
1177.5073540176049
 21
538.27124520978805
  0
LINE
  8
_0-2______1
  6
CONTINUOUS
 62
    7
 10
1177.5073540176049
 20
536.99016578302599
 11
1178.158394382026
 21
536.99016578302599
  0
LINE
  8
_0-2______1
  6
CONTINUOUS
 62
    7
 10
1178.158394382026
 20
536.99016578302599
 11
1178.158394382026
 21
538.27124520978805
  0
LINE
  8
_0-2______1
  6
CONTINUOUS
 62
    7
 10
1187.1889542756012
 20
551.81708505015195
 11
1187.1889542756012
 21
552.46812541457211
  0
LINE
  8
_0-2______1
  6
CONTINUOUS
 62
    7
 10
1187.1889542756012
 20
552.46812541457211
 11
1187.8399946400218
 21
552.46812541457211
  0
LINE
  8
_0-2______1
  6
CONTINUOUS
 62
    7
 10
1187.8399946400218
 20
552.46812541457211
 11
1188.4700337023651
 21
552.46812541457211
  0
LINE
  8
_0-2______1
  6
CONTINUOUS
 62
    7
 10
1188.4700337023651
 20
552.46812541457211
 11
1189.1210740667852
 21
552.46812541457211
  0
LINE
  8
_0-2______1
  6
CONTINUOUS
 62
    7
 10
1189.1210740667852
 20
552.46812541457211
 11
1189.7721144312059
 21
552.46812541457211
  0
LINE
  8
_0-2______1
  6
CONTINUOUS
 62
    7
 10
1189.7721144312059
 20
552.46812541457211
 11
1190.423154795626
 21
552.46812541457211
  0
LINE
  8
_0-2______1
  6
CONTINUOUS
 62
    7
 10
1190.423154795626
 20
552.46812541457211
 11
1191.0531938579679
 21
552.46812541457211
  0
LINE
  8
_0-2______1
  6
CONTINUOUS
 62
    7
 10
1191.0531938579679
 20
552.46812541457211
 11
1191.704234222389
 21
552.46812541457211
  0
LINE
  8
_0-2______1
  6
CONTINUOUS
 62
    7
 10
1191.704234222389
 20
552.46812541457211
 11
1192.3552745868101
 21
552.46812541457211
  0
LINE
  8
_0-2______1
  6
CONTINUOUS
 62
    7
 10
1192.3552745868101
 20
552.46812541457211
 11
1192.3552745868101
 21
551.81708505015195
  0
LINE
  8
_0-2______1
  6
CONTINUOUS
 62
    7
 10
1192.3552745868101
 20
551.81708505015195
 11
1192.985313649152
 21
551.81708505015195
  0
LINE
  8
_0-2______1
  6
CONTINUOUS
 62
    7
 10
1192.985313649152
 20
551.81708505015195
 11
1192.985313649152
 21
551.18967115056921
  0
LINE
  8
_0-2______1
  6
CONTINUOUS
 62
    7
 10
1192.985313649152
 20
550.5333804606289
 11
1193.6363540135731
 21
550.5333804606289
  0
LINE
  8
_0-2______1
  6
CONTINUOUS
 62
    7
 10
1193.6363540135731
 20
550.5333804606289
 11
1193.6363540135731
 21
551.18967115056921
  0
LINE
  8
_0-2______1
  6
CONTINUOUS
 62
    7
 10
1170.408913915212
 20
538.27124520978805
 11
1169.778874852871
 21
538.27124520978805
  0
LINE
  8
_0-2______1
  6
CONTINUOUS
 62
    7
 10
1169.778874852871
 20
538.27124520978805
 11
1169.778874852871
 21
540.20599016373217
  0
LINE
  8
_0-2______1
  6
CONTINUOUS
 62
    7
 10
1169.778874852871
 20
540.20599016373217
 11
1170.408913915212
 21
540.20599016373217
  0
LINE
  8
_0-2______1
  6
CONTINUOUS
 62
    7
 10
1170.408913915212
 20
540.20599016373217
 11
1170.408913915212
 21
540.85440536539181
  0
LINE
  8
_0-2______1
  6
CONTINUOUS
 62
    7
 10
1170.408913915212
 20
540.85440536539181
 11
1171.0599542796331
 21
540.85440536539181
  0
LINE
  8
_0-2______1
  6
CONTINUOUS
 62
    7
 10
1171.0599542796331
 20
540.85440536539181
 11
1171.7109946440542
 21
540.85440536539181
  0
LINE
  8
_0-2______1
  6
CONTINUOUS
 62
    7
 10
1171.7109946440542
 20
540.85440536539181
 11
1172.341033706396
 21
540.85440536539181
  0
LINE
  8
_0-2______1
  6
CONTINUOUS
 62
    7
 10
1172.341033706396
 20
540.85440536539181
 11
1172.341033706396
 21
541.50544572981289
  0
LINE
  8
_0-2______1
  6
CONTINUOUS
 62
    7
 10
1172.341033706396
 20
541.50544572981289
 11
1172.9920740708171
 21
541.50544572981289
  0
LINE
  8
_0-2______1
  6
CONTINUOUS
 62
    7
 10
1172.9920740708171
 20
541.50544572981289
 11
1173.6431144352382
 21
541.50544572981289
  0
LINE
  8
_0-2______1
  6
CONTINUOUS
 62
    7
 10
1173.6431144352382
 20
541.50544572981289
 11
1174.2941547996579
 21
541.50544572981289
  0
LINE
  8
_0-2______1
  6
CONTINUOUS
 62
    7
 10
1174.2941547996579
 20
541.50544572981289
 11
1174.9241938620012
 21
541.50544572981289
  0
LINE
  8
_0-2______1
  6
CONTINUOUS
 62
    7
 10
1174.9241938620012
 20
541.50544572981289
 11
1175.5752342264223
 21
541.50544572981289
  0
LINE
  8
_0-2______1
  6
CONTINUOUS
 62
    7
 10
1175.5752342264223
 20
541.50544572981289
 11
1176.226274590842
 21
541.50544572981289
  0
LINE
  8
_0-2______1
  6
CONTINUOUS
 62
    7
 10
1176.226274590842
 20
541.50544572981289
 11
1176.226274590842
 21
540.85440536539181
  0
LINE
  8
_0-2______1
  6
CONTINUOUS
 62
    7
 10
1176.226274590842
 20
540.85440536539181
 11
1176.8563136531839
 21
540.85440536539181
  0
LINE
  8
_0-2______1
  6
CONTINUOUS
 62
    7
 10
1176.8563136531839
 20
540.85440536539181
 11
1177.5073540176049
 21
540.85440536539181
  0
LINE
  8
_0-2______1
  6
CONTINUOUS
 62
    7
 10
1177.5073540176049
 20
540.85440536539181
 11
1178.158394382026
 21
540.85440536539181
  0
LINE
  8
_0-2______1
  6
CONTINUOUS
 62
    7
 10
1178.158394382026
 20
540.85440536539181
 11
1178.158394382026
 21
540.20599016373217
  0
LINE
  8
_0-2______1
  6
CONTINUOUS
 62
    7
 10
1178.158394382026
 20
540.20599016373217
 11
1178.8094347464462
 21
540.20599016373217
  0
LINE
  8
_0-2______1
  6
CONTINUOUS
 62
    7
 10
1178.8094347464462
 20
540.20599016373217
 11
1178.8094347464462
 21
539.57070077587014
  0
LINE
  8
_0-2______1
  6
CONTINUOUS
 62
    7
 10
1178.8094347464462
 20
539.57070077587014
 11
1179.4394738087881
 21
539.57070077587014
  0
LINE
  8
_0-2______1
  6
CONTINUOUS
 62
    7
 10
1179.4394738087881
 20
539.57070077587014
 11
1179.4394738087881
 21
538.91966041144906
  0
LINE
  8
_0-2______1
  6
CONTINUOUS
 62
    7
 10
1179.4394738087881
 20
538.91966041144906
 11
1178.8094347464462
 21
538.91966041144906
  0
LINE
  8
_0-2______1
  6
CONTINUOUS
 62
    7
 10
1178.8094347464462
 20
538.91966041144906
 11
1178.8094347464462
 21
538.27124520978805
  0
LINE
  8
_0-2______1
  6
CONTINUOUS
 62
    7
 10
1178.8094347464462
 20
538.27124520978805
 11
1178.158394382026
 21
538.27124520978805
  0
LINE
  8
_0-2______1
  6
CONTINUOUS
 62
    7
 10
1185.9078748488391
 20
551.18967115056921
 11
1185.2568344844181
 21
551.18967115056921
  0
LINE
  8
_0-2______1
  6
CONTINUOUS
 62
    7
 10
1185.2568344844181
 20
551.18967115056921
 11
1185.2568344844181
 21
553.1191657789941
  0
LINE
  8
_0-2______1
  6
CONTINUOUS
 62
    7
 10
1185.2568344844181
 20
553.1191657789941
 11
1185.9078748488391
 21
553.1191657789941
  0
LINE
  8
_0-2______1
  6
CONTINUOUS
 62
    7
 10
1185.9078748488391
 20
553.1191657789941
 11
1185.9078748488391
 21
553.749204841336
  0
LINE
  8
_0-2______1
  6
CONTINUOUS
 62
    7
 10
1185.9078748488391
 20
553.749204841336
 11
1186.537913911181
 21
553.749204841336
  0
LINE
  8
_0-2______1
  6
CONTINUOUS
 62
    7
 10
1186.537913911181
 20
553.749204841336
 11
1186.537913911181
 21
554.40024520575616
  0
LINE
  8
_0-2______1
  6
CONTINUOUS
 62
    7
 10
1187.1889542756012
 20
554.40024520575616
 11
1187.8399946400218
 21
554.40024520575616
  0
LINE
  8
_0-2______1
  6
CONTINUOUS
 62
    7
 10
1187.8399946400218
 20
554.40024520575616
 11
1188.4700337023651
 21
554.40024520575616
  0
LINE
  8
_0-2______1
  6
CONTINUOUS
 62
    7
 10
1188.4700337023651
 20
554.40024520575616
 11
1189.1210740667852
 21
554.40024520575616
  0
LINE
  8
_0-2______1
  6
CONTINUOUS
 62
    7
 10
1189.1210740667852
 20
554.40024520575616
 11
1189.7721144312059
 21
554.40024520575616
  0
LINE
  8
_0-2______1
  6
CONTINUOUS
 62
    7
 10
1189.7721144312059
 20
554.40024520575616
 11
1190.423154795626
 21
554.40024520575616
  0
LINE
  8
_0-2______1
  6
CONTINUOUS
 62
    7
 10
1190.423154795626
 20
554.40024520575616
 11
1191.0531938579679
 21
554.40024520575616
  0
LINE
  8
_0-2______1
  6
CONTINUOUS
 62
    7
 10
1191.0531938579679
 20
554.40024520575616
 11
1191.704234222389
 21
554.40024520575616
  0
LINE
  8
_0-2______1
  6
CONTINUOUS
 62
    7
 10
1191.704234222389
 20
554.40024520575616
 11
1192.3552745868101
 21
554.40024520575616
  0
LINE
  8
_0-2______1
  6
CONTINUOUS
 62
    7
 10
1192.3552745868101
 20
554.40024520575616
 11
1192.985313649152
 21
554.40024520575616
  0
LINE
  8
_0-2______1
  6
CONTINUOUS
 62
    7
 10
1192.985313649152
 20
554.40024520575616
 11
1192.985313649152
 21
553.749204841336
  0
LINE
  8
_0-2______1
  6
CONTINUOUS
 62
    7
 10
1192.985313649152
 20
553.749204841336
 11
1193.6363540135731
 21
553.749204841336
  0
LINE
  8
_0-2______1
  6
CONTINUOUS
 62
    7
 10
1193.6363540135731
 20
553.749204841336
 11
1193.6363540135731
 21
553.1191657789941
  0
LINE
  8
_0-2______1
  6
CONTINUOUS
 62
    7
 10
1193.6363540135731
 20
553.1191657789941
 11
1194.282144052474
 21
553.1191657789941
  0
LINE
  8
_0-2______1
  6
CONTINUOUS
 62
    7
 10
1194.282144052474
 20
553.1191657789941
 11
1194.282144052474
 21
551.18967115056921
  0
LINE
  8
_0-2______1
  6
CONTINUOUS
 62
    7
 10
1194.282144052474
 20
551.18967115056921
 11
1193.6363540135731
 21
551.18967115056921
  0
LINE
  8
_0-2______1
  6
CONTINUOUS
 62
    7
 10
1210.4163943739609
 20
546.65076473894305
 11
1210.4163943739609
 21
547.30180510336504
  0
LINE
  8
_0-2______1
  6
CONTINUOUS
 62
    7
 10
1210.4163943739609
 20
547.30180510336504
 11
1211.0674347383811
 21
547.30180510336504
  0
LINE
  8
_0-2______1
  6
CONTINUOUS
 62
    7
 10
1211.0674347383811
 20
547.30180510336504
 11
1211.0674347383811
 21
548.60388583220583
  0
LINE
  8
_0-2______1
  6
CONTINUOUS
 62
    7
 10
1211.0674347383811
 20
548.60388583220583
 11
1211.6974738007239
 21
548.60388583220583
  0
LINE
  8
_0-2______1
  6
CONTINUOUS
 62
    7
 10
1211.6974738007239
 20
548.60388583220583
 11
1211.6974738007239
 21
549.88234009620919
  0
LINE
  8
_0-2______1
  6
CONTINUOUS
 62
    7
 10
1211.6974738007239
 20
549.88234009620919
 11
1212.3485141651449
 21
550.5333804606289
  0
LINE
  8
_0-2______1
  6
CONTINUOUS
 62
    7
 10
1178.158394382026
 20
538.27124520978805
 11
1178.158394382026
 21
538.91966041144906
  0
LINE
  8
_0-2______1
  6
CONTINUOUS
 62
    7
 10
1178.158394382026
 20
538.91966041144906
 11
1177.5073540176049
 21
538.91966041144906
  0
LINE
  8
_0-2______1
  6
CONTINUOUS
 62
    7
 10
1177.5073540176049
 20
538.91966041144906
 11
1176.8563136531839
 21
538.91966041144906
  0
LINE
  8
_0-2______1
  6
CONTINUOUS
 62
    7
 10
1176.8563136531839
 20
538.91966041144906
 11
1176.8563136531839
 21
539.57070077587014
  0
LINE
  8
_0-2______1
  6
CONTINUOUS
 62
    7
 10
1176.8563136531839
 20
539.57070077587014
 11
1176.226274590842
 21
539.57070077587014
  0
LINE
  8
_0-2______1
  6
CONTINUOUS
 62
    7
 10
1176.226274590842
 20
539.57070077587014
 11
1175.5752342264223
 21
539.57070077587014
  0
LINE
  8
_0-2______1
  6
CONTINUOUS
 62
    7
 10
1175.5752342264223
 20
539.57070077587014
 11
1174.9241938620012
 21
540.20599016373217
  0
LINE
  8
_0-2______1
  6
CONTINUOUS
 62
    7
 10
1174.9241938620012
 20
540.20599016373217
 11
1174.2941547996579
 21
540.20599016373217
  0
LINE
  8
_0-2______1
  6
CONTINUOUS
 62
    7
 10
1174.2941547996579
 20
540.20599016373217
 11
1173.6431144352382
 21
540.20599016373217
  0
LINE
  8
_0-2______1
  6
CONTINUOUS
 62
    7
 10
1173.6431144352382
 20
540.20599016373217
 11
1173.6431144352382
 21
539.57070077587014
  0
LINE
  8
_0-2______1
  6
CONTINUOUS
 62
    7
 10
1173.6431144352382
 20
539.57070077587014
 11
1172.9920740708171
 21
539.57070077587014
  0
LINE
  8
_0-2______1
  6
CONTINUOUS
 62
    7
 10
1172.9920740708171
 20
539.57070077587014
 11
1172.341033706396
 21
539.57070077587014
  0
LINE
  8
_0-2______1
  6
CONTINUOUS
 62
    7
 10
1172.341033706396
 20
539.57070077587014
 11
1171.7109946440542
 21
538.91966041144906
  0
LINE
  8
_0-2______1
  6
CONTINUOUS
 62
    7
 10
1171.7109946440542
 20
539.57070077587014
 11
1171.7109946440542
 21
540.20599016373217
  0
LINE
  8
_0-2______1
  6
CONTINUOUS
 62
    7
 10
1171.7109946440542
 20
540.20599016373217
 11
1172.341033706396
 21
540.20599016373217
  0
LINE
  8
_0-2______1
  6
CONTINUOUS
 62
    7
 10
1172.341033706396
 20
540.20599016373217
 11
1172.9920740708171
 21
540.20599016373217
  0
LINE
  8
_0-2______1
  6
CONTINUOUS
 62
    7
 10
1172.9920740708171
 20
540.20599016373217
 11
1173.6431144352382
 21
540.20599016373217
  0
LINE
  8
_0-2______1
  6
CONTINUOUS
 62
    7
 10
1173.6431144352382
 20
540.20599016373217
 11
1174.2941547996579
 21
540.20599016373217
  0
LINE
  8
_0-2______1
  6
CONTINUOUS
 62
    7
 10
1174.2941547996579
 20
540.20599016373217
 11
1174.9241938620012
 21
540.20599016373217
  0
LINE
  8
_0-2______1
  6
CONTINUOUS
 62
    7
 10
1174.9241938620012
 20
540.20599016373217
 11
1175.5752342264223
 21
540.20599016373217
  0
LINE
  8
_0-2______1
  6
CONTINUOUS
 62
    7
 10
1175.5752342264223
 20
540.20599016373217
 11
1176.226274590842
 21
540.20599016373217
  0
LINE
  8
_0-2______1
  6
CONTINUOUS
 62
    7
 10
1176.226274590842
 20
540.20599016373217
 11
1176.8563136531839
 21
540.20599016373217
  0
LINE
  8
_0-2______1
  6
CONTINUOUS
 62
    7
 10
1176.8563136531839
 20
540.20599016373217
 11
1177.5073540176049
 21
540.20599016373217
  0
LINE
  8
_0-2______1
  6
CONTINUOUS
 62
    7
 10
1177.5073540176049
 20
540.20599016373217
 11
1177.5073540176049
 21
539.57070077587014
  0
LINE
  8
_0-2______1
  6
CONTINUOUS
 62
    7
 10
1177.5073540176049
 20
539.57070077587014
 11
1178.158394382026
 21
539.57070077587014
  0
LINE
  8
_0-2______1
  6
CONTINUOUS
 62
    7
 10
1178.158394382026
 20
539.57070077587014
 11
1178.158394382026
 21
538.27124520978805
  0
LINE
  8
_0-2______1
  6
CONTINUOUS
 62
    7
 10
1193.6363540135731
 20
551.18967115056921
 11
1193.6363540135731
 21
551.81708505015195
  0
LINE
  8
_0-2______1
  6
CONTINUOUS
 62
    7
 10
1193.6363540135731
 20
551.81708505015195
 11
1192.985313649152
 21
551.81708505015195
  0
LINE
  8
_0-2______1
  6
CONTINUOUS
 62
    7
 10
1192.985313649152
 20
551.81708505015195
 11
1192.985313649152
 21
552.46812541457211
  0
LINE
  8
_0-2______1
  6
CONTINUOUS
 62
    7
 10
1192.985313649152
 20
552.46812541457211
 11
1192.3552745868101
 21
552.46812541457211
  0
LINE
  8
_0-2______1
  6
CONTINUOUS
 62
    7
 10
1192.3552745868101
 20
552.46812541457211
 11
1191.704234222389
 21
552.46812541457211
  0
LINE
  8
_0-2______1
  6
CONTINUOUS
 62
    7
 10
1191.704234222389
 20
552.46812541457211
 11
1191.704234222389
 21
553.1191657789941
  0
LINE
  8
_0-2______1
  6
CONTINUOUS
 62
    7
 10
1191.704234222389
 20
553.1191657789941
 11
1191.0531938579679
 21
553.1191657789941
  0
LINE
  8
_0-2______1
  6
CONTINUOUS
 62
    7
 10
1191.0531938579679
 20
553.1191657789941
 11
1190.423154795626
 21
553.1191657789941
  0
LINE
  8
_0-2______1
  6
CONTINUOUS
 62
    7
 10
1190.423154795626
 20
553.1191657789941
 11
1189.7721144312059
 21
553.1191657789941
  0
LINE
  8
_0-2______1
  6
CONTINUOUS
 62
    7
 10
1189.7721144312059
 20
553.1191657789941
 11
1189.1210740667852
 21
553.1191657789941
  0
LINE
  8
_0-2______1
  6
CONTINUOUS
 62
    7
 10
1189.1210740667852
 20
553.1191657789941
 11
1188.4700337023651
 21
553.1191657789941
  0
LINE
  8
_0-2______1
  6
CONTINUOUS
 62
    7
 10
1188.4700337023651
 20
553.1191657789941
 11
1187.8399946400218
 21
553.1191657789941
  0
LINE
  8
_0-2______1
  6
CONTINUOUS
 62
    7
 10
1187.8399946400218
 20
553.1191657789941
 11
1187.8399946400218
 21
552.46812541457211
  0
LINE
  8
_0-2______1
  6
CONTINUOUS
 62
    7
 10
1187.8399946400218
 20
552.46812541457211
 11
1187.1889542756012
 21
552.46812541457211
  0
LINE
  8
_0-2______1
  6
CONTINUOUS
 62
    7
 10
1187.1889542756012
 20
552.46812541457211
 11
1186.537913911181
 21
552.46812541457211
  0
LINE
  8
_0-2______1
  6
CONTINUOUS
 62
    7
 10
1171.0599542796331
 20
538.91966041144906
 11
1171.0599542796331
 21
538.27124520978805
  0
LINE
  8
_0-2______1
  6
CONTINUOUS
 62
    7
 10
1171.0599542796331
 20
538.27124520978805
 11
1170.408913915212
 21
538.27124520978805
  0
LINE
  8
_0-2______1
  6
CONTINUOUS
 62
    7
 10
1186.537913911181
 20
552.46812541457211
 11
1186.537913911181
 21
553.1191657789941
  0
LINE
  8
_0-2______1
  6
CONTINUOUS
 62
    7
 10
1186.537913911181
 20
553.1191657789941
 11
1187.1889542756012
 21
553.1191657789941
  0
LINE
  8
_0-2______1
  6
CONTINUOUS
 62
    7
 10
1187.1889542756012
 20
553.1191657789941
 11
1187.8399946400218
 21
553.1191657789941
  0
LINE
  8
_0-2______1
  6
CONTINUOUS
 62
    7
 10
1187.8399946400218
 20
553.1191657789941
 11
1188.4700337023651
 21
553.1191657789941
  0
LINE
  8
_0-2______1
  6
CONTINUOUS
 62
    7
 10
1188.4700337023651
 20
553.1191657789941
 11
1189.1210740667852
 21
553.749204841336
  0
LINE
  8
_0-2______1
  6
CONTINUOUS
 62
    7
 10
1189.1210740667852
 20
553.749204841336
 11
1189.7721144312059
 21
553.749204841336
  0
LINE
  8
_0-2______1
  6
CONTINUOUS
 62
    7
 10
1189.7721144312059
 20
553.749204841336
 11
1190.423154795626
 21
553.749204841336
  0
LINE
  8
_0-2______1
  6
CONTINUOUS
 62
    7
 10
1190.423154795626
 20
553.749204841336
 11
1191.0531938579679
 21
553.749204841336
  0
LINE
  8
_0-2______1
  6
CONTINUOUS
 62
    7
 10
1191.0531938579679
 20
553.749204841336
 11
1191.0531938579679
 21
553.1191657789941
  0
LINE
  8
_0-2______1
  6
CONTINUOUS
 62
    7
 10
1191.0531938579679
 20
553.1191657789941
 11
1191.704234222389
 21
553.1191657789941
  0
LINE
  8
_0-2______1
  6
CONTINUOUS
 62
    7
 10
1191.704234222389
 20
553.1191657789941
 11
1192.3552745868101
 21
553.1191657789941
  0
LINE
  8
_0-2______1
  6
CONTINUOUS
 62
    7
 10
1192.3552745868101
 20
553.1191657789941
 11
1192.985313649152
 21
553.1191657789941
  0
LINE
  8
_0-2______1
  6
CONTINUOUS
 62
    7
 10
1192.985313649152
 20
553.1191657789941
 11
1192.985313649152
 21
552.46812541457211
  0
LINE
  8
_0-2______1
  6
CONTINUOUS
 62
    7
 10
1192.985313649152
 20
552.46812541457211
 11
1193.6363540135731
 21
552.46812541457211
  0
LINE
  8
_0-2______1
  6
CONTINUOUS
 62
    7
 10
1193.6363540135731
 20
552.46812541457211
 11
1193.6363540135731
 21
551.81708505015195
  0
LINE
  8
_0-2______1
  6
CONTINUOUS
 62
    7
 10
1185.9078748488391
 20
551.81708505015195
 11
1185.9078748488391
 21
552.46812541457211
  0
LINE
  8
_0-2______1
  6
CONTINUOUS
 62
    7
 10
1185.9078748488391
 20
552.46812541457211
 11
1186.537913911181
 21
552.46812541457211
  0
LINE
  8
_0-2______1
  6
CONTINUOUS
 62
    7
 10
1186.537913911181
 20
552.46812541457211
 11
1186.537913911181
 21
551.81708505015195
  0
LINE
  8
_0-2______1
  6
CONTINUOUS
 62
    7
 10
1186.537913911181
 20
551.81708505015195
 11
1185.9078748488391
 21
551.81708505015195
  0
LINE
  8
_0-2______1
  6
CONTINUOUS
 62
    7
 10
1185.9078748488391
 20
551.81708505015195
 11
1185.9078748488391
 21
551.18967115056921
  0
LINE
  8
_0-2______1
  6
CONTINUOUS
 62
    7
 10
1170.408913915212
 20
538.27124520978805
 11
1170.408913915212
 21
538.91966041144906
  0
LINE
  8
_0-2______1
  6
CONTINUOUS
 62
    7
 10
1170.408913915212
 20
538.91966041144906
 11
1171.0599542796331
 21
538.91966041144906
  0
LINE
  8
_0-2______1
  6
CONTINUOUS
 62
    7
 10
1171.0599542796331
 20
538.91966041144906
 11
1171.0599542796331
 21
539.57070077587014
  0
LINE
  8
_0-2______1
  6
CONTINUOUS
 62
    7
 10
1181.371593599973
 20
521.49120484940022
 11
1181.371593599973
 21
522.14224521382084
  0
LINE
  8
_0-2______1
  6
CONTINUOUS
 62
    7
 10
1181.371593599973
 20
522.14224521382084
 11
1182.0226339643932
 21
522.14224521382084
  0
LINE
  8
_0-2______1
  6
CONTINUOUS
 62
    7
 10
1172.341033706396
 20
568.59712541054114
 11
1172.341033706396
 21
570.52924520172382
  0
LINE
  8
_0-2______1
  6
CONTINUOUS
 62
    7
 10
1227.8264737966911
 20
499.56584547988086
 11
1228.4775141611121
 21
499.56584547988086
  0
LINE
  8
_0-2______1
  6
CONTINUOUS
 62
    7
 10
1231.711714681137
 20
503.43008506224896
 11
1231.711714681137
 21
502.80267116266714
  0
LINE
  8
_0-2______1
  6
CONTINUOUS
 62
    7
 10
1231.711714681137
 20
502.80267116266714
 11
1232.3417537434802
 21
502.80267116266714
  0
LINE
  8
_0-2______1
  6
CONTINUOUS
 62
    7
 10
1232.3417537434802
 20
502.80267116266714
 11
1232.3417537434802
 21
502.14638047272592
  0
LINE
  8
_0-2______1
  6
CONTINUOUS
 62
    7
 10
1235.5759542635051
 20
506.66166041951419
 11
1235.5759542635051
 21
506.01324521785318
  0
LINE
  8
_0-2______1
  6
CONTINUOUS
 62
    7
 10
1235.5759542635051
 20
506.01324521785318
 11
1236.2269946279253
 21
506.01324521785318
  0
LINE
  8
_0-2______1
  6
CONTINUOUS
 62
    7
 10
1202.0368748448059
 20
507.94799017179594
 11
1202.0368748448059
 21
507.31270078393391
  0
LINE
  8
_0-2______1
  6
CONTINUOUS
 62
    7
 10
1209.1143136451201
 20
515.04380511142881
 11
1209.7653540095403
 21
515.04380511142881
  0
LINE
  8
_0-2______1
  6
CONTINUOUS
 62
    7
 10
1209.7653540095403
 20
515.04380511142881
 11
1209.7653540095403
 21
513.765350847425
  0
LINE
  8
_0-2______1
  6
CONTINUOUS
 62
    7
 10
1205.9011144271731
 20
511.83060589348315
 11
1205.9011144271731
 21
511.17956552906207
  0
LINE
  8
_0-2______1
  6
CONTINUOUS
 62
    7
 10
1205.9011144271731
 20
510.528525164641
 11
1205.9011144271731
 21
509.24744573787802
  0
LINE
  8
_0-2______1
  6
CONTINUOUS
 62
    7
 10
1205.9011144271731
 20
509.24744573787802
 11
1205.250074062752
 21
509.24744573787802
  0
LINE
  8
_0-2______1
  6
CONTINUOUS
 62
    7
 10
1205.250074062752
 20
509.24744573787802
 11
1205.250074062752
 21
508.59903053621701
  0
LINE
  8
_0-2______1
  6
CONTINUOUS
 62
    7
 10
1205.250074062752
 20
508.59903053621701
 11
1205.250074062752
 21
507.94799017179594
  0
LINE
  8
_0-2______1
  6
CONTINUOUS
 62
    7
 10
1205.250074062752
 20
507.94799017179594
 11
1204.5990336983318
 21
507.94799017179594
  0
LINE
  8
_0-2______1
  6
CONTINUOUS
 62
    7
 10
1204.5990336983318
 20
507.94799017179594
 11
1204.5990336983318
 21
507.31270078393391
  0
LINE
  8
_0-2______1
  6
CONTINUOUS
 62
    7
 10
1209.7653540095403
 20
513.765350847425
 11
1209.7653540095403
 21
513.11431048300483
  0
LINE
  8
_0-2______1
  6
CONTINUOUS
 62
    7
 10
1209.7653540095403
 20
513.11431048300483
 11
1209.1143136451201
 21
512.45801979306498
  0
LINE
  8
_0-2______1
  6
CONTINUOUS
 62
    7
 10
1209.1143136451201
 20
512.45801979306498
 11
1209.1143136451201
 21
511.82798073072217
  0
LINE
  8
_0-2______1
  6
CONTINUOUS
 62
    7
 10
1209.1143136451201
 20
511.82798073072217
 11
1209.1143136451201
 21
511.17956552906207
  0
LINE
  8
_0-2______1
  6
CONTINUOUS
 62
    7
 10
1209.1143136451201
 20
511.17956552906207
 11
1208.4842745827768
 21
511.17956552906207
  0
LINE
  8
_0-2______1
  6
CONTINUOUS
 62
    7
 10
1202.0368748448059
 20
507.31270078393391
 11
1202.0368748448059
 21
506.01324521785318
  0
LINE
  8
_0-2______1
  6
CONTINUOUS
 62
    7
 10
1202.0368748448059
 20
506.01324521785318
 11
1201.3858344803853
 21
506.01324521785318
  0
LINE
  8
_0-2______1
  6
CONTINUOUS
 62
    7
 10
1201.3858344803853
 20
506.01324521785318
 11
1201.3858344803853
 21
505.36220485343301
  0
LINE
  8
_0-2______1
  6
CONTINUOUS
 62
    7
 10
1201.3858344803853
 20
505.36220485343301
 11
1201.3858344803853
 21
504.73216579109021
  0
LINE
  8
_0-2______1
  6
CONTINUOUS
 62
    7
 10
1201.3858344803853
 20
504.73216579109021
 11
1200.7347941159651
 21
504.08112542667004
  0
LINE
  8
_0-2______1
  6
CONTINUOUS
 62
    7
 10
1236.2269946279253
 20
506.01324521785318
 11
1236.2269946279253
 21
505.36220485343301
  0
LINE
  8
_0-2______1
  6
CONTINUOUS
 62
    7
 10
1236.2269946279253
 20
505.36220485343301
 11
1235.5759542635051
 21
505.36220485343301
  0
LINE
  8
_0-2______1
  6
CONTINUOUS
 62
    7
 10
1235.5759542635051
 20
505.36220485343301
 11
1235.5759542635051
 21
504.73216579109021
  0
LINE
  8
_0-2______1
  6
CONTINUOUS
 62
    7
 10
1235.5759542635051
 20
504.73216579109021
 11
1234.924913899084
 21
504.73216579109021
  0
LINE
  8
_0-2______1
  6
CONTINUOUS
 62
    7
 10
1234.924913899084
 20
504.73216579109021
 11
1234.924913899084
 21
504.08112542667004
  0
LINE
  8
_0-2______1
  6
CONTINUOUS
 62
    7
 10
1232.3417537434802
 20
502.14638047272592
 11
1231.711714681137
 21
502.14638047272592
  0
LINE
  8
_0-2______1
  6
CONTINUOUS
 62
    7
 10
1231.711714681137
 20
502.14638047272592
 11
1231.711714681137
 21
501.49534010830484
  0
LINE
  8
_0-2______1
  6
CONTINUOUS
 62
    7
 10
1231.711714681137
 20
501.49534010830484
 11
1231.0606743167168
 21
501.49534010830484
  0
LINE
  8
_0-2______1
  6
CONTINUOUS
 62
    7
 10
1231.0606743167168
 20
501.49534010830484
 11
1231.0606743167168
 21
500.84429974388513
  0
LINE
  8
_0-2______1
  6
CONTINUOUS
 62
    7
 10
1228.4775141611121
 20
499.56584547988086
 11
1228.4775141611121
 21
498.91480511546115
  0
LINE
  8
_0-2______1
  6
CONTINUOUS
 62
    7
 10
1228.4775141611121
 20
498.91480511546115
 11
1227.8264737966911
 21
498.26376475104098
  0
LINE
  8
_0-2______1
  6
CONTINUOUS
 62
    7
 10
1227.8264737966911
 20
498.26376475104098
 11
1227.8264737966911
 21
497.63635085145779
  0
LINE
  8
_0-2______1
  6
CONTINUOUS
 62
    7
 10
1227.8264737966911
 20
497.63635085145779
 11
1227.1964347343501
 21
497.63635085145779
  0
LINE
  8
_0-2______1
  6
CONTINUOUS
 62
    7
 10
1179.4394738087881
 20
518.93167115863298
 11
1179.4394738087881
 21
518.27538046869404
  0
LINE
  8
_0-2______1
  6
CONTINUOUS
 62
    7
 10
1183.324714693234
 20
521.49120484940022
 11
1183.324714693234
 21
520.21012542263679
  0
LINE
  8
_0-2______1
  6
CONTINUOUS
 62
    7
 10
1183.324714693234
 20
520.21012542263679
 11
1182.6736743288129
 21
520.21012542263679
  0
LINE
  8
_0-2______1
  6
CONTINUOUS
 62
    7
 10
1182.6736743288129
 20
520.21012542263679
 11
1182.6736743288129
 21
519.55908505821708
  0
LINE
  8
_0-2______1
  6
CONTINUOUS
 62
    7
 10
1182.6736743288129
 20
519.55908505821708
 11
1182.0226339643932
 21
519.55908505821708
  0
LINE
  8
_0-2______1
  6
CONTINUOUS
 62
    7
 10
1182.0226339643932
 20
519.55908505821708
 11
1182.0226339643932
 21
518.93167115863298
  0
LINE
  8
_0-2______1
  6
CONTINUOUS
 62
    7
 10
1182.0226339643932
 20
518.93167115863298
 11
1181.371593599973
 21
518.93167115863298
  0
LINE
  8
_0-2______1
  6
CONTINUOUS
 62
    7
 10
1179.4394738087881
 20
519.55908505821708
 11
1179.4394738087881
 21
518.93167115863298
  0
LINE
  8
_0-2______1
  6
CONTINUOUS
 62
    7
 10
1175.5752342264223
 20
515.69484547584898
 11
1175.5752342264223
 21
515.04380511142881
  0
LINE
  8
_0-2______1
  6
CONTINUOUS
 62
    7
 10
1175.5752342264223
 20
515.04380511142881
 11
1175.5752342264223
 21
513.765350847425
  0
LINE
  8
_0-2______1
  6
CONTINUOUS
 62
    7
 10
1175.5752342264223
 20
513.765350847425
 11
1174.9241938620012
 21
513.11431048300483
  0
LINE
  8
_0-2______1
  6
CONTINUOUS
 62
    7
 10
1174.9241938620012
 20
513.11431048300483
 11
1174.2941547996579
 21
512.45801979306498
  0
LINE
  8
_0-2______1
  6
CONTINUOUS
 62
    7
 10
1174.2941547996579
 20
512.45801979306498
 11
1174.2941547996579
 21
511.82798073072217
  0
LINE
  8
_0-2______1
  6
CONTINUOUS
 62
    7
 10
1174.2941547996579
 20
511.82798073072217
 11
1173.6431144352382
 21
511.82798073072217
  0
LINE
  8
_0-2______1
  6
CONTINUOUS
 62
    7
 10
1162.029394386057
 20
532.47488583623681
 11
1162.029394386057
 21
533.10229973582091
  0
LINE
  8
_0-2______1
  6
CONTINUOUS
 62
    7
 10
1179.4394738087881
 20
518.27538046869404
 11
1179.4394738087881
 21
516.97329973985325
  0
LINE
  8
_0-2______1
  6
CONTINUOUS
 62
    7
 10
1179.4394738087881
 20
516.97329973985325
 11
1178.8094347464462
 21
516.97329973985325
  0
LINE
  8
_0-2______1
  6
CONTINUOUS
 62
    7
 10
1178.8094347464462
 20
516.97329973985325
 11
1178.8094347464462
 21
515.69484547584898
  0
LINE
  8
_0-2______1
  6
CONTINUOUS
 62
    7
 10
1178.8094347464462
 20
515.69484547584898
 11
1178.158394382026
 21
515.69484547584898
  0
LINE
  8
_0-2______1
  6
CONTINUOUS
 62
    7
 10
1178.158394382026
 20
515.69484547584898
 11
1178.158394382026
 21
515.04380511142881
  0
LINE
  8
_0-2______1
  6
CONTINUOUS
 62
    7
 10
1178.158394382026
 20
515.04380511142881
 11
1177.5073540176049
 21
515.04380511142881
  0
LINE
  8
_0-2______1
  6
CONTINUOUS
 62
    7
 10
760.08547391362708
 20
546.02335083936214
 11
760.73651427804816
 21
546.02335083936214
  0
LINE
  8
_0-2______1
  6
CONTINUOUS
 62
    7
 10
760.73651427804816
 20
546.02335083936214
 11
760.73651427804816
 21
544.71601978499984
  0
LINE
  8
_0-2______1
  6
CONTINUOUS
 62
    7
 10
760.73651427804816
 20
544.71601978499984
 11
761.38755464246788
 21
544.71601978499984
  0
LINE
  8
_0-2______1
  6
CONTINUOUS
 62
    7
 10
761.38755464246788
 20
544.71601978499984
 11
762.01759370481113
 21
544.71601978499984
  0
LINE
  8
_0-2______1
  6
CONTINUOUS
 62
    7
 10
762.01759370481113
 20
544.71601978499984
 11
762.66863406923221
 21
544.08598072265795
  0
LINE
  8
_0-2______1
  6
CONTINUOUS
 62
    7
 10
762.66863406923221
 20
544.08598072265795
 11
763.31967443365193
 21
544.08598072265795
  0
LINE
  8
_0-2______1
  6
CONTINUOUS
 62
    7
 10
1045.892193894259
 20
582.14034008814406
 11
1045.892193894259
 21
581.48929972372389
  0
LINE
  8
_0-2______1
  6
CONTINUOUS
 62
    7
 10
1044.611114467496
 20
581.48929972372389
 11
1045.2621548319162
 21
581.48929972372389
  0
LINE
  8
_0-2______1
  6
CONTINUOUS
 62
    7
 10
1045.2621548319162
 20
581.48929972372389
 11
1045.2621548319162
 21
582.14034008814406
  0
LINE
  8
_0-2______1
  6
CONTINUOUS
 62
    7
 10
1045.2621548319162
 20
582.14034008814406
 11
1045.892193894259
 21
582.14034008814406
  0
LINE
  8
_0-2______1
  6
CONTINUOUS
 62
    7
 10
935.57235407808912
 20
494.39952516867288
 11
936.22339444250883
 21
494.39952516867288
  0
LINE
  8
_0-2______1
  6
CONTINUOUS
 62
    7
 10
936.22339444250883
 20
494.39952516867288
 11
936.87443480692991
 21
493.74848480425317
  0
LINE
  8
_0-2______1
  6
CONTINUOUS
 62
    7
 10
936.87443480692991
 20
493.74848480425317
 11
937.50447386927317
 21
493.74848480425317
  0
LINE
  8
_0-2______1
  6
CONTINUOUS
 62
    7
 10
937.50447386927317
 20
493.74848480425317
 11
938.15551423369288
 21
493.74848480425317
  0
LINE
  8
_0-2______1
  6
CONTINUOUS
 62
    7
 10
938.15551423369288
 20
493.74848480425317
 11
938.80655459811305
 21
493.74848480425317
  0
LINE
  8
_0-2______1
  6
CONTINUOUS
 62
    7
 10
938.80655459811305
 20
493.74848480425317
 11
939.43659366045586
 21
493.74848480425317
  0
LINE
  8
_0-2______1
  6
CONTINUOUS
 62
    7
 10
939.43659366045586
 20
493.74848480425317
 11
940.7386743892971
 21
493.74848480425317
  0
LINE
  8
_0-2______1
  6
CONTINUOUS
 62
    7
 10
940.7386743892971
 20
493.74848480425317
 11
941.38971475371818
 21
493.74848480425317
  0
LINE
  8
_0-2______1
  6
CONTINUOUS
 62
    7
 10
941.38971475371818
 20
493.74848480425317
 11
942.01975381606007
 21
493.74848480425317
  0
LINE
  8
_0-2______1
  6
CONTINUOUS
 62
    7
 10
942.01975381606007
 20
493.74848480425317
 11
942.67079418048115
 21
494.39952516867288
  0
LINE
  8
_0-2______1
  6
CONTINUOUS
 62
    7
 10
942.67079418048115
 20
494.39952516867288
 11
943.32183454490223
 21
494.39952516867288
  0
LINE
  8
_0-2______1
  6
CONTINUOUS
 62
    7
 10
943.32183454490223
 20
494.39952516867288
 11
943.97287490932194
 21
494.39952516867288
  0
LINE
  8
_0-2______1
  6
CONTINUOUS
 62
    7
 10
943.97287490932194
 20
494.39952516867288
 11
944.60291397166384
 21
494.39952516867288
  0
LINE
  8
_0-2______1
  6
CONTINUOUS
 62
    7
 10
944.60291397166384
 20
494.39952516867288
 11
944.60291397166384
 21
495.05056553309396
  0
LINE
  8
_0-2______1
  6
CONTINUOUS
 62
    7
 10
944.60291397166384
 20
495.05056553309396
 11
945.25395433608492
 21
495.05056553309396
  0
LINE
  8
_0-2______1
  6
CONTINUOUS
 62
    7
 10
945.25395433608492
 20
495.05056553309396
 11
945.25395433608492
 21
495.69898073475406
  0
LINE
  8
_0-2______1
  6
CONTINUOUS
 62
    7
 10
945.25395433608492
 20
495.69898073475406
 11
945.90499470050599
 21
495.69898073475406
  0
LINE
  8
_0-2______1
  6
CONTINUOUS
 62
    7
 10
1045.892193894259
 20
581.48929972372389
 11
1045.892193894259
 21
580.21084545972099
  0
LINE
  8
_0-2______1
  6
CONTINUOUS
 62
    7
 10
1045.892193894259
 20
580.21084545972099
 11
1045.2621548319162
 21
580.21084545972099
  0
LINE
  8
_0-2______1
  6
CONTINUOUS
 62
    7
 10
1045.2621548319162
 20
580.21084545972099
 11
1045.2621548319162
 21
579.559805095299
  0
LINE
  8
_0-2______1
  6
CONTINUOUS
 62
    7
 10
1045.2621548319162
 20
579.559805095299
 11
1044.611114467496
 21
579.559805095299
  0
LINE
  8
_0-2______1
  6
CONTINUOUS
 62
    7
 10
763.31967443365193
 20
542.13548479215615
 11
762.66863406923221
 21
542.13548479215615
  0
LINE
  8
_0-2______1
  6
CONTINUOUS
 62
    7
 10
762.66863406923221
 20
542.13548479215615
 11
762.01759370481113
 21
542.13548479215615
  0
LINE
  8
_0-2______1
  6
CONTINUOUS
 62
    7
 10
762.01759370481113
 20
542.13548479215615
 11
762.01759370481113
 21
542.78652515657723
  0
LINE
  8
_0-2______1
  6
CONTINUOUS
 62
    7
 10
762.01759370481113
 20
542.78652515657723
 11
761.38755464246788
 21
542.78652515657723
  0
LINE
  8
_0-2______1
  6
CONTINUOUS
 62
    7
 10
761.38755464246788
 20
542.78652515657723
 11
760.73651427804816
 21
542.78652515657723
  0
LINE
  8
_0-2______1
  6
CONTINUOUS
 62
    7
 10
760.73651427804816
 20
542.78652515657723
 11
760.73651427804816
 21
544.08860588541711
  0
LINE
  8
_0-2______1
  6
CONTINUOUS
 62
    7
 10
760.73651427804816
 20
544.08860588541711
 11
760.08547391362708
 21
544.08860588541711
  0
LINE
  8
_0-2______1
  6
CONTINUOUS
 62
    7
 10
760.08547391362708
 20
544.08860588541711
 11
759.45543485128383
 21
544.08860588541711
  0
LINE
  8
_0-2______1
  6
CONTINUOUS
 62
    7
 10
759.45543485128383
 20
544.08860588541711
 11
759.45543485128383
 21
545.37231047494015
  0
LINE
  8
_0-2______1
  6
CONTINUOUS
 62
    7
 10
945.90499470050599
 20
493.74848480425317
 11
945.25395433608492
 21
493.74848480425317
  0
LINE
  8
_0-2______1
  6
CONTINUOUS
 62
    7
 10
945.25395433608492
 20
493.74848480425317
 11
945.25395433608492
 21
493.11844574190991
  0
LINE
  8
_0-2______1
  6
CONTINUOUS
 62
    7
 10
945.25395433608492
 20
493.11844574190991
 11
944.60291397166384
 21
493.11844574190991
  0
LINE
  8
_0-2______1
  6
CONTINUOUS
 62
    7
 10
944.60291397166384
 20
493.11844574190991
 11
944.60291397166384
 21
492.4700305402489
  0
LINE
  8
_0-2______1
  6
CONTINUOUS
 62
    7
 10
944.60291397166384
 20
492.4700305402489
 11
943.97287490932194
 21
492.4700305402489
  0
LINE
  8
_0-2______1
  6
CONTINUOUS
 62
    7
 10
943.97287490932194
 20
492.4700305402489
 11
943.32183454490223
 21
492.4700305402489
  0
LINE
  8
_0-2______1
  6
CONTINUOUS
 62
    7
 10
943.32183454490223
 20
492.4700305402489
 11
942.67079418048115
 21
492.4700305402489
  0
LINE
  8
_0-2______1
  6
CONTINUOUS
 62
    7
 10
942.67079418048115
 20
492.4700305402489
 11
942.01975381606007
 21
491.81899017582919
  0
LINE
  8
_0-2______1
  6
CONTINUOUS
 62
    7
 10
942.01975381606007
 20
491.81899017582919
 11
941.38971475371818
 21
491.81899017582919
  0
LINE
  8
_0-2______1
  6
CONTINUOUS
 62
    7
 10
941.38971475371818
 20
491.81899017582919
 11
940.7386743892971
 21
491.81899017582919
  0
LINE
  8
_0-2______1
  6
CONTINUOUS
 62
    7
 10
940.7386743892971
 20
491.81899017582919
 11
940.08763402487602
 21
491.81899017582919
  0
LINE
  8
_0-2______1
  6
CONTINUOUS
 62
    7
 10
940.08763402487602
 20
491.81899017582919
 11
939.43659366045586
 21
491.81899017582919
  0
LINE
  8
_0-2______1
  6
CONTINUOUS
 62
    7
 10
939.43659366045586
 20
491.81899017582919
 11
938.80655459811305
 21
491.81899017582919
  0
LINE
  8
_0-2______1
  6
CONTINUOUS
 62
    7
 10
938.80655459811305
 20
491.81899017582919
 11
937.50447386927317
 21
491.81899017582919
  0
LINE
  8
_0-2______1
  6
CONTINUOUS
 62
    7
 10
937.50447386927317
 20
491.81899017582919
 11
936.87443480692991
 21
491.81899017582919
  0
LINE
  8
_0-2______1
  6
CONTINUOUS
 62
    7
 10
936.87443480692991
 20
491.81899017582919
 11
936.22339444250883
 21
491.81899017582919
  0
LINE
  8
_0-2______1
  6
CONTINUOUS
 62
    7
 10
936.22339444250883
 20
491.81899017582919
 11
936.22339444250883
 21
492.4700305402489
  0
LINE
  8
_0-2______1
  6
CONTINUOUS
 62
    7
 10
936.22339444250883
 20
492.4700305402489
 11
935.57235407808912
 21
492.4700305402489
  0
LINE
  8
_0-2______1
  6
CONTINUOUS
 62
    7
 10
758.80439448686411
 20
544.08860588541711
 11
759.45543485128383
 21
544.08860588541711
  0
LINE
  8
_0-2______1
  6
CONTINUOUS
 62
    7
 10
759.45543485128383
 20
544.08860588541711
 11
759.45543485128383
 21
542.78652515657723
  0
LINE
  8
_0-2______1
  6
CONTINUOUS
 62
    7
 10
759.45543485128383
 20
542.78652515657723
 11
760.08547391362708
 21
542.78652515657723
  0
LINE
  8
_0-2______1
  6
CONTINUOUS
 62
    7
 10
760.08547391362708
 20
542.78652515657723
 11
760.73651427804816
 21
542.78652515657723
  0
LINE
  8
_0-2______1
  6
CONTINUOUS
 62
    7
 10
760.73651427804816
 20
542.78652515657723
 11
760.73651427804816
 21
542.13548479215615
  0
LINE
  8
_0-2______1
  6
CONTINUOUS
 62
    7
 10
760.73651427804816
 20
542.13548479215615
 11
761.38755464246788
 21
542.13548479215615
  0
LINE
  8
_0-2______1
  6
CONTINUOUS
 62
    7
 10
761.38755464246788
 20
542.13548479215615
 11
762.01759370481113
 21
542.13548479215615
  0
LINE
  8
_0-2______1
  6
CONTINUOUS
 62
    7
 10
762.01759370481113
 20
542.13548479215615
 11
762.66863406923221
 21
542.13548479215615
  0
LINE
  8
_0-2______1
  6
CONTINUOUS
 62
    7
 10
758.80439448686411
 20
543.43756552099694
 11
758.80439448686411
 21
544.08598072265795
  0
LINE
  8
_0-2______1
  6
CONTINUOUS
 62
    7
 10
758.80439448686411
 20
544.08598072265795
 11
758.80439448686411
 21
544.71601978499984
  0
LINE
  8
_0-2______1
  6
CONTINUOUS
 62
    7
 10
758.80439448686411
 20
544.71601978499984
 11
759.45543485128383
 21
544.71601978499984
  0
LINE
  8
_0-2______1
  6
CONTINUOUS
 62
    7
 10
759.45543485128383
 20
544.71601978499984
 11
759.45543485128383
 21
545.37231047494015
  0
LINE
  8
_0-2______1
  6
CONTINUOUS
 62
    7
 10
1135.5677537676729
 20
581.48929972372389
 11
1135.5677537676729
 21
582.14034008814406
  0
LINE
  8
_0-2______1
  6
CONTINUOUS
 62
    7
 10
1135.5677537676729
 20
582.14034008814406
 11
1135.5677537676729
 21
582.79138045256514
  0
LINE
  8
_0-2______1
  6
CONTINUOUS
 62
    7
 10
1135.5677537676729
 20
582.79138045256514
 11
1136.218794132094
 21
582.79138045256514
  0
LINE
  8
_0-2______1
  6
CONTINUOUS
 62
    7
 10
1136.218794132094
 20
582.79138045256514
 11
1136.218794132094
 21
583.44767114250499
  0
LINE
  8
_0-2______1
  6
CONTINUOUS
 62
    7
 10
1136.218794132094
 20
583.44767114250499
 11
1136.8698344965151
 21
583.44767114250499
  0
LINE
  8
_0-2______1
  6
CONTINUOUS
 62
    7
 10
1136.8698344965151
 20
583.44767114250499
 11
1137.5208748609352
 21
583.44767114250499
  0
LINE
  8
_0-2______1
  6
CONTINUOUS
 62
    7
 10
1137.5208748609352
 20
583.44767114250499
 11
1138.150913923278
 21
584.07508504208818
  0
LINE
  8
_0-2______1
  6
CONTINUOUS
 62
    7
 10
1138.150913923278
 20
584.07508504208818
 11
1138.8019542876982
 21
584.07508504208818
  0
LINE
  8
_0-2______1
  6
CONTINUOUS
 62
    7
 10
1138.8019542876982
 20
584.07508504208818
 11
1139.4529946521179
 21
584.07508504208818
  0
LINE
  8
_0-2______1
  6
CONTINUOUS
 62
    7
 10
1139.4529946521179
 20
584.07508504208818
 11
1140.0830337144612
 21
584.07508504208818
  0
LINE
  8
_0-2______1
  6
CONTINUOUS
 62
    7
 10
1140.0830337144612
 20
584.07508504208818
 11
1140.7340740788823
 21
584.07508504208818
  0
LINE
  8
_0-2______1
  6
CONTINUOUS
 62
    7
 10
1140.7340740788823
 20
584.07508504208818
 11
1141.385114443302
 21
584.07508504208818
  0
LINE
  8
_0-2______1
  6
CONTINUOUS
 62
    7
 10
1141.385114443302
 20
584.07508504208818
 11
1142.0361548077231
 21
584.07508504208818
  0
LINE
  8
_0-2______1
  6
CONTINUOUS
 62
    7
 10
1142.0361548077231
 20
584.07508504208818
 11
1142.6661938700649
 21
584.07508504208818
  0
LINE
  8
_0-2______1
  6
CONTINUOUS
 62
    7
 10
1142.6661938700649
 20
584.07508504208818
 11
1142.6661938700649
 21
583.44767114250499
  0
LINE
  8
_0-2______1
  6
CONTINUOUS
 62
    7
 10
1135.5677537676729
 20
582.14034008814406
 11
1136.218794132094
 21
582.14034008814406
  0
LINE
  8
_0-2______1
  6
CONTINUOUS
 62
    7
 10
1136.218794132094
 20
582.14034008814406
 11
1136.8698344965151
 21
582.14034008814406
  0
LINE
  8
_0-2______1
  6
CONTINUOUS
 62
    7
 10
1136.8698344965151
 20
582.14034008814406
 11
1136.8698344965151
 21
581.48929972372389
  0
LINE
  8
_0-2______1
  6
CONTINUOUS
 62
    7
 10
1136.8698344965151
 20
581.48929972372389
 11
1137.5208748609352
 21
581.48929972372389
  0
LINE
  8
_0-2______1
  6
CONTINUOUS
 62
    7
 10
982.02723427480805
 20
449.2493508635539
 11
982.67827463922913
 21
449.876764763138
  0
LINE
  8
_0-2______1
  6
CONTINUOUS
 62
    7
 10
982.67827463922913
 20
449.876764763138
 11
983.30831370157102
 21
449.876764763138
  0
LINE
  8
_0-2______1
  6
CONTINUOUS
 62
    7
 10
983.30831370157102
 20
449.876764763138
 11
983.30831370157102
 21
450.52780512755817
  0
LINE
  8
_0-2______1
  6
CONTINUOUS
 62
    7
 10
983.30831370157102
 20
450.52780512755817
 11
983.9593540659921
 21
450.52780512755817
  0
LINE
  8
_0-2______1
  6
CONTINUOUS
 62
    7
 10
983.9593540659921
 20
450.52780512755817
 11
983.9593540659921
 21
451.17884549197788
  0
LINE
  8
_0-2______1
  6
CONTINUOUS
 62
    7
 10
983.9593540659921
 20
451.17884549197788
 11
984.61039443041318
 21
451.17884549197788
  0
LINE
  8
_0-2______1
  6
CONTINUOUS
 62
    7
 10
984.61039443041318
 20
451.17884549197788
 11
985.26143479483289
 21
451.17884549197788
  0
LINE
  8
_0-2______1
  6
CONTINUOUS
 62
    7
 10
985.26143479483289
 20
451.17884549197788
 11
985.89147385717524
 21
451.17884549197788
  0
LINE
  8
_0-2______1
  6
CONTINUOUS
 62
    7
 10
985.89147385717524
 20
451.17884549197788
 11
986.54251422159723
 21
451.17884549197788
  0
LINE
  8
_0-2______1
  6
CONTINUOUS
 62
    7
 10
986.54251422159723
 20
451.17884549197788
 11
987.19355458601603
 21
451.17884549197788
  0
LINE
  8
_0-2______1
  6
CONTINUOUS
 62
    7
 10
987.19355458601603
 20
451.17884549197788
 11
987.82359364835884
 21
451.17884549197788
  0
LINE
  8
_0-2______1
  6
CONTINUOUS
 62
    7
 10
987.82359364835884
 20
451.17884549197788
 11
988.47463401277992
 21
451.17884549197788
  0
LINE
  8
_0-2______1
  6
CONTINUOUS
 62
    7
 10
988.47463401277992
 20
451.17884549197788
 11
989.12567437720099
 21
451.17884549197788
  0
LINE
  8
_0-2______1
  6
CONTINUOUS
 62
    7
 10
982.67827463922913
 20
449.876764763138
 11
983.30831370157102
 21
449.876764763138
  0
LINE
  8
_0-2______1
  6
CONTINUOUS
 62
    7
 10
983.30831370157102
 20
449.876764763138
 11
983.30831370157102
 21
449.2493508635539
  0
LINE
  8
_0-2______1
  6
CONTINUOUS
 62
    7
 10
983.30831370157102
 20
449.2493508635539
 11
983.9593540659921
 21
449.2493508635539
  0
LINE
  8
_0-2______1
  6
CONTINUOUS
 62
    7
 10
983.9593540659921
 20
449.2493508635539
 11
983.9593540659921
 21
448.59831049913419
  0
LINE
  8
_0-2______1
  6
CONTINUOUS
 62
    7
 10
983.9593540659921
 20
448.59831049913419
 11
984.60514410489304
 21
448.59831049913419
  0
LINE
  8
_0-2______1
  6
CONTINUOUS
 62
    7
 10
984.60514410489304
 20
448.59831049913419
 11
985.26143479483289
 21
448.59831049913419
  0
LINE
  8
_0-2______1
  6
CONTINUOUS
 62
    7
 10
985.26143479483289
 20
448.59831049913419
 11
985.89147385717524
 21
448.59831049913419
  0
LINE
  8
_0-2______1
  6
CONTINUOUS
 62
    7
 10
985.89147385717524
 20
448.59831049913419
 11
985.89147385717524
 21
447.94201980919297
  0
LINE
  8
_0-2______1
  6
CONTINUOUS
 62
    7
 10
985.89147385717524
 20
447.94201980919297
 11
986.54251422159723
 21
447.94201980919297
  0
LINE
  8
_0-2______1
  6
CONTINUOUS
 62
    7
 10
986.54251422159723
 20
447.94201980919297
 11
987.19355458601603
 21
447.94201980919297
  0
LINE
  8
_0-2______1
  6
CONTINUOUS
 62
    7
 10
987.19355458601603
 20
447.94201980919297
 11
987.82359364835884
 21
447.94201980919297
  0
LINE
  8
_0-2______1
  6
CONTINUOUS
 62
    7
 10
987.82359364835884
 20
447.94201980919297
 11
987.82359364835884
 21
448.59831049913419
  0
LINE
  8
_0-2______1
  6
CONTINUOUS
 62
    7
 10
987.82359364835884
 20
448.59831049913419
 11
988.47463401277992
 21
448.59831049913419
  0
LINE
  8
_0-2______1
  6
CONTINUOUS
 62
    7
 10
988.47463401277992
 20
448.59831049913419
 11
989.12567437720099
 21
448.59831049913419
  0
LINE
  8
_0-2______1
  6
CONTINUOUS
 62
    7
 10
989.12567437720099
 20
448.59831049913419
 11
989.77671474162116
 21
448.59831049913419
  0
LINE
  8
_0-2______1
  6
CONTINUOUS
 62
    7
 10
989.77671474162116
 20
448.59831049913419
 11
989.77671474162116
 21
449.2493508635539
  0
LINE
  8
_0-2______1
  6
CONTINUOUS
 62
    7
 10
989.77671474162116
 20
449.2493508635539
 11
990.40675380396397
 21
449.2493508635539
  0
LINE
  8
_0-2______1
  6
CONTINUOUS
 62
    7
 10
990.40675380396397
 20
449.2493508635539
 11
991.05779416838504
 21
449.2493508635539
  0
LINE
  8
_0-2______1
  6
CONTINUOUS
 62
    7
 10
991.05779416838504
 20
449.2493508635539
 11
991.05779416838504
 21
449.876764763138
  0
LINE
  8
_0-2______1
  6
CONTINUOUS
 62
    7
 10
1137.5208748609352
 20
581.48929972372389
 11
1138.150913923278
 21
581.48929972372389
  0
LINE
  8
_0-2______1
  6
CONTINUOUS
 62
    7
 10
1138.150913923278
 20
581.48929972372389
 11
1138.8019542876982
 21
581.48929972372389
  0
LINE
  8
_0-2______1
  6
CONTINUOUS
 62
    7
 10
1138.8019542876982
 20
581.48929972372389
 11
1139.4529946521179
 21
581.48929972372389
  0
LINE
  8
_0-2______1
  6
CONTINUOUS
 62
    7
 10
1139.4529946521179
 20
581.48929972372389
 11
1139.4529946521179
 21
580.86188582414024
  0
LINE
  8
_0-2______1
  6
CONTINUOUS
 62
    7
 10
1139.4529946521179
 20
580.86188582414024
 11
1140.0830337144612
 21
580.86188582414024
  0
LINE
  8
_0-2______1
  6
CONTINUOUS
 62
    7
 10
1140.0830337144612
 20
580.86188582414024
 11
1140.7340740788823
 21
580.86188582414024
  0
LINE
  8
_0-2______1
  6
CONTINUOUS
 62
    7
 10
1140.7340740788823
 20
580.86188582414024
 11
1141.385114443302
 21
581.48929972372389
  0
LINE
  8
_0-2______1
  6
CONTINUOUS
 62
    7
 10
1141.385114443302
 20
581.48929972372389
 11
1142.0361548077231
 21
581.48929972372389
  0
LINE
  8
_0-2______1
  6
CONTINUOUS
 62
    7
 10
1142.0361548077231
 20
581.48929972372389
 11
1142.6661938700649
 21
581.48929972372389
  0
LINE
  8
_0-2______1
  6
CONTINUOUS
 62
    7
 10
1142.6661938700649
 20
581.48929972372389
 11
1143.317234234486
 21
581.48929972372389
  0
LINE
  8
_0-2______1
  6
CONTINUOUS
 62
    7
 10
1143.317234234486
 20
581.48929972372389
 11
1143.317234234486
 21
582.14034008814406
  0
LINE
  8
_0-2______1
  6
CONTINUOUS
 62
    7
 10
1143.317234234486
 20
582.14034008814406
 11
1143.9682745989062
 21
582.14034008814406
  0
LINE
  8
_0-2______1
  6
CONTINUOUS
 62
    7
 10
1143.9682745989062
 20
582.14034008814406
 11
1144.598313661249
 21
582.14034008814406
  0
LINE
  8
_0-2______1
  6
CONTINUOUS
 62
    7
 10
935.57235407808912
 20
491.81899017582919
 11
936.22339444250883
 21
491.81899017582919
  0
LINE
  8
_0-2______1
  6
CONTINUOUS
 62
    7
 10
936.22339444250883
 20
491.81899017582919
 11
936.87443480692991
 21
491.81899017582919
  0
LINE
  8
_0-2______1
  6
CONTINUOUS
 62
    7
 10
936.87443480692991
 20
491.81899017582919
 11
937.50447386927317
 21
491.81899017582919
  0
LINE
  8
_0-2______1
  6
CONTINUOUS
 62
    7
 10
937.50447386927317
 20
491.81899017582919
 11
938.15551423369288
 21
491.18370078796715
  0
LINE
  8
_0-2______1
  6
CONTINUOUS
 62
    7
 10
938.15551423369288
 20
491.18370078796715
 11
938.80655459811305
 21
491.18370078796715
  0
LINE
  8
_0-2______1
  6
CONTINUOUS
 62
    7
 10
938.80655459811305
 20
491.18370078796715
 11
939.43659366045586
 21
491.18370078796715
  0
LINE
  8
_0-2______1
  6
CONTINUOUS
 62
    7
 10
939.43659366045586
 20
491.18370078796715
 11
940.08763402487602
 21
491.18370078796715
  0
LINE
  8
_0-2______1
  6
CONTINUOUS
 62
    7
 10
940.08763402487602
 20
491.18370078796715
 11
940.7386743892971
 21
491.18370078796715
  0
LINE
  8
_0-2______1
  6
CONTINUOUS
 62
    7
 10
940.7386743892971
 20
491.18370078796715
 11
941.38971475371818
 21
491.81899017582919
  0
LINE
  8
_0-2______1
  6
CONTINUOUS
 62
    7
 10
941.38971475371818
 20
491.81899017582919
 11
942.01975381606007
 21
491.81899017582919
  0
LINE
  8
_0-2______1
  6
CONTINUOUS
 62
    7
 10
942.01975381606007
 20
491.81899017582919
 11
942.67079418048115
 21
491.81899017582919
  0
LINE
  8
_0-2______1
  6
CONTINUOUS
 62
    7
 10
942.67079418048115
 20
491.81899017582919
 11
943.32183454490223
 21
491.81899017582919
  0
LINE
  8
_0-2______1
  6
CONTINUOUS
 62
    7
 10
943.32183454490223
 20
491.81899017582919
 11
944.60291397166384
 21
491.81899017582919
  0
LINE
  8
_0-2______1
  6
CONTINUOUS
 62
    7
 10
944.60291397166384
 20
491.81899017582919
 11
944.60291397166384
 21
492.4700305402489
  0
LINE
  8
_0-2______1
  6
CONTINUOUS
 62
    7
 10
944.60291397166384
 20
492.4700305402489
 11
945.25395433608492
 21
492.4700305402489
  0
LINE
  8
_0-2______1
  6
CONTINUOUS
 62
    7
 10
945.25395433608492
 20
492.4700305402489
 11
945.90499470050599
 21
492.4700305402489
  0
LINE
  8
_0-2______1
  6
CONTINUOUS
 62
    7
 10
945.90499470050599
 20
492.4700305402489
 11
945.90499470050599
 21
493.11844574190991
  0
LINE
  8
_0-2______1
  6
CONTINUOUS
 62
    7
 10
945.90499470050599
 20
493.11844574190991
 11
946.53503376284789
 21
493.11844574190991
  0
LINE
  8
_0-2______1
  6
CONTINUOUS
 62
    7
 10
1045.892193894259
 20
579.559805095299
 11
1046.5432342586801
 21
579.559805095299
  0
LINE
  8
_0-2______1
  6
CONTINUOUS
 62
    7
 10
1046.5432342586801
 20
579.559805095299
 11
1046.5432342586801
 21
580.86188582414024
  0
LINE
  8
_0-2______1
  6
CONTINUOUS
 62
    7
 10
989.12567437720099
 20
451.17884549197788
 11
989.77671474162116
 21
451.17884549197788
  0
LINE
  8
_0-2______1
  6
CONTINUOUS
 62
    7
 10
989.77671474162116
 20
451.17884549197788
 11
990.40675380396397
 21
450.52780512755817
  0
LINE
  8
_0-2______1
  6
CONTINUOUS
 62
    7
 10
990.40675380396397
 20
450.52780512755817
 11
990.40675380396397
 21
449.876764763138
  0
LINE
  8
_0-2______1
  6
CONTINUOUS
 62
    7
 10
990.40675380396397
 20
449.876764763138
 11
991.05779416838504
 21
449.876764763138
  0
LINE
  8
_0-2______1
  6
CONTINUOUS
 62
    7
 10
991.05779416838504
 20
449.876764763138
 11
991.70883453280521
 21
449.876764763138
  0
LINE
  8
_0-2______1
  6
CONTINUOUS
 62
    7
 10
991.70883453280521
 20
449.876764763138
 11
991.70883453280521
 21
449.2493508635539
  0
LINE
  8
_0-2______1
  6
CONTINUOUS
 62
    7
 10
1142.6661938700649
 20
583.44767114250499
 11
1143.317234234486
 21
583.44767114250499
  0
LINE
  8
_0-2______1
  6
CONTINUOUS
 62
    7
 10
1143.317234234486
 20
583.44767114250499
 11
1143.9682745989062
 21
583.44767114250499
  0
LINE
  8
_0-2______1
  6
CONTINUOUS
 62
    7
 10
1143.9682745989062
 20
583.44767114250499
 11
1143.9682745989062
 21
582.79138045256514
  0
LINE
  8
_0-2______1
  6
CONTINUOUS
 62
    7
 10
1143.9682745989062
 20
582.79138045256514
 11
1144.598313661249
 21
582.79138045256514
  0
LINE
  8
_0-2______1
  6
CONTINUOUS
 62
    7
 10
1144.598313661249
 20
582.79138045256514
 11
1144.598313661249
 21
582.14034008814406
  0
LINE
  8
_0-2______1
  6
CONTINUOUS
 62
    7
 10
1144.598313661249
 20
582.14034008814406
 11
1144.598313661249
 21
581.48929972372389
  0
LINE
  8
_0-2______1
  6
CONTINUOUS
 62
    7
 10
1043.3090337386539
 20
583.44767114250499
 11
1043.9600741030749
 21
583.44767114250499
  0
LINE
  8
_0-2______1
  6
CONTINUOUS
 62
    7
 10
1043.9600741030749
 20
583.44767114250499
 11
1044.611114467496
 21
583.44767114250499
  0
LINE
  8
_0-2______1
  6
CONTINUOUS
 62
    7
 10
1044.611114467496
 20
583.44767114250499
 11
1044.611114467496
 21
582.79138045256514
  0
LINE
  8
_0-2______1
  6
CONTINUOUS
 62
    7
 10
1044.611114467496
 20
582.79138045256514
 11
1045.2621548319162
 21
582.79138045256514
  0
LINE
  8
_0-2______1
  6
CONTINUOUS
 62
    7
 10
1045.2621548319162
 20
582.79138045256514
 11
1045.2621548319162
 21
582.14034008814406
  0
LINE
  8
_0-2______1
  6
CONTINUOUS
 62
    7
 10
1045.2621548319162
 20
582.14034008814406
 11
1045.892193894259
 21
582.14034008814406
  0
LINE
  8
_0-2______1
  6
CONTINUOUS
 62
    7
 10
1045.892193894259
 20
582.14034008814406
 11
1046.5432342586801
 21
582.14034008814406
  0
LINE
  8
_0-2______1
  6
CONTINUOUS
 62
    7
 10
1046.5432342586801
 20
582.14034008814406
 11
1046.5432342586801
 21
581.48929972372389
  0
LINE
  8
_0-2______1
  6
CONTINUOUS
 62
    7
 10
1046.5432342586801
 20
581.48929972372389
 11
1046.5432342586801
 21
580.86188582414024
  0
LINE
  8
_0-2______1
  6
CONTINUOUS
 62
    7
 10
1046.5432342586801
 20
580.86188582414024
 11
1047.1942746231002
 21
580.86188582414024
  0
LINE
  8
_0-2______1
  6
CONTINUOUS
 62
    7
 10
1047.1942746231002
 20
580.86188582414024
 11
1047.1942746231002
 21
580.21084545972099
  0
LINE
  8
_0-2______1
  6
CONTINUOUS
 62
    7
 10
859.44263404503818
 20
631.83467113040797
 11
860.09367440945789
 21
632.46208502999116
  0
LINE
  8
_0-2______1
  6
CONTINUOUS
 62
    7
 10
860.09367440945789
 20
632.46208502999116
 11
860.74471477387897
 21
632.46208502999116
  0
LINE
  8
_0-2______1
  6
CONTINUOUS
 62
    7
 10
860.74471477387897
 20
632.46208502999116
 11
861.37475383622223
 21
632.46208502999116
  0
LINE
  8
_0-2______1
  6
CONTINUOUS
 62
    7
 10
861.37475383622223
 20
632.46208502999116
 11
861.37475383622223
 21
633.11312539441087
  0
LINE
  8
_0-2______1
  6
CONTINUOUS
 62
    7
 10
861.37475383622223
 20
633.11312539441087
 11
862.02579420064194
 21
633.11312539441087
  0
LINE
  8
_0-2______1
  6
CONTINUOUS
 62
    7
 10
862.02579420064194
 20
633.11312539441087
 11
862.02579420064194
 21
633.76416575883195
  0
LINE
  8
_0-2______1
  6
CONTINUOUS
 62
    7
 10
862.02579420064194
 20
633.76416575883195
 11
862.67683456506211
 21
633.76416575883195
  0
LINE
  8
_0-2______1
  6
CONTINUOUS
 62
    7
 10
862.67683456506211
 20
633.76416575883195
 11
863.3278749294841
 21
633.76416575883195
  0
LINE
  8
_0-2______1
  6
CONTINUOUS
 62
    7
 10
863.3278749294841
 20
633.76416575883195
 11
863.95791399182508
 21
633.76416575883195
  0
LINE
  8
_0-2______1
  6
CONTINUOUS
 62
    7
 10
863.95791399182508
 20
633.76416575883195
 11
865.25999472066724
 21
633.76416575883195
  0
LINE
  8
_0-2______1
  6
CONTINUOUS
 62
    7
 10
865.25999472066724
 20
633.76416575883195
 11
865.89003378300913
 21
633.76416575883195
  0
LINE
  8
_0-2______1
  6
CONTINUOUS
 62
    7
 10
865.89003378300913
 20
633.76416575883195
 11
866.54107414743021
 21
633.76416575883195
  0
LINE
  8
_0-2______1
  6
CONTINUOUS
 62
    7
 10
866.54107414743021
 20
633.76416575883195
 11
867.19211451184992
 21
633.76416575883195
  0
LINE
  8
_0-2______1
  6
CONTINUOUS
 62
    7
 10
867.19211451184992
 20
633.76416575883195
 11
867.843154876271
 21
633.76416575883195
  0
LINE
  8
_0-2______1
  6
CONTINUOUS
 62
    7
 10
867.843154876271
 20
633.76416575883195
 11
869.12423430303397
 21
633.76416575883195
  0
LINE
  8
_0-2______1
  6
CONTINUOUS
 62
    7
 10
869.12423430303397
 20
633.76416575883195
 11
869.77527466745505
 21
633.76416575883195
  0
LINE
  8
_0-2______1
  6
CONTINUOUS
 62
    7
 10
996.22411447959303
 20
428.60244575803881
 11
996.8751548440132
 21
428.60244575803881
  0
LINE
  8
_0-2______1
  6
CONTINUOUS
 62
    7
 10
996.8751548440132
 20
428.60244575803881
 11
997.505193906356
 21
428.60244575803881
  0
LINE
  8
_0-2______1
  6
CONTINUOUS
 62
    7
 10
997.505193906356
 20
428.60244575803881
 11
997.505193906356
 21
429.23248482038207
  0
LINE
  8
_0-2______1
  6
CONTINUOUS
 62
    7
 10
997.505193906356
 20
429.23248482038207
 11
998.15623427077617
 21
429.23248482038207
  0
LINE
  8
_0-2______1
  6
CONTINUOUS
 62
    7
 10
681.37259372497192
 20
519.55908505821708
 11
680.74255466263003
 21
519.55908505821708
  0
LINE
  8
_0-2______1
  6
CONTINUOUS
 62
    7
 10
680.74255466263003
 20
519.55908505821708
 11
680.74255466263003
 21
520.86116578705787
  0
LINE
  8
_0-2______1
  6
CONTINUOUS
 62
    7
 10
680.74255466263003
 20
520.86116578705787
 11
680.09151429820895
 21
520.86116578705787
  0
LINE
  8
_0-2______1
  6
CONTINUOUS
 62
    7
 10
680.09151429820895
 20
520.86116578705787
 11
680.09151429820895
 21
521.49120484940022
  0
LINE
  8
_0-2______1
  6
CONTINUOUS
 62
    7
 10
1144.598313661249
 20
581.48929972372389
 11
1144.598313661249
 21
580.21084545972099
  0
LINE
  8
_0-2______1
  6
CONTINUOUS
 62
    7
 10
1144.598313661249
 20
580.21084545972099
 11
1143.9682745989062
 21
580.21084545972099
  0
LINE
  8
_0-2______1
  6
CONTINUOUS
 62
    7
 10
1143.9682745989062
 20
580.21084545972099
 11
1143.317234234486
 21
580.21084545972099
  0
LINE
  8
_0-2______1
  6
CONTINUOUS
 62
    7
 10
1143.317234234486
 20
580.21084545972099
 11
1142.6661938700649
 21
579.559805095299
  0
LINE
  8
_0-2______1
  6
CONTINUOUS
 62
    7
 10
1142.6661938700649
 20
579.559805095299
 11
1142.0361548077231
 21
579.559805095299
  0
LINE
  8
_0-2______1
  6
CONTINUOUS
 62
    7
 10
1142.0361548077231
 20
579.559805095299
 11
1141.385114443302
 21
579.559805095299
  0
LINE
  8
_0-2______1
  6
CONTINUOUS
 62
    7
 10
1141.385114443302
 20
579.559805095299
 11
1140.7340740788823
 21
579.559805095299
  0
LINE
  8
_0-2______1
  6
CONTINUOUS
 62
    7
 10
1140.7340740788823
 20
579.559805095299
 11
1140.0830337144612
 21
579.559805095299
  0
LINE
  8
_0-2______1
  6
CONTINUOUS
 62
    7
 10
1140.0830337144612
 20
579.559805095299
 11
1139.4529946521179
 21
579.559805095299
  0
LINE
  8
_0-2______1
  6
CONTINUOUS
 62
    7
 10
1139.4529946521179
 20
579.559805095299
 11
1138.8019542876982
 21
579.559805095299
  0
LINE
  8
_0-2______1
  6
CONTINUOUS
 62
    7
 10
1138.8019542876982
 20
579.559805095299
 11
1138.150913923278
 21
579.559805095299
  0
LINE
  8
_0-2______1
  6
CONTINUOUS
 62
    7
 10
1138.150913923278
 20
579.559805095299
 11
1137.5208748609352
 21
579.559805095299
  0
LINE
  8
_0-2______1
  6
CONTINUOUS
 62
    7
 10
991.70883453280521
 20
449.2493508635539
 11
991.70883453280521
 21
448.59831049913419
  0
LINE
  8
_0-2______1
  6
CONTINUOUS
 62
    7
 10
991.70883453280521
 20
448.59831049913419
 11
991.05779416838504
 21
447.94201980919297
  0
LINE
  8
_0-2______1
  6
CONTINUOUS
 62
    7
 10
991.05779416838504
 20
447.94201980919297
 11
990.40675380396397
 21
447.94201980919297
  0
LINE
  8
_0-2______1
  6
CONTINUOUS
 62
    7
 10
990.40675380396397
 20
447.94201980919297
 11
990.40675380396397
 21
447.31198074685199
  0
LINE
  8
_0-2______1
  6
CONTINUOUS
 62
    7
 10
990.40675380396397
 20
447.31198074685199
 11
989.77671474162116
 21
447.31198074685199
  0
LINE
  8
_0-2______1
  6
CONTINUOUS
 62
    7
 10
989.77671474162116
 20
447.31198074685199
 11
989.12567437720099
 21
447.31198074685199
  0
LINE
  8
_0-2______1
  6
CONTINUOUS
 62
    7
 10
989.12567437720099
 20
447.31198074685199
 11
988.47463401277992
 21
447.31198074685199
  0
LINE
  8
_0-2______1
  6
CONTINUOUS
 62
    7
 10
988.47463401277992
 20
447.31198074685199
 11
987.82359364835884
 21
447.31198074685199
  0
LINE
  8
_0-2______1
  6
CONTINUOUS
 62
    7
 10
987.82359364835884
 20
447.31198074685199
 11
987.82359364835884
 21
446.66356554519098
  0
LINE
  8
_0-2______1
  6
CONTINUOUS
 62
    7
 10
987.82359364835884
 20
446.66356554519098
 11
987.19355458601603
 21
446.66356554519098
  0
LINE
  8
_0-2______1
  6
CONTINUOUS
 62
    7
 10
987.19355458601603
 20
446.66356554519098
 11
986.54251422159723
 21
446.66356554519098
  0
LINE
  8
_0-2______1
  6
CONTINUOUS
 62
    7
 10
986.54251422159723
 20
446.66356554519098
 11
985.89147385717524
 21
446.66356554519098
  0
LINE
  8
_0-2______1
  6
CONTINUOUS
 62
    7
 10
985.89147385717524
 20
446.66356554519098
 11
985.89147385717524
 21
447.31198074685199
  0
LINE
  8
_0-2______1
  6
CONTINUOUS
 62
    7
 10
985.89147385717524
 20
447.31198074685199
 11
985.26143479483289
 21
447.31198074685199
  0
LINE
  8
_0-2______1
  6
CONTINUOUS
 62
    7
 10
985.26143479483289
 20
447.31198074685199
 11
984.61039443041318
 21
447.31198074685199
  0
LINE
  8
_0-2______1
  6
CONTINUOUS
 62
    7
 10
1181.371593599973
 20
588.59299015163515
 11
1181.371593599973
 21
589.24403051605623
  0
LINE
  8
_0-2______1
  6
CONTINUOUS
 62
    7
 10
1181.371593599973
 20
589.24403051605623
 11
1180.7415545376302
 21
589.24403051605623
  0
LINE
  8
_0-2______1
  6
CONTINUOUS
 62
    7
 10
680.09151429820895
 20
521.49120484940022
 11
680.74255466263003
 21
521.49120484940022
  0
LINE
  8
_0-2______1
  6
CONTINUOUS
 62
    7
 10
680.74255466263003
 20
521.49120484940022
 11
680.74255466263003
 21
522.79066041548094
  0
LINE
  8
_0-2______1
  6
CONTINUOUS
 62
    7
 10
863.95791399182508
 20
679.56538042837201
 11
863.95791399182508
 21
677.63588579994712
  0
LINE
  8
_0-2______1
  6
CONTINUOUS
 62
    7
 10
1047.1942746231002
 20
580.21084545972099
 11
1047.1942746231002
 21
579.559805095299
  0
LINE
  8
_0-2______1
  6
CONTINUOUS
 62
    7
 10
1047.1942746231002
 20
579.559805095299
 11
1046.5432342586801
 21
579.559805095299
  0
LINE
  8
_0-2______1
  6
CONTINUOUS
 62
    7
 10
1046.5432342586801
 20
579.559805095299
 11
1046.5432342586801
 21
578.28135083129609
  0
LINE
  8
_0-2______1
  6
CONTINUOUS
 62
    7
 10
1046.5432342586801
 20
578.28135083129609
 11
1045.892193894259
 21
578.28135083129609
  0
LINE
  8
_0-2______1
  6
CONTINUOUS
 62
    7
 10
984.61039443041318
 20
447.31460590961115
 11
983.9593540659921
 21
447.31460590961115
  0
LINE
  8
_0-2______1
  6
CONTINUOUS
 62
    7
 10
983.9593540659921
 20
447.31460590961115
 11
983.30831370157102
 21
447.31460590961115
  0
LINE
  8
_0-2______1
  6
CONTINUOUS
 62
    7
 10
983.30831370157102
 20
447.31460590961115
 11
983.30831370157102
 21
447.94201980919297
  0
LINE
  8
_0-2______1
  6
CONTINUOUS
 62
    7
 10
983.30831370157102
 20
447.94201980919297
 11
982.67827463922913
 21
447.94201980919297
  0
LINE
  8
_0-2______1
  6
CONTINUOUS
 62
    7
 10
982.67827463922913
 20
447.94201980919297
 11
982.67827463922913
 21
448.59831049913419
  0
LINE
  8
_0-2______1
  6
CONTINUOUS
 62
    7
 10
982.67827463922913
 20
448.59831049913419
 11
982.02723427480805
 21
448.59831049913419
  0
LINE
  8
_0-2______1
  6
CONTINUOUS
 62
    7
 10
982.02723427480805
 20
448.59831049913419
 11
982.02723427480805
 21
449.2493508635539
  0
LINE
  8
_0-2______1
  6
CONTINUOUS
 62
    7
 10
1137.5208748609352
 20
579.559805095299
 11
1137.5208748609352
 21
580.21084545972099
  0
LINE
  8
_0-2______1
  6
CONTINUOUS
 62
    7
 10
1137.5208748609352
 20
580.21084545972099
 11
1136.8698344965151
 21
580.21084545972099
  0
LINE
  8
_0-2______1
  6
CONTINUOUS
 62
    7
 10
1136.8698344965151
 20
580.21084545972099
 11
1136.218794132094
 21
580.21084545972099
  0
LINE
  8
_0-2______1
  6
CONTINUOUS
 62
    7
 10
1136.218794132094
 20
580.21084545972099
 11
1136.218794132094
 21
580.86188582414024
  0
LINE
  8
_0-2______1
  6
CONTINUOUS
 62
    7
 10
1136.218794132094
 20
580.86188582414024
 11
1135.5677537676729
 21
580.86188582414024
  0
LINE
  8
_0-2______1
  6
CONTINUOUS
 62
    7
 10
1135.5677537676729
 20
580.86188582414024
 11
1135.5677537676729
 21
581.48929972372389
  0
LINE
  8
_0-2______1
  6
CONTINUOUS
 62
    7
 10
762.66863406923221
 20
540.20599016373217
 11
762.01759370481113
 21
540.20599016373217
  0
LINE
  8
_0-2______1
  6
CONTINUOUS
 62
    7
 10
762.01759370481113
 20
540.20599016373217
 11
761.38755464246788
 21
540.20599016373217
  0
LINE
  8
_0-2______1
  6
CONTINUOUS
 62
    7
 10
761.38755464246788
 20
540.20599016373217
 11
761.38755464246788
 21
540.85703052815325
  0
LINE
  8
_0-2______1
  6
CONTINUOUS
 62
    7
 10
761.38755464246788
 20
540.85703052815325
 11
760.73651427804816
 21
540.85703052815325
  0
LINE
  8
_0-2______1
  6
CONTINUOUS
 62
    7
 10
760.73651427804816
 20
540.85703052815325
 11
760.08547391362708
 21
540.85703052815325
  0
LINE
  8
_0-2______1
  6
CONTINUOUS
 62
    7
 10
760.08547391362708
 20
540.85703052815325
 11
760.08547391362708
 21
541.50544572981289
  0
LINE
  8
_0-2______1
  6
CONTINUOUS
 62
    7
 10
760.08547391362708
 20
541.50544572981289
 11
759.45543485128383
 21
541.50544572981289
  0
LINE
  8
_0-2______1
  6
CONTINUOUS
 62
    7
 10
759.45543485128383
 20
541.50544572981289
 11
759.45543485128383
 21
542.13548479215615
  0
LINE
  8
_0-2______1
  6
CONTINUOUS
 62
    7
 10
759.45543485128383
 20
542.13548479215615
 11
758.80439448686411
 21
542.13548479215615
  0
LINE
  8
_0-2______1
  6
CONTINUOUS
 62
    7
 10
758.80439448686411
 20
542.13548479215615
 11
758.80439448686411
 21
543.43756552099694
  0
LINE
  8
_0-2______1
  6
CONTINUOUS
 62
    7
 10
946.53503376284789
 20
491.81899017582919
 11
945.90499470050599
 21
491.81899017582919
  0
LINE
  8
_0-2______1
  6
CONTINUOUS
 62
    7
 10
945.90499470050599
 20
491.81899017582919
 11
945.90499470050599
 21
491.18370078796715
  0
LINE
  8
_0-2______1
  6
CONTINUOUS
 62
    7
 10
945.90499470050599
 20
491.18370078796715
 11
945.25395433608492
 21
491.18370078796715
  0
LINE
  8
_0-2______1
  6
CONTINUOUS
 62
    7
 10
945.25395433608492
 20
491.18370078796715
 11
945.25395433608492
 21
490.53266042354699
  0
LINE
  8
_0-2______1
  6
CONTINUOUS
 62
    7
 10
945.25395433608492
 20
490.53266042354699
 11
944.60291397166384
 21
490.53266042354699
  0
LINE
  8
_0-2______1
  6
CONTINUOUS
 62
    7
 10
944.60291397166384
 20
490.53266042354699
 11
943.97287490932194
 21
490.53266042354699
  0
LINE
  8
_0-2______1
  6
CONTINUOUS
 62
    7
 10
943.97287490932194
 20
490.53266042354699
 11
943.32183454490223
 21
490.53266042354699
  0
LINE
  8
_0-2______1
  6
CONTINUOUS
 62
    7
 10
943.32183454490223
 20
490.53266042354699
 11
943.32183454490223
 21
489.88424522188598
  0
LINE
  8
_0-2______1
  6
CONTINUOUS
 62
    7
 10
943.32183454490223
 20
489.88424522188598
 11
942.67079418048115
 21
489.88424522188598
  0
LINE
  8
_0-2______1
  6
CONTINUOUS
 62
    7
 10
942.67079418048115
 20
489.88424522188598
 11
942.01975381606007
 21
489.88424522188598
  0
LINE
  8
_0-2______1
  6
CONTINUOUS
 62
    7
 10
942.01975381606007
 20
489.88424522188598
 11
941.38971475371818
 21
489.88424522188598
  0
LINE
  8
_0-2______1
  6
CONTINUOUS
 62
    7
 10
941.38971475371818
 20
489.88424522188598
 11
940.7386743892971
 21
489.88424522188598
  0
LINE
  8
_0-2______1
  6
CONTINUOUS
 62
    7
 10
940.7386743892971
 20
489.88424522188598
 11
940.08763402487602
 21
489.88424522188598
  0
LINE
  8
_0-2______1
  6
CONTINUOUS
 62
    7
 10
940.08763402487602
 20
489.88424522188598
 11
939.43659366045586
 21
489.88424522188598
  0
LINE
  8
_0-2______1
  6
CONTINUOUS
 62
    7
 10
939.43659366045586
 20
489.88424522188598
 11
938.80655459811305
 21
489.88424522188598
  0
LINE
  8
_0-2______1
  6
CONTINUOUS
 62
    7
 10
938.80655459811305
 20
489.88424522188598
 11
938.15551423369288
 21
489.88424522188598
  0
LINE
  8
_0-2______1
  6
CONTINUOUS
 62
    7
 10
938.15551423369288
 20
489.88424522188598
 11
937.50447386927317
 21
489.88424522188598
  0
LINE
  8
_0-2______1
  6
CONTINUOUS
 62
    7
 10
937.50447386927317
 20
489.88424522188598
 11
936.87443480692991
 21
489.88424522188598
  0
LINE
  8
_0-2______1
  6
CONTINUOUS
 62
    7
 10
936.87443480692991
 20
489.88424522188598
 11
936.22339444250883
 21
489.88424522188598
  0
LINE
  8
_0-2______1
  6
CONTINUOUS
 62
    7
 10
936.22339444250883
 20
489.88424522188598
 11
935.57235407808912
 21
489.88424522188598
  0
LINE
  8
_0-2______1
  6
CONTINUOUS
 62
    7
 10
1179.4394738087881
 20
587.30666039935295
 11
1180.0905141732092
 21
587.30666039935295
  0
LINE
  8
_0-2______1
  6
CONTINUOUS
 62
    7
 10
1180.0905141732092
 20
587.30666039935295
 11
1180.7415545376302
 21
587.30666039935295
  0
LINE
  8
_0-2______1
  6
CONTINUOUS
 62
    7
 10
997.505193906356
 20
429.23248482038207
 11
996.8751548440132
 21
429.23248482038207
  0
LINE
  8
_0-2______1
  6
CONTINUOUS
 62
    7
 10
1180.7415545376302
 20
589.24403051605623
 11
1180.7415545376302
 21
588.59299015163515
  0
LINE
  8
_0-2______1
  6
CONTINUOUS
 62
    7
 10
1180.7415545376302
 20
588.59299015163515
 11
1180.0905141732092
 21
588.59299015163515
  0
LINE
  8
_0-2______1
  6
CONTINUOUS
 62
    7
 10
1180.0905141732092
 20
588.59299015163515
 11
1180.0905141732092
 21
587.30666039935295
  0
LINE
  8
_0-2______1
  6
CONTINUOUS
 62
    7
 10
1180.0905141732092
 20
587.30666039935295
 11
1179.4394738087881
 21
587.30666039935295
  0
LINE
  8
_0-2______1
  6
CONTINUOUS
 62
    7
 10
863.95791399182508
 20
679.56538042837201
 11
864.60895435624616
 21
679.56538042837201
  0
LINE
  8
_0-2______1
  6
CONTINUOUS
 62
    7
 10
864.60895435624616
 20
679.56538042837201
 11
864.60895435624616
 21
680.22167111831095
  0
LINE
  8
_0-2______1
  6
CONTINUOUS
 62
    7
 10
864.60895435624616
 20
680.22167111831095
 11
865.25999472066724
 21
680.22167111831095
  0
LINE
  8
_0-2______1
  6
CONTINUOUS
 62
    7
 10
865.25999472066724
 20
680.22167111831095
 11
865.25999472066724
 21
680.84908501789505
  0
LINE
  8
_0-2______1
  6
CONTINUOUS
 62
    7
 10
862.67683456506211
 20
680.22167111831095
 11
862.67683456506211
 21
679.56538042837201
  0
LINE
  8
_0-2______1
  6
CONTINUOUS
 62
    7
 10
862.67683456506211
 20
679.56538042837201
 11
863.3278749294841
 21
679.56538042837201
  0
LINE
  8
_0-2______1
  6
CONTINUOUS
 62
    7
 10
863.3278749294841
 20
679.56538042837201
 11
863.95791399182508
 21
679.56538042837201
  0
LINE
  8
_0-2______1
  6
CONTINUOUS
 62
    7
 10
1001.390434790801
 20
423.43612544683083
 11
1002.0204738531429
 21
423.43612544683083
  0
LINE
  8
_0-2______1
  6
CONTINUOUS
 62
    7
 10
1002.0204738531429
 20
423.43612544683083
 11
1002.671514217564
 21
423.43612544683083
  0
LINE
  8
_0-2______1
  6
CONTINUOUS
 62
    7
 10
669.77987497786989
 20
520.21012542263679
 11
669.77987497786989
 21
518.93167115863298
  0
LINE
  8
_0-2______1
  6
CONTINUOUS
 62
    7
 10
669.77987497786989
 20
518.93167115863298
 11
670.40991404021315
 21
518.93167115863298
  0
LINE
  8
_0-2______1
  6
CONTINUOUS
 62
    7
 10
670.40991404021315
 20
518.93167115863298
 11
671.06095440463287
 21
518.93167115863298
  0
LINE
  8
_0-2______1
  6
CONTINUOUS
 62
    7
 10
1193.6363540135731
 20
733.11870072748297
 11
1193.6363540135731
 21
734.40240531700601
  0
LINE
  8
_0-2______1
  6
CONTINUOUS
 62
    7
 10
1193.6363540135731
 20
734.40240531700601
 11
1192.985313649152
 21
734.40240531700601
  0
LINE
  8
_0-2______1
  6
CONTINUOUS
 62
    7
 10
1192.985313649152
 20
734.40240531700601
 11
1192.985313649152
 21
735.05344568142709
  0
LINE
  8
_0-2______1
  6
CONTINUOUS
 62
    7
 10
1192.985313649152
 20
735.05344568142709
 11
1192.3552745868101
 21
735.05344568142709
  0
LINE
  8
_0-2______1
  6
CONTINUOUS
 62
    7
 10
669.77987497786989
 20
664.0926711223442
 11
669.77987497786989
 21
664.72008502192602
  0
LINE
  8
_0-2______1
  6
CONTINUOUS
 62
    7
 10
669.77987497786989
 20
664.72008502192602
 11
670.40991404021315
 21
664.72008502192602
  0
LINE
  8
_0-2______1
  6
CONTINUOUS
 62
    7
 10
671.06095440463287
 20
518.93167115863298
 11
671.71199476905394
 21
518.93167115863298
  0
LINE
  8
_0-2______1
  6
CONTINUOUS
 62
    7
 10
1002.0204738531429
 20
423.43612544683083
 11
1001.390434790801
 21
423.43612544683083
  0
LINE
  8
_0-2______1
  6
CONTINUOUS
 62
    7
 10
1193.6363540135731
 20
589.89244571771724
 11
1193.6363540135731
 21
590.52248478005913
  0
LINE
  8
_0-2______1
  6
CONTINUOUS
 62
    7
 10
1193.6363540135731
 20
590.52248478005913
 11
1192.985313649152
 21
590.52248478005913
  0
LINE
  8
_0-2______1
  6
CONTINUOUS
 62
    7
 10
1192.3552745868101
 20
735.05344568142709
 11
1192.985313649152
 21
735.05344568142709
  0
LINE
  8
_0-2______1
  6
CONTINUOUS
 62
    7
 10
1192.985313649152
 20
735.05344568142709
 11
1192.985313649152
 21
733.753990115345
  0
LINE
  8
_0-2______1
  6
CONTINUOUS
 62
    7
 10
1190.423154795626
 20
587.95770076377312
 11
1191.0531938579679
 21
587.95770076377312
  0
LINE
  8
_0-2______1
  6
CONTINUOUS
 62
    7
 10
1191.0531938579679
 20
587.95770076377312
 11
1191.704234222389
 21
587.95770076377312
  0
LINE
  8
_0-2______1
  6
CONTINUOUS
 62
    7
 10
1001.390434790801
 20
423.43612544683083
 11
1001.390434790801
 21
424.087165811251
  0
LINE
  8
_0-2______1
  6
CONTINUOUS
 62
    7
 10
1001.390434790801
 20
424.087165811251
 11
1000.7393944263808
 21
424.087165811251
  0
LINE
  8
_0-2______1
  6
CONTINUOUS
 62
    7
 10
1000.7393944263808
 20
424.087165811251
 11
1000.7393944263808
 21
426.01666043967498
  0
LINE
  8
_0-2______1
  6
CONTINUOUS
 62
    7
 10
862.02579420064194
 20
682.78120480907819
 11
862.02579420064194
 21
683.4322451734979
  0
LINE
  8
_0-2______1
  6
CONTINUOUS
 62
    7
 10
669.77987497786989
 20
664.0926711223442
 11
669.77987497786989
 21
664.72008502192602
  0
LINE
  8
_0-2______1
  6
CONTINUOUS
 62
    7
 10
669.77987497786989
 20
664.72008502192602
 11
670.40991404021315
 21
664.72008502192602
  0
LINE
  8
_0-2______1
  6
CONTINUOUS
 62
    7
 10
669.77987497786989
 20
663.43638043240298
 11
669.77987497786989
 21
664.0926711223442
  0
LINE
  8
_0-2______1
  6
CONTINUOUS
 62
    7
 10
860.74471477387897
 20
829.89270070328894
 11
860.74471477387897
 21
829.24166033886922
  0
LINE
  8
_0-2______1
  6
CONTINUOUS
 62
    7
 10
860.74471477387897
 20
829.24166033886922
 11
860.09367440945789
 21
829.24166033886922
  0
LINE
  8
_0-2______1
  6
CONTINUOUS
 62
    7
 10
860.09367440945789
 20
829.24166033886922
 11
860.09367440945789
 21
828.59324513720821
  0
LINE
  8
_0-2______1
  6
CONTINUOUS
 62
    7
 10
1192.985313649152
 20
733.753990115345
 11
1193.6363540135731
 21
733.753990115345
  0
LINE
  8
_0-2______1
  6
CONTINUOUS
 62
    7
 10
1193.6363540135731
 20
733.753990115345
 11
1193.6363540135731
 21
733.11870072748297
  0
LINE
  8
_0-2______1
  6
CONTINUOUS
 62
    7
 10
862.67683456506211
 20
829.24166033886922
 11
862.67683456506211
 21
830.52799009115097
  0
LINE
  8
_0-2______1
  6
CONTINUOUS
 62
    7
 10
862.67683456506211
 20
830.52799009115097
 11
862.02579420064194
 21
830.52799009115097
  0
LINE
  8
_0-2______1
  6
CONTINUOUS
 62
    7
 10
860.09367440945789
 20
828.59324513720821
 11
860.09367440945789
 21
829.24166033886922
  0
LINE
  8
_0-2______1
  6
CONTINUOUS
 62
    7
 10
860.09367440945789
 20
829.24166033886922
 11
860.74471477387897
 21
829.24166033886922
  0
LINE
  8
_0-2______1
  6
CONTINUOUS
 62
    7
 10
860.74471477387897
 20
829.24166033886922
 11
861.37475383622223
 21
829.24166033886922
  0
LINE
  8
_0-2______1
  6
CONTINUOUS
 62
    7
 10
861.37475383622223
 20
829.24166033886922
 11
862.02579420064194
 21
829.24166033886922
  0
LINE
  8
_0-2______1
  6
CONTINUOUS
 62
    7
 10
862.02579420064194
 20
829.24166033886922
 11
862.67683456506211
 21
829.24166033886922
  0
LINE
  8
_0-2______1
  6
CONTINUOUS
 62
    7
 10
669.77987497786989
 20
520.86116578705787
 11
669.77987497786989
 21
520.21012542263679
  0
LINE
  8
_0-2______1
  6
CONTINUOUS
 62
    7
 10
671.71199476905394
 20
518.93167115863298
 11
671.06095440463287
 21
518.93167115863298
  0
LINE
  8
_0-2______1
  6
CONTINUOUS
 62
    7
 10
671.06095440463287
 20
518.93167115863298
 11
670.40991404021315
 21
519.55908505821708
  0
LINE
  8
_0-2______1
  6
CONTINUOUS
 62
    7
 10
670.40991404021315
 20
519.55908505821708
 11
669.77987497786989
 21
519.55908505821708
  0
LINE
  8
_0-2______1
  6
CONTINUOUS
 62
    7
 10
669.77987497786989
 20
519.55908505821708
 11
669.77987497786989
 21
520.86116578705787
  0
LINE
  8
_0-2______1
  6
CONTINUOUS
 62
    7
 10
671.71199476905394
 20
518.93167115863298
 11
672.34203383139584
 21
518.93167115863298
  0
LINE
  8
_0-2______1
  6
CONTINUOUS
 62
    7
 10
672.34203383139584
 20
518.93167115863298
 11
672.99307419581601
 21
518.93167115863298
  0
LINE
  8
_0-2______1
  6
CONTINUOUS
 62
    7
 10
672.99307419581601
 20
518.93167115863298
 11
672.99307419581601
 21
519.55908505821708
  0
LINE
  8
_0-2______1
  6
CONTINUOUS
 62
    7
 10
672.99307419581601
 20
519.55908505821708
 11
673.64411456023709
 21
519.55908505821708
  0
LINE
  8
_0-2______1
  6
CONTINUOUS
 62
    7
 10
862.67683456506211
 20
686.0180304918631
 11
862.02579420064194
 21
686.0180304918631
  0
LINE
  8
_0-2______1
  6
CONTINUOUS
 62
    7
 10
862.02579420064194
 20
686.0180304918631
 11
861.37475383622223
 21
686.0180304918631
  0
LINE
  8
_0-2______1
  6
CONTINUOUS
 62
    7
 10
861.37475383622223
 20
686.0180304918631
 11
860.74471477387897
 21
685.36699012744202
  0
LINE
  8
_0-2______1
  6
CONTINUOUS
 62
    7
 10
860.74471477387897
 20
685.36699012744202
 11
860.09367440945789
 21
685.36699012744202
  0
LINE
  8
_0-2______1
  6
CONTINUOUS
 62
    7
 10
862.02579420064194
 20
683.4322451734979
 11
862.02579420064194
 21
684.08066037515891
  0
LINE
  8
_0-2______1
  6
CONTINUOUS
 62
    7
 10
862.02579420064194
 20
684.08066037515891
 11
862.67683456506211
 21
684.08066037515891
  0
LINE
  8
_0-2______1
  6
CONTINUOUS
 62
    7
 10
862.67683456506211
 20
684.08066037515891
 11
862.67683456506211
 21
686.01540532910212
  0
LINE
  8
_0-2______1
  6
CONTINUOUS
 62
    7
 10
860.09367440945789
 20
685.36699012744202
 11
860.09367440945789
 21
684.73170073957999
  0
LINE
  8
_0-2______1
  6
CONTINUOUS
 62
    7
 10
860.09367440945789
 20
684.73170073957999
 11
860.74471477387897
 21
684.73170073957999
  0
LINE
  8
_0-2______1
  6
CONTINUOUS
 62
    7
 10
860.74471477387897
 20
684.73170073957999
 11
860.74471477387897
 21
684.08066037515891
  0
LINE
  8
_0-2______1
  6
CONTINUOUS
 62
    7
 10
860.74471477387897
 20
684.08066037515891
 11
861.37475383622223
 21
684.08066037515891
  0
LINE
  8
_0-2______1
  6
CONTINUOUS
 62
    7
 10
861.37475383622223
 20
684.08066037515891
 11
861.37475383622223
 21
683.4322451734979
  0
LINE
  8
_0-2______1
  6
CONTINUOUS
 62
    7
 10
861.37475383622223
 20
683.4322451734979
 11
862.02579420064194
 21
683.4322451734979
  0
LINE
  8
_0-2______1
  6
CONTINUOUS
 62
    7
 10
1191.704234222389
 20
587.95770076377312
 11
1192.3552745868101
 21
587.95770076377312
  0
LINE
  8
_0-2______1
  6
CONTINUOUS
 62
    7
 10
1192.3552745868101
 20
587.95770076377312
 11
1192.985313649152
 21
587.95770076377312
  0
LINE
  8
_0-2______1
  6
CONTINUOUS
 62
    7
 10
1192.985313649152
 20
587.95770076377312
 11
1192.985313649152
 21
588.59299015163515
  0
LINE
  8
_0-2______1
  6
CONTINUOUS
 62
    7
 10
1192.985313649152
 20
590.52248478005913
 11
1192.985313649152
 21
589.24403051605623
  0
LINE
  8
_0-2______1
  6
CONTINUOUS
 62
    7
 10
1192.985313649152
 20
589.24403051605623
 11
1192.3552745868101
 21
589.24403051605623
  0
LINE
  8
_0-2______1
  6
CONTINUOUS
 62
    7
 10
1192.3552745868101
 20
589.24403051605623
 11
1192.3552745868101
 21
588.59299015163515
  0
LINE
  8
_0-2______1
  6
CONTINUOUS
 62
    7
 10
1192.3552745868101
 20
588.59299015163515
 11
1191.704234222389
 21
588.59299015163515
  0
LINE
  8
_0-2______1
  6
CONTINUOUS
 62
    7
 10
1191.704234222389
 20
588.59299015163515
 11
1191.704234222389
 21
587.95770076377312
  0
LINE
  8
_0-2______1
  6
CONTINUOUS
 62
    7
 10
1001.390434790801
 20
423.43612544683083
 11
1000.7393944263808
 21
423.43612544683083
  0
LINE
  8
_0-2______1
  6
CONTINUOUS
 62
    7
 10
704.60003382333207
 20
542.78652515657723
 11
704.60003382333207
 21
542.13548479215615
  0
LINE
  8
_0-2______1
  6
CONTINUOUS
 62
    7
 10
820.08619395071082
 20
642.14631045074702
 11
820.73723431513099
 21
642.14631045074702
  0
LINE
  8
_0-2______1
  6
CONTINUOUS
 62
    7
 10
840.73047389346584
 20
660.20480507513912
 11
840.73047389346584
 21
659.55376471071804
  0
ENDSEC
  0
EOF
