  0
SECTION
  2
HEADER
  9
$ACADVER
  1
AC1009
  9
$INSBASE
 10
0
 20
0
 30
0
  9
$EXTMIN
 10
0
 20
0
  9
$EXTMAX
 10
2376
 20
1680
  9
$LIMMIN
 10
0
 20
0
  9
$LIMMAX
 10
2376
 20
1680
  9
$LTSCALE
 40
8
  0
ENDSEC
  0
SECTION
  2
TABLES
  0
TABLE
  2
LTYPE
 70
     9
  0
LTYPE
  2
CONTINUOUS
 70
    64
  3
実線
 72
    65
 73
     0
 40
0.0
  0
LTYPE
  2
DASHED1
 70
    64
  3
--  --  --  --  --  --  --  --  
 72
    65
 73
     2
 40
2.5
 49
1.25
 49
-1.25
  0
LTYPE
  2
DASHED2
 70
    64
  3
----    ----    ----    ----    
 72
    65
 73
     2
 40
5.0
 49
2.5
 49
-2.5
  0
LTYPE
  2
DASHED3
 70
    64
  3
------  ------  ------  ------  
 72
    65
 73
     2
 40
5.0
 49
3.75
 49
-1.25
  0
LTYPE
  2
CENTER1
 70
    64
  3
----- - ----- - ----- - ----- - 
 72
    65
 73
     4
 40
10.0
 49
6.25
 49
-1.25
 49
1.25
 49
-1.25
  0
LTYPE
  2
CENTER2
 70
    64
  3
----------  --  ----------  --  
 72
    65
 73
     4
 40
20.0
 49
12.5
 49
-2.5
 49
2.5
 49
-2.5
  0
LTYPE
  2
PHANTOM1
 70
    64
  3
--- - - --- - - --- - - --- - - 
 72
    65
 73
     6
 40
10.0
 49
3.25
 49
-1.25
 49
1.25
 49
-1.25
 49
1.25
 49
-1.25
  0
LTYPE
  2
PHANTOM2
 70
    64
  3
--------  -  -  --------  -  -  
 72
    65
 73
     6
 40
20.0
 49
10.0
 49
-2.5
 49
1.25
 49
-2.5
 49
1.25
 49
-2.5
  0
LTYPE
  2
DOT
 70
    64
  3
-   -   -   -   -   -   -   -   
 72
    65
 73
     2
 40
2.5
 49
0.625
 49
-1.875
  0
LTYPE
  2
DUMMY
 70
    64
  3
ダミー
 72
    65
 73
     0
 40
0.0
  0
LTYPE
  2
RAND1
 70
    64
  3
ランダム線1
 72
    65
 73
     4
 40
10.0
 49
1.0
 49
-2.0
 49
3.0
 49
-4.0
  0
LTYPE
  2
RAND2
 70
    64
  3
ランダム線2
 72
    65
 73
     4
 40
14.0
 49
2.0
 49
-3.0
 49
4.0
 49
-5.0
  0
LTYPE
  2
RAND3
 70
    64
  3
ランダム線3
 72
    65
 73
     4
 40
18.0
 49
3.0
 49
-4.0
 49
5.0
 49
-6.0
  0
LTYPE
  2
RAND4
 70
    64
  3
ランダム線4
 72
    65
 73
     4
 40
22.0
 49
4.0
 49
-5.0
 49
6.0
 49
-7.0
  0
LTYPE
  2
RAND5
 70
    64
  3
ランダム線5
 72
    65
 73
     4
 40
26.0
 49
5.0
 49
-6.0
 49
7.0
 49
-8.0
  0
LTYPE
  2
LONG1
 70
    64
  3
----------  --  ----------  --  
 72
    65
 73
     4
 40
40.0
 49
32.5
 49
-2.5
 49
2.5
 49
-2.5
  0
LTYPE
  2
LONG2
 70
    64
  3
--------  -  -  --------  -  -  
 72
    65
 73
     6
 40
40.0
 49
30.0
 49
-2.5
 49
1.25
 49
-2.5
 49
1.25
 49
-2.5
  0
LTYPE
  2
LONG3
 70
    64
  3
+++++++++++++++..+++++++++++++++
 72
    65
 73
     2
 40
40.0
 49
37.5
 49
-2.5
  0
LTYPE
  2
LONG4
 70
    64
  3
+++++++++++++++..+++++++++++++++
 72
    65
 73
     2
 40
80.0
 49
75.0
 49
-5.0
  0
LTYPE
  2
LONG5
 70
    64
  3
----------  --  ----------  --  
 72
    65
 73
     4
 40
60.0
 49
37.5
 49
-7.5
 49
7.5
 49
-7.5
  0
LTYPE
  2
dashed
 70
   64
  3
-------   -------------   ------
 72
   65
 73
    2
 40
7.5
 49
6
 49
-1.5
  0
LTYPE
  2
dashed_spaced
 70
   64
  3
----        --------        ----
 72
   65
 73
    2
 40
12
 49
6
 49
-6
  0
LTYPE
  2
long_dashed_dotted
 70
   64
  3
------------- --- --------------
 72
   65
 73
    4
 40
15.25
 49
12
 49
-1.5
 49
0.25
 49
-1.5
  0
LTYPE
  2
long_dashed_double-dotted
 70
   64
  3
----------- --- --- ------------
 72
   65
 73
    6
 40
17
 49
12
 49
-1.5
 49
0.25
 49
-1.5
 49
0.25
 49
-1.5
  0
LTYPE
  2
long_dashed_triplicate-dotted
 70
   64
  3
--------- --- --- --- ----------
 72
   65
 73
    8
 40
18.75
 49
12
 49
-1.5
 49
0.25
 49
-1.5
 49
0.25
 49
-1.5
 49
0.25
 49
-1.5
  0
LTYPE
  2
dotted
 70
   64
  3
   -       -       -       -    
 72
   65
 73
    2
 40
1.75
 49
0.25
 49
-1.5
  0
LTYPE
  2
chain
 70
   64
  3
-------------- -- --------------
 72
   65
 73
    4
 40
18.5
 49
12
 49
-1.5
 49
3.5
 49
-1.5
  0
LTYPE
  2
chain_double_dash
 70
   64
  3
------------ -- -- -------------
 72
   65
 73
    6
 40
23.5
 49
12
 49
-1.5
 49
3.5
 49
-1.5
 49
3.5
 49
-1.5
  0
LTYPE
  2
dashed_dotted
 70
   64
  3
-----------     -     ----------
 72
   65
 73
    4
 40
9.25
 49
6
 49
-1.5
 49
0.25
 49
-1.5
  0
LTYPE
  2
double-dashed_dotted
 70
   64
  3
------   -----------   -   -----
 72
   65
 73
    6
 40
16.75
 49
6
 49
-1.5
 49
6
 49
-1.5
 49
0.25
 49
-1.5
  0
LTYPE
  2
dashed_double-dotted
 70
   64
  3
---------    -    -    ---------
 72
   65
 73
    6
 40
11
 49
6
 49
-1.5
 49
0.25
 49
-1.5
 49
0.25
 49
-1.5
  0
LTYPE
  2
double-dashed_double-dotted
 70
   64
  3
-----   ---------   -   -   ----
 72
   65
 73
    8
 40
18.5
 49
6
 49
-1.5
 49
6
 49
-1.5
 49
0.25
 49
-1.5
 49
0.25
 49
-1.5
  0
LTYPE
  2
dashed_triplicate-dotted
 70
   64
  3
-------    -    -    -    ------
 72
   65
 73
    8
 40
12.75
 49
6
 49
-1.5
 49
0.25
 49
-1.5
 49
0.25
 49
-1.5
 49
0.25
 49
-1.5
  0
LTYPE
  2
double-dashed_triplicate-dotted
 70
   64
  3
-----  ---------  -  -  -  -----
 72
   65
 73
   10
 40
20.25
 49
6
 49
-1.5
 49
6
 49
-1.5
 49
0.25
 49
-1.5
 49
0.25
 49
-1.5
 49
0.25
 49
-1.5
  0
LTYPE
  2
undefined
 70
   64
  3
--------------------------------
 72
   65
 73
    0
 40
0
  0
LTYPE
  2
_
 70
   64
  3
                                
 72
   65
 73
    0
 40
0
  0
LTYPE
  2
__18
 70
   64
  3
                                
 72
   65
 73
    0
 40
0
  0
LTYPE
  2
__19
 70
   64
  3
                                
 72
   65
 73
    0
 40
0
  0
LTYPE
  2
__20
 70
   64
  3
                                
 72
   65
 73
    0
 40
0
  0
LTYPE
  2
__21
 70
   64
  3
                                
 72
   65
 73
    0
 40
0
  0
LTYPE
  2
__22
 70
   64
  3
                                
 72
   65
 73
    0
 40
0
  0
LTYPE
  2
__23
 70
   64
  3
                                
 72
   65
 73
    0
 40
0
  0
LTYPE
  2
__24
 70
   64
  3
                                
 72
   65
 73
    0
 40
0
  0
LTYPE
  2
__25
 70
   64
  3
                                
 72
   65
 73
    0
 40
0
  0
LTYPE
  2
__26
 70
   64
  3
                                
 72
   65
 73
    0
 40
0
  0
LTYPE
  2
__27
 70
   64
  3
                                
 72
   65
 73
    0
 40
0
  0
LTYPE
  2
__28
 70
   64
  3
                                
 72
   65
 73
    0
 40
0
  0
LTYPE
  2
__29
 70
   64
  3
                                
 72
   65
 73
    0
 40
0
  0
LTYPE
  2
__30
 70
   64
  3
                                
 72
   65
 73
    0
 40
0
  0
LTYPE
  2
__31
 70
   64
  3
                                
 72
   65
 73
    0
 40
0
  0
LTYPE
  2
__32
 70
   64
  3
                                
 72
   65
 73
    0
 40
0
  0
ENDTAB
  0
TABLE
  2
STYLE
  5
3
100
AcDbSymbolTable
 70
     1
  0
STYLE
  5
10
100
AcDbSymbolTableRecord
100
AcDbTextStyleTableRecord
  2
STANDARD
 70
     0
 40
0.0
 41
1.0
 50
0.0
 71
     0
 42
0.2
  3
txt
  4
bigfont.shx
  0
STYLE
  5
26
100
AcDbSymbolTableRecord
100
AcDbTextStyleTableRecord
  2
TATEGAKI
 70
    68
 40
0.0
 41
1.0
 50
0.0
 71
     0
 42
1.0
  3
txt
  4
bigfont.shx
  0
ENDTAB
  0
TABLE
  2
LAYER
 70
    3
  0
LAYER
  2
_0-0_0
 70
   64
 62
    7
  6
CONTINUOUS
  0
LAYER
  2
_0-2______1
 70
   64
 62
    7
  6
CONTINUOUS
  0
LAYER
  2
ADD_LINE
 70
   64
 62
    7
  6
CONTINUOUS
  0
ENDTAB
  0
ENDSEC
  0
SECTION
  2
BLOCKS
  0
BLOCK
  2
-000-SPECEL-M6010NAM10L
 70
   64
 10
0
 20
0
 30
0
  0
TEXT
  8
_0-3_SPEC
 62
    7
 10
0
 20
0
 40
1.5
 41
1
 50
0
  1
ｴｸｽﾃﾘｱ 昼白色(5000K) Ra75
  0
TEXT
  8
_0-3_SPEC
 62
    7
 10
0
 20
-3
 40
1.5
 41
1
 50
0
  1
100V~242V共用ﾀｲﾌﾟ
  0
TEXT
  8
_0-3_SPEC
 62
    7
 10
0
 20
-6
 40
1.5
 41
1
 50
0
  1
本体:ｽﾃﾝﾚｽ 黒色塗装仕上
  0
TEXT
  8
_0-3_SPEC
 62
    7
 10
0
 20
-9
 40
1.5
 41
1
 50
0
  1
光源寿命:60,000時間(光束維持率90%)
  0
ENDBLK
  0
ENDSEC
  0
SECTION
  2
ENTITIES
  0
TEXT
  8
_0-0_0
 62
    7
 10
-25.719480549093987
 20
1854.96737895357
 40
114.3
 41
1
 50
0
  1
LED42.7W×１　 街路灯
  0
TEXT
  8
_0-0_0
 62
    7
 10
-25.719480549093987
 20
-278.63249404642693
 40
114.3
 41
1
 50
0
  1
三菱 EL-M6010N +EL-X0055 +AM10L 
  0
LINE
  8
_0-2______1
  6
CONTINUOUS
 62
    1
 10
507.63942366263291
 20
865.10145118551509
 11
507.63942366263291
 21
1008.332956520801
  0
LINE
  8
_0-2______1
  6
CONTINUOUS
 62
    1
 10
518.60210334739304
 20
867.0309458139368
 11
518.60210334739304
 21
869.61673113230199
  0
LINE
  8
_0-2______1
  6
CONTINUOUS
 62
    1
 10
507.63942366263291
 20
1008.332956520801
 11
697.9532230942209
 21
1172.833530535665
  0
LINE
  8
_0-2______1
  6
CONTINUOUS
 62
    1
 10
600.52818275399522
 20
884.44627556218893
 11
600.52818275399522
 21
886.375770190612
  0
LINE
  8
_0-2______1
  6
CONTINUOUS
 62
    1
 10
601.17922311841494
 20
886.375770190612
 11
601.17922311841494
 21
888.32889128387296
  0
LINE
  8
_0-2______1
  6
CONTINUOUS
 62
    1
 10
838.59894311114431
 20
770.25694583813083
 11
512.78474267176307
 21
865.10145118551509
  0
LINE
  8
_0-2______1
  6
CONTINUOUS
 62
    1
 10
835.36474259111901
 20
773.47277021883792
 11
519.88318277415601
 21
865.10145118551509
  0
LINE
  8
_0-2______1
  6
CONTINUOUS
 62
    1
 10
697.9532230942209
 20
1172.833530535665
 11
697.9532230942209
 21
1029.6072755258979
  0
LINE
  8
_0-2______1
  6
CONTINUOUS
 62
    1
 10
700.53638324982512
 20
1027.021490207535
 11
700.53638324982512
 21
1024.4619565167682
  0
LINE
  8
_0-2______1
  6
CONTINUOUS
 62
    1
 10
700.53638324982512
 20
1030.2583158903199
 11
700.53638324982512
 21
1173.481945737326
  0
LINE
  8
_0-2______1
  6
CONTINUOUS
 62
    1
 10
697.9532230942209
 20
1029.6072755258979
 11
507.63942366263291
 21
865.10145118551509
  0
LINE
  8
_0-2______1
  6
CONTINUOUS
 62
    1
 10
679.8921033070701
 20
1008.332956520801
 11
668.27838325789025
 21
998.64873110004419
  0
LINE
  8
_0-2______1
  6
CONTINUOUS
 62
    1
 10
659.24782336431417
 20
991.54766583489209
 11
647.63410331513387
 21
980.58498615013286
  0
LINE
  8
_0-2______1
  6
CONTINUOUS
 62
    1
 10
565.05698354411197
 20
908.97317122662889
 11
552.79222313051196
 21
898.63790544145422
  0
LINE
  8
_0-2______1
  6
CONTINUOUS
 62
    1
 10
544.41270360135695
 20
890.89105013739891
 11
532.14794318775603
 21
881.2304511814832
  0
LINE
  8
_0-2______1
  6
CONTINUOUS
 62
    1
 10
700.53638324982512
 20
1024.4619565167682
 11
691.50582335624995
 21
1016.7098508871959
  0
LINE
  8
_0-2______1
  6
CONTINUOUS
 62
    1
 10
637.30146269271791
 20
970.25759585323522
 11
576.67070359329227
 21
916.70427555412289
  0
LINE
  8
_0-2______1
  6
CONTINUOUS
 62
    1
 10
522.46634292976023
 20
870.24677019464389
 11
518.60210334739304
 21
867.0309458139368
  0
LINE
  8
_0-2______1
  6
CONTINUOUS
 62
    1
 10
519.88318277415601
 20
865.10145118551509
 11
523.11738329417994
 21
867.68198617835878
  0
LINE
  8
_0-2______1
  6
CONTINUOUS
 62
    1
 10
576.67070359329227
 20
914.11849023576087
 11
638.60354342155824
 21
967.02077017045121
  0
LINE
  8
_0-2______1
  6
CONTINUOUS
 62
    1
 10
692.13586241859321
 20
1013.4782755299302
 11
701.81746267658809
 21
1021.876171198403
  0
LINE
  8
_0-2______1
  6
CONTINUOUS
 62
    1
 10
703.11954340543025
 20
1025.0893704163518
 11
703.11954340543025
 21
1026.3914511451908
  0
LINE
  8
_0-2______1
  6
CONTINUOUS
 62
    1
 10
773.43190276285213
 20
838.6398105671301
 11
773.43190276285213
 21
836.71031593870521
  0
LINE
  8
_0-2______1
  6
CONTINUOUS
 62
    1
 10
773.43190276285213
 20
836.05927557428504
 11
773.43190276285213
 21
834.12453062034319
  0
LINE
  8
_0-2______1
  6
CONTINUOUS
 62
    1
 10
783.76454338526901
 20
837.98877020270993
 11
783.76454338526901
 21
839.9418912959718
  0
LINE
  8
_0-2______1
  6
CONTINUOUS
 62
    1
 10
784.3945824476109
 20
836.05927557428504
 11
784.3945824476109
 21
837.35873114036622
  0
LINE
  8
_0-2______1
  6
CONTINUOUS
 62
    1
 10
701.81746267658809
 20
1021.876171198403
 11
1017.2990224935511
 21
931.54694579781017
  0
LINE
  8
_0-2______1
  6
CONTINUOUS
 62
    1
 10
1018.6011032223932
 20
933.48431591451299
 11
703.11954340543025
 21
1025.0893704163518
  0
LINE
  8
_0-2______1
  6
CONTINUOUS
 62
    1
 10
1030.844862333915
 20
934.76277017851589
 11
700.53638324982512
 21
1030.2583158903199
  0
LINE
  8
_0-2______1
  6
CONTINUOUS
 62
    1
 10
882.47066315225902
 20
925.72958512218111
 11
882.47066315225902
 21
923.80009049375485
  0
LINE
  8
_0-2______1
  6
CONTINUOUS
 62
    1
 10
883.75174257902199
 20
923.80009049375485
 11
883.75174257902199
 21
922.52163622975195
  0
LINE
  8
_0-2______1
  6
CONTINUOUS
 62
    1
 10
1017.2990224935511
 20
931.54694579781017
 11
984.41098343927388
 21
902.50477018658012
  0
LINE
  8
_0-2______1
  6
CONTINUOUS
 62
    1
 10
975.38042354569825
 20
894.77366585908612
 11
868.92482331189512
 21
802.51494583006797
  0
LINE
  8
_0-2______1
  6
CONTINUOUS
 62
    1
 10
859.24322305389887
 20
794.76809052601493
 11
835.36474259111901
 21
773.47277021883792
  0
LINE
  8
_0-2______1
  6
CONTINUOUS
 62
    1
 10
1026.3295823871281
 20
933.48431591451299
 11
838.59894311114431
 21
770.25694583813083
  0
LINE
  8
_0-2______1
  6
CONTINUOUS
 62
    1
 10
700.53638324982512
 20
1173.481945737326
 11
1030.844862333915
 21
1077.9942755138022
  0
LINE
  8
_0-2______1
  6
CONTINUOUS
 62
    1
 10
1018.6011032223932
 20
935.41381054293697
 11
1018.6011032223932
 21
933.48431591451299
  0
LINE
  8
_0-2______1
  6
CONTINUOUS
 62
    1
 10
1030.844862333915
 20
1077.9942755138022
 11
1030.844862333915
 21
934.76277017851589
  0
LINE
  8
_0-2______1
  6
CONTINUOUS
 62
    1
 10
839.88002253790592
 20
767.67641084528714
 11
840.53106290232699
 21
767.67641084528714
  0
LINE
  8
_0-2______1
  6
CONTINUOUS
 62
    1
 10
507.63942366263291
 20
864.4504108210931
 11
507.63942366263291
 21
1007.6766658308602
  0
LINE
  8
_0-2______1
  6
CONTINUOUS
 62
    1
 10
517.95106298297196
 20
865.73149024785698
 11
517.95106298297196
 21
869.61673113230199
  0
LINE
  8
_0-2______1
  6
CONTINUOUS
 62
    1
 10
523.76842365860102
 20
873.4835958774288
 11
523.76842365860102
 21
874.76205014143216
  0
LINE
  8
_0-2______1
  6
CONTINUOUS
 62
    1
 10
544.41270360135695
 20
890.89105013739891
 11
544.41270360135695
 21
891.5420905018218
  0
LINE
  8
_0-2______1
  6
CONTINUOUS
 62
    1
 10
573.43650307326789
 20
917.35531591854578
 11
573.43650307326789
 21
916.70427555412289
  0
LINE
  8
_0-2______1
  6
CONTINUOUS
 62
    1
 10
574.08754343768805
 20
916.06898616626086
 11
574.08754343768805
 21
918.00373112020588
  0
LINE
  8
_0-2______1
  6
CONTINUOUS
 62
    1
 10
575.36862286445103
 20
918.63377018254823
 11
575.36862286445103
 21
914.76953060018104
  0
LINE
  8
_0-2______1
  6
CONTINUOUS
 62
    1
 10
576.67070359329227
 20
915.41794580184205
 11
576.67070359329227
 21
919.93585091138993
  0
LINE
  8
_0-2______1
  6
CONTINUOUS
 62
    1
 10
698.60426345864198
 20
1174.1329861017462
 11
508.26946272497617
 21
1008.9603704203828
  0
LINE
  8
_0-2______1
  6
CONTINUOUS
 62
    1
 10
838.59894311114431
 20
767.67641084528714
 11
508.92050308939588
 21
863.17195655708883
  0
LINE
  8
_0-2______1
  6
CONTINUOUS
 62
    1
 10
834.73470352877621
 20
773.47277021883792
 11
519.23214240973493
 21
864.4504108210931
  0
LINE
  8
_0-2______1
  6
CONTINUOUS
 62
    1
 10
525.04950308536399
 20
873.4835958774288
 11
523.76842365860102
 21
873.4835958774288
  0
LINE
  8
_0-2______1
  6
CONTINUOUS
 62
    1
 10
639.23358248390105
 20
974.11658511008318
 11
639.23358248390105
 21
974.7676254745038
  0
LINE
  8
_0-2______1
  6
CONTINUOUS
 62
    1
 10
647.63410331513387
 20
981.2202755379958
 11
647.63410331513387
 21
980.58498615013286
  0
LINE
  8
_0-2______1
  6
CONTINUOUS
 62
    1
 10
544.41270360135695
 20
891.5420905018218
 11
545.69378302811901
 21
890.89105013739891
  0
LINE
  8
_0-2______1
  6
CONTINUOUS
 62
    1
 10
773.43190276285213
 20
834.12453062034319
 11
600.52818275399522
 21
884.44627556218893
  0
LINE
  8
_0-2______1
  6
CONTINUOUS
 62
    1
 10
600.52818275399522
 20
886.375770190612
 11
773.43190276285213
 21
836.05927557428504
  0
LINE
  8
_0-2______1
  6
CONTINUOUS
 62
    1
 10
773.43190276285213
 20
836.71031593870521
 11
601.17922311841494
 21
886.375770190612
  0
LINE
  8
_0-2______1
  6
CONTINUOUS
 62
    1
 10
773.43190276285213
 20
838.6398105671301
 11
601.17922311841494
 21
888.32626612111517
  0
LINE
  8
_0-2______1
  6
CONTINUOUS
 62
    1
 10
565.05698354411197
 20
908.97317122662889
 11
565.68702260645523
 21
908.97317122662889
  0
LINE
  8
_0-2______1
  6
CONTINUOUS
 62
    1
 10
679.8921033070701
 20
1008.332956520801
 11
679.8921033070701
 21
1008.9603704203828
  0
LINE
  8
_0-2______1
  6
CONTINUOUS
 62
    1
 10
688.27162283622511
 20
1017.3608912516161
 11
688.27162283622511
 21
1016.0588105227739
  0
LINE
  8
_0-2______1
  6
CONTINUOUS
 62
    1
 10
689.5737035650659
 20
1016.0588105227739
 11
689.5737035650659
 21
1017.9883051511988
  0
LINE
  8
_0-2______1
  6
CONTINUOUS
 62
    1
 10
690.20374262740916
 20
1019.2956362055579
 11
690.20374262740916
 21
1014.1266907315912
  0
LINE
  8
_0-2______1
  6
CONTINUOUS
 62
    1
 10
691.50582335624995
 20
1015.4077701583551
 11
691.50582335624995
 21
1019.923050105142
  0
LINE
  8
_0-2______1
  6
CONTINUOUS
 62
    1
 10
511.5036632450001
 20
863.79937045667293
 11
699.88534288540495
 21
1027.021490207535
  0
LINE
  8
_0-2______1
  6
CONTINUOUS
 62
    1
 10
523.76842365860102
 20
873.4835958774288
 11
532.14794318775603
 21
881.2304511814832
  0
LINE
  8
_0-2______1
  6
CONTINUOUS
 62
    1
 10
544.41270360135695
 20
891.5420905018218
 11
552.79222313051196
 21
898.64053060421202
  0
LINE
  8
_0-2______1
  6
CONTINUOUS
 62
    1
 10
565.05698354411197
 20
908.97317122662889
 11
573.43650307326789
 21
916.70427555412289
  0
LINE
  8
_0-2______1
  6
CONTINUOUS
 62
    1
 10
639.23358248390105
 20
974.11658511008318
 11
647.63410331513387
 21
981.2202755379958
  0
LINE
  8
_0-2______1
  6
CONTINUOUS
 62
    1
 10
659.24782336431417
 20
991.54766583489209
 11
668.27838325789025
 21
998.64873110004419
  0
LINE
  8
_0-2______1
  6
CONTINUOUS
 62
    1
 10
679.8921033070701
 20
1008.9603704203828
 11
688.27162283622511
 21
1016.0588105227739
  0
LINE
  8
_0-2______1
  6
CONTINUOUS
 62
    1
 10
687.62058247180403
 20
1014.1293158943522
 11
637.95250305713807
 21
972.1870904816592
  0
LINE
  8
_0-2______1
  6
CONTINUOUS
 62
    1
 10
523.11738329417994
 20
871.54885092348604
 11
572.155423646504
 21
914.76690543742097
  0
LINE
  8
_0-2______1
  6
CONTINUOUS
 62
    1
 10
689.5737035650659
 20
1016.0588105227739
 11
687.62058247180403
 21
1014.1293158943522
  0
LINE
  8
_0-2______1
  6
CONTINUOUS
 62
    1
 10
574.08754343768805
 20
916.06898616626086
 11
572.78546270884726
 21
914.76953060018104
  0
LINE
  8
_0-2______1
  6
CONTINUOUS
 62
    1
 10
519.23214240973493
 20
863.79937045667293
 11
519.88318277415601
 21
865.10145118551509
  0
LINE
  8
_0-2______1
  6
CONTINUOUS
 62
    1
 10
692.13586241859321
 20
1008.9603704203828
 11
643.11882336834697
 21
966.39073110810796
  0
LINE
  8
_0-2______1
  6
CONTINUOUS
 62
    1
 10
528.28370360538929
 20
866.38253061227715
 11
577.30074265563508
 21
908.97317122662889
  0
LINE
  8
_0-2______1
  6
CONTINUOUS
 62
    1
 10
573.43650307326789
 20
916.70427555412289
 11
574.08754343768805
 21
916.06898616626086
  0
LINE
  8
_0-2______1
  6
CONTINUOUS
 62
    1
 10
597.31498353604729
 20
889.612595873396
 11
697.30218272980119
 21
976.07495652886382
  0
LINE
  8
_0-2______1
  6
CONTINUOUS
 62
    1
 10
639.88462284832212
 20
973.4891712105009
 11
639.23358248390105
 21
974.11658511008318
  0
LINE
  8
_0-2______1
  6
CONTINUOUS
 62
    1
 10
659.24782336431417
 20
991.54766583489209
 11
660.52890279107805
 21
991.54766583489209
  0
LINE
  8
_0-2______1
  6
CONTINUOUS
 62
    1
 10
707.63482335221806
 20
978.00445115728917
 11
881.16858242341732
 21
927.6879565409622
  0
LINE
  8
_0-2______1
  6
CONTINUOUS
 62
    1
 10
679.8921033070701
 20
1008.9603704203828
 11
681.17318273383307
 21
1008.332956520801
  0
LINE
  8
_0-2______1
  6
CONTINUOUS
 62
    1
 10
688.27162283622511
 20
1016.0588105227739
 11
689.5737035650659
 21
1016.0588105227739
  0
LINE
  8
_0-2______1
  6
CONTINUOUS
 62
    1
 10
834.08366316435604
 20
772.84273115649603
 11
834.08366316435604
 21
773.47277021883792
  0
LINE
  8
_0-2______1
  6
CONTINUOUS
 62
    1
 10
838.59894311114431
 20
775.42589131209888
 11
838.59894311114431
 21
770.25694583813083
  0
LINE
  8
_0-2______1
  6
CONTINUOUS
 62
    1
 10
699.88534288540495
 20
1027.021490207535
 11
1028.282703480389
 21
932.19798616222897
  0
LINE
  8
_0-2______1
  6
CONTINUOUS
 62
    1
 10
848.910582431482
 20
805.73077021077415
 11
848.910582431482
 21
803.80127558234881
  0
LINE
  8
_0-2______1
  6
CONTINUOUS
 62
    1
 10
856.66006289829511
 20
795.4191308904351
 11
856.66006289829511
 21
794.76809052601493
  0
LINE
  8
_0-2______1
  6
CONTINUOUS
 62
    1
 10
857.31110326271619
 20
797.34862551885817
 11
857.31110326271619
 21
796.07017125485481
  0
LINE
  8
_0-2______1
  6
CONTINUOUS
 62
    1
 10
858.59218268947825
 20
796.07017125485481
 11
858.59218268947825
 21
797.34862551885817
  0
LINE
  8
_0-2______1
  6
CONTINUOUS
 62
    1
 10
859.24322305389887
 20
797.99966588327879
 11
859.24322305389887
 21
796.697585154438
  0
LINE
  8
_0-2______1
  6
CONTINUOUS
 62
    1
 10
862.47742357392417
 20
795.4191308904351
 11
862.47742357392417
 21
796.07017125485481
  0
LINE
  8
_0-2______1
  6
CONTINUOUS
 62
    1
 10
868.27378294747405
 20
805.73077021077415
 11
868.27378294747405
 21
803.80127558234881
  0
LINE
  8
_0-2______1
  6
CONTINUOUS
 62
    1
 10
783.76454338526901
 20
839.9418912959718
 11
882.47066315225902
 21
925.72958512218111
  0
LINE
  8
_0-2______1
  6
CONTINUOUS
 62
    1
 10
783.76454338526901
 20
837.98877020270993
 11
882.47066315225902
 21
923.80009049375485
  0
LINE
  8
_0-2______1
  6
CONTINUOUS
 62
    1
 10
784.3945824476109
 20
837.35873114036622
 11
883.75174257902199
 21
923.80009049375485
  0
LINE
  8
_0-2______1
  6
CONTINUOUS
 62
    1
 10
883.75174257902199
 20
922.52163622975195
 11
784.3945824476109
 21
836.05927557428504
  0
LINE
  8
_0-2______1
  6
CONTINUOUS
 62
    1
 10
981.17678291924904
 20
927.6879565409622
 11
978.59362276364527
 21
925.10217122259701
  0
LINE
  8
_0-2______1
  6
CONTINUOUS
 62
    1
 10
963.76670349651795
 20
905.08530517942381
 11
963.76670349651795
 21
903.15581055099983
  0
LINE
  8
_0-2______1
  6
CONTINUOUS
 62
    1
 10
971.49518266125187
 20
895.42995654902597
 11
971.49518266125187
 21
894.77366585908612
  0
LINE
  8
_0-2______1
  6
CONTINUOUS
 62
    1
 10
972.79726339009403
 20
896.70841081302797
 11
972.79726339009403
 21
896.05737044860916
  0
LINE
  8
_0-2______1
  6
CONTINUOUS
 62
    1
 10
974.078342816857
 20
896.05737044860916
 11
974.078342816857
 21
897.35945117745086
  0
LINE
  8
_0-2______1
  6
CONTINUOUS
 62
    1
 10
974.72938318127808
 20
897.98949023979321
 11
974.72938318127808
 21
896.70841081302797
  0
LINE
  8
_0-2______1
  6
CONTINUOUS
 62
    1
 10
977.31254333688094
 20
895.42995654902597
 11
977.31254333688094
 21
896.05737044860916
  0
LINE
  8
_0-2______1
  6
CONTINUOUS
 62
    1
 10
978.59362276364527
 20
928.31537044054494
 11
978.59362276364527
 21
925.10217122259701
  0
LINE
  8
_0-2______1
  6
CONTINUOUS
 62
    1
 10
862.47742357392417
 20
806.38181057519387
 11
863.10746263626606
 21
807.03285093961586
  0
LINE
  8
_0-2______1
  6
CONTINUOUS
 62
    1
 10
977.94258239922419
 20
906.39263623378383
 11
979.24466312806499
 21
907.02005013336793
  0
LINE
  8
_0-2______1
  6
CONTINUOUS
 62
    1
 10
835.36474259111901
 20
773.47277021883792
 11
834.08366316435604
 21
772.84273115649603
  0
LINE
  8
_0-2______1
  6
CONTINUOUS
 62
    1
 10
1018.6011032223932
 20
931.54694579781017
 11
984.41098343927388
 21
901.87473112423822
  0
LINE
  8
_0-2______1
  6
CONTINUOUS
 62
    1
 10
976.66150297246122
 20
894.77366585908612
 11
868.92482331189512
 21
801.86653062840696
  0
LINE
  8
_0-2______1
  6
CONTINUOUS
 62
    1
 10
860.5243024806623
 20
794.76809052601493
 11
836.01578295553918
 21
773.47277021883792
  0
LINE
  8
_0-2______1
  6
CONTINUOUS
 62
    1
 10
840.53106290232699
 20
767.67641084528714
 11
1030.844862333915
 21
932.833275550091
  0
LINE
  8
_0-2______1
  6
CONTINUOUS
 62
    1
 10
1030.2148232715731
 20
1079.2937310798829
 11
699.88534288540495
 21
1174.7682754896082
  0
LINE
  8
_0-2______1
  6
CONTINUOUS
 62
    1
 10
983.10890271043309
 20
905.08530517942381
 11
983.10890271043309
 21
903.15581055099983
  0
LINE
  8
_0-2______1
  6
CONTINUOUS
 62
    1
 10
1019.2311422847361
 20
935.41381054293697
 11
1019.2311422847361
 21
932.833275550091
  0
LINE
  8
_0-2______1
  6
CONTINUOUS
 62
    1
 10
1031.4959026983361
 20
934.132731116174
 11
1031.4959026983361
 21
1077.3589861259402
  0
LINE
  8
_0-2______1
  6
CONTINUOUS
 62
    1
 10
552.14118276609088
 20
892.84417123066214
 11
552.14118276609088
 21
892.19313086624197
  0
LINE
  8
_0-2______1
  6
CONTINUOUS
 62
    1
 10
563.75490281527118
 20
902.50477018658012
 11
564.40594317969226
 21
902.50477018658012
  0
LINE
  8
_0-2______1
  6
CONTINUOUS
 62
    1
 10
564.40594317969226
 20
902.50477018658012
 11
565.05698354411197
 21
902.50477018658012
  0
LINE
  8
_0-2______1
  6
CONTINUOUS
 62
    1
 10
565.05698354411197
 20
902.50477018658012
 11
565.05698354411197
 21
901.87473112423822
  0
LINE
  8
_0-2______1
  6
CONTINUOUS
 62
    1
 10
543.76166323693587
 20
885.09731592661001
 11
544.41270360135695
 21
884.44627556218893
  0
LINE
  8
_0-2______1
  6
CONTINUOUS
 62
    1
 10
552.14118276609088
 20
892.19313086624197
 11
552.14118276609088
 21
891.5420905018218
  0
LINE
  8
_0-2______1
  6
CONTINUOUS
 62
    1
 10
552.14118276609088
 20
891.5420905018218
 11
552.79222313051196
 21
891.5420905018218
  0
LINE
  8
_0-2______1
  6
CONTINUOUS
 62
    1
 10
532.14794318775603
 20
874.76205014143216
 11
532.14794318775603
 21
874.13463624184988
  0
LINE
  8
_0-2______1
  6
CONTINUOUS
 62
    1
 10
532.14794318775603
 20
874.13463624184988
 11
532.79898355217711
 21
874.13463624184988
  0
LINE
  8
_0-2______1
  6
CONTINUOUS
 62
    1
 10
563.75490281527118
 20
903.15581055099983
 11
563.75490281527118
 21
902.50477018658012
  0
LINE
  8
_0-2______1
  6
CONTINUOUS
 62
    1
 10
543.11062287251616
 20
885.74573112827011
 11
543.76166323693587
 21
885.74573112827011
  0
LINE
  8
_0-2______1
  6
CONTINUOUS
 62
    1
 10
543.76166323693587
 20
885.74573112827011
 11
543.76166323693587
 21
885.09731592661001
  0
LINE
  8
_0-2______1
  6
CONTINUOUS
 62
    1
 10
551.49014240167116
 20
892.84417123066214
 11
552.14118276609088
 21
892.84417123066214
  0
LINE
  8
_0-2______1
  6
CONTINUOUS
 62
    1
 10
531.49690282333495
 20
875.41309050585278
 11
531.49690282333495
 21
874.76205014143216
  0
LINE
  8
_0-2______1
  6
CONTINUOUS
 62
    1
 10
531.49690282333495
 20
874.76205014143216
 11
532.14794318775603
 21
874.76205014143216
  0
LINE
  8
_0-2______1
  6
CONTINUOUS
 62
    1
 10
552.79222313051196
 20
891.5420905018218
 11
553.44326349493303
 21
891.5420905018218
  0
LINE
  8
_0-2______1
  6
CONTINUOUS
 62
    1
 10
532.79898355217711
 20
874.13463624184988
 11
532.79898355217711
 21
873.4835958774288
  0
LINE
  8
_0-2______1
  6
CONTINUOUS
 62
    1
 10
565.05698354411197
 20
901.22631592257721
 11
565.05698354411197
 21
901.87473112423822
  0
LINE
  8
_0-2______1
  6
CONTINUOUS
 62
    1
 10
545.0427426636993
 20
884.44627556218893
 11
544.41270360135695
 21
884.44627556218893
  0
LINE
  8
_0-2______1
  6
CONTINUOUS
 62
    1
 10
551.49014240167116
 20
893.47158513024397
 11
551.49014240167116
 21
892.84417123066214
  0
LINE
  8
_0-2______1
  6
CONTINUOUS
 62
    1
 10
530.84586245891524
 20
876.06413087027295
 11
530.84586245891524
 21
875.41309050585278
  0
LINE
  8
_0-2______1
  6
CONTINUOUS
 62
    1
 10
530.84586245891524
 20
875.41309050585278
 11
531.49690282333495
 21
875.41309050585278
  0
LINE
  8
_0-2______1
  6
CONTINUOUS
 62
    1
 10
563.10386245085101
 20
903.80685091542182
 11
563.75490281527118
 21
903.80685091542182
  0
LINE
  8
_0-2______1
  6
CONTINUOUS
 62
    1
 10
563.75490281527118
 20
903.80685091542182
 11
563.75490281527118
 21
903.15581055099983
  0
LINE
  8
_0-2______1
  6
CONTINUOUS
 62
    1
 10
543.11062287251616
 20
886.375770190612
 11
543.11062287251616
 21
885.74573112827011
  0
LINE
  8
_0-2______1
  6
CONTINUOUS
 62
    1
 10
546.9748624548829
 20
883.15994580990491
 11
547.62590281930306
 21
883.15994580990491
  0
LINE
  8
_0-2______1
  6
CONTINUOUS
 62
    1
 10
566.98910333529602
 20
901.22631592257721
 11
567.61914239763792
 21
901.22631592257721
  0
LINE
  8
_0-2______1
  6
CONTINUOUS
 62
    1
 10
534.73110334336025
 20
873.4835958774288
 11
535.36114240570305
 21
873.4835958774288
  0
LINE
  8
_0-2______1
  6
CONTINUOUS
 62
    1
 10
555.37538328611618
 20
890.89105013739891
 11
556.02642365053589
 21
890.89105013739891
  0
LINE
  8
_0-2______1
  6
CONTINUOUS
 62
    1
 10
547.62590281930306
 20
883.8109861743269
 11
548.27694318372414
 21
883.8109861743269
  0
LINE
  8
_0-2______1
  6
CONTINUOUS
 62
    1
 10
548.27694318372414
 20
883.8109861743269
 11
548.27694318372414
 21
884.44627556218893
  0
LINE
  8
_0-2______1
  6
CONTINUOUS
 62
    1
 10
568.27018276205808
 20
901.22631592257721
 11
568.92122312647916
 21
901.22631592257721
  0
LINE
  8
_0-2______1
  6
CONTINUOUS
 62
    1
 10
543.76166323693587
 20
889.612595873396
 11
543.11062287251616
 21
889.612595873396
  0
LINE
  8
_0-2______1
  6
CONTINUOUS
 62
    1
 10
543.11062287251616
 20
889.612595873396
 11
543.11062287251616
 21
888.95630518345706
  0
LINE
  8
_0-2______1
  6
CONTINUOUS
 62
    1
 10
536.01218277012322
 20
873.4835958774288
 11
536.6632231345443
 21
873.4835958774288
  0
LINE
  8
_0-2______1
  6
CONTINUOUS
 62
    1
 10
556.02642365053589
 20
890.89105013739891
 11
556.65646271287915
 21
890.89105013739891
  0
LINE
  8
_0-2______1
  6
CONTINUOUS
 62
    1
 10
556.65646271287915
 20
890.89105013739891
 11
556.65646271287915
 21
891.5420905018218
  0
LINE
  8
_0-2______1
  6
CONTINUOUS
 62
    1
 10
552.14118276609088
 20
896.70841081302797
 11
551.49014240167116
 21
896.70841081302797
  0
LINE
  8
_0-2______1
  6
CONTINUOUS
 62
    1
 10
531.49690282333495
 20
879.30095655305786
 11
530.84586245891524
 21
879.30095655305786
  0
LINE
  8
_0-2______1
  6
CONTINUOUS
 62
    1
 10
530.84586245891524
 20
879.30095655305786
 11
530.84586245891524
 21
878.64466586311801
  0
LINE
  8
_0-2______1
  6
CONTINUOUS
 62
    1
 10
572.155423646504
 20
914.76953060018104
 11
572.78546270884726
 21
914.76953060018104
  0
LINE
  8
_0-2______1
  6
CONTINUOUS
 62
    1
 10
646.98306295071416
 20
974.7676254745038
 11
647.63410331513387
 21
974.11658511008318
  0
LINE
  8
_0-2______1
  6
CONTINUOUS
 62
    1
 10
666.97630252904901
 20
992.20395652483194
 11
667.62734289346918
 21
992.20395652483194
  0
LINE
  8
_0-2______1
  6
CONTINUOUS
 62
    1
 10
659.24782336431417
 20
985.10289125967984
 11
659.24782336431417
 21
984.45185089526012
  0
LINE
  8
_0-2______1
  6
CONTINUOUS
 62
    1
 10
679.24106294264993
 20
1003.1666362095912
 11
679.24106294264993
 21
1002.515595845171
  0
LINE
  8
_0-2______1
  6
CONTINUOUS
 62
    1
 10
679.24106294264993
 20
1002.515595845171
 11
679.8921033070701
 21
1002.515595845171
  0
LINE
  8
_0-2______1
  6
CONTINUOUS
 62
    1
 10
659.24782336431417
 20
984.45185089526012
 11
659.87786242665607
 21
984.45185089526012
  0
LINE
  8
_0-2______1
  6
CONTINUOUS
 62
    1
 10
679.8921033070701
 20
1002.515595845171
 11
679.8921033070701
 21
1001.8593051552311
  0
LINE
  8
_0-2______1
  6
CONTINUOUS
 62
    1
 10
679.8921033070701
 20
1001.8593051552311
 11
680.52214236941199
 21
1001.8593051552311
  0
LINE
  8
_0-2______1
  6
CONTINUOUS
 62
    1
 10
667.62734289346918
 20
992.20395652483194
 11
668.27838325789025
 21
992.20395652483194
  0
LINE
  8
_0-2______1
  6
CONTINUOUS
 62
    1
 10
668.27838325789025
 20
992.20395652483194
 11
668.27838325789025
 21
991.54766583489209
  0
LINE
  8
_0-2______1
  6
CONTINUOUS
 62
    1
 10
658.596782999894
 20
985.73030515926303
 11
658.596782999894
 21
985.10289125967984
  0
LINE
  8
_0-2______1
  6
CONTINUOUS
 62
    1
 10
658.596782999894
 20
985.10289125967984
 11
659.24782336431417
 21
985.10289125967984
  0
LINE
  8
_0-2______1
  6
CONTINUOUS
 62
    1
 10
678.59002257822931
 20
1003.1666362095912
 11
679.24106294264993
 21
1003.1666362095912
  0
LINE
  8
_0-2______1
  6
CONTINUOUS
 62
    1
 10
646.98306295071416
 20
975.41866583892488
 11
646.98306295071416
 21
974.7676254745038
  0
LINE
  8
_0-2______1
  6
CONTINUOUS
 62
    1
 10
666.97630252904901
 20
992.83137042441604
 11
666.97630252904901
 21
992.20395652483194
  0
LINE
  8
_0-2______1
  6
CONTINUOUS
 62
    1
 10
647.63410331513387
 20
974.11658511008318
 11
648.26414237747713
 21
974.11658511008318
  0
LINE
  8
_0-2______1
  6
CONTINUOUS
 62
    1
 10
648.26414237747713
 20
974.11658511008318
 11
648.26414237747713
 21
973.4891712105009
  0
LINE
  8
_0-2______1
  6
CONTINUOUS
 62
    1
 10
668.27838325789025
 20
991.54766583489209
 11
668.92942362230997
 21
991.54766583489209
  0
LINE
  8
_0-2______1
  6
CONTINUOUS
 62
    1
 10
660.52890279107805
 20
983.80081053084086
 11
659.87786242665607
 21
984.45185089526012
  0
LINE
  8
_0-2______1
  6
CONTINUOUS
 62
    1
 10
646.33202258629308
 20
976.07495652886382
 11
646.33202258629308
 21
975.41866583892488
  0
LINE
  8
_0-2______1
  6
CONTINUOUS
 62
    1
 10
646.33202258629308
 20
975.41866583892488
 11
646.98306295071416
 21
975.41866583892488
  0
LINE
  8
_0-2______1
  6
CONTINUOUS
 62
    1
 10
666.97630252904901
 20
993.48241078883484
 11
666.97630252904901
 21
992.83137042441604
  0
LINE
  8
_0-2______1
  6
CONTINUOUS
 62
    1
 10
658.596782999894
 20
986.38659584920288
 11
658.596782999894
 21
985.73030515926303
  0
LINE
  8
_0-2______1
  6
CONTINUOUS
 62
    1
 10
678.59002257822931
 20
1003.7940501091739
 11
678.59002257822931
 21
1003.1666362095912
  0
LINE
  8
_0-2______1
  6
CONTINUOUS
 62
    1
 10
689.5737035650659
 20
1008.332956520801
 11
690.20374262740916
 21
1008.332956520801
  0
LINE
  8
_0-2______1
  6
CONTINUOUS
 62
    1
 10
690.20374262740916
 20
1008.9603704203828
 11
689.5737035650659
 21
1008.9603704203828
  0
LINE
  8
_0-2______1
  6
CONTINUOUS
 62
    1
 10
682.47526346267387
 20
1001.231891255648
 11
683.10530252501712
 21
1001.231891255648
  0
LINE
  8
_0-2______1
  6
CONTINUOUS
 62
    1
 10
650.217263470739
 20
972.83813084607891
 11
650.84730253308089
 21
972.83813084607891
  0
LINE
  8
_0-2______1
  6
CONTINUOUS
 62
    1
 10
683.75634288943729
 20
1001.231891255648
 11
683.75634288943729
 21
1001.8593051552311
  0
LINE
  8
_0-2______1
  6
CONTINUOUS
 62
    1
 10
663.11206294668227
 20
983.80081053084086
 11
663.76310331110199
 21
983.80081053084086
  0
LINE
  8
_0-2______1
  6
CONTINUOUS
 62
    1
 10
658.596782999894
 20
989.61817120646811
 11
658.596782999894
 21
988.96713084204703
  0
LINE
  8
_0-2______1
  6
CONTINUOUS
 62
    1
 10
679.24106294264993
 20
1007.0256254664391
 11
678.59002257822931
 21
1007.0256254664391
  0
LINE
  8
_0-2______1
  6
CONTINUOUS
 62
    1
 10
651.49834289750197
 20
972.83813084607891
 11
651.49834289750197
 21
973.4891712105009
  0
LINE
  8
_0-2______1
  6
CONTINUOUS
 62
    1
 10
671.49158247583728
 20
990.89662547047283
 11
672.1426228402579
 21
990.89662547047283
  0
LINE
  8
_0-2______1
  6
CONTINUOUS
 62
    1
 10
672.1426228402579
 20
990.89662547047283
 11
672.1426228402579
 21
991.54766583489209
  0
LINE
  8
_0-2______1
  6
CONTINUOUS
 62
    1
 10
646.98306295071416
 20
979.28553058405123
 11
646.98306295071416
 21
978.63449021963197
  0
LINE
  8
_0-2______1
  6
CONTINUOUS
 62
    1
 10
646.98306295071416
 20
978.63449021963197
 11
646.33202258629308
 21
978.63449021963197
  0
LINE
  8
_0-2______1
  6
CONTINUOUS
 62
    1
 10
666.97630252904901
 20
996.71398614610098
 11
666.97630252904901
 21
996.06294578167899
  0
LINE
  8
_0-2______1
  6
CONTINUOUS
 62
    1
 10
699.88534288540495
 20
1174.7682754896082
 11
699.23430252098524
 21
1174.7682754896082
  0
LINE
  8
_0-2______1
  6
CONTINUOUS
 62
    1
 10
699.23430252098524
 20
1174.7682754896082
 11
699.23430252098524
 21
1174.1329861017462
  0
LINE
  8
_0-2______1
  6
CONTINUOUS
 62
    1
 10
699.23430252098524
 20
1174.1329861017462
 11
698.60426345864198
 21
1174.1329861017462
  0
LINE
  8
_0-2______1
  6
CONTINUOUS
 62
    1
 10
507.63942366263291
 20
1008.332956520801
 11
507.63942366263291
 21
1007.6766658308602
  0
LINE
  8
_0-2______1
  6
CONTINUOUS
 62
    1
 10
864.40954336510731
 20
805.73077021077415
 11
863.10746263626606
 21
807.03285093961586
  0
LINE
  8
_0-2______1
  6
CONTINUOUS
 62
    1
 10
862.47742357392417
 20
806.38181057519387
 11
861.17534284508201
 21
807.68126614127596
  0
LINE
  8
_0-2______1
  6
CONTINUOUS
 62
    1
 10
862.47742357392417
 20
806.38181057519387
 11
863.10746263626606
 21
806.38181057519387
  0
LINE
  8
_0-2______1
  6
CONTINUOUS
 62
    1
 10
862.47742357392417
 20
805.73077021077415
 11
863.75850300068714
 21
805.73077021077415
  0
LINE
  8
_0-2______1
  6
CONTINUOUS
 62
    1
 10
863.75850300068714
 20
805.73077021077415
 11
863.10746263626606
 21
806.38181057519387
  0
LINE
  8
_0-2______1
  6
CONTINUOUS
 62
    1
 10
838.59894311114431
 20
767.67641084528714
 11
839.24998347556402
 21
767.67641084528714
  0
LINE
  8
_0-2______1
  6
CONTINUOUS
 62
    1
 10
859.24322305389887
 20
798.65595657322001
 11
860.5243024806623
 21
799.2833704728032
  0
LINE
  8
_0-2______1
  6
CONTINUOUS
 62
    1
 10
861.17534284508201
 20
807.68389130403602
 11
860.5243024806623
 21
807.68389130403602
  0
LINE
  8
_0-2______1
  6
CONTINUOUS
 62
    1
 10
861.17534284508201
 20
807.68389130403602
 11
862.47742357392417
 21
807.68389130403602
  0
LINE
  8
_0-2______1
  6
CONTINUOUS
 62
    1
 10
859.24322305389887
 20
798.65595657322001
 11
859.24322305389887
 21
797.99966588327879
  0
LINE
  8
_0-2______1
  6
CONTINUOUS
 62
    1
 10
863.10746263626606
 20
807.68389130403602
 11
862.47742357392417
 21
807.68389130403602
  0
LINE
  8
_0-2______1
  6
CONTINUOUS
 62
    1
 10
865.03958242745011
 20
805.10073114843181
 11
864.40954336510731
 21
805.10073114843181
  0
LINE
  8
_0-2______1
  6
CONTINUOUS
 62
    1
 10
864.40954336510731
 20
805.10073114843181
 11
863.75850300068714
 21
805.10073114843181
  0
LINE
  8
_0-2______1
  6
CONTINUOUS
 62
    1
 10
863.75850300068714
 20
805.10073114843181
 11
863.75850300068714
 21
805.73077021077415
  0
LINE
  8
_0-2______1
  6
CONTINUOUS
 62
    1
 10
857.31110326271619
 20
797.34862551885817
 11
857.94114232505808
 21
796.697585154438
  0
LINE
  8
_0-2______1
  6
CONTINUOUS
 62
    1
 10
863.75850300068714
 20
805.73077021077415
 11
865.03958242745011
 21
805.73077021077415
  0
LINE
  8
_0-2______1
  6
CONTINUOUS
 62
    1
 10
861.17534284508201
 20
799.2833704728032
 11
860.5243024806623
 21
799.2833704728032
  0
LINE
  8
_0-2______1
  6
CONTINUOUS
 62
    1
 10
856.66006289829511
 20
794.76809052601493
 11
855.37898347153214
 21
795.4191308904351
  0
LINE
  8
_0-2______1
  6
CONTINUOUS
 62
    1
 10
862.47742357392417
 20
796.07017125485481
 11
863.10746263626606
 21
796.07017125485481
  0
LINE
  8
_0-2______1
  6
CONTINUOUS
 62
    1
 10
862.47742357392417
 20
795.4191308904351
 11
861.82638320950309
 21
795.4191308904351
  0
LINE
  8
_0-2______1
  6
CONTINUOUS
 62
    1
 10
854.72794310711106
 20
798.65595657322001
 11
854.07690274268998
 21
797.99966588327879
  0
LINE
  8
_0-2______1
  6
CONTINUOUS
 62
    1
 10
854.07690274268998
 20
797.99966588327879
 11
853.42586237827027
 21
797.99966588327879
  0
LINE
  8
_0-2______1
  6
CONTINUOUS
 62
    1
 10
848.910582431482
 20
803.80127558234881
 11
848.910582431482
 21
803.16598619448723
  0
LINE
  8
_0-2______1
  6
CONTINUOUS
 62
    1
 10
867.62274258305388
 20
803.80127558234881
 11
867.62274258305388
 21
803.16598619448723
  0
LINE
  8
_0-2______1
  6
CONTINUOUS
 62
    1
 10
868.92482331189512
 20
801.21549026398588
 11
868.92482331189512
 21
801.86653062840696
  0
LINE
  8
_0-2______1
  6
CONTINUOUS
 62
    1
 10
979.24466312806499
 20
906.39263623378383
 11
979.24466312806499
 21
907.02005013336793
  0
LINE
  8
_0-2______1
  6
CONTINUOUS
 62
    1
 10
979.24466312806499
 20
906.39263623378383
 11
979.24466312806499
 21
905.74159586936503
  0
LINE
  8
_0-2______1
  6
CONTINUOUS
 62
    1
 10
977.31254333688094
 20
906.39263623378383
 11
976.66150297246122
 21
907.6710904977881
  0
LINE
  8
_0-2______1
  6
CONTINUOUS
 62
    1
 10
977.31254333688094
 20
906.39263623378383
 11
978.59362276364527
 21
906.39263623378383
  0
LINE
  8
_0-2______1
  6
CONTINUOUS
 62
    1
 10
976.66150297246122
 20
907.6710904977881
 11
975.38042354569825
 21
908.32213086221009
  0
LINE
  8
_0-2______1
  6
CONTINUOUS
 62
    1
 10
977.94258239922419
 20
905.74159586936503
 11
979.24466312806499
 21
905.08530517942381
  0
LINE
  8
_0-2______1
  6
CONTINUOUS
 62
    1
 10
978.59362276364527
 20
906.39263623378383
 11
979.24466312806499
 21
905.74159586936503
  0
LINE
  8
_0-2______1
  6
CONTINUOUS
 62
    1
 10
977.31254333688094
 20
907.6710904977881
 11
976.66150297246122
 21
907.6710904977881
  0
LINE
  8
_0-2______1
  6
CONTINUOUS
 62
    1
 10
980.52574255482796
 20
905.08530517942381
 11
979.89570349248606
 21
905.08530517942381
  0
LINE
  8
_0-2______1
  6
CONTINUOUS
 62
    1
 10
979.89570349248606
 20
905.08530517942381
 11
979.24466312806499
 21
905.08530517942381
  0
LINE
  8
_0-2______1
  6
CONTINUOUS
 62
    1
 10
979.24466312806499
 20
905.74159586936503
 11
980.52574255482796
 21
905.08530517942381
  0
LINE
  8
_0-2______1
  6
CONTINUOUS
 62
    1
 10
975.38042354569825
 20
899.28894580587303
 11
975.38042354569825
 21
898.64053060421202
  0
LINE
  8
_0-2______1
  6
CONTINUOUS
 62
    1
 10
975.38042354569825
 20
898.64053060421202
 11
974.72938318127808
 21
897.98949023979321
  0
LINE
  8
_0-2______1
  6
CONTINUOUS
 62
    1
 10
977.31254333688094
 20
907.6710904977881
 11
978.59362276364527
 21
907.02005013336793
  0
LINE
  8
_0-2______1
  6
CONTINUOUS
 62
    1
 10
973.42730245243592
 20
896.70841081302797
 11
972.79726339009403
 21
896.70841081302797
  0
LINE
  8
_0-2______1
  6
CONTINUOUS
 62
    1
 10
976.66150297246122
 20
899.28894580587303
 11
975.38042354569825
 21
899.28894580587303
  0
LINE
  8
_0-2______1
  6
CONTINUOUS
 62
    1
 10
971.49518266125187
 20
894.77366585908612
 11
970.84414229683216
 21
894.77366585908612
  0
LINE
  8
_0-2______1
  6
CONTINUOUS
 62
    1
 10
978.59362276364527
 20
896.05737044860916
 11
977.94258239922419
 21
896.05737044860916
  0
LINE
  8
_0-2______1
  6
CONTINUOUS
 62
    1
 10
977.94258239922419
 20
895.42995654902597
 11
978.59362276364527
 21
896.05737044860916
  0
LINE
  8
_0-2______1
  6
CONTINUOUS
 62
    1
 10
977.31254333688094
 20
895.42995654902597
 11
977.94258239922419
 21
895.42995654902597
  0
LINE
  8
_0-2______1
  6
CONTINUOUS
 62
    1
 10
969.56306287006919
 20
898.64053060421202
 11
969.56306287006919
 21
897.98949023979321
  0
LINE
  8
_0-2______1
  6
CONTINUOUS
 62
    1
 10
983.10890271043309
 20
903.15581055099983
 11
983.75994307485325
 21
903.15581055099983
  0
LINE
  8
_0-2______1
  6
CONTINUOUS
 62
    1
 10
984.41098343927388
 20
901.22631592257721
 11
984.41098343927388
 21
901.87473112423822
  0
LINE
  8
_0-2______1
  6
CONTINUOUS
 62
    1
 10
984.41098343927388
 20
900.57527555815614
 11
984.41098343927388
 21
901.22631592257721
  0
LINE
  8
_0-2______1
  6
CONTINUOUS
 62
    1
 10
963.11566313209823
 20
901.22631592257721
 11
963.11566313209823
 21
900.57527555815614
  0
LINE
  8
_0-2______1
  6
CONTINUOUS
 62
    1
 10
1018.6011032223932
 20
931.54694579781017
 11
1019.2311422847361
 21
931.54694579781017
  0
LINE
  8
_0-2______1
  6
CONTINUOUS
 62
    1
 10
1019.2311422847361
 20
931.54694579781017
 11
1019.2311422847361
 21
932.19798616222897
  0
LINE
  8
_0-2______1
  6
CONTINUOUS
 62
    1
 10
1019.2311422847361
 20
932.19798616222897
 11
1019.2311422847361
 21
932.833275550091
  0
LINE
  8
_0-2______1
  6
CONTINUOUS
 62
    1
 10
1030.844862333915
 20
932.833275550091
 11
1031.4959026983361
 21
933.48431591451299
  0
LINE
  8
_0-2______1
  6
CONTINUOUS
 62
    1
 10
1031.4959026983361
 20
933.48431591451299
 11
1031.4959026983361
 21
934.132731116174
  0
LINE
  8
_0-2______1
  6
CONTINUOUS
 62
    1
 10
867.62274258305388
 20
797.99966588327879
 11
868.27378294747405
 21
797.99966588327879
  0
LINE
  8
_0-2______1
  6
CONTINUOUS
 62
    1
 10
868.27378294747405
 20
797.99966588327879
 11
868.27378294747405
 21
799.2833704728032
  0
LINE
  8
_0-2______1
  6
CONTINUOUS
 62
    1
 10
868.27378294747405
 20
799.2833704728032
 11
868.92482331189512
 21
799.2833704728032
  0
LINE
  8
_0-2______1
  6
CONTINUOUS
 62
    1
 10
868.92482331189512
 20
799.2833704728032
 11
868.92482331189512
 21
801.21549026398588
  0
LINE
  8
_0-2______1
  6
CONTINUOUS
 62
    1
 10
867.62274258305388
 20
797.99966588327879
 11
866.99270352071107
 21
797.99966588327879
  0
LINE
  8
_0-2______1
  6
CONTINUOUS
 62
    1
 10
866.99270352071107
 20
797.99966588327879
 11
866.99270352071107
 21
797.34862551885817
  0
LINE
  8
_0-2______1
  6
CONTINUOUS
 62
    1
 10
866.99270352071107
 20
797.34862551885817
 11
866.34166315629
 21
797.34862551885817
  0
LINE
  8
_0-2______1
  6
CONTINUOUS
 62
    1
 10
866.34166315629
 20
797.34862551885817
 11
866.34166315629
 21
796.697585154438
  0
LINE
  8
_0-2______1
  6
CONTINUOUS
 62
    1
 10
866.34166315629
 20
796.697585154438
 11
865.69062279187119
 21
796.697585154438
  0
LINE
  8
_0-2______1
  6
CONTINUOUS
 62
    1
 10
865.69062279187119
 20
796.697585154438
 11
865.03958242745011
 21
796.07017125485481
  0
LINE
  8
_0-2______1
  6
CONTINUOUS
 62
    1
 10
865.03958242745011
 20
796.07017125485481
 11
864.40954336510731
 21
796.07017125485481
  0
LINE
  8
_0-2______1
  6
CONTINUOUS
 62
    1
 10
864.40954336510731
 20
796.07017125485481
 11
863.75850300068714
 21
795.4191308904351
  0
LINE
  8
_0-2______1
  6
CONTINUOUS
 62
    1
 10
863.75850300068714
 20
795.4191308904351
 11
863.10746263626606
 21
795.4191308904351
  0
LINE
  8
_0-2______1
  6
CONTINUOUS
 62
    1
 10
863.10746263626606
 20
795.4191308904351
 11
862.47742357392417
 21
795.4191308904351
  0
LINE
  8
_0-2______1
  6
CONTINUOUS
 62
    1
 10
862.47742357392417
 20
795.4191308904351
 11
861.82638320950309
 21
795.4191308904351
  0
LINE
  8
_0-2______1
  6
CONTINUOUS
 62
    1
 10
861.82638320950309
 20
795.4191308904351
 11
861.17534284508201
 21
794.76809052601493
  0
LINE
  8
_0-2______1
  6
CONTINUOUS
 62
    1
 10
861.17534284508201
 20
794.76809052601493
 11
860.5243024806623
 21
794.76809052601493
  0
LINE
  8
_0-2______1
  6
CONTINUOUS
 62
    1
 10
860.5243024806623
 20
794.76809052601493
 11
859.24322305389887
 21
794.76809052601493
  0
LINE
  8
_0-2______1
  6
CONTINUOUS
 62
    1
 10
859.24322305389887
 20
794.76809052601493
 11
859.24322305389887
 21
794.11705016159385
  0
LINE
  8
_0-2______1
  6
CONTINUOUS
 62
    1
 10
859.24322305389887
 20
794.11705016159385
 11
858.59218268947825
 21
794.11705016159385
  0
LINE
  8
_0-2______1
  6
CONTINUOUS
 62
    1
 10
858.59218268947825
 20
794.11705016159385
 11
857.31110326271619
 21
794.11705016159385
  0
LINE
  8
_0-2______1
  6
CONTINUOUS
 62
    1
 10
857.31110326271619
 20
794.11705016159385
 11
856.66006289829511
 21
794.76809052601493
  0
LINE
  8
_0-2______1
  6
CONTINUOUS
 62
    1
 10
856.66006289829511
 20
794.76809052601493
 11
856.00902253387403
 21
794.76809052601493
  0
LINE
  8
_0-2______1
  6
CONTINUOUS
 62
    1
 10
856.00902253387403
 20
794.76809052601493
 11
855.37898347153214
 21
794.76809052601493
  0
LINE
  8
_0-2______1
  6
CONTINUOUS
 62
    1
 10
855.37898347153214
 20
794.76809052601493
 11
854.72794310711106
 21
795.4191308904351
  0
LINE
  8
_0-2______1
  6
CONTINUOUS
 62
    1
 10
854.72794310711106
 20
795.4191308904351
 11
853.42586237827027
 21
795.4191308904351
  0
LINE
  8
_0-2______1
  6
CONTINUOUS
 62
    1
 10
853.42586237827027
 20
795.4191308904351
 11
852.79582331592701
 21
795.4191308904351
  0
LINE
  8
_0-2______1
  6
CONTINUOUS
 62
    1
 10
852.79582331592701
 20
795.4191308904351
 11
852.79582331592701
 21
796.07017125485481
  0
LINE
  8
_0-2______1
  6
CONTINUOUS
 62
    1
 10
852.79582331592701
 20
796.07017125485481
 11
852.1447829515073
 21
796.07017125485481
  0
LINE
  8
_0-2______1
  6
CONTINUOUS
 62
    1
 10
852.1447829515073
 20
796.07017125485481
 11
851.49374258708713
 21
796.07017125485481
  0
LINE
  8
_0-2______1
  6
CONTINUOUS
 62
    1
 10
851.49374258708713
 20
796.07017125485481
 11
850.86370352474387
 21
796.07017125485481
  0
LINE
  8
_0-2______1
  6
CONTINUOUS
 62
    1
 10
850.86370352474387
 20
796.07017125485481
 11
850.86370352474387
 21
797.34862551885817
  0
LINE
  8
_0-2______1
  6
CONTINUOUS
 62
    1
 10
850.86370352474387
 20
797.34862551885817
 11
850.21266316032325
 21
797.34862551885817
  0
LINE
  8
_0-2______1
  6
CONTINUOUS
 62
    1
 10
850.21266316032325
 20
797.34862551885817
 11
849.56162279590308
 21
797.34862551885817
  0
LINE
  8
_0-2______1
  6
CONTINUOUS
 62
    1
 10
849.56162279590308
 20
797.34862551885817
 11
849.56162279590308
 21
797.99966588327879
  0
LINE
  8
_0-2______1
  6
CONTINUOUS
 62
    1
 10
849.56162279590308
 20
797.99966588327879
 11
848.910582431482
 21
797.99966588327879
  0
LINE
  8
_0-2______1
  6
CONTINUOUS
 62
    1
 10
865.03958242745011
 20
805.73077021077415
 11
865.03958242745011
 21
805.10073114843181
  0
LINE
  8
_0-2______1
  6
CONTINUOUS
 62
    1
 10
865.03958242745011
 20
805.10073114843181
 11
865.69062279187119
 21
805.10073114843181
  0
LINE
  8
_0-2______1
  6
CONTINUOUS
 62
    1
 10
865.69062279187119
 20
805.10073114843181
 11
866.34166315629
 21
805.10073114843181
  0
LINE
  8
_0-2______1
  6
CONTINUOUS
 62
    1
 10
866.34166315629
 20
805.10073114843181
 11
866.99270352071107
 21
805.10073114843181
  0
LINE
  8
_0-2______1
  6
CONTINUOUS
 62
    1
 10
866.99270352071107
 20
805.10073114843181
 11
866.99270352071107
 21
803.80127558234881
  0
LINE
  8
_0-2______1
  6
CONTINUOUS
 62
    1
 10
866.99270352071107
 20
803.80127558234881
 11
867.62274258305388
 21
803.80127558234881
  0
LINE
  8
_0-2______1
  6
CONTINUOUS
 62
    1
 10
867.62274258305388
 20
803.80127558234881
 11
868.27378294747405
 21
803.80127558234881
  0
LINE
  8
_0-2______1
  6
CONTINUOUS
 62
    1
 10
868.27378294747405
 20
803.80127558234881
 11
868.27378294747405
 21
803.16598619448723
  0
LINE
  8
_0-2______1
  6
CONTINUOUS
 62
    1
 10
868.27378294747405
 20
803.16598619448723
 11
868.92482331189512
 21
803.16598619448723
  0
LINE
  8
_0-2______1
  6
CONTINUOUS
 62
    1
 10
868.92482331189512
 20
803.16598619448723
 11
868.92482331189512
 21
801.86653062840696
  0
LINE
  8
_0-2______1
  6
CONTINUOUS
 62
    1
 10
863.10746263626606
 20
809.61863625797787
 11
863.75850300068714
 21
809.61863625797787
  0
LINE
  8
_0-2______1
  6
CONTINUOUS
 62
    1
 10
863.75850300068714
 20
809.61863625797787
 11
864.40954336510731
 21
809.61863625797787
  0
LINE
  8
_0-2______1
  6
CONTINUOUS
 62
    1
 10
864.40954336510731
 20
809.61863625797787
 11
864.40954336510731
 21
808.96759589355815
  0
LINE
  8
_0-2______1
  6
CONTINUOUS
 62
    1
 10
864.40954336510731
 20
808.96759589355815
 11
865.03958242745011
 21
808.96759589355815
  0
LINE
  8
_0-2______1
  6
CONTINUOUS
 62
    1
 10
865.03958242745011
 20
808.96759589355815
 11
865.69062279187119
 21
808.96759589355815
  0
LINE
  8
_0-2______1
  6
CONTINUOUS
 62
    1
 10
865.69062279187119
 20
808.96759589355815
 11
865.69062279187119
 21
808.31130520361921
  0
LINE
  8
_0-2______1
  6
CONTINUOUS
 62
    1
 10
865.69062279187119
 20
808.31130520361921
 11
866.34166315629
 21
808.31130520361921
  0
LINE
  8
_0-2______1
  6
CONTINUOUS
 62
    1
 10
866.34166315629
 20
808.31130520361921
 11
866.34166315629
 21
807.68126614127596
  0
LINE
  8
_0-2______1
  6
CONTINUOUS
 62
    1
 10
866.34166315629
 20
807.68126614127596
 11
866.99270352071107
 21
807.68126614127596
  0
LINE
  8
_0-2______1
  6
CONTINUOUS
 62
    1
 10
866.99270352071107
 20
807.68126614127596
 11
866.99270352071107
 21
807.03285093961586
  0
LINE
  8
_0-2______1
  6
CONTINUOUS
 62
    1
 10
866.99270352071107
 20
807.03285093961586
 11
867.62274258305388
 21
807.03285093961586
  0
LINE
  8
_0-2______1
  6
CONTINUOUS
 62
    1
 10
867.62274258305388
 20
807.03285093961586
 11
867.62274258305388
 21
806.38181057519387
  0
LINE
  8
_0-2______1
  6
CONTINUOUS
 62
    1
 10
867.62274258305388
 20
806.38181057519387
 11
868.27378294747405
 21
806.38181057519387
  0
LINE
  8
_0-2______1
  6
CONTINUOUS
 62
    1
 10
868.27378294747405
 20
806.38181057519387
 11
868.27378294747405
 21
805.73077021077415
  0
LINE
  8
_0-2______1
  6
CONTINUOUS
 62
    1
 10
848.910582431482
 20
805.73077021077415
 11
848.910582431482
 21
807.03285093961586
  0
LINE
  8
_0-2______1
  6
CONTINUOUS
 62
    1
 10
848.910582431482
 20
807.03285093961586
 11
849.56162279590308
 21
807.03285093961586
  0
LINE
  8
_0-2______1
  6
CONTINUOUS
 62
    1
 10
849.56162279590308
 20
807.03285093961586
 11
849.56162279590308
 21
807.68389130403602
  0
LINE
  8
_0-2______1
  6
CONTINUOUS
 62
    1
 10
849.56162279590308
 20
807.68389130403602
 11
850.21266316032325
 21
807.68389130403602
  0
LINE
  8
_0-2______1
  6
CONTINUOUS
 62
    1
 10
850.21266316032325
 20
807.68389130403602
 11
850.21266316032325
 21
808.31130520361921
  0
LINE
  8
_0-2______1
  6
CONTINUOUS
 62
    1
 10
850.21266316032325
 20
808.31130520361921
 11
850.86370352474387
 21
808.31130520361921
  0
LINE
  8
_0-2______1
  6
CONTINUOUS
 62
    1
 10
850.86370352474387
 20
808.31130520361921
 11
850.86370352474387
 21
808.96759589355815
  0
LINE
  8
_0-2______1
  6
CONTINUOUS
 62
    1
 10
850.86370352474387
 20
808.96759589355815
 11
851.49374258708713
 21
808.96759589355815
  0
LINE
  8
_0-2______1
  6
CONTINUOUS
 62
    1
 10
851.49374258708713
 20
808.96759589355815
 11
852.1447829515073
 21
808.96759589355815
  0
LINE
  8
_0-2______1
  6
CONTINUOUS
 62
    1
 10
852.1447829515073
 20
808.96759589355815
 11
852.79582331592701
 21
808.96759589355815
  0
LINE
  8
_0-2______1
  6
CONTINUOUS
 62
    1
 10
852.79582331592701
 20
808.96759589355815
 11
852.79582331592701
 21
809.61863625797787
  0
LINE
  8
_0-2______1
  6
CONTINUOUS
 62
    1
 10
852.79582331592701
 20
809.61863625797787
 11
853.42586237827027
 21
809.61863625797787
  0
LINE
  8
_0-2______1
  6
CONTINUOUS
 62
    1
 10
853.42586237827027
 20
809.61863625797787
 11
854.07690274268998
 21
809.61863625797787
  0
LINE
  8
_0-2______1
  6
CONTINUOUS
 62
    1
 10
854.07690274268998
 20
809.61863625797787
 11
854.72794310711106
 21
809.61863625797787
  0
LINE
  8
_0-2______1
  6
CONTINUOUS
 62
    1
 10
854.72794310711106
 20
809.61863625797787
 11
855.37898347153214
 21
809.61863625797787
  0
LINE
  8
_0-2______1
  6
CONTINUOUS
 62
    1
 10
855.37898347153214
 20
809.61863625797787
 11
855.37898347153214
 21
810.24605015756197
  0
LINE
  8
_0-2______1
  6
CONTINUOUS
 62
    1
 10
855.37898347153214
 20
810.24605015756197
 11
856.00902253387403
 21
810.24605015756197
  0
LINE
  8
_0-2______1
  6
CONTINUOUS
 62
    1
 10
856.00902253387403
 20
810.24605015756197
 11
856.66006289829511
 21
810.24605015756197
  0
LINE
  8
_0-2______1
  6
CONTINUOUS
 62
    1
 10
856.66006289829511
 20
810.24605015756197
 11
857.31110326271619
 21
810.24605015756197
  0
LINE
  8
_0-2______1
  6
CONTINUOUS
 62
    1
 10
857.31110326271619
 20
810.24605015756197
 11
858.59218268947825
 21
810.24605015756197
  0
LINE
  8
_0-2______1
  6
CONTINUOUS
 62
    1
 10
858.59218268947825
 20
810.24605015756197
 11
859.24322305389887
 21
810.24605015756197
  0
LINE
  8
_0-2______1
  6
CONTINUOUS
 62
    1
 10
859.24322305389887
 20
810.24605015756197
 11
859.89426341831904
 21
810.24605015756197
  0
LINE
  8
_0-2______1
  6
CONTINUOUS
 62
    1
 10
859.89426341831904
 20
810.24605015756197
 11
860.5243024806623
 21
810.24605015756197
  0
LINE
  8
_0-2______1
  6
CONTINUOUS
 62
    1
 10
860.5243024806623
 20
810.24605015756197
 11
861.17534284508201
 21
810.24605015756197
  0
LINE
  8
_0-2______1
  6
CONTINUOUS
 62
    1
 10
861.17534284508201
 20
810.24605015756197
 11
861.17534284508201
 21
809.61863625797787
  0
LINE
  8
_0-2______1
  6
CONTINUOUS
 62
    1
 10
861.17534284508201
 20
809.61863625797787
 11
861.82638320950309
 21
809.61863625797787
  0
LINE
  8
_0-2______1
  6
CONTINUOUS
 62
    1
 10
861.82638320950309
 20
809.61863625797787
 11
862.47742357392417
 21
809.61863625797787
  0
LINE
  8
_0-2______1
  6
CONTINUOUS
 62
    1
 10
862.47742357392417
 20
809.61863625797787
 11
863.10746263626606
 21
809.61863625797787
  0
LINE
  8
_0-2______1
  6
CONTINUOUS
 62
    1
 10
855.37898347153214
 20
795.4191308904351
 11
856.00902253387403
 21
795.4191308904351
  0
LINE
  8
_0-2______1
  6
CONTINUOUS
 62
    1
 10
856.00902253387403
 20
795.4191308904351
 11
856.66006289829511
 21
795.4191308904351
  0
LINE
  8
_0-2______1
  6
CONTINUOUS
 62
    1
 10
856.66006289829511
 20
795.4191308904351
 11
856.66006289829511
 21
796.07017125485481
  0
LINE
  8
_0-2______1
  6
CONTINUOUS
 62
    1
 10
856.66006289829511
 20
796.07017125485481
 11
857.31110326271619
 21
796.07017125485481
  0
LINE
  8
_0-2______1
  6
CONTINUOUS
 62
    1
 10
847.62950300471903
 20
801.21549026398588
 11
847.62950300471903
 21
799.934410837222
  0
LINE
  8
_0-2______1
  6
CONTINUOUS
 62
    1
 10
847.62950300471903
 20
799.934410837222
 11
847.62950300471903
 21
799.2833704728032
  0
LINE
  8
_0-2______1
  6
CONTINUOUS
 62
    1
 10
847.62950300471903
 20
799.2833704728032
 11
848.2805433691401
 21
799.2833704728032
  0
LINE
  8
_0-2______1
  6
CONTINUOUS
 62
    1
 10
848.2805433691401
 20
799.2833704728032
 11
848.2805433691401
 21
798.65595657322001
  0
LINE
  8
_0-2______1
  6
CONTINUOUS
 62
    1
 10
848.2805433691401
 20
798.65595657322001
 11
848.910582431482
 21
798.65595657322001
  0
LINE
  8
_0-2______1
  6
CONTINUOUS
 62
    1
 10
848.910582431482
 20
798.65595657322001
 11
848.910582431482
 21
797.99966588327879
  0
LINE
  8
_0-2______1
  6
CONTINUOUS
 62
    1
 10
847.62950300471903
 20
801.21549026398588
 11
847.62950300471903
 21
803.16598619448723
  0
LINE
  8
_0-2______1
  6
CONTINUOUS
 62
    1
 10
847.62950300471903
 20
803.16598619448723
 11
848.2805433691401
 21
803.16598619448723
  0
LINE
  8
_0-2______1
  6
CONTINUOUS
 62
    1
 10
848.2805433691401
 20
803.16598619448723
 11
848.2805433691401
 21
803.80127558234881
  0
LINE
  8
_0-2______1
  6
CONTINUOUS
 62
    1
 10
848.2805433691401
 20
803.80127558234881
 11
848.910582431482
 21
803.80127558234881
  0
LINE
  8
_0-2______1
  6
CONTINUOUS
 62
    1
 10
848.910582431482
 20
803.80127558234881
 11
849.56162279590308
 21
803.80127558234881
  0
LINE
  8
_0-2______1
  6
CONTINUOUS
 62
    1
 10
849.56162279590308
 20
803.80127558234881
 11
849.56162279590308
 21
805.10073114843181
  0
LINE
  8
_0-2______1
  6
CONTINUOUS
 62
    1
 10
849.56162279590308
 20
805.10073114843181
 11
850.21266316032325
 21
805.10073114843181
  0
LINE
  8
_0-2______1
  6
CONTINUOUS
 62
    1
 10
850.21266316032325
 20
805.10073114843181
 11
850.86370352474387
 21
805.10073114843181
  0
LINE
  8
_0-2______1
  6
CONTINUOUS
 62
    1
 10
850.86370352474387
 20
805.10073114843181
 11
851.49374258708713
 21
805.73077021077415
  0
LINE
  8
_0-2______1
  6
CONTINUOUS
 62
    1
 10
851.49374258708713
 20
805.73077021077415
 11
852.1447829515073
 21
805.73077021077415
  0
LINE
  8
_0-2______1
  6
CONTINUOUS
 62
    1
 10
852.1447829515073
 20
805.73077021077415
 11
852.79582331592701
 21
805.73077021077415
  0
LINE
  8
_0-2______1
  6
CONTINUOUS
 62
    1
 10
852.79582331592701
 20
805.73077021077415
 11
853.42586237827027
 21
805.73077021077415
  0
LINE
  8
_0-2______1
  6
CONTINUOUS
 62
    1
 10
853.42586237827027
 20
805.73077021077415
 11
853.42586237827027
 21
806.38181057519387
  0
LINE
  8
_0-2______1
  6
CONTINUOUS
 62
    1
 10
853.42586237827027
 20
806.38181057519387
 11
854.07690274268998
 21
806.38181057519387
  0
LINE
  8
_0-2______1
  6
CONTINUOUS
 62
    1
 10
854.07690274268998
 20
806.38181057519387
 11
854.72269278159229
 21
806.38181057519387
  0
LINE
  8
_0-2______1
  6
CONTINUOUS
 62
    1
 10
854.72269278159229
 20
806.38181057519387
 11
855.37898347153214
 21
806.38181057519387
  0
LINE
  8
_0-2______1
  6
CONTINUOUS
 62
    1
 10
855.37898347153214
 20
806.38181057519387
 11
856.00902253387403
 21
807.03285093961586
  0
LINE
  8
_0-2______1
  6
CONTINUOUS
 62
    1
 10
856.00902253387403
 20
807.03285093961586
 11
856.66006289829511
 21
807.03285093961586
  0
LINE
  8
_0-2______1
  6
CONTINUOUS
 62
    1
 10
856.66006289829511
 20
807.03285093961586
 11
857.31110326271619
 21
807.03285093961586
  0
LINE
  8
_0-2______1
  6
CONTINUOUS
 62
    1
 10
857.31110326271619
 20
807.03285093961586
 11
857.94114232505808
 21
807.03285093961586
  0
LINE
  8
_0-2______1
  6
CONTINUOUS
 62
    1
 10
857.94114232505808
 20
807.03285093961586
 11
858.59218268947825
 21
807.03285093961586
  0
LINE
  8
_0-2______1
  6
CONTINUOUS
 62
    1
 10
858.59218268947825
 20
807.03285093961586
 11
859.24322305389887
 21
807.03285093961586
  0
LINE
  8
_0-2______1
  6
CONTINUOUS
 62
    1
 10
859.24322305389887
 20
807.03285093961586
 11
859.89426341831904
 21
807.03285093961586
  0
LINE
  8
_0-2______1
  6
CONTINUOUS
 62
    1
 10
859.89426341831904
 20
807.03285093961586
 11
860.5243024806623
 21
807.03285093961586
  0
LINE
  8
_0-2______1
  6
CONTINUOUS
 62
    1
 10
860.5243024806623
 20
807.03285093961586
 11
861.17534284508201
 21
806.38181057519387
  0
LINE
  8
_0-2______1
  6
CONTINUOUS
 62
    1
 10
861.17534284508201
 20
806.38181057519387
 11
862.47742357392417
 21
806.38181057519387
  0
LINE
  8
_0-2______1
  6
CONTINUOUS
 62
    1
 10
854.72794310711106
 20
798.65595657322001
 11
854.72794310711106
 21
797.99966588327879
  0
LINE
  8
_0-2______1
  6
CONTINUOUS
 62
    1
 10
854.72794310711106
 20
797.99966588327879
 11
855.37898347153214
 21
797.99966588327879
  0
LINE
  8
_0-2______1
  6
CONTINUOUS
 62
    1
 10
855.37898347153214
 20
797.99966588327879
 11
856.00902253387403
 21
797.99966588327879
  0
LINE
  8
_0-2______1
  6
CONTINUOUS
 62
    1
 10
856.00902253387403
 20
797.99966588327879
 11
856.00902253387403
 21
797.34862551885817
  0
LINE
  8
_0-2______1
  6
CONTINUOUS
 62
    1
 10
856.00902253387403
 20
797.34862551885817
 11
856.66006289829511
 21
797.34862551885817
  0
LINE
  8
_0-2______1
  6
CONTINUOUS
 62
    1
 10
856.66006289829511
 20
797.34862551885817
 11
857.31110326271619
 21
797.34862551885817
  0
LINE
  8
_0-2______1
  6
CONTINUOUS
 62
    1
 10
857.94114232505808
 20
796.697585154438
 11
858.59218268947825
 21
797.34862551885817
  0
LINE
  8
_0-2______1
  6
CONTINUOUS
 62
    1
 10
858.59218268947825
 20
797.34862551885817
 11
858.59218268947825
 21
797.99966588327879
  0
LINE
  8
_0-2______1
  6
CONTINUOUS
 62
    1
 10
858.59218268947825
 20
797.99966588327879
 11
859.24322305389887
 21
797.99966588327879
  0
LINE
  8
_0-2______1
  6
CONTINUOUS
 62
    1
 10
859.24322305389887
 20
796.697585154438
 11
859.24322305389887
 21
796.07017125485481
  0
LINE
  8
_0-2______1
  6
CONTINUOUS
 62
    1
 10
859.24322305389887
 20
796.07017125485481
 11
859.89426341831904
 21
796.07017125485481
  0
LINE
  8
_0-2______1
  6
CONTINUOUS
 62
    1
 10
859.89426341831904
 20
796.07017125485481
 11
860.5243024806623
 21
796.07017125485481
  0
LINE
  8
_0-2______1
  6
CONTINUOUS
 62
    1
 10
860.5243024806623
 20
796.07017125485481
 11
861.17534284508201
 21
796.07017125485481
  0
LINE
  8
_0-2______1
  6
CONTINUOUS
 62
    1
 10
861.17534284508201
 20
796.07017125485481
 11
861.82638320950309
 21
796.07017125485481
  0
LINE
  8
_0-2______1
  6
CONTINUOUS
 62
    1
 10
861.82638320950309
 20
796.07017125485481
 11
862.47742357392417
 21
796.07017125485481
  0
LINE
  8
_0-2______1
  6
CONTINUOUS
 62
    1
 10
857.31110326271619
 20
796.07017125485481
 11
856.66006289829511
 21
796.697585154438
  0
LINE
  8
_0-2______1
  6
CONTINUOUS
 62
    1
 10
856.66006289829511
 20
796.697585154438
 11
856.00902253387403
 21
796.697585154438
  0
LINE
  8
_0-2______1
  6
CONTINUOUS
 62
    1
 10
856.00902253387403
 20
796.697585154438
 11
856.00902253387403
 21
797.34862551885817
  0
LINE
  8
_0-2______1
  6
CONTINUOUS
 62
    1
 10
856.00902253387403
 20
797.34862551885817
 11
855.37898347153214
 21
797.34862551885817
  0
LINE
  8
_0-2______1
  6
CONTINUOUS
 62
    1
 10
855.37898347153214
 20
797.34862551885817
 11
854.72794310711106
 21
797.34862551885817
  0
LINE
  8
_0-2______1
  6
CONTINUOUS
 62
    1
 10
854.72794310711106
 20
797.34862551885817
 11
854.72794310711106
 21
797.99966588327879
  0
LINE
  8
_0-2______1
  6
CONTINUOUS
 62
    1
 10
854.72794310711106
 20
797.99966588327879
 11
854.07690274268998
 21
797.99966588327879
  0
LINE
  8
_0-2______1
  6
CONTINUOUS
 62
    1
 10
854.07690274268998
 20
797.99966588327879
 11
853.42586237827027
 21
797.99966588327879
  0
LINE
  8
_0-2______1
  6
CONTINUOUS
 62
    1
 10
863.10746263626606
 20
807.03285093961586
 11
863.75850300068714
 21
807.03285093961586
  0
LINE
  8
_0-2______1
  6
CONTINUOUS
 62
    1
 10
863.75850300068714
 20
807.03285093961586
 11
864.40954336510731
 21
807.03285093961586
  0
LINE
  8
_0-2______1
  6
CONTINUOUS
 62
    1
 10
864.40954336510731
 20
807.03285093961586
 11
865.03958242745011
 21
807.03285093961586
  0
LINE
  8
_0-2______1
  6
CONTINUOUS
 62
    1
 10
865.03958242745011
 20
807.03285093961586
 11
865.03958242745011
 21
806.38181057519387
  0
LINE
  8
_0-2______1
  6
CONTINUOUS
 62
    1
 10
865.03958242745011
 20
806.38181057519387
 11
865.69062279187119
 21
806.38181057519387
  0
LINE
  8
_0-2______1
  6
CONTINUOUS
 62
    1
 10
865.69062279187119
 20
806.38181057519387
 11
865.69062279187119
 21
805.73077021077415
  0
LINE
  8
_0-2______1
  6
CONTINUOUS
 62
    1
 10
865.69062279187119
 20
805.73077021077415
 11
866.34166315629
 21
805.73077021077415
  0
LINE
  8
_0-2______1
  6
CONTINUOUS
 62
    1
 10
866.34166315629
 20
805.73077021077415
 11
866.99270352071107
 21
805.73077021077415
  0
LINE
  8
_0-2______1
  6
CONTINUOUS
 62
    1
 10
866.99270352071107
 20
805.73077021077415
 11
866.99270352071107
 21
804.44969078400982
  0
LINE
  8
_0-2______1
  6
CONTINUOUS
 62
    1
 10
866.99270352071107
 20
804.44969078400982
 11
867.62274258305388
 21
804.44969078400982
  0
LINE
  8
_0-2______1
  6
CONTINUOUS
 62
    1
 10
867.62274258305388
 20
804.44969078400982
 11
867.62274258305388
 21
803.80127558234881
  0
LINE
  8
_0-2______1
  6
CONTINUOUS
 62
    1
 10
858.59218268947825
 20
796.07017125485481
 11
857.94114232505808
 21
795.4191308904351
  0
LINE
  8
_0-2______1
  6
CONTINUOUS
 62
    1
 10
857.94114232505808
 20
795.4191308904351
 11
857.31110326271619
 21
795.4191308904351
  0
LINE
  8
_0-2______1
  6
CONTINUOUS
 62
    1
 10
857.31110326271619
 20
795.4191308904351
 11
856.66006289829511
 21
795.4191308904351
  0
LINE
  8
_0-2______1
  6
CONTINUOUS
 62
    1
 10
856.66006289829511
 20
795.4191308904351
 11
856.66006289829511
 21
794.76809052601493
  0
LINE
  8
_0-2______1
  6
CONTINUOUS
 62
    1
 10
861.82638320950309
 20
795.4191308904351
 11
861.17534284508201
 21
795.4191308904351
  0
LINE
  8
_0-2______1
  6
CONTINUOUS
 62
    1
 10
861.17534284508201
 20
795.4191308904351
 11
860.5243024806623
 21
795.4191308904351
  0
LINE
  8
_0-2______1
  6
CONTINUOUS
 62
    1
 10
860.5243024806623
 20
795.4191308904351
 11
859.89426341831904
 21
796.07017125485481
  0
LINE
  8
_0-2______1
  6
CONTINUOUS
 62
    1
 10
859.89426341831904
 20
796.07017125485481
 11
859.24322305389887
 21
796.07017125485481
  0
LINE
  8
_0-2______1
  6
CONTINUOUS
 62
    1
 10
859.24322305389887
 20
796.07017125485481
 11
858.59218268947825
 21
796.07017125485481
  0
LINE
  8
_0-2______1
  6
CONTINUOUS
 62
    1
 10
868.27378294747405
 20
803.80127558234881
 11
867.62274258305388
 21
803.80127558234881
  0
LINE
  8
_0-2______1
  6
CONTINUOUS
 62
    1
 10
867.62274258305388
 20
803.80127558234881
 11
867.62274258305388
 21
805.10073114843181
  0
LINE
  8
_0-2______1
  6
CONTINUOUS
 62
    1
 10
867.62274258305388
 20
805.10073114843181
 11
866.99270352071107
 21
805.10073114843181
  0
LINE
  8
_0-2______1
  6
CONTINUOUS
 62
    1
 10
866.99270352071107
 20
805.10073114843181
 11
866.99270352071107
 21
805.73077021077415
  0
LINE
  8
_0-2______1
  6
CONTINUOUS
 62
    1
 10
866.99270352071107
 20
805.73077021077415
 11
866.34166315629
 21
805.73077021077415
  0
LINE
  8
_0-2______1
  6
CONTINUOUS
 62
    1
 10
866.34166315629
 20
805.73077021077415
 11
866.34166315629
 21
806.38181057519387
  0
LINE
  8
_0-2______1
  6
CONTINUOUS
 62
    1
 10
866.34166315629
 20
806.38181057519387
 11
865.69062279187119
 21
806.38181057519387
  0
LINE
  8
_0-2______1
  6
CONTINUOUS
 62
    1
 10
865.69062279187119
 20
806.38181057519387
 11
865.03958242745011
 21
807.03285093961586
  0
LINE
  8
_0-2______1
  6
CONTINUOUS
 62
    1
 10
865.03958242745011
 20
807.03285093961586
 11
864.40954336510731
 21
807.03285093961586
  0
LINE
  8
_0-2______1
  6
CONTINUOUS
 62
    1
 10
864.40954336510731
 20
807.03285093961586
 11
863.75850300068714
 21
807.03285093961586
  0
LINE
  8
_0-2______1
  6
CONTINUOUS
 62
    1
 10
863.75850300068714
 20
807.03285093961586
 11
863.75850300068714
 21
807.68389130403602
  0
LINE
  8
_0-2______1
  6
CONTINUOUS
 62
    1
 10
863.75850300068714
 20
807.68389130403602
 11
863.10746263626606
 21
807.68389130403602
  0
LINE
  8
_0-2______1
  6
CONTINUOUS
 62
    1
 10
848.910582431482
 20
803.16598619448723
 11
848.2805433691401
 21
803.16598619448723
  0
LINE
  8
_0-2______1
  6
CONTINUOUS
 62
    1
 10
848.2805433691401
 20
803.16598619448723
 11
848.2805433691401
 21
802.51494583006797
  0
LINE
  8
_0-2______1
  6
CONTINUOUS
 62
    1
 10
848.2805433691401
 20
802.51494583006797
 11
847.62950300471903
 21
802.51494583006797
  0
LINE
  8
_0-2______1
  6
CONTINUOUS
 62
    1
 10
847.62950300471903
 20
802.51494583006797
 11
847.62950300471903
 21
801.21549026398588
  0
LINE
  8
_0-2______1
  6
CONTINUOUS
 62
    1
 10
860.5243024806623
 20
807.68389130403602
 11
859.89426341831904
 21
807.68389130403602
  0
LINE
  8
_0-2______1
  6
CONTINUOUS
 62
    1
 10
859.89426341831904
 20
807.68389130403602
 11
859.24322305389887
 21
807.68389130403602
  0
LINE
  8
_0-2______1
  6
CONTINUOUS
 62
    1
 10
859.24322305389887
 20
807.68389130403602
 11
859.24322305389887
 21
808.31130520361921
  0
LINE
  8
_0-2______1
  6
CONTINUOUS
 62
    1
 10
859.24322305389887
 20
808.31130520361921
 11
858.59218268947825
 21
808.31130520361921
  0
LINE
  8
_0-2______1
  6
CONTINUOUS
 62
    1
 10
858.59218268947825
 20
808.31130520361921
 11
857.94114232505808
 21
808.31130520361921
  0
LINE
  8
_0-2______1
  6
CONTINUOUS
 62
    1
 10
857.94114232505808
 20
808.31130520361921
 11
857.31110326271619
 21
808.31130520361921
  0
LINE
  8
_0-2______1
  6
CONTINUOUS
 62
    1
 10
857.31110326271619
 20
808.31130520361921
 11
857.31110326271619
 21
807.68389130403602
  0
LINE
  8
_0-2______1
  6
CONTINUOUS
 62
    1
 10
857.31110326271619
 20
807.68389130403602
 11
856.66006289829511
 21
807.68389130403602
  0
LINE
  8
_0-2______1
  6
CONTINUOUS
 62
    1
 10
856.66006289829511
 20
807.68389130403602
 11
856.00902253387403
 21
807.68389130403602
  0
LINE
  8
_0-2______1
  6
CONTINUOUS
 62
    1
 10
856.00902253387403
 20
807.68389130403602
 11
855.37898347153214
 21
807.68389130403602
  0
LINE
  8
_0-2______1
  6
CONTINUOUS
 62
    1
 10
855.37898347153214
 20
807.68389130403602
 11
854.72794310711106
 21
807.68389130403602
  0
LINE
  8
_0-2______1
  6
CONTINUOUS
 62
    1
 10
854.72794310711106
 20
807.68389130403602
 11
854.07690274268998
 21
807.68389130403602
  0
LINE
  8
_0-2______1
  6
CONTINUOUS
 62
    1
 10
854.07690274268998
 20
807.68389130403602
 11
853.42586237827027
 21
807.68389130403602
  0
LINE
  8
_0-2______1
  6
CONTINUOUS
 62
    1
 10
853.42586237827027
 20
807.68389130403602
 11
852.79582331592701
 21
807.68389130403602
  0
LINE
  8
_0-2______1
  6
CONTINUOUS
 62
    1
 10
852.79582331592701
 20
807.68389130403602
 11
852.79582331592701
 21
807.03285093961586
  0
LINE
  8
_0-2______1
  6
CONTINUOUS
 62
    1
 10
852.79582331592701
 20
807.03285093961586
 11
852.1447829515073
 21
807.03285093961586
  0
LINE
  8
_0-2______1
  6
CONTINUOUS
 62
    1
 10
852.1447829515073
 20
807.03285093961586
 11
851.49374258708713
 21
807.03285093961586
  0
LINE
  8
_0-2______1
  6
CONTINUOUS
 62
    1
 10
851.49374258708713
 20
807.03285093961586
 11
850.86370352474387
 21
806.38181057519387
  0
LINE
  8
_0-2______1
  6
CONTINUOUS
 62
    1
 10
850.86370352474387
 20
806.38181057519387
 11
850.86370352474387
 21
805.73077021077415
  0
LINE
  8
_0-2______1
  6
CONTINUOUS
 62
    1
 10
850.86370352474387
 20
805.73077021077415
 11
850.21266316032325
 21
805.73077021077415
  0
LINE
  8
_0-2______1
  6
CONTINUOUS
 62
    1
 10
850.21266316032325
 20
805.73077021077415
 11
849.56162279590308
 21
805.73077021077415
  0
LINE
  8
_0-2______1
  6
CONTINUOUS
 62
    1
 10
849.56162279590308
 20
805.73077021077415
 11
849.56162279590308
 21
805.10073114843181
  0
LINE
  8
_0-2______1
  6
CONTINUOUS
 62
    1
 10
849.56162279590308
 20
805.10073114843181
 11
848.910582431482
 21
805.10073114843181
  0
LINE
  8
_0-2______1
  6
CONTINUOUS
 62
    1
 10
848.910582431482
 20
805.10073114843181
 11
848.910582431482
 21
803.80127558234881
  0
LINE
  8
_0-2______1
  6
CONTINUOUS
 62
    1
 10
848.910582431482
 20
803.80127558234881
 11
848.910582431482
 21
804.4523159467708
  0
LINE
  8
_0-2______1
  6
CONTINUOUS
 62
    1
 10
848.910582431482
 20
804.4523159467708
 11
849.56162279590308
 21
804.4523159467708
  0
LINE
  8
_0-2______1
  6
CONTINUOUS
 62
    1
 10
849.56162279590308
 20
804.4523159467708
 11
849.56162279590308
 21
805.73077021077415
  0
LINE
  8
_0-2______1
  6
CONTINUOUS
 62
    1
 10
849.56162279590308
 20
805.73077021077415
 11
850.21266316032325
 21
805.73077021077415
  0
LINE
  8
_0-2______1
  6
CONTINUOUS
 62
    1
 10
850.21266316032325
 20
805.73077021077415
 11
850.86370352474387
 21
805.73077021077415
  0
LINE
  8
_0-2______1
  6
CONTINUOUS
 62
    1
 10
850.86370352474387
 20
805.73077021077415
 11
850.86370352474387
 21
806.38181057519387
  0
LINE
  8
_0-2______1
  6
CONTINUOUS
 62
    1
 10
850.86370352474387
 20
806.38181057519387
 11
851.49374258708713
 21
806.38181057519387
  0
LINE
  8
_0-2______1
  6
CONTINUOUS
 62
    1
 10
851.49374258708713
 20
806.38181057519387
 11
851.49374258708713
 21
807.03285093961586
  0
LINE
  8
_0-2______1
  6
CONTINUOUS
 62
    1
 10
851.49374258708713
 20
807.03285093961586
 11
852.1447829515073
 21
807.03285093961586
  0
LINE
  8
_0-2______1
  6
CONTINUOUS
 62
    1
 10
852.1447829515073
 20
807.03285093961586
 11
852.79582331592701
 21
807.03285093961586
  0
LINE
  8
_0-2______1
  6
CONTINUOUS
 62
    1
 10
852.79582331592701
 20
807.03285093961586
 11
853.42586237827027
 21
807.03285093961586
  0
LINE
  8
_0-2______1
  6
CONTINUOUS
 62
    1
 10
853.42586237827027
 20
807.03285093961586
 11
853.42586237827027
 21
807.68389130403602
  0
LINE
  8
_0-2______1
  6
CONTINUOUS
 62
    1
 10
853.42586237827027
 20
807.68389130403602
 11
854.07690274268998
 21
807.68389130403602
  0
LINE
  8
_0-2______1
  6
CONTINUOUS
 62
    1
 10
854.07690274268998
 20
807.68389130403602
 11
854.72794310711106
 21
807.68389130403602
  0
LINE
  8
_0-2______1
  6
CONTINUOUS
 62
    1
 10
854.72794310711106
 20
807.68389130403602
 11
855.37898347153214
 21
807.68389130403602
  0
LINE
  8
_0-2______1
  6
CONTINUOUS
 62
    1
 10
855.37898347153214
 20
807.68389130403602
 11
856.00902253387403
 21
807.68389130403602
  0
LINE
  8
_0-2______1
  6
CONTINUOUS
 62
    1
 10
856.00902253387403
 20
807.68389130403602
 11
856.66006289829511
 21
807.68389130403602
  0
LINE
  8
_0-2______1
  6
CONTINUOUS
 62
    1
 10
856.66006289829511
 20
807.68389130403602
 11
857.31110326271619
 21
807.68389130403602
  0
LINE
  8
_0-2______1
  6
CONTINUOUS
 62
    1
 10
857.31110326271619
 20
807.68389130403602
 11
858.59218268947825
 21
807.68389130403602
  0
LINE
  8
_0-2______1
  6
CONTINUOUS
 62
    1
 10
858.59218268947825
 20
807.68389130403602
 11
859.24322305389887
 21
807.68389130403602
  0
LINE
  8
_0-2______1
  6
CONTINUOUS
 62
    1
 10
859.24322305389887
 20
807.68389130403602
 11
860.5243024806623
 21
807.68389130403602
  0
LINE
  8
_0-2______1
  6
CONTINUOUS
 62
    1
 10
860.5243024806623
 20
807.68389130403602
 11
861.17534284508201
 21
807.68389130403602
  0
LINE
  8
_0-2______1
  6
CONTINUOUS
 62
    1
 10
861.17534284508201
 20
799.2833704728032
 11
861.17534284508201
 21
798.65595657322001
  0
LINE
  8
_0-2______1
  6
CONTINUOUS
 62
    1
 10
861.17534284508201
 20
798.65595657322001
 11
860.5243024806623
 21
797.99966588327879
  0
LINE
  8
_0-2______1
  6
CONTINUOUS
 62
    1
 10
860.5243024806623
 20
797.99966588327879
 11
860.5243024806623
 21
797.34862551885817
  0
LINE
  8
_0-2______1
  6
CONTINUOUS
 62
    1
 10
860.5243024806623
 20
797.34862551885817
 11
859.89426341831904
 21
797.34862551885817
  0
LINE
  8
_0-2______1
  6
CONTINUOUS
 62
    1
 10
859.89426341831904
 20
797.34862551885817
 11
859.24322305389887
 21
797.34862551885817
  0
LINE
  8
_0-2______1
  6
CONTINUOUS
 62
    1
 10
859.24322305389887
 20
797.34862551885817
 11
859.24322305389887
 21
796.697585154438
  0
LINE
  8
_0-2______1
  6
CONTINUOUS
 62
    1
 10
868.92482331189512
 20
801.86653062840696
 11
868.92482331189512
 21
802.51494583006797
  0
LINE
  8
_0-2______1
  6
CONTINUOUS
 62
    1
 10
868.92482331189512
 20
802.51494583006797
 11
868.27378294747405
 21
802.51494583006797
  0
LINE
  8
_0-2______1
  6
CONTINUOUS
 62
    1
 10
868.27378294747405
 20
802.51494583006797
 11
868.27378294747405
 21
803.16598619448723
  0
LINE
  8
_0-2______1
  6
CONTINUOUS
 62
    1
 10
868.27378294747405
 20
803.16598619448723
 11
867.62274258305388
 21
803.16598619448723
  0
LINE
  8
_0-2______1
  6
CONTINUOUS
 62
    1
 10
867.62274258305388
 20
803.80127558234881
 11
866.99270352071107
 21
803.80127558234881
  0
LINE
  8
_0-2______1
  6
CONTINUOUS
 62
    1
 10
866.99270352071107
 20
803.80127558234881
 11
866.34166315629
 21
803.80127558234881
  0
LINE
  8
_0-2______1
  6
CONTINUOUS
 62
    1
 10
866.34166315629
 20
803.80127558234881
 11
866.34166315629
 21
804.4523159467708
  0
LINE
  8
_0-2______1
  6
CONTINUOUS
 62
    1
 10
866.34166315629
 20
804.4523159467708
 11
865.69062279187119
 21
804.4523159467708
  0
LINE
  8
_0-2______1
  6
CONTINUOUS
 62
    1
 10
865.69062279187119
 20
804.4523159467708
 11
865.69062279187119
 21
805.10073114843181
  0
LINE
  8
_0-2______1
  6
CONTINUOUS
 62
    1
 10
865.69062279187119
 20
805.10073114843181
 11
865.03958242745011
 21
805.10073114843181
  0
LINE
  8
_0-2______1
  6
CONTINUOUS
 62
    1
 10
862.47742357392417
 20
805.73077021077415
 11
861.17534284508201
 21
805.73077021077415
  0
LINE
  8
_0-2______1
  6
CONTINUOUS
 62
    1
 10
861.17534284508201
 20
805.73077021077415
 11
860.5243024806623
 21
805.73077021077415
  0
LINE
  8
_0-2______1
  6
CONTINUOUS
 62
    1
 10
860.5243024806623
 20
805.73077021077415
 11
859.24322305389887
 21
805.73077021077415
  0
LINE
  8
_0-2______1
  6
CONTINUOUS
 62
    1
 10
859.24322305389887
 20
805.73077021077415
 11
858.59218268947825
 21
805.73077021077415
  0
LINE
  8
_0-2______1
  6
CONTINUOUS
 62
    1
 10
858.59218268947825
 20
805.73077021077415
 11
857.31110326271619
 21
805.73077021077415
  0
LINE
  8
_0-2______1
  6
CONTINUOUS
 62
    1
 10
857.31110326271619
 20
805.73077021077415
 11
856.66006289829511
 21
805.73077021077415
  0
LINE
  8
_0-2______1
  6
CONTINUOUS
 62
    1
 10
856.66006289829511
 20
805.73077021077415
 11
855.37898347153214
 21
805.73077021077415
  0
LINE
  8
_0-2______1
  6
CONTINUOUS
 62
    1
 10
855.37898347153214
 20
805.73077021077415
 11
854.72794310711106
 21
805.73077021077415
  0
LINE
  8
_0-2______1
  6
CONTINUOUS
 62
    1
 10
854.72794310711106
 20
805.73077021077415
 11
853.42586237827027
 21
805.73077021077415
  0
LINE
  8
_0-2______1
  6
CONTINUOUS
 62
    1
 10
853.42586237827027
 20
805.73077021077415
 11
852.79582331592701
 21
805.73077021077415
  0
LINE
  8
_0-2______1
  6
CONTINUOUS
 62
    1
 10
852.79582331592701
 20
805.73077021077415
 11
852.79582331592701
 21
805.10073114843181
  0
LINE
  8
_0-2______1
  6
CONTINUOUS
 62
    1
 10
852.79582331592701
 20
805.10073114843181
 11
852.1447829515073
 21
805.10073114843181
  0
LINE
  8
_0-2______1
  6
CONTINUOUS
 62
    1
 10
852.1447829515073
 20
805.10073114843181
 11
851.49374258708713
 21
805.10073114843181
  0
LINE
  8
_0-2______1
  6
CONTINUOUS
 62
    1
 10
851.49374258708713
 20
805.10073114843181
 11
850.86370352474387
 21
805.10073114843181
  0
LINE
  8
_0-2______1
  6
CONTINUOUS
 62
    1
 10
850.86370352474387
 20
805.10073114843181
 11
850.86370352474387
 21
804.4523159467708
  0
LINE
  8
_0-2______1
  6
CONTINUOUS
 62
    1
 10
850.86370352474387
 20
804.4523159467708
 11
850.21266316032325
 21
804.4523159467708
  0
LINE
  8
_0-2______1
  6
CONTINUOUS
 62
    1
 10
850.21266316032325
 20
804.4523159467708
 11
849.56162279590308
 21
803.80127558234881
  0
LINE
  8
_0-2______1
  6
CONTINUOUS
 62
    1
 10
849.56162279590308
 20
803.80127558234881
 11
848.910582431482
 21
803.80127558234881
  0
LINE
  8
_0-2______1
  6
CONTINUOUS
 62
    1
 10
983.10890271043309
 20
897.98949023979321
 11
983.10890271043309
 21
898.64053060421202
  0
LINE
  8
_0-2______1
  6
CONTINUOUS
 62
    1
 10
983.10890271043309
 20
898.64053060421202
 11
983.75994307485325
 21
898.64053060421202
  0
LINE
  8
_0-2______1
  6
CONTINUOUS
 62
    1
 10
983.75994307485325
 20
898.64053060421202
 11
984.41098343927388
 21
898.64053060421202
  0
LINE
  8
_0-2______1
  6
CONTINUOUS
 62
    1
 10
984.41098343927388
 20
898.64053060421202
 11
984.41098343927388
 21
900.57527555815614
  0
LINE
  8
_0-2______1
  6
CONTINUOUS
 62
    1
 10
983.10890271043309
 20
897.98949023979321
 11
982.45786234601201
 21
897.35945117745086
  0
LINE
  8
_0-2______1
  6
CONTINUOUS
 62
    1
 10
982.45786234601201
 20
897.35945117745086
 11
981.8278232836692
 21
897.35945117745086
  0
LINE
  8
_0-2______1
  6
CONTINUOUS
 62
    1
 10
981.8278232836692
 20
897.35945117745086
 11
981.8278232836692
 21
896.70841081302797
  0
LINE
  8
_0-2______1
  6
CONTINUOUS
 62
    1
 10
981.8278232836692
 20
896.70841081302797
 11
981.17678291924904
 21
896.70841081302797
  0
LINE
  8
_0-2______1
  6
CONTINUOUS
 62
    1
 10
981.17678291924904
 20
896.70841081302797
 11
980.52574255482796
 21
896.05737044860916
  0
LINE
  8
_0-2______1
  6
CONTINUOUS
 62
    1
 10
980.52574255482796
 20
896.05737044860916
 11
979.89570349248606
 21
895.42995654902597
  0
LINE
  8
_0-2______1
  6
CONTINUOUS
 62
    1
 10
979.89570349248606
 20
895.42995654902597
 11
979.24466312806499
 21
895.42995654902597
  0
LINE
  8
_0-2______1
  6
CONTINUOUS
 62
    1
 10
979.24466312806499
 20
895.42995654902597
 11
978.59362276364527
 21
895.42995654902597
  0
LINE
  8
_0-2______1
  6
CONTINUOUS
 62
    1
 10
978.59362276364527
 20
895.42995654902597
 11
977.94258239922419
 21
894.77366585908612
  0
LINE
  8
_0-2______1
  6
CONTINUOUS
 62
    1
 10
977.94258239922419
 20
894.77366585908612
 11
977.31254333688094
 21
894.77366585908612
  0
LINE
  8
_0-2______1
  6
CONTINUOUS
 62
    1
 10
977.31254333688094
 20
894.77366585908612
 11
976.66150297246122
 21
894.77366585908612
  0
LINE
  8
_0-2______1
  6
CONTINUOUS
 62
    1
 10
976.66150297246122
 20
894.77366585908612
 11
975.38042354569825
 21
894.77366585908612
  0
LINE
  8
_0-2______1
  6
CONTINUOUS
 62
    1
 10
975.38042354569825
 20
894.77366585908612
 11
974.72938318127808
 21
894.77366585908612
  0
LINE
  8
_0-2______1
  6
CONTINUOUS
 62
    1
 10
974.72938318127808
 20
894.77366585908612
 11
974.078342816857
 21
894.77366585908612
  0
LINE
  8
_0-2______1
  6
CONTINUOUS
 62
    1
 10
974.078342816857
 20
894.77366585908612
 11
973.42730245243592
 21
894.77366585908612
  0
LINE
  8
_0-2______1
  6
CONTINUOUS
 62
    1
 10
973.42730245243592
 20
894.77366585908612
 11
972.79726339009403
 21
894.77366585908612
  0
LINE
  8
_0-2______1
  6
CONTINUOUS
 62
    1
 10
972.79726339009403
 20
894.77366585908612
 11
972.14622302567295
 21
894.77366585908612
  0
LINE
  8
_0-2______1
  6
CONTINUOUS
 62
    1
 10
972.14622302567295
 20
894.77366585908612
 11
971.49518266125187
 21
894.77366585908612
  0
LINE
  8
_0-2______1
  6
CONTINUOUS
 62
    1
 10
971.49518266125187
 20
894.77366585908612
 11
970.84414229683216
 21
894.77366585908612
  0
LINE
  8
_0-2______1
  6
CONTINUOUS
 62
    1
 10
970.84414229683216
 20
894.77366585908612
 11
969.56306287006919
 21
894.77366585908612
  0
LINE
  8
_0-2______1
  6
CONTINUOUS
 62
    1
 10
969.56306287006919
 20
894.77366585908612
 11
968.91202250564902
 21
895.42995654902597
  0
LINE
  8
_0-2______1
  6
CONTINUOUS
 62
    1
 10
968.91202250564902
 20
895.42995654902597
 11
967.63094307888514
 21
895.42995654902597
  0
LINE
  8
_0-2______1
  6
CONTINUOUS
 62
    1
 10
967.63094307888514
 20
895.42995654902597
 11
966.97990271446406
 21
896.05737044860916
  0
LINE
  8
_0-2______1
  6
CONTINUOUS
 62
    1
 10
966.97990271446406
 20
896.05737044860916
 11
966.97990271446406
 21
896.70841081302797
  0
LINE
  8
_0-2______1
  6
CONTINUOUS
 62
    1
 10
966.97990271446406
 20
896.70841081302797
 11
966.32886235004389
 21
896.70841081302797
  0
LINE
  8
_0-2______1
  6
CONTINUOUS
 62
    1
 10
966.32886235004389
 20
896.70841081302797
 11
965.698823287702
 21
896.70841081302797
  0
LINE
  8
_0-2______1
  6
CONTINUOUS
 62
    1
 10
965.698823287702
 20
896.70841081302797
 11
965.698823287702
 21
897.35945117745086
  0
LINE
  8
_0-2______1
  6
CONTINUOUS
 62
    1
 10
965.698823287702
 20
897.35945117745086
 11
965.04778292328092
 21
897.35945117745086
  0
LINE
  8
_0-2______1
  6
CONTINUOUS
 62
    1
 10
965.04778292328092
 20
897.35945117745086
 11
964.39674255886121
 21
897.98949023979321
  0
LINE
  8
_0-2______1
  6
CONTINUOUS
 62
    1
 10
980.52574255482796
 20
905.08530517942381
 11
981.17678291924904
 21
905.08530517942381
  0
LINE
  8
_0-2______1
  6
CONTINUOUS
 62
    1
 10
981.17678291924904
 20
905.08530517942381
 11
981.8278232836692
 21
905.08530517942381
  0
LINE
  8
_0-2______1
  6
CONTINUOUS
 62
    1
 10
981.8278232836692
 20
905.08530517942381
 11
981.8278232836692
 21
904.45789127984199
  0
LINE
  8
_0-2______1
  6
CONTINUOUS
 62
    1
 10
981.8278232836692
 20
904.45789127984199
 11
982.45786234601201
 21
904.45789127984199
  0
LINE
  8
_0-2______1
  6
CONTINUOUS
 62
    1
 10
982.45786234601201
 20
904.45789127984199
 11
983.10890271043309
 21
904.45789127984199
  0
LINE
  8
_0-2______1
  6
CONTINUOUS
 62
    1
 10
983.10890271043309
 20
904.45789127984199
 11
983.10890271043309
 21
903.15581055099983
  0
LINE
  8
_0-2______1
  6
CONTINUOUS
 62
    1
 10
983.75994307485325
 20
903.15581055099983
 11
984.41098343927388
 21
903.15581055099983
  0
LINE
  8
_0-2______1
  6
CONTINUOUS
 62
    1
 10
984.41098343927388
 20
903.15581055099983
 11
984.41098343927388
 21
901.87473112423822
  0
LINE
  8
_0-2______1
  6
CONTINUOUS
 62
    1
 10
978.59362276364527
 20
909.60058512621299
 11
978.59362276364527
 21
908.97317122662889
  0
LINE
  8
_0-2______1
  6
CONTINUOUS
 62
    1
 10
978.59362276364527
 20
908.97317122662889
 11
979.24466312806499
 21
908.97317122662889
  0
LINE
  8
_0-2______1
  6
CONTINUOUS
 62
    1
 10
979.24466312806499
 20
908.97317122662889
 11
980.52574255482796
 21
908.97317122662889
  0
LINE
  8
_0-2______1
  6
CONTINUOUS
 62
    1
 10
980.52574255482796
 20
908.97317122662889
 11
980.52574255482796
 21
908.32213086221009
  0
LINE
  8
_0-2______1
  6
CONTINUOUS
 62
    1
 10
980.52574255482796
 20
908.32213086221009
 11
981.17678291924904
 21
908.32213086221009
  0
LINE
  8
_0-2______1
  6
CONTINUOUS
 62
    1
 10
981.17678291924904
 20
908.32213086221009
 11
981.8278232836692
 21
908.32213086221009
  0
LINE
  8
_0-2______1
  6
CONTINUOUS
 62
    1
 10
981.8278232836692
 20
908.32213086221009
 11
981.8278232836692
 21
907.6710904977881
  0
LINE
  8
_0-2______1
  6
CONTINUOUS
 62
    1
 10
981.8278232836692
 20
907.6710904977881
 11
982.45786234601201
 21
907.6710904977881
  0
LINE
  8
_0-2______1
  6
CONTINUOUS
 62
    1
 10
982.45786234601201
 20
907.6710904977881
 11
982.45786234601201
 21
907.02005013336793
  0
LINE
  8
_0-2______1
  6
CONTINUOUS
 62
    1
 10
982.45786234601201
 20
907.02005013336793
 11
983.10890271043309
 21
907.02005013336793
  0
LINE
  8
_0-2______1
  6
CONTINUOUS
 62
    1
 10
983.10890271043309
 20
907.02005013336793
 11
983.10890271043309
 21
905.08530517942381
  0
LINE
  8
_0-2______1
  6
CONTINUOUS
 62
    1
 10
963.76670349651795
 20
905.08530517942381
 11
963.76670349651795
 21
905.74159586936503
  0
LINE
  8
_0-2______1
  6
CONTINUOUS
 62
    1
 10
963.76670349651795
 20
905.74159586936503
 11
964.39674255886121
 21
906.39263623378383
  0
LINE
  8
_0-2______1
  6
CONTINUOUS
 62
    1
 10
964.39674255886121
 20
906.39263623378383
 11
964.39674255886121
 21
907.02005013336793
  0
LINE
  8
_0-2______1
  6
CONTINUOUS
 62
    1
 10
964.39674255886121
 20
907.02005013336793
 11
965.04778292328092
 21
907.02005013336793
  0
LINE
  8
_0-2______1
  6
CONTINUOUS
 62
    1
 10
965.04778292328092
 20
907.02005013336793
 11
965.04778292328092
 21
907.6710904977881
  0
LINE
  8
_0-2______1
  6
CONTINUOUS
 62
    1
 10
965.04778292328092
 20
907.6710904977881
 11
965.698823287702
 21
907.6710904977881
  0
LINE
  8
_0-2______1
  6
CONTINUOUS
 62
    1
 10
965.698823287702
 20
907.6710904977881
 11
965.698823287702
 21
908.32213086221009
  0
LINE
  8
_0-2______1
  6
CONTINUOUS
 62
    1
 10
965.698823287702
 20
908.32213086221009
 11
966.32886235004389
 21
908.32213086221009
  0
LINE
  8
_0-2______1
  6
CONTINUOUS
 62
    1
 10
966.32886235004389
 20
908.32213086221009
 11
966.97990271446406
 21
908.32213086221009
  0
LINE
  8
_0-2______1
  6
CONTINUOUS
 62
    1
 10
966.97990271446406
 20
908.32213086221009
 11
966.97990271446406
 21
908.97317122662889
  0
LINE
  8
_0-2______1
  6
CONTINUOUS
 62
    1
 10
966.97990271446406
 20
908.97317122662889
 11
967.63094307888514
 21
908.97317122662889
  0
LINE
  8
_0-2______1
  6
CONTINUOUS
 62
    1
 10
967.63094307888514
 20
908.97317122662889
 11
968.28198344330622
 21
908.97317122662889
  0
LINE
  8
_0-2______1
  6
CONTINUOUS
 62
    1
 10
968.28198344330622
 20
908.97317122662889
 11
968.91202250564902
 21
908.97317122662889
  0
LINE
  8
_0-2______1
  6
CONTINUOUS
 62
    1
 10
968.91202250564902
 20
908.97317122662889
 11
968.91202250564902
 21
909.60058512621299
  0
LINE
  8
_0-2______1
  6
CONTINUOUS
 62
    1
 10
968.91202250564902
 20
909.60058512621299
 11
969.56306287006919
 21
909.60058512621299
  0
LINE
  8
_0-2______1
  6
CONTINUOUS
 62
    1
 10
969.56306287006919
 20
909.60058512621299
 11
970.21410323449027
 21
909.60058512621299
  0
LINE
  8
_0-2______1
  6
CONTINUOUS
 62
    1
 10
970.21410323449027
 20
909.60058512621299
 11
970.21410323449027
 21
910.2516254906318
  0
LINE
  8
_0-2______1
  6
CONTINUOUS
 62
    1
 10
970.21410323449027
 20
910.2516254906318
 11
970.84414229683216
 21
910.2516254906318
  0
LINE
  8
_0-2______1
  6
CONTINUOUS
 62
    1
 10
970.84414229683216
 20
910.2516254906318
 11
971.49518266125187
 21
910.2516254906318
  0
LINE
  8
_0-2______1
  6
CONTINUOUS
 62
    1
 10
971.49518266125187
 20
910.2516254906318
 11
972.79726339009403
 21
910.2516254906318
  0
LINE
  8
_0-2______1
  6
CONTINUOUS
 62
    1
 10
972.79726339009403
 20
910.2516254906318
 11
973.42730245243592
 21
910.2516254906318
  0
LINE
  8
_0-2______1
  6
CONTINUOUS
 62
    1
 10
973.42730245243592
 20
910.2516254906318
 11
974.72938318127808
 21
910.2516254906318
  0
LINE
  8
_0-2______1
  6
CONTINUOUS
 62
    1
 10
974.72938318127808
 20
910.2516254906318
 11
975.38042354569825
 21
910.2516254906318
  0
LINE
  8
_0-2______1
  6
CONTINUOUS
 62
    1
 10
975.38042354569825
 20
910.2516254906318
 11
976.01046260804105
 21
910.2516254906318
  0
LINE
  8
_0-2______1
  6
CONTINUOUS
 62
    1
 10
976.01046260804105
 20
910.2516254906318
 11
976.66150297246122
 21
910.2516254906318
  0
LINE
  8
_0-2______1
  6
CONTINUOUS
 62
    1
 10
976.66150297246122
 20
910.2516254906318
 11
977.31254333688094
 21
910.2516254906318
  0
LINE
  8
_0-2______1
  6
CONTINUOUS
 62
    1
 10
977.31254333688094
 20
910.2516254906318
 11
977.31254333688094
 21
909.60058512621299
  0
LINE
  8
_0-2______1
  6
CONTINUOUS
 62
    1
 10
977.31254333688094
 20
909.60058512621299
 11
977.94258239922419
 21
909.60058512621299
  0
LINE
  8
_0-2______1
  6
CONTINUOUS
 62
    1
 10
977.94258239922419
 20
909.60058512621299
 11
978.59362276364527
 21
909.60058512621299
  0
LINE
  8
_0-2______1
  6
CONTINUOUS
 62
    1
 10
970.84414229683216
 20
894.77366585908612
 11
970.84414229683216
 21
895.42995654902597
  0
LINE
  8
_0-2______1
  6
CONTINUOUS
 62
    1
 10
970.84414229683216
 20
895.42995654902597
 11
971.49518266125187
 21
895.42995654902597
  0
LINE
  8
_0-2______1
  6
CONTINUOUS
 62
    1
 10
971.49518266125187
 20
895.42995654902597
 11
972.14622302567295
 21
895.42995654902597
  0
LINE
  8
_0-2______1
  6
CONTINUOUS
 62
    1
 10
972.14622302567295
 20
895.42995654902597
 11
972.79726339009403
 21
895.42995654902597
  0
LINE
  8
_0-2______1
  6
CONTINUOUS
 62
    1
 10
972.79726339009403
 20
895.42995654902597
 11
972.79726339009403
 21
896.05737044860916
  0
LINE
  8
_0-2______1
  6
CONTINUOUS
 62
    1
 10
963.11566313209823
 20
900.57527555815614
 11
963.11566313209823
 21
899.28894580587303
  0
LINE
  8
_0-2______1
  6
CONTINUOUS
 62
    1
 10
963.11566313209823
 20
899.28894580587303
 11
963.76670349651795
 21
899.28894580587303
  0
LINE
  8
_0-2______1
  6
CONTINUOUS
 62
    1
 10
963.76670349651795
 20
899.28894580587303
 11
963.76670349651795
 21
897.98949023979321
  0
LINE
  8
_0-2______1
  6
CONTINUOUS
 62
    1
 10
963.76670349651795
 20
897.98949023979321
 11
964.39674255886121
 21
897.98949023979321
  0
LINE
  8
_0-2______1
  6
CONTINUOUS
 62
    1
 10
963.11566313209823
 20
901.22631592257721
 11
963.11566313209823
 21
902.50477018658012
  0
LINE
  8
_0-2______1
  6
CONTINUOUS
 62
    1
 10
963.11566313209823
 20
902.50477018658012
 11
963.76670349651795
 21
902.50477018658012
  0
LINE
  8
_0-2______1
  6
CONTINUOUS
 62
    1
 10
963.76670349651795
 20
902.50477018658012
 11
963.76670349651795
 21
903.15581055099983
  0
LINE
  8
_0-2______1
  6
CONTINUOUS
 62
    1
 10
963.76670349651795
 20
903.15581055099983
 11
964.39674255886121
 21
903.80685091542182
  0
LINE
  8
_0-2______1
  6
CONTINUOUS
 62
    1
 10
964.39674255886121
 20
903.80685091542182
 11
965.04778292328092
 21
904.45526611708283
  0
LINE
  8
_0-2______1
  6
CONTINUOUS
 62
    1
 10
965.04778292328092
 20
904.45526611708283
 11
965.698823287702
 21
904.45526611708283
  0
LINE
  8
_0-2______1
  6
CONTINUOUS
 62
    1
 10
965.698823287702
 20
904.45526611708283
 11
965.698823287702
 21
905.08530517942381
  0
LINE
  8
_0-2______1
  6
CONTINUOUS
 62
    1
 10
965.698823287702
 20
905.08530517942381
 11
966.32886235004389
 21
905.08530517942381
  0
LINE
  8
_0-2______1
  6
CONTINUOUS
 62
    1
 10
966.32886235004389
 20
905.08530517942381
 11
966.97990271446406
 21
905.08530517942381
  0
LINE
  8
_0-2______1
  6
CONTINUOUS
 62
    1
 10
966.97990271446406
 20
905.08530517942381
 11
967.63094307888514
 21
905.08530517942381
  0
LINE
  8
_0-2______1
  6
CONTINUOUS
 62
    1
 10
967.63094307888514
 20
905.08530517942381
 11
967.63094307888514
 21
905.74159586936503
  0
LINE
  8
_0-2______1
  6
CONTINUOUS
 62
    1
 10
967.63094307888514
 20
905.74159586936503
 11
968.28198344330622
 21
905.74159586936503
  0
LINE
  8
_0-2______1
  6
CONTINUOUS
 62
    1
 10
968.28198344330622
 20
905.74159586936503
 11
968.91202250564902
 21
905.74159586936503
  0
LINE
  8
_0-2______1
  6
CONTINUOUS
 62
    1
 10
968.91202250564902
 20
905.74159586936503
 11
968.91202250564902
 21
906.39263623378383
  0
LINE
  8
_0-2______1
  6
CONTINUOUS
 62
    1
 10
968.91202250564902
 20
906.39263623378383
 11
969.56306287006919
 21
906.39263623378383
  0
LINE
  8
_0-2______1
  6
CONTINUOUS
 62
    1
 10
969.56306287006919
 20
906.39263623378383
 11
970.21410323449027
 21
906.39263623378383
  0
LINE
  8
_0-2______1
  6
CONTINUOUS
 62
    1
 10
970.21410323449027
 20
906.39263623378383
 11
970.84414229683216
 21
906.39263623378383
  0
LINE
  8
_0-2______1
  6
CONTINUOUS
 62
    1
 10
970.84414229683216
 20
906.39263623378383
 11
971.49518266125187
 21
906.39263623378383
  0
LINE
  8
_0-2______1
  6
CONTINUOUS
 62
    1
 10
971.49518266125187
 20
906.39263623378383
 11
972.79726339009403
 21
906.39263623378383
  0
LINE
  8
_0-2______1
  6
CONTINUOUS
 62
    1
 10
972.79726339009403
 20
906.39263623378383
 11
973.42730245243592
 21
906.39263623378383
  0
LINE
  8
_0-2______1
  6
CONTINUOUS
 62
    1
 10
973.42730245243592
 20
906.39263623378383
 11
974.72938318127808
 21
906.39263623378383
  0
LINE
  8
_0-2______1
  6
CONTINUOUS
 62
    1
 10
974.72938318127808
 20
906.39263623378383
 11
975.38042354569825
 21
906.39263623378383
  0
LINE
  8
_0-2______1
  6
CONTINUOUS
 62
    1
 10
975.38042354569825
 20
906.39263623378383
 11
976.01046260804105
 21
906.39263623378383
  0
LINE
  8
_0-2______1
  6
CONTINUOUS
 62
    1
 10
976.01046260804105
 20
906.39263623378383
 11
976.66150297246122
 21
906.39263623378383
  0
LINE
  8
_0-2______1
  6
CONTINUOUS
 62
    1
 10
976.66150297246122
 20
906.39263623378383
 11
977.31254333688094
 21
906.39263623378383
  0
LINE
  8
_0-2______1
  6
CONTINUOUS
 62
    1
 10
969.56306287006919
 20
898.64053060421202
 11
970.21410323449027
 21
898.64053060421202
  0
LINE
  8
_0-2______1
  6
CONTINUOUS
 62
    1
 10
970.21410323449027
 20
898.64053060421202
 11
970.84414229683216
 21
897.98949023979321
  0
LINE
  8
_0-2______1
  6
CONTINUOUS
 62
    1
 10
970.84414229683216
 20
897.98949023979321
 11
971.49518266125187
 21
897.35945117745086
  0
LINE
  8
_0-2______1
  6
CONTINUOUS
 62
    1
 10
971.49518266125187
 20
897.35945117745086
 11
972.14622302567295
 21
897.35945117745086
  0
LINE
  8
_0-2______1
  6
CONTINUOUS
 62
    1
 10
972.14622302567295
 20
897.35945117745086
 11
972.79726339009403
 21
897.35945117745086
  0
LINE
  8
_0-2______1
  6
CONTINUOUS
 62
    1
 10
972.79726339009403
 20
897.35945117745086
 11
972.79726339009403
 21
896.70841081302797
  0
LINE
  8
_0-2______1
  6
CONTINUOUS
 62
    1
 10
973.42730245243592
 20
896.70841081302797
 11
974.078342816857
 21
897.35945117745086
  0
LINE
  8
_0-2______1
  6
CONTINUOUS
 62
    1
 10
974.078342816857
 20
897.35945117745086
 11
974.72938318127808
 21
897.35945117745086
  0
LINE
  8
_0-2______1
  6
CONTINUOUS
 62
    1
 10
974.72938318127808
 20
897.35945117745086
 11
974.72938318127808
 21
897.98949023979321
  0
LINE
  8
_0-2______1
  6
CONTINUOUS
 62
    1
 10
974.72938318127808
 20
896.70841081302797
 11
975.38042354569825
 21
896.70841081302797
  0
LINE
  8
_0-2______1
  6
CONTINUOUS
 62
    1
 10
975.38042354569825
 20
896.70841081302797
 11
975.38042354569825
 21
896.05737044860916
  0
LINE
  8
_0-2______1
  6
CONTINUOUS
 62
    1
 10
975.38042354569825
 20
896.05737044860916
 11
976.01046260804105
 21
896.05737044860916
  0
LINE
  8
_0-2______1
  6
CONTINUOUS
 62
    1
 10
976.01046260804105
 20
896.05737044860916
 11
976.66150297246122
 21
896.05737044860916
  0
LINE
  8
_0-2______1
  6
CONTINUOUS
 62
    1
 10
976.66150297246122
 20
896.05737044860916
 11
977.31254333688094
 21
896.05737044860916
  0
LINE
  8
_0-2______1
  6
CONTINUOUS
 62
    1
 10
977.31254333688094
 20
896.05737044860916
 11
977.94258239922419
 21
896.05737044860916
  0
LINE
  8
_0-2______1
  6
CONTINUOUS
 62
    1
 10
972.79726339009403
 20
896.05737044860916
 11
972.79726339009403
 21
896.70841081302797
  0
LINE
  8
_0-2______1
  6
CONTINUOUS
 62
    1
 10
972.79726339009403
 20
896.70841081302797
 11
972.14622302567295
 21
896.70841081302797
  0
LINE
  8
_0-2______1
  6
CONTINUOUS
 62
    1
 10
972.14622302567295
 20
896.70841081302797
 11
971.49518266125187
 21
896.70841081302797
  0
LINE
  8
_0-2______1
  6
CONTINUOUS
 62
    1
 10
971.49518266125187
 20
896.70841081302797
 11
970.84414229683216
 21
896.70841081302797
  0
LINE
  8
_0-2______1
  6
CONTINUOUS
 62
    1
 10
970.84414229683216
 20
896.70841081302797
 11
970.84414229683216
 21
897.35945117745086
  0
LINE
  8
_0-2______1
  6
CONTINUOUS
 62
    1
 10
970.84414229683216
 20
897.35945117745086
 11
970.21410323449027
 21
897.35945117745086
  0
LINE
  8
_0-2______1
  6
CONTINUOUS
 62
    1
 10
970.21410323449027
 20
897.35945117745086
 11
969.56306287006919
 21
897.35945117745086
  0
LINE
  8
_0-2______1
  6
CONTINUOUS
 62
    1
 10
969.56306287006919
 20
897.35945117745086
 11
969.56306287006919
 21
897.98949023979321
  0
LINE
  8
_0-2______1
  6
CONTINUOUS
 62
    1
 10
979.24466312806499
 20
907.02005013336793
 11
979.89570349248606
 21
907.02005013336793
  0
LINE
  8
_0-2______1
  6
CONTINUOUS
 62
    1
 10
979.89570349248606
 20
907.02005013336793
 11
980.52574255482796
 21
906.39263623378383
  0
LINE
  8
_0-2______1
  6
CONTINUOUS
 62
    1
 10
980.52574255482796
 20
906.39263623378383
 11
981.17678291924904
 21
906.39263623378383
  0
LINE
  8
_0-2______1
  6
CONTINUOUS
 62
    1
 10
981.17678291924904
 20
906.39263623378383
 11
981.17678291924904
 21
905.74159586936503
  0
LINE
  8
_0-2______1
  6
CONTINUOUS
 62
    1
 10
981.17678291924904
 20
905.74159586936503
 11
981.8278232836692
 21
905.74159586936503
  0
LINE
  8
_0-2______1
  6
CONTINUOUS
 62
    1
 10
981.8278232836692
 20
905.74159586936503
 11
981.8278232836692
 21
905.08530517942381
  0
LINE
  8
_0-2______1
  6
CONTINUOUS
 62
    1
 10
981.8278232836692
 20
905.08530517942381
 11
982.45786234601201
 21
905.08530517942381
  0
LINE
  8
_0-2______1
  6
CONTINUOUS
 62
    1
 10
982.45786234601201
 20
905.08530517942381
 11
982.45786234601201
 21
904.45526611708283
  0
LINE
  8
_0-2______1
  6
CONTINUOUS
 62
    1
 10
982.45786234601201
 20
904.45526611708283
 11
983.10890271043309
 21
904.45526611708283
  0
LINE
  8
_0-2______1
  6
CONTINUOUS
 62
    1
 10
983.10890271043309
 20
904.45526611708283
 11
983.10890271043309
 21
903.80685091542182
  0
LINE
  8
_0-2______1
  6
CONTINUOUS
 62
    1
 10
974.078342816857
 20
896.05737044860916
 11
974.078342816857
 21
895.42995654902597
  0
LINE
  8
_0-2______1
  6
CONTINUOUS
 62
    1
 10
974.078342816857
 20
895.42995654902597
 11
973.42730245243592
 21
895.42995654902597
  0
LINE
  8
_0-2______1
  6
CONTINUOUS
 62
    1
 10
973.42730245243592
 20
895.42995654902597
 11
972.79726339009403
 21
895.42995654902597
  0
LINE
  8
_0-2______1
  6
CONTINUOUS
 62
    1
 10
972.79726339009403
 20
895.42995654902597
 11
972.79726339009403
 21
894.77366585908612
  0
LINE
  8
_0-2______1
  6
CONTINUOUS
 62
    1
 10
972.79726339009403
 20
894.77366585908612
 11
972.14622302567295
 21
894.77366585908612
  0
LINE
  8
_0-2______1
  6
CONTINUOUS
 62
    1
 10
972.14622302567295
 20
894.77366585908612
 11
971.49518266125187
 21
894.77366585908612
  0
LINE
  8
_0-2______1
  6
CONTINUOUS
 62
    1
 10
977.31254333688094
 20
895.42995654902597
 11
976.66150297246122
 21
895.42995654902597
  0
LINE
  8
_0-2______1
  6
CONTINUOUS
 62
    1
 10
976.66150297246122
 20
895.42995654902597
 11
976.01046260804105
 21
895.42995654902597
  0
LINE
  8
_0-2______1
  6
CONTINUOUS
 62
    1
 10
976.01046260804105
 20
895.42995654902597
 11
975.38042354569825
 21
895.42995654902597
  0
LINE
  8
_0-2______1
  6
CONTINUOUS
 62
    1
 10
975.38042354569825
 20
895.42995654902597
 11
974.72938318127808
 21
895.42995654902597
  0
LINE
  8
_0-2______1
  6
CONTINUOUS
 62
    1
 10
974.72938318127808
 20
895.42995654902597
 11
974.078342816857
 21
895.42995654902597
  0
LINE
  8
_0-2______1
  6
CONTINUOUS
 62
    1
 10
974.078342816857
 20
895.42995654902597
 11
974.078342816857
 21
896.05737044860916
  0
LINE
  8
_0-2______1
  6
CONTINUOUS
 62
    1
 10
983.10890271043309
 20
903.80685091542182
 11
983.10890271043309
 21
905.08530517942381
  0
LINE
  8
_0-2______1
  6
CONTINUOUS
 62
    1
 10
983.10890271043309
 20
905.08530517942381
 11
982.45786234601201
 21
905.08530517942381
  0
LINE
  8
_0-2______1
  6
CONTINUOUS
 62
    1
 10
982.45786234601201
 20
905.08530517942381
 11
982.45786234601201
 21
905.74159586936503
  0
LINE
  8
_0-2______1
  6
CONTINUOUS
 62
    1
 10
982.45786234601201
 20
905.74159586936503
 11
981.8278232836692
 21
905.74159586936503
  0
LINE
  8
_0-2______1
  6
CONTINUOUS
 62
    1
 10
981.8278232836692
 20
905.74159586936503
 11
981.17678291924904
 21
906.39263623378383
  0
LINE
  8
_0-2______1
  6
CONTINUOUS
 62
    1
 10
981.17678291924904
 20
906.39263623378383
 11
980.52574255482796
 21
906.39263623378383
  0
LINE
  8
_0-2______1
  6
CONTINUOUS
 62
    1
 10
980.52574255482796
 20
906.39263623378383
 11
980.52574255482796
 21
907.02005013336793
  0
LINE
  8
_0-2______1
  6
CONTINUOUS
 62
    1
 10
980.52574255482796
 20
907.02005013336793
 11
979.89570349248606
 21
907.02005013336793
  0
LINE
  8
_0-2______1
  6
CONTINUOUS
 62
    1
 10
979.89570349248606
 20
907.02005013336793
 11
979.24466312806499
 21
907.02005013336793
  0
LINE
  8
_0-2______1
  6
CONTINUOUS
 62
    1
 10
979.24466312806499
 20
907.02005013336793
 11
978.59362276364527
 21
907.02005013336793
  0
LINE
  8
_0-2______1
  6
CONTINUOUS
 62
    1
 10
964.39674255886121
 20
903.15581055099983
 11
963.76670349651795
 21
903.15581055099983
  0
LINE
  8
_0-2______1
  6
CONTINUOUS
 62
    1
 10
963.76670349651795
 20
903.15581055099983
 11
963.76670349651795
 21
902.50477018658012
  0
LINE
  8
_0-2______1
  6
CONTINUOUS
 62
    1
 10
963.76670349651795
 20
902.50477018658012
 11
963.11566313209823
 21
902.50477018658012
  0
LINE
  8
_0-2______1
  6
CONTINUOUS
 62
    1
 10
963.11566313209823
 20
902.50477018658012
 11
963.11566313209823
 21
901.22631592257721
  0
LINE
  8
_0-2______1
  6
CONTINUOUS
 62
    1
 10
975.38042354569825
 20
908.32213086221009
 11
974.72938318127808
 21
908.32213086221009
  0
LINE
  8
_0-2______1
  6
CONTINUOUS
 62
    1
 10
974.72938318127808
 20
908.32213086221009
 11
974.078342816857
 21
908.32213086221009
  0
LINE
  8
_0-2______1
  6
CONTINUOUS
 62
    1
 10
974.078342816857
 20
908.32213086221009
 11
973.42730245243592
 21
908.32213086221009
  0
LINE
  8
_0-2______1
  6
CONTINUOUS
 62
    1
 10
973.42730245243592
 20
908.32213086221009
 11
972.79726339009403
 21
908.32213086221009
  0
LINE
  8
_0-2______1
  6
CONTINUOUS
 62
    1
 10
972.79726339009403
 20
908.32213086221009
 11
971.49518266125187
 21
908.32213086221009
  0
LINE
  8
_0-2______1
  6
CONTINUOUS
 62
    1
 10
971.49518266125187
 20
908.32213086221009
 11
971.49518266125187
 21
907.6710904977881
  0
LINE
  8
_0-2______1
  6
CONTINUOUS
 62
    1
 10
971.49518266125187
 20
907.6710904977881
 11
970.84414229683216
 21
907.6710904977881
  0
LINE
  8
_0-2______1
  6
CONTINUOUS
 62
    1
 10
970.84414229683216
 20
907.6710904977881
 11
969.56306287006919
 21
907.6710904977881
  0
LINE
  8
_0-2______1
  6
CONTINUOUS
 62
    1
 10
969.56306287006919
 20
907.6710904977881
 11
969.56306287006919
 21
907.02005013336793
  0
LINE
  8
_0-2______1
  6
CONTINUOUS
 62
    1
 10
969.56306287006919
 20
907.02005013336793
 11
968.91202250564902
 21
907.02005013336793
  0
LINE
  8
_0-2______1
  6
CONTINUOUS
 62
    1
 10
968.91202250564902
 20
907.02005013336793
 11
968.28198344330622
 21
907.02005013336793
  0
LINE
  8
_0-2______1
  6
CONTINUOUS
 62
    1
 10
968.28198344330622
 20
907.02005013336793
 11
967.63094307888514
 21
907.02005013336793
  0
LINE
  8
_0-2______1
  6
CONTINUOUS
 62
    1
 10
967.63094307888514
 20
907.02005013336793
 11
966.97990271446406
 21
907.02005013336793
  0
LINE
  8
_0-2______1
  6
CONTINUOUS
 62
    1
 10
966.97990271446406
 20
907.02005013336793
 11
966.97990271446406
 21
906.39263623378383
  0
LINE
  8
_0-2______1
  6
CONTINUOUS
 62
    1
 10
966.97990271446406
 20
906.39263623378383
 11
966.32886235004389
 21
906.39263623378383
  0
LINE
  8
_0-2______1
  6
CONTINUOUS
 62
    1
 10
966.32886235004389
 20
906.39263623378383
 11
965.698823287702
 21
906.39263623378383
  0
LINE
  8
_0-2______1
  6
CONTINUOUS
 62
    1
 10
965.698823287702
 20
906.39263623378383
 11
965.698823287702
 21
905.74159586936503
  0
LINE
  8
_0-2______1
  6
CONTINUOUS
 62
    1
 10
965.698823287702
 20
905.74159586936503
 11
965.04778292328092
 21
905.08530517942381
  0
LINE
  8
_0-2______1
  6
CONTINUOUS
 62
    1
 10
965.04778292328092
 20
905.08530517942381
 11
965.04778292328092
 21
904.45526611708283
  0
LINE
  8
_0-2______1
  6
CONTINUOUS
 62
    1
 10
965.04778292328092
 20
904.45526611708283
 11
964.39674255886121
 21
904.45526611708283
  0
LINE
  8
_0-2______1
  6
CONTINUOUS
 62
    1
 10
964.39674255886121
 20
904.45526611708283
 11
964.39674255886121
 21
903.80685091542182
  0
LINE
  8
_0-2______1
  6
CONTINUOUS
 62
    1
 10
964.39674255886121
 20
903.80685091542182
 11
963.76670349651795
 21
903.80685091542182
  0
LINE
  8
_0-2______1
  6
CONTINUOUS
 62
    1
 10
963.76670349651795
 20
903.80685091542182
 11
963.76670349651795
 21
903.15581055099983
  0
LINE
  8
_0-2______1
  6
CONTINUOUS
 62
    1
 10
964.39674255886121
 20
903.80685091542182
 11
964.39674255886121
 21
904.45526611708283
  0
LINE
  8
_0-2______1
  6
CONTINUOUS
 62
    1
 10
964.39674255886121
 20
904.45526611708283
 11
965.04778292328092
 21
904.45526611708283
  0
LINE
  8
_0-2______1
  6
CONTINUOUS
 62
    1
 10
965.04778292328092
 20
904.45526611708283
 11
965.04778292328092
 21
905.08530517942381
  0
LINE
  8
_0-2______1
  6
CONTINUOUS
 62
    1
 10
965.04778292328092
 20
905.08530517942381
 11
965.698823287702
 21
905.08530517942381
  0
LINE
  8
_0-2______1
  6
CONTINUOUS
 62
    1
 10
965.698823287702
 20
905.08530517942381
 11
965.698823287702
 21
905.74159586936503
  0
LINE
  8
_0-2______1
  6
CONTINUOUS
 62
    1
 10
965.698823287702
 20
905.74159586936503
 11
966.32886235004389
 21
906.39263623378383
  0
LINE
  8
_0-2______1
  6
CONTINUOUS
 62
    1
 10
966.32886235004389
 20
906.39263623378383
 11
966.97990271446406
 21
906.39263623378383
  0
LINE
  8
_0-2______1
  6
CONTINUOUS
 62
    1
 10
966.97990271446406
 20
906.39263623378383
 11
967.63094307888514
 21
906.39263623378383
  0
LINE
  8
_0-2______1
  6
CONTINUOUS
 62
    1
 10
967.63094307888514
 20
906.39263623378383
 11
967.63094307888514
 21
907.02005013336793
  0
LINE
  8
_0-2______1
  6
CONTINUOUS
 62
    1
 10
967.63094307888514
 20
907.02005013336793
 11
968.28198344330622
 21
907.02005013336793
  0
LINE
  8
_0-2______1
  6
CONTINUOUS
 62
    1
 10
968.28198344330622
 20
907.02005013336793
 11
968.91202250564902
 21
907.02005013336793
  0
LINE
  8
_0-2______1
  6
CONTINUOUS
 62
    1
 10
968.91202250564902
 20
907.02005013336793
 11
969.56306287006919
 21
907.02005013336793
  0
LINE
  8
_0-2______1
  6
CONTINUOUS
 62
    1
 10
969.56306287006919
 20
907.02005013336793
 11
969.56306287006919
 21
907.6710904977881
  0
LINE
  8
_0-2______1
  6
CONTINUOUS
 62
    1
 10
969.56306287006919
 20
907.6710904977881
 11
970.21410323449027
 21
907.6710904977881
  0
LINE
  8
_0-2______1
  6
CONTINUOUS
 62
    1
 10
970.21410323449027
 20
907.6710904977881
 11
970.84414229683216
 21
907.6710904977881
  0
LINE
  8
_0-2______1
  6
CONTINUOUS
 62
    1
 10
970.84414229683216
 20
907.6710904977881
 11
971.49518266125187
 21
907.6710904977881
  0
LINE
  8
_0-2______1
  6
CONTINUOUS
 62
    1
 10
971.49518266125187
 20
907.6710904977881
 11
972.14622302567295
 21
907.6710904977881
  0
LINE
  8
_0-2______1
  6
CONTINUOUS
 62
    1
 10
972.14622302567295
 20
907.6710904977881
 11
972.79726339009403
 21
907.6710904977881
  0
LINE
  8
_0-2______1
  6
CONTINUOUS
 62
    1
 10
972.79726339009403
 20
907.6710904977881
 11
973.42730245243592
 21
908.32213086221009
  0
LINE
  8
_0-2______1
  6
CONTINUOUS
 62
    1
 10
973.42730245243592
 20
908.32213086221009
 11
974.72938318127808
 21
908.32213086221009
  0
LINE
  8
_0-2______1
  6
CONTINUOUS
 62
    1
 10
974.72938318127808
 20
908.32213086221009
 11
974.72938318127808
 21
907.6710904977881
  0
LINE
  8
_0-2______1
  6
CONTINUOUS
 62
    1
 10
974.72938318127808
 20
907.6710904977881
 11
975.38042354569825
 21
907.6710904977881
  0
LINE
  8
_0-2______1
  6
CONTINUOUS
 62
    1
 10
975.38042354569825
 20
907.6710904977881
 11
976.66150297246122
 21
907.6710904977881
  0
LINE
  8
_0-2______1
  6
CONTINUOUS
 62
    1
 10
976.66150297246122
 20
899.28894580587303
 11
976.66150297246122
 21
898.64053060421202
  0
LINE
  8
_0-2______1
  6
CONTINUOUS
 62
    1
 10
976.66150297246122
 20
898.64053060421202
 11
976.01046260804105
 21
898.64053060421202
  0
LINE
  8
_0-2______1
  6
CONTINUOUS
 62
    1
 10
976.01046260804105
 20
898.64053060421202
 11
976.01046260804105
 21
897.98949023979321
  0
LINE
  8
_0-2______1
  6
CONTINUOUS
 62
    1
 10
976.01046260804105
 20
897.98949023979321
 11
975.38042354569825
 21
897.35945117745086
  0
LINE
  8
_0-2______1
  6
CONTINUOUS
 62
    1
 10
975.38042354569825
 20
897.35945117745086
 11
975.38042354569825
 21
896.70841081302797
  0
LINE
  8
_0-2______1
  6
CONTINUOUS
 62
    1
 10
975.38042354569825
 20
896.70841081302797
 11
974.72938318127808
 21
896.70841081302797
  0
LINE
  8
_0-2______1
  6
CONTINUOUS
 62
    1
 10
984.41098343927388
 20
901.22631592257721
 11
984.41098343927388
 21
902.50477018658012
  0
LINE
  8
_0-2______1
  6
CONTINUOUS
 62
    1
 10
984.41098343927388
 20
902.50477018658012
 11
983.75994307485325
 21
902.50477018658012
  0
LINE
  8
_0-2______1
  6
CONTINUOUS
 62
    1
 10
983.75994307485325
 20
902.50477018658012
 11
983.75994307485325
 21
903.15581055099983
  0
LINE
  8
_0-2______1
  6
CONTINUOUS
 62
    1
 10
983.75994307485325
 20
903.15581055099983
 11
983.10890271043309
 21
903.15581055099983
  0
LINE
  8
_0-2______1
  6
CONTINUOUS
 62
    1
 10
983.10890271043309
 20
903.15581055099983
 11
982.45786234601201
 21
903.80685091542182
  0
LINE
  8
_0-2______1
  6
CONTINUOUS
 62
    1
 10
982.45786234601201
 20
903.80685091542182
 11
982.45786234601201
 21
904.45526611708283
  0
LINE
  8
_0-2______1
  6
CONTINUOUS
 62
    1
 10
982.45786234601201
 20
904.45526611708283
 11
981.8278232836692
 21
904.45526611708283
  0
LINE
  8
_0-2______1
  6
CONTINUOUS
 62
    1
 10
981.8278232836692
 20
904.45526611708283
 11
981.17678291924904
 21
904.45526611708283
  0
LINE
  8
_0-2______1
  6
CONTINUOUS
 62
    1
 10
981.17678291924904
 20
904.45526611708283
 11
980.52574255482796
 21
904.45526611708283
  0
LINE
  8
_0-2______1
  6
CONTINUOUS
 62
    1
 10
980.52574255482796
 20
904.45526611708283
 11
980.52574255482796
 21
905.08530517942381
  0
LINE
  8
_0-2______1
  6
CONTINUOUS
 62
    1
 10
977.94258239922419
 20
905.74159586936503
 11
977.31254333688094
 21
905.74159586936503
  0
LINE
  8
_0-2______1
  6
CONTINUOUS
 62
    1
 10
977.31254333688094
 20
905.74159586936503
 11
976.66150297246122
 21
905.74159586936503
  0
LINE
  8
_0-2______1
  6
CONTINUOUS
 62
    1
 10
976.66150297246122
 20
905.74159586936503
 11
976.01046260804105
 21
905.74159586936503
  0
LINE
  8
_0-2______1
  6
CONTINUOUS
 62
    1
 10
976.01046260804105
 20
905.74159586936503
 11
975.38042354569825
 21
906.39263623378383
  0
LINE
  8
_0-2______1
  6
CONTINUOUS
 62
    1
 10
975.38042354569825
 20
906.39263623378383
 11
974.72938318127808
 21
906.39263623378383
  0
LINE
  8
_0-2______1
  6
CONTINUOUS
 62
    1
 10
974.72938318127808
 20
906.39263623378383
 11
973.42730245243592
 21
906.39263623378383
  0
LINE
  8
_0-2______1
  6
CONTINUOUS
 62
    1
 10
973.42730245243592
 20
906.39263623378383
 11
972.79726339009403
 21
906.39263623378383
  0
LINE
  8
_0-2______1
  6
CONTINUOUS
 62
    1
 10
972.79726339009403
 20
906.39263623378383
 11
971.49518266125187
 21
906.39263623378383
  0
LINE
  8
_0-2______1
  6
CONTINUOUS
 62
    1
 10
971.49518266125187
 20
906.39263623378383
 11
971.49518266125187
 21
905.74159586936503
  0
LINE
  8
_0-2______1
  6
CONTINUOUS
 62
    1
 10
971.49518266125187
 20
905.74159586936503
 11
970.84414229683216
 21
905.74159586936503
  0
LINE
  8
_0-2______1
  6
CONTINUOUS
 62
    1
 10
970.84414229683216
 20
905.74159586936503
 11
970.21410323449027
 21
905.74159586936503
  0
LINE
  8
_0-2______1
  6
CONTINUOUS
 62
    1
 10
970.21410323449027
 20
905.74159586936503
 11
969.56306287006919
 21
905.74159586936503
  0
LINE
  8
_0-2______1
  6
CONTINUOUS
 62
    1
 10
969.56306287006919
 20
905.74159586936503
 11
969.56306287006919
 21
905.08530517942381
  0
LINE
  8
_0-2______1
  6
CONTINUOUS
 62
    1
 10
969.56306287006919
 20
905.08530517942381
 11
968.91202250564902
 21
905.08530517942381
  0
LINE
  8
_0-2______1
  6
CONTINUOUS
 62
    1
 10
968.91202250564902
 20
905.08530517942381
 11
968.28198344330622
 21
905.08530517942381
  0
LINE
  8
_0-2______1
  6
CONTINUOUS
 62
    1
 10
968.28198344330622
 20
905.08530517942381
 11
967.63094307888514
 21
905.08530517942381
  0
LINE
  8
_0-2______1
  6
CONTINUOUS
 62
    1
 10
967.63094307888514
 20
905.08530517942381
 11
966.97990271446406
 21
905.08530517942381
  0
LINE
  8
_0-2______1
  6
CONTINUOUS
 62
    1
 10
966.97990271446406
 20
905.08530517942381
 11
966.97990271446406
 21
904.45789127984199
  0
LINE
  8
_0-2______1
  6
CONTINUOUS
 62
    1
 10
966.97990271446406
 20
904.45789127984199
 11
966.32886235004389
 21
904.45789127984199
  0
LINE
  8
_0-2______1
  6
CONTINUOUS
 62
    1
 10
966.32886235004389
 20
904.45789127984199
 11
965.698823287702
 21
904.45789127984199
  0
LINE
  8
_0-2______1
  6
CONTINUOUS
 62
    1
 10
965.698823287702
 20
904.45789127984199
 11
965.04778292328092
 21
903.80685091542182
  0
LINE
  8
_0-2______1
  6
CONTINUOUS
 62
    1
 10
965.04778292328092
 20
903.80685091542182
 11
965.04778292328092
 21
903.15581055099983
  0
LINE
  8
_0-2______1
  6
CONTINUOUS
 62
    1
 10
965.04778292328092
 20
903.15581055099983
 11
964.39674255886121
 21
903.15581055099983
  0
LINE
  8
_0-2______1
  6
CONTINUOUS
 62
    1
 10
574.71758250002995
 20
914.11849023576087
 11
574.71758250002995
 21
914.76953060018104
  0
LINE
  8
_0-2______1
  6
CONTINUOUS
 62
    1
 10
574.71758250002995
 20
914.76953060018104
 11
574.08754343768805
 21
914.76953060018104
  0
LINE
  8
_0-2______1
  6
CONTINUOUS
 62
    1
 10
574.08754343768805
 20
914.76953060018104
 11
573.43650307326789
 21
914.76953060018104
  0
LINE
  8
_0-2______1
  6
CONTINUOUS
 62
    1
 10
573.43650307326789
 20
914.76953060018104
 11
573.43650307326789
 21
914.11849023576087
  0
LINE
  8
_0-2______1
  6
CONTINUOUS
 62
    1
 10
573.43650307326789
 20
914.11849023576087
 11
572.78546270884726
 21
914.11849023576087
  0
LINE
  8
_0-2______1
  6
CONTINUOUS
 62
    1
 10
572.78546270884726
 20
914.11849023576087
 11
572.78546270884726
 21
913.48845117341716
  0
LINE
  8
_0-2______1
  6
CONTINUOUS
 62
    1
 10
572.78546270884726
 20
913.48845117341716
 11
572.155423646504
 21
913.48845117341716
  0
LINE
  8
_0-2______1
  6
CONTINUOUS
 62
    1
 10
572.155423646504
 20
913.48845117341716
 11
572.155423646504
 21
912.83741080899699
  0
LINE
  8
_0-2______1
  6
CONTINUOUS
 62
    1
 10
572.155423646504
 20
912.83741080899699
 11
572.155423646504
 21
912.18637044457682
  0
LINE
  8
_0-2______1
  6
CONTINUOUS
 62
    1
 10
572.155423646504
 20
912.18637044457682
 11
572.155423646504
 21
910.90266585505378
  0
LINE
  8
_0-2______1
  6
CONTINUOUS
 62
    1
 10
572.155423646504
 20
910.90266585505378
 11
572.78546270884726
 21
910.90266585505378
  0
LINE
  8
_0-2______1
  6
CONTINUOUS
 62
    1
 10
572.78546270884726
 20
910.90266585505378
 11
572.78546270884726
 21
910.2516254906318
  0
LINE
  8
_0-2______1
  6
CONTINUOUS
 62
    1
 10
572.78546270884726
 20
910.2516254906318
 11
573.43650307326789
 21
910.2516254906318
  0
LINE
  8
_0-2______1
  6
CONTINUOUS
 62
    1
 10
573.43650307326789
 20
910.2516254906318
 11
573.43650307326789
 21
909.60058512621299
  0
LINE
  8
_0-2______1
  6
CONTINUOUS
 62
    1
 10
573.43650307326789
 20
909.60058512621299
 11
574.08754343768805
 21
908.97317122662889
  0
LINE
  8
_0-2______1
  6
CONTINUOUS
 62
    1
 10
574.08754343768805
 20
908.97317122662889
 11
574.71758250002995
 21
908.97317122662889
  0
LINE
  8
_0-2______1
  6
CONTINUOUS
 62
    1
 10
574.71758250002995
 20
908.97317122662889
 11
575.36862286445103
 21
908.97317122662889
  0
LINE
  8
_0-2______1
  6
CONTINUOUS
 62
    1
 10
575.36862286445103
 20
908.97317122662889
 11
576.0196632288712
 21
908.97317122662889
  0
LINE
  8
_0-2______1
  6
CONTINUOUS
 62
    1
 10
576.0196632288712
 20
908.97317122662889
 11
576.67070359329227
 21
908.97317122662889
  0
LINE
  8
_0-2______1
  6
CONTINUOUS
 62
    1
 10
576.67070359329227
 20
908.97317122662889
 11
576.67070359329227
 21
909.60058512621299
  0
LINE
  8
_0-2______1
  6
CONTINUOUS
 62
    1
 10
576.67070359329227
 20
909.60058512621299
 11
577.30074265563508
 21
909.60058512621299
  0
LINE
  8
_0-2______1
  6
CONTINUOUS
 62
    1
 10
577.30074265563508
 20
909.60058512621299
 11
577.30074265563508
 21
912.18637044457682
  0
LINE
  8
_0-2______1
  6
CONTINUOUS
 62
    1
 10
575.36862286445103
 20
914.11849023576087
 11
576.0196632288712
 21
914.11849023576087
  0
LINE
  8
_0-2______1
  6
CONTINUOUS
 62
    1
 10
576.0196632288712
 20
914.11849023576087
 11
576.0196632288712
 21
913.48845117341716
  0
LINE
  8
_0-2______1
  6
CONTINUOUS
 62
    1
 10
576.0196632288712
 20
913.48845117341716
 11
576.67070359329227
 21
913.48845117341716
  0
LINE
  8
_0-2______1
  6
CONTINUOUS
 62
    1
 10
576.67070359329227
 20
913.48845117341716
 11
576.67070359329227
 21
912.83741080899699
  0
LINE
  8
_0-2______1
  6
CONTINUOUS
 62
    1
 10
576.67070359329227
 20
912.83741080899699
 11
577.30074265563508
 21
912.18637044457682
  0
LINE
  8
_0-2______1
  6
CONTINUOUS
 62
    1
 10
575.36862286445103
 20
914.11849023576087
 11
574.71758250002995
 21
914.11849023576087
  0
LINE
  8
_0-2______1
  6
CONTINUOUS
 62
    1
 10
534.08006297894008
 20
873.4835958774288
 11
533.429022614519
 21
873.4835958774288
  0
LINE
  8
_0-2______1
  6
CONTINUOUS
 62
    1
 10
533.429022614519
 20
873.4835958774288
 11
532.79898355217711
 21
873.4835958774288
  0
LINE
  8
_0-2______1
  6
CONTINUOUS
 62
    1
 10
532.79898355217711
 20
873.4835958774288
 11
532.79898355217711
 21
874.13463624184988
  0
LINE
  8
_0-2______1
  6
CONTINUOUS
 62
    1
 10
532.79898355217711
 20
874.13463624184988
 11
532.14794318775603
 21
874.13463624184988
  0
LINE
  8
_0-2______1
  6
CONTINUOUS
 62
    1
 10
532.14794318775603
 20
874.13463624184988
 11
532.14794318775603
 21
874.76205014143216
  0
LINE
  8
_0-2______1
  6
CONTINUOUS
 62
    1
 10
532.14794318775603
 20
874.76205014143216
 11
531.49690282333495
 21
874.76205014143216
  0
LINE
  8
_0-2______1
  6
CONTINUOUS
 62
    1
 10
531.49690282333495
 20
874.76205014143216
 11
531.49690282333495
 21
875.41309050585278
  0
LINE
  8
_0-2______1
  6
CONTINUOUS
 62
    1
 10
531.49690282333495
 20
875.41309050585278
 11
530.84586245891524
 21
875.41309050585278
  0
LINE
  8
_0-2______1
  6
CONTINUOUS
 62
    1
 10
530.84586245891524
 20
875.41309050585278
 11
530.84586245891524
 21
879.30095655305786
  0
LINE
  8
_0-2______1
  6
CONTINUOUS
 62
    1
 10
530.84586245891524
 20
879.30095655305786
 11
531.49690282333495
 21
879.30095655305786
  0
LINE
  8
_0-2______1
  6
CONTINUOUS
 62
    1
 10
554.07330255727402
 20
890.89105013739891
 11
553.44326349493303
 21
890.89105013739891
  0
LINE
  8
_0-2______1
  6
CONTINUOUS
 62
    1
 10
553.44326349493303
 20
890.89105013739891
 11
553.44326349493303
 21
891.5420905018218
  0
LINE
  8
_0-2______1
  6
CONTINUOUS
 62
    1
 10
553.44326349493303
 20
891.5420905018218
 11
552.79222313051196
 21
891.5420905018218
  0
LINE
  8
_0-2______1
  6
CONTINUOUS
 62
    1
 10
552.79222313051196
 20
891.5420905018218
 11
552.14118276609088
 21
891.5420905018218
  0
LINE
  8
_0-2______1
  6
CONTINUOUS
 62
    1
 10
552.14118276609088
 20
891.5420905018218
 11
552.14118276609088
 21
892.84417123066214
  0
LINE
  8
_0-2______1
  6
CONTINUOUS
 62
    1
 10
552.14118276609088
 20
892.84417123066214
 11
551.49014240167116
 21
892.84417123066214
  0
LINE
  8
_0-2______1
  6
CONTINUOUS
 62
    1
 10
551.49014240167116
 20
892.84417123066214
 11
551.49014240167116
 21
896.70841081302797
  0
LINE
  8
_0-2______1
  6
CONTINUOUS
 62
    1
 10
551.49014240167116
 20
896.70841081302797
 11
552.14118276609088
 21
896.70841081302797
  0
LINE
  8
_0-2______1
  6
CONTINUOUS
 62
    1
 10
556.65646271287915
 20
891.5420905018218
 11
556.65646271287915
 21
890.89105013739891
  0
LINE
  8
_0-2______1
  6
CONTINUOUS
 62
    1
 10
556.65646271287915
 20
890.89105013739891
 11
556.02642365053589
 21
890.89105013739891
  0
LINE
  8
_0-2______1
  6
CONTINUOUS
 62
    1
 10
556.02642365053589
 20
890.89105013739891
 11
555.37538328611618
 21
890.89105013739891
  0
LINE
  8
_0-2______1
  6
CONTINUOUS
 62
    1
 10
555.37538328611618
 20
890.89105013739891
 11
554.7243429216951
 21
890.89105013739891
  0
LINE
  8
_0-2______1
  6
CONTINUOUS
 62
    1
 10
554.7243429216951
 20
890.89105013739891
 11
554.07330255727402
 21
890.89105013739891
  0
LINE
  8
_0-2______1
  6
CONTINUOUS
 62
    1
 10
552.14118276609088
 20
896.70841081302797
 11
552.14118276609088
 21
897.35945117745086
  0
LINE
  8
_0-2______1
  6
CONTINUOUS
 62
    1
 10
552.14118276609088
 20
897.35945117745086
 11
552.79222313051196
 21
897.35945117745086
  0
LINE
  8
_0-2______1
  6
CONTINUOUS
 62
    1
 10
552.79222313051196
 20
897.35945117745086
 11
552.79222313051196
 21
898.64053060421202
  0
LINE
  8
_0-2______1
  6
CONTINUOUS
 62
    1
 10
532.14794318775603
 20
879.30095655305786
 11
532.14794318775603
 21
881.2304511814832
  0
LINE
  8
_0-2______1
  6
CONTINUOUS
 62
    1
 10
536.6632231345443
 20
873.4835958774288
 11
536.01218277012322
 21
873.4835958774288
  0
LINE
  8
_0-2______1
  6
CONTINUOUS
 62
    1
 10
536.01218277012322
 20
873.4835958774288
 11
535.36114240570305
 21
873.4835958774288
  0
LINE
  8
_0-2______1
  6
CONTINUOUS
 62
    1
 10
535.36114240570305
 20
873.4835958774288
 11
534.73110334336025
 21
873.4835958774288
  0
LINE
  8
_0-2______1
  6
CONTINUOUS
 62
    1
 10
534.73110334336025
 20
873.4835958774288
 11
534.08006297894008
 21
873.4835958774288
  0
LINE
  8
_0-2______1
  6
CONTINUOUS
 62
    1
 10
565.05698354411197
 20
908.97317122662889
 11
565.05698354411197
 21
908.32213086221009
  0
LINE
  8
_0-2______1
  6
CONTINUOUS
 62
    1
 10
565.05698354411197
 20
908.32213086221009
 11
564.40594317969226
 21
908.32213086221009
  0
LINE
  8
_0-2______1
  6
CONTINUOUS
 62
    1
 10
564.40594317969226
 20
908.32213086221009
 11
564.40594317969226
 21
907.6710904977881
  0
LINE
  8
_0-2______1
  6
CONTINUOUS
 62
    1
 10
564.40594317969226
 20
907.6710904977881
 11
563.75490281527118
 21
907.6710904977881
  0
LINE
  8
_0-2______1
  6
CONTINUOUS
 62
    1
 10
563.75490281527118
 20
907.6710904977881
 11
563.75490281527118
 21
907.02005013336793
  0
LINE
  8
_0-2______1
  6
CONTINUOUS
 62
    1
 10
563.75490281527118
 20
907.02005013336793
 11
563.75490281527118
 21
906.39263623378383
  0
LINE
  8
_0-2______1
  6
CONTINUOUS
 62
    1
 10
563.75490281527118
 20
906.39263623378383
 11
563.10386245085101
 21
906.39263623378383
  0
LINE
  8
_0-2______1
  6
CONTINUOUS
 62
    1
 10
563.10386245085101
 20
905.74159586936503
 11
563.10386245085101
 21
905.08530517942381
  0
LINE
  8
_0-2______1
  6
CONTINUOUS
 62
    1
 10
563.10386245085101
 20
905.08530517942381
 11
563.10386245085101
 21
904.45789127984199
  0
LINE
  8
_0-2______1
  6
CONTINUOUS
 62
    1
 10
563.10386245085101
 20
904.45789127984199
 11
563.10386245085101
 21
903.80685091542182
  0
LINE
  8
_0-2______1
  6
CONTINUOUS
 62
    1
 10
544.41270360135695
 20
890.89105013739891
 11
544.41270360135695
 21
890.2636362378189
  0
LINE
  8
_0-2______1
  6
CONTINUOUS
 62
    1
 10
544.41270360135695
 20
890.2636362378189
 11
543.76166323693587
 21
890.2636362378189
  0
LINE
  8
_0-2______1
  6
CONTINUOUS
 62
    1
 10
543.11062287251616
 20
888.95630518345706
 11
542.45958250809508
 21
888.95630518345706
  0
LINE
  8
_0-2______1
  6
CONTINUOUS
 62
    1
 10
542.45958250809508
 20
888.32889128387296
 11
542.45958250809508
 21
887.02681055503399
  0
LINE
  8
_0-2______1
  6
CONTINUOUS
 62
    1
 10
542.45958250809508
 20
886.375770190612
 11
543.11062287251616
 21
886.375770190612
  0
LINE
  8
_0-2______1
  6
CONTINUOUS
 62
    1
 10
690.20374262740916
 20
1014.1293158943522
 11
689.5737035650659
 21
1014.1293158943522
  0
LINE
  8
_0-2______1
  6
CONTINUOUS
 62
    1
 10
689.5737035650659
 20
1014.1293158943522
 11
688.92266320064618
 21
1014.1293158943522
  0
LINE
  8
_0-2______1
  6
CONTINUOUS
 62
    1
 10
688.92266320064618
 20
1014.1293158943522
 11
688.27162283622511
 21
1014.1293158943522
  0
LINE
  8
_0-2______1
  6
CONTINUOUS
 62
    1
 10
688.27162283622511
 20
1014.1293158943522
 11
687.62058247180403
 21
1013.4782755299302
  0
LINE
  8
_0-2______1
  6
CONTINUOUS
 62
    1
 10
687.62058247180403
 20
1013.4782755299302
 11
687.62058247180403
 21
1012.191945777648
  0
LINE
  8
_0-2______1
  6
CONTINUOUS
 62
    1
 10
687.62058247180403
 20
1012.191945777648
 11
687.62058247180403
 21
1010.2624511492249
  0
LINE
  8
_0-2______1
  6
CONTINUOUS
 62
    1
 10
687.62058247180403
 20
1010.2624511492249
 11
688.27162283622511
 21
1010.2624511492249
  0
LINE
  8
_0-2______1
  6
CONTINUOUS
 62
    1
 10
688.27162283622511
 20
1010.2624511492249
 11
688.27162283622511
 21
1009.6114107848039
  0
LINE
  8
_0-2______1
  6
CONTINUOUS
 62
    1
 10
688.27162283622511
 20
1009.6114107848039
 11
688.92266320064618
 21
1009.6114107848039
  0
LINE
  8
_0-2______1
  6
CONTINUOUS
 62
    1
 10
688.92266320064618
 20
1009.6114107848039
 11
689.5737035650659
 21
1009.6114107848039
  0
LINE
  8
_0-2______1
  6
CONTINUOUS
 62
    1
 10
689.5737035650659
 20
1009.6114107848039
 11
689.5737035650659
 21
1008.9603704203828
  0
LINE
  8
_0-2______1
  6
CONTINUOUS
 62
    1
 10
690.20374262740916
 20
1008.9603704203828
 11
690.85478299182887
 21
1008.9603704203828
  0
LINE
  8
_0-2______1
  6
CONTINUOUS
 62
    1
 10
690.85478299182887
 20
1008.9603704203828
 11
691.50582335624995
 21
1008.9603704203828
  0
LINE
  8
_0-2______1
  6
CONTINUOUS
 62
    1
 10
691.50582335624995
 20
1008.9603704203828
 11
692.13586241859321
 21
1008.9603704203828
  0
LINE
  8
_0-2______1
  6
CONTINUOUS
 62
    1
 10
692.13586241859321
 20
1008.9603704203828
 11
692.13586241859321
 21
1010.2624511492249
  0
LINE
  8
_0-2______1
  6
CONTINUOUS
 62
    1
 10
692.13586241859321
 20
1010.2624511492249
 11
692.78690278301292
 21
1010.2624511492249
  0
LINE
  8
_0-2______1
  6
CONTINUOUS
 62
    1
 10
692.78690278301292
 20
1010.2624511492249
 11
692.78690278301292
 21
1011.543530575987
  0
LINE
  8
_0-2______1
  6
CONTINUOUS
 62
    1
 10
692.78690278301292
 20
1011.543530575987
 11
692.13586241859321
 21
1011.543530575987
  0
LINE
  8
_0-2______1
  6
CONTINUOUS
 62
    1
 10
692.13586241859321
 20
1011.543530575987
 11
692.13586241859321
 21
1012.8429861420682
  0
LINE
  8
_0-2______1
  6
CONTINUOUS
 62
    1
 10
692.13586241859321
 20
1012.8429861420682
 11
691.50582335624995
 21
1013.4782755299302
  0
LINE
  8
_0-2______1
  6
CONTINUOUS
 62
    1
 10
691.50582335624995
 20
1013.4782755299302
 11
690.85478299182887
 21
1013.4782755299302
  0
LINE
  8
_0-2______1
  6
CONTINUOUS
 62
    1
 10
690.85478299182887
 20
1013.4782755299302
 11
690.85478299182887
 21
1014.1293158943522
  0
LINE
  8
_0-2______1
  6
CONTINUOUS
 62
    1
 10
690.85478299182887
 20
1014.1293158943522
 11
690.20374262740916
 21
1014.1293158943522
  0
LINE
  8
_0-2______1
  6
CONTINUOUS
 62
    1
 10
525.04950308536399
 20
865.73149024785698
 11
525.04950308536399
 21
866.38253061227715
  0
LINE
  8
_0-2______1
  6
CONTINUOUS
 62
    1
 10
525.04950308536399
 20
866.38253061227715
 11
524.39846272094428
 21
866.38253061227715
  0
LINE
  8
_0-2______1
  6
CONTINUOUS
 62
    1
 10
524.39846272094428
 20
866.38253061227715
 11
524.39846272094428
 21
867.0309458139368
  0
LINE
  8
_0-2______1
  6
CONTINUOUS
 62
    1
 10
524.39846272094428
 20
867.0309458139368
 11
523.76842365860102
 21
867.0309458139368
  0
LINE
  8
_0-2______1
  6
CONTINUOUS
 62
    1
 10
523.76842365860102
 20
867.0309458139368
 11
523.11738329417994
 21
867.0309458139368
  0
LINE
  8
_0-2______1
  6
CONTINUOUS
 62
    1
 10
523.11738329417994
 20
867.0309458139368
 11
523.11738329417994
 21
868.31727556622081
  0
LINE
  8
_0-2______1
  6
CONTINUOUS
 62
    1
 10
523.11738329417994
 20
868.31727556622081
 11
522.46634292976023
 21
868.31727556622081
  0
LINE
  8
_0-2______1
  6
CONTINUOUS
 62
    1
 10
522.46634292976023
 20
868.31727556622081
 11
522.46634292976023
 21
871.54885092348604
  0
LINE
  8
_0-2______1
  6
CONTINUOUS
 62
    1
 10
522.46634292976023
 20
871.54885092348604
 11
523.11738329417994
 21
871.54885092348604
  0
LINE
  8
_0-2______1
  6
CONTINUOUS
 62
    1
 10
577.30074265563508
 20
912.83741080899699
 11
577.30074265563508
 21
913.48845117341716
  0
LINE
  8
_0-2______1
  6
CONTINUOUS
 62
    1
 10
577.30074265563508
 20
913.48845117341716
 11
576.67070359329227
 21
913.48845117341716
  0
LINE
  8
_0-2______1
  6
CONTINUOUS
 62
    1
 10
576.67070359329227
 20
913.48845117341716
 11
576.67070359329227
 21
915.41794580184205
  0
LINE
  8
_0-2______1
  6
CONTINUOUS
 62
    1
 10
574.71758250002995
 20
914.76953060018104
 11
574.08754343768805
 21
914.76953060018104
  0
LINE
  8
_0-2______1
  6
CONTINUOUS
 62
    1
 10
574.08754343768805
 20
914.76953060018104
 11
573.43650307326789
 21
914.76953060018104
  0
LINE
  8
_0-2______1
  6
CONTINUOUS
 62
    1
 10
573.43650307326789
 20
914.76953060018104
 11
572.78546270884726
 21
914.76953060018104
  0
LINE
  8
_0-2______1
  6
CONTINUOUS
 62
    1
 10
575.36862286445103
 20
914.76953060018104
 11
574.71758250002995
 21
914.76953060018104
  0
LINE
  8
_0-2______1
  6
CONTINUOUS
 62
    1
 10
566.33806297087494
 20
901.22631592257721
 11
565.68702260645523
 21
901.22631592257721
  0
LINE
  8
_0-2______1
  6
CONTINUOUS
 62
    1
 10
565.68702260645523
 20
901.22631592257721
 11
565.05698354411197
 21
901.22631592257721
  0
LINE
  8
_0-2______1
  6
CONTINUOUS
 62
    1
 10
565.05698354411197
 20
901.22631592257721
 11
565.05698354411197
 21
902.50477018658012
  0
LINE
  8
_0-2______1
  6
CONTINUOUS
 62
    1
 10
565.05698354411197
 20
902.50477018658012
 11
564.40594317969226
 21
902.50477018658012
  0
LINE
  8
_0-2______1
  6
CONTINUOUS
 62
    1
 10
564.40594317969226
 20
902.50477018658012
 11
563.75490281527118
 21
902.50477018658012
  0
LINE
  8
_0-2______1
  6
CONTINUOUS
 62
    1
 10
563.75490281527118
 20
902.50477018658012
 11
563.75490281527118
 21
903.80685091542182
  0
LINE
  8
_0-2______1
  6
CONTINUOUS
 62
    1
 10
563.75490281527118
 20
903.80685091542182
 11
563.10386245085101
 21
903.80685091542182
  0
LINE
  8
_0-2______1
  6
CONTINUOUS
 62
    1
 10
563.10386245085101
 20
903.80685091542182
 11
563.10386245085101
 21
904.45526611708283
  0
LINE
  8
_0-2______1
  6
CONTINUOUS
 62
    1
 10
563.10386245085101
 20
904.45526611708283
 11
563.10386245085101
 21
906.39263623378383
  0
LINE
  8
_0-2______1
  6
CONTINUOUS
 62
    1
 10
563.10386245085101
 20
906.39263623378383
 11
563.75490281527118
 21
907.02005013336793
  0
LINE
  8
_0-2______1
  6
CONTINUOUS
 62
    1
 10
545.69378302811901
 20
883.8109861743269
 11
545.0427426636993
 21
883.8109861743269
  0
LINE
  8
_0-2______1
  6
CONTINUOUS
 62
    1
 10
545.0427426636993
 20
883.8109861743269
 11
545.0427426636993
 21
884.44627556218893
  0
LINE
  8
_0-2______1
  6
CONTINUOUS
 62
    1
 10
545.0427426636993
 20
884.44627556218893
 11
544.41270360135695
 21
884.44627556218893
  0
LINE
  8
_0-2______1
  6
CONTINUOUS
 62
    1
 10
544.41270360135695
 20
884.44627556218893
 11
543.76166323693587
 21
884.44627556218893
  0
LINE
  8
_0-2______1
  6
CONTINUOUS
 62
    1
 10
543.76166323693587
 20
884.44627556218893
 11
543.76166323693587
 21
885.74573112827011
  0
LINE
  8
_0-2______1
  6
CONTINUOUS
 62
    1
 10
543.76166323693587
 20
885.74573112827011
 11
543.11062287251616
 21
885.74573112827011
  0
LINE
  8
_0-2______1
  6
CONTINUOUS
 62
    1
 10
543.11062287251616
 20
885.74573112827011
 11
543.11062287251616
 21
886.375770190612
  0
LINE
  8
_0-2______1
  6
CONTINUOUS
 62
    1
 10
543.11062287251616
 20
886.375770190612
 11
542.45958250809508
 21
886.375770190612
  0
LINE
  8
_0-2______1
  6
CONTINUOUS
 62
    1
 10
542.45958250809508
 20
886.375770190612
 11
542.45958250809508
 21
888.95630518345706
  0
LINE
  8
_0-2______1
  6
CONTINUOUS
 62
    1
 10
542.45958250809508
 20
888.95630518345706
 11
543.11062287251616
 21
888.95630518345706
  0
LINE
  8
_0-2______1
  6
CONTINUOUS
 62
    1
 10
543.11062287251616
 20
888.95630518345706
 11
543.11062287251616
 21
889.612595873396
  0
LINE
  8
_0-2______1
  6
CONTINUOUS
 62
    1
 10
543.11062287251616
 20
889.612595873396
 11
543.76166323693587
 21
889.612595873396
  0
LINE
  8
_0-2______1
  6
CONTINUOUS
 62
    1
 10
577.30074265563508
 20
908.97317122662889
 11
577.30074265563508
 21
909.60058512621299
  0
LINE
  8
_0-2______1
  6
CONTINUOUS
 62
    1
 10
577.30074265563508
 20
909.60058512621299
 11
577.95178302005525
 21
910.2516254906318
  0
LINE
  8
_0-2______1
  6
CONTINUOUS
 62
    1
 10
577.95178302005525
 20
910.2516254906318
 11
577.95178302005525
 21
912.18637044457682
  0
LINE
  8
_0-2______1
  6
CONTINUOUS
 62
    1
 10
577.95178302005525
 20
912.18637044457682
 11
577.30074265563508
 21
912.18637044457682
  0
LINE
  8
_0-2______1
  6
CONTINUOUS
 62
    1
 10
577.30074265563508
 20
912.18637044457682
 11
577.30074265563508
 21
912.83741080899699
  0
LINE
  8
_0-2______1
  6
CONTINUOUS
 62
    1
 10
568.92122312647916
 20
901.22631592257721
 11
568.27018276205808
 21
901.22631592257721
  0
LINE
  8
_0-2______1
  6
CONTINUOUS
 62
    1
 10
568.27018276205808
 20
901.22631592257721
 11
567.61914239763792
 21
901.22631592257721
  0
LINE
  8
_0-2______1
  6
CONTINUOUS
 62
    1
 10
567.61914239763792
 20
901.22631592257721
 11
566.98910333529602
 21
901.22631592257721
  0
LINE
  8
_0-2______1
  6
CONTINUOUS
 62
    1
 10
566.98910333529602
 20
901.22631592257721
 11
566.33806297087494
 21
901.22631592257721
  0
LINE
  8
_0-2______1
  6
CONTINUOUS
 62
    1
 10
548.27694318372414
 20
884.44627556218893
 11
548.27694318372414
 21
883.8109861743269
  0
LINE
  8
_0-2______1
  6
CONTINUOUS
 62
    1
 10
548.27694318372414
 20
883.8109861743269
 11
547.62590281930306
 21
883.8109861743269
  0
LINE
  8
_0-2______1
  6
CONTINUOUS
 62
    1
 10
547.62590281930306
 20
883.8109861743269
 11
547.62590281930306
 21
883.15994580990491
  0
LINE
  8
_0-2______1
  6
CONTINUOUS
 62
    1
 10
547.62590281930306
 20
883.15994580990491
 11
546.9748624548829
 21
883.15994580990491
  0
LINE
  8
_0-2______1
  6
CONTINUOUS
 62
    1
 10
546.9748624548829
 20
883.15994580990491
 11
546.34482339254009
 21
883.15994580990491
  0
LINE
  8
_0-2______1
  6
CONTINUOUS
 62
    1
 10
546.34482339254009
 20
883.15994580990491
 11
546.34482339254009
 21
883.8109861743269
  0
LINE
  8
_0-2______1
  6
CONTINUOUS
 62
    1
 10
546.34482339254009
 20
883.8109861743269
 11
545.69378302811901
 21
883.8109861743269
  0
LINE
  8
_0-2______1
  6
CONTINUOUS
 62
    1
 10
528.28370360538929
 20
866.38253061227715
 11
527.63266324096821
 21
866.38253061227715
  0
LINE
  8
_0-2______1
  6
CONTINUOUS
 62
    1
 10
527.63266324096821
 20
866.38253061227715
 11
527.63266324096821
 21
865.73149024785698
  0
LINE
  8
_0-2______1
  6
CONTINUOUS
 62
    1
 10
527.63266324096821
 20
865.73149024785698
 11
526.98162287654804
 21
865.73149024785698
  0
LINE
  8
_0-2______1
  6
CONTINUOUS
 62
    1
 10
526.98162287654804
 20
865.73149024785698
 11
526.33058251212697
 21
865.73149024785698
  0
LINE
  8
_0-2______1
  6
CONTINUOUS
 62
    1
 10
526.33058251212697
 20
865.73149024785698
 11
525.70054344978507
 21
865.73149024785698
  0
LINE
  8
_0-2______1
  6
CONTINUOUS
 62
    1
 10
525.70054344978507
 20
865.73149024785698
 11
525.04950308536399
 21
865.73149024785698
  0
LINE
  8
_0-2______1
  6
CONTINUOUS
 62
    1
 10
574.71758250002995
 20
908.32213086221009
 11
575.36862286445103
 21
908.32213086221009
  0
LINE
  8
_0-2______1
  6
CONTINUOUS
 62
    1
 10
575.36862286445103
 20
908.32213086221009
 11
576.0196632288712
 21
908.32213086221009
  0
LINE
  8
_0-2______1
  6
CONTINUOUS
 62
    1
 10
576.0196632288712
 20
908.32213086221009
 11
576.67070359329227
 21
908.32213086221009
  0
LINE
  8
_0-2______1
  6
CONTINUOUS
 62
    1
 10
576.67070359329227
 20
908.32213086221009
 11
576.67070359329227
 21
908.97317122662889
  0
LINE
  8
_0-2______1
  6
CONTINUOUS
 62
    1
 10
576.67070359329227
 20
908.97317122662889
 11
577.30074265563508
 21
908.97317122662889
  0
LINE
  8
_0-2______1
  6
CONTINUOUS
 62
    1
 10
572.155423646504
 20
914.76953060018104
 11
572.155423646504
 21
914.11849023576087
  0
LINE
  8
_0-2______1
  6
CONTINUOUS
 62
    1
 10
572.155423646504
 20
914.11849023576087
 11
571.50438328208429
 21
914.11849023576087
  0
LINE
  8
_0-2______1
  6
CONTINUOUS
 62
    1
 10
571.50438328208429
 20
914.11849023576087
 11
571.50438328208429
 21
911.55895654499409
  0
LINE
  8
_0-2______1
  6
CONTINUOUS
 62
    1
 10
571.50438328208429
 20
911.55895654499409
 11
571.50438328208429
 21
910.90266585505378
  0
LINE
  8
_0-2______1
  6
CONTINUOUS
 62
    1
 10
571.50438328208429
 20
910.90266585505378
 11
572.155423646504
 21
910.90266585505378
  0
LINE
  8
_0-2______1
  6
CONTINUOUS
 62
    1
 10
572.155423646504
 20
910.90266585505378
 11
572.155423646504
 21
910.2516254906318
  0
LINE
  8
_0-2______1
  6
CONTINUOUS
 62
    1
 10
572.155423646504
 20
910.2516254906318
 11
572.78546270884726
 21
910.2516254906318
  0
LINE
  8
_0-2______1
  6
CONTINUOUS
 62
    1
 10
572.78546270884726
 20
910.2516254906318
 11
572.78546270884726
 21
909.60058512621299
  0
LINE
  8
_0-2______1
  6
CONTINUOUS
 62
    1
 10
572.78546270884726
 20
909.60058512621299
 11
573.43650307326789
 21
908.97317122662889
  0
LINE
  8
_0-2______1
  6
CONTINUOUS
 62
    1
 10
573.43650307326789
 20
908.97317122662889
 11
574.08754343768805
 21
908.97317122662889
  0
LINE
  8
_0-2______1
  6
CONTINUOUS
 62
    1
 10
574.08754343768805
 20
908.97317122662889
 11
574.71758250002995
 21
908.97317122662889
  0
LINE
  8
_0-2______1
  6
CONTINUOUS
 62
    1
 10
574.71758250002995
 20
908.97317122662889
 11
574.71758250002995
 21
908.32213086221009
  0
LINE
  8
_0-2______1
  6
CONTINUOUS
 62
    1
 10
551.49014240167116
 20
896.70841081302797
 11
551.49014240167116
 21
896.05737044860916
  0
LINE
  8
_0-2______1
  6
CONTINUOUS
 62
    1
 10
551.49014240167116
 20
896.05737044860916
 11
551.49014240167116
 21
895.42995654902597
  0
LINE
  8
_0-2______1
  6
CONTINUOUS
 62
    1
 10
530.84586245891524
 20
878.64466586311801
 11
530.84586245891524
 21
877.99362549869784
  0
LINE
  8
_0-2______1
  6
CONTINUOUS
 62
    1
 10
667.62734289346918
 20
997.3492755339621
 11
668.27838325789025
 21
997.3492755339621
  0
LINE
  8
_0-2______1
  6
CONTINUOUS
 62
    1
 10
668.27838325789025
 20
997.3492755339621
 11
668.27838325789025
 21
998.64873110004419
  0
LINE
  8
_0-2______1
  6
CONTINUOUS
 62
    1
 10
669.55946268465323
 20
990.89662547047283
 11
668.92942362230997
 21
990.89662547047283
  0
LINE
  8
_0-2______1
  6
CONTINUOUS
 62
    1
 10
668.92942362230997
 20
990.89662547047283
 11
668.92942362230997
 21
991.54766583489209
  0
LINE
  8
_0-2______1
  6
CONTINUOUS
 62
    1
 10
668.92942362230997
 20
991.54766583489209
 11
668.27838325789025
 21
991.54766583489209
  0
LINE
  8
_0-2______1
  6
CONTINUOUS
 62
    1
 10
668.27838325789025
 20
991.54766583489209
 11
667.62734289346918
 21
992.20395652483194
  0
LINE
  8
_0-2______1
  6
CONTINUOUS
 62
    1
 10
667.62734289346918
 20
992.20395652483194
 11
666.97630252904901
 21
992.20395652483194
  0
LINE
  8
_0-2______1
  6
CONTINUOUS
 62
    1
 10
666.97630252904901
 20
992.20395652483194
 11
666.97630252904901
 21
993.48241078883484
  0
LINE
  8
_0-2______1
  6
CONTINUOUS
 62
    1
 10
666.97630252904901
 20
993.48241078883484
 11
666.34626346670711
 21
994.13345115325683
  0
LINE
  8
_0-2______1
  6
CONTINUOUS
 62
    1
 10
666.34626346670711
 20
994.13345115325683
 11
666.34626346670711
 21
996.06294578167899
  0
LINE
  8
_0-2______1
  6
CONTINUOUS
 62
    1
 10
666.34626346670711
 20
996.06294578167899
 11
666.97630252904901
 21
996.06294578167899
  0
LINE
  8
_0-2______1
  6
CONTINUOUS
 62
    1
 10
666.97630252904901
 20
996.06294578167899
 11
666.97630252904901
 21
996.71398614610098
  0
LINE
  8
_0-2______1
  6
CONTINUOUS
 62
    1
 10
646.98306295071416
 20
979.28553058405123
 11
646.98306295071416
 21
979.93394578571178
  0
LINE
  8
_0-2______1
  6
CONTINUOUS
 62
    1
 10
646.98306295071416
 20
979.93394578571178
 11
647.63410331513387
 21
979.93394578571178
  0
LINE
  8
_0-2______1
  6
CONTINUOUS
 62
    1
 10
647.63410331513387
 20
979.93394578571178
 11
647.63410331513387
 21
980.58498615013286
  0
LINE
  8
_0-2______1
  6
CONTINUOUS
 62
    1
 10
649.56622310631792
 20
972.83813084607891
 11
648.91518274189821
 21
972.83813084607891
  0
LINE
  8
_0-2______1
  6
CONTINUOUS
 62
    1
 10
648.91518274189821
 20
972.83813084607891
 11
648.91518274189821
 21
973.4891712105009
  0
LINE
  8
_0-2______1
  6
CONTINUOUS
 62
    1
 10
648.91518274189821
 20
973.4891712105009
 11
648.26414237747713
 21
973.4891712105009
  0
LINE
  8
_0-2______1
  6
CONTINUOUS
 62
    1
 10
648.26414237747713
 20
973.4891712105009
 11
648.26414237747713
 21
974.11658511008318
  0
LINE
  8
_0-2______1
  6
CONTINUOUS
 62
    1
 10
648.26414237747713
 20
974.11658511008318
 11
647.63410331513387
 21
974.11658511008318
  0
LINE
  8
_0-2______1
  6
CONTINUOUS
 62
    1
 10
647.63410331513387
 20
974.11658511008318
 11
646.98306295071416
 21
974.7676254745038
  0
LINE
  8
_0-2______1
  6
CONTINUOUS
 62
    1
 10
646.98306295071416
 20
974.7676254745038
 11
646.98306295071416
 21
975.41866583892488
  0
LINE
  8
_0-2______1
  6
CONTINUOUS
 62
    1
 10
646.98306295071416
 20
975.41866583892488
 11
646.33202258629308
 21
975.41866583892488
  0
LINE
  8
_0-2______1
  6
CONTINUOUS
 62
    1
 10
646.33202258629308
 20
975.41866583892488
 11
646.33202258629308
 21
976.70237042844701
  0
LINE
  8
_0-2______1
  6
CONTINUOUS
 62
    1
 10
646.33202258629308
 20
976.70237042844701
 11
645.70198352395118
 21
976.70237042844701
  0
LINE
  8
_0-2______1
  6
CONTINUOUS
 62
    1
 10
645.70198352395118
 20
976.70237042844701
 11
645.70198352395118
 21
978.00445115728917
  0
LINE
  8
_0-2______1
  6
CONTINUOUS
 62
    1
 10
645.70198352395118
 20
978.00445115728917
 11
646.33202258629308
 21
978.00445115728917
  0
LINE
  8
_0-2______1
  6
CONTINUOUS
 62
    1
 10
646.33202258629308
 20
978.00445115728917
 11
646.33202258629308
 21
978.63449021963197
  0
LINE
  8
_0-2______1
  6
CONTINUOUS
 62
    1
 10
646.33202258629308
 20
978.63449021963197
 11
646.98306295071416
 21
978.63449021963197
  0
LINE
  8
_0-2______1
  6
CONTINUOUS
 62
    1
 10
646.98306295071416
 20
978.63449021963197
 11
646.98306295071416
 21
979.28553058405123
  0
LINE
  8
_0-2______1
  6
CONTINUOUS
 62
    1
 10
651.49834289750197
 20
973.4891712105009
 11
651.49834289750197
 21
972.83813084607891
  0
LINE
  8
_0-2______1
  6
CONTINUOUS
 62
    1
 10
651.49834289750197
 20
972.83813084607891
 11
650.84730253308089
 21
972.83813084607891
  0
LINE
  8
_0-2______1
  6
CONTINUOUS
 62
    1
 10
650.84730253308089
 20
972.83813084607891
 11
650.217263470739
 21
972.83813084607891
  0
LINE
  8
_0-2______1
  6
CONTINUOUS
 62
    1
 10
650.217263470739
 20
972.83813084607891
 11
649.56622310631792
 21
972.83813084607891
  0
LINE
  8
_0-2______1
  6
CONTINUOUS
 62
    1
 10
672.1426228402579
 20
991.54766583489209
 11
672.1426228402579
 21
990.89662547047283
  0
LINE
  8
_0-2______1
  6
CONTINUOUS
 62
    1
 10
672.1426228402579
 20
990.89662547047283
 11
671.49158247583728
 21
990.89662547047283
  0
LINE
  8
_0-2______1
  6
CONTINUOUS
 62
    1
 10
671.49158247583728
 20
990.89662547047283
 11
670.86154341349402
 21
990.89662547047283
  0
LINE
  8
_0-2______1
  6
CONTINUOUS
 62
    1
 10
670.86154341349402
 20
990.89662547047283
 11
670.2105030490743
 21
990.89662547047283
  0
LINE
  8
_0-2______1
  6
CONTINUOUS
 62
    1
 10
670.2105030490743
 20
990.89662547047283
 11
669.55946268465323
 21
990.89662547047283
  0
LINE
  8
_0-2______1
  6
CONTINUOUS
 62
    1
 10
658.596782999894
 20
988.96713084204703
 11
658.596782999894
 21
988.31609047762822
  0
LINE
  8
_0-2______1
  6
CONTINUOUS
 62
    1
 10
657.94574263547429
 20
988.31609047762822
 11
657.94574263547429
 21
987.66505011320578
  0
LINE
  8
_0-2______1
  6
CONTINUOUS
 62
    1
 10
657.94574263547429
 20
987.66505011320578
 11
657.94574263547429
 21
987.03763621362486
  0
LINE
  8
_0-2______1
  6
CONTINUOUS
 62
    1
 10
657.94574263547429
 20
987.03763621362486
 11
657.94574263547429
 21
986.38659584920288
  0
LINE
  8
_0-2______1
  6
CONTINUOUS
 62
    1
 10
679.8921033070701
 20
1008.332956520801
 11
679.8921033070701
 21
1007.6766658308602
  0
LINE
  8
_0-2______1
  6
CONTINUOUS
 62
    1
 10
679.8921033070701
 20
1007.6766658308602
 11
679.24106294264993
 21
1007.6766658308602
  0
LINE
  8
_0-2______1
  6
CONTINUOUS
 62
    1
 10
679.24106294264993
 20
1007.6766658308602
 11
679.24106294264993
 21
1007.0256254664391
  0
LINE
  8
_0-2______1
  6
CONTINUOUS
 62
    1
 10
659.24782336431417
 20
991.54766583489209
 11
659.24782336431417
 21
989.61817120646811
  0
LINE
  8
_0-2______1
  6
CONTINUOUS
 62
    1
 10
678.59002257822931
 20
1007.0256254664391
 11
678.59002257822931
 21
1006.374585102019
  0
LINE
  8
_0-2______1
  6
CONTINUOUS
 62
    1
 10
678.59002257822931
 20
1005.7471712024362
 11
678.59002257822931
 21
1005.0961308380161
  0
LINE
  8
_0-2______1
  6
CONTINUOUS
 62
    1
 10
678.59002257822931
 20
1005.0961308380161
 11
678.59002257822931
 21
1004.4450904735959
  0
LINE
  8
_0-2______1
  6
CONTINUOUS
 62
    1
 10
681.82422309825324
 20
1001.231891255648
 11
681.17318273383307
 21
1001.231891255648
  0
LINE
  8
_0-2______1
  6
CONTINUOUS
 62
    1
 10
681.17318273383307
 20
1001.231891255648
 11
680.52214236941199
 21
1001.231891255648
  0
LINE
  8
_0-2______1
  6
CONTINUOUS
 62
    1
 10
680.52214236941199
 20
1001.231891255648
 11
680.52214236941199
 21
1001.8593051552311
  0
LINE
  8
_0-2______1
  6
CONTINUOUS
 62
    1
 10
680.52214236941199
 20
1001.8593051552311
 11
679.8921033070701
 21
1001.8593051552311
  0
LINE
  8
_0-2______1
  6
CONTINUOUS
 62
    1
 10
679.8921033070701
 20
1001.8593051552311
 11
679.8921033070701
 21
1002.515595845171
  0
LINE
  8
_0-2______1
  6
CONTINUOUS
 62
    1
 10
679.8921033070701
 20
1002.515595845171
 11
679.24106294264993
 21
1002.515595845171
  0
LINE
  8
_0-2______1
  6
CONTINUOUS
 62
    1
 10
679.24106294264993
 20
1002.515595845171
 11
679.24106294264993
 21
1003.1666362095912
  0
LINE
  8
_0-2______1
  6
CONTINUOUS
 62
    1
 10
679.24106294264993
 20
1003.1666362095912
 11
678.59002257822931
 21
1003.1666362095912
  0
LINE
  8
_0-2______1
  6
CONTINUOUS
 62
    1
 10
678.59002257822931
 20
1003.1666362095912
 11
678.59002257822931
 21
1003.7940501091739
  0
LINE
  8
_0-2______1
  6
CONTINUOUS
 62
    1
 10
678.59002257822931
 20
1003.7940501091739
 11
678.59002257822931
 21
1007.0256254664391
  0
LINE
  8
_0-2______1
  6
CONTINUOUS
 62
    1
 10
678.59002257822931
 20
1007.0256254664391
 11
679.24106294264993
 21
1007.0256254664391
  0
LINE
  8
_0-2______1
  6
CONTINUOUS
 62
    1
 10
692.13586241859321
 20
1013.4782755299302
 11
692.13586241859321
 21
1014.1293158943522
  0
LINE
  8
_0-2______1
  6
CONTINUOUS
 62
    1
 10
692.13586241859321
 20
1014.1293158943522
 11
691.50582335624995
 21
1014.1293158943522
  0
LINE
  8
_0-2______1
  6
CONTINUOUS
 62
    1
 10
691.50582335624995
 20
1014.1293158943522
 11
691.50582335624995
 21
1015.4077701583551
  0
LINE
  8
_0-2______1
  6
CONTINUOUS
 62
    1
 10
690.20374262740916
 20
1014.7777310960118
 11
689.5737035650659
 21
1014.7777310960118
  0
LINE
  8
_0-2______1
  6
CONTINUOUS
 62
    1
 10
689.5737035650659
 20
1014.7777310960118
 11
688.92266320064618
 21
1014.7777310960118
  0
LINE
  8
_0-2______1
  6
CONTINUOUS
 62
    1
 10
688.92266320064618
 20
1014.7777310960118
 11
688.27162283622511
 21
1014.7777310960118
  0
LINE
  8
_0-2______1
  6
CONTINUOUS
 62
    1
 10
688.27162283622511
 20
1014.7777310960118
 11
687.62058247180403
 21
1014.1293158943522
  0
LINE
  8
_0-2______1
  6
CONTINUOUS
 62
    1
 10
690.20374262740916
 20
1014.1293158943522
 11
690.20374262740916
 21
1014.7777310960118
  0
LINE
  8
_0-2______1
  6
CONTINUOUS
 62
    1
 10
661.17994315549822
 20
983.80081053084086
 11
660.52890279107805
 21
983.80081053084086
  0
LINE
  8
_0-2______1
  6
CONTINUOUS
 62
    1
 10
660.52890279107805
 20
983.80081053084086
 11
659.87786242665607
 21
983.80081053084086
  0
LINE
  8
_0-2______1
  6
CONTINUOUS
 62
    1
 10
659.87786242665607
 20
983.80081053084086
 11
659.87786242665607
 21
984.45185089526012
  0
LINE
  8
_0-2______1
  6
CONTINUOUS
 62
    1
 10
659.87786242665607
 20
984.45185089526012
 11
659.24782336431417
 21
984.45185089526012
  0
LINE
  8
_0-2______1
  6
CONTINUOUS
 62
    1
 10
659.24782336431417
 20
984.45185089526012
 11
659.24782336431417
 21
985.10026609692204
  0
LINE
  8
_0-2______1
  6
CONTINUOUS
 62
    1
 10
659.24782336431417
 20
985.10026609692204
 11
658.596782999894
 21
985.10026609692204
  0
LINE
  8
_0-2______1
  6
CONTINUOUS
 62
    1
 10
658.596782999894
 20
985.10026609692204
 11
658.596782999894
 21
986.38659584920288
  0
LINE
  8
_0-2______1
  6
CONTINUOUS
 62
    1
 10
658.596782999894
 20
986.38659584920288
 11
657.94574263547429
 21
986.38659584920288
  0
LINE
  8
_0-2______1
  6
CONTINUOUS
 62
    1
 10
657.94574263547429
 20
986.38659584920288
 11
657.94574263547429
 21
988.31609047762822
  0
LINE
  8
_0-2______1
  6
CONTINUOUS
 62
    1
 10
657.94574263547429
 20
988.31609047762822
 11
658.596782999894
 21
988.31609047762822
  0
LINE
  8
_0-2______1
  6
CONTINUOUS
 62
    1
 10
658.596782999894
 20
988.31609047762822
 11
658.596782999894
 21
989.61817120646811
  0
LINE
  8
_0-2______1
  6
CONTINUOUS
 62
    1
 10
643.11882336834697
 20
966.39073110810796
 11
643.11882336834697
 21
965.74231590644786
  0
LINE
  8
_0-2______1
  6
CONTINUOUS
 62
    1
 10
643.11882336834697
 20
965.74231590644786
 11
642.46778300392589
 21
965.74231590644786
  0
LINE
  8
_0-2______1
  6
CONTINUOUS
 62
    1
 10
642.46778300392589
 20
965.74231590644786
 11
641.81674263950617
 21
965.74231590644786
  0
LINE
  8
_0-2______1
  6
CONTINUOUS
 62
    1
 10
641.81674263950617
 20
965.74231590644786
 11
641.18670357716292
 21
965.74231590644786
  0
LINE
  8
_0-2______1
  6
CONTINUOUS
 62
    1
 10
641.18670357716292
 20
965.74231590644786
 11
640.53566321274229
 21
965.74231590644786
  0
LINE
  8
_0-2______1
  6
CONTINUOUS
 62
    1
 10
640.53566321274229
 20
965.74231590644786
 11
640.53566321274229
 21
966.39073110810796
  0
LINE
  8
_0-2______1
  6
CONTINUOUS
 62
    1
 10
640.53566321274229
 20
966.39073110810796
 11
639.88462284832212
 21
966.39073110810796
  0
LINE
  8
_0-2______1
  6
CONTINUOUS
 62
    1
 10
639.88462284832212
 20
966.39073110810796
 11
639.23358248390105
 21
966.39073110810796
  0
LINE
  8
_0-2______1
  6
CONTINUOUS
 62
    1
 10
639.23358248390105
 20
966.39073110810796
 11
639.23358248390105
 21
967.02077017045121
  0
LINE
  8
_0-2______1
  6
CONTINUOUS
 62
    1
 10
639.23358248390105
 20
967.02077017045121
 11
638.60354342155824
 21
967.02077017045121
  0
LINE
  8
_0-2______1
  6
CONTINUOUS
 62
    1
 10
638.60354342155824
 20
967.02077017045121
 11
638.60354342155824
 21
967.67181053487184
  0
LINE
  8
_0-2______1
  6
CONTINUOUS
 62
    1
 10
638.60354342155824
 20
967.67181053487184
 11
637.95250305713807
 21
967.67181053487184
  0
LINE
  8
_0-2______1
  6
CONTINUOUS
 62
    1
 10
637.95250305713807
 20
967.67181053487184
 11
637.95250305713807
 21
968.97389126371218
  0
LINE
  8
_0-2______1
  6
CONTINUOUS
 62
    1
 10
637.95250305713807
 20
968.97389126371218
 11
637.95250305713807
 21
969.60130516329491
  0
LINE
  8
_0-2______1
  6
CONTINUOUS
 62
    1
 10
637.95250305713807
 20
969.60130516329491
 11
637.30146269271791
 21
969.60130516329491
  0
LINE
  8
_0-2______1
  6
CONTINUOUS
 62
    1
 10
637.30146269271791
 20
969.60130516329491
 11
637.30146269271791
 21
970.25759585323522
  0
LINE
  8
_0-2______1
  6
CONTINUOUS
 62
    1
 10
637.30146269271791
 20
970.25759585323522
 11
637.95250305713807
 21
970.25759585323522
  0
LINE
  8
_0-2______1
  6
CONTINUOUS
 62
    1
 10
637.95250305713807
 20
970.25759585323522
 11
637.95250305713807
 21
972.1870904816592
  0
LINE
  8
_0-2______1
  6
CONTINUOUS
 62
    1
 10
663.76310331110199
 20
983.80081053084086
 11
663.11206294668227
 21
983.80081053084086
  0
LINE
  8
_0-2______1
  6
CONTINUOUS
 62
    1
 10
663.11206294668227
 20
983.80081053084086
 11
662.46102258226119
 21
983.80081053084086
  0
LINE
  8
_0-2______1
  6
CONTINUOUS
 62
    1
 10
662.46102258226119
 20
983.80081053084086
 11
661.8309835199193
 21
983.80081053084086
  0
LINE
  8
_0-2______1
  6
CONTINUOUS
 62
    1
 10
661.8309835199193
 20
983.80081053084086
 11
661.17994315549822
 21
983.80081053084086
  0
LINE
  8
_0-2______1
  6
CONTINUOUS
 62
    1
 10
683.75634288943729
 20
1001.8593051552311
 11
683.75634288943729
 21
1001.231891255648
  0
LINE
  8
_0-2______1
  6
CONTINUOUS
 62
    1
 10
683.75634288943729
 20
1001.231891255648
 11
683.10530252501712
 21
1001.231891255648
  0
LINE
  8
_0-2______1
  6
CONTINUOUS
 62
    1
 10
683.10530252501712
 20
1001.231891255648
 11
682.47526346267387
 21
1001.231891255648
  0
LINE
  8
_0-2______1
  6
CONTINUOUS
 62
    1
 10
682.47526346267387
 20
1001.231891255648
 11
681.82422309825324
 21
1001.231891255648
  0
LINE
  8
_0-2______1
  6
CONTINUOUS
 62
    1
 10
692.13586241859321
 20
1008.9603704203828
 11
692.78690278301292
 21
1008.9603704203828
  0
LINE
  8
_0-2______1
  6
CONTINUOUS
 62
    1
 10
692.78690278301292
 20
1008.9603704203828
 11
692.78690278301292
 21
1009.6114107848039
  0
LINE
  8
_0-2______1
  6
CONTINUOUS
 62
    1
 10
692.78690278301292
 20
1009.6114107848039
 11
693.43794314743309
 21
1009.6114107848039
  0
LINE
  8
_0-2______1
  6
CONTINUOUS
 62
    1
 10
693.43794314743309
 20
1009.6114107848039
 11
693.43794314743309
 21
1012.191945777648
  0
LINE
  8
_0-2______1
  6
CONTINUOUS
 62
    1
 10
693.43794314743309
 20
1012.191945777648
 11
692.78690278301292
 21
1012.191945777648
  0
LINE
  8
_0-2______1
  6
CONTINUOUS
 62
    1
 10
692.78690278301292
 20
1012.191945777648
 11
692.78690278301292
 21
1012.8429861420682
  0
LINE
  8
_0-2______1
  6
CONTINUOUS
 62
    1
 10
692.78690278301292
 20
1012.8429861420682
 11
692.13586241859321
 21
1012.8429861420682
  0
LINE
  8
_0-2______1
  6
CONTINUOUS
 62
    1
 10
692.13586241859321
 20
1012.8429861420682
 11
692.13586241859321
 21
1013.4782755299302
  0
LINE
  8
_0-2______1
  6
CONTINUOUS
 62
    1
 10
646.33202258629308
 20
978.63449021963197
 11
646.33202258629308
 21
978.00445115728917
  0
LINE
  8
_0-2______1
  6
CONTINUOUS
 62
    1
 10
646.33202258629308
 20
978.00445115728917
 11
645.70198352395118
 21
978.00445115728917
  0
LINE
  8
_0-2______1
  6
CONTINUOUS
 62
    1
 10
666.97630252904901
 20
996.06294578167899
 11
666.34626346670711
 21
996.06294578167899
  0
LINE
  8
_0-2______1
  6
CONTINUOUS
 62
    1
 10
666.34626346670711
 20
996.06294578167899
 11
666.34626346670711
 21
995.41453058001889
  0
LINE
  8
_0-2______1
  6
CONTINUOUS
 62
    1
 10
690.20374262740916
 20
1008.332956520801
 11
690.85478299182887
 21
1008.332956520801
  0
LINE
  8
_0-2______1
  6
CONTINUOUS
 62
    1
 10
690.85478299182887
 20
1008.332956520801
 11
691.50582335624995
 21
1008.332956520801
  0
LINE
  8
_0-2______1
  6
CONTINUOUS
 62
    1
 10
691.50582335624995
 20
1008.332956520801
 11
692.13586241859321
 21
1008.332956520801
  0
LINE
  8
_0-2______1
  6
CONTINUOUS
 62
    1
 10
692.13586241859321
 20
1008.332956520801
 11
692.13586241859321
 21
1008.9603704203828
  0
LINE
  8
_0-2______1
  6
CONTINUOUS
 62
    1
 10
687.62058247180403
 20
1014.1293158943522
 11
686.99054340946213
 21
1013.4782755299302
  0
LINE
  8
_0-2______1
  6
CONTINUOUS
 62
    1
 10
686.99054340946213
 20
1013.4782755299302
 11
686.99054340946213
 21
1010.8924902115682
  0
LINE
  8
_0-2______1
  6
CONTINUOUS
 62
    1
 10
686.99054340946213
 20
1010.8924902115682
 11
687.62058247180403
 21
1010.8924902115682
  0
LINE
  8
_0-2______1
  6
CONTINUOUS
 62
    1
 10
687.62058247180403
 20
1010.8924902115682
 11
687.62058247180403
 21
1009.6114107848039
  0
LINE
  8
_0-2______1
  6
CONTINUOUS
 62
    1
 10
687.62058247180403
 20
1009.6114107848039
 11
688.27162283622511
 21
1009.6114107848039
  0
LINE
  8
_0-2______1
  6
CONTINUOUS
 62
    1
 10
688.27162283622511
 20
1009.6114107848039
 11
688.27162283622511
 21
1008.9603704203828
  0
LINE
  8
_0-2______1
  6
CONTINUOUS
 62
    1
 10
688.27162283622511
 20
1008.9603704203828
 11
688.92266320064618
 21
1008.9603704203828
  0
LINE
  8
_0-2______1
  6
CONTINUOUS
 62
    1
 10
688.92266320064618
 20
1008.9603704203828
 11
689.5737035650659
 21
1008.332956520801
  0
LINE
  8
_0-2______1
  6
CONTINUOUS
 62
    1
 10
597.9450225983901
 20
890.2636362378189
 11
598.59606296281117
 21
890.2636362378189
  0
LINE
  8
_0-2______1
  6
CONTINUOUS
 62
    1
 10
598.59606296281117
 20
890.2636362378189
 11
598.59606296281117
 21
888.95630518345706
  0
LINE
  8
_0-2______1
  6
CONTINUOUS
 62
    1
 10
598.59606296281117
 20
888.95630518345706
 11
599.24710332723089
 21
888.95630518345706
  0
LINE
  8
_0-2______1
  6
CONTINUOUS
 62
    1
 10
599.24710332723089
 20
888.95630518345706
 11
599.87714238957415
 21
888.95630518345706
  0
LINE
  8
_0-2______1
  6
CONTINUOUS
 62
    1
 10
599.87714238957415
 20
888.95630518345706
 11
600.52818275399522
 21
888.32626612111517
  0
LINE
  8
_0-2______1
  6
CONTINUOUS
 62
    1
 10
600.52818275399522
 20
888.32626612111517
 11
601.17922311841494
 21
888.32626612111517
  0
LINE
  8
_0-2______1
  6
CONTINUOUS
 62
    1
 10
883.75174257902199
 20
926.38062548659991
 11
883.75174257902199
 21
925.72958512218111
  0
LINE
  8
_0-2______1
  6
CONTINUOUS
 62
    1
 10
882.47066315225902
 20
925.72958512218111
 11
883.12170351667919
 21
925.72958512218111
  0
LINE
  8
_0-2______1
  6
CONTINUOUS
 62
    1
 10
883.12170351667919
 20
925.72958512218111
 11
883.12170351667919
 21
926.38062548659991
  0
LINE
  8
_0-2______1
  6
CONTINUOUS
 62
    1
 10
883.12170351667919
 20
926.38062548659991
 11
883.75174257902199
 21
926.38062548659991
  0
LINE
  8
_0-2______1
  6
CONTINUOUS
 62
    1
 10
773.43190276285213
 20
838.6398105671301
 11
774.0829431272723
 21
838.6398105671301
  0
LINE
  8
_0-2______1
  6
CONTINUOUS
 62
    1
 10
774.0829431272723
 20
838.6398105671301
 11
774.73398349169292
 21
837.98877020270993
  0
LINE
  8
_0-2______1
  6
CONTINUOUS
 62
    1
 10
774.73398349169292
 20
837.98877020270993
 11
775.36402255403618
 21
837.98877020270993
  0
LINE
  8
_0-2______1
  6
CONTINUOUS
 62
    1
 10
775.36402255403618
 20
837.98877020270993
 11
776.0150629184559
 21
837.98877020270993
  0
LINE
  8
_0-2______1
  6
CONTINUOUS
 62
    1
 10
776.0150629184559
 20
837.98877020270993
 11
776.66610328287607
 21
837.98877020270993
  0
LINE
  8
_0-2______1
  6
CONTINUOUS
 62
    1
 10
776.66610328287607
 20
837.98877020270993
 11
777.29614234521887
 21
837.98877020270993
  0
LINE
  8
_0-2______1
  6
CONTINUOUS
 62
    1
 10
777.29614234521887
 20
837.98877020270993
 11
778.59822307406012
 21
837.98877020270993
  0
LINE
  8
_0-2______1
  6
CONTINUOUS
 62
    1
 10
778.59822307406012
 20
837.98877020270993
 11
779.24926343848119
 21
837.98877020270993
  0
LINE
  8
_0-2______1
  6
CONTINUOUS
 62
    1
 10
779.24926343848119
 20
837.98877020270993
 11
779.87930250082309
 21
837.98877020270993
  0
LINE
  8
_0-2______1
  6
CONTINUOUS
 62
    1
 10
779.87930250082309
 20
837.98877020270993
 11
780.53034286524417
 21
838.6398105671301
  0
LINE
  8
_0-2______1
  6
CONTINUOUS
 62
    1
 10
780.53034286524417
 20
838.6398105671301
 11
781.18138322966524
 21
838.6398105671301
  0
LINE
  8
_0-2______1
  6
CONTINUOUS
 62
    1
 10
781.18138322966524
 20
838.6398105671301
 11
781.83242359408496
 21
838.6398105671301
  0
LINE
  8
_0-2______1
  6
CONTINUOUS
 62
    1
 10
781.83242359408496
 20
838.6398105671301
 11
782.46246265642731
 21
838.6398105671301
  0
LINE
  8
_0-2______1
  6
CONTINUOUS
 62
    1
 10
782.46246265642731
 20
838.6398105671301
 11
782.46246265642731
 21
839.29085093154981
  0
LINE
  8
_0-2______1
  6
CONTINUOUS
 62
    1
 10
782.46246265642731
 20
839.29085093154981
 11
783.11350302084793
 21
839.29085093154981
  0
LINE
  8
_0-2______1
  6
CONTINUOUS
 62
    1
 10
783.11350302084793
 20
839.29085093154981
 11
783.11350302084793
 21
839.93926613320991
  0
LINE
  8
_0-2______1
  6
CONTINUOUS
 62
    1
 10
783.11350302084793
 20
839.93926613320991
 11
783.76454338526901
 21
839.93926613320991
  0
LINE
  8
_0-2______1
  6
CONTINUOUS
 62
    1
 10
883.75174257902199
 20
925.72958512218111
 11
883.75174257902199
 21
924.4511308581782
  0
LINE
  8
_0-2______1
  6
CONTINUOUS
 62
    1
 10
883.75174257902199
 20
924.4511308581782
 11
883.12170351667919
 21
924.4511308581782
  0
LINE
  8
_0-2______1
  6
CONTINUOUS
 62
    1
 10
883.12170351667919
 20
924.4511308581782
 11
883.12170351667919
 21
923.80009049375485
  0
LINE
  8
_0-2______1
  6
CONTINUOUS
 62
    1
 10
883.12170351667919
 20
923.80009049375485
 11
882.47066315225902
 21
923.80009049375485
  0
LINE
  8
_0-2______1
  6
CONTINUOUS
 62
    1
 10
601.17922311841494
 20
886.375770190612
 11
600.52818275399522
 21
886.375770190612
  0
LINE
  8
_0-2______1
  6
CONTINUOUS
 62
    1
 10
600.52818275399522
 20
886.375770190612
 11
599.87714238957415
 21
886.375770190612
  0
LINE
  8
_0-2______1
  6
CONTINUOUS
 62
    1
 10
599.87714238957415
 20
886.375770190612
 11
599.87714238957415
 21
887.02681055503399
  0
LINE
  8
_0-2______1
  6
CONTINUOUS
 62
    1
 10
599.87714238957415
 20
887.02681055503399
 11
599.24710332723089
 21
887.02681055503399
  0
LINE
  8
_0-2______1
  6
CONTINUOUS
 62
    1
 10
599.24710332723089
 20
887.02681055503399
 11
598.59606296281117
 21
887.02681055503399
  0
LINE
  8
_0-2______1
  6
CONTINUOUS
 62
    1
 10
598.59606296281117
 20
887.02681055503399
 11
598.59606296281117
 21
888.32889128387296
  0
LINE
  8
_0-2______1
  6
CONTINUOUS
 62
    1
 10
598.59606296281117
 20
888.32889128387296
 11
597.9450225983901
 21
888.32889128387296
  0
LINE
  8
_0-2______1
  6
CONTINUOUS
 62
    1
 10
597.9450225983901
 20
888.32889128387296
 11
597.31498353604729
 21
888.32889128387296
  0
LINE
  8
_0-2______1
  6
CONTINUOUS
 62
    1
 10
597.31498353604729
 20
888.32889128387296
 11
597.31498353604729
 21
889.612595873396
  0
LINE
  8
_0-2______1
  6
CONTINUOUS
 62
    1
 10
783.76454338526901
 20
837.98877020270993
 11
783.11350302084793
 21
837.98877020270993
  0
LINE
  8
_0-2______1
  6
CONTINUOUS
 62
    1
 10
783.11350302084793
 20
837.98877020270993
 11
783.11350302084793
 21
837.35873114036622
  0
LINE
  8
_0-2______1
  6
CONTINUOUS
 62
    1
 10
783.11350302084793
 20
837.35873114036622
 11
782.46246265642731
 21
837.35873114036622
  0
LINE
  8
_0-2______1
  6
CONTINUOUS
 62
    1
 10
782.46246265642731
 20
837.35873114036622
 11
782.46246265642731
 21
836.71031593870521
  0
LINE
  8
_0-2______1
  6
CONTINUOUS
 62
    1
 10
782.46246265642731
 20
836.71031593870521
 11
781.83242359408496
 21
836.71031593870521
  0
LINE
  8
_0-2______1
  6
CONTINUOUS
 62
    1
 10
781.83242359408496
 20
836.71031593870521
 11
781.18138322966524
 21
836.71031593870521
  0
LINE
  8
_0-2______1
  6
CONTINUOUS
 62
    1
 10
781.18138322966524
 20
836.71031593870521
 11
780.53034286524417
 21
836.71031593870521
  0
LINE
  8
_0-2______1
  6
CONTINUOUS
 62
    1
 10
780.53034286524417
 20
836.71031593870521
 11
779.87930250082309
 21
836.05927557428504
  0
LINE
  8
_0-2______1
  6
CONTINUOUS
 62
    1
 10
779.87930250082309
 20
836.05927557428504
 11
779.24926343848119
 21
836.05927557428504
  0
LINE
  8
_0-2______1
  6
CONTINUOUS
 62
    1
 10
779.24926343848119
 20
836.05927557428504
 11
778.59822307406012
 21
836.05927557428504
  0
LINE
  8
_0-2______1
  6
CONTINUOUS
 62
    1
 10
778.59822307406012
 20
836.05927557428504
 11
777.94718270963904
 21
836.05927557428504
  0
LINE
  8
_0-2______1
  6
CONTINUOUS
 62
    1
 10
777.94718270963904
 20
836.05927557428504
 11
777.29614234521887
 21
836.05927557428504
  0
LINE
  8
_0-2______1
  6
CONTINUOUS
 62
    1
 10
777.29614234521887
 20
836.05927557428504
 11
776.66610328287607
 21
836.05927557428504
  0
LINE
  8
_0-2______1
  6
CONTINUOUS
 62
    1
 10
776.66610328287607
 20
836.05927557428504
 11
775.36402255403618
 21
836.05927557428504
  0
LINE
  8
_0-2______1
  6
CONTINUOUS
 62
    1
 10
775.36402255403618
 20
836.05927557428504
 11
774.73398349169292
 21
836.05927557428504
  0
LINE
  8
_0-2______1
  6
CONTINUOUS
 62
    1
 10
774.73398349169292
 20
836.05927557428504
 11
774.0829431272723
 21
836.05927557428504
  0
LINE
  8
_0-2______1
  6
CONTINUOUS
 62
    1
 10
774.0829431272723
 20
836.05927557428504
 11
774.0829431272723
 21
836.71031593870521
  0
LINE
  8
_0-2______1
  6
CONTINUOUS
 62
    1
 10
774.0829431272723
 20
836.71031593870521
 11
773.43190276285213
 21
836.71031593870521
  0
LINE
  8
_0-2______1
  6
CONTINUOUS
 62
    1
 10
596.66394317162712
 20
888.32889128387296
 11
597.31498353604729
 21
888.32889128387296
  0
LINE
  8
_0-2______1
  6
CONTINUOUS
 62
    1
 10
597.31498353604729
 20
888.32889128387296
 11
597.31498353604729
 21
887.02681055503399
  0
LINE
  8
_0-2______1
  6
CONTINUOUS
 62
    1
 10
597.31498353604729
 20
887.02681055503399
 11
597.9450225983901
 21
887.02681055503399
  0
LINE
  8
_0-2______1
  6
CONTINUOUS
 62
    1
 10
597.9450225983901
 20
887.02681055503399
 11
598.59606296281117
 21
887.02681055503399
  0
LINE
  8
_0-2______1
  6
CONTINUOUS
 62
    1
 10
598.59606296281117
 20
887.02681055503399
 11
598.59606296281117
 21
886.375770190612
  0
LINE
  8
_0-2______1
  6
CONTINUOUS
 62
    1
 10
598.59606296281117
 20
886.375770190612
 11
599.24710332723089
 21
886.375770190612
  0
LINE
  8
_0-2______1
  6
CONTINUOUS
 62
    1
 10
599.24710332723089
 20
886.375770190612
 11
599.87714238957415
 21
886.375770190612
  0
LINE
  8
_0-2______1
  6
CONTINUOUS
 62
    1
 10
599.87714238957415
 20
886.375770190612
 11
600.52818275399522
 21
886.375770190612
  0
LINE
  8
_0-2______1
  6
CONTINUOUS
 62
    1
 10
596.66394317162712
 20
887.67785091945416
 11
596.66394317162712
 21
888.32626612111517
  0
LINE
  8
_0-2______1
  6
CONTINUOUS
 62
    1
 10
596.66394317162712
 20
888.32626612111517
 11
596.66394317162712
 21
888.95630518345706
  0
LINE
  8
_0-2______1
  6
CONTINUOUS
 62
    1
 10
596.66394317162712
 20
888.95630518345706
 11
597.31498353604729
 21
888.95630518345706
  0
LINE
  8
_0-2______1
  6
CONTINUOUS
 62
    1
 10
597.31498353604729
 20
888.95630518345706
 11
597.31498353604729
 21
889.612595873396
  0
LINE
  8
_0-2______1
  6
CONTINUOUS
 62
    1
 10
973.42730245243592
 20
925.72958512218111
 11
973.42730245243592
 21
926.38062548659991
  0
LINE
  8
_0-2______1
  6
CONTINUOUS
 62
    1
 10
973.42730245243592
 20
926.38062548659991
 11
973.42730245243592
 21
927.0316658510219
  0
LINE
  8
_0-2______1
  6
CONTINUOUS
 62
    1
 10
973.42730245243592
 20
927.0316658510219
 11
974.078342816857
 21
927.0316658510219
  0
LINE
  8
_0-2______1
  6
CONTINUOUS
 62
    1
 10
974.078342816857
 20
927.0316658510219
 11
974.078342816857
 21
927.6879565409622
  0
LINE
  8
_0-2______1
  6
CONTINUOUS
 62
    1
 10
974.078342816857
 20
927.6879565409622
 11
974.72938318127808
 21
927.6879565409622
  0
LINE
  8
_0-2______1
  6
CONTINUOUS
 62
    1
 10
974.72938318127808
 20
927.6879565409622
 11
975.38042354569825
 21
927.6879565409622
  0
LINE
  8
_0-2______1
  6
CONTINUOUS
 62
    1
 10
975.38042354569825
 20
927.6879565409622
 11
976.01046260804105
 21
928.31537044054494
  0
LINE
  8
_0-2______1
  6
CONTINUOUS
 62
    1
 10
976.01046260804105
 20
928.31537044054494
 11
976.66150297246122
 21
928.31537044054494
  0
LINE
  8
_0-2______1
  6
CONTINUOUS
 62
    1
 10
976.66150297246122
 20
928.31537044054494
 11
977.31254333688094
 21
928.31537044054494
  0
LINE
  8
_0-2______1
  6
CONTINUOUS
 62
    1
 10
977.31254333688094
 20
928.31537044054494
 11
977.94258239922419
 21
928.31537044054494
  0
LINE
  8
_0-2______1
  6
CONTINUOUS
 62
    1
 10
977.94258239922419
 20
928.31537044054494
 11
978.59362276364527
 21
928.31537044054494
  0
LINE
  8
_0-2______1
  6
CONTINUOUS
 62
    1
 10
978.59362276364527
 20
928.31537044054494
 11
979.24466312806499
 21
928.31537044054494
  0
LINE
  8
_0-2______1
  6
CONTINUOUS
 62
    1
 10
979.24466312806499
 20
928.31537044054494
 11
979.89570349248606
 21
928.31537044054494
  0
LINE
  8
_0-2______1
  6
CONTINUOUS
 62
    1
 10
979.89570349248606
 20
928.31537044054494
 11
980.52574255482796
 21
928.31537044054494
  0
LINE
  8
_0-2______1
  6
CONTINUOUS
 62
    1
 10
980.52574255482796
 20
928.31537044054494
 11
980.52574255482796
 21
927.6879565409622
  0
LINE
  8
_0-2______1
  6
CONTINUOUS
 62
    1
 10
973.42730245243592
 20
926.38062548659991
 11
974.078342816857
 21
926.38062548659991
  0
LINE
  8
_0-2______1
  6
CONTINUOUS
 62
    1
 10
974.078342816857
 20
926.38062548659991
 11
974.72938318127808
 21
926.38062548659991
  0
LINE
  8
_0-2______1
  6
CONTINUOUS
 62
    1
 10
974.72938318127808
 20
926.38062548659991
 11
974.72938318127808
 21
925.72958512218111
  0
LINE
  8
_0-2______1
  6
CONTINUOUS
 62
    1
 10
974.72938318127808
 20
925.72958512218111
 11
975.38042354569825
 21
925.72958512218111
  0
LINE
  8
_0-2______1
  6
CONTINUOUS
 62
    1
 10
819.88678295957106
 20
793.48963626201021
 11
820.53782332399214
 21
794.11705016159385
  0
LINE
  8
_0-2______1
  6
CONTINUOUS
 62
    1
 10
820.53782332399214
 20
794.11705016159385
 11
821.16786238633404
 21
794.11705016159385
  0
LINE
  8
_0-2______1
  6
CONTINUOUS
 62
    1
 10
821.16786238633404
 20
794.11705016159385
 11
821.16786238633404
 21
794.76809052601493
  0
LINE
  8
_0-2______1
  6
CONTINUOUS
 62
    1
 10
821.16786238633404
 20
794.76809052601493
 11
821.81890275075511
 21
794.76809052601493
  0
LINE
  8
_0-2______1
  6
CONTINUOUS
 62
    1
 10
821.81890275075511
 20
794.76809052601493
 11
821.81890275075511
 21
795.4191308904351
  0
LINE
  8
_0-2______1
  6
CONTINUOUS
 62
    1
 10
821.81890275075511
 20
795.4191308904351
 11
822.46994311517619
 21
795.4191308904351
  0
LINE
  8
_0-2______1
  6
CONTINUOUS
 62
    1
 10
822.46994311517619
 20
795.4191308904351
 11
823.12098347959591
 21
795.4191308904351
  0
LINE
  8
_0-2______1
  6
CONTINUOUS
 62
    1
 10
823.12098347959591
 20
795.4191308904351
 11
823.75102254193826
 21
795.4191308904351
  0
LINE
  8
_0-2______1
  6
CONTINUOUS
 62
    1
 10
823.75102254193826
 20
795.4191308904351
 11
824.40206290636024
 21
795.4191308904351
  0
LINE
  8
_0-2______1
  6
CONTINUOUS
 62
    1
 10
824.40206290636024
 20
795.4191308904351
 11
825.05310327077905
 21
795.4191308904351
  0
LINE
  8
_0-2______1
  6
CONTINUOUS
 62
    1
 10
825.05310327077905
 20
795.4191308904351
 11
825.6831423331223
 21
795.4191308904351
  0
LINE
  8
_0-2______1
  6
CONTINUOUS
 62
    1
 10
825.6831423331223
 20
795.4191308904351
 11
826.33418269754293
 21
795.4191308904351
  0
LINE
  8
_0-2______1
  6
CONTINUOUS
 62
    1
 10
826.33418269754293
 20
795.4191308904351
 11
826.98522306196401
 21
795.4191308904351
  0
LINE
  8
_0-2______1
  6
CONTINUOUS
 62
    1
 10
820.53782332399214
 20
794.11705016159385
 11
821.16786238633404
 21
794.11705016159385
  0
LINE
  8
_0-2______1
  6
CONTINUOUS
 62
    1
 10
821.16786238633404
 20
794.11705016159385
 11
821.16786238633404
 21
793.48963626201021
  0
LINE
  8
_0-2______1
  6
CONTINUOUS
 62
    1
 10
821.16786238633404
 20
793.48963626201021
 11
821.81890275075511
 21
793.48963626201021
  0
LINE
  8
_0-2______1
  6
CONTINUOUS
 62
    1
 10
821.81890275075511
 20
793.48963626201021
 11
821.81890275075511
 21
792.83859589759004
  0
LINE
  8
_0-2______1
  6
CONTINUOUS
 62
    1
 10
821.81890275075511
 20
792.83859589759004
 11
822.46469278965606
 21
792.83859589759004
  0
LINE
  8
_0-2______1
  6
CONTINUOUS
 62
    1
 10
822.46469278965606
 20
792.83859589759004
 11
823.12098347959591
 21
792.83859589759004
  0
LINE
  8
_0-2______1
  6
CONTINUOUS
 62
    1
 10
823.12098347959591
 20
792.83859589759004
 11
823.75102254193826
 21
792.83859589759004
  0
LINE
  8
_0-2______1
  6
CONTINUOUS
 62
    1
 10
823.75102254193826
 20
792.83859589759004
 11
823.75102254193826
 21
792.18230520765019
  0
LINE
  8
_0-2______1
  6
CONTINUOUS
 62
    1
 10
823.75102254193826
 20
792.18230520765019
 11
824.40206290636024
 21
792.18230520765019
  0
LINE
  8
_0-2______1
  6
CONTINUOUS
 62
    1
 10
824.40206290636024
 20
792.18230520765019
 11
825.05310327077905
 21
792.18230520765019
  0
LINE
  8
_0-2______1
  6
CONTINUOUS
 62
    1
 10
825.05310327077905
 20
792.18230520765019
 11
825.6831423331223
 21
792.18230520765019
  0
LINE
  8
_0-2______1
  6
CONTINUOUS
 62
    1
 10
825.6831423331223
 20
792.18230520765019
 11
825.6831423331223
 21
792.83859589759004
  0
LINE
  8
_0-2______1
  6
CONTINUOUS
 62
    1
 10
825.6831423331223
 20
792.83859589759004
 11
826.33418269754293
 21
792.83859589759004
  0
LINE
  8
_0-2______1
  6
CONTINUOUS
 62
    1
 10
826.33418269754293
 20
792.83859589759004
 11
826.98522306196401
 21
792.83859589759004
  0
LINE
  8
_0-2______1
  6
CONTINUOUS
 62
    1
 10
826.98522306196401
 20
792.83859589759004
 11
827.63626342638418
 21
792.83859589759004
  0
LINE
  8
_0-2______1
  6
CONTINUOUS
 62
    1
 10
827.63626342638418
 20
792.83859589759004
 11
827.63626342638418
 21
793.48963626201021
  0
LINE
  8
_0-2______1
  6
CONTINUOUS
 62
    1
 10
827.63626342638418
 20
793.48963626201021
 11
828.26630248872698
 21
793.48963626201021
  0
LINE
  8
_0-2______1
  6
CONTINUOUS
 62
    1
 10
828.26630248872698
 20
793.48963626201021
 11
828.91734285314806
 21
793.48963626201021
  0
LINE
  8
_0-2______1
  6
CONTINUOUS
 62
    1
 10
828.91734285314806
 20
793.48963626201021
 11
828.91734285314806
 21
794.11705016159385
  0
LINE
  8
_0-2______1
  6
CONTINUOUS
 62
    1
 10
975.38042354569825
 20
925.72958512218111
 11
976.01046260804105
 21
925.72958512218111
  0
LINE
  8
_0-2______1
  6
CONTINUOUS
 62
    1
 10
976.01046260804105
 20
925.72958512218111
 11
976.66150297246122
 21
925.72958512218111
  0
LINE
  8
_0-2______1
  6
CONTINUOUS
 62
    1
 10
976.66150297246122
 20
925.72958512218111
 11
977.31254333688094
 21
925.72958512218111
  0
LINE
  8
_0-2______1
  6
CONTINUOUS
 62
    1
 10
977.31254333688094
 20
925.72958512218111
 11
977.31254333688094
 21
925.10217122259701
  0
LINE
  8
_0-2______1
  6
CONTINUOUS
 62
    1
 10
977.31254333688094
 20
925.10217122259701
 11
977.94258239922419
 21
925.10217122259701
  0
LINE
  8
_0-2______1
  6
CONTINUOUS
 62
    1
 10
977.94258239922419
 20
925.10217122259701
 11
978.59362276364527
 21
925.10217122259701
  0
LINE
  8
_0-2______1
  6
CONTINUOUS
 62
    1
 10
978.59362276364527
 20
925.10217122259701
 11
979.24466312806499
 21
925.72958512218111
  0
LINE
  8
_0-2______1
  6
CONTINUOUS
 62
    1
 10
979.24466312806499
 20
925.72958512218111
 11
979.89570349248606
 21
925.72958512218111
  0
LINE
  8
_0-2______1
  6
CONTINUOUS
 62
    1
 10
979.89570349248606
 20
925.72958512218111
 11
980.52574255482796
 21
925.72958512218111
  0
LINE
  8
_0-2______1
  6
CONTINUOUS
 62
    1
 10
980.52574255482796
 20
925.72958512218111
 11
981.17678291924904
 21
925.72958512218111
  0
LINE
  8
_0-2______1
  6
CONTINUOUS
 62
    1
 10
981.17678291924904
 20
925.72958512218111
 11
981.17678291924904
 21
926.38062548659991
  0
LINE
  8
_0-2______1
  6
CONTINUOUS
 62
    1
 10
981.17678291924904
 20
926.38062548659991
 11
981.8278232836692
 21
926.38062548659991
  0
LINE
  8
_0-2______1
  6
CONTINUOUS
 62
    1
 10
981.8278232836692
 20
926.38062548659991
 11
982.45786234601201
 21
926.38062548659991
  0
LINE
  8
_0-2______1
  6
CONTINUOUS
 62
    1
 10
773.43190276285213
 20
836.05927557428504
 11
774.0829431272723
 21
836.05927557428504
  0
LINE
  8
_0-2______1
  6
CONTINUOUS
 62
    1
 10
774.0829431272723
 20
836.05927557428504
 11
774.73398349169292
 21
836.05927557428504
  0
LINE
  8
_0-2______1
  6
CONTINUOUS
 62
    1
 10
774.73398349169292
 20
836.05927557428504
 11
775.36402255403618
 21
836.05927557428504
  0
LINE
  8
_0-2______1
  6
CONTINUOUS
 62
    1
 10
775.36402255403618
 20
836.05927557428504
 11
776.0150629184559
 21
835.42398618642301
  0
LINE
  8
_0-2______1
  6
CONTINUOUS
 62
    1
 10
776.0150629184559
 20
835.42398618642301
 11
776.66610328287607
 21
835.42398618642301
  0
LINE
  8
_0-2______1
  6
CONTINUOUS
 62
    1
 10
776.66610328287607
 20
835.42398618642301
 11
777.29614234521887
 21
835.42398618642301
  0
LINE
  8
_0-2______1
  6
CONTINUOUS
 62
    1
 10
777.29614234521887
 20
835.42398618642301
 11
777.94718270963904
 21
835.42398618642301
  0
LINE
  8
_0-2______1
  6
CONTINUOUS
 62
    1
 10
777.94718270963904
 20
835.42398618642301
 11
778.59822307406012
 21
835.42398618642301
  0
LINE
  8
_0-2______1
  6
CONTINUOUS
 62
    1
 10
778.59822307406012
 20
835.42398618642301
 11
779.24926343848119
 21
836.05927557428504
  0
LINE
  8
_0-2______1
  6
CONTINUOUS
 62
    1
 10
779.24926343848119
 20
836.05927557428504
 11
779.87930250082309
 21
836.05927557428504
  0
LINE
  8
_0-2______1
  6
CONTINUOUS
 62
    1
 10
779.87930250082309
 20
836.05927557428504
 11
780.53034286524417
 21
836.05927557428504
  0
LINE
  8
_0-2______1
  6
CONTINUOUS
 62
    1
 10
780.53034286524417
 20
836.05927557428504
 11
781.18138322966524
 21
836.05927557428504
  0
LINE
  8
_0-2______1
  6
CONTINUOUS
 62
    1
 10
781.18138322966524
 20
836.05927557428504
 11
782.46246265642731
 21
836.05927557428504
  0
LINE
  8
_0-2______1
  6
CONTINUOUS
 62
    1
 10
782.46246265642731
 20
836.05927557428504
 11
782.46246265642731
 21
836.71031593870521
  0
LINE
  8
_0-2______1
  6
CONTINUOUS
 62
    1
 10
782.46246265642731
 20
836.71031593870521
 11
783.11350302084793
 21
836.71031593870521
  0
LINE
  8
_0-2______1
  6
CONTINUOUS
 62
    1
 10
783.11350302084793
 20
836.71031593870521
 11
783.76454338526901
 21
836.71031593870521
  0
LINE
  8
_0-2______1
  6
CONTINUOUS
 62
    1
 10
783.76454338526901
 20
836.71031593870521
 11
783.76454338526901
 21
837.35873114036622
  0
LINE
  8
_0-2______1
  6
CONTINUOUS
 62
    1
 10
783.76454338526901
 20
837.35873114036622
 11
784.3945824476109
 21
837.35873114036622
  0
LINE
  8
_0-2______1
  6
CONTINUOUS
 62
    1
 10
883.75174257902199
 20
923.80009049375485
 11
884.40278294344307
 21
923.80009049375485
  0
LINE
  8
_0-2______1
  6
CONTINUOUS
 62
    1
 10
884.40278294344307
 20
923.80009049375485
 11
884.40278294344307
 21
925.10217122259701
  0
LINE
  8
_0-2______1
  6
CONTINUOUS
 62
    1
 10
826.98522306196401
 20
795.4191308904351
 11
827.63626342638418
 21
795.4191308904351
  0
LINE
  8
_0-2______1
  6
CONTINUOUS
 62
    1
 10
827.63626342638418
 20
795.4191308904351
 11
828.26630248872698
 21
794.76809052601493
  0
LINE
  8
_0-2______1
  6
CONTINUOUS
 62
    1
 10
828.26630248872698
 20
794.76809052601493
 11
828.26630248872698
 21
794.11705016159385
  0
LINE
  8
_0-2______1
  6
CONTINUOUS
 62
    1
 10
828.26630248872698
 20
794.11705016159385
 11
828.91734285314806
 21
794.11705016159385
  0
LINE
  8
_0-2______1
  6
CONTINUOUS
 62
    1
 10
828.91734285314806
 20
794.11705016159385
 11
829.56838321756823
 21
794.11705016159385
  0
LINE
  8
_0-2______1
  6
CONTINUOUS
 62
    1
 10
829.56838321756823
 20
794.11705016159385
 11
829.56838321756823
 21
793.48963626201021
  0
LINE
  8
_0-2______1
  6
CONTINUOUS
 62
    1
 10
980.52574255482796
 20
927.6879565409622
 11
981.17678291924904
 21
927.6879565409622
  0
LINE
  8
_0-2______1
  6
CONTINUOUS
 62
    1
 10
981.17678291924904
 20
927.6879565409622
 11
981.8278232836692
 21
927.6879565409622
  0
LINE
  8
_0-2______1
  6
CONTINUOUS
 62
    1
 10
981.8278232836692
 20
927.6879565409622
 11
981.8278232836692
 21
927.0316658510219
  0
LINE
  8
_0-2______1
  6
CONTINUOUS
 62
    1
 10
981.8278232836692
 20
927.0316658510219
 11
982.45786234601201
 21
927.0316658510219
  0
LINE
  8
_0-2______1
  6
CONTINUOUS
 62
    1
 10
982.45786234601201
 20
927.0316658510219
 11
982.45786234601201
 21
926.38062548659991
  0
LINE
  8
_0-2______1
  6
CONTINUOUS
 62
    1
 10
982.45786234601201
 20
926.38062548659991
 11
982.45786234601201
 21
925.72958512218111
  0
LINE
  8
_0-2______1
  6
CONTINUOUS
 62
    1
 10
881.16858242341732
 20
927.6879565409622
 11
881.81962278783794
 21
927.6879565409622
  0
LINE
  8
_0-2______1
  6
CONTINUOUS
 62
    1
 10
881.81962278783794
 20
927.6879565409622
 11
882.47066315225902
 21
927.6879565409622
  0
LINE
  8
_0-2______1
  6
CONTINUOUS
 62
    1
 10
882.47066315225902
 20
927.6879565409622
 11
882.47066315225902
 21
927.0316658510219
  0
LINE
  8
_0-2______1
  6
CONTINUOUS
 62
    1
 10
882.47066315225902
 20
927.0316658510219
 11
883.12170351667919
 21
927.0316658510219
  0
LINE
  8
_0-2______1
  6
CONTINUOUS
 62
    1
 10
883.12170351667919
 20
927.0316658510219
 11
883.12170351667919
 21
926.38062548659991
  0
LINE
  8
_0-2______1
  6
CONTINUOUS
 62
    1
 10
883.12170351667919
 20
926.38062548659991
 11
883.75174257902199
 21
926.38062548659991
  0
LINE
  8
_0-2______1
  6
CONTINUOUS
 62
    1
 10
883.75174257902199
 20
926.38062548659991
 11
884.40278294344307
 21
926.38062548659991
  0
LINE
  8
_0-2______1
  6
CONTINUOUS
 62
    1
 10
884.40278294344307
 20
926.38062548659991
 11
884.40278294344307
 21
925.72958512218111
  0
LINE
  8
_0-2______1
  6
CONTINUOUS
 62
    1
 10
884.40278294344307
 20
925.72958512218111
 11
884.40278294344307
 21
925.10217122259701
  0
LINE
  8
_0-2______1
  6
CONTINUOUS
 62
    1
 10
884.40278294344307
 20
925.10217122259701
 11
885.05382330786324
 21
925.10217122259701
  0
LINE
  8
_0-2______1
  6
CONTINUOUS
 62
    1
 10
885.05382330786324
 20
925.10217122259701
 11
885.05382330786324
 21
924.4511308581782
  0
LINE
  8
_0-2______1
  6
CONTINUOUS
 62
    1
 10
697.30218272980119
 20
976.07495652886382
 11
697.9532230942209
 21
976.70237042844701
  0
LINE
  8
_0-2______1
  6
CONTINUOUS
 62
    1
 10
697.9532230942209
 20
976.70237042844701
 11
698.60426345864198
 21
976.70237042844701
  0
LINE
  8
_0-2______1
  6
CONTINUOUS
 62
    1
 10
698.60426345864198
 20
976.70237042844701
 11
699.23430252098524
 21
976.70237042844701
  0
LINE
  8
_0-2______1
  6
CONTINUOUS
 62
    1
 10
699.23430252098524
 20
976.70237042844701
 11
699.23430252098524
 21
977.35341079286718
  0
LINE
  8
_0-2______1
  6
CONTINUOUS
 62
    1
 10
699.23430252098524
 20
977.35341079286718
 11
699.88534288540495
 21
977.35341079286718
  0
LINE
  8
_0-2______1
  6
CONTINUOUS
 62
    1
 10
699.88534288540495
 20
977.35341079286718
 11
699.88534288540495
 21
978.00445115728917
  0
LINE
  8
_0-2______1
  6
CONTINUOUS
 62
    1
 10
699.88534288540495
 20
978.00445115728917
 11
700.53638324982512
 21
978.00445115728917
  0
LINE
  8
_0-2______1
  6
CONTINUOUS
 62
    1
 10
700.53638324982512
 20
978.00445115728917
 11
701.18742361424711
 21
978.00445115728917
  0
LINE
  8
_0-2______1
  6
CONTINUOUS
 62
    1
 10
701.18742361424711
 20
978.00445115728917
 11
701.81746267658809
 21
978.00445115728917
  0
LINE
  8
_0-2______1
  6
CONTINUOUS
 62
    1
 10
701.81746267658809
 20
978.00445115728917
 11
703.11954340543025
 21
978.00445115728917
  0
LINE
  8
_0-2______1
  6
CONTINUOUS
 62
    1
 10
703.11954340543025
 20
978.00445115728917
 11
703.74958246777214
 21
978.00445115728917
  0
LINE
  8
_0-2______1
  6
CONTINUOUS
 62
    1
 10
703.74958246777214
 20
978.00445115728917
 11
704.40062283219322
 21
978.00445115728917
  0
LINE
  8
_0-2______1
  6
CONTINUOUS
 62
    1
 10
704.40062283219322
 20
978.00445115728917
 11
705.05166319661294
 21
978.00445115728917
  0
LINE
  8
_0-2______1
  6
CONTINUOUS
 62
    1
 10
705.05166319661294
 20
978.00445115728917
 11
705.70270356103401
 21
978.00445115728917
  0
LINE
  8
_0-2______1
  6
CONTINUOUS
 62
    1
 10
705.70270356103401
 20
978.00445115728917
 11
706.98378298779699
 21
978.00445115728917
  0
LINE
  8
_0-2______1
  6
CONTINUOUS
 62
    1
 10
706.98378298779699
 20
978.00445115728917
 11
707.63482335221806
 21
978.00445115728917
  0
LINE
  8
_0-2______1
  6
CONTINUOUS
 62
    1
 10
834.08366316435604
 20
772.84273115649603
 11
834.73470352877621
 21
772.84273115649603
  0
LINE
  8
_0-2______1
  6
CONTINUOUS
 62
    1
 10
834.73470352877621
 20
772.84273115649603
 11
835.36474259111901
 21
772.84273115649603
  0
LINE
  8
_0-2______1
  6
CONTINUOUS
 62
    1
 10
835.36474259111901
 20
772.84273115649603
 11
835.36474259111901
 21
773.47277021883792
  0
LINE
  8
_0-2______1
  6
CONTINUOUS
 62
    1
 10
835.36474259111901
 20
773.47277021883792
 11
836.01578295553918
 21
773.47277021883792
  0
LINE
  8
_0-2______1
  6
CONTINUOUS
 62
    1
 10
519.23214240973493
 20
863.79937045667293
 11
518.60210334739304
 21
863.79937045667293
  0
LINE
  8
_0-2______1
  6
CONTINUOUS
 62
    1
 10
518.60210334739304
 20
863.79937045667293
 11
518.60210334739304
 21
865.10145118551509
  0
LINE
  8
_0-2______1
  6
CONTINUOUS
 62
    1
 10
518.60210334739304
 20
865.10145118551509
 11
517.95106298297196
 21
865.10145118551509
  0
LINE
  8
_0-2______1
  6
CONTINUOUS
 62
    1
 10
517.95106298297196
 20
865.10145118551509
 11
517.95106298297196
 21
865.73149024785698
  0
LINE
  8
_0-2______1
  6
CONTINUOUS
 62
    1
 10
982.45786234601201
 20
925.72958512218111
 11
982.45786234601201
 21
924.4511308581782
  0
LINE
  8
_0-2______1
  6
CONTINUOUS
 62
    1
 10
982.45786234601201
 20
924.4511308581782
 11
981.8278232836692
 21
924.4511308581782
  0
LINE
  8
_0-2______1
  6
CONTINUOUS
 62
    1
 10
981.8278232836692
 20
924.4511308581782
 11
981.17678291924904
 21
924.4511308581782
  0
LINE
  8
_0-2______1
  6
CONTINUOUS
 62
    1
 10
981.17678291924904
 20
924.4511308581782
 11
980.52574255482796
 21
923.80009049375485
  0
LINE
  8
_0-2______1
  6
CONTINUOUS
 62
    1
 10
980.52574255482796
 20
923.80009049375485
 11
979.89570349248606
 21
923.80009049375485
  0
LINE
  8
_0-2______1
  6
CONTINUOUS
 62
    1
 10
979.89570349248606
 20
923.80009049375485
 11
979.24466312806499
 21
923.80009049375485
  0
LINE
  8
_0-2______1
  6
CONTINUOUS
 62
    1
 10
979.24466312806499
 20
923.80009049375485
 11
978.59362276364527
 21
923.80009049375485
  0
LINE
  8
_0-2______1
  6
CONTINUOUS
 62
    1
 10
978.59362276364527
 20
923.80009049375485
 11
977.94258239922419
 21
923.80009049375485
  0
LINE
  8
_0-2______1
  6
CONTINUOUS
 62
    1
 10
977.94258239922419
 20
923.80009049375485
 11
977.31254333688094
 21
923.80009049375485
  0
LINE
  8
_0-2______1
  6
CONTINUOUS
 62
    1
 10
977.31254333688094
 20
923.80009049375485
 11
976.66150297246122
 21
923.80009049375485
  0
LINE
  8
_0-2______1
  6
CONTINUOUS
 62
    1
 10
976.66150297246122
 20
923.80009049375485
 11
976.01046260804105
 21
923.80009049375485
  0
LINE
  8
_0-2______1
  6
CONTINUOUS
 62
    1
 10
976.01046260804105
 20
923.80009049375485
 11
975.38042354569825
 21
923.80009049375485
  0
LINE
  8
_0-2______1
  6
CONTINUOUS
 62
    1
 10
829.56838321756823
 20
793.48963626201021
 11
829.56838321756823
 21
792.83859589759004
  0
LINE
  8
_0-2______1
  6
CONTINUOUS
 62
    1
 10
829.56838321756823
 20
792.83859589759004
 11
828.91734285314806
 21
792.18230520765019
  0
LINE
  8
_0-2______1
  6
CONTINUOUS
 62
    1
 10
828.91734285314806
 20
792.18230520765019
 11
828.26630248872698
 21
792.18230520765019
  0
LINE
  8
_0-2______1
  6
CONTINUOUS
 62
    1
 10
828.26630248872698
 20
792.18230520765019
 11
828.26630248872698
 21
791.5522661453092
  0
LINE
  8
_0-2______1
  6
CONTINUOUS
 62
    1
 10
828.26630248872698
 20
791.5522661453092
 11
827.63626342638418
 21
791.5522661453092
  0
LINE
  8
_0-2______1
  6
CONTINUOUS
 62
    1
 10
827.63626342638418
 20
791.5522661453092
 11
826.98522306196401
 21
791.5522661453092
  0
LINE
  8
_0-2______1
  6
CONTINUOUS
 62
    1
 10
826.98522306196401
 20
791.5522661453092
 11
826.33418269754293
 21
791.5522661453092
  0
LINE
  8
_0-2______1
  6
CONTINUOUS
 62
    1
 10
826.33418269754293
 20
791.5522661453092
 11
825.6831423331223
 21
791.5522661453092
  0
LINE
  8
_0-2______1
  6
CONTINUOUS
 62
    1
 10
825.6831423331223
 20
791.5522661453092
 11
825.6831423331223
 21
790.90385094364819
  0
LINE
  8
_0-2______1
  6
CONTINUOUS
 62
    1
 10
825.6831423331223
 20
790.90385094364819
 11
825.05310327077905
 21
790.90385094364819
  0
LINE
  8
_0-2______1
  6
CONTINUOUS
 62
    1
 10
825.05310327077905
 20
790.90385094364819
 11
824.40206290636024
 21
790.90385094364819
  0
LINE
  8
_0-2______1
  6
CONTINUOUS
 62
    1
 10
824.40206290636024
 20
790.90385094364819
 11
823.75102254193826
 21
790.90385094364819
  0
LINE
  8
_0-2______1
  6
CONTINUOUS
 62
    1
 10
823.75102254193826
 20
790.90385094364819
 11
823.75102254193826
 21
791.5522661453092
  0
LINE
  8
_0-2______1
  6
CONTINUOUS
 62
    1
 10
823.75102254193826
 20
791.5522661453092
 11
823.12098347959591
 21
791.5522661453092
  0
LINE
  8
_0-2______1
  6
CONTINUOUS
 62
    1
 10
823.12098347959591
 20
791.5522661453092
 11
822.46994311517619
 21
791.5522661453092
  0
LINE
  8
_0-2______1
  6
CONTINUOUS
 62
    1
 10
1019.2311422847361
 20
932.833275550091
 11
1019.2311422847361
 21
933.48431591451299
  0
LINE
  8
_0-2______1
  6
CONTINUOUS
 62
    1
 10
1019.2311422847361
 20
933.48431591451299
 11
1018.6011032223932
 21
933.48431591451299
  0
LINE
  8
_0-2______1
  6
CONTINUOUS
 62
    1
 10
517.95106298297196
 20
865.73149024785698
 11
518.60210334739304
 21
865.73149024785698
  0
LINE
  8
_0-2______1
  6
CONTINUOUS
 62
    1
 10
518.60210334739304
 20
865.73149024785698
 11
518.60210334739304
 21
867.0309458139368
  0
LINE
  8
_0-2______1
  6
CONTINUOUS
 62
    1
 10
701.81746267658809
 20
1023.8056658268292
 11
701.81746267658809
 21
1021.876171198403
  0
LINE
  8
_0-2______1
  6
CONTINUOUS
 62
    1
 10
885.05382330786324
 20
924.4511308581782
 11
885.05382330786324
 21
923.80009049375485
  0
LINE
  8
_0-2______1
  6
CONTINUOUS
 62
    1
 10
885.05382330786324
 20
923.80009049375485
 11
884.40278294344307
 21
923.80009049375485
  0
LINE
  8
_0-2______1
  6
CONTINUOUS
 62
    1
 10
884.40278294344307
 20
923.80009049375485
 11
884.40278294344307
 21
922.52163622975195
  0
LINE
  8
_0-2______1
  6
CONTINUOUS
 62
    1
 10
884.40278294344307
 20
922.52163622975195
 11
883.75174257902199
 21
922.52163622975195
  0
LINE
  8
_0-2______1
  6
CONTINUOUS
 62
    1
 10
822.46994311517619
 20
791.554891308067
 11
821.81890275075511
 21
791.554891308067
  0
LINE
  8
_0-2______1
  6
CONTINUOUS
 62
    1
 10
821.81890275075511
 20
791.554891308067
 11
821.16786238633404
 21
791.554891308067
  0
LINE
  8
_0-2______1
  6
CONTINUOUS
 62
    1
 10
821.16786238633404
 20
791.554891308067
 11
821.16786238633404
 21
792.18230520765019
  0
LINE
  8
_0-2______1
  6
CONTINUOUS
 62
    1
 10
821.16786238633404
 20
792.18230520765019
 11
820.53782332399214
 21
792.18230520765019
  0
LINE
  8
_0-2______1
  6
CONTINUOUS
 62
    1
 10
820.53782332399214
 20
792.18230520765019
 11
820.53782332399214
 21
792.83859589759004
  0
LINE
  8
_0-2______1
  6
CONTINUOUS
 62
    1
 10
820.53782332399214
 20
792.83859589759004
 11
819.88678295957106
 21
792.83859589759004
  0
LINE
  8
_0-2______1
  6
CONTINUOUS
 62
    1
 10
819.88678295957106
 20
792.83859589759004
 11
819.88678295957106
 21
793.48963626201021
  0
LINE
  8
_0-2______1
  6
CONTINUOUS
 62
    1
 10
975.38042354569825
 20
923.80009049375485
 11
975.38042354569825
 21
924.4511308581782
  0
LINE
  8
_0-2______1
  6
CONTINUOUS
 62
    1
 10
975.38042354569825
 20
924.4511308581782
 11
974.72938318127808
 21
924.4511308581782
  0
LINE
  8
_0-2______1
  6
CONTINUOUS
 62
    1
 10
974.72938318127808
 20
924.4511308581782
 11
974.078342816857
 21
924.4511308581782
  0
LINE
  8
_0-2______1
  6
CONTINUOUS
 62
    1
 10
974.078342816857
 20
924.4511308581782
 11
974.078342816857
 21
925.10217122259701
  0
LINE
  8
_0-2______1
  6
CONTINUOUS
 62
    1
 10
974.078342816857
 20
925.10217122259701
 11
973.42730245243592
 21
925.10217122259701
  0
LINE
  8
_0-2______1
  6
CONTINUOUS
 62
    1
 10
973.42730245243592
 20
925.10217122259701
 11
973.42730245243592
 21
925.72958512218111
  0
LINE
  8
_0-2______1
  6
CONTINUOUS
 62
    1
 10
600.52818275399522
 20
884.44627556218893
 11
599.87714238957415
 21
884.44627556218893
  0
LINE
  8
_0-2______1
  6
CONTINUOUS
 62
    1
 10
599.87714238957415
 20
884.44627556218893
 11
599.24710332723089
 21
884.44627556218893
  0
LINE
  8
_0-2______1
  6
CONTINUOUS
 62
    1
 10
599.24710332723089
 20
884.44627556218893
 11
599.24710332723089
 21
885.09731592661001
  0
LINE
  8
_0-2______1
  6
CONTINUOUS
 62
    1
 10
599.24710332723089
 20
885.09731592661001
 11
598.59606296281117
 21
885.09731592661001
  0
LINE
  8
_0-2______1
  6
CONTINUOUS
 62
    1
 10
598.59606296281117
 20
885.09731592661001
 11
597.9450225983901
 21
885.09731592661001
  0
LINE
  8
_0-2______1
  6
CONTINUOUS
 62
    1
 10
597.9450225983901
 20
885.09731592661001
 11
597.9450225983901
 21
885.74573112827011
  0
LINE
  8
_0-2______1
  6
CONTINUOUS
 62
    1
 10
597.9450225983901
 20
885.74573112827011
 11
597.31498353604729
 21
885.74573112827011
  0
LINE
  8
_0-2______1
  6
CONTINUOUS
 62
    1
 10
597.31498353604729
 20
885.74573112827011
 11
597.31498353604729
 21
886.375770190612
  0
LINE
  8
_0-2______1
  6
CONTINUOUS
 62
    1
 10
597.31498353604729
 20
886.375770190612
 11
596.66394317162712
 21
886.375770190612
  0
LINE
  8
_0-2______1
  6
CONTINUOUS
 62
    1
 10
596.66394317162712
 20
886.375770190612
 11
596.66394317162712
 21
887.67785091945416
  0
LINE
  8
_0-2______1
  6
CONTINUOUS
 62
    1
 10
784.3945824476109
 20
836.05927557428504
 11
783.76454338526901
 21
836.05927557428504
  0
LINE
  8
_0-2______1
  6
CONTINUOUS
 62
    1
 10
783.76454338526901
 20
836.05927557428504
 11
783.76454338526901
 21
835.42398618642301
  0
LINE
  8
_0-2______1
  6
CONTINUOUS
 62
    1
 10
783.76454338526901
 20
835.42398618642301
 11
783.11350302084793
 21
835.42398618642301
  0
LINE
  8
_0-2______1
  6
CONTINUOUS
 62
    1
 10
783.11350302084793
 20
835.42398618642301
 11
783.11350302084793
 21
834.7729458220042
  0
LINE
  8
_0-2______1
  6
CONTINUOUS
 62
    1
 10
783.11350302084793
 20
834.7729458220042
 11
782.46246265642731
 21
834.7729458220042
  0
LINE
  8
_0-2______1
  6
CONTINUOUS
 62
    1
 10
782.46246265642731
 20
834.7729458220042
 11
781.83242359408496
 21
834.7729458220042
  0
LINE
  8
_0-2______1
  6
CONTINUOUS
 62
    1
 10
781.83242359408496
 20
834.7729458220042
 11
781.18138322966524
 21
834.7729458220042
  0
LINE
  8
_0-2______1
  6
CONTINUOUS
 62
    1
 10
781.18138322966524
 20
834.7729458220042
 11
781.18138322966524
 21
834.12453062034319
  0
LINE
  8
_0-2______1
  6
CONTINUOUS
 62
    1
 10
781.18138322966524
 20
834.12453062034319
 11
780.53034286524417
 21
834.12453062034319
  0
LINE
  8
_0-2______1
  6
CONTINUOUS
 62
    1
 10
780.53034286524417
 20
834.12453062034319
 11
779.87930250082309
 21
834.12453062034319
  0
LINE
  8
_0-2______1
  6
CONTINUOUS
 62
    1
 10
779.87930250082309
 20
834.12453062034319
 11
779.24926343848119
 21
834.12453062034319
  0
LINE
  8
_0-2______1
  6
CONTINUOUS
 62
    1
 10
779.24926343848119
 20
834.12453062034319
 11
778.59822307406012
 21
834.12453062034319
  0
LINE
  8
_0-2______1
  6
CONTINUOUS
 62
    1
 10
778.59822307406012
 20
834.12453062034319
 11
777.94718270963904
 21
834.12453062034319
  0
LINE
  8
_0-2______1
  6
CONTINUOUS
 62
    1
 10
777.94718270963904
 20
834.12453062034319
 11
777.29614234521887
 21
834.12453062034319
  0
LINE
  8
_0-2______1
  6
CONTINUOUS
 62
    1
 10
777.29614234521887
 20
834.12453062034319
 11
776.66610328287607
 21
834.12453062034319
  0
LINE
  8
_0-2______1
  6
CONTINUOUS
 62
    1
 10
776.66610328287607
 20
834.12453062034319
 11
776.0150629184559
 21
834.12453062034319
  0
LINE
  8
_0-2______1
  6
CONTINUOUS
 62
    1
 10
776.0150629184559
 20
834.12453062034319
 11
775.36402255403618
 21
834.12453062034319
  0
LINE
  8
_0-2______1
  6
CONTINUOUS
 62
    1
 10
775.36402255403618
 20
834.12453062034319
 11
774.73398349169292
 21
834.12453062034319
  0
LINE
  8
_0-2______1
  6
CONTINUOUS
 62
    1
 10
774.73398349169292
 20
834.12453062034319
 11
774.0829431272723
 21
834.12453062034319
  0
LINE
  8
_0-2______1
  6
CONTINUOUS
 62
    1
 10
774.0829431272723
 20
834.12453062034319
 11
773.43190276285213
 21
834.12453062034319
  0
LINE
  8
_0-2______1
  6
CONTINUOUS
 62
    1
 10
1017.2990224935511
 20
931.54694579781017
 11
1017.9500628579722
 21
931.54694579781017
  0
LINE
  8
_0-2______1
  6
CONTINUOUS
 62
    1
 10
1017.9500628579722
 20
931.54694579781017
 11
1018.6011032223932
 21
931.54694579781017
  0
LINE
  8
_0-2______1
  6
CONTINUOUS
 62
    1
 10
835.36474259111901
 20
773.47277021883792
 11
834.73470352877621
 21
773.47277021883792
  0
LINE
  8
_0-2______1
  6
CONTINUOUS
 62
    1
 10
1018.6011032223932
 20
933.48431591451299
 11
1018.6011032223932
 21
932.833275550091
  0
LINE
  8
_0-2______1
  6
CONTINUOUS
 62
    1
 10
1018.6011032223932
 20
932.833275550091
 11
1017.9500628579722
 21
932.833275550091
  0
LINE
  8
_0-2______1
  6
CONTINUOUS
 62
    1
 10
1017.9500628579722
 20
932.833275550091
 11
1017.9500628579722
 21
931.54694579781017
  0
LINE
  8
_0-2______1
  6
CONTINUOUS
 62
    1
 10
1017.9500628579722
 20
931.54694579781017
 11
1017.2990224935511
 21
931.54694579781017
  0
LINE
  8
_0-2______1
  6
CONTINUOUS
 62
    1
 10
701.81746267658809
 20
1023.8056658268292
 11
702.46850304100917
 21
1023.8056658268292
  0
LINE
  8
_0-2______1
  6
CONTINUOUS
 62
    1
 10
702.46850304100917
 20
1023.8056658268292
 11
702.46850304100917
 21
1024.4619565167682
  0
LINE
  8
_0-2______1
  6
CONTINUOUS
 62
    1
 10
702.46850304100917
 20
1024.4619565167682
 11
703.11954340543025
 21
1024.4619565167682
  0
LINE
  8
_0-2______1
  6
CONTINUOUS
 62
    1
 10
703.11954340543025
 20
1024.4619565167682
 11
703.11954340543025
 21
1025.0893704163518
  0
LINE
  8
_0-2______1
  6
CONTINUOUS
 62
    1
 10
700.53638324982512
 20
1024.4619565167682
 11
700.53638324982512
 21
1023.8056658268292
  0
LINE
  8
_0-2______1
  6
CONTINUOUS
 62
    1
 10
700.53638324982512
 20
1023.8056658268292
 11
701.18742361424711
 21
1023.8056658268292
  0
LINE
  8
_0-2______1
  6
CONTINUOUS
 62
    1
 10
701.18742361424711
 20
1023.8056658268292
 11
701.81746267658809
 21
1023.8056658268292
  0
LINE
  8
_0-2______1
  6
CONTINUOUS
 62
    1
 10
839.24998347556402
 20
767.67641084528714
 11
839.88002253790592
 21
767.67641084528714
  0
LINE
  8
_0-2______1
  6
CONTINUOUS
 62
    1
 10
839.88002253790592
 20
767.67641084528714
 11
840.53106290232699
 21
767.67641084528714
  0
LINE
  8
_0-2______1
  6
CONTINUOUS
 62
    1
 10
507.63942366263291
 20
864.4504108210931
 11
507.63942366263291
 21
863.17195655708883
  0
LINE
  8
_0-2______1
  6
CONTINUOUS
 62
    1
 10
507.63942366263291
 20
863.17195655708883
 11
508.26946272497617
 21
863.17195655708883
  0
LINE
  8
_0-2______1
  6
CONTINUOUS
 62
    1
 10
508.26946272497617
 20
863.17195655708883
 11
508.92050308939588
 21
863.17195655708883
  0
LINE
  8
_0-2______1
  6
CONTINUOUS
 62
    1
 10
1031.4959026983361
 20
1077.3589861259402
 11
1031.4959026983361
 21
1078.6426907154632
  0
LINE
  8
_0-2______1
  6
CONTINUOUS
 62
    1
 10
1031.4959026983361
 20
1078.6426907154632
 11
1030.844862333915
 21
1078.6426907154632
  0
LINE
  8
_0-2______1
  6
CONTINUOUS
 62
    1
 10
1030.844862333915
 20
1078.6426907154632
 11
1030.844862333915
 21
1079.2937310798829
  0
LINE
  8
_0-2______1
  6
CONTINUOUS
 62
    1
 10
1030.844862333915
 20
1079.2937310798829
 11
1030.2148232715731
 21
1079.2937310798829
  0
LINE
  8
_0-2______1
  6
CONTINUOUS
 62
    1
 10
507.63942366263291
 20
1008.332956520801
 11
507.63942366263291
 21
1008.9603704203828
  0
LINE
  8
_0-2______1
  6
CONTINUOUS
 62
    1
 10
507.63942366263291
 20
1008.9603704203828
 11
508.26946272497617
 21
1008.9603704203828
  0
LINE
  8
_0-2______1
  6
CONTINUOUS
 62
    1
 10
508.92050308939588
 20
863.17195655708883
 11
509.57154345381696
 21
863.17195655708883
  0
LINE
  8
_0-2______1
  6
CONTINUOUS
 62
    1
 10
839.88002253790592
 20
767.67641084528714
 11
839.24998347556402
 21
767.67641084528714
  0
LINE
  8
_0-2______1
  6
CONTINUOUS
 62
    1
 10
1031.4959026983361
 20
934.132731116174
 11
1031.4959026983361
 21
934.76277017851589
  0
LINE
  8
_0-2______1
  6
CONTINUOUS
 62
    1
 10
1031.4959026983361
 20
934.76277017851589
 11
1030.844862333915
 21
934.76277017851589
  0
LINE
  8
_0-2______1
  6
CONTINUOUS
 62
    1
 10
1030.2148232715731
 20
1079.2937310798829
 11
1030.844862333915
 21
1079.2937310798829
  0
LINE
  8
_0-2______1
  6
CONTINUOUS
 62
    1
 10
1030.844862333915
 20
1079.2937310798829
 11
1030.844862333915
 21
1077.9942755138022
  0
LINE
  8
_0-2______1
  6
CONTINUOUS
 62
    1
 10
1028.282703480389
 20
932.19798616222897
 11
1028.9127425427309
 21
932.19798616222897
  0
LINE
  8
_0-2______1
  6
CONTINUOUS
 62
    1
 10
1028.9127425427309
 20
932.19798616222897
 11
1029.563782907152
 21
932.19798616222897
  0
LINE
  8
_0-2______1
  6
CONTINUOUS
 62
    1
 10
839.24998347556402
 20
767.67641084528714
 11
839.24998347556402
 21
768.32745120970822
  0
LINE
  8
_0-2______1
  6
CONTINUOUS
 62
    1
 10
839.24998347556402
 20
768.32745120970822
 11
838.59894311114431
 21
768.32745120970822
  0
LINE
  8
_0-2______1
  6
CONTINUOUS
 62
    1
 10
838.59894311114431
 20
768.32745120970822
 11
838.59894311114431
 21
770.25694583813083
  0
LINE
  8
_0-2______1
  6
CONTINUOUS
 62
    1
 10
699.88534288540495
 20
1027.021490207535
 11
699.88534288540495
 21
1027.6725305719551
  0
LINE
  8
_0-2______1
  6
CONTINUOUS
 62
    1
 10
507.63942366263291
 20
1007.6766658308602
 11
507.63942366263291
 21
1008.332956520801
  0
LINE
  8
_0-2______1
  6
CONTINUOUS
 62
    1
 10
698.60426345864198
 20
1174.1329861017462
 11
698.60426345864198
 21
1173.481945737326
  0
LINE
  8
_0-2______1
  6
CONTINUOUS
 62
    1
 10
698.60426345864198
 20
1173.481945737326
 11
697.9532230942209
 21
1173.481945737326
  0
LINE
  8
_0-2______1
  6
CONTINUOUS
 62
    1
 10
697.9532230942209
 20
1173.481945737326
 11
697.9532230942209
 21
1172.833530535665
  0
LINE
  8
_0-2______1
  6
CONTINUOUS
 62
    1
 10
1030.844862333915
 20
1077.9942755138022
 11
1031.4959026983361
 21
1077.9942755138022
  0
LINE
  8
_0-2______1
  6
CONTINUOUS
 62
    1
 10
1031.4959026983361
 20
1077.9942755138022
 11
1031.4959026983361
 21
1077.3589861259402
  0
LINE
  8
_0-2______1
  6
CONTINUOUS
 62
    1
 10
700.53638324982512
 20
1173.481945737326
 11
700.53638324982512
 21
1174.7682754896082
  0
LINE
  8
_0-2______1
  6
CONTINUOUS
 62
    1
 10
700.53638324982512
 20
1174.7682754896082
 11
699.88534288540495
 21
1174.7682754896082
  0
LINE
  8
_0-2______1
  6
CONTINUOUS
 62
    1
 10
697.9532230942209
 20
1172.833530535665
 11
697.9532230942209
 21
1173.481945737326
  0
LINE
  8
_0-2______1
  6
CONTINUOUS
 62
    1
 10
697.9532230942209
 20
1173.481945737326
 11
698.60426345864198
 21
1173.481945737326
  0
LINE
  8
_0-2______1
  6
CONTINUOUS
 62
    1
 10
698.60426345864198
 20
1173.481945737326
 11
699.23430252098524
 21
1173.481945737326
  0
LINE
  8
_0-2______1
  6
CONTINUOUS
 62
    1
 10
699.23430252098524
 20
1173.481945737326
 11
699.88534288540495
 21
1173.481945737326
  0
LINE
  8
_0-2______1
  6
CONTINUOUS
 62
    1
 10
699.88534288540495
 20
1173.481945737326
 11
700.53638324982512
 21
1173.481945737326
  0
LINE
  8
_0-2______1
  6
CONTINUOUS
 62
    1
 10
507.63942366263291
 20
865.10145118551509
 11
507.63942366263291
 21
864.4504108210931
  0
LINE
  8
_0-2______1
  6
CONTINUOUS
 62
    1
 10
509.57154345381696
 20
863.17195655708883
 11
508.92050308939588
 21
863.17195655708883
  0
LINE
  8
_0-2______1
  6
CONTINUOUS
 62
    1
 10
508.92050308939588
 20
863.17195655708883
 11
508.26946272497617
 21
863.79937045667293
  0
LINE
  8
_0-2______1
  6
CONTINUOUS
 62
    1
 10
508.26946272497617
 20
863.79937045667293
 11
507.63942366263291
 21
863.79937045667293
  0
LINE
  8
_0-2______1
  6
CONTINUOUS
 62
    1
 10
507.63942366263291
 20
863.79937045667293
 11
507.63942366263291
 21
865.10145118551509
  0
LINE
  8
_0-2______1
  6
CONTINUOUS
 62
    1
 10
509.57154345381696
 20
863.17195655708883
 11
510.20158251615931
 21
863.17195655708883
  0
LINE
  8
_0-2______1
  6
CONTINUOUS
 62
    1
 10
510.20158251615931
 20
863.17195655708883
 11
510.85262288057902
 21
863.17195655708883
  0
LINE
  8
_0-2______1
  6
CONTINUOUS
 62
    1
 10
510.85262288057902
 20
863.17195655708883
 11
510.85262288057902
 21
863.79937045667293
  0
LINE
  8
_0-2______1
  6
CONTINUOUS
 62
    1
 10
510.85262288057902
 20
863.79937045667293
 11
511.5036632450001
 21
863.79937045667293
  0
LINE
  8
_0-2______1
  6
CONTINUOUS
 62
    1
 10
700.53638324982512
 20
1030.2583158903199
 11
699.88534288540495
 21
1030.2583158903199
  0
LINE
  8
_0-2______1
  6
CONTINUOUS
 62
    1
 10
699.88534288540495
 20
1030.2583158903199
 11
699.23430252098524
 21
1030.2583158903199
  0
LINE
  8
_0-2______1
  6
CONTINUOUS
 62
    1
 10
699.23430252098524
 20
1030.2583158903199
 11
698.60426345864198
 21
1029.6072755258979
  0
LINE
  8
_0-2______1
  6
CONTINUOUS
 62
    1
 10
698.60426345864198
 20
1029.6072755258979
 11
697.9532230942209
 21
1029.6072755258979
  0
LINE
  8
_0-2______1
  6
CONTINUOUS
 62
    1
 10
699.88534288540495
 20
1027.6725305719551
 11
699.88534288540495
 21
1028.3209457736161
  0
LINE
  8
_0-2______1
  6
CONTINUOUS
 62
    1
 10
699.88534288540495
 20
1028.3209457736161
 11
700.53638324982512
 21
1028.3209457736161
  0
LINE
  8
_0-2______1
  6
CONTINUOUS
 62
    1
 10
700.53638324982512
 20
1028.3209457736161
 11
700.53638324982512
 21
1030.255690727558
  0
LINE
  8
_0-2______1
  6
CONTINUOUS
 62
    1
 10
697.9532230942209
 20
1029.6072755258979
 11
697.9532230942209
 21
1028.9719861380358
  0
LINE
  8
_0-2______1
  6
CONTINUOUS
 62
    1
 10
697.9532230942209
 20
1028.9719861380358
 11
698.60426345864198
 21
1028.9719861380358
  0
LINE
  8
_0-2______1
  6
CONTINUOUS
 62
    1
 10
698.60426345864198
 20
1028.9719861380358
 11
698.60426345864198
 21
1028.3209457736161
  0
LINE
  8
_0-2______1
  6
CONTINUOUS
 62
    1
 10
698.60426345864198
 20
1028.3209457736161
 11
699.23430252098524
 21
1028.3209457736161
  0
LINE
  8
_0-2______1
  6
CONTINUOUS
 62
    1
 10
699.23430252098524
 20
1028.3209457736161
 11
699.23430252098524
 21
1027.6725305719551
  0
LINE
  8
_0-2______1
  6
CONTINUOUS
 62
    1
 10
699.23430252098524
 20
1027.6725305719551
 11
699.88534288540495
 21
1027.6725305719551
  0
LINE
  8
_0-2______1
  6
CONTINUOUS
 62
    1
 10
1029.563782907152
 20
932.19798616222897
 11
1030.2148232715731
 21
932.19798616222897
  0
LINE
  8
_0-2______1
  6
CONTINUOUS
 62
    1
 10
1030.2148232715731
 20
932.19798616222897
 11
1030.844862333915
 21
932.19798616222897
  0
LINE
  8
_0-2______1
  6
CONTINUOUS
 62
    1
 10
1030.844862333915
 20
932.19798616222897
 11
1030.844862333915
 21
932.833275550091
  0
LINE
  8
_0-2______1
  6
CONTINUOUS
 62
    1
 10
1030.844862333915
 20
934.76277017851589
 11
1030.844862333915
 21
933.48431591451299
  0
LINE
  8
_0-2______1
  6
CONTINUOUS
 62
    1
 10
1030.844862333915
 20
933.48431591451299
 11
1030.2148232715731
 21
933.48431591451299
  0
LINE
  8
_0-2______1
  6
CONTINUOUS
 62
    1
 10
1030.2148232715731
 20
933.48431591451299
 11
1030.2148232715731
 21
932.833275550091
  0
LINE
  8
_0-2______1
  6
CONTINUOUS
 62
    1
 10
1030.2148232715731
 20
932.833275550091
 11
1029.563782907152
 21
932.833275550091
  0
LINE
  8
_0-2______1
  6
CONTINUOUS
 62
    1
 10
1029.563782907152
 20
932.833275550091
 11
1029.563782907152
 21
932.19798616222897
  0
LINE
  8
_0-2______1
  6
CONTINUOUS
 62
    1
 10
839.24998347556402
 20
767.67641084528714
 11
838.59894311114431
 21
767.67641084528714
  0
LINE
  8
_0-2______1
  6
CONTINUOUS
 62
    1
 10
542.45958250809508
 20
887.02681055503399
 11
542.45958250809508
 21
886.375770190612
  0
LINE
  8
_0-2______1
  6
CONTINUOUS
 62
    1
 10
657.94574263547429
 20
986.38659584920288
 11
658.596782999894
 21
986.38659584920288
  0
LINE
  8
_0-2______1
  6
CONTINUOUS
 62
    1
 10
678.59002257822931
 20
1004.4450904735959
 11
678.59002257822931
 21
1003.7940501091739
  0
LINE
  8
_0-0_0
  6
CONTINUOUS
 62
    1
 10
2081.6759834660834
 20
398.31308411331383
 11
2081.6759834660834
 21
213.73864839556381
  0
LINE
  8
_0-0_0
  6
CONTINUOUS
 62
    1
 10
2000.3992907780666
 20
398.31308411331383
 11
2000.3992907780666
 21
213.73864839556381
  0
LINE
  8
_0-0_0
  6
CONTINUOUS
 62
    1
 10
1876.7892647673107
 20
599.81671904557379
 11
1064.8175895978593
 21
822.02122486095004
  0
LINE
  8
_0-0_0
  6
CONTINUOUS
 62
    1
 10
2064.7536744425352
 20
413.5541865400578
 11
2015.6403932048115
 21
413.5541865400578
  0
LINE
  8
_0-0_0
  6
CONTINUOUS
 62
    1
 10
2000.3992907780666
 20
398.31308411331383
 11
2000.3992907780666
 21
401.69616787982613
  0
LINE
  8
_0-0_0
  6
CONTINUOUS
 62
    1
 10
2000.3992907780666
 20
401.69616787982613
 11
2003.7892647355593
 21
406.77423862508385
  0
LINE
  8
_0-0_0
  6
CONTINUOUS
 62
    1
 10
2003.7892647355593
 20
406.77423862508385
 11
2007.179238693042
 21
410.16421258257105
  0
LINE
  8
_0-0_0
  6
CONTINUOUS
 62
    1
 10
2007.179238693042
 20
410.16421258257105
 11
2010.555432268583
 21
411.85919956131193
  0
LINE
  8
_0-0_0
  6
CONTINUOUS
 62
    1
 10
2010.555432268583
 20
411.85919956131193
 11
2015.6403932048115
 21
413.5541865400578
  0
LINE
  8
_0-0_0
  6
CONTINUOUS
 62
    1
 10
2064.7536744425352
 20
413.5541865400578
 11
2069.8248549968312
 21
411.85919956131193
  0
LINE
  8
_0-0_0
  6
CONTINUOUS
 62
    1
 10
2069.8248549968312
 20
411.85919956131193
 11
2074.9098159330515
 21
410.16421258257105
  0
LINE
  8
_0-0_0
  6
CONTINUOUS
 62
    1
 10
2074.9098159330515
 20
410.16421258257105
 11
2078.2997898905423
 21
406.77423862508385
  0
LINE
  8
_0-0_0
  6
CONTINUOUS
 62
    1
 10
2078.2997898905423
 20
406.77423862508385
 11
2079.9809964873475
 21
401.69616787982613
  0
LINE
  8
_0-0_0
  6
CONTINUOUS
 62
    1
 10
2079.9809964873475
 20
401.69616787982613
 11
2081.6759834660834
 21
398.31308411331383
  0
LINE
  8
_0-0_0
  6
CONTINUOUS
 62
    1
 10
1876.7892647673107
 20
599.81671904557379
 11
1910.6476631963496
 21
587.96559057630793
  0
LINE
  8
_0-0_0
  6
CONTINUOUS
 62
    1
 10
1910.6476631963496
 20
587.96559057630793
 11
1941.1298680498367
 21
569.33451419208586
  0
LINE
  8
_0-0_0
  6
CONTINUOUS
 62
    1
 10
1941.1298680498367
 20
569.33451419208586
 11
1968.2220989458337
 21
543.93727027481782
  0
LINE
  8
_0-0_0
  6
CONTINUOUS
 62
    1
 10
1968.2220989458337
 20
543.93727027481782
 11
1991.938136266298
 21
516.84503937881709
  0
LINE
  8
_0-0_0
  6
CONTINUOUS
 62
    1
 10
1991.938136266298
 20
516.84503937881709
 11
2008.8742256717878
 21
484.66784754658283
  0
LINE
  8
_0-0_0
  6
CONTINUOUS
 62
    1
 10
2008.8742256717878
 20
484.66784754658283
 11
2019.0303671623033
 21
449.107571947829
  0
LINE
  8
_0-0_0
  6
CONTINUOUS
 62
    1
 10
2019.0303671623033
 20
449.107571947829
 11
2024.1015477165902
 21
413.5541865400578
  0
LINE
  8
_0-0_0
  6
CONTINUOUS
 62
    1
 10
1885.2504192790811
 20
633.68200766558311
 11
1074.6268268863869
 21
853.85850058082588
  0
LINE
  8
_0-0_0
  6
CONTINUOUS
 62
    1
 10
1885.2504192790811
 20
633.68200766558311
 11
1920.8175850687985
 21
620.13589221757093
  0
LINE
  8
_0-0_0
  6
CONTINUOUS
 62
    1
 10
1920.8175850687985
 20
620.13589221757093
 11
1952.9809965190989
 21
601.51170602431603
  0
LINE
  8
_0-0_0
  6
CONTINUOUS
 62
    1
 10
1952.9809965190989
 20
601.51170602431603
 11
1981.7682143938409
 21
579.49754587356801
  0
LINE
  8
_0-0_0
  6
CONTINUOUS
 62
    1
 10
1981.7682143938409
 20
579.49754587356801
 11
2008.8742256717878
 21
550.71032799882596
  0
LINE
  8
_0-0_0
  6
CONTINUOUS
 62
    1
 10
2008.8742256717878
 20
550.71032799882596
 11
2029.1865086528187
 21
520.22812314532894
  0
LINE
  8
_0-0_0
  6
CONTINUOUS
 62
    1
 10
2029.1865086528187
 20
520.22812314532894
 11
2044.4276110795627
 21
486.36283452532507
  0
LINE
  8
_0-0_0
  6
CONTINUOUS
 62
    1
 10
2044.4276110795627
 20
486.36283452532507
 11
2052.8887655913413
 21
450.80255892657397
  0
LINE
  8
_0-0_0
  6
CONTINUOUS
 62
    1
 10
2052.8887655913413
 20
450.80255892657397
 11
2057.9737265275608
 21
413.5541865400578
  0
LINE
  8
_0-0_0
  6
CONTINUOUS
 62
    1
 10
2000.3992907780666
 20
311.95143048906493
 11
1983.4632013725868
 21
311.95143048906493
  0
LINE
  8
_0-0_0
  6
CONTINUOUS
 62
    1
 10
2000.3992907780666
 20
306.87335974380812
 11
1983.4632013725868
 21
306.87335974380812
  0
LINE
  8
_0-0_0
  6
CONTINUOUS
 62
    1
 10
1983.4632013725868
 20
311.95143048906493
 11
1983.4632013725868
 21
306.87335974380812
  0
LINE
  8
_0-0_0
  6
CONTINUOUS
 62
    1
 10
2000.3992907780666
 20
240.83087929157
 11
1983.4632013725868
 21
240.83087929157
  0
LINE
  8
_0-0_0
  6
CONTINUOUS
 62
    1
 10
2000.3992907780666
 20
234.05782156757004
 11
1983.4632013725868
 21
234.05782156757004
  0
LINE
  8
_0-0_0
  6
CONTINUOUS
 62
    1
 10
1983.4632013725868
 20
240.83087929157
 11
1983.4632013725868
 21
234.05782156757004
  0
LINE
  8
_0-0_0
  6
CONTINUOUS
 62
    1
 10
2054.5837525700781
 20
310.25644351032406
 11
2056.278739548824
 21
310.25644351032406
  0
LINE
  8
_0-0_0
  6
CONTINUOUS
 62
    1
 10
2056.278739548824
 20
310.25644351032406
 11
2056.278739548824
 21
311.95143048906493
  0
LINE
  8
_0-0_0
  6
CONTINUOUS
 62
    1
 10
2056.278739548824
 20
311.95143048906493
 11
2057.9737265275608
 21
311.95143048906493
  0
LINE
  8
_0-0_0
  6
CONTINUOUS
 62
    1
 10
2057.9737265275608
 20
311.95143048906493
 11
2057.9737265275608
 21
313.64641746781081
  0
LINE
  8
_0-0_0
  6
CONTINUOUS
 62
    1
 10
2057.9737265275608
 20
313.64641746781081
 11
2059.6687135063075
 21
313.64641746781081
  0
LINE
  8
_0-0_0
  6
CONTINUOUS
 62
    1
 10
2059.6687135063075
 20
313.64641746781081
 11
2061.3637004850525
 21
313.64641746781081
  0
LINE
  8
_0-0_0
  6
CONTINUOUS
 62
    1
 10
2061.3637004850525
 20
313.64641746781081
 11
2061.3637004850525
 21
311.95143048906493
  0
LINE
  8
_0-0_0
  6
CONTINUOUS
 62
    1
 10
2061.3637004850525
 20
311.95143048906493
 11
2063.0586874637984
 21
311.95143048906493
  0
LINE
  8
_0-0_0
  6
CONTINUOUS
 62
    1
 10
2063.0586874637984
 20
311.95143048906493
 11
2063.0586874637984
 21
310.25644351032406
  0
LINE
  8
_0-0_0
  6
CONTINUOUS
 62
    1
 10
2063.0586874637984
 20
310.25644351032406
 11
2063.0586874637984
 21
308.56145653157819
  0
LINE
  8
_0-0_0
  6
CONTINUOUS
 62
    1
 10
2063.0586874637984
 20
308.56145653157819
 11
2063.0586874637984
 21
306.87335974380812
  0
LINE
  8
_0-0_0
  6
CONTINUOUS
 62
    1
 10
2063.0586874637984
 20
306.87335974380812
 11
2061.3637004850525
 21
306.87335974380812
  0
LINE
  8
_0-0_0
  6
CONTINUOUS
 62
    1
 10
2061.3637004850525
 20
306.87335974380812
 11
2061.3637004850525
 21
305.17837276506179
  0
LINE
  8
_0-0_0
  6
CONTINUOUS
 62
    1
 10
2061.3637004850525
 20
305.17837276506179
 11
2059.6687135063075
 21
305.17837276506179
  0
LINE
  8
_0-0_0
  6
CONTINUOUS
 62
    1
 10
2059.6687135063075
 20
305.17837276506179
 11
2057.9737265275608
 21
305.17837276506179
  0
LINE
  8
_0-0_0
  6
CONTINUOUS
 62
    1
 10
2057.9737265275608
 20
305.17837276506179
 11
2057.9737265275608
 21
306.87335974380812
  0
LINE
  8
_0-0_0
  6
CONTINUOUS
 62
    1
 10
2057.9737265275608
 20
306.87335974380812
 11
2056.278739548824
 21
306.87335974380812
  0
LINE
  8
_0-0_0
  6
CONTINUOUS
 62
    1
 10
2056.278739548824
 20
306.87335974380812
 11
2056.278739548824
 21
308.56145653157819
  0
LINE
  8
_0-0_0
  6
CONTINUOUS
 62
    1
 10
2056.278739548824
 20
308.56145653157819
 11
2054.5837525700781
 21
310.25644351032406
  0
LINE
  8
_0-0_0
  6
CONTINUOUS
 62
    1
 10
2054.5837525700781
 20
237.44090533408689
 11
2056.278739548824
 21
239.13589231282413
  0
LINE
  8
_0-0_0
  6
CONTINUOUS
 62
    1
 10
2056.278739548824
 20
239.13589231282413
 11
2057.9737265275608
 21
240.83087929157
  0
LINE
  8
_0-0_0
  6
CONTINUOUS
 62
    1
 10
2057.9737265275608
 20
240.83087929157
 11
2059.6687135063075
 21
240.83087929157
  0
LINE
  8
_0-0_0
  6
CONTINUOUS
 62
    1
 10
2059.6687135063075
 20
240.83087929157
 11
2061.3637004850525
 21
240.83087929157
  0
LINE
  8
_0-0_0
  6
CONTINUOUS
 62
    1
 10
2061.3637004850525
 20
240.83087929157
 11
2063.0586874637984
 21
239.13589231282413
  0
LINE
  8
_0-0_0
  6
CONTINUOUS
 62
    1
 10
2063.0586874637984
 20
239.13589231282413
 11
2063.0586874637984
 21
237.44090533408689
  0
LINE
  8
_0-0_0
  6
CONTINUOUS
 62
    1
 10
2063.0586874637984
 20
237.44090533408689
 11
2063.0586874637984
 21
235.75280854631592
  0
LINE
  8
_0-0_0
  6
CONTINUOUS
 62
    1
 10
2063.0586874637984
 20
235.75280854631592
 11
2061.3637004850525
 21
234.05782156757004
  0
LINE
  8
_0-0_0
  6
CONTINUOUS
 62
    1
 10
2061.3637004850525
 20
234.05782156757004
 11
2059.6687135063075
 21
234.05782156757004
  0
LINE
  8
_0-0_0
  6
CONTINUOUS
 62
    1
 10
2059.6687135063075
 20
234.05782156757004
 11
2057.9737265275608
 21
234.05782156757004
  0
LINE
  8
_0-0_0
  6
CONTINUOUS
 62
    1
 10
2057.9737265275608
 20
234.05782156757004
 11
2056.278739548824
 21
235.75280854631592
  0
LINE
  8
_0-0_0
  6
CONTINUOUS
 62
    1
 10
2056.278739548824
 20
235.75280854631592
 11
2054.5837525700781
 21
237.44090533408689
  0
LINE
  8
_0-0_0
  6
CONTINUOUS
 62
    1
 10
2003.7892647355593
 20
213.73864839556381
 11
2005.4842517142961
 21
215.43363537431014
  0
LINE
  8
_0-0_0
  6
CONTINUOUS
 62
    1
 10
2005.4842517142961
 20
215.43363537431014
 11
2007.179238693042
 21
215.43363537431014
  0
LINE
  8
_0-0_0
  6
CONTINUOUS
 62
    1
 10
2007.179238693042
 20
215.43363537431014
 11
2008.8742256717878
 21
217.12173216208112
  0
LINE
  8
_0-0_0
  6
CONTINUOUS
 62
    1
 10
2008.8742256717878
 20
217.12173216208112
 11
2012.2504192473289
 21
217.12173216208112
  0
LINE
  8
_0-0_0
  6
CONTINUOUS
 62
    1
 10
2012.2504192473289
 20
217.12173216208112
 11
2017.3353801835574
 21
218.81671914082699
  0
LINE
  8
_0-0_0
  6
CONTINUOUS
 62
    1
 10
2017.3353801835574
 20
218.81671914082699
 11
2022.4203411197859
 21
220.51170611956786
  0
LINE
  8
_0-0_0
  6
CONTINUOUS
 62
    1
 10
2022.4203411197859
 20
220.51170611956786
 11
2027.4915216740819
 21
220.51170611956786
  0
LINE
  8
_0-0_0
  6
CONTINUOUS
 62
    1
 10
2027.4915216740819
 20
220.51170611956786
 11
2034.2714695890472
 21
220.51170611956786
  0
LINE
  8
_0-0_0
  6
CONTINUOUS
 62
    1
 10
2034.2714695890472
 20
220.51170611956786
 11
2041.03763712208
 21
220.51170611956786
  0
LINE
  8
_0-0_0
  6
CONTINUOUS
 62
    1
 10
2041.03763712208
 20
220.51170611956786
 11
2047.8175850370544
 21
220.51170611956786
  0
LINE
  8
_0-0_0
  6
CONTINUOUS
 62
    1
 10
2047.8175850370544
 20
220.51170611956786
 11
2052.8887655913413
 21
220.51170611956786
  0
LINE
  8
_0-0_0
  6
CONTINUOUS
 62
    1
 10
2052.8887655913413
 20
220.51170611956786
 11
2059.6687135063075
 21
220.51170611956786
  0
LINE
  8
_0-0_0
  6
CONTINUOUS
 62
    1
 10
2059.6687135063075
 20
220.51170611956786
 11
2064.7536744425352
 21
218.81671914082699
  0
LINE
  8
_0-0_0
  6
CONTINUOUS
 62
    1
 10
2064.7536744425352
 20
218.81671914082699
 11
2068.1298680180944
 21
217.12173216208112
  0
LINE
  8
_0-0_0
  6
CONTINUOUS
 62
    1
 10
2068.1298680180944
 20
217.12173216208112
 11
2073.2148289543138
 21
217.12173216208112
  0
LINE
  8
_0-0_0
  6
CONTINUOUS
 62
    1
 10
2073.2148289543138
 20
217.12173216208112
 11
2074.9098159330515
 21
215.43363537431014
  0
LINE
  8
_0-0_0
  6
CONTINUOUS
 62
    1
 10
2074.9098159330515
 20
215.43363537431014
 11
2076.6048029117965
 21
215.43363537431014
  0
LINE
  8
_0-0_0
  6
CONTINUOUS
 62
    1
 10
2076.6048029117965
 20
215.43363537431014
 11
2076.6048029117965
 21
213.73864839556381
  0
LINE
  8
_0-0_0
  6
CONTINUOUS
 62
    1
 10
2076.6048029117965
 20
213.73864839556381
 11
2076.6048029117965
 21
212.04366141682294
  0
LINE
  8
_0-0_0
  6
CONTINUOUS
 62
    1
 10
2076.6048029117965
 20
212.04366141682294
 11
2074.9098159330515
 21
210.34867443807707
  0
LINE
  8
_0-0_0
  6
CONTINUOUS
 62
    1
 10
2074.9098159330515
 20
210.34867443807707
 11
2073.2148289543138
 21
210.34867443807707
  0
LINE
  8
_0-0_0
  6
CONTINUOUS
 62
    1
 10
2073.2148289543138
 20
210.34867443807707
 11
2068.1298680180944
 21
208.6536874593362
  0
LINE
  8
_0-0_0
  6
CONTINUOUS
 62
    1
 10
2068.1298680180944
 20
208.6536874593362
 11
2064.7536744425352
 21
208.6536874593362
  0
LINE
  8
_0-0_0
  6
CONTINUOUS
 62
    1
 10
2064.7536744425352
 20
208.6536874593362
 11
2059.6687135063075
 21
206.96559067156522
  0
LINE
  8
_0-0_0
  6
CONTINUOUS
 62
    1
 10
2059.6687135063075
 20
206.96559067156522
 11
2052.8887655913413
 21
206.96559067156522
  0
LINE
  8
_0-0_0
  6
CONTINUOUS
 62
    1
 10
2052.8887655913413
 20
206.96559067156522
 11
2047.8175850370544
 21
206.96559067156522
  0
LINE
  8
_0-0_0
  6
CONTINUOUS
 62
    1
 10
2047.8175850370544
 20
206.96559067156522
 11
2041.03763712208
 21
206.96559067156522
  0
LINE
  8
_0-0_0
  6
CONTINUOUS
 62
    1
 10
2041.03763712208
 20
206.96559067156522
 11
2034.2714695890472
 21
206.96559067156522
  0
LINE
  8
_0-0_0
  6
CONTINUOUS
 62
    1
 10
2034.2714695890472
 20
206.96559067156522
 11
2027.4915216740819
 21
206.96559067156522
  0
LINE
  8
_0-0_0
  6
CONTINUOUS
 62
    1
 10
2027.4915216740819
 20
206.96559067156522
 11
2022.4203411197859
 21
206.96559067156522
  0
LINE
  8
_0-0_0
  6
CONTINUOUS
 62
    1
 10
2022.4203411197859
 20
206.96559067156522
 11
2017.3353801835574
 21
208.6536874593362
  0
LINE
  8
_0-0_0
  6
CONTINUOUS
 62
    1
 10
2017.3353801835574
 20
208.6536874593362
 11
2012.2504192473289
 21
208.6536874593362
  0
LINE
  8
_0-0_0
  6
CONTINUOUS
 62
    1
 10
2012.2504192473289
 20
208.6536874593362
 11
2008.8742256717878
 21
210.34867443807707
  0
LINE
  8
_0-0_0
  6
CONTINUOUS
 62
    1
 10
2008.8742256717878
 20
210.34867443807707
 11
2007.179238693042
 21
210.34867443807707
  0
LINE
  8
_0-0_0
  6
CONTINUOUS
 62
    1
 10
2007.179238693042
 20
210.34867443807707
 11
2005.4842517142961
 21
212.04366141682294
  0
LINE
  8
_0-0_0
  6
CONTINUOUS
 62
    1
 10
2005.4842517142961
 20
212.04366141682294
 11
2003.7892647355593
 21
213.73864839556381
  0
LINE
  8
_0-0_0
  6
CONTINUOUS
 62
    1
 10
2000.3992907780666
 20
213.73864839556381
 11
2000.3992907780666
 21
215.43363537431014
  0
LINE
  8
_0-0_0
  6
CONTINUOUS
 62
    1
 10
2000.3992907780666
 20
215.43363537431014
 11
2002.0942777568134
 21
217.12173216208112
  0
LINE
  8
_0-0_0
  6
CONTINUOUS
 62
    1
 10
2002.0942777568134
 20
217.12173216208112
 11
2005.4842517142961
 21
217.12173216208112
  0
LINE
  8
_0-0_0
  6
CONTINUOUS
 62
    1
 10
2005.4842517142961
 20
217.12173216208112
 11
2010.555432268583
 21
218.81671914082699
  0
LINE
  8
_0-0_0
  6
CONTINUOUS
 62
    1
 10
2010.555432268583
 20
218.81671914082699
 11
2013.9454062260747
 21
218.81671914082699
  0
LINE
  8
_0-0_0
  6
CONTINUOUS
 62
    1
 10
2013.9454062260747
 20
218.81671914082699
 11
2020.72535414104
 21
220.51170611956786
  0
LINE
  8
_0-0_0
  6
CONTINUOUS
 62
    1
 10
2020.72535414104
 20
220.51170611956786
 11
2027.4915216740819
 21
220.51170611956786
  0
LINE
  8
_0-0_0
  6
CONTINUOUS
 62
    1
 10
2027.4915216740819
 20
220.51170611956786
 11
2034.2714695890472
 21
222.20669309830919
  0
LINE
  8
_0-0_0
  6
CONTINUOUS
 62
    1
 10
2034.2714695890472
 20
222.20669309830919
 11
2041.03763712208
 21
222.20669309830919
  0
LINE
  8
_0-0_0
  6
CONTINUOUS
 62
    1
 10
2041.03763712208
 20
222.20669309830919
 11
2047.8175850370544
 21
222.20669309830919
  0
LINE
  8
_0-0_0
  6
CONTINUOUS
 62
    1
 10
2047.8175850370544
 20
222.20669309830919
 11
2054.5837525700781
 21
220.51170611956786
  0
LINE
  8
_0-0_0
  6
CONTINUOUS
 62
    1
 10
2054.5837525700781
 20
220.51170611956786
 11
2061.3637004850525
 21
220.51170611956786
  0
LINE
  8
_0-0_0
  6
CONTINUOUS
 62
    1
 10
2061.3637004850525
 20
220.51170611956786
 11
2066.4348810393394
 21
218.81671914082699
  0
LINE
  8
_0-0_0
  6
CONTINUOUS
 62
    1
 10
2066.4348810393394
 20
218.81671914082699
 11
2071.5198419755679
 21
218.81671914082699
  0
LINE
  8
_0-0_0
  6
CONTINUOUS
 62
    1
 10
2071.5198419755679
 20
218.81671914082699
 11
2076.6048029117965
 21
217.12173216208112
  0
LINE
  8
_0-0_0
  6
CONTINUOUS
 62
    1
 10
2076.6048029117965
 20
217.12173216208112
 11
2078.2997898905423
 21
217.12173216208112
  0
LINE
  8
_0-0_0
  6
CONTINUOUS
 62
    1
 10
2078.2997898905423
 20
217.12173216208112
 11
2081.6759834660834
 21
215.43363537431014
  0
LINE
  8
_0-0_0
  6
CONTINUOUS
 62
    1
 10
2081.6759834660834
 20
215.43363537431014
 11
2081.6759834660834
 21
213.73864839556381
  0
LINE
  8
_0-0_0
  6
CONTINUOUS
 62
    1
 10
2081.6759834660834
 20
213.73864839556381
 11
2081.6759834660834
 21
212.04366141682294
  0
LINE
  8
_0-0_0
  6
CONTINUOUS
 62
    1
 10
2081.6759834660834
 20
212.04366141682294
 11
2078.2997898905423
 21
210.34867443807707
  0
LINE
  8
_0-0_0
  6
CONTINUOUS
 62
    1
 10
2078.2997898905423
 20
210.34867443807707
 11
2076.6048029117965
 21
208.6536874593362
  0
LINE
  8
_0-0_0
  6
CONTINUOUS
 62
    1
 10
2076.6048029117965
 20
208.6536874593362
 11
2071.5198419755679
 21
208.6536874593362
  0
LINE
  8
_0-0_0
  6
CONTINUOUS
 62
    1
 10
2071.5198419755679
 20
208.6536874593362
 11
2066.4348810393394
 21
206.96559067156522
  0
LINE
  8
_0-0_0
  6
CONTINUOUS
 62
    1
 10
2066.4348810393394
 20
206.96559067156522
 11
2061.3637004850525
 21
206.96559067156522
  0
LINE
  8
_0-0_0
  6
CONTINUOUS
 62
    1
 10
2061.3637004850525
 20
206.96559067156522
 11
2054.5837525700781
 21
205.2706036928189
  0
LINE
  8
_0-0_0
  6
CONTINUOUS
 62
    1
 10
2054.5837525700781
 20
205.2706036928189
 11
2047.8175850370544
 21
205.2706036928189
  0
LINE
  8
_0-0_0
  6
CONTINUOUS
 62
    1
 10
2047.8175850370544
 20
205.2706036928189
 11
2041.03763712208
 21
205.2706036928189
  0
LINE
  8
_0-0_0
  6
CONTINUOUS
 62
    1
 10
2041.03763712208
 20
205.2706036928189
 11
2034.2714695890472
 21
205.2706036928189
  0
LINE
  8
_0-0_0
  6
CONTINUOUS
 62
    1
 10
2034.2714695890472
 20
205.2706036928189
 11
2027.4915216740819
 21
205.2706036928189
  0
LINE
  8
_0-0_0
  6
CONTINUOUS
 62
    1
 10
2027.4915216740819
 20
205.2706036928189
 11
2020.72535414104
 21
206.96559067156522
  0
LINE
  8
_0-0_0
  6
CONTINUOUS
 62
    1
 10
2020.72535414104
 20
206.96559067156522
 11
2013.9454062260747
 21
206.96559067156522
  0
LINE
  8
_0-0_0
  6
CONTINUOUS
 62
    1
 10
2013.9454062260747
 20
206.96559067156522
 11
2010.555432268583
 21
208.6536874593362
  0
LINE
  8
_0-0_0
  6
CONTINUOUS
 62
    1
 10
2010.555432268583
 20
208.6536874593362
 11
2005.4842517142961
 21
208.6536874593362
  0
LINE
  8
_0-0_0
  6
CONTINUOUS
 62
    1
 10
2005.4842517142961
 20
208.6536874593362
 11
2002.0942777568134
 21
210.34867443807707
  0
LINE
  8
_0-0_0
  6
CONTINUOUS
 62
    1
 10
2002.0942777568134
 20
210.34867443807707
 11
2000.3992907780666
 21
212.04366141682294
  0
LINE
  8
_0-0_0
  6
CONTINUOUS
 62
    1
 10
2000.3992907780666
 20
212.04366141682294
 11
2000.3992907780666
 21
213.73864839556381
  0
LINE
  8
_0-0_0
  6
CONTINUOUS
 62
    1
 10
1053.9186627723293
 20
816.27937900725919
 11
935.68796261812122
 21
850.25484319768884
  0
LINE
  8
_0-0_0
  6
CONTINUOUS
 62
    1
 10
1068.060697058098
 20
865.49202863700793
 11
982.00031043374202
 21
890.2228437312001
  0
LINE
  8
_0-0_0
  6
CONTINUOUS
 62
    1
 10
1066.0915363893851
 20
823.87382523060205
 11
1074.6371807085679
 21
853.61168268744086
  0
LINE
  8
_0-0_0
  6
CONTINUOUS
 62
    1
 10
1068.060697058098
 20
865.49202863700793
 11
1070.1091381371211
 21
864.90337665037214
  0
LINE
  8
_0-0_0
  6
CONTINUOUS
 62
    1
 10
1070.1091381371211
 20
864.90337665037214
 11
1072.5940348740269
 21
861.96718617170018
  0
LINE
  8
_0-0_0
  6
CONTINUOUS
 62
    1
 10
1072.5940348740269
 20
861.96718617170018
 11
1074.0567970603011
 21
859.32472224440016
  0
LINE
  8
_0-0_0
  6
CONTINUOUS
 62
    1
 10
1074.0567970603011
 20
859.32472224440016
 11
1074.495650485941
 21
856.9855277078741
  0
LINE
  8
_0-0_0
  6
CONTINUOUS
 62
    1
 10
1074.495650485941
 20
856.9855277078741
 11
1074.6371807085679
 21
853.61168268744086
  0
LINE
  8
_0-0_0
  6
CONTINUOUS
 62
    1
 10
1066.0915363893851
 20
823.87382523060205
 11
1064.1828513229839
 21
821.09817503619888
  0
LINE
  8
_0-0_0
  6
CONTINUOUS
 62
    1
 10
1064.1828513229839
 20
821.09817503619888
 11
1062.2717684888262
 21
818.31418088627697
  0
LINE
  8
_0-0_0
  6
CONTINUOUS
 62
    1
 10
1062.2717684888262
 20
818.31418088627697
 11
1059.6293045615212
 21
816.85141870001098
  0
LINE
  8
_0-0_0
  6
CONTINUOUS
 62
    1
 10
1059.6293045615212
 20
816.85141870001098
 11
1056.2620292866081
 21
816.71703354902002
  0
LINE
  8
_0-0_0
  6
CONTINUOUS
 62
    1
 10
1056.2620292866081
 20
816.71703354902002
 11
1053.9186627723293
 21
816.27937900725919
  0
INSERT
  2
-000-SPECEL-M6010NAM10L
  8
_0-0_0
 10
2356.2362472612358
 20
-287.44638293531602
 41
1
 42
1
 50
0
  0
ENDSEC
  0
EOF
