  0
SECTION
  2
HEADER
  9
$ACADVER
  1
AC1009
  9
$INSBASE
 10
0
 20
0
 30
0
  9
$EXTMIN
 10
0
 20
0
  9
$EXTMAX
 10
2970
 20
2100
  9
$LIMMIN
 10
0
 20
0
  9
$LIMMAX
 10
2970
 20
2100
  9
$LTSCALE
 40
10
  0
ENDSEC
  0
SECTION
  2
TABLES
  0
TABLE
  2
LTYPE
 70
     9
  0
LTYPE
  2
CONTINUOUS
 70
    64
  3
実線
 72
    65
 73
     0
 40
0.0
  0
LTYPE
  2
DASHED1
 70
    64
  3
--  --  --  --  --  --  --  --  
 72
    65
 73
     2
 40
2.5
 49
1.25
 49
-1.25
  0
LTYPE
  2
DASHED2
 70
    64
  3
----    ----    ----    ----    
 72
    65
 73
     2
 40
5.0
 49
2.5
 49
-2.5
  0
LTYPE
  2
DASHED3
 70
    64
  3
------  ------  ------  ------  
 72
    65
 73
     2
 40
5.0
 49
3.75
 49
-1.25
  0
LTYPE
  2
CENTER1
 70
    64
  3
----- - ----- - ----- - ----- - 
 72
    65
 73
     4
 40
10.0
 49
6.25
 49
-1.25
 49
1.25
 49
-1.25
  0
LTYPE
  2
CENTER2
 70
    64
  3
----------  --  ----------  --  
 72
    65
 73
     4
 40
20.0
 49
12.5
 49
-2.5
 49
2.5
 49
-2.5
  0
LTYPE
  2
PHANTOM1
 70
    64
  3
--- - - --- - - --- - - --- - - 
 72
    65
 73
     6
 40
10.0
 49
3.25
 49
-1.25
 49
1.25
 49
-1.25
 49
1.25
 49
-1.25
  0
LTYPE
  2
PHANTOM2
 70
    64
  3
--------  -  -  --------  -  -  
 72
    65
 73
     6
 40
20.0
 49
10.0
 49
-2.5
 49
1.25
 49
-2.5
 49
1.25
 49
-2.5
  0
LTYPE
  2
DOT
 70
    64
  3
-   -   -   -   -   -   -   -   
 72
    65
 73
     2
 40
2.5
 49
0.625
 49
-1.875
  0
LTYPE
  2
DUMMY
 70
    64
  3
ダミー
 72
    65
 73
     0
 40
0.0
  0
LTYPE
  2
RAND1
 70
    64
  3
ランダム線1
 72
    65
 73
     4
 40
10.0
 49
1.0
 49
-2.0
 49
3.0
 49
-4.0
  0
LTYPE
  2
RAND2
 70
    64
  3
ランダム線2
 72
    65
 73
     4
 40
14.0
 49
2.0
 49
-3.0
 49
4.0
 49
-5.0
  0
LTYPE
  2
RAND3
 70
    64
  3
ランダム線3
 72
    65
 73
     4
 40
18.0
 49
3.0
 49
-4.0
 49
5.0
 49
-6.0
  0
LTYPE
  2
RAND4
 70
    64
  3
ランダム線4
 72
    65
 73
     4
 40
22.0
 49
4.0
 49
-5.0
 49
6.0
 49
-7.0
  0
LTYPE
  2
RAND5
 70
    64
  3
ランダム線5
 72
    65
 73
     4
 40
26.0
 49
5.0
 49
-6.0
 49
7.0
 49
-8.0
  0
LTYPE
  2
LONG1
 70
    64
  3
----------  --  ----------  --  
 72
    65
 73
     4
 40
40.0
 49
32.5
 49
-2.5
 49
2.5
 49
-2.5
  0
LTYPE
  2
LONG2
 70
    64
  3
--------  -  -  --------  -  -  
 72
    65
 73
     6
 40
40.0
 49
30.0
 49
-2.5
 49
1.25
 49
-2.5
 49
1.25
 49
-2.5
  0
LTYPE
  2
LONG3
 70
    64
  3
+++++++++++++++..+++++++++++++++
 72
    65
 73
     2
 40
40.0
 49
37.5
 49
-2.5
  0
LTYPE
  2
LONG4
 70
    64
  3
+++++++++++++++..+++++++++++++++
 72
    65
 73
     2
 40
80.0
 49
75.0
 49
-5.0
  0
LTYPE
  2
LONG5
 70
    64
  3
----------  --  ----------  --  
 72
    65
 73
     4
 40
60.0
 49
37.5
 49
-7.5
 49
7.5
 49
-7.5
  0
LTYPE
  2
dashed
 70
   64
  3
-------   -------------   ------
 72
   65
 73
    2
 40
7.5
 49
6
 49
-1.5
  0
LTYPE
  2
dashed_spaced
 70
   64
  3
----        --------        ----
 72
   65
 73
    2
 40
12
 49
6
 49
-6
  0
LTYPE
  2
long_dashed_dotted
 70
   64
  3
------------- --- --------------
 72
   65
 73
    4
 40
15.25
 49
12
 49
-1.5
 49
0.25
 49
-1.5
  0
LTYPE
  2
long_dashed_double-dotted
 70
   64
  3
----------- --- --- ------------
 72
   65
 73
    6
 40
17
 49
12
 49
-1.5
 49
0.25
 49
-1.5
 49
0.25
 49
-1.5
  0
LTYPE
  2
long_dashed_triplicate-dotted
 70
   64
  3
--------- --- --- --- ----------
 72
   65
 73
    8
 40
18.75
 49
12
 49
-1.5
 49
0.25
 49
-1.5
 49
0.25
 49
-1.5
 49
0.25
 49
-1.5
  0
LTYPE
  2
dotted
 70
   64
  3
   -       -       -       -    
 72
   65
 73
    2
 40
1.75
 49
0.25
 49
-1.5
  0
LTYPE
  2
chain
 70
   64
  3
-------------- -- --------------
 72
   65
 73
    4
 40
18.5
 49
12
 49
-1.5
 49
3.5
 49
-1.5
  0
LTYPE
  2
chain_double_dash
 70
   64
  3
------------ -- -- -------------
 72
   65
 73
    6
 40
23.5
 49
12
 49
-1.5
 49
3.5
 49
-1.5
 49
3.5
 49
-1.5
  0
LTYPE
  2
dashed_dotted
 70
   64
  3
-----------     -     ----------
 72
   65
 73
    4
 40
9.25
 49
6
 49
-1.5
 49
0.25
 49
-1.5
  0
LTYPE
  2
double-dashed_dotted
 70
   64
  3
------   -----------   -   -----
 72
   65
 73
    6
 40
16.75
 49
6
 49
-1.5
 49
6
 49
-1.5
 49
0.25
 49
-1.5
  0
LTYPE
  2
dashed_double-dotted
 70
   64
  3
---------    -    -    ---------
 72
   65
 73
    6
 40
11
 49
6
 49
-1.5
 49
0.25
 49
-1.5
 49
0.25
 49
-1.5
  0
LTYPE
  2
double-dashed_double-dotted
 70
   64
  3
-----   ---------   -   -   ----
 72
   65
 73
    8
 40
18.5
 49
6
 49
-1.5
 49
6
 49
-1.5
 49
0.25
 49
-1.5
 49
0.25
 49
-1.5
  0
LTYPE
  2
dashed_triplicate-dotted
 70
   64
  3
-------    -    -    -    ------
 72
   65
 73
    8
 40
12.75
 49
6
 49
-1.5
 49
0.25
 49
-1.5
 49
0.25
 49
-1.5
 49
0.25
 49
-1.5
  0
LTYPE
  2
double-dashed_triplicate-dotted
 70
   64
  3
-----  ---------  -  -  -  -----
 72
   65
 73
   10
 40
20.25
 49
6
 49
-1.5
 49
6
 49
-1.5
 49
0.25
 49
-1.5
 49
0.25
 49
-1.5
 49
0.25
 49
-1.5
  0
LTYPE
  2
undefined
 70
   64
  3
--------------------------------
 72
   65
 73
    0
 40
0
  0
LTYPE
  2
_
 70
   64
  3
                                
 72
   65
 73
    0
 40
0
  0
LTYPE
  2
__18
 70
   64
  3
                                
 72
   65
 73
    0
 40
0
  0
LTYPE
  2
__19
 70
   64
  3
                                
 72
   65
 73
    0
 40
0
  0
LTYPE
  2
__20
 70
   64
  3
                                
 72
   65
 73
    0
 40
0
  0
LTYPE
  2
__21
 70
   64
  3
                                
 72
   65
 73
    0
 40
0
  0
LTYPE
  2
__22
 70
   64
  3
                                
 72
   65
 73
    0
 40
0
  0
LTYPE
  2
__23
 70
   64
  3
                                
 72
   65
 73
    0
 40
0
  0
LTYPE
  2
__24
 70
   64
  3
                                
 72
   65
 73
    0
 40
0
  0
LTYPE
  2
__25
 70
   64
  3
                                
 72
   65
 73
    0
 40
0
  0
LTYPE
  2
__26
 70
   64
  3
                                
 72
   65
 73
    0
 40
0
  0
LTYPE
  2
__27
 70
   64
  3
                                
 72
   65
 73
    0
 40
0
  0
LTYPE
  2
__28
 70
   64
  3
                                
 72
   65
 73
    0
 40
0
  0
LTYPE
  2
__29
 70
   64
  3
                                
 72
   65
 73
    0
 40
0
  0
LTYPE
  2
__30
 70
   64
  3
                                
 72
   65
 73
    0
 40
0
  0
LTYPE
  2
__31
 70
   64
  3
                                
 72
   65
 73
    0
 40
0
  0
LTYPE
  2
__32
 70
   64
  3
                                
 72
   65
 73
    0
 40
0
  0
ENDTAB
  0
TABLE
  2
STYLE
  5
3
100
AcDbSymbolTable
 70
     1
  0
STYLE
  5
10
100
AcDbSymbolTableRecord
100
AcDbTextStyleTableRecord
  2
STANDARD
 70
     0
 40
0.0
 41
1.0
 50
0.0
 71
     0
 42
0.2
  3
txt
  4
bigfont.shx
  0
STYLE
  5
26
100
AcDbSymbolTableRecord
100
AcDbTextStyleTableRecord
  2
TATEGAKI
 70
    68
 40
0.0
 41
1.0
 50
0.0
 71
     0
 42
1.0
  3
txt
  4
bigfont.shx
  0
ENDTAB
  0
TABLE
  2
LAYER
 70
   13
  0
LAYER
  2
_0-0_0
 70
   64
 62
    7
  6
CONTINUOUS
  0
LAYER
  2
_0-2_02___PRT_ALL_AXES
 70
   64
 62
    7
  6
CONTINUOUS
  0
LAYER
  2
_0-3_7_ALL_FEATURES
 70
   64
 62
    7
  6
CONTINUOUS
  0
LAYER
  2
_0-4__B______3
 70
   64
 62
    7
  6
CONTINUOUS
  0
LAYER
  2
_0-5________-2___M4
 70
   64
 62
    7
  6
CONTINUOUS
  0
LAYER
  2
_0-6_____________M6_20
 70
   64
 62
    7
  6
CONTINUOUS
  0
LAYER
  2
_0-7_EL-M4010N_______4
 70
   64
 62
    7
  6
CONTINUOUS
  0
LAYER
  2
_0-8_EL-M4010N_______9
 70
   64
 62
    7
  6
CONTINUOUS
  0
LAYER
  2
_0-9_EL-M4010N_______12
 70
   64
 62
    7
  6
CONTINUOUS
  0
LAYER
  2
_0-a_EL-M4010N_______13
 70
   64
 62
    7
  6
CONTINUOUS
  0
LAYER
  2
_0-b_EL-M4010N_______3
 70
   64
 62
    7
  6
CONTINUOUS
  0
LAYER
  2
_0-c_EL-M4010N_______2
 70
   64
 62
    7
  6
CONTINUOUS
  0
LAYER
  2
ADD_LINE
 70
   64
 62
    7
  6
CONTINUOUS
  0
ENDTAB
  0
ENDSEC
  0
SECTION
  2
BLOCKS
  0
BLOCK
  2
-000-SPECel-m6010nxaj004
 70
   64
 10
0
 20
0
 30
0
  0
TEXT
  8
_0-d_SPEC
 62
    7
 10
0
 20
0
 40
1.5
 41
1
 50
0
  1
ｴｸｽﾃﾘｱ 昼白色(5000K) Ra75
  0
TEXT
  8
_0-d_SPEC
 62
    7
 10
0
 20
-3
 40
1.5
 41
1
 50
0
  1
100V~242V共用ﾀｲﾌﾟ
  0
TEXT
  8
_0-d_SPEC
 62
    7
 10
0
 20
-6
 40
1.5
 41
1
 50
0
  1
本体:ｽﾃﾝﾚｽ 黒色塗装仕上
  0
TEXT
  8
_0-d_SPEC
 62
    7
 10
0
 20
-9
 40
1.5
 41
1
 50
0
  1
光源寿命:60,000時間(光束維持率90%)
  0
ENDBLK
  0
ENDSEC
  0
SECTION
  2
ENTITIES
  0
TEXT
  8
_0-0_0
 62
    7
 10
-55.503500766151319
 20
2064.96737895357
 40
114.3
 41
1
 50
0
  1
ＬＥＤ４２．７Ｗ×１　街路灯
  0
TEXT
  8
_0-0_0
 62
    7
 10
-28.515549582464246
 20
-68.632494046426871
 40
114.3
 41
1
 50
0
  1
三菱　EL-M6010N×1+EL-XAJ004/K+PL9045DMW
  0
LINE
  8
_0-2_02___PRT_ALL_AXES
  6
CONTINUOUS
 62
    7
 10
677.09643871049002
 20
1050.5992454872298
 11
676.48803859150394
 21
1051.4185274016222
  0
LINE
  8
_0-2_02___PRT_ALL_AXES
  6
CONTINUOUS
 62
    7
 10
676.48803859150394
 20
1051.4185274016222
 11
675.95043868448602
 21
1052.1971747546622
  0
LINE
  8
_0-2_02___PRT_ALL_AXES
  6
CONTINUOUS
 62
    7
 10
675.95043868448602
 20
1052.1971747546622
 11
675.47553902925802
 21
1052.949354546718
  0
LINE
  8
_0-2_02___PRT_ALL_AXES
  6
CONTINUOUS
 62
    7
 10
675.47553902925802
 20
1052.949354546718
 11
675.0605130188228
 21
1053.683533148715
  0
LINE
  8
_0-2_02___PRT_ALL_AXES
  6
CONTINUOUS
 62
    7
 10
675.0605130188228
 20
1053.683533148715
 11
674.70590769298406
 21
1054.4028163690241
  0
LINE
  8
_0-2_02___PRT_ALL_AXES
  6
CONTINUOUS
 62
    7
 10
665.45436245646079
 20
1039.6001478758681
 11
665.86721755251665
 21
1038.843200855601
  0
LINE
  8
_0-2_02___PRT_ALL_AXES
  6
CONTINUOUS
 62
    7
 10
665.86721755251665
 20
1038.843200855601
 11
666.35215371700997
 21
1038.2258687326362
  0
LINE
  8
_0-2_02___PRT_ALL_AXES
  6
CONTINUOUS
 62
    7
 10
666.35215371700997
 20
1038.2258687326362
 11
666.900870682819
 21
1037.758705227543
  0
LINE
  8
_0-2_02___PRT_ALL_AXES
  6
CONTINUOUS
 62
    7
 10
666.900870682819
 20
1037.758705227543
 11
667.50397828584801
 21
1037.4496954084302
  0
LINE
  8
_0-2_02___PRT_ALL_AXES
  6
CONTINUOUS
 62
    7
 10
667.50397828584801
 20
1037.4496954084302
 11
668.15115701383866
 21
1037.304119551246
  0
LINE
  8
_0-2_02___PRT_ALL_AXES
  6
CONTINUOUS
 62
    7
 10
668.15115701383866
 20
1037.304119551246
 11
668.83133438957475
 21
1037.3244631712141
  0
LINE
  8
_0-2_02___PRT_ALL_AXES
  6
CONTINUOUS
 62
    7
 10
668.83133438957475
 20
1037.3244631712141
 11
669.53287419070966
 21
1037.5103747584958
  0
LINE
  8
_0-2_02___PRT_ALL_AXES
  6
CONTINUOUS
 62
    7
 10
669.53287419070966
 20
1037.5103747584958
 11
670.24377536834481
 21
1037.85867197173
  0
LINE
  8
_0-2_02___PRT_ALL_AXES
  6
CONTINUOUS
 62
    7
 10
674.70590769831779
 20
1054.4028163880739
 11
674.29305252834683
 21
1055.159763538642
  0
LINE
  8
_0-2_02___PRT_ALL_AXES
  6
CONTINUOUS
 62
    7
 10
674.29305252834683
 20
1055.159763538642
 11
673.80811634328165
 21
1055.777095676086
  0
LINE
  8
_0-2_02___PRT_ALL_AXES
  6
CONTINUOUS
 62
    7
 10
673.80811634328165
 20
1055.777095676086
 11
673.25939935308679
 21
1056.244259184225
  0
LINE
  8
_0-2_02___PRT_ALL_AXES
  6
CONTINUOUS
 62
    7
 10
673.25939935308679
 20
1056.244259184225
 11
672.65629172262788
 21
1056.5532689941961
  0
LINE
  8
_0-2_02___PRT_ALL_AXES
  6
CONTINUOUS
 62
    7
 10
672.65629172262788
 20
1056.5532689941961
 11
672.00911296567983
 21
1056.698844830044
  0
LINE
  8
_0-2_02___PRT_ALL_AXES
  6
CONTINUOUS
 62
    7
 10
672.00911296567983
 20
1056.698844830044
 11
671.328935560226
 21
1056.6785011765478
  0
LINE
  8
_0-2_02___PRT_ALL_AXES
  6
CONTINUOUS
 62
    7
 10
671.328935560226
 20
1056.6785011765478
 11
670.62739573089675
 21
1056.4925895458318
  0
LINE
  8
_0-2_02___PRT_ALL_AXES
  6
CONTINUOUS
 62
    7
 10
670.62739573089675
 20
1056.4925895458318
 11
669.91649462793794
 21
1056.1442923272639
  0
LINE
  8
_0-2_02___PRT_ALL_AXES
  6
CONTINUOUS
 62
    7
 10
665.45436245569999
 20
1039.6001478766302
 11
665.80903253858605
 21
1038.8807424353322
  0
LINE
  8
_0-2_02___PRT_ALL_AXES
  6
CONTINUOUS
 62
    7
 10
665.80903253858605
 20
1038.8807424353322
 11
666.22410899799161
 21
1038.1464937971509
  0
LINE
  8
_0-2_02___PRT_ALL_AXES
  6
CONTINUOUS
 62
    7
 10
666.22410899799161
 20
1038.1464937971509
 11
666.69899824734694
 21
1037.3943478889501
  0
LINE
  8
_0-2_02___PRT_ALL_AXES
  6
CONTINUOUS
 62
    7
 10
666.69899824734694
 20
1037.3943478889501
 11
667.23647023590183
 21
1036.6158910816298
  0
LINE
  8
_0-2_02___PRT_ALL_AXES
  6
CONTINUOUS
 62
    7
 10
667.23647023590183
 20
1036.6158910816298
 11
667.844893526546
 21
1035.796576869106
  0
LINE
  8
_0-2_02___PRT_ALL_AXES
  6
CONTINUOUS
 62
    7
 10
674.70590769298406
 20
1054.4028163690241
 11
674.41243377828187
 21
1055.107700966872
  0
LINE
  8
_0-2_02___PRT_ALL_AXES
  6
CONTINUOUS
 62
    7
 10
674.41243377828187
 20
1055.107700966872
 11
674.17884629930586
 21
1055.7988849235921
  0
LINE
  8
_0-2_02___PRT_ALL_AXES
  6
CONTINUOUS
 62
    7
 10
674.17884629930586
 20
1055.7988849235921
 11
674.00129183119998
 21
1056.4804776366041
  0
LINE
  8
_0-2_02___PRT_ALL_AXES
  6
CONTINUOUS
 62
    7
 10
674.00129183119998
 20
1056.4804776366041
 11
673.87462649829786
 21
1057.1614560313119
  0
LINE
  8
_0-2_02___PRT_ALL_AXES
  6
CONTINUOUS
 62
    7
 10
673.87462649829786
 20
1057.1614560313119
 11
673.79440308800486
 21
1057.8554361371262
  0
LINE
  8
_0-2_02___PRT_ALL_AXES
  6
CONTINUOUS
 62
    7
 10
663.94383549657186
 20
1123.9953184176761
 11
664.35669059262682
 21
1123.23837139741
  0
LINE
  8
_0-2_02___PRT_ALL_AXES
  6
CONTINUOUS
 62
    7
 10
664.35669059262682
 20
1123.23837139741
 11
664.84162675711877
 21
1122.6210392744442
  0
LINE
  8
_0-2_02___PRT_ALL_AXES
  6
CONTINUOUS
 62
    7
 10
664.84162675711877
 20
1122.6210392744442
 11
665.39034372292963
 21
1122.153875769352
  0
LINE
  8
_0-2_02___PRT_ALL_AXES
  6
CONTINUOUS
 62
    7
 10
665.39034372292963
 20
1122.153875769352
 11
665.99345132595681
 21
1121.8448659502369
  0
LINE
  8
_0-2_02___PRT_ALL_AXES
  6
CONTINUOUS
 62
    7
 10
665.99345132595681
 20
1121.8448659502369
 11
666.64063005394883
 21
1121.6992900930541
  0
LINE
  8
_0-2_02___PRT_ALL_AXES
  6
CONTINUOUS
 62
    7
 10
666.64063005394883
 20
1121.6992900930541
 11
667.32080742968583
 21
1121.7196337130222
  0
LINE
  8
_0-2_02___PRT_ALL_AXES
  6
CONTINUOUS
 62
    7
 10
667.32080742968583
 20
1121.7196337130222
 11
668.02234723158199
 21
1121.9055453003039
  0
LINE
  8
_0-2_02___PRT_ALL_AXES
  6
CONTINUOUS
 62
    7
 10
668.02234723158199
 20
1121.9055453003039
 11
668.73324840921805
 21
1122.2538425135381
  0
LINE
  8
_0-2_02___PRT_ALL_AXES
  6
CONTINUOUS
 62
    7
 10
673.19538073842705
 20
1138.797986929882
 11
672.78252556845791
 21
1139.55493408045
  0
LINE
  8
_0-2_02___PRT_ALL_AXES
  6
CONTINUOUS
 62
    7
 10
672.78252556845791
 20
1139.55493408045
 11
672.29758938339182
 21
1140.172266217131
  0
LINE
  8
_0-2_02___PRT_ALL_AXES
  6
CONTINUOUS
 62
    7
 10
672.29758938339182
 20
1140.172266217131
 11
671.74887239319787
 21
1140.639429726034
  0
LINE
  8
_0-2_02___PRT_ALL_AXES
  6
CONTINUOUS
 62
    7
 10
671.74887239319787
 20
1140.639429726034
 11
671.14576476273805
 21
1140.9484395360041
  0
LINE
  8
_0-2_02___PRT_ALL_AXES
  6
CONTINUOUS
 62
    7
 10
671.14576476273805
 20
1140.9484395360041
 11
670.49858600579
 21
1141.094015371852
  0
LINE
  8
_0-2_02___PRT_ALL_AXES
  6
CONTINUOUS
 62
    7
 10
670.49858600579
 20
1141.094015371852
 11
669.81840860033572
 21
1141.0736717183549
  0
LINE
  8
_0-2_02___PRT_ALL_AXES
  6
CONTINUOUS
 62
    7
 10
669.81840860033572
 20
1141.0736717183549
 11
669.11686877100783
 21
1140.8877600868782
  0
LINE
  8
_0-2_02___PRT_ALL_AXES
  6
CONTINUOUS
 62
    7
 10
669.11686877100783
 20
1140.8877600868782
 11
668.40596766804674
 21
1140.5394628690719
  0
LINE
  8
_0-2_02___PRT_ALL_AXES
  6
CONTINUOUS
 62
    7
 10
663.94383549657186
 20
1123.9953184176761
 11
664.29850557869577
 21
1123.2759129771398
  0
LINE
  8
_0-2_02___PRT_ALL_AXES
  6
CONTINUOUS
 62
    7
 10
664.29850557869577
 20
1123.2759129771398
 11
664.71358203810087
 21
1122.541664338959
  0
LINE
  8
_0-2_02___PRT_ALL_AXES
  6
CONTINUOUS
 62
    7
 10
664.71358203810087
 20
1122.541664338959
 11
665.18847128745801
 21
1121.7895184307581
  0
LINE
  8
_0-2_02___PRT_ALL_AXES
  6
CONTINUOUS
 62
    7
 10
665.18847128745801
 20
1121.7895184307581
 11
665.72594327601064
 21
1121.0110616234379
  0
LINE
  8
_0-2_02___PRT_ALL_AXES
  6
CONTINUOUS
 62
    7
 10
665.72594327601064
 20
1121.0110616234379
 11
666.33436656665481
 21
1120.1917474101519
  0
LINE
  8
_0-3_7_ALL_FEATURES
  6
CONTINUOUS
 62
    7
 10
679.80603240965593
 20
1056.428964409683
 11
683.10806803213882
 21
1049.172773759788
  0
LINE
  8
_0-2_02___PRT_ALL_AXES
  6
CONTINUOUS
 62
    7
 10
673.19538073309286
 20
1138.7979869108322
 11
672.90190681839204
 21
1139.5028715086801
  0
LINE
  8
_0-2_02___PRT_ALL_AXES
  6
CONTINUOUS
 62
    7
 10
672.90190681839204
 20
1139.5028715086801
 11
672.66831933941603
 21
1140.1940554654002
  0
LINE
  8
_0-2_02___PRT_ALL_AXES
  6
CONTINUOUS
 62
    7
 10
672.66831933941603
 20
1140.1940554654002
 11
672.49076487130969
 21
1140.8756481784121
  0
LINE
  8
_0-2_02___PRT_ALL_AXES
  6
CONTINUOUS
 62
    7
 10
672.49076487130969
 20
1140.8756481784121
 11
672.36409953840803
 21
1141.556626573119
  0
LINE
  8
_0-2_02___PRT_ALL_AXES
  6
CONTINUOUS
 62
    7
 10
672.36409953840803
 20
1141.556626573119
 11
672.28387612811593
 21
1142.2506066789342
  0
LINE
  8
_0-2_02___PRT_ALL_AXES
  6
CONTINUOUS
 62
    7
 10
692.35774202068887
 20
1046.420682053415
 11
692.27050893505884
 21
1046.66214743815
  0
LINE
  8
_0-2_02___PRT_ALL_AXES
  6
CONTINUOUS
 62
    7
 10
692.27050893505884
 20
1046.66214743815
 11
692.17341001444993
 21
1046.891047964853
  0
LINE
  8
_0-2_02___PRT_ALL_AXES
  6
CONTINUOUS
 62
    7
 10
692.17341001444993
 20
1046.891047964853
 11
692.06681568763361
 21
1047.1066531300362
  0
LINE
  8
_0-2_02___PRT_ALL_AXES
  6
CONTINUOUS
 62
    7
 10
692.06681568763361
 20
1047.1066531300362
 11
691.95113422125769
 21
1047.3082688530421
  0
LINE
  8
_0-2_02___PRT_ALL_AXES
  6
CONTINUOUS
 62
    7
 10
691.95113422125769
 20
1047.3082688530421
 11
691.82680970816
 21
1047.4952414171189
  0
LINE
  8
_0-2_02___PRT_ALL_AXES
  6
CONTINUOUS
 62
    7
 10
691.82680970816
 20
1047.4952414171189
 11
691.69431968459594
 21
1047.666961189504
  0
LINE
  8
_0-2_02___PRT_ALL_AXES
  6
CONTINUOUS
 62
    7
 10
691.69431968459594
 20
1047.666961189504
 11
691.5541723146498
 21
1047.8228661982421
  0
LINE
  8
_0-2_02___PRT_ALL_AXES
  6
CONTINUOUS
 62
    7
 10
691.5541723146498
 20
1047.8228661982421
 11
691.40690316087785
 21
1047.9624454316559
  0
LINE
  8
_0-2_02___PRT_ALL_AXES
  6
CONTINUOUS
 62
    7
 10
691.40690316087785
 20
1047.9624454316559
 11
691.25307170425276
 21
1048.085241614308
  0
LINE
  8
_0-2_02___PRT_ALL_AXES
  6
CONTINUOUS
 62
    7
 10
691.25307170425276
 20
1048.085241614308
 11
691.09325753340681
 21
1048.1908535638649
  0
LINE
  8
_0-2_02___PRT_ALL_AXES
  6
CONTINUOUS
 62
    7
 10
691.09325753340681
 20
1048.1908535638649
 11
690.92805648585681
 21
1048.2789378835059
  0
LINE
  8
_0-2_02___PRT_ALL_AXES
  6
CONTINUOUS
 62
    7
 10
690.92805648585681
 20
1048.2789378835059
 11
690.75807663912792
 21
1048.3492101331062
  0
LINE
  8
_0-2_02___PRT_ALL_AXES
  6
CONTINUOUS
 62
    7
 10
690.75807663912792
 20
1048.3492101331062
 11
690.57107572102996
 21
1048.4045473457741
  0
LINE
  8
_0-2_02___PRT_ALL_AXES
  6
CONTINUOUS
 62
    7
 10
664.54285790406175
 20
1043.0527675182402
 11
664.62307714392682
 21
1042.3588151797062
  0
LINE
  8
_0-2_02___PRT_ALL_AXES
  6
CONTINUOUS
 62
    7
 10
664.62307714392682
 20
1042.3588151797062
 11
664.74977801193791
 21
1041.6776681376341
  0
LINE
  8
_0-2_02___PRT_ALL_AXES
  6
CONTINUOUS
 62
    7
 10
664.74977801193791
 20
1041.6776681376341
 11
664.92735413608398
 21
1040.9960388493841
  0
LINE
  8
_0-2_02___PRT_ALL_AXES
  6
CONTINUOUS
 62
    7
 10
664.92735413608398
 20
1040.9960388493841
 11
665.16093283605687
 21
1040.3049150182742
  0
LINE
  8
_0-2_02___PRT_ALL_AXES
  6
CONTINUOUS
 62
    7
 10
665.16093283605687
 20
1040.3049150182742
 11
665.45436245569999
 21
1039.6001478766302
  0
LINE
  8
_0-2_02___PRT_ALL_AXES
  6
CONTINUOUS
 62
    7
 10
663.03233094417101
 20
1127.4479380600478
 11
663.1125501840379
 21
1126.7539857215138
  0
LINE
  8
_0-2_02___PRT_ALL_AXES
  6
CONTINUOUS
 62
    7
 10
663.1125501840379
 20
1126.7539857215138
 11
663.23925105204762
 21
1126.0728386794422
  0
LINE
  8
_0-2_02___PRT_ALL_AXES
  6
CONTINUOUS
 62
    7
 10
663.23925105204762
 20
1126.0728386794422
 11
663.41682717619369
 21
1125.3912093911922
  0
LINE
  8
_0-2_02___PRT_ALL_AXES
  6
CONTINUOUS
 62
    7
 10
663.41682717619369
 20
1125.3912093911922
 11
663.65040587616795
 21
1124.7000855600818
  0
LINE
  8
_0-2_02___PRT_ALL_AXES
  6
CONTINUOUS
 62
    7
 10
663.65040587616795
 20
1124.7000855600818
 11
663.94383549657186
 21
1123.9953184176761
  0
LINE
  8
_0-2_02___PRT_ALL_AXES
  6
CONTINUOUS
 62
    7
 10
692.66950730419376
 20
1044.4460134899341
 11
692.65829244498764
 21
1044.7526385767078
  0
LINE
  8
_0-2_02___PRT_ALL_AXES
  6
CONTINUOUS
 62
    7
 10
692.65829244498764
 20
1044.7526385767078
 11
692.63576550985363
 21
1045.052551376169
  0
LINE
  8
_0-2_02___PRT_ALL_AXES
  6
CONTINUOUS
 62
    7
 10
692.63576550985363
 20
1045.052551376169
 11
692.60200672519886
 21
1045.344855822801
  0
LINE
  8
_0-2_02___PRT_ALL_AXES
  6
CONTINUOUS
 62
    7
 10
692.60200672519886
 20
1045.344855822801
 11
692.55713879436189
 21
1045.6286722729478
  0
LINE
  8
_0-2_02___PRT_ALL_AXES
  6
CONTINUOUS
 62
    7
 10
692.55713879436189
 20
1045.6286722729478
 11
692.50132683816764
 21
1045.9031390935838
  0
LINE
  8
_0-2_02___PRT_ALL_AXES
  6
CONTINUOUS
 62
    7
 10
692.50132683816764
 20
1045.9031390935838
 11
692.43477816786162
 21
1046.167415147961
  0
LINE
  8
_0-2_02___PRT_ALL_AXES
  6
CONTINUOUS
 62
    7
 10
692.43477816786162
 20
1046.167415147961
 11
692.35774202068887
 21
1046.420682053415
  0
LINE
  8
_0-2_02___PRT_ALL_AXES
  6
CONTINUOUS
 62
    7
 10
691.15898034506472
 20
1128.84118403098
 11
691.14776548585905
 21
1129.1478091185159
  0
LINE
  8
_0-2_02___PRT_ALL_AXES
  6
CONTINUOUS
 62
    7
 10
691.14776548585905
 20
1129.1478091185159
 11
691.12523855072595
 21
1129.447721917978
  0
LINE
  8
_0-2_02___PRT_ALL_AXES
  6
CONTINUOUS
 62
    7
 10
691.12523855072595
 20
1129.447721917978
 11
691.09147976607164
 21
1129.74002636461
  0
LINE
  8
_0-2_02___PRT_ALL_AXES
  6
CONTINUOUS
 62
    7
 10
691.09147976607164
 20
1129.74002636461
 11
691.0466118344707
 21
1130.0238428147559
  0
LINE
  8
_0-2_02___PRT_ALL_AXES
  6
CONTINUOUS
 62
    7
 10
691.0466118344707
 20
1130.0238428147559
 11
690.99079987827781
 21
1130.2983096353919
  0
LINE
  8
_0-2_02___PRT_ALL_AXES
  6
CONTINUOUS
 62
    7
 10
690.99079987827781
 20
1130.2983096353919
 11
690.92425120873395
 21
1130.56258568977
  0
LINE
  8
_0-2_02___PRT_ALL_AXES
  6
CONTINUOUS
 62
    7
 10
690.92425120873395
 20
1130.56258568977
 11
690.84721506079995
 21
1130.8158525944618
  0
LINE
  8
_0-2_02___PRT_ALL_AXES
  6
CONTINUOUS
 62
    7
 10
685.19329465055171
 20
535.88634392597487
 11
676.24559621532671
 21
1035.806276207848
  0
LINE
  8
_0-2_02___PRT_ALL_AXES
  6
CONTINUOUS
 62
    7
 10
675.85972597005184
 20
1057.36536521887
 11
674.73506925619995
 21
1120.201446749656
  0
LINE
  8
_0-2_02___PRT_ALL_AXES
  6
CONTINUOUS
 62
    7
 10
674.34919901016065
 20
1141.7605357606781
 11
669.62834329390398
 21
1405.5210868029098
  0
LINE
  8
_0-2_02___PRT_ALL_AXES
  6
CONTINUOUS
 62
    7
 10
669.62834638076583
 20
1405.521086858535
 11
669.62940260649202
 21
1405.9834497582942
  0
LINE
  8
_0-2_02___PRT_ALL_AXES
  6
CONTINUOUS
 62
    7
 10
669.62940260649202
 20
1405.9834497582942
 11
669.70548485005884
 21
1407.0718602832721
  0
LINE
  8
_0-2_02___PRT_ALL_AXES
  6
CONTINUOUS
 62
    7
 10
669.70548485005884
 20
1407.0718602832721
 11
669.8847483119539
 21
1408.1600502122969
  0
LINE
  8
_0-2_02___PRT_ALL_AXES
  6
CONTINUOUS
 62
    7
 10
669.8847483119539
 20
1408.1600502122969
 11
670.16695380113606
 21
1409.246567571136
  0
LINE
  8
_0-2_02___PRT_ALL_AXES
  6
CONTINUOUS
 62
    7
 10
670.16695380113606
 20
1409.246567571136
 11
670.55172476920961
 21
1410.329962615162
  0
LINE
  8
_0-2_02___PRT_ALL_AXES
  6
CONTINUOUS
 62
    7
 10
670.55172476920961
 20
1410.329962615162
 11
671.03854781562768
 21
1411.4087897678919
  0
LINE
  8
_0-2_02___PRT_ALL_AXES
  6
CONTINUOUS
 62
    7
 10
671.03854781562768
 20
1411.4087897678919
 11
671.62677336968
 21
1412.4816095457941
  0
LINE
  8
_0-2_02___PRT_ALL_AXES
  6
CONTINUOUS
 62
    7
 10
671.62677336968
 20
1412.4816095457941
 11
672.31561656145868
 21
1413.5469904823381
  0
LINE
  8
_0-2_02___PRT_ALL_AXES
  6
CONTINUOUS
 62
    7
 10
672.31561656145868
 20
1413.5469904823381
 11
673.10415826351982
 21
1414.6035110368061
  0
LINE
  8
_0-2_02___PRT_ALL_AXES
  6
CONTINUOUS
 62
    7
 10
673.10415826351982
 20
1414.6035110368061
 11
673.99134632378582
 21
1415.649761489386
  0
LINE
  8
_0-2_02___PRT_ALL_AXES
  6
CONTINUOUS
 62
    7
 10
673.99134632378582
 20
1415.649761489386
 11
674.97599696382667
 21
1416.684345825598
  0
LINE
  8
_0-2_02___PRT_ALL_AXES
  6
CONTINUOUS
 62
    7
 10
674.97599696382667
 20
1416.684345825598
 11
676.05679636077184
 21
1417.7058835955741
  0
LINE
  8
_0-2_02___PRT_ALL_AXES
  6
CONTINUOUS
 62
    7
 10
676.05679636077184
 20
1417.7058835955741
 11
677.23230240066187
 21
1418.7130117580982
  0
LINE
  8
_0-2_02___PRT_ALL_AXES
  6
CONTINUOUS
 62
    7
 10
677.23230240066187
 20
1418.7130117580982
 11
678.50094660250988
 21
1419.7043864994989
  0
LINE
  8
_0-2_02___PRT_ALL_AXES
  6
CONTINUOUS
 62
    7
 10
678.50094660250988
 20
1419.7043864994989
 11
679.86103620922268
 21
1420.6786850243561
  0
LINE
  8
_0-2_02___PRT_ALL_AXES
  6
CONTINUOUS
 62
    7
 10
679.86103620922268
 20
1420.6786850243561
 11
681.31075644922385
 21
1421.6346073233281
  0
LINE
  8
_0-2_02___PRT_ALL_AXES
  6
CONTINUOUS
 62
    7
 10
681.31075644922385
 20
1421.6346073233281
 11
682.84817295579205
 21
1422.570877906714
  0
LINE
  8
_0-2_02___PRT_ALL_AXES
  6
CONTINUOUS
 62
    7
 10
682.84817295579205
 20
1422.570877906714
 11
684.47123434948981
 21
1423.4862475044702
  0
LINE
  8
_0-2_02___PRT_ALL_AXES
  6
CONTINUOUS
 62
    7
 10
684.47123434948981
 20
1423.4862475044702
 11
686.17777497373982
 21
1424.3794947372762
  0
LINE
  8
_0-2_02___PRT_ALL_AXES
  6
CONTINUOUS
 62
    7
 10
686.17777497373982
 20
1424.3794947372762
 11
687.96551778661387
 21
1425.2494277411201
  0
LINE
  8
_0-2_02___PRT_ALL_AXES
  6
CONTINUOUS
 62
    7
 10
687.96551778661387
 20
1425.2494277411201
 11
689.83207739664203
 21
1426.094885762926
  0
LINE
  8
_0-2_02___PRT_ALL_AXES
  6
CONTINUOUS
 62
    7
 10
689.83207739664203
 20
1426.094885762926
 11
691.77496324721005
 21
1426.914740703603
  0
LINE
  8
_0-2_02___PRT_ALL_AXES
  6
CONTINUOUS
 62
    7
 10
691.77496324721005
 20
1426.914740703603
 11
693.79158293964201
 21
1427.707898629857
  0
LINE
  8
_0-2_02___PRT_ALL_AXES
  6
CONTINUOUS
 62
    7
 10
693.79158293964201
 20
1427.707898629857
 11
695.87924569115467
 21
1428.47330122732
  0
LINE
  8
_0-2_02___PRT_ALL_AXES
  6
CONTINUOUS
 62
    7
 10
695.87924569115467
 20
1428.47330122732
 11
698.03516592693177
 21
1429.2099272171081
  0
LINE
  8
_0-2_02___PRT_ALL_AXES
  6
CONTINUOUS
 62
    7
 10
698.03516592693177
 20
1429.2099272171081
 11
700.25646699486197
 21
1429.9167937167581
  0
LINE
  8
_0-2_02___PRT_ALL_AXES
  6
CONTINUOUS
 62
    7
 10
700.25646699486197
 20
1429.9167937167581
 11
702.54018500679103
 21
1430.5929575523878
  0
LINE
  8
_0-2_02___PRT_ALL_AXES
  6
CONTINUOUS
 62
    7
 10
702.54018500679103
 20
1430.5929575523878
 11
704.88327279025361
 21
1431.2375165152362
  0
LINE
  8
_0-2_02___PRT_ALL_AXES
  6
CONTINUOUS
 62
    7
 10
704.88327279025361
 20
1431.2375165152362
 11
707.28260395449661
 21
1431.8496105694298
  0
LINE
  8
_0-2_02___PRT_ALL_AXES
  6
CONTINUOUS
 62
    7
 10
707.28260395449661
 20
1431.8496105694298
 11
709.73497706549006
 21
1432.4284229957502
  0
LINE
  8
_0-2_02___PRT_ALL_AXES
  6
CONTINUOUS
 62
    7
 10
709.73497706549006
 20
1432.4284229957502
 11
712.23711991234995
 21
1432.9731814820502
  0
LINE
  8
_0-2_02___PRT_ALL_AXES
  6
CONTINUOUS
 62
    7
 10
712.23711991234995
 20
1432.9731814820502
 11
714.78569387894595
 21
1433.4831591557681
  0
LINE
  8
_0-2_02___PRT_ALL_AXES
  6
CONTINUOUS
 62
    7
 10
714.78569387894595
 20
1433.4831591557681
 11
717.37729839473604
 21
1433.9576755524281
  0
LINE
  8
_0-2_02___PRT_ALL_AXES
  6
CONTINUOUS
 62
    7
 10
717.37729839473604
 20
1433.9576755524281
 11
720.00847547247804
 21
1434.39609752242
  0
LINE
  8
_0-2_02___PRT_ALL_AXES
  6
CONTINUOUS
 62
    7
 10
720.00847547247804
 20
1434.39609752242
 11
722.67571432442492
 21
1434.7978400791062
  0
LINE
  8
_0-2_02___PRT_ALL_AXES
  6
CONTINUOUS
 62
    7
 10
722.67571432442492
 20
1434.7978400791062
 11
725.37545604481966
 21
1435.162367174536
  0
LINE
  8
_0-2_02___PRT_ALL_AXES
  6
CONTINUOUS
 62
    7
 10
725.37545604481966
 20
1435.162367174536
 11
728.1040983601938
 21
1435.4891924202998
  0
LINE
  8
_0-2_02___PRT_ALL_AXES
  6
CONTINUOUS
 62
    7
 10
728.1040983601938
 20
1435.4891924202998
 11
730.85800043302379
 21
1435.7778797314181
  0
LINE
  8
_0-2_02___PRT_ALL_AXES
  6
CONTINUOUS
 62
    7
 10
730.85800043302379
 20
1435.7778797314181
 11
733.6334877240497
 21
1436.028043912318
  0
LINE
  8
_0-2_02___PRT_ALL_AXES
  6
CONTINUOUS
 62
    7
 10
733.6334877240497
 20
1436.028043912318
 11
736.42685689117388
 21
1436.239351168138
  0
LINE
  8
_0-2_02___PRT_ALL_AXES
  6
CONTINUOUS
 62
    7
 10
736.42685689117388
 20
1436.239351168138
 11
739.2343807333159
 21
1436.4115195497338
  0
LINE
  8
_0-2_02___PRT_ALL_AXES
  6
CONTINUOUS
 62
    7
 10
739.2343807333159
 20
1436.4115195497338
 11
742.05231316093978
 21
1436.5443193339179
  0
LINE
  8
_0-2_02___PRT_ALL_AXES
  6
CONTINUOUS
 62
    7
 10
742.05231316093978
 20
1436.5443193339179
 11
744.87689419782191
 21
1436.6375733244481
  0
LINE
  8
_0-2_02___PRT_ALL_AXES
  6
CONTINUOUS
 62
    7
 10
744.87689419782191
 20
1436.6375733244481
 11
747.70435499729592
 21
1436.691157092057
  0
LINE
  8
_0-2_02___PRT_ALL_AXES
  6
CONTINUOUS
 62
    7
 10
747.70435499729592
 20
1436.691157092057
 11
750.53092286916763
 21
1436.7049991405738
  0
LINE
  8
_0-2_02___PRT_ALL_AXES
  6
CONTINUOUS
 62
    7
 10
750.53092286916763
 20
1436.7049991405738
 11
753.35282631348764
 21
1436.679080999877
  0
LINE
  8
_0-2_02___PRT_ALL_AXES
  6
CONTINUOUS
 62
    7
 10
753.35282631348764
 20
1436.679080999877
 11
756.16630005584602
 21
1436.613437252578
  0
LINE
  8
_0-2_02___PRT_ALL_AXES
  6
CONTINUOUS
 62
    7
 10
756.16630005584602
 20
1436.613437252578
 11
758.96759006971388
 21
1436.508155487526
  0
LINE
  8
_0-2_02___PRT_ALL_AXES
  6
CONTINUOUS
 62
    7
 10
758.96759006971388
 20
1436.508155487526
 11
761.75295858430991
 21
1436.363376183232
  0
LINE
  8
_0-2_02___PRT_ALL_AXES
  6
CONTINUOUS
 62
    7
 10
761.75295858430991
 20
1436.363376183232
 11
764.51868907341077
 21
1436.1792925181262
  0
LINE
  8
_0-2_02___PRT_ALL_AXES
  6
CONTINUOUS
 62
    7
 10
764.51868907341077
 20
1436.1792925181262
 11
767.26109121292984
 21
1435.9561501160501
  0
LINE
  8
_0-2_02___PRT_ALL_AXES
  6
CONTINUOUS
 62
    7
 10
767.26109121292984
 20
1435.9561501160501
 11
769.97650580799791
 21
1435.6942467170738
  0
LINE
  8
_0-2_02___PRT_ALL_AXES
  6
CONTINUOUS
 62
    7
 10
769.97650580799791
 20
1435.6942467170738
 11
772.66130967129675
 21
1435.39393177897
  0
LINE
  8
_0-2_02___PRT_ALL_AXES
  6
CONTINUOUS
 62
    7
 10
772.66130967129675
 20
1435.39393177897
 11
775.3119204602358
 21
1435.0556060131539
  0
LINE
  8
_0-2_02___PRT_ALL_AXES
  6
CONTINUOUS
 62
    7
 10
775.3119204602358
 20
1435.0556060131539
 11
777.924801456968
 21
1434.6797208490002
  0
LINE
  8
_0-2_02___PRT_ALL_AXES
  6
CONTINUOUS
 62
    7
 10
777.924801456968
 20
1434.6797208490002
 11
780.49646628594064
 21
1434.2667778310979
  0
LINE
  8
_0-2_02___PRT_ALL_AXES
  6
CONTINUOUS
 62
    7
 10
780.49646628594064
 20
1434.2667778310979
 11
783.02348356514585
 21
1433.8173279517418
  0
LINE
  8
_0-2_02___PRT_ALL_AXES
  6
CONTINUOUS
 62
    7
 10
783.02348356514585
 20
1433.8173279517418
 11
785.50248148801393
 21
1433.33197091179
  0
LINE
  8
_0-2_02___PRT_ALL_AXES
  6
CONTINUOUS
 62
    7
 10
785.50248148801393
 20
1433.33197091179
 11
787.93015231922482
 21
1432.8113543251361
  0
LINE
  8
_0-2_02___PRT_ALL_AXES
  6
CONTINUOUS
 62
    7
 10
787.93015231922482
 20
1432.8113543251361
 11
790.30325680973465
 21
1432.256172852316
  0
LINE
  8
_0-2_02___PRT_ALL_AXES
  6
CONTINUOUS
 62
    7
 10
790.30325680973465
 20
1432.256172852316
 11
792.61862851883461
 21
1431.667167274677
  0
LINE
  8
_0-2_02___PRT_ALL_AXES
  6
CONTINUOUS
 62
    7
 10
792.61862851883461
 20
1431.667167274677
 11
794.87317803792075
 21
1431.04512350302
  0
LINE
  8
_0-2_02___PRT_ALL_AXES
  6
CONTINUOUS
 62
    7
 10
794.87317803792075
 20
1431.04512350302
 11
797.06389711519887
 21
1430.390871532888
  0
LINE
  8
_0-2_02___PRT_ALL_AXES
  6
CONTINUOUS
 62
    7
 10
797.06389711519887
 20
1430.390871532888
 11
799.18786266609186
 21
1429.7052843351039
  0
LINE
  8
_0-2_02___PRT_ALL_AXES
  6
CONTINUOUS
 62
    7
 10
799.18786266609186
 20
1429.7052843351039
 11
801.24224067696196
 21
1428.9892766899061
  0
LINE
  8
_0-2_02___PRT_ALL_AXES
  6
CONTINUOUS
 62
    7
 10
801.24224067696196
 20
1428.9892766899061
 11
803.22428998463465
 21
1428.2438039700342
  0
LINE
  8
_0-2_02___PRT_ALL_AXES
  6
CONTINUOUS
 62
    7
 10
803.22428998463465
 20
1428.2438039700342
 11
805.13136593323998
 21
1427.4698608613321
  0
LINE
  8
_0-2_02___PRT_ALL_AXES
  6
CONTINUOUS
 62
    7
 10
805.13136593323998
 20
1427.4698608613321
 11
806.96092390606873
 21
1426.6684800383919
  0
LINE
  8
_0-2_02___PRT_ALL_AXES
  6
CONTINUOUS
 62
    7
 10
806.96092390606873
 20
1426.6684800383919
 11
808.71052271801591
 21
1425.840730786857
  0
LINE
  8
_0-2_02___PRT_ALL_AXES
  6
CONTINUOUS
 62
    7
 10
808.71052271801591
 20
1425.840730786857
 11
810.37782787387277
 21
1424.987717574676
  0
LINE
  8
_0-2_02___PRT_ALL_AXES
  6
CONTINUOUS
 62
    7
 10
810.37782787387277
 20
1424.987717574676
 11
811.96061468187781
 21
1424.1105785806722
  0
LINE
  8
_0-2_02___PRT_ALL_AXES
  6
CONTINUOUS
 62
    7
 10
811.96061468187781
 20
1424.1105785806722
 11
813.45677122473671
 21
1423.2104841743621
  0
LINE
  8
_0-2_02___PRT_ALL_AXES
  6
CONTINUOUS
 62
    7
 10
813.45677122473671
 20
1423.2104841743621
 11
814.864301176754
 21
1422.288635353852
  0
LINE
  8
_0-2_02___PRT_ALL_AXES
  6
CONTINUOUS
 62
    7
 10
814.864301176754
 20
1422.288635353852
 11
816.18132646548065
 21
1421.346262145637
  0
LINE
  8
_0-2_02___PRT_ALL_AXES
  6
CONTINUOUS
 62
    7
 10
669.70890781882872
 20
1401.020011095909
 11
669.70996404379366
 21
1401.482373996429
  0
LINE
  8
_0-2_02___PRT_ALL_AXES
  6
CONTINUOUS
 62
    7
 10
669.70996404379366
 20
1401.482373996429
 11
669.786046288124
 21
1402.5707845206462
  0
LINE
  8
_0-2_02___PRT_ALL_AXES
  6
CONTINUOUS
 62
    7
 10
669.786046288124
 20
1402.5707845206462
 11
669.9653097500177
 21
1403.6589744496709
  0
LINE
  8
_0-2_02___PRT_ALL_AXES
  6
CONTINUOUS
 62
    7
 10
669.9653097500177
 20
1403.6589744496709
 11
670.24751523919986
 21
1404.74549180851
  0
LINE
  8
_0-2_02___PRT_ALL_AXES
  6
CONTINUOUS
 62
    7
 10
670.24751523919986
 20
1404.74549180851
 11
670.63228620727386
 21
1405.828886852536
  0
LINE
  8
_0-2_02___PRT_ALL_AXES
  6
CONTINUOUS
 62
    7
 10
670.63228620727386
 20
1405.828886852536
 11
671.11910925369102
 21
1406.907714005265
  0
LINE
  8
_0-2_02___PRT_ALL_AXES
  6
CONTINUOUS
 62
    7
 10
671.11910925369102
 20
1406.907714005265
 11
671.70733480774379
 21
1407.9805337831681
  0
LINE
  8
_0-2_02___PRT_ALL_AXES
  6
CONTINUOUS
 62
    7
 10
671.70733480774379
 20
1407.9805337831681
 11
672.39617799876169
 21
1409.0459147204742
  0
LINE
  8
_0-2_02___PRT_ALL_AXES
  6
CONTINUOUS
 62
    7
 10
672.39617799876169
 20
1409.0459147204742
 11
673.18471970158271
 21
1410.1024352741802
  0
LINE
  8
_0-2_02___PRT_ALL_AXES
  6
CONTINUOUS
 62
    7
 10
673.18471970158271
 20
1410.1024352741802
 11
674.07190776184962
 21
1411.1486857275222
  0
LINE
  8
_0-2_02___PRT_ALL_AXES
  6
CONTINUOUS
 62
    7
 10
674.07190776184962
 20
1411.1486857275222
 11
675.05655840189183
 21
1412.183270062972
  0
LINE
  8
_0-2_02___PRT_ALL_AXES
  6
CONTINUOUS
 62
    7
 10
675.05655840189183
 20
1412.183270062972
 11
676.13735779883473
 21
1413.2048078329481
  0
LINE
  8
_0-2_02___PRT_ALL_AXES
  6
CONTINUOUS
 62
    7
 10
676.13735779883473
 20
1413.2048078329481
 11
677.31286383872566
 21
1414.211935996233
  0
LINE
  8
_0-2_02___PRT_ALL_AXES
  6
CONTINUOUS
 62
    7
 10
677.31286383872566
 20
1414.211935996233
 11
678.58150804057368
 21
1415.2033107368738
  0
LINE
  8
_0-2_02___PRT_ALL_AXES
  6
CONTINUOUS
 62
    7
 10
678.58150804057368
 20
1415.2033107368738
 11
679.94159764652477
 21
1416.1776092624909
  0
LINE
  8
_0-2_02___PRT_ALL_AXES
  6
CONTINUOUS
 62
    7
 10
679.94159764652477
 20
1416.1776092624909
 11
681.39131788652594
 21
1417.1335315614642
  0
LINE
  8
_0-2_02___PRT_ALL_AXES
  6
CONTINUOUS
 62
    7
 10
681.39131788652594
 20
1417.1335315614642
 11
682.92873439385585
 21
1418.069802144088
  0
LINE
  8
_0-2_02___PRT_ALL_AXES
  6
CONTINUOUS
 62
    7
 10
682.92873439385585
 20
1418.069802144088
 11
684.55179578755406
 21
1418.985171742605
  0
LINE
  8
_0-2_02___PRT_ALL_AXES
  6
CONTINUOUS
 62
    7
 10
684.55179578755406
 20
1418.985171742605
 11
686.25833641180361
 21
1419.8784189746502
  0
LINE
  8
_0-2_02___PRT_ALL_AXES
  6
CONTINUOUS
 62
    7
 10
686.25833641180361
 20
1419.8784189746502
 11
688.04607922467676
 21
1420.7483519792559
  0
LINE
  8
_0-2_02___PRT_ALL_AXES
  6
CONTINUOUS
 62
    7
 10
688.04607922467676
 20
1420.7483519792559
 11
689.91263883470583
 21
1421.5938100003
  0
LINE
  8
_0-2_02___PRT_ALL_AXES
  6
CONTINUOUS
 62
    7
 10
689.91263883470583
 20
1421.5938100003
 11
691.85552468527385
 21
1422.4136649417401
  0
LINE
  8
_0-2_02___PRT_ALL_AXES
  6
CONTINUOUS
 62
    7
 10
691.85552468527385
 20
1422.4136649417401
 11
693.87214437694365
 21
1423.2068228679941
  0
LINE
  8
_0-2_02___PRT_ALL_AXES
  6
CONTINUOUS
 62
    7
 10
693.87214437694365
 20
1423.2068228679941
 11
695.95980712845676
 21
1423.9722254654548
  0
LINE
  8
_0-2_02___PRT_ALL_AXES
  6
CONTINUOUS
 62
    7
 10
695.95980712845676
 20
1423.9722254654548
 11
698.11572736423386
 21
1424.7088514552438
  0
LINE
  8
_0-2_02___PRT_ALL_AXES
  6
CONTINUOUS
 62
    7
 10
698.11572736423386
 20
1424.7088514552438
 11
700.33702843292576
 21
1425.4157179548938
  0
LINE
  8
_0-2_02___PRT_ALL_AXES
  6
CONTINUOUS
 62
    7
 10
700.33702843292576
 20
1425.4157179548938
 11
702.62074644485483
 21
1426.0918817897618
  0
LINE
  8
_0-2_02___PRT_ALL_AXES
  6
CONTINUOUS
 62
    7
 10
702.62074644485483
 20
1426.0918817897618
 11
704.96383422831786
 21
1426.736440753371
  0
LINE
  8
_0-2_02___PRT_ALL_AXES
  6
CONTINUOUS
 62
    7
 10
704.96383422831786
 20
1426.736440753371
 11
707.36316539256086
 21
1427.348534807566
  0
LINE
  8
_0-2_02___PRT_ALL_AXES
  6
CONTINUOUS
 62
    7
 10
707.36316539256086
 20
1427.348534807566
 11
709.81553850355385
 21
1427.9273472331229
  0
LINE
  8
_0-2_02___PRT_ALL_AXES
  6
CONTINUOUS
 62
    7
 10
709.81553850355385
 20
1427.9273472331229
 11
712.31768135041284
 21
1428.472105720185
  0
LINE
  8
_0-2_02___PRT_ALL_AXES
  6
CONTINUOUS
 62
    7
 10
712.31768135041284
 20
1428.472105720185
 11
714.86625531700975
 21
1428.9820833939038
  0
LINE
  8
_0-2_02___PRT_ALL_AXES
  6
CONTINUOUS
 62
    7
 10
714.86625531700975
 20
1428.9820833939038
 11
717.45785983203768
 21
1429.4565997905638
  0
LINE
  8
_0-2_02___PRT_ALL_AXES
  6
CONTINUOUS
 62
    7
 10
717.45785983203768
 20
1429.4565997905638
 11
720.08903690977968
 21
1429.8950217605561
  0
LINE
  8
_0-2_02___PRT_ALL_AXES
  6
CONTINUOUS
 62
    7
 10
720.08903690977968
 20
1429.8950217605561
 11
722.75627576172792
 21
1430.2967643164802
  0
LINE
  8
_0-2_02___PRT_ALL_AXES
  6
CONTINUOUS
 62
    7
 10
722.75627576172792
 20
1430.2967643164802
 11
725.456017482883
 21
1430.6612914126722
  0
LINE
  8
_0-2_02___PRT_ALL_AXES
  6
CONTINUOUS
 62
    7
 10
725.456017482883
 20
1430.6612914126722
 11
728.1846597974959
 21
1430.9881166576738
  0
LINE
  8
_0-2_02___PRT_ALL_AXES
  6
CONTINUOUS
 62
    7
 10
728.1846597974959
 20
1430.9881166576738
 11
730.93856187108804
 21
1431.2768039695538
  0
LINE
  8
_0-2_02___PRT_ALL_AXES
  6
CONTINUOUS
 62
    7
 10
730.93856187108804
 20
1431.2768039695538
 11
733.71404916211395
 21
1431.5269681504542
  0
LINE
  8
_0-2_02___PRT_ALL_AXES
  6
CONTINUOUS
 62
    7
 10
733.71404916211395
 20
1431.5269681504542
 11
736.50741832923677
 21
1431.738275405512
  0
LINE
  8
_0-2_02___PRT_ALL_AXES
  6
CONTINUOUS
 62
    7
 10
736.50741832923677
 20
1431.738275405512
 11
739.314942170618
 21
1431.91044378787
  0
LINE
  8
_0-2_02___PRT_ALL_AXES
  6
CONTINUOUS
 62
    7
 10
739.314942170618
 20
1431.91044378787
 11
742.13287459824187
 21
1432.043243571291
  0
LINE
  8
_0-2_02___PRT_ALL_AXES
  6
CONTINUOUS
 62
    7
 10
742.13287459824187
 20
1432.043243571291
 11
744.95745563588571
 21
1432.1364975618221
  0
LINE
  8
_0-2_02___PRT_ALL_AXES
  6
CONTINUOUS
 62
    7
 10
744.95745563588571
 20
1432.1364975618221
 11
747.78491643535881
 21
1432.190081329431
  0
LINE
  8
_0-2_02___PRT_ALL_AXES
  6
CONTINUOUS
 62
    7
 10
747.78491643535881
 20
1432.190081329431
 11
750.61148430646881
 21
1432.2039233779478
  0
LINE
  8
_0-2_02___PRT_ALL_AXES
  6
CONTINUOUS
 62
    7
 10
750.61148430646881
 20
1432.2039233779478
 11
753.43338775155189
 21
1432.178005237251
  0
LINE
  8
_0-2_02___PRT_ALL_AXES
  6
CONTINUOUS
 62
    7
 10
753.43338775155189
 20
1432.178005237251
 11
756.24686149390982
 21
1432.112361489952
  0
LINE
  8
_0-2_02___PRT_ALL_AXES
  6
CONTINUOUS
 62
    7
 10
756.24686149390982
 20
1432.112361489952
 11
759.04815150777677
 21
1432.0070797256622
  0
LINE
  8
_0-2_02___PRT_ALL_AXES
  6
CONTINUOUS
 62
    7
 10
759.04815150777677
 20
1432.0070797256622
 11
761.8335200223737
 21
1431.8623004206061
  0
LINE
  8
_0-2_02___PRT_ALL_AXES
  6
CONTINUOUS
 62
    7
 10
761.8335200223737
 20
1431.8623004206061
 11
764.59925051071286
 21
1431.6782167555002
  0
LINE
  8
_0-2_02___PRT_ALL_AXES
  6
CONTINUOUS
 62
    7
 10
764.59925051071286
 20
1431.6782167555002
 11
767.34165265099364
 21
1431.4550743541859
  0
LINE
  8
_0-2_02___PRT_ALL_AXES
  6
CONTINUOUS
 62
    7
 10
767.34165265099364
 20
1431.4550743541859
 11
770.0570672460608
 21
1431.1931709544479
  0
LINE
  8
_0-2_02___PRT_ALL_AXES
  6
CONTINUOUS
 62
    7
 10
770.0570672460608
 20
1431.1931709544479
 11
772.74187110936191
 21
1430.892856016344
  0
LINE
  8
_0-2_02___PRT_ALL_AXES
  6
CONTINUOUS
 62
    7
 10
772.74187110936191
 20
1430.892856016344
 11
775.39248189830005
 21
1430.554530250527
  0
LINE
  8
_0-2_02___PRT_ALL_AXES
  6
CONTINUOUS
 62
    7
 10
775.39248189830005
 20
1430.554530250527
 11
778.00536289503179
 21
1430.178645087135
  0
LINE
  8
_0-2_02___PRT_ALL_AXES
  6
CONTINUOUS
 62
    7
 10
778.00536289503179
 20
1430.178645087135
 11
780.57702772324274
 21
1429.7657020692341
  0
LINE
  8
_0-2_02___PRT_ALL_AXES
  6
CONTINUOUS
 62
    7
 10
780.57702772324274
 20
1429.7657020692341
 11
783.10404500244795
 21
1429.3162521891149
  0
LINE
  8
_0-2_02___PRT_ALL_AXES
  6
CONTINUOUS
 62
    7
 10
783.10404500244795
 20
1429.3162521891149
 11
785.58304292531602
 21
1428.830895149164
  0
LINE
  8
_0-2_02___PRT_ALL_AXES
  6
CONTINUOUS
 62
    7
 10
785.58304292531602
 20
1428.830895149164
 11
788.01071375652782
 21
1428.3102785625101
  0
LINE
  8
_0-2_02___PRT_ALL_AXES
  6
CONTINUOUS
 62
    7
 10
788.01071375652782
 20
1428.3102785625101
 11
790.38381824779981
 21
1427.7550970904522
  0
LINE
  8
_0-2_02___PRT_ALL_AXES
  6
CONTINUOUS
 62
    7
 10
790.38381824779981
 20
1427.7550970904522
 11
792.69918995689886
 21
1427.166091512051
  0
LINE
  8
_0-2_02___PRT_ALL_AXES
  6
CONTINUOUS
 62
    7
 10
792.69918995689886
 20
1427.166091512051
 11
794.95373947598591
 21
1426.5440477411562
  0
LINE
  8
_0-2_02___PRT_ALL_AXES
  6
CONTINUOUS
 62
    7
 10
794.95373947598591
 20
1426.5440477411562
 11
797.14445855326403
 21
1425.8897957710242
  0
LINE
  8
_0-2_02___PRT_ALL_AXES
  6
CONTINUOUS
 62
    7
 10
797.14445855326403
 20
1425.8897957710242
 11
799.26842410415475
 21
1425.2042085724779
  0
LINE
  8
_0-2_02___PRT_ALL_AXES
  6
CONTINUOUS
 62
    7
 10
799.26842410415475
 20
1425.2042085724779
 11
801.32280211502484
 21
1424.4882009280418
  0
LINE
  8
_0-2_02___PRT_ALL_AXES
  6
CONTINUOUS
 62
    7
 10
801.32280211502484
 20
1424.4882009280418
 11
803.30485142193675
 21
1423.7427282081699
  0
LINE
  8
_0-2_02___PRT_ALL_AXES
  6
CONTINUOUS
 62
    7
 10
803.30485142193675
 20
1423.7427282081699
 11
805.21192737130286
 21
1422.9687850987061
  0
LINE
  8
_0-2_02___PRT_ALL_AXES
  6
CONTINUOUS
 62
    7
 10
805.21192737130286
 20
1422.9687850987061
 11
807.04148534413389
 21
1422.167404275765
  0
LINE
  8
_0-2_02___PRT_ALL_AXES
  6
CONTINUOUS
 62
    7
 10
807.04148534413389
 20
1422.167404275765
 11
808.7910841560788
 21
1421.339655024231
  0
LINE
  8
_0-2_02___PRT_ALL_AXES
  6
CONTINUOUS
 62
    7
 10
808.7910841560788
 20
1421.339655024231
 11
810.45838931117487
 21
1420.4866418128122
  0
LINE
  8
_0-2_02___PRT_ALL_AXES
  6
CONTINUOUS
 62
    7
 10
810.45838931117487
 20
1420.4866418128122
 11
812.041176119179
 21
1419.6095028188079
  0
LINE
  8
_0-2_02___PRT_ALL_AXES
  6
CONTINUOUS
 62
    7
 10
812.041176119179
 20
1419.6095028188079
 11
813.53733266280187
 21
1418.7094084117361
  0
LINE
  8
_0-2_02___PRT_ALL_AXES
  6
CONTINUOUS
 62
    7
 10
813.53733266280187
 20
1418.7094084117361
 11
814.94486261481779
 21
1417.787559591226
  0
LINE
  8
_0-2_02___PRT_ALL_AXES
  6
CONTINUOUS
 62
    7
 10
814.94486261481779
 20
1417.787559591226
 11
816.26188790354581
 21
1416.845186383011
  0
LINE
  8
_0-2_02___PRT_ALL_AXES
  6
CONTINUOUS
 62
    7
 10
677.18098118021589
 20
983.54523415025778
 11
677.18203740517993
 21
984.0075970500161
  0
LINE
  8
_0-2_02___PRT_ALL_AXES
  6
CONTINUOUS
 62
    7
 10
677.18203740517993
 20
984.0075970500161
 11
677.25811964874674
 21
985.09600757499402
  0
LINE
  8
_0-2_02___PRT_ALL_AXES
  6
CONTINUOUS
 62
    7
 10
677.25811964874674
 20
985.09600757499402
 11
677.43738311140396
 21
986.18419750402018
  0
LINE
  8
_0-2_02___PRT_ALL_AXES
  6
CONTINUOUS
 62
    7
 10
677.43738311140396
 20
986.18419750402018
 11
677.71958859982396
 21
987.27071486285786
  0
LINE
  8
_0-2_02___PRT_ALL_AXES
  6
CONTINUOUS
 62
    7
 10
677.71958859982396
 20
987.27071486285786
 11
678.10435956865967
 21
988.35410990688388
  0
LINE
  8
_0-2_02___PRT_ALL_AXES
  6
CONTINUOUS
 62
    7
 10
678.10435956865967
 20
988.35410990688388
 11
678.59118261431604
 21
989.43293705961423
  0
LINE
  8
_0-2_02___PRT_ALL_AXES
  6
CONTINUOUS
 62
    7
 10
678.59118261431604
 20
989.43293705961423
 11
679.1794081683679
 21
990.50575683751504
  0
LINE
  8
_0-2_02___PRT_ALL_AXES
  6
CONTINUOUS
 62
    7
 10
679.1794081683679
 20
990.50575683751504
 11
679.86825136014704
 21
991.57113777405993
  0
LINE
  8
_0-2_02___PRT_ALL_AXES
  6
CONTINUOUS
 62
    7
 10
679.86825136014704
 20
991.57113777405993
 11
680.65679306296988
 21
992.62765832852801
  0
LINE
  8
_0-2_02___PRT_ALL_AXES
  6
CONTINUOUS
 62
    7
 10
680.65679306296988
 20
992.62765832852801
 11
681.54398112323588
 21
993.673908781107
  0
LINE
  8
_0-2_02___PRT_ALL_AXES
  6
CONTINUOUS
 62
    7
 10
681.54398112323588
 20
993.673908781107
 11
682.52863176327674
 21
994.7084931173199
  0
LINE
  8
_0-2_02___PRT_ALL_AXES
  6
CONTINUOUS
 62
    7
 10
682.52863176327674
 20
994.7084931173199
 11
683.6094311602219
 21
995.73003088729502
  0
LINE
  8
_0-2_02___PRT_ALL_AXES
  6
CONTINUOUS
 62
    7
 10
683.6094311602219
 20
995.73003088729502
 11
684.78493720011102
 21
996.73715904982009
  0
LINE
  8
_0-2_02___PRT_ALL_AXES
  6
CONTINUOUS
 62
    7
 10
684.78493720011102
 20
996.73715904982009
 11
686.05358140119779
 21
997.72853379122216
  0
LINE
  8
_0-2_02___PRT_ALL_AXES
  6
CONTINUOUS
 62
    7
 10
672.61115696986963
 20
1123.9649863950281
 11
672.65724999477698
 21
1125.1777112565942
  0
LINE
  8
_0-2_02___PRT_ALL_AXES
  6
CONTINUOUS
 62
    7
 10
672.65724999477698
 20
1125.1777112565942
 11
672.75102980950396
 21
1126.3359071238401
  0
LINE
  8
_0-2_02___PRT_ALL_AXES
  6
CONTINUOUS
 62
    7
 10
672.75102980950396
 20
1126.3359071238401
 11
672.89627089189389
 21
1127.4608792119661
  0
LINE
  8
_0-2_02___PRT_ALL_AXES
  6
CONTINUOUS
 62
    7
 10
672.89627089189389
 20
1127.4608792119661
 11
673.09770638284999
 21
1128.5656383707442
  0
LINE
  8
_0-2_02___PRT_ALL_AXES
  6
CONTINUOUS
 62
    7
 10
673.09770638284999
 20
1128.5656383707442
 11
673.35902104081288
 21
1129.6551766907742
  0
LINE
  8
_0-2_02___PRT_ALL_AXES
  6
CONTINUOUS
 62
    7
 10
674.12168392975991
 20
1039.56981585322
 11
674.16777695466772
 21
1040.7825407147861
  0
LINE
  8
_0-2_02___PRT_ALL_AXES
  6
CONTINUOUS
 62
    7
 10
674.16777695466772
 20
1040.7825407147861
 11
674.26155676939379
 21
1041.9407365820321
  0
LINE
  8
_0-2_02___PRT_ALL_AXES
  6
CONTINUOUS
 62
    7
 10
674.26155676939379
 20
1041.9407365820321
 11
674.40679785102202
 21
1043.0657086701581
  0
LINE
  8
_0-2_02___PRT_ALL_AXES
  6
CONTINUOUS
 62
    7
 10
674.40679785102202
 20
1043.0657086701581
 11
674.60823334273982
 21
1044.1704678289361
  0
LINE
  8
_0-2_02___PRT_ALL_AXES
  6
CONTINUOUS
 62
    7
 10
674.60823334273982
 20
1044.1704678289361
 11
674.86954799994191
 21
1045.2600061497278
  0
LINE
  8
_0-2_02___PRT_ALL_AXES
  6
CONTINUOUS
 62
    7
 10
675.58591175059973
 20
1134.9944160290379
 11
674.97751163161274
 21
1135.8136979434298
  0
LINE
  8
_0-2_02___PRT_ALL_AXES
  6
CONTINUOUS
 62
    7
 10
674.97751163161274
 20
1135.8136979434298
 11
674.43991172535789
 21
1136.5923452964698
  0
LINE
  8
_0-2_02___PRT_ALL_AXES
  6
CONTINUOUS
 62
    7
 10
674.43991172535789
 20
1136.5923452964698
 11
673.96501206936773
 21
1137.3445250885261
  0
LINE
  8
_0-2_02___PRT_ALL_AXES
  6
CONTINUOUS
 62
    7
 10
673.96501206936773
 20
1137.3445250885261
 11
673.54998605893388
 21
1138.078703690524
  0
LINE
  8
_0-2_02___PRT_ALL_AXES
  6
CONTINUOUS
 62
    7
 10
673.54998605893388
 20
1138.078703690524
 11
673.19538073309286
 21
1138.7979869108322
  0
LINE
  8
_0-3_7_ALL_FEATURES
  6
CONTINUOUS
 62
    7
 10
678.29550544976473
 20
1140.8241349507298
 11
681.5975410722499
 21
1133.5679443008339
  0
LINE
  8
_0-2_02___PRT_ALL_AXES
  6
CONTINUOUS
 62
    7
 10
690.84721506079995
 20
1130.8158525944618
 11
690.75998197516992
 21
1131.057317979958
  0
LINE
  8
_0-2_02___PRT_ALL_AXES
  6
CONTINUOUS
 62
    7
 10
690.75998197516992
 20
1131.057317979958
 11
690.66288305455964
 21
1131.286218506661
  0
LINE
  8
_0-2_02___PRT_ALL_AXES
  6
CONTINUOUS
 62
    7
 10
690.66288305455964
 20
1131.286218506661
 11
690.55628872774378
 21
1131.5018236718438
  0
LINE
  8
_0-2_02___PRT_ALL_AXES
  6
CONTINUOUS
 62
    7
 10
690.55628872774378
 20
1131.5018236718438
 11
690.44060726136786
 21
1131.7034393948502
  0
LINE
  8
_0-2_02___PRT_ALL_AXES
  6
CONTINUOUS
 62
    7
 10
690.44060726136786
 20
1131.7034393948502
 11
690.3162827482688
 21
1131.890411958927
  0
LINE
  8
_0-2_02___PRT_ALL_AXES
  6
CONTINUOUS
 62
    7
 10
690.3162827482688
 20
1131.890411958927
 11
690.18379272470474
 21
1132.062131730549
  0
LINE
  8
_0-2_02___PRT_ALL_AXES
  6
CONTINUOUS
 62
    7
 10
690.18379272470474
 20
1132.062131730549
 11
690.04364535475997
 21
1132.2180367400501
  0
LINE
  8
_0-2_02___PRT_ALL_AXES
  6
CONTINUOUS
 62
    7
 10
690.04364535475997
 20
1132.2180367400501
 11
689.89637620098665
 21
1132.3576159734639
  0
LINE
  8
_0-2_02___PRT_ALL_AXES
  6
CONTINUOUS
 62
    7
 10
689.89637620098665
 20
1132.3576159734639
 11
689.74254474436384
 21
1132.480412156116
  0
LINE
  8
_0-2_02___PRT_ALL_AXES
  6
CONTINUOUS
 62
    7
 10
689.74254474436384
 20
1132.480412156116
 11
689.58273057351789
 21
1132.5860241056739
  0
LINE
  8
_0-2_02___PRT_ALL_AXES
  6
CONTINUOUS
 62
    7
 10
689.58273057351789
 20
1132.5860241056739
 11
689.41752952596789
 21
1132.674108425314
  0
LINE
  8
_0-2_02___PRT_ALL_AXES
  6
CONTINUOUS
 62
    7
 10
689.41752952596789
 20
1132.674108425314
 11
689.24754967923764
 21
1132.7443806749129
  0
LINE
  8
_0-2_02___PRT_ALL_AXES
  6
CONTINUOUS
 62
    7
 10
689.24754967923764
 20
1132.7443806749129
 11
689.06054876113876
 21
1132.7997178875821
  0
LINE
  8
_0-2_02___PRT_ALL_AXES
  6
CONTINUOUS
 62
    7
 10
663.78019507607587
 20
1133.138128559247
 11
663.48490588916002
 21
1131.876474425716
  0
LINE
  8
_0-2_02___PRT_ALL_AXES
  6
CONTINUOUS
 62
    7
 10
663.48490588916002
 20
1131.876474425716
 11
663.27661734358389
 21
1130.606610341878
  0
LINE
  8
_0-2_02___PRT_ALL_AXES
  6
CONTINUOUS
 62
    7
 10
663.27661734358389
 20
1130.606610341878
 11
663.15889332858796
 21
1129.3502640694601
  0
LINE
  8
_0-2_02___PRT_ALL_AXES
  6
CONTINUOUS
 62
    7
 10
663.15889332858796
 20
1129.3502640694601
 11
663.13374814545068
 21
1128.128931911926
  0
LINE
  8
_0-2_02___PRT_ALL_AXES
  6
CONTINUOUS
 62
    7
 10
663.13374814545068
 20
1128.128931911926
 11
663.20161205595195
 21
1126.9635113771378
  0
LINE
  8
_0-2_02___PRT_ALL_AXES
  6
CONTINUOUS
 62
    7
 10
663.20161205595195
 20
1126.9635113771378
 11
663.36132386352801
 21
1125.873943281958
  0
LINE
  8
_0-2_02___PRT_ALL_AXES
  6
CONTINUOUS
 62
    7
 10
663.36132386352801
 20
1125.873943281958
 11
663.61015084872679
 21
1124.878870298523
  0
LINE
  8
_0-2_02___PRT_ALL_AXES
  6
CONTINUOUS
 62
    7
 10
663.61015084872679
 20
1124.878870298523
 11
663.94383549657186
 21
1123.9953184176761
  0
LINE
  8
_0-2_02___PRT_ALL_AXES
  6
CONTINUOUS
 62
    7
 10
673.35902116197076
 20
1129.655177092347
 11
673.65431034964968
 21
1130.9168313409418
  0
LINE
  8
_0-2_02___PRT_ALL_AXES
  6
CONTINUOUS
 62
    7
 10
673.65431034964968
 20
1130.9168313409418
 11
673.86259886169682
 21
1132.1866953287681
  0
LINE
  8
_0-2_02___PRT_ALL_AXES
  6
CONTINUOUS
 62
    7
 10
673.86259886169682
 20
1132.1866953287681
 11
673.98032285535783
 21
1133.4430415028878
  0
LINE
  8
_0-2_02___PRT_ALL_AXES
  6
CONTINUOUS
 62
    7
 10
673.98032285535783
 20
1133.4430415028878
 11
674.00546803163479
 21
1134.6643735666962
  0
LINE
  8
_0-2_02___PRT_ALL_AXES
  6
CONTINUOUS
 62
    7
 10
674.00546803163479
 20
1134.6643735666962
 11
673.93760412723168
 21
1135.8297940146158
  0
LINE
  8
_0-2_02___PRT_ALL_AXES
  6
CONTINUOUS
 62
    7
 10
673.93760412723168
 20
1135.8297940146158
 11
673.77789234022885
 21
1136.919362035881
  0
LINE
  8
_0-2_02___PRT_ALL_AXES
  6
CONTINUOUS
 62
    7
 10
673.77789234022885
 20
1136.919362035881
 11
673.52906538855768
 21
1137.914434961403
  0
LINE
  8
_0-2_02___PRT_ALL_AXES
  6
CONTINUOUS
 62
    7
 10
673.52906538855768
 20
1137.914434961403
 11
673.19538073842705
 21
1138.797986929882
  0
LINE
  8
_0-2_02___PRT_ALL_AXES
  6
CONTINUOUS
 62
    7
 10
663.78019507607587
 20
1133.13812856001
 11
663.51884156601682
 21
1132.0484057940698
  0
LINE
  8
_0-2_02___PRT_ALL_AXES
  6
CONTINUOUS
 62
    7
 10
663.51884156601682
 20
1132.0484057940698
 11
663.31740020918596
 21
1130.94354273202
  0
LINE
  8
_0-2_02___PRT_ALL_AXES
  6
CONTINUOUS
 62
    7
 10
663.31740020918596
 20
1130.94354273202
 11
663.1721791788259
 21
1129.818622821082
  0
LINE
  8
_0-2_02___PRT_ALL_AXES
  6
CONTINUOUS
 62
    7
 10
663.1721791788259
 20
1129.818622821082
 11
663.0784267892418
 21
1128.6607108658918
  0
LINE
  8
_0-2_02___PRT_ALL_AXES
  6
CONTINUOUS
 62
    7
 10
663.0784267892418
 20
1128.6607108658918
 11
663.03233094417101
 21
1127.4479380600478
  0
LINE
  8
_0-2_02___PRT_ALL_AXES
  6
CONTINUOUS
 62
    7
 10
821.00940602342462
 20
1001.234631466084
 11
822.4169359754419
 21
1000.3127826455739
  0
LINE
  8
_0-2_02___PRT_ALL_AXES
  6
CONTINUOUS
 62
    7
 10
822.4169359754419
 20
1000.3127826455739
 11
823.73396126416992
 21
999.37040943736019
  0
LINE
  8
_0-2_02___PRT_ALL_AXES
  6
CONTINUOUS
 62
    7
 10
823.73396126416992
 20
999.37040943736019
 11
824.95872457892483
 21
998.40876925269413
  0
LINE
  8
_0-2_02___PRT_ALL_AXES
  6
CONTINUOUS
 62
    7
 10
824.95872457892483
 20
998.40876925269413
 11
826.08959171317292
 21
997.42914521194598
  0
LINE
  8
_0-2_02___PRT_ALL_AXES
  6
CONTINUOUS
 62
    7
 10
826.08959171317292
 20
997.42914521194598
 11
827.12505374765487
 21
996.43284443010407
  0
LINE
  8
_0-2_02___PRT_ALL_AXES
  6
CONTINUOUS
 62
    7
 10
827.12505374765487
 20
996.43284443010407
 11
828.06372906207162
 21
995.4211962748418
  0
LINE
  8
_0-2_02___PRT_ALL_AXES
  6
CONTINUOUS
 62
    7
 10
828.06372906207162
 20
995.4211962748418
 11
828.90436517911985
 21
994.39555059105896
  0
LINE
  8
_0-2_02___PRT_ALL_AXES
  6
CONTINUOUS
 62
    7
 10
828.90436517911985
 20
994.39555059105896
 11
829.64584043479999
 21
993.35727590103897
  0
LINE
  8
_0-2_02___PRT_ALL_AXES
  6
CONTINUOUS
 62
    7
 10
829.64584043479999
 20
993.35727590103897
 11
830.28716547650583
 21
992.30775757945594
  0
LINE
  8
_0-2_02___PRT_ALL_AXES
  6
CONTINUOUS
 62
    7
 10
830.28716547650583
 20
992.30775757945594
 11
830.82748458204696
 21
991.2483960009522
  0
LINE
  8
_0-2_02___PRT_ALL_AXES
  6
CONTINUOUS
 62
    7
 10
830.82748458204696
 20
991.2483960009522
 11
831.2660768026517
 21
990.18060467476607
  0
LINE
  8
_0-2_02___PRT_ALL_AXES
  6
CONTINUOUS
 62
    7
 10
831.2660768026517
 20
990.18060467476607
 11
831.60235692231663
 21
989.10580835878
  0
LINE
  8
_0-2_02___PRT_ALL_AXES
  6
CONTINUOUS
 62
    7
 10
831.60235692231663
 20
989.10580835878
 11
831.8358762411558
 21
988.025441157567
  0
LINE
  8
_0-2_02___PRT_ALL_AXES
  6
CONTINUOUS
 62
    7
 10
831.8358762411558
 20
988.025441157567
 11
831.96632317431704
 21
986.94094460825181
  0
LINE
  8
_0-2_02___PRT_ALL_AXES
  6
CONTINUOUS
 62
    7
 10
831.96632317431704
 20
986.94094460825181
 11
831.99457989149005
 21
986.31612865849502
  0
LINE
  8
_0-2_02___PRT_ALL_AXES
  6
CONTINUOUS
 62
    7
 10
665.2907220359657
 20
1048.742958018202
 11
664.99543284904985
 21
1047.481303883907
  0
LINE
  8
_0-2_02___PRT_ALL_AXES
  6
CONTINUOUS
 62
    7
 10
664.99543284904985
 20
1047.481303883907
 11
664.78714430347372
 21
1046.211439800069
  0
LINE
  8
_0-2_02___PRT_ALL_AXES
  6
CONTINUOUS
 62
    7
 10
664.78714430347372
 20
1046.211439800069
 11
664.6694202884778
 21
1044.955093527652
  0
LINE
  8
_0-2_02___PRT_ALL_AXES
  6
CONTINUOUS
 62
    7
 10
664.6694202884778
 20
1044.955093527652
 11
664.64427510457972
 21
1043.733761370117
  0
LINE
  8
_0-2_02___PRT_ALL_AXES
  6
CONTINUOUS
 62
    7
 10
664.64427510457972
 20
1043.733761370117
 11
664.71213901584179
 21
1042.5683408360919
  0
LINE
  8
_0-2_02___PRT_ALL_AXES
  6
CONTINUOUS
 62
    7
 10
664.71213901584179
 20
1042.5683408360919
 11
664.87185082265569
 21
1041.478772740149
  0
LINE
  8
_0-2_02___PRT_ALL_AXES
  6
CONTINUOUS
 62
    7
 10
664.87185082265569
 20
1041.478772740149
 11
665.12067780861798
 21
1040.483699757478
  0
LINE
  8
_0-2_02___PRT_ALL_AXES
  6
CONTINUOUS
 62
    7
 10
665.12067780861798
 20
1040.483699757478
 11
665.45436245646079
 21
1039.6001478758681
  0
LINE
  8
_0-2_02___PRT_ALL_AXES
  6
CONTINUOUS
 62
    7
 10
674.86954812186195
 20
1045.260006551302
 11
675.16483730953996
 21
1046.5216607991342
  0
LINE
  8
_0-2_02___PRT_ALL_AXES
  6
CONTINUOUS
 62
    7
 10
675.16483730953996
 20
1046.5216607991342
 11
675.37312582158802
 21
1047.7915247869601
  0
LINE
  8
_0-2_02___PRT_ALL_AXES
  6
CONTINUOUS
 62
    7
 10
675.37312582158802
 20
1047.7915247869601
 11
675.49084981524675
 21
1049.0478709610802
  0
LINE
  8
_0-2_02___PRT_ALL_AXES
  6
CONTINUOUS
 62
    7
 10
675.49084981524675
 20
1049.0478709610802
 11
675.51599499152599
 21
1050.2692030248882
  0
LINE
  8
_0-2_02___PRT_ALL_AXES
  6
CONTINUOUS
 62
    7
 10
675.51599499152599
 20
1050.2692030248882
 11
675.44813108712196
 21
1051.4346234728082
  0
LINE
  8
_0-2_02___PRT_ALL_AXES
  6
CONTINUOUS
 62
    7
 10
675.44813108712196
 20
1051.4346234728082
 11
675.28841930011868
 21
1052.524191494836
  0
LINE
  8
_0-2_02___PRT_ALL_AXES
  6
CONTINUOUS
 62
    7
 10
675.28841930011868
 20
1052.524191494836
 11
675.03959234844797
 21
1053.519264420358
  0
LINE
  8
_0-2_02___PRT_ALL_AXES
  6
CONTINUOUS
 62
    7
 10
675.03959234844797
 20
1053.519264420358
 11
674.70590769831779
 21
1054.4028163880739
  0
LINE
  8
_0-2_02___PRT_ALL_AXES
  6
CONTINUOUS
 62
    7
 10
665.2907220359657
 20
1048.7429580189641
 11
665.02936852590801
 21
1047.6532352522622
  0
LINE
  8
_0-2_02___PRT_ALL_AXES
  6
CONTINUOUS
 62
    7
 10
665.02936852590801
 20
1047.6532352522622
 11
664.82792716831273
 21
1046.548372190211
  0
LINE
  8
_0-2_02___PRT_ALL_AXES
  6
CONTINUOUS
 62
    7
 10
664.82792716831273
 20
1046.548372190211
 11
664.68270613871573
 21
1045.423452279274
  0
LINE
  8
_0-2_02___PRT_ALL_AXES
  6
CONTINUOUS
 62
    7
 10
664.68270613871573
 20
1045.423452279274
 11
664.58895374913072
 21
1044.2655403240842
  0
LINE
  8
_0-2_02___PRT_ALL_AXES
  6
CONTINUOUS
 62
    7
 10
664.58895374913072
 20
1044.2655403240842
 11
664.54285790406175
 21
1043.0527675182402
  0
LINE
  8
_0-3_7_ALL_FEATURES
  6
CONTINUOUS
 62
    7
 10
681.5975410722499
 20
1133.5679443008339
 11
678.62278629075672
 21
1122.5385146668241
  0
LINE
  8
_0-3_7_ALL_FEATURES
  6
CONTINUOUS
 62
    7
 10
683.10806803213882
 20
1049.172773759788
 11
680.13331325064792
 21
1038.143344125016
  0
LINE
  8
_0-2_02___PRT_ALL_AXES
  6
CONTINUOUS
 62
    7
 10
673.35902104081288
 20
1129.6551766907742
 11
673.68157083106962
 21
1130.73037869175
  0
LINE
  8
_0-2_02___PRT_ALL_AXES
  6
CONTINUOUS
 62
    7
 10
673.68157083106962
 20
1130.73037869175
 11
674.06450116909264
 21
1131.7921770723401
  0
LINE
  8
_0-2_02___PRT_ALL_AXES
  6
CONTINUOUS
 62
    7
 10
674.06450116909264
 20
1131.7921770723401
 11
674.50705697994181
 21
1132.846543787326
  0
LINE
  8
_0-2_02___PRT_ALL_AXES
  6
CONTINUOUS
 62
    7
 10
674.50705697994181
 20
1132.846543787326
 11
675.01161602593993
 21
1133.906977330666
  0
LINE
  8
_0-2_02___PRT_ALL_AXES
  6
CONTINUOUS
 62
    7
 10
675.01161602593993
 20
1133.906977330666
 11
675.58591175059973
 21
1134.9944160290379
  0
LINE
  8
_0-2_02___PRT_ALL_AXES
  6
CONTINUOUS
 62
    7
 10
674.86954799994191
 20
1045.2600061497278
 11
675.19209779095991
 21
1046.335208149942
  0
LINE
  8
_0-2_02___PRT_ALL_AXES
  6
CONTINUOUS
 62
    7
 10
675.19209779095991
 20
1046.335208149942
 11
675.57502812822167
 21
1047.3970065312942
  0
LINE
  8
_0-2_02___PRT_ALL_AXES
  6
CONTINUOUS
 62
    7
 10
675.57502812822167
 20
1047.3970065312942
 11
676.01758393983164
 21
1048.4513732462801
  0
LINE
  8
_0-2_02___PRT_ALL_AXES
  6
CONTINUOUS
 62
    7
 10
676.01758393983164
 20
1048.4513732462801
 11
676.52214298506669
 21
1049.5118067896201
  0
LINE
  8
_0-2_02___PRT_ALL_AXES
  6
CONTINUOUS
 62
    7
 10
676.52214298506669
 20
1049.5118067896201
 11
677.09643871049002
 21
1050.5992454872298
  0
LINE
  8
_0-2_02___PRT_ALL_AXES
  6
CONTINUOUS
 62
    7
 10
687.75625073245374
 20
1036.541932681414
 11
687.90530791846277
 21
1036.5147433326938
  0
LINE
  8
_0-2_02___PRT_ALL_AXES
  6
CONTINUOUS
 62
    7
 10
687.90530791846277
 20
1036.5147433326938
 11
688.07050369678382
 21
1036.5026752498961
  0
LINE
  8
_0-2_02___PRT_ALL_AXES
  6
CONTINUOUS
 62
    7
 10
688.07050369678382
 20
1036.5026752498961
 11
688.23984149602984
 21
1036.5085268551602
  0
LINE
  8
_0-2_02___PRT_ALL_AXES
  6
CONTINUOUS
 62
    7
 10
688.23984149602984
 20
1036.5085268551602
 11
688.41286816699403
 21
1036.5322506842681
  0
LINE
  8
_0-2_02___PRT_ALL_AXES
  6
CONTINUOUS
 62
    7
 10
688.41286816699403
 20
1036.5322506842681
 11
688.58911350538392
 21
1036.573749128067
  0
LINE
  8
_0-2_02___PRT_ALL_AXES
  6
CONTINUOUS
 62
    7
 10
688.58911350538392
 20
1036.573749128067
 11
688.76809094829196
 21
1036.6328760174342
  0
LINE
  8
_0-2_02___PRT_ALL_AXES
  6
CONTINUOUS
 62
    7
 10
688.76809094829196
 20
1036.6328760174342
 11
688.94929819750996
 21
1036.7094380817339
  0
LINE
  8
_0-2_02___PRT_ALL_AXES
  6
CONTINUOUS
 62
    7
 10
688.94929819750996
 20
1036.7094380817339
 11
689.13221783674862
 21
1036.8031962000341
  0
LINE
  8
_0-2_02___PRT_ALL_AXES
  6
CONTINUOUS
 62
    7
 10
689.13221783674862
 20
1036.8031962000341
 11
689.31631793438601
 21
1036.913866403127
  0
LINE
  8
_0-2_02___PRT_ALL_AXES
  6
CONTINUOUS
 62
    7
 10
689.31631793438601
 20
1036.913866403127
 11
689.50105271553684
 21
1037.0411206012482
  0
LINE
  8
_0-2_02___PRT_ALL_AXES
  6
CONTINUOUS
 62
    7
 10
689.50105271553684
 20
1037.0411206012482
 11
689.68586332559471
 21
1037.184587049645
  0
LINE
  8
_0-2_02___PRT_ALL_AXES
  6
CONTINUOUS
 62
    7
 10
689.68586332559471
 20
1037.184587049645
 11
689.8701787827199
 21
1037.3438505863378
  0
LINE
  8
_0-2_02___PRT_ALL_AXES
  6
CONTINUOUS
 62
    7
 10
689.8701787827199
 20
1037.3438505863378
 11
690.05341713150801
 21
1037.518452693826
  0
LINE
  8
_0-2_02___PRT_ALL_AXES
  6
CONTINUOUS
 62
    7
 10
690.05341713150801
 20
1037.518452693826
 11
690.23498689993994
 21
1037.7078914884301
  0
LINE
  8
_0-2_02___PRT_ALL_AXES
  6
CONTINUOUS
 62
    7
 10
673.85652284743401
 20
1034.3701051409021
 11
667.844893526546
 21
1035.796576869106
  0
LINE
  8
_0-2_02___PRT_ALL_AXES
  6
CONTINUOUS
 62
    7
 10
680.13331325064792
 20
1038.143344125016
 11
674.12168392975991
 21
1039.56981585322
  0
LINE
  8
_0-2_02___PRT_ALL_AXES
  6
CONTINUOUS
 62
    7
 10
680.18588668017082
 20
1038.338269417156
 11
687.75625074388381
 21
1036.5419327294198
  0
LINE
  8
_0-0_0
  6
CONTINUOUS
 62
    2
 10
689.64318309904274
 20
1037.1514548591158
 11
680.45389015051387
 21
1039.3319396972738
  0
LINE
  8
_0-0_0
  6
CONTINUOUS
 62
    2
 10
692.13082801731662
 20
1046.97717729958
 11
683.09422063514603
 21
1049.121432085738
  0
LINE
  8
_0-2_02___PRT_ALL_AXES
  6
CONTINUOUS
 62
    7
 10
683.10806803213882
 20
1049.172773759788
 11
677.09643871049002
 21
1050.5992454872298
  0
LINE
  8
_0-2_02___PRT_ALL_AXES
  6
CONTINUOUS
 62
    7
 10
682.59657241860668
 20
1050.2967803146662
 11
690.57107570959988
 21
1048.4045472977682
  0
LINE
  8
_0-2_02___PRT_ALL_AXES
  6
CONTINUOUS
 62
    7
 10
823.07939958142379
 20
1035.9416500051721
 11
822.92787014737269
 21
1036.062942183466
  0
LINE
  8
_0-2_02___PRT_ALL_AXES
  6
CONTINUOUS
 62
    7
 10
822.92787014737269
 20
1036.062942183466
 11
822.77515859605273
 21
1036.2006787332398
  0
LINE
  8
_0-2_02___PRT_ALL_AXES
  6
CONTINUOUS
 62
    7
 10
822.77515859605273
 20
1036.2006787332398
 11
822.62181379682579
 21
1036.354387038471
  0
LINE
  8
_0-2_02___PRT_ALL_AXES
  6
CONTINUOUS
 62
    7
 10
822.62181379682579
 20
1036.354387038471
 11
822.46822091173362
 21
1036.523724950493
  0
LINE
  8
_0-2_02___PRT_ALL_AXES
  6
CONTINUOUS
 62
    7
 10
822.46822091173362
 20
1036.523724950493
 11
822.31500391438385
 21
1036.7080644311918
  0
LINE
  8
_0-2_02___PRT_ALL_AXES
  6
CONTINUOUS
 62
    7
 10
822.31500391438385
 20
1036.7080644311918
 11
822.16253080429306
 21
1036.9070463354878
  0
LINE
  8
_0-2_02___PRT_ALL_AXES
  6
CONTINUOUS
 62
    7
 10
822.16253080429306
 20
1036.9070463354878
 11
822.01147043153605
 21
1037.1199022991582
  0
LINE
  8
_0-2_02___PRT_ALL_AXES
  6
CONTINUOUS
 62
    7
 10
822.01147043153605
 20
1037.1199022991582
 11
821.86220766325869
 21
1037.3462166184358
  0
LINE
  8
_0-2_02___PRT_ALL_AXES
  6
CONTINUOUS
 62
    7
 10
821.86220766325869
 20
1037.3462166184358
 11
821.71540682859177
 21
1037.5851333051942
  0
LINE
  8
_0-2_02___PRT_ALL_AXES
  6
CONTINUOUS
 62
    7
 10
821.71540682859177
 20
1037.5851333051942
 11
821.57149847886785
 21
1037.8361220897282
  0
LINE
  8
_0-2_02___PRT_ALL_AXES
  6
CONTINUOUS
 62
    7
 10
821.57149847886785
 20
1037.8361220897282
 11
821.43109524227566
 21
1038.098312341318
  0
LINE
  8
_0-2_02___PRT_ALL_AXES
  6
CONTINUOUS
 62
    7
 10
821.43109524227566
 20
1038.098312341318
 11
821.29469519706663
 21
1038.3709861927182
  0
LINE
  8
_0-2_02___PRT_ALL_AXES
  6
CONTINUOUS
 62
    7
 10
821.29469519706663
 20
1038.3709861927182
 11
821.16282126345777
 21
1038.6533387539962
  0
LINE
  8
_0-2_02___PRT_ALL_AXES
  6
CONTINUOUS
 62
    7
 10
838.17957254637167
 20
1043.7091558277621
 11
838.935894326587
 21
1042.8698987234502
  0
LINE
  8
_0-2_02___PRT_ALL_AXES
  6
CONTINUOUS
 62
    7
 10
838.935894326587
 20
1042.8698987234502
 11
839.61281052596496
 21
1042.0492755084638
  0
LINE
  8
_0-2_02___PRT_ALL_AXES
  6
CONTINUOUS
 62
    7
 10
839.61281052596496
 20
1042.0492755084638
 11
840.22090336845076
 21
1041.2314039204362
  0
LINE
  8
_0-2_02___PRT_ALL_AXES
  6
CONTINUOUS
 62
    7
 10
840.22090336845076
 20
1041.2314039204362
 11
840.76441998829887
 21
1040.4056526984341
  0
LINE
  8
_0-2_02___PRT_ALL_AXES
  6
CONTINUOUS
 62
    7
 10
840.76441998829887
 20
1040.4056526984341
 11
841.24328497798979
 21
1039.567225439554
  0
LINE
  8
_0-2_02___PRT_ALL_AXES
  6
CONTINUOUS
 62
    7
 10
844.88053499379794
 20
1052.987973086194
 11
844.32214798509676
 21
1053.7855190801261
  0
LINE
  8
_0-2_02___PRT_ALL_AXES
  6
CONTINUOUS
 62
    7
 10
844.32214798509676
 20
1053.7855190801261
 11
843.7467477353407
 21
1054.446729788182
  0
LINE
  8
_0-2_02___PRT_ALL_AXES
  6
CONTINUOUS
 62
    7
 10
843.7467477353407
 20
1054.446729788182
 11
843.16417943616761
 21
1054.9602917506422
  0
LINE
  8
_0-2_02___PRT_ALL_AXES
  6
CONTINUOUS
 62
    7
 10
843.16417943616761
 20
1054.9602917506422
 11
842.5844110701787
 21
1055.317417680279
  0
LINE
  8
_0-2_02___PRT_ALL_AXES
  6
CONTINUOUS
 62
    7
 10
842.5844110701787
 20
1055.317417680279
 11
842.01736271151685
 21
1055.511997037373
  0
LINE
  8
_0-2_02___PRT_ALL_AXES
  6
CONTINUOUS
 62
    7
 10
842.01736271151685
 20
1055.511997037373
 11
841.47273664862496
 21
1055.5407005761058
  0
LINE
  8
_0-2_02___PRT_ALL_AXES
  6
CONTINUOUS
 62
    7
 10
841.47273664862496
 20
1055.5407005761058
 11
840.95985152199682
 21
1055.4030371707122
  0
LINE
  8
_0-2_02___PRT_ALL_AXES
  6
CONTINUOUS
 62
    7
 10
841.24328497798979
 20
1039.567225438791
 11
841.77510460903977
 21
1038.6469903254938
  0
LINE
  8
_0-2_02___PRT_ALL_AXES
  6
CONTINUOUS
 62
    7
 10
841.77510460903977
 20
1038.6469903254938
 11
842.33349165507798
 21
1037.849444244694
  0
LINE
  8
_0-2_02___PRT_ALL_AXES
  6
CONTINUOUS
 62
    7
 10
842.33349165507798
 20
1037.849444244694
 11
842.90889194674264
 21
1037.1882334680581
  0
LINE
  8
_0-2_02___PRT_ALL_AXES
  6
CONTINUOUS
 62
    7
 10
842.90889194674264
 20
1037.1882334680581
 11
843.49146028935183
 21
1036.674671457592
  0
LINE
  8
_0-2_02___PRT_ALL_AXES
  6
CONTINUOUS
 62
    7
 10
843.49146028935183
 20
1036.674671457592
 11
844.07122869877367
 21
1036.317545504332
  0
LINE
  8
_0-2_02___PRT_ALL_AXES
  6
CONTINUOUS
 62
    7
 10
844.07122869877367
 20
1036.317545504332
 11
844.63827709858379
 21
1036.122966147238
  0
LINE
  8
_0-2_02___PRT_ALL_AXES
  6
CONTINUOUS
 62
    7
 10
844.63827709858379
 20
1036.122966147238
 11
845.18290319805192
 21
1036.094262634414
  0
LINE
  8
_0-2_02___PRT_ALL_AXES
  6
CONTINUOUS
 62
    7
 10
845.18290319805192
 20
1036.094262634414
 11
845.69578828276872
 21
1036.231926070287
  0
LINE
  8
_0-3_7_ALL_FEATURES
  6
CONTINUOUS
 62
    7
 10
836.30270551398189
 20
1033.7537667474699
 11
831.75572436894663
 21
1042.3676700128981
  0
LINE
  8
_0-2_02___PRT_ALL_AXES
  6
CONTINUOUS
 62
    7
 10
821.16282126345777
 20
1038.6533387539962
 11
821.03603391911565
 21
1038.9444207575561
  0
LINE
  8
_0-2_02___PRT_ALL_AXES
  6
CONTINUOUS
 62
    7
 10
821.03603391911565
 20
1038.9444207575561
 11
820.91476155891678
 21
1039.2435243381642
  0
LINE
  8
_0-2_02___PRT_ALL_AXES
  6
CONTINUOUS
 62
    7
 10
820.91476155891678
 20
1039.2435243381642
 11
820.79958219720174
 21
1039.5495090828099
  0
LINE
  8
_0-2_02___PRT_ALL_AXES
  6
CONTINUOUS
 62
    7
 10
820.79958219720174
 20
1039.5495090828099
 11
820.69085545300868
 21
1039.8617228170301
  0
LINE
  8
_0-2_02___PRT_ALL_AXES
  6
CONTINUOUS
 62
    7
 10
820.69085545300868
 20
1039.8617228170301
 11
820.58912560846284
 21
1040.1789146759138
  0
LINE
  8
_0-2_02___PRT_ALL_AXES
  6
CONTINUOUS
 62
    7
 10
820.58912560846284
 20
1040.1789146759138
 11
820.49470505841782
 21
1040.5004321321921
  0
LINE
  8
_0-2_02___PRT_ALL_AXES
  6
CONTINUOUS
 62
    7
 10
820.49470505841782
 20
1040.5004321321921
 11
820.40806287635496
 21
1040.825008453065
  0
LINE
  8
_0-2_02___PRT_ALL_AXES
  6
CONTINUOUS
 62
    7
 10
820.40806287635496
 20
1040.825008453065
 11
820.32947896468977
 21
1041.1519244850342
  0
LINE
  8
_0-2_02___PRT_ALL_AXES
  6
CONTINUOUS
 62
    7
 10
820.32947896468977
 20
1041.1519244850342
 11
820.25931927087186
 21
1041.4799983478079
  0
LINE
  8
_0-2_02___PRT_ALL_AXES
  6
CONTINUOUS
 62
    7
 10
820.25931927087186
 20
1041.4799983478079
 11
820.19783716980783
 21
1041.8083706181642
  0
LINE
  8
_0-2_02___PRT_ALL_AXES
  6
CONTINUOUS
 62
    7
 10
820.19783716980783
 20
1041.8083706181642
 11
820.14528446135
 21
1042.1360369549561
  0
LINE
  8
_0-2_02___PRT_ALL_AXES
  6
CONTINUOUS
 62
    7
 10
820.14528446135
 20
1042.1360369549561
 11
820.10187907292584
 21
1042.4619472917038
  0
LINE
  8
_0-2_02___PRT_ALL_AXES
  6
CONTINUOUS
 62
    7
 10
820.10187907292584
 20
1042.4619472917038
 11
820.06777005783078
 21
1042.7853048225338
  0
LINE
  8
_0-2_02___PRT_ALL_AXES
  6
CONTINUOUS
 62
    7
 10
820.06777005783078
 20
1042.7853048225338
 11
820.04311252573871
 21
1043.1049201584101
  0
LINE
  8
_0-2_02___PRT_ALL_AXES
  6
CONTINUOUS
 62
    7
 10
820.04311252573871
 20
1043.1049201584101
 11
820.02797888569967
 21
1043.4201314444199
  0
LINE
  8
_0-2_02___PRT_ALL_AXES
  6
CONTINUOUS
 62
    7
 10
820.02797888569967
 20
1043.4201314444199
 11
820.02243828768769
 21
1043.729702684559
  0
LINE
  8
_0-2_02___PRT_ALL_AXES
  6
CONTINUOUS
 62
    7
 10
820.02243828768769
 20
1043.729702684559
 11
820.02650159706081
 21
1044.033022844746
  0
LINE
  8
_0-2_02___PRT_ALL_AXES
  6
CONTINUOUS
 62
    7
 10
666.00708572490066
 20
1138.4773676940581
 11
665.43281179725182
 21
1137.389972373297
  0
LINE
  8
_0-2_02___PRT_ALL_AXES
  6
CONTINUOUS
 62
    7
 10
665.43281179725182
 20
1137.389972373297
 11
664.92813291913399
 21
1136.3292767850162
  0
LINE
  8
_0-2_02___PRT_ALL_AXES
  6
CONTINUOUS
 62
    7
 10
664.92813291913399
 20
1136.3292767850162
 11
664.48556827975381
 21
1135.274855169454
  0
LINE
  8
_0-2_02___PRT_ALL_AXES
  6
CONTINUOUS
 62
    7
 10
664.48556827975381
 20
1135.274855169454
 11
664.10268544938071
 21
1134.2131507495601
  0
LINE
  8
_0-2_02___PRT_ALL_AXES
  6
CONTINUOUS
 62
    7
 10
664.10268544938071
 20
1134.2131507495601
 11
663.78019507607587
 21
1133.13812856001
  0
LINE
  8
_0-2_02___PRT_ALL_AXES
  6
CONTINUOUS
 62
    7
 10
679.80603240965593
 20
1056.428964409683
 11
673.79440308800486
 21
1057.8554361371262
  0
LINE
  8
_0-2_02___PRT_ALL_AXES
  6
CONTINUOUS
 62
    7
 10
821.56887262229475
 20
1120.3368205469801
 11
821.41734318824592
 21
1120.4581127252741
  0
LINE
  8
_0-2_02___PRT_ALL_AXES
  6
CONTINUOUS
 62
    7
 10
821.41734318824592
 20
1120.4581127252741
 11
821.26463163616381
 21
1120.5958492750478
  0
LINE
  8
_0-2_02___PRT_ALL_AXES
  6
CONTINUOUS
 62
    7
 10
821.26463163616381
 20
1120.5958492750478
 11
821.11128683769766
 21
1120.74955758028
  0
LINE
  8
_0-2_02___PRT_ALL_AXES
  6
CONTINUOUS
 62
    7
 10
821.11128683769766
 20
1120.74955758028
 11
820.95769395184379
 21
1120.918895492302
  0
LINE
  8
_0-2_02___PRT_ALL_AXES
  6
CONTINUOUS
 62
    7
 10
820.95769395184379
 20
1120.918895492302
 11
820.80447695449266
 21
1121.103234972999
  0
LINE
  8
_0-2_02___PRT_ALL_AXES
  6
CONTINUOUS
 62
    7
 10
820.80447695449266
 20
1121.103234972999
 11
820.65200384440277
 21
1121.3022168772959
  0
LINE
  8
_0-2_02___PRT_ALL_AXES
  6
CONTINUOUS
 62
    7
 10
820.65200384440277
 20
1121.3022168772959
 11
820.50094347164577
 21
1121.5150728409658
  0
LINE
  8
_0-2_02___PRT_ALL_AXES
  6
CONTINUOUS
 62
    7
 10
820.50094347164577
 20
1121.5150728409658
 11
820.35168070336886
 21
1121.7413871594822
  0
LINE
  8
_0-2_02___PRT_ALL_AXES
  6
CONTINUOUS
 62
    7
 10
820.35168070336886
 20
1121.7413871594822
 11
820.20487986946273
 21
1121.9803038462401
  0
LINE
  8
_0-2_02___PRT_ALL_AXES
  6
CONTINUOUS
 62
    7
 10
820.20487986946273
 20
1121.9803038462401
 11
820.06097151897802
 21
1122.2312926315358
  0
LINE
  8
_0-2_02___PRT_ALL_AXES
  6
CONTINUOUS
 62
    7
 10
845.13653352370966
 20
1052.566035920926
 11
844.88053499379794
 21
1052.987973086194
  0
LINE
  8
_0-2_02___PRT_ALL_AXES
  6
CONTINUOUS
 62
    7
 10
845.12860053373288
 20
1052.5795422284318
 11
844.93340376004289
 21
1052.9063049040901
  0
LINE
  8
_0-2_02___PRT_ALL_AXES
  6
CONTINUOUS
 62
    7
 10
844.93340376004289
 20
1052.9063049040901
 11
844.38982410603194
 21
1053.7321287218319
  0
LINE
  8
_0-2_02___PRT_ALL_AXES
  6
CONTINUOUS
 62
    7
 10
844.38982410603194
 20
1053.7321287218319
 11
843.78174734326967
 21
1054.5499572195222
  0
LINE
  8
_0-2_02___PRT_ALL_AXES
  6
CONTINUOUS
 62
    7
 10
843.78174734326967
 20
1054.5499572195222
 11
843.10499306050997
 21
1055.3703775268618
  0
LINE
  8
_0-2_02___PRT_ALL_AXES
  6
CONTINUOUS
 62
    7
 10
843.10499306050997
 20
1055.3703775268618
 11
842.34864232810287
 21
1056.2096681492681
  0
LINE
  8
_0-2_02___PRT_ALL_AXES
  6
CONTINUOUS
 62
    7
 10
845.12871145350164
 20
1052.579569572802
 11
845.13654509696562
 21
1052.566079080605
  0
LINE
  8
_0-2_02___PRT_ALL_AXES
  6
CONTINUOUS
 62
    7
 10
845.41235467971183
 20
1052.0677379264139
 11
845.13653352370966
 21
1052.566035920926
  0
LINE
  8
_0-2_02___PRT_ALL_AXES
  6
CONTINUOUS
 62
    7
 10
820.06097151897802
 20
1122.2312926315358
 11
819.92056828238583
 21
1122.493482883126
  0
LINE
  8
_0-2_02___PRT_ALL_AXES
  6
CONTINUOUS
 62
    7
 10
819.92056828238583
 20
1122.493482883126
 11
819.7841682371768
 21
1122.7661567345258
  0
LINE
  8
_0-2_02___PRT_ALL_AXES
  6
CONTINUOUS
 62
    7
 10
819.7841682371768
 20
1122.7661567345258
 11
819.65229430356703
 21
1123.0485092958038
  0
LINE
  8
_0-3_7_ALL_FEATURES
  6
CONTINUOUS
 62
    7
 10
834.7921785540907
 20
1118.148937289277
 11
830.2451974090568
 21
1126.762840553944
  0
LINE
  8
_0-2_02___PRT_ALL_AXES
  6
CONTINUOUS
 62
    7
 10
841.24328497798979
 20
1039.567225439554
 11
841.65684351891787
 21
1038.715002452614
  0
LINE
  8
_0-2_02___PRT_ALL_AXES
  6
CONTINUOUS
 62
    7
 10
841.65684351891787
 20
1038.715002452614
 11
842.00648944929071
 21
1037.8486796493221
  0
LINE
  8
_0-2_02___PRT_ALL_AXES
  6
CONTINUOUS
 62
    7
 10
842.00648944929071
 20
1037.8486796493221
 11
842.29684311496294
 21
1036.96450135342
  0
LINE
  8
_0-2_02___PRT_ALL_AXES
  6
CONTINUOUS
 62
    7
 10
842.29684311496294
 20
1036.96450135342
 11
842.53462163127688
 21
1036.052410173796
  0
LINE
  8
_0-2_02___PRT_ALL_AXES
  6
CONTINUOUS
 62
    7
 10
842.53462163127688
 20
1036.052410173796
 11
842.72655369140602
 21
1035.095252563096
  0
LINE
  8
_0-2_02___PRT_ALL_AXES
  6
CONTINUOUS
 62
    7
 10
819.65229430356703
 20
1123.0485092958038
 11
819.52550695922582
 21
1123.3395912993642
  0
LINE
  8
_0-2_02___PRT_ALL_AXES
  6
CONTINUOUS
 62
    7
 10
819.52550695922582
 20
1123.3395912993642
 11
819.40423459902786
 21
1123.6386948799718
  0
LINE
  8
_0-2_02___PRT_ALL_AXES
  6
CONTINUOUS
 62
    7
 10
819.40423459902786
 20
1123.6386948799718
 11
819.28905523731191
 21
1123.9446796238558
  0
LINE
  8
_0-2_02___PRT_ALL_AXES
  6
CONTINUOUS
 62
    7
 10
819.28905523731191
 20
1123.9446796238558
 11
819.18032849311885
 21
1124.2568933588382
  0
LINE
  8
_0-2_02___PRT_ALL_AXES
  6
CONTINUOUS
 62
    7
 10
819.18032849311885
 20
1124.2568933588382
 11
819.07859864857392
 21
1124.5740852177209
  0
LINE
  8
_0-2_02___PRT_ALL_AXES
  6
CONTINUOUS
 62
    7
 10
819.07859864857392
 20
1124.5740852177209
 11
818.98417809852663
 21
1124.895602673238
  0
LINE
  8
_0-2_02___PRT_ALL_AXES
  6
CONTINUOUS
 62
    7
 10
818.98417809852663
 20
1124.895602673238
 11
818.89753591646468
 21
1125.220178994874
  0
LINE
  8
_0-2_02___PRT_ALL_AXES
  6
CONTINUOUS
 62
    7
 10
818.89753591646468
 20
1125.220178994874
 11
818.81895200556073
 21
1125.5470950260801
  0
LINE
  8
_0-2_02___PRT_ALL_AXES
  6
CONTINUOUS
 62
    7
 10
818.81895200556073
 20
1125.5470950260801
 11
818.74879231098066
 21
1125.8751688888542
  0
LINE
  8
_0-2_02___PRT_ALL_AXES
  6
CONTINUOUS
 62
    7
 10
818.74879231098066
 20
1125.8751688888542
 11
818.68731020991663
 21
1126.2035411599718
  0
LINE
  8
_0-2_02___PRT_ALL_AXES
  6
CONTINUOUS
 62
    7
 10
818.68731020991663
 20
1126.2035411599718
 11
818.63475750145972
 21
1126.5312074967642
  0
LINE
  8
_0-2_02___PRT_ALL_AXES
  6
CONTINUOUS
 62
    7
 10
818.63475750145972
 20
1126.5312074967642
 11
818.59135211303601
 21
1126.857117833511
  0
LINE
  8
_0-2_02___PRT_ALL_AXES
  6
CONTINUOUS
 62
    7
 10
818.59135211303601
 20
1126.857117833511
 11
818.55724309794095
 21
1127.180475364341
  0
LINE
  8
_0-2_02___PRT_ALL_AXES
  6
CONTINUOUS
 62
    7
 10
818.55724309794095
 20
1127.180475364341
 11
818.53258556584888
 21
1127.5000907002182
  0
LINE
  8
_0-2_02___PRT_ALL_AXES
  6
CONTINUOUS
 62
    7
 10
818.53258556584888
 20
1127.5000907002182
 11
818.51745192657199
 21
1127.815301986227
  0
LINE
  8
_0-2_02___PRT_ALL_AXES
  6
CONTINUOUS
 62
    7
 10
818.51745192657199
 20
1127.815301986227
 11
818.51191132779695
 21
1128.124873226368
  0
LINE
  8
_0-2_02___PRT_ALL_AXES
  6
CONTINUOUS
 62
    7
 10
818.51191132779695
 20
1128.124873226368
 11
818.51597463717098
 21
1128.4281933865541
  0
LINE
  8
_0-2_02___PRT_ALL_AXES
  6
CONTINUOUS
 62
    7
 10
837.99061686433879
 20
1054.2663636208481
 11
838.29251882670087
 21
1053.2244744028781
  0
LINE
  8
_0-2_02___PRT_ALL_AXES
  6
CONTINUOUS
 62
    7
 10
838.29251882670087
 20
1053.2244744028781
 11
838.53106304557286
 21
1052.2083750261399
  0
LINE
  8
_0-2_02___PRT_ALL_AXES
  6
CONTINUOUS
 62
    7
 10
838.53106304557286
 20
1052.2083750261399
 11
838.70858722570301
 21
1051.1985068845902
  0
LINE
  8
_0-2_02___PRT_ALL_AXES
  6
CONTINUOUS
 62
    7
 10
838.70858722570301
 20
1051.1985068845902
 11
838.82408970894676
 21
1050.1818982076261
  0
LINE
  8
_0-2_02___PRT_ALL_AXES
  6
CONTINUOUS
 62
    7
 10
838.82408970894676
 20
1050.1818982076261
 11
838.87531656712281
 21
1049.1527811558822
  0
LINE
  8
_0-0_0
  6
CONTINUOUS
 62
    7
 10
831.70191858425596
 20
1045.3497151341389
 11
831.68911751003589
 21
1045.5521389505261
  0
LINE
  8
_0-0_0
  6
CONTINUOUS
 62
    7
 10
831.68911751003589
 20
1045.5521389505261
 11
831.67886886759197
 21
1045.7725491825522
  0
LINE
  8
_0-0_0
  6
CONTINUOUS
 62
    7
 10
831.67886886759197
 20
1045.7725491825522
 11
831.67264978706589
 21
1045.9902810257249
  0
LINE
  8
_0-0_0
  6
CONTINUOUS
 62
    7
 10
831.67264978706589
 20
1045.9902810257249
 11
831.67046943531795
 21
1046.205013506597
  0
LINE
  8
_0-0_0
  6
CONTINUOUS
 62
    7
 10
831.67046943531795
 20
1046.205013506597
 11
831.67233102722594
 21
1046.4164300736038
  0
LINE
  8
_0-0_0
  6
CONTINUOUS
 62
    7
 10
831.67233102722594
 20
1046.4164300736038
 11
831.67883286994993
 21
1046.6395450368218
  0
LINE
  8
_0-0_0
  6
CONTINUOUS
 62
    7
 10
830.19139162436568
 20
1129.7448856751862
 11
830.17859055014605
 21
1129.947309491572
  0
LINE
  8
_0-0_0
  6
CONTINUOUS
 62
    7
 10
830.17859055014605
 20
1129.947309491572
 11
830.16834190770169
 21
1130.1677197243598
  0
LINE
  8
_0-0_0
  6
CONTINUOUS
 62
    7
 10
830.16834190770169
 20
1130.1677197243598
 11
830.1621228271747
 21
1130.385451567533
  0
LINE
  8
_0-0_0
  6
CONTINUOUS
 62
    7
 10
830.1621228271747
 20
1130.385451567533
 11
830.15994247542767
 21
1130.6001840484059
  0
LINE
  8
_0-0_0
  6
CONTINUOUS
 62
    7
 10
830.15994247542767
 20
1130.6001840484059
 11
830.16180406733565
 21
1130.8116006154119
  0
LINE
  8
_0-0_0
  6
CONTINUOUS
 62
    7
 10
830.16180406733565
 20
1130.8116006154119
 11
830.1683059108218
 21
1131.0347155786289
  0
LINE
  8
_0-2_02___PRT_ALL_AXES
  6
CONTINUOUS
 62
    7
 10
818.51597463717098
 20
1128.4281933865541
 11
818.52961650219095
 21
1128.724071783874
  0
LINE
  8
_0-2_02___PRT_ALL_AXES
  6
CONTINUOUS
 62
    7
 10
818.52961650219095
 20
1128.724071783874
 11
818.552786838884
 21
1129.0118705123141
  0
LINE
  8
_0-2_02___PRT_ALL_AXES
  6
CONTINUOUS
 62
    7
 10
818.552786838884
 20
1129.0118705123141
 11
818.58537278666472
 21
1129.2905274025479
  0
LINE
  8
_0-2_02___PRT_ALL_AXES
  6
CONTINUOUS
 62
    7
 10
818.58537278666472
 20
1129.2905274025479
 11
818.62724928838361
 21
1129.5593143117599
  0
LINE
  8
_0-2_02___PRT_ALL_AXES
  6
CONTINUOUS
 62
    7
 10
818.62724928838361
 20
1129.5593143117599
 11
818.67823725193875
 21
1129.817362567569
  0
LINE
  8
_0-2_02___PRT_ALL_AXES
  6
CONTINUOUS
 62
    7
 10
818.67823725193875
 20
1129.817362567569
 11
818.73811255408282
 21
1130.0638261396662
  0
LINE
  8
_0-2_02___PRT_ALL_AXES
  6
CONTINUOUS
 62
    7
 10
818.73811255408282
 20
1130.0638261396662
 11
818.80665463162995
 21
1130.2980417306699
  0
LINE
  8
_0-2_02___PRT_ALL_AXES
  6
CONTINUOUS
 62
    7
 10
818.80665463162995
 20
1130.2980417306699
 11
818.88353003947395
 21
1130.519108920234
  0
LINE
  8
_0-2_02___PRT_ALL_AXES
  6
CONTINUOUS
 62
    7
 10
818.88353003947395
 20
1130.519108920234
 11
818.96848474815079
 21
1130.7265062420402
  0
LINE
  8
_0-2_02___PRT_ALL_AXES
  6
CONTINUOUS
 62
    7
 10
818.96848474815079
 20
1130.7265062420402
 11
819.06108561400288
 21
1130.9193704156201
  0
LINE
  8
_0-2_02___PRT_ALL_AXES
  6
CONTINUOUS
 62
    7
 10
819.06108561400288
 20
1130.9193704156201
 11
819.16104017457064
 21
1131.0972649437522
  0
LINE
  8
_0-2_02___PRT_ALL_AXES
  6
CONTINUOUS
 62
    7
 10
819.16104017457064
 20
1131.0972649437522
 11
819.26784160003399
 21
1131.259439762403
  0
LINE
  8
_0-2_02___PRT_ALL_AXES
  6
CONTINUOUS
 62
    7
 10
819.26784160003399
 20
1131.259439762403
 11
819.38114492460772
 21
1131.40550740753
  0
LINE
  8
_0-2_02___PRT_ALL_AXES
  6
CONTINUOUS
 62
    7
 10
819.38114492460772
 20
1131.40550740753
 11
819.50040954586984
 21
1131.5348830060302
  0
LINE
  8
_0-2_02___PRT_ALL_AXES
  6
CONTINUOUS
 62
    7
 10
819.50040954586984
 20
1131.5348830060302
 11
819.62521676767983
 21
1131.6472137869559
  0
LINE
  8
_0-2_02___PRT_ALL_AXES
  6
CONTINUOUS
 62
    7
 10
819.62521676767983
 20
1131.6472137869559
 11
819.75504180216103
 21
1131.7421026568682
  0
LINE
  8
_0-2_02___PRT_ALL_AXES
  6
CONTINUOUS
 62
    7
 10
819.75504180216103
 20
1131.7421026568682
 11
819.88936828001488
 21
1131.8192412579879
  0
LINE
  8
_0-2_02___PRT_ALL_AXES
  6
CONTINUOUS
 62
    7
 10
819.88936828001488
 20
1131.8192412579879
 11
820.02772794690782
 21
1131.8784057490061
  0
LINE
  8
_0-2_02___PRT_ALL_AXES
  6
CONTINUOUS
 62
    7
 10
820.02772794690782
 20
1131.8784057490061
 11
820.16951727216792
 21
1131.919376628201
  0
LINE
  8
_0-2_02___PRT_ALL_AXES
  6
CONTINUOUS
 62
    7
 10
820.16951727216792
 20
1131.919376628201
 11
820.18394418997286
 21
1131.9224845655981
  0
LINE
  8
_0-2_02___PRT_ALL_AXES
  6
CONTINUOUS
 62
    7
 10
667.51761268479186
 20
1054.0821971530122
 11
666.94333875714165
 21
1052.994801831489
  0
LINE
  8
_0-2_02___PRT_ALL_AXES
  6
CONTINUOUS
 62
    7
 10
666.94333875714165
 20
1052.994801831489
 11
666.43865987902382
 21
1051.9341062432081
  0
LINE
  8
_0-2_02___PRT_ALL_AXES
  6
CONTINUOUS
 62
    7
 10
666.43865987902382
 20
1051.9341062432081
 11
665.99609523964273
 21
1050.879684627645
  0
LINE
  8
_0-2_02___PRT_ALL_AXES
  6
CONTINUOUS
 62
    7
 10
665.99609523964273
 20
1050.879684627645
 11
665.61321240850975
 21
1049.8179802085142
  0
LINE
  8
_0-2_02___PRT_ALL_AXES
  6
CONTINUOUS
 62
    7
 10
665.61321240850975
 20
1049.8179802085142
 11
665.2907220359657
 21
1048.7429580189641
  0
LINE
  8
_0-2_02___PRT_ALL_AXES
  6
CONTINUOUS
 62
    7
 10
672.34599588754372
 20
1118.7652756827101
 11
666.33436656665481
 21
1120.1917474101519
  0
LINE
  8
_0-2_02___PRT_ALL_AXES
  6
CONTINUOUS
 62
    7
 10
678.62278629075672
 20
1122.5385146668241
 11
672.61115696986963
 21
1123.9649863950281
  0
LINE
  8
_0-2_02___PRT_ALL_AXES
  6
CONTINUOUS
 62
    7
 10
678.67535972104406
 20
1122.733439958964
 11
686.24572378399398
 21
1120.9371032704662
  0
LINE
  8
_0-0_0
  6
CONTINUOUS
 62
    2
 10
688.13265613915382
 20
1121.5466254001622
 11
678.94336319062268
 21
1123.727110239081
  0
LINE
  8
_0-2_02___PRT_ALL_AXES
  6
CONTINUOUS
 62
    7
 10
836.66904558648093
 20
1128.1043263695701
 11
837.42536736669672
 21
1127.2650692644961
  0
LINE
  8
_0-2_02___PRT_ALL_AXES
  6
CONTINUOUS
 62
    7
 10
837.42536736669672
 20
1127.2650692644961
 11
838.10228356607468
 21
1126.4444460502718
  0
LINE
  8
_0-2_02___PRT_ALL_AXES
  6
CONTINUOUS
 62
    7
 10
838.10228356607468
 20
1126.4444460502718
 11
838.71037640856184
 21
1125.6265744622442
  0
LINE
  8
_0-2_02___PRT_ALL_AXES
  6
CONTINUOUS
 62
    7
 10
838.71037640856184
 20
1125.6265744622442
 11
839.25389302840904
 21
1124.8008232402422
  0
LINE
  8
_0-2_02___PRT_ALL_AXES
  6
CONTINUOUS
 62
    7
 10
839.25389302840904
 20
1124.8008232402422
 11
839.73275801809905
 21
1123.9623959813621
  0
LINE
  8
_0-2_02___PRT_ALL_AXES
  6
CONTINUOUS
 62
    7
 10
843.37000803390765
 20
1137.383143628002
 11
842.81162102520784
 21
1138.1806896219341
  0
LINE
  8
_0-2_02___PRT_ALL_AXES
  6
CONTINUOUS
 62
    7
 10
842.81162102520784
 20
1138.1806896219341
 11
842.23622077621394
 21
1138.84190032999
  0
LINE
  8
_0-2_02___PRT_ALL_AXES
  6
CONTINUOUS
 62
    7
 10
842.23622077621394
 20
1138.84190032999
 11
841.65365247627687
 21
1139.3554622924498
  0
LINE
  8
_0-2_02___PRT_ALL_AXES
  6
CONTINUOUS
 62
    7
 10
841.65365247627687
 20
1139.3554622924498
 11
841.07388411028887
 21
1139.712588222088
  0
LINE
  8
_0-2_02___PRT_ALL_AXES
  6
CONTINUOUS
 62
    7
 10
841.07388411028887
 20
1139.712588222088
 11
840.50683575238963
 21
1139.907167579182
  0
LINE
  8
_0-2_02___PRT_ALL_AXES
  6
CONTINUOUS
 62
    7
 10
840.50683575238963
 20
1139.907167579182
 11
839.96220968873467
 21
1139.9358711179138
  0
LINE
  8
_0-2_02___PRT_ALL_AXES
  6
CONTINUOUS
 62
    7
 10
839.96220968873467
 20
1139.9358711179138
 11
839.44932456210699
 21
1139.7982077125198
  0
LINE
  8
_0-2_02___PRT_ALL_AXES
  6
CONTINUOUS
 62
    7
 10
843.62600656381892
 20
1136.961206462734
 11
843.37000803390765
 21
1137.383143628002
  0
LINE
  8
_0-2_02___PRT_ALL_AXES
  6
CONTINUOUS
 62
    7
 10
843.61807357384396
 20
1136.9747127702399
 11
843.42287680015261
 21
1137.3014754458982
  0
LINE
  8
_0-2_02___PRT_ALL_AXES
  6
CONTINUOUS
 62
    7
 10
843.42287680015261
 20
1137.3014754458982
 11
842.87929714614165
 21
1138.1272992628778
  0
LINE
  8
_0-2_02___PRT_ALL_AXES
  6
CONTINUOUS
 62
    7
 10
842.87929714614165
 20
1138.1272992628778
 11
842.27122038337984
 21
1138.9451277613298
  0
LINE
  8
_0-2_02___PRT_ALL_AXES
  6
CONTINUOUS
 62
    7
 10
842.27122038337984
 20
1138.9451277613298
 11
841.59446610061968
 21
1139.765548068669
  0
LINE
  8
_0-2_02___PRT_ALL_AXES
  6
CONTINUOUS
 62
    7
 10
841.59446610061968
 20
1139.765548068669
 11
840.83811536821304
 21
1140.6048386910761
  0
LINE
  8
_0-2_02___PRT_ALL_AXES
  6
CONTINUOUS
 62
    7
 10
843.61818449437396
 20
1136.9747401146101
 11
843.62601813707579
 21
1136.961249622414
  0
LINE
  8
_0-2_02___PRT_ALL_AXES
  6
CONTINUOUS
 62
    7
 10
839.73275801809905
 20
1123.962395980599
 11
840.26457764914903
 21
1123.0421608673018
  0
LINE
  8
_0-2_02___PRT_ALL_AXES
  6
CONTINUOUS
 62
    7
 10
840.26457764914903
 20
1123.0421608673018
 11
840.82296469518769
 21
1122.2446147865021
  0
LINE
  8
_0-2_02___PRT_ALL_AXES
  6
CONTINUOUS
 62
    7
 10
840.82296469518769
 20
1122.2446147865021
 11
841.39836498685281
 21
1121.583404009104
  0
LINE
  8
_0-2_02___PRT_ALL_AXES
  6
CONTINUOUS
 62
    7
 10
841.39836498685281
 20
1121.583404009104
 11
841.980933329462
 21
1121.0698419994001
  0
LINE
  8
_0-2_02___PRT_ALL_AXES
  6
CONTINUOUS
 62
    7
 10
841.980933329462
 20
1121.0698419994001
 11
842.56070173888384
 21
1120.7127160453779
  0
LINE
  8
_0-2_02___PRT_ALL_AXES
  6
CONTINUOUS
 62
    7
 10
842.56070173888384
 20
1120.7127160453779
 11
843.12775013869395
 21
1120.5181366890461
  0
LINE
  8
_0-2_02___PRT_ALL_AXES
  6
CONTINUOUS
 62
    7
 10
843.12775013869395
 20
1120.5181366890461
 11
843.67237623816163
 21
1120.4894331762221
  0
LINE
  8
_0-2_02___PRT_ALL_AXES
  6
CONTINUOUS
 62
    7
 10
843.67237623816163
 20
1120.4894331762221
 11
844.1852613228798
 21
1120.627096612096
  0
LINE
  8
_0-2_02___PRT_ALL_AXES
  6
CONTINUOUS
 62
    7
 10
843.90182771982063
 20
1136.4629084682219
 11
843.62600656381892
 21
1136.961206462734
  0
LINE
  8
_0-2_02___PRT_ALL_AXES
  6
CONTINUOUS
 62
    7
 10
839.73275801809905
 20
1123.9623959813621
 11
840.14631655902804
 21
1123.1101729944221
  0
LINE
  8
_0-2_02___PRT_ALL_AXES
  6
CONTINUOUS
 62
    7
 10
840.14631655902804
 20
1123.1101729944221
 11
840.49596248940179
 21
1122.2438501911302
  0
LINE
  8
_0-2_02___PRT_ALL_AXES
  6
CONTINUOUS
 62
    7
 10
840.49596248940179
 20
1122.2438501911302
 11
840.78631615507402
 21
1121.359671894465
  0
LINE
  8
_0-2_02___PRT_ALL_AXES
  6
CONTINUOUS
 62
    7
 10
840.78631615507402
 20
1121.359671894465
 11
841.02409467138796
 21
1120.4475807156041
  0
LINE
  8
_0-2_02___PRT_ALL_AXES
  6
CONTINUOUS
 62
    7
 10
841.02409467138796
 20
1120.4475807156041
 11
841.21602673151483
 21
1119.490423104141
  0
LINE
  8
_0-2_02___PRT_ALL_AXES
  6
CONTINUOUS
 62
    7
 10
836.48008990444987
 20
1138.6615341626562
 11
836.78199186681104
 21
1137.6196449446861
  0
LINE
  8
_0-2_02___PRT_ALL_AXES
  6
CONTINUOUS
 62
    7
 10
836.78199186681104
 20
1137.6196449446861
 11
837.02053608568394
 21
1136.603545567948
  0
LINE
  8
_0-2_02___PRT_ALL_AXES
  6
CONTINUOUS
 62
    7
 10
837.02053608568394
 20
1136.603545567948
 11
837.19806026581273
 21
1135.5936774263978
  0
LINE
  8
_0-2_02___PRT_ALL_AXES
  6
CONTINUOUS
 62
    7
 10
837.19806026581273
 20
1135.5936774263978
 11
837.31356274905784
 21
1134.577068748672
  0
LINE
  8
_0-2_02___PRT_ALL_AXES
  6
CONTINUOUS
 62
    7
 10
837.31356274905784
 20
1134.577068748672
 11
837.36478960723389
 21
1133.5479516976902
  0
LINE
  8
_0-2_02___PRT_ALL_AXES
  6
CONTINUOUS
 62
    7
 10
838.8753165648377
 20
1049.1527809676681
 11
838.93476482846563
 21
1047.9309076323998
  0
LINE
  8
_0-2_02___PRT_ALL_AXES
  6
CONTINUOUS
 62
    7
 10
838.93476482846563
 20
1047.9309076323998
 11
839.06937552241379
 21
1046.672871548019
  0
LINE
  8
_0-2_02___PRT_ALL_AXES
  6
CONTINUOUS
 62
    7
 10
839.06937552241379
 20
1046.672871548019
 11
839.27684685423174
 21
1045.4001931040502
  0
LINE
  8
_0-2_02___PRT_ALL_AXES
  6
CONTINUOUS
 62
    7
 10
839.27684685423174
 20
1045.4001931040502
 11
839.55363115537284
 21
1044.1346436630938
  0
LINE
  8
_0-2_02___PRT_ALL_AXES
  6
CONTINUOUS
 62
    7
 10
839.55363115537284
 20
1044.1346436630938
 11
839.8949954297168
 21
1042.8978736118729
  0
LINE
  8
_0-2_02___PRT_ALL_AXES
  6
CONTINUOUS
 62
    7
 10
839.8949954297168
 20
1042.8978736118729
 11
840.29510213851972
 21
1041.711042451378
  0
LINE
  8
_0-2_02___PRT_ALL_AXES
  6
CONTINUOUS
 62
    7
 10
840.29510213851972
 20
1041.711042451378
 11
840.74710883648595
 21
1040.5944572240501
  0
LINE
  8
_0-2_02___PRT_ALL_AXES
  6
CONTINUOUS
 62
    7
 10
840.74710883648595
 20
1040.5944572240501
 11
841.24328497798979
 21
1039.567225438791
  0
LINE
  8
_0-2_02___PRT_ALL_AXES
  6
CONTINUOUS
 62
    7
 10
837.36478960494696
 20
1133.5479515094762
 11
837.4242378685758
 21
1132.3260781742069
  0
LINE
  8
_0-2_02___PRT_ALL_AXES
  6
CONTINUOUS
 62
    7
 10
837.4242378685758
 20
1132.3260781742069
 11
837.55884856328476
 21
1131.0680420890658
  0
LINE
  8
_0-2_02___PRT_ALL_AXES
  6
CONTINUOUS
 62
    7
 10
837.55884856328476
 20
1131.0680420890658
 11
837.766319894341
 21
1129.7953636458578
  0
LINE
  8
_0-2_02___PRT_ALL_AXES
  6
CONTINUOUS
 62
    7
 10
837.766319894341
 20
1129.7953636458578
 11
838.04310419548392
 21
1128.529814204901
  0
LINE
  8
_0-2_02___PRT_ALL_AXES
  6
CONTINUOUS
 62
    7
 10
838.04310419548392
 20
1128.529814204901
 11
838.38446846982788
 21
1127.293044153681
  0
LINE
  8
_0-2_02___PRT_ALL_AXES
  6
CONTINUOUS
 62
    7
 10
838.38446846982788
 20
1127.293044153681
 11
838.78457517862989
 21
1126.1062129931861
  0
LINE
  8
_0-2_02___PRT_ALL_AXES
  6
CONTINUOUS
 62
    7
 10
838.78457517862989
 20
1126.1062129931861
 11
839.23658187659476
 21
1124.9896277658581
  0
LINE
  8
_0-2_02___PRT_ALL_AXES
  6
CONTINUOUS
 62
    7
 10
839.23658187659476
 20
1124.9896277658581
 11
839.73275801809905
 21
1123.962395980599
  0
LINE
  8
_0-2_02___PRT_ALL_AXES
  6
CONTINUOUS
 62
    7
 10
847.78032318125588
 20
1042.482182058448
 11
847.72087490924605
 21
1043.704055566689
  0
LINE
  8
_0-2_02___PRT_ALL_AXES
  6
CONTINUOUS
 62
    7
 10
847.72087490924605
 20
1043.704055566689
 11
847.58626421529698
 21
1044.962091651832
  0
LINE
  8
_0-2_02___PRT_ALL_AXES
  6
CONTINUOUS
 62
    7
 10
847.58626421529698
 20
1044.962091651832
 11
847.37879288347904
 21
1046.234770095039
  0
LINE
  8
_0-2_02___PRT_ALL_AXES
  6
CONTINUOUS
 62
    7
 10
847.37879288347904
 20
1046.234770095039
 11
847.10200858309963
 21
1047.5003195359959
  0
LINE
  8
_0-2_02___PRT_ALL_AXES
  6
CONTINUOUS
 62
    7
 10
847.10200858309963
 20
1047.5003195359959
 11
846.76064430799397
 21
1048.7370895879781
  0
LINE
  8
_0-2_02___PRT_ALL_AXES
  6
CONTINUOUS
 62
    7
 10
846.76064430799397
 20
1048.7370895879781
 11
846.36053759919105
 21
1049.9239207484729
  0
LINE
  8
_0-2_02___PRT_ALL_AXES
  6
CONTINUOUS
 62
    7
 10
846.36053759919105
 20
1049.9239207484729
 11
845.90853090122482
 21
1051.0405059758018
  0
LINE
  8
_0-2_02___PRT_ALL_AXES
  6
CONTINUOUS
 62
    7
 10
845.90853090122482
 20
1051.0405059758018
 11
845.41235467971183
 21
1052.0677379264139
  0
LINE
  8
_0-2_02___PRT_ALL_AXES
  6
CONTINUOUS
 62
    7
 10
846.26979622212684
 20
1126.877352600256
 11
846.21034794935485
 21
1128.099226108498
  0
LINE
  8
_0-2_02___PRT_ALL_AXES
  6
CONTINUOUS
 62
    7
 10
846.21034794935485
 20
1128.099226108498
 11
846.07573725540669
 21
1129.3572621936401
  0
LINE
  8
_0-2_02___PRT_ALL_AXES
  6
CONTINUOUS
 62
    7
 10
846.07573725540669
 20
1129.3572621936401
 11
845.86826592358875
 21
1130.629940636848
  0
LINE
  8
_0-2_02___PRT_ALL_AXES
  6
CONTINUOUS
 62
    7
 10
845.86826592358875
 20
1130.629940636848
 11
845.5914816232098
 21
1131.895490077804
  0
LINE
  8
_0-2_02___PRT_ALL_AXES
  6
CONTINUOUS
 62
    7
 10
845.5914816232098
 20
1131.895490077804
 11
845.25011734810278
 21
1133.132260129024
  0
LINE
  8
_0-2_02___PRT_ALL_AXES
  6
CONTINUOUS
 62
    7
 10
845.25011734810278
 20
1133.132260129024
 11
844.85001063930076
 21
1134.3190912895202
  0
LINE
  8
_0-2_02___PRT_ALL_AXES
  6
CONTINUOUS
 62
    7
 10
844.85001063930076
 20
1134.3190912895202
 11
844.3980039413359
 21
1135.4356765168482
  0
LINE
  8
_0-2_02___PRT_ALL_AXES
  6
CONTINUOUS
 62
    7
 10
844.3980039413359
 20
1135.4356765168482
 11
843.90182771982063
 21
1136.4629084682219
  0
LINE
  8
_0-2_02___PRT_ALL_AXES
  6
CONTINUOUS
 62
    7
 10
840.03452491750295
 20
537.11377135045313
 11
831.0868264829719
 21
1037.0337036323381
  0
LINE
  8
_0-2_02___PRT_ALL_AXES
  6
CONTINUOUS
 62
    7
 10
830.86473360254467
 20
1049.442331224735
 11
829.57629952308162
 21
1121.4288741741461
  0
LINE
  8
_0-2_02___PRT_ALL_AXES
  6
CONTINUOUS
 62
    7
 10
829.35420664265484
 20
1133.837501766543
 11
826.65460163344278
 21
1284.668060362887
  0
LINE
  8
_0-2_02___PRT_ALL_AXES
  6
CONTINUOUS
 62
    7
 10
824.97502422603202
 20
1378.508306529111
 11
824.44194817966263
 21
1408.2919814224001
  0
LINE
  8
_0-3_7_ALL_FEATURES
  6
CONTINUOUS
 62
    7
 10
831.75572436894663
 20
1042.3676700128981
 11
831.56676868691602
 21
1052.9248778059841
  0
LINE
  8
_0-3_7_ALL_FEATURES
  6
CONTINUOUS
 62
    7
 10
830.2451974090568
 20
1126.762840553944
 11
830.05624172702483
 21
1137.3200483477922
  0
LINE
  8
_0-2_02___PRT_ALL_AXES
  6
CONTINUOUS
 62
    7
 10
837.36478960723389
 20
1133.5479516976902
 11
837.35063806936978
 21
1132.505006616705
  0
LINE
  8
_0-2_02___PRT_ALL_AXES
  6
CONTINUOUS
 62
    7
 10
837.35063806936978
 20
1132.505006616705
 11
837.27223078016004
 21
1131.447808893412
  0
LINE
  8
_0-2_02___PRT_ALL_AXES
  6
CONTINUOUS
 62
    7
 10
837.27223078016004
 20
1131.447808893412
 11
837.13203695031098
 21
1130.371643444782
  0
LINE
  8
_0-2_02___PRT_ALL_AXES
  6
CONTINUOUS
 62
    7
 10
837.13203695031098
 20
1130.371643444782
 11
836.93155136398263
 21
1129.2641241703659
  0
LINE
  8
_0-2_02___PRT_ALL_AXES
  6
CONTINUOUS
 62
    7
 10
836.93155136398263
 20
1129.2641241703659
 11
836.66904558648093
 21
1128.1043263695701
  0
LINE
  8
_0-2_02___PRT_ALL_AXES
  6
CONTINUOUS
 62
    7
 10
838.87531656712281
 20
1049.1527811558822
 11
838.86116502925961
 21
1048.109836074897
  0
LINE
  8
_0-2_02___PRT_ALL_AXES
  6
CONTINUOUS
 62
    7
 10
838.86116502925961
 20
1048.109836074897
 11
838.78275774004987
 21
1047.052638351603
  0
LINE
  8
_0-2_02___PRT_ALL_AXES
  6
CONTINUOUS
 62
    7
 10
838.78275774004987
 20
1047.052638351603
 11
838.64256391020172
 21
1045.976472902973
  0
LINE
  8
_0-2_02___PRT_ALL_AXES
  6
CONTINUOUS
 62
    7
 10
838.64256391020172
 20
1045.976472902973
 11
838.44207832311167
 21
1044.8689536285578
  0
LINE
  8
_0-2_02___PRT_ALL_AXES
  6
CONTINUOUS
 62
    7
 10
838.44207832311167
 20
1044.8689536285578
 11
838.17957254637167
 21
1043.7091558277621
  0
LINE
  8
_0-2_02___PRT_ALL_AXES
  6
CONTINUOUS
 62
    7
 10
820.02650159706081
 20
1044.033022844746
 11
820.04014346208078
 21
1044.3289012428281
  0
LINE
  8
_0-2_02___PRT_ALL_AXES
  6
CONTINUOUS
 62
    7
 10
820.04014346208078
 20
1044.3289012428281
 11
820.06331379877383
 21
1044.616699970506
  0
LINE
  8
_0-2_02___PRT_ALL_AXES
  6
CONTINUOUS
 62
    7
 10
820.06331379877383
 20
1044.616699970506
 11
820.09589974655592
 21
1044.895356860739
  0
LINE
  8
_0-2_02___PRT_ALL_AXES
  6
CONTINUOUS
 62
    7
 10
820.09589974655592
 20
1044.895356860739
 11
820.13777624827389
 21
1045.164143770714
  0
LINE
  8
_0-2_02___PRT_ALL_AXES
  6
CONTINUOUS
 62
    7
 10
820.13777624827389
 20
1045.164143770714
 11
820.18876421182904
 21
1045.4221920257619
  0
LINE
  8
_0-2_02___PRT_ALL_AXES
  6
CONTINUOUS
 62
    7
 10
820.18876421182904
 20
1045.4221920257619
 11
820.24863951397401
 21
1045.6686555978581
  0
LINE
  8
_0-2_02___PRT_ALL_AXES
  6
CONTINUOUS
 62
    7
 10
820.24863951397401
 20
1045.6686555978581
 11
820.31718159151887
 21
1045.9028711888618
  0
LINE
  8
_0-2_02___PRT_ALL_AXES
  6
CONTINUOUS
 62
    7
 10
820.31718159151887
 20
1045.9028711888618
 11
820.39405699936378
 21
1046.1239383784259
  0
LINE
  8
_0-2_02___PRT_ALL_AXES
  6
CONTINUOUS
 62
    7
 10
820.39405699936378
 20
1046.1239383784259
 11
820.47901170804062
 21
1046.3313357002321
  0
LINE
  8
_0-2_02___PRT_ALL_AXES
  6
CONTINUOUS
 62
    7
 10
820.47901170804062
 20
1046.3313357002321
 11
820.57161257389362
 21
1046.524199873812
  0
LINE
  8
_0-2_02___PRT_ALL_AXES
  6
CONTINUOUS
 62
    7
 10
820.57161257389362
 20
1046.524199873812
 11
820.67156713446184
 21
1046.7020944019441
  0
LINE
  8
_0-2_02___PRT_ALL_AXES
  6
CONTINUOUS
 62
    7
 10
820.67156713446184
 20
1046.7020944019441
 11
820.77836855992382
 21
1046.8642692205958
  0
LINE
  8
_0-2_02___PRT_ALL_AXES
  6
CONTINUOUS
 62
    7
 10
820.77836855992382
 20
1046.8642692205958
 11
820.89167188449801
 21
1047.0103368657219
  0
LINE
  8
_0-2_02___PRT_ALL_AXES
  6
CONTINUOUS
 62
    7
 10
820.89167188449801
 20
1047.0103368657219
 11
821.01093650575967
 21
1047.1397124642222
  0
LINE
  8
_0-2_02___PRT_ALL_AXES
  6
CONTINUOUS
 62
    7
 10
821.01093650575967
 20
1047.1397124642222
 11
821.13574372756875
 21
1047.2520432451479
  0
LINE
  8
_0-2_02___PRT_ALL_AXES
  6
CONTINUOUS
 62
    7
 10
821.13574372756875
 20
1047.2520432451479
 11
821.26556876205086
 21
1047.3469321158218
  0
LINE
  8
_0-2_02___PRT_ALL_AXES
  6
CONTINUOUS
 62
    7
 10
821.26556876205086
 20
1047.3469321158218
 11
821.39989523990471
 21
1047.4240707161789
  0
LINE
  8
_0-2_02___PRT_ALL_AXES
  6
CONTINUOUS
 62
    7
 10
821.39989523990471
 20
1047.4240707161789
 11
821.53825490679674
 21
1047.4832352079602
  0
LINE
  8
_0-2_02___PRT_ALL_AXES
  6
CONTINUOUS
 62
    7
 10
821.53825490679674
 20
1047.4832352079602
 11
821.68004423129469
 21
1047.524206086393
  0
LINE
  8
_0-2_02___PRT_ALL_AXES
  6
CONTINUOUS
 62
    7
 10
821.68004423129469
 20
1047.524206086393
 11
821.69447114986406
 21
1047.5273140245522
  0
LINE
  8
_0-2_02___PRT_ALL_AXES
  6
CONTINUOUS
 62
    7
 10
846.17567351349771
 20
1124.7519331716521
 11
846.25306540113161
 21
1125.71254368172
  0
LINE
  8
_0-2_02___PRT_ALL_AXES
  6
CONTINUOUS
 62
    7
 10
846.25306540113161
 20
1125.71254368172
 11
846.26979622212684
 21
1126.877352600256
  0
LINE
  8
_0-4__B______3
  6
CONTINUOUS
 62
    7
 10
935.27551451894578
 20
1505.1115116158198
 11
935.36423921728874
 21
1505.307207882795
  0
LINE
  8
_0-4__B______3
  6
CONTINUOUS
 62
    7
 10
935.36423921728874
 20
1505.307207882795
 11
935.57109985563784
 21
1505.493903513976
  0
LINE
  8
_0-4__B______3
  6
CONTINUOUS
 62
    7
 10
935.57109985563784
 20
1505.493903513976
 11
935.88199922215381
 21
1505.6588755104221
  0
LINE
  8
_0-4__B______3
  6
CONTINUOUS
 62
    7
 10
935.88199922215381
 20
1505.6588755104221
 11
936.27575003942593
 21
1505.790881305084
  0
LINE
  8
_0-4__B______3
  6
CONTINUOUS
 62
    7
 10
1272.8636620116076
 20
1595.453774508022
 11
1272.8180586760936
 21
1595.4374028061961
  0
LINE
  8
_0-4__B______3
  6
CONTINUOUS
 62
    7
 10
1272.8180586760936
 20
1595.4374028061961
 11
1272.6661962457579
 21
1595.2998935808341
  0
LINE
  8
_0-4__B______3
  6
CONTINUOUS
 62
    7
 10
1272.6661962457579
 20
1595.2998935808341
 11
1272.5595176325978
 21
1595.0523473606622
  0
LINE
  8
_0-4__B______3
  6
CONTINUOUS
 62
    7
 10
1272.5595176325978
 20
1595.0523473606622
 11
1272.5052928088649
 21
1594.7116340118641
  0
LINE
  8
_0-4__B______3
  6
CONTINUOUS
 62
    7
 10
1272.5052928088649
 20
1594.7116340118641
 11
1272.5072171057527
 21
1594.3009725857919
  0
LINE
  8
_0-2_02___PRT_ALL_AXES
  6
CONTINUOUS
 62
    7
 10
824.18675049270087
 20
1035.5927680628561
 11
824.07192394613003
 21
1035.5764450543538
  0
LINE
  8
_0-2_02___PRT_ALL_AXES
  6
CONTINUOUS
 62
    7
 10
824.07192394613003
 20
1035.5764450543538
 11
823.94024831768593
 21
1035.5753829642758
  0
LINE
  8
_0-2_02___PRT_ALL_AXES
  6
CONTINUOUS
 62
    7
 10
823.94024831768593
 20
1035.5753829642758
 11
823.80453030819672
 21
1035.5922811768601
  0
LINE
  8
_0-2_02___PRT_ALL_AXES
  6
CONTINUOUS
 62
    7
 10
823.80453030819672
 20
1035.5922811768601
 11
823.66525145442074
 21
1035.6270458190402
  0
LINE
  8
_0-2_02___PRT_ALL_AXES
  6
CONTINUOUS
 62
    7
 10
823.66525145442074
 20
1035.6270458190402
 11
823.52265646122805
 21
1035.6795790446822
  0
LINE
  8
_0-2_02___PRT_ALL_AXES
  6
CONTINUOUS
 62
    7
 10
823.52265646122805
 20
1035.6795790446822
 11
823.37724203831567
 21
1035.7496667523601
  0
LINE
  8
_0-2_02___PRT_ALL_AXES
  6
CONTINUOUS
 62
    7
 10
823.37724203831567
 20
1035.7496667523601
 11
823.22932501004561
 21
1035.8371269650438
  0
LINE
  8
_0-2_02___PRT_ALL_AXES
  6
CONTINUOUS
 62
    7
 10
823.22932501004561
 20
1035.8371269650438
 11
823.07939958142379
 21
1035.9416500051721
  0
LINE
  8
_0-2_02___PRT_ALL_AXES
  6
CONTINUOUS
 62
    7
 10
686.24572377256391
 20
1120.937103222459
 11
686.39478095857385
 21
1120.9099138745019
  0
LINE
  8
_0-2_02___PRT_ALL_AXES
  6
CONTINUOUS
 62
    7
 10
686.39478095857385
 20
1120.9099138745019
 11
686.55997673689399
 21
1120.8978457917042
  0
LINE
  8
_0-2_02___PRT_ALL_AXES
  6
CONTINUOUS
 62
    7
 10
686.55997673689399
 20
1120.8978457917042
 11
686.72931453614001
 21
1120.9036973962061
  0
LINE
  8
_0-2_02___PRT_ALL_AXES
  6
CONTINUOUS
 62
    7
 10
686.72931453614001
 20
1120.9036973962061
 11
686.90234120710284
 21
1120.9274212260761
  0
LINE
  8
_0-2_02___PRT_ALL_AXES
  6
CONTINUOUS
 62
    7
 10
686.90234120710284
 20
1120.9274212260761
 11
687.07858654549364
 21
1120.968919669875
  0
LINE
  8
_0-2_02___PRT_ALL_AXES
  6
CONTINUOUS
 62
    7
 10
687.07858654549364
 20
1120.968919669875
 11
687.25756398840167
 21
1121.0280465592409
  0
LINE
  8
_0-2_02___PRT_ALL_AXES
  6
CONTINUOUS
 62
    7
 10
687.25756398840167
 20
1121.0280465592409
 11
687.43877123761877
 21
1121.104608623541
  0
LINE
  8
_0-2_02___PRT_ALL_AXES
  6
CONTINUOUS
 62
    7
 10
687.43877123761877
 20
1121.104608623541
 11
687.62169087685879
 21
1121.1983667418422
  0
LINE
  8
_0-2_02___PRT_ALL_AXES
  6
CONTINUOUS
 62
    7
 10
687.62169087685879
 20
1121.1983667418422
 11
687.80579097449481
 21
1121.309036944936
  0
LINE
  8
_0-2_02___PRT_ALL_AXES
  6
CONTINUOUS
 62
    7
 10
687.80579097449481
 20
1121.309036944936
 11
687.99052575564792
 21
1121.4362911430562
  0
LINE
  8
_0-2_02___PRT_ALL_AXES
  6
CONTINUOUS
 62
    7
 10
687.99052575564792
 20
1121.4362911430562
 11
688.17533636570579
 21
1121.5797575914539
  0
LINE
  8
_0-2_02___PRT_ALL_AXES
  6
CONTINUOUS
 62
    7
 10
688.17533636570579
 20
1121.5797575914539
 11
688.35965182282962
 21
1121.7390211281449
  0
LINE
  8
_0-2_02___PRT_ALL_AXES
  6
CONTINUOUS
 62
    7
 10
688.35965182282962
 20
1121.7390211281449
 11
688.54289017161773
 21
1121.9136232356341
  0
LINE
  8
_0-2_02___PRT_ALL_AXES
  6
CONTINUOUS
 62
    7
 10
688.54289017161773
 20
1121.9136232356341
 11
688.72445994004875
 21
1122.103062029475
  0
LINE
  8
_0-0_0
  6
CONTINUOUS
 62
    2
 10
690.62030105818985
 20
1131.3723478413881
 11
681.58369367525484
 21
1133.516602627546
  0
LINE
  8
_0-2_02___PRT_ALL_AXES
  6
CONTINUOUS
 62
    7
 10
681.5975410722499
 20
1133.5679443008339
 11
675.58591175059973
 21
1134.9944160290379
  0
LINE
  8
_0-2_02___PRT_ALL_AXES
  6
CONTINUOUS
 62
    7
 10
681.08604545871685
 20
1134.6919508564738
 11
689.06054874971005
 21
1132.7997178395758
  0
LINE
  8
_0-2_02___PRT_ALL_AXES
  6
CONTINUOUS
 62
    7
 10
678.29550544976473
 20
1140.8241349507298
 11
672.28387612811593
 21
1142.2506066789342
  0
LINE
  8
_0-2_02___PRT_ALL_AXES
  6
CONTINUOUS
 62
    7
 10
847.686200473388
 20
1040.3567626298441
 11
847.76359236102189
 21
1041.317373139912
  0
LINE
  8
_0-2_02___PRT_ALL_AXES
  6
CONTINUOUS
 62
    7
 10
847.76359236102189
 20
1041.317373139912
 11
847.78032318125588
 21
1042.482182058448
  0
LINE
  8
_0-2_02___PRT_ALL_AXES
  6
CONTINUOUS
 62
    7
 10
845.9935077757209
 20
1123.63250793832
 11
846.16044140934173
 21
1124.6247255317321
  0
LINE
  8
_0-2_02___PRT_ALL_AXES
  6
CONTINUOUS
 62
    7
 10
846.16044140934173
 20
1124.6247255317321
 11
846.17567351349771
 21
1124.7519331716521
  0
LINE
  8
_0-2_02___PRT_ALL_AXES
  6
CONTINUOUS
 62
    7
 10
847.50403473561164
 20
1039.2373373972741
 11
847.67096836923201
 21
1040.2295549899241
  0
LINE
  8
_0-2_02___PRT_ALL_AXES
  6
CONTINUOUS
 62
    7
 10
847.67096836923201
 20
1040.2295549899241
 11
847.686200473388
 21
1040.3567626298441
  0
LINE
  8
_0-2_02___PRT_ALL_AXES
  6
CONTINUOUS
 62
    7
 10
845.57405219527982
 20
1121.4337276325618
 11
845.83654859789567
 21
1122.593479570864
  0
LINE
  8
_0-2_02___PRT_ALL_AXES
  6
CONTINUOUS
 62
    7
 10
845.83654859789567
 20
1122.593479570864
 11
846.0370788679038
 21
1123.7012704083641
  0
LINE
  8
_0-2_02___PRT_ALL_AXES
  6
CONTINUOUS
 62
    7
 10
846.0370788679038
 20
1123.7012704083641
 11
846.15248892588079
 21
1124.549459381019
  0
LINE
  8
_0-2_02___PRT_ALL_AXES
  6
CONTINUOUS
 62
    7
 10
666.33436656665481
 20
1120.1917474101519
 11
666.7247692595588
 21
1120.647855166972
  0
LINE
  8
_0-2_02___PRT_ALL_AXES
  6
CONTINUOUS
 62
    7
 10
666.7247692595588
 20
1120.647855166972
 11
667.15069944808283
 21
1121.076153857236
  0
LINE
  8
_0-2_02___PRT_ALL_AXES
  6
CONTINUOUS
 62
    7
 10
667.15069944808283
 20
1121.076153857236
 11
667.62217840377662
 21
1121.4842214269261
  0
LINE
  8
_0-2_02___PRT_ALL_AXES
  6
CONTINUOUS
 62
    7
 10
667.62217840377662
 20
1121.4842214269261
 11
668.1479162301257
 21
1121.876329391248
  0
LINE
  8
_0-2_02___PRT_ALL_AXES
  6
CONTINUOUS
 62
    7
 10
668.1479162301257
 20
1121.876329391248
 11
668.73324839245379
 21
1122.2538425188709
  0
LINE
  8
_0-2_02___PRT_ALL_AXES
  6
CONTINUOUS
 62
    7
 10
688.72445994004875
 20
1122.103062029475
 11
688.9037618981838
 21
1122.3067922399982
  0
LINE
  8
_0-2_02___PRT_ALL_AXES
  6
CONTINUOUS
 62
    7
 10
688.9037618981838
 20
1122.3067922399982
 11
689.08019119023174
 21
1122.524225318974
  0
LINE
  8
_0-2_02___PRT_ALL_AXES
  6
CONTINUOUS
 62
    7
 10
689.08019119023174
 20
1122.524225318974
 11
689.25313983163278
 21
1122.7547297733822
  0
LINE
  8
_0-2_02___PRT_ALL_AXES
  6
CONTINUOUS
 62
    7
 10
689.25313983163278
 20
1122.7547297733822
 11
689.42199955436581
 21
1122.9976317971018
  0
LINE
  8
_0-2_02___PRT_ALL_AXES
  6
CONTINUOUS
 62
    7
 10
689.42199955436581
 20
1122.9976317971018
 11
689.58616502867471
 21
1123.252216359052
  0
LINE
  8
_0-2_02___PRT_ALL_AXES
  6
CONTINUOUS
 62
    7
 10
689.58616502867471
 20
1123.252216359052
 11
689.74503730960987
 21
1123.517728689088
  0
LINE
  8
_0-2_02___PRT_ALL_AXES
  6
CONTINUOUS
 62
    7
 10
689.74503730960987
 20
1123.517728689088
 11
689.89802759443273
 21
1123.7933763940782
  0
LINE
  8
_0-2_02___PRT_ALL_AXES
  6
CONTINUOUS
 62
    7
 10
689.89802759443273
 20
1123.7933763940782
 11
690.0445610036777
 21
1124.078331923733
  0
LINE
  8
_0-2_02___PRT_ALL_AXES
  6
CONTINUOUS
 62
    7
 10
690.0445610036777
 20
1124.078331923733
 11
690.18408051305505
 21
1124.3717357161481
  0
LINE
  8
_0-2_02___PRT_ALL_AXES
  6
CONTINUOUS
 62
    7
 10
690.18408051305505
 20
1124.3717357161481
 11
690.31605072384173
 21
1124.6726995787858
  0
LINE
  8
_0-2_02___PRT_ALL_AXES
  6
CONTINUOUS
 62
    7
 10
690.31605072384173
 20
1124.6726995787858
 11
690.43996155933064
 21
1124.9803105975479
  0
LINE
  8
_0-2_02___PRT_ALL_AXES
  6
CONTINUOUS
 62
    7
 10
690.43996155933064
 20
1124.9803105975479
 11
690.55533162373877
 21
1125.2936350846899
  0
LINE
  8
_0-2_02___PRT_ALL_AXES
  6
CONTINUOUS
 62
    7
 10
690.55533162373877
 20
1125.2936350846899
 11
690.66171130125167
 21
1125.61172279116
  0
LINE
  8
_0-2_02___PRT_ALL_AXES
  6
CONTINUOUS
 62
    7
 10
690.66171130125167
 20
1125.61172279116
 11
690.75868543064598
 21
1125.9336110198742
  0
LINE
  8
_0-2_02___PRT_ALL_AXES
  6
CONTINUOUS
 62
    7
 10
690.75868543064598
 20
1125.9336110198742
 11
690.84587554938071
 21
1126.2583285286801
  0
LINE
  8
_0-2_02___PRT_ALL_AXES
  6
CONTINUOUS
 62
    7
 10
690.84587554938071
 20
1126.2583285286801
 11
690.92294177269287
 21
1126.5848993990321
  0
LINE
  8
_0-2_02___PRT_ALL_AXES
  6
CONTINUOUS
 62
    7
 10
690.92294177269287
 20
1126.5848993990321
 11
690.9895841545208
 21
1126.9123461891459
  0
LINE
  8
_0-2_02___PRT_ALL_AXES
  6
CONTINUOUS
 62
    7
 10
690.9895841545208
 20
1126.9123461891459
 11
691.04554379850788
 21
1127.239693224315
  0
LINE
  8
_0-2_02___PRT_ALL_AXES
  6
CONTINUOUS
 62
    7
 10
691.04554379850788
 20
1127.239693224315
 11
691.09060350874279
 21
1127.56596882043
  0
LINE
  8
_0-2_02___PRT_ALL_AXES
  6
CONTINUOUS
 62
    7
 10
691.09060350874279
 20
1127.56596882043
 11
691.12458830412061
 21
1127.8902078374322
  0
LINE
  8
_0-2_02___PRT_ALL_AXES
  6
CONTINUOUS
 62
    7
 10
691.12458830412061
 20
1127.8902078374322
 11
691.14736561416703
 21
1128.2114531141679
  0
LINE
  8
_0-2_02___PRT_ALL_AXES
  6
CONTINUOUS
 62
    7
 10
691.14736561416703
 20
1128.2114531141679
 11
691.15884543753782
 21
1128.528757329952
  0
LINE
  8
_0-2_02___PRT_ALL_AXES
  6
CONTINUOUS
 62
    7
 10
691.15884543753782
 20
1128.528757329952
 11
691.15898034506472
 21
1128.84118403098
  0
LINE
  8
_0-2_02___PRT_ALL_AXES
  6
CONTINUOUS
 62
    7
 10
803.55001961917969
 20
1373.833120234342
 11
804.48655043089866
 21
1374.145762102833
  0
LINE
  8
_0-2_02___PRT_ALL_AXES
  6
CONTINUOUS
 62
    7
 10
804.48655043089866
 20
1374.145762102833
 11
805.40971855458702
 21
1374.4049737688142
  0
LINE
  8
_0-2_02___PRT_ALL_AXES
  6
CONTINUOUS
 62
    7
 10
805.40971855458702
 20
1374.4049737688142
 11
806.18074050961877
 21
1374.5834997122438
  0
LINE
  8
_0-2_02___PRT_ALL_AXES
  6
CONTINUOUS
 62
    7
 10
836.30270551398189
 20
1033.7537667474699
 11
842.72655369140602
 21
1035.095252563096
  0
LINE
  8
_0-2_02___PRT_ALL_AXES
  6
CONTINUOUS
 62
    7
 10
834.22536775654999
 20
1037.6891220796902
 11
824.18675057804603
 21
1035.5927676559481
  0
LINE
  8
_0-0_0
  6
CONTINUOUS
 62
    2
 10
822.65280155171604
 20
1036.3233258267819
 11
833.72571698724687
 21
1038.635671725322
  0
LINE
  8
_0-2_02___PRT_ALL_AXES
  6
CONTINUOUS
 62
    7
 10
831.75572436894663
 20
1042.3676700128981
 11
838.17957254637167
 21
1043.7091558277621
  0
LINE
  8
_0-0_0
  6
CONTINUOUS
 62
    2
 10
820.43030462689285
 20
1046.2124285994641
 11
831.64499299173076
 21
1048.554380797947
  0
LINE
  8
_0-2_02___PRT_ALL_AXES
  6
CONTINUOUS
 62
    7
 10
831.62625390525773
 20
1049.6013587509779
 11
821.69447106375674
 21
1047.52731443527
  0
LINE
  8
_0-2_02___PRT_ALL_AXES
  6
CONTINUOUS
 62
    7
 10
831.56676868691602
 20
1052.9248778059841
 11
837.99061686433879
 21
1054.2663636208481
  0
LINE
  8
_0-2_02___PRT_ALL_AXES
  6
CONTINUOUS
 62
    7
 10
835.92479415067874
 20
1054.8681823344041
 11
842.34864232810287
 21
1056.2096681492681
  0
LINE
  8
_0-4__B______3
  6
CONTINUOUS
 62
    7
 10
935.27333225914981
 20
1505.0486150484462
 11
935.27551451894578
 21
1505.1115116158198
  0
LINE
  8
_0-4__B______3
  6
CONTINUOUS
 62
    7
 10
935.27333225914981
 20
1505.0486150484462
 11
935.29331109523991
 21
1505.4726355552421
  0
LINE
  8
_0-4__B______3
  6
CONTINUOUS
 62
    7
 10
935.29331109523991
 20
1505.4726355552421
 11
935.41369794590582
 21
1505.8882087129182
  0
LINE
  8
_0-4__B______3
  6
CONTINUOUS
 62
    7
 10
935.41369794590582
 20
1505.8882087129182
 11
935.62376718032601
 21
1506.2576687967039
  0
LINE
  8
_0-4__B______3
  6
CONTINUOUS
 62
    7
 10
935.62376718032601
 20
1506.2576687967039
 11
935.90824644778968
 21
1506.5642302686701
  0
LINE
  8
_0-4__B______3
  6
CONTINUOUS
 62
    7
 10
935.90824644778968
 20
1506.5642302686701
 11
936.25000179729795
 21
1506.795575435392
  0
LINE
  8
_0-4__B______3
  6
CONTINUOUS
 62
    7
 10
936.25000179729795
 20
1506.795575435392
 11
936.63219494527993
 21
1506.9436832273141
  0
LINE
  8
_0-2_02___PRT_ALL_AXES
  6
CONTINUOUS
 62
    7
 10
847.08457915516874
 20
1037.038557091515
 11
847.34707555778596
 21
1038.198309029056
  0
LINE
  8
_0-2_02___PRT_ALL_AXES
  6
CONTINUOUS
 62
    7
 10
847.34707555778596
 20
1038.198309029056
 11
847.54760582779363
 21
1039.306099866556
  0
LINE
  8
_0-2_02___PRT_ALL_AXES
  6
CONTINUOUS
 62
    7
 10
847.54760582779363
 20
1039.306099866556
 11
847.66301588577198
 21
1040.1542888392109
  0
LINE
  8
_0-2_02___PRT_ALL_AXES
  6
CONTINUOUS
 62
    7
 10
667.844893526546
 20
1035.796576869106
 11
668.23529621944999
 21
1036.2526846259261
  0
LINE
  8
_0-2_02___PRT_ALL_AXES
  6
CONTINUOUS
 62
    7
 10
668.23529621944999
 20
1036.2526846259261
 11
668.66122640797266
 21
1036.680983315428
  0
LINE
  8
_0-2_02___PRT_ALL_AXES
  6
CONTINUOUS
 62
    7
 10
668.66122640797266
 20
1036.680983315428
 11
669.13270536366781
 21
1037.089050885118
  0
LINE
  8
_0-2_02___PRT_ALL_AXES
  6
CONTINUOUS
 62
    7
 10
669.13270536366781
 20
1037.089050885118
 11
669.65844319001599
 21
1037.481158849439
  0
LINE
  8
_0-2_02___PRT_ALL_AXES
  6
CONTINUOUS
 62
    7
 10
669.65844319001599
 20
1037.481158849439
 11
670.24377535234362
 21
1037.858671977825
  0
LINE
  8
_0-2_02___PRT_ALL_AXES
  6
CONTINUOUS
 62
    7
 10
818.57928801397384
 20
1287.3689289105941
 11
817.94558594482987
 21
1287.8519677606182
  0
LINE
  8
_0-2_02___PRT_ALL_AXES
  6
CONTINUOUS
 62
    7
 10
817.94558594482987
 20
1287.8519677606182
 11
817.28902399531989
 21
1288.3688594817222
  0
LINE
  8
_0-2_02___PRT_ALL_AXES
  6
CONTINUOUS
 62
    7
 10
817.28902399531989
 20
1288.3688594817222
 11
816.61005086914383
 21
1288.9193599885421
  0
LINE
  8
_0-2_02___PRT_ALL_AXES
  6
CONTINUOUS
 62
    7
 10
816.61005086914383
 20
1288.9193599885421
 11
815.90841332322179
 21
1289.5038578934582
  0
LINE
  8
_0-2_02___PRT_ALL_AXES
  6
CONTINUOUS
 62
    7
 10
815.90841332322179
 20
1289.5038578934582
 11
815.18445268859477
 21
1290.1223320067729
  0
LINE
  8
_0-2_02___PRT_ALL_AXES
  6
CONTINUOUS
 62
    7
 10
815.18445268859477
 20
1290.1223320067729
 11
814.43842056623589
 21
1290.7748971413162
  0
LINE
  8
_0-2_02___PRT_ALL_AXES
  6
CONTINUOUS
 62
    7
 10
814.43842056623589
 20
1290.7748971413162
 11
813.67016089701701
 21
1291.462106315535
  0
LINE
  8
_0-2_02___PRT_ALL_AXES
  6
CONTINUOUS
 62
    7
 10
813.67016089701701
 20
1291.462106315535
 11
812.88020205555085
 21
1292.183987620564
  0
LINE
  8
_0-2_02___PRT_ALL_AXES
  6
CONTINUOUS
 62
    7
 10
812.88020205555085
 20
1292.183987620564
 11
812.06839783994565
 21
1292.941266387435
  0
LINE
  8
_0-2_02___PRT_ALL_AXES
  6
CONTINUOUS
 62
    7
 10
812.06839783994565
 20
1292.941266387435
 11
811.23537120958372
 21
1293.7340507195681
  0
LINE
  8
_0-2_02___PRT_ALL_AXES
  6
CONTINUOUS
 62
    7
 10
811.23537120958372
 20
1293.7340507195681
 11
810.38180697843791
 21
1294.5624628257578
  0
LINE
  8
_0-2_02___PRT_ALL_AXES
  6
CONTINUOUS
 62
    7
 10
810.38180697843791
 20
1294.5624628257578
 11
809.50784602887688
 21
1295.4272508429399
  0
LINE
  8
_0-2_02___PRT_ALL_AXES
  6
CONTINUOUS
 62
    7
 10
809.50784602887688
 20
1295.4272508429399
 11
808.61459800511602
 21
1296.3283148965361
  0
LINE
  8
_0-2_02___PRT_ALL_AXES
  6
CONTINUOUS
 62
    7
 10
808.61459800511602
 20
1296.3283148965361
 11
807.7025867242387
 21
1297.266243273406
  0
LINE
  8
_0-2_02___PRT_ALL_AXES
  6
CONTINUOUS
 62
    7
 10
807.7025867242387
 20
1297.266243273406
 11
806.77290880102282
 21
1298.2411621363658
  0
LINE
  8
_0-2_02___PRT_ALL_AXES
  6
CONTINUOUS
 62
    7
 10
806.77290880102282
 20
1298.2411621363658
 11
805.82699316682374
 21
1299.252957221991
  0
LINE
  8
_0-2_02___PRT_ALL_AXES
  6
CONTINUOUS
 62
    7
 10
805.82699316682374
 20
1299.252957221991
 11
804.86609329182784
 21
1300.301818985326
  0
LINE
  8
_0-2_02___PRT_ALL_AXES
  6
CONTINUOUS
 62
    7
 10
804.86609329182784
 20
1300.301818985326
 11
803.89225751052163
 21
1301.387192742945
  0
LINE
  8
_0-2_02___PRT_ALL_AXES
  6
CONTINUOUS
 62
    7
 10
803.89225751052163
 20
1301.387192742945
 11
802.90715629149781
 21
1302.509058282802
  0
LINE
  8
_0-2_02___PRT_ALL_AXES
  6
CONTINUOUS
 62
    7
 10
802.90715629149781
 20
1302.509058282802
 11
801.91370672696576
 21
1303.6660879601022
  0
LINE
  8
_0-2_02___PRT_ALL_AXES
  6
CONTINUOUS
 62
    7
 10
801.91370672696576
 20
1303.6660879601022
 11
800.91461322121995
 21
1304.85726171745
  0
LINE
  8
_0-2_02___PRT_ALL_AXES
  6
CONTINUOUS
 62
    7
 10
800.91461322121995
 20
1304.85726171745
 11
799.91250184419187
 21
1306.08174521209
  0
LINE
  8
_0-2_02___PRT_ALL_AXES
  6
CONTINUOUS
 62
    7
 10
799.91250184419187
 20
1306.08174521209
 11
798.91087963382597
 21
1307.337701431185
  0
LINE
  8
_0-2_02___PRT_ALL_AXES
  6
CONTINUOUS
 62
    7
 10
798.91087963382597
 20
1307.337701431185
 11
797.91309473582487
 21
1308.623512910865
  0
LINE
  8
_0-2_02___PRT_ALL_AXES
  6
CONTINUOUS
 62
    7
 10
797.91309473582487
 20
1308.623512910865
 11
796.92353910635484
 21
1309.9361911198962
  0
LINE
  8
_0-2_02___PRT_ALL_AXES
  6
CONTINUOUS
 62
    7
 10
796.92353910635484
 20
1309.9361911198962
 11
795.94664523616984
 21
1311.272544998872
  0
LINE
  8
_0-2_02___PRT_ALL_AXES
  6
CONTINUOUS
 62
    7
 10
795.94664523616984
 20
1311.272544998872
 11
794.98665628569188
 21
1312.629454197418
  0
LINE
  8
_0-2_02___PRT_ALL_AXES
  6
CONTINUOUS
 62
    7
 10
794.98665628569188
 20
1312.629454197418
 11
794.04751979744606
 21
1314.0040110629802
  0
LINE
  8
_0-2_02___PRT_ALL_AXES
  6
CONTINUOUS
 62
    7
 10
794.04751979744606
 20
1314.0040110629802
 11
793.13412729250967
 21
1315.3916086418558
  0
LINE
  8
_0-2_02___PRT_ALL_AXES
  6
CONTINUOUS
 62
    7
 10
793.13412729250967
 20
1315.3916086418558
 11
792.25115403331392
 21
1316.7874205487278
  0
LINE
  8
_0-2_02___PRT_ALL_AXES
  6
CONTINUOUS
 62
    7
 10
792.25115403331392
 20
1316.7874205487278
 11
791.40144517164799
 21
1318.18901396296
  0
LINE
  8
_0-2_02___PRT_ALL_AXES
  6
CONTINUOUS
 62
    7
 10
791.40144517164799
 20
1318.18901396296
 11
790.58803949950379
 21
1319.593283617965
  0
LINE
  8
_0-2_02___PRT_ALL_AXES
  6
CONTINUOUS
 62
    7
 10
790.58803949950379
 20
1319.593283617965
 11
789.81367427785381
 21
1320.9971576212361
  0
LINE
  8
_0-2_02___PRT_ALL_AXES
  6
CONTINUOUS
 62
    7
 10
789.81367427785381
 20
1320.9971576212361
 11
789.08078821149775
 21
1322.3975504054079
  0
LINE
  8
_0-2_02___PRT_ALL_AXES
  6
CONTINUOUS
 62
    7
 10
789.08078821149775
 20
1322.3975504054079
 11
788.39194233366788
 21
1323.7904305264242
  0
LINE
  8
_0-2_02___PRT_ALL_AXES
  6
CONTINUOUS
 62
    7
 10
788.39194233366788
 20
1323.7904305264242
 11
787.74839303072486
 21
1325.173627710747
  0
LINE
  8
_0-2_02___PRT_ALL_AXES
  6
CONTINUOUS
 62
    7
 10
787.74839303072486
 20
1325.173627710747
 11
787.15092025158083
 21
1326.5454675456758
  0
LINE
  8
_0-2_02___PRT_ALL_AXES
  6
CONTINUOUS
 62
    7
 10
787.15092025158083
 20
1326.5454675456758
 11
786.59966521693286
 21
1327.9053446107769
  0
LINE
  8
_0-2_02___PRT_ALL_AXES
  6
CONTINUOUS
 62
    7
 10
786.59966521693286
 20
1327.9053446107769
 11
786.09506420073785
 21
1329.2515532025818
  0
LINE
  8
_0-2_02___PRT_ALL_AXES
  6
CONTINUOUS
 62
    7
 10
786.09506420073785
 20
1329.2515532025818
 11
785.63680929479597
 21
1330.5839175855999
  0
LINE
  8
_0-2_02___PRT_ALL_AXES
  6
CONTINUOUS
 62
    7
 10
785.63680929479597
 20
1330.5839175855999
 11
785.22455189477478
 21
1331.902207835476
  0
LINE
  8
_0-2_02___PRT_ALL_AXES
  6
CONTINUOUS
 62
    7
 10
785.22455189477478
 20
1331.902207835476
 11
784.85789035428797
 21
1333.206150712725
  0
LINE
  8
_0-2_02___PRT_ALL_AXES
  6
CONTINUOUS
 62
    7
 10
784.85789035428797
 20
1333.206150712725
 11
784.53603494948584
 21
1334.4968351420198
  0
LINE
  8
_0-2_02___PRT_ALL_AXES
  6
CONTINUOUS
 62
    7
 10
784.53603494948584
 20
1334.4968351420198
 11
784.25853751387876
 21
1335.774178524844
  0
LINE
  8
_0-2_02___PRT_ALL_AXES
  6
CONTINUOUS
 62
    7
 10
784.25853751387876
 20
1335.774178524844
 11
784.02475132206791
 21
1337.0390301886841
  0
LINE
  8
_0-2_02___PRT_ALL_AXES
  6
CONTINUOUS
 62
    7
 10
784.02475132206791
 20
1337.0390301886841
 11
783.83406730059187
 21
1338.292574712832
  0
LINE
  8
_0-2_02___PRT_ALL_AXES
  6
CONTINUOUS
 62
    7
 10
783.83406730059187
 20
1338.292574712832
 11
783.6861113554578
 21
1339.5350024761301
  0
LINE
  8
_0-2_02___PRT_ALL_AXES
  6
CONTINUOUS
 62
    7
 10
783.6861113554578
 20
1339.5350024761301
 11
783.58041868495366
 21
1340.7679229170658
  0
LINE
  8
_0-2_02___PRT_ALL_AXES
  6
CONTINUOUS
 62
    7
 10
783.58041868495366
 20
1340.7679229170658
 11
783.51675811809082
 21
1341.9921004702301
  0
LINE
  8
_0-2_02___PRT_ALL_AXES
  6
CONTINUOUS
 62
    7
 10
783.51675811809082
 20
1341.9921004702301
 11
783.49499752407201
 21
1343.207949209469
  0
LINE
  8
_0-2_02___PRT_ALL_AXES
  6
CONTINUOUS
 62
    7
 10
783.49499752407201
 20
1343.207949209469
 11
783.51510665682781
 21
1344.417152617576
  0
LINE
  8
_0-2_02___PRT_ALL_AXES
  6
CONTINUOUS
 62
    7
 10
783.51510665682781
 20
1344.417152617576
 11
783.57720529742483
 21
1345.620014522236
  0
LINE
  8
_0-2_02___PRT_ALL_AXES
  6
CONTINUOUS
 62
    7
 10
783.57720529742483
 20
1345.620014522236
 11
783.68150066262206
 21
1346.817059557402
  0
LINE
  8
_0-2_02___PRT_ALL_AXES
  6
CONTINUOUS
 62
    7
 10
783.68150066262206
 20
1346.817059557402
 11
783.82840729565487
 21
1348.0095211938101
  0
LINE
  8
_0-2_02___PRT_ALL_AXES
  6
CONTINUOUS
 62
    7
 10
783.82840729565487
 20
1348.0095211938101
 11
784.01830117723284
 21
1349.1971505127299
  0
LINE
  8
_0-2_02___PRT_ALL_AXES
  6
CONTINUOUS
 62
    7
 10
784.01830117723284
 20
1349.1971505127299
 11
784.251757423046
 21
1350.3805093459059
  0
LINE
  8
_0-2_02___PRT_ALL_AXES
  6
CONTINUOUS
 62
    7
 10
784.251757423046
 20
1350.3805093459059
 11
784.52940794749975
 21
1351.5597428802462
  0
LINE
  8
_0-2_02___PRT_ALL_AXES
  6
CONTINUOUS
 62
    7
 10
784.52940794749975
 20
1351.5597428802462
 11
784.85171624700206
 21
1352.734011912195
  0
LINE
  8
_0-2_02___PRT_ALL_AXES
  6
CONTINUOUS
 62
    7
 10
784.85171624700206
 20
1352.734011912195
 11
785.21944950010266
 21
1353.9034233808361
  0
LINE
  8
_0-2_02___PRT_ALL_AXES
  6
CONTINUOUS
 62
    7
 10
785.21944950010266
 20
1353.9034233808361
 11
785.63303893098782
 21
1355.0667564631062
  0
LINE
  8
_0-2_02___PRT_ALL_AXES
  6
CONTINUOUS
 62
    7
 10
785.63303893098782
 20
1355.0667564631062
 11
786.09285664406571
 21
1356.2227170376418
  0
LINE
  8
_0-2_02___PRT_ALL_AXES
  6
CONTINUOUS
 62
    7
 10
786.09285664406571
 20
1356.2227170376418
 11
786.5992411189759
 21
1357.3699739895042
  0
LINE
  8
_0-2_02___PRT_ALL_AXES
  6
CONTINUOUS
 62
    7
 10
786.5992411189759
 20
1357.3699739895042
 11
787.15183379433165
 21
1358.5058167696302
  0
LINE
  8
_0-2_02___PRT_ALL_AXES
  6
CONTINUOUS
 62
    7
 10
787.15183379433165
 20
1358.5058167696302
 11
787.75053409451584
 21
1359.6283965846628
  0
LINE
  8
_0-2_02___PRT_ALL_AXES
  6
CONTINUOUS
 62
    7
 10
787.75053409451584
 20
1359.6283965846628
 11
788.39464619998989
 21
1360.7349436164209
  0
LINE
  8
_0-2_02___PRT_ALL_AXES
  6
CONTINUOUS
 62
    7
 10
788.39464619998989
 20
1360.7349436164209
 11
789.08300872978998
 21
1361.8222721295938
  0
LINE
  8
_0-2_02___PRT_ALL_AXES
  6
CONTINUOUS
 62
    7
 10
789.08300872978998
 20
1361.8222721295938
 11
789.81321375781999
 21
1362.8858192491298
  0
LINE
  8
_0-2_02___PRT_ALL_AXES
  6
CONTINUOUS
 62
    7
 10
789.81321375781999
 20
1362.8858192491298
 11
790.58293912794079
 21
1363.921875375388
  0
LINE
  8
_0-2_02___PRT_ALL_AXES
  6
CONTINUOUS
 62
    7
 10
790.58293912794079
 20
1363.921875375388
 11
791.38956859164182
 21
1364.9268649132841
  0
LINE
  8
_0-2_02___PRT_ALL_AXES
  6
CONTINUOUS
 62
    7
 10
791.38956859164182
 20
1364.9268649132841
 11
792.23018197975262
 21
1365.8973169063361
  0
LINE
  8
_0-2_02___PRT_ALL_AXES
  6
CONTINUOUS
 62
    7
 10
792.23018197975262
 20
1365.8973169063361
 11
793.10203293607401
 21
1366.830357665091
  0
LINE
  8
_0-2_02___PRT_ALL_AXES
  6
CONTINUOUS
 62
    7
 10
793.10203293607401
 20
1366.830357665091
 11
794.00061776170969
 21
1367.72169814987
  0
LINE
  8
_0-2_02___PRT_ALL_AXES
  6
CONTINUOUS
 62
    7
 10
794.00061776170969
 20
1367.72169814987
 11
794.92118143569087
 21
1368.5675245521938
  0
LINE
  8
_0-2_02___PRT_ALL_AXES
  6
CONTINUOUS
 62
    7
 10
794.92118143569087
 20
1368.5675245521938
 11
795.85987533147681
 21
1369.3654156681182
  0
LINE
  8
_0-2_02___PRT_ALL_AXES
  6
CONTINUOUS
 62
    7
 10
795.85987533147681
 20
1369.3654156681182
 11
796.81255499507597
 21
1370.113065264256
  0
LINE
  8
_0-2_02___PRT_ALL_AXES
  6
CONTINUOUS
 62
    7
 10
796.81255499507597
 20
1370.113065264256
 11
797.77488293427086
 21
1370.808415340151
  0
LINE
  8
_0-2_02___PRT_ALL_AXES
  6
CONTINUOUS
 62
    7
 10
797.77488293427086
 20
1370.808415340151
 11
798.74254431644567
 21
1371.449829625773
  0
LINE
  8
_0-2_02___PRT_ALL_AXES
  6
CONTINUOUS
 62
    7
 10
798.74254431644567
 20
1371.449829625773
 11
799.71223336919002
 21
1372.036646996205
  0
LINE
  8
_0-2_02___PRT_ALL_AXES
  6
CONTINUOUS
 62
    7
 10
799.71223336919002
 20
1372.036646996205
 11
800.68048936129981
 21
1372.5682990802202
  0
LINE
  8
_0-2_02___PRT_ALL_AXES
  6
CONTINUOUS
 62
    7
 10
800.68048936129981
 20
1372.5682990802202
 11
801.64469509785704
 21
1373.0448446546861
  0
LINE
  8
_0-2_02___PRT_ALL_AXES
  6
CONTINUOUS
 62
    7
 10
801.64469509785704
 20
1373.0448446546861
 11
802.60217330786463
 21
1373.4663978626322
  0
LINE
  8
_0-2_02___PRT_ALL_AXES
  6
CONTINUOUS
 62
    7
 10
802.60217330786463
 20
1373.4663978626322
 11
803.55001961917969
 21
1373.833120234342
  0
LINE
  8
_0-4__B______3
  6
CONTINUOUS
 62
    7
 10
945.64358220313989
 20
1355.5080524982159
 11
935.27333225914981
 21
1505.0486150484462
  0
LINE
  8
_0-4__B______3
  6
CONTINUOUS
 62
    7
 10
946.64599998341464
 20
1356.2503187548541
 11
936.27575003942593
 21
1505.790881305084
  0
LINE
  8
_0-4__B______3
  6
CONTINUOUS
 62
    7
 10
936.27575003942593
 20
1505.790881305084
 11
936.2738257425367
 21
1506.2015427311562
  0
LINE
  8
_0-4__B______3
  6
CONTINUOUS
 62
    7
 10
936.2738257425367
 20
1506.2015427311562
 11
936.32805056626876
 21
1506.5422560799539
  0
LINE
  8
_0-4__B______3
  6
CONTINUOUS
 62
    7
 10
936.32805056626876
 20
1506.5422560799539
 11
936.43472917942881
 21
1506.7898023001248
  0
LINE
  8
_0-4__B______3
  6
CONTINUOUS
 62
    7
 10
936.43472917942881
 20
1506.7898023001248
 11
936.58659160976595
 21
1506.9273115254882
  0
LINE
  8
_0-4__B______3
  6
CONTINUOUS
 62
    7
 10
936.58659160976595
 20
1506.9273115254882
 11
936.63219494527993
 21
1506.9436832273141
  0
LINE
  8
_0-2_02___PRT_ALL_AXES
  6
CONTINUOUS
 62
    7
 10
690.23498689993994
 20
1037.7078914884301
 11
690.41428885731193
 21
1037.9116216981902
  0
LINE
  8
_0-2_02___PRT_ALL_AXES
  6
CONTINUOUS
 62
    7
 10
690.41428885731193
 20
1037.9116216981902
 11
690.59071815012203
 21
1038.129054777165
  0
LINE
  8
_0-2_02___PRT_ALL_AXES
  6
CONTINUOUS
 62
    7
 10
690.59071815012203
 20
1038.129054777165
 11
690.76366679152261
 21
1038.3595592315742
  0
LINE
  8
_0-2_02___PRT_ALL_AXES
  6
CONTINUOUS
 62
    7
 10
690.76366679152261
 20
1038.3595592315742
 11
690.93252651425473
 21
1038.6024612552942
  0
LINE
  8
_0-2_02___PRT_ALL_AXES
  6
CONTINUOUS
 62
    7
 10
690.93252651425473
 20
1038.6024612552942
 11
691.09669198856591
 21
1038.8570458180061
  0
LINE
  8
_0-2_02___PRT_ALL_AXES
  6
CONTINUOUS
 62
    7
 10
691.09669198856591
 20
1038.8570458180061
 11
691.2555642694997
 21
1039.1225581472791
  0
LINE
  8
_0-2_02___PRT_ALL_AXES
  6
CONTINUOUS
 62
    7
 10
691.2555642694997
 20
1039.1225581472791
 11
691.40855455432302
 21
1039.3982058522702
  0
LINE
  8
_0-2_02___PRT_ALL_AXES
  6
CONTINUOUS
 62
    7
 10
691.40855455432302
 20
1039.3982058522702
 11
691.55508796356798
 21
1039.6831613819259
  0
LINE
  8
_0-2_02___PRT_ALL_AXES
  6
CONTINUOUS
 62
    7
 10
691.55508796356798
 20
1039.6831613819259
 11
691.69460747294579
 21
1039.9765651743401
  0
LINE
  8
_0-2_02___PRT_ALL_AXES
  6
CONTINUOUS
 62
    7
 10
691.69460747294579
 20
1039.9765651743401
 11
691.82657768373201
 21
1040.277529037739
  0
LINE
  8
_0-2_02___PRT_ALL_AXES
  6
CONTINUOUS
 62
    7
 10
691.82657768373201
 20
1040.277529037739
 11
691.95048851922184
 21
1040.5851400557399
  0
LINE
  8
_0-2_02___PRT_ALL_AXES
  6
CONTINUOUS
 62
    7
 10
691.95048851922184
 20
1040.5851400557399
 11
692.06585858362905
 21
1040.8984645428818
  0
LINE
  8
_0-2_02___PRT_ALL_AXES
  6
CONTINUOUS
 62
    7
 10
692.06585858362905
 20
1040.8984645428818
 11
692.17223826114196
 21
1041.2165522501141
  0
LINE
  8
_0-2_02___PRT_ALL_AXES
  6
CONTINUOUS
 62
    7
 10
692.17223826114196
 20
1041.2165522501141
 11
692.26921238977275
 21
1041.5384404780661
  0
LINE
  8
_0-2_02___PRT_ALL_AXES
  6
CONTINUOUS
 62
    7
 10
692.26921238977275
 20
1041.5384404780661
 11
692.3564025092719
 21
1041.863157986872
  0
LINE
  8
_0-2_02___PRT_ALL_AXES
  6
CONTINUOUS
 62
    7
 10
692.3564025092719
 20
1041.863157986872
 11
692.43346873258406
 21
1042.1897288572241
  0
LINE
  8
_0-2_02___PRT_ALL_AXES
  6
CONTINUOUS
 62
    7
 10
692.43346873258406
 20
1042.1897288572241
 11
692.50011111441063
 21
1042.5171756481
  0
LINE
  8
_0-2_02___PRT_ALL_AXES
  6
CONTINUOUS
 62
    7
 10
692.50011111441063
 20
1042.5171756481
 11
692.5560707583968
 21
1042.84452268327
  0
LINE
  8
_0-2_02___PRT_ALL_AXES
  6
CONTINUOUS
 62
    7
 10
692.5560707583968
 20
1042.84452268327
 11
692.60113046863398
 21
1043.170798278622
  0
LINE
  8
_0-2_02___PRT_ALL_AXES
  6
CONTINUOUS
 62
    7
 10
692.60113046863398
 20
1043.170798278622
 11
692.63511526324965
 21
1043.4950372956241
  0
LINE
  8
_0-2_02___PRT_ALL_AXES
  6
CONTINUOUS
 62
    7
 10
692.63511526324965
 20
1043.4950372956241
 11
692.65789257405686
 21
1043.816282573121
  0
LINE
  8
_0-2_02___PRT_ALL_AXES
  6
CONTINUOUS
 62
    7
 10
692.65789257405686
 20
1043.816282573121
 11
692.66937239666595
 21
1044.133586788143
  0
LINE
  8
_0-2_02___PRT_ALL_AXES
  6
CONTINUOUS
 62
    7
 10
692.66937239666595
 20
1044.133586788143
 11
692.66950730419376
 21
1044.4460134899341
  0
LINE
  8
_0-5________-2___M4
  6
CONTINUOUS
 62
    7
 10
993.50167527441772
 20
1350.742051606564
 11
993.85977096487886
 21
1351.0943219914302
  0
LINE
  8
_0-2_02___PRT_ALL_AXES
  6
CONTINUOUS
 62
    7
 10
668.40596766804674
 20
1140.5394628690719
 11
667.69786633291869
 21
1140.0347388813161
  0
LINE
  8
_0-2_02___PRT_ALL_AXES
  6
CONTINUOUS
 62
    7
 10
667.69786633291869
 20
1140.0347388813161
 11
667.00467793443795
 21
1139.3822215409382
  0
LINE
  8
_0-2_02___PRT_ALL_AXES
  6
CONTINUOUS
 62
    7
 10
667.00467793443795
 20
1139.3822215409382
 11
666.33826083013901
 21
1138.593071397117
  0
LINE
  8
_0-2_02___PRT_ALL_AXES
  6
CONTINUOUS
 62
    7
 10
666.33826083013901
 20
1138.593071397117
 11
665.71001596039287
 21
1137.6807855325901
  0
LINE
  8
_0-2_02___PRT_ALL_AXES
  6
CONTINUOUS
 62
    7
 10
665.71001596039287
 20
1137.6807855325901
 11
665.13069204766862
 21
1136.660967090645
  0
LINE
  8
_0-2_02___PRT_ALL_AXES
  6
CONTINUOUS
 62
    7
 10
665.13069204766862
 20
1136.660967090645
 11
664.61020190196177
 21
1135.5510588380262
  0
LINE
  8
_0-2_02___PRT_ALL_AXES
  6
CONTINUOUS
 62
    7
 10
664.61020190196177
 20
1135.5510588380262
 11
664.15745298094271
 21
1134.370045301403
  0
LINE
  8
_0-2_02___PRT_ALL_AXES
  6
CONTINUOUS
 62
    7
 10
664.15745298094271
 20
1134.370045301403
 11
663.78019507607587
 21
1133.138128559247
  0
LINE
  8
_0-2_02___PRT_ALL_AXES
  6
CONTINUOUS
 62
    7
 10
668.73324840921805
 20
1122.2538425135381
 11
669.44134984492985
 21
1122.758566572159
  0
LINE
  8
_0-2_02___PRT_ALL_AXES
  6
CONTINUOUS
 62
    7
 10
669.44134984492985
 20
1122.758566572159
 11
670.1345382426498
 21
1123.4110839125378
  0
LINE
  8
_0-2_02___PRT_ALL_AXES
  6
CONTINUOUS
 62
    7
 10
670.1345382426498
 20
1123.4110839125378
 11
670.80095534694783
 21
1124.2002340563581
  0
LINE
  8
_0-2_02___PRT_ALL_AXES
  6
CONTINUOUS
 62
    7
 10
670.80095534694783
 20
1124.2002340563581
 11
671.42920021669261
 21
1125.112519920885
  0
LINE
  8
_0-2_02___PRT_ALL_AXES
  6
CONTINUOUS
 62
    7
 10
671.42920021669261
 20
1125.112519920885
 11
672.00852413017992
 21
1126.1323383628301
  0
LINE
  8
_0-2_02___PRT_ALL_AXES
  6
CONTINUOUS
 62
    7
 10
672.00852413017992
 20
1126.1323383628301
 11
672.52901427512597
 21
1127.242246616212
  0
LINE
  8
_0-2_02___PRT_ALL_AXES
  6
CONTINUOUS
 62
    7
 10
672.52901427512597
 20
1127.242246616212
 11
672.98176319614277
 21
1128.4232601520721
  0
LINE
  8
_0-2_02___PRT_ALL_AXES
  6
CONTINUOUS
 62
    7
 10
672.98176319614277
 20
1128.4232601520721
 11
673.35902116197076
 21
1129.655177092347
  0
LINE
  8
_0-2_02___PRT_ALL_AXES
  6
CONTINUOUS
 62
    7
 10
668.40596777396468
 20
1140.5394629368902
 11
667.82054218586472
 21
1140.1618850598402
  0
LINE
  8
_0-2_02___PRT_ALL_AXES
  6
CONTINUOUS
 62
    7
 10
667.82054218586472
 20
1140.1618850598402
 11
667.29476885946087
 21
1139.7697382952401
  0
LINE
  8
_0-2_02___PRT_ALL_AXES
  6
CONTINUOUS
 62
    7
 10
667.29476885946087
 20
1139.7697382952401
 11
666.82332597075083
 21
1139.3616876952901
  0
LINE
  8
_0-2_02___PRT_ALL_AXES
  6
CONTINUOUS
 62
    7
 10
666.82332597075083
 20
1139.3616876952901
 11
666.39750492043868
 21
1138.933493340352
  0
LINE
  8
_0-2_02___PRT_ALL_AXES
  6
CONTINUOUS
 62
    7
 10
666.39750492043868
 20
1138.933493340352
 11
666.00708572490066
 21
1138.4773676940581
  0
LINE
  8
_0-5________-2___M4
  6
CONTINUOUS
 62
    7
 10
993.85977096487886
 20
1351.0943219914302
 11
994.37369168227406
 21
1351.423204739302
  0
LINE
  8
_0-5________-2___M4
  6
CONTINUOUS
 62
    7
 10
994.37369168227406
 20
1351.423204739302
 11
995.02381277191989
 21
1351.7140531898622
  0
LINE
  8
_0-5________-2___M4
  6
CONTINUOUS
 62
    7
 10
995.02381277191989
 20
1351.7140531898622
 11
995.78275105592002
 21
1351.9542237422861
  0
LINE
  8
_0-4__B______3
  6
CONTINUOUS
 62
    7
 10
946.64599998341464
 20
1356.2503187548541
 11
946.25224916614297
 21
1356.118312960954
  0
LINE
  8
_0-4__B______3
  6
CONTINUOUS
 62
    7
 10
946.25224916614297
 20
1356.118312960954
 11
945.94134979962791
 21
1355.9533409637461
  0
LINE
  8
_0-4__B______3
  6
CONTINUOUS
 62
    7
 10
945.94134979962791
 20
1355.9533409637461
 11
945.73448916127882
 21
1355.766645332566
  0
LINE
  8
_0-4__B______3
  6
CONTINUOUS
 62
    7
 10
945.73448916127882
 20
1355.766645332566
 11
945.64576446293586
 21
1355.5709490663521
  0
LINE
  8
_0-4__B______3
  6
CONTINUOUS
 62
    7
 10
945.64576446293586
 20
1355.5709490663521
 11
945.64358220313989
 21
1355.5080524982159
  0
LINE
  8
_0-2_02___PRT_ALL_AXES
  6
CONTINUOUS
 62
    7
 10
834.7921785540907
 20
1118.148937289277
 11
841.21602673151483
 21
1119.490423104141
  0
LINE
  8
_0-2_02___PRT_ALL_AXES
  6
CONTINUOUS
 62
    7
 10
832.71484079665879
 20
1122.0842926214982
 11
822.67622361815575
 21
1119.9879381977562
  0
LINE
  8
_0-0_0
  6
CONTINUOUS
 62
    2
 10
821.14227459182484
 20
1120.71849636859
 11
832.21519002735795
 21
1123.0308422671301
  0
LINE
  8
_0-2_02___PRT_ALL_AXES
  6
CONTINUOUS
 62
    7
 10
830.2451974090568
 20
1126.762840553944
 11
836.66904558648093
 21
1128.1043263695701
  0
LINE
  8
_0-2_02___PRT_ALL_AXES
  6
CONTINUOUS
 62
    7
 10
822.67622353357365
 20
1119.9879386046641
 11
822.56139698623974
 21
1119.971615596161
  0
LINE
  8
_0-2_02___PRT_ALL_AXES
  6
CONTINUOUS
 62
    7
 10
822.56139698623974
 20
1119.971615596161
 11
822.42972135779564
 21
1119.9705535060839
  0
LINE
  8
_0-2_02___PRT_ALL_AXES
  6
CONTINUOUS
 62
    7
 10
822.42972135779564
 20
1119.9705535060839
 11
822.2940033483078
 21
1119.987451717906
  0
LINE
  8
_0-2_02___PRT_ALL_AXES
  6
CONTINUOUS
 62
    7
 10
822.2940033483078
 20
1119.987451717906
 11
822.15472449453182
 21
1120.0222163608478
  0
LINE
  8
_0-2_02___PRT_ALL_AXES
  6
CONTINUOUS
 62
    7
 10
822.15472449453182
 20
1120.0222163608478
 11
822.01212950133777
 21
1120.0747495864898
  0
LINE
  8
_0-2_02___PRT_ALL_AXES
  6
CONTINUOUS
 62
    7
 10
822.01212950133777
 20
1120.0747495864898
 11
821.86671507842493
 21
1120.1448372941682
  0
LINE
  8
_0-2_02___PRT_ALL_AXES
  6
CONTINUOUS
 62
    7
 10
821.86671507842493
 20
1120.1448372941682
 11
821.71879805091703
 21
1120.232297506851
  0
LINE
  8
_0-2_02___PRT_ALL_AXES
  6
CONTINUOUS
 62
    7
 10
821.71879805091703
 20
1120.232297506851
 11
821.56887262229475
 21
1120.3368205469801
  0
LINE
  8
_0-2_02___PRT_ALL_AXES
  6
CONTINUOUS
 62
    7
 10
821.89849019419989
 20
1285.1866766149601
 11
821.4036047366767
 21
1285.4636629786901
  0
LINE
  8
_0-2_02___PRT_ALL_AXES
  6
CONTINUOUS
 62
    7
 10
821.4036047366767
 20
1285.4636629786901
 11
820.88510687273583
 21
1285.775895272182
  0
LINE
  8
_0-2_02___PRT_ALL_AXES
  6
CONTINUOUS
 62
    7
 10
820.88510687273583
 20
1285.775895272182
 11
820.3432290923829
 21
1286.122895202514
  0
LINE
  8
_0-2_02___PRT_ALL_AXES
  6
CONTINUOUS
 62
    7
 10
820.3432290923829
 20
1286.122895202514
 11
819.77831065935698
 21
1286.5041743177799
  0
LINE
  8
_0-2_02___PRT_ALL_AXES
  6
CONTINUOUS
 62
    7
 10
819.77831065935698
 20
1286.5041743177799
 11
819.19018745485982
 21
1286.919656569617
  0
LINE
  8
_0-2_02___PRT_ALL_AXES
  6
CONTINUOUS
 62
    7
 10
819.19018745485982
 20
1286.919656569617
 11
818.57928801397384
 21
1287.3689289105941
  0
LINE
  8
_0-5________-2___M4
  6
CONTINUOUS
 62
    7
 10
957.5387831482758
 20
1354.1736173314289
 11
957.38753068979486
 21
1356.354700518657
  0
LINE
  8
_0-5________-2___M4
  6
CONTINUOUS
 62
    7
 10
958.60770597435794
 20
1353.957114244497
 11
958.49111233606982
 21
1355.6384120200719
  0
LINE
  8
_0-5________-2___M4
  6
CONTINUOUS
 62
    7
 10
958.49279281200779
 20
1355.6242816193248
 11
958.42323328386783
 21
1356.6273404709641
  0
LINE
  8
_0-6_____________M6_20
  6
CONTINUOUS
 62
    7
 10
989.40784718472196
 20
1328.8131916889079
 11
989.44780895341273
 21
1328.2369369864541
  0
LINE
  8
_0-6_____________M6_20
  6
CONTINUOUS
 62
    7
 10
990.24933753729783
 20
1333.200590621992
 11
990.4035419974939
 21
1330.9769391345822
  0
LINE
  8
_0-5________-2___M4
  6
CONTINUOUS
 62
    7
 10
993.2767999784237
 20
1350.09856455826
 11
993.30789622306293
 21
1350.37550030995
  0
LINE
  8
_0-5________-2___M4
  6
CONTINUOUS
 62
    7
 10
993.30789622306293
 20
1350.37550030995
 11
993.50167527441772
 21
1350.742051606564
  0
LINE
  8
_0-5________-2___M4
  6
CONTINUOUS
 62
    7
 10
1002.3987051841577
 20
1350.7311450487482
 11
1002.3676089387559
 21
1350.4542092970578
  0
LINE
  8
_0-5________-2___M4
  6
CONTINUOUS
 62
    7
 10
1002.3676089387559
 20
1350.4542092970578
 11
1002.1738298881628
 21
1350.0876580004442
  0
LINE
  8
_0-5________-2___M4
  6
CONTINUOUS
 62
    7
 10
1002.1738298881628
 20
1350.0876580004442
 11
1001.8157341977007
 21
1349.735387615578
  0
LINE
  8
_0-5________-2___M4
  6
CONTINUOUS
 62
    7
 10
1001.8157341977007
 20
1349.735387615578
 11
1001.3018134803078
 21
1349.4065048677062
  0
LINE
  8
_0-5________-2___M4
  6
CONTINUOUS
 62
    7
 10
1001.3018134803078
 20
1349.4065048677062
 11
1000.6516923898989
 21
1349.1156564171461
  0
LINE
  8
_0-5________-2___M4
  6
CONTINUOUS
 62
    7
 10
1000.6516923898989
 20
1349.1156564171461
 11
999.8927541058988
 21
1348.8754858647221
  0
LINE
  8
_0-6_____________M6_20
  6
CONTINUOUS
 62
    7
 10
990.24944732854283
 20
1333.200598209226
 11
990.52105824785576
 21
1334.2497949538561
  0
LINE
  8
_0-6_____________M6_20
  6
CONTINUOUS
 62
    7
 10
990.52105824785576
 20
1334.2497949538561
 11
991.53783679976596
 21
1335.3318407016218
  0
LINE
  8
_0-6_____________M6_20
  6
CONTINUOUS
 62
    7
 10
991.53783679976596
 20
1335.3318407016218
 11
993.23704140846166
 21
1336.300376984002
  0
LINE
  8
_0-6_____________M6_20
  6
CONTINUOUS
 62
    7
 10
989.40797015094677
 20
1328.813200186732
 11
989.71217438048598
 21
1329.9883005408701
  0
LINE
  8
_0-6_____________M6_20
  6
CONTINUOUS
 62
    7
 10
990.69116139609105
 20
1332.0529938577538
 11
990.40355772060184
 21
1330.97694022729
  0
LINE
  8
_0-6_____________M6_20
  6
CONTINUOUS
 62
    7
 10
990.63167504541661
 20
1330.992759585034
 11
990.94537536238886
 21
1332.0964727555561
  0
LINE
  8
_0-6_____________M6_20
  6
CONTINUOUS
 62
    7
 10
990.94537536238886
 20
1332.0964727555561
 11
991.95813784511574
 21
1333.12424595934
  0
LINE
  8
_0-6_____________M6_20
  6
CONTINUOUS
 62
    7
 10
989.97809954383274
 20
1329.7453951864481
 11
989.46053880196905
 21
1328.603833632897
  0
LINE
  8
_0-6_____________M6_20
  6
CONTINUOUS
 62
    7
 10
989.46053880196905
 20
1328.603833632897
 11
989.44780895341273
 21
1328.2369369864541
  0
LINE
  8
_0-6_____________M6_20
  6
CONTINUOUS
 62
    7
 10
1010.0943139033998
 20
1328.0713556109881
 11
1010.2023995846107
 21
1328.2045300637142
  0
LINE
  8
_0-6_____________M6_20
  6
CONTINUOUS
 62
    7
 10
1010.2023995846107
 20
1328.2045300637142
 11
1010.7199603264748
 21
1329.3460916180261
  0
LINE
  8
_0-6_____________M6_20
  6
CONTINUOUS
 62
    7
 10
1010.7199603264748
 20
1329.3460916180261
 11
1010.7326901750307
 21
1329.7129882637082
  0
LINE
  8
_0-6_____________M6_20
  6
CONTINUOUS
 62
    7
 10
989.71217438048598
 20
1329.9883005408701
 11
990.85096635892887
 21
1331.200191778245
  0
LINE
  8
_0-6_____________M6_20
  6
CONTINUOUS
 62
    7
 10
1010.0943139033998
 20
1328.0713556109881
 11
1008.0676767204618
 21
1326.1272719589042
  0
LINE
  8
_0-6_____________M6_20
  6
CONTINUOUS
 62
    7
 10
1008.0676767204618
 20
1326.1272719589042
 11
1005.7720517925427
 21
1324.6718815725098
  0
LINE
  8
_0-6_____________M6_20
  6
CONTINUOUS
 62
    7
 10
1005.7720517925427
 20
1324.6718815725098
 11
1003.5409279967348
 21
1323.7803583006948
  0
LINE
  8
_0-6_____________M6_20
  6
CONTINUOUS
 62
    7
 10
991.18478659857783
 20
1330.8344530349982
 11
989.97809954383274
 21
1329.7453951864481
  0
LINE
  8
_0-6_____________M6_20
  6
CONTINUOUS
 62
    7
 10
1004.8999404882547
 20
1326.126949965897
 11
1004.0539338546428
 21
1325.6082306129401
  0
LINE
  8
_0-6_____________M6_20
  6
CONTINUOUS
 62
    7
 10
1004.0539338546428
 20
1325.6082306129401
 11
1003.254747491882
 21
1325.1849594843761
  0
LINE
  8
_0-6_____________M6_20
  6
CONTINUOUS
 62
    7
 10
1003.254747491882
 20
1325.1849594843761
 11
1002.5111471035448
 21
1324.845555386451
  0
LINE
  8
_0-6_____________M6_20
  6
CONTINUOUS
 62
    7
 10
1002.5111471035448
 20
1324.845555386451
 11
1001.8292238920826
 21
1324.578236979256
  0
LINE
  8
_0-6_____________M6_20
  6
CONTINUOUS
 62
    7
 10
1001.8292238920826
 20
1324.578236979256
 11
1001.2122019069279
 21
1324.3713923093801
  0
LINE
  8
_0-3_7_ALL_FEATURES
  6
CONTINUOUS
 62
    7
 10
678.62278629075672
 20
1122.5385146668241
 11
672.34599588754372
 21
1118.7652756827101
  0
LINE
  8
_0-6_____________M6_20
  6
CONTINUOUS
 62
    7
 10
990.85096635892887
 20
1331.200191778245
 11
992.75407552069873
 21
1332.2849524139019
  0
LINE
  8
_0-6_____________M6_20
  6
CONTINUOUS
 62
    7
 10
991.95813784511574
 20
1333.12424595934
 11
993.59300531629378
 21
1334.0380553415221
  0
LINE
  8
_0-4__B______3
  6
CONTINUOUS
 62
    7
 10
1283.8151210052679
 20
1442.4769238446061
 11
1284.2329400215458
 21
1442.6447753636139
  0
LINE
  8
_0-4__B______3
  6
CONTINUOUS
 62
    7
 10
1284.2329400215458
 20
1442.6447753636139
 11
1284.6144037785548
 21
1442.9148417104502
  0
LINE
  8
_0-4__B______3
  6
CONTINUOUS
 62
    7
 10
1284.6144037785548
 20
1442.9148417104502
 11
1284.933516150998
 21
1443.268718308258
  0
LINE
  8
_0-4__B______3
  6
CONTINUOUS
 62
    7
 10
1284.933516150998
 20
1443.268718308258
 11
1285.168530157981
 21
1443.6822890533781
  0
LINE
  8
_0-4__B______3
  6
CONTINUOUS
 62
    7
 10
1285.168530157981
 20
1443.6822890533781
 11
1285.3034299836859
 21
1444.1273697809438
  0
LINE
  8
_0-4__B______3
  6
CONTINUOUS
 62
    7
 10
1285.3034299836859
 20
1444.1273697809438
 11
1285.3290224272928
 21
1444.5736289765618
  0
LINE
  8
_0-6_____________M6_20
  6
CONTINUOUS
 62
    7
 10
993.23704140846166
 20
1336.300376984002
 11
995.47026347718793
 21
1337.0665607084261
  0
LINE
  8
_0-6_____________M6_20
  6
CONTINUOUS
 62
    7
 10
992.75407552069873
 20
1332.2849524139019
 11
995.25528423709284
 21
1333.1430781858362
  0
LINE
  8
_0-6_____________M6_20
  6
CONTINUOUS
 62
    7
 10
995.624467937384
 20
1334.8429092202541
 11
993.39973816129896
 21
1334.080467227488
  0
LINE
  8
_0-6_____________M6_20
  6
CONTINUOUS
 62
    7
 10
993.39973816129896
 20
1334.080467227488
 11
991.71169948531269
 21
1333.1230046628639
  0
LINE
  8
_0-6_____________M6_20
  6
CONTINUOUS
 62
    7
 10
991.71169948531269
 20
1333.1230046628639
 11
990.69116139609105
 21
1332.0529938577538
  0
LINE
  8
_0-6_____________M6_20
  6
CONTINUOUS
 62
    7
 10
993.59300531629378
 20
1334.0380553415221
 11
995.72721801382386
 21
1334.7659407737342
  0
LINE
  8
_0-6_____________M6_20
  6
CONTINUOUS
 62
    7
 10
995.29524600578497
 20
1332.566823483382
 11
992.99836623760393
 21
1331.7967896846162
  0
LINE
  8
_0-6_____________M6_20
  6
CONTINUOUS
 62
    7
 10
992.99836623760393
 20
1331.7967896846162
 11
991.18478659857783
 21
1330.8344530349982
  0
LINE
  8
_0-6_____________M6_20
  6
CONTINUOUS
 62
    7
 10
1000.6710515051059
 20
1324.7767594638449
 11
1001.2880748016628
 21
1324.9836046076862
  0
LINE
  8
_0-6_____________M6_20
  6
CONTINUOUS
 62
    7
 10
1001.2880748016628
 20
1324.9836046076862
 11
1001.969998633394
 21
1325.2509233562582
  0
LINE
  8
_0-6_____________M6_20
  6
CONTINUOUS
 62
    7
 10
1001.969998633394
 20
1325.2509233562582
 11
1002.713598993535
 21
1325.5903275730529
  0
LINE
  8
_0-6_____________M6_20
  6
CONTINUOUS
 62
    7
 10
1002.713598993535
 20
1325.5903275730529
 11
1003.5127846941186
 21
1326.0135984730182
  0
LINE
  8
_0-6_____________M6_20
  6
CONTINUOUS
 62
    7
 10
1003.5127846941186
 20
1326.0135984730182
 11
1004.3587900864327
 21
1326.532317119601
  0
LINE
  8
_0-5________-2___M4
  6
CONTINUOUS
 62
    7
 10
999.77710123966972
 20
1350.5432175813221
 11
1000.5323184932649
 21
1350.7819871876022
  0
LINE
  8
_0-5________-2___M4
  6
CONTINUOUS
 62
    7
 10
1000.5323184932649
 20
1350.7819871876022
 11
1001.1805084501207
 21
1351.0712304379181
  0
LINE
  8
_0-5________-2___M4
  6
CONTINUOUS
 62
    7
 10
1001.1805084501207
 20
1351.0712304379181
 11
1001.6947313005157
 21
1351.3989435668441
  0
LINE
  8
_0-5________-2___M4
  6
CONTINUOUS
 62
    7
 10
1001.6947313005157
 20
1351.3989435668441
 11
1001.8323683513777
 21
1351.5335259319181
  0
LINE
  8
_0-5________-2___M4
  6
CONTINUOUS
 62
    7
 10
1280.173163554628
 20
1438.6065025107882
 11
1280.468553038269
 21
1438.697564068822
  0
LINE
  8
_0-5________-2___M4
  6
CONTINUOUS
 62
    7
 10
1280.468553038269
 20
1438.697564068822
 11
1280.785482698288
 21
1438.822004191798
  0
LINE
  8
_0-5________-2___M4
  6
CONTINUOUS
 62
    7
 10
1280.785482698288
 20
1438.822004191798
 11
1281.1174228568589
 21
1438.97981336767
  0
LINE
  8
_0-5________-2___M4
  6
CONTINUOUS
 62
    7
 10
1281.1174228568589
 20
1438.97981336767
 11
1281.4193700164888
 21
1439.148297606519
  0
LINE
  8
_0-5________-2___M4
  6
CONTINUOUS
 62
    7
 10
1281.4193700164888
 20
1439.148297606519
 11
1281.7330785775398
 21
1439.3518910624261
  0
LINE
  8
_0-5________-2___M4
  6
CONTINUOUS
 62
    7
 10
1281.7330785775398
 20
1439.3518910624261
 11
1282.0332650957839
 21
1439.581845086896
  0
LINE
  8
_0-5________-2___M4
  6
CONTINUOUS
 62
    7
 10
1282.0332650957839
 20
1439.581845086896
 11
1282.2930283926139
 21
1439.823597651904
  0
LINE
  8
_0-5________-2___M4
  6
CONTINUOUS
 62
    7
 10
1282.2930283926139
 20
1439.823597651904
 11
1282.509065587411
 21
1440.0874600675361
  0
LINE
  8
_0-7_EL-M4010N_______4
  6
CONTINUOUS
 62
    7
 10
1292.1218466821047
 20
1432.1646554437839
 11
1291.9403913454998
 21
1432.111599675879
  0
LINE
  8
_0-7_EL-M4010N_______4
  6
CONTINUOUS
 62
    7
 10
1291.9403913454998
 20
1432.111599675879
 11
1291.7602199667008
 21
1432.0483198735601
  0
LINE
  8
_0-7_EL-M4010N_______4
  6
CONTINUOUS
 62
    7
 10
1291.7602199667008
 20
1432.0483198735601
 11
1291.5818969781608
 21
1431.9750142764578
  0
LINE
  8
_0-0_0
  6
CONTINUOUS
 62
    2
 10
818.91977766700393
 20
1130.6075991412722
 11
830.13446603260263
 21
1132.949551339756
  0
LINE
  8
_0-2_02___PRT_ALL_AXES
  6
CONTINUOUS
 62
    7
 10
830.1157269453679
 20
1133.996529292785
 11
820.18394410462997
 21
1131.9224849770781
  0
LINE
  8
_0-2_02___PRT_ALL_AXES
  6
CONTINUOUS
 62
    7
 10
830.05624172702483
 20
1137.3200483477922
 11
836.48008990444987
 21
1138.6615341626562
  0
LINE
  8
_0-2_02___PRT_ALL_AXES
  6
CONTINUOUS
 62
    7
 10
834.41426719078981
 20
1139.2633528762121
 11
840.83811536821304
 21
1140.6048386910761
  0
LINE
  8
_0-6_____________M6_20
  6
CONTINUOUS
 62
    7
 10
993.96852279030099
 20
1351.1639175499781
 11
993.99315583933367
 21
1350.808705287327
  0
LINE
  8
_0-6_____________M6_20
  6
CONTINUOUS
 62
    7
 10
996.3191959317187
 20
1324.2437724106958
 11
996.34477795802604
 21
1323.8748757527569
  0
LINE
  8
_0-6_____________M6_20
  6
CONTINUOUS
 62
    7
 10
999.59826128289797
 20
1324.4943565069361
 11
999.49606234886596
 21
1325.9680804959821
  0
LINE
  8
_0-6_____________M6_20
  6
CONTINUOUS
 62
    7
 10
1000.0518068154788
 20
1325.3522647354889
 11
1000.13941168472
 21
1324.0889893532321
  0
LINE
  8
_0-6_____________M6_20
  6
CONTINUOUS
 62
    7
 10
1001.2122019069279
 20
1324.3713923093801
 11
1001.1724348970538
 21
1324.9448385632982
  0
LINE
  8
_0-6_____________M6_20
  6
CONTINUOUS
 62
    7
 10
1001.9361488842278
 20
1323.978642507886
 11
1001.9730822690858
 21
1323.4460575537541
  0
LINE
  8
_0-6_____________M6_20
  6
CONTINUOUS
 62
    7
 10
1009.2536957710759
 20
1334.5184935480302
 11
1009.407900231271
 21
1332.294842060619
  0
LINE
  8
_0-6_____________M6_20
  6
CONTINUOUS
 62
    7
 10
1010.6927284071016
 20
1330.289242966162
 11
1010.7326901750307
 21
1329.7129882637082
  0
LINE
  8
_0-6_____________M6_20
  6
CONTINUOUS
 62
    7
 10
1009.3569888746229
 20
1332.104417699788
 11
1009.4078845089248
 21
1332.2948409671499
  0
LINE
  8
_0-2_02___PRT_ALL_AXES
  6
CONTINUOUS
 62
    7
 10
840.83811536821304
 20
1140.6048386910761
 11
840.66589476142281
 21
1140.4611379223429
  0
LINE
  8
_0-2_02___PRT_ALL_AXES
  6
CONTINUOUS
 62
    7
 10
840.66589476142281
 20
1140.4611379223429
 11
840.44706004669388
 21
1140.311507476114
  0
LINE
  8
_0-2_02___PRT_ALL_AXES
  6
CONTINUOUS
 62
    7
 10
840.44706004669388
 20
1140.311507476114
 11
840.17534694394362
 21
1140.152684537728
  0
LINE
  8
_0-2_02___PRT_ALL_AXES
  6
CONTINUOUS
 62
    7
 10
840.17534694394362
 20
1140.152684537728
 11
839.84427742523485
 21
1139.9820718964802
  0
LINE
  8
_0-2_02___PRT_ALL_AXES
  6
CONTINUOUS
 62
    7
 10
839.84427742523485
 20
1139.9820718964802
 11
839.44932457734785
 21
1139.7982077056622
  0
LINE
  8
_0-5________-2___M4
  6
CONTINUOUS
 62
    7
 10
1090.2789361657879
 20
1353.5600848345962
 11
1090.9051948238598
 21
1354.0089942852642
  0
LINE
  8
_0-5________-2___M4
  6
CONTINUOUS
 62
    7
 10
1090.9051948238598
 20
1354.0089942852642
 11
1091.6829514629067
 21
1354.422129897142
  0
LINE
  8
_0-5________-2___M4
  6
CONTINUOUS
 62
    7
 10
1091.6829514629067
 20
1354.422129897142
 11
1092.5939741676548
 21
1354.789374845403
  0
LINE
  8
_0-5________-2___M4
  6
CONTINUOUS
 62
    7
 10
1092.5939741676548
 20
1354.789374845403
 11
1093.6168502443279
 21
1355.1015797731902
  0
LINE
  8
_0-2_02___PRT_ALL_AXES
  6
CONTINUOUS
 62
    7
 10
669.91649462793794
 20
1056.1442923272639
 11
669.20839329204682
 21
1055.6395683395081
  0
LINE
  8
_0-2_02___PRT_ALL_AXES
  6
CONTINUOUS
 62
    7
 10
669.20839329204682
 20
1055.6395683395081
 11
668.51520489432687
 21
1054.9870509998918
  0
LINE
  8
_0-2_02___PRT_ALL_AXES
  6
CONTINUOUS
 62
    7
 10
668.51520489432687
 20
1054.9870509998918
 11
667.84878779002975
 21
1054.1979008553099
  0
LINE
  8
_0-2_02___PRT_ALL_AXES
  6
CONTINUOUS
 62
    7
 10
667.84878779002975
 20
1054.1979008553099
 11
667.2205429202827
 21
1053.2856149907821
  0
LINE
  8
_0-2_02___PRT_ALL_AXES
  6
CONTINUOUS
 62
    7
 10
667.2205429202827
 20
1053.2856149907821
 11
666.64121900679766
 21
1052.2657965496001
  0
LINE
  8
_0-2_02___PRT_ALL_AXES
  6
CONTINUOUS
 62
    7
 10
666.64121900679766
 20
1052.2657965496001
 11
666.12072886185206
 21
1051.1558882962181
  0
LINE
  8
_0-2_02___PRT_ALL_AXES
  6
CONTINUOUS
 62
    7
 10
666.12072886185206
 20
1051.1558882962181
 11
665.6679799408339
 21
1049.974874759595
  0
LINE
  8
_0-2_02___PRT_ALL_AXES
  6
CONTINUOUS
 62
    7
 10
665.6679799408339
 20
1049.974874759595
 11
665.2907220359657
 21
1048.742958018202
  0
LINE
  8
_0-2_02___PRT_ALL_AXES
  6
CONTINUOUS
 62
    7
 10
670.24377536834481
 20
1037.85867197173
 11
670.95187680405661
 21
1038.3633960303509
  0
LINE
  8
_0-2_02___PRT_ALL_AXES
  6
CONTINUOUS
 62
    7
 10
670.95187680405661
 20
1038.3633960303509
 11
671.64506520253963
 21
1039.0159133707302
  0
LINE
  8
_0-2_02___PRT_ALL_AXES
  6
CONTINUOUS
 62
    7
 10
671.64506520253963
 20
1039.0159133707302
 11
672.31148230683675
 21
1039.8050635153122
  0
LINE
  8
_0-2_02___PRT_ALL_AXES
  6
CONTINUOUS
 62
    7
 10
672.31148230683675
 20
1039.8050635153122
 11
672.9397271765838
 21
1040.7173493790769
  0
LINE
  8
_0-2_02___PRT_ALL_AXES
  6
CONTINUOUS
 62
    7
 10
672.9397271765838
 20
1040.7173493790769
 11
673.51905109006884
 21
1041.737167821022
  0
LINE
  8
_0-2_02___PRT_ALL_AXES
  6
CONTINUOUS
 62
    7
 10
673.51905109006884
 20
1041.737167821022
 11
674.0395412350158
 21
1042.847076074403
  0
LINE
  8
_0-2_02___PRT_ALL_AXES
  6
CONTINUOUS
 62
    7
 10
674.0395412350158
 20
1042.847076074403
 11
674.49229015603305
 21
1044.028089610264
  0
LINE
  8
_0-2_02___PRT_ALL_AXES
  6
CONTINUOUS
 62
    7
 10
674.49229015603305
 20
1044.028089610264
 11
674.86954812186195
 21
1045.260006551302
  0
LINE
  8
_0-2_02___PRT_ALL_AXES
  6
CONTINUOUS
 62
    7
 10
668.73324839245379
 20
1122.2538425188709
 11
669.3798702112208
 21
1122.6168994259801
  0
LINE
  8
_0-2_02___PRT_ALL_AXES
  6
CONTINUOUS
 62
    7
 10
669.3798702112208
 20
1122.6168994259801
 11
670.08713251805466
 21
1122.965981509119
  0
LINE
  8
_0-2_02___PRT_ALL_AXES
  6
CONTINUOUS
 62
    7
 10
670.08713251805466
 20
1122.965981509119
 11
670.85591018801597
 21
1123.3034789138801
  0
LINE
  8
_0-2_02___PRT_ALL_AXES
  6
CONTINUOUS
 62
    7
 10
670.85591018801597
 20
1123.3034789138801
 11
671.69253789474169
 21
1123.6341948562058
  0
LINE
  8
_0-2_02___PRT_ALL_AXES
  6
CONTINUOUS
 62
    7
 10
671.69253789474169
 20
1123.6341948562058
 11
672.61115696986963
 21
1123.9649863950281
  0
LINE
  8
_0-8_EL-M4010N_______9
  6
CONTINUOUS
 62
    7
 10
1292.160397797536
 20
1431.6087425721221
 11
1291.2390880485918
 21
1431.1939429305521
  0
LINE
  8
_0-8_EL-M4010N_______9
  6
CONTINUOUS
 62
    7
 10
1291.2390880485918
 20
1431.1939429305521
 11
1290.45747617189
 21
1430.4961632123218
  0
LINE
  8
_0-8_EL-M4010N_______9
  6
CONTINUOUS
 62
    7
 10
1292.545908948026
 20
1426.0496138524541
 11
1293.4672186969688
 21
1426.464413494024
  0
LINE
  8
_0-8_EL-M4010N_______9
  6
CONTINUOUS
 62
    7
 10
1293.4672186969688
 20
1426.464413494024
 11
1294.248830573672
 21
1427.1621932122539
  0
LINE
  8
_0-8_EL-M4010N_______9
  6
CONTINUOUS
 62
    7
 10
1294.248830573672
 20
1427.1621932122539
 11
1294.797842141636
 21
1428.049969446603
  0
LINE
  8
_0-8_EL-M4010N_______9
  6
CONTINUOUS
 62
    7
 10
1294.797842141636
 20
1428.049969446603
 11
1295.0601362957359
 21
1429.0395492002322
  0
LINE
  8
_0-9_EL-M4010N_______12
  6
CONTINUOUS
 62
    7
 10
1300.1194656545777
 20
1419.8493482037329
 11
1301.1811482050707
 21
1420.318780432
  0
LINE
  8
_0-9_EL-M4010N_______12
  6
CONTINUOUS
 62
    7
 10
1301.1811482050707
 20
1420.318780432
 11
1302.089654311093
 21
1421.099045393692
  0
LINE
  8
_0-9_EL-M4010N_______12
  6
CONTINUOUS
 62
    7
 10
1302.089654311093
 20
1421.099045393692
 11
1302.7536909113887
 21
1422.1007373689681
  0
LINE
  8
_0-9_EL-M4010N_______12
  6
CONTINUOUS
 62
    7
 10
1302.7536909113887
 20
1422.1007373689681
 11
1303.1074873597518
 21
1423.217180392618
  0
LINE
  8
_0-9_EL-M4010N_______12
  6
CONTINUOUS
 62
    7
 10
1303.1074873597518
 20
1423.217180392618
 11
1303.1143131797298
 21
1424.33246747065
  0
LINE
  8
_0-9_EL-M4010N_______12
  6
CONTINUOUS
 62
    7
 10
1303.1143131797298
 20
1424.33246747065
 11
1302.7690087367359
 21
1425.329446373818
  0
LINE
  8
_0-9_EL-M4010N_______12
  6
CONTINUOUS
 62
    7
 10
1302.7690087367359
 20
1425.329446373818
 11
1302.0996634211228
 21
1426.0980768154718
  0
LINE
  8
_0-7_EL-M4010N_______4
  6
CONTINUOUS
 62
    7
 10
1292.5844600626929
 20
1425.4937009807918
 11
1293.5888335418767
 21
1425.9273178458402
  0
LINE
  8
_0-7_EL-M4010N_______4
  6
CONTINUOUS
 62
    7
 10
1293.5888335418767
 20
1425.9273178458402
 11
1294.4640506728219
 21
1426.643657858674
  0
LINE
  8
_0-7_EL-M4010N_______4
  6
CONTINUOUS
 62
    7
 10
1294.4640506728219
 20
1426.643657858674
 11
1295.1250961655619
 21
1427.5614891446739
  0
LINE
  8
_0-7_EL-M4010N_______4
  6
CONTINUOUS
 62
    7
 10
1295.1250961655619
 20
1427.5614891446739
 11
1295.521519625443
 21
1428.6027985431278
  0
LINE
  8
_0-7_EL-M4010N_______4
  6
CONTINUOUS
 62
    7
 10
1295.521519625443
 20
1428.6027985431278
 11
1295.613113293412
 21
1429.6739175073121
  0
LINE
  8
_0-7_EL-M4010N_______4
  6
CONTINUOUS
 62
    7
 10
1295.613113293412
 20
1429.6739175073121
 11
1295.3869754076127
 21
1430.6621293002522
  0
LINE
  8
_0-7_EL-M4010N_______4
  6
CONTINUOUS
 62
    7
 10
1295.3869754076127
 20
1430.6621293002522
 11
1294.8684036799627
 21
1431.4684614795578
  0
LINE
  8
_0-7_EL-M4010N_______4
  6
CONTINUOUS
 62
    7
 10
1294.8684036799627
 20
1431.4684614795578
 11
1294.5456677308207
 21
1431.756105381789
  0
LINE
  8
_0-6_____________M6_20
  6
CONTINUOUS
 62
    7
 10
1003.0458724912928
 20
1323.7284605106638
 11
1002.6891207547096
 21
1323.6230483704589
  0
LINE
  8
_0-6_____________M6_20
  6
CONTINUOUS
 62
    7
 10
1002.6891207547096
 20
1323.6230483704589
 11
1002.3314004368776
 21
1323.5288815206941
  0
LINE
  8
_0-6_____________M6_20
  6
CONTINUOUS
 62
    7
 10
1002.3314004368776
 20
1323.5288815206941
 11
1001.9730822690858
 21
1323.4460575537541
  0
LINE
  8
_0-4__B______3
  6
CONTINUOUS
 62
    7
 10
1453.7711492314688
 20
1315.3268631851138
 11
1117.5396821651407
 21
1226.816771904405
  0
LINE
  8
_0-4__B______3
  6
CONTINUOUS
 62
    7
 10
1450.2264186381908
 20
1317.1169782114298
 11
1117.8816806185569
 21
1229.6300354947839
  0
LINE
  8
_0-5________-2___M4
  6
CONTINUOUS
 62
    7
 10
1121.9884360565406
 20
1231.7324880048818
 11
1444.270954744723
 21
1316.5706365459241
  0
LINE
  8
_0-5________-2___M4
  6
CONTINUOUS
 62
    7
 10
1443.2040078539831
 20
1316.482691516836
 11
1121.6385336971648
 21
1231.8332988865709
  0
LINE
  8
_0-a_EL-M4010N_______13
  6
CONTINUOUS
 62
    7
 10
1440.2644080064988
 20
1323.8971300458161
 11
1439.1780381617168
 21
1323.611152367836
  0
LINE
  8
_0-a_EL-M4010N_______13
  6
CONTINUOUS
 62
    7
 10
1421.0255246900829
 20
1337.208911330506
 11
1422.1118945356279
 21
1337.4948890084861
  0
LINE
  8
_0-6_____________M6_20
  6
CONTINUOUS
 62
    7
 10
1100.4076489332128
 20
1249.710377447811
 11
1100.7659671063388
 21
1249.793201327122
  0
LINE
  8
_0-6_____________M6_20
  6
CONTINUOUS
 62
    7
 10
1100.7659671063388
 20
1249.793201327122
 11
1101.1236874249339
 21
1249.8873681768882
  0
LINE
  8
_0-6_____________M6_20
  6
CONTINUOUS
 62
    7
 10
1101.1236874249339
 20
1249.8873681768882
 11
1101.4804391554217
 21
1249.992780404722
  0
LINE
  8
_0-6_____________M6_20
  6
CONTINUOUS
 62
    7
 10
1106.2910042485219
 20
1246.8119113433081
 11
1104.2190587955188
 21
1246.3554320840558
  0
LINE
  8
_0-6_____________M6_20
  6
CONTINUOUS
 62
    7
 10
1104.2190587955188
 20
1246.3554320840558
 11
1102.2151691962458
 21
1246.219345319907
  0
LINE
  8
_0-5________-2___M4
  6
CONTINUOUS
 62
    7
 10
1136.344855369045
 20
1246.661388305517
 11
1135.5106812124027
 21
1246.4817640587221
  0
LINE
  8
_0-5________-2___M4
  6
CONTINUOUS
 62
    7
 10
1135.5106812124027
 20
1246.4817640587221
 11
1134.6281541613566
 21
1246.36805899708
  0
LINE
  8
_0-5________-2___M4
  6
CONTINUOUS
 62
    7
 10
1134.6281541613566
 20
1246.36805899708
 11
1133.733918586358
 21
1246.3250073526779
  0
LINE
  8
_0-5________-2___M4
  6
CONTINUOUS
 62
    7
 10
1133.733918586358
 20
1246.3250073526779
 11
1132.8654767235498
 21
1246.3537056808541
  0
LINE
  8
_0-5________-2___M4
  6
CONTINUOUS
 62
    7
 10
1132.8654767235498
 20
1246.3537056808541
 11
1132.04487615368
 21
1246.453741311363
  0
LINE
  8
_0-5________-2___M4
  6
CONTINUOUS
 62
    7
 10
1132.04487615368
 20
1246.453741311363
 11
1131.311347447765
 21
1246.6212209042669
  0
LINE
  8
_0-5________-2___M4
  6
CONTINUOUS
 62
    7
 10
1131.311347447765
 20
1246.6212209042669
 11
1130.6939085746958
 21
1246.849214590773
  0
LINE
  8
_0-5________-2___M4
  6
CONTINUOUS
 62
    7
 10
1130.6939085746958
 20
1246.849214590773
 11
1130.2157178772818
 21
1247.1285354763781
  0
LINE
  8
_0-5________-2___M4
  6
CONTINUOUS
 62
    7
 10
1130.2157178772818
 20
1247.1285354763781
 11
1129.8938992206909
 21
1247.4484817686662
  0
LINE
  8
_0-5________-2___M4
  6
CONTINUOUS
 62
    7
 10
1129.8938992206909
 20
1247.4484817686662
 11
1129.740039525871
 21
1247.797064155066
  0
LINE
  8
_0-5________-2___M4
  6
CONTINUOUS
 62
    7
 10
1129.740039525871
 20
1247.797064155066
 11
1129.7289012415699
 21
1247.8844669998171
  0
LINE
  8
_0-5________-2___M4
  6
CONTINUOUS
 62
    7
 10
1132.2348523190658
 20
1249.740126183844
 11
1133.0690264757077
 21
1249.9197504306399
  0
LINE
  8
_0-5________-2___M4
  6
CONTINUOUS
 62
    7
 10
1133.0690264757077
 20
1249.9197504306399
 11
1133.9515535267528
 21
1250.033455492282
  0
LINE
  8
_0-5________-2___M4
  6
CONTINUOUS
 62
    7
 10
1133.9515535267528
 20
1250.033455492282
 11
1134.8457891025159
 21
1250.0765071366841
  0
LINE
  8
_0-5________-2___M4
  6
CONTINUOUS
 62
    7
 10
1134.8457891025159
 20
1250.0765071366841
 11
1135.7142309653236
 21
1250.0478088085069
  0
LINE
  8
_0-5________-2___M4
  6
CONTINUOUS
 62
    7
 10
1135.7142309653236
 20
1250.0478088085069
 11
1136.5348315344318
 21
1249.947773177998
  0
LINE
  8
_0-5________-2___M4
  6
CONTINUOUS
 62
    7
 10
1136.5348315344318
 20
1249.947773177998
 11
1137.2683602403458
 21
1249.7802935850941
  0
LINE
  8
_0-5________-2___M4
  6
CONTINUOUS
 62
    7
 10
1137.2683602403458
 20
1249.7802935850941
 11
1137.8857991141767
 21
1249.552299898588
  0
LINE
  8
_0-6_____________M6_20
  6
CONTINUOUS
 62
    7
 10
1102.8894879372679
 20
1247.120542395844
 11
1102.2664144064288
 21
1247.0009425334442
  0
LINE
  8
_0-6_____________M6_20
  6
CONTINUOUS
 62
    7
 10
1102.2664144064288
 20
1247.0009425334442
 11
1101.5725303865288
 21
1246.9060914960701
  0
LINE
  8
_0-6_____________M6_20
  6
CONTINUOUS
 62
    7
 10
1101.5725303865288
 20
1246.9060914960701
 11
1100.8093626527721
 21
1246.848851749995
  0
LINE
  8
_0-5________-2___M4
  6
CONTINUOUS
 62
    7
 10
1444.2709760525299
 20
1316.570642155767
 11
1443.858981761965
 21
1316.493891190144
  0
LINE
  8
_0-5________-2___M4
  6
CONTINUOUS
 62
    7
 10
1443.858981761965
 20
1316.493891190144
 11
1443.2040078539831
 21
1316.482691516836
  0
LINE
  8
_0-5________-2___M4
  6
CONTINUOUS
 62
    7
 10
1121.6385336971648
 20
1231.8332988865709
 11
1121.2730239775888
 21
1231.779658545795
  0
LINE
  8
_0-5________-2___M4
  6
CONTINUOUS
 62
    7
 10
1121.2730239775888
 20
1231.779658545795
 11
1120.9200430993519
 21
1231.8123353338842
  0
LINE
  8
_0-5________-2___M4
  6
CONTINUOUS
 62
    7
 10
1120.9200430993519
 20
1231.8123353338842
 11
1120.5972909988577
 21
1231.929690699375
  0
LINE
  8
_0-5________-2___M4
  6
CONTINUOUS
 62
    7
 10
1120.5972909988577
 20
1231.929690699375
 11
1120.4264585297528
 21
1232.0373542623061
  0
LINE
  8
_0-4__B______3
  6
CONTINUOUS
 62
    7
 10
1117.5396821651407
 20
1226.816771904405
 11
1117.1334137178378
 21
1226.7574826617961
  0
LINE
  8
_0-5________-2___M4
  6
CONTINUOUS
 62
    7
 10
1121.9884360565406
 20
1231.7324880048818
 11
1121.5821676092369
 21
1231.673198762272
  0
LINE
  8
_0-4__B______3
  6
CONTINUOUS
 62
    7
 10
1117.1897798057648
 20
1226.917582786858
 11
1116.7640792047928
 21
1226.8633848975401
  0
LINE
  8
_0-4__B______3
  6
CONTINUOUS
 62
    7
 10
1116.7640792047928
 20
1226.8633848975401
 11
1116.3595078115
 21
1226.9265341357318
  0
LINE
  8
_0-4__B______3
  6
CONTINUOUS
 62
    7
 10
1116.3595078115
 20
1226.9265341357318
 11
1115.9777046383529
 21
1227.1216381625918
  0
LINE
  8
_0-4__B______3
  6
CONTINUOUS
 62
    7
 10
1117.5396821651407
 20
1226.816771904405
 11
1117.3985884262479
 21
1226.8150424021501
  0
LINE
  8
_0-4__B______3
  6
CONTINUOUS
 62
    7
 10
1117.3985884262479
 20
1226.8150424021501
 11
1117.1897798057648
 21
1226.917582786858
  0
LINE
  8
_0-5________-2___M4
  6
CONTINUOUS
 62
    7
 10
1121.9884360565406
 20
1231.7324880048818
 11
1121.8185463696509
 21
1231.7380958501558
  0
LINE
  8
_0-5________-2___M4
  6
CONTINUOUS
 62
    7
 10
1121.8185463696509
 20
1231.7380958501558
 11
1121.6385336971648
 21
1231.8332988865709
  0
LINE
  8
_0-4__B______3
  6
CONTINUOUS
 62
    7
 10
1117.1334137178378
 20
1226.7574826617961
 11
1116.726248678473
 21
1226.7899132347302
  0
LINE
  8
_0-4__B______3
  6
CONTINUOUS
 62
    7
 10
1116.726248678473
 20
1226.7899132347302
 11
1116.3344694600019
 21
1226.912773358325
  0
LINE
  8
_0-4__B______3
  6
CONTINUOUS
 62
    7
 10
1116.3344694600019
 20
1226.912773358325
 11
1115.9777046383529
 21
1227.1216381625918
  0
LINE
  8
_0-5________-2___M4
  6
CONTINUOUS
 62
    7
 10
1121.5821676092369
 20
1231.673198762272
 11
1121.1750025691117
 21
1231.705629334444
  0
LINE
  8
_0-5________-2___M4
  6
CONTINUOUS
 62
    7
 10
1121.1750025691117
 20
1231.705629334444
 11
1120.7832233514009
 21
1231.8284894580402
  0
LINE
  8
_0-5________-2___M4
  6
CONTINUOUS
 62
    7
 10
1120.7832233514009
 20
1231.8284894580402
 11
1120.4264585297528
 21
1232.0373542623061
  0
LINE
  8
_0-2_02___PRT_ALL_AXES
  6
CONTINUOUS
 62
    7
 10
816.26188790354581
 20
1416.845186383011
 11
817.48665121753993
 21
1415.883546199108
  0
LINE
  8
_0-2_02___PRT_ALL_AXES
  6
CONTINUOUS
 62
    7
 10
817.48665121753993
 20
1415.883546199108
 11
818.61751835178666
 21
1414.9039221583589
  0
LINE
  8
_0-2_02___PRT_ALL_AXES
  6
CONTINUOUS
 62
    7
 10
818.61751835178666
 20
1414.9039221583589
 11
819.65298038626997
 21
1413.9076213757562
  0
LINE
  8
_0-2_02___PRT_ALL_AXES
  6
CONTINUOUS
 62
    7
 10
819.65298038626997
 20
1413.9076213757562
 11
820.59165570144705
 21
1412.895973220493
  0
LINE
  8
_0-2_02___PRT_ALL_AXES
  6
CONTINUOUS
 62
    7
 10
820.59165570144705
 20
1412.895973220493
 11
821.43229181773268
 21
1411.870327536712
  0
LINE
  8
_0-2_02___PRT_ALL_AXES
  6
CONTINUOUS
 62
    7
 10
821.43229181773268
 20
1411.870327536712
 11
822.17376707417588
 21
1410.8320528474542
  0
LINE
  8
_0-2_02___PRT_ALL_AXES
  6
CONTINUOUS
 62
    7
 10
822.17376707417588
 20
1410.8320528474542
 11
822.81509211588082
 21
1409.7825345251081
  0
LINE
  8
_0-2_02___PRT_ALL_AXES
  6
CONTINUOUS
 62
    7
 10
822.81509211588082
 20
1409.7825345251081
 11
823.35541122142286
 21
1408.723172946603
  0
LINE
  8
_0-2_02___PRT_ALL_AXES
  6
CONTINUOUS
 62
    7
 10
823.35541122142286
 20
1408.723172946603
 11
823.79400344126589
 21
1407.6553816204182
  0
LINE
  8
_0-2_02___PRT_ALL_AXES
  6
CONTINUOUS
 62
    7
 10
823.79400344126589
 20
1407.6553816204182
 11
824.13028356093082
 21
1406.5805853051929
  0
LINE
  8
_0-2_02___PRT_ALL_AXES
  6
CONTINUOUS
 62
    7
 10
824.13028356093082
 20
1406.5805853051929
 11
824.36380288053169
 21
1405.5002181039822
  0
LINE
  8
_0-2_02___PRT_ALL_AXES
  6
CONTINUOUS
 62
    7
 10
824.36380288053169
 20
1405.5002181039822
 11
824.49424981369384
 21
1404.4157215546661
  0
LINE
  8
_0-2_02___PRT_ALL_AXES
  6
CONTINUOUS
 62
    7
 10
824.49424981369384
 20
1404.4157215546661
 11
824.52250653010378
 21
1403.7909056049102
  0
LINE
  8
_0-2_02___PRT_ALL_AXES
  6
CONTINUOUS
 62
    7
 10
816.18132646548065
 20
1421.346262145637
 11
817.40608977947477
 21
1420.3846219609718
  0
LINE
  8
_0-2_02___PRT_ALL_AXES
  6
CONTINUOUS
 62
    7
 10
817.40608977947477
 20
1420.3846219609718
 11
818.53695691448502
 21
1419.4049979202241
  0
LINE
  8
_0-2_02___PRT_ALL_AXES
  6
CONTINUOUS
 62
    7
 10
818.53695691448502
 20
1419.4049979202241
 11
819.57241894896788
 21
1418.4086971383808
  0
LINE
  8
_0-2_02___PRT_ALL_AXES
  6
CONTINUOUS
 62
    7
 10
819.57241894896788
 20
1418.4086971383808
 11
820.51109426338371
 21
1417.397048983119
  0
LINE
  8
_0-2_02___PRT_ALL_AXES
  6
CONTINUOUS
 62
    7
 10
820.51109426338371
 20
1417.397048983119
 11
821.35173038043104
 21
1416.371403299338
  0
LINE
  8
_0-2_02___PRT_ALL_AXES
  6
CONTINUOUS
 62
    7
 10
821.35173038043104
 20
1416.371403299338
 11
822.09320563611163
 21
1415.333128609318
  0
LINE
  8
_0-2_02___PRT_ALL_AXES
  6
CONTINUOUS
 62
    7
 10
822.09320563611163
 20
1415.333128609318
 11
822.73453067781793
 21
1414.2836102877341
  0
LINE
  8
_0-2_02___PRT_ALL_AXES
  6
CONTINUOUS
 62
    7
 10
822.73453067781793
 20
1414.2836102877341
 11
823.27484978335906
 21
1413.2242487084682
  0
LINE
  8
_0-2_02___PRT_ALL_AXES
  6
CONTINUOUS
 62
    7
 10
823.27484978335906
 20
1413.2242487084682
 11
823.71344200396379
 21
1412.1564573830442
  0
LINE
  8
_0-2_02___PRT_ALL_AXES
  6
CONTINUOUS
 62
    7
 10
823.71344200396379
 20
1412.1564573830442
 11
824.04972212286702
 21
1411.0816610670581
  0
LINE
  8
_0-2_02___PRT_ALL_AXES
  6
CONTINUOUS
 62
    7
 10
824.04972212286702
 20
1411.0816610670581
 11
824.2832414424679
 21
1410.001293865846
  0
LINE
  8
_0-2_02___PRT_ALL_AXES
  6
CONTINUOUS
 62
    7
 10
824.2832414424679
 20
1410.001293865846
 11
824.41368837563004
 21
1408.916797316529
  0
LINE
  8
_0-2_02___PRT_ALL_AXES
  6
CONTINUOUS
 62
    7
 10
824.41368837563004
 20
1408.916797316529
 11
824.44194509280169
 21
1408.2919813667741
  0
LINE
  8
_0-6_____________M6_20
  6
CONTINUOUS
 62
    7
 10
990.40355772060184
 20
1330.97694022729
 11
990.4798208843049
 21
1330.8052224094349
  0
LINE
  8
_0-6_____________M6_20
  6
CONTINUOUS
 62
    7
 10
989.44780895341273
 20
1328.2369369864541
 11
989.66737528186968
 21
1327.4875639063362
  0
LINE
  8
_0-6_____________M6_20
  6
CONTINUOUS
 62
    7
 10
989.66737528186968
 20
1327.4875639063362
 11
990.30667084173183
 21
1326.699133914999
  0
LINE
  8
_0-6_____________M6_20
  6
CONTINUOUS
 62
    7
 10
1010.7326901750307
 20
1329.7129882637082
 11
1010.5131238465747
 21
1330.462361344587
  0
LINE
  8
_0-5________-2___M4
  6
CONTINUOUS
 62
    7
 10
1089.5359998337808
 20
1352.5989653252918
 11
1089.818893783106
 21
1353.086273443384
  0
LINE
  8
_0-5________-2___M4
  6
CONTINUOUS
 62
    7
 10
1089.818893783106
 20
1353.086273443384
 11
1090.2789361657879
 21
1353.5600848345962
  0
LINE
  8
_0-2_02___PRT_ALL_AXES
  6
CONTINUOUS
 62
    7
 10
669.91649473309371
 20
1056.1442923950822
 11
669.33106914575592
 21
1055.7667145180321
  0
LINE
  8
_0-2_02___PRT_ALL_AXES
  6
CONTINUOUS
 62
    7
 10
669.33106914575592
 20
1055.7667145180321
 11
668.8052958193507
 21
1055.3745677534321
  0
LINE
  8
_0-2_02___PRT_ALL_AXES
  6
CONTINUOUS
 62
    7
 10
668.8052958193507
 20
1055.3745677534321
 11
668.33385293064066
 21
1054.9665171534821
  0
LINE
  8
_0-2_02___PRT_ALL_AXES
  6
CONTINUOUS
 62
    7
 10
668.33385293064066
 20
1054.9665171534821
 11
667.90803187956772
 21
1054.538322798544
  0
LINE
  8
_0-2_02___PRT_ALL_AXES
  6
CONTINUOUS
 62
    7
 10
667.90803187956772
 20
1054.538322798544
 11
667.51761268479186
 21
1054.0821971530122
  0
LINE
  8
_0-2_02___PRT_ALL_AXES
  6
CONTINUOUS
 62
    7
 10
839.44932456210699
 20
1139.7982077125198
 11
838.97693381321596
 21
1139.496513879028
  0
LINE
  8
_0-2_02___PRT_ALL_AXES
  6
CONTINUOUS
 62
    7
 10
838.97693381321596
 20
1139.496513879028
 11
838.55315506615898
 21
1139.0359655915922
  0
LINE
  8
_0-2_02___PRT_ALL_AXES
  6
CONTINUOUS
 62
    7
 10
838.55315506615898
 20
1139.0359655915922
 11
838.18523562978771
 21
1138.424450594151
  0
LINE
  8
_0-2_02___PRT_ALL_AXES
  6
CONTINUOUS
 62
    7
 10
838.18523562978771
 20
1138.424450594151
 11
837.87946712016765
 21
1137.672437413396
  0
LINE
  8
_0-2_02___PRT_ALL_AXES
  6
CONTINUOUS
 62
    7
 10
837.87946712016765
 20
1137.672437413396
 11
837.64107800715783
 21
1136.7927961782698
  0
LINE
  8
_0-2_02___PRT_ALL_AXES
  6
CONTINUOUS
 62
    7
 10
837.64107800715783
 20
1136.7927961782698
 11
837.47414438115675
 21
1135.8005785299938
  0
LINE
  8
_0-2_02___PRT_ALL_AXES
  6
CONTINUOUS
 62
    7
 10
837.47414438115675
 20
1135.8005785299938
 11
837.38152040384603
 21
1134.7127603220938
  0
LINE
  8
_0-2_02___PRT_ALL_AXES
  6
CONTINUOUS
 62
    7
 10
837.38152040384603
 20
1134.7127603220938
 11
837.36478960494696
 21
1133.5479515094762
  0
LINE
  8
_0-9_EL-M4010N_______12
  6
CONTINUOUS
 62
    7
 10
1318.271979126212
 20
1406.251589241826
 11
1319.333661676706
 21
1406.72102146933
  0
LINE
  8
_0-9_EL-M4010N_______12
  6
CONTINUOUS
 62
    7
 10
1319.333661676706
 20
1406.72102146933
 11
1320.2421677819657
 21
1407.501286431022
  0
LINE
  8
_0-9_EL-M4010N_______12
  6
CONTINUOUS
 62
    7
 10
1320.2421677819657
 20
1407.501286431022
 11
1320.906204383024
 21
1408.5029784070589
  0
LINE
  8
_0-9_EL-M4010N_______12
  6
CONTINUOUS
 62
    7
 10
1320.906204383024
 20
1408.5029784070589
 11
1321.260000830624
 21
1409.619421429948
  0
LINE
  8
_0-9_EL-M4010N_______12
  6
CONTINUOUS
 62
    7
 10
1321.260000830624
 20
1409.619421429948
 11
1321.2668266513629
 21
1410.7347085087422
  0
LINE
  8
_0-9_EL-M4010N_______12
  6
CONTINUOUS
 62
    7
 10
1321.2668266513629
 20
1410.7347085087422
 11
1320.9215222076068
 21
1411.7316874119101
  0
LINE
  8
_0-9_EL-M4010N_______12
  6
CONTINUOUS
 62
    7
 10
1320.9215222076068
 20
1411.7316874119101
 11
1320.252176891996
 21
1412.500317853563
  0
LINE
  8
_0-7_EL-M4010N_______4
  6
CONTINUOUS
 62
    7
 10
1310.7369735343268
 20
1411.8959420181218
 11
1311.7413470127499
 21
1412.3295588831702
  0
LINE
  8
_0-7_EL-M4010N_______4
  6
CONTINUOUS
 62
    7
 10
1328.889487005199
 20
1398.298183056213
 11
1329.8938604843838
 21
1398.7317999212619
  0
LINE
  8
_0-2_02___PRT_ALL_AXES
  6
CONTINUOUS
 62
    7
 10
672.28387612811593
 20
1142.2506066789342
 11
671.36529254237576
 21
1141.9198285101638
  0
LINE
  8
_0-2_02___PRT_ALL_AXES
  6
CONTINUOUS
 62
    7
 10
671.36529254237576
 20
1141.9198285101638
 11
670.528463295032
 21
1141.5890301445838
  0
LINE
  8
_0-2_02___PRT_ALL_AXES
  6
CONTINUOUS
 62
    7
 10
670.528463295032
 20
1141.5890301445838
 11
669.75966078158581
 21
1141.25151309394
  0
LINE
  8
_0-2_02___PRT_ALL_AXES
  6
CONTINUOUS
 62
    7
 10
669.75966078158581
 20
1141.25151309394
 11
669.05247561048782
 21
1140.9024599172699
  0
LINE
  8
_0-2_02___PRT_ALL_AXES
  6
CONTINUOUS
 62
    7
 10
669.05247561048782
 20
1140.9024599172699
 11
668.40596777396468
 21
1140.5394629368902
  0
LINE
  8
_0-5________-2___M4
  6
CONTINUOUS
 62
    7
 10
1366.0574379383897
 20
1329.737161154655
 11
1189.5169214130678
 21
1283.2643626132658
  0
LINE
  8
_0-5________-2___M4
  6
CONTINUOUS
 62
    7
 10
1189.4012685468379
 20
1284.932094330627
 11
1365.9417850721597
 21
1331.4048928720181
  0
LINE
  8
_0-5________-2___M4
  6
CONTINUOUS
 62
    7
 10
1189.737725884082
 20
1285.3674029415929
 11
1364.9148634109947
 21
1331.4813034872941
  0
LINE
  8
_0-5________-2___M4
  6
CONTINUOUS
 62
    7
 10
1189.593160379462
 20
1287.452059246491
 11
1364.7702979063747
 21
1333.5659597921922
  0
LINE
  8
_0-a_EL-M4010N_______13
  6
CONTINUOUS
 62
    7
 10
1402.873011219212
 20
1350.806670293176
 11
1403.959381063994
 21
1351.092647970394
  0
LINE
  8
_0-a_EL-M4010N_______13
  6
CONTINUOUS
 62
    7
 10
1395.3380056273268
 20
1356.4510230694718
 11
1396.4243754721087
 21
1356.737000747451
  0
LINE
  8
_0-5________-2___M4
  6
CONTINUOUS
 62
    7
 10
1189.5169214130678
 20
1283.2643626132658
 11
1188.40920811364
 21
1283.0157078995021
  0
LINE
  8
_0-5________-2___M4
  6
CONTINUOUS
 62
    7
 10
1188.40920811364
 20
1283.0157078995021
 11
1187.2464365278329
 21
1282.8370440310241
  0
LINE
  8
_0-5________-2___M4
  6
CONTINUOUS
 62
    7
 10
1187.2464365278329
 20
1282.8370440310241
 11
1186.0569591036437
 21
1282.7323219069649
  0
LINE
  8
_0-5________-2___M4
  6
CONTINUOUS
 62
    7
 10
1186.0569591036437
 20
1282.7323219069649
 11
1184.8695131287818
 21
1282.7037889457438
  0
LINE
  8
_0-5________-2___M4
  6
CONTINUOUS
 62
    7
 10
1184.8695131287818
 20
1282.7037889457438
 11
1183.7126413622659
 21
1282.7519613558761
  0
LINE
  8
_0-5________-2___M4
  6
CONTINUOUS
 62
    7
 10
1183.7126413622659
 20
1282.7519613558761
 11
1182.6141231435076
 21
1282.875624398871
  0
LINE
  8
_0-5________-2___M4
  6
CONTINUOUS
 62
    7
 10
1182.6141231435076
 20
1282.875624398871
 11
1181.6004212824218
 21
1283.071860169468
  0
LINE
  8
_0-5________-2___M4
  6
CONTINUOUS
 62
    7
 10
1181.6004212824218
 20
1283.071860169468
 11
1180.6961499068179
 21
1283.33610249925
  0
LINE
  8
_0-5________-2___M4
  6
CONTINUOUS
 62
    7
 10
1180.6961499068179
 20
1283.33610249925
 11
1179.9235684761138
 21
1283.6622185881902
  0
LINE
  8
_0-5________-2___M4
  6
CONTINUOUS
 62
    7
 10
1179.9235684761138
 20
1283.6622185881902
 11
1179.3021073395607
 21
1284.042617025766
  0
LINE
  8
_0-5________-2___M4
  6
CONTINUOUS
 62
    7
 10
1189.7377270606098
 20
1285.3673859764258
 11
1188.345065283836
 21
1285.067609793658
  0
LINE
  8
_0-5________-2___M4
  6
CONTINUOUS
 62
    7
 10
1188.345065283836
 20
1285.067609793658
 11
1186.875916847996
 21
1284.8784479212841
  0
LINE
  8
_0-5________-2___M4
  6
CONTINUOUS
 62
    7
 10
1186.875916847996
 20
1284.8784479212841
 11
1185.3866899361838
 21
1284.8067536135682
  0
LINE
  8
_0-5________-2___M4
  6
CONTINUOUS
 62
    7
 10
1185.3866899361838
 20
1284.8067536135682
 11
1183.9334890150581
 21
1284.854982695163
  0
LINE
  8
_0-5________-2___M4
  6
CONTINUOUS
 62
    7
 10
1183.9334890150581
 20
1284.854982695163
 11
1182.571509563762
 21
1285.0212320474502
  0
LINE
  8
_0-5________-2___M4
  6
CONTINUOUS
 62
    7
 10
1182.571509563762
 20
1285.0212320474502
 11
1181.3525895278958
 21
1285.299252948862
  0
LINE
  8
_0-5________-2___M4
  6
CONTINUOUS
 62
    7
 10
1181.3525895278958
 20
1285.299252948862
 11
1180.3230123858857
 21
1285.6787913452322
  0
LINE
  8
_0-5________-2___M4
  6
CONTINUOUS
 62
    7
 10
1180.3230123858857
 20
1285.6787913452322
 11
1179.5229129871027
 21
1286.145640388926
  0
LINE
  8
_0-6_____________M6_20
  6
CONTINUOUS
 62
    7
 10
1098.0053604896407
 20
1256.1746312284481
 11
1100.8882694474596
 21
1256.7355158704559
  0
LINE
  8
_0-6_____________M6_20
  6
CONTINUOUS
 62
    7
 10
1098.2203397297349
 20
1260.098113751038
 11
1100.7943655844679
 21
1260.598903610517
  0
LINE
  8
_0-6_____________M6_20
  6
CONTINUOUS
 62
    7
 10
1100.7943655844679
 20
1260.598903610517
 11
1103.4961109914807
 21
1260.797014595295
  0
LINE
  8
_0-6_____________M6_20
  6
CONTINUOUS
 62
    7
 10
1100.9600380737979
 20
1258.376764777689
 11
1098.3745441899318
 21
1257.8744622636282
  0
LINE
  8
_0-6_____________M6_20
  6
CONTINUOUS
 62
    7
 10
1098.4772942656086
 20
1257.7974938163461
 11
1101.1013458211537
 21
1258.3007571141102
  0
LINE
  8
_0-6_____________M6_20
  6
CONTINUOUS
 62
    7
 10
1101.1013458211537
 20
1258.3007571141102
 11
1103.8443228409028
 21
1258.4818388855501
  0
LINE
  8
_0-6_____________M6_20
  6
CONTINUOUS
 62
    7
 10
1103.8443228409028
 20
1258.4818388855501
 11
1106.4702938576829
 21
1258.3310227101701
  0
LINE
  8
_0-6_____________M6_20
  6
CONTINUOUS
 62
    7
 10
1100.8882694474596
 20
1256.7355158704559
 11
1103.9142243028268
 21
1256.9574001739561
  0
LINE
  8
_0-6_____________M6_20
  6
CONTINUOUS
 62
    7
 10
1103.9142243028268
 20
1256.9574001739561
 11
1106.8304238191599
 21
1256.8275387295889
  0
LINE
  8
_0-6_____________M6_20
  6
CONTINUOUS
 62
    7
 10
1100.8093626527721
 20
1246.848851749995
 11
1099.9811792898367
 21
1246.843731501664
  0
LINE
  8
_0-6_____________M6_20
  6
CONTINUOUS
 62
    7
 10
1099.9811792898367
 20
1246.843731501664
 11
1099.0948542105739
 21
1246.9064287961319
  0
LINE
  8
_0-6_____________M6_20
  6
CONTINUOUS
 62
    7
 10
1099.440030180368
 20
1247.2490986157441
 11
1100.2682142130998
 21
1247.2542189867581
  0
LINE
  8
_0-6_____________M6_20
  6
CONTINUOUS
 62
    7
 10
1100.2682142130998
 20
1247.2542189867581
 11
1101.0313819582871
 21
1247.3114588623721
  0
LINE
  8
_0-6_____________M6_20
  6
CONTINUOUS
 62
    7
 10
1101.0313819582871
 20
1247.3114588623721
 11
1101.7252653335358
 21
1247.4063099081282
  0
LINE
  8
_0-6_____________M6_20
  6
CONTINUOUS
 62
    7
 10
1101.7252653335358
 20
1247.4063099081282
 11
1102.3483375354458
 21
1247.525909549548
  0
LINE
  8
_0-6_____________M6_20
  6
CONTINUOUS
 62
    7
 10
1103.4961109914807
 20
1260.797014595295
 11
1106.099860558928
 21
1260.6810668769758
  0
LINE
  8
_0-6_____________M6_20
  6
CONTINUOUS
 62
    7
 10
1098.5537038087518
 20
1247.3117959498359
 11
1099.440030180368
 21
1247.2490986157441
  0
LINE
  8
_0-6_____________M6_20
  6
CONTINUOUS
 62
    7
 10
1102.2151691962458
 20
1246.219345319907
 11
1100.2453458493878
 21
1246.369248383829
  0
LINE
  8
_0-6_____________M6_20
  6
CONTINUOUS
 62
    7
 10
1100.2453458493878
 20
1246.369248383829
 11
1098.2026995097458
 21
1246.832076081489
  0
LINE
  8
_0-6_____________M6_20
  6
CONTINUOUS
 62
    7
 10
1098.2026995097458
 20
1246.832076081489
 11
1096.0637675336179
 21
1247.6903397114161
  0
LINE
  8
_0-6_____________M6_20
  6
CONTINUOUS
 62
    7
 10
1096.0637675336179
 20
1247.6903397114161
 11
1093.9653918431527
 21
1248.987996236493
  0
LINE
  8
_0-6_____________M6_20
  6
CONTINUOUS
 62
    7
 10
1104.7231585216327
 20
1246.4776105971282
 11
1104.3064098623718
 21
1246.5142016992049
  0
LINE
  8
_0-6_____________M6_20
  6
CONTINUOUS
 62
    7
 10
1104.3064098623718
 20
1246.5142016992049
 11
1103.9104726666937
 21
1246.6125897066458
  0
LINE
  8
_0-6_____________M6_20
  6
CONTINUOUS
 62
    7
 10
1103.9104726666937
 20
1246.6125897066458
 11
1103.5402368608106
 21
1246.7561817158789
  0
LINE
  8
_0-6_____________M6_20
  6
CONTINUOUS
 62
    7
 10
1103.5402368608106
 20
1246.7561817158789
 11
1103.1992264135479
 21
1246.9298771439521
  0
LINE
  8
_0-6_____________M6_20
  6
CONTINUOUS
 62
    7
 10
1103.1992264135479
 20
1246.9298771439521
 11
1102.8894879372679
 21
1247.120542395844
  0
LINE
  8
_0-6_____________M6_20
  6
CONTINUOUS
 62
    7
 10
1106.8304238191599
 20
1256.8275387295889
 11
1109.4267132747786
 21
1256.35861915435
  0
LINE
  8
_0-6_____________M6_20
  6
CONTINUOUS
 62
    7
 10
1106.099860558928
 20
1260.6810668769758
 11
1108.4179761446831
 21
1260.2623886851229
  0
LINE
  8
_0-6_____________M6_20
  6
CONTINUOUS
 62
    7
 10
1108.4179761446831
 20
1260.2623886851229
 11
1110.273402752593
 21
1259.5692400554221
  0
LINE
  8
_0-6_____________M6_20
  6
CONTINUOUS
 62
    7
 10
1108.633594727924
 20
1258.0222394809002
 11
1106.3147421761528
 21
1258.450722942448
  0
LINE
  8
_0-6_____________M6_20
  6
CONTINUOUS
 62
    7
 10
1106.3147421761528
 20
1258.450722942448
 11
1103.689020091058
 21
1258.5739111901021
  0
LINE
  8
_0-6_____________M6_20
  6
CONTINUOUS
 62
    7
 10
1103.689020091058
 20
1258.5739111901021
 11
1100.9600380737979
 21
1258.376764777689
  0
LINE
  8
_0-6_____________M6_20
  6
CONTINUOUS
 62
    7
 10
1106.4702938576829
 20
1258.3310227101701
 11
1108.758926216402
 21
1257.865305591567
  0
LINE
  8
_0-6_____________M6_20
  6
CONTINUOUS
 62
    7
 10
1108.758926216402
 20
1257.865305591567
 11
1110.5204975091019
 21
1257.1262700709121
  0
LINE
  8
_0-6_____________M6_20
  6
CONTINUOUS
 62
    7
 10
1110.5204975091019
 20
1257.1262700709121
 11
1111.6085230770127
 21
1256.1766566511178
  0
LINE
  8
_0-6_____________M6_20
  6
CONTINUOUS
 62
    7
 10
1111.6085230770127
 20
1256.1766566511178
 11
1111.9293929910259
 21
1255.310543069404
  0
LINE
  8
_0-6_____________M6_20
  6
CONTINUOUS
 62
    7
 10
1109.4267132747786
 20
1256.35861915435
 11
1111.5047910751819
 21
1255.5822926894789
  0
LINE
  8
_0-6_____________M6_20
  6
CONTINUOUS
 62
    7
 10
1103.9622781587127
 20
1247.4029453527542
 11
1104.2720172925988
 21
1247.2122797290058
  0
LINE
  8
_0-6_____________M6_20
  6
CONTINUOUS
 62
    7
 10
1104.2720172925988
 20
1247.2122797290058
 11
1104.6130280469488
 21
1247.038584236926
  0
LINE
  8
_0-6_____________M6_20
  6
CONTINUOUS
 62
    7
 10
1104.6130280469488
 20
1247.038584236926
 11
1104.9832638337807
 21
1246.8949923595178
  0
LINE
  8
_0-6_____________M6_20
  6
CONTINUOUS
 62
    7
 10
1104.9832638337807
 20
1246.8949923595178
 11
1105.3792006972267
 21
1246.796604550198
  0
LINE
  8
_0-6_____________M6_20
  6
CONTINUOUS
 62
    7
 10
1105.3792006972267
 20
1246.796604550198
 11
1105.7959487430799
 21
1246.7600135540379
  0
LINE
  8
_0-6_____________M6_20
  6
CONTINUOUS
 62
    7
 10
1099.0948542105739
 20
1246.9064287961319
 11
1099.0052350903447
 21
1246.9668720808841
  0
LINE
  8
_0-6_____________M6_20
  6
CONTINUOUS
 62
    7
 10
1099.0052350903447
 20
1246.9668720808841
 11
1098.9153294223029
 21
1247.0302018414482
  0
LINE
  8
_0-6_____________M6_20
  6
CONTINUOUS
 62
    7
 10
1098.9153294223029
 20
1247.0302018414482
 11
1098.8251601540769
 21
1247.0964061342361
  0
LINE
  8
_0-4__B______3
  6
CONTINUOUS
 62
    7
 10
946.37157877152686
 20
1354.1708879388698
 11
1115.9777046383529
 21
1227.1216381625918
  0
LINE
  8
_0-4__B______3
  6
CONTINUOUS
 62
    7
 10
1117.8816806185569
 20
1229.6300354947839
 11
950.96563322170368
 21
1354.664190299482
  0
LINE
  8
_0-5________-2___M4
  6
CONTINUOUS
 62
    7
 10
1120.4264585297528
 20
1232.0373542623061
 11
1101.4124699304257
 21
1246.280430533272
  0
LINE
  8
_0-5________-2___M4
  6
CONTINUOUS
 62
    7
 10
1092.4546711485737
 20
1252.9905750471698
 11
998.66239367787784
 21
1323.2488774906601
  0
LINE
  8
_0-5________-2___M4
  6
CONTINUOUS
 62
    7
 10
989.70459489602581
 20
1329.9590220037958
 11
957.64883080422669
 21
1353.971484749919
  0
LINE
  8
_0-5________-2___M4
  6
CONTINUOUS
 62
    7
 10
1121.6385336971648
 20
1231.8332988865709
 11
1102.4155213792328
 21
1246.2329514989442
  0
LINE
  8
_0-5________-2___M4
  6
CONTINUOUS
 62
    7
 10
1092.8311604270898
 20
1253.412443763501
 11
999.66544512668497
 21
1323.2013984563318
  0
LINE
  8
_0-5________-2___M4
  6
CONTINUOUS
 62
    7
 10
990.08108417454196
 20
1330.3808907201278
 11
958.60770597435794
 21
1353.957114244497
  0
LINE
  8
_0-6_____________M6_20
  6
CONTINUOUS
 62
    7
 10
996.07508390152861
 20
1324.064853090862
 11
995.98471858899075
 21
1324.1338843800281
  0
LINE
  8
_0-6_____________M6_20
  6
CONTINUOUS
 62
    7
 10
995.98471858899075
 20
1324.1338843800281
 11
995.89422523530675
 21
1324.2056886557739
  0
LINE
  8
_0-6_____________M6_20
  6
CONTINUOUS
 62
    7
 10
995.89422523530675
 20
1324.2056886557739
 11
995.80362755620399
 21
1324.280242907224
  0
LINE
  8
_0-6_____________M6_20
  6
CONTINUOUS
 62
    7
 10
1098.8251601540769
 20
1247.0964061342361
 11
1098.734794841539
 21
1247.16543742264
  0
LINE
  8
_0-6_____________M6_20
  6
CONTINUOUS
 62
    7
 10
1098.734794841539
 20
1247.16543742264
 11
1098.644301487855
 21
1247.2372416983858
  0
LINE
  8
_0-6_____________M6_20
  6
CONTINUOUS
 62
    7
 10
1098.644301487855
 20
1247.2372416983858
 11
1098.5537038087518
 21
1247.3117959498359
  0
LINE
  8
_0-6_____________M6_20
  6
CONTINUOUS
 62
    7
 10
991.21531559136793
 20
1325.956443193882
 11
990.91018039442497
 21
1326.1917024917138
  0
LINE
  8
_0-6_____________M6_20
  6
CONTINUOUS
 62
    7
 10
990.91018039442497
 20
1326.1917024917138
 11
990.60729377794905
 21
1326.4390476779981
  0
LINE
  8
_0-6_____________M6_20
  6
CONTINUOUS
 62
    7
 10
990.60729377794905
 20
1326.4390476779981
 11
990.30667084173183
 21
1326.699133914999
  0
LINE
  8
_0-6_____________M6_20
  6
CONTINUOUS
 62
    7
 10
1093.9653918431527
 20
1248.987996236493
 11
1093.6602566469737
 21
1249.223255535087
  0
LINE
  8
_0-6_____________M6_20
  6
CONTINUOUS
 62
    7
 10
1093.6602566469737
 20
1249.223255535087
 11
1093.3573700297356
 21
1249.4706007213722
  0
LINE
  8
_0-6_____________M6_20
  6
CONTINUOUS
 62
    7
 10
1093.3573700297356
 20
1249.4706007213722
 11
1093.0567470942797
 21
1249.730686958374
  0
LINE
  8
_0-6_____________M6_20
  6
CONTINUOUS
 62
    7
 10
999.59826128289797
 20
1324.4943565069361
 11
999.28245487717277
 21
1324.772280175624
  0
LINE
  8
_0-6_____________M6_20
  6
CONTINUOUS
 62
    7
 10
999.28245487717277
 20
1324.772280175624
 11
998.92946265885075
 21
1325.1184593168941
  0
LINE
  8
_0-6_____________M6_20
  6
CONTINUOUS
 62
    7
 10
998.92946265885075
 20
1325.1184593168941
 11
998.53963433411582
 21
1325.544234514618
  0
LINE
  8
_0-6_____________M6_20
  6
CONTINUOUS
 62
    7
 10
998.53963433411582
 20
1325.544234514618
 11
998.11467133009273
 21
1326.0607943069981
  0
LINE
  8
_0-6_____________M6_20
  6
CONTINUOUS
 62
    7
 10
998.11467133009273
 20
1326.0607943069981
 11
997.65757268066591
 21
1326.6788244052
  0
LINE
  8
_0-4__B______3
  6
CONTINUOUS
 62
    7
 10
946.37157877152686
 20
1354.1708879388698
 11
946.08710457669804
 21
1354.4355567379539
  0
LINE
  8
_0-4__B______3
  6
CONTINUOUS
 62
    7
 10
946.08710457669804
 20
1354.4355567379539
 11
945.86355925264388
 21
1354.7569166781641
  0
LINE
  8
_0-4__B______3
  6
CONTINUOUS
 62
    7
 10
945.86355925264388
 20
1354.7569166781641
 11
945.71299136582002
 21
1355.1203221644582
  0
LINE
  8
_0-4__B______3
  6
CONTINUOUS
 62
    7
 10
945.71299136582002
 20
1355.1203221644582
 11
945.64358220313989
 21
1355.5080524982159
  0
LINE
  8
_0-5________-2___M4
  6
CONTINUOUS
 62
    7
 10
959.43046334407882
 20
1353.340799791582
 11
959.24373868603288
 21
1353.520704209775
  0
LINE
  8
_0-5________-2___M4
  6
CONTINUOUS
 62
    7
 10
959.24373868603288
 20
1353.520704209775
 11
959.06148461416888
 21
1353.774535810569
  0
LINE
  8
_0-5________-2___M4
  6
CONTINUOUS
 62
    7
 10
959.06148461416888
 20
1353.774535810569
 11
958.892407697816
 21
1354.089235130878
  0
LINE
  8
_0-5________-2___M4
  6
CONTINUOUS
 62
    7
 10
958.892407697816
 20
1354.089235130878
 11
958.7445208142658
 21
1354.449386820022
  0
LINE
  8
_0-5________-2___M4
  6
CONTINUOUS
 62
    7
 10
958.7445208142658
 20
1354.449386820022
 11
958.62490392345171
 21
1354.8377489211221
  0
LINE
  8
_0-5________-2___M4
  6
CONTINUOUS
 62
    7
 10
958.62490392345171
 20
1354.8377489211221
 11
958.53948128276579
 21
1355.235795418906
  0
LINE
  8
_0-5________-2___M4
  6
CONTINUOUS
 62
    7
 10
958.53948128276579
 20
1355.235795418906
 11
958.49111233606982
 21
1355.6384120200719
  0
LINE
  8
_0-5________-2___M4
  6
CONTINUOUS
 62
    7
 10
957.64897645214569
 20
1353.971375651332
 11
957.5938238659819
 21
1354.0249745263541
  0
LINE
  8
_0-5________-2___M4
  6
CONTINUOUS
 62
    7
 10
957.5938238659819
 20
1354.0249745263541
 11
957.53873008945402
 21
1354.173679741516
  0
LINE
  8
_0-4__B______3
  6
CONTINUOUS
 62
    7
 10
947.58365393893882
 20
1353.9668325638982
 11
947.3669637337639
 21
1354.183026578296
  0
LINE
  8
_0-4__B______3
  6
CONTINUOUS
 62
    7
 10
947.3669637337639
 20
1354.183026578296
 11
947.15715902383363
 21
1354.4981409592419
  0
LINE
  8
_0-4__B______3
  6
CONTINUOUS
 62
    7
 10
947.15715902383363
 20
1354.4981409592419
 11
946.96853765253763
 21
1354.8907011812321
  0
LINE
  8
_0-4__B______3
  6
CONTINUOUS
 62
    7
 10
946.96853765253763
 20
1354.8907011812321
 11
946.81395385578799
 21
1355.3339549147381
  0
LINE
  8
_0-4__B______3
  6
CONTINUOUS
 62
    7
 10
946.81395385578799
 20
1355.3339549147381
 11
946.70394226377084
 21
1355.7976951493079
  0
LINE
  8
_0-4__B______3
  6
CONTINUOUS
 62
    7
 10
946.70394226377084
 20
1355.7976951493079
 11
946.64599998341464
 21
1356.2503187548541
  0
LINE
  8
_0-6_____________M6_20
  6
CONTINUOUS
 62
    7
 10
1010.5131238465747
 20
1330.462361344587
 11
1009.5959857093039
 21
1331.477267305881
  0
LINE
  8
_0-6_____________M6_20
  6
CONTINUOUS
 62
    7
 10
999.18746221752781
 20
1326.343196412754
 11
999.61242556063871
 21
1325.826636315574
  0
LINE
  8
_0-6_____________M6_20
  6
CONTINUOUS
 62
    7
 10
999.61242556063871
 20
1325.826636315574
 11
1000.0022538868998
 21
1325.4008612336738
  0
LINE
  8
_0-6_____________M6_20
  6
CONTINUOUS
 62
    7
 10
1000.0022538868998
 20
1325.4008612336738
 11
1000.3552457745141
 21
1325.0546825061701
  0
LINE
  8
_0-6_____________M6_20
  6
CONTINUOUS
 62
    7
 10
1000.3552457745141
 20
1325.0546825061701
 11
1000.6710515051059
 21
1324.7767594638449
  0
LINE
  8
_0-6_____________M6_20
  6
CONTINUOUS
 62
    7
 10
998.73036290287382
 20
1326.9612273621101
 11
999.18746221752781
 21
1326.343196412754
  0
LINE
  8
_0-6_____________M6_20
  6
CONTINUOUS
 62
    7
 10
1010.1263885468948
 20
1331.5342454375441
 11
1010.692605440875
 21
1330.2892344683378
  0
LINE
  8
_0-6_____________M6_20
  6
CONTINUOUS
 62
    7
 10
1009.4078845089248
 20
1332.2948409671499
 11
1008.9266975650266
 21
1333.3783047001421
  0
LINE
  8
_0-6_____________M6_20
  6
CONTINUOUS
 62
    7
 10
1008.9266975650266
 20
1333.3783047001421
 11
1007.7214009545437
 21
1334.29099887856
  0
LINE
  8
_0-6_____________M6_20
  6
CONTINUOUS
 62
    7
 10
1007.7214009545437
 20
1334.29099887856
 11
1005.8835184753748
 21
1334.9906864375262
  0
LINE
  8
_0-6_____________M6_20
  6
CONTINUOUS
 62
    7
 10
1092.1579234372698
 20
1251.844744732281
 11
1092.1978852051989
 21
1251.2684900298282
  0
LINE
  8
_0-6_____________M6_20
  6
CONTINUOUS
 62
    7
 10
1092.9994137898457
 20
1256.232143665366
 11
1093.1536182500408
 21
1254.0084921771941
  0
LINE
  8
_0-5________-2___M4
  6
CONTINUOUS
 62
    7
 10
1090.2520412546287
 20
1350.748604388225
 11
1090.136386732574
 21
1352.4163599691419
  0
LINE
  8
_0-5________-2___M4
  6
CONTINUOUS
 62
    7
 10
1091.157847410248
 20
1352.338504771792
 11
1091.0371427880559
 21
1354.0790835649482
  0
LINE
  8
_0-6_____________M6_20
  6
CONTINUOUS
 62
    7
 10
1099.069272184267
 20
1247.2753254540689
 11
1099.0948542105739
 21
1246.9064287961319
  0
LINE
  8
_0-5________-2___M4
  6
CONTINUOUS
 62
    7
 10
1089.4401664702036
 20
1352.0088076615662
 11
1089.4371897850219
 21
1352.10987019909
  0
LINE
  8
_0-5________-2___M4
  6
CONTINUOUS
 62
    7
 10
1089.4371897850219
 20
1352.10987019909
 11
1089.5359998337808
 21
1352.5989653252918
  0
LINE
  8
_0-6_____________M6_20
  6
CONTINUOUS
 62
    7
 10
1092.9995235810907
 20
1256.2321512526
 11
1093.2711344996419
 21
1257.2813479972301
  0
LINE
  8
_0-6_____________M6_20
  6
CONTINUOUS
 62
    7
 10
1093.2711344996419
 20
1257.2813479972301
 11
1094.2879130523138
 21
1258.3633937449949
  0
LINE
  8
_0-6_____________M6_20
  6
CONTINUOUS
 62
    7
 10
1094.2879130523138
 20
1258.3633937449949
 11
1095.98711766101
 21
1259.331930026613
  0
LINE
  8
_0-6_____________M6_20
  6
CONTINUOUS
 62
    7
 10
1092.158046403496
 20
1251.8447532301061
 11
1092.4622506330338
 21
1253.0198535842442
  0
LINE
  8
_0-6_____________M6_20
  6
CONTINUOUS
 62
    7
 10
1093.4412376486398
 20
1255.0845469003661
 11
1093.153633972388
 21
1254.0084932706641
  0
LINE
  8
_0-2_02___PRT_ALL_AXES
  6
CONTINUOUS
 62
    7
 10
842.34864232810287
 20
1056.2096681492681
 11
842.17642172131264
 21
1056.0659673805362
  0
LINE
  8
_0-2_02___PRT_ALL_AXES
  6
CONTINUOUS
 62
    7
 10
842.17642172131264
 20
1056.0659673805362
 11
841.95758700582201
 21
1055.916336934305
  0
LINE
  8
_0-2_02___PRT_ALL_AXES
  6
CONTINUOUS
 62
    7
 10
841.95758700582201
 20
1055.916336934305
 11
841.68587390383391
 21
1055.7575139959199
  0
LINE
  8
_0-2_02___PRT_ALL_AXES
  6
CONTINUOUS
 62
    7
 10
841.68587390383391
 20
1055.7575139959199
 11
841.35480438512468
 21
1055.5869013546721
  0
LINE
  8
_0-2_02___PRT_ALL_AXES
  6
CONTINUOUS
 62
    7
 10
841.35480438512468
 20
1055.5869013546721
 11
840.95985153723677
 21
1055.4030371638542
  0
LINE
  8
_0-2_02___PRT_ALL_AXES
  6
CONTINUOUS
 62
    7
 10
686.05358140119779
 20
997.72853379122216
 11
687.41367100791194
 21
998.702832316078
  0
LINE
  8
_0-2_02___PRT_ALL_AXES
  6
CONTINUOUS
 62
    7
 10
687.41367100791194
 20
998.702832316078
 11
688.86339124791175
 21
999.65875461504902
  0
LINE
  8
_0-2_02___PRT_ALL_AXES
  6
CONTINUOUS
 62
    7
 10
688.86339124791175
 20
999.65875461504902
 11
690.40080775447996
 21
1000.595025198435
  0
LINE
  8
_0-2_02___PRT_ALL_AXES
  6
CONTINUOUS
 62
    7
 10
690.40080775447996
 20
1000.595025198435
 11
692.0238691481768
 21
1001.510394796192
  0
LINE
  8
_0-2_02___PRT_ALL_AXES
  6
CONTINUOUS
 62
    7
 10
692.0238691481768
 20
1001.510394796192
 11
693.73040977318988
 21
1002.4036420289981
  0
LINE
  8
_0-2_02___PRT_ALL_AXES
  6
CONTINUOUS
 62
    7
 10
693.73040977318988
 20
1002.4036420289981
 11
695.51815258606393
 21
1003.273575032842
  0
LINE
  8
_0-2_02___PRT_ALL_AXES
  6
CONTINUOUS
 62
    7
 10
695.51815258606393
 20
1003.273575032842
 11
697.38471219532994
 21
1004.1190330546478
  0
LINE
  8
_0-2_02___PRT_ALL_AXES
  6
CONTINUOUS
 62
    7
 10
697.38471219532994
 20
1004.1190330546478
 11
699.32759804589796
 21
1004.9388879953258
  0
LINE
  8
_0-2_02___PRT_ALL_AXES
  6
CONTINUOUS
 62
    7
 10
699.32759804589796
 20
1004.9388879953258
 11
701.34421773832992
 21
1005.7320459215798
  0
LINE
  8
_0-2_02___PRT_ALL_AXES
  6
CONTINUOUS
 62
    7
 10
701.34421773832992
 20
1005.7320459215798
 11
703.43188048984393
 21
1006.4974485190419
  0
LINE
  8
_0-2_02___PRT_ALL_AXES
  6
CONTINUOUS
 62
    7
 10
703.43188048984393
 20
1006.4974485190419
 11
705.58780072561967
 21
1007.23407450883
  0
LINE
  8
_0-2_02___PRT_ALL_AXES
  6
CONTINUOUS
 62
    7
 10
705.58780072561967
 20
1007.23407450883
 11
707.80910179354987
 21
1007.94094100848
  0
LINE
  8
_0-2_02___PRT_ALL_AXES
  6
CONTINUOUS
 62
    7
 10
707.80910179354987
 20
1007.94094100848
 11
710.09281980624064
 21
1008.6171048441101
  0
LINE
  8
_0-2_02___PRT_ALL_AXES
  6
CONTINUOUS
 62
    7
 10
710.09281980624064
 20
1008.6171048441101
 11
712.43590758894197
 21
1009.261663806958
  0
LINE
  8
_0-2_02___PRT_ALL_AXES
  6
CONTINUOUS
 62
    7
 10
712.43590758894197
 20
1009.261663806958
 11
714.83523875318588
 21
1009.8737578611522
  0
LINE
  8
_0-2_02___PRT_ALL_AXES
  6
CONTINUOUS
 62
    7
 10
714.83523875318588
 20
1009.8737578611522
 11
717.28761186417705
 21
1010.4525702874721
  0
LINE
  8
_0-2_02___PRT_ALL_AXES
  6
CONTINUOUS
 62
    7
 10
717.28761186417705
 20
1010.4525702874721
 11
719.78975471180001
 21
1010.9973287737721
  0
LINE
  8
_0-2_02___PRT_ALL_AXES
  6
CONTINUOUS
 62
    7
 10
719.78975471180001
 20
1010.9973287737721
 11
722.33832867839601
 21
1011.50730644749
  0
LINE
  8
_0-2_02___PRT_ALL_AXES
  6
CONTINUOUS
 62
    7
 10
722.33832867839601
 20
1011.50730644749
 11
724.92993319342395
 21
1011.98182284415
  0
LINE
  8
_0-2_02___PRT_ALL_AXES
  6
CONTINUOUS
 62
    7
 10
724.92993319342395
 20
1011.98182284415
 11
727.56111027116594
 21
1012.4202448141418
  0
LINE
  8
_0-2_02___PRT_ALL_AXES
  6
CONTINUOUS
 62
    7
 10
727.56111027116594
 20
1012.4202448141418
 11
730.22834912311373
 21
1012.8219873708281
  0
LINE
  8
_0-2_02___PRT_ALL_AXES
  6
CONTINUOUS
 62
    7
 10
730.22834912311373
 20
1012.8219873708281
 11
732.92809084350802
 21
1013.186514466257
  0
LINE
  8
_0-2_02___PRT_ALL_AXES
  6
CONTINUOUS
 62
    7
 10
732.92809084350802
 20
1013.186514466257
 11
735.6567331588808
 21
1013.5133397120221
  0
LINE
  8
_0-2_02___PRT_ALL_AXES
  6
CONTINUOUS
 62
    7
 10
735.6567331588808
 20
1013.5133397120221
 11
738.41063523247385
 21
1013.80202702314
  0
LINE
  8
_0-2_02___PRT_ALL_AXES
  6
CONTINUOUS
 62
    7
 10
738.41063523247385
 20
1013.80202702314
 11
741.18612252349976
 21
1014.052191204039
  0
LINE
  8
_0-2_02___PRT_ALL_AXES
  6
CONTINUOUS
 62
    7
 10
741.18612252349976
 20
1014.052191204039
 11
743.97949169062395
 21
1014.263498459859
  0
LINE
  8
_0-2_02___PRT_ALL_AXES
  6
CONTINUOUS
 62
    7
 10
743.97949169062395
 20
1014.263498459859
 11
746.78701553200381
 21
1014.4356668414562
  0
LINE
  8
_0-2_02___PRT_ALL_AXES
  6
CONTINUOUS
 62
    7
 10
746.78701553200381
 20
1014.4356668414562
 11
749.60494795962677
 21
1014.5684666256402
  0
LINE
  8
_0-2_02___PRT_ALL_AXES
  6
CONTINUOUS
 62
    7
 10
749.60494795962677
 20
1014.5684666256402
 11
752.42952899650982
 21
1014.66172061617
  0
LINE
  8
_0-2_02___PRT_ALL_AXES
  6
CONTINUOUS
 62
    7
 10
752.42952899650982
 20
1014.66172061617
 11
755.25698979598292
 21
1014.7153043837802
  0
LINE
  8
_0-2_02___PRT_ALL_AXES
  6
CONTINUOUS
 62
    7
 10
755.25698979598292
 20
1014.7153043837802
 11
758.08355766785598
 21
1014.7291464322961
  0
LINE
  8
_0-2_02___PRT_ALL_AXES
  6
CONTINUOUS
 62
    7
 10
758.08355766785598
 20
1014.7291464322961
 11
760.905461112176
 21
1014.7032282916002
  0
LINE
  8
_0-2_02___PRT_ALL_AXES
  6
CONTINUOUS
 62
    7
 10
760.905461112176
 20
1014.7032282916002
 11
763.71893485529563
 21
1014.6375845442999
  0
LINE
  8
_0-2_02___PRT_ALL_AXES
  6
CONTINUOUS
 62
    7
 10
763.71893485529563
 20
1014.6375845442999
 11
766.52022486840087
 21
1014.5323027792469
  0
LINE
  8
_0-2_02___PRT_ALL_AXES
  6
CONTINUOUS
 62
    7
 10
766.52022486840087
 20
1014.5323027792469
 11
769.30559338299781
 21
1014.3875234749539
  0
LINE
  8
_0-2_02___PRT_ALL_AXES
  6
CONTINUOUS
 62
    7
 10
769.30559338299781
 20
1014.3875234749539
 11
772.07132387209867
 21
1014.2034398098481
  0
LINE
  8
_0-2_02___PRT_ALL_AXES
  6
CONTINUOUS
 62
    7
 10
772.07132387209867
 20
1014.2034398098481
 11
774.81372601161684
 21
1013.980297407772
  0
LINE
  8
_0-2_02___PRT_ALL_AXES
  6
CONTINUOUS
 62
    7
 10
774.81372601161684
 20
1013.980297407772
 11
777.52914060668581
 21
1013.7183940087962
  0
LINE
  8
_0-2_02___PRT_ALL_AXES
  6
CONTINUOUS
 62
    7
 10
777.52914060668581
 20
1013.7183940087962
 11
780.21394446998602
 21
1013.4180790706919
  0
LINE
  8
_0-2_02___PRT_ALL_AXES
  6
CONTINUOUS
 62
    7
 10
780.21394446998602
 20
1013.4180790706919
 11
782.86455525968586
 21
1013.0797533048758
  0
LINE
  8
_0-2_02___PRT_ALL_AXES
  6
CONTINUOUS
 62
    7
 10
782.86455525968586
 20
1013.0797533048758
 11
785.47743625641806
 21
1012.7038681407221
  0
LINE
  8
_0-2_02___PRT_ALL_AXES
  6
CONTINUOUS
 62
    7
 10
785.47743625641806
 20
1012.7038681407221
 11
788.04910108462991
 21
1012.2909251228202
  0
LINE
  8
_0-2_02___PRT_ALL_AXES
  6
CONTINUOUS
 62
    7
 10
788.04910108462991
 20
1012.2909251228202
 11
790.57611836383285
 21
1011.8414752434642
  0
LINE
  8
_0-2_02___PRT_ALL_AXES
  6
CONTINUOUS
 62
    7
 10
790.57611836383285
 20
1011.8414752434642
 11
793.05511628670183
 21
1011.3561182035119
  0
LINE
  8
_0-2_02___PRT_ALL_AXES
  6
CONTINUOUS
 62
    7
 10
793.05511628670183
 20
1011.3561182035119
 11
795.48278711791272
 21
1010.835501616858
  0
LINE
  8
_0-2_02___PRT_ALL_AXES
  6
CONTINUOUS
 62
    7
 10
795.48278711791272
 20
1010.835501616858
 11
797.85589160842301
 21
1010.2803201440379
  0
LINE
  8
_0-2_02___PRT_ALL_AXES
  6
CONTINUOUS
 62
    7
 10
797.85589160842301
 20
1010.2803201440379
 11
800.17126331752388
 21
1009.6913145663998
  0
LINE
  8
_0-2_02___PRT_ALL_AXES
  6
CONTINUOUS
 62
    7
 10
800.17126331752388
 20
1009.6913145663998
 11
802.42581283737081
 21
1009.0692707947419
  0
LINE
  8
_0-2_02___PRT_ALL_AXES
  6
CONTINUOUS
 62
    7
 10
802.42581283737081
 20
1009.0692707947419
 11
804.61653191388677
 21
1008.4150188246099
  0
LINE
  8
_0-2_02___PRT_ALL_AXES
  6
CONTINUOUS
 62
    7
 10
804.61653191388677
 20
1008.4150188246099
 11
806.74049746477885
 21
1007.7294316268262
  0
LINE
  8
_0-2_02___PRT_ALL_AXES
  6
CONTINUOUS
 62
    7
 10
806.74049746477885
 20
1007.7294316268262
 11
808.79487547564986
 21
1007.013423981628
  0
LINE
  8
_0-2_02___PRT_ALL_AXES
  6
CONTINUOUS
 62
    7
 10
808.79487547564986
 20
1007.013423981628
 11
810.77692478332301
 21
1006.267951261756
  0
LINE
  8
_0-2_02___PRT_ALL_AXES
  6
CONTINUOUS
 62
    7
 10
810.77692478332301
 20
1006.267951261756
 11
812.68400073192697
 21
1005.494008153054
  0
LINE
  8
_0-2_02___PRT_ALL_AXES
  6
CONTINUOUS
 62
    7
 10
812.68400073192697
 20
1005.494008153054
 11
814.51355870551879
 21
1004.6926273301142
  0
LINE
  8
_0-2_02___PRT_ALL_AXES
  6
CONTINUOUS
 62
    7
 10
814.51355870551879
 20
1004.6926273301142
 11
816.26315751670381
 21
1003.8648780785802
  0
LINE
  8
_0-2_02___PRT_ALL_AXES
  6
CONTINUOUS
 62
    7
 10
816.26315751670381
 20
1003.8648780785802
 11
817.93046267256204
 21
1003.0118648663979
  0
LINE
  8
_0-2_02___PRT_ALL_AXES
  6
CONTINUOUS
 62
    7
 10
817.93046267256204
 20
1003.0118648663979
 11
819.51324948056572
 21
1002.134725872394
  0
LINE
  8
_0-2_02___PRT_ALL_AXES
  6
CONTINUOUS
 62
    7
 10
819.51324948056572
 20
1002.134725872394
 11
821.00940602342462
 21
1001.234631466084
  0
LINE
  8
_0-2_02___PRT_ALL_AXES
  6
CONTINUOUS
 62
    7
 10
844.1852613228798
 20
1120.627096612096
 11
844.65765198871304
 21
1120.9287903899622
  0
LINE
  8
_0-2_02___PRT_ALL_AXES
  6
CONTINUOUS
 62
    7
 10
844.65765198871304
 20
1120.9287903899622
 11
845.08143072433904
 21
1121.389338653014
  0
LINE
  8
_0-2_02___PRT_ALL_AXES
  6
CONTINUOUS
 62
    7
 10
845.08143072433904
 20
1121.389338653014
 11
845.44935015309193
 21
1122.000853616164
  0
LINE
  8
_0-2_02___PRT_ALL_AXES
  6
CONTINUOUS
 62
    7
 10
845.44935015309193
 20
1122.000853616164
 11
845.75511865966382
 21
1122.752866754247
  0
LINE
  8
_0-2_02___PRT_ALL_AXES
  6
CONTINUOUS
 62
    7
 10
845.75511865966382
 20
1122.752866754247
 11
845.9935077757209
 21
1123.63250793832
  0
LINE
  8
_0-3_7_ALL_FEATURES
  6
CONTINUOUS
 62
    7
 10
680.13331325064792
 20
1038.143344125016
 11
673.85652284743401
 21
1034.3701051409021
  0
LINE
  8
_0-6_____________M6_20
  6
CONTINUOUS
 62
    7
 10
1093.6010426114767
 20
1254.231744821619
 11
1095.5041517732479
 21
1255.316505457276
  0
LINE
  8
_0-2_02___PRT_ALL_AXES
  6
CONTINUOUS
 62
    7
 10
670.24377535234362
 20
1037.858671977825
 11
670.890397171112
 21
1038.2217288841721
  0
LINE
  8
_0-2_02___PRT_ALL_AXES
  6
CONTINUOUS
 62
    7
 10
670.890397171112
 20
1038.2217288841721
 11
671.59765947794585
 21
1038.5708109680741
  0
LINE
  8
_0-2_02___PRT_ALL_AXES
  6
CONTINUOUS
 62
    7
 10
671.59765947794585
 20
1038.5708109680741
 11
672.3664371479058
 21
1038.908308372072
  0
LINE
  8
_0-2_02___PRT_ALL_AXES
  6
CONTINUOUS
 62
    7
 10
672.3664371479058
 20
1038.908308372072
 11
673.20306485386982
 21
1039.2390243143982
  0
LINE
  8
_0-2_02___PRT_ALL_AXES
  6
CONTINUOUS
 62
    7
 10
673.20306485386982
 20
1039.2390243143982
 11
674.12168392975991
 21
1039.56981585322
  0
LINE
  8
_0-6_____________M6_20
  6
CONTINUOUS
 62
    7
 10
1094.708214097664
 20
1256.155799001951
 11
1096.3430815680799
 21
1257.069608384134
  0
LINE
  8
_0-3_7_ALL_FEATURES
  6
CONTINUOUS
 62
    7
 10
830.05624172702483
 20
1137.3200483477922
 11
834.41426719078981
 21
1139.2633528762121
  0
LINE
  8
_0-2_02___PRT_ALL_AXES
  6
CONTINUOUS
 62
    7
 10
839.44932457734785
 20
1139.7982077056622
 11
838.98891819031269
 21
1139.600657842444
  0
LINE
  8
_0-2_02___PRT_ALL_AXES
  6
CONTINUOUS
 62
    7
 10
838.98891819031269
 20
1139.600657842444
 11
838.46389810852861
 21
1139.3895334292861
  0
LINE
  8
_0-2_02___PRT_ALL_AXES
  6
CONTINUOUS
 62
    7
 10
838.46389810852861
 20
1139.3895334292861
 11
837.87448906408372
 21
1139.1643713782141
  0
LINE
  8
_0-2_02___PRT_ALL_AXES
  6
CONTINUOUS
 62
    7
 10
837.87448906408372
 20
1139.1643713782141
 11
837.21673707783793
 21
1138.9231078465182
  0
LINE
  8
_0-2_02___PRT_ALL_AXES
  6
CONTINUOUS
 62
    7
 10
837.21673707783793
 20
1138.9231078465182
 11
836.48008990444987
 21
1138.6615341626562
  0
LINE
  8
_0-6_____________M6_20
  6
CONTINUOUS
 62
    7
 10
1095.98711766101
 20
1259.331930026613
 11
1098.2203397297349
 21
1260.098113751038
  0
LINE
  8
_0-6_____________M6_20
  6
CONTINUOUS
 62
    7
 10
1095.5041517732479
 20
1255.316505457276
 11
1098.0053604896407
 21
1256.1746312284481
  0
LINE
  8
_0-6_____________M6_20
  6
CONTINUOUS
 62
    7
 10
1098.3745441899318
 20
1257.8744622636282
 11
1096.1498144138477
 21
1257.112020270099
  0
LINE
  8
_0-6_____________M6_20
  6
CONTINUOUS
 62
    7
 10
1096.1498144138477
 20
1257.112020270099
 11
1094.4617757370988
 21
1256.154557706237
  0
LINE
  8
_0-6_____________M6_20
  6
CONTINUOUS
 62
    7
 10
1094.4617757370988
 20
1256.154557706237
 11
1093.4412376486398
 21
1255.0845469003661
  0
LINE
  8
_0-6_____________M6_20
  6
CONTINUOUS
 62
    7
 10
1096.3430815680799
 20
1257.069608384134
 11
1098.4772942656086
 21
1257.7974938163461
  0
LINE
  8
_0-6_____________M6_20
  6
CONTINUOUS
 62
    7
 10
1098.0453222583337
 20
1255.598376525993
 11
1095.7484424901509
 21
1254.8283427272281
  0
LINE
  8
_0-6_____________M6_20
  6
CONTINUOUS
 62
    7
 10
1095.7484424901509
 20
1254.8283427272281
 11
1093.9348628511248
 21
1253.8660060776101
  0
LINE
  8
_0-5________-2___M4
  6
CONTINUOUS
 62
    7
 10
1364.7702979063747
 20
1333.5659597921922
 11
1366.0309265616438
 21
1333.9646398853561
  0
LINE
  8
_0-5________-2___M4
  6
CONTINUOUS
 62
    7
 10
1366.0309265616438
 20
1333.9646398853561
 11
1367.1097282010887
 21
1334.4462043309109
  0
LINE
  8
_0-5________-2___M4
  6
CONTINUOUS
 62
    7
 10
1367.1097282010887
 20
1334.4462043309109
 11
1367.9660913847279
 21
1334.991966786502
  0
LINE
  8
_0-5________-2___M4
  6
CONTINUOUS
 62
    7
 10
1367.9660913847279
 20
1334.991966786502
 11
1368.0754567855029
 21
1335.0989956034318
  0
LINE
  8
_0-5________-2___M4
  6
CONTINUOUS
 62
    7
 10
1365.9417850721597
 20
1331.4048928720181
 11
1366.964661148832
 21
1331.7170978005661
  0
LINE
  8
_0-5________-2___M4
  6
CONTINUOUS
 62
    7
 10
1366.964661148832
 20
1331.7170978005661
 11
1367.8756838535787
 21
1332.0843427480659
  0
LINE
  8
_0-b_EL-M4010N_______3
  6
CONTINUOUS
 62
    7
 10
1394.8719229346539
 20
1355.196208487157
 11
1394.690467597286
 21
1355.1431527184909
  0
LINE
  8
_0-b_EL-M4010N_______3
  6
CONTINUOUS
 62
    7
 10
1394.690467597286
 20
1355.1431527184909
 11
1394.51029621925
 21
1355.079872916172
  0
LINE
  8
_0-b_EL-M4010N_______3
  6
CONTINUOUS
 62
    7
 10
1394.51029621925
 20
1355.079872916172
 11
1394.3319732299469
 21
1355.0065673190702
  0
LINE
  8
_0-a_EL-M4010N_______13
  6
CONTINUOUS
 62
    7
 10
1431.6395632577478
 20
1321.3297360988249
 11
1430.6121400588509
 21
1321.228499665282
  0
LINE
  8
_0-a_EL-M4010N_______13
  6
CONTINUOUS
 62
    7
 10
1430.6121400588509
 20
1321.228499665282
 11
1429.6707329744349
 21
1321.4666287099781
  0
LINE
  8
_0-a_EL-M4010N_______13
  6
CONTINUOUS
 62
    7
 10
1429.6707329744349
 20
1321.4666287099781
 11
1429.2156210388398
 21
1321.7381246739701
  0
LINE
  8
_0-a_EL-M4010N_______13
  6
CONTINUOUS
 62
    7
 10
1413.4870497861139
 20
1334.9274950614949
 11
1412.4596265872178
 21
1334.826258627189
  0
LINE
  8
_0-a_EL-M4010N_______13
  6
CONTINUOUS
 62
    7
 10
1412.4596265872178
 20
1334.826258627189
 11
1411.5182195035627
 21
1335.0643876726481
  0
LINE
  8
_0-a_EL-M4010N_______13
  6
CONTINUOUS
 62
    7
 10
1411.5182195035627
 20
1335.0643876726481
 11
1411.063107567968
 21
1335.3358836366401
  0
LINE
  8
_0-b_EL-M4010N_______3
  6
CONTINUOUS
 62
    7
 10
1439.1745688496308
 20
1315.68538332253
 11
1438.0870130844369
 21
1315.589046732628
  0
LINE
  8
_0-b_EL-M4010N_______3
  6
CONTINUOUS
 62
    7
 10
1438.0870130844369
 20
1315.589046732628
 11
1437.10480351673
 21
1315.871596776873
  0
LINE
  8
_0-b_EL-M4010N_______3
  6
CONTINUOUS
 62
    7
 10
1437.10480351673
 20
1315.871596776873
 11
1436.7509084160379
 21
1316.094146624127
  0
LINE
  8
_0-b_EL-M4010N_______3
  6
CONTINUOUS
 62
    7
 10
1430.5520074925539
 20
1321.233399509686
 11
1431.6395632577478
 21
1321.3297360988249
  0
LINE
  8
_0-b_EL-M4010N_______3
  6
CONTINUOUS
 62
    7
 10
1421.0220553779968
 20
1329.283142284437
 11
1419.9344996135646
 21
1329.1868056952981
  0
LINE
  8
_0-b_EL-M4010N_______3
  6
CONTINUOUS
 62
    7
 10
1419.9344996135646
 20
1329.1868056952981
 11
1418.9522900450957
 21
1329.469355739544
  0
LINE
  8
_0-b_EL-M4010N_______3
  6
CONTINUOUS
 62
    7
 10
1418.9522900450957
 20
1329.469355739544
 11
1418.5983949451656
 21
1329.691905586797
  0
LINE
  8
_0-b_EL-M4010N_______3
  6
CONTINUOUS
 62
    7
 10
1412.3994940216817
 20
1334.831158472356
 11
1413.4870497861139
 21
1334.9274950614949
  0
LINE
  8
_0-b_EL-M4010N_______3
  6
CONTINUOUS
 62
    7
 10
1402.8695419071259
 20
1342.880901247107
 11
1401.7819861419307
 21
1342.7845646579681
  0
LINE
  8
_0-b_EL-M4010N_______3
  6
CONTINUOUS
 62
    7
 10
1401.7819861419307
 20
1342.7845646579681
 11
1400.799776574223
 21
1343.0671147014518
  0
LINE
  8
_0-b_EL-M4010N_______3
  6
CONTINUOUS
 62
    7
 10
1400.799776574223
 20
1343.0671147014518
 11
1400.4458814735308
 21
1343.2896645487058
  0
LINE
  8
_0-6_____________M6_20
  6
CONTINUOUS
 62
    7
 10
1006.6766370229939
 20
1333.327066110975
 11
1008.7547148226326
 21
1332.5507396461048
  0
LINE
  8
_0-4__B______3
  6
CONTINUOUS
 62
    7
 10
946.37157877152686
 20
1354.1708879388698
 11
946.75338194467395
 21
1353.975783912771
  0
LINE
  8
_0-4__B______3
  6
CONTINUOUS
 62
    7
 10
946.75338194467395
 20
1353.975783912771
 11
947.15795333796677
 21
1353.9126346745802
  0
LINE
  8
_0-4__B______3
  6
CONTINUOUS
 62
    7
 10
947.15795333796677
 20
1353.9126346745802
 11
947.58365393893882
 21
1353.9668325638982
  0
LINE
  8
_0-6_____________M6_20
  6
CONTINUOUS
 62
    7
 10
1112.3460619610896
 20
1254.508820349256
 11
1110.7811236139596
 21
1255.353198382365
  0
LINE
  8
_0-6_____________M6_20
  6
CONTINUOUS
 62
    7
 10
1110.7811236139596
 20
1255.353198382365
 11
1108.6750330202049
 21
1255.969505518558
  0
LINE
  8
_0-6_____________M6_20
  6
CONTINUOUS
 62
    7
 10
1108.6750330202049
 20
1255.969505518558
 11
1106.1713167728858
 21
1256.315741446354
  0
LINE
  8
_0-6_____________M6_20
  6
CONTINUOUS
 62
    7
 10
1106.1713167728858
 20
1256.315741446354
 11
1103.440598995825
 21
1256.3683107587922
  0
LINE
  8
_0-6_____________M6_20
  6
CONTINUOUS
 62
    7
 10
1103.440598995825
 20
1256.3683107587922
 11
1100.6689735939517
 21
1256.1236309433521
  0
LINE
  8
_0-6_____________M6_20
  6
CONTINUOUS
 62
    7
 10
1100.6689735939517
 20
1256.1236309433521
 11
1098.0453222583337
 21
1255.598376525993
  0
LINE
  8
_0-6_____________M6_20
  6
CONTINUOUS
 62
    7
 10
1009.5959857093039
 20
1331.477267305881
 11
1008.0310473621739
 21
1332.3216453389909
  0
LINE
  8
_0-6_____________M6_20
  6
CONTINUOUS
 62
    7
 10
1008.0310473621739
 20
1332.3216453389909
 11
1005.924956767657
 21
1332.9379524759461
  0
LINE
  8
_0-6_____________M6_20
  6
CONTINUOUS
 62
    7
 10
1005.924956767657
 20
1332.9379524759461
 11
1003.4212405203371
 21
1333.2841884037421
  0
LINE
  8
_0-6_____________M6_20
  6
CONTINUOUS
 62
    7
 10
1003.4212405203371
 20
1333.2841884037421
 11
1000.6905227440388
 21
1333.3367577154181
  0
LINE
  8
_0-6_____________M6_20
  6
CONTINUOUS
 62
    7
 10
1000.6905227440388
 20
1333.3367577154181
 11
997.91889734216466
 21
1333.0920779007402
  0
LINE
  8
_0-6_____________M6_20
  6
CONTINUOUS
 62
    7
 10
997.91889734216466
 20
1333.0920779007402
 11
995.29524600578497
 21
1332.566823483382
  0
LINE
  8
_0-5________-2___M4
  6
CONTINUOUS
 62
    7
 10
1130.1793665461237
 20
1248.7498742806838
 11
1130.578230871075
 21
1248.5169578150981
  0
LINE
  8
_0-5________-2___M4
  6
CONTINUOUS
 62
    7
 10
1130.578230871075
 20
1248.5169578150981
 11
1131.1930658293627
 21
1248.2897232695682
  0
LINE
  8
_0-5________-2___M4
  6
CONTINUOUS
 62
    7
 10
1131.1930658293627
 20
1248.2897232695682
 11
1131.9224493345259
 21
1248.122642480032
  0
LINE
  8
_0-5________-2___M4
  6
CONTINUOUS
 62
    7
 10
1131.9224493345259
 20
1248.122642480032
 11
1132.739625818534
 21
1248.0222166811382
  0
LINE
  8
_0-5________-2___M4
  6
CONTINUOUS
 62
    7
 10
1132.739625818534
 20
1248.0222166811382
 11
1133.6074482477306
 21
1247.9926588779222
  0
LINE
  8
_0-5________-2___M4
  6
CONTINUOUS
 62
    7
 10
1133.6074482477306
 20
1247.9926588779222
 11
1134.5038495776066
 21
1248.035031485836
  0
LINE
  8
_0-5________-2___M4
  6
CONTINUOUS
 62
    7
 10
1134.5038495776066
 20
1248.035031485836
 11
1135.390474743901
 21
1248.148718496459
  0
LINE
  8
_0-5________-2___M4
  6
CONTINUOUS
 62
    7
 10
1135.390474743901
 20
1248.148718496459
 11
1136.229202502816
 21
1248.32912002288
  0
LINE
  8
_0-5________-2___M4
  6
CONTINUOUS
 62
    7
 10
1137.8857991141767
 20
1249.552299898588
 11
1138.3639898115916
 21
1249.2729790129829
  0
LINE
  8
_0-5________-2___M4
  6
CONTINUOUS
 62
    7
 10
1138.3639898115916
 20
1249.2729790129829
 11
1138.6858084681808
 21
1248.9530327206962
  0
LINE
  8
_0-5________-2___M4
  6
CONTINUOUS
 62
    7
 10
1138.6858084681808
 20
1248.9530327206962
 11
1138.8396681622398
 21
1248.604450334296
  0
LINE
  8
_0-5________-2___M4
  6
CONTINUOUS
 62
    7
 10
1138.8396681622398
 20
1248.604450334296
 11
1138.850806447304
 21
1248.517047489544
  0
LINE
  8
_0-5________-2___M4
  6
CONTINUOUS
 62
    7
 10
993.72726528297699
 20
1350.963971839888
 11
994.12612960792876
 21
1350.7310553735401
  0
LINE
  8
_0-5________-2___M4
  6
CONTINUOUS
 62
    7
 10
994.12612960792876
 20
1350.7310553735401
 11
994.74096456621783
 21
1350.503820828771
  0
LINE
  8
_0-5________-2___M4
  6
CONTINUOUS
 62
    7
 10
1001.4336978510319
 20
1351.7663974577922
 11
1001.9118885484449
 21
1351.487076572188
  0
LINE
  8
_0-5________-2___M4
  6
CONTINUOUS
 62
    7
 10
1001.9118885484449
 20
1351.487076572188
 11
1002.2337072050359
 21
1351.1671302799
  0
LINE
  8
_0-5________-2___M4
  6
CONTINUOUS
 62
    7
 10
1002.2337072050359
 20
1351.1671302799
 11
1002.3875668990927
 21
1350.8185478935002
  0
LINE
  8
_0-5________-2___M4
  6
CONTINUOUS
 62
    7
 10
1002.3875668990927
 20
1350.8185478935002
 11
1002.3987051841577
 21
1350.7311450487482
  0
LINE
  8
_0-6_____________M6_20
  6
CONTINUOUS
 62
    7
 10
1001.2122019069279
 20
1324.3713923093801
 11
1001.521941040814
 21
1324.1807266863939
  0
LINE
  8
_0-6_____________M6_20
  6
CONTINUOUS
 62
    7
 10
1001.521941040814
 20
1324.1807266863939
 11
1001.8629517944009
 21
1324.007031193551
  0
LINE
  8
_0-6_____________M6_20
  6
CONTINUOUS
 62
    7
 10
1001.8629517944009
 20
1324.007031193551
 11
1002.2331875819959
 21
1323.8634393161442
  0
LINE
  8
_0-6_____________M6_20
  6
CONTINUOUS
 62
    7
 10
1002.2331875819959
 20
1323.8634393161442
 11
1002.6291244454419
 21
1323.7650515075861
  0
LINE
  8
_0-6_____________M6_20
  6
CONTINUOUS
 62
    7
 10
1002.6291244454419
 20
1323.7650515075861
 11
1003.0458724912928
 21
1323.7284605106638
  0
LINE
  8
_0-6_____________M6_20
  6
CONTINUOUS
 62
    7
 10
996.34477795802604
 20
1323.8748757527569
 11
996.25515883779781
 21
1323.93531903751
  0
LINE
  8
_0-6_____________M6_20
  6
CONTINUOUS
 62
    7
 10
996.25515883779781
 20
1323.93531903751
 11
996.16525316975594
 21
1323.9986487980741
  0
LINE
  8
_0-6_____________M6_20
  6
CONTINUOUS
 62
    7
 10
996.16525316975594
 20
1323.9986487980741
 11
996.07508390152861
 21
1324.064853090862
  0
LINE
  8
_0-6_____________M6_20
  6
CONTINUOUS
 62
    7
 10
1107.3803226843079
 20
1249.3484803473762
 11
1107.4704919525338
 21
1249.2822760538261
  0
LINE
  8
_0-6_____________M6_20
  6
CONTINUOUS
 62
    7
 10
1107.4704919525338
 20
1249.2822760538261
 11
1107.5603976205757
 21
1249.218946293262
  0
LINE
  8
_0-6_____________M6_20
  6
CONTINUOUS
 62
    7
 10
1107.5603976205757
 20
1249.218946293262
 11
1107.650016740803
 21
1249.1585030085098
  0
LINE
  8
_0-6_____________M6_20
  6
CONTINUOUS
 62
    7
 10
1004.6302464325217
 20
1326.3169273040021
 11
1004.7204156999846
 21
1326.2507230112142
  0
LINE
  8
_0-6_____________M6_20
  6
CONTINUOUS
 62
    7
 10
1004.7204156999846
 20
1326.2507230112142
 11
1004.810321368027
 21
1326.187393249887
  0
LINE
  8
_0-6_____________M6_20
  6
CONTINUOUS
 62
    7
 10
1004.810321368027
 20
1326.187393249887
 11
1004.8999404882547
 21
1326.126949965897
  0
LINE
  8
_0-6_____________M6_20
  6
CONTINUOUS
 62
    7
 10
1111.5047910751819
 20
1255.5822926894789
 11
1112.8764647994431
 21
1254.565798480156
  0
LINE
  8
_0-6_____________M6_20
  6
CONTINUOUS
 62
    7
 10
1008.7547148226326
 20
1332.5507396461048
 11
1010.1263885468948
 21
1331.5342454375441
  0
LINE
  8
_0-6_____________M6_20
  6
CONTINUOUS
 62
    7
 10
1110.273402752593
 20
1259.5692400554221
 11
1111.4981114342359
 21
1258.6616559404438
  0
LINE
  8
_0-6_____________M6_20
  6
CONTINUOUS
 62
    7
 10
1111.4981114342359
 20
1258.6616559404438
 11
1112.0036622323769
 21
1257.5500390034081
  0
LINE
  8
_0-6_____________M6_20
  6
CONTINUOUS
 62
    7
 10
1007.5233265000447
 20
1336.5376870120481
 11
1008.7480351824497
 21
1335.6301028970702
  0
LINE
  8
_0-6_____________M6_20
  6
CONTINUOUS
 62
    7
 10
1008.7480351824497
 20
1335.6301028970702
 11
1009.2535859798299
 21
1334.5184859607962
  0
LINE
  8
_0-6_____________M6_20
  6
CONTINUOUS
 62
    7
 10
1004.3587900864327
 20
1326.532317119601
 11
1004.4493877655368
 21
1326.4577628681518
  0
LINE
  8
_0-6_____________M6_20
  6
CONTINUOUS
 62
    7
 10
1004.4493877655368
 20
1326.4577628681518
 11
1004.5398811192208
 21
1326.385958592406
  0
LINE
  8
_0-6_____________M6_20
  6
CONTINUOUS
 62
    7
 10
1004.5398811192208
 20
1326.385958592406
 11
1004.6302464325217
 21
1326.3169273040021
  0
LINE
  8
_0-6_____________M6_20
  6
CONTINUOUS
 62
    7
 10
1107.1088663389819
 20
1249.563870162975
 11
1107.199464018086
 21
1249.4893159115259
  0
LINE
  8
_0-6_____________M6_20
  6
CONTINUOUS
 62
    7
 10
1107.199464018086
 20
1249.4893159115259
 11
1107.28995737177
 21
1249.4175116357801
  0
LINE
  8
_0-6_____________M6_20
  6
CONTINUOUS
 62
    7
 10
1107.28995737177
 20
1249.4175116357801
 11
1107.3803226843079
 21
1249.3484803473762
  0
LINE
  8
_0-6_____________M6_20
  6
CONTINUOUS
 62
    7
 10
1102.3483375354458
 20
1247.525909549548
 11
1102.0325311297206
 21
1247.803833218235
  0
LINE
  8
_0-6_____________M6_20
  6
CONTINUOUS
 62
    7
 10
1102.0325311297206
 20
1247.803833218235
 11
1101.6795389106378
 21
1248.150012359506
  0
LINE
  8
_0-6_____________M6_20
  6
CONTINUOUS
 62
    7
 10
1101.6795389106378
 20
1248.150012359506
 11
1101.2897105866627
 21
1248.575787557229
  0
LINE
  8
_0-6_____________M6_20
  6
CONTINUOUS
 62
    7
 10
1101.2897105866627
 20
1248.575787557229
 11
1100.864747582641
 21
1249.0923473503722
  0
LINE
  8
_0-6_____________M6_20
  6
CONTINUOUS
 62
    7
 10
1100.864747582641
 20
1249.0923473503722
 11
1100.4076489332128
 21
1249.710377447811
  0
LINE
  8
_0-6_____________M6_20
  6
CONTINUOUS
 62
    7
 10
1113.2632000991239
 20
1253.4939143872002
 11
1112.3460619610896
 21
1254.508820349256
  0
LINE
  8
_0-6_____________M6_20
  6
CONTINUOUS
 62
    7
 10
1101.937538469313
 20
1249.374749456128
 11
1102.362501813187
 21
1248.8581893581859
  0
LINE
  8
_0-6_____________M6_20
  6
CONTINUOUS
 62
    7
 10
1102.362501813187
 20
1248.8581893581859
 11
1102.7523301394476
 21
1248.4324142770479
  0
LINE
  8
_0-6_____________M6_20
  6
CONTINUOUS
 62
    7
 10
1102.7523301394476
 20
1248.4324142770479
 11
1103.1053220262988
 21
1248.0862355495442
  0
LINE
  8
_0-6_____________M6_20
  6
CONTINUOUS
 62
    7
 10
1103.1053220262988
 20
1248.0862355495442
 11
1103.4211277576528
 21
1247.8083125064582
  0
LINE
  8
_0-6_____________M6_20
  6
CONTINUOUS
 62
    7
 10
1101.4804391554217
 20
1249.992780404722
 11
1101.937538469313
 21
1249.374749456128
  0
LINE
  8
_0-6_____________M6_20
  6
CONTINUOUS
 62
    7
 10
1093.153633972388
 20
1254.0084932706641
 11
1093.2298971360919
 21
1253.836775452809
  0
LINE
  8
_0-6_____________M6_20
  6
CONTINUOUS
 62
    7
 10
1092.1978852051989
 20
1251.2684900298282
 11
1092.4174515336558
 21
1250.5191169489481
  0
LINE
  8
_0-6_____________M6_20
  6
CONTINUOUS
 62
    7
 10
1092.4174515336558
 20
1250.5191169489481
 11
1093.0567470942797
 21
1249.730686958374
  0
LINE
  8
_0-6_____________M6_20
  6
CONTINUOUS
 62
    7
 10
1102.3483375354458
 20
1247.525909549548
 11
1102.2461386014138
 21
1248.9996335393562
  0
LINE
  8
_0-6_____________M6_20
  6
CONTINUOUS
 62
    7
 10
1102.8018830672659
 20
1248.3838177781022
 11
1102.8894879372679
 21
1247.120542395844
  0
LINE
  8
_0-6_____________M6_20
  6
CONTINUOUS
 62
    7
 10
1103.9622781587127
 20
1247.4029453527542
 11
1103.9225111496016
 21
1247.9763916059101
  0
LINE
  8
_0-6_____________M6_20
  6
CONTINUOUS
 62
    7
 10
1104.6862251367747
 20
1247.010195550497
 11
1104.7231585216327
 21
1246.4776105971282
  0
LINE
  8
_0-6_____________M6_20
  6
CONTINUOUS
 62
    7
 10
1112.0037720236228
 20
1257.5500465914042
 11
1112.1579764838198
 21
1255.3263951032318
  0
LINE
  8
_0-6_____________M6_20
  6
CONTINUOUS
 62
    7
 10
1113.4428046588869
 20
1253.320796009536
 11
1113.482766427579
 21
1252.7445413070818
  0
LINE
  8
_0-4__B______3
  6
CONTINUOUS
 62
    7
 10
1117.8816806185569
 20
1229.6300354947839
 11
1117.5661550151667
 21
1234.1799621058599
  0
LINE
  8
_0-4__B______3
  6
CONTINUOUS
 62
    7
 10
1117.8816806185569
 20
1229.6300354947839
 11
1117.8885072051066
 21
1229.2757150601701
  0
LINE
  8
_0-4__B______3
  6
CONTINUOUS
 62
    7
 10
1117.8885072051066
 20
1229.2757150601701
 11
1117.8605272699569
 21
1228.8757614379301
  0
LINE
  8
_0-4__B______3
  6
CONTINUOUS
 62
    7
 10
1117.8605272699569
 20
1228.8757614379301
 11
1117.798508610404
 21
1228.466285176366
  0
LINE
  8
_0-4__B______3
  6
CONTINUOUS
 62
    7
 10
1117.798508610404
 20
1228.466285176366
 11
1117.7039752416849
 21
1228.057892262394
  0
LINE
  8
_0-4__B______3
  6
CONTINUOUS
 62
    7
 10
1117.7039752416849
 20
1228.057892262394
 11
1117.5665264673066
 21
1227.6324852371622
  0
LINE
  8
_0-4__B______3
  6
CONTINUOUS
 62
    7
 10
1117.5665264673066
 20
1227.6324852371622
 11
1117.400614069898
 21
1227.2559099410382
  0
LINE
  8
_0-6_____________M6_20
  6
CONTINUOUS
 62
    7
 10
1112.1070651271707
 20
1255.135970743162
 11
1112.1579607607109
 21
1255.326394010523
  0
LINE
  8
_0-6_____________M6_20
  6
CONTINUOUS
 62
    7
 10
1093.3817512972037
 20
1254.0243126284081
 11
1093.6954516149367
 21
1255.1280257989301
  0
LINE
  8
_0-6_____________M6_20
  6
CONTINUOUS
 62
    7
 10
1093.6954516149367
 20
1255.1280257989301
 11
1094.708214097664
 21
1256.155799001951
  0
LINE
  8
_0-6_____________M6_20
  6
CONTINUOUS
 62
    7
 10
1092.7281757963819
 20
1252.7769482298222
 11
1092.2106150537556
 21
1251.6353866755089
  0
LINE
  8
_0-6_____________M6_20
  6
CONTINUOUS
 62
    7
 10
1092.2106150537556
 20
1251.6353866755089
 11
1092.1978852051989
 21
1251.2684900298282
  0
LINE
  8
_0-6_____________M6_20
  6
CONTINUOUS
 62
    7
 10
1112.8443901551859
 20
1251.1029086543622
 11
1112.9524758363978
 21
1251.2360831070878
  0
LINE
  8
_0-6_____________M6_20
  6
CONTINUOUS
 62
    7
 10
1112.9524758363978
 20
1251.2360831070878
 11
1113.4700365790227
 21
1252.377644660638
  0
LINE
  8
_0-6_____________M6_20
  6
CONTINUOUS
 62
    7
 10
1113.4700365790227
 20
1252.377644660638
 11
1113.482766427579
 21
1252.7445413070818
  0
LINE
  8
_0-6_____________M6_20
  6
CONTINUOUS
 62
    7
 10
1092.4622506330338
 20
1253.0198535842442
 11
1093.6010426114767
 21
1254.231744821619
  0
LINE
  8
_0-4__B______3
  6
CONTINUOUS
 62
    7
 10
1283.8151210052679
 20
1442.4769238446061
 11
1283.6020608339786
 21
1442.2632671416181
  0
LINE
  8
_0-4__B______3
  6
CONTINUOUS
 62
    7
 10
1283.6020608339786
 20
1442.2632671416181
 11
1283.4482704910647
 21
1442.1872328118479
  0
LINE
  8
_0-5________-2___M4
  6
CONTINUOUS
 62
    7
 10
1129.953776537564
 20
1248.527954048121
 11
1130.3118722280246
 21
1248.8802244329881
  0
LINE
  8
_0-5________-2___M4
  6
CONTINUOUS
 62
    7
 10
1130.3118722280246
 20
1248.8802244329881
 11
1130.8257929454198
 21
1249.20910718086
  0
LINE
  8
_0-5________-2___M4
  6
CONTINUOUS
 62
    7
 10
1130.8257929454198
 20
1249.20910718086
 11
1131.4759140350648
 21
1249.4999556314201
  0
LINE
  8
_0-5________-2___M4
  6
CONTINUOUS
 62
    7
 10
1131.4759140350648
 20
1249.4999556314201
 11
1132.2348523190658
 21
1249.740126183844
  0
LINE
  8
_0-6_____________M6_20
  6
CONTINUOUS
 62
    7
 10
1112.8443901551859
 20
1251.1029086543622
 11
1110.8177529730087
 21
1249.1588250022778
  0
LINE
  8
_0-6_____________M6_20
  6
CONTINUOUS
 62
    7
 10
1110.8177529730087
 20
1249.1588250022778
 11
1108.5221280450919
 21
1247.703434615883
  0
LINE
  8
_0-6_____________M6_20
  6
CONTINUOUS
 62
    7
 10
1108.5221280450919
 20
1247.703434615883
 11
1106.2910042485219
 21
1246.8119113433081
  0
LINE
  8
_0-6_____________M6_20
  6
CONTINUOUS
 62
    7
 10
1093.9348628511248
 20
1253.8660060776101
 11
1092.7281757963819
 21
1252.7769482298222
  0
LINE
  8
_0-7_EL-M4010N_______4
  6
CONTINUOUS
 62
    7
 10
1311.7413470127499
 20
1412.3295588831702
 11
1312.616564144455
 21
1413.045898896004
  0
LINE
  8
_0-7_EL-M4010N_______4
  6
CONTINUOUS
 62
    7
 10
1312.616564144455
 20
1413.045898896004
 11
1313.2776096364328
 21
1413.9637301827661
  0
LINE
  8
_0-7_EL-M4010N_______4
  6
CONTINUOUS
 62
    7
 10
1313.2776096364328
 20
1413.9637301827661
 11
1313.6740330963157
 21
1415.0050395804578
  0
LINE
  8
_0-7_EL-M4010N_______4
  6
CONTINUOUS
 62
    7
 10
1313.6740330963157
 20
1415.0050395804578
 11
1313.7656267650459
 21
1416.0761585454038
  0
LINE
  8
_0-7_EL-M4010N_______4
  6
CONTINUOUS
 62
    7
 10
1313.7656267650459
 20
1416.0761585454038
 11
1313.5394888784858
 21
1417.0643703375822
  0
LINE
  8
_0-7_EL-M4010N_______4
  6
CONTINUOUS
 62
    7
 10
1313.5394888784858
 20
1417.0643703375822
 11
1313.0209171508359
 21
1417.87070251765
  0
LINE
  8
_0-2_02___PRT_ALL_AXES
  6
CONTINUOUS
 62
    7
 10
840.95985152199682
 20
1055.4030371707122
 11
840.48746077310579
 21
1055.1013433379821
  0
LINE
  8
_0-2_02___PRT_ALL_AXES
  6
CONTINUOUS
 62
    7
 10
840.48746077310579
 20
1055.1013433379821
 11
840.06368202604972
 21
1054.640795050545
  0
LINE
  8
_0-2_02___PRT_ALL_AXES
  6
CONTINUOUS
 62
    7
 10
840.06368202604972
 20
1054.640795050545
 11
839.695762589678
 21
1054.0292800523439
  0
LINE
  8
_0-2_02___PRT_ALL_AXES
  6
CONTINUOUS
 62
    7
 10
839.695762589678
 20
1054.0292800523439
 11
839.38999408005793
 21
1053.2772668715879
  0
LINE
  8
_0-2_02___PRT_ALL_AXES
  6
CONTINUOUS
 62
    7
 10
839.38999408005793
 20
1053.2772668715879
 11
839.15160496628505
 21
1052.3976256364622
  0
LINE
  8
_0-2_02___PRT_ALL_AXES
  6
CONTINUOUS
 62
    7
 10
839.15160496628505
 20
1052.3976256364622
 11
838.98467134104794
 21
1051.4054079881862
  0
LINE
  8
_0-2_02___PRT_ALL_AXES
  6
CONTINUOUS
 62
    7
 10
838.98467134104794
 20
1051.4054079881862
 11
838.89204736373586
 21
1050.3175897802862
  0
LINE
  8
_0-2_02___PRT_ALL_AXES
  6
CONTINUOUS
 62
    7
 10
838.89204736373586
 20
1050.3175897802862
 11
838.8753165648377
 21
1049.1527809676681
  0
LINE
  8
_0-6_____________M6_20
  6
CONTINUOUS
 62
    7
 10
1107.650016740803
 20
1249.1585030085098
 11
1106.8040101071906
 21
1248.639783655552
  0
LINE
  8
_0-6_____________M6_20
  6
CONTINUOUS
 62
    7
 10
1106.8040101071906
 20
1248.639783655552
 11
1106.0048237444298
 21
1248.2165125277502
  0
LINE
  8
_0-6_____________M6_20
  6
CONTINUOUS
 62
    7
 10
1106.0048237444298
 20
1248.2165125277502
 11
1105.2612233553309
 21
1247.877108429826
  0
LINE
  8
_0-6_____________M6_20
  6
CONTINUOUS
 62
    7
 10
1105.2612233553309
 20
1247.877108429826
 11
1104.5793001446318
 21
1247.60979002263
  0
LINE
  8
_0-6_____________M6_20
  6
CONTINUOUS
 62
    7
 10
1104.5793001446318
 20
1247.60979002263
 11
1103.9622781587127
 21
1247.4029453527542
  0
LINE
  8
_0-2_02___PRT_ALL_AXES
  6
CONTINUOUS
 62
    7
 10
844.18526132211673
 20
1120.627096612096
 11
844.58027516886705
 21
1120.810990598638
  0
LINE
  8
_0-2_02___PRT_ALL_AXES
  6
CONTINUOUS
 62
    7
 10
844.58027516886705
 20
1120.810990598638
 11
844.91136152777472
 21
1120.981616024721
  0
LINE
  8
_0-2_02___PRT_ALL_AXES
  6
CONTINUOUS
 62
    7
 10
844.91136152777472
 20
1120.981616024721
 11
845.18304747360662
 21
1121.1404282783442
  0
LINE
  8
_0-2_02___PRT_ALL_AXES
  6
CONTINUOUS
 62
    7
 10
845.18304747360662
 20
1121.1404282783442
 11
845.40182369340801
 21
1121.2900209377558
  0
LINE
  8
_0-2_02___PRT_ALL_AXES
  6
CONTINUOUS
 62
    7
 10
845.40182369340801
 20
1121.2900209377558
 11
845.57405219527982
 21
1121.4337276325618
  0
LINE
  8
_0-c_EL-M4010N_______2
  6
CONTINUOUS
 62
    7
 10
1394.9104740500838
 20
1354.640295614734
 11
1393.9891643011397
 21
1354.2254959739262
  0
LINE
  8
_0-c_EL-M4010N_______2
  6
CONTINUOUS
 62
    7
 10
1393.9891643011397
 20
1354.2254959739262
 11
1393.2075524244378
 21
1353.5277162549341
  0
LINE
  8
_0-c_EL-M4010N_______2
  6
CONTINUOUS
 62
    7
 10
1395.2959851998107
 20
1349.0811668958281
 11
1396.2172949487558
 21
1349.495966536635
  0
LINE
  8
_0-c_EL-M4010N_______2
  6
CONTINUOUS
 62
    7
 10
1396.2172949487558
 20
1349.495966536635
 11
1396.9989068254567
 21
1350.193746255628
  0
LINE
  8
_0-c_EL-M4010N_______2
  6
CONTINUOUS
 62
    7
 10
1396.9989068254567
 20
1350.193746255628
 11
1397.5479183941839
 21
1351.081522489977
  0
LINE
  8
_0-c_EL-M4010N_______2
  6
CONTINUOUS
 62
    7
 10
1397.5479183941839
 20
1351.081522489977
 11
1397.8102125482828
 21
1352.0711022428441
  0
LINE
  8
_0-b_EL-M4010N_______3
  6
CONTINUOUS
 62
    7
 10
1395.3345363152407
 20
1348.5252540234042
 11
1396.3389097936629
 21
1348.9588708892129
  0
LINE
  8
_0-b_EL-M4010N_______3
  6
CONTINUOUS
 62
    7
 10
1396.3389097936629
 20
1348.9588708892129
 11
1397.2141269253698
 21
1349.675210901285
  0
LINE
  8
_0-b_EL-M4010N_______3
  6
CONTINUOUS
 62
    7
 10
1397.2141269253698
 20
1349.675210901285
 11
1397.8751724173467
 21
1350.593042188048
  0
LINE
  8
_0-b_EL-M4010N_______3
  6
CONTINUOUS
 62
    7
 10
1397.8751724173467
 20
1350.593042188048
 11
1398.2715958772296
 21
1351.6343515857402
  0
LINE
  8
_0-b_EL-M4010N_______3
  6
CONTINUOUS
 62
    7
 10
1398.2715958772296
 20
1351.6343515857402
 11
1398.3631895459598
 21
1352.7054705506862
  0
LINE
  8
_0-b_EL-M4010N_______3
  6
CONTINUOUS
 62
    7
 10
1398.3631895459598
 20
1352.7054705506862
 11
1398.1370516593997
 21
1353.6936823428641
  0
LINE
  8
_0-6_____________M6_20
  6
CONTINUOUS
 62
    7
 10
1103.4211277576528
 20
1247.8083125064582
 11
1104.0381510542106
 21
1248.0151576510598
  0
LINE
  8
_0-6_____________M6_20
  6
CONTINUOUS
 62
    7
 10
1104.0381510542106
 20
1248.0151576510598
 11
1104.7200748859418
 21
1248.2824763996318
  0
LINE
  8
_0-6_____________M6_20
  6
CONTINUOUS
 62
    7
 10
1104.7200748859418
 20
1248.2824763996318
 11
1105.4636752453207
 21
1248.6218806156662
  0
LINE
  8
_0-6_____________M6_20
  6
CONTINUOUS
 62
    7
 10
1105.4636752453207
 20
1248.6218806156662
 11
1106.2628609459048
 21
1249.0451515156301
  0
LINE
  8
_0-6_____________M6_20
  6
CONTINUOUS
 62
    7
 10
1106.2628609459048
 20
1249.0451515156301
 11
1107.1088663389819
 21
1249.563870162975
  0
LINE
  8
_0-5________-2___M4
  6
CONTINUOUS
 62
    7
 10
1366.1755230964268
 20
1331.8799778517409
 11
1364.914864587523
 21
1331.4812865221261
  0
LINE
  8
_0-5________-2___M4
  6
CONTINUOUS
 62
    7
 10
1136.229202502816
 20
1248.32912002288
 11
1136.9844197564116
 21
1248.567889628398
  0
LINE
  8
_0-5________-2___M4
  6
CONTINUOUS
 62
    7
 10
1136.9844197564116
 20
1248.567889628398
 11
1137.6326097132678
 21
1248.8571328787129
  0
LINE
  8
_0-5________-2___M4
  6
CONTINUOUS
 62
    7
 10
1137.6326097132678
 20
1248.8571328787129
 11
1138.146832563662
 21
1249.184846008402
  0
LINE
  8
_0-5________-2___M4
  6
CONTINUOUS
 62
    7
 10
1138.146832563662
 20
1249.184846008402
 11
1138.2844696137618
 21
1249.3194283734761
  0
LINE
  8
_0-6_____________M6_20
  6
CONTINUOUS
 62
    7
 10
1105.7959487430799
 20
1246.7600135540379
 11
1105.4391970072579
 21
1246.6546014130722
  0
LINE
  8
_0-6_____________M6_20
  6
CONTINUOUS
 62
    7
 10
1105.4391970072579
 20
1246.6546014130722
 11
1105.0814766886629
 21
1246.560434563306
  0
LINE
  8
_0-6_____________M6_20
  6
CONTINUOUS
 62
    7
 10
1105.0814766886629
 20
1246.560434563306
 11
1104.7231585216327
 21
1246.4776105971282
  0
LINE
  8
_0-9_EL-M4010N_______12
  6
CONTINUOUS
 62
    7
 10
1337.514331754714
 20
1400.8655770032042
 11
1336.427961909169
 21
1400.5795993252241
  0
LINE
  8
_0-9_EL-M4010N_______12
  6
CONTINUOUS
 62
    7
 10
1318.2754484382976
 20
1414.177358287131
 11
1319.3618182830796
 21
1414.463335965112
  0
LINE
  8
_0-5________-2___M4
  6
CONTINUOUS
 62
    7
 10
1093.6168502443279
 20
1355.1015797731902
 11
1270.1573667696498
 21
1401.574378314579
  0
LINE
  8
_0-6_____________M6_20
  6
CONTINUOUS
 62
    7
 10
997.65757268066591
 20
1326.6788244052
 11
998.01589085455271
 21
1326.761648283747
  0
LINE
  8
_0-6_____________M6_20
  6
CONTINUOUS
 62
    7
 10
998.01589085455271
 20
1326.761648283747
 11
998.37361117314776
 21
1326.8558151335142
  0
LINE
  8
_0-6_____________M6_20
  6
CONTINUOUS
 62
    7
 10
998.37361117314776
 20
1326.8558151335142
 11
998.73036290287382
 21
1326.9612273621101
  0
LINE
  8
_0-6_____________M6_20
  6
CONTINUOUS
 62
    7
 10
1003.5409279967348
 20
1323.7803583006948
 11
1001.468982543734
 21
1323.3238790406822
  0
LINE
  8
_0-6_____________M6_20
  6
CONTINUOUS
 62
    7
 10
1001.468982543734
 20
1323.3238790406822
 11
999.46509294369798
 21
1323.187792277296
  0
LINE
  8
_0-2_02___PRT_ALL_AXES
  6
CONTINUOUS
 62
    7
 10
992.82929084220177
 20
1319.3701551543941
 11
825.02860156845782
 21
1284.3285043892201
  0
LINE
  8
_0-2_02___PRT_ALL_AXES
  6
CONTINUOUS
 62
    7
 10
825.02859851207586
 20
1284.3285190234301
 11
824.98531051889586
 21
1284.3200266721142
  0
LINE
  8
_0-2_02___PRT_ALL_AXES
  6
CONTINUOUS
 62
    7
 10
824.98531051889586
 20
1284.3200266721142
 11
824.6866602810428
 21
1284.288985494165
  0
LINE
  8
_0-2_02___PRT_ALL_AXES
  6
CONTINUOUS
 62
    7
 10
824.6866602810428
 20
1284.288985494165
 11
824.362638210775
 21
1284.2997594609342
  0
LINE
  8
_0-2_02___PRT_ALL_AXES
  6
CONTINUOUS
 62
    7
 10
824.362638210775
 20
1284.2997594609342
 11
824.01335794743773
 21
1284.3512819735861
  0
LINE
  8
_0-2_02___PRT_ALL_AXES
  6
CONTINUOUS
 62
    7
 10
824.01335794743773
 20
1284.3512819735861
 11
823.63924027352596
 21
1284.4425071726441
  0
LINE
  8
_0-2_02___PRT_ALL_AXES
  6
CONTINUOUS
 62
    7
 10
823.63924027352596
 20
1284.4425071726441
 11
823.24036094479379
 21
1284.572525231632
  0
LINE
  8
_0-2_02___PRT_ALL_AXES
  6
CONTINUOUS
 62
    7
 10
823.24036094479379
 20
1284.572525231632
 11
822.81707335245801
 21
1284.7404347098841
  0
LINE
  8
_0-2_02___PRT_ALL_AXES
  6
CONTINUOUS
 62
    7
 10
822.81707335245801
 20
1284.7404347098841
 11
822.36978271516364
 21
1284.9453573071501
  0
LINE
  8
_0-2_02___PRT_ALL_AXES
  6
CONTINUOUS
 62
    7
 10
822.36978271516364
 20
1284.9453573071501
 11
821.89849019419989
 21
1285.1866766149601
  0
LINE
  8
_0-6_____________M6_20
  6
CONTINUOUS
 62
    7
 10
995.25528423709284
 20
1333.1430781858362
 11
998.13819319567301
 21
1333.703962827843
  0
LINE
  8
_0-6_____________M6_20
  6
CONTINUOUS
 62
    7
 10
998.20996182124964
 20
1335.3452117343159
 11
995.624467937384
 21
1334.8429092202541
  0
LINE
  8
_0-6_____________M6_20
  6
CONTINUOUS
 62
    7
 10
1000.13941168472
 20
1324.0889893532321
 11
999.51633815388186
 21
1323.969389490831
  0
LINE
  8
_0-6_____________M6_20
  6
CONTINUOUS
 62
    7
 10
999.51633815388186
 20
1323.969389490831
 11
998.82245413398186
 21
1323.8745384534582
  0
LINE
  8
_0-6_____________M6_20
  6
CONTINUOUS
 62
    7
 10
998.82245413398186
 20
1323.8745384534582
 11
998.059286400985
 21
1323.817298707384
  0
LINE
  8
_0-6_____________M6_20
  6
CONTINUOUS
 62
    7
 10
995.72721801382386
 20
1334.7659407737342
 11
998.35126956936665
 21
1335.2692040707361
  0
LINE
  8
_0-6_____________M6_20
  6
CONTINUOUS
 62
    7
 10
998.35126956936665
 20
1335.2692040707361
 11
1001.0942465883559
 21
1335.4502858421761
  0
LINE
  8
_0-6_____________M6_20
  6
CONTINUOUS
 62
    7
 10
1001.0942465883559
 20
1335.4502858421761
 11
1003.7202176058968
 21
1335.2994696667961
  0
LINE
  8
_0-b_EL-M4010N_______3
  6
CONTINUOUS
 62
    7
 10
1395.9038912928609
 20
1355.2971182673041
 11
1394.8719229346539
 21
1355.196208487157
  0
LINE
  8
_0-c_EL-M4010N_______2
  6
CONTINUOUS
 62
    7
 10
1394.3467336728668
 20
1349.005226249385
 11
1395.2959851998107
 21
1349.0811668958281
  0
LINE
  8
_0-6_____________M6_20
  6
CONTINUOUS
 62
    7
 10
998.13819319567301
 20
1333.703962827843
 11
1001.1641480502799
 21
1333.9258471313442
  0
LINE
  8
_0-6_____________M6_20
  6
CONTINUOUS
 62
    7
 10
1001.1641480502799
 20
1333.9258471313442
 11
1004.0803475666116
 21
1333.7959856862162
  0
LINE
  8
_0-6_____________M6_20
  6
CONTINUOUS
 62
    7
 10
998.059286400985
 20
1323.817298707384
 11
997.23110303728981
 21
1323.81217845829
  0
LINE
  8
_0-6_____________M6_20
  6
CONTINUOUS
 62
    7
 10
997.23110303728981
 20
1323.81217845829
 11
996.34477795802604
 21
1323.8748757527569
  0
LINE
  8
_0-6_____________M6_20
  6
CONTINUOUS
 62
    7
 10
996.68995392858187
 20
1324.2175455731322
 11
997.51813796131273
 21
1324.2226659441462
  0
LINE
  8
_0-6_____________M6_20
  6
CONTINUOUS
 62
    7
 10
997.51813796131273
 20
1324.2226659441462
 11
998.28130570650183
 21
1324.279905818998
  0
LINE
  8
_0-6_____________M6_20
  6
CONTINUOUS
 62
    7
 10
998.28130570650183
 20
1324.279905818998
 11
998.975189080988
 21
1324.3747568647541
  0
LINE
  8
_0-6_____________M6_20
  6
CONTINUOUS
 62
    7
 10
998.975189080988
 20
1324.3747568647541
 11
999.59826128289797
 21
1324.4943565069361
  0
LINE
  8
_0-6_____________M6_20
  6
CONTINUOUS
 62
    7
 10
1000.7460347389328
 20
1337.765461552684
 11
1003.3497843071418
 21
1337.6495138336022
  0
LINE
  8
_0-6_____________M6_20
  6
CONTINUOUS
 62
    7
 10
995.80362755620399
 20
1324.280242907224
 11
996.68995392858187
 21
1324.2175455731322
  0
LINE
  8
_0-6_____________M6_20
  6
CONTINUOUS
 62
    7
 10
999.46509294369798
 20
1323.187792277296
 11
997.49526959683999
 21
1323.337695341218
  0
LINE
  8
_0-6_____________M6_20
  6
CONTINUOUS
 62
    7
 10
997.49526959683999
 20
1323.337695341218
 11
995.45262325719796
 21
1323.8005230381159
  0
LINE
  8
_0-6_____________M6_20
  6
CONTINUOUS
 62
    7
 10
995.45262325719796
 20
1323.8005230381159
 11
993.31369128106962
 21
1324.6587866688042
  0
LINE
  8
_0-6_____________M6_20
  6
CONTINUOUS
 62
    7
 10
993.31369128106962
 20
1324.6587866688042
 11
991.21531559136793
 21
1325.956443193882
  0
LINE
  8
_0-6_____________M6_20
  6
CONTINUOUS
 62
    7
 10
1001.9730822690858
 20
1323.4460575537541
 11
1001.556333609823
 21
1323.482648656593
  0
LINE
  8
_0-6_____________M6_20
  6
CONTINUOUS
 62
    7
 10
1001.556333609823
 20
1323.482648656593
 11
1001.160396414145
 21
1323.581036664033
  0
LINE
  8
_0-6_____________M6_20
  6
CONTINUOUS
 62
    7
 10
1001.160396414145
 20
1323.581036664033
 11
1000.7901606082628
 21
1323.7246286732679
  0
LINE
  8
_0-6_____________M6_20
  6
CONTINUOUS
 62
    7
 10
1000.7901606082628
 20
1323.7246286732679
 11
1000.449150161
 21
1323.8983241013402
  0
LINE
  8
_0-6_____________M6_20
  6
CONTINUOUS
 62
    7
 10
1000.449150161
 20
1323.8983241013402
 11
1000.13941168472
 21
1324.0889893532321
  0
LINE
  8
_0-6_____________M6_20
  6
CONTINUOUS
 62
    7
 10
1004.0803475666116
 20
1333.7959856862162
 11
1006.6766370229939
 21
1333.327066110975
  0
LINE
  8
_0-6_____________M6_20
  6
CONTINUOUS
 62
    7
 10
1003.3497843071418
 20
1337.6495138336022
 11
1005.6678998928978
 21
1337.2308356417502
  0
LINE
  8
_0-6_____________M6_20
  6
CONTINUOUS
 62
    7
 10
1005.6678998928978
 20
1337.2308356417502
 11
1007.5233265000447
 21
1336.5376870120481
  0
LINE
  8
_0-6_____________M6_20
  6
CONTINUOUS
 62
    7
 10
1005.8835184753748
 20
1334.9906864375262
 11
1003.5646659236058
 21
1335.419169899073
  0
LINE
  8
_0-6_____________M6_20
  6
CONTINUOUS
 62
    7
 10
1003.5646659236058
 20
1335.419169899073
 11
1000.9389438392709
 21
1335.542358146728
  0
LINE
  8
_0-6_____________M6_20
  6
CONTINUOUS
 62
    7
 10
1000.9389438392709
 20
1335.542358146728
 11
998.20996182124964
 21
1335.3452117343159
  0
LINE
  8
_0-6_____________M6_20
  6
CONTINUOUS
 62
    7
 10
1003.7202176058968
 20
1335.2994696667961
 11
1006.0088499638528
 21
1334.833752548956
  0
LINE
  8
_0-6_____________M6_20
  6
CONTINUOUS
 62
    7
 10
1006.0088499638528
 20
1334.833752548956
 11
1007.7704212565527
 21
1334.0947170275381
  0
LINE
  8
_0-6_____________M6_20
  6
CONTINUOUS
 62
    7
 10
1007.7704212565527
 20
1334.0947170275381
 11
1008.8584468244649
 21
1333.1451036077442
  0
LINE
  8
_0-6_____________M6_20
  6
CONTINUOUS
 62
    7
 10
1008.8584468244649
 20
1333.1451036077442
 11
1009.1793167392398
 21
1332.27899002603
  0
LINE
  8
_0-5________-2___M4
  6
CONTINUOUS
 62
    7
 10
994.74096456621783
 20
1350.503820828771
 11
995.47034807214095
 21
1350.3367400384741
  0
LINE
  8
_0-5________-2___M4
  6
CONTINUOUS
 62
    7
 10
995.47034807214095
 20
1350.3367400384741
 11
996.28752455538779
 21
1350.2363142395802
  0
LINE
  8
_0-5________-2___M4
  6
CONTINUOUS
 62
    7
 10
996.28752455538779
 20
1350.2363142395802
 11
997.15534698458487
 21
1350.2067564363629
  0
LINE
  8
_0-5________-2___M4
  6
CONTINUOUS
 62
    7
 10
997.15534698458487
 20
1350.2067564363629
 11
998.05174831446084
 21
1350.2491290442781
  0
LINE
  8
_0-5________-2___M4
  6
CONTINUOUS
 62
    7
 10
998.05174831446084
 20
1350.2491290442781
 11
998.93837348075476
 21
1350.362816054901
  0
LINE
  8
_0-5________-2___M4
  6
CONTINUOUS
 62
    7
 10
998.93837348075476
 20
1350.362816054901
 11
999.77710123966972
 21
1350.5432175813221
  0
LINE
  8
_0-5________-2___M4
  6
CONTINUOUS
 62
    7
 10
1179.3783463059558
 20
1288.23031365823
 11
1180.1784223494378
 21
1287.763475415124
  0
LINE
  8
_0-5________-2___M4
  6
CONTINUOUS
 62
    7
 10
1180.1784223494378
 20
1287.763475415124
 11
1181.2079736108799
 21
1287.3839406146321
  0
LINE
  8
_0-5________-2___M4
  6
CONTINUOUS
 62
    7
 10
1181.2079736108799
 20
1287.3839406146321
 11
1182.4268722292109
 21
1287.1059174767502
  0
LINE
  8
_0-5________-2___M4
  6
CONTINUOUS
 62
    7
 10
1182.4268722292109
 20
1287.1059174767502
 11
1183.7888400401948
 21
1286.939662234965
  0
LINE
  8
_0-5________-2___M4
  6
CONTINUOUS
 62
    7
 10
1183.7888400401948
 20
1286.939662234965
 11
1185.242042707825
 21
1286.8914262435542
  0
LINE
  8
_0-5________-2___M4
  6
CONTINUOUS
 62
    7
 10
1185.242042707825
 20
1286.8914262435542
 11
1186.731285388465
 21
1286.9631154809222
  0
LINE
  8
_0-5________-2___M4
  6
CONTINUOUS
 62
    7
 10
1186.731285388465
 20
1286.9631154809222
 11
1188.2004620762168
 21
1287.1522768252298
  0
LINE
  8
_0-5________-2___M4
  6
CONTINUOUS
 62
    7
 10
1188.2004620762168
 20
1287.1522768252298
 11
1189.593160379462
 21
1287.452059246491
  0
LINE
  8
_0-5________-2___M4
  6
CONTINUOUS
 62
    7
 10
1179.1864544725699
 20
1285.7103487431282
 11
1179.8079156098838
 21
1285.3299503055518
  0
LINE
  8
_0-5________-2___M4
  6
CONTINUOUS
 62
    7
 10
1179.8079156098838
 20
1285.3299503055518
 11
1180.580497040587
 21
1285.0038342166122
  0
LINE
  8
_0-5________-2___M4
  6
CONTINUOUS
 62
    7
 10
1180.580497040587
 20
1285.0038342166122
 11
1181.4847684154288
 21
1284.7395918868301
  0
LINE
  8
_0-5________-2___M4
  6
CONTINUOUS
 62
    7
 10
1181.4847684154288
 20
1284.7395918868301
 11
1182.498470276515
 21
1284.543356116234
  0
LINE
  8
_0-5________-2___M4
  6
CONTINUOUS
 62
    7
 10
1182.498470276515
 20
1284.543356116234
 11
1183.5969884952729
 21
1284.4196930732378
  0
LINE
  8
_0-5________-2___M4
  6
CONTINUOUS
 62
    7
 10
1183.5969884952729
 20
1284.4196930732378
 11
1184.7538602617888
 21
1284.371520663105
  0
LINE
  8
_0-5________-2___M4
  6
CONTINUOUS
 62
    7
 10
1184.7538602617888
 20
1284.371520663105
 11
1185.9413062366507
 21
1284.400053624327
  0
LINE
  8
_0-5________-2___M4
  6
CONTINUOUS
 62
    7
 10
1185.9413062366507
 20
1284.400053624327
 11
1187.1307836616038
 21
1284.5047757483858
  0
LINE
  8
_0-5________-2___M4
  6
CONTINUOUS
 62
    7
 10
1187.1307836616038
 20
1284.5047757483858
 11
1188.293555246647
 21
1284.6834396168638
  0
LINE
  8
_0-5________-2___M4
  6
CONTINUOUS
 62
    7
 10
1188.293555246647
 20
1284.6834396168638
 11
1189.4012685468379
 21
1284.932094330627
  0
LINE
  8
_0-5________-2___M4
  6
CONTINUOUS
 62
    7
 10
1089.6797623687098
 20
1352.84660812744
 11
1089.6831107049138
 21
1352.841007415248
  0
LINE
  8
_0-5________-2___M4
  6
CONTINUOUS
 62
    7
 10
1089.6831107049138
 20
1352.841007415248
 11
1090.1363883876379
 21
1352.416336105588
  0
LINE
  8
_0-6_____________M6_20
  6
CONTINUOUS
 62
    7
 10
1112.8764647994431
 20
1254.565798480156
 11
1113.4426816934238
 21
1253.3207875109501
  0
LINE
  8
_0-6_____________M6_20
  6
CONTINUOUS
 62
    7
 10
1112.1579607607109
 20
1255.326394010523
 11
1111.6767738175758
 21
1256.4098577435161
  0
LINE
  8
_0-6_____________M6_20
  6
CONTINUOUS
 62
    7
 10
1111.6767738175758
 20
1256.4098577435161
 11
1110.4714772070906
 21
1257.3225519219341
  0
LINE
  8
_0-6_____________M6_20
  6
CONTINUOUS
 62
    7
 10
1110.4714772070906
 20
1257.3225519219341
 11
1108.633594727924
 21
1258.0222394809002
  0
LINE
  8
_0-6_____________M6_20
  6
CONTINUOUS
 62
    7
 10
1113.482766427579
 20
1252.7445413070818
 11
1113.2632000991239
 21
1253.4939143872002
  0
LINE
  8
_0-5________-2___M4
  6
CONTINUOUS
 62
    7
 10
1129.7289012415699
 20
1247.8844669998171
 11
1129.7599974862096
 21
1248.1614027507462
  0
LINE
  8
_0-5________-2___M4
  6
CONTINUOUS
 62
    7
 10
1129.7599974862096
 20
1248.1614027507462
 11
1129.953776537564
 21
1248.527954048121
  0
LINE
  8
_0-5________-2___M4
  6
CONTINUOUS
 62
    7
 10
1138.850806447304
 20
1248.517047489544
 11
1138.8197102019008
 21
1248.2401117386162
  0
LINE
  8
_0-5________-2___M4
  6
CONTINUOUS
 62
    7
 10
1138.8197102019008
 20
1248.2401117386162
 11
1138.6259311513099
 21
1247.87356044124
  0
LINE
  8
_0-5________-2___M4
  6
CONTINUOUS
 62
    7
 10
1138.6259311513099
 20
1247.87356044124
 11
1138.2678354608479
 21
1247.521290057135
  0
LINE
  8
_0-5________-2___M4
  6
CONTINUOUS
 62
    7
 10
1138.2678354608479
 20
1247.521290057135
 11
1137.7539147426919
 21
1247.192407308502
  0
LINE
  8
_0-5________-2___M4
  6
CONTINUOUS
 62
    7
 10
1137.7539147426919
 20
1247.192407308502
 11
1137.1037936530456
 21
1246.9015588579418
  0
LINE
  8
_0-5________-2___M4
  6
CONTINUOUS
 62
    7
 10
1137.1037936530456
 20
1246.9015588579418
 11
1136.344855369045
 21
1246.661388305517
  0
LINE
  8
_0-4__B______3
  6
CONTINUOUS
 62
    7
 10
1117.400614069898
 20
1227.2559099410382
 11
1117.1897798057648
 21
1226.917582786858
  0
LINE
  8
_0-7_EL-M4010N_______4
  6
CONTINUOUS
 62
    7
 10
1329.8938604843838
 20
1398.7317999212619
 11
1330.7690776153268
 21
1399.448139933334
  0
LINE
  8
_0-7_EL-M4010N_______4
  6
CONTINUOUS
 62
    7
 10
1330.7690776153268
 20
1399.448139933334
 11
1331.4301231080667
 21
1400.3659712200961
  0
LINE
  8
_0-7_EL-M4010N_______4
  6
CONTINUOUS
 62
    7
 10
1331.4301231080667
 20
1400.3659712200961
 11
1331.8265465679497
 21
1401.4072806177869
  0
LINE
  8
_0-7_EL-M4010N_______4
  6
CONTINUOUS
 62
    7
 10
1331.8265465679497
 20
1401.4072806177869
 11
1331.9181402359168
 21
1402.4783995827338
  0
LINE
  8
_0-2_02___PRT_ALL_AXES
  6
CONTINUOUS
 62
    7
 10
845.69578828276872
 20
1036.231926070287
 11
846.16817894860287
 21
1036.5336198481541
  0
LINE
  8
_0-2_02___PRT_ALL_AXES
  6
CONTINUOUS
 62
    7
 10
846.16817894860287
 20
1036.5336198481541
 11
846.59195768422978
 21
1036.9941681112059
  0
LINE
  8
_0-2_02___PRT_ALL_AXES
  6
CONTINUOUS
 62
    7
 10
846.59195768422978
 20
1036.9941681112059
 11
846.95987711298085
 21
1037.605683074356
  0
LINE
  8
_0-2_02___PRT_ALL_AXES
  6
CONTINUOUS
 62
    7
 10
846.95987711298085
 20
1037.605683074356
 11
847.26564561879195
 21
1038.3576962124398
  0
LINE
  8
_0-2_02___PRT_ALL_AXES
  6
CONTINUOUS
 62
    7
 10
847.26564561879195
 20
1038.3576962124398
 11
847.50403473561164
 21
1039.2373373972741
  0
LINE
  8
_0-5________-2___M4
  6
CONTINUOUS
 62
    7
 10
1367.8756838535787
 20
1332.0843427480659
 11
1368.6534404926279
 21
1332.4974783607058
  0
LINE
  8
_0-5________-2___M4
  6
CONTINUOUS
 62
    7
 10
1368.6534404926279
 20
1332.4974783607058
 11
1369.2796991506998
 21
1332.9463878106121
  0
LINE
  8
_0-5________-2___M4
  6
CONTINUOUS
 62
    7
 10
1369.2796991506998
 20
1332.9463878106121
 11
1369.7397415333817
 21
1333.4201992018229
  0
LINE
  8
_0-5________-2___M4
  6
CONTINUOUS
 62
    7
 10
1369.7397415333817
 20
1333.4201992018229
 11
1369.8788729477778
 21
1333.659864518529
  0
LINE
  8
_0-a_EL-M4010N_______13
  6
CONTINUOUS
 62
    7
 10
1402.8695419071259
 20
1342.880901247107
 11
1403.9312244576199
 21
1343.3503334753741
  0
LINE
  8
_0-a_EL-M4010N_______13
  6
CONTINUOUS
 62
    7
 10
1403.9312244576199
 20
1343.3503334753741
 11
1404.8397305628787
 21
1344.130598436303
  0
LINE
  8
_0-a_EL-M4010N_______13
  6
CONTINUOUS
 62
    7
 10
1404.8397305628787
 20
1344.130598436303
 11
1405.503767163937
 21
1345.1322904123422
  0
LINE
  8
_0-a_EL-M4010N_______13
  6
CONTINUOUS
 62
    7
 10
1405.503767163937
 20
1345.1322904123422
 11
1405.8575636115379
 21
1346.248733435229
  0
LINE
  8
_0-a_EL-M4010N_______13
  6
CONTINUOUS
 62
    7
 10
1405.8575636115379
 20
1346.248733435229
 11
1405.8643894322777
 21
1347.3640205140241
  0
LINE
  8
_0-a_EL-M4010N_______13
  6
CONTINUOUS
 62
    7
 10
1405.8643894322777
 20
1347.3640205140241
 11
1405.5190849885216
 21
1348.360999417192
  0
LINE
  8
_0-a_EL-M4010N_______13
  6
CONTINUOUS
 62
    7
 10
1405.5190849885216
 20
1348.360999417192
 11
1404.849739682054
 21
1349.1296298489401
  0
LINE
  8
_0-a_EL-M4010N_______13
  6
CONTINUOUS
 62
    7
 10
1421.0220553779968
 20
1329.283142284437
 11
1422.0837379284908
 21
1329.7525745127041
  0
LINE
  8
_0-a_EL-M4010N_______13
  6
CONTINUOUS
 62
    7
 10
1422.0837379284908
 20
1329.7525745127041
 11
1422.992244034514
 21
1330.532839474396
  0
LINE
  8
_0-a_EL-M4010N_______13
  6
CONTINUOUS
 62
    7
 10
1422.992244034514
 20
1330.532839474396
 11
1423.6562806348088
 21
1331.5345314496722
  0
LINE
  8
_0-a_EL-M4010N_______13
  6
CONTINUOUS
 62
    7
 10
1423.6562806348088
 20
1331.5345314496722
 11
1424.0100770831718
 21
1332.6509744733221
  0
LINE
  8
_0-a_EL-M4010N_______13
  6
CONTINUOUS
 62
    7
 10
1424.0100770831718
 20
1332.6509744733221
 11
1424.0169029039116
 21
1333.7662615513541
  0
LINE
  8
_0-a_EL-M4010N_______13
  6
CONTINUOUS
 62
    7
 10
1424.0169029039116
 20
1333.7662615513541
 11
1423.6715984601547
 21
1334.763240454522
  0
LINE
  8
_0-a_EL-M4010N_______13
  6
CONTINUOUS
 62
    7
 10
1423.6715984601547
 20
1334.763240454522
 11
1423.0022531529257
 21
1335.5318708862701
  0
LINE
  8
_0-b_EL-M4010N_______3
  6
CONTINUOUS
 62
    7
 10
1413.4870497861139
 20
1334.9274950614949
 11
1414.4914232652968
 21
1335.3611119265438
  0
LINE
  8
_0-b_EL-M4010N_______3
  6
CONTINUOUS
 62
    7
 10
1431.6395632577478
 20
1321.3297360988249
 11
1432.64393673617
 21
1321.7633529638738
  0
LINE
  8
_0-2_02___PRT_ALL_AXES
  6
CONTINUOUS
 62
    7
 10
673.79440308800486
 20
1057.8554361371262
 11
672.87581950226604
 21
1057.5246579683562
  0
LINE
  8
_0-2_02___PRT_ALL_AXES
  6
CONTINUOUS
 62
    7
 10
672.87581950226604
 20
1057.5246579683562
 11
672.03899025492183
 21
1057.1938596027762
  0
LINE
  8
_0-2_02___PRT_ALL_AXES
  6
CONTINUOUS
 62
    7
 10
672.03899025492183
 20
1057.1938596027762
 11
671.27018774147564
 21
1056.856342552132
  0
LINE
  8
_0-2_02___PRT_ALL_AXES
  6
CONTINUOUS
 62
    7
 10
671.27018774147564
 20
1056.856342552132
 11
670.56300257037765
 21
1056.507289376224
  0
LINE
  8
_0-2_02___PRT_ALL_AXES
  6
CONTINUOUS
 62
    7
 10
670.56300257037765
 20
1056.507289376224
 11
669.91649473309371
 21
1056.1442923950822
  0
LINE
  8
_0-2_02___PRT_ALL_AXES
  6
CONTINUOUS
 62
    7
 10
841.21602673151483
 20
1119.490423104141
 11
841.95264573452596
 21
1119.751986631305
  0
LINE
  8
_0-2_02___PRT_ALL_AXES
  6
CONTINUOUS
 62
    7
 10
841.95264573452596
 20
1119.751986631305
 11
842.61055496023391
 21
1119.9933085741118
  0
LINE
  8
_0-2_02___PRT_ALL_AXES
  6
CONTINUOUS
 62
    7
 10
842.61055496023391
 20
1119.9933085741118
 11
843.19997916619377
 21
1120.218478809064
  0
LINE
  8
_0-2_02___PRT_ALL_AXES
  6
CONTINUOUS
 62
    7
 10
843.19997916619377
 20
1120.218478809064
 11
843.72493790773888
 21
1120.4295811478441
  0
LINE
  8
_0-2_02___PRT_ALL_AXES
  6
CONTINUOUS
 62
    7
 10
843.72493790773888
 20
1120.4295811478441
 11
844.18526132211673
 21
1120.627096612096
  0
LINE
  8
_0-4__B______3
  6
CONTINUOUS
 62
    7
 10
1453.7711492314688
 20
1315.3268631851138
 11
1454.0129565568459
 21
1315.4089527859842
  0
LINE
  8
_0-4__B______3
  6
CONTINUOUS
 62
    7
 10
1454.0129565568459
 20
1315.4089527859842
 11
1454.2691066439857
 21
1315.5410150783741
  0
LINE
  8
_0-4__B______3
  6
CONTINUOUS
 62
    7
 10
1454.2691066439857
 20
1315.5410150783741
 11
1454.5311779504236
 21
1315.738043072176
  0
LINE
  8
_0-4__B______3
  6
CONTINUOUS
 62
    7
 10
1454.5311779504236
 20
1315.738043072176
 11
1454.779206899882
 21
1316.0123738720022
  0
LINE
  8
_0-4__B______3
  6
CONTINUOUS
 62
    7
 10
1454.779206899882
 20
1316.0123738720022
 11
1454.985356336198
 21
1316.37229004752
  0
LINE
  8
_0-4__B______3
  6
CONTINUOUS
 62
    7
 10
1454.985356336198
 20
1316.37229004752
 11
1455.1075789020128
 21
1316.7833900099258
  0
LINE
  8
_0-4__B______3
  6
CONTINUOUS
 62
    7
 10
1455.1075789020128
 20
1316.7833900099258
 11
1455.1300119175999
 21
1317.2219313639821
  0
LINE
  8
_0-9_EL-M4010N_______12
  6
CONTINUOUS
 62
    7
 10
1300.1229349666628
 20
1427.775117249801
 11
1301.2093048122078
 21
1428.0610949277821
  0
LINE
  8
_0-9_EL-M4010N_______12
  6
CONTINUOUS
 62
    7
 10
1292.5879293747798
 20
1433.4194700268599
 11
1293.674299220324
 21
1433.705447704077
  0
LINE
  8
_0-5________-2___M4
  6
CONTINUOUS
 62
    7
 10
959.43044676753061
 20
1353.3407954276081
 11
1280.9959209243489
 21
1437.9901880578718
  0
LINE
  8
_0-5________-2___M4
  6
CONTINUOUS
 62
    7
 10
1280.0582669695868
 20
1440.2736742495899
 11
958.49279281200779
 21
1355.6242816193248
  0
LINE
  8
_0-4__B______3
  6
CONTINUOUS
 62
    7
 10
948.65060082891705
 20
1354.0547775929849
 11
1283.4479788332796
 21
1442.1873570513758
  0
LINE
  8
_0-5________-2___M4
  6
CONTINUOUS
 62
    7
 10
1270.1573667696498
 20
1401.574378314579
 11
1271.2650800698389
 21
1401.8230330291049
  0
LINE
  8
_0-5________-2___M4
  6
CONTINUOUS
 62
    7
 10
1271.2650800698389
 20
1401.8230330291049
 11
1272.4278516548839
 21
1402.0016968968221
  0
LINE
  8
_0-5________-2___M4
  6
CONTINUOUS
 62
    7
 10
1272.4278516548839
 20
1402.0016968968221
 11
1273.6173290798361
 21
1402.1064190208799
  0
LINE
  8
_0-5________-2___M4
  6
CONTINUOUS
 62
    7
 10
1273.6173290798361
 20
1402.1064190208799
 11
1274.804775054698
 21
1402.1349519828641
  0
LINE
  8
_0-5________-2___M4
  6
CONTINUOUS
 62
    7
 10
1274.804775054698
 20
1402.1349519828641
 11
1275.9616468212139
 21
1402.0867795719701
  0
LINE
  8
_0-5________-2___M4
  6
CONTINUOUS
 62
    7
 10
1275.9616468212139
 20
1402.0867795719701
 11
1277.0601650399708
 21
1401.9631165289738
  0
LINE
  8
_0-5________-2___M4
  6
CONTINUOUS
 62
    7
 10
1277.0601650399708
 20
1401.9631165289738
 11
1278.073866901057
 21
1401.7668807583782
  0
LINE
  8
_0-5________-2___M4
  6
CONTINUOUS
 62
    7
 10
1278.073866901057
 20
1401.7668807583782
 11
1278.9781382758988
 21
1401.5026384285961
  0
LINE
  8
_0-5________-2___M4
  6
CONTINUOUS
 62
    7
 10
1278.9781382758988
 20
1401.5026384285961
 11
1279.7507197066038
 21
1401.176522339656
  0
LINE
  8
_0-5________-2___M4
  6
CONTINUOUS
 62
    7
 10
1279.7507197066038
 20
1401.176522339656
 11
1280.3721808439168
 21
1400.7961239028418
  0
LINE
  8
_0-5________-2___M4
  6
CONTINUOUS
 62
    7
 10
999.8927541058988
 20
1348.8754858647221
 11
999.05857995001998
 21
1348.6958616179259
  0
LINE
  8
_0-5________-2___M4
  6
CONTINUOUS
 62
    7
 10
999.05857995001998
 20
1348.6958616179259
 11
998.17605289897392
 21
1348.582156555522
  0
LINE
  8
_0-5________-2___M4
  6
CONTINUOUS
 62
    7
 10
995.78275105592002
 20
1351.9542237422861
 11
996.616925212561
 21
1352.1338479890819
  0
LINE
  8
_0-5________-2___M4
  6
CONTINUOUS
 62
    7
 10
996.616925212561
 20
1352.1338479890819
 11
997.49945226360705
 21
1352.2475530514862
  0
LINE
  8
_0-5________-2___M4
  6
CONTINUOUS
 62
    7
 10
997.49945226360705
 20
1352.2475530514862
 11
998.39368783936879
 21
1352.2906046958879
  0
LINE
  8
_0-5________-2___M4
  6
CONTINUOUS
 62
    7
 10
998.39368783936879
 20
1352.2906046958879
 11
999.26212970217784
 21
1352.2619063677121
  0
LINE
  8
_0-5________-2___M4
  6
CONTINUOUS
 62
    7
 10
999.26212970217784
 20
1352.2619063677121
 11
1000.0827302712846
 21
1352.1618707364401
  0
LINE
  8
_0-5________-2___M4
  6
CONTINUOUS
 62
    7
 10
1000.0827302712846
 20
1352.1618707364401
 11
1000.8162589771987
 21
1351.9943911442979
  0
LINE
  8
_0-5________-2___M4
  6
CONTINUOUS
 62
    7
 10
1000.8162589771987
 20
1351.9943911442979
 11
1001.4336978510319
 21
1351.7663974577922
  0
LINE
  8
_0-5________-2___M4
  6
CONTINUOUS
 62
    7
 10
958.60770524207464
 20
1353.9571147923762
 11
958.33400162235102
 21
1353.898369537756
  0
LINE
  8
_0-5________-2___M4
  6
CONTINUOUS
 62
    7
 10
958.33400162235102
 20
1353.898369537756
 11
958.08397053313365
 21
1353.8735641151802
  0
LINE
  8
_0-5________-2___M4
  6
CONTINUOUS
 62
    7
 10
958.08397053313365
 20
1353.8735641151802
 11
957.86690361192177
 21
1353.8868402141029
  0
LINE
  8
_0-5________-2___M4
  6
CONTINUOUS
 62
    7
 10
957.86690361192177
 20
1353.8868402141029
 11
957.71012513172673
 21
1353.934561456228
  0
LINE
  8
_0-5________-2___M4
  6
CONTINUOUS
 62
    7
 10
957.71012513172673
 20
1353.934561456228
 11
957.64897645214569
 21
1353.971375651332
  0
LINE
  8
_0-6_____________M6_20
  6
CONTINUOUS
 62
    7
 10
995.47026347718793
 20
1337.0665607084261
 11
998.04428933268173
 21
1337.5673505671439
  0
LINE
  8
_0-6_____________M6_20
  6
CONTINUOUS
 62
    7
 10
998.04428933268173
 20
1337.5673505671439
 11
1000.7460347389328
 21
1337.765461552684
  0
LINE
  8
_0-9_EL-M4010N_______12
  6
CONTINUOUS
 62
    7
 10
1328.889487005199
 20
1398.298183056213
 11
1327.862063806303
 21
1398.196946621908
  0
LINE
  8
_0-9_EL-M4010N_______12
  6
CONTINUOUS
 62
    7
 10
1327.862063806303
 20
1398.196946621908
 11
1326.9206567226488
 21
1398.4350756673662
  0
LINE
  8
_0-9_EL-M4010N_______12
  6
CONTINUOUS
 62
    7
 10
1326.9206567226488
 20
1398.4350756673662
 11
1326.465544786292
 21
1398.7065716313582
  0
LINE
  8
_0-7_EL-M4010N_______4
  6
CONTINUOUS
 62
    7
 10
1336.4244925970838
 20
1392.653830279155
 11
1335.3369368326507
 21
1392.5574936900161
  0
LINE
  8
_0-7_EL-M4010N_______4
  6
CONTINUOUS
 62
    7
 10
1335.3369368326507
 20
1392.5574936900161
 11
1334.3547272641817
 21
1392.8400437342621
  0
LINE
  8
_0-7_EL-M4010N_______4
  6
CONTINUOUS
 62
    7
 10
1334.3547272641817
 20
1392.8400437342621
 11
1334.00083216349
 21
1393.0625935807529
  0
LINE
  8
_0-7_EL-M4010N_______4
  6
CONTINUOUS
 62
    7
 10
1327.8019312407669
 20
1398.201846466312
 11
1328.889487005199
 21
1398.298183056213
  0
LINE
  8
_0-5________-2___M4
  6
CONTINUOUS
 62
    7
 10
998.17605289897392
 20
1348.582156555522
 11
997.28181732321082
 21
1348.539104911119
  0
LINE
  8
_0-5________-2___M4
  6
CONTINUOUS
 62
    7
 10
997.28181732321082
 20
1348.539104911119
 11
996.41337546040404
 21
1348.5678032392962
  0
LINE
  8
_0-5________-2___M4
  6
CONTINUOUS
 62
    7
 10
996.41337546040404
 20
1348.5678032392962
 11
995.5927748912959
 21
1348.6678388705682
  0
LINE
  8
_0-5________-2___M4
  6
CONTINUOUS
 62
    7
 10
995.5927748912959
 20
1348.6678388705682
 11
994.85924618461877
 21
1348.835318462709
  0
LINE
  8
_0-5________-2___M4
  6
CONTINUOUS
 62
    7
 10
994.85924618461877
 20
1348.835318462709
 11
994.24180731155002
 21
1349.063312149216
  0
LINE
  8
_0-5________-2___M4
  6
CONTINUOUS
 62
    7
 10
994.24180731155002
 20
1349.063312149216
 11
993.76361661413603
 21
1349.3426330348202
  0
LINE
  8
_0-5________-2___M4
  6
CONTINUOUS
 62
    7
 10
993.76361661413603
 20
1349.3426330348202
 11
993.44179795754599
 21
1349.6625793271082
  0
LINE
  8
_0-5________-2___M4
  6
CONTINUOUS
 62
    7
 10
993.44179795754599
 20
1349.6625793271082
 11
993.28793826272477
 21
1350.011161713508
  0
LINE
  8
_0-5________-2___M4
  6
CONTINUOUS
 62
    7
 10
993.28793826272477
 20
1350.011161713508
 11
993.2767999784237
 21
1350.09856455826
  0
LINE
  8
_0-4__B______3
  6
CONTINUOUS
 62
    7
 10
947.58365393893882
 20
1353.9668325638982
 11
948.21458335983198
 21
1353.9753586337142
  0
LINE
  8
_0-4__B______3
  6
CONTINUOUS
 62
    7
 10
948.21458335983198
 20
1353.9753586337142
 11
948.65073657388393
 21
1354.0548133399302
  0
LINE
  8
_0-5________-2___M4
  6
CONTINUOUS
 62
    7
 10
1179.3021073395607
 20
1284.042617025766
 11
1090.2520412546287
 21
1350.748604388225
  0
LINE
  8
_0-5________-2___M4
  6
CONTINUOUS
 62
    7
 10
1090.1363883876379
 20
1352.416336105588
 11
1179.1864544725699
 21
1285.7103487431282
  0
LINE
  8
_0-5________-2___M4
  6
CONTINUOUS
 62
    7
 10
1091.157847410248
 20
1352.338504771792
 11
1179.5229129871027
 21
1286.145640388926
  0
LINE
  8
_0-5________-2___M4
  6
CONTINUOUS
 62
    7
 10
1091.2919476754478
 20
1354.2144330666638
 11
1179.3783463059558
 21
1288.23031365823
  0
LINE
  8
_0-5________-2___M4
  6
CONTINUOUS
 62
    7
 10
1090.2520412546287
 20
1350.748604388225
 11
1089.7987635711438
 21
1351.1732756978849
  0
LINE
  8
_0-5________-2___M4
  6
CONTINUOUS
 62
    7
 10
1089.7987635711438
 20
1351.1732756978849
 11
1089.525255477572
 21
1351.6307686236401
  0
LINE
  8
_0-5________-2___M4
  6
CONTINUOUS
 62
    7
 10
1089.525255477572
 20
1351.6307686236401
 11
1089.4401664702036
 21
1352.0088076615662
  0
LINE
  8
_0-5________-2___M4
  6
CONTINUOUS
 62
    7
 10
1091.157847410248
 20
1352.338504771792
 11
1090.6195171620438
 21
1352.8742453828081
  0
LINE
  8
_0-5________-2___M4
  6
CONTINUOUS
 62
    7
 10
1090.6195171620438
 20
1352.8742453828081
 11
1090.3637992454896
 21
1353.457485269158
  0
LINE
  8
_0-5________-2___M4
  6
CONTINUOUS
 62
    7
 10
1090.3637992454896
 20
1353.457485269158
 11
1090.3460328504916
 21
1353.5987121911739
  0
LINE
  8
_0-5________-2___M4
  6
CONTINUOUS
 62
    7
 10
1179.1864528182668
 20
1285.7103726066821
 11
1179.3021073395607
 21
1284.042617025766
  0
LINE
  8
_0-5________-2___M4
  6
CONTINUOUS
 62
    7
 10
1179.3783463059558
 20
1288.23031365823
 11
1179.5229118105758
 21
1286.1456573540941
  0
LINE
  8
_0-5________-2___M4
  6
CONTINUOUS
 62
    7
 10
1189.5169214130678
 20
1283.2643626132658
 11
1189.401266891773
 21
1284.9321181941809
  0
LINE
  8
_0-5________-2___M4
  6
CONTINUOUS
 62
    7
 10
1189.737725884082
 20
1285.3674029415929
 11
1189.593160379462
 21
1287.452059246491
  0
LINE
  8
_0-7_EL-M4010N_______4
  6
CONTINUOUS
 62
    7
 10
1289.8241348724077
 20
1430.494526992582
 11
1289.2834832506387
 21
1429.4073750927218
  0
LINE
  8
_0-7_EL-M4010N_______4
  6
CONTINUOUS
 62
    7
 10
1289.2834832506387
 20
1429.4073750927218
 11
1289.0863567477641
 21
1428.2676058287038
  0
LINE
  8
_0-7_EL-M4010N_______4
  6
CONTINUOUS
 62
    7
 10
1289.0863567477641
 20
1428.2676058287038
 11
1289.244849193034
 21
1427.195837386012
  0
LINE
  8
_0-7_EL-M4010N_______4
  6
CONTINUOUS
 62
    7
 10
1289.244849193034
 20
1427.195837386012
 11
1289.7380288449758
 21
1426.3023536611722
  0
LINE
  8
_0-7_EL-M4010N_______4
  6
CONTINUOUS
 62
    7
 10
1289.7380288449758
 20
1426.3023536611722
 11
1290.1607996290986
 21
1425.9024642823902
  0
LINE
  8
_0-8_EL-M4010N_______9
  6
CONTINUOUS
 62
    7
 10
1290.45747617189
 20
1430.4961632123218
 11
1289.9084646031638
 21
1429.6083869779709
  0
LINE
  8
_0-8_EL-M4010N_______9
  6
CONTINUOUS
 62
    7
 10
1289.9084646031638
 20
1429.6083869779709
 11
1289.646170449063
 21
1428.618807224344
  0
LINE
  8
_0-8_EL-M4010N_______9
  6
CONTINUOUS
 62
    7
 10
1289.646170449063
 20
1428.618807224344
 11
1289.7091952899927
 21
1427.6536661205942
  0
LINE
  8
_0-8_EL-M4010N_______9
  6
CONTINUOUS
 62
    7
 10
1289.7091952899927
 20
1427.6536661205942
 11
1290.0899215300628
 21
1426.830522812349
  0
LINE
  8
_0-8_EL-M4010N_______9
  6
CONTINUOUS
 62
    7
 10
1290.0899215300628
 20
1426.830522812349
 11
1290.7407022389139
 21
1426.248526107664
  0
LINE
  8
_0-8_EL-M4010N_______9
  6
CONTINUOUS
 62
    7
 10
1290.7407022389139
 20
1426.248526107664
 11
1291.5966574203198
 21
1425.973673206774
  0
LINE
  8
_0-5________-2___M4
  6
CONTINUOUS
 62
    7
 10
1444.9036452055279
 20
1316.8390866945701
 11
1444.4374641508448
 21
1316.6204027621129
  0
LINE
  8
_0-5________-2___M4
  6
CONTINUOUS
 62
    7
 10
1444.4374641508448
 20
1316.6204027621129
 11
1444.2709760525299
 21
1316.570642155767
  0
LINE
  8
_0-2_02___PRT_ALL_AXES
  6
CONTINUOUS
 62
    7
 10
845.69578828200792
 20
1036.231926070287
 11
846.09080212875688
 21
1036.415820056829
  0
LINE
  8
_0-2_02___PRT_ALL_AXES
  6
CONTINUOUS
 62
    7
 10
846.09080212875688
 20
1036.415820056829
 11
846.42188848690284
 21
1036.586445483676
  0
LINE
  8
_0-2_02___PRT_ALL_AXES
  6
CONTINUOUS
 62
    7
 10
846.42188848690284
 20
1036.586445483676
 11
846.69357443349782
 21
1036.7452577365361
  0
LINE
  8
_0-2_02___PRT_ALL_AXES
  6
CONTINUOUS
 62
    7
 10
846.69357443349782
 20
1036.7452577365361
 11
846.91235065329784
 21
1036.8948503959482
  0
LINE
  8
_0-2_02___PRT_ALL_AXES
  6
CONTINUOUS
 62
    7
 10
846.91235065329784
 20
1036.8948503959482
 11
847.08457915516874
 21
1037.038557091515
  0
LINE
  8
_0-3_7_ALL_FEATURES
  6
CONTINUOUS
 62
    7
 10
831.56676868691602
 20
1052.9248778059841
 11
835.92479415067874
 21
1054.8681823344041
  0
LINE
  8
_0-2_02___PRT_ALL_AXES
  6
CONTINUOUS
 62
    7
 10
840.95985153723677
 20
1055.4030371638542
 11
840.49944515020388
 21
1055.205487300635
  0
LINE
  8
_0-2_02___PRT_ALL_AXES
  6
CONTINUOUS
 62
    7
 10
840.49944515020388
 20
1055.205487300635
 11
839.97442506841981
 21
1054.994362887478
  0
LINE
  8
_0-2_02___PRT_ALL_AXES
  6
CONTINUOUS
 62
    7
 10
839.97442506841981
 20
1054.994362887478
 11
839.385016023974
 21
1054.7692008364061
  0
LINE
  8
_0-2_02___PRT_ALL_AXES
  6
CONTINUOUS
 62
    7
 10
839.385016023974
 20
1054.7692008364061
 11
838.72726403772776
 21
1054.5279373054718
  0
LINE
  8
_0-2_02___PRT_ALL_AXES
  6
CONTINUOUS
 62
    7
 10
838.72726403772776
 20
1054.5279373054718
 11
837.99061686433879
 21
1054.2663636208481
  0
LINE
  8
_0-4__B______3
  6
CONTINUOUS
 62
    7
 10
1282.8774670497428
 20
1444.760410035562
 11
946.64599998341464
 21
1356.2503187548541
  0
LINE
  8
_0-9_EL-M4010N_______12
  6
CONTINUOUS
 62
    7
 10
1310.7369735343268
 20
1411.8959420181218
 11
1309.7095503354308
 21
1411.794705584578
  0
LINE
  8
_0-9_EL-M4010N_______12
  6
CONTINUOUS
 62
    7
 10
1309.7095503354308
 20
1411.794705584578
 11
1308.7681432510149
 21
1412.032834629274
  0
LINE
  8
_0-9_EL-M4010N_______12
  6
CONTINUOUS
 62
    7
 10
1308.7681432510149
 20
1412.032834629274
 11
1308.3130313154197
 21
1412.3043305932661
  0
LINE
  8
_0-7_EL-M4010N_______4
  6
CONTINUOUS
 62
    7
 10
1318.271979126212
 20
1406.251589241826
 11
1317.1844233610168
 21
1406.155252651924
  0
LINE
  8
_0-7_EL-M4010N_______4
  6
CONTINUOUS
 62
    7
 10
1317.1844233610168
 20
1406.155252651924
 11
1316.2022137925469
 21
1406.437802696169
  0
LINE
  8
_0-7_EL-M4010N_______4
  6
CONTINUOUS
 62
    7
 10
1316.2022137925469
 20
1406.437802696169
 11
1315.8483186926169
 21
1406.660352543423
  0
LINE
  8
_0-7_EL-M4010N_______4
  6
CONTINUOUS
 62
    7
 10
1309.6494177691338
 20
1411.799605428982
 11
1310.7369735343268
 21
1411.8959420181218
  0
LINE
  8
_0-7_EL-M4010N_______4
  6
CONTINUOUS
 62
    7
 10
1300.1194656545777
 20
1419.8493482037329
 11
1299.0319098901459
 21
1419.753011614594
  0
LINE
  8
_0-7_EL-M4010N_______4
  6
CONTINUOUS
 62
    7
 10
1299.0319098901459
 20
1419.753011614594
 11
1298.0497003216747
 21
1420.035561658839
  0
LINE
  8
_0-7_EL-M4010N_______4
  6
CONTINUOUS
 62
    7
 10
1298.0497003216747
 20
1420.035561658839
 11
1297.6958052209839
 21
1420.2581115060939
  0
LINE
  8
_0-8_EL-M4010N_______9
  6
CONTINUOUS
 62
    7
 10
1291.5966574203198
 20
1425.973673206774
 11
1292.545908948026
 21
1426.0496138524541
  0
LINE
  8
_0-2_02___PRT_ALL_AXES
  6
CONTINUOUS
 62
    7
 10
842.72655369140602
 20
1035.095252563096
 11
843.46317269441579
 21
1035.3568160902601
  0
LINE
  8
_0-2_02___PRT_ALL_AXES
  6
CONTINUOUS
 62
    7
 10
843.46317269441579
 20
1035.3568160902601
 11
844.12108192012283
 21
1035.5981380323042
  0
LINE
  8
_0-2_02___PRT_ALL_AXES
  6
CONTINUOUS
 62
    7
 10
844.12108192012283
 20
1035.5981380323042
 11
844.71050612608406
 21
1035.8233082680181
  0
LINE
  8
_0-2_02___PRT_ALL_AXES
  6
CONTINUOUS
 62
    7
 10
844.71050612608406
 20
1035.8233082680181
 11
845.23546486762871
 21
1036.0344106060361
  0
LINE
  8
_0-2_02___PRT_ALL_AXES
  6
CONTINUOUS
 62
    7
 10
845.23546486762871
 20
1036.0344106060361
 11
845.69578828200792
 21
1036.231926070287
  0
LINE
  8
_0-2_02___PRT_ALL_AXES
  6
CONTINUOUS
 62
    7
 10
942.34879670433065
 20
1403.0193544987901
 11
806.18073745399988
 21
1374.5835143464542
  0
LINE
  8
_0-a_EL-M4010N_______13
  6
CONTINUOUS
 62
    7
 10
1419.0405132659048
 20
1329.4259476841198
 11
1419.9900870197898
 21
1329.1822325042908
  0
LINE
  8
_0-a_EL-M4010N_______13
  6
CONTINUOUS
 62
    7
 10
1419.9900870197898
 20
1329.1822325042908
 11
1421.0220553779968
 21
1329.283142284437
  0
LINE
  8
_0-a_EL-M4010N_______13
  6
CONTINUOUS
 62
    7
 10
1400.8879997942718
 20
1343.0237066460281
 11
1401.8375735489167
 21
1342.7799914669622
  0
LINE
  8
_0-a_EL-M4010N_______13
  6
CONTINUOUS
 62
    7
 10
1401.8375735489167
 20
1342.7799914669622
 11
1402.8695419071259
 21
1342.880901247107
  0
LINE
  8
_0-b_EL-M4010N_______3
  6
CONTINUOUS
 62
    7
 10
1429.5697979248448
 20
1321.5159495539319
 11
1430.5520074925539
 21
1321.233399509686
  0
LINE
  8
_0-b_EL-M4010N_______3
  6
CONTINUOUS
 62
    7
 10
1411.4172844532109
 20
1335.113708516601
 11
1412.3994940216817
 21
1334.831158472356
  0
LINE
  8
_0-b_EL-M4010N_______3
  6
CONTINUOUS
 62
    7
 10
1414.4914232652968
 20
1335.3611119265438
 11
1415.3666403970028
 21
1336.0774519393781
  0
LINE
  8
_0-b_EL-M4010N_______3
  6
CONTINUOUS
 62
    7
 10
1415.3666403970028
 20
1336.0774519393781
 11
1416.027685888982
 21
1336.995283225378
  0
LINE
  8
_0-b_EL-M4010N_______3
  6
CONTINUOUS
 62
    7
 10
1416.027685888982
 20
1336.995283225378
 11
1416.424109348864
 21
1338.0365926230702
  0
LINE
  8
_0-b_EL-M4010N_______3
  6
CONTINUOUS
 62
    7
 10
1416.424109348864
 20
1338.0365926230702
 11
1416.5157030168307
 21
1339.1077115880162
  0
LINE
  8
_0-b_EL-M4010N_______3
  6
CONTINUOUS
 62
    7
 10
1416.5157030168307
 20
1339.1077115880162
 11
1416.2895651310337
 21
1340.0959233809558
  0
LINE
  8
_0-b_EL-M4010N_______3
  6
CONTINUOUS
 62
    7
 10
1416.2895651310337
 20
1340.0959233809558
 11
1415.7709934033837
 21
1340.902255560261
  0
LINE
  8
_0-b_EL-M4010N_______3
  6
CONTINUOUS
 62
    7
 10
1432.64393673617
 20
1321.7633529638738
 11
1433.519153867876
 21
1322.4796929767081
  0
LINE
  8
_0-b_EL-M4010N_______3
  6
CONTINUOUS
 62
    7
 10
1433.519153867876
 20
1322.4796929767081
 11
1434.1801993598538
 21
1323.3975242634701
  0
LINE
  8
_0-b_EL-M4010N_______3
  6
CONTINUOUS
 62
    7
 10
1434.1801993598538
 20
1323.3975242634701
 11
1434.5766228197358
 21
1324.4388336611619
  0
LINE
  8
_0-b_EL-M4010N_______3
  6
CONTINUOUS
 62
    7
 10
1434.5766228197358
 20
1324.4388336611619
 11
1434.6682164884646
 21
1325.509952626107
  0
LINE
  8
_0-b_EL-M4010N_______3
  6
CONTINUOUS
 62
    7
 10
1434.6682164884646
 20
1325.509952626107
 11
1434.4420786019059
 21
1326.4981644182849
  0
LINE
  8
_0-b_EL-M4010N_______3
  6
CONTINUOUS
 62
    7
 10
1434.4420786019059
 20
1326.4981644182849
 11
1433.9235068750168
 21
1327.304496598354
  0
LINE
  8
_0-9_EL-M4010N_______12
  6
CONTINUOUS
 62
    7
 10
1316.2904370133579
 20
1406.3943946407462
 11
1317.2400107680028
 21
1406.1506794609181
  0
LINE
  8
_0-9_EL-M4010N_______12
  6
CONTINUOUS
 62
    7
 10
1317.2400107680028
 20
1406.1506794609181
 11
1318.271979126212
 21
1406.251589241826
  0
LINE
  8
_0-9_EL-M4010N_______12
  6
CONTINUOUS
 62
    7
 10
1298.1379235424856
 20
1419.9921536034162
 11
1299.0874972963688
 21
1419.7484384235881
  0
LINE
  8
_0-9_EL-M4010N_______12
  6
CONTINUOUS
 62
    7
 10
1299.0874972963688
 20
1419.7484384235881
 11
1300.1194656545777
 21
1419.8493482037329
  0
LINE
  8
_0-7_EL-M4010N_______4
  6
CONTINUOUS
 62
    7
 10
1326.8197216722979
 20
1398.484396510557
 11
1327.8019312407669
 21
1398.201846466312
  0
LINE
  8
_0-7_EL-M4010N_______4
  6
CONTINUOUS
 62
    7
 10
1308.6672082014247
 20
1412.0821554732279
 11
1309.6494177691338
 21
1411.799605428982
  0
LINE
  8
_0-c_EL-M4010N_______2
  6
CONTINUOUS
 62
    7
 10
1396.7156807584338
 20
1354.441383359524
 11
1395.8597255770278
 21
1354.7162362611762
  0
LINE
  8
_0-c_EL-M4010N_______2
  6
CONTINUOUS
 62
    7
 10
1395.8597255770278
 20
1354.7162362611762
 11
1394.9104740500838
 21
1354.640295614734
  0
LINE
  8
_0-5________-2___M4
  6
CONTINUOUS
 62
    7
 10
1280.0565533405538
 20
1440.28779592315
 11
1280.1731469780789
 21
1438.606498146813
  0
LINE
  8
_0-5________-2___M4
  6
CONTINUOUS
 62
    7
 10
1279.9887074414469
 20
1441.2767331012269
 11
1280.0582669695868
 21
1440.2736742495899
  0
LINE
  8
_0-5________-2___M4
  6
CONTINUOUS
 62
    7
 10
1282.509065587411
 20
1440.0874600675361
 11
1282.382886565958
 21
1441.906980516118
  0
LINE
  8
_0-4__B______3
  6
CONTINUOUS
 62
    7
 10
1272.5072171057527
 20
1594.3009725857919
 11
1282.8774670497428
 21
1444.760410035562
  0
LINE
  8
_0-4__B______3
  6
CONTINUOUS
 62
    7
 10
1285.3290224272928
 20
1444.5736289765618
 11
1274.9587724833036
 21
1594.1141915267922
  0
LINE
  8
_0-7_EL-M4010N_______4
  6
CONTINUOUS
 62
    7
 10
1290.123953298169
 20
1437.047187129298
 11
1290.4325440690986
 21
1432.597261838157
  0
LINE
  8
_0-7_EL-M4010N_______4
  6
CONTINUOUS
 62
    7
 10
1290.4325440690986
 20
1432.597261838157
 11
1290.3947515962968
 21
1431.881228800833
  0
LINE
  8
_0-7_EL-M4010N_______4
  6
CONTINUOUS
 62
    7
 10
1290.3947515962968
 20
1431.881228800833
 11
1290.1875560947628
 21
1431.1651364029481
  0
LINE
  8
_0-7_EL-M4010N_______4
  6
CONTINUOUS
 62
    7
 10
1290.1875560947628
 20
1431.1651364029481
 11
1289.8241348724077
 21
1430.494526992582
  0
LINE
  8
_0-7_EL-M4010N_______4
  6
CONTINUOUS
 62
    7
 10
1303.1462912976376
 20
1424.0559188233419
 11
1303.062864399722
 21
1422.986216718909
  0
LINE
  8
_0-7_EL-M4010N_______4
  6
CONTINUOUS
 62
    7
 10
1303.062864399722
 20
1422.986216718909
 11
1302.6727155617837
 21
1421.9406715323821
  0
LINE
  8
_0-7_EL-M4010N_______4
  6
CONTINUOUS
 62
    7
 10
1302.6727155617837
 20
1421.9406715323821
 11
1302.0105069324309
 21
1421.0115784426421
  0
LINE
  8
_0-7_EL-M4010N_______4
  6
CONTINUOUS
 62
    7
 10
1302.0105069324309
 20
1421.0115784426421
 11
1301.1281768294289
 21
1420.285630059388
  0
LINE
  8
_0-7_EL-M4010N_______4
  6
CONTINUOUS
 62
    7
 10
1301.1281768294289
 20
1420.285630059388
 11
1300.1194656545777
 21
1419.8493482037329
  0
LINE
  8
_0-4__B______3
  6
CONTINUOUS
 62
    7
 10
1453.4212468720939
 20
1315.427674067565
 11
1453.630055492576
 21
1315.325133682858
  0
LINE
  8
_0-4__B______3
  6
CONTINUOUS
 62
    7
 10
1453.630055492576
 20
1315.325133682858
 11
1453.7711492314688
 21
1315.3268631851138
  0
LINE
  8
_0-a_EL-M4010N_______13
  6
CONTINUOUS
 62
    7
 10
1418.5982343300439
 20
1329.691692346431
 11
1419.0405132659048
 21
1329.4259476841198
  0
LINE
  8
_0-a_EL-M4010N_______13
  6
CONTINUOUS
 62
    7
 10
1400.4457208591707
 20
1343.289451309101
 11
1400.8879997942718
 21
1343.0237066460281
  0
LINE
  8
_0-b_EL-M4010N_______3
  6
CONTINUOUS
 62
    7
 10
1429.2327030603019
 20
1321.7279344342542
 11
1429.5697979248448
 21
1321.5159495539319
  0
LINE
  8
_0-b_EL-M4010N_______3
  6
CONTINUOUS
 62
    7
 10
1411.0801895894288
 20
1335.3256933969242
 11
1411.4172844532109
 21
1335.113708516601
  0
LINE
  8
_0-b_EL-M4010N_______3
  6
CONTINUOUS
 62
    7
 10
1392.9108758816478
 20
1348.9340173257642
 11
1393.2647709823386
 21
1348.7114674785098
  0
LINE
  8
_0-b_EL-M4010N_______3
  6
CONTINUOUS
 62
    7
 10
1393.2647709823386
 20
1348.7114674785098
 11
1394.2469805500468
 21
1348.428917434263
  0
LINE
  8
_0-b_EL-M4010N_______3
  6
CONTINUOUS
 62
    7
 10
1394.2469805500468
 20
1348.428917434263
 11
1395.3345363152407
 21
1348.5252540234042
  0
LINE
  8
_0-5________-2___M4
  6
CONTINUOUS
 62
    7
 10
1280.3721808439168
 20
1400.7961239028418
 11
1369.4222469288488
 21
1334.0901365396189
  0
LINE
  8
_0-7_EL-M4010N_______4
  6
CONTINUOUS
 62
    7
 10
1291.5818969781608
 20
1431.9750142764578
 11
1291.29076749362
 21
1436.173145183709
  0
LINE
  8
_0-9_EL-M4010N_______12
  6
CONTINUOUS
 62
    7
 10
1292.4575816898318
 20
1435.299103238121
 11
1292.5879293747798
 21
1433.4194700268599
  0
LINE
  8
_0-9_EL-M4010N_______12
  6
CONTINUOUS
 62
    7
 10
1293.674299220324
 20
1433.70544770484
 11
1293.624395885282
 21
1434.425061293296
  0
LINE
  8
_0-9_EL-M4010N_______12
  6
CONTINUOUS
 62
    7
 10
1300.1372841056059
 20
1427.5682005145381
 11
1300.1229349666628
 21
1427.775117249801
  0
LINE
  8
_0-9_EL-M4010N_______12
  6
CONTINUOUS
 62
    7
 10
1301.2093048122078
 20
1428.0610949277821
 11
1301.226659196092
 21
1427.810842095801
  0
LINE
  8
_0-9_EL-M4010N_______12
  6
CONTINUOUS
 62
    7
 10
1311.8441670758407
 20
1419.857435910189
 11
1311.8268126911948
 21
1420.10768874217
  0
LINE
  8
_0-9_EL-M4010N_______12
  6
CONTINUOUS
 62
    7
 10
1318.2897975764768
 20
1413.9704415518681
 11
1318.2754484382976
 21
1414.177358287131
  0
LINE
  8
_0-9_EL-M4010N_______12
  6
CONTINUOUS
 62
    7
 10
1319.3618182830796
 20
1414.463335965112
 11
1319.3791726677259
 21
1414.213083133131
  0
LINE
  8
_0-8_EL-M4010N_______9
  6
CONTINUOUS
 62
    7
 10
1295.0601362957359
 20
1429.0395492002322
 11
1294.9971114555678
 21
1430.004690303982
  0
LINE
  8
_0-8_EL-M4010N_______9
  6
CONTINUOUS
 62
    7
 10
1294.9971114555678
 20
1430.004690303982
 11
1294.6163852154978
 21
1430.8278336122262
  0
LINE
  8
_0-8_EL-M4010N_______9
  6
CONTINUOUS
 62
    7
 10
1294.6163852154978
 20
1430.8278336122262
 11
1293.9656045066477
 21
1431.4098303169121
  0
LINE
  8
_0-8_EL-M4010N_______9
  6
CONTINUOUS
 62
    7
 10
1293.9656045066477
 20
1431.4098303169121
 11
1293.10964932448
 21
1431.6846832178021
  0
LINE
  8
_0-8_EL-M4010N_______9
  6
CONTINUOUS
 62
    7
 10
1293.10964932448
 20
1431.6846832178021
 11
1292.160397797536
 21
1431.6087425721221
  0
LINE
  8
_0-9_EL-M4010N_______12
  6
CONTINUOUS
 62
    7
 10
1331.8843345303508
 20
1402.7813023231301
 11
1331.8775087103727
 21
1401.666015244336
  0
LINE
  8
_0-9_EL-M4010N_______12
  6
CONTINUOUS
 62
    7
 10
1331.8775087103727
 20
1401.666015244336
 11
1331.5237122620119
 21
1400.5495722214469
  0
LINE
  8
_0-9_EL-M4010N_______12
  6
CONTINUOUS
 62
    7
 10
1331.5237122620119
 20
1400.5495722214469
 11
1330.8596756617148
 21
1399.547880245409
  0
LINE
  8
_0-9_EL-M4010N_______12
  6
CONTINUOUS
 62
    7
 10
1330.8596756617148
 20
1399.547880245409
 11
1329.951169555693
 21
1398.767615283718
  0
LINE
  8
_0-9_EL-M4010N_______12
  6
CONTINUOUS
 62
    7
 10
1329.951169555693
 20
1398.767615283718
 11
1328.889487005199
 21
1398.298183056213
  0
LINE
  8
_0-7_EL-M4010N_______4
  6
CONTINUOUS
 62
    7
 10
1321.2988047685099
 20
1410.4581598614341
 11
1321.2153778705929
 21
1409.3884577562389
  0
LINE
  8
_0-7_EL-M4010N_______4
  6
CONTINUOUS
 62
    7
 10
1321.2153778705929
 20
1409.3884577562389
 11
1320.8252290326559
 21
1408.3429125697121
  0
LINE
  8
_0-7_EL-M4010N_______4
  6
CONTINUOUS
 62
    7
 10
1320.8252290326559
 20
1408.3429125697121
 11
1320.163020403304
 21
1407.4138194799721
  0
LINE
  8
_0-7_EL-M4010N_______4
  6
CONTINUOUS
 62
    7
 10
1320.163020403304
 20
1407.4138194799721
 11
1319.2806903010628
 21
1406.687871096718
  0
LINE
  8
_0-7_EL-M4010N_______4
  6
CONTINUOUS
 62
    7
 10
1319.2806903010628
 20
1406.687871096718
 11
1318.271979126212
 21
1406.251589241826
  0
LINE
  8
_0-b_EL-M4010N_______3
  6
CONTINUOUS
 62
    7
 10
1392.5742111219079
 20
1353.5260800298602
 11
1392.0335595031879
 21
1352.438928136095
  0
LINE
  8
_0-b_EL-M4010N_______3
  6
CONTINUOUS
 62
    7
 10
1392.0335595031879
 20
1352.438928136095
 11
1391.8364330003119
 21
1351.2991588720779
  0
LINE
  8
_0-b_EL-M4010N_______3
  6
CONTINUOUS
 62
    7
 10
1391.8364330003119
 20
1351.2991588720779
 11
1391.9949254455819
 21
1350.2273904293861
  0
LINE
  8
_0-b_EL-M4010N_______3
  6
CONTINUOUS
 62
    7
 10
1391.9949254455819
 20
1350.2273904293861
 11
1392.4881050975227
 21
1349.3339067045458
  0
LINE
  8
_0-b_EL-M4010N_______3
  6
CONTINUOUS
 62
    7
 10
1392.4881050975227
 20
1349.3339067045458
 11
1392.9108758816478
 21
1348.9340173257642
  0
LINE
  8
_0-c_EL-M4010N_______2
  6
CONTINUOUS
 62
    7
 10
1393.2075524244378
 20
1353.5277162549341
 11
1392.6585408557107
 21
1352.6399400213459
  0
LINE
  8
_0-c_EL-M4010N_______2
  6
CONTINUOUS
 62
    7
 10
1392.6585408557107
 20
1352.6399400213459
 11
1392.3962467016108
 21
1351.650360267718
  0
LINE
  8
_0-c_EL-M4010N_______2
  6
CONTINUOUS
 62
    7
 10
1392.3962467016108
 20
1351.650360267718
 11
1392.4592715417789
 21
1350.6852191639682
  0
LINE
  8
_0-c_EL-M4010N_______2
  6
CONTINUOUS
 62
    7
 10
1392.4592715417789
 20
1350.6852191639682
 11
1392.839997781849
 21
1349.862075855724
  0
LINE
  8
_0-c_EL-M4010N_______2
  6
CONTINUOUS
 62
    7
 10
1392.839997781849
 20
1349.862075855724
 11
1393.4907784914608
 21
1349.2800791510381
  0
LINE
  8
_0-c_EL-M4010N_______2
  6
CONTINUOUS
 62
    7
 10
1393.4907784914608
 20
1349.2800791510381
 11
1394.3467336728668
 21
1349.005226249385
  0
LINE
  8
_0-4__B______3
  6
CONTINUOUS
 62
    7
 10
936.27575003942593
 20
1505.790881305084
 11
1272.5072171057527
 21
1594.3009725857919
  0
LINE
  8
_0-4__B______3
  6
CONTINUOUS
 62
    7
 10
1272.8636620116076
 20
1595.453774508022
 11
936.63219494527993
 21
1506.9436832273141
  0
LINE
  8
_0-4__B______3
  6
CONTINUOUS
 62
    7
 10
1272.5072171057527
 20
1594.3009725857919
 11
1272.9569859064927
 21
1594.391016200218
  0
LINE
  8
_0-4__B______3
  6
CONTINUOUS
 62
    7
 10
1272.9569859064927
 20
1594.391016200218
 11
1273.43212168952
 21
1594.4329613108921
  0
LINE
  8
_0-4__B______3
  6
CONTINUOUS
 62
    7
 10
1273.43212168952
 20
1594.4329613108921
 11
1273.9002447370149
 21
1594.4239494287381
  0
LINE
  8
_0-4__B______3
  6
CONTINUOUS
 62
    7
 10
1273.9002447370149
 20
1594.4239494287381
 11
1274.3294532362288
 21
1594.3645946983229
  0
LINE
  8
_0-4__B______3
  6
CONTINUOUS
 62
    7
 10
1274.3294532362288
 20
1594.3645946983229
 11
1274.6904973378628
 21
1594.258942046536
  0
LINE
  8
_0-4__B______3
  6
CONTINUOUS
 62
    7
 10
1274.6904973378628
 20
1594.258942046536
 11
1274.9587724833036
 21
1594.1141915267922
  0
LINE
  8
_0-4__B______3
  6
CONTINUOUS
 62
    7
 10
1285.3290224272928
 20
1444.5736289765618
 11
1285.0607472826159
 21
1444.718379497067
  0
LINE
  8
_0-4__B______3
  6
CONTINUOUS
 62
    7
 10
1285.0607472826159
 20
1444.718379497067
 11
1284.6997031802189
 21
1444.8240321488561
  0
LINE
  8
_0-4__B______3
  6
CONTINUOUS
 62
    7
 10
1284.6997031802189
 20
1444.8240321488561
 11
1284.2704946810059
 21
1444.8833868792699
  0
LINE
  8
_0-4__B______3
  6
CONTINUOUS
 62
    7
 10
1284.2704946810059
 20
1444.8833868792699
 11
1283.8023716335088
 21
1444.892398761423
  0
LINE
  8
_0-4__B______3
  6
CONTINUOUS
 62
    7
 10
1283.8023716335088
 20
1444.892398761423
 11
1283.3272358504837
 21
1444.8504536499881
  0
LINE
  8
_0-4__B______3
  6
CONTINUOUS
 62
    7
 10
1283.3272358504837
 20
1444.8504536499881
 11
1282.8774670497428
 21
1444.760410035562
  0
LINE
  8
_0-b_EL-M4010N_______3
  6
CONTINUOUS
 62
    7
 10
1397.2957439826068
 20
1354.787658425163
 11
1396.8534650467459
 21
1355.053403087476
  0
LINE
  8
_0-b_EL-M4010N_______3
  6
CONTINUOUS
 62
    7
 10
1396.8534650467459
 20
1355.053403087476
 11
1395.9038912928609
 21
1355.2971182673041
  0
LINE
  8
_0-9_EL-M4010N_______12
  6
CONTINUOUS
 62
    7
 10
1315.8481580782568
 20
1406.6601393038191
 11
1316.2904370133579
 21
1406.3943946407462
  0
LINE
  8
_0-9_EL-M4010N_______12
  6
CONTINUOUS
 62
    7
 10
1297.6956446066229
 20
1420.2578982657278
 11
1298.1379235424856
 21
1419.9921536034162
  0
LINE
  8
_0-7_EL-M4010N_______4
  6
CONTINUOUS
 62
    7
 10
1294.5456677308207
 20
1431.756105381789
 11
1294.1033887949598
 21
1432.0218500448641
  0
LINE
  8
_0-7_EL-M4010N_______4
  6
CONTINUOUS
 62
    7
 10
1294.1033887949598
 20
1432.0218500448641
 11
1293.1538150403139
 21
1432.26556522393
  0
LINE
  8
_0-7_EL-M4010N_______4
  6
CONTINUOUS
 62
    7
 10
1293.1538150403139
 20
1432.26556522393
 11
1292.1218466821047
 21
1432.1646554437839
  0
LINE
  8
_0-7_EL-M4010N_______4
  6
CONTINUOUS
 62
    7
 10
1326.4826268077541
 20
1398.6963813908801
 11
1326.8197216722979
 21
1398.484396510557
  0
LINE
  8
_0-7_EL-M4010N_______4
  6
CONTINUOUS
 62
    7
 10
1308.3301133368818
 20
1412.2941403535501
 11
1308.6672082014247
 21
1412.0821554732279
  0
LINE
  8
_0-7_EL-M4010N_______4
  6
CONTINUOUS
 62
    7
 10
1290.1607996290986
 20
1425.9024642823902
 11
1290.5146947297908
 21
1425.679914435897
  0
LINE
  8
_0-7_EL-M4010N_______4
  6
CONTINUOUS
 62
    7
 10
1290.5146947297908
 20
1425.679914435897
 11
1291.4969042982607
 21
1425.397364391652
  0
LINE
  8
_0-7_EL-M4010N_______4
  6
CONTINUOUS
 62
    7
 10
1291.4969042982607
 20
1425.397364391652
 11
1292.5844600626929
 21
1425.4937009807918
  0
LINE
  8
_0-4__B______3
  6
CONTINUOUS
 62
    7
 10
1451.6157349393088
 20
1316.0762634869202
 11
1451.738239522088
 21
1315.9895879300202
  0
LINE
  8
_0-4__B______3
  6
CONTINUOUS
 62
    7
 10
1451.738239522088
 20
1315.9895879300202
 11
1452.2190865034959
 21
1315.7269406384489
  0
LINE
  8
_0-4__B______3
  6
CONTINUOUS
 62
    7
 10
1452.2190865034959
 20
1315.7269406384489
 11
1452.764388681368
 21
1315.5375952078962
  0
LINE
  8
_0-4__B______3
  6
CONTINUOUS
 62
    7
 10
1452.764388681368
 20
1315.5375952078962
 11
1453.4212468720939
 21
1315.427674067565
  0
LINE
  8
_0-b_EL-M4010N_______3
  6
CONTINUOUS
 62
    7
 10
1436.7504185148068
 20
1316.093494073235
 11
1429.2154129229239
 21
1321.7378468502939
  0
LINE
  8
_0-a_EL-M4010N_______13
  6
CONTINUOUS
 62
    7
 10
1429.2154129229239
 20
1321.7378468502939
 11
1418.597905043935
 21
1329.6912530359059
  0
LINE
  8
_0-b_EL-M4010N_______3
  6
CONTINUOUS
 62
    7
 10
1418.597905043935
 20
1329.6912530359059
 11
1411.0628994520507
 21
1335.3356058122022
  0
LINE
  8
_0-a_EL-M4010N_______13
  6
CONTINUOUS
 62
    7
 10
1411.0628994520507
 20
1335.3356058122022
 11
1400.445391572302
 21
1343.2890119978142
  0
LINE
  8
_0-b_EL-M4010N_______3
  6
CONTINUOUS
 62
    7
 10
1400.445391572302
 20
1343.2890119978142
 11
1392.9103859804177
 21
1348.9333647748722
  0
LINE
  8
_0-7_EL-M4010N_______4
  6
CONTINUOUS
 62
    7
 10
1290.1603097278698
 20
1425.9018117314981
 11
1297.6953153197537
 21
1420.2574589552019
  0
LINE
  8
_0-9_EL-M4010N_______12
  6
CONTINUOUS
 62
    7
 10
1297.6953153197537
 20
1420.2574589552019
 11
1308.3128231995029
 21
1412.3040527695889
  0
LINE
  8
_0-7_EL-M4010N_______4
  6
CONTINUOUS
 62
    7
 10
1308.3128231995029
 20
1412.3040527695889
 11
1315.8478287913867
 21
1406.6596999925309
  0
LINE
  8
_0-9_EL-M4010N_______12
  6
CONTINUOUS
 62
    7
 10
1315.8478287913867
 20
1406.6596999925309
 11
1326.4653366703747
 21
1398.7062938069189
  0
LINE
  8
_0-7_EL-M4010N_______4
  6
CONTINUOUS
 62
    7
 10
1326.4653366703747
 20
1398.7062938069189
 11
1334.0003422622599
 21
1393.0619410298618
  0
LINE
  8
_0-5________-2___M4
  6
CONTINUOUS
 62
    7
 10
1280.1731469780789
 20
1438.606498146813
 11
1290.1643302638977
 21
1431.122278528288
  0
LINE
  8
_0-5________-2___M4
  6
CONTINUOUS
 62
    7
 10
1338.8902814823618
 20
1394.622443894626
 11
1392.914406516446
 21
1354.153831570899
  0
LINE
  8
_0-5________-2___M4
  6
CONTINUOUS
 62
    7
 10
1441.6403577349088
 20
1317.653996937237
 11
1443.2040078539831
 21
1316.482691516836
  0
LINE
  8
_0-5________-2___M4
  6
CONTINUOUS
 62
    7
 10
1444.717909276771
 20
1318.579396649553
 11
1442.035836797138
 21
1320.5884944616769
  0
LINE
  8
_0-5________-2___M4
  6
CONTINUOUS
 62
    7
 10
1393.0688876710337
 20
1357.268856792195
 11
1339.2857605445897
 21
1397.5569414183042
  0
LINE
  8
_0-5________-2___M4
  6
CONTINUOUS
 62
    7
 10
1290.3188114184859
 20
1434.237303749584
 11
1282.509065587411
 21
1440.0874600675361
  0
LINE
  8
_0-a_EL-M4010N_______13
  6
CONTINUOUS
 62
    7
 10
1433.6197610281038
 20
1327.5784647059918
 11
1423.0022531483528
 21
1335.5318708916038
  0
LINE
  8
_0-a_EL-M4010N_______13
  6
CONTINUOUS
 62
    7
 10
1415.4672475564698
 20
1341.1762236686618
 11
1404.8497396774819
 21
1349.1296298542738
  0
LINE
  8
_0-9_EL-M4010N_______12
  6
CONTINUOUS
 62
    7
 10
1330.8696847755559
 20
1404.546911663379
 11
1320.2521768965667
 21
1412.5003178482302
  0
LINE
  8
_0-9_EL-M4010N_______12
  6
CONTINUOUS
 62
    7
 10
1312.7171713046828
 20
1418.1446706252868
 11
1302.0996634249327
 21
1426.0980768108998
  0
LINE
  8
_0-b_EL-M4010N_______3
  6
CONTINUOUS
 62
    7
 10
1441.1361058038678
 20
1321.9482270340541
 11
1433.601100211984
 21
1327.592579811112
  0
LINE
  8
_0-b_EL-M4010N_______3
  6
CONTINUOUS
 62
    7
 10
1422.9835923322339
 20
1335.5459859967241
 11
1415.4485867403487
 21
1341.1903387737821
  0
LINE
  8
_0-b_EL-M4010N_______3
  6
CONTINUOUS
 62
    7
 10
1404.8310788613617
 20
1349.1437449593941
 11
1397.2960732694778
 21
1354.7880977356899
  0
LINE
  8
_0-7_EL-M4010N_______4
  6
CONTINUOUS
 62
    7
 10
1294.54599701693
 20
1431.756544693078
 11
1302.0810026088138
 21
1426.11219191602
  0
LINE
  8
_0-7_EL-M4010N_______4
  6
CONTINUOUS
 62
    7
 10
1312.6985104885639
 20
1418.158785730408
 11
1320.2335160804469
 21
1412.51443295335
  0
LINE
  8
_0-7_EL-M4010N_______4
  6
CONTINUOUS
 62
    7
 10
1330.8510239594348
 20
1404.561026767738
 11
1338.38602955132
 21
1398.9166739914422
  0
LINE
  8
_0-a_EL-M4010N_______13
  6
CONTINUOUS
 62
    7
 10
1439.1780381617168
 20
1323.611152367836
 11
1433.1215154157567
 21
1328.1479971732242
  0
LINE
  8
_0-a_EL-M4010N_______13
  6
CONTINUOUS
 62
    7
 10
1421.0255246900829
 20
1337.208911330506
 11
1414.9690019448858
 21
1341.7457561358942
  0
LINE
  8
_0-a_EL-M4010N_______13
  6
CONTINUOUS
 62
    7
 10
1402.873011219212
 20
1350.806670293176
 11
1395.3380056273268
 21
1356.4510230694718
  0
LINE
  8
_0-9_EL-M4010N_______12
  6
CONTINUOUS
 62
    7
 10
1336.427961909169
 20
1400.5795993252241
 11
1330.3714391624467
 21
1405.116444131374
  0
LINE
  8
_0-9_EL-M4010N_______12
  6
CONTINUOUS
 62
    7
 10
1318.2754484382976
 20
1414.177358287131
 11
1312.2189256915758
 21
1418.7142030932819
  0
LINE
  8
_0-9_EL-M4010N_______12
  6
CONTINUOUS
 62
    7
 10
1300.1229349666628
 20
1427.775117249801
 11
1292.5879293747798
 21
1433.4194700268599
  0
LINE
  8
_0-a_EL-M4010N_______13
  6
CONTINUOUS
 62
    7
 10
1432.7467567992608
 20
1329.291229990894
 11
1422.1292489202729
 21
1337.244636176506
  0
LINE
  8
_0-a_EL-M4010N_______13
  6
CONTINUOUS
 62
    7
 10
1414.594243328389
 20
1342.8889889528018
 11
1403.9767354486398
 21
1350.8423951384138
  0
LINE
  8
_0-9_EL-M4010N_______12
  6
CONTINUOUS
 62
    7
 10
1329.9966805467129
 20
1406.259676947519
 11
1319.3791726677259
 21
1414.213083133131
  0
LINE
  8
_0-9_EL-M4010N_______12
  6
CONTINUOUS
 62
    7
 10
1311.8441670758407
 20
1419.857435910189
 11
1301.226659196092
 21
1427.810842095801
  0
LINE
  8
_0-9_EL-M4010N_______12
  6
CONTINUOUS
 62
    7
 10
1293.674299220324
 20
1433.705447704077
 11
1301.2093048122078
 21
1428.0610949277821
  0
LINE
  8
_0-9_EL-M4010N_______12
  6
CONTINUOUS
 62
    7
 10
1311.8268126911948
 20
1420.10768874217
 11
1319.3618182830796
 21
1414.463335965112
  0
LINE
  8
_0-9_EL-M4010N_______12
  6
CONTINUOUS
 62
    7
 10
1329.9793261628288
 20
1406.5099297795
 11
1337.514331754714
 21
1400.8655770032042
  0
LINE
  8
_0-a_EL-M4010N_______13
  6
CONTINUOUS
 62
    7
 10
1396.4243754721087
 20
1356.737000747451
 11
1403.959381063994
 21
1351.092647970394
  0
LINE
  8
_0-a_EL-M4010N_______13
  6
CONTINUOUS
 62
    7
 10
1414.5768889437427
 20
1343.1392417855441
 11
1422.1118945356279
 21
1337.4948890084861
  0
LINE
  8
_0-a_EL-M4010N_______13
  6
CONTINUOUS
 62
    7
 10
1432.7294024146158
 20
1329.5414828228741
 11
1440.2644080064988
 21
1323.8971300458161
  0
LINE
  8
_0-4__B______3
  6
CONTINUOUS
 62
    7
 10
1283.3103712420998
 20
1442.151133016127
 11
1451.6157328087579
 21
1316.0762650764518
  0
LINE
  8
_0-4__B______3
  6
CONTINUOUS
 62
    7
 10
1454.9351482948819
 20
1317.5243792002839
 11
1285.3290224272928
 21
1444.5736289765618
  0
LINE
  8
_0-7_EL-M4010N_______4
  6
CONTINUOUS
 62
    7
 10
1302.0807944928979
 20
1426.1119140915821
 11
1302.3880420589949
 21
1425.8402781009449
  0
LINE
  8
_0-7_EL-M4010N_______4
  6
CONTINUOUS
 62
    7
 10
1302.3880420589949
 20
1425.8402781009449
 11
1302.9120864775027
 21
1425.0412740908801
  0
LINE
  8
_0-7_EL-M4010N_______4
  6
CONTINUOUS
 62
    7
 10
1302.9120864775027
 20
1425.0412740908801
 11
1303.1462912976376
 21
1424.0559188233419
  0
LINE
  8
_0-7_EL-M4010N_______4
  6
CONTINUOUS
 62
    7
 10
1320.2333079645318
 20
1412.5141551296738
 11
1320.540555529868
 21
1412.2425191382758
  0
LINE
  8
_0-7_EL-M4010N_______4
  6
CONTINUOUS
 62
    7
 10
1320.540555529868
 20
1412.2425191382758
 11
1321.0645999491367
 21
1411.44351512821
  0
LINE
  8
_0-7_EL-M4010N_______4
  6
CONTINUOUS
 62
    7
 10
1321.0645999491367
 20
1411.44351512821
 11
1321.2988047685099
 21
1410.4581598614341
  0
LINE
  8
_0-7_EL-M4010N_______4
  6
CONTINUOUS
 62
    7
 10
1313.0209171508359
 20
1417.87070251765
 11
1312.7298119276106
 21
1418.130154997727
  0
LINE
  8
_0-5________-2___M4
  6
CONTINUOUS
 62
    7
 10
1369.4222469288488
 20
1334.0901365396189
 11
1369.8755246115738
 21
1333.665465230722
  0
LINE
  8
_0-4__B______3
  6
CONTINUOUS
 62
    7
 10
1274.9587724833036
 20
1594.1141915267922
 11
1274.8733134632139
 21
1594.5312173627922
  0
LINE
  8
_0-4__B______3
  6
CONTINUOUS
 62
    7
 10
1274.8733134632139
 20
1594.5312173627922
 11
1274.6826268692257
 21
1594.8905902185938
  0
LINE
  8
_0-4__B______3
  6
CONTINUOUS
 62
    7
 10
1274.6826268692257
 20
1594.8905902185938
 11
1274.4256395376328
 21
1595.148908249836
  0
LINE
  8
_0-4__B______3
  6
CONTINUOUS
 62
    7
 10
1282.8774670497428
 20
1444.760410035562
 11
1282.9354093300999
 21
1444.3077864300162
  0
LINE
  8
_0-4__B______3
  6
CONTINUOUS
 62
    7
 10
1282.9354093300999
 20
1444.3077864300162
 11
1283.0454209221148
 21
1443.844046195446
  0
LINE
  8
_0-4__B______3
  6
CONTINUOUS
 62
    7
 10
1283.0454209221148
 20
1443.844046195446
 11
1283.2000047188649
 21
1443.40079246194
  0
LINE
  8
_0-4__B______3
  6
CONTINUOUS
 62
    7
 10
1283.2000047188649
 20
1443.40079246194
 11
1283.3886260901609
 21
1443.0082322399489
  0
LINE
  8
_0-4__B______3
  6
CONTINUOUS
 62
    7
 10
1283.3886260901609
 20
1443.0082322399489
 11
1283.5984308000907
 21
1442.6931178590039
  0
LINE
  8
_0-4__B______3
  6
CONTINUOUS
 62
    7
 10
1283.5984308000907
 20
1442.6931178590039
 11
1283.8151210052679
 21
1442.4769238446061
  0
LINE
  8
_0-9_EL-M4010N_______12
  6
CONTINUOUS
 62
    7
 10
1329.9966805467129
 20
1406.259676947519
 11
1329.9793261628288
 21
1406.5099297795
  0
LINE
  8
_0-7_EL-M4010N_______4
  6
CONTINUOUS
 62
    7
 10
1335.2611477137189
 20
1401.453641270049
 11
1335.2754968518998
 21
1401.2467245347862
  0
LINE
  8
_0-9_EL-M4010N_______12
  6
CONTINUOUS
 62
    7
 10
1337.4644284196706
 20
1401.5851905916602
 11
1337.514331754714
 21
1400.8655770032042
  0
LINE
  8
_0-5________-2___M4
  6
CONTINUOUS
 62
    7
 10
1364.7702967298478
 20
1333.5659767573602
 11
1364.9148634109947
 21
1331.4813034872941
  0
LINE
  8
_0-5________-2___M4
  6
CONTINUOUS
 62
    7
 10
1365.9417834170958
 20
1331.404916735572
 11
1366.0574379383897
 21
1329.737161154655
  0
LINE
  8
_0-5________-2___M4
  6
CONTINUOUS
 62
    7
 10
1369.0665871268347
 20
1334.3565556374642
 11
1369.0380153226638
 21
1334.1069941010269
  0
LINE
  8
_0-5________-2___M4
  6
CONTINUOUS
 62
    7
 10
1369.0380153226638
 20
1334.1069941010269
 11
1368.7128319956369
 21
1333.496610585195
  0
LINE
  8
_0-5________-2___M4
  6
CONTINUOUS
 62
    7
 10
1368.7128319956369
 20
1333.496610585195
 11
1368.1106979870547
 21
1332.9073245885102
  0
LINE
  8
_0-5________-2___M4
  6
CONTINUOUS
 62
    7
 10
1368.1106979870547
 20
1332.9073245885102
 11
1367.2543372524847
 21
1332.36155355661
  0
LINE
  8
_0-5________-2___M4
  6
CONTINUOUS
 62
    7
 10
1367.2543372524847
 20
1332.36155355661
 11
1366.1755230964268
 21
1331.8799778517409
  0
LINE
  8
_0-4__B______3
  6
CONTINUOUS
 62
    7
 10
1272.8636620116076
 20
1595.453774508022
 11
1273.265351322782
 21
1595.512909480683
  0
LINE
  8
_0-4__B______3
  6
CONTINUOUS
 62
    7
 10
1273.265351322782
 20
1595.512909480683
 11
1273.6741266731228
 21
1595.4812058702282
  0
LINE
  8
_0-4__B______3
  6
CONTINUOUS
 62
    7
 10
1273.6741266731228
 20
1595.4812058702282
 11
1274.06844260255
 21
1595.3579640829289
  0
LINE
  8
_0-4__B______3
  6
CONTINUOUS
 62
    7
 10
1274.06844260255
 20
1595.3579640829289
 11
1274.4256395376328
 21
1595.148908249836
  0
LINE
  8
_0-7_EL-M4010N_______4
  6
CONTINUOUS
 62
    7
 10
1338.3858214354027
 20
1398.9163961670042
 11
1338.693069001502
 21
1398.644760176368
  0
LINE
  8
_0-7_EL-M4010N_______4
  6
CONTINUOUS
 62
    7
 10
1338.693069001502
 20
1398.644760176368
 11
1339.2171134200098
 21
1397.84575616554
  0
LINE
  8
_0-b_EL-M4010N_______3
  6
CONTINUOUS
 62
    7
 10
1404.8308707454448
 20
1349.1434671349562
 11
1405.1381183107819
 21
1348.8718311435582
  0
LINE
  8
_0-b_EL-M4010N_______3
  6
CONTINUOUS
 62
    7
 10
1405.1381183107819
 20
1348.8718311435582
 11
1405.662162730051
 21
1348.072827133491
  0
LINE
  8
_0-b_EL-M4010N_______3
  6
CONTINUOUS
 62
    7
 10
1405.662162730051
 20
1348.072827133491
 11
1405.8963675501859
 21
1347.087471866716
  0
LINE
  8
_0-b_EL-M4010N_______3
  6
CONTINUOUS
 62
    7
 10
1422.9833842163166
 20
1335.5457081722861
 11
1423.2906317824159
 21
1335.274072181649
  0
LINE
  8
_0-b_EL-M4010N_______3
  6
CONTINUOUS
 62
    7
 10
1423.2906317824159
 20
1335.274072181649
 11
1423.8146762009237
 21
1334.4750681715841
  0
LINE
  8
_0-b_EL-M4010N_______3
  6
CONTINUOUS
 62
    7
 10
1423.8146762009237
 20
1334.4750681715841
 11
1424.0488810210568
 21
1333.489712904046
  0
LINE
  8
_0-b_EL-M4010N_______3
  6
CONTINUOUS
 62
    7
 10
1441.135897687951
 20
1321.9479492103769
 11
1441.4431452532867
 21
1321.6763132189799
  0
LINE
  8
_0-b_EL-M4010N_______3
  6
CONTINUOUS
 62
    7
 10
1441.4431452532867
 20
1321.6763132189799
 11
1441.9671896725577
 21
1320.8773092089141
  0
LINE
  8
_0-b_EL-M4010N_______3
  6
CONTINUOUS
 62
    7
 10
1441.9671896725577
 20
1320.8773092089141
 11
1442.2013944926907
 21
1319.8919539421381
  0
LINE
  8
_0-b_EL-M4010N_______3
  6
CONTINUOUS
 62
    7
 10
1442.2013944926907
 20
1319.8919539421381
 11
1442.1179675940139
 21
1318.822251836943
  0
LINE
  8
_0-b_EL-M4010N_______3
  6
CONTINUOUS
 62
    7
 10
1442.1179675940139
 20
1318.822251836943
 11
1441.7278187568368
 21
1317.7767066504161
  0
LINE
  8
_0-b_EL-M4010N_______3
  6
CONTINUOUS
 62
    7
 10
1441.7278187568368
 20
1317.7767066504161
 11
1441.0656101267227
 21
1316.8476135606761
  0
LINE
  8
_0-b_EL-M4010N_______3
  6
CONTINUOUS
 62
    7
 10
1441.0656101267227
 20
1316.8476135606761
 11
1440.1832800244829
 21
1316.1216651774221
  0
LINE
  8
_0-b_EL-M4010N_______3
  6
CONTINUOUS
 62
    7
 10
1440.1832800244829
 20
1316.1216651774221
 11
1439.1745688496308
 21
1315.68538332253
  0
LINE
  8
_0-7_EL-M4010N_______4
  6
CONTINUOUS
 62
    7
 10
1331.1734306224689
 20
1404.27294355498
 11
1330.8823253984829
 21
1404.532396035057
  0
LINE
  8
_0-b_EL-M4010N_______3
  6
CONTINUOUS
 62
    7
 10
1415.7709934033837
 20
1340.902255560261
 11
1415.4798881793977
 21
1341.1617080403398
  0
LINE
  8
_0-b_EL-M4010N_______3
  6
CONTINUOUS
 62
    7
 10
1433.9235068750168
 20
1327.304496598354
 11
1433.6324016510316
 21
1327.5639490784311
  0
LINE
  8
_0-9_EL-M4010N_______12
  6
CONTINUOUS
 62
    7
 10
1302.0996634211228
 20
1426.0980768154718
 11
1301.657930345486
 21
1426.5567361567241
  0
LINE
  8
_0-9_EL-M4010N_______12
  6
CONTINUOUS
 62
    7
 10
1301.657930345486
 20
1426.5567361567241
 11
1301.3606262454036
 21
1427.140023299266
  0
LINE
  8
_0-9_EL-M4010N_______12
  6
CONTINUOUS
 62
    7
 10
1301.3606262454036
 20
1427.140023299266
 11
1301.226659196092
 21
1427.8108420965641
  0
LINE
  8
_0-9_EL-M4010N_______12
  6
CONTINUOUS
 62
    7
 10
1312.275438224473
 20
1418.6033299711121
 11
1312.717171308494
 21
1418.1446706207162
  0
LINE
  8
_0-9_EL-M4010N_______12
  6
CONTINUOUS
 62
    7
 10
1320.252176891996
 20
1412.500317853563
 11
1319.8104438171199
 21
1412.9589771940541
  0
LINE
  8
_0-9_EL-M4010N_______12
  6
CONTINUOUS
 62
    7
 10
1319.8104438171199
 20
1412.9589771940541
 11
1319.513139716275
 21
1413.5422643373581
  0
LINE
  8
_0-9_EL-M4010N_______12
  6
CONTINUOUS
 62
    7
 10
1319.513139716275
 20
1413.5422643373581
 11
1319.3791726677259
 21
1414.2130831346558
  0
LINE
  8
_0-9_EL-M4010N_______12
  6
CONTINUOUS
 62
    7
 10
1330.4279516953457
 20
1405.0055710084421
 11
1330.869684780128
 21
1404.5469116580462
  0
LINE
  8
_0-a_EL-M4010N_______13
  6
CONTINUOUS
 62
    7
 10
1404.849739682054
 20
1349.1296298489401
 11
1404.4080065972707
 21
1349.588289199336
  0
LINE
  8
_0-a_EL-M4010N_______13
  6
CONTINUOUS
 62
    7
 10
1404.4080065972707
 20
1349.588289199336
 11
1404.1107024971898
 21
1350.17157634264
  0
LINE
  8
_0-a_EL-M4010N_______13
  6
CONTINUOUS
 62
    7
 10
1404.1107024971898
 20
1350.17157634264
 11
1403.9767354486398
 21
1350.84239513689
  0
LINE
  8
_0-a_EL-M4010N_______13
  6
CONTINUOUS
 62
    7
 10
1415.0255144770208
 20
1341.634883013724
 11
1415.46724755266
 21
1341.1762236732338
  0
LINE
  8
_0-a_EL-M4010N_______13
  6
CONTINUOUS
 62
    7
 10
1423.0022531529257
 20
1335.5318708862701
 11
1422.5605200689047
 21
1335.9905302374282
  0
LINE
  8
_0-a_EL-M4010N_______13
  6
CONTINUOUS
 62
    7
 10
1422.5605200689047
 20
1335.9905302374282
 11
1422.263215968062
 21
1336.57381737997
  0
LINE
  8
_0-a_EL-M4010N_______13
  6
CONTINUOUS
 62
    7
 10
1422.263215968062
 20
1336.57381737997
 11
1422.1292489202729
 21
1337.24463617422
  0
LINE
  8
_0-a_EL-M4010N_______13
  6
CONTINUOUS
 62
    7
 10
1433.1780279486557
 20
1328.0371240518161
 11
1433.6197610235308
 21
1327.5784647105638
  0
LINE
  8
_0-9_EL-M4010N_______12
  6
CONTINUOUS
 62
    7
 10
1312.717171308494
 20
1418.1446706207162
 11
1313.3865166157238
 21
1417.376040188205
  0
LINE
  8
_0-9_EL-M4010N_______12
  6
CONTINUOUS
 62
    7
 10
1313.3865166157238
 20
1417.376040188205
 11
1313.7318210594799
 21
1416.3790612858002
  0
LINE
  8
_0-9_EL-M4010N_______12
  6
CONTINUOUS
 62
    7
 10
1313.7318210594799
 20
1416.3790612858002
 11
1313.7249952387397
 21
1415.263774207006
  0
LINE
  8
_0-9_EL-M4010N_______12
  6
CONTINUOUS
 62
    7
 10
1313.7249952387397
 20
1415.263774207006
 11
1313.3711987911388
 21
1414.1473311833561
  0
LINE
  8
_0-9_EL-M4010N_______12
  6
CONTINUOUS
 62
    7
 10
1313.3711987911388
 20
1414.1473311833561
 11
1312.7071621900818
 21
1413.145639208079
  0
LINE
  8
_0-9_EL-M4010N_______12
  6
CONTINUOUS
 62
    7
 10
1312.7071621900818
 20
1413.145639208079
 11
1311.7986560848217
 21
1412.365374246388
  0
LINE
  8
_0-9_EL-M4010N_______12
  6
CONTINUOUS
 62
    7
 10
1311.7986560848217
 20
1412.365374246388
 11
1310.7369735343268
 21
1411.8959420181218
  0
LINE
  8
_0-9_EL-M4010N_______12
  6
CONTINUOUS
 62
    7
 10
1330.869684780128
 20
1404.5469116580462
 11
1331.5390300873578
 21
1403.7782812262981
  0
LINE
  8
_0-9_EL-M4010N_______12
  6
CONTINUOUS
 62
    7
 10
1331.5390300873578
 20
1403.7782812262981
 11
1331.8843345303508
 21
1402.7813023231301
  0
LINE
  8
_0-5________-2___M4
  6
CONTINUOUS
 62
    7
 10
1369.8755246115738
 20
1333.665465230722
 11
1370.1490327051461
 21
1333.2079723042061
  0
LINE
  8
_0-5________-2___M4
  6
CONTINUOUS
 62
    7
 10
1370.1490327051461
 20
1333.2079723042061
 11
1370.2341217132748
 21
1332.82993326628
  0
LINE
  8
_0-9_EL-M4010N_______12
  6
CONTINUOUS
 62
    7
 10
1311.978134124392
 20
1419.186617113653
 11
1312.275438224473
 21
1418.6033299711121
  0
LINE
  8
_0-9_EL-M4010N_______12
  6
CONTINUOUS
 62
    7
 10
1330.1306475952629
 20
1405.588858150983
 11
1330.4279516953457
 21
1405.0055710084421
  0
LINE
  8
_0-7_EL-M4010N_______4
  6
CONTINUOUS
 62
    7
 10
1339.2171134200098
 20
1397.84575616554
 11
1339.4513182401438
 21
1396.8604008987641
  0
LINE
  8
_0-7_EL-M4010N_______4
  6
CONTINUOUS
 62
    7
 10
1339.4513182401438
 20
1396.8604008987641
 11
1339.3678913422277
 21
1395.7906987935689
  0
LINE
  8
_0-7_EL-M4010N_______4
  6
CONTINUOUS
 62
    7
 10
1339.3678913422277
 20
1395.7906987935689
 11
1338.9777425042898
 21
1394.7451536078029
  0
LINE
  8
_0-7_EL-M4010N_______4
  6
CONTINUOUS
 62
    7
 10
1338.9777425042898
 20
1394.7451536078029
 11
1338.315533874938
 21
1393.8160605180642
  0
LINE
  8
_0-7_EL-M4010N_______4
  6
CONTINUOUS
 62
    7
 10
1338.315533874938
 20
1393.8160605180642
 11
1337.433203771935
 21
1393.090112134048
  0
LINE
  8
_0-7_EL-M4010N_______4
  6
CONTINUOUS
 62
    7
 10
1337.433203771935
 20
1393.090112134048
 11
1336.4244925970838
 21
1392.653830279155
  0
LINE
  8
_0-7_EL-M4010N_______4
  6
CONTINUOUS
 62
    7
 10
1331.9181402359168
 20
1402.4783995827338
 11
1331.6920023501198
 21
1403.4666113749122
  0
LINE
  8
_0-7_EL-M4010N_______4
  6
CONTINUOUS
 62
    7
 10
1331.6920023501198
 20
1403.4666113749122
 11
1331.1734306224689
 21
1404.27294355498
  0
LINE
  8
_0-9_EL-M4010N_______12
  6
CONTINUOUS
 62
    7
 10
1311.8441670758407
 20
1419.857435908666
 11
1311.978134124392
 21
1419.186617113653
  0
LINE
  8
_0-9_EL-M4010N_______12
  6
CONTINUOUS
 62
    7
 10
1329.996680547476
 20
1406.259676945996
 11
1330.1306475952629
 21
1405.588858150983
  0
LINE
  8
_0-b_EL-M4010N_______3
  6
CONTINUOUS
 62
    7
 10
1392.8740295507168
 20
1360.0787401719099
 11
1393.1826203216478
 21
1355.6288148807698
  0
LINE
  8
_0-b_EL-M4010N_______3
  6
CONTINUOUS
 62
    7
 10
1394.3319732299469
 20
1355.0065673190702
 11
1394.0408437461679
 21
1359.204698227084
  0
LINE
  8
_0-a_EL-M4010N_______13
  6
CONTINUOUS
 62
    7
 10
1395.2076579416166
 20
1358.330656281496
 11
1395.3380056273268
 21
1356.4510230694718
  0
LINE
  8
_0-a_EL-M4010N_______13
  6
CONTINUOUS
 62
    7
 10
1396.4243754721087
 20
1356.737000747451
 11
1396.3744721378289
 21
1357.4566143359079
  0
LINE
  8
_0-c_EL-M4010N_______2
  6
CONTINUOUS
 62
    7
 10
1397.8102125482828
 20
1352.0711022428441
 11
1397.7471877081148
 21
1353.036243347356
  0
LINE
  8
_0-5________-2___M4
  6
CONTINUOUS
 62
    7
 10
1370.2341217132748
 20
1332.82993326628
 11
1370.2370983976948
 21
1332.7288707287562
  0
LINE
  8
_0-5________-2___M4
  6
CONTINUOUS
 62
    7
 10
1370.2370983976948
 20
1332.7288707287562
 11
1370.138288348935
 21
1332.2397756025539
  0
LINE
  8
_0-5________-2___M4
  6
CONTINUOUS
 62
    7
 10
1370.138288348935
 20
1332.2397756025539
 11
1369.8553944003738
 21
1331.7524674844622
  0
LINE
  8
_0-5________-2___M4
  6
CONTINUOUS
 62
    7
 10
1369.8553944003738
 20
1331.7524674844622
 11
1369.3953520176919
 21
1331.27865609325
  0
LINE
  8
_0-5________-2___M4
  6
CONTINUOUS
 62
    7
 10
1369.3953520176919
 20
1331.27865609325
 11
1368.76909335962
 21
1330.8297466433442
  0
LINE
  8
_0-5________-2___M4
  6
CONTINUOUS
 62
    7
 10
1368.76909335962
 20
1330.8297466433442
 11
1367.9913367205709
 21
1330.4166110307028
  0
LINE
  8
_0-5________-2___M4
  6
CONTINUOUS
 62
    7
 10
1367.9913367205709
 20
1330.4166110307028
 11
1367.080314015061
 21
1330.049366083203
  0
LINE
  8
_0-5________-2___M4
  6
CONTINUOUS
 62
    7
 10
1367.080314015061
 20
1330.049366083203
 11
1366.0574379383897
 21
1329.737161154655
  0
LINE
  8
_0-b_EL-M4010N_______3
  6
CONTINUOUS
 62
    7
 10
1393.1826203216478
 20
1355.6288148807698
 11
1393.144827848846
 21
1354.912781844208
  0
LINE
  8
_0-b_EL-M4010N_______3
  6
CONTINUOUS
 62
    7
 10
1393.144827848846
 20
1354.912781844208
 11
1392.9376323480737
 21
1354.1966894463221
  0
LINE
  8
_0-b_EL-M4010N_______3
  6
CONTINUOUS
 62
    7
 10
1392.9376323480737
 20
1354.1966894463221
 11
1392.5742111219079
 21
1353.5260800298602
  0
LINE
  8
_0-b_EL-M4010N_______3
  6
CONTINUOUS
 62
    7
 10
1405.8963675501859
 20
1347.087471866716
 11
1405.8129406515077
 21
1346.0177697615222
  0
LINE
  8
_0-b_EL-M4010N_______3
  6
CONTINUOUS
 62
    7
 10
1405.8129406515077
 20
1346.0177697615222
 11
1405.422791814332
 21
1344.972224574994
  0
LINE
  8
_0-b_EL-M4010N_______3
  6
CONTINUOUS
 62
    7
 10
1405.422791814332
 20
1344.972224574994
 11
1404.7605831842179
 21
1344.0431314860161
  0
LINE
  8
_0-b_EL-M4010N_______3
  6
CONTINUOUS
 62
    7
 10
1404.7605831842179
 20
1344.0431314860161
 11
1403.8782530819767
 21
1343.3171831019999
  0
LINE
  8
_0-b_EL-M4010N_______3
  6
CONTINUOUS
 62
    7
 10
1403.8782530819767
 20
1343.3171831019999
 11
1402.8695419071259
 21
1342.880901247107
  0
LINE
  8
_0-a_EL-M4010N_______13
  6
CONTINUOUS
 62
    7
 10
1415.46724755266
 20
1341.1762236732338
 11
1416.1365928682708
 21
1340.40759323158
  0
LINE
  8
_0-a_EL-M4010N_______13
  6
CONTINUOUS
 62
    7
 10
1416.1365928682708
 20
1340.40759323158
 11
1416.4818973120268
 21
1339.4106143284121
  0
LINE
  8
_0-a_EL-M4010N_______13
  6
CONTINUOUS
 62
    7
 10
1416.4818973120268
 20
1339.4106143284121
 11
1416.4750714912871
 21
1338.2953272496179
  0
LINE
  8
_0-a_EL-M4010N_______13
  6
CONTINUOUS
 62
    7
 10
1416.4750714912871
 20
1338.2953272496179
 11
1416.1212750429258
 21
1337.1788842267301
  0
LINE
  8
_0-a_EL-M4010N_______13
  6
CONTINUOUS
 62
    7
 10
1416.1212750429258
 20
1337.1788842267301
 11
1415.4572384426287
 21
1336.177192251454
  0
LINE
  8
_0-a_EL-M4010N_______13
  6
CONTINUOUS
 62
    7
 10
1415.4572384426287
 20
1336.177192251454
 11
1414.5487323366078
 21
1335.3969272897621
  0
LINE
  8
_0-a_EL-M4010N_______13
  6
CONTINUOUS
 62
    7
 10
1414.5487323366078
 20
1335.3969272897621
 11
1413.4870497861139
 21
1334.9274950614949
  0
LINE
  8
_0-a_EL-M4010N_______13
  6
CONTINUOUS
 62
    7
 10
1433.6197610235308
 20
1327.5784647105638
 11
1434.2891063391439
 21
1326.80983426891
  0
LINE
  8
_0-a_EL-M4010N_______13
  6
CONTINUOUS
 62
    7
 10
1434.2891063391439
 20
1326.80983426891
 11
1434.6344107829
 21
1325.8128553665042
  0
LINE
  8
_0-a_EL-M4010N_______13
  6
CONTINUOUS
 62
    7
 10
1434.6344107829
 20
1325.8128553665042
 11
1434.6275849621588
 21
1324.6975682877101
  0
LINE
  8
_0-a_EL-M4010N_______13
  6
CONTINUOUS
 62
    7
 10
1434.6275849621588
 20
1324.6975682877101
 11
1434.2737885145589
 21
1323.5811252640601
  0
LINE
  8
_0-a_EL-M4010N_______13
  6
CONTINUOUS
 62
    7
 10
1434.2737885145589
 20
1323.5811252640601
 11
1433.609751913501
 21
1322.579433288784
  0
LINE
  8
_0-a_EL-M4010N_______13
  6
CONTINUOUS
 62
    7
 10
1433.609751913501
 20
1322.579433288784
 11
1432.7012458082409
 21
1321.799168327092
  0
LINE
  8
_0-a_EL-M4010N_______13
  6
CONTINUOUS
 62
    7
 10
1432.7012458082409
 20
1321.799168327092
 11
1431.6395632577478
 21
1321.3297360988249
  0
LINE
  8
_0-b_EL-M4010N_______3
  6
CONTINUOUS
 62
    7
 10
1398.1370516593997
 20
1353.6936823428641
 11
1397.6184799325119
 21
1354.500014522931
  0
LINE
  8
_0-b_EL-M4010N_______3
  6
CONTINUOUS
 62
    7
 10
1397.6184799325119
 20
1354.500014522931
 11
1397.2957439826068
 21
1354.787658425163
  0
LINE
  8
_0-c_EL-M4010N_______2
  6
CONTINUOUS
 62
    7
 10
1397.7471877081148
 20
1353.036243347356
 11
1397.3664614680461
 21
1353.8593866548381
  0
LINE
  8
_0-c_EL-M4010N_______2
  6
CONTINUOUS
 62
    7
 10
1397.3664614680461
 20
1353.8593866548381
 11
1396.7156807584338
 21
1354.441383359524
  0
LINE
  8
_0-a_EL-M4010N_______13
  6
CONTINUOUS
 62
    7
 10
1402.8873603573907
 20
1350.5997535579122
 11
1402.873011219212
 21
1350.806670293176
  0
LINE
  8
_0-a_EL-M4010N_______13
  6
CONTINUOUS
 62
    7
 10
1403.959381063994
 20
1351.092647970394
 11
1403.9767354486398
 21
1350.8423951384138
  0
LINE
  8
_0-a_EL-M4010N_______13
  6
CONTINUOUS
 62
    7
 10
1414.594243328389
 20
1342.8889889528018
 11
1414.5768889437427
 21
1343.1392417847819
  0
LINE
  8
_0-a_EL-M4010N_______13
  6
CONTINUOUS
 62
    7
 10
1421.0398738290251
 20
1337.0019945952422
 11
1421.0255246900829
 21
1337.208911330506
  0
LINE
  8
_0-a_EL-M4010N_______13
  6
CONTINUOUS
 62
    7
 10
1422.1118945356279
 20
1337.4948890084861
 11
1422.1292489202729
 21
1337.244636176506
  0
LINE
  8
_0-a_EL-M4010N_______13
  6
CONTINUOUS
 62
    7
 10
1432.7467567992608
 20
1329.291229990894
 11
1432.7294024146158
 21
1329.5414828228741
  0
LINE
  8
_0-b_EL-M4010N_______3
  6
CONTINUOUS
 62
    7
 10
1424.0488810210568
 20
1333.489712904046
 11
1423.9654541231407
 21
1332.420010799613
  0
LINE
  8
_0-b_EL-M4010N_______3
  6
CONTINUOUS
 62
    7
 10
1423.9654541231407
 20
1332.420010799613
 11
1423.5753052852028
 21
1331.3744656130862
  0
LINE
  8
_0-b_EL-M4010N_______3
  6
CONTINUOUS
 62
    7
 10
1423.5753052852028
 20
1331.3744656130862
 11
1422.9130966558519
 21
1330.4453725233461
  0
LINE
  8
_0-b_EL-M4010N_______3
  6
CONTINUOUS
 62
    7
 10
1422.9130966558519
 20
1330.4453725233461
 11
1422.0307665536106
 21
1329.7194241400921
  0
LINE
  8
_0-b_EL-M4010N_______3
  6
CONTINUOUS
 62
    7
 10
1422.0307665536106
 20
1329.7194241400921
 11
1421.0220553779968
 21
1329.283142284437
  0
LINE
  8
_0-a_EL-M4010N_______13
  6
CONTINUOUS
 62
    7
 10
1414.7282103769398
 20
1342.218170157028
 11
1415.0255144770208
 21
1341.634883013724
  0
LINE
  8
_0-a_EL-M4010N_______13
  6
CONTINUOUS
 62
    7
 10
1432.8807238478107
 20
1328.620411194358
 11
1433.1780279486557
 21
1328.0371240518161
  0
LINE
  8
_0-a_EL-M4010N_______13
  6
CONTINUOUS
 62
    7
 10
1414.594243328389
 20
1342.8889889543261
 11
1414.7282103769398
 21
1342.218170157028
  0
LINE
  8
_0-a_EL-M4010N_______13
  6
CONTINUOUS
 62
    7
 10
1432.7467567992608
 20
1329.2912299916561
 11
1432.8807238478107
 21
1328.620411194358
  0
LINE
  8
_0-b_EL-M4010N_______3
  6
CONTINUOUS
 62
    7
 10
1438.0112239662676
 20
1324.485194313424
 11
1438.0255731044467
 21
1324.2782775781602
  0
LINE
  8
_0-a_EL-M4010N_______13
  6
CONTINUOUS
 62
    7
 10
1440.2145046714568
 20
1324.6167436342721
 11
1440.2644080064988
 21
1323.8971300458161
  0
LINE
  8
_0-5________-2___M4
  6
CONTINUOUS
 62
    7
 10
1444.523051156455
 20
1321.3892800292679
 11
1444.717909276771
 21
1318.579396649553
  0
LINE
  8
_0-5________-2___M4
  6
CONTINUOUS
 62
    7
 10
1444.9619377765207
 20
1317.5679839050481
 11
1444.706468809939
 21
1321.2518847831029
  0
LINE
  8
_0-4__B______3
  6
CONTINUOUS
 62
    7
 10
1444.5648983508909
 20
1467.0649417497521
 11
1454.9351482948819
 21
1317.5243792002839
  0
LINE
  8
_0-4__B______3
  6
CONTINUOUS
 62
    7
 10
1455.1300119175999
 20
1317.2219313639821
 11
1444.7597619736098
 21
1466.762493914212
  0
LINE
  8
_0-5________-2___M4
  6
CONTINUOUS
 62
    7
 10
1444.9619363820607
 20
1317.5680040066081
 11
1444.9682464720568
 21
1317.353813578246
  0
LINE
  8
_0-5________-2___M4
  6
CONTINUOUS
 62
    7
 10
1444.9682464720568
 20
1317.353813578246
 11
1444.9036452055279
 21
1316.8390866945701
  0
LINE
  8
_0-4__B______3
  6
CONTINUOUS
 62
    7
 10
1454.9351482948819
 20
1317.5243792002839
 11
1454.9095558505119
 21
1317.0781200046658
  0
LINE
  8
_0-4__B______3
  6
CONTINUOUS
 62
    7
 10
1454.9095558505119
 20
1317.0781200046658
 11
1454.7746560255687
 21
1316.633039276338
  0
LINE
  8
_0-4__B______3
  6
CONTINUOUS
 62
    7
 10
1454.7746560255687
 20
1316.633039276338
 11
1454.5396420178226
 21
1316.2194685319801
  0
LINE
  8
_0-4__B______3
  6
CONTINUOUS
 62
    7
 10
1454.5396420178226
 20
1316.2194685319801
 11
1454.2205296461439
 21
1315.8655919334101
  0
LINE
  8
_0-4__B______3
  6
CONTINUOUS
 62
    7
 10
1454.2205296461439
 20
1315.8655919334101
 11
1453.8390658891331
 21
1315.595525587335
  0
LINE
  8
_0-4__B______3
  6
CONTINUOUS
 62
    7
 10
1453.8390658891331
 20
1315.595525587335
 11
1453.4212468720939
 21
1315.427674067565
  0
LINE
  8
_0-4__B______3
  6
CONTINUOUS
 62
    7
 10
1274.9587724833036
 20
1594.1141915267922
 11
1444.5648983508909
 21
1467.0649417497521
  0
LINE
  8
_0-4__B______3
  6
CONTINUOUS
 62
    7
 10
1444.0317654052219
 20
1468.0996584735581
 11
1274.4256395376328
 21
1595.148908249836
  0
LINE
  8
_0-4__B______3
  6
CONTINUOUS
 62
    7
 10
1444.0317654052219
 20
1468.0996584735581
 11
1444.3162396000507
 21
1467.8349896744739
  0
LINE
  8
_0-4__B______3
  6
CONTINUOUS
 62
    7
 10
1444.3162396000507
 20
1467.8349896744739
 11
1444.5397849233427
 21
1467.5136297342628
  0
LINE
  8
_0-4__B______3
  6
CONTINUOUS
 62
    7
 10
1444.5397849233427
 20
1467.5136297342628
 11
1444.6903528109297
 21
1467.1502242479701
  0
LINE
  8
_0-4__B______3
  6
CONTINUOUS
 62
    7
 10
1444.0317654052219
 20
1468.0996584735581
 11
1444.2887527360508
 21
1467.8413404415542
  0
LINE
  8
_0-4__B______3
  6
CONTINUOUS
 62
    7
 10
1444.2887527360508
 20
1467.8413404415542
 11
1444.4794393300399
 21
1467.481967585752
  0
LINE
  8
_0-4__B______3
  6
CONTINUOUS
 62
    7
 10
1444.4794393300399
 20
1467.481967585752
 11
1444.5648983508909
 21
1467.0649417497521
  0
LINE
  8
_0-5________-2___M4
  6
CONTINUOUS
 62
    7
 10
1444.717909276771
 20
1318.579396649553
 11
1444.9103709505207
 21
1317.947851624102
  0
LINE
  8
_0-5________-2___M4
  6
CONTINUOUS
 62
    7
 10
1444.9103709505207
 20
1317.947851624102
 11
1444.9619363820607
 21
1317.5680040066081
  0
LINE
  8
_0-4__B______3
  6
CONTINUOUS
 62
    7
 10
1455.1300119175999
 20
1317.2219313639821
 11
1455.0923719758607
 21
1317.350395320922
  0
LINE
  8
_0-4__B______3
  6
CONTINUOUS
 62
    7
 10
1455.0923719758607
 20
1317.350395320922
 11
1454.9351482948819
 21
1317.5243792002839
  0
LINE
  8
_0-4__B______3
  6
CONTINUOUS
 62
    7
 10
1444.5648983508909
 20
1467.0649417497521
 11
1444.7221220311098
 21
1466.8909578703901
  0
LINE
  8
_0-4__B______3
  6
CONTINUOUS
 62
    7
 10
1444.7221220311098
 20
1466.8909578703901
 11
1444.7597619736098
 21
1466.762493914212
  0
LINE
  8
_0-4__B______3
  6
CONTINUOUS
 62
    7
 10
1444.6903528109297
 20
1467.1502242479701
 11
1444.7597619736098
 21
1466.762493914212
  0
INSERT
  2
-000-SPECel-m6010nxaj004
  8
_0-0_0
 10
2948.9292393715295
 20
-77.44638293531608
 41
1
 42
1
 50
0
  0
ENDSEC
  0
EOF
