  0
SECTION
  2
HEADER
  9
$ACADVER
  1
AC1009
  9
$DWGCODEPAGE
  3
dos932
  9
$INSBASE
 10
0
 20
0
 30
0
  9
$EXTMIN
 10
-3.0466332221965926
 20
-8.0953276713580884
 30
0
  9
$EXTMAX
 10
140.80882591541374
 20
82.98789163161284
 30
0
  9
$LIMMIN
 10
0
 20
0
  9
$LIMMAX
 10
105.125
 20
74.25
  9
$SNAPMODE
 70
0
  9
$SNAPUNIT
 10
1
 20
1
  9
$SNAPBASE
 10
0
 20
0
  9
$SNAPANG
 50
0
  9
$SNAPSTYLE
 70
0
  9
$SNAPISOPAIR
 70
0
  9
$ORTHOMODE
 70
0
  9
$REGENMODE
 70
1
  9
$FILLMODE
 70
1
  9
$QTEXTMODE
 70
0
  9
$MIRRTEXT
 70
0
  9
$LTSCALE
 40
0.125
  9
$OSMODE
 70
37
  9
$ATTMODE
 70
1
  9
$TEXTSIZE
 40
0.2
  9
$TRACEWID
 40
0.05
  9
$TEXTSTYLE
  7
STANDARD
  9
$CLAYER
  8
0
  9
$CELTYPE
  6
CONTINUOUS
  9
$CECOLOR
 62
256
  9
$DIMSCALE
 40
1
  9
$DIMASZ
 40
0.18
  9
$DIMEXO
 40
0.0625
  9
$DIMDLI
 40
0.38
  9
$DIMRND
 40
0
  9
$DIMDLE
 40
0
  9
$DIMEXE
 40
0.18
  9
$DIMTP
 40
0
  9
$DIMTM
 40
0
  9
$DIMTXT
 40
0.18
  9
$DIMCEN
 40
0.09
  9
$DIMTSZ
 40
0
  9
$DIMTOL
 70
0
  9
$DIMLIM
 70
0
  9
$DIMTIH
 70
1
  9
$DIMTOH
 70
1
  9
$DIMSE1
 70
0
  9
$DIMSE2
 70
0
  9
$DIMTAD
 70
0
  9
$DIMZIN
 70
0
  9
$DIMBLK
  1

  9
$DIMASO
 70
1
  9
$DIMSHO
 70
1
  9
$DIMPOST
  1

  9
$DIMAPOST
  1

  9
$DIMALT
 70
0
  9
$DIMALTD
 70
2
  9
$DIMALTF
 40
25.4
  9
$DIMLFAC
 40
1
  9
$DIMTOFL
 70
0
  9
$DIMTVP
 40
0
  9
$DIMTIX
 70
0
  9
$DIMSOXD
 70
0
  9
$DIMSAH
 70
0
  9
$DIMBLK1
  1

  9
$DIMBLK2
  1

  9
$DIMSTYLE
  2
STANDARD
  9
$DIMCLRD
 70
0
  9
$DIMCLRE
 70
0
  9
$DIMCLRT
 70
0
  9
$DIMTFAC
 40
1
  9
$DIMGAP
 40
0.09
  9
$LUNITS
 70
2
  9
$LUPREC
 70
4
  9
$SKETCHINC
 40
0.1
  9
$FILLETRAD
 40
0
  9
$AUNITS
 70
0
  9
$AUPREC
 70
0
  9
$MENU
  1
.
  9
$ELEVATION
 40
0
  9
$PELEVATION
 40
0
  9
$THICKNESS
 40
0
  9
$LIMCHECK
 70
0
  9
$CHAMFERA
 40
0
  9
$CHAMFERB
 40
0
  9
$SKPOLY
 70
0
  9
$TDCREATE
 40
2456622.5523805902
  9
$TDUPDATE
 40
2457206.3975945488
  9
$TDINDWG
 40
0.038361851851851855
  9
$TDUSRTIMER
 40
0.038361851851851855
  9
$USRTIMER
 70
1
  9
$ANGBASE
 50
0
  9
$ANGDIR
 70
0
  9
$PDMODE
 70
0
  9
$PDSIZE
 40
0
  9
$PLINEWID
 40
0
  9
$SPLFRAME
 70
0
  9
$SPLINETYPE
 70
6
  9
$SPLINESEGS
 70
8
  9
$HANDLING
 70
1
  9
$HANDSEED
  5
10474
  9
$SURFTAB1
 70
6
  9
$SURFTAB2
 70
6
  9
$SURFTYPE
 70
6
  9
$SURFU
 70
6
  9
$SURFV
 70
6
  9
$UCSORG
 10
0
 20
0
 30
0
  9
$UCSXDIR
 10
1
 20
0
 30
0
  9
$UCSYDIR
 10
0
 20
1
 30
0
  9
$PUCSORG
 10
0
 20
0
 30
0
  9
$PUCSXDIR
 10
1
 20
0
 30
0
  9
$PUCSYDIR
 10
0
 20
1
 30
0
  9
$USERI1
 70
0
  9
$USERI2
 70
0
  9
$USERI3
 70
0
  9
$USERI4
 70
0
  9
$USERI5
 70
0
  9
$USERR1
 40
0
  9
$USERR2
 40
0
  9
$USERR3
 40
0
  9
$USERR4
 40
0
  9
$USERR5
 40
0
  9
$WORLDVIEW
 70
1
  9
$SHADEDGE
 70
3
  9
$SHADEDIF
 70
70
  9
$TILEMODE
 70
1
  9
$MAXACTVP
 70
64
  9
$PINSBASE
 10
0
 20
0
 30
0
  9
$PLIMCHECK
 70
0
  9
$PEXTMIN
 10
1E+20
 20
1E+20
 30
1E+20
  9
$PEXTMAX
 10
-1E+20
 20
-1E+20
 30
-1E+20
  9
$PLIMMAX
 10
12
 20
9
  9
$PLIMMIN
 10
0
 20
0
  9
$UNITMODE
 70
0
  9
$VISRETAIN
 70
1
  9
$PLINEGEN
 70
0
  9
$PSLTSCALE
 70
1
  9
$TREEDEPTH
 70
3020
  9
$DRAGMODE
 70
     2
  9
$BLIPMODE
 70
     0
  9
$COORDS
 70
     1
  9
$ATTDIA
 70
     0
  9
$ATTREQ
 70
     1
  0
ENDSEC
  0
SECTION
  2
TABLES
  0
TABLE
  2
VPORT
  5
10466
 70
1
  0
VPORT
  5
1043A
  2
*ACTIVE
 70
0
 10
0
 20
0
 11
1
 21
1
 12
72.679349566905231
 22
46.893184900121682
 13
0
 23
0
 14
1
 24
1
 15
0
 25
0
 16
0
 26
0
 36
1
 17
0
 27
0
 37
0
 40
163.4437210495656
 41
1.618968386023294
 42
50
 43
0
 44
0
 50
0
 51
0
 71
0
 72
100
 73
1
 74
1
 75
0
 76
0
 77
0
 78
0
  0
ENDTAB
  0
TABLE
  2
LTYPE
  5
10467
 70
40
  0
LTYPE
  5
10410
  2
CONTINUOUS
  3
実線
 70
0
 72
65
 73
0
 40
0
  0
LTYPE
  5
10411
  2
DASHED1
  3
--  --  --  --  --  --  --  --  
 70
0
 72
65
 73
2
 40
2.5
 49
1.25
 49
-1.25
  0
LTYPE
  5
10412
  2
DASHED2
  3
----    ----    ----    ----    
 70
0
 72
65
 73
2
 40
5
 49
2.5
 49
-2.5
  0
LTYPE
  5
10413
  2
DASHED3
  3
------  ------  ------  ------  
 70
0
 72
65
 73
2
 40
5
 49
3.75
 49
-1.25
  0
LTYPE
  5
10414
  2
CENTER1
  3
----- - ----- - ----- - ----- - 
 70
0
 72
65
 73
4
 40
10
 49
6.25
 49
-1.25
 49
1.25
 49
-1.25
  0
LTYPE
  5
10415
  2
CENTER2
  3
----------  --  ----------  --  
 70
0
 72
65
 73
4
 40
20
 49
12.5
 49
-2.5
 49
2.5
 49
-2.5
  0
LTYPE
  5
10416
  2
PHANTOM1
  3
--- - - --- - - --- - - --- - - 
 70
0
 72
65
 73
6
 40
9.5
 49
3.25
 49
-1.25
 49
1.25
 49
-1.25
 49
1.25
 49
-1.25
  0
LTYPE
  5
10417
  2
PHANTOM2
  3
--------  -  -  --------  -  -  
 70
0
 72
65
 73
6
 40
20
 49
10
 49
-2.5
 49
1.25
 49
-2.5
 49
1.25
 49
-2.5
  0
LTYPE
  5
10418
  2
DOT
  3
-   -   -   -   -   -   -   -   
 70
0
 72
65
 73
2
 40
2.5
 49
0.625
 49
-1.875
  0
LTYPE
  5
10419
  2
DUMMY
  3
ダミー
 70
0
 72
65
 73
0
 40
0
  0
LTYPE
  5
1041A
  2
RAND1
  3
ランダム線1
 70
0
 72
65
 73
4
 40
10
 49
1
 49
-2
 49
3
 49
-4
  0
LTYPE
  5
1041B
  2
RAND2
  3
ランダム線2
 70
0
 72
65
 73
4
 40
14
 49
2
 49
-3
 49
4
 49
-5
  0
LTYPE
  5
1041C
  2
RAND3
  3
ランダム線3
 70
0
 72
65
 73
4
 40
18
 49
3
 49
-4
 49
5
 49
-6
  0
LTYPE
  5
1041D
  2
RAND4
  3
ランダム線4
 70
0
 72
65
 73
4
 40
22
 49
4
 49
-5
 49
6
 49
-7
  0
LTYPE
  5
1041E
  2
RAND5
  3
ランダム線5
 70
0
 72
65
 73
4
 40
26
 49
5
 49
-6
 49
7
 49
-8
  0
LTYPE
  5
1041F
  2
LONG1
  3
----------  --  ----------  --  
 70
0
 72
65
 73
4
 40
40
 49
32.5
 49
-2.5
 49
2.5
 49
-2.5
  0
LTYPE
  5
10420
  2
LONG2
  3
--------  -  -  --------  -  -  
 70
0
 72
65
 73
6
 40
40
 49
30
 49
-2.5
 49
1.25
 49
-2.5
 49
1.25
 49
-2.5
  0
LTYPE
  5
10421
  2
LONG3
  3
+++++++++++++++..+++++++++++++++
 70
0
 72
65
 73
2
 40
40
 49
37.5
 49
-2.5
  0
LTYPE
  5
10422
  2
LONG4
  3
+++++++++++++++..+++++++++++++++
 70
0
 72
65
 73
2
 40
80
 49
75
 49
-5
  0
LTYPE
  5
10423
  2
LONG5
  3
----------  --  ----------  --  
 70
0
 72
65
 73
4
 40
60
 49
37.5
 49
-7.5
 49
7.5
 49
-7.5
  0
LTYPE
  5
10424
  2
DASHED
  3
-------   -------------   ------
 70
0
 72
65
 73
2
 40
3.8
 49
3
 49
-0.8
  0
LTYPE
  5
10425
  2
DASHED_SPACED
  3
----        --------        ----
 70
0
 72
65
 73
2
 40
12
 49
6
 49
-6
  0
LTYPE
  5
10426
  2
LONG_DASHED_DOTTED
  3
------------- --- --------------
 70
0
 72
65
 73
4
 40
15.25
 49
12
 49
-1.5
 49
0.25
 49
-1.5
  0
LTYPE
  5
10427
  2
LONG_DASHED_DOUBLE-DOTTED
  3
----------- --- --- ------------
 70
0
 72
65
 73
6
 40
17
 49
12
 49
-1.5
 49
0.25
 49
-1.5
 49
0.25
 49
-1.5
  0
LTYPE
  5
10428
  2
LONG_DASHED_TRIPLICATE-DOT
  3
--------- --- --- --- ----------
 70
0
 72
65
 73
8
 40
18.75
 49
12
 49
-1.5
 49
0.25
 49
-1.5
 49
0.25
 49
-1.5
 49
0.25
 49
-1.5
  0
LTYPE
  5
10429
  2
DOTTED
  3
   -       -       -       -    
 70
0
 72
65
 73
2
 40
1.75
 49
0.25
 49
-1.5
  0
LTYPE
  5
1042A
  2
CHAIN
  3
-------------- -- --------------
 70
0
 72
65
 73
4
 40
18.5
 49
12
 49
-1.5
 49
3.5
 49
-1.5
  0
LTYPE
  5
1042B
  2
CHAIN_DOUBLE_DASH
  3
------------ -- -- -------------
 70
0
 72
65
 73
6
 40
23.5
 49
12
 49
-1.5
 49
3.5
 49
-1.5
 49
3.5
 49
-1.5
  0
LTYPE
  5
1042C
  2
DASHED_DOTTED
  3
-----------     -     ----------
 70
0
 72
65
 73
4
 40
9.25
 49
6
 49
-1.5
 49
0.25
 49
-1.5
  0
LTYPE
  5
1042D
  2
DOUBLE-DASHED_DOTTED
  3
------   -----------   -   -----
 70
0
 72
65
 73
6
 40
16.75
 49
6
 49
-1.5
 49
6
 49
-1.5
 49
0.25
 49
-1.5
  0
LTYPE
  5
1042E
  2
DASHED_DOUBLE-DOTTED
  3
---------    -    -    ---------
 70
0
 72
65
 73
6
 40
11
 49
6
 49
-1.5
 49
0.25
 49
-1.5
 49
0.25
 49
-1.5
  0
LTYPE
  5
1042F
  2
DOUBLE-DASHED_DOUBLE-DOTTE
  3
-----   ---------   -   -   ----
 70
0
 72
65
 73
8
 40
18.5
 49
6
 49
-1.5
 49
6
 49
-1.5
 49
0.25
 49
-1.5
 49
0.25
 49
-1.5
  0
LTYPE
  5
10430
  2
DASHED_TRIPLICATE-DOTTED
  3
-------    -    -    -    ------
 70
0
 72
65
 73
8
 40
12.75
 49
6
 49
-1.5
 49
0.25
 49
-1.5
 49
0.25
 49
-1.5
 49
0.25
 49
-1.5
  0
LTYPE
  5
10431
  2
DOUBLE-DASHED_TRIPLICATE-D
  3
-----  ---------  -  -  -  -----
 70
0
 72
65
 73
10
 40
20.25
 49
6
 49
-1.5
 49
6
 49
-1.5
 49
0.25
 49
-1.5
 49
0.25
 49
-1.5
 49
0.25
 49
-1.5
  0
LTYPE
  5
10432
  2
UNDEFINED
  3
--------------------------------
 70
0
 72
65
 73
0
 40
0
  0
LTYPE
  5
10433
  2
DOT_18
  3
----        --------        ----
 70
0
 72
65
 73
2
 40
2
 49
1
 49
-1
  0
LTYPE
  5
10434
  2
DASHDOT
  3
------------   --   ------------
 70
0
 72
65
 73
4
 40
25.6
 49
20
 49
-2
 49
1.6
 49
-2
  0
LTYPE
  5
10435
  2
DIVIDE
  3
-----------  --  --  -----------
 70
0
 72
65
 73
6
 40
31.199999999999996
 49
20
 49
-2.399999999999999
 49
2
 49
-2.399999999999999
 49
2
 49
-2.399999999999999
  0
LTYPE
  5
10436
  2
ByBlock
  3

 70
64
 72
65
 73
0
 40
0
  0
LTYPE
  5
10437
  2
ByLayer
  3

 70
64
 72
65
 73
0
 40
0
  0
ENDTAB
  0
TABLE
  2
LAYER
  5
10468
 70
2
  0
LAYER
  5
103F9
 70
0
  2
0
 62
7
  6
CONTINUOUS
  0
LAYER
  5
103FA
 70
0
  2
SPEC
 62
7
  6
CONTINUOUS
  0
ENDTAB
  0
TABLE
  2
STYLE
  5
10469
 70
3
  0
STYLE
  5
1040D
  2
STANDARD
 70
0
 40
0
 41
1
 50
0
 71
0
 42
0.2
  3
txt.shx
  4
extfont2.shx
  0
STYLE
  5
1040E
  2
ANNOTATIVE
 70
0
 40
0
 41
1
 50
0
 71
0
 42
0.2
  3
txt
  0
STYLE
  5
1040F
  2
TATEGAKI
 70
4
 40
0
 41
1
 50
0
 71
0
 42
1
  3
txt
  4
bigfont.shx
  0
ENDTAB
  0
TABLE
  2
APPID
  5
1046C
 70
4
  0
APPID
  5
1046D
  2
ACAD
 70
0
  0
APPID
  5
10470
  2
ACADANNOTATIVE
 70
0
  0
APPID
  5
10471
  2
ACAD_MLEADERVER
 70
0
  0
APPID
  5
10472
  2
ACAD_EXEMPT_FROM_CAD_STANDARDS
 70
0
  0
ENDTAB
  0
TABLE
  2
DIMSTYLE
  5
1046E
 70
2
  0
DIMSTYLE
105
10438
  2
STANDARD
 70
0
  3

  4

  5

  6

  7

 40
1
 41
0.18
 42
0.0625
 43
0.38
 44
0.18
 45
0
 46
0
 47
0
 48
0
140
0.18
141
0.09
142
0
143
25.4
144
1
145
0
146
1
147
0.09
 71
0
 72
0
 73
1
 74
1
 75
0
 76
0
 77
0
 78
0
170
0
171
2
172
0
173
0
174
0
175
0
176
0
177
0
178
0
  0
DIMSTYLE
105
10439
  2
ANNOTATIVE
 70
0
  3

  4

  5

  6

  7

 40
1
 41
0.18
 42
0.0625
 43
0.38
 44
0.18
 45
0
 46
0
 47
0
 48
0
140
0.18
141
0.09
142
0
143
25.4
144
1
145
0
146
1
147
0.09
 71
0
 72
0
 73
1
 74
1
 75
0
 76
0
 77
0
 78
0
170
0
171
2
172
0
173
0
174
0
175
0
176
0
177
0
178
0
  0
ENDTAB
  0
ENDSEC
  0
SECTION
  2
BLOCKS
  0
BLOCK
  5
103FC
  8
0
  2
$MODEL_SPACE
 70
0
 10
0
 20
0
 30
0
  3
$MODEL_SPACE
  0
ENDBLK
  5
BD8F
  8
0
  0
BLOCK
  5
103FE
  8
0
 67
1
  2
$PAPER_SPACE
 70
0
 10
0
 20
0
 30
0
  3
$PAPER_SPACE
  0
ENDBLK
  5
BD8B
  8
0
  0
BLOCK
  5
10400
  8
0
  2
SPEC_BLOCK
 70
64
 10
0
 20
0
 30
0
  3
SPEC_BLOCK
  0
TEXT
  5
10401
  8
SPEC
 10
0
 20
0
 30
0
 40
1.5
  1
LED 口金:E17
  7
STANDARD
  0
TEXT
  5
10402
  8
SPEC
 10
0
 20
-3
 30
0
 40
1.5
  1
ｾｰﾄﾞ受:鋼板 ﾎﾜｲﾄﾌﾞﾛﾝｽﾞﾒｯｷ仕上
  7
STANDARD
  0
TEXT
  5
10403
  8
SPEC
 10
0
 20
-6
 30
0
 40
1.5
  1
質量:0.4kg
  7
STANDARD
  0
ENDBLK
  5
10404
  8
0
  0
BLOCK
  5
10406
  8
0
  2
*MODEL_SPACE
 70
64
 10
0
 20
0
 30
0
  3
*MODEL_SPACE
  0
ENDBLK
  5
10409
  8
0
  0
BLOCK
  5
1040B
  8
0
 67
1
  2
*PAPER_SPACE
 70
64
 10
0
 20
0
 30
0
  3
*PAPER_SPACE
  0
ENDBLK
  5
1040C
  8
0
  0
ENDSEC
  0
SECTION
  2
ENTITIES
  0
TEXT
  5
A3
  8
0
 62
7
 10
-3.5582294022784482
 20
-7.3750000000000142
 30
0
 40
5
  1
三菱 EL-PE1706CRD
  7
STANDARD
  0
TEXT
  5
A4
  8
0
 62
7
 10
-3.5582294022784482
 20
76.624999999999986
 30
0
 40
5
  1
LEDx1 小形ペンダント
  7
STANDARD
  0
POLYLINE
  5
FFE1
  8
0
 62
7
 66
1
 70
0
 10
0
 20
0
 30
0
  0
VERTEX
  5
FFE2
  8
0
 62
7
 10
43.914572004367
 20
63.085616187291862
 70
0
  0
VERTEX
  5
FFE3
  8
0
 62
7
 10
44.33762972995568
 20
63.212223446374821
 70
0
  0
SEQEND
  5
FFE4
  8
0
  0
POLYLINE
  5
FFE5
  8
0
 62
7
 66
1
 70
0
 10
0
 20
0
 30
0
  0
VERTEX
  5
FFE6
  8
0
 62
7
 10
43.914572004367
 20
63.001383602677492
 70
0
  0
VERTEX
  5
FFE7
  8
0
 62
7
 10
43.914572004367
 20
63.085616187291862
 70
0
  0
SEQEND
  5
FFE8
  8
0
  0
POLYLINE
  5
FFE9
  8
0
 62
7
 66
1
 70
0
 10
0
 20
0
 30
0
  0
VERTEX
  5
FFEA
  8
0
 62
7
 10
43.448795094761223
 20
62.915945234643338
 70
0
  0
VERTEX
  5
FFEB
  8
0
 62
7
 10
43.914572004367
 20
63.001383602677492
 70
0
  0
SEQEND
  5
FFEC
  8
0
  0
POLYLINE
  5
FFED
  8
0
 62
7
 66
1
 70
0
 10
0
 20
0
 30
0
  0
VERTEX
  5
FFEE
  8
0
 62
7
 10
43.448795094761223
 20
62.831884904803239
 70
0
  0
VERTEX
  5
FFEF
  8
0
 62
7
 10
43.448795094761223
 20
62.915945234643338
 70
0
  0
SEQEND
  5
FFF0
  8
0
  0
POLYLINE
  5
FFF1
  8
0
 62
7
 66
1
 70
0
 10
0
 20
0
 30
0
  0
VERTEX
  5
FFF2
  8
0
 62
7
 10
43.448795094761223
 20
62.831884904803239
 70
0
  0
VERTEX
  5
FFF3
  8
0
 62
7
 10
43.406075910744107
 20
62.789337975560393
 70
0
  0
SEQEND
  5
FFF4
  8
0
  0
POLYLINE
  5
FFF5
  8
0
 62
7
 66
1
 70
0
 10
0
 20
0
 30
0
  0
VERTEX
  5
FFF6
  8
0
 62
7
 10
43.406075910744107
 20
62.789337975560393
 70
0
  0
VERTEX
  5
FFF7
  8
0
 62
7
 10
43.364734764921117
 20
62.746618791543312
 70
0
  0
SEQEND
  5
FFF8
  8
0
  0
POLYLINE
  5
FFF9
  8
0
 62
7
 66
1
 70
0
 10
0
 20
0
 30
0
  0
VERTEX
  5
FFFA
  8
0
 62
7
 10
44.591188757670061
 20
63.169504262357691
 70
0
  0
VERTEX
  5
FFFB
  8
0
 62
7
 10
44.33762972995568
 20
63.212223446374821
 70
0
  0
SEQEND
  5
FFFC
  8
0
  0
POLYLINE
  5
FFFD
  8
0
 62
7
 66
1
 70
0
 10
0
 20
0
 30
0
  0
VERTEX
  5
FFFE
  8
0
 62
7
 10
44.591188757670061
 20
63.128335371308992
 70
0
  0
VERTEX
  5
FFFF
  8
0
 62
7
 10
44.719346309721352
 20
63.169504262357691
 70
0
  0
SEQEND
  5
10000
  8
0
  0
POLYLINE
  5
10001
  8
0
 62
7
 66
1
 70
0
 10
0
 20
0
 30
0
  0
VERTEX
  5
10002
  8
0
 62
7
 10
44.591188757670061
 20
63.128335371308992
 70
0
  0
VERTEX
  5
10003
  8
0
 62
7
 10
44.591188757670061
 20
63.169504262357691
 70
0
  0
SEQEND
  5
10004
  8
0
  0
POLYLINE
  5
10005
  8
0
 62
7
 66
1
 70
0
 10
0
 20
0
 30
0
  0
VERTEX
  5
10006
  8
0
 62
7
 10
45.01562452145285
 20
63.001383602677492
 70
0
  0
VERTEX
  5
10007
  8
0
 62
7
 10
44.887466969401558
 20
63.085616187291862
 70
0
  0
SEQEND
  5
10008
  8
0
  0
POLYLINE
  5
10009
  8
0
 62
7
 66
1
 70
0
 10
0
 20
0
 30
0
  0
VERTEX
  5
1000A
  8
0
 62
7
 10
44.887466969401558
 20
63.085616187291862
 70
0
  0
VERTEX
  5
1000B
  8
0
 62
7
 10
44.719346309721352
 20
63.169504262357691
 70
0
  0
SEQEND
  5
1000C
  8
0
  0
POLYLINE
  5
1000D
  8
0
 62
7
 66
1
 70
0
 10
0
 20
0
 30
0
  0
VERTEX
  5
1000E
  8
0
 62
7
 10
45.01562452145285
 20
62.915945234643338
 70
0
  0
VERTEX
  5
1000F
  8
0
 62
7
 10
45.01562452145285
 20
63.001383602677492
 70
0
  0
SEQEND
  5
10010
  8
0
  0
POLYLINE
  5
10011
  8
0
 62
7
 66
1
 70
0
 10
0
 20
0
 30
0
  0
VERTEX
  5
10012
  8
0
 62
7
 10
44.887466969401558
 20
62.873226050626208
 70
0
  0
VERTEX
  5
10013
  8
0
 62
7
 10
45.01562452145285
 20
62.915945234643338
 70
0
  0
SEQEND
  5
10014
  8
0
  0
POLYLINE
  5
10015
  8
0
 62
7
 66
1
 70
0
 10
0
 20
0
 30
0
  0
VERTEX
  5
10016
  8
0
 62
7
 10
45.099684851292942
 20
62.746618791543312
 70
0
  0
VERTEX
  5
10017
  8
0
 62
7
 10
45.01562452145285
 20
62.831884904803239
 70
0
  0
SEQEND
  5
10018
  8
0
  0
POLYLINE
  5
10019
  8
0
 62
7
 66
1
 70
0
 10
0
 20
0
 30
0
  0
VERTEX
  5
1001A
  8
0
 62
7
 10
45.01562452145285
 20
62.831884904803239
 70
0
  0
VERTEX
  5
1001B
  8
0
 62
7
 10
44.887466969401558
 20
62.873226050626208
 70
0
  0
SEQEND
  5
1001C
  8
0
  0
POLYLINE
  5
1001D
  8
0
 62
7
 66
1
 70
0
 10
0
 20
0
 30
0
  0
VERTEX
  5
1001E
  8
0
 62
7
 10
43.914572004367
 20
63.001383602677492
 70
0
  0
VERTEX
  5
1001F
  8
0
 62
7
 10
44.041351518224182
 20
63.042552493726248
 70
0
  0
SEQEND
  5
10020
  8
0
  0
POLYLINE
  5
10021
  8
0
 62
7
 66
1
 70
0
 10
0
 20
0
 30
0
  0
VERTEX
  5
10022
  8
0
 62
7
 10
44.887466969401558
 20
62.873226050626208
 70
0
  0
VERTEX
  5
10023
  8
0
 62
7
 10
44.719346309721352
 20
62.915945234643338
 70
0
  0
SEQEND
  5
10024
  8
0
  0
POLYLINE
  5
10025
  8
0
 62
7
 66
1
 70
0
 10
0
 20
0
 30
0
  0
VERTEX
  5
10026
  8
0
 62
7
 10
44.719346309721352
 20
62.915945234643338
 70
0
  0
VERTEX
  5
10027
  8
0
 62
7
 10
44.549847611847063
 20
62.958664418660419
 70
0
  0
SEQEND
  5
10028
  8
0
  0
POLYLINE
  5
10029
  8
0
 62
7
 66
1
 70
0
 10
0
 20
0
 30
0
  0
VERTEX
  5
1002A
  8
0
 62
7
 10
44.549847611847063
 20
62.958664418660419
 70
0
  0
VERTEX
  5
1002B
  8
0
 62
7
 10
44.33762972995568
 20
62.958664418660419
 70
0
  0
SEQEND
  5
1002C
  8
0
  0
POLYLINE
  5
1002D
  8
0
 62
7
 66
1
 70
0
 10
0
 20
0
 30
0
  0
VERTEX
  5
1002E
  8
0
 62
7
 10
44.33762972995568
 20
62.958664418660419
 70
0
  0
VERTEX
  5
1002F
  8
0
 62
7
 10
44.126789886258393
 20
62.958664418660419
 70
0
  0
SEQEND
  5
10030
  8
0
  0
POLYLINE
  5
10031
  8
0
 62
7
 66
1
 70
0
 10
0
 20
0
 30
0
  0
VERTEX
  5
10032
  8
0
 62
7
 10
44.126789886258393
 20
62.958664418660419
 70
0
  0
VERTEX
  5
10033
  8
0
 62
7
 10
43.9572911883841
 20
62.958664418660419
 70
0
  0
SEQEND
  5
10034
  8
0
  0
POLYLINE
  5
10035
  8
0
 62
7
 66
1
 70
0
 10
0
 20
0
 30
0
  0
VERTEX
  5
10036
  8
0
 62
7
 10
43.9572911883841
 20
62.958664418660419
 70
0
  0
VERTEX
  5
10037
  8
0
 62
7
 10
43.745073306492714
 20
62.915945234643338
 70
0
  0
SEQEND
  5
10038
  8
0
  0
POLYLINE
  5
10039
  8
0
 62
7
 66
1
 70
0
 10
0
 20
0
 30
0
  0
VERTEX
  5
1003A
  8
0
 62
7
 10
43.745073306492714
 20
62.915945234643338
 70
0
  0
VERTEX
  5
1003B
  8
0
 62
7
 10
43.57557460861841
 20
62.873226050626208
 70
0
  0
SEQEND
  5
1003C
  8
0
  0
POLYLINE
  5
1003D
  8
0
 62
7
 66
1
 70
0
 10
0
 20
0
 30
0
  0
VERTEX
  5
1003E
  8
0
 62
7
 10
43.57557460861841
 20
62.873226050626208
 70
0
  0
VERTEX
  5
1003F
  8
0
 62
7
 10
43.448795094761223
 20
62.831884904803239
 70
0
  0
SEQEND
  5
10040
  8
0
  0
POLYLINE
  5
10041
  8
0
 62
7
 66
1
 70
0
 10
0
 20
0
 30
0
  0
VERTEX
  5
10042
  8
0
 62
7
 10
44.719346309721352
 20
63.042552493726248
 70
0
  0
VERTEX
  5
10043
  8
0
 62
7
 10
44.719346309721352
 20
63.169504262357691
 70
0
  0
SEQEND
  5
10044
  8
0
  0
POLYLINE
  5
10045
  8
0
 62
7
 66
1
 70
0
 10
0
 20
0
 30
0
  0
VERTEX
  5
10046
  8
0
 62
7
 10
45.01562452145285
 20
62.915945234643338
 70
0
  0
VERTEX
  5
10047
  8
0
 62
7
 10
44.887466969401558
 20
63.001383602677492
 70
0
  0
SEQEND
  5
10048
  8
0
  0
POLYLINE
  5
10049
  8
0
 62
7
 66
1
 70
0
 10
0
 20
0
 30
0
  0
VERTEX
  5
1004A
  8
0
 62
7
 10
44.887466969401558
 20
63.001383602677492
 70
0
  0
VERTEX
  5
1004B
  8
0
 62
7
 10
44.719346309721352
 20
63.042552493726248
 70
0
  0
SEQEND
  5
1004C
  8
0
  0
POLYLINE
  5
1004D
  8
0
 62
7
 66
1
 70
0
 10
0
 20
0
 30
0
  0
VERTEX
  5
1004E
  8
0
 62
7
 10
44.33762972995568
 20
62.958664418660419
 70
0
  0
VERTEX
  5
1004F
  8
0
 62
7
 10
44.719346309721352
 20
63.042552493726248
 70
0
  0
SEQEND
  5
10050
  8
0
  0
POLYLINE
  5
10051
  8
0
 62
7
 66
1
 70
0
 10
0
 20
0
 30
0
  0
VERTEX
  5
10052
  8
0
 62
7
 10
44.33762972995568
 20
63.085616187291862
 70
0
  0
VERTEX
  5
10053
  8
0
 62
7
 10
44.591188757670061
 20
63.128335371308992
 70
0
  0
SEQEND
  5
10054
  8
0
  0
POLYLINE
  5
10055
  8
0
 62
7
 66
1
 70
0
 10
0
 20
0
 30
0
  0
VERTEX
  5
10056
  8
0
 62
7
 10
44.33762972995568
 20
63.212223446374821
 70
0
  0
VERTEX
  5
10057
  8
0
 62
7
 10
44.33762972995568
 20
63.085616187291862
 70
0
  0
SEQEND
  5
10058
  8
0
  0
POLYLINE
  5
10059
  8
0
 62
7
 66
1
 70
0
 10
0
 20
0
 30
0
  0
VERTEX
  5
1005A
  8
0
 62
7
 10
44.210850216098493
 20
63.042552493726248
 70
0
  0
VERTEX
  5
1005B
  8
0
 62
7
 10
44.041351518224182
 20
63.042552493726248
 70
0
  0
SEQEND
  5
1005C
  8
0
  0
POLYLINE
  5
1005D
  8
0
 62
7
 66
1
 70
0
 10
0
 20
0
 30
0
  0
VERTEX
  5
1005E
  8
0
 62
7
 10
44.041351518224182
 20
62.958664418660419
 70
0
  0
VERTEX
  5
1005F
  8
0
 62
7
 10
44.041351518224182
 20
63.042552493726248
 70
0
  0
SEQEND
  5
10060
  8
0
  0
POLYLINE
  5
10061
  8
0
 62
7
 66
1
 70
0
 10
0
 20
0
 30
0
  0
VERTEX
  5
10062
  8
0
 62
7
 10
44.210850216098493
 20
62.958664418660419
 70
0
  0
VERTEX
  5
10063
  8
0
 62
7
 10
44.210850216098493
 20
63.042552493726248
 70
0
  0
SEQEND
  5
10064
  8
0
  0
POLYLINE
  5
10065
  8
0
 62
7
 66
1
 70
0
 10
0
 20
0
 30
0
  0
VERTEX
  5
10066
  8
0
 62
7
 10
43.914572004367
 20
30.87242310723752
 70
0
  0
VERTEX
  5
10067
  8
0
 62
7
 10
43.914572004367
 20
35.020318071478329
 70
0
  0
SEQEND
  5
10068
  8
0
  0
POLYLINE
  5
10069
  8
0
 62
7
 66
1
 70
0
 10
0
 20
0
 30
0
  0
VERTEX
  5
1006A
  8
0
 62
7
 10
43.9986323342071
 20
35.105756439512533
 70
0
  0
VERTEX
  5
1006B
  8
0
 62
7
 10
43.9572911883841
 20
35.063037255495431
 70
0
  0
SEQEND
  5
1006C
  8
0
  0
POLYLINE
  5
1006D
  8
0
 62
7
 66
1
 70
0
 10
0
 20
0
 30
0
  0
VERTEX
  5
1006E
  8
0
 62
7
 10
43.9572911883841
 20
35.063037255495431
 70
0
  0
VERTEX
  5
1006F
  8
0
 62
7
 10
43.914572004367
 20
35.063037255495431
 70
0
  0
SEQEND
  5
10070
  8
0
  0
POLYLINE
  5
10071
  8
0
 62
7
 66
1
 70
0
 10
0
 20
0
 30
0
  0
VERTEX
  5
10072
  8
0
 62
7
 10
43.914572004367
 20
35.063037255495431
 70
0
  0
VERTEX
  5
10073
  8
0
 62
7
 10
43.914572004367
 20
35.063037255495431
 70
0
  0
SEQEND
  5
10074
  8
0
  0
POLYLINE
  5
10075
  8
0
 62
7
 66
1
 70
0
 10
0
 20
0
 30
0
  0
VERTEX
  5
10076
  8
0
 62
7
 10
43.914572004367
 20
35.063037255495431
 70
0
  0
VERTEX
  5
10077
  8
0
 62
7
 10
43.914572004367
 20
35.020318071478329
 70
0
  0
SEQEND
  5
10078
  8
0
  0
POLYLINE
  5
10079
  8
0
 62
7
 66
1
 70
0
 10
0
 20
0
 30
0
  0
VERTEX
  5
1007A
  8
0
 62
7
 10
44.464409243812867
 20
35.105756439512533
 70
0
  0
VERTEX
  5
1007B
  8
0
 62
7
 10
44.423068097989884
 20
35.105756439512533
 70
0
  0
SEQEND
  5
1007C
  8
0
  0
POLYLINE
  5
1007D
  8
0
 62
7
 66
1
 70
0
 10
0
 20
0
 30
0
  0
VERTEX
  5
1007E
  8
0
 62
7
 10
44.423068097989884
 20
35.105756439512533
 70
0
  0
VERTEX
  5
1007F
  8
0
 62
7
 10
44.33762972995568
 20
35.105756439512533
 70
0
  0
SEQEND
  5
10080
  8
0
  0
POLYLINE
  5
10081
  8
0
 62
7
 66
1
 70
0
 10
0
 20
0
 30
0
  0
VERTEX
  5
10082
  8
0
 62
7
 10
44.33762972995568
 20
35.105756439512533
 70
0
  0
VERTEX
  5
10083
  8
0
 62
7
 10
44.294910545938571
 20
35.105756439512533
 70
0
  0
SEQEND
  5
10084
  8
0
  0
POLYLINE
  5
10085
  8
0
 62
7
 66
1
 70
0
 10
0
 20
0
 30
0
  0
VERTEX
  5
10086
  8
0
 62
7
 10
44.294910545938571
 20
35.105756439512533
 70
0
  0
VERTEX
  5
10087
  8
0
 62
7
 10
44.210850216098493
 20
35.105756439512533
 70
0
  0
SEQEND
  5
10088
  8
0
  0
POLYLINE
  5
10089
  8
0
 62
7
 66
1
 70
0
 10
0
 20
0
 30
0
  0
VERTEX
  5
1008A
  8
0
 62
7
 10
44.210850216098493
 20
35.105756439512533
 70
0
  0
VERTEX
  5
1008B
  8
0
 62
7
 10
44.168131032081391
 20
35.105756439512533
 70
0
  0
SEQEND
  5
1008C
  8
0
  0
POLYLINE
  5
1008D
  8
0
 62
7
 66
1
 70
0
 10
0
 20
0
 30
0
  0
VERTEX
  5
1008E
  8
0
 62
7
 10
44.168131032081391
 20
35.105756439512533
 70
0
  0
VERTEX
  5
1008F
  8
0
 62
7
 10
44.084070702241291
 20
35.105756439512533
 70
0
  0
SEQEND
  5
10090
  8
0
  0
POLYLINE
  5
10091
  8
0
 62
7
 66
1
 70
0
 10
0
 20
0
 30
0
  0
VERTEX
  5
10092
  8
0
 62
7
 10
44.084070702241291
 20
35.105756439512533
 70
0
  0
VERTEX
  5
10093
  8
0
 62
7
 10
44.041351518224182
 20
35.105756439512533
 70
0
  0
SEQEND
  5
10094
  8
0
  0
POLYLINE
  5
10095
  8
0
 62
7
 66
1
 70
0
 10
0
 20
0
 30
0
  0
VERTEX
  5
10096
  8
0
 62
7
 10
44.041351518224182
 20
35.105756439512533
 70
0
  0
VERTEX
  5
10097
  8
0
 62
7
 10
43.9986323342071
 20
35.105756439512533
 70
0
  0
SEQEND
  5
10098
  8
0
  0
POLYLINE
  5
10099
  8
0
 62
7
 66
1
 70
0
 10
0
 20
0
 30
0
  0
VERTEX
  5
1009A
  8
0
 62
7
 10
44.549847611847063
 20
35.020318071478329
 70
0
  0
VERTEX
  5
1009B
  8
0
 62
7
 10
44.549847611847063
 20
35.063037255495431
 70
0
  0
SEQEND
  5
1009C
  8
0
  0
POLYLINE
  5
1009D
  8
0
 62
7
 66
1
 70
0
 10
0
 20
0
 30
0
  0
VERTEX
  5
1009E
  8
0
 62
7
 10
44.549847611847063
 20
35.063037255495431
 70
0
  0
VERTEX
  5
1009F
  8
0
 62
7
 10
44.549847611847063
 20
35.063037255495431
 70
0
  0
SEQEND
  5
100A0
  8
0
  0
POLYLINE
  5
100A1
  8
0
 62
7
 66
1
 70
0
 10
0
 20
0
 30
0
  0
VERTEX
  5
100A2
  8
0
 62
7
 10
44.549847611847063
 20
35.063037255495431
 70
0
  0
VERTEX
  5
100A3
  8
0
 62
7
 10
44.507128427829969
 20
35.063037255495431
 70
0
  0
SEQEND
  5
100A4
  8
0
  0
POLYLINE
  5
100A5
  8
0
 62
7
 66
1
 70
0
 10
0
 20
0
 30
0
  0
VERTEX
  5
100A6
  8
0
 62
7
 10
44.507128427829969
 20
35.063037255495431
 70
0
  0
VERTEX
  5
100A7
  8
0
 62
7
 10
44.464409243812867
 20
35.105756439512533
 70
0
  0
SEQEND
  5
100A8
  8
0
  0
POLYLINE
  5
100A9
  8
0
 62
7
 66
1
 70
0
 10
0
 20
0
 30
0
  0
VERTEX
  5
100AA
  8
0
 62
7
 10
44.549847611847063
 20
30.87242310723752
 70
0
  0
VERTEX
  5
100AB
  8
0
 62
7
 10
44.549847611847063
 20
35.020318071478329
 70
0
  0
SEQEND
  5
100AC
  8
0
  0
POLYLINE
  5
100AD
  8
0
 62
7
 66
1
 70
0
 10
0
 20
0
 30
0
  0
VERTEX
  5
100AE
  8
0
 62
7
 10
47.978406638767709
 20
15.54881064362052
 70
0
  0
VERTEX
  5
100AF
  8
0
 62
7
 10
47.978406638767709
 20
29.137473020865709
 70
0
  0
SEQEND
  5
100B0
  8
0
  0
POLYLINE
  5
100B1
  8
0
 62
7
 66
1
 70
0
 10
0
 20
0
 30
0
  0
VERTEX
  5
100B2
  8
0
 62
7
 10
40.486012977446357
 20
15.54881064362052
 70
0
  0
VERTEX
  5
100B3
  8
0
 62
7
 10
40.486012977446357
 20
29.137473020865709
 70
0
  0
SEQEND
  5
100B4
  8
0
  0
POLYLINE
  5
100B5
  8
0
 62
7
 66
1
 70
0
 10
0
 20
0
 30
0
  0
VERTEX
  5
100B6
  8
0
 62
7
 10
47.978406638767709
 20
15.634249011654729
 70
0
  0
VERTEX
  5
100B7
  8
0
 62
7
 10
47.851627124910522
 20
15.844744345803489
 70
0
  0
SEQEND
  5
100B8
  8
0
  0
POLYLINE
  5
100B9
  8
0
 62
7
 66
1
 70
0
 10
0
 20
0
 30
0
  0
VERTEX
  5
100BA
  8
0
 62
7
 10
47.851627124910522
 20
15.844744345803489
 70
0
  0
VERTEX
  5
100BB
  8
0
 62
7
 10
47.596690059002022
 20
16.014415298452029
 70
0
  0
SEQEND
  5
100BC
  8
0
  0
POLYLINE
  5
100BD
  8
0
 62
7
 66
1
 70
0
 10
0
 20
0
 30
0
  0
VERTEX
  5
100BE
  8
0
 62
7
 10
47.596690059002022
 20
16.014415298452029
 70
0
  0
VERTEX
  5
100BF
  8
0
 62
7
 10
47.216351517430432
 20
16.183741741552069
 70
0
  0
SEQEND
  5
100C0
  8
0
  0
POLYLINE
  5
100C1
  8
0
 62
7
 66
1
 70
0
 10
0
 20
0
 30
0
  0
VERTEX
  5
100C2
  8
0
 62
7
 10
47.216351517430432
 20
16.183741741552069
 70
0
  0
VERTEX
  5
100C3
  8
0
 62
7
 10
46.75057460782466
 20
16.310865764957779
 70
0
  0
SEQEND
  5
100C4
  8
0
  0
POLYLINE
  5
100C5
  8
0
 62
7
 66
1
 70
0
 10
0
 20
0
 30
0
  0
VERTEX
  5
100C6
  8
0
 62
7
 10
46.75057460782466
 20
16.310865764957779
 70
0
  0
VERTEX
  5
100C7
  8
0
 62
7
 10
46.2007373683788
 20
16.43747302404071
 70
0
  0
SEQEND
  5
100C8
  8
0
  0
POLYLINE
  5
100C9
  8
0
 62
7
 66
1
 70
0
 10
0
 20
0
 30
0
  0
VERTEX
  5
100CA
  8
0
 62
7
 10
46.2007373683788
 20
16.43747302404071
 70
0
  0
VERTEX
  5
100CB
  8
0
 62
7
 10
45.565461760898728
 20
16.52291139207491
 70
0
  0
SEQEND
  5
100CC
  8
0
  0
POLYLINE
  5
100CD
  8
0
 62
7
 66
1
 70
0
 10
0
 20
0
 30
0
  0
VERTEX
  5
100CE
  8
0
 62
7
 10
45.565461760898728
 20
16.52291139207491
 70
0
  0
VERTEX
  5
100CF
  8
0
 62
7
 10
44.93018615341866
 20
16.607143976689251
 70
0
  0
SEQEND
  5
100D0
  8
0
  0
POLYLINE
  5
100D1
  8
0
 62
7
 66
1
 70
0
 10
0
 20
0
 30
0
  0
VERTEX
  5
100D2
  8
0
 62
7
 10
44.93018615341866
 20
16.607143976689251
 70
0
  0
VERTEX
  5
100D3
  8
0
 62
7
 10
44.210850216098493
 20
16.607143976689251
 70
0
  0
SEQEND
  5
100D4
  8
0
  0
POLYLINE
  5
100D5
  8
0
 62
7
 66
1
 70
0
 10
0
 20
0
 30
0
  0
VERTEX
  5
100D6
  8
0
 62
7
 10
44.210850216098493
 20
16.607143976689251
 70
0
  0
VERTEX
  5
100D7
  8
0
 62
7
 10
43.532855424601323
 20
16.607143976689251
 70
0
  0
SEQEND
  5
100D8
  8
0
  0
POLYLINE
  5
100D9
  8
0
 62
7
 66
1
 70
0
 10
0
 20
0
 30
0
  0
VERTEX
  5
100DA
  8
0
 62
7
 10
43.532855424601323
 20
16.607143976689251
 70
0
  0
VERTEX
  5
100DB
  8
0
 62
7
 10
42.898957855315338
 20
16.52291139207491
 70
0
  0
SEQEND
  5
100DC
  8
0
  0
POLYLINE
  5
100DD
  8
0
 62
7
 66
1
 70
0
 10
0
 20
0
 30
0
  0
VERTEX
  5
100DE
  8
0
 62
7
 10
42.898957855315338
 20
16.52291139207491
 70
0
  0
VERTEX
  5
100DF
  8
0
 62
7
 10
42.26368224783527
 20
16.43747302404071
 70
0
  0
SEQEND
  5
100E0
  8
0
  0
POLYLINE
  5
100E1
  8
0
 62
7
 66
1
 70
0
 10
0
 20
0
 30
0
  0
VERTEX
  5
100E2
  8
0
 62
7
 10
42.26368224783527
 20
16.43747302404071
 70
0
  0
VERTEX
  5
100E3
  8
0
 62
7
 10
41.713845008389391
 20
16.310865764957779
 70
0
  0
SEQEND
  5
100E4
  8
0
  0
POLYLINE
  5
100E5
  8
0
 62
7
 66
1
 70
0
 10
0
 20
0
 30
0
  0
VERTEX
  5
100E6
  8
0
 62
7
 10
41.713845008389391
 20
16.310865764957779
 70
0
  0
VERTEX
  5
100E7
  8
0
 62
7
 10
41.248068098783627
 20
16.183741741552069
 70
0
  0
SEQEND
  5
100E8
  8
0
  0
POLYLINE
  5
100E9
  8
0
 62
7
 66
1
 70
0
 10
0
 20
0
 30
0
  0
VERTEX
  5
100EA
  8
0
 62
7
 10
41.248068098783627
 20
16.183741741552069
 70
0
  0
VERTEX
  5
100EB
  8
0
 62
7
 10
40.86635151901794
 20
16.014415298452029
 70
0
  0
SEQEND
  5
100EC
  8
0
  0
POLYLINE
  5
100ED
  8
0
 62
7
 66
1
 70
0
 10
0
 20
0
 30
0
  0
VERTEX
  5
100EE
  8
0
 62
7
 10
40.86635151901794
 20
16.014415298452029
 70
0
  0
VERTEX
  5
100EF
  8
0
 62
7
 10
40.612792491303551
 20
15.844744345803489
 70
0
  0
SEQEND
  5
100F0
  8
0
  0
POLYLINE
  5
100F1
  8
0
 62
7
 66
1
 70
0
 10
0
 20
0
 30
0
  0
VERTEX
  5
100F2
  8
0
 62
7
 10
40.612792491303551
 20
15.844744345803489
 70
0
  0
VERTEX
  5
100F3
  8
0
 62
7
 10
40.486012977446357
 20
15.634249011654729
 70
0
  0
SEQEND
  5
100F4
  8
0
  0
POLYLINE
  5
100F5
  8
0
 62
7
 66
1
 70
0
 10
0
 20
0
 30
0
  0
VERTEX
  5
100F6
  8
0
 62
7
 10
47.639409243019131
 20
15.54881064362052
 70
0
  0
VERTEX
  5
100F7
  8
0
 62
7
 10
47.555348913179017
 20
15.71813708672056
 70
0
  0
SEQEND
  5
100F8
  8
0
  0
POLYLINE
  5
100F9
  8
0
 62
7
 66
1
 70
0
 10
0
 20
0
 30
0
  0
VERTEX
  5
100FA
  8
0
 62
7
 10
47.555348913179017
 20
15.71813708672056
 70
0
  0
VERTEX
  5
100FB
  8
0
 62
7
 10
47.42719136112774
 20
15.844744345803489
 70
0
  0
SEQEND
  5
100FC
  8
0
  0
POLYLINE
  5
100FD
  8
0
 62
7
 66
1
 70
0
 10
0
 20
0
 30
0
  0
VERTEX
  5
100FE
  8
0
 62
7
 10
47.42719136112774
 20
15.844744345803489
 70
0
  0
VERTEX
  5
100FF
  8
0
 62
7
 10
47.173632333413352
 20
16.014415298452029
 70
0
  0
SEQEND
  5
10100
  8
0
  0
POLYLINE
  5
10101
  8
0
 62
7
 66
1
 70
0
 10
0
 20
0
 30
0
  0
VERTEX
  5
10102
  8
0
 62
7
 10
47.173632333413352
 20
16.014415298452029
 70
0
  0
VERTEX
  5
10103
  8
0
 62
7
 10
46.834634937664759
 20
16.141194812309241
 70
0
  0
SEQEND
  5
10104
  8
0
  0
POLYLINE
  5
10105
  8
0
 62
7
 66
1
 70
0
 10
0
 20
0
 30
0
  0
VERTEX
  5
10106
  8
0
 62
7
 10
46.834634937664759
 20
16.141194812309241
 70
0
  0
VERTEX
  5
10107
  8
0
 62
7
 10
46.411577212076082
 20
16.269524619134781
 70
0
  0
SEQEND
  5
10108
  8
0
  0
POLYLINE
  5
10109
  8
0
 62
7
 66
1
 70
0
 10
0
 20
0
 30
0
  0
VERTEX
  5
1010A
  8
0
 62
7
 10
46.411577212076082
 20
16.269524619134781
 70
0
  0
VERTEX
  5
1010B
  8
0
 62
7
 10
45.9044591566473
 20
16.35341269420061
 70
0
  0
SEQEND
  5
1010C
  8
0
  0
POLYLINE
  5
1010D
  8
0
 62
7
 66
1
 70
0
 10
0
 20
0
 30
0
  0
VERTEX
  5
1010E
  8
0
 62
7
 10
45.9044591566473
 20
16.35341269420061
 70
0
  0
VERTEX
  5
1010F
  8
0
 62
7
 10
45.395963063024418
 20
16.43747302404071
 70
0
  0
SEQEND
  5
10110
  8
0
  0
POLYLINE
  5
10111
  8
0
 62
7
 66
1
 70
0
 10
0
 20
0
 30
0
  0
VERTEX
  5
10112
  8
0
 62
7
 10
45.395963063024418
 20
16.43747302404071
 70
0
  0
VERTEX
  5
10113
  8
0
 62
7
 10
44.803406639561459
 20
16.480192208057812
 70
0
  0
SEQEND
  5
10114
  8
0
  0
POLYLINE
  5
10115
  8
0
 62
7
 66
1
 70
0
 10
0
 20
0
 30
0
  0
VERTEX
  5
10116
  8
0
 62
7
 10
44.803406639561459
 20
16.480192208057812
 70
0
  0
VERTEX
  5
10117
  8
0
 62
7
 10
44.210850216098493
 20
16.480192208057812
 70
0
  0
SEQEND
  5
10118
  8
0
  0
POLYLINE
  5
10119
  8
0
 62
7
 66
1
 70
0
 10
0
 20
0
 30
0
  0
VERTEX
  5
1011A
  8
0
 62
7
 10
44.210850216098493
 20
16.480192208057812
 70
0
  0
VERTEX
  5
1011B
  8
0
 62
7
 10
43.661012976652607
 20
16.480192208057812
 70
0
  0
SEQEND
  5
1011C
  8
0
  0
POLYLINE
  5
1011D
  8
0
 62
7
 66
1
 70
0
 10
0
 20
0
 30
0
  0
VERTEX
  5
1011E
  8
0
 62
7
 10
43.661012976652607
 20
16.480192208057812
 70
0
  0
VERTEX
  5
1011F
  8
0
 62
7
 10
43.068456553189648
 20
16.43747302404071
 70
0
  0
SEQEND
  5
10120
  8
0
  0
POLYLINE
  5
10121
  8
0
 62
7
 66
1
 70
0
 10
0
 20
0
 30
0
  0
VERTEX
  5
10122
  8
0
 62
7
 10
43.068456553189648
 20
16.43747302404071
 70
0
  0
VERTEX
  5
10123
  8
0
 62
7
 10
42.559960459566767
 20
16.396131878217709
 70
0
  0
SEQEND
  5
10124
  8
0
  0
POLYLINE
  5
10125
  8
0
 62
7
 66
1
 70
0
 10
0
 20
0
 30
0
  0
VERTEX
  5
10126
  8
0
 62
7
 10
42.559960459566767
 20
16.396131878217709
 70
0
  0
VERTEX
  5
10127
  8
0
 62
7
 10
42.051464365943893
 20
16.269524619134781
 70
0
  0
SEQEND
  5
10128
  8
0
  0
POLYLINE
  5
10129
  8
0
 62
7
 66
1
 70
0
 10
0
 20
0
 30
0
  0
VERTEX
  5
1012A
  8
0
 62
7
 10
42.051464365943893
 20
16.269524619134781
 70
0
  0
VERTEX
  5
1012B
  8
0
 62
7
 10
41.6284066403552
 20
16.141194812309241
 70
0
  0
SEQEND
  5
1012C
  8
0
  0
POLYLINE
  5
1012D
  8
0
 62
7
 66
1
 70
0
 10
0
 20
0
 30
0
  0
VERTEX
  5
1012E
  8
0
 62
7
 10
41.6284066403552
 20
16.141194812309241
 70
0
  0
VERTEX
  5
1012F
  8
0
 62
7
 10
41.289409244606631
 20
16.014415298452029
 70
0
  0
SEQEND
  5
10130
  8
0
  0
POLYLINE
  5
10131
  8
0
 62
7
 66
1
 70
0
 10
0
 20
0
 30
0
  0
VERTEX
  5
10132
  8
0
 62
7
 10
41.289409244606631
 20
16.014415298452029
 70
0
  0
VERTEX
  5
10133
  8
0
 62
7
 10
41.035850216892243
 20
15.844744345803489
 70
0
  0
SEQEND
  5
10134
  8
0
  0
POLYLINE
  5
10135
  8
0
 62
7
 66
1
 70
0
 10
0
 20
0
 30
0
  0
VERTEX
  5
10136
  8
0
 62
7
 10
41.035850216892243
 20
15.844744345803489
 70
0
  0
VERTEX
  5
10137
  8
0
 62
7
 10
40.909070703035027
 20
15.71813708672056
 70
0
  0
SEQEND
  5
10138
  8
0
  0
POLYLINE
  5
10139
  8
0
 62
7
 66
1
 70
0
 10
0
 20
0
 30
0
  0
VERTEX
  5
1013A
  8
0
 62
7
 10
40.909070703035027
 20
15.71813708672056
 70
0
  0
VERTEX
  5
1013B
  8
0
 62
7
 10
40.86635151901794
 20
15.54881064362052
 70
0
  0
SEQEND
  5
1013C
  8
0
  0
POLYLINE
  5
1013D
  8
0
 62
7
 66
1
 70
0
 10
0
 20
0
 30
0
  0
VERTEX
  5
1013E
  8
0
 62
7
 10
40.86635151901794
 20
15.54881064362052
 70
0
  0
VERTEX
  5
1013F
  8
0
 62
7
 10
40.909070703035027
 20
15.37913969097195
 70
0
  0
SEQEND
  5
10140
  8
0
  0
POLYLINE
  5
10141
  8
0
 62
7
 66
1
 70
0
 10
0
 20
0
 30
0
  0
VERTEX
  5
10142
  8
0
 62
7
 10
40.909070703035027
 20
15.37913969097195
 70
0
  0
VERTEX
  5
10143
  8
0
 62
7
 10
41.035850216892243
 20
15.21119128606602
 70
0
  0
SEQEND
  5
10144
  8
0
  0
POLYLINE
  5
10145
  8
0
 62
7
 66
1
 70
0
 10
0
 20
0
 30
0
  0
VERTEX
  5
10146
  8
0
 62
7
 10
41.035850216892243
 20
15.21119128606602
 70
0
  0
VERTEX
  5
10147
  8
0
 62
7
 10
41.289409244606631
 20
15.041520333417481
 70
0
  0
SEQEND
  5
10148
  8
0
  0
POLYLINE
  5
10149
  8
0
 62
7
 66
1
 70
0
 10
0
 20
0
 30
0
  0
VERTEX
  5
1014A
  8
0
 62
7
 10
41.289409244606631
 20
15.041520333417481
 70
0
  0
VERTEX
  5
1014B
  8
0
 62
7
 10
41.6284066403552
 20
14.91491307433455
 70
0
  0
SEQEND
  5
1014C
  8
0
  0
POLYLINE
  5
1014D
  8
0
 62
7
 66
1
 70
0
 10
0
 20
0
 30
0
  0
VERTEX
  5
1014E
  8
0
 62
7
 10
41.6284066403552
 20
14.91491307433455
 70
0
  0
VERTEX
  5
1014F
  8
0
 62
7
 10
42.051464365943893
 20
14.78641101273473
 70
0
  0
SEQEND
  5
10150
  8
0
  0
POLYLINE
  5
10151
  8
0
 62
7
 66
1
 70
0
 10
0
 20
0
 30
0
  0
VERTEX
  5
10152
  8
0
 62
7
 10
42.051464365943893
 20
14.78641101273473
 70
0
  0
VERTEX
  5
10153
  8
0
 62
7
 10
42.559960459566767
 20
14.7025229376689
 70
0
  0
SEQEND
  5
10154
  8
0
  0
POLYLINE
  5
10155
  8
0
 62
7
 66
1
 70
0
 10
0
 20
0
 30
0
  0
VERTEX
  5
10156
  8
0
 62
7
 10
42.559960459566767
 20
14.7025229376689
 70
0
  0
VERTEX
  5
10157
  8
0
 62
7
 10
43.068456553189648
 20
14.6184626078288
 70
0
  0
SEQEND
  5
10158
  8
0
  0
POLYLINE
  5
10159
  8
0
 62
7
 66
1
 70
0
 10
0
 20
0
 30
0
  0
VERTEX
  5
1015A
  8
0
 62
7
 10
43.068456553189648
 20
14.6184626078288
 70
0
  0
VERTEX
  5
1015B
  8
0
 62
7
 10
43.661012976652607
 20
14.57591567858597
 70
0
  0
SEQEND
  5
1015C
  8
0
  0
POLYLINE
  5
1015D
  8
0
 62
7
 66
1
 70
0
 10
0
 20
0
 30
0
  0
VERTEX
  5
1015E
  8
0
 62
7
 10
43.661012976652607
 20
14.57591567858597
 70
0
  0
VERTEX
  5
1015F
  8
0
 62
7
 10
44.210850216098493
 20
14.57591567858597
 70
0
  0
SEQEND
  5
10160
  8
0
  0
POLYLINE
  5
10161
  8
0
 62
7
 66
1
 70
0
 10
0
 20
0
 30
0
  0
VERTEX
  5
10162
  8
0
 62
7
 10
44.210850216098493
 20
14.57591567858597
 70
0
  0
VERTEX
  5
10163
  8
0
 62
7
 10
44.803406639561459
 20
14.57591567858597
 70
0
  0
SEQEND
  5
10164
  8
0
  0
POLYLINE
  5
10165
  8
0
 62
7
 66
1
 70
0
 10
0
 20
0
 30
0
  0
VERTEX
  5
10166
  8
0
 62
7
 10
44.803406639561459
 20
14.57591567858597
 70
0
  0
VERTEX
  5
10167
  8
0
 62
7
 10
45.395963063024418
 20
14.6184626078288
 70
0
  0
SEQEND
  5
10168
  8
0
  0
POLYLINE
  5
10169
  8
0
 62
7
 66
1
 70
0
 10
0
 20
0
 30
0
  0
VERTEX
  5
1016A
  8
0
 62
7
 10
45.395963063024418
 20
14.6184626078288
 70
0
  0
VERTEX
  5
1016B
  8
0
 62
7
 10
45.9044591566473
 20
14.7025229376689
 70
0
  0
SEQEND
  5
1016C
  8
0
  0
POLYLINE
  5
1016D
  8
0
 62
7
 66
1
 70
0
 10
0
 20
0
 30
0
  0
VERTEX
  5
1016E
  8
0
 62
7
 10
45.9044591566473
 20
14.7025229376689
 70
0
  0
VERTEX
  5
1016F
  8
0
 62
7
 10
46.411577212076082
 20
14.78641101273473
 70
0
  0
SEQEND
  5
10170
  8
0
  0
POLYLINE
  5
10171
  8
0
 62
7
 66
1
 70
0
 10
0
 20
0
 30
0
  0
VERTEX
  5
10172
  8
0
 62
7
 10
46.411577212076082
 20
14.78641101273473
 70
0
  0
VERTEX
  5
10173
  8
0
 62
7
 10
46.834634937664759
 20
14.91491307433455
 70
0
  0
SEQEND
  5
10174
  8
0
  0
POLYLINE
  5
10175
  8
0
 62
7
 66
1
 70
0
 10
0
 20
0
 30
0
  0
VERTEX
  5
10176
  8
0
 62
7
 10
46.834634937664759
 20
14.91491307433455
 70
0
  0
VERTEX
  5
10177
  8
0
 62
7
 10
47.173632333413352
 20
15.041520333417481
 70
0
  0
SEQEND
  5
10178
  8
0
  0
POLYLINE
  5
10179
  8
0
 62
7
 66
1
 70
0
 10
0
 20
0
 30
0
  0
VERTEX
  5
1017A
  8
0
 62
7
 10
47.173632333413352
 20
15.041520333417481
 70
0
  0
VERTEX
  5
1017B
  8
0
 62
7
 10
47.42719136112774
 20
15.21119128606602
 70
0
  0
SEQEND
  5
1017C
  8
0
  0
POLYLINE
  5
1017D
  8
0
 62
7
 66
1
 70
0
 10
0
 20
0
 30
0
  0
VERTEX
  5
1017E
  8
0
 62
7
 10
47.42719136112774
 20
15.21119128606602
 70
0
  0
VERTEX
  5
1017F
  8
0
 62
7
 10
47.555348913179017
 20
15.37913969097195
 70
0
  0
SEQEND
  5
10180
  8
0
  0
POLYLINE
  5
10181
  8
0
 62
7
 66
1
 70
0
 10
0
 20
0
 30
0
  0
VERTEX
  5
10182
  8
0
 62
7
 10
47.555348913179017
 20
15.37913969097195
 70
0
  0
VERTEX
  5
10183
  8
0
 62
7
 10
47.639409243019131
 20
15.54881064362052
 70
0
  0
SEQEND
  5
10184
  8
0
  0
POLYLINE
  5
10185
  8
0
 62
7
 66
1
 70
0
 10
0
 20
0
 30
0
  0
VERTEX
  5
10186
  8
0
 62
7
 10
40.486012977446357
 20
15.54881064362052
 70
0
  0
VERTEX
  5
10187
  8
0
 62
7
 10
40.528732161463459
 20
15.33779854514896
 70
0
  0
SEQEND
  5
10188
  8
0
  0
POLYLINE
  5
10189
  8
0
 62
7
 66
1
 70
0
 10
0
 20
0
 30
0
  0
VERTEX
  5
1018A
  8
0
 62
7
 10
40.528732161463459
 20
15.33779854514896
 70
0
  0
VERTEX
  5
1018B
  8
0
 62
7
 10
40.696852821143651
 20
15.16812759250041
 70
0
  0
SEQEND
  5
1018C
  8
0
  0
POLYLINE
  5
1018D
  8
0
 62
7
 66
1
 70
0
 10
0
 20
0
 30
0
  0
VERTEX
  5
1018E
  8
0
 62
7
 10
40.696852821143651
 20
15.16812759250041
 70
0
  0
VERTEX
  5
1018F
  8
0
 62
7
 10
40.993131032875141
 20
14.99880114940038
 70
0
  0
SEQEND
  5
10190
  8
0
  0
POLYLINE
  5
10191
  8
0
 62
7
 66
1
 70
0
 10
0
 20
0
 30
0
  0
VERTEX
  5
10192
  8
0
 62
7
 10
40.993131032875141
 20
14.99880114940038
 70
0
  0
VERTEX
  5
10193
  8
0
 62
7
 10
41.374847612640821
 20
14.82913019675183
 70
0
  0
SEQEND
  5
10194
  8
0
  0
POLYLINE
  5
10195
  8
0
 62
7
 66
1
 70
0
 10
0
 20
0
 30
0
  0
VERTEX
  5
10196
  8
0
 62
7
 10
41.374847612640821
 20
14.82913019675183
 70
0
  0
VERTEX
  5
10197
  8
0
 62
7
 10
41.8406245222466
 20
14.7025229376689
 70
0
  0
SEQEND
  5
10198
  8
0
  0
POLYLINE
  5
10199
  8
0
 62
7
 66
1
 70
0
 10
0
 20
0
 30
0
  0
VERTEX
  5
1019A
  8
0
 62
7
 10
41.8406245222466
 20
14.7025229376689
 70
0
  0
VERTEX
  5
1019B
  8
0
 62
7
 10
42.347742577675369
 20
14.6184626078288
 70
0
  0
SEQEND
  5
1019C
  8
0
  0
POLYLINE
  5
1019D
  8
0
 62
7
 66
1
 70
0
 10
0
 20
0
 30
0
  0
VERTEX
  5
1019E
  8
0
 62
7
 10
42.347742577675369
 20
14.6184626078288
 70
0
  0
VERTEX
  5
1019F
  8
0
 62
7
 10
42.940299001138342
 20
14.53319649456887
 70
0
  0
SEQEND
  5
101A0
  8
0
  0
POLYLINE
  5
101A1
  8
0
 62
7
 66
1
 70
0
 10
0
 20
0
 30
0
  0
VERTEX
  5
101A2
  8
0
 62
7
 10
42.940299001138342
 20
14.53319649456887
 70
0
  0
VERTEX
  5
101A3
  8
0
 62
7
 10
43.57557460861841
 20
14.49047731055177
 70
0
  0
SEQEND
  5
101A4
  8
0
  0
POLYLINE
  5
101A5
  8
0
 62
7
 66
1
 70
0
 10
0
 20
0
 30
0
  0
VERTEX
  5
101A6
  8
0
 62
7
 10
43.57557460861841
 20
14.49047731055177
 70
0
  0
VERTEX
  5
101A7
  8
0
 62
7
 10
44.210850216098493
 20
14.44879165518026
 70
0
  0
SEQEND
  5
101A8
  8
0
  0
POLYLINE
  5
101A9
  8
0
 62
7
 66
1
 70
0
 10
0
 20
0
 30
0
  0
VERTEX
  5
101AA
  8
0
 62
7
 10
44.210850216098493
 20
14.44879165518026
 70
0
  0
VERTEX
  5
101AB
  8
0
 62
7
 10
44.887466969401558
 20
14.49047731055177
 70
0
  0
SEQEND
  5
101AC
  8
0
  0
POLYLINE
  5
101AD
  8
0
 62
7
 66
1
 70
0
 10
0
 20
0
 30
0
  0
VERTEX
  5
101AE
  8
0
 62
7
 10
44.887466969401558
 20
14.49047731055177
 70
0
  0
VERTEX
  5
101AF
  8
0
 62
7
 10
45.522742576881619
 20
14.53319649456887
 70
0
  0
SEQEND
  5
101B0
  8
0
  0
POLYLINE
  5
101B1
  8
0
 62
7
 66
1
 70
0
 10
0
 20
0
 30
0
  0
VERTEX
  5
101B2
  8
0
 62
7
 10
45.522742576881619
 20
14.53319649456887
 70
0
  0
VERTEX
  5
101B3
  8
0
 62
7
 10
46.115299000344592
 20
14.6184626078288
 70
0
  0
SEQEND
  5
101B4
  8
0
  0
POLYLINE
  5
101B5
  8
0
 62
7
 66
1
 70
0
 10
0
 20
0
 30
0
  0
VERTEX
  5
101B6
  8
0
 62
7
 10
46.115299000344592
 20
14.6184626078288
 70
0
  0
VERTEX
  5
101B7
  8
0
 62
7
 10
46.623795093967473
 20
14.7025229376689
 70
0
  0
SEQEND
  5
101B8
  8
0
  0
POLYLINE
  5
101B9
  8
0
 62
7
 66
1
 70
0
 10
0
 20
0
 30
0
  0
VERTEX
  5
101BA
  8
0
 62
7
 10
46.623795093967473
 20
14.7025229376689
 70
0
  0
VERTEX
  5
101BB
  8
0
 62
7
 10
47.089572003573252
 20
14.82913019675183
 70
0
  0
SEQEND
  5
101BC
  8
0
  0
POLYLINE
  5
101BD
  8
0
 62
7
 66
1
 70
0
 10
0
 20
0
 30
0
  0
VERTEX
  5
101BE
  8
0
 62
7
 10
47.089572003573252
 20
14.82913019675183
 70
0
  0
VERTEX
  5
101BF
  8
0
 62
7
 10
47.469910545144828
 20
14.99880114940038
 70
0
  0
SEQEND
  5
101C0
  8
0
  0
POLYLINE
  5
101C1
  8
0
 62
7
 66
1
 70
0
 10
0
 20
0
 30
0
  0
VERTEX
  5
101C2
  8
0
 62
7
 10
47.469910545144828
 20
14.99880114940038
 70
0
  0
VERTEX
  5
101C3
  8
0
 62
7
 10
47.766188756876311
 20
15.16812759250041
 70
0
  0
SEQEND
  5
101C4
  8
0
  0
POLYLINE
  5
101C5
  8
0
 62
7
 66
1
 70
0
 10
0
 20
0
 30
0
  0
VERTEX
  5
101C6
  8
0
 62
7
 10
47.766188756876311
 20
15.16812759250041
 70
0
  0
VERTEX
  5
101C7
  8
0
 62
7
 10
47.9356874547506
 20
15.33779854514896
 70
0
  0
SEQEND
  5
101C8
  8
0
  0
POLYLINE
  5
101C9
  8
0
 62
7
 66
1
 70
0
 10
0
 20
0
 30
0
  0
VERTEX
  5
101CA
  8
0
 62
7
 10
47.9356874547506
 20
15.33779854514896
 70
0
  0
VERTEX
  5
101CB
  8
0
 62
7
 10
47.978406638767709
 20
15.54881064362052
 70
0
  0
SEQEND
  5
101CC
  8
0
  0
POLYLINE
  5
101CD
  8
0
 62
7
 66
1
 70
0
 10
0
 20
0
 30
0
  0
VERTEX
  5
101CE
  8
0
 62
7
 10
47.978406638767709
 20
29.137473020865709
 70
0
  0
VERTEX
  5
101CF
  8
0
 62
7
 10
47.892968270733519
 20
29.391032048580119
 70
0
  0
SEQEND
  5
101D0
  8
0
  0
POLYLINE
  5
101D1
  8
0
 62
7
 66
1
 70
0
 10
0
 20
0
 30
0
  0
VERTEX
  5
101D2
  8
0
 62
7
 10
47.892968270733519
 20
29.391032048580119
 70
0
  0
VERTEX
  5
101D3
  8
0
 62
7
 10
47.555348913179017
 20
29.603077675697222
 70
0
  0
SEQEND
  5
101D4
  8
0
  0
POLYLINE
  5
101D5
  8
0
 62
7
 66
1
 70
0
 10
0
 20
0
 30
0
  0
VERTEX
  5
101D6
  8
0
 62
7
 10
47.555348913179017
 20
29.603077675697222
 70
0
  0
VERTEX
  5
101D7
  8
0
 62
7
 10
47.046852819556143
 20
29.814089774168789
 70
0
  0
SEQEND
  5
101D8
  8
0
  0
POLYLINE
  5
101D9
  8
0
 62
7
 66
1
 70
0
 10
0
 20
0
 30
0
  0
VERTEX
  5
101DA
  8
0
 62
7
 10
47.046852819556143
 20
29.814089774168789
 70
0
  0
VERTEX
  5
101DB
  8
0
 62
7
 10
46.370236066253078
 20
29.983760726817341
 70
0
  0
SEQEND
  5
101DC
  8
0
  0
POLYLINE
  5
101DD
  8
0
 62
7
 66
1
 70
0
 10
0
 20
0
 30
0
  0
VERTEX
  5
101DE
  8
0
 62
7
 10
46.370236066253078
 20
29.983760726817341
 70
0
  0
VERTEX
  5
101DF
  8
0
 62
7
 10
45.73496045877301
 20
30.110367985900272
 70
0
  0
SEQEND
  5
101E0
  8
0
  0
POLYLINE
  5
101E1
  8
0
 62
7
 66
1
 70
0
 10
0
 20
0
 30
0
  0
VERTEX
  5
101E2
  8
0
 62
7
 10
45.73496045877301
 20
30.110367985900272
 70
0
  0
VERTEX
  5
101E3
  8
0
 62
7
 10
44.972905337435748
 20
30.195806353934479
 70
0
  0
SEQEND
  5
101E4
  8
0
  0
POLYLINE
  5
101E5
  8
0
 62
7
 66
1
 70
0
 10
0
 20
0
 30
0
  0
VERTEX
  5
101E6
  8
0
 62
7
 10
44.972905337435748
 20
30.195806353934479
 70
0
  0
VERTEX
  5
101E7
  8
0
 62
7
 10
44.210850216098493
 20
30.195806353934479
 70
0
  0
SEQEND
  5
101E8
  8
0
  0
POLYLINE
  5
101E9
  8
0
 62
7
 66
1
 70
0
 10
0
 20
0
 30
0
  0
VERTEX
  5
101EA
  8
0
 62
7
 10
44.210850216098493
 20
30.195806353934479
 70
0
  0
VERTEX
  5
101EB
  8
0
 62
7
 10
43.491514278778318
 20
30.195806353934479
 70
0
  0
SEQEND
  5
101EC
  8
0
  0
POLYLINE
  5
101ED
  8
0
 62
7
 66
1
 70
0
 10
0
 20
0
 30
0
  0
VERTEX
  5
101EE
  8
0
 62
7
 10
43.491514278778318
 20
30.195806353934479
 70
0
  0
VERTEX
  5
101EF
  8
0
 62
7
 10
42.772178341458151
 20
30.110367985900272
 70
0
  0
SEQEND
  5
101F0
  8
0
  0
POLYLINE
  5
101F1
  8
0
 62
7
 66
1
 70
0
 10
0
 20
0
 30
0
  0
VERTEX
  5
101F2
  8
0
 62
7
 10
42.772178341458151
 20
30.110367985900272
 70
0
  0
VERTEX
  5
101F3
  8
0
 62
7
 10
42.094183549960981
 20
29.983760726817341
 70
0
  0
SEQEND
  5
101F4
  8
0
  0
POLYLINE
  5
101F5
  8
0
 62
7
 66
1
 70
0
 10
0
 20
0
 30
0
  0
VERTEX
  5
101F6
  8
0
 62
7
 10
42.094183549960981
 20
29.983760726817341
 70
0
  0
VERTEX
  5
101F7
  8
0
 62
7
 10
41.417566796657923
 20
29.814089774168789
 70
0
  0
SEQEND
  5
101F8
  8
0
  0
POLYLINE
  5
101F9
  8
0
 62
7
 66
1
 70
0
 10
0
 20
0
 30
0
  0
VERTEX
  5
101FA
  8
0
 62
7
 10
41.417566796657923
 20
29.814089774168789
 70
0
  0
VERTEX
  5
101FB
  8
0
 62
7
 10
40.909070703035027
 20
29.603077675697222
 70
0
  0
SEQEND
  5
101FC
  8
0
  0
POLYLINE
  5
101FD
  8
0
 62
7
 66
1
 70
0
 10
0
 20
0
 30
0
  0
VERTEX
  5
101FE
  8
0
 62
7
 10
40.909070703035027
 20
29.603077675697222
 70
0
  0
VERTEX
  5
101FF
  8
0
 62
7
 10
40.570073307286457
 20
29.391032048580119
 70
0
  0
SEQEND
  5
10200
  8
0
  0
POLYLINE
  5
10201
  8
0
 62
7
 66
1
 70
0
 10
0
 20
0
 30
0
  0
VERTEX
  5
10202
  8
0
 62
7
 10
40.570073307286457
 20
29.391032048580119
 70
0
  0
VERTEX
  5
10203
  8
0
 62
7
 10
40.486012977446357
 20
29.137473020865709
 70
0
  0
SEQEND
  5
10204
  8
0
  0
POLYLINE
  5
10205
  8
0
 62
7
 66
1
 70
0
 10
0
 20
0
 30
0
  0
VERTEX
  5
10206
  8
0
 62
7
 10
45.480023392864517
 20
54.365218240253228
 70
0
  0
VERTEX
  5
10207
  8
0
 62
7
 10
45.522742576881619
 20
54.365218240253228
 70
0
  0
SEQEND
  5
10208
  8
0
  0
POLYLINE
  5
10209
  8
0
 62
7
 66
1
 70
0
 10
0
 20
0
 30
0
  0
VERTEX
  5
1020A
  8
0
 62
7
 10
45.522742576881619
 20
54.365218240253228
 70
0
  0
VERTEX
  5
1020B
  8
0
 62
7
 10
45.565461760898728
 20
54.4079374242703
 70
0
  0
SEQEND
  5
1020C
  8
0
  0
POLYLINE
  5
1020D
  8
0
 62
7
 66
1
 70
0
 10
0
 20
0
 30
0
  0
VERTEX
  5
1020E
  8
0
 62
7
 10
45.565461760898728
 20
54.4079374242703
 70
0
  0
VERTEX
  5
1020F
  8
0
 62
7
 10
45.608180944915809
 20
54.4919977541104
 70
0
  0
SEQEND
  5
10210
  8
0
  0
POLYLINE
  5
10211
  8
0
 62
7
 66
1
 70
0
 10
0
 20
0
 30
0
  0
VERTEX
  5
10212
  8
0
 62
7
 10
45.608180944915809
 20
54.4919977541104
 70
0
  0
VERTEX
  5
10213
  8
0
 62
7
 10
45.608180944915809
 20
54.534716938127531
 70
0
  0
SEQEND
  5
10214
  8
0
  0
POLYLINE
  5
10215
  8
0
 62
7
 66
1
 70
0
 10
0
 20
0
 30
0
  0
VERTEX
  5
10216
  8
0
 62
7
 10
45.608180944915809
 20
54.534716938127531
 70
0
  0
VERTEX
  5
10217
  8
0
 62
7
 10
45.608180944915809
 20
54.534716938127531
 70
0
  0
SEQEND
  5
10218
  8
0
  0
POLYLINE
  5
10219
  8
0
 62
7
 66
1
 70
0
 10
0
 20
0
 30
0
  0
VERTEX
  5
1021A
  8
0
 62
7
 10
44.464409243812867
 20
54.027598882698733
 70
0
  0
VERTEX
  5
1021B
  8
0
 62
7
 10
44.719346309721352
 20
54.027598882698733
 70
0
  0
SEQEND
  5
1021C
  8
0
  0
POLYLINE
  5
1021D
  8
0
 62
7
 66
1
 70
0
 10
0
 20
0
 30
0
  0
VERTEX
  5
1021E
  8
0
 62
7
 10
44.719346309721352
 20
54.027598882698733
 70
0
  0
VERTEX
  5
1021F
  8
0
 62
7
 10
44.93018615341866
 20
54.068940028521752
 70
0
  0
SEQEND
  5
10220
  8
0
  0
POLYLINE
  5
10221
  8
0
 62
7
 66
1
 70
0
 10
0
 20
0
 30
0
  0
VERTEX
  5
10222
  8
0
 62
7
 10
44.93018615341866
 20
54.068940028521752
 70
0
  0
VERTEX
  5
10223
  8
0
 62
7
 10
45.099684851292942
 20
54.154378396555948
 70
0
  0
SEQEND
  5
10224
  8
0
  0
POLYLINE
  5
10225
  8
0
 62
7
 66
1
 70
0
 10
0
 20
0
 30
0
  0
VERTEX
  5
10226
  8
0
 62
7
 10
45.099684851292942
 20
54.154378396555948
 70
0
  0
VERTEX
  5
10227
  8
0
 62
7
 10
45.269183549167231
 20
54.195547287604647
 70
0
  0
SEQEND
  5
10228
  8
0
  0
POLYLINE
  5
10229
  8
0
 62
7
 66
1
 70
0
 10
0
 20
0
 30
0
  0
VERTEX
  5
1022A
  8
0
 62
7
 10
45.269183549167231
 20
54.195547287604647
 70
0
  0
VERTEX
  5
1022B
  8
0
 62
7
 10
45.395963063024418
 20
54.2813301651874
 70
0
  0
SEQEND
  5
1022C
  8
0
  0
POLYLINE
  5
1022D
  8
0
 62
7
 66
1
 70
0
 10
0
 20
0
 30
0
  0
VERTEX
  5
1022E
  8
0
 62
7
 10
45.395963063024418
 20
54.2813301651874
 70
0
  0
VERTEX
  5
1022F
  8
0
 62
7
 10
45.480023392864517
 20
54.365218240253228
 70
0
  0
SEQEND
  5
10230
  8
0
  0
POLYLINE
  5
10231
  8
0
 62
7
 66
1
 70
0
 10
0
 20
0
 30
0
  0
VERTEX
  5
10232
  8
0
 62
7
 10
42.983018185155437
 20
54.365218240253228
 70
0
  0
VERTEX
  5
10233
  8
0
 62
7
 10
43.068456553189648
 20
54.2813301651874
 70
0
  0
SEQEND
  5
10234
  8
0
  0
POLYLINE
  5
10235
  8
0
 62
7
 66
1
 70
0
 10
0
 20
0
 30
0
  0
VERTEX
  5
10236
  8
0
 62
7
 10
43.068456553189648
 20
54.2813301651874
 70
0
  0
VERTEX
  5
10237
  8
0
 62
7
 10
43.195236067046842
 20
54.195547287604647
 70
0
  0
SEQEND
  5
10238
  8
0
  0
POLYLINE
  5
10239
  8
0
 62
7
 66
1
 70
0
 10
0
 20
0
 30
0
  0
VERTEX
  5
1023A
  8
0
 62
7
 10
43.195236067046842
 20
54.195547287604647
 70
0
  0
VERTEX
  5
1023B
  8
0
 62
7
 10
43.364734764921117
 20
54.154378396555948
 70
0
  0
SEQEND
  5
1023C
  8
0
  0
POLYLINE
  5
1023D
  8
0
 62
7
 66
1
 70
0
 10
0
 20
0
 30
0
  0
VERTEX
  5
1023E
  8
0
 62
7
 10
43.364734764921117
 20
54.154378396555948
 70
0
  0
VERTEX
  5
1023F
  8
0
 62
7
 10
43.532855424601323
 20
54.068940028521752
 70
0
  0
SEQEND
  5
10240
  8
0
  0
POLYLINE
  5
10241
  8
0
 62
7
 66
1
 70
0
 10
0
 20
0
 30
0
  0
VERTEX
  5
10242
  8
0
 62
7
 10
43.532855424601323
 20
54.068940028521752
 70
0
  0
VERTEX
  5
10243
  8
0
 62
7
 10
43.745073306492714
 20
54.027598882698733
 70
0
  0
SEQEND
  5
10244
  8
0
  0
POLYLINE
  5
10245
  8
0
 62
7
 66
1
 70
0
 10
0
 20
0
 30
0
  0
VERTEX
  5
10246
  8
0
 62
7
 10
43.745073306492714
 20
54.027598882698733
 70
0
  0
VERTEX
  5
10247
  8
0
 62
7
 10
43.9986323342071
 20
54.027598882698733
 70
0
  0
SEQEND
  5
10248
  8
0
  0
POLYLINE
  5
10249
  8
0
 62
7
 66
1
 70
0
 10
0
 20
0
 30
0
  0
VERTEX
  5
1024A
  8
0
 62
7
 10
42.85623867129825
 20
54.534716938127531
 70
0
  0
VERTEX
  5
1024B
  8
0
 62
7
 10
42.85623867129825
 20
54.4919977541104
 70
0
  0
SEQEND
  5
1024C
  8
0
  0
POLYLINE
  5
1024D
  8
0
 62
7
 66
1
 70
0
 10
0
 20
0
 30
0
  0
VERTEX
  5
1024E
  8
0
 62
7
 10
42.85623867129825
 20
54.4919977541104
 70
0
  0
VERTEX
  5
1024F
  8
0
 62
7
 10
42.898957855315338
 20
54.4079374242703
 70
0
  0
SEQEND
  5
10250
  8
0
  0
POLYLINE
  5
10251
  8
0
 62
7
 66
1
 70
0
 10
0
 20
0
 30
0
  0
VERTEX
  5
10252
  8
0
 62
7
 10
42.898957855315338
 20
54.4079374242703
 70
0
  0
VERTEX
  5
10253
  8
0
 62
7
 10
42.940299001138342
 20
54.365218240253228
 70
0
  0
SEQEND
  5
10254
  8
0
  0
POLYLINE
  5
10255
  8
0
 62
7
 66
1
 70
0
 10
0
 20
0
 30
0
  0
VERTEX
  5
10256
  8
0
 62
7
 10
42.940299001138342
 20
54.365218240253228
 70
0
  0
VERTEX
  5
10257
  8
0
 62
7
 10
42.983018185155437
 20
54.365218240253228
 70
0
  0
SEQEND
  5
10258
  8
0
  0
POLYLINE
  5
10259
  8
0
 62
7
 66
1
 70
0
 10
0
 20
0
 30
0
  0
VERTEX
  5
1025A
  8
0
 62
7
 10
42.983018185155437
 20
54.365218240253228
 70
0
  0
VERTEX
  5
1025B
  8
0
 62
7
 10
42.983018185155437
 20
54.365218240253228
 70
0
  0
SEQEND
  5
1025C
  8
0
  0
POLYLINE
  5
1025D
  8
0
 62
7
 66
1
 70
0
 10
0
 20
0
 30
0
  0
VERTEX
  5
1025E
  8
0
 62
7
 10
45.73496045877301
 20
62.323216556406066
 70
0
  0
VERTEX
  5
1025F
  8
0
 62
7
 10
45.692241274755922
 20
62.450168325037573
 70
0
  0
SEQEND
  5
10260
  8
0
  0
POLYLINE
  5
10261
  8
0
 62
7
 66
1
 70
0
 10
0
 20
0
 30
0
  0
VERTEX
  5
10262
  8
0
 62
7
 10
45.692241274755922
 20
62.450168325037573
 70
0
  0
VERTEX
  5
10263
  8
0
 62
7
 10
45.565461760898728
 20
62.576947838894739
 70
0
  0
SEQEND
  5
10264
  8
0
  0
POLYLINE
  5
10265
  8
0
 62
7
 66
1
 70
0
 10
0
 20
0
 30
0
  0
VERTEX
  5
10266
  8
0
 62
7
 10
45.565461760898728
 20
62.576947838894739
 70
0
  0
VERTEX
  5
10267
  8
0
 62
7
 10
45.395963063024418
 20
62.662213952154673
 70
0
  0
SEQEND
  5
10268
  8
0
  0
POLYLINE
  5
10269
  8
0
 62
7
 66
1
 70
0
 10
0
 20
0
 30
0
  0
VERTEX
  5
1026A
  8
0
 62
7
 10
45.395963063024418
 20
62.662213952154673
 70
0
  0
VERTEX
  5
1026B
  8
0
 62
7
 10
45.099684851292942
 20
62.746618791543312
 70
0
  0
SEQEND
  5
1026C
  8
0
  0
POLYLINE
  5
1026D
  8
0
 62
7
 66
1
 70
0
 10
0
 20
0
 30
0
  0
VERTEX
  5
1026E
  8
0
 62
7
 10
45.608180944915809
 20
54.534716938127531
 70
0
  0
VERTEX
  5
1026F
  8
0
 62
7
 10
45.73496045877301
 20
62.323216556406066
 70
0
  0
SEQEND
  5
10270
  8
0
  0
POLYLINE
  5
10271
  8
0
 62
7
 66
1
 70
0
 10
0
 20
0
 30
0
  0
VERTEX
  5
10272
  8
0
 62
7
 10
42.85623867129825
 20
54.534716938127531
 70
0
  0
VERTEX
  5
10273
  8
0
 62
7
 10
42.729459157441049
 20
62.323216556406066
 70
0
  0
SEQEND
  5
10274
  8
0
  0
POLYLINE
  5
10275
  8
0
 62
7
 66
1
 70
0
 10
0
 20
0
 30
0
  0
VERTEX
  5
10276
  8
0
 62
7
 10
43.364734764921117
 20
62.746618791543312
 70
0
  0
VERTEX
  5
10277
  8
0
 62
7
 10
43.109797699012653
 20
62.662213952154673
 70
0
  0
SEQEND
  5
10278
  8
0
  0
POLYLINE
  5
10279
  8
0
 62
7
 66
1
 70
0
 10
0
 20
0
 30
0
  0
VERTEX
  5
1027A
  8
0
 62
7
 10
43.109797699012653
 20
62.662213952154673
 70
0
  0
VERTEX
  5
1027B
  8
0
 62
7
 10
42.898957855315338
 20
62.576947838894739
 70
0
  0
SEQEND
  5
1027C
  8
0
  0
POLYLINE
  5
1027D
  8
0
 62
7
 66
1
 70
0
 10
0
 20
0
 30
0
  0
VERTEX
  5
1027E
  8
0
 62
7
 10
42.898957855315338
 20
62.576947838894739
 70
0
  0
VERTEX
  5
1027F
  8
0
 62
7
 10
42.772178341458151
 20
62.450168325037573
 70
0
  0
SEQEND
  5
10280
  8
0
  0
POLYLINE
  5
10281
  8
0
 62
7
 66
1
 70
0
 10
0
 20
0
 30
0
  0
VERTEX
  5
10282
  8
0
 62
7
 10
42.772178341458151
 20
62.450168325037573
 70
0
  0
VERTEX
  5
10283
  8
0
 62
7
 10
42.729459157441049
 20
62.323216556406066
 70
0
  0
SEQEND
  5
10284
  8
0
  0
POLYLINE
  5
10285
  8
0
 62
7
 66
1
 70
0
 10
0
 20
0
 30
0
  0
VERTEX
  5
10286
  8
0
 62
7
 10
45.480023392864517
 20
54.365218240253228
 70
0
  0
VERTEX
  5
10287
  8
0
 62
7
 10
45.522742576881619
 20
54.450656608287431
 70
0
  0
SEQEND
  5
10288
  8
0
  0
POLYLINE
  5
10289
  8
0
 62
7
 66
1
 70
0
 10
0
 20
0
 30
0
  0
VERTEX
  5
1028A
  8
0
 62
7
 10
45.522742576881619
 20
54.450656608287431
 70
0
  0
VERTEX
  5
1028B
  8
0
 62
7
 10
45.522742576881619
 20
54.534716938127531
 70
0
  0
SEQEND
  5
1028C
  8
0
  0
POLYLINE
  5
1028D
  8
0
 62
7
 66
1
 70
0
 10
0
 20
0
 30
0
  0
VERTEX
  5
1028E
  8
0
 62
7
 10
45.522742576881619
 20
54.534716938127531
 70
0
  0
VERTEX
  5
1028F
  8
0
 62
7
 10
45.480023392864517
 20
54.619983051387457
 70
0
  0
SEQEND
  5
10290
  8
0
  0
POLYLINE
  5
10291
  8
0
 62
7
 66
1
 70
0
 10
0
 20
0
 30
0
  0
VERTEX
  5
10292
  8
0
 62
7
 10
45.480023392864517
 20
54.619983051387457
 70
0
  0
VERTEX
  5
10293
  8
0
 62
7
 10
45.395963063024418
 20
54.70438789077604
 70
0
  0
SEQEND
  5
10294
  8
0
  0
POLYLINE
  5
10295
  8
0
 62
7
 66
1
 70
0
 10
0
 20
0
 30
0
  0
VERTEX
  5
10296
  8
0
 62
7
 10
45.395963063024418
 20
54.70438789077604
 70
0
  0
VERTEX
  5
10297
  8
0
 62
7
 10
45.269183549167231
 20
54.746934820018907
 70
0
  0
SEQEND
  5
10298
  8
0
  0
POLYLINE
  5
10299
  8
0
 62
7
 66
1
 70
0
 10
0
 20
0
 30
0
  0
VERTEX
  5
1029A
  8
0
 62
7
 10
45.269183549167231
 20
54.746934820018907
 70
0
  0
VERTEX
  5
1029B
  8
0
 62
7
 10
45.099684851292942
 20
54.830995149859007
 70
0
  0
SEQEND
  5
1029C
  8
0
  0
POLYLINE
  5
1029D
  8
0
 62
7
 66
1
 70
0
 10
0
 20
0
 30
0
  0
VERTEX
  5
1029E
  8
0
 62
7
 10
45.099684851292942
 20
54.830995149859007
 70
0
  0
VERTEX
  5
1029F
  8
0
 62
7
 10
44.93018615341866
 20
54.87371433387608
 70
0
  0
SEQEND
  5
102A0
  8
0
  0
POLYLINE
  5
102A1
  8
0
 62
7
 66
1
 70
0
 10
0
 20
0
 30
0
  0
VERTEX
  5
102A2
  8
0
 62
7
 10
44.93018615341866
 20
54.87371433387608
 70
0
  0
VERTEX
  5
102A3
  8
0
 62
7
 10
44.719346309721352
 20
54.91626126311894
 70
0
  0
SEQEND
  5
102A4
  8
0
  0
POLYLINE
  5
102A5
  8
0
 62
7
 66
1
 70
0
 10
0
 20
0
 30
0
  0
VERTEX
  5
102A6
  8
0
 62
7
 10
44.719346309721352
 20
54.91626126311894
 70
0
  0
VERTEX
  5
102A7
  8
0
 62
7
 10
44.464409243812867
 20
54.957602408941909
 70
0
  0
SEQEND
  5
102A8
  8
0
  0
POLYLINE
  5
102A9
  8
0
 62
7
 66
1
 70
0
 10
0
 20
0
 30
0
  0
VERTEX
  5
102AA
  8
0
 62
7
 10
44.464409243812867
 20
54.957602408941909
 70
0
  0
VERTEX
  5
102AB
  8
0
 62
7
 10
44.210850216098493
 20
54.957602408941909
 70
0
  0
SEQEND
  5
102AC
  8
0
  0
POLYLINE
  5
102AD
  8
0
 62
7
 66
1
 70
0
 10
0
 20
0
 30
0
  0
VERTEX
  5
102AE
  8
0
 62
7
 10
44.210850216098493
 20
54.957602408941909
 70
0
  0
VERTEX
  5
102AF
  8
0
 62
7
 10
43.9986323342071
 20
54.957602408941909
 70
0
  0
SEQEND
  5
102B0
  8
0
  0
POLYLINE
  5
102B1
  8
0
 62
7
 66
1
 70
0
 10
0
 20
0
 30
0
  0
VERTEX
  5
102B2
  8
0
 62
7
 10
43.9986323342071
 20
54.957602408941909
 70
0
  0
VERTEX
  5
102B3
  8
0
 62
7
 10
43.745073306492714
 20
54.91626126311894
 70
0
  0
SEQEND
  5
102B4
  8
0
  0
POLYLINE
  5
102B5
  8
0
 62
7
 66
1
 70
0
 10
0
 20
0
 30
0
  0
VERTEX
  5
102B6
  8
0
 62
7
 10
43.745073306492714
 20
54.91626126311894
 70
0
  0
VERTEX
  5
102B7
  8
0
 62
7
 10
43.532855424601323
 20
54.87371433387608
 70
0
  0
SEQEND
  5
102B8
  8
0
  0
POLYLINE
  5
102B9
  8
0
 62
7
 66
1
 70
0
 10
0
 20
0
 30
0
  0
VERTEX
  5
102BA
  8
0
 62
7
 10
43.532855424601323
 20
54.87371433387608
 70
0
  0
VERTEX
  5
102BB
  8
0
 62
7
 10
43.364734764921117
 20
54.830995149859007
 70
0
  0
SEQEND
  5
102BC
  8
0
  0
POLYLINE
  5
102BD
  8
0
 62
7
 66
1
 70
0
 10
0
 20
0
 30
0
  0
VERTEX
  5
102BE
  8
0
 62
7
 10
43.364734764921117
 20
54.830995149859007
 70
0
  0
VERTEX
  5
102BF
  8
0
 62
7
 10
43.195236067046842
 20
54.746934820018907
 70
0
  0
SEQEND
  5
102C0
  8
0
  0
POLYLINE
  5
102C1
  8
0
 62
7
 66
1
 70
0
 10
0
 20
0
 30
0
  0
VERTEX
  5
102C2
  8
0
 62
7
 10
43.195236067046842
 20
54.746934820018907
 70
0
  0
VERTEX
  5
102C3
  8
0
 62
7
 10
43.068456553189648
 20
54.70438789077604
 70
0
  0
SEQEND
  5
102C4
  8
0
  0
POLYLINE
  5
102C5
  8
0
 62
7
 66
1
 70
0
 10
0
 20
0
 30
0
  0
VERTEX
  5
102C6
  8
0
 62
7
 10
43.068456553189648
 20
54.70438789077604
 70
0
  0
VERTEX
  5
102C7
  8
0
 62
7
 10
42.983018185155437
 20
54.619983051387457
 70
0
  0
SEQEND
  5
102C8
  8
0
  0
POLYLINE
  5
102C9
  8
0
 62
7
 66
1
 70
0
 10
0
 20
0
 30
0
  0
VERTEX
  5
102CA
  8
0
 62
7
 10
42.983018185155437
 20
54.619983051387457
 70
0
  0
VERTEX
  5
102CB
  8
0
 62
7
 10
42.940299001138342
 20
54.534716938127531
 70
0
  0
SEQEND
  5
102CC
  8
0
  0
POLYLINE
  5
102CD
  8
0
 62
7
 66
1
 70
0
 10
0
 20
0
 30
0
  0
VERTEX
  5
102CE
  8
0
 62
7
 10
42.940299001138342
 20
54.534716938127531
 70
0
  0
VERTEX
  5
102CF
  8
0
 62
7
 10
42.940299001138342
 20
54.450656608287431
 70
0
  0
SEQEND
  5
102D0
  8
0
  0
POLYLINE
  5
102D1
  8
0
 62
7
 66
1
 70
0
 10
0
 20
0
 30
0
  0
VERTEX
  5
102D2
  8
0
 62
7
 10
42.940299001138342
 20
54.450656608287431
 70
0
  0
VERTEX
  5
102D3
  8
0
 62
7
 10
42.983018185155437
 20
54.365218240253228
 70
0
  0
SEQEND
  5
102D4
  8
0
  0
POLYLINE
  5
102D5
  8
0
 62
7
 66
1
 70
0
 10
0
 20
0
 30
0
  0
VERTEX
  5
102D6
  8
0
 62
7
 10
45.099684851292942
 20
62.746618791543312
 70
0
  0
VERTEX
  5
102D7
  8
0
 62
7
 10
44.846125823578561
 20
62.831884904803239
 70
0
  0
SEQEND
  5
102D8
  8
0
  0
POLYLINE
  5
102D9
  8
0
 62
7
 66
1
 70
0
 10
0
 20
0
 30
0
  0
VERTEX
  5
102DA
  8
0
 62
7
 10
44.846125823578561
 20
62.831884904803239
 70
0
  0
VERTEX
  5
102DB
  8
0
 62
7
 10
44.549847611847063
 20
62.873226050626208
 70
0
  0
SEQEND
  5
102DC
  8
0
  0
POLYLINE
  5
102DD
  8
0
 62
7
 66
1
 70
0
 10
0
 20
0
 30
0
  0
VERTEX
  5
102DE
  8
0
 62
7
 10
44.549847611847063
 20
62.873226050626208
 70
0
  0
VERTEX
  5
102DF
  8
0
 62
7
 10
44.210850216098493
 20
62.873226050626208
 70
0
  0
SEQEND
  5
102E0
  8
0
  0
POLYLINE
  5
102E1
  8
0
 62
7
 66
1
 70
0
 10
0
 20
0
 30
0
  0
VERTEX
  5
102E2
  8
0
 62
7
 10
44.210850216098493
 20
62.873226050626208
 70
0
  0
VERTEX
  5
102E3
  8
0
 62
7
 10
43.914572004367
 20
62.873226050626208
 70
0
  0
SEQEND
  5
102E4
  8
0
  0
POLYLINE
  5
102E5
  8
0
 62
7
 66
1
 70
0
 10
0
 20
0
 30
0
  0
VERTEX
  5
102E6
  8
0
 62
7
 10
43.914572004367
 20
62.873226050626208
 70
0
  0
VERTEX
  5
102E7
  8
0
 62
7
 10
43.618293792635512
 20
62.831884904803239
 70
0
  0
SEQEND
  5
102E8
  8
0
  0
POLYLINE
  5
102E9
  8
0
 62
7
 66
1
 70
0
 10
0
 20
0
 30
0
  0
VERTEX
  5
102EA
  8
0
 62
7
 10
43.618293792635512
 20
62.831884904803239
 70
0
  0
VERTEX
  5
102EB
  8
0
 62
7
 10
43.364734764921117
 20
62.746618791543312
 70
0
  0
SEQEND
  5
102EC
  8
0
  0
POLYLINE
  5
102ED
  8
0
 62
7
 66
1
 70
0
 10
0
 20
0
 30
0
  0
VERTEX
  5
102EE
  8
0
 62
7
 10
44.464409243812867
 20
54.450656608287431
 70
0
  0
VERTEX
  5
102EF
  8
0
 62
7
 10
44.507128427829969
 20
54.450656608287431
 70
0
  0
SEQEND
  5
102F0
  8
0
  0
POLYLINE
  5
102F1
  8
0
 62
7
 66
1
 70
0
 10
0
 20
0
 30
0
  0
VERTEX
  5
102F2
  8
0
 62
7
 10
44.507128427829969
 20
54.450656608287431
 70
0
  0
VERTEX
  5
102F3
  8
0
 62
7
 10
44.507128427829969
 20
54.4919977541104
 70
0
  0
SEQEND
  5
102F4
  8
0
  0
POLYLINE
  5
102F5
  8
0
 62
7
 66
1
 70
0
 10
0
 20
0
 30
0
  0
VERTEX
  5
102F6
  8
0
 62
7
 10
44.507128427829969
 20
54.4919977541104
 70
0
  0
VERTEX
  5
102F7
  8
0
 62
7
 10
44.507128427829969
 20
54.4919977541104
 70
0
  0
SEQEND
  5
102F8
  8
0
  0
POLYLINE
  5
102F9
  8
0
 62
7
 66
1
 70
0
 10
0
 20
0
 30
0
  0
VERTEX
  5
102FA
  8
0
 62
7
 10
44.507128427829969
 20
54.4919977541104
 70
0
  0
VERTEX
  5
102FB
  8
0
 62
7
 10
44.507128427829969
 20
54.4919977541104
 70
0
  0
SEQEND
  5
102FC
  8
0
  0
POLYLINE
  5
102FD
  8
0
 62
7
 66
1
 70
0
 10
0
 20
0
 30
0
  0
VERTEX
  5
102FE
  8
0
 62
7
 10
44.507128427829969
 20
54.4919977541104
 70
0
  0
VERTEX
  5
102FF
  8
0
 62
7
 10
44.464409243812867
 20
54.534716938127531
 70
0
  0
SEQEND
  5
10300
  8
0
  0
POLYLINE
  5
10301
  8
0
 62
7
 66
1
 70
0
 10
0
 20
0
 30
0
  0
VERTEX
  5
10302
  8
0
 62
7
 10
44.464409243812867
 20
54.534716938127531
 70
0
  0
VERTEX
  5
10303
  8
0
 62
7
 10
44.464409243812867
 20
54.534716938127531
 70
0
  0
SEQEND
  5
10304
  8
0
  0
POLYLINE
  5
10305
  8
0
 62
7
 66
1
 70
0
 10
0
 20
0
 30
0
  0
VERTEX
  5
10306
  8
0
 62
7
 10
44.464409243812867
 20
54.534716938127531
 70
0
  0
VERTEX
  5
10307
  8
0
 62
7
 10
44.423068097989884
 20
54.534716938127531
 70
0
  0
SEQEND
  5
10308
  8
0
  0
POLYLINE
  5
10309
  8
0
 62
7
 66
1
 70
0
 10
0
 20
0
 30
0
  0
VERTEX
  5
1030A
  8
0
 62
7
 10
44.423068097989884
 20
54.534716938127531
 70
0
  0
VERTEX
  5
1030B
  8
0
 62
7
 10
44.380348913972782
 20
54.534716938127531
 70
0
  0
SEQEND
  5
1030C
  8
0
  0
POLYLINE
  5
1030D
  8
0
 62
7
 66
1
 70
0
 10
0
 20
0
 30
0
  0
VERTEX
  5
1030E
  8
0
 62
7
 10
44.380348913972782
 20
54.534716938127531
 70
0
  0
VERTEX
  5
1030F
  8
0
 62
7
 10
44.33762972995568
 20
54.577263867370327
 70
0
  0
SEQEND
  5
10310
  8
0
  0
POLYLINE
  5
10311
  8
0
 62
7
 66
1
 70
0
 10
0
 20
0
 30
0
  0
VERTEX
  5
10312
  8
0
 62
7
 10
44.33762972995568
 20
54.577263867370327
 70
0
  0
VERTEX
  5
10313
  8
0
 62
7
 10
44.294910545938571
 20
54.577263867370327
 70
0
  0
SEQEND
  5
10314
  8
0
  0
POLYLINE
  5
10315
  8
0
 62
7
 66
1
 70
0
 10
0
 20
0
 30
0
  0
VERTEX
  5
10316
  8
0
 62
7
 10
44.294910545938571
 20
54.577263867370327
 70
0
  0
VERTEX
  5
10317
  8
0
 62
7
 10
44.210850216098493
 20
54.577263867370327
 70
0
  0
SEQEND
  5
10318
  8
0
  0
POLYLINE
  5
10319
  8
0
 62
7
 66
1
 70
0
 10
0
 20
0
 30
0
  0
VERTEX
  5
1031A
  8
0
 62
7
 10
44.210850216098493
 20
54.577263867370327
 70
0
  0
VERTEX
  5
1031B
  8
0
 62
7
 10
44.168131032081391
 20
54.577263867370327
 70
0
  0
SEQEND
  5
1031C
  8
0
  0
POLYLINE
  5
1031D
  8
0
 62
7
 66
1
 70
0
 10
0
 20
0
 30
0
  0
VERTEX
  5
1031E
  8
0
 62
7
 10
44.168131032081391
 20
54.577263867370327
 70
0
  0
VERTEX
  5
1031F
  8
0
 62
7
 10
44.126789886258393
 20
54.577263867370327
 70
0
  0
SEQEND
  5
10320
  8
0
  0
POLYLINE
  5
10321
  8
0
 62
7
 66
1
 70
0
 10
0
 20
0
 30
0
  0
VERTEX
  5
10322
  8
0
 62
7
 10
44.126789886258393
 20
54.577263867370327
 70
0
  0
VERTEX
  5
10323
  8
0
 62
7
 10
44.084070702241291
 20
54.534716938127531
 70
0
  0
SEQEND
  5
10324
  8
0
  0
POLYLINE
  5
10325
  8
0
 62
7
 66
1
 70
0
 10
0
 20
0
 30
0
  0
VERTEX
  5
10326
  8
0
 62
7
 10
44.084070702241291
 20
54.534716938127531
 70
0
  0
VERTEX
  5
10327
  8
0
 62
7
 10
44.041351518224182
 20
54.534716938127531
 70
0
  0
SEQEND
  5
10328
  8
0
  0
POLYLINE
  5
10329
  8
0
 62
7
 66
1
 70
0
 10
0
 20
0
 30
0
  0
VERTEX
  5
1032A
  8
0
 62
7
 10
44.041351518224182
 20
54.534716938127531
 70
0
  0
VERTEX
  5
1032B
  8
0
 62
7
 10
43.9986323342071
 20
54.534716938127531
 70
0
  0
SEQEND
  5
1032C
  8
0
  0
POLYLINE
  5
1032D
  8
0
 62
7
 66
1
 70
0
 10
0
 20
0
 30
0
  0
VERTEX
  5
1032E
  8
0
 62
7
 10
43.9986323342071
 20
54.534716938127531
 70
0
  0
VERTEX
  5
1032F
  8
0
 62
7
 10
43.9986323342071
 20
54.534716938127531
 70
0
  0
SEQEND
  5
10330
  8
0
  0
POLYLINE
  5
10331
  8
0
 62
7
 66
1
 70
0
 10
0
 20
0
 30
0
  0
VERTEX
  5
10332
  8
0
 62
7
 10
43.9986323342071
 20
54.534716938127531
 70
0
  0
VERTEX
  5
10333
  8
0
 62
7
 10
43.9572911883841
 20
54.4919977541104
 70
0
  0
SEQEND
  5
10334
  8
0
  0
POLYLINE
  5
10335
  8
0
 62
7
 66
1
 70
0
 10
0
 20
0
 30
0
  0
VERTEX
  5
10336
  8
0
 62
7
 10
43.9572911883841
 20
54.4919977541104
 70
0
  0
VERTEX
  5
10337
  8
0
 62
7
 10
43.9572911883841
 20
54.4919977541104
 70
0
  0
SEQEND
  5
10338
  8
0
  0
POLYLINE
  5
10339
  8
0
 62
7
 66
1
 70
0
 10
0
 20
0
 30
0
  0
VERTEX
  5
1033A
  8
0
 62
7
 10
43.9572911883841
 20
54.4919977541104
 70
0
  0
VERTEX
  5
1033B
  8
0
 62
7
 10
43.9572911883841
 20
54.4919977541104
 70
0
  0
SEQEND
  5
1033C
  8
0
  0
POLYLINE
  5
1033D
  8
0
 62
7
 66
1
 70
0
 10
0
 20
0
 30
0
  0
VERTEX
  5
1033E
  8
0
 62
7
 10
43.9572911883841
 20
54.4919977541104
 70
0
  0
VERTEX
  5
1033F
  8
0
 62
7
 10
43.9572911883841
 20
54.450656608287431
 70
0
  0
SEQEND
  5
10340
  8
0
  0
POLYLINE
  5
10341
  8
0
 62
7
 66
1
 70
0
 10
0
 20
0
 30
0
  0
VERTEX
  5
10342
  8
0
 62
7
 10
43.9572911883841
 20
54.450656608287431
 70
0
  0
VERTEX
  5
10343
  8
0
 62
7
 10
43.9986323342071
 20
54.450656608287431
 70
0
  0
SEQEND
  5
10344
  8
0
  0
POLYLINE
  5
10345
  8
0
 62
7
 66
1
 70
0
 10
0
 20
0
 30
0
  0
VERTEX
  5
10346
  8
0
 62
7
 10
42.094183549960981
 20
29.983760726817341
 70
0
  0
VERTEX
  5
10347
  8
0
 62
7
 10
42.094183549960981
 20
30.237147499757469
 70
0
  0
SEQEND
  5
10348
  8
0
  0
POLYLINE
  5
10349
  8
0
 62
7
 66
1
 70
0
 10
0
 20
0
 30
0
  0
VERTEX
  5
1034A
  8
0
 62
7
 10
43.914572004367
 20
30.87242310723752
 70
0
  0
VERTEX
  5
1034B
  8
0
 62
7
 10
43.532855424601323
 20
30.82970392322045
 70
0
  0
SEQEND
  5
1034C
  8
0
  0
POLYLINE
  5
1034D
  8
0
 62
7
 66
1
 70
0
 10
0
 20
0
 30
0
  0
VERTEX
  5
1034E
  8
0
 62
7
 10
43.532855424601323
 20
30.82970392322045
 70
0
  0
VERTEX
  5
1034F
  8
0
 62
7
 10
43.195236067046842
 20
30.788362777397449
 70
0
  0
SEQEND
  5
10350
  8
0
  0
POLYLINE
  5
10351
  8
0
 62
7
 66
1
 70
0
 10
0
 20
0
 30
0
  0
VERTEX
  5
10352
  8
0
 62
7
 10
43.195236067046842
 20
30.788362777397449
 70
0
  0
VERTEX
  5
10353
  8
0
 62
7
 10
42.85623867129825
 20
30.703096664137519
 70
0
  0
SEQEND
  5
10354
  8
0
  0
POLYLINE
  5
10355
  8
0
 62
7
 66
1
 70
0
 10
0
 20
0
 30
0
  0
VERTEX
  5
10356
  8
0
 62
7
 10
42.85623867129825
 20
30.703096664137519
 70
0
  0
VERTEX
  5
10357
  8
0
 62
7
 10
42.602679643583862
 20
30.66003297057188
 70
0
  0
SEQEND
  5
10358
  8
0
  0
POLYLINE
  5
10359
  8
0
 62
7
 66
1
 70
0
 10
0
 20
0
 30
0
  0
VERTEX
  5
1035A
  8
0
 62
7
 10
42.602679643583862
 20
30.66003297057188
 70
0
  0
VERTEX
  5
1035B
  8
0
 62
7
 10
42.390461761692478
 20
30.533425711488949
 70
0
  0
SEQEND
  5
1035C
  8
0
  0
POLYLINE
  5
1035D
  8
0
 62
7
 66
1
 70
0
 10
0
 20
0
 30
0
  0
VERTEX
  5
1035E
  8
0
 62
7
 10
42.390461761692478
 20
30.533425711488949
 70
0
  0
VERTEX
  5
1035F
  8
0
 62
7
 10
42.220963063818168
 20
30.44936538164885
 70
0
  0
SEQEND
  5
10360
  8
0
  0
POLYLINE
  5
10361
  8
0
 62
7
 66
1
 70
0
 10
0
 20
0
 30
0
  0
VERTEX
  5
10362
  8
0
 62
7
 10
42.220963063818168
 20
30.44936538164885
 70
0
  0
VERTEX
  5
10363
  8
0
 62
7
 10
42.094183549960981
 20
30.364099268388909
 70
0
  0
SEQEND
  5
10364
  8
0
  0
POLYLINE
  5
10365
  8
0
 62
7
 66
1
 70
0
 10
0
 20
0
 30
0
  0
VERTEX
  5
10366
  8
0
 62
7
 10
42.094183549960981
 20
30.364099268388909
 70
0
  0
VERTEX
  5
10367
  8
0
 62
7
 10
42.094183549960981
 20
30.237147499757469
 70
0
  0
SEQEND
  5
10368
  8
0
  0
POLYLINE
  5
10369
  8
0
 62
7
 66
1
 70
0
 10
0
 20
0
 30
0
  0
VERTEX
  5
1036A
  8
0
 62
7
 10
44.549847611847063
 20
30.87242310723752
 70
0
  0
VERTEX
  5
1036B
  8
0
 62
7
 10
44.210850216098493
 20
30.87242310723752
 70
0
  0
SEQEND
  5
1036C
  8
0
  0
POLYLINE
  5
1036D
  8
0
 62
7
 66
1
 70
0
 10
0
 20
0
 30
0
  0
VERTEX
  5
1036E
  8
0
 62
7
 10
44.210850216098493
 20
30.87242310723752
 70
0
  0
VERTEX
  5
1036F
  8
0
 62
7
 10
43.914572004367
 20
30.87242310723752
 70
0
  0
SEQEND
  5
10370
  8
0
  0
POLYLINE
  5
10371
  8
0
 62
7
 66
1
 70
0
 10
0
 20
0
 30
0
  0
VERTEX
  5
10372
  8
0
 62
7
 10
46.370236066253078
 20
30.237147499757469
 70
0
  0
VERTEX
  5
10373
  8
0
 62
7
 10
46.370236066253078
 20
30.364099268388909
 70
0
  0
SEQEND
  5
10374
  8
0
  0
POLYLINE
  5
10375
  8
0
 62
7
 66
1
 70
0
 10
0
 20
0
 30
0
  0
VERTEX
  5
10376
  8
0
 62
7
 10
46.370236066253078
 20
30.364099268388909
 70
0
  0
VERTEX
  5
10377
  8
0
 62
7
 10
46.242078514201793
 20
30.44936538164885
 70
0
  0
SEQEND
  5
10378
  8
0
  0
POLYLINE
  5
10379
  8
0
 62
7
 66
1
 70
0
 10
0
 20
0
 30
0
  0
VERTEX
  5
1037A
  8
0
 62
7
 10
46.242078514201793
 20
30.44936538164885
 70
0
  0
VERTEX
  5
1037B
  8
0
 62
7
 10
46.073957854521588
 20
30.533425711488949
 70
0
  0
SEQEND
  5
1037C
  8
0
  0
POLYLINE
  5
1037D
  8
0
 62
7
 66
1
 70
0
 10
0
 20
0
 30
0
  0
VERTEX
  5
1037E
  8
0
 62
7
 10
46.073957854521588
 20
30.533425711488949
 70
0
  0
VERTEX
  5
1037F
  8
0
 62
7
 10
45.8617399726302
 20
30.66003297057188
 70
0
  0
SEQEND
  5
10380
  8
0
  0
POLYLINE
  5
10381
  8
0
 62
7
 66
1
 70
0
 10
0
 20
0
 30
0
  0
VERTEX
  5
10382
  8
0
 62
7
 10
45.8617399726302
 20
30.66003297057188
 70
0
  0
VERTEX
  5
10383
  8
0
 62
7
 10
45.608180944915809
 20
30.703096664137519
 70
0
  0
SEQEND
  5
10384
  8
0
  0
POLYLINE
  5
10385
  8
0
 62
7
 66
1
 70
0
 10
0
 20
0
 30
0
  0
VERTEX
  5
10386
  8
0
 62
7
 10
45.608180944915809
 20
30.703096664137519
 70
0
  0
VERTEX
  5
10387
  8
0
 62
7
 10
45.269183549167231
 20
30.788362777397449
 70
0
  0
SEQEND
  5
10388
  8
0
  0
POLYLINE
  5
10389
  8
0
 62
7
 66
1
 70
0
 10
0
 20
0
 30
0
  0
VERTEX
  5
1038A
  8
0
 62
7
 10
45.269183549167231
 20
30.788362777397449
 70
0
  0
VERTEX
  5
1038B
  8
0
 62
7
 10
44.93018615341866
 20
30.82970392322045
 70
0
  0
SEQEND
  5
1038C
  8
0
  0
POLYLINE
  5
1038D
  8
0
 62
7
 66
1
 70
0
 10
0
 20
0
 30
0
  0
VERTEX
  5
1038E
  8
0
 62
7
 10
44.93018615341866
 20
30.82970392322045
 70
0
  0
VERTEX
  5
1038F
  8
0
 62
7
 10
44.549847611847063
 20
30.87242310723752
 70
0
  0
SEQEND
  5
10390
  8
0
  0
POLYLINE
  5
10391
  8
0
 62
7
 66
1
 70
0
 10
0
 20
0
 30
0
  0
VERTEX
  5
10392
  8
0
 62
7
 10
46.370236066253078
 20
29.983760726817341
 70
0
  0
VERTEX
  5
10393
  8
0
 62
7
 10
46.370236066253078
 20
30.237147499757469
 70
0
  0
SEQEND
  5
10394
  8
0
  0
POLYLINE
  5
10395
  8
0
 62
7
 66
1
 70
0
 10
0
 20
0
 30
0
  0
VERTEX
  5
10396
  8
0
 62
7
 10
43.9986323342071
 20
54.534716938127531
 70
0
  0
VERTEX
  5
10397
  8
0
 62
7
 10
43.9986323342071
 20
44.71464451219714
 70
0
  0
SEQEND
  5
10398
  8
0
  0
POLYLINE
  5
10399
  8
0
 62
7
 66
1
 70
0
 10
0
 20
0
 30
0
  0
VERTEX
  5
1039A
  8
0
 62
7
 10
44.464409243812867
 20
54.534716938127531
 70
0
  0
VERTEX
  5
1039B
  8
0
 62
7
 10
44.464409243812867
 20
44.71464451219714
 70
0
  0
SEQEND
  5
1039C
  8
0
  0
POLYLINE
  5
1039D
  8
0
 62
7
 66
1
 70
0
 10
0
 20
0
 30
0
  0
VERTEX
  5
1039E
  8
0
 62
7
 10
44.464409243812867
 20
44.418366300465607
 70
0
  0
VERTEX
  5
1039F
  8
0
 62
7
 10
44.380348913972782
 20
44.460051955837173
 70
0
  0
SEQEND
  5
103A0
  8
0
  0
POLYLINE
  5
103A1
  8
0
 62
7
 66
1
 70
0
 10
0
 20
0
 30
0
  0
VERTEX
  5
103A2
  8
0
 62
7
 10
44.380348913972782
 20
44.460051955837173
 70
0
  0
VERTEX
  5
103A3
  8
0
 62
7
 10
44.294910545938571
 20
44.460051955837173
 70
0
  0
SEQEND
  5
103A4
  8
0
  0
POLYLINE
  5
103A5
  8
0
 62
7
 66
1
 70
0
 10
0
 20
0
 30
0
  0
VERTEX
  5
103A6
  8
0
 62
7
 10
44.294910545938571
 20
44.460051955837173
 70
0
  0
VERTEX
  5
103A7
  8
0
 62
7
 10
44.210850216098493
 20
44.418366300465607
 70
0
  0
SEQEND
  5
103A8
  8
0
  0
POLYLINE
  5
103A9
  8
0
 62
7
 66
1
 70
0
 10
0
 20
0
 30
0
  0
VERTEX
  5
103AA
  8
0
 62
7
 10
44.210850216098493
 20
44.418366300465607
 70
0
  0
VERTEX
  5
103AB
  8
0
 62
7
 10
44.168131032081391
 20
44.460051955837173
 70
0
  0
SEQEND
  5
103AC
  8
0
  0
POLYLINE
  5
103AD
  8
0
 62
7
 66
1
 70
0
 10
0
 20
0
 30
0
  0
VERTEX
  5
103AE
  8
0
 62
7
 10
44.168131032081391
 20
44.460051955837173
 70
0
  0
VERTEX
  5
103AF
  8
0
 62
7
 10
44.084070702241291
 20
44.460051955837173
 70
0
  0
SEQEND
  5
103B0
  8
0
  0
POLYLINE
  5
103B1
  8
0
 62
7
 66
1
 70
0
 10
0
 20
0
 30
0
  0
VERTEX
  5
103B2
  8
0
 62
7
 10
44.084070702241291
 20
44.460051955837173
 70
0
  0
VERTEX
  5
103B3
  8
0
 62
7
 10
43.9986323342071
 20
44.418366300465607
 70
0
  0
SEQEND
  5
103B4
  8
0
  0
POLYLINE
  5
103B5
  8
0
 62
7
 66
1
 70
0
 10
0
 20
0
 30
0
  0
VERTEX
  5
103B6
  8
0
 62
7
 10
43.9986323342071
 20
44.418366300465607
 70
0
  0
VERTEX
  5
103B7
  8
0
 62
7
 10
44.084070702241291
 20
44.375647116448533
 70
0
  0
SEQEND
  5
103B8
  8
0
  0
POLYLINE
  5
103B9
  8
0
 62
7
 66
1
 70
0
 10
0
 20
0
 30
0
  0
VERTEX
  5
103BA
  8
0
 62
7
 10
44.084070702241291
 20
44.375647116448533
 70
0
  0
VERTEX
  5
103BB
  8
0
 62
7
 10
44.168131032081391
 20
44.375647116448533
 70
0
  0
SEQEND
  5
103BC
  8
0
  0
POLYLINE
  5
103BD
  8
0
 62
7
 66
1
 70
0
 10
0
 20
0
 30
0
  0
VERTEX
  5
103BE
  8
0
 62
7
 10
44.168131032081391
 20
44.375647116448533
 70
0
  0
VERTEX
  5
103BF
  8
0
 62
7
 10
44.210850216098493
 20
44.418366300465607
 70
0
  0
SEQEND
  5
103C0
  8
0
  0
POLYLINE
  5
103C1
  8
0
 62
7
 66
1
 70
0
 10
0
 20
0
 30
0
  0
VERTEX
  5
103C2
  8
0
 62
7
 10
44.210850216098493
 20
44.418366300465607
 70
0
  0
VERTEX
  5
103C3
  8
0
 62
7
 10
44.210850216098493
 20
44.418366300465607
 70
0
  0
SEQEND
  5
103C4
  8
0
  0
POLYLINE
  5
103C5
  8
0
 62
7
 66
1
 70
0
 10
0
 20
0
 30
0
  0
VERTEX
  5
103C6
  8
0
 62
7
 10
44.464409243812867
 20
44.71464451219714
 70
0
  0
VERTEX
  5
103C7
  8
0
 62
7
 10
44.380348913972782
 20
44.756330167568649
 70
0
  0
SEQEND
  5
103C8
  8
0
  0
POLYLINE
  5
103C9
  8
0
 62
7
 66
1
 70
0
 10
0
 20
0
 30
0
  0
VERTEX
  5
103CA
  8
0
 62
7
 10
44.380348913972782
 20
44.756330167568649
 70
0
  0
VERTEX
  5
103CB
  8
0
 62
7
 10
44.294910545938571
 20
44.756330167568649
 70
0
  0
SEQEND
  5
103CC
  8
0
  0
POLYLINE
  5
103CD
  8
0
 62
7
 66
1
 70
0
 10
0
 20
0
 30
0
  0
VERTEX
  5
103CE
  8
0
 62
7
 10
44.294910545938571
 20
44.756330167568649
 70
0
  0
VERTEX
  5
103CF
  8
0
 62
7
 10
44.210850216098493
 20
44.71464451219714
 70
0
  0
SEQEND
  5
103D0
  8
0
  0
POLYLINE
  5
103D1
  8
0
 62
7
 66
1
 70
0
 10
0
 20
0
 30
0
  0
VERTEX
  5
103D2
  8
0
 62
7
 10
44.210850216098493
 20
44.71464451219714
 70
0
  0
VERTEX
  5
103D3
  8
0
 62
7
 10
44.294910545938571
 20
44.672097582954272
 70
0
  0
SEQEND
  5
103D4
  8
0
  0
POLYLINE
  5
103D5
  8
0
 62
7
 66
1
 70
0
 10
0
 20
0
 30
0
  0
VERTEX
  5
103D6
  8
0
 62
7
 10
44.294910545938571
 20
44.672097582954272
 70
0
  0
VERTEX
  5
103D7
  8
0
 62
7
 10
44.380348913972782
 20
44.672097582954272
 70
0
  0
SEQEND
  5
103D8
  8
0
  0
POLYLINE
  5
103D9
  8
0
 62
7
 66
1
 70
0
 10
0
 20
0
 30
0
  0
VERTEX
  5
103DA
  8
0
 62
7
 10
44.380348913972782
 20
44.672097582954272
 70
0
  0
VERTEX
  5
103DB
  8
0
 62
7
 10
44.464409243812867
 20
44.71464451219714
 70
0
  0
SEQEND
  5
103DC
  8
0
  0
POLYLINE
  5
103DD
  8
0
 62
7
 66
1
 70
0
 10
0
 20
0
 30
0
  0
VERTEX
  5
103DE
  8
0
 62
7
 10
44.464409243812867
 20
44.71464451219714
 70
0
  0
VERTEX
  5
103DF
  8
0
 62
7
 10
44.464409243812867
 20
44.71464451219714
 70
0
  0
SEQEND
  5
103E0
  8
0
  0
POLYLINE
  5
103E1
  8
0
 62
7
 66
1
 70
0
 10
0
 20
0
 30
0
  0
VERTEX
  5
103E2
  8
0
 62
7
 10
43.9986323342071
 20
44.71464451219714
 70
0
  0
VERTEX
  5
103E3
  8
0
 62
7
 10
44.084070702241291
 20
44.672097582954272
 70
0
  0
SEQEND
  5
103E4
  8
0
  0
POLYLINE
  5
103E5
  8
0
 62
7
 66
1
 70
0
 10
0
 20
0
 30
0
  0
VERTEX
  5
103E6
  8
0
 62
7
 10
44.084070702241291
 20
44.672097582954272
 70
0
  0
VERTEX
  5
103E7
  8
0
 62
7
 10
44.168131032081391
 20
44.672097582954272
 70
0
  0
SEQEND
  5
103E8
  8
0
  0
POLYLINE
  5
103E9
  8
0
 62
7
 66
1
 70
0
 10
0
 20
0
 30
0
  0
VERTEX
  5
103EA
  8
0
 62
7
 10
44.168131032081391
 20
44.672097582954272
 70
0
  0
VERTEX
  5
103EB
  8
0
 62
7
 10
44.210850216098493
 20
44.71464451219714
 70
0
  0
SEQEND
  5
103EC
  8
0
  0
POLYLINE
  5
103ED
  8
0
 62
7
 66
1
 70
0
 10
0
 20
0
 30
0
  0
VERTEX
  5
103EE
  8
0
 62
7
 10
44.210850216098493
 20
44.71464451219714
 70
0
  0
VERTEX
  5
103EF
  8
0
 62
7
 10
44.210850216098493
 20
44.71464451219714
 70
0
  0
SEQEND
  5
103F0
  8
0
  0
POLYLINE
  5
103F1
  8
0
 62
7
 66
1
 70
0
 10
0
 20
0
 30
0
  0
VERTEX
  5
103F2
  8
0
 62
7
 10
44.464409243812867
 20
44.418366300465607
 70
0
  0
VERTEX
  5
103F3
  8
0
 62
7
 10
44.464409243812867
 20
35.105756439512533
 70
0
  0
SEQEND
  5
103F4
  8
0
  0
POLYLINE
  5
103F5
  8
0
 62
7
 66
1
 70
0
 10
0
 20
0
 30
0
  0
VERTEX
  5
103F6
  8
0
 62
7
 10
43.9986323342071
 20
44.418366300465607
 70
0
  0
VERTEX
  5
103F7
  8
0
 62
7
 10
43.9986323342071
 20
35.105756439512533
 70
0
  0
SEQEND
  5
103F8
  8
0
  0
INSERT
  5
10407
  8
0
  2
SPEC_BLOCK
 10
108.2219931220986
 20
1.6249999999999867
 30
0
 41
1
 42
1
 43
1
 50
0
  0
ENDSEC
999
Created By CadLib version 4.0.36.7
999
CadLib website: www.woutware.com
  0
EOF
