  0
SECTION
  2
HEADER
  9
$ACADVER
  1
AC1009
  9
$DWGCODEPAGE
  3
dos932
  9
$INSBASE
 10
0
 20
0
 30
0
  9
$EXTMIN
 10
-3.0466332221965926
 20
-8.0953276713580884
 30
0
  9
$EXTMAX
 10
92.733582927189516
 20
82.98789163161284
 30
0
  9
$LIMMIN
 10
0
 20
0
  9
$LIMMAX
 10
105.125
 20
74.25
  9
$SNAPMODE
 70
0
  9
$SNAPUNIT
 10
1
 20
1
  9
$SNAPBASE
 10
0
 20
0
  9
$SNAPANG
 50
0
  9
$SNAPSTYLE
 70
0
  9
$SNAPISOPAIR
 70
0
  9
$ORTHOMODE
 70
0
  9
$REGENMODE
 70
1
  9
$FILLMODE
 70
1
  9
$QTEXTMODE
 70
0
  9
$MIRRTEXT
 70
0
  9
$LTSCALE
 40
0.125
  9
$OSMODE
 70
37
  9
$ATTMODE
 70
1
  9
$TEXTSIZE
 40
0.2
  9
$TRACEWID
 40
0.05
  9
$TEXTSTYLE
  7
STANDARD
  9
$CLAYER
  8
0
  9
$CELTYPE
  6
CONTINUOUS
  9
$CECOLOR
 62
256
  9
$DIMSCALE
 40
1
  9
$DIMASZ
 40
0.18
  9
$DIMEXO
 40
0.0625
  9
$DIMDLI
 40
0.38
  9
$DIMRND
 40
0
  9
$DIMDLE
 40
0
  9
$DIMEXE
 40
0.18
  9
$DIMTP
 40
0
  9
$DIMTM
 40
0
  9
$DIMTXT
 40
0.18
  9
$DIMCEN
 40
0.09
  9
$DIMTSZ
 40
0
  9
$DIMTOL
 70
0
  9
$DIMLIM
 70
0
  9
$DIMTIH
 70
1
  9
$DIMTOH
 70
1
  9
$DIMSE1
 70
0
  9
$DIMSE2
 70
0
  9
$DIMTAD
 70
0
  9
$DIMZIN
 70
0
  9
$DIMBLK
  1

  9
$DIMASO
 70
1
  9
$DIMSHO
 70
1
  9
$DIMPOST
  1

  9
$DIMAPOST
  1

  9
$DIMALT
 70
0
  9
$DIMALTD
 70
2
  9
$DIMALTF
 40
25.4
  9
$DIMLFAC
 40
1
  9
$DIMTOFL
 70
0
  9
$DIMTVP
 40
0
  9
$DIMTIX
 70
0
  9
$DIMSOXD
 70
0
  9
$DIMSAH
 70
0
  9
$DIMBLK1
  1

  9
$DIMBLK2
  1

  9
$DIMSTYLE
  2
STANDARD
  9
$DIMCLRD
 70
0
  9
$DIMCLRE
 70
0
  9
$DIMCLRT
 70
0
  9
$DIMTFAC
 40
1
  9
$DIMGAP
 40
0.09
  9
$LUNITS
 70
2
  9
$LUPREC
 70
4
  9
$SKETCHINC
 40
0.1
  9
$FILLETRAD
 40
0
  9
$AUNITS
 70
0
  9
$AUPREC
 70
0
  9
$MENU
  1
.
  9
$ELEVATION
 40
0
  9
$PELEVATION
 40
0
  9
$THICKNESS
 40
0
  9
$LIMCHECK
 70
0
  9
$CHAMFERA
 40
0
  9
$CHAMFERB
 40
0
  9
$SKPOLY
 70
0
  9
$TDCREATE
 40
2456622.5523805902
  9
$TDUPDATE
 40
2457205.4783478933
  9
$TDINDWG
 40
0.024890011574074073
  9
$TDUSRTIMER
 40
0.024890011574074073
  9
$USRTIMER
 70
1
  9
$ANGBASE
 50
0
  9
$ANGDIR
 70
0
  9
$PDMODE
 70
0
  9
$PDSIZE
 40
0
  9
$PLINEWID
 40
0
  9
$SPLFRAME
 70
0
  9
$SPLINETYPE
 70
6
  9
$SPLINESEGS
 70
8
  9
$HANDLING
 70
1
  9
$HANDSEED
  5
B8D3
  9
$SURFTAB1
 70
6
  9
$SURFTAB2
 70
6
  9
$SURFTYPE
 70
6
  9
$SURFU
 70
6
  9
$SURFV
 70
6
  9
$UCSORG
 10
0
 20
0
 30
0
  9
$UCSXDIR
 10
1
 20
0
 30
0
  9
$UCSYDIR
 10
0
 20
1
 30
0
  9
$PUCSORG
 10
0
 20
0
 30
0
  9
$PUCSXDIR
 10
1
 20
0
 30
0
  9
$PUCSYDIR
 10
0
 20
1
 30
0
  9
$USERI1
 70
0
  9
$USERI2
 70
0
  9
$USERI3
 70
0
  9
$USERI4
 70
0
  9
$USERI5
 70
0
  9
$USERR1
 40
0
  9
$USERR2
 40
0
  9
$USERR3
 40
0
  9
$USERR4
 40
0
  9
$USERR5
 40
0
  9
$WORLDVIEW
 70
1
  9
$SHADEDGE
 70
3
  9
$SHADEDIF
 70
70
  9
$TILEMODE
 70
1
  9
$MAXACTVP
 70
64
  9
$PINSBASE
 10
0
 20
0
 30
0
  9
$PLIMCHECK
 70
0
  9
$PEXTMIN
 10
1E+20
 20
1E+20
 30
1E+20
  9
$PEXTMAX
 10
-1E+20
 20
-1E+20
 30
-1E+20
  9
$PLIMMAX
 10
12
 20
9
  9
$PLIMMIN
 10
0
 20
0
  9
$UNITMODE
 70
0
  9
$VISRETAIN
 70
1
  9
$PLINEGEN
 70
0
  9
$PSLTSCALE
 70
1
  9
$TREEDEPTH
 70
3020
  9
$DRAGMODE
 70
     2
  9
$BLIPMODE
 70
     0
  9
$COORDS
 70
     1
  9
$ATTDIA
 70
     0
  9
$ATTREQ
 70
     1
  0
ENDSEC
  0
SECTION
  2
TABLES
  0
TABLE
  2
VPORT
  5
B8C5
 70
1
  0
VPORT
  5
B899
  2
*ACTIVE
 70
0
 10
0
 20
0
 11
1
 21
1
 12
72.6793495669052
 22
45.559238483670072
 13
0
 23
0
 14
1
 24
1
 15
0
 25
0
 16
0
 26
0
 36
1
 17
0
 27
0
 37
0
 40
160.7758282166624
 41
1.645833333333333
 42
50
 43
0
 44
0
 50
0
 51
0
 71
0
 72
100
 73
1
 74
1
 75
0
 76
0
 77
0
 78
0
  0
ENDTAB
  0
TABLE
  2
LTYPE
  5
B8C6
 70
40
  0
LTYPE
  5
B86F
  2
CONTINUOUS
  3
実線
 70
0
 72
65
 73
0
 40
0
  0
LTYPE
  5
B870
  2
DASHED1
  3
--  --  --  --  --  --  --  --  
 70
0
 72
65
 73
2
 40
2.5
 49
1.25
 49
-1.25
  0
LTYPE
  5
B871
  2
DASHED2
  3
----    ----    ----    ----    
 70
0
 72
65
 73
2
 40
5
 49
2.5
 49
-2.5
  0
LTYPE
  5
B872
  2
DASHED3
  3
------  ------  ------  ------  
 70
0
 72
65
 73
2
 40
5
 49
3.75
 49
-1.25
  0
LTYPE
  5
B873
  2
CENTER1
  3
----- - ----- - ----- - ----- - 
 70
0
 72
65
 73
4
 40
10
 49
6.25
 49
-1.25
 49
1.25
 49
-1.25
  0
LTYPE
  5
B874
  2
CENTER2
  3
----------  --  ----------  --  
 70
0
 72
65
 73
4
 40
20
 49
12.5
 49
-2.5
 49
2.5
 49
-2.5
  0
LTYPE
  5
B875
  2
PHANTOM1
  3
--- - - --- - - --- - - --- - - 
 70
0
 72
65
 73
6
 40
9.5
 49
3.25
 49
-1.25
 49
1.25
 49
-1.25
 49
1.25
 49
-1.25
  0
LTYPE
  5
B876
  2
PHANTOM2
  3
--------  -  -  --------  -  -  
 70
0
 72
65
 73
6
 40
20
 49
10
 49
-2.5
 49
1.25
 49
-2.5
 49
1.25
 49
-2.5
  0
LTYPE
  5
B877
  2
DOT
  3
-   -   -   -   -   -   -   -   
 70
0
 72
65
 73
2
 40
2.5
 49
0.625
 49
-1.875
  0
LTYPE
  5
B878
  2
DUMMY
  3
ダミー
 70
0
 72
65
 73
0
 40
0
  0
LTYPE
  5
B879
  2
RAND1
  3
ランダム線1
 70
0
 72
65
 73
4
 40
10
 49
1
 49
-2
 49
3
 49
-4
  0
LTYPE
  5
B87A
  2
RAND2
  3
ランダム線2
 70
0
 72
65
 73
4
 40
14
 49
2
 49
-3
 49
4
 49
-5
  0
LTYPE
  5
B87B
  2
RAND3
  3
ランダム線3
 70
0
 72
65
 73
4
 40
18
 49
3
 49
-4
 49
5
 49
-6
  0
LTYPE
  5
B87C
  2
RAND4
  3
ランダム線4
 70
0
 72
65
 73
4
 40
22
 49
4
 49
-5
 49
6
 49
-7
  0
LTYPE
  5
B87D
  2
RAND5
  3
ランダム線5
 70
0
 72
65
 73
4
 40
26
 49
5
 49
-6
 49
7
 49
-8
  0
LTYPE
  5
B87E
  2
LONG1
  3
----------  --  ----------  --  
 70
0
 72
65
 73
4
 40
40
 49
32.5
 49
-2.5
 49
2.5
 49
-2.5
  0
LTYPE
  5
B87F
  2
LONG2
  3
--------  -  -  --------  -  -  
 70
0
 72
65
 73
6
 40
40
 49
30
 49
-2.5
 49
1.25
 49
-2.5
 49
1.25
 49
-2.5
  0
LTYPE
  5
B880
  2
LONG3
  3
+++++++++++++++..+++++++++++++++
 70
0
 72
65
 73
2
 40
40
 49
37.5
 49
-2.5
  0
LTYPE
  5
B881
  2
LONG4
  3
+++++++++++++++..+++++++++++++++
 70
0
 72
65
 73
2
 40
80
 49
75
 49
-5
  0
LTYPE
  5
B882
  2
LONG5
  3
----------  --  ----------  --  
 70
0
 72
65
 73
4
 40
60
 49
37.5
 49
-7.5
 49
7.5
 49
-7.5
  0
LTYPE
  5
B883
  2
DASHED
  3
-------   -------------   ------
 70
0
 72
65
 73
2
 40
3.8
 49
3
 49
-0.8
  0
LTYPE
  5
B884
  2
DASHED_SPACED
  3
----        --------        ----
 70
0
 72
65
 73
2
 40
12
 49
6
 49
-6
  0
LTYPE
  5
B885
  2
LONG_DASHED_DOTTED
  3
------------- --- --------------
 70
0
 72
65
 73
4
 40
15.25
 49
12
 49
-1.5
 49
0.25
 49
-1.5
  0
LTYPE
  5
B886
  2
LONG_DASHED_DOUBLE-DOTTED
  3
----------- --- --- ------------
 70
0
 72
65
 73
6
 40
17
 49
12
 49
-1.5
 49
0.25
 49
-1.5
 49
0.25
 49
-1.5
  0
LTYPE
  5
B887
  2
LONG_DASHED_TRIPLICATE-DOT
  3
--------- --- --- --- ----------
 70
0
 72
65
 73
8
 40
18.75
 49
12
 49
-1.5
 49
0.25
 49
-1.5
 49
0.25
 49
-1.5
 49
0.25
 49
-1.5
  0
LTYPE
  5
B888
  2
DOTTED
  3
   -       -       -       -    
 70
0
 72
65
 73
2
 40
1.75
 49
0.25
 49
-1.5
  0
LTYPE
  5
B889
  2
CHAIN
  3
-------------- -- --------------
 70
0
 72
65
 73
4
 40
18.5
 49
12
 49
-1.5
 49
3.5
 49
-1.5
  0
LTYPE
  5
B88A
  2
CHAIN_DOUBLE_DASH
  3
------------ -- -- -------------
 70
0
 72
65
 73
6
 40
23.5
 49
12
 49
-1.5
 49
3.5
 49
-1.5
 49
3.5
 49
-1.5
  0
LTYPE
  5
B88B
  2
DASHED_DOTTED
  3
-----------     -     ----------
 70
0
 72
65
 73
4
 40
9.25
 49
6
 49
-1.5
 49
0.25
 49
-1.5
  0
LTYPE
  5
B88C
  2
DOUBLE-DASHED_DOTTED
  3
------   -----------   -   -----
 70
0
 72
65
 73
6
 40
16.75
 49
6
 49
-1.5
 49
6
 49
-1.5
 49
0.25
 49
-1.5
  0
LTYPE
  5
B88D
  2
DASHED_DOUBLE-DOTTED
  3
---------    -    -    ---------
 70
0
 72
65
 73
6
 40
11
 49
6
 49
-1.5
 49
0.25
 49
-1.5
 49
0.25
 49
-1.5
  0
LTYPE
  5
B88E
  2
DOUBLE-DASHED_DOUBLE-DOTTE
  3
-----   ---------   -   -   ----
 70
0
 72
65
 73
8
 40
18.5
 49
6
 49
-1.5
 49
6
 49
-1.5
 49
0.25
 49
-1.5
 49
0.25
 49
-1.5
  0
LTYPE
  5
B88F
  2
DASHED_TRIPLICATE-DOTTED
  3
-------    -    -    -    ------
 70
0
 72
65
 73
8
 40
12.75
 49
6
 49
-1.5
 49
0.25
 49
-1.5
 49
0.25
 49
-1.5
 49
0.25
 49
-1.5
  0
LTYPE
  5
B890
  2
DOUBLE-DASHED_TRIPLICATE-D
  3
-----  ---------  -  -  -  -----
 70
0
 72
65
 73
10
 40
20.25
 49
6
 49
-1.5
 49
6
 49
-1.5
 49
0.25
 49
-1.5
 49
0.25
 49
-1.5
 49
0.25
 49
-1.5
  0
LTYPE
  5
B891
  2
UNDEFINED
  3
--------------------------------
 70
0
 72
65
 73
0
 40
0
  0
LTYPE
  5
B892
  2
DOT_18
  3
----        --------        ----
 70
0
 72
65
 73
2
 40
2
 49
1
 49
-1
  0
LTYPE
  5
B893
  2
DASHDOT
  3
------------   --   ------------
 70
0
 72
65
 73
4
 40
25.6
 49
20
 49
-2
 49
1.6
 49
-2
  0
LTYPE
  5
B894
  2
DIVIDE
  3
-----------  --  --  -----------
 70
0
 72
65
 73
6
 40
31.199999999999996
 49
20
 49
-2.399999999999999
 49
2
 49
-2.399999999999999
 49
2
 49
-2.399999999999999
  0
LTYPE
  5
B895
  2
ByBlock
  3

 70
64
 72
65
 73
0
 40
0
  0
LTYPE
  5
B896
  2
ByLayer
  3

 70
64
 72
65
 73
0
 40
0
  0
ENDTAB
  0
TABLE
  2
LAYER
  5
B8C7
 70
2
  0
LAYER
  5
B858
 70
0
  2
0
 62
7
  6
CONTINUOUS
  0
LAYER
  5
B859
 70
0
  2
SPEC
 62
7
  6
CONTINUOUS
  0
ENDTAB
  0
TABLE
  2
STYLE
  5
B8C8
 70
3
  0
STYLE
  5
B86C
  2
STANDARD
 70
0
 40
0
 41
1
 50
0
 71
0
 42
0.2
  3
txt.shx
  4
extfont2.shx
  0
STYLE
  5
B86D
  2
ANNOTATIVE
 70
0
 40
0
 41
1
 50
0
 71
0
 42
0.2
  3
txt
  0
STYLE
  5
B86E
  2
TATEGAKI
 70
4
 40
0
 41
1
 50
0
 71
0
 42
1
  3
txt
  4
bigfont.shx
  0
ENDTAB
  0
TABLE
  2
APPID
  5
B8CB
 70
4
  0
APPID
  5
B8CC
  2
ACAD
 70
0
  0
APPID
  5
B8CF
  2
ACADANNOTATIVE
 70
0
  0
APPID
  5
B8D0
  2
ACAD_MLEADERVER
 70
0
  0
APPID
  5
B8D1
  2
ACAD_EXEMPT_FROM_CAD_STANDARDS
 70
0
  0
ENDTAB
  0
TABLE
  2
DIMSTYLE
  5
B8CD
 70
2
  0
DIMSTYLE
105
B897
  2
STANDARD
 70
0
  3

  4

  5

  6

  7

 40
1
 41
0.18
 42
0.0625
 43
0.38
 44
0.18
 45
0
 46
0
 47
0
 48
0
140
0.18
141
0.09
142
0
143
25.4
144
1
145
0
146
1
147
0.09
 71
0
 72
0
 73
1
 74
1
 75
0
 76
0
 77
0
 78
0
170
0
171
2
172
0
173
0
174
0
175
0
176
0
177
0
178
0
  0
DIMSTYLE
105
B898
  2
ANNOTATIVE
 70
0
  3

  4

  5

  6

  7

 40
1
 41
0.18
 42
0.0625
 43
0.38
 44
0.18
 45
0
 46
0
 47
0
 48
0
140
0.18
141
0.09
142
0
143
25.4
144
1
145
0
146
1
147
0.09
 71
0
 72
0
 73
1
 74
1
 75
0
 76
0
 77
0
 78
0
170
0
171
2
172
0
173
0
174
0
175
0
176
0
177
0
178
0
  0
ENDTAB
  0
ENDSEC
  0
SECTION
  2
BLOCKS
  0
BLOCK
  5
B85B
  8
0
  2
$MODEL_SPACE
 70
0
 10
0
 20
0
 30
0
  3
$MODEL_SPACE
  0
ENDBLK
  5
B402
  8
0
  0
BLOCK
  5
B85D
  8
0
 67
1
  2
$PAPER_SPACE
 70
0
 10
0
 20
0
 30
0
  3
$PAPER_SPACE
  0
ENDBLK
  5
B3FE
  8
0
  0
BLOCK
  5
B85F
  8
0
  2
SPEC_BLOCK
 70
64
 10
0
 20
0
 30
0
  3
SPEC_BLOCK
  0
TEXT
  5
B860
  8
SPEC
 10
0
 20
0
 30
0
 40
1.5
  1
LED 口金:E17
  7
STANDARD
  0
TEXT
  5
B861
  8
SPEC
 10
0
 20
-3
 30
0
 40
1.5
  1
本体:鋼板 ﾎﾜｲﾄﾌﾞﾛﾝｽﾞﾒｯｷ仕上
  7
STANDARD
  0
TEXT
  5
B862
  8
SPEC
 10
0
 20
-6
 30
0
 40
1.5
  1
質量:0.6kg
  7
STANDARD
  0
ENDBLK
  5
B863
  8
0
  0
BLOCK
  5
B865
  8
0
  2
*MODEL_SPACE
 70
64
 10
0
 20
0
 30
0
  3
*MODEL_SPACE
  0
ENDBLK
  5
B868
  8
0
  0
BLOCK
  5
B86A
  8
0
 67
1
  2
*PAPER_SPACE
 70
64
 10
0
 20
0
 30
0
  3
*PAPER_SPACE
  0
ENDBLK
  5
B86B
  8
0
  0
ENDSEC
  0
SECTION
  2
ENTITIES
  0
TEXT
  5
A3
  8
0
 62
7
 10
-3.5582294022784482
 20
-7.3750000000000142
 30
0
 40
5
  1
三菱 EL-PE1708C
  7
STANDARD
  0
TEXT
  5
A4
  8
0
 62
7
 10
-3.5582294022784482
 20
76.624999999999986
 30
0
 40
5
  1
LEDx1 小形ペンダント
  7
STANDARD
  0
POLYLINE
  5
AE08
  8
0
 62
7
 66
1
 70
0
 10
0
 20
0
 30
0
  0
VERTEX
  5
B441
  8
0
 62
7
 10
38.785089431339621
 20
25.779084471839241
 70
0
  0
VERTEX
  5
B442
  8
0
 62
7
 10
38.362031705750937
 20
25.779084471839241
 70
0
  0
SEQEND
  5
B443
  8
0
  0
POLYLINE
  5
AE0C
  8
0
 62
7
 66
1
 70
0
 10
0
 20
0
 30
0
  0
VERTEX
  5
B444
  8
0
 62
7
 10
38.362031705750937
 20
25.779084471839241
 70
0
  0
VERTEX
  5
B445
  8
0
 62
7
 10
37.93897398016226
 20
25.779084471839241
 70
0
  0
SEQEND
  5
B446
  8
0
  0
POLYLINE
  5
AE10
  8
0
 62
7
 66
1
 70
0
 10
0
 20
0
 30
0
  0
VERTEX
  5
B447
  8
0
 62
7
 10
37.93897398016226
 20
25.779084471839241
 70
0
  0
VERTEX
  5
B448
  8
0
 62
7
 10
37.515916254573582
 20
25.779084471839241
 70
0
  0
SEQEND
  5
B449
  8
0
  0
POLYLINE
  5
AE14
  8
0
 62
7
 66
1
 70
0
 10
0
 20
0
 30
0
  0
VERTEX
  5
B44A
  8
0
 62
7
 10
37.515916254573582
 20
25.779084471839241
 70
0
  0
VERTEX
  5
B44B
  8
0
 62
7
 10
37.13419967480791
 20
25.736365287822139
 70
0
  0
SEQEND
  5
B44C
  8
0
  0
POLYLINE
  5
AE18
  8
0
 62
7
 66
1
 70
0
 10
0
 20
0
 30
0
  0
VERTEX
  5
B44D
  8
0
 62
7
 10
37.13419967480791
 20
25.736365287822139
 70
0
  0
VERTEX
  5
B44E
  8
0
 62
7
 10
36.796580317253422
 20
25.693301594256528
 70
0
  0
SEQEND
  5
B44F
  8
0
  0
POLYLINE
  5
AE1C
  8
0
 62
7
 66
1
 70
0
 10
0
 20
0
 30
0
  0
VERTEX
  5
B450
  8
0
 62
7
 10
36.796580317253422
 20
25.693301594256528
 70
0
  0
VERTEX
  5
B451
  8
0
 62
7
 10
36.541643251344922
 20
25.6094135191907
 70
0
  0
SEQEND
  5
B452
  8
0
  0
POLYLINE
  5
AE20
  8
0
 62
7
 66
1
 70
0
 10
0
 20
0
 30
0
  0
VERTEX
  5
B453
  8
0
 62
7
 10
36.541643251344922
 20
25.6094135191907
 70
0
  0
VERTEX
  5
B454
  8
0
 62
7
 10
36.372144553470633
 20
25.5666943351736
 70
0
  0
SEQEND
  5
B455
  8
0
  0
POLYLINE
  5
AE24
  8
0
 62
7
 66
1
 70
0
 10
0
 20
0
 30
0
  0
VERTEX
  5
B456
  8
0
 62
7
 10
36.372144553470633
 20
25.5666943351736
 70
0
  0
VERTEX
  5
B457
  8
0
 62
7
 10
36.288084223630548
 20
25.482634005333491
 70
0
  0
SEQEND
  5
B458
  8
0
  0
POLYLINE
  5
AE28
  8
0
 62
7
 66
1
 70
0
 10
0
 20
0
 30
0
  0
VERTEX
  5
B459
  8
0
 62
7
 10
38.701029101499529
 20
32.255691729334671
 70
0
  0
VERTEX
  5
B45A
  8
0
 62
7
 10
38.615590733465332
 20
32.255691729334671
 70
0
  0
SEQEND
  5
B45B
  8
0
  0
POLYLINE
  5
AE2C
  8
0
 62
7
 66
1
 70
0
 10
0
 20
0
 30
0
  0
VERTEX
  5
B45C
  8
0
 62
7
 10
38.615590733465332
 20
32.255691729334671
 70
0
  0
VERTEX
  5
B45D
  8
0
 62
7
 10
38.531530403625233
 20
32.255691729334671
 70
0
  0
SEQEND
  5
B45E
  8
0
  0
POLYLINE
  5
AE30
  8
0
 62
7
 66
1
 70
0
 10
0
 20
0
 30
0
  0
VERTEX
  5
B45F
  8
0
 62
7
 10
38.531530403625233
 20
32.255691729334671
 70
0
  0
VERTEX
  5
B460
  8
0
 62
7
 10
38.446092035591043
 20
32.255691729334671
 70
0
  0
SEQEND
  5
B461
  8
0
  0
POLYLINE
  5
AE34
  8
0
 62
7
 66
1
 70
0
 10
0
 20
0
 30
0
  0
VERTEX
  5
B462
  8
0
 62
7
 10
38.446092035591043
 20
32.255691729334671
 70
0
  0
VERTEX
  5
B463
  8
0
 62
7
 10
38.362031705750937
 20
32.255691729334671
 70
0
  0
SEQEND
  5
B464
  8
0
  0
POLYLINE
  5
AE38
  8
0
 62
7
 66
1
 70
0
 10
0
 20
0
 30
0
  0
VERTEX
  5
B465
  8
0
 62
7
 10
38.362031705750937
 20
32.255691729334671
 70
0
  0
VERTEX
  5
B466
  8
0
 62
7
 10
38.277971375910852
 20
32.255691729334671
 70
0
  0
SEQEND
  5
B467
  8
0
  0
POLYLINE
  5
AE3C
  8
0
 62
7
 66
1
 70
0
 10
0
 20
0
 30
0
  0
VERTEX
  5
B468
  8
0
 62
7
 10
38.277971375910852
 20
32.255691729334671
 70
0
  0
VERTEX
  5
B469
  8
0
 62
7
 10
38.192533007876648
 20
32.255691729334671
 70
0
  0
SEQEND
  5
B46A
  8
0
  0
POLYLINE
  5
AE40
  8
0
 62
7
 66
1
 70
0
 10
0
 20
0
 30
0
  0
VERTEX
  5
B46B
  8
0
 62
7
 10
38.192533007876648
 20
32.255691729334671
 70
0
  0
VERTEX
  5
B46C
  8
0
 62
7
 10
38.108472678036549
 20
32.255691729334671
 70
0
  0
SEQEND
  5
B46D
  8
0
  0
POLYLINE
  5
AE44
  8
0
 62
7
 66
1
 70
0
 10
0
 20
0
 30
0
  0
VERTEX
  5
B46E
  8
0
 62
7
 10
38.108472678036549
 20
32.255691729334671
 70
0
  0
VERTEX
  5
B46F
  8
0
 62
7
 10
38.023034310002359
 20
32.255691729334671
 70
0
  0
SEQEND
  5
B470
  8
0
  0
POLYLINE
  5
AE48
  8
0
 62
7
 66
1
 70
0
 10
0
 20
0
 30
0
  0
VERTEX
  5
B471
  8
0
 62
7
 10
38.023034310002359
 20
32.255691729334671
 70
0
  0
VERTEX
  5
B472
  8
0
 62
7
 10
37.981693164179362
 20
32.212972545317612
 70
0
  0
SEQEND
  5
B473
  8
0
  0
POLYLINE
  5
AE4C
  8
0
 62
7
 66
1
 70
0
 10
0
 20
0
 30
0
  0
VERTEX
  5
B474
  8
0
 62
7
 10
37.981693164179362
 20
32.212972545317612
 70
0
  0
VERTEX
  5
B475
  8
0
 62
7
 10
37.93897398016226
 20
32.212972545317612
 70
0
  0
SEQEND
  5
B476
  8
0
  0
POLYLINE
  5
AE50
  8
0
 62
7
 66
1
 70
0
 10
0
 20
0
 30
0
  0
VERTEX
  5
B477
  8
0
 62
7
 10
37.93897398016226
 20
32.212972545317612
 70
0
  0
VERTEX
  5
B478
  8
0
 62
7
 10
37.93897398016226
 20
32.212972545317612
 70
0
  0
SEQEND
  5
B479
  8
0
  0
POLYLINE
  5
AE54
  8
0
 62
7
 66
1
 70
0
 10
0
 20
0
 30
0
  0
VERTEX
  5
B47A
  8
0
 62
7
 10
37.93897398016226
 20
32.212972545317612
 70
0
  0
VERTEX
  5
B47B
  8
0
 62
7
 10
37.93897398016226
 20
32.1702533613005
 70
0
  0
SEQEND
  5
B47C
  8
0
  0
POLYLINE
  5
AE58
  8
0
 62
7
 66
1
 70
0
 10
0
 20
0
 30
0
  0
VERTEX
  5
B47D
  8
0
 62
7
 10
38.023034310002359
 20
55.32560139153594
 70
0
  0
VERTEX
  5
B47E
  8
0
 62
7
 10
38.023034310002359
 20
45.673649625285741
 70
0
  0
SEQEND
  5
B47F
  8
0
  0
POLYLINE
  5
AE5C
  8
0
 62
7
 66
1
 70
0
 10
0
 20
0
 30
0
  0
VERTEX
  5
B480
  8
0
 62
7
 10
38.701029101499529
 20
55.32560139153594
 70
0
  0
VERTEX
  5
B481
  8
0
 62
7
 10
38.701029101499529
 20
45.673649625285741
 70
0
  0
SEQEND
  5
B482
  8
0
  0
POLYLINE
  5
AE60
  8
0
 62
7
 66
1
 70
0
 10
0
 20
0
 30
0
  0
VERTEX
  5
B483
  8
0
 62
7
 10
38.785089431339621
 20
32.1702533613005
 70
0
  0
VERTEX
  5
B484
  8
0
 62
7
 10
38.785089431339621
 20
32.212972545317612
 70
0
  0
SEQEND
  5
B485
  8
0
  0
POLYLINE
  5
AE64
  8
0
 62
7
 66
1
 70
0
 10
0
 20
0
 30
0
  0
VERTEX
  5
B486
  8
0
 62
7
 10
38.785089431339621
 20
32.212972545317612
 70
0
  0
VERTEX
  5
B487
  8
0
 62
7
 10
38.785089431339621
 20
32.212972545317612
 70
0
  0
SEQEND
  5
B488
  8
0
  0
POLYLINE
  5
AE68
  8
0
 62
7
 66
1
 70
0
 10
0
 20
0
 30
0
  0
VERTEX
  5
B489
  8
0
 62
7
 10
38.785089431339621
 20
32.212972545317612
 70
0
  0
VERTEX
  5
B48A
  8
0
 62
7
 10
38.743748285516617
 20
32.212972545317612
 70
0
  0
SEQEND
  5
B48B
  8
0
  0
POLYLINE
  5
AE6C
  8
0
 62
7
 66
1
 70
0
 10
0
 20
0
 30
0
  0
VERTEX
  5
B48C
  8
0
 62
7
 10
38.743748285516617
 20
32.212972545317612
 70
0
  0
VERTEX
  5
B48D
  8
0
 62
7
 10
38.701029101499529
 20
32.255691729334671
 70
0
  0
SEQEND
  5
B48E
  8
0
  0
POLYLINE
  5
AE70
  8
0
 62
7
 66
1
 70
0
 10
0
 20
0
 30
0
  0
VERTEX
  5
B48F
  8
0
 62
7
 10
40.435979187871339
 20
25.482634005333491
 70
0
  0
VERTEX
  5
B490
  8
0
 62
7
 10
40.351918858031247
 20
25.5666943351736
 70
0
  0
SEQEND
  5
B491
  8
0
  0
POLYLINE
  5
AE74
  8
0
 62
7
 66
1
 70
0
 10
0
 20
0
 30
0
  0
VERTEX
  5
B492
  8
0
 62
7
 10
40.351918858031247
 20
25.5666943351736
 70
0
  0
VERTEX
  5
B493
  8
0
 62
7
 10
40.182420160156951
 20
25.6094135191907
 70
0
  0
SEQEND
  5
B494
  8
0
  0
POLYLINE
  5
AE78
  8
0
 62
7
 66
1
 70
0
 10
0
 20
0
 30
0
  0
VERTEX
  5
B495
  8
0
 62
7
 10
40.182420160156951
 20
25.6094135191907
 70
0
  0
VERTEX
  5
B496
  8
0
 62
7
 10
39.92886113244257
 20
25.693301594256528
 70
0
  0
SEQEND
  5
B497
  8
0
  0
POLYLINE
  5
AE7C
  8
0
 62
7
 66
1
 70
0
 10
0
 20
0
 30
0
  0
VERTEX
  5
B498
  8
0
 62
7
 10
39.92886113244257
 20
25.693301594256528
 70
0
  0
VERTEX
  5
B499
  8
0
 62
7
 10
39.589863736693992
 20
25.736365287822139
 70
0
  0
SEQEND
  5
B49A
  8
0
  0
POLYLINE
  5
AE80
  8
0
 62
7
 66
1
 70
0
 10
0
 20
0
 30
0
  0
VERTEX
  5
B49B
  8
0
 62
7
 10
39.589863736693992
 20
25.736365287822139
 70
0
  0
VERTEX
  5
B49C
  8
0
 62
7
 10
39.208147156928312
 20
25.779084471839241
 70
0
  0
SEQEND
  5
B49D
  8
0
  0
POLYLINE
  5
AE84
  8
0
 62
7
 66
1
 70
0
 10
0
 20
0
 30
0
  0
VERTEX
  5
B49E
  8
0
 62
7
 10
39.208147156928312
 20
25.779084471839241
 70
0
  0
VERTEX
  5
B49F
  8
0
 62
7
 10
38.785089431339621
 20
25.779084471839241
 70
0
  0
SEQEND
  5
B4A0
  8
0
  0
POLYLINE
  5
AE88
  8
0
 62
7
 66
1
 70
0
 10
0
 20
0
 30
0
  0
VERTEX
  5
B4A1
  8
0
 62
7
 10
38.023034310002359
 20
55.409489466601769
 70
0
  0
VERTEX
  5
B4A2
  8
0
 62
7
 10
38.023034310002359
 20
55.32560139153594
 70
0
  0
SEQEND
  5
B4A3
  8
0
  0
POLYLINE
  5
AE8C
  8
0
 62
7
 66
1
 70
0
 10
0
 20
0
 30
0
  0
VERTEX
  5
B4A4
  8
0
 62
7
 10
35.991806011899051
 20
24.72075113877052
 70
0
  0
VERTEX
  5
B4A5
  8
0
 62
7
 10
36.288084223630548
 20
25.482634005333491
 70
0
  0
SEQEND
  5
B4A6
  8
0
  0
POLYLINE
  5
AE90
  8
0
 62
7
 66
1
 70
0
 10
0
 20
0
 30
0
  0
VERTEX
  5
B4A7
  8
0
 62
7
 10
40.73225739960283
 20
24.72075113877052
 70
0
  0
VERTEX
  5
B4A8
  8
0
 62
7
 10
40.435979187871339
 20
25.482634005333491
 70
0
  0
SEQEND
  5
B4A9
  8
0
  0
POLYLINE
  5
AE94
  8
0
 62
7
 66
1
 70
0
 10
0
 20
0
 30
0
  0
VERTEX
  5
B4AA
  8
0
 62
7
 10
37.93897398016226
 20
25.779084471839241
 70
0
  0
VERTEX
  5
B4AB
  8
0
 62
7
 10
37.93897398016226
 20
32.1702533613005
 70
0
  0
SEQEND
  5
B4AC
  8
0
  0
POLYLINE
  5
AE98
  8
0
 62
7
 66
1
 70
0
 10
0
 20
0
 30
0
  0
VERTEX
  5
B4AD
  8
0
 62
7
 10
38.785089431339621
 20
25.779084471839241
 70
0
  0
VERTEX
  5
B4AE
  8
0
 62
7
 10
38.785089431339621
 20
32.1702533613005
 70
0
  0
SEQEND
  5
B4AF
  8
0
  0
POLYLINE
  5
AE9C
  8
0
 62
7
 66
1
 70
0
 10
0
 20
0
 30
0
  0
VERTEX
  5
B4B0
  8
0
 62
7
 10
38.701029101499529
 20
45.37719915878
 70
0
  0
VERTEX
  5
B4B1
  8
0
 62
7
 10
38.615590733465332
 20
45.419918342797089
 70
0
  0
SEQEND
  5
B4B2
  8
0
  0
POLYLINE
  5
AEA0
  8
0
 62
7
 66
1
 70
0
 10
0
 20
0
 30
0
  0
VERTEX
  5
B4B3
  8
0
 62
7
 10
38.615590733465332
 20
45.419918342797089
 70
0
  0
VERTEX
  5
B4B4
  8
0
 62
7
 10
38.531530403625233
 20
45.419918342797089
 70
0
  0
SEQEND
  5
B4B5
  8
0
  0
POLYLINE
  5
AEA4
  8
0
 62
7
 66
1
 70
0
 10
0
 20
0
 30
0
  0
VERTEX
  5
B4B6
  8
0
 62
7
 10
38.531530403625233
 20
45.419918342797089
 70
0
  0
VERTEX
  5
B4B7
  8
0
 62
7
 10
38.446092035591043
 20
45.419918342797089
 70
0
  0
SEQEND
  5
B4B8
  8
0
  0
POLYLINE
  5
AEA8
  8
0
 62
7
 66
1
 70
0
 10
0
 20
0
 30
0
  0
VERTEX
  5
B4B9
  8
0
 62
7
 10
38.446092035591043
 20
45.419918342797089
 70
0
  0
VERTEX
  5
B4BA
  8
0
 62
7
 10
38.362031705750937
 20
45.37719915878
 70
0
  0
SEQEND
  5
B4BB
  8
0
  0
POLYLINE
  5
AEAC
  8
0
 62
7
 66
1
 70
0
 10
0
 20
0
 30
0
  0
VERTEX
  5
B4BC
  8
0
 62
7
 10
38.362031705750937
 20
45.37719915878
 70
0
  0
VERTEX
  5
B4BD
  8
0
 62
7
 10
38.362031705750937
 20
45.37719915878
 70
0
  0
SEQEND
  5
B4BE
  8
0
  0
POLYLINE
  5
AEB0
  8
0
 62
7
 66
1
 70
0
 10
0
 20
0
 30
0
  0
VERTEX
  5
B4BF
  8
0
 62
7
 10
38.362031705750937
 20
45.37719915878
 70
0
  0
VERTEX
  5
B4C0
  8
0
 62
7
 10
38.277971375910852
 20
45.419918342797089
 70
0
  0
SEQEND
  5
B4C1
  8
0
  0
POLYLINE
  5
AEB4
  8
0
 62
7
 66
1
 70
0
 10
0
 20
0
 30
0
  0
VERTEX
  5
B4C2
  8
0
 62
7
 10
38.277971375910852
 20
45.419918342797089
 70
0
  0
VERTEX
  5
B4C3
  8
0
 62
7
 10
38.192533007876648
 20
45.419918342797089
 70
0
  0
SEQEND
  5
B4C4
  8
0
  0
POLYLINE
  5
AEB8
  8
0
 62
7
 66
1
 70
0
 10
0
 20
0
 30
0
  0
VERTEX
  5
B4C5
  8
0
 62
7
 10
38.192533007876648
 20
45.419918342797089
 70
0
  0
VERTEX
  5
B4C6
  8
0
 62
7
 10
38.108472678036549
 20
45.419918342797089
 70
0
  0
SEQEND
  5
B4C7
  8
0
  0
POLYLINE
  5
AEBC
  8
0
 62
7
 66
1
 70
0
 10
0
 20
0
 30
0
  0
VERTEX
  5
B4C8
  8
0
 62
7
 10
38.108472678036549
 20
45.419918342797089
 70
0
  0
VERTEX
  5
B4C9
  8
0
 62
7
 10
38.023034310002359
 20
45.37719915878
 70
0
  0
SEQEND
  5
B4CA
  8
0
  0
POLYLINE
  5
AEC0
  8
0
 62
7
 66
1
 70
0
 10
0
 20
0
 30
0
  0
VERTEX
  5
B4CB
  8
0
 62
7
 10
38.023034310002359
 20
45.37719915878
 70
0
  0
VERTEX
  5
B4CC
  8
0
 62
7
 10
38.023034310002359
 20
45.37719915878
 70
0
  0
SEQEND
  5
B4CD
  8
0
  0
POLYLINE
  5
AEC4
  8
0
 62
7
 66
1
 70
0
 10
0
 20
0
 30
0
  0
VERTEX
  5
B4CE
  8
0
 62
7
 10
38.023034310002359
 20
45.37719915878
 70
0
  0
VERTEX
  5
B4CF
  8
0
 62
7
 10
38.108472678036549
 20
45.33465222953717
 70
0
  0
SEQEND
  5
B4D0
  8
0
  0
POLYLINE
  5
AEC8
  8
0
 62
7
 66
1
 70
0
 10
0
 20
0
 30
0
  0
VERTEX
  5
B4D1
  8
0
 62
7
 10
38.108472678036549
 20
45.33465222953717
 70
0
  0
VERTEX
  5
B4D2
  8
0
 62
7
 10
38.192533007876648
 20
45.33465222953717
 70
0
  0
SEQEND
  5
B4D3
  8
0
  0
POLYLINE
  5
AECC
  8
0
 62
7
 66
1
 70
0
 10
0
 20
0
 30
0
  0
VERTEX
  5
B4D4
  8
0
 62
7
 10
38.192533007876648
 20
45.33465222953717
 70
0
  0
VERTEX
  5
B4D5
  8
0
 62
7
 10
38.277971375910852
 20
45.33465222953717
 70
0
  0
SEQEND
  5
B4D6
  8
0
  0
POLYLINE
  5
AED0
  8
0
 62
7
 66
1
 70
0
 10
0
 20
0
 30
0
  0
VERTEX
  5
B4D7
  8
0
 62
7
 10
38.277971375910852
 20
45.33465222953717
 70
0
  0
VERTEX
  5
B4D8
  8
0
 62
7
 10
38.362031705750937
 20
45.37719915878
 70
0
  0
SEQEND
  5
B4D9
  8
0
  0
POLYLINE
  5
AED4
  8
0
 62
7
 66
1
 70
0
 10
0
 20
0
 30
0
  0
VERTEX
  5
B4DA
  8
0
 62
7
 10
38.362031705750937
 20
45.37719915878
 70
0
  0
VERTEX
  5
B4DB
  8
0
 62
7
 10
38.362031705750937
 20
45.37719915878
 70
0
  0
SEQEND
  5
B4DC
  8
0
  0
POLYLINE
  5
AED8
  8
0
 62
7
 66
1
 70
0
 10
0
 20
0
 30
0
  0
VERTEX
  5
B4DD
  8
0
 62
7
 10
38.701029101499529
 20
55.409489466601769
 70
0
  0
VERTEX
  5
B4DE
  8
0
 62
7
 10
38.701029101499529
 20
55.32560139153594
 70
0
  0
SEQEND
  5
B4DF
  8
0
  0
POLYLINE
  5
AEDC
  8
0
 62
7
 66
1
 70
0
 10
0
 20
0
 30
0
  0
VERTEX
  5
B4E0
  8
0
 62
7
 10
38.701029101499529
 20
45.673649625285741
 70
0
  0
VERTEX
  5
B4E1
  8
0
 62
7
 10
38.615590733465332
 20
45.716368809302843
 70
0
  0
SEQEND
  5
B4E2
  8
0
  0
POLYLINE
  5
AEE0
  8
0
 62
7
 66
1
 70
0
 10
0
 20
0
 30
0
  0
VERTEX
  5
B4E3
  8
0
 62
7
 10
38.615590733465332
 20
45.716368809302843
 70
0
  0
VERTEX
  5
B4E4
  8
0
 62
7
 10
38.531530403625233
 20
45.716368809302843
 70
0
  0
SEQEND
  5
B4E5
  8
0
  0
POLYLINE
  5
AEE4
  8
0
 62
7
 66
1
 70
0
 10
0
 20
0
 30
0
  0
VERTEX
  5
B4E6
  8
0
 62
7
 10
38.531530403625233
 20
45.716368809302843
 70
0
  0
VERTEX
  5
B4E7
  8
0
 62
7
 10
38.446092035591043
 20
45.716368809302843
 70
0
  0
SEQEND
  5
B4E8
  8
0
  0
POLYLINE
  5
AEE8
  8
0
 62
7
 66
1
 70
0
 10
0
 20
0
 30
0
  0
VERTEX
  5
B4E9
  8
0
 62
7
 10
38.446092035591043
 20
45.716368809302843
 70
0
  0
VERTEX
  5
B4EA
  8
0
 62
7
 10
38.362031705750937
 20
45.673649625285741
 70
0
  0
SEQEND
  5
B4EB
  8
0
  0
POLYLINE
  5
AEEC
  8
0
 62
7
 66
1
 70
0
 10
0
 20
0
 30
0
  0
VERTEX
  5
B4EC
  8
0
 62
7
 10
38.362031705750937
 20
45.673649625285741
 70
0
  0
VERTEX
  5
B4ED
  8
0
 62
7
 10
38.362031705750937
 20
45.673649625285741
 70
0
  0
SEQEND
  5
B4EE
  8
0
  0
POLYLINE
  5
AEF0
  8
0
 62
7
 66
1
 70
0
 10
0
 20
0
 30
0
  0
VERTEX
  5
B4EF
  8
0
 62
7
 10
38.362031705750937
 20
45.673649625285741
 70
0
  0
VERTEX
  5
B4F0
  8
0
 62
7
 10
38.446092035591043
 20
45.630930441268653
 70
0
  0
SEQEND
  5
B4F1
  8
0
  0
POLYLINE
  5
AEF4
  8
0
 62
7
 66
1
 70
0
 10
0
 20
0
 30
0
  0
VERTEX
  5
B4F2
  8
0
 62
7
 10
38.446092035591043
 20
45.630930441268653
 70
0
  0
VERTEX
  5
B4F3
  8
0
 62
7
 10
38.531530403625233
 20
45.630930441268653
 70
0
  0
SEQEND
  5
B4F4
  8
0
  0
POLYLINE
  5
AEF8
  8
0
 62
7
 66
1
 70
0
 10
0
 20
0
 30
0
  0
VERTEX
  5
B4F5
  8
0
 62
7
 10
38.531530403625233
 20
45.630930441268653
 70
0
  0
VERTEX
  5
B4F6
  8
0
 62
7
 10
38.615590733465332
 20
45.630930441268653
 70
0
  0
SEQEND
  5
B4F7
  8
0
  0
POLYLINE
  5
AEFC
  8
0
 62
7
 66
1
 70
0
 10
0
 20
0
 30
0
  0
VERTEX
  5
B4F8
  8
0
 62
7
 10
38.615590733465332
 20
45.630930441268653
 70
0
  0
VERTEX
  5
B4F9
  8
0
 62
7
 10
38.701029101499529
 20
45.673649625285741
 70
0
  0
SEQEND
  5
B4FA
  8
0
  0
POLYLINE
  5
AF00
  8
0
 62
7
 66
1
 70
0
 10
0
 20
0
 30
0
  0
VERTEX
  5
B4FB
  8
0
 62
7
 10
38.023034310002359
 20
45.673649625285741
 70
0
  0
VERTEX
  5
B4FC
  8
0
 62
7
 10
38.108472678036549
 20
45.630930441268653
 70
0
  0
SEQEND
  5
B4FD
  8
0
  0
POLYLINE
  5
AF04
  8
0
 62
7
 66
1
 70
0
 10
0
 20
0
 30
0
  0
VERTEX
  5
B4FE
  8
0
 62
7
 10
38.108472678036549
 20
45.630930441268653
 70
0
  0
VERTEX
  5
B4FF
  8
0
 62
7
 10
38.192533007876648
 20
45.630930441268653
 70
0
  0
SEQEND
  5
B500
  8
0
  0
POLYLINE
  5
AF08
  8
0
 62
7
 66
1
 70
0
 10
0
 20
0
 30
0
  0
VERTEX
  5
B501
  8
0
 62
7
 10
38.192533007876648
 20
45.630930441268653
 70
0
  0
VERTEX
  5
B502
  8
0
 62
7
 10
38.277971375910852
 20
45.630930441268653
 70
0
  0
SEQEND
  5
B503
  8
0
  0
POLYLINE
  5
AF0C
  8
0
 62
7
 66
1
 70
0
 10
0
 20
0
 30
0
  0
VERTEX
  5
B504
  8
0
 62
7
 10
38.277971375910852
 20
45.630930441268653
 70
0
  0
VERTEX
  5
B505
  8
0
 62
7
 10
38.362031705750937
 20
45.673649625285741
 70
0
  0
SEQEND
  5
B506
  8
0
  0
POLYLINE
  5
AF10
  8
0
 62
7
 66
1
 70
0
 10
0
 20
0
 30
0
  0
VERTEX
  5
B507
  8
0
 62
7
 10
38.362031705750937
 20
45.673649625285741
 70
0
  0
VERTEX
  5
B508
  8
0
 62
7
 10
38.362031705750937
 20
45.673649625285741
 70
0
  0
SEQEND
  5
B509
  8
0
  0
POLYLINE
  5
AF14
  8
0
 62
7
 66
1
 70
0
 10
0
 20
0
 30
0
  0
VERTEX
  5
B50A
  8
0
 62
7
 10
38.023034310002359
 20
45.37719915878
 70
0
  0
VERTEX
  5
B50B
  8
0
 62
7
 10
38.023034310002359
 20
32.255691729334671
 70
0
  0
SEQEND
  5
B50C
  8
0
  0
POLYLINE
  5
AF18
  8
0
 62
7
 66
1
 70
0
 10
0
 20
0
 30
0
  0
VERTEX
  5
B50D
  8
0
 62
7
 10
38.701029101499529
 20
45.37719915878
 70
0
  0
VERTEX
  5
B50E
  8
0
 62
7
 10
38.701029101499529
 20
32.255691729334671
 70
0
  0
SEQEND
  5
B50F
  8
0
  0
POLYLINE
  5
AF1C
  8
0
 62
7
 66
1
 70
0
 10
0
 20
0
 30
0
  0
VERTEX
  5
B510
  8
0
 62
7
 10
41.240753493225689
 20
24.508361002104841
 70
0
  0
VERTEX
  5
B511
  8
0
 62
7
 10
41.071254795351408
 20
24.634968261187769
 70
0
  0
SEQEND
  5
B512
  8
0
  0
POLYLINE
  5
AF20
  8
0
 62
7
 66
1
 70
0
 10
0
 20
0
 30
0
  0
VERTEX
  5
B513
  8
0
 62
7
 10
41.071254795351408
 20
24.634968261187769
 70
0
  0
VERTEX
  5
B514
  8
0
 62
7
 10
40.73225739960283
 20
24.72075113877052
 70
0
  0
SEQEND
  5
B515
  8
0
  0
POLYLINE
  5
AF24
  8
0
 62
7
 66
1
 70
0
 10
0
 20
0
 30
0
  0
VERTEX
  5
B516
  8
0
 62
7
 10
40.73225739960283
 20
24.72075113877052
 70
0
  0
VERTEX
  5
B517
  8
0
 62
7
 10
40.351918858031247
 20
24.763470322787612
 70
0
  0
SEQEND
  5
B518
  8
0
  0
POLYLINE
  5
AF28
  8
0
 62
7
 66
1
 70
0
 10
0
 20
0
 30
0
  0
VERTEX
  5
B519
  8
0
 62
7
 10
40.351918858031247
 20
24.763470322787612
 70
0
  0
VERTEX
  5
B51A
  8
0
 62
7
 10
39.92886113244257
 20
24.804639213836339
 70
0
  0
SEQEND
  5
B51B
  8
0
  0
POLYLINE
  5
AF2C
  8
0
 62
7
 66
1
 70
0
 10
0
 20
0
 30
0
  0
VERTEX
  5
B51C
  8
0
 62
7
 10
39.92886113244257
 20
24.804639213836339
 70
0
  0
VERTEX
  5
B51D
  8
0
 62
7
 10
39.463084222836777
 20
24.847358397853441
 70
0
  0
SEQEND
  5
B51E
  8
0
  0
POLYLINE
  5
AF30
  8
0
 62
7
 66
1
 70
0
 10
0
 20
0
 30
0
  0
VERTEX
  5
B51F
  8
0
 62
7
 10
39.463084222836777
 20
24.847358397853441
 70
0
  0
VERTEX
  5
B520
  8
0
 62
7
 10
38.911868945196822
 20
24.890077581870528
 70
0
  0
SEQEND
  5
B521
  8
0
  0
POLYLINE
  5
AF34
  8
0
 62
7
 66
1
 70
0
 10
0
 20
0
 30
0
  0
VERTEX
  5
B522
  8
0
 62
7
 10
38.911868945196822
 20
24.890077581870528
 70
0
  0
VERTEX
  5
B523
  8
0
 62
7
 10
38.362031705750937
 20
24.890077581870528
 70
0
  0
SEQEND
  5
B524
  8
0
  0
POLYLINE
  5
AF38
  8
0
 62
7
 66
1
 70
0
 10
0
 20
0
 30
0
  0
VERTEX
  5
B525
  8
0
 62
7
 10
38.362031705750937
 20
24.890077581870528
 70
0
  0
VERTEX
  5
B526
  8
0
 62
7
 10
37.812194466305058
 20
24.890077581870528
 70
0
  0
SEQEND
  5
B527
  8
0
  0
POLYLINE
  5
AF3C
  8
0
 62
7
 66
1
 70
0
 10
0
 20
0
 30
0
  0
VERTEX
  5
B528
  8
0
 62
7
 10
37.812194466305058
 20
24.890077581870528
 70
0
  0
VERTEX
  5
B529
  8
0
 62
7
 10
37.303698372682192
 20
24.847358397853441
 70
0
  0
SEQEND
  5
B52A
  8
0
  0
POLYLINE
  5
AF40
  8
0
 62
7
 66
1
 70
0
 10
0
 20
0
 30
0
  0
VERTEX
  5
B52B
  8
0
 62
7
 10
37.303698372682192
 20
24.847358397853441
 70
0
  0
VERTEX
  5
B52C
  8
0
 62
7
 10
36.796580317253422
 20
24.804639213836339
 70
0
  0
SEQEND
  5
B52D
  8
0
  0
POLYLINE
  5
AF44
  8
0
 62
7
 66
1
 70
0
 10
0
 20
0
 30
0
  0
VERTEX
  5
B52E
  8
0
 62
7
 10
36.796580317253422
 20
24.804639213836339
 70
0
  0
VERTEX
  5
B52F
  8
0
 62
7
 10
36.372144553470633
 20
24.763470322787612
 70
0
  0
SEQEND
  5
B530
  8
0
  0
POLYLINE
  5
AF48
  8
0
 62
7
 66
1
 70
0
 10
0
 20
0
 30
0
  0
VERTEX
  5
B531
  8
0
 62
7
 10
36.372144553470633
 20
24.763470322787612
 70
0
  0
VERTEX
  5
B532
  8
0
 62
7
 10
35.991806011899051
 20
24.72075113877052
 70
0
  0
SEQEND
  5
B533
  8
0
  0
POLYLINE
  5
AF4C
  8
0
 62
7
 66
1
 70
0
 10
0
 20
0
 30
0
  0
VERTEX
  5
B534
  8
0
 62
7
 10
35.991806011899051
 20
24.72075113877052
 70
0
  0
VERTEX
  5
B535
  8
0
 62
7
 10
35.652808616150473
 20
24.634968261187769
 70
0
  0
SEQEND
  5
B536
  8
0
  0
POLYLINE
  5
AF50
  8
0
 62
7
 66
1
 70
0
 10
0
 20
0
 30
0
  0
VERTEX
  5
B537
  8
0
 62
7
 10
35.652808616150473
 20
24.634968261187769
 70
0
  0
VERTEX
  5
B538
  8
0
 62
7
 10
35.48330991827617
 20
24.508361002104841
 70
0
  0
SEQEND
  5
B539
  8
0
  0
POLYLINE
  5
AF54
  8
0
 62
7
 66
1
 70
0
 10
0
 20
0
 30
0
  0
VERTEX
  5
B53A
  8
0
 62
7
 10
43.230640645506
 20
10.4978466826908
 70
0
  0
VERTEX
  5
B53B
  8
0
 62
7
 10
43.14520227747181
 20
10.54039361193364
 70
0
  0
SEQEND
  5
B53C
  8
0
  0
POLYLINE
  5
AF58
  8
0
 62
7
 66
1
 70
0
 10
0
 20
0
 30
0
  0
VERTEX
  5
B53D
  8
0
 62
7
 10
43.14520227747181
 20
10.54039361193364
 70
0
  0
VERTEX
  5
B53E
  8
0
 62
7
 10
42.934362433774517
 20
10.62479845132227
 70
0
  0
SEQEND
  5
B53F
  8
0
  0
POLYLINE
  5
AF5C
  8
0
 62
7
 66
1
 70
0
 10
0
 20
0
 30
0
  0
VERTEX
  5
B540
  8
0
 62
7
 10
42.934362433774517
 20
10.62479845132227
 70
0
  0
VERTEX
  5
B541
  8
0
 62
7
 10
42.595365038025939
 20
10.7086865263881
 70
0
  0
SEQEND
  5
B542
  8
0
  0
POLYLINE
  5
AF60
  8
0
 62
7
 66
1
 70
0
 10
0
 20
0
 30
0
  0
VERTEX
  5
B543
  8
0
 62
7
 10
42.595365038025939
 20
10.7086865263881
 70
0
  0
VERTEX
  5
B544
  8
0
 62
7
 10
42.086868944403051
 20
10.79412489442228
 70
0
  0
SEQEND
  5
B545
  8
0
  0
POLYLINE
  5
AF64
  8
0
 62
7
 66
1
 70
0
 10
0
 20
0
 30
0
  0
VERTEX
  5
B546
  8
0
 62
7
 10
42.086868944403051
 20
10.79412489442228
 70
0
  0
VERTEX
  5
B547
  8
0
 62
7
 10
41.49431252094007
 20
10.836844078439381
 70
0
  0
SEQEND
  5
B548
  8
0
  0
POLYLINE
  5
AF68
  8
0
 62
7
 66
1
 70
0
 10
0
 20
0
 30
0
  0
VERTEX
  5
B549
  8
0
 62
7
 10
41.49431252094007
 20
10.836844078439381
 70
0
  0
VERTEX
  5
B54A
  8
0
 62
7
 10
40.817695767637012
 20
10.87801296948814
 70
0
  0
SEQEND
  5
B54B
  8
0
  0
POLYLINE
  5
AF6C
  8
0
 62
7
 66
1
 70
0
 10
0
 20
0
 30
0
  0
VERTEX
  5
B54C
  8
0
 62
7
 10
40.817695767637012
 20
10.87801296948814
 70
0
  0
VERTEX
  5
B54D
  8
0
 62
7
 10
40.012921462282648
 20
10.92073215350521
 70
0
  0
SEQEND
  5
B54E
  8
0
  0
POLYLINE
  5
AF70
  8
0
 62
7
 66
1
 70
0
 10
0
 20
0
 30
0
  0
VERTEX
  5
B54F
  8
0
 62
7
 10
40.012921462282648
 20
10.92073215350521
 70
0
  0
VERTEX
  5
B550
  8
0
 62
7
 10
39.208147156928312
 20
10.96379584707085
 70
0
  0
SEQEND
  5
B551
  8
0
  0
POLYLINE
  5
AF74
  8
0
 62
7
 66
1
 70
0
 10
0
 20
0
 30
0
  0
VERTEX
  5
B552
  8
0
 62
7
 10
39.208147156928312
 20
10.96379584707085
 70
0
  0
VERTEX
  5
B553
  8
0
 62
7
 10
38.362031705750937
 20
10.96379584707085
 70
0
  0
SEQEND
  5
B554
  8
0
  0
POLYLINE
  5
AF78
  8
0
 62
7
 66
1
 70
0
 10
0
 20
0
 30
0
  0
VERTEX
  5
B555
  8
0
 62
7
 10
38.362031705750937
 20
10.96379584707085
 70
0
  0
VERTEX
  5
B556
  8
0
 62
7
 10
37.515916254573582
 20
10.96379584707085
 70
0
  0
SEQEND
  5
B557
  8
0
  0
POLYLINE
  5
AF7C
  8
0
 62
7
 66
1
 70
0
 10
0
 20
0
 30
0
  0
VERTEX
  5
B558
  8
0
 62
7
 10
37.515916254573582
 20
10.96379584707085
 70
0
  0
VERTEX
  5
B559
  8
0
 62
7
 10
36.711141949219211
 20
10.92073215350521
 70
0
  0
SEQEND
  5
B55A
  8
0
  0
POLYLINE
  5
AF80
  8
0
 62
7
 66
1
 70
0
 10
0
 20
0
 30
0
  0
VERTEX
  5
B55B
  8
0
 62
7
 10
36.711141949219211
 20
10.92073215350521
 70
0
  0
VERTEX
  5
B55C
  8
0
 62
7
 10
35.94908682788197
 20
10.87801296948814
 70
0
  0
SEQEND
  5
B55D
  8
0
  0
POLYLINE
  5
AF84
  8
0
 62
7
 66
1
 70
0
 10
0
 20
0
 30
0
  0
VERTEX
  5
B55E
  8
0
 62
7
 10
35.94908682788197
 20
10.87801296948814
 70
0
  0
VERTEX
  5
B55F
  8
0
 62
7
 10
35.229750890561789
 20
10.836844078439381
 70
0
  0
SEQEND
  5
B560
  8
0
  0
POLYLINE
  5
AF88
  8
0
 62
7
 66
1
 70
0
 10
0
 20
0
 30
0
  0
VERTEX
  5
B561
  8
0
 62
7
 10
35.229750890561789
 20
10.836844078439381
 70
0
  0
VERTEX
  5
B562
  8
0
 62
7
 10
34.637194467098809
 20
10.79412489442228
 70
0
  0
SEQEND
  5
B563
  8
0
  0
POLYLINE
  5
AF8C
  8
0
 62
7
 66
1
 70
0
 10
0
 20
0
 30
0
  0
VERTEX
  5
B564
  8
0
 62
7
 10
34.637194467098809
 20
10.79412489442228
 70
0
  0
VERTEX
  5
B565
  8
0
 62
7
 10
34.128698373475949
 20
10.7086865263881
 70
0
  0
SEQEND
  5
B566
  8
0
  0
POLYLINE
  5
AF90
  8
0
 62
7
 66
1
 70
0
 10
0
 20
0
 30
0
  0
VERTEX
  5
B567
  8
0
 62
7
 10
34.128698373475949
 20
10.7086865263881
 70
0
  0
VERTEX
  5
B568
  8
0
 62
7
 10
33.791079015921461
 20
10.62479845132227
 70
0
  0
SEQEND
  5
B569
  8
0
  0
POLYLINE
  5
AF94
  8
0
 62
7
 66
1
 70
0
 10
0
 20
0
 30
0
  0
VERTEX
  5
B56A
  8
0
 62
7
 10
33.791079015921461
 20
10.62479845132227
 70
0
  0
VERTEX
  5
B56B
  8
0
 62
7
 10
33.57886113403007
 20
10.54039361193364
 70
0
  0
SEQEND
  5
B56C
  8
0
  0
POLYLINE
  5
AF98
  8
0
 62
7
 66
1
 70
0
 10
0
 20
0
 30
0
  0
VERTEX
  5
B56D
  8
0
 62
7
 10
33.57886113403007
 20
10.54039361193364
 70
0
  0
VERTEX
  5
B56E
  8
0
 62
7
 10
33.494800804189971
 20
10.4978466826908
 70
0
  0
SEQEND
  5
B56F
  8
0
  0
POLYLINE
  5
AF9C
  8
0
 62
7
 66
1
 70
0
 10
0
 20
0
 30
0
  0
VERTEX
  5
B570
  8
0
 62
7
 10
33.494800804189971
 20
10.4978466826908
 70
0
  0
VERTEX
  5
B571
  8
0
 62
7
 10
33.57886113403007
 20
10.4124083146566
 70
0
  0
SEQEND
  5
B572
  8
0
  0
POLYLINE
  5
AFA0
  8
0
 62
7
 66
1
 70
0
 10
0
 20
0
 30
0
  0
VERTEX
  5
B573
  8
0
 62
7
 10
33.57886113403007
 20
10.4124083146566
 70
0
  0
VERTEX
  5
B574
  8
0
 62
7
 10
33.791079015921461
 20
10.3283479848165
 70
0
  0
SEQEND
  5
B575
  8
0
  0
POLYLINE
  5
AFA4
  8
0
 62
7
 66
1
 70
0
 10
0
 20
0
 30
0
  0
VERTEX
  5
B576
  8
0
 62
7
 10
33.791079015921461
 20
10.3283479848165
 70
0
  0
VERTEX
  5
B577
  8
0
 62
7
 10
34.128698373475949
 20
10.24411540020216
 70
0
  0
SEQEND
  5
B578
  8
0
  0
POLYLINE
  5
AFA8
  8
0
 62
7
 66
1
 70
0
 10
0
 20
0
 30
0
  0
VERTEX
  5
B579
  8
0
 62
7
 10
34.128698373475949
 20
10.24411540020216
 70
0
  0
VERTEX
  5
B57A
  8
0
 62
7
 10
34.637194467098809
 20
10.158677032167949
 70
0
  0
SEQEND
  5
B57B
  8
0
  0
POLYLINE
  5
AFAC
  8
0
 62
7
 66
1
 70
0
 10
0
 20
0
 30
0
  0
VERTEX
  5
B57C
  8
0
 62
7
 10
34.637194467098809
 20
10.158677032167949
 70
0
  0
VERTEX
  5
B57D
  8
0
 62
7
 10
35.229750890561789
 20
10.116130102925119
 70
0
  0
SEQEND
  5
B57E
  8
0
  0
POLYLINE
  5
AFB0
  8
0
 62
7
 66
1
 70
0
 10
0
 20
0
 30
0
  0
VERTEX
  5
B57F
  8
0
 62
7
 10
35.229750890561789
 20
10.116130102925119
 70
0
  0
VERTEX
  5
B580
  8
0
 62
7
 10
35.94908682788197
 20
10.074788957102131
 70
0
  0
SEQEND
  5
B581
  8
0
  0
POLYLINE
  5
AFB4
  8
0
 62
7
 66
1
 70
0
 10
0
 20
0
 30
0
  0
VERTEX
  5
B582
  8
0
 62
7
 10
35.94908682788197
 20
10.074788957102131
 70
0
  0
VERTEX
  5
B583
  8
0
 62
7
 10
36.711141949219211
 20
10.032069773085031
 70
0
  0
SEQEND
  5
B584
  8
0
  0
POLYLINE
  5
AFB8
  8
0
 62
7
 66
1
 70
0
 10
0
 20
0
 30
0
  0
VERTEX
  5
B585
  8
0
 62
7
 10
36.711141949219211
 20
10.032069773085031
 70
0
  0
VERTEX
  5
B586
  8
0
 62
7
 10
37.515916254573582
 20
9.9893505890679233
 70
0
  0
SEQEND
  5
B587
  8
0
  0
POLYLINE
  5
AFBC
  8
0
 62
7
 66
1
 70
0
 10
0
 20
0
 30
0
  0
VERTEX
  5
B588
  8
0
 62
7
 10
37.515916254573582
 20
9.9893505890679233
 70
0
  0
VERTEX
  5
B589
  8
0
 62
7
 10
38.362031705750937
 20
9.9893505890679233
 70
0
  0
SEQEND
  5
B58A
  8
0
  0
POLYLINE
  5
AFC0
  8
0
 62
7
 66
1
 70
0
 10
0
 20
0
 30
0
  0
VERTEX
  5
B58B
  8
0
 62
7
 10
38.362031705750937
 20
9.9893505890679233
 70
0
  0
VERTEX
  5
B58C
  8
0
 62
7
 10
39.208147156928312
 20
9.9893505890679233
 70
0
  0
SEQEND
  5
B58D
  8
0
  0
POLYLINE
  5
AFC4
  8
0
 62
7
 66
1
 70
0
 10
0
 20
0
 30
0
  0
VERTEX
  5
B58E
  8
0
 62
7
 10
39.208147156928312
 20
9.9893505890679233
 70
0
  0
VERTEX
  5
B58F
  8
0
 62
7
 10
40.012921462282648
 20
10.032069773085031
 70
0
  0
SEQEND
  5
B590
  8
0
  0
POLYLINE
  5
AFC8
  8
0
 62
7
 66
1
 70
0
 10
0
 20
0
 30
0
  0
VERTEX
  5
B591
  8
0
 62
7
 10
40.012921462282648
 20
10.032069773085031
 70
0
  0
VERTEX
  5
B592
  8
0
 62
7
 10
40.817695767637012
 20
10.074788957102131
 70
0
  0
SEQEND
  5
B593
  8
0
  0
POLYLINE
  5
AFCC
  8
0
 62
7
 66
1
 70
0
 10
0
 20
0
 30
0
  0
VERTEX
  5
B594
  8
0
 62
7
 10
40.817695767637012
 20
10.074788957102131
 70
0
  0
VERTEX
  5
B595
  8
0
 62
7
 10
41.49431252094007
 20
10.116130102925119
 70
0
  0
SEQEND
  5
B596
  8
0
  0
POLYLINE
  5
AFD0
  8
0
 62
7
 66
1
 70
0
 10
0
 20
0
 30
0
  0
VERTEX
  5
B597
  8
0
 62
7
 10
41.49431252094007
 20
10.116130102925119
 70
0
  0
VERTEX
  5
B598
  8
0
 62
7
 10
42.086868944403051
 20
10.158677032167949
 70
0
  0
SEQEND
  5
B599
  8
0
  0
POLYLINE
  5
AFD4
  8
0
 62
7
 66
1
 70
0
 10
0
 20
0
 30
0
  0
VERTEX
  5
B59A
  8
0
 62
7
 10
42.086868944403051
 20
10.158677032167949
 70
0
  0
VERTEX
  5
B59B
  8
0
 62
7
 10
42.595365038025939
 20
10.24411540020216
 70
0
  0
SEQEND
  5
B59C
  8
0
  0
POLYLINE
  5
AFD8
  8
0
 62
7
 66
1
 70
0
 10
0
 20
0
 30
0
  0
VERTEX
  5
B59D
  8
0
 62
7
 10
42.595365038025939
 20
10.24411540020216
 70
0
  0
VERTEX
  5
B59E
  8
0
 62
7
 10
42.934362433774517
 20
10.3283479848165
 70
0
  0
SEQEND
  5
B59F
  8
0
  0
POLYLINE
  5
AFDC
  8
0
 62
7
 66
1
 70
0
 10
0
 20
0
 30
0
  0
VERTEX
  5
B5A0
  8
0
 62
7
 10
42.934362433774517
 20
10.3283479848165
 70
0
  0
VERTEX
  5
B5A1
  8
0
 62
7
 10
43.14520227747181
 20
10.4124083146566
 70
0
  0
SEQEND
  5
B5A2
  8
0
  0
POLYLINE
  5
AFE0
  8
0
 62
7
 66
1
 70
0
 10
0
 20
0
 30
0
  0
VERTEX
  5
B5A3
  8
0
 62
7
 10
43.14520227747181
 20
10.4124083146566
 70
0
  0
VERTEX
  5
B5A4
  8
0
 62
7
 10
43.230640645506
 20
10.4978466826908
 70
0
  0
SEQEND
  5
B5A5
  8
0
  0
POLYLINE
  5
AFE4
  8
0
 62
7
 66
1
 70
0
 10
0
 20
0
 30
0
  0
VERTEX
  5
B5A6
  8
0
 62
7
 10
43.4841996732204
 20
10.4978466826908
 70
0
  0
VERTEX
  5
B5A7
  8
0
 62
7
 10
43.4414804892033
 20
12.529074980794119
 70
0
  0
SEQEND
  5
B5A8
  8
0
  0
POLYLINE
  5
AFE8
  8
0
 62
7
 66
1
 70
0
 10
0
 20
0
 30
0
  0
VERTEX
  5
B5A9
  8
0
 62
7
 10
43.4414804892033
 20
12.529074980794119
 70
0
  0
VERTEX
  5
B5AA
  8
0
 62
7
 10
43.271981791329011
 20
14.561681317091511
 70
0
  0
SEQEND
  5
B5AB
  8
0
  0
POLYLINE
  5
AFEC
  8
0
 62
7
 66
1
 70
0
 10
0
 20
0
 30
0
  0
VERTEX
  5
B5AC
  8
0
 62
7
 10
43.271981791329011
 20
14.561681317091511
 70
0
  0
VERTEX
  5
B5AD
  8
0
 62
7
 10
43.06114194763169
 20
16.59308186996909
 70
0
  0
SEQEND
  5
B5AE
  8
0
  0
POLYLINE
  5
AFF0
  8
0
 62
7
 66
1
 70
0
 10
0
 20
0
 30
0
  0
VERTEX
  5
B5AF
  8
0
 62
7
 10
43.06114194763169
 20
16.59308186996909
 70
0
  0
VERTEX
  5
B5B0
  8
0
 62
7
 10
42.722144551883133
 20
18.582796767475109
 70
0
  0
SEQEND
  5
B5B1
  8
0
  0
POLYLINE
  5
AFF4
  8
0
 62
7
 66
1
 70
0
 10
0
 20
0
 30
0
  0
VERTEX
  5
B5B2
  8
0
 62
7
 10
42.722144551883133
 20
18.582796767475109
 70
0
  0
VERTEX
  5
B5B3
  8
0
 62
7
 10
42.299086826294449
 20
20.572683919755441
 70
0
  0
SEQEND
  5
B5B4
  8
0
  0
POLYLINE
  5
AFF8
  8
0
 62
7
 66
1
 70
0
 10
0
 20
0
 30
0
  0
VERTEX
  5
B5B5
  8
0
 62
7
 10
42.299086826294449
 20
20.572683919755441
 70
0
  0
VERTEX
  5
B5B6
  8
0
 62
7
 10
41.833309916688663
 20
22.561365288615889
 70
0
  0
SEQEND
  5
B5B7
  8
0
  0
POLYLINE
  5
AFFC
  8
0
 62
7
 66
1
 70
0
 10
0
 20
0
 30
0
  0
VERTEX
  5
B5B8
  8
0
 62
7
 10
41.833309916688663
 20
22.561365288615889
 70
0
  0
VERTEX
  5
B5B9
  8
0
 62
7
 10
41.240753493225689
 20
24.508361002104841
 70
0
  0
SEQEND
  5
B5BA
  8
0
  0
POLYLINE
  5
B000
  8
0
 62
7
 66
1
 70
0
 10
0
 20
0
 30
0
  0
VERTEX
  5
B5BB
  8
0
 62
7
 10
41.240753493225689
 20
24.508361002104841
 70
0
  0
VERTEX
  5
B5BC
  8
0
 62
7
 10
41.240753493225689
 20
24.508361002104841
 70
0
  0
SEQEND
  5
B5BD
  8
0
  0
POLYLINE
  5
B004
  8
0
 62
7
 66
1
 70
0
 10
0
 20
0
 30
0
  0
VERTEX
  5
B5BE
  8
0
 62
7
 10
35.48330991827617
 20
24.508361002104841
 70
0
  0
VERTEX
  5
B5BF
  8
0
 62
7
 10
34.8907534948132
 20
22.561365288615889
 70
0
  0
SEQEND
  5
B5C0
  8
0
  0
POLYLINE
  5
B008
  8
0
 62
7
 66
1
 70
0
 10
0
 20
0
 30
0
  0
VERTEX
  5
B5C1
  8
0
 62
7
 10
34.8907534948132
 20
22.561365288615889
 70
0
  0
VERTEX
  5
B5C2
  8
0
 62
7
 10
34.424976585207432
 20
20.572683919755441
 70
0
  0
SEQEND
  5
B5C3
  8
0
  0
POLYLINE
  5
B00C
  8
0
 62
7
 66
1
 70
0
 10
0
 20
0
 30
0
  0
VERTEX
  5
B5C4
  8
0
 62
7
 10
34.424976585207432
 20
20.572683919755441
 70
0
  0
VERTEX
  5
B5C5
  8
0
 62
7
 10
34.00191885961874
 20
18.582796767475109
 70
0
  0
SEQEND
  5
B5C6
  8
0
  0
POLYLINE
  5
B010
  8
0
 62
7
 66
1
 70
0
 10
0
 20
0
 30
0
  0
VERTEX
  5
B5C7
  8
0
 62
7
 10
34.00191885961874
 20
18.582796767475109
 70
0
  0
VERTEX
  5
B5C8
  8
0
 62
7
 10
33.662921463870163
 20
16.59308186996909
 70
0
  0
SEQEND
  5
B5C9
  8
0
  0
POLYLINE
  5
B014
  8
0
 62
7
 66
1
 70
0
 10
0
 20
0
 30
0
  0
VERTEX
  5
B5CA
  8
0
 62
7
 10
33.662921463870163
 20
16.59308186996909
 70
0
  0
VERTEX
  5
B5CB
  8
0
 62
7
 10
33.452081620172883
 20
14.561681317091511
 70
0
  0
SEQEND
  5
B5CC
  8
0
  0
POLYLINE
  5
B018
  8
0
 62
7
 66
1
 70
0
 10
0
 20
0
 30
0
  0
VERTEX
  5
B5CD
  8
0
 62
7
 10
33.452081620172883
 20
14.561681317091511
 70
0
  0
VERTEX
  5
B5CE
  8
0
 62
7
 10
33.28258292229858
 20
12.529074980794119
 70
0
  0
SEQEND
  5
B5CF
  8
0
  0
POLYLINE
  5
B01C
  8
0
 62
7
 66
1
 70
0
 10
0
 20
0
 30
0
  0
VERTEX
  5
B5D0
  8
0
 62
7
 10
33.28258292229858
 20
12.529074980794119
 70
0
  0
VERTEX
  5
B5D1
  8
0
 62
7
 10
33.239863738281478
 20
10.4978466826908
 70
0
  0
SEQEND
  5
B5D2
  8
0
  0
POLYLINE
  5
B020
  8
0
 62
7
 66
1
 70
0
 10
0
 20
0
 30
0
  0
VERTEX
  5
B5D3
  8
0
 62
7
 10
33.239863738281478
 20
10.4978466826908
 70
0
  0
VERTEX
  5
B5D4
  8
0
 62
7
 10
33.239863738281478
 20
10.4978466826908
 70
0
  0
SEQEND
  5
B5D5
  8
0
  0
POLYLINE
  5
B024
  8
0
 62
7
 66
1
 70
0
 10
0
 20
0
 30
0
  0
VERTEX
  5
B5D6
  8
0
 62
7
 10
33.239863738281478
 20
10.4978466826908
 70
0
  0
VERTEX
  5
B5D7
  8
0
 62
7
 10
33.325302106315668
 20
10.3710671688336
 70
0
  0
SEQEND
  5
B5D8
  8
0
  0
POLYLINE
  5
B028
  8
0
 62
7
 66
1
 70
0
 10
0
 20
0
 30
0
  0
VERTEX
  5
B5D9
  8
0
 62
7
 10
33.325302106315668
 20
10.3710671688336
 70
0
  0
VERTEX
  5
B5DA
  8
0
 62
7
 10
33.536141950012961
 20
10.285801055573669
 70
0
  0
SEQEND
  5
B5DB
  8
0
  0
POLYLINE
  5
B02C
  8
0
 62
7
 66
1
 70
0
 10
0
 20
0
 30
0
  0
VERTEX
  5
B5DC
  8
0
 62
7
 10
33.536141950012961
 20
10.285801055573669
 70
0
  0
VERTEX
  5
B5DD
  8
0
 62
7
 10
33.91785852977867
 20
10.20139621618506
 70
0
  0
SEQEND
  5
B5DE
  8
0
  0
POLYLINE
  5
B030
  8
0
 62
7
 66
1
 70
0
 10
0
 20
0
 30
0
  0
VERTEX
  5
B5DF
  8
0
 62
7
 10
33.91785852977867
 20
10.20139621618506
 70
0
  0
VERTEX
  5
B5E0
  8
0
 62
7
 10
34.424976585207432
 20
10.116130102925119
 70
0
  0
SEQEND
  5
B5E1
  8
0
  0
POLYLINE
  5
B034
  8
0
 62
7
 66
1
 70
0
 10
0
 20
0
 30
0
  0
VERTEX
  5
B5E2
  8
0
 62
7
 10
34.424976585207432
 20
10.116130102925119
 70
0
  0
VERTEX
  5
B5E3
  8
0
 62
7
 10
35.0602521926875
 20
10.032069773085031
 70
0
  0
SEQEND
  5
B5E4
  8
0
  0
POLYLINE
  5
B038
  8
0
 62
7
 66
1
 70
0
 10
0
 20
0
 30
0
  0
VERTEX
  5
B5E5
  8
0
 62
7
 10
35.0602521926875
 20
10.032069773085031
 70
0
  0
VERTEX
  5
B5E6
  8
0
 62
7
 10
35.779588130007681
 20
9.9893505890679233
 70
0
  0
SEQEND
  5
B5E7
  8
0
  0
POLYLINE
  5
B03C
  8
0
 62
7
 66
1
 70
0
 10
0
 20
0
 30
0
  0
VERTEX
  5
B5E8
  8
0
 62
7
 10
35.779588130007681
 20
9.9893505890679233
 70
0
  0
VERTEX
  5
B5E9
  8
0
 62
7
 10
36.62708161937914
 20
9.9481816980191962
 70
0
  0
SEQEND
  5
B5EA
  8
0
  0
POLYLINE
  5
B040
  8
0
 62
7
 66
1
 70
0
 10
0
 20
0
 30
0
  0
VERTEX
  5
B5EB
  8
0
 62
7
 10
36.62708161937914
 20
9.9481816980191962
 70
0
  0
VERTEX
  5
B5EC
  8
0
 62
7
 10
37.473197070556481
 20
9.9481816980191962
 70
0
  0
SEQEND
  5
B5ED
  8
0
  0
POLYLINE
  5
B044
  8
0
 62
7
 66
1
 70
0
 10
0
 20
0
 30
0
  0
VERTEX
  5
B5EE
  8
0
 62
7
 10
37.473197070556481
 20
9.9481816980191962
 70
0
  0
VERTEX
  5
B5EF
  8
0
 62
7
 10
38.362031705750937
 20
9.9054625140020942
 70
0
  0
SEQEND
  5
B5F0
  8
0
  0
POLYLINE
  5
B048
  8
0
 62
7
 66
1
 70
0
 10
0
 20
0
 30
0
  0
VERTEX
  5
B5F1
  8
0
 62
7
 10
38.362031705750937
 20
9.9054625140020942
 70
0
  0
VERTEX
  5
B5F2
  8
0
 62
7
 10
39.250866340945393
 20
9.9481816980191962
 70
0
  0
SEQEND
  5
B5F3
  8
0
  0
POLYLINE
  5
B04C
  8
0
 62
7
 66
1
 70
0
 10
0
 20
0
 30
0
  0
VERTEX
  5
B5F4
  8
0
 62
7
 10
39.250866340945393
 20
9.9481816980191962
 70
0
  0
VERTEX
  5
B5F5
  8
0
 62
7
 10
40.139700976139842
 20
9.9481816980191962
 70
0
  0
SEQEND
  5
B5F6
  8
0
  0
POLYLINE
  5
B050
  8
0
 62
7
 66
1
 70
0
 10
0
 20
0
 30
0
  0
VERTEX
  5
B5F7
  8
0
 62
7
 10
40.139700976139842
 20
9.9481816980191962
 70
0
  0
VERTEX
  5
B5F8
  8
0
 62
7
 10
40.944475281494221
 20
9.9893505890679233
 70
0
  0
SEQEND
  5
B5F9
  8
0
  0
POLYLINE
  5
B054
  8
0
 62
7
 66
1
 70
0
 10
0
 20
0
 30
0
  0
VERTEX
  5
B5FA
  8
0
 62
7
 10
40.944475281494221
 20
9.9893505890679233
 70
0
  0
VERTEX
  5
B5FB
  8
0
 62
7
 10
41.663811218814381
 20
10.032069773085031
 70
0
  0
SEQEND
  5
B5FC
  8
0
  0
POLYLINE
  5
B058
  8
0
 62
7
 66
1
 70
0
 10
0
 20
0
 30
0
  0
VERTEX
  5
B5FD
  8
0
 62
7
 10
41.663811218814381
 20
10.032069773085031
 70
0
  0
VERTEX
  5
B5FE
  8
0
 62
7
 10
42.299086826294449
 20
10.116130102925119
 70
0
  0
SEQEND
  5
B5FF
  8
0
  0
POLYLINE
  5
B05C
  8
0
 62
7
 66
1
 70
0
 10
0
 20
0
 30
0
  0
VERTEX
  5
B600
  8
0
 62
7
 10
42.299086826294449
 20
10.116130102925119
 70
0
  0
VERTEX
  5
B601
  8
0
 62
7
 10
42.806204881723218
 20
10.20139621618506
 70
0
  0
SEQEND
  5
B602
  8
0
  0
POLYLINE
  5
B060
  8
0
 62
7
 66
1
 70
0
 10
0
 20
0
 30
0
  0
VERTEX
  5
B603
  8
0
 62
7
 10
42.806204881723218
 20
10.20139621618506
 70
0
  0
VERTEX
  5
B604
  8
0
 62
7
 10
43.1879214614889
 20
10.285801055573669
 70
0
  0
SEQEND
  5
B605
  8
0
  0
POLYLINE
  5
B064
  8
0
 62
7
 66
1
 70
0
 10
0
 20
0
 30
0
  0
VERTEX
  5
B606
  8
0
 62
7
 10
43.1879214614889
 20
10.285801055573669
 70
0
  0
VERTEX
  5
B607
  8
0
 62
7
 10
43.398761305186213
 20
10.3710671688336
 70
0
  0
SEQEND
  5
B608
  8
0
  0
POLYLINE
  5
B068
  8
0
 62
7
 66
1
 70
0
 10
0
 20
0
 30
0
  0
VERTEX
  5
B609
  8
0
 62
7
 10
43.398761305186213
 20
10.3710671688336
 70
0
  0
VERTEX
  5
B60A
  8
0
 62
7
 10
43.4841996732204
 20
10.4978466826908
 70
0
  0
SEQEND
  5
B60B
  8
0
  0
POLYLINE
  5
B06C
  8
0
 62
7
 66
1
 70
0
 10
0
 20
0
 30
0
  0
VERTEX
  5
B60C
  8
0
 62
7
 10
43.4841996732204
 20
10.4978466826908
 70
0
  0
VERTEX
  5
B60D
  8
0
 62
7
 10
43.398761305186213
 20
10.58207926730517
 70
0
  0
SEQEND
  5
B60E
  8
0
  0
POLYLINE
  5
B070
  8
0
 62
7
 66
1
 70
0
 10
0
 20
0
 30
0
  0
VERTEX
  5
B60F
  8
0
 62
7
 10
43.398761305186213
 20
10.58207926730517
 70
0
  0
VERTEX
  5
B610
  8
0
 62
7
 10
43.1879214614889
 20
10.66751763533934
 70
0
  0
SEQEND
  5
B611
  8
0
  0
POLYLINE
  5
B074
  8
0
 62
7
 66
1
 70
0
 10
0
 20
0
 30
0
  0
VERTEX
  5
B612
  8
0
 62
7
 10
43.1879214614889
 20
10.66751763533934
 70
0
  0
VERTEX
  5
B613
  8
0
 62
7
 10
42.806204881723218
 20
10.75140571040521
 70
0
  0
SEQEND
  5
B614
  8
0
  0
POLYLINE
  5
B078
  8
0
 62
7
 66
1
 70
0
 10
0
 20
0
 30
0
  0
VERTEX
  5
B615
  8
0
 62
7
 10
42.806204881723218
 20
10.75140571040521
 70
0
  0
VERTEX
  5
B616
  8
0
 62
7
 10
42.299086826294449
 20
10.836844078439381
 70
0
  0
SEQEND
  5
B617
  8
0
  0
POLYLINE
  5
B07C
  8
0
 62
7
 66
1
 70
0
 10
0
 20
0
 30
0
  0
VERTEX
  5
B618
  8
0
 62
7
 10
42.299086826294449
 20
10.836844078439381
 70
0
  0
VERTEX
  5
B619
  8
0
 62
7
 10
41.663811218814381
 20
10.92073215350521
 70
0
  0
SEQEND
  5
B61A
  8
0
  0
POLYLINE
  5
B080
  8
0
 62
7
 66
1
 70
0
 10
0
 20
0
 30
0
  0
VERTEX
  5
B61B
  8
0
 62
7
 10
41.663811218814381
 20
10.92073215350521
 70
0
  0
VERTEX
  5
B61C
  8
0
 62
7
 10
40.944475281494221
 20
10.96379584707085
 70
0
  0
SEQEND
  5
B61D
  8
0
  0
POLYLINE
  5
B084
  8
0
 62
7
 66
1
 70
0
 10
0
 20
0
 30
0
  0
VERTEX
  5
B61E
  8
0
 62
7
 10
40.944475281494221
 20
10.96379584707085
 70
0
  0
VERTEX
  5
B61F
  8
0
 62
7
 10
40.139700976139842
 20
11.005136992893849
 70
0
  0
SEQEND
  5
B620
  8
0
  0
POLYLINE
  5
B088
  8
0
 62
7
 66
1
 70
0
 10
0
 20
0
 30
0
  0
VERTEX
  5
B621
  8
0
 62
7
 10
40.139700976139842
 20
11.005136992893849
 70
0
  0
VERTEX
  5
B622
  8
0
 62
7
 10
39.250866340945393
 20
11.047683922136679
 70
0
  0
SEQEND
  5
B623
  8
0
  0
POLYLINE
  5
B08C
  8
0
 62
7
 66
1
 70
0
 10
0
 20
0
 30
0
  0
VERTEX
  5
B624
  8
0
 62
7
 10
39.250866340945393
 20
11.047683922136679
 70
0
  0
VERTEX
  5
B625
  8
0
 62
7
 10
38.362031705750937
 20
11.047683922136679
 70
0
  0
SEQEND
  5
B626
  8
0
  0
POLYLINE
  5
B090
  8
0
 62
7
 66
1
 70
0
 10
0
 20
0
 30
0
  0
VERTEX
  5
B627
  8
0
 62
7
 10
38.362031705750937
 20
11.047683922136679
 70
0
  0
VERTEX
  5
B628
  8
0
 62
7
 10
37.473197070556481
 20
11.047683922136679
 70
0
  0
SEQEND
  5
B629
  8
0
  0
POLYLINE
  5
B094
  8
0
 62
7
 66
1
 70
0
 10
0
 20
0
 30
0
  0
VERTEX
  5
B62A
  8
0
 62
7
 10
37.473197070556481
 20
11.047683922136679
 70
0
  0
VERTEX
  5
B62B
  8
0
 62
7
 10
36.62708161937914
 20
11.005136992893849
 70
0
  0
SEQEND
  5
B62C
  8
0
  0
POLYLINE
  5
B098
  8
0
 62
7
 66
1
 70
0
 10
0
 20
0
 30
0
  0
VERTEX
  5
B62D
  8
0
 62
7
 10
36.62708161937914
 20
11.005136992893849
 70
0
  0
VERTEX
  5
B62E
  8
0
 62
7
 10
35.779588130007681
 20
10.96379584707085
 70
0
  0
SEQEND
  5
B62F
  8
0
  0
POLYLINE
  5
B09C
  8
0
 62
7
 66
1
 70
0
 10
0
 20
0
 30
0
  0
VERTEX
  5
B630
  8
0
 62
7
 10
35.779588130007681
 20
10.96379584707085
 70
0
  0
VERTEX
  5
B631
  8
0
 62
7
 10
35.0602521926875
 20
10.92073215350521
 70
0
  0
SEQEND
  5
B632
  8
0
  0
POLYLINE
  5
B0A0
  8
0
 62
7
 66
1
 70
0
 10
0
 20
0
 30
0
  0
VERTEX
  5
B633
  8
0
 62
7
 10
35.0602521926875
 20
10.92073215350521
 70
0
  0
VERTEX
  5
B634
  8
0
 62
7
 10
34.424976585207432
 20
10.836844078439381
 70
0
  0
SEQEND
  5
B635
  8
0
  0
POLYLINE
  5
B0A4
  8
0
 62
7
 66
1
 70
0
 10
0
 20
0
 30
0
  0
VERTEX
  5
B636
  8
0
 62
7
 10
34.424976585207432
 20
10.836844078439381
 70
0
  0
VERTEX
  5
B637
  8
0
 62
7
 10
33.91785852977867
 20
10.75140571040521
 70
0
  0
SEQEND
  5
B638
  8
0
  0
POLYLINE
  5
B0A8
  8
0
 62
7
 66
1
 70
0
 10
0
 20
0
 30
0
  0
VERTEX
  5
B639
  8
0
 62
7
 10
33.91785852977867
 20
10.75140571040521
 70
0
  0
VERTEX
  5
B63A
  8
0
 62
7
 10
33.536141950012961
 20
10.66751763533934
 70
0
  0
SEQEND
  5
B63B
  8
0
  0
POLYLINE
  5
B0AC
  8
0
 62
7
 66
1
 70
0
 10
0
 20
0
 30
0
  0
VERTEX
  5
B63C
  8
0
 62
7
 10
33.536141950012961
 20
10.66751763533934
 70
0
  0
VERTEX
  5
B63D
  8
0
 62
7
 10
33.325302106315668
 20
10.58207926730517
 70
0
  0
SEQEND
  5
B63E
  8
0
  0
POLYLINE
  5
B0B0
  8
0
 62
7
 66
1
 70
0
 10
0
 20
0
 30
0
  0
VERTEX
  5
B63F
  8
0
 62
7
 10
33.325302106315668
 20
10.58207926730517
 70
0
  0
VERTEX
  5
B640
  8
0
 62
7
 10
33.239863738281478
 20
10.4978466826908
 70
0
  0
SEQEND
  5
B641
  8
0
  0
POLYLINE
  5
B0B4
  8
0
 62
7
 66
1
 70
0
 10
0
 20
0
 30
0
  0
VERTEX
  5
B642
  8
0
 62
7
 10
39.081367643071111
 20
55.366942537358959
 70
0
  0
VERTEX
  5
B643
  8
0
 62
7
 10
39.12408682708822
 20
55.409489466601769
 70
0
  0
SEQEND
  5
B644
  8
0
  0
POLYLINE
  5
B0B8
  8
0
 62
7
 66
1
 70
0
 10
0
 20
0
 30
0
  0
VERTEX
  5
B645
  8
0
 62
7
 10
39.12408682708822
 20
55.409489466601769
 70
0
  0
VERTEX
  5
B646
  8
0
 62
7
 10
39.12408682708822
 20
55.409489466601769
 70
0
  0
SEQEND
  5
B647
  8
0
  0
POLYLINE
  5
B0BC
  8
0
 62
7
 66
1
 70
0
 10
0
 20
0
 30
0
  0
VERTEX
  5
B648
  8
0
 62
7
 10
39.12408682708822
 20
55.409489466601769
 70
0
  0
VERTEX
  5
B649
  8
0
 62
7
 10
39.12408682708822
 20
55.4522086506189
 70
0
  0
SEQEND
  5
B64A
  8
0
  0
POLYLINE
  5
B0C0
  8
0
 62
7
 66
1
 70
0
 10
0
 20
0
 30
0
  0
VERTEX
  5
B64B
  8
0
 62
7
 10
39.12408682708822
 20
55.4522086506189
 70
0
  0
VERTEX
  5
B64C
  8
0
 62
7
 10
39.081367643071111
 20
55.4522086506189
 70
0
  0
SEQEND
  5
B64D
  8
0
  0
POLYLINE
  5
B0C4
  8
0
 62
7
 66
1
 70
0
 10
0
 20
0
 30
0
  0
VERTEX
  5
B64E
  8
0
 62
7
 10
39.081367643071111
 20
55.4522086506189
 70
0
  0
VERTEX
  5
B64F
  8
0
 62
7
 10
38.997307313231012
 20
55.493549796441862
 70
0
  0
SEQEND
  5
B650
  8
0
  0
POLYLINE
  5
B0C8
  8
0
 62
7
 66
1
 70
0
 10
0
 20
0
 30
0
  0
VERTEX
  5
B651
  8
0
 62
7
 10
38.997307313231012
 20
55.493549796441862
 70
0
  0
VERTEX
  5
B652
  8
0
 62
7
 10
38.911868945196822
 20
55.493549796441862
 70
0
  0
SEQEND
  5
B653
  8
0
  0
POLYLINE
  5
B0CC
  8
0
 62
7
 66
1
 70
0
 10
0
 20
0
 30
0
  0
VERTEX
  5
B654
  8
0
 62
7
 10
38.911868945196822
 20
55.493549796441862
 70
0
  0
VERTEX
  5
B655
  8
0
 62
7
 10
38.785089431339621
 20
55.493549796441862
 70
0
  0
SEQEND
  5
B656
  8
0
  0
POLYLINE
  5
B0D0
  8
0
 62
7
 66
1
 70
0
 10
0
 20
0
 30
0
  0
VERTEX
  5
B657
  8
0
 62
7
 10
38.785089431339621
 20
55.493549796441862
 70
0
  0
VERTEX
  5
B658
  8
0
 62
7
 10
38.658309917482427
 20
55.536268980459013
 70
0
  0
SEQEND
  5
B659
  8
0
  0
POLYLINE
  5
B0D4
  8
0
 62
7
 66
1
 70
0
 10
0
 20
0
 30
0
  0
VERTEX
  5
B65A
  8
0
 62
7
 10
38.658309917482427
 20
55.536268980459013
 70
0
  0
VERTEX
  5
B65B
  8
0
 62
7
 10
38.531530403625233
 20
55.536268980459013
 70
0
  0
SEQEND
  5
B65C
  8
0
  0
POLYLINE
  5
B0D8
  8
0
 62
7
 66
1
 70
0
 10
0
 20
0
 30
0
  0
VERTEX
  5
B65D
  8
0
 62
7
 10
38.531530403625233
 20
55.536268980459013
 70
0
  0
VERTEX
  5
B65E
  8
0
 62
7
 10
38.362031705750937
 20
55.536268980459013
 70
0
  0
SEQEND
  5
B65F
  8
0
  0
POLYLINE
  5
B0DC
  8
0
 62
7
 66
1
 70
0
 10
0
 20
0
 30
0
  0
VERTEX
  5
B660
  8
0
 62
7
 10
38.362031705750937
 20
55.536268980459013
 70
0
  0
VERTEX
  5
B661
  8
0
 62
7
 10
38.23525219189375
 20
55.536268980459013
 70
0
  0
SEQEND
  5
B662
  8
0
  0
POLYLINE
  5
B0E0
  8
0
 62
7
 66
1
 70
0
 10
0
 20
0
 30
0
  0
VERTEX
  5
B663
  8
0
 62
7
 10
38.23525219189375
 20
55.536268980459013
 70
0
  0
VERTEX
  5
B664
  8
0
 62
7
 10
38.065753494019461
 20
55.536268980459013
 70
0
  0
SEQEND
  5
B665
  8
0
  0
POLYLINE
  5
B0E4
  8
0
 62
7
 66
1
 70
0
 10
0
 20
0
 30
0
  0
VERTEX
  5
B666
  8
0
 62
7
 10
38.065753494019461
 20
55.536268980459013
 70
0
  0
VERTEX
  5
B667
  8
0
 62
7
 10
37.93897398016226
 20
55.493549796441862
 70
0
  0
SEQEND
  5
B668
  8
0
  0
POLYLINE
  5
B0E8
  8
0
 62
7
 66
1
 70
0
 10
0
 20
0
 30
0
  0
VERTEX
  5
B669
  8
0
 62
7
 10
37.93897398016226
 20
55.493549796441862
 70
0
  0
VERTEX
  5
B66A
  8
0
 62
7
 10
37.85353561212807
 20
55.493549796441862
 70
0
  0
SEQEND
  5
B66B
  8
0
  0
POLYLINE
  5
B0EC
  8
0
 62
7
 66
1
 70
0
 10
0
 20
0
 30
0
  0
VERTEX
  5
B66C
  8
0
 62
7
 10
37.85353561212807
 20
55.493549796441862
 70
0
  0
VERTEX
  5
B66D
  8
0
 62
7
 10
37.726756098270869
 20
55.493549796441862
 70
0
  0
SEQEND
  5
B66E
  8
0
  0
POLYLINE
  5
B0F0
  8
0
 62
7
 66
1
 70
0
 10
0
 20
0
 30
0
  0
VERTEX
  5
B66F
  8
0
 62
7
 10
37.726756098270869
 20
55.493549796441862
 70
0
  0
VERTEX
  5
B670
  8
0
 62
7
 10
37.685414952447857
 20
55.4522086506189
 70
0
  0
SEQEND
  5
B671
  8
0
  0
POLYLINE
  5
B0F4
  8
0
 62
7
 66
1
 70
0
 10
0
 20
0
 30
0
  0
VERTEX
  5
B672
  8
0
 62
7
 10
37.685414952447857
 20
55.4522086506189
 70
0
  0
VERTEX
  5
B673
  8
0
 62
7
 10
37.599976584413682
 20
55.4522086506189
 70
0
  0
SEQEND
  5
B674
  8
0
  0
POLYLINE
  5
B0F8
  8
0
 62
7
 66
1
 70
0
 10
0
 20
0
 30
0
  0
VERTEX
  5
B675
  8
0
 62
7
 10
37.599976584413682
 20
55.4522086506189
 70
0
  0
VERTEX
  5
B676
  8
0
 62
7
 10
37.599976584413682
 20
55.409489466601769
 70
0
  0
SEQEND
  5
B677
  8
0
  0
POLYLINE
  5
B0FC
  8
0
 62
7
 66
1
 70
0
 10
0
 20
0
 30
0
  0
VERTEX
  5
B678
  8
0
 62
7
 10
37.599976584413682
 20
55.409489466601769
 70
0
  0
VERTEX
  5
B679
  8
0
 62
7
 10
37.599976584413682
 20
55.409489466601769
 70
0
  0
SEQEND
  5
B67A
  8
0
  0
POLYLINE
  5
B100
  8
0
 62
7
 66
1
 70
0
 10
0
 20
0
 30
0
  0
VERTEX
  5
B67B
  8
0
 62
7
 10
37.599976584413682
 20
55.409489466601769
 70
0
  0
VERTEX
  5
B67C
  8
0
 62
7
 10
37.642695768430769
 20
55.366942537358959
 70
0
  0
SEQEND
  5
B67D
  8
0
  0
POLYLINE
  5
B104
  8
0
 62
7
 66
1
 70
0
 10
0
 20
0
 30
0
  0
VERTEX
  5
B67E
  8
0
 62
7
 10
37.642695768430769
 20
55.366942537358959
 70
0
  0
VERTEX
  5
B67F
  8
0
 62
7
 10
37.685414952447857
 20
55.366942537358959
 70
0
  0
SEQEND
  5
B680
  8
0
  0
POLYLINE
  5
B108
  8
0
 62
7
 66
1
 70
0
 10
0
 20
0
 30
0
  0
VERTEX
  5
B681
  8
0
 62
7
 10
37.685414952447857
 20
55.366942537358959
 70
0
  0
VERTEX
  5
B682
  8
0
 62
7
 10
37.812194466305058
 20
55.32560139153594
 70
0
  0
SEQEND
  5
B683
  8
0
  0
POLYLINE
  5
B10C
  8
0
 62
7
 66
1
 70
0
 10
0
 20
0
 30
0
  0
VERTEX
  5
B684
  8
0
 62
7
 10
37.812194466305058
 20
55.32560139153594
 70
0
  0
VERTEX
  5
B685
  8
0
 62
7
 10
37.896254796145158
 20
55.32560139153594
 70
0
  0
SEQEND
  5
B686
  8
0
  0
POLYLINE
  5
B110
  8
0
 62
7
 66
1
 70
0
 10
0
 20
0
 30
0
  0
VERTEX
  5
B687
  8
0
 62
7
 10
37.896254796145158
 20
55.32560139153594
 70
0
  0
VERTEX
  5
B688
  8
0
 62
7
 10
38.023034310002359
 20
55.32560139153594
 70
0
  0
SEQEND
  5
B689
  8
0
  0
POLYLINE
  5
B114
  8
0
 62
7
 66
1
 70
0
 10
0
 20
0
 30
0
  0
VERTEX
  5
B68A
  8
0
 62
7
 10
40.9871944655113
 20
55.621535093718933
 70
0
  0
VERTEX
  5
B68B
  8
0
 62
7
 10
40.9871944655113
 20
55.663220749090428
 70
0
  0
SEQEND
  5
B68C
  8
0
  0
POLYLINE
  5
B118
  8
0
 62
7
 66
1
 70
0
 10
0
 20
0
 30
0
  0
VERTEX
  5
B68D
  8
0
 62
7
 10
40.9871944655113
 20
55.663220749090428
 70
0
  0
VERTEX
  5
B68E
  8
0
 62
7
 10
40.901756097477119
 20
55.705939933107508
 70
0
  0
SEQEND
  5
B68F
  8
0
  0
POLYLINE
  5
B11C
  8
0
 62
7
 66
1
 70
0
 10
0
 20
0
 30
0
  0
VERTEX
  5
B690
  8
0
 62
7
 10
40.901756097477119
 20
55.705939933107508
 70
0
  0
VERTEX
  5
B691
  8
0
 62
7
 10
40.73225739960283
 20
55.748486862350369
 70
0
  0
SEQEND
  5
B692
  8
0
  0
POLYLINE
  5
B120
  8
0
 62
7
 66
1
 70
0
 10
0
 20
0
 30
0
  0
VERTEX
  5
B693
  8
0
 62
7
 10
40.73225739960283
 20
55.748486862350369
 70
0
  0
VERTEX
  5
B694
  8
0
 62
7
 10
40.47869837188842
 20
55.832547192190482
 70
0
  0
SEQEND
  5
B695
  8
0
  0
POLYLINE
  5
B124
  8
0
 62
7
 66
1
 70
0
 10
0
 20
0
 30
0
  0
VERTEX
  5
B696
  8
0
 62
7
 10
40.47869837188842
 20
55.832547192190482
 70
0
  0
VERTEX
  5
B697
  8
0
 62
7
 10
40.139700976139842
 20
55.875266376207541
 70
0
  0
SEQEND
  5
B698
  8
0
  0
POLYLINE
  5
B128
  8
0
 62
7
 66
1
 70
0
 10
0
 20
0
 30
0
  0
VERTEX
  5
B699
  8
0
 62
7
 10
40.139700976139842
 20
55.875266376207541
 70
0
  0
VERTEX
  5
B69A
  8
0
 62
7
 10
39.759362434568267
 20
55.875266376207541
 70
0
  0
SEQEND
  5
B69B
  8
0
  0
POLYLINE
  5
B12C
  8
0
 62
7
 66
1
 70
0
 10
0
 20
0
 30
0
  0
VERTEX
  5
B69C
  8
0
 62
7
 10
39.759362434568267
 20
55.875266376207541
 70
0
  0
VERTEX
  5
B69D
  8
0
 62
7
 10
39.336304708979611
 20
55.917985560224672
 70
0
  0
SEQEND
  5
B69E
  8
0
  0
POLYLINE
  5
B130
  8
0
 62
7
 66
1
 70
0
 10
0
 20
0
 30
0
  0
VERTEX
  5
B69F
  8
0
 62
7
 10
39.336304708979611
 20
55.917985560224672
 70
0
  0
VERTEX
  5
B6A0
  8
0
 62
7
 10
38.870527799373811
 20
55.917985560224672
 70
0
  0
SEQEND
  5
B6A1
  8
0
  0
POLYLINE
  5
B134
  8
0
 62
7
 66
1
 70
0
 10
0
 20
0
 30
0
  0
VERTEX
  5
B6A2
  8
0
 62
7
 10
38.870527799373811
 20
55.917985560224672
 70
0
  0
VERTEX
  5
B6A3
  8
0
 62
7
 10
38.362031705750937
 20
55.917985560224672
 70
0
  0
SEQEND
  5
B6A4
  8
0
  0
POLYLINE
  5
B138
  8
0
 62
7
 66
1
 70
0
 10
0
 20
0
 30
0
  0
VERTEX
  5
B6A5
  8
0
 62
7
 10
38.362031705750937
 20
55.917985560224672
 70
0
  0
VERTEX
  5
B6A6
  8
0
 62
7
 10
37.896254796145158
 20
55.917985560224672
 70
0
  0
SEQEND
  5
B6A7
  8
0
  0
POLYLINE
  5
B13C
  8
0
 62
7
 66
1
 70
0
 10
0
 20
0
 30
0
  0
VERTEX
  5
B6A8
  8
0
 62
7
 10
37.896254796145158
 20
55.917985560224672
 70
0
  0
VERTEX
  5
B6A9
  8
0
 62
7
 10
37.389136740716381
 20
55.917985560224672
 70
0
  0
SEQEND
  5
B6AA
  8
0
  0
POLYLINE
  5
B140
  8
0
 62
7
 66
1
 70
0
 10
0
 20
0
 30
0
  0
VERTEX
  5
B6AB
  8
0
 62
7
 10
37.389136740716381
 20
55.917985560224672
 70
0
  0
VERTEX
  5
B6AC
  8
0
 62
7
 10
36.964700976933607
 20
55.875266376207541
 70
0
  0
SEQEND
  5
B6AD
  8
0
  0
POLYLINE
  5
B144
  8
0
 62
7
 66
1
 70
0
 10
0
 20
0
 30
0
  0
VERTEX
  5
B6AE
  8
0
 62
7
 10
36.964700976933607
 20
55.875266376207541
 70
0
  0
VERTEX
  5
B6AF
  8
0
 62
7
 10
36.584362435362031
 20
55.875266376207541
 70
0
  0
SEQEND
  5
B6B0
  8
0
  0
POLYLINE
  5
B148
  8
0
 62
7
 66
1
 70
0
 10
0
 20
0
 30
0
  0
VERTEX
  5
B6B1
  8
0
 62
7
 10
36.584362435362031
 20
55.875266376207541
 70
0
  0
VERTEX
  5
B6B2
  8
0
 62
7
 10
36.245365039613432
 20
55.832547192190482
 70
0
  0
SEQEND
  5
B6B3
  8
0
  0
POLYLINE
  5
B14C
  8
0
 62
7
 66
1
 70
0
 10
0
 20
0
 30
0
  0
VERTEX
  5
B6B4
  8
0
 62
7
 10
36.245365039613432
 20
55.832547192190482
 70
0
  0
VERTEX
  5
B6B5
  8
0
 62
7
 10
35.991806011899051
 20
55.748486862350369
 70
0
  0
SEQEND
  5
B6B6
  8
0
  0
POLYLINE
  5
B150
  8
0
 62
7
 66
1
 70
0
 10
0
 20
0
 30
0
  0
VERTEX
  5
B6B7
  8
0
 62
7
 10
35.991806011899051
 20
55.748486862350369
 70
0
  0
VERTEX
  5
B6B8
  8
0
 62
7
 10
35.822307314024748
 20
55.705939933107508
 70
0
  0
SEQEND
  5
B6B9
  8
0
  0
POLYLINE
  5
B154
  8
0
 62
7
 66
1
 70
0
 10
0
 20
0
 30
0
  0
VERTEX
  5
B6BA
  8
0
 62
7
 10
35.822307314024748
 20
55.705939933107508
 70
0
  0
VERTEX
  5
B6BB
  8
0
 62
7
 10
35.73824698418467
 20
55.663220749090428
 70
0
  0
SEQEND
  5
B6BC
  8
0
  0
POLYLINE
  5
B158
  8
0
 62
7
 66
1
 70
0
 10
0
 20
0
 30
0
  0
VERTEX
  5
B6BD
  8
0
 62
7
 10
35.73824698418467
 20
55.663220749090428
 70
0
  0
VERTEX
  5
B6BE
  8
0
 62
7
 10
35.73824698418467
 20
55.621535093718933
 70
0
  0
SEQEND
  5
B6BF
  8
0
  0
POLYLINE
  5
B15C
  8
0
 62
7
 66
1
 70
0
 10
0
 20
0
 30
0
  0
VERTEX
  5
B6C0
  8
0
 62
7
 10
35.73824698418467
 20
55.621535093718933
 70
0
  0
VERTEX
  5
B6C1
  8
0
 62
7
 10
35.865026498041857
 20
55.578815909701788
 70
0
  0
SEQEND
  5
B6C2
  8
0
  0
POLYLINE
  5
B160
  8
0
 62
7
 66
1
 70
0
 10
0
 20
0
 30
0
  0
VERTEX
  5
B6C3
  8
0
 62
7
 10
35.865026498041857
 20
55.578815909701788
 70
0
  0
VERTEX
  5
B6C4
  8
0
 62
7
 10
36.07586634173915
 20
55.536268980459013
 70
0
  0
SEQEND
  5
B6C5
  8
0
  0
POLYLINE
  5
B164
  8
0
 62
7
 66
1
 70
0
 10
0
 20
0
 30
0
  0
VERTEX
  5
B6C6
  8
0
 62
7
 10
36.07586634173915
 20
55.536268980459013
 70
0
  0
VERTEX
  5
B6C7
  8
0
 62
7
 10
36.330803407647643
 20
55.4522086506189
 70
0
  0
SEQEND
  5
B6C8
  8
0
  0
POLYLINE
  5
B168
  8
0
 62
7
 66
1
 70
0
 10
0
 20
0
 30
0
  0
VERTEX
  5
B6C9
  8
0
 62
7
 10
36.330803407647643
 20
55.4522086506189
 70
0
  0
VERTEX
  5
B6CA
  8
0
 62
7
 10
36.711141949219211
 20
55.409489466601769
 70
0
  0
SEQEND
  5
B6CB
  8
0
  0
POLYLINE
  5
B16C
  8
0
 62
7
 66
1
 70
0
 10
0
 20
0
 30
0
  0
VERTEX
  5
B6CC
  8
0
 62
7
 10
36.711141949219211
 20
55.409489466601769
 70
0
  0
VERTEX
  5
B6CD
  8
0
 62
7
 10
37.17691885882499
 20
55.409489466601769
 70
0
  0
SEQEND
  5
B6CE
  8
0
  0
POLYLINE
  5
B170
  8
0
 62
7
 66
1
 70
0
 10
0
 20
0
 30
0
  0
VERTEX
  5
B6CF
  8
0
 62
7
 10
37.17691885882499
 20
55.409489466601769
 70
0
  0
VERTEX
  5
B6D0
  8
0
 62
7
 10
37.642695768430769
 20
55.366942537358959
 70
0
  0
SEQEND
  5
B6D1
  8
0
  0
POLYLINE
  5
B174
  8
0
 62
7
 66
1
 70
0
 10
0
 20
0
 30
0
  0
VERTEX
  5
B6D2
  8
0
 62
7
 10
41.706530402831483
 20
60.023161340448382
 70
0
  0
VERTEX
  5
B6D3
  8
0
 62
7
 10
41.663811218814381
 20
60.149768599531292
 70
0
  0
SEQEND
  5
B6D4
  8
0
  0
POLYLINE
  5
B178
  8
0
 62
7
 66
1
 70
0
 10
0
 20
0
 30
0
  0
VERTEX
  5
B6D5
  8
0
 62
7
 10
41.663811218814381
 20
60.149768599531292
 70
0
  0
VERTEX
  5
B6D6
  8
0
 62
7
 10
41.451593336923
 20
60.192487783548422
 70
0
  0
SEQEND
  5
B6D7
  8
0
  0
POLYLINE
  5
B17C
  8
0
 62
7
 66
1
 70
0
 10
0
 20
0
 30
0
  0
VERTEX
  5
B6D8
  8
0
 62
7
 10
41.451593336923
 20
60.192487783548422
 70
0
  0
VERTEX
  5
B6D9
  8
0
 62
7
 10
41.1553151251915
 20
60.2782706611311
 70
0
  0
SEQEND
  5
B6DA
  8
0
  0
POLYLINE
  5
B180
  8
0
 62
7
 66
1
 70
0
 10
0
 20
0
 30
0
  0
VERTEX
  5
B6DB
  8
0
 62
7
 10
41.1553151251915
 20
60.2782706611311
 70
0
  0
VERTEX
  5
B6DC
  8
0
 62
7
 10
40.73225739960283
 20
60.362158736196918
 70
0
  0
SEQEND
  5
B6DD
  8
0
  0
POLYLINE
  5
B184
  8
0
 62
7
 66
1
 70
0
 10
0
 20
0
 30
0
  0
VERTEX
  5
B6DE
  8
0
 62
7
 10
40.73225739960283
 20
60.362158736196918
 70
0
  0
VERTEX
  5
B6DF
  8
0
 62
7
 10
40.225139344174039
 20
60.404877920214062
 70
0
  0
SEQEND
  5
B6E0
  8
0
  0
POLYLINE
  5
B188
  8
0
 62
7
 66
1
 70
0
 10
0
 20
0
 30
0
  0
VERTEX
  5
B6E1
  8
0
 62
7
 10
40.225139344174039
 20
60.404877920214062
 70
0
  0
VERTEX
  5
B6E2
  8
0
 62
7
 10
39.63258292071108
 20
60.446219066037038
 70
0
  0
SEQEND
  5
B6E3
  8
0
  0
POLYLINE
  5
B18C
  8
0
 62
7
 66
1
 70
0
 10
0
 20
0
 30
0
  0
VERTEX
  5
B6E4
  8
0
 62
7
 10
39.63258292071108
 20
60.446219066037038
 70
0
  0
VERTEX
  5
B6E5
  8
0
 62
7
 10
39.0400264972481
 20
60.488938250054161
 70
0
  0
SEQEND
  5
B6E6
  8
0
  0
POLYLINE
  5
B190
  8
0
 62
7
 66
1
 70
0
 10
0
 20
0
 30
0
  0
VERTEX
  5
B6E7
  8
0
 62
7
 10
39.0400264972481
 20
60.488938250054161
 70
0
  0
VERTEX
  5
B6E8
  8
0
 62
7
 10
38.362031705750937
 20
60.488938250054161
 70
0
  0
SEQEND
  5
B6E9
  8
0
  0
POLYLINE
  5
B194
  8
0
 62
7
 66
1
 70
0
 10
0
 20
0
 30
0
  0
VERTEX
  5
B6EA
  8
0
 62
7
 10
38.362031705750937
 20
60.488938250054161
 70
0
  0
VERTEX
  5
B6EB
  8
0
 62
7
 10
37.726756098270869
 20
60.488938250054161
 70
0
  0
SEQEND
  5
B6EC
  8
0
  0
POLYLINE
  5
B198
  8
0
 62
7
 66
1
 70
0
 10
0
 20
0
 30
0
  0
VERTEX
  5
B6ED
  8
0
 62
7
 10
37.726756098270869
 20
60.488938250054161
 70
0
  0
VERTEX
  5
B6EE
  8
0
 62
7
 10
37.092858528984912
 20
60.446219066037038
 70
0
  0
SEQEND
  5
B6EF
  8
0
  0
POLYLINE
  5
B19C
  8
0
 62
7
 66
1
 70
0
 10
0
 20
0
 30
0
  0
VERTEX
  5
B6F0
  8
0
 62
7
 10
37.092858528984912
 20
60.446219066037038
 70
0
  0
VERTEX
  5
B6F1
  8
0
 62
7
 10
36.49892406732782
 20
60.404877920214062
 70
0
  0
SEQEND
  5
B6F2
  8
0
  0
POLYLINE
  5
B1A0
  8
0
 62
7
 66
1
 70
0
 10
0
 20
0
 30
0
  0
VERTEX
  5
B6F3
  8
0
 62
7
 10
36.49892406732782
 20
60.404877920214062
 70
0
  0
VERTEX
  5
B6F4
  8
0
 62
7
 10
35.991806011899051
 20
60.362158736196918
 70
0
  0
SEQEND
  5
B6F5
  8
0
  0
POLYLINE
  5
B1A4
  8
0
 62
7
 66
1
 70
0
 10
0
 20
0
 30
0
  0
VERTEX
  5
B6F6
  8
0
 62
7
 10
35.991806011899051
 20
60.362158736196918
 70
0
  0
VERTEX
  5
B6F7
  8
0
 62
7
 10
35.568748286310367
 20
60.2782706611311
 70
0
  0
SEQEND
  5
B6F8
  8
0
  0
POLYLINE
  5
B1A8
  8
0
 62
7
 66
1
 70
0
 10
0
 20
0
 30
0
  0
VERTEX
  5
B6F9
  8
0
 62
7
 10
35.568748286310367
 20
60.2782706611311
 70
0
  0
VERTEX
  5
B6FA
  8
0
 62
7
 10
35.272470074578891
 20
60.192487783548422
 70
0
  0
SEQEND
  5
B6FB
  8
0
  0
POLYLINE
  5
B1AC
  8
0
 62
7
 66
1
 70
0
 10
0
 20
0
 30
0
  0
VERTEX
  5
B6FC
  8
0
 62
7
 10
35.272470074578891
 20
60.192487783548422
 70
0
  0
VERTEX
  5
B6FD
  8
0
 62
7
 10
35.0602521926875
 20
60.149768599531292
 70
0
  0
SEQEND
  5
B6FE
  8
0
  0
POLYLINE
  5
B1B0
  8
0
 62
7
 66
1
 70
0
 10
0
 20
0
 30
0
  0
VERTEX
  5
B6FF
  8
0
 62
7
 10
35.0602521926875
 20
60.149768599531292
 70
0
  0
VERTEX
  5
B700
  8
0
 62
7
 10
35.0175330086704
 20
60.023161340448382
 70
0
  0
SEQEND
  5
B701
  8
0
  0
POLYLINE
  5
B1B4
  8
0
 62
7
 66
1
 70
0
 10
0
 20
0
 30
0
  0
VERTEX
  5
B702
  8
0
 62
7
 10
35.0175330086704
 20
60.023161340448382
 70
0
  0
VERTEX
  5
B703
  8
0
 62
7
 10
35.0602521926875
 20
59.939273265382553
 70
0
  0
SEQEND
  5
B704
  8
0
  0
POLYLINE
  5
B1B8
  8
0
 62
7
 66
1
 70
0
 10
0
 20
0
 30
0
  0
VERTEX
  5
B705
  8
0
 62
7
 10
35.0602521926875
 20
59.939273265382553
 70
0
  0
VERTEX
  5
B706
  8
0
 62
7
 10
35.272470074578891
 20
59.853490387799823
 70
0
  0
SEQEND
  5
B707
  8
0
  0
POLYLINE
  5
B1BC
  8
0
 62
7
 66
1
 70
0
 10
0
 20
0
 30
0
  0
VERTEX
  5
B708
  8
0
 62
7
 10
35.272470074578891
 20
59.853490387799823
 70
0
  0
VERTEX
  5
B709
  8
0
 62
7
 10
35.272470074578891
 20
60.023161340448382
 70
0
  0
SEQEND
  5
B70A
  8
0
  0
POLYLINE
  5
B1C0
  8
0
 62
7
 66
1
 70
0
 10
0
 20
0
 30
0
  0
VERTEX
  5
B70B
  8
0
 62
7
 10
41.451593336923
 20
59.853490387799823
 70
0
  0
VERTEX
  5
B70C
  8
0
 62
7
 10
41.451593336923
 20
60.023161340448382
 70
0
  0
SEQEND
  5
B70D
  8
0
  0
POLYLINE
  5
B1C4
  8
0
 62
7
 66
1
 70
0
 10
0
 20
0
 30
0
  0
VERTEX
  5
B70E
  8
0
 62
7
 10
38.701029101499529
 20
55.409489466601769
 70
0
  0
VERTEX
  5
B70F
  8
0
 62
7
 10
38.701029101499529
 20
55.409489466601769
 70
0
  0
SEQEND
  5
B710
  8
0
  0
POLYLINE
  5
B1C8
  8
0
 62
7
 66
1
 70
0
 10
0
 20
0
 30
0
  0
VERTEX
  5
B711
  8
0
 62
7
 10
38.701029101499529
 20
55.409489466601769
 70
0
  0
VERTEX
  5
B712
  8
0
 62
7
 10
38.658309917482427
 20
55.409489466601769
 70
0
  0
SEQEND
  5
B713
  8
0
  0
POLYLINE
  5
B1CC
  8
0
 62
7
 66
1
 70
0
 10
0
 20
0
 30
0
  0
VERTEX
  5
B714
  8
0
 62
7
 10
38.658309917482427
 20
55.409489466601769
 70
0
  0
VERTEX
  5
B715
  8
0
 62
7
 10
38.658309917482427
 20
55.4522086506189
 70
0
  0
SEQEND
  5
B716
  8
0
  0
POLYLINE
  5
B1D0
  8
0
 62
7
 66
1
 70
0
 10
0
 20
0
 30
0
  0
VERTEX
  5
B717
  8
0
 62
7
 10
38.658309917482427
 20
55.4522086506189
 70
0
  0
VERTEX
  5
B718
  8
0
 62
7
 10
38.615590733465332
 20
55.4522086506189
 70
0
  0
SEQEND
  5
B719
  8
0
  0
POLYLINE
  5
B1D4
  8
0
 62
7
 66
1
 70
0
 10
0
 20
0
 30
0
  0
VERTEX
  5
B71A
  8
0
 62
7
 10
38.615590733465332
 20
55.4522086506189
 70
0
  0
VERTEX
  5
B71B
  8
0
 62
7
 10
38.574249587642328
 20
55.4522086506189
 70
0
  0
SEQEND
  5
B71C
  8
0
  0
POLYLINE
  5
B1D8
  8
0
 62
7
 66
1
 70
0
 10
0
 20
0
 30
0
  0
VERTEX
  5
B71D
  8
0
 62
7
 10
38.574249587642328
 20
55.4522086506189
 70
0
  0
VERTEX
  5
B71E
  8
0
 62
7
 10
38.531530403625233
 20
55.4522086506189
 70
0
  0
SEQEND
  5
B71F
  8
0
  0
POLYLINE
  5
B1DC
  8
0
 62
7
 66
1
 70
0
 10
0
 20
0
 30
0
  0
VERTEX
  5
B720
  8
0
 62
7
 10
38.531530403625233
 20
55.4522086506189
 70
0
  0
VERTEX
  5
B721
  8
0
 62
7
 10
38.488811219608131
 20
55.4522086506189
 70
0
  0
SEQEND
  5
B722
  8
0
  0
POLYLINE
  5
B1E0
  8
0
 62
7
 66
1
 70
0
 10
0
 20
0
 30
0
  0
VERTEX
  5
B723
  8
0
 62
7
 10
38.488811219608131
 20
55.4522086506189
 70
0
  0
VERTEX
  5
B724
  8
0
 62
7
 10
38.404750889768039
 20
55.4522086506189
 70
0
  0
SEQEND
  5
B725
  8
0
  0
POLYLINE
  5
B1E4
  8
0
 62
7
 66
1
 70
0
 10
0
 20
0
 30
0
  0
VERTEX
  5
B726
  8
0
 62
7
 10
38.404750889768039
 20
55.4522086506189
 70
0
  0
VERTEX
  5
B727
  8
0
 62
7
 10
38.362031705750937
 20
55.4522086506189
 70
0
  0
SEQEND
  5
B728
  8
0
  0
POLYLINE
  5
B1E8
  8
0
 62
7
 66
1
 70
0
 10
0
 20
0
 30
0
  0
VERTEX
  5
B729
  8
0
 62
7
 10
38.362031705750937
 20
55.4522086506189
 70
0
  0
VERTEX
  5
B72A
  8
0
 62
7
 10
38.319312521733828
 20
55.4522086506189
 70
0
  0
SEQEND
  5
B72B
  8
0
  0
POLYLINE
  5
B1EC
  8
0
 62
7
 66
1
 70
0
 10
0
 20
0
 30
0
  0
VERTEX
  5
B72C
  8
0
 62
7
 10
38.319312521733828
 20
55.4522086506189
 70
0
  0
VERTEX
  5
B72D
  8
0
 62
7
 10
38.23525219189375
 20
55.4522086506189
 70
0
  0
SEQEND
  5
B72E
  8
0
  0
POLYLINE
  5
B1F0
  8
0
 62
7
 66
1
 70
0
 10
0
 20
0
 30
0
  0
VERTEX
  5
B72F
  8
0
 62
7
 10
38.23525219189375
 20
55.4522086506189
 70
0
  0
VERTEX
  5
B730
  8
0
 62
7
 10
38.192533007876648
 20
55.4522086506189
 70
0
  0
SEQEND
  5
B731
  8
0
  0
POLYLINE
  5
B1F4
  8
0
 62
7
 66
1
 70
0
 10
0
 20
0
 30
0
  0
VERTEX
  5
B732
  8
0
 62
7
 10
38.192533007876648
 20
55.4522086506189
 70
0
  0
VERTEX
  5
B733
  8
0
 62
7
 10
38.149813823859553
 20
55.4522086506189
 70
0
  0
SEQEND
  5
B734
  8
0
  0
POLYLINE
  5
B1F8
  8
0
 62
7
 66
1
 70
0
 10
0
 20
0
 30
0
  0
VERTEX
  5
B735
  8
0
 62
7
 10
38.149813823859553
 20
55.4522086506189
 70
0
  0
VERTEX
  5
B736
  8
0
 62
7
 10
38.108472678036549
 20
55.4522086506189
 70
0
  0
SEQEND
  5
B737
  8
0
  0
POLYLINE
  5
B1FC
  8
0
 62
7
 66
1
 70
0
 10
0
 20
0
 30
0
  0
VERTEX
  5
B738
  8
0
 62
7
 10
38.108472678036549
 20
55.4522086506189
 70
0
  0
VERTEX
  5
B739
  8
0
 62
7
 10
38.065753494019461
 20
55.4522086506189
 70
0
  0
SEQEND
  5
B73A
  8
0
  0
POLYLINE
  5
B200
  8
0
 62
7
 66
1
 70
0
 10
0
 20
0
 30
0
  0
VERTEX
  5
B73B
  8
0
 62
7
 10
38.065753494019461
 20
55.4522086506189
 70
0
  0
VERTEX
  5
B73C
  8
0
 62
7
 10
38.065753494019461
 20
55.409489466601769
 70
0
  0
SEQEND
  5
B73D
  8
0
  0
POLYLINE
  5
B204
  8
0
 62
7
 66
1
 70
0
 10
0
 20
0
 30
0
  0
VERTEX
  5
B73E
  8
0
 62
7
 10
38.065753494019461
 20
55.409489466601769
 70
0
  0
VERTEX
  5
B73F
  8
0
 62
7
 10
38.065753494019461
 20
55.409489466601769
 70
0
  0
SEQEND
  5
B740
  8
0
  0
POLYLINE
  5
B208
  8
0
 62
7
 66
1
 70
0
 10
0
 20
0
 30
0
  0
VERTEX
  5
B741
  8
0
 62
7
 10
38.065753494019461
 20
55.409489466601769
 70
0
  0
VERTEX
  5
B742
  8
0
 62
7
 10
38.023034310002359
 20
55.409489466601769
 70
0
  0
SEQEND
  5
B743
  8
0
  0
POLYLINE
  5
B20C
  8
0
 62
7
 66
1
 70
0
 10
0
 20
0
 30
0
  0
VERTEX
  5
B744
  8
0
 62
7
 10
38.701029101499529
 20
55.32560139153594
 70
0
  0
VERTEX
  5
B745
  8
0
 62
7
 10
38.827808615356709
 20
55.32560139153594
 70
0
  0
SEQEND
  5
B746
  8
0
  0
POLYLINE
  5
B210
  8
0
 62
7
 66
1
 70
0
 10
0
 20
0
 30
0
  0
VERTEX
  5
B747
  8
0
 62
7
 10
38.827808615356709
 20
55.32560139153594
 70
0
  0
VERTEX
  5
B748
  8
0
 62
7
 10
38.954588129213917
 20
55.32560139153594
 70
0
  0
SEQEND
  5
B749
  8
0
  0
POLYLINE
  5
B214
  8
0
 62
7
 66
1
 70
0
 10
0
 20
0
 30
0
  0
VERTEX
  5
B74A
  8
0
 62
7
 10
38.954588129213917
 20
55.32560139153594
 70
0
  0
VERTEX
  5
B74B
  8
0
 62
7
 10
39.0400264972481
 20
55.366942537358959
 70
0
  0
SEQEND
  5
B74C
  8
0
  0
POLYLINE
  5
B218
  8
0
 62
7
 66
1
 70
0
 10
0
 20
0
 30
0
  0
VERTEX
  5
B74D
  8
0
 62
7
 10
39.0400264972481
 20
55.366942537358959
 70
0
  0
VERTEX
  5
B74E
  8
0
 62
7
 10
39.081367643071111
 20
55.366942537358959
 70
0
  0
SEQEND
  5
B74F
  8
0
  0
POLYLINE
  5
B21C
  8
0
 62
7
 66
1
 70
0
 10
0
 20
0
 30
0
  0
VERTEX
  5
B750
  8
0
 62
7
 10
39.12408682708822
 20
55.663220749090428
 70
0
  0
VERTEX
  5
B751
  8
0
 62
7
 10
39.12408682708822
 20
55.663220749090428
 70
0
  0
SEQEND
  5
B752
  8
0
  0
POLYLINE
  5
B220
  8
0
 62
7
 66
1
 70
0
 10
0
 20
0
 30
0
  0
VERTEX
  5
B753
  8
0
 62
7
 10
39.12408682708822
 20
55.663220749090428
 70
0
  0
VERTEX
  5
B754
  8
0
 62
7
 10
39.081367643071111
 20
55.705939933107508
 70
0
  0
SEQEND
  5
B755
  8
0
  0
POLYLINE
  5
B224
  8
0
 62
7
 66
1
 70
0
 10
0
 20
0
 30
0
  0
VERTEX
  5
B756
  8
0
 62
7
 10
39.081367643071111
 20
55.705939933107508
 70
0
  0
VERTEX
  5
B757
  8
0
 62
7
 10
39.0400264972481
 20
55.705939933107508
 70
0
  0
SEQEND
  5
B758
  8
0
  0
POLYLINE
  5
B228
  8
0
 62
7
 66
1
 70
0
 10
0
 20
0
 30
0
  0
VERTEX
  5
B759
  8
0
 62
7
 10
39.0400264972481
 20
55.705939933107508
 70
0
  0
VERTEX
  5
B75A
  8
0
 62
7
 10
38.954588129213917
 20
55.705939933107508
 70
0
  0
SEQEND
  5
B75B
  8
0
  0
POLYLINE
  5
B22C
  8
0
 62
7
 66
1
 70
0
 10
0
 20
0
 30
0
  0
VERTEX
  5
B75C
  8
0
 62
7
 10
38.954588129213917
 20
55.705939933107508
 70
0
  0
VERTEX
  5
B75D
  8
0
 62
7
 10
38.870527799373811
 20
55.748486862350369
 70
0
  0
SEQEND
  5
B75E
  8
0
  0
POLYLINE
  5
B230
  8
0
 62
7
 66
1
 70
0
 10
0
 20
0
 30
0
  0
VERTEX
  5
B75F
  8
0
 62
7
 10
38.870527799373811
 20
55.748486862350369
 70
0
  0
VERTEX
  5
B760
  8
0
 62
7
 10
38.743748285516617
 20
55.748486862350369
 70
0
  0
SEQEND
  5
B761
  8
0
  0
POLYLINE
  5
B234
  8
0
 62
7
 66
1
 70
0
 10
0
 20
0
 30
0
  0
VERTEX
  5
B762
  8
0
 62
7
 10
38.743748285516617
 20
55.748486862350369
 70
0
  0
VERTEX
  5
B763
  8
0
 62
7
 10
38.615590733465332
 20
55.748486862350369
 70
0
  0
SEQEND
  5
B764
  8
0
  0
POLYLINE
  5
B238
  8
0
 62
7
 66
1
 70
0
 10
0
 20
0
 30
0
  0
VERTEX
  5
B765
  8
0
 62
7
 10
38.615590733465332
 20
55.748486862350369
 70
0
  0
VERTEX
  5
B766
  8
0
 62
7
 10
38.488811219608131
 20
55.748486862350369
 70
0
  0
SEQEND
  5
B767
  8
0
  0
POLYLINE
  5
B23C
  8
0
 62
7
 66
1
 70
0
 10
0
 20
0
 30
0
  0
VERTEX
  5
B768
  8
0
 62
7
 10
38.488811219608131
 20
55.748486862350369
 70
0
  0
VERTEX
  5
B769
  8
0
 62
7
 10
38.362031705750937
 20
55.748486862350369
 70
0
  0
SEQEND
  5
B76A
  8
0
  0
POLYLINE
  5
B240
  8
0
 62
7
 66
1
 70
0
 10
0
 20
0
 30
0
  0
VERTEX
  5
B76B
  8
0
 62
7
 10
38.362031705750937
 20
55.748486862350369
 70
0
  0
VERTEX
  5
B76C
  8
0
 62
7
 10
38.23525219189375
 20
55.748486862350369
 70
0
  0
SEQEND
  5
B76D
  8
0
  0
POLYLINE
  5
B244
  8
0
 62
7
 66
1
 70
0
 10
0
 20
0
 30
0
  0
VERTEX
  5
B76E
  8
0
 62
7
 10
38.23525219189375
 20
55.748486862350369
 70
0
  0
VERTEX
  5
B76F
  8
0
 62
7
 10
38.108472678036549
 20
55.748486862350369
 70
0
  0
SEQEND
  5
B770
  8
0
  0
POLYLINE
  5
B248
  8
0
 62
7
 66
1
 70
0
 10
0
 20
0
 30
0
  0
VERTEX
  5
B771
  8
0
 62
7
 10
38.108472678036549
 20
55.748486862350369
 70
0
  0
VERTEX
  5
B772
  8
0
 62
7
 10
37.981693164179362
 20
55.748486862350369
 70
0
  0
SEQEND
  5
B773
  8
0
  0
POLYLINE
  5
B24C
  8
0
 62
7
 66
1
 70
0
 10
0
 20
0
 30
0
  0
VERTEX
  5
B774
  8
0
 62
7
 10
37.981693164179362
 20
55.748486862350369
 70
0
  0
VERTEX
  5
B775
  8
0
 62
7
 10
37.896254796145158
 20
55.748486862350369
 70
0
  0
SEQEND
  5
B776
  8
0
  0
POLYLINE
  5
B250
  8
0
 62
7
 66
1
 70
0
 10
0
 20
0
 30
0
  0
VERTEX
  5
B777
  8
0
 62
7
 10
37.896254796145158
 20
55.748486862350369
 70
0
  0
VERTEX
  5
B778
  8
0
 62
7
 10
37.769475282287971
 20
55.705939933107508
 70
0
  0
SEQEND
  5
B779
  8
0
  0
POLYLINE
  5
B254
  8
0
 62
7
 66
1
 70
0
 10
0
 20
0
 30
0
  0
VERTEX
  5
B77A
  8
0
 62
7
 10
37.769475282287971
 20
55.705939933107508
 70
0
  0
VERTEX
  5
B77B
  8
0
 62
7
 10
37.685414952447857
 20
55.705939933107508
 70
0
  0
SEQEND
  5
B77C
  8
0
  0
POLYLINE
  5
B258
  8
0
 62
7
 66
1
 70
0
 10
0
 20
0
 30
0
  0
VERTEX
  5
B77D
  8
0
 62
7
 10
37.685414952447857
 20
55.705939933107508
 70
0
  0
VERTEX
  5
B77E
  8
0
 62
7
 10
37.642695768430769
 20
55.705939933107508
 70
0
  0
SEQEND
  5
B77F
  8
0
  0
POLYLINE
  5
B25C
  8
0
 62
7
 66
1
 70
0
 10
0
 20
0
 30
0
  0
VERTEX
  5
B780
  8
0
 62
7
 10
37.642695768430769
 20
55.705939933107508
 70
0
  0
VERTEX
  5
B781
  8
0
 62
7
 10
37.599976584413682
 20
55.663220749090428
 70
0
  0
SEQEND
  5
B782
  8
0
  0
POLYLINE
  5
B260
  8
0
 62
7
 66
1
 70
0
 10
0
 20
0
 30
0
  0
VERTEX
  5
B783
  8
0
 62
7
 10
37.599976584413682
 20
55.663220749090428
 70
0
  0
VERTEX
  5
B784
  8
0
 62
7
 10
37.599976584413682
 20
55.663220749090428
 70
0
  0
SEQEND
  5
B785
  8
0
  0
POLYLINE
  5
B264
  8
0
 62
7
 66
1
 70
0
 10
0
 20
0
 30
0
  0
VERTEX
  5
B786
  8
0
 62
7
 10
41.240753493225689
 20
55.875266376207541
 70
0
  0
VERTEX
  5
B787
  8
0
 62
7
 10
40.9871944655113
 20
55.621535093718933
 70
0
  0
SEQEND
  5
B788
  8
0
  0
POLYLINE
  5
B268
  8
0
 62
7
 66
1
 70
0
 10
0
 20
0
 30
0
  0
VERTEX
  5
B789
  8
0
 62
7
 10
35.48330991827617
 20
55.875266376207541
 70
0
  0
VERTEX
  5
B78A
  8
0
 62
7
 10
35.73824698418467
 20
55.621535093718933
 70
0
  0
SEQEND
  5
B78B
  8
0
  0
POLYLINE
  5
B26C
  8
0
 62
7
 66
1
 70
0
 10
0
 20
0
 30
0
  0
VERTEX
  5
B78C
  8
0
 62
7
 10
39.081367643071111
 20
55.366942537358959
 70
0
  0
VERTEX
  5
B78D
  8
0
 62
7
 10
39.589863736693992
 20
55.409489466601769
 70
0
  0
SEQEND
  5
B78E
  8
0
  0
POLYLINE
  5
B270
  8
0
 62
7
 66
1
 70
0
 10
0
 20
0
 30
0
  0
VERTEX
  5
B78F
  8
0
 62
7
 10
39.589863736693992
 20
55.409489466601769
 70
0
  0
VERTEX
  5
B790
  8
0
 62
7
 10
40.012921462282648
 20
55.409489466601769
 70
0
  0
SEQEND
  5
B791
  8
0
  0
POLYLINE
  5
B274
  8
0
 62
7
 66
1
 70
0
 10
0
 20
0
 30
0
  0
VERTEX
  5
B792
  8
0
 62
7
 10
40.012921462282648
 20
55.409489466601769
 70
0
  0
VERTEX
  5
B793
  8
0
 62
7
 10
40.393260003854238
 20
55.4522086506189
 70
0
  0
SEQEND
  5
B794
  8
0
  0
POLYLINE
  5
B278
  8
0
 62
7
 66
1
 70
0
 10
0
 20
0
 30
0
  0
VERTEX
  5
B795
  8
0
 62
7
 10
40.393260003854238
 20
55.4522086506189
 70
0
  0
VERTEX
  5
B796
  8
0
 62
7
 10
40.690916253779818
 20
55.536268980459013
 70
0
  0
SEQEND
  5
B797
  8
0
  0
POLYLINE
  5
B27C
  8
0
 62
7
 66
1
 70
0
 10
0
 20
0
 30
0
  0
VERTEX
  5
B798
  8
0
 62
7
 10
40.690916253779818
 20
55.536268980459013
 70
0
  0
VERTEX
  5
B799
  8
0
 62
7
 10
40.85903691346
 20
55.578815909701788
 70
0
  0
SEQEND
  5
B79A
  8
0
  0
POLYLINE
  5
B280
  8
0
 62
7
 66
1
 70
0
 10
0
 20
0
 30
0
  0
VERTEX
  5
B79B
  8
0
 62
7
 10
40.85903691346
 20
55.578815909701788
 70
0
  0
VERTEX
  5
B79C
  8
0
 62
7
 10
40.9871944655113
 20
55.621535093718933
 70
0
  0
SEQEND
  5
B79D
  8
0
  0
POLYLINE
  5
B284
  8
0
 62
7
 66
1
 70
0
 10
0
 20
0
 30
0
  0
VERTEX
  5
B79E
  8
0
 62
7
 10
41.240753493225689
 20
55.875266376207541
 70
0
  0
VERTEX
  5
B79F
  8
0
 62
7
 10
41.283472677242777
 20
55.959154451273392
 70
0
  0
SEQEND
  5
B7A0
  8
0
  0
POLYLINE
  5
B288
  8
0
 62
7
 66
1
 70
0
 10
0
 20
0
 30
0
  0
VERTEX
  5
B7A1
  8
0
 62
7
 10
41.283472677242777
 20
55.959154451273392
 70
0
  0
VERTEX
  5
B7A2
  8
0
 62
7
 10
41.198034309208587
 20
56.002218144839048
 70
0
  0
SEQEND
  5
B7A3
  8
0
  0
POLYLINE
  5
B28C
  8
0
 62
7
 66
1
 70
0
 10
0
 20
0
 30
0
  0
VERTEX
  5
B7A4
  8
0
 62
7
 10
41.198034309208587
 20
56.002218144839048
 70
0
  0
VERTEX
  5
B7A5
  8
0
 62
7
 10
40.9871944655113
 20
56.0876565128732
 70
0
  0
SEQEND
  5
B7A6
  8
0
  0
POLYLINE
  5
B290
  8
0
 62
7
 66
1
 70
0
 10
0
 20
0
 30
0
  0
VERTEX
  5
B7A7
  8
0
 62
7
 10
40.9871944655113
 20
56.0876565128732
 70
0
  0
VERTEX
  5
B7A8
  8
0
 62
7
 10
40.690916253779818
 20
56.128825403921951
 70
0
  0
SEQEND
  5
B7A9
  8
0
  0
POLYLINE
  5
B294
  8
0
 62
7
 66
1
 70
0
 10
0
 20
0
 30
0
  0
VERTEX
  5
B7AA
  8
0
 62
7
 10
40.690916253779818
 20
56.128825403921951
 70
0
  0
VERTEX
  5
B7AB
  8
0
 62
7
 10
40.351918858031247
 20
56.171544587939081
 70
0
  0
SEQEND
  5
B7AC
  8
0
  0
POLYLINE
  5
B298
  8
0
 62
7
 66
1
 70
0
 10
0
 20
0
 30
0
  0
VERTEX
  5
B7AD
  8
0
 62
7
 10
40.351918858031247
 20
56.171544587939081
 70
0
  0
VERTEX
  5
B7AE
  8
0
 62
7
 10
39.92886113244257
 20
56.214263771956141
 70
0
  0
SEQEND
  5
B7AF
  8
0
  0
POLYLINE
  5
B29C
  8
0
 62
7
 66
1
 70
0
 10
0
 20
0
 30
0
  0
VERTEX
  5
B7B0
  8
0
 62
7
 10
39.92886113244257
 20
56.214263771956141
 70
0
  0
VERTEX
  5
B7B1
  8
0
 62
7
 10
39.420365038819682
 20
56.255604917779117
 70
0
  0
SEQEND
  5
B7B2
  8
0
  0
POLYLINE
  5
B2A0
  8
0
 62
7
 66
1
 70
0
 10
0
 20
0
 30
0
  0
VERTEX
  5
B7B3
  8
0
 62
7
 10
39.420365038819682
 20
56.255604917779117
 70
0
  0
VERTEX
  5
B7B4
  8
0
 62
7
 10
38.911868945196822
 20
56.255604917779117
 70
0
  0
SEQEND
  5
B7B5
  8
0
  0
POLYLINE
  5
B2A4
  8
0
 62
7
 66
1
 70
0
 10
0
 20
0
 30
0
  0
VERTEX
  5
B7B6
  8
0
 62
7
 10
38.911868945196822
 20
56.255604917779117
 70
0
  0
VERTEX
  5
B7B7
  8
0
 62
7
 10
38.362031705750937
 20
56.255604917779117
 70
0
  0
SEQEND
  5
B7B8
  8
0
  0
POLYLINE
  5
B2A8
  8
0
 62
7
 66
1
 70
0
 10
0
 20
0
 30
0
  0
VERTEX
  5
B7B9
  8
0
 62
7
 10
38.362031705750937
 20
56.255604917779117
 70
0
  0
VERTEX
  5
B7BA
  8
0
 62
7
 10
37.812194466305058
 20
56.255604917779117
 70
0
  0
SEQEND
  5
B7BB
  8
0
  0
POLYLINE
  5
B2AC
  8
0
 62
7
 66
1
 70
0
 10
0
 20
0
 30
0
  0
VERTEX
  5
B7BC
  8
0
 62
7
 10
37.812194466305058
 20
56.255604917779117
 70
0
  0
VERTEX
  5
B7BD
  8
0
 62
7
 10
37.303698372682192
 20
56.255604917779117
 70
0
  0
SEQEND
  5
B7BE
  8
0
  0
POLYLINE
  5
B2B0
  8
0
 62
7
 66
1
 70
0
 10
0
 20
0
 30
0
  0
VERTEX
  5
B7BF
  8
0
 62
7
 10
37.303698372682192
 20
56.255604917779117
 70
0
  0
VERTEX
  5
B7C0
  8
0
 62
7
 10
36.837921463076412
 20
56.214263771956141
 70
0
  0
SEQEND
  5
B7C1
  8
0
  0
POLYLINE
  5
B2B4
  8
0
 62
7
 66
1
 70
0
 10
0
 20
0
 30
0
  0
VERTEX
  5
B7C2
  8
0
 62
7
 10
36.837921463076412
 20
56.214263771956141
 70
0
  0
VERTEX
  5
B7C3
  8
0
 62
7
 10
36.372144553470633
 20
56.171544587939081
 70
0
  0
SEQEND
  5
B7C4
  8
0
  0
POLYLINE
  5
B2B8
  8
0
 62
7
 66
1
 70
0
 10
0
 20
0
 30
0
  0
VERTEX
  5
B7C5
  8
0
 62
7
 10
36.372144553470633
 20
56.171544587939081
 70
0
  0
VERTEX
  5
B7C6
  8
0
 62
7
 10
36.034525195916153
 20
56.128825403921951
 70
0
  0
SEQEND
  5
B7C7
  8
0
  0
POLYLINE
  5
B2BC
  8
0
 62
7
 66
1
 70
0
 10
0
 20
0
 30
0
  0
VERTEX
  5
B7C8
  8
0
 62
7
 10
36.034525195916153
 20
56.128825403921951
 70
0
  0
VERTEX
  5
B7C9
  8
0
 62
7
 10
35.73824698418467
 20
56.0876565128732
 70
0
  0
SEQEND
  5
B7CA
  8
0
  0
POLYLINE
  5
B2C0
  8
0
 62
7
 66
1
 70
0
 10
0
 20
0
 30
0
  0
VERTEX
  5
B7CB
  8
0
 62
7
 10
35.73824698418467
 20
56.0876565128732
 70
0
  0
VERTEX
  5
B7CC
  8
0
 62
7
 10
35.568748286310367
 20
56.002218144839048
 70
0
  0
SEQEND
  5
B7CD
  8
0
  0
POLYLINE
  5
B2C4
  8
0
 62
7
 66
1
 70
0
 10
0
 20
0
 30
0
  0
VERTEX
  5
B7CE
  8
0
 62
7
 10
35.568748286310367
 20
56.002218144839048
 70
0
  0
VERTEX
  5
B7CF
  8
0
 62
7
 10
35.44196877245318
 20
55.959154451273392
 70
0
  0
SEQEND
  5
B7D0
  8
0
  0
POLYLINE
  5
B2C8
  8
0
 62
7
 66
1
 70
0
 10
0
 20
0
 30
0
  0
VERTEX
  5
B7D1
  8
0
 62
7
 10
35.44196877245318
 20
55.959154451273392
 70
0
  0
VERTEX
  5
B7D2
  8
0
 62
7
 10
35.48330991827617
 20
55.875266376207541
 70
0
  0
SEQEND
  5
B7D3
  8
0
  0
POLYLINE
  5
B2CC
  8
0
 62
7
 66
1
 70
0
 10
0
 20
0
 30
0
  0
VERTEX
  5
B7D4
  8
0
 62
7
 10
41.451593336923
 20
60.023161340448382
 70
0
  0
VERTEX
  5
B7D5
  8
0
 62
7
 10
41.4102521911
 20
60.108599708482579
 70
0
  0
SEQEND
  5
B7D6
  8
0
  0
POLYLINE
  5
B2D0
  8
0
 62
7
 66
1
 70
0
 10
0
 20
0
 30
0
  0
VERTEX
  5
B7D7
  8
0
 62
7
 10
41.4102521911
 20
60.108599708482579
 70
0
  0
VERTEX
  5
B7D8
  8
0
 62
7
 10
41.283472677242777
 20
60.149768599531292
 70
0
  0
SEQEND
  5
B7D9
  8
0
  0
POLYLINE
  5
B2D4
  8
0
 62
7
 66
1
 70
0
 10
0
 20
0
 30
0
  0
VERTEX
  5
B7DA
  8
0
 62
7
 10
41.283472677242777
 20
60.149768599531292
 70
0
  0
VERTEX
  5
B7DB
  8
0
 62
7
 10
41.071254795351408
 20
60.235551477114022
 70
0
  0
SEQEND
  5
B7DC
  8
0
  0
POLYLINE
  5
B2D8
  8
0
 62
7
 66
1
 70
0
 10
0
 20
0
 30
0
  0
VERTEX
  5
B7DD
  8
0
 62
7
 10
41.071254795351408
 20
60.235551477114022
 70
0
  0
VERTEX
  5
B7DE
  8
0
 62
7
 10
40.774976583619932
 20
60.2782706611311
 70
0
  0
SEQEND
  5
B7DF
  8
0
  0
POLYLINE
  5
B2DC
  8
0
 62
7
 66
1
 70
0
 10
0
 20
0
 30
0
  0
VERTEX
  5
B7E0
  8
0
 62
7
 10
40.774976583619932
 20
60.2782706611311
 70
0
  0
VERTEX
  5
B7E1
  8
0
 62
7
 10
40.351918858031247
 20
60.319439552179858
 70
0
  0
SEQEND
  5
B7E2
  8
0
  0
POLYLINE
  5
B2E0
  8
0
 62
7
 66
1
 70
0
 10
0
 20
0
 30
0
  0
VERTEX
  5
B7E3
  8
0
 62
7
 10
40.351918858031247
 20
60.319439552179858
 70
0
  0
VERTEX
  5
B7E4
  8
0
 62
7
 10
39.92886113244257
 20
60.362158736196918
 70
0
  0
SEQEND
  5
B7E5
  8
0
  0
POLYLINE
  5
B2E4
  8
0
 62
7
 66
1
 70
0
 10
0
 20
0
 30
0
  0
VERTEX
  5
B7E6
  8
0
 62
7
 10
39.92886113244257
 20
60.362158736196918
 70
0
  0
VERTEX
  5
B7E7
  8
0
 62
7
 10
39.420365038819682
 20
60.404877920214062
 70
0
  0
SEQEND
  5
B7E8
  8
0
  0
POLYLINE
  5
B2E8
  8
0
 62
7
 66
1
 70
0
 10
0
 20
0
 30
0
  0
VERTEX
  5
B7E9
  8
0
 62
7
 10
39.420365038819682
 20
60.404877920214062
 70
0
  0
VERTEX
  5
B7EA
  8
0
 62
7
 10
38.911868945196822
 20
60.404877920214062
 70
0
  0
SEQEND
  5
B7EB
  8
0
  0
POLYLINE
  5
B2EC
  8
0
 62
7
 66
1
 70
0
 10
0
 20
0
 30
0
  0
VERTEX
  5
B7EC
  8
0
 62
7
 10
38.911868945196822
 20
60.404877920214062
 70
0
  0
VERTEX
  5
B7ED
  8
0
 62
7
 10
38.362031705750937
 20
60.446219066037038
 70
0
  0
SEQEND
  5
B7EE
  8
0
  0
POLYLINE
  5
B2F0
  8
0
 62
7
 66
1
 70
0
 10
0
 20
0
 30
0
  0
VERTEX
  5
B7EF
  8
0
 62
7
 10
38.362031705750937
 20
60.446219066037038
 70
0
  0
VERTEX
  5
B7F0
  8
0
 62
7
 10
37.812194466305058
 20
60.404877920214062
 70
0
  0
SEQEND
  5
B7F1
  8
0
  0
POLYLINE
  5
B2F4
  8
0
 62
7
 66
1
 70
0
 10
0
 20
0
 30
0
  0
VERTEX
  5
B7F2
  8
0
 62
7
 10
37.812194466305058
 20
60.404877920214062
 70
0
  0
VERTEX
  5
B7F3
  8
0
 62
7
 10
37.303698372682192
 20
60.404877920214062
 70
0
  0
SEQEND
  5
B7F4
  8
0
  0
POLYLINE
  5
B2F8
  8
0
 62
7
 66
1
 70
0
 10
0
 20
0
 30
0
  0
VERTEX
  5
B7F5
  8
0
 62
7
 10
37.303698372682192
 20
60.404877920214062
 70
0
  0
VERTEX
  5
B7F6
  8
0
 62
7
 10
36.796580317253422
 20
60.362158736196918
 70
0
  0
SEQEND
  5
B7F7
  8
0
  0
POLYLINE
  5
B2FC
  8
0
 62
7
 66
1
 70
0
 10
0
 20
0
 30
0
  0
VERTEX
  5
B7F8
  8
0
 62
7
 10
36.796580317253422
 20
60.362158736196918
 70
0
  0
VERTEX
  5
B7F9
  8
0
 62
7
 10
36.372144553470633
 20
60.319439552179858
 70
0
  0
SEQEND
  5
B7FA
  8
0
  0
POLYLINE
  5
B300
  8
0
 62
7
 66
1
 70
0
 10
0
 20
0
 30
0
  0
VERTEX
  5
B7FB
  8
0
 62
7
 10
36.372144553470633
 20
60.319439552179858
 70
0
  0
VERTEX
  5
B7FC
  8
0
 62
7
 10
35.94908682788197
 20
60.2782706611311
 70
0
  0
SEQEND
  5
B7FD
  8
0
  0
POLYLINE
  5
B304
  8
0
 62
7
 66
1
 70
0
 10
0
 20
0
 30
0
  0
VERTEX
  5
B7FE
  8
0
 62
7
 10
35.94908682788197
 20
60.2782706611311
 70
0
  0
VERTEX
  5
B7FF
  8
0
 62
7
 10
35.652808616150473
 20
60.235551477114022
 70
0
  0
SEQEND
  5
B800
  8
0
  0
POLYLINE
  5
B308
  8
0
 62
7
 66
1
 70
0
 10
0
 20
0
 30
0
  0
VERTEX
  5
B801
  8
0
 62
7
 10
35.652808616150473
 20
60.235551477114022
 70
0
  0
VERTEX
  5
B802
  8
0
 62
7
 10
35.44196877245318
 20
60.149768599531292
 70
0
  0
SEQEND
  5
B803
  8
0
  0
POLYLINE
  5
B30C
  8
0
 62
7
 66
1
 70
0
 10
0
 20
0
 30
0
  0
VERTEX
  5
B804
  8
0
 62
7
 10
35.44196877245318
 20
60.149768599531292
 70
0
  0
VERTEX
  5
B805
  8
0
 62
7
 10
35.3138112204019
 20
60.108599708482579
 70
0
  0
SEQEND
  5
B806
  8
0
  0
POLYLINE
  5
B310
  8
0
 62
7
 66
1
 70
0
 10
0
 20
0
 30
0
  0
VERTEX
  5
B807
  8
0
 62
7
 10
35.3138112204019
 20
60.108599708482579
 70
0
  0
VERTEX
  5
B808
  8
0
 62
7
 10
35.272470074578891
 20
60.023161340448382
 70
0
  0
SEQEND
  5
B809
  8
0
  0
POLYLINE
  5
B314
  8
0
 62
7
 66
1
 70
0
 10
0
 20
0
 30
0
  0
VERTEX
  5
B80A
  8
0
 62
7
 10
41.451593336923
 20
59.853490387799823
 70
0
  0
VERTEX
  5
B80B
  8
0
 62
7
 10
41.663811218814381
 20
59.939273265382553
 70
0
  0
SEQEND
  5
B80C
  8
0
  0
POLYLINE
  5
B318
  8
0
 62
7
 66
1
 70
0
 10
0
 20
0
 30
0
  0
VERTEX
  5
B80D
  8
0
 62
7
 10
41.663811218814381
 20
59.939273265382553
 70
0
  0
VERTEX
  5
B80E
  8
0
 62
7
 10
41.706530402831483
 20
60.023161340448382
 70
0
  0
SEQEND
  5
B80F
  8
0
  0
POLYLINE
  5
B31C
  8
0
 62
7
 66
1
 70
0
 10
0
 20
0
 30
0
  0
VERTEX
  5
B810
  8
0
 62
7
 10
41.790590732671568
 20
64.975830610043531
 70
0
  0
VERTEX
  5
B811
  8
0
 62
7
 10
41.747871548654473
 20
65.06126897807772
 70
0
  0
SEQEND
  5
B812
  8
0
  0
POLYLINE
  5
B320
  8
0
 62
7
 66
1
 70
0
 10
0
 20
0
 30
0
  0
VERTEX
  5
B813
  8
0
 62
7
 10
41.747871548654473
 20
65.06126897807772
 70
0
  0
VERTEX
  5
B814
  8
0
 62
7
 10
41.621092034797293
 20
65.145157053143578
 70
0
  0
SEQEND
  5
B815
  8
0
  0
POLYLINE
  5
B324
  8
0
 62
7
 66
1
 70
0
 10
0
 20
0
 30
0
  0
VERTEX
  5
B816
  8
0
 62
7
 10
41.621092034797293
 20
65.145157053143578
 70
0
  0
VERTEX
  5
B817
  8
0
 62
7
 10
41.367533007082891
 20
65.229389637757947
 70
0
  0
SEQEND
  5
B818
  8
0
  0
POLYLINE
  5
B328
  8
0
 62
7
 66
1
 70
0
 10
0
 20
0
 30
0
  0
VERTEX
  5
B819
  8
0
 62
7
 10
41.367533007082891
 20
65.229389637757947
 70
0
  0
VERTEX
  5
B81A
  8
0
 62
7
 10
41.028535611334313
 20
65.314828005792108
 70
0
  0
SEQEND
  5
B81B
  8
0
  0
POLYLINE
  5
B32C
  8
0
 62
7
 66
1
 70
0
 10
0
 20
0
 30
0
  0
VERTEX
  5
B81C
  8
0
 62
7
 10
41.028535611334313
 20
65.314828005792108
 70
0
  0
VERTEX
  5
B81D
  8
0
 62
7
 10
40.605477885745607
 20
65.35754718980921
 70
0
  0
SEQEND
  5
B81E
  8
0
  0
POLYLINE
  5
B330
  8
0
 62
7
 66
1
 70
0
 10
0
 20
0
 30
0
  0
VERTEX
  5
B81F
  8
0
 62
7
 10
40.605477885745607
 20
65.35754718980921
 70
0
  0
VERTEX
  5
B820
  8
0
 62
7
 10
40.096981792122762
 20
65.441435264875054
 70
0
  0
SEQEND
  5
B821
  8
0
  0
POLYLINE
  5
B334
  8
0
 62
7
 66
1
 70
0
 10
0
 20
0
 30
0
  0
VERTEX
  5
B822
  8
0
 62
7
 10
40.096981792122762
 20
65.441435264875054
 70
0
  0
VERTEX
  5
B823
  8
0
 62
7
 10
39.54714455267689
 20
65.484154448892113
 70
0
  0
SEQEND
  5
B824
  8
0
  0
POLYLINE
  5
B338
  8
0
 62
7
 66
1
 70
0
 10
0
 20
0
 30
0
  0
VERTEX
  5
B825
  8
0
 62
7
 10
39.54714455267689
 20
65.484154448892113
 70
0
  0
VERTEX
  5
B826
  8
0
 62
7
 10
38.954588129213917
 20
65.484154448892113
 70
0
  0
SEQEND
  5
B827
  8
0
  0
POLYLINE
  5
B33C
  8
0
 62
7
 66
1
 70
0
 10
0
 20
0
 30
0
  0
VERTEX
  5
B828
  8
0
 62
7
 10
38.954588129213917
 20
65.484154448892113
 70
0
  0
VERTEX
  5
B829
  8
0
 62
7
 10
38.362031705750937
 20
65.484154448892113
 70
0
  0
SEQEND
  5
B82A
  8
0
  0
POLYLINE
  5
B340
  8
0
 62
7
 66
1
 70
0
 10
0
 20
0
 30
0
  0
VERTEX
  5
B82B
  8
0
 62
7
 10
38.362031705750937
 20
65.484154448892113
 70
0
  0
VERTEX
  5
B82C
  8
0
 62
7
 10
37.769475282287971
 20
65.484154448892113
 70
0
  0
SEQEND
  5
B82D
  8
0
  0
POLYLINE
  5
B344
  8
0
 62
7
 66
1
 70
0
 10
0
 20
0
 30
0
  0
VERTEX
  5
B82E
  8
0
 62
7
 10
37.769475282287971
 20
65.484154448892113
 70
0
  0
VERTEX
  5
B82F
  8
0
 62
7
 10
37.17691885882499
 20
65.484154448892113
 70
0
  0
SEQEND
  5
B830
  8
0
  0
POLYLINE
  5
B348
  8
0
 62
7
 66
1
 70
0
 10
0
 20
0
 30
0
  0
VERTEX
  5
B831
  8
0
 62
7
 10
37.17691885882499
 20
65.484154448892113
 70
0
  0
VERTEX
  5
B832
  8
0
 62
7
 10
36.62708161937914
 20
65.441435264875054
 70
0
  0
SEQEND
  5
B833
  8
0
  0
POLYLINE
  5
B34C
  8
0
 62
7
 66
1
 70
0
 10
0
 20
0
 30
0
  0
VERTEX
  5
B834
  8
0
 62
7
 10
36.62708161937914
 20
65.441435264875054
 70
0
  0
VERTEX
  5
B835
  8
0
 62
7
 10
36.161304709773347
 20
65.35754718980921
 70
0
  0
SEQEND
  5
B836
  8
0
  0
POLYLINE
  5
B350
  8
0
 62
7
 66
1
 70
0
 10
0
 20
0
 30
0
  0
VERTEX
  5
B837
  8
0
 62
7
 10
36.161304709773347
 20
65.35754718980921
 70
0
  0
VERTEX
  5
B838
  8
0
 62
7
 10
35.73824698418467
 20
65.314828005792108
 70
0
  0
SEQEND
  5
B839
  8
0
  0
POLYLINE
  5
B354
  8
0
 62
7
 66
1
 70
0
 10
0
 20
0
 30
0
  0
VERTEX
  5
B83A
  8
0
 62
7
 10
35.73824698418467
 20
65.314828005792108
 70
0
  0
VERTEX
  5
B83B
  8
0
 62
7
 10
35.35653040441899
 20
65.229389637757947
 70
0
  0
SEQEND
  5
B83C
  8
0
  0
POLYLINE
  5
B358
  8
0
 62
7
 66
1
 70
0
 10
0
 20
0
 30
0
  0
VERTEX
  5
B83D
  8
0
 62
7
 10
35.35653040441899
 20
65.229389637757947
 70
0
  0
VERTEX
  5
B83E
  8
0
 62
7
 10
35.102971376704588
 20
65.145157053143578
 70
0
  0
SEQEND
  5
B83F
  8
0
  0
POLYLINE
  5
B35C
  8
0
 62
7
 66
1
 70
0
 10
0
 20
0
 30
0
  0
VERTEX
  5
B840
  8
0
 62
7
 10
35.102971376704588
 20
65.145157053143578
 70
0
  0
VERTEX
  5
B841
  8
0
 62
7
 10
34.9761918628474
 20
65.06126897807772
 70
0
  0
SEQEND
  5
B842
  8
0
  0
POLYLINE
  5
B360
  8
0
 62
7
 66
1
 70
0
 10
0
 20
0
 30
0
  0
VERTEX
  5
B843
  8
0
 62
7
 10
34.9761918628474
 20
65.06126897807772
 70
0
  0
VERTEX
  5
B844
  8
0
 62
7
 10
34.933472678830292
 20
64.975830610043531
 70
0
  0
SEQEND
  5
B845
  8
0
  0
POLYLINE
  5
B364
  8
0
 62
7
 66
1
 70
0
 10
0
 20
0
 30
0
  0
VERTEX
  5
B846
  8
0
 62
7
 10
37.599976584413682
 20
55.663220749090428
 70
0
  0
VERTEX
  5
B847
  8
0
 62
7
 10
37.599976584413682
 20
55.409489466601769
 70
0
  0
SEQEND
  5
B848
  8
0
  0
POLYLINE
  5
B368
  8
0
 62
7
 66
1
 70
0
 10
0
 20
0
 30
0
  0
VERTEX
  5
B849
  8
0
 62
7
 10
35.0175330086704
 20
60.023161340448382
 70
0
  0
VERTEX
  5
B84A
  8
0
 62
7
 10
34.933472678830292
 20
64.975830610043531
 70
0
  0
SEQEND
  5
B84B
  8
0
  0
POLYLINE
  5
B36C
  8
0
 62
7
 66
1
 70
0
 10
0
 20
0
 30
0
  0
VERTEX
  5
B84C
  8
0
 62
7
 10
35.44196877245318
 20
55.917985560224672
 70
0
  0
VERTEX
  5
B84D
  8
0
 62
7
 10
35.272470074578891
 20
59.853490387799823
 70
0
  0
SEQEND
  5
B84E
  8
0
  0
POLYLINE
  5
B370
  8
0
 62
7
 66
1
 70
0
 10
0
 20
0
 30
0
  0
VERTEX
  5
B84F
  8
0
 62
7
 10
39.12408682708822
 20
55.663220749090428
 70
0
  0
VERTEX
  5
B850
  8
0
 62
7
 10
39.12408682708822
 20
55.409489466601769
 70
0
  0
SEQEND
  5
B851
  8
0
  0
POLYLINE
  5
B374
  8
0
 62
7
 66
1
 70
0
 10
0
 20
0
 30
0
  0
VERTEX
  5
B852
  8
0
 62
7
 10
41.706530402831483
 20
60.023161340448382
 70
0
  0
VERTEX
  5
B853
  8
0
 62
7
 10
41.790590732671568
 20
64.975830610043531
 70
0
  0
SEQEND
  5
B854
  8
0
  0
POLYLINE
  5
B378
  8
0
 62
7
 66
1
 70
0
 10
0
 20
0
 30
0
  0
VERTEX
  5
B855
  8
0
 62
7
 10
41.283472677242777
 20
55.917985560224672
 70
0
  0
VERTEX
  5
B856
  8
0
 62
7
 10
41.451593336923
 20
59.853490387799823
 70
0
  0
SEQEND
  5
B857
  8
0
  0
INSERT
  5
B866
  8
0
  2
SPEC_BLOCK
 10
62.441770597721572
 20
1.6249999999999876
 30
0
 41
1
 42
1
 43
1
 50
0
  0
ENDSEC
999
Created By CadLib version 4.0.36.7
999
CadLib website: www.woutware.com
  0
EOF
