  0
SECTION
  2
HEADER
  9
$ACADVER
  1
AC1009
  9
$DWGCODEPAGE
  3
ANSI_932
  9
$INSBASE
 10
0.0
 20
0.0
 30
0.0
  9
$EXTMIN
 10
0
 20
0
 30
0
  9
$EXTMAX
 10
0
 20
0
 30
0
  9
$LIMMIN
 10
0.0
 20
0.0
  9
$LIMMAX
 10
420.0
 20
297.0
  9
$ORTHOMODE
 70
0
  9
$REGENMODE
 70
1
  9
$FILLMODE
 70
1
  9
$DRAGMODE
 70
2
  9
$QTEXTMODE
 70
0
  9
$MIRRTEXT
 70
1
  9
$OSMODE
 70
37
  9
$LTSCALE
 40
25.4
  9
$ATTMODE
 70
1
  9
$TEXTSIZE
 40
0.2
  9
$TRACEWID
 40
1.0
  9
$TEXTSTYLE
  7
STANDARD
  9
$CLAYER
  8
__
  9
$CELTYPE
  6
BYLAYER
  9
$CECOLOR
 62
256
  9
$DIMSCALE
 40
1.0
  9
$DIMASZ
 40
0.18
  9
$DIMEXO
 40
0.0625
  9
$DIMDLI
 40
0.38
  9
$DIMRND
 40
0.0
  9
$DIMDLE
 40
0.0
  9
$DIMEXE
 40
0.18
  9
$DIMTP
 40
0.0
  9
$DIMTM
 40
0.0
  9
$DIMTXT
 40
0.18
  9
$DIMCEN
 40
0.09
  9
$DIMTSZ
 40
0.0
  9
$DIMTOL
 70
0
  9
$DIMLIM
 70
0
  9
$DIMTIH
 70
1
  9
$DIMTOH
 70
1
  9
$DIMSE1
 70
0
  9
$DIMSE2
 70
0
  9
$DIMTAD
 70
0
  9
$DIMZIN
 70
0
  9
$DIMBLK
  1

  9
$DIMASO
 70
1
  9
$DIMSHO
 70
1
  9
$DIMPOST
  1

  9
$DIMAPOST
  1

  9
$DIMALT
 70
0
  9
$DIMALTD
 70
2
  9
$DIMALTF
 40
25.4
  9
$DIMLFAC
 40
1.0
  9
$DIMTOFL
 70
0
  9
$DIMTVP
 40
0.0
  9
$DIMTIX
 70
0
  9
$DIMSOXD
 70
0
  9
$DIMSAH
 70
0
  9
$DIMBLK1
  1

  9
$DIMBLK2
  1

  9
$DIMSTYLE
  2
STANDARD
  9
$DIMCLRD
 70
0
  9
$DIMCLRE
 70
0
  9
$DIMCLRT
 70
0
  9
$DIMTFAC
 40
1.0
  9
$DIMGAP
 40
0.09
  9
$COORDS
 70
1
  9
$ATTDIA
 70
0
  9
$ATTREQ
 70
1
  9
$HANDLING
 70
1
  9
$LUNITS
 70
2
  9
$LUPREC
 70
2
  9
$SKETCHINC
 40
0.1
  9
$FILLETRAD
 40
0.5
  9
$AUNITS
 70
0
  9
$AUPREC
 70
2
  9
$MENU
  1
.
  9
$ELEVATION
 40
0.0
  9
$PELEVATION
 40
0.0
  9
$THICKNESS
 40
0.0
  9
$LIMCHECK
 70
0
  9
$CHAMFERA
 40
0.0
  9
$CHAMFERB
 40
0.0
  9
$SKPOLY
 70
0
  9
$TDCREATE
 40
2460371.4985532407
  9
$TDUPDATE
 40
2460371.4985532407
  9
$TDINDWG
 40
1.16e-08
  9
$TDUSRTIMER
 40
1.16e-08
  9
$USRTIMER
 70
1
  9
$ANGBASE
 50
0.0
  9
$ANGDIR
 70
0
  9
$PDMODE
 70
1
  9
$PDSIZE
 40
-2.0
  9
$PLINEWID
 40
0.0
  9
$SPLFRAME
 70
0
  9
$SPLINETYPE
 70
6
  9
$SPLINESEGS
 70
8
  9
$HANDSEED
  5
1022
  9
$SURFTAB1
 70
6
  9
$SURFTAB2
 70
6
  9
$SURFTYPE
 70
6
  9
$SURFU
 70
6
  9
$SURFV
 70
6
  9
$UCSNAME
  2

  9
$UCSORG
 10
0.0
 20
0.0
 30
0.0
  9
$UCSXDIR
 10
1.0
 20
0.0
 30
0.0
  9
$UCSYDIR
 10
0.0
 20
1.0
 30
0.0
  9
$PUCSNAME
  2

  9
$PUCSORG
 10
0.0
 20
0.0
 30
0.0
  9
$PUCSXDIR
 10
1.0
 20
0.0
 30
0.0
  9
$PUCSYDIR
 10
0.0
 20
1.0
 30
0.0
  9
$USERI1
 70
0
  9
$USERI2
 70
0
  9
$USERI3
 70
0
  9
$USERI4
 70
0
  9
$USERI5
 70
0
  9
$USERR1
 40
0.0
  9
$USERR2
 40
0.0
  9
$USERR3
 40
0.0
  9
$USERR4
 40
0.0
  9
$USERR5
 40
0.0
  9
$WORLDVIEW
 70
1
  9
$SHADEDGE
 70
3
  9
$SHADEDIF
 70
70
  9
$TILEMODE
 70
1
  9
$MAXACTVP
 70
64
  9
$PLIMCHECK
 70
0
  9
$PEXTMIN
 10
1e+20
 20
1e+20
 30
1e+20
  9
$PEXTMAX
 10
-1e+20
 20
-1e+20
 30
-1e+20
  9
$PLIMMIN
 10
0.0
 20
0.0
  9
$PLIMMAX
 10
420.0
 20
297.0
  9
$UNITMODE
 70
0
  9
$VISRETAIN
 70
1
  9
$PLINEGEN
 70
0
  9
$PSLTSCALE
 70
1
  0
ENDSEC
  0
SECTION
  2
TABLES
  0
TABLE
  2
VPORT
 70
1
  0
VPORT
  5
81
  2
*ACTIVE
 70
0
 10
0.0
 20
0.0
 11
1.0
 21
1.0
 12
0.0
 22
0.0
 13
0.0
 23
0.0
 14
0.5
 24
0.5
 15
0.5
 25
0.5
 16
0.0
 26
0.0
 36
1.0
 17
0.0
 27
0.0
 37
0.0
 40
296.9895
 41
0.7067921032000568
 42
2000.0
 43
0.0
 44
0.0
 50
0.0
 51
0.0
 71
0
 72
100
 73
1
 74
3
 75
0
 76
0
 77
0
 78
0
  0
ENDTAB
  0
TABLE
  2
LTYPE
 70
3
  0
LTYPE
  5
82
  2
CONTINUOUS
 70
0
  3
Solid line
 72
65
 73
0
 40
0.0
  0
LTYPE
  5
AB
  2
ByBlock
 70
0
  3

 72
65
 73
0
 40
0.0
  0
LTYPE
  5
AC
  2
ByLayer
 70
0
  3

 72
65
 73
0
 40
0.0
  0
ENDTAB
  0
TABLE
  2
LAYER
 70
3
  0
LAYER
  5
83
  2
0
 70
0
 62
7
  6
CONTINUOUS
  0
LAYER
  5
84
  2
__
 70
0
 62
7
  6
CONTINUOUS
  0
LAYER
  5
AD
  2
Defpoints
 70
0
 62
7
  6
Continuous
  0
ENDTAB
  0
TABLE
  2
STYLE
 70
1
  0
STYLE
  5
85
  2
STANDARD
 70
0
 40
0.0
 41
1.0
 50
0.0
 71
0
 42
0.2
  3
txt
  4
BIGFONT.SHX
  0
ENDTAB
  0
TABLE
  2
VIEW
 70
0
  0
ENDTAB
  0
TABLE
  2
UCS
 70
0
  0
ENDTAB
  0
TABLE
  2
APPID
 70
5
  0
APPID
  5
86
  2
ACAD
 70
0
  0
APPID
  5
87
  2
ACCMTRANSPARENCY
 70
0
  0
APPID
  5
88
  2
ACAECLAYERSTANDARD
 70
0
  0
APPID
  5
1020
  2
HATCHBACKGROUNDCOLOR
 70
0
  0
APPID
  5
1021
  2
EZDXF
 70
0
  0
ENDTAB
  0
TABLE
  2
DIMSTYLE
 70
1
  0
DIMSTYLE
105
89
  2
STANDARD
 70
0
  3

  4

  5

  6

  7

 40
1.0
 41
0.18
 42
0.0625
 43
0.38
 44
0.18
 45
0.0
 46
0.0
 47
0.0
 48
0.0
140
0.18
141
0.09
142
0.0
143
25.4
144
1.0
145
0.0
146
1.0
147
0.09
 71
0
 72
0
 73
1
 74
1
 75
0
 76
0
 77
0
 78
0
170
0
171
2
172
0
173
0
174
0
175
0
176
0
177
0
178
0
  0
ENDTAB
  0
ENDSEC
  0
SECTION
  2
BLOCKS
  0
BLOCK
  5
8A
  8
0
  2
$Model_Space
 70
0
 10
0.0
 20
0.0
 30
0.0
  3
$Model_Space
  1

1001
EZDXF
1000
WRITTEN_BY_EZDXF
1000
0.16.4 @ 2024-03-01T02:57:55.229647+00:00
  0
ENDBLK
  5
21
  8
0
  0
BLOCK
  5
8B
 67
1
  8
0
  2
$Paper_Space
 70
0
 10
0.0
 20
0.0
 30
0.0
  3
$Paper_Space
  1

  0
ENDBLK
  5
1D
 67
1
  8
0
  0
ENDSEC
  0
SECTION
  2
ENTITIES
  0
LINE
  5
AF
  8
0
 10
0.0
 20
62.147
 30
0.0
 11
0.0
 21
61.51
 31
0.0
  0
LINE
  5
B0
  8
0
 10
0.0
 20
60.239
 30
0.0
 11
0.0
 21
52.894
 31
0.0
  0
LINE
  5
B1
  8
0
 10
0.0
 20
51.623
 30
0.0
 11
0.0
 21
50.634
 31
0.0
  0
LINE
  5
B2
  8
0
 10
1.2
 20
50.634
 30
0.0
 11
1.2
 21
62.147
 31
0.0
  0
LINE
  5
B3
  8
0
 10
1.554
 20
50.283
 30
0.0
 11
1.554
 21
50.0
 31
0.0
  0
LINE
  5
B4
  8
0
 10
1.554
 20
62.499
 30
0.0
 11
1.554
 21
62.782
 31
0.0
  0
LINE
  5
B5
  8
0
 10
10.382
 20
70.409
 30
0.0
 11
10.311
 21
72.529
 31
0.0
  0
LINE
  5
B6
  8
0
 10
1.554
 20
50.352
 30
0.0
 11
1.272
 21
50.352
 31
0.0
  0
LINE
  5
B7
  8
0
 10
1.554
 20
62.43
 30
0.0
 11
1.272
 21
62.43
 31
0.0
  0
LINE
  5
B8
  8
0
 10
3.672
 20
63.487
 30
0.0
 11
1.554
 21
63.487
 31
0.0
  0
LINE
  5
B9
  8
0
 10
49.761
 20
68.98
 30
0.0
 11
49.972
 21
68.98
 31
0.0
  0
LINE
  5
BA
  8
0
 10
51.384
 20
69.12
 30
0.0
 11
53.927
 21
69.191
 31
0.0
  0
LINE
  5
BB
  8
0
 10
54.069
 20
69.191
 30
0.0
 11
54.351
 21
69.191
 31
0.0
  0
LINE
  5
BC
  8
0
 10
54.846
 20
69.191
 30
0.0
 11
55.057
 21
69.263
 31
0.0
  0
LINE
  5
BD
  8
0
 10
55.198
 20
69.263
 30
0.0
 11
57.74
 21
69.332
 31
0.0
  0
LINE
  5
BE
  8
0
 10
54.635
 20
69.263
 30
0.0
 11
54.492
 21
69.263
 31
0.0
  0
LINE
  5
BF
  8
0
 10
54.986
 20
69.757
 30
0.0
 11
54.775
 21
69.757
 31
0.0
  0
LINE
  5
C0
  8
0
 10
58.306
 20
69.897
 30
0.0
 11
54.986
 21
69.757
 31
0.0
  0
LINE
  5
C1
  8
0
 10
54.635
 20
69.757
 30
0.0
 11
54.492
 21
69.757
 31
0.0
  0
LINE
  5
C2
  8
0
 10
57.529
 20
69.968
 30
0.0
 11
51.526
 21
69.757
 31
0.0
  0
LINE
  5
C3
  8
0
 10
30.834
 20
71.097
 30
0.0
 11
32.034
 21
71.097
 31
0.0
  0
LINE
  5
C4
  8
0
 10
30.834
 20
71.097
 30
0.0
 11
32.034
 21
71.168
 31
0.0
  0
LINE
  5
C5
  8
0
 10
31.823
 20
71.168
 30
0.0
 11
31.046
 21
71.168
 31
0.0
  0
LINE
  5
C6
  8
0
 10
54.986
 20
72.088
 30
0.0
 11
55.48
 21
72.088
 31
0.0
  0
LINE
  5
C7
  8
0
 10
58.446
 20
72.794
 30
0.0
 11
58.871
 21
72.794
 31
0.0
  0
LINE
  5
C8
  8
0
 10
58.871
 20
73.357
 30
0.0
 11
58.446
 21
73.357
 31
0.0
  0
LINE
  5
C9
  8
0
 10
57.529
 20
73.428
 30
0.0
 11
57.882
 21
73.428
 31
0.0
  0
LINE
  5
CA
  8
0
 10
54.775
 20
74.065
 30
0.0
 11
55.48
 21
74.065
 31
0.0
  0
LINE
  5
CB
  8
0
 10
35.777
 20
73.64
 30
0.0
 11
36.202
 21
73.64
 31
0.0
  0
LINE
  5
CC
  8
0
 10
36.697
 20
73.64
 30
0.0
 11
37.12
 21
73.64
 31
0.0
  0
LINE
  5
CD
  8
0
 10
37.685
 20
73.711
 30
0.0
 11
37.754
 21
73.711
 31
0.0
  0
LINE
  5
CE
  8
0
 10
35.214
 20
73.64
 30
0.0
 11
35.777
 21
73.64
 31
0.0
  0
LINE
  5
CF
  8
0
 10
37.12
 20
73.711
 30
0.0
 11
37.614
 21
73.782
 31
0.0
  0
LINE
  5
D0
  8
0
 10
35.848
 20
73.711
 30
0.0
 11
36.131
 21
73.711
 31
0.0
  0
LINE
  5
D1
  8
0
 10
36.765
 20
73.782
 30
0.0
 11
37.048
 21
73.782
 31
0.0
  0
LINE
  5
D2
  8
0
 10
60.0
 20
74.699
 30
0.0
 11
59.931
 21
74.699
 31
0.0
  0
LINE
  5
D3
  8
0
 10
48.772
 20
74.348
 30
0.0
 11
48.844
 21
74.348
 31
0.0
  0
LINE
  5
D4
  8
0
 10
37.614
 20
74.205
 30
0.0
 11
37.685
 21
74.205
 31
0.0
  0
LINE
  5
D5
  8
0
 10
57.883
 20
74.982
 30
0.0
 11
56.895
 21
74.911
 31
0.0
  0
LINE
  5
D6
  8
0
 10
49.338
 20
74.699
 30
0.0
 11
51.809
 21
74.771
 31
0.0
  0
LINE
  5
D7
  8
0
 10
48.844
 20
75.336
 30
0.0
 11
59.86
 21
75.688
 31
0.0
  0
LINE
  5
D8
  8
0
 10
49.124
 20
75.548
 30
0.0
 11
49.549
 21
75.548
 31
0.0
  0
LINE
  5
D9
  8
0
 10
59.154
 20
75.899
 30
0.0
 11
59.577
 21
75.899
 31
0.0
  0
LINE
  5
DA
  8
0
 10
55.623
 20
72.088
 30
0.0
 11
55.48
 21
72.088
 31
0.0
  0
LINE
  5
DB
  8
0
 10
55.623
 20
74.065
 30
0.0
 11
55.48
 21
74.065
 31
0.0
  0
LINE
  5
DC
  8
0
 10
50.749
 20
69.614
 30
0.0
 11
51.244
 21
69.12
 31
0.0
  0
LINE
  5
DD
  8
0
 10
37.614
 20
73.64
 30
0.0
 11
37.614
 21
73.571
 31
0.0
  0
LINE
  5
DE
  8
0
 10
48.772
 20
75.405
 30
0.0
 11
48.844
 21
75.336
 31
0.0
  0
LINE
  5
DF
  8
0
 10
49.338
 20
73.994
 30
0.0
 11
49.338
 21
74.699
 31
0.0
  0
LINE
  5
E0
  8
0
 10
47.784
 20
71.451
 30
0.0
 11
47.784
 21
71.663
 31
0.0
  0
LINE
  5
E1
  8
0
 10
48.844
 20
74.559
 30
0.0
 11
48.844
 21
74.205
 31
0.0
  0
LINE
  5
E2
  8
0
 10
51.526
 20
69.757
 30
0.0
 11
51.455
 21
71.097
 31
0.0
  0
LINE
  5
E3
  8
0
 10
51.949
 20
74.699
 30
0.0
 11
51.949
 21
74.417
 31
0.0
  0
LINE
  5
E4
  8
0
 10
50.538
 20
71.168
 30
0.0
 11
50.538
 21
71.734
 31
0.0
  0
LINE
  5
E5
  8
0
 10
50.749
 20
69.686
 30
0.0
 11
50.749
 21
69.614
 31
0.0
  0
LINE
  5
E6
  8
0
 10
51.526
 20
69.686
 30
0.0
 11
51.526
 21
69.757
 31
0.0
  0
LINE
  5
E7
  8
0
 10
59.931
 20
75.759
 30
0.0
 11
59.86
 21
75.759
 31
0.0
  0
LINE
  5
E8
  8
0
 10
53.786
 20
74.065
 30
0.0
 11
53.786
 21
74.205
 31
0.0
  0
LINE
  5
E9
  8
0
 10
54.492
 20
69.263
 30
0.0
 11
54.492
 21
69.757
 31
0.0
  0
LINE
  5
EA
  8
0
 10
54.986
 20
69.757
 30
0.0
 11
55.057
 21
69.403
 31
0.0
  0
LINE
  5
EB
  8
0
 10
54.14
 20
69.757
 30
0.0
 11
54.14
 21
69.826
 31
0.0
  0
LINE
  5
EC
  8
0
 10
54.492
 20
69.826
 30
0.0
 11
54.492
 21
69.757
 31
0.0
  0
LINE
  5
ED
  8
0
 10
54.492
 20
69.191
 30
0.0
 11
54.492
 21
69.263
 31
0.0
  0
LINE
  5
EE
  8
0
 10
54.635
 20
69.191
 30
0.0
 11
54.635
 21
69.263
 31
0.0
  0
LINE
  5
EF
  8
0
 10
54.635
 20
69.826
 30
0.0
 11
54.635
 21
69.757
 31
0.0
  0
LINE
  5
F0
  8
0
 10
54.986
 20
69.757
 30
0.0
 11
54.986
 21
69.826
 31
0.0
  0
LINE
  5
F1
  8
0
 10
55.198
 20
69.263
 30
0.0
 11
55.198
 21
69.191
 31
0.0
  0
LINE
  5
F2
  8
0
 10
55.48
 20
71.945
 30
0.0
 11
55.48
 21
72.017
 31
0.0
  0
LINE
  5
F3
  8
0
 10
55.48
 20
71.945
 30
0.0
 11
55.48
 21
72.088
 31
0.0
  0
LINE
  5
F4
  8
0
 10
55.48
 20
74.205
 30
0.0
 11
55.48
 21
74.065
 31
0.0
  0
LINE
  5
F5
  8
0
 10
54.14
 20
69.332
 30
0.0
 11
54.14
 21
69.757
 31
0.0
  0
LINE
  5
F6
  8
0
 10
54.635
 20
69.263
 30
0.0
 11
54.635
 21
69.757
 31
0.0
  0
LINE
  5
F7
  8
0
 10
53.575
 20
74.205
 30
0.0
 11
53.575
 21
74.065
 31
0.0
  0
LINE
  5
F8
  8
0
 10
54.986
 20
74.205
 30
0.0
 11
54.986
 21
74.134
 31
0.0
  0
LINE
  5
F9
  8
0
 10
55.48
 20
74.065
 30
0.0
 11
55.48
 21
73.217
 31
0.0
  0
LINE
  5
FA
  8
0
 10
55.48
 20
72.794
 30
0.0
 11
55.48
 21
72.088
 31
0.0
  0
LINE
  5
FB
  8
0
 10
55.623
 20
72.088
 30
0.0
 11
55.623
 21
74.276
 31
0.0
  0
LINE
  5
FC
  8
0
 10
57.883
 20
69.403
 30
0.0
 11
58.306
 21
69.897
 31
0.0
  0
LINE
  5
FD
  8
0
 10
57.6
 20
69.897
 30
0.0
 11
57.529
 21
69.968
 31
0.0
  0
LINE
  5
FE
  8
0
 10
57.883
 20
75.053
 30
0.0
 11
57.883
 21
74.982
 31
0.0
  0
LINE
  5
FF
  8
0
 10
58.377
 20
69.968
 30
0.0
 11
58.377
 21
69.897
 31
0.0
  0
LINE
  5
100
  8
0
 10
58.446
 20
73.357
 30
0.0
 11
58.446
 21
73.428
 31
0.0
  0
LINE
  5
101
  8
0
 10
58.871
 20
72.794
 30
0.0
 11
58.871
 21
72.722
 31
0.0
  0
LINE
  5
102
  8
0
 10
58.871
 20
73.428
 30
0.0
 11
58.871
 21
73.357
 31
0.0
  0
LINE
  5
103
  8
0
 10
57.529
 20
69.968
 30
0.0
 11
57.529
 21
73.428
 31
0.0
  0
LINE
  5
104
  8
0
 10
57.883
 20
73.428
 30
0.0
 11
57.883
 21
74.982
 31
0.0
  0
LINE
  5
105
  8
0
 10
58.446
 20
73.357
 30
0.0
 11
58.446
 21
72.794
 31
0.0
  0
LINE
  5
106
  8
0
 10
58.871
 20
72.794
 30
0.0
 11
58.871
 21
73.357
 31
0.0
  0
LINE
  5
107
  8
0
 10
59.931
 20
74.628
 30
0.0
 11
59.931
 21
74.911
 31
0.0
  0
LINE
  5
108
  8
0
 10
1.906
 20
52.543
 30
0.0
 11
1.554
 21
52.543
 31
0.0
  0
LINE
  5
109
  8
0
 10
1.906
 20
53.108
 30
0.0
 11
1.554
 21
53.108
 31
0.0
  0
LINE
  5
10A
  8
0
 10
1.906
 20
59.956
 30
0.0
 11
1.554
 21
59.956
 31
0.0
  0
LINE
  5
10B
  8
0
 10
1.906
 20
60.522
 30
0.0
 11
1.554
 21
60.522
 31
0.0
  0
LINE
  5
10C
  8
0
 10
1.272
 20
62.43
 30
0.0
 11
1.272
 21
62.147
 31
0.0
  0
LINE
  5
10D
  8
0
 10
1.272
 20
50.352
 30
0.0
 11
1.272
 21
50.634
 31
0.0
  0
LINE
  5
10E
  8
0
 10
1.554
 20
63.487
 30
0.0
 11
1.554
 21
62.782
 31
0.0
  0
LINE
  5
10F
  8
0
 10
1.554
 20
61.159
 30
0.0
 11
1.554
 21
60.593
 31
0.0
  0
LINE
  5
110
  8
0
 10
1.554
 20
52.543
 30
0.0
 11
1.554
 21
51.977
 31
0.0
  0
LINE
  5
111
  8
0
 10
1.906
 20
52.543
 30
0.0
 11
1.906
 21
53.177
 31
0.0
  0
LINE
  5
112
  8
0
 10
1.906
 20
59.956
 30
0.0
 11
1.906
 21
60.593
 31
0.0
  0
LINE
  5
113
  8
0
 10
3.46
 20
62.782
 30
0.0
 11
3.46
 21
62.499
 31
0.0
  0
LINE
  5
114
  8
0
 10
3.46
 20
50.0
 30
0.0
 11
3.46
 21
50.283
 31
0.0
  0
LINE
  5
115
  8
0
 10
3.672
 20
63.487
 30
0.0
 11
3.672
 21
62.782
 31
0.0
  0
LINE
  5
116
  8
0
 10
3.672
 20
62.499
 30
0.0
 11
3.672
 21
60.593
 31
0.0
  0
LINE
  5
117
  8
0
 10
3.672
 20
59.956
 30
0.0
 11
3.672
 21
58.474
 31
0.0
  0
LINE
  5
118
  8
0
 10
3.672
 20
58.191
 30
0.0
 11
3.672
 21
54.591
 31
0.0
  0
LINE
  5
119
  8
0
 10
3.672
 20
54.308
 30
0.0
 11
3.672
 21
53.177
 31
0.0
  0
LINE
  5
11A
  8
0
 10
3.672
 20
52.543
 30
0.0
 11
3.672
 21
50.283
 31
0.0
  0
LINE
  5
11B
  8
0
 10
4.449
 20
62.782
 30
0.0
 11
4.449
 21
62.499
 31
0.0
  0
LINE
  5
11C
  8
0
 10
4.449
 20
50.0
 30
0.0
 11
4.449
 21
50.283
 31
0.0
  0
LINE
  5
11D
  8
0
 10
1.554
 20
50.0
 30
0.0
 11
4.449
 21
50.0
 31
0.0
  0
LINE
  5
11E
  8
0
 10
4.026
 20
52.543
 30
0.0
 11
1.554
 21
52.543
 31
0.0
  0
LINE
  5
11F
  8
0
 10
4.026
 20
53.177
 30
0.0
 11
1.554
 21
53.177
 31
0.0
  0
LINE
  5
120
  8
0
 10
4.026
 20
59.956
 30
0.0
 11
1.554
 21
59.956
 31
0.0
  0
LINE
  5
121
  8
0
 10
4.026
 20
60.593
 30
0.0
 11
1.554
 21
60.593
 31
0.0
  0
LINE
  5
122
  8
0
 10
1.554
 20
62.782
 30
0.0
 11
4.449
 21
62.782
 31
0.0
  0
LINE
  5
123
  8
0
 10
51.384
 20
69.12
 30
0.0
 11
57.74
 21
69.332
 31
0.0
  0
LINE
  5
124
  8
0
 10
58.377
 20
69.968
 30
0.0
 11
50.749
 21
69.686
 31
0.0
  0
LINE
  5
125
  8
0
 10
49.549
 20
71.097
 30
0.0
 11
50.538
 21
71.168
 31
0.0
  0
LINE
  5
126
  8
0
 10
48.913
 20
71.38
 30
0.0
 11
48.702
 21
71.38
 31
0.0
  0
LINE
  5
127
  8
0
 10
49.338
 20
71.522
 30
0.0
 11
48.984
 21
71.522
 31
0.0
  0
LINE
  5
128
  8
0
 10
48.702
 20
71.522
 30
0.0
 11
47.784
 21
71.451
 31
0.0
  0
LINE
  5
129
  8
0
 10
49.338
 20
71.522
 30
0.0
 11
48.984
 21
71.522
 31
0.0
  0
LINE
  5
12A
  8
0
 10
48.702
 20
71.522
 30
0.0
 11
48.067
 21
71.522
 31
0.0
  0
LINE
  5
12B
  8
0
 10
43.827
 20
71.451
 30
0.0
 11
43.971
 21
71.451
 31
0.0
  0
LINE
  5
12C
  8
0
 10
48.984
 20
71.663
 30
0.0
 11
48.844
 21
71.663
 31
0.0
  0
LINE
  5
12D
  8
0
 10
30.906
 20
71.028
 30
0.0
 11
32.034
 21
71.097
 31
0.0
  0
LINE
  5
12E
  8
0
 10
49.478
 20
71.663
 30
0.0
 11
49.338
 21
71.663
 31
0.0
  0
LINE
  5
12F
  8
0
 10
43.971
 20
71.522
 30
0.0
 11
54.492
 21
71.945
 31
0.0
  0
LINE
  5
130
  8
0
 10
54.846
 20
71.945
 30
0.0
 11
55.48
 21
72.017
 31
0.0
  0
LINE
  5
131
  8
0
 10
58.446
 20
72.722
 30
0.0
 11
58.871
 21
72.722
 31
0.0
  0
LINE
  5
132
  8
0
 10
36.625
 20
73.571
 30
0.0
 11
36.765
 21
73.571
 31
0.0
  0
LINE
  5
133
  8
0
 10
35.708
 20
73.499
 30
0.0
 11
35.848
 21
73.499
 31
0.0
  0
LINE
  5
134
  8
0
 10
58.023
 20
73.428
 30
0.0
 11
59.223
 21
73.428
 31
0.0
  0
LINE
  5
135
  8
0
 10
35.848
 20
73.428
 30
0.0
 11
36.131
 21
73.428
 31
0.0
  0
LINE
  5
136
  8
0
 10
36.765
 20
73.428
 30
0.0
 11
37.048
 21
73.428
 31
0.0
  0
LINE
  5
137
  8
0
 10
43.899
 20
73.782
 30
0.0
 11
55.48
 21
74.205
 31
0.0
  0
LINE
  5
138
  8
0
 10
35.637
 20
73.499
 30
0.0
 11
36.343
 21
73.499
 31
0.0
  0
LINE
  5
139
  8
0
 10
36.554
 20
73.571
 30
0.0
 11
37.26
 21
73.571
 31
0.0
  0
LINE
  5
13A
  8
0
 10
37.614
 20
73.571
 30
0.0
 11
35.283
 21
73.499
 31
0.0
  0
LINE
  5
13B
  8
0
 10
60.0
 20
74.417
 30
0.0
 11
59.931
 21
74.417
 31
0.0
  0
LINE
  5
13C
  8
0
 10
48.844
 20
73.994
 30
0.0
 11
48.772
 21
73.994
 31
0.0
  0
LINE
  5
13D
  8
0
 10
43.759
 20
73.853
 30
0.0
 11
43.827
 21
73.853
 31
0.0
  0
LINE
  5
13E
  8
0
 10
37.614
 20
73.782
 30
0.0
 11
37.12
 21
73.711
 31
0.0
  0
LINE
  5
13F
  8
0
 10
36.697
 20
73.711
 30
0.0
 11
36.202
 21
73.64
 31
0.0
  0
LINE
  5
140
  8
0
 10
35.777
 20
73.64
 30
0.0
 11
35.214
 21
73.64
 31
0.0
  0
LINE
  5
141
  8
0
 10
59.931
 20
74.628
 30
0.0
 11
59.86
 21
74.628
 31
0.0
  0
LINE
  5
142
  8
0
 10
48.844
 20
74.205
 30
0.0
 11
48.913
 21
74.205
 31
0.0
  0
LINE
  5
143
  8
0
 10
36.837
 20
74.134
 30
0.0
 11
35.989
 21
74.065
 31
0.0
  0
LINE
  5
144
  8
0
 10
59.931
 20
74.911
 30
0.0
 11
59.86
 21
74.911
 31
0.0
  0
LINE
  5
145
  8
0
 10
48.844
 20
74.559
 30
0.0
 11
48.913
 21
74.559
 31
0.0
  0
LINE
  5
146
  8
0
 10
48.844
 20
74.699
 30
0.0
 11
48.772
 21
74.699
 31
0.0
  0
LINE
  5
147
  8
0
 10
59.931
 20
75.053
 30
0.0
 11
60.0
 21
75.053
 31
0.0
  0
LINE
  5
148
  8
0
 10
48.844
 20
74.842
 30
0.0
 11
48.702
 21
74.842
 31
0.0
  0
LINE
  5
149
  8
0
 10
59.931
 20
75.194
 30
0.0
 11
60.0
 21
75.194
 31
0.0
  0
LINE
  5
14A
  8
0
 10
48.702
 20
75.265
 30
0.0
 11
48.844
 21
75.265
 31
0.0
  0
LINE
  5
14B
  8
0
 10
48.702
 20
75.336
 30
0.0
 11
48.844
 21
75.336
 31
0.0
  0
LINE
  5
14C
  8
0
 10
49.549
 20
75.476
 30
0.0
 11
59.154
 21
75.759
 31
0.0
  0
LINE
  5
14D
  8
0
 10
49.196
 20
75.619
 30
0.0
 11
49.478
 21
75.619
 31
0.0
  0
LINE
  5
14E
  8
0
 10
59.223
 20
75.971
 30
0.0
 11
59.506
 21
75.971
 31
0.0
  0
LINE
  5
14F
  8
0
 10
36.272
 20
73.499
 30
0.0
 11
36.131
 21
73.499
 31
0.0
  0
LINE
  5
150
  8
0
 10
37.191
 20
73.571
 30
0.0
 11
37.048
 21
73.571
 31
0.0
  0
LINE
  5
151
  8
0
 10
36.98
 20
75.476
 30
0.0
 11
36.485
 21
75.405
 31
0.0
  0
LINE
  5
152
  8
0
 10
36.272
 20
75.405
 30
0.0
 11
36.202
 21
75.405
 31
0.0
  0
LINE
  5
153
  8
0
 10
35.989
 20
75.405
 30
0.0
 11
35.777
 21
75.405
 31
0.0
  0
LINE
  5
154
  8
0
 10
36.625
 20
74.911
 30
0.0
 11
37.474
 21
74.699
 31
0.0
  0
LINE
  5
155
  8
0
 10
36.697
 20
75.053
 30
0.0
 11
37.543
 21
74.842
 31
0.0
  0
LINE
  5
156
  8
0
 10
36.554
 20
74.842
 30
0.0
 11
36.131
 21
75.122
 31
0.0
  0
LINE
  5
157
  8
0
 10
36.625
 20
74.911
 30
0.0
 11
36.202
 21
75.265
 31
0.0
  0
LINE
  5
158
  8
0
 10
32.034
 20
71.097
 30
0.0
 11
32.034
 21
71.168
 31
0.0
  0
LINE
  5
159
  8
0
 10
42.556
 20
71.522
 30
0.0
 11
42.699
 21
71.451
 31
0.0
  0
LINE
  5
15A
  8
0
 10
40.579
 20
73.571
 30
0.0
 11
40.439
 21
73.64
 31
0.0
  0
LINE
  5
15B
  8
0
 10
43.759
 20
71.451
 30
0.0
 11
43.827
 21
71.451
 31
0.0
  0
LINE
  5
15C
  8
0
 10
37.191
 20
74.134
 30
0.0
 11
36.554
 21
74.842
 31
0.0
  0
LINE
  5
15D
  8
0
 10
37.26
 20
74.205
 30
0.0
 11
36.625
 21
74.911
 31
0.0
  0
LINE
  5
15E
  8
0
 10
35.214
 20
73.571
 30
0.0
 11
35.214
 21
74.911
 31
0.0
  0
LINE
  5
15F
  8
0
 10
35.283
 20
73.499
 30
0.0
 11
35.283
 21
73.571
 31
0.0
  0
LINE
  5
160
  8
0
 10
35.425
 20
73.499
 30
0.0
 11
35.425
 21
73.571
 31
0.0
  0
LINE
  5
161
  8
0
 10
35.637
 20
73.428
 30
0.0
 11
35.637
 21
73.499
 31
0.0
  0
LINE
  5
162
  8
0
 10
35.777
 20
73.571
 30
0.0
 11
35.777
 21
73.64
 31
0.0
  0
LINE
  5
163
  8
0
 10
35.989
 20
73.782
 30
0.0
 11
35.92
 21
73.782
 31
0.0
  0
LINE
  5
164
  8
0
 10
35.989
 20
73.782
 30
0.0
 11
35.989
 21
74.065
 31
0.0
  0
LINE
  5
165
  8
0
 10
36.343
 20
73.428
 30
0.0
 11
36.343
 21
73.499
 31
0.0
  0
LINE
  5
166
  8
0
 10
36.272
 20
75.83
 30
0.0
 11
36.343
 21
75.336
 31
0.0
  0
LINE
  5
167
  8
0
 10
36.343
 20
75.053
 30
0.0
 11
36.343
 21
74.348
 31
0.0
  0
LINE
  5
168
  8
0
 10
36.485
 20
73.711
 30
0.0
 11
36.485
 21
74.065
 31
0.0
  0
LINE
  5
169
  8
0
 10
36.485
 20
75.83
 30
0.0
 11
36.485
 21
75.265
 31
0.0
  0
LINE
  5
16A
  8
0
 10
36.485
 20
74.911
 30
0.0
 11
36.554
 21
74.348
 31
0.0
  0
LINE
  5
16B
  8
0
 10
36.554
 20
73.428
 30
0.0
 11
36.554
 21
73.571
 31
0.0
  0
LINE
  5
16C
  8
0
 10
53.998
 20
72.794
 30
0.0
 11
54.42
 21
72.582
 31
0.0
  0
LINE
  5
16D
  8
0
 10
52.233
 20
74.205
 30
0.0
 11
52.444
 21
74.065
 31
0.0
  0
LINE
  5
16E
  8
0
 10
54.846
 20
73.288
 30
0.0
 11
54.42
 21
73.499
 31
0.0
  0
LINE
  5
16F
  8
0
 10
43.899
 20
73.853
 30
0.0
 11
43.827
 21
73.853
 31
0.0
  0
LINE
  5
170
  8
0
 10
50.678
 20
69.614
 30
0.0
 11
51.244
 21
69.12
 31
0.0
  0
LINE
  5
171
  8
0
 10
36.908
 20
73.782
 30
0.0
 11
36.837
 21
74.134
 31
0.0
  0
LINE
  5
172
  8
0
 10
37.26
 20
73.428
 30
0.0
 11
37.26
 21
73.571
 31
0.0
  0
LINE
  5
173
  8
0
 10
37.614
 20
75.053
 30
0.0
 11
37.614
 21
74.842
 31
0.0
  0
LINE
  5
174
  8
0
 10
37.685
 20
74.842
 30
0.0
 11
37.754
 21
73.711
 31
0.0
  0
LINE
  5
175
  8
0
 10
43.687
 20
73.853
 30
0.0
 11
43.758
 21
73.853
 31
0.0
  0
LINE
  5
176
  8
0
 10
52.586
 20
74.065
 30
0.0
 11
52.727
 21
74.134
 31
0.0
  0
LINE
  5
177
  8
0
 10
43.759
 20
71.451
 30
0.0
 11
43.687
 21
73.853
 31
0.0
  0
LINE
  5
178
  8
0
 10
43.827
 20
71.451
 30
0.0
 11
43.758
 21
73.853
 31
0.0
  0
LINE
  5
179
  8
0
 10
54.42
 20
73.499
 30
0.0
 11
53.998
 21
73.217
 31
0.0
  0
LINE
  5
17A
  8
0
 10
54.42
 20
72.582
 30
0.0
 11
54.846
 21
72.794
 31
0.0
  0
LINE
  5
17B
  8
0
 10
49.267
 20
73.994
 30
0.0
 11
49.267
 21
74.699
 31
0.0
  0
LINE
  5
17C
  8
0
 10
47.995
 20
71.451
 30
0.0
 11
47.995
 21
71.663
 31
0.0
  0
LINE
  5
17D
  8
0
 10
48.067
 20
71.451
 30
0.0
 11
48.067
 21
71.522
 31
0.0
  0
LINE
  5
17E
  8
0
 10
48.913
 20
71.38
 30
0.0
 11
48.844
 21
71.734
 31
0.0
  0
LINE
  5
17F
  8
0
 10
48.844
 20
73.994
 30
0.0
 11
48.844
 21
74.842
 31
0.0
  0
LINE
  5
180
  8
0
 10
48.844
 20
75.265
 30
0.0
 11
48.844
 21
75.336
 31
0.0
  0
LINE
  5
181
  8
0
 10
48.844
 20
75.476
 30
0.0
 11
48.844
 21
75.336
 31
0.0
  0
LINE
  5
182
  8
0
 10
48.984
 20
71.522
 30
0.0
 11
48.984
 21
71.734
 31
0.0
  0
LINE
  5
183
  8
0
 10
48.844
 20
75.476
 30
0.0
 11
48.844
 21
75.336
 31
0.0
  0
LINE
  5
184
  8
0
 10
48.913
 20
74.559
 30
0.0
 11
48.913
 21
74.205
 31
0.0
  0
LINE
  5
185
  8
0
 10
49.338
 20
71.522
 30
0.0
 11
49.338
 21
71.734
 31
0.0
  0
LINE
  5
186
  8
0
 10
49.478
 20
71.734
 30
0.0
 11
49.478
 21
71.168
 31
0.0
  0
LINE
  5
187
  8
0
 10
49.124
 20
75.548
 30
0.0
 11
49.124
 21
75.476
 31
0.0
  0
LINE
  5
188
  8
0
 10
49.549
 20
75.548
 30
0.0
 11
49.549
 21
75.476
 31
0.0
  0
LINE
  5
189
  8
0
 10
50.678
 20
69.686
 30
0.0
 11
50.609
 21
71.097
 31
0.0
  0
LINE
  5
18A
  8
0
 10
52.02
 20
74.417
 30
0.0
 11
52.02
 21
74.559
 31
0.0
  0
LINE
  5
18B
  8
0
 10
49.761
 20
68.98
 30
0.0
 11
49.761
 21
71.097
 31
0.0
  0
LINE
  5
18C
  8
0
 10
49.972
 20
68.98
 30
0.0
 11
49.901
 21
71.097
 31
0.0
  0
LINE
  5
18D
  8
0
 10
53.22
 20
74.205
 30
0.0
 11
53.22
 21
74.065
 31
0.0
  0
LINE
  5
18E
  8
0
 10
53.927
 20
74.134
 30
0.0
 11
53.927
 21
74.205
 31
0.0
  0
LINE
  5
18F
  8
0
 10
54.352
 20
69.263
 30
0.0
 11
54.28
 21
69.757
 31
0.0
  0
LINE
  5
190
  8
0
 10
54.986
 20
69.757
 30
0.0
 11
54.986
 21
69.403
 31
0.0
  0
LINE
  5
191
  8
0
 10
53.149
 20
74.065
 30
0.0
 11
53.149
 21
74.205
 31
0.0
  0
LINE
  5
192
  8
0
 10
53.998
 20
73.217
 30
0.0
 11
53.998
 21
72.794
 31
0.0
  0
LINE
  5
193
  8
0
 10
54.42
 20
73.499
 30
0.0
 11
54.42
 21
73.428
 31
0.0
  0
LINE
  5
194
  8
0
 10
54.846
 20
72.794
 30
0.0
 11
54.846
 21
73.288
 31
0.0
  0
LINE
  5
195
  8
0
 10
54.14
 20
69.332
 30
0.0
 11
54.14
 21
69.757
 31
0.0
  0
LINE
  5
196
  8
0
 10
54.846
 20
69.263
 30
0.0
 11
54.775
 21
69.757
 31
0.0
  0
LINE
  5
197
  8
0
 10
53.575
 20
74.205
 30
0.0
 11
53.575
 21
74.065
 31
0.0
  0
LINE
  5
198
  8
0
 10
54.915
 20
74.205
 30
0.0
 11
54.915
 21
74.134
 31
0.0
  0
LINE
  5
199
  8
0
 10
55.623
 20
74.276
 30
0.0
 11
55.623
 21
72.088
 31
0.0
  0
LINE
  5
19A
  8
0
 10
57.883
 20
69.332
 30
0.0
 11
58.377
 21
69.968
 31
0.0
  0
LINE
  5
19B
  8
0
 10
58.446
 20
69.968
 30
0.0
 11
58.446
 21
73.357
 31
0.0
  0
LINE
  5
19C
  8
0
 10
58.94
 20
72.794
 30
0.0
 11
58.94
 21
73.357
 31
0.0
  0
LINE
  5
19D
  8
0
 10
59.86
 20
74.628
 30
0.0
 11
59.86
 21
74.911
 31
0.0
  0
LINE
  5
19E
  8
0
 10
59.86
 20
75.83
 30
0.0
 11
59.86
 21
75.759
 31
0.0
  0
LINE
  5
19F
  8
0
 10
59.86
 20
75.83
 30
0.0
 11
59.86
 21
75.759
 31
0.0
  0
LINE
  5
1A0
  8
0
 10
59.931
 20
74.417
 30
0.0
 11
59.931
 21
75.194
 31
0.0
  0
LINE
  5
1A1
  8
0
 10
59.223
 20
73.499
 30
0.0
 11
59.223
 21
75.053
 31
0.0
  0
LINE
  5
1A2
  8
0
 10
59.154
 20
75.899
 30
0.0
 11
59.154
 21
75.759
 31
0.0
  0
LINE
  5
1A3
  8
0
 10
59.577
 20
75.899
 30
0.0
 11
59.577
 21
75.83
 31
0.0
  0
LINE
  5
1A4
  8
0
 10
36.06
 20
73.782
 30
0.0
 11
35.989
 21
73.782
 31
0.0
  0
LINE
  5
1A5
  8
0
 10
36.131
 20
73.711
 30
0.0
 11
36.131
 21
73.782
 31
0.0
  0
LINE
  5
1A6
  8
0
 10
37.048
 20
73.782
 30
0.0
 11
36.98
 21
73.782
 31
0.0
  0
LINE
  5
1A7
  8
0
 10
36.837
 20
73.782
 30
0.0
 11
36.765
 21
73.782
 31
0.0
  0
LINE
  5
1A8
  8
0
 10
36.131
 20
73.782
 30
0.0
 11
36.06
 21
73.782
 31
0.0
  0
LINE
  5
1A9
  8
0
 10
35.92
 20
73.782
 30
0.0
 11
35.848
 21
73.711
 31
0.0
  0
LINE
  5
1AA
  8
0
 10
50.678
 20
69.686
 30
0.0
 11
50.678
 21
69.614
 31
0.0
  0
LINE
  5
1AB
  8
0
 10
54.352
 20
69.263
 30
0.0
 11
54.352
 21
69.191
 31
0.0
  0
LINE
  5
1AC
  8
0
 10
58.377
 20
69.968
 30
0.0
 11
58.446
 21
69.968
 31
0.0
  0
LINE
  5
1AD
  8
0
 10
59.223
 20
73.428
 30
0.0
 11
59.223
 21
73.499
 31
0.0
  0
LINE
  5
1AE
  8
0
 10
58.446
 20
73.428
 30
0.0
 11
58.446
 21
73.357
 31
0.0
  0
LINE
  5
1AF
  8
0
 10
52.161
 20
74.205
 30
0.0
 11
52.233
 21
74.205
 31
0.0
  0
LINE
  5
1B0
  8
0
 10
59.577
 20
75.899
 30
0.0
 11
59.506
 21
75.971
 31
0.0
  0
LINE
  5
1B1
  8
0
 10
59.931
 20
74.911
 30
0.0
 11
59.931
 21
74.982
 31
0.0
  0
LINE
  5
1B2
  8
0
 10
59.931
 20
74.559
 30
0.0
 11
59.931
 21
74.628
 31
0.0
  0
LINE
  5
1B3
  8
0
 10
48.844
 20
74.628
 30
0.0
 11
48.844
 21
74.559
 31
0.0
  0
LINE
  5
1B4
  8
0
 10
52.02
 20
74.417
 30
0.0
 11
52.02
 21
74.559
 31
0.0
  0
LINE
  5
1B5
  8
0
 10
0.0
 20
50.634
 30
0.0
 11
0.0
 21
62.147
 31
0.0
  0
LINE
  5
1B6
  8
0
 10
1.554
 20
62.43
 30
0.0
 11
1.554
 21
61.159
 31
0.0
  0
LINE
  5
1B7
  8
0
 10
1.554
 20
60.593
 30
0.0
 11
1.554
 21
52.543
 31
0.0
  0
LINE
  5
1B8
  8
0
 10
1.554
 20
50.352
 30
0.0
 11
1.554
 21
51.977
 31
0.0
  0
LINE
  5
1B9
  8
0
 10
1.554
 20
50.283
 30
0.0
 11
4.449
 21
50.283
 31
0.0
  0
LINE
  5
1BA
  8
0
 10
1.554
 20
50.634
 30
0.0
 11
0.0
 21
50.634
 31
0.0
  0
LINE
  5
1BB
  8
0
 10
1.554
 20
62.147
 30
0.0
 11
0.0
 21
62.147
 31
0.0
  0
LINE
  5
1BC
  8
0
 10
1.554
 20
62.499
 30
0.0
 11
4.449
 21
62.499
 31
0.0
  0
LINE
  5
1BD
  8
0
 10
52.444
 20
74.134
 30
0.0
 11
56.329
 21
74.276
 31
0.0
  0
LINE
  5
1BE
  8
0
 10
35.214
 20
73.571
 30
0.0
 11
37.614
 21
73.64
 31
0.0
  0
LINE
  5
1BF
  8
0
 10
59.789
 20
75.053
 30
0.0
 11
57.106
 21
74.982
 31
0.0
  0
LINE
  5
1C0
  8
0
 10
48.913
 20
74.699
 30
0.0
 11
51.667
 21
74.842
 31
0.0
  0
LINE
  5
1C1
  8
0
 10
48.844
 20
75.476
 30
0.0
 11
59.86
 21
75.83
 31
0.0
  0
LINE
  5
1C2
  8
0
 10
37.685
 20
73.711
 30
0.0
 11
37.614
 21
74.842
 31
0.0
  0
LINE
  5
1C3
  8
0
 10
48.844
 20
74.842
 30
0.0
 11
48.913
 21
74.699
 31
0.0
  0
LINE
  5
1C4
  8
0
 10
48.772
 20
73.994
 30
0.0
 11
48.702
 21
75.336
 31
0.0
  0
LINE
  5
1C5
  8
0
 10
48.844
 20
74.842
 30
0.0
 11
48.844
 21
75.265
 31
0.0
  0
LINE
  5
1C6
  8
0
 10
60.0
 20
74.417
 30
0.0
 11
59.931
 21
75.688
 31
0.0
  0
LINE
  5
1C7
  8
0
 10
1.554
 20
62.499
 30
0.0
 11
1.554
 21
62.43
 31
0.0
  0
LINE
  5
1C8
  8
0
 10
1.554
 20
50.352
 30
0.0
 11
1.554
 21
50.283
 31
0.0
  0
LINE
  5
1C9
  8
0
 10
48.844
 20
75.265
 30
0.0
 11
48.844
 21
75.336
 31
0.0
  0
LINE
  5
1CA
  8
0
 10
59.86
 20
75.688
 30
0.0
 11
59.931
 21
75.688
 31
0.0
  0
LINE
  5
1CB
  8
0
 10
48.844
 20
75.336
 30
0.0
 11
48.913
 21
75.336
 31
0.0
  0
LINE
  5
1CC
  8
0
 10
55.057
 20
69.403
 30
0.0
 11
54.986
 21
69.403
 31
0.0
  0
LINE
  5
1CD
  8
0
 10
57.883
 20
69.403
 30
0.0
 11
57.883
 21
69.332
 31
0.0
  0
LINE
  5
1CE
  8
0
 10
58.377
 20
69.968
 30
0.0
 11
58.446
 21
69.968
 31
0.0
  0
LINE
  5
1CF
  8
0
 10
50.749
 20
69.614
 30
0.0
 11
50.678
 21
69.614
 31
0.0
  0
LINE
  5
1D0
  8
0
 10
58.871
 20
73.357
 30
0.0
 11
58.94
 21
73.357
 31
0.0
  0
LINE
  5
1D1
  8
0
 10
58.94
 20
72.794
 30
0.0
 11
58.871
 21
72.794
 31
0.0
  0
LINE
  5
1D2
  8
0
 10
58.446
 20
72.722
 30
0.0
 11
58.446
 21
72.794
 31
0.0
  0
LINE
  5
1D3
  8
0
 10
49.549
 20
71.097
 30
0.0
 11
49.549
 21
71.734
 31
0.0
  0
LINE
  5
1D4
  8
0
 10
57.883
 20
73.428
 30
0.0
 11
57.883
 21
73.357
 31
0.0
  0
LINE
  5
1D5
  8
0
 10
58.023
 20
73.357
 30
0.0
 11
58.023
 21
73.428
 31
0.0
  0
LINE
  5
1D6
  8
0
 10
50.678
 20
69.757
 30
0.0
 11
50.678
 21
69.686
 31
0.0
  0
LINE
  5
1D7
  8
0
 10
55.48
 20
74.276
 30
0.0
 11
55.48
 21
74.205
 31
0.0
  0
LINE
  5
1D8
  8
0
 10
53.292
 20
74.205
 30
0.0
 11
53.292
 21
74.065
 31
0.0
  0
LINE
  5
1D9
  8
0
 10
51.949
 20
74.417
 30
0.0
 11
52.02
 21
74.417
 31
0.0
  0
LINE
  5
1DA
  8
0
 10
50.678
 20
69.757
 30
0.0
 11
50.678
 21
69.686
 31
0.0
  0
LINE
  5
1DB
  8
0
 10
36.554
 20
74.842
 30
0.0
 11
36.625
 21
74.842
 31
0.0
  0
LINE
  5
1DC
  8
0
 10
36.625
 20
74.842
 30
0.0
 11
36.625
 21
74.911
 31
0.0
  0
LINE
  5
1DD
  8
0
 10
10.311
 20
72.529
 30
0.0
 11
43.692
 21
73.714
 31
0.0
  0
LINE
  5
1DE
  8
0
 10
10.382
 20
70.409
 30
0.0
 11
43.754
 21
71.594
 31
0.0
  0
POLYLINE
  5
1DF
  8
0
 66
1
 10
0.0
 20
0.0
 30
0.0
 70
0
  0
VERTEX
  5
1E1
  8
0
 10
54.28
 20
69.757
 30
0.0
 70
0
  0
VERTEX
  5
1E2
  8
0
 10
54.14
 20
69.757
 30
0.0
 70
0
  0
VERTEX
  5
1E3
  8
0
 10
50.749
 20
69.614
 30
0.0
 70
0
  0
SEQEND
  5
1E0
  8
0
  0
POLYLINE
  5
1E4
  8
0
 66
1
 10
0.0
 20
0.0
 30
0.0
 70
0
  0
VERTEX
  5
1E6
  8
0
 10
51.244
 20
69.12
 30
0.0
 70
0
  0
VERTEX
  5
1E7
  8
0
 10
51.315
 20
69.12
 30
0.0
 70
0
  0
VERTEX
  5
1E8
  8
0
 10
51.384
 20
69.12
 30
0.0
 70
0
  0
SEQEND
  5
1E5
  8
0
  0
POLYLINE
  5
1E9
  8
0
 66
1
 10
0.0
 20
0.0
 30
0.0
 70
0
  0
VERTEX
  5
1EB
  8
0
 10
50.678
 20
69.686
 30
0.0
 70
0
  0
VERTEX
  5
1EC
  8
0
 10
50.749
 20
69.686
 30
0.0
 70
0
  0
VERTEX
  5
1ED
  8
0
 10
50.749
 20
69.614
 30
0.0
 70
0
  0
SEQEND
  5
1EA
  8
0
  0
POLYLINE
  5
1EE
  8
0
 66
1
 10
0.0
 20
0.0
 30
0.0
 70
0
  0
VERTEX
  5
1F0
  8
0
 10
55.057
 20
69.403
 30
0.0
 70
0
  0
VERTEX
  5
1F1
  8
0
 10
55.057
 20
69.332
 30
0.0
 70
0
  0
VERTEX
  5
1F2
  8
0
 10
55.057
 20
69.263
 30
0.0
 70
0
  0
VERTEX
  5
1F3
  8
0
 10
55.129
 20
69.263
 30
0.0
 70
0
  0
VERTEX
  5
1F4
  8
0
 10
55.198
 20
69.263
 30
0.0
 70
0
  0
SEQEND
  5
1EF
  8
0
  0
POLYLINE
  5
1F5
  8
0
 66
1
 10
0.0
 20
0.0
 30
0.0
 70
0
  0
VERTEX
  5
1F7
  8
0
 10
53.927
 20
69.191
 30
0.0
 70
0
  0
VERTEX
  5
1F8
  8
0
 10
53.998
 20
69.191
 30
0.0
 70
0
  0
VERTEX
  5
1F9
  8
0
 10
54.069
 20
69.191
 30
0.0
 70
0
  0
VERTEX
  5
1FA
  8
0
 10
54.069
 20
69.263
 30
0.0
 70
0
  0
VERTEX
  5
1FB
  8
0
 10
54.14
 20
69.332
 30
0.0
 70
0
  0
SEQEND
  5
1F6
  8
0
  0
POLYLINE
  5
1FC
  8
0
 66
1
 10
0.0
 20
0.0
 30
0.0
 70
0
  0
VERTEX
  5
1FE
  8
0
 10
57.74
 20
69.332
 30
0.0
 70
0
  0
VERTEX
  5
1FF
  8
0
 10
57.812
 20
69.332
 30
0.0
 70
0
  0
VERTEX
  5
200
  8
0
 10
57.812
 20
69.403
 30
0.0
 70
0
  0
VERTEX
  5
201
  8
0
 10
57.882
 20
69.403
 30
0.0
 70
0
  0
SEQEND
  5
1FD
  8
0
  0
POLYLINE
  5
202
  8
0
 66
1
 10
0.0
 20
0.0
 30
0.0
 70
0
  0
VERTEX
  5
204
  8
0
 10
55.48
 20
71.945
 30
0.0
 70
0
  0
VERTEX
  5
205
  8
0
 10
55.551
 20
71.945
 30
0.0
 70
0
  0
VERTEX
  5
206
  8
0
 10
55.623
 20
71.945
 30
0.0
 70
0
  0
VERTEX
  5
207
  8
0
 10
55.623
 20
72.017
 30
0.0
 70
0
  0
VERTEX
  5
208
  8
0
 10
55.623
 20
72.088
 30
0.0
 70
0
  0
SEQEND
  5
203
  8
0
  0
POLYLINE
  5
209
  8
0
 66
1
 10
0.0
 20
0.0
 30
0.0
 70
0
  0
VERTEX
  5
20B
  8
0
 10
55.34
 20
72.017
 30
0.0
 70
0
  0
VERTEX
  5
20C
  8
0
 10
55.409
 20
71.945
 30
0.0
 70
0
  0
VERTEX
  5
20D
  8
0
 10
55.48
 20
71.945
 30
0.0
 70
0
  0
SEQEND
  5
20A
  8
0
  0
POLYLINE
  5
20E
  8
0
 66
1
 10
0.0
 20
0.0
 30
0.0
 70
0
  0
VERTEX
  5
210
  8
0
 10
57.883
 20
73.428
 30
0.0
 70
0
  0
VERTEX
  5
211
  8
0
 10
57.951
 20
73.428
 30
0.0
 70
0
  0
VERTEX
  5
212
  8
0
 10
58.023
 20
73.428
 30
0.0
 70
0
  0
SEQEND
  5
20F
  8
0
  0
POLYLINE
  5
213
  8
0
 66
1
 10
0.0
 20
0.0
 30
0.0
 70
0
  0
VERTEX
  5
215
  8
0
 10
51.949
 20
74.417
 30
0.0
 70
0
  0
VERTEX
  5
216
  8
0
 10
51.949
 20
74.348
 30
0.0
 70
0
  0
VERTEX
  5
217
  8
0
 10
52.02
 20
74.276
 30
0.0
 70
0
  0
VERTEX
  5
218
  8
0
 10
52.02
 20
74.205
 30
0.0
 70
0
  0
VERTEX
  5
219
  8
0
 10
52.092
 20
74.134
 30
0.0
 70
0
  0
VERTEX
  5
21A
  8
0
 10
52.092
 20
74.065
 30
0.0
 70
0
  0
SEQEND
  5
214
  8
0
  0
POLYLINE
  5
21B
  8
0
 66
1
 10
0.0
 20
0.0
 30
0.0
 70
0
  0
VERTEX
  5
21D
  8
0
 10
48.984
 20
67.355
 30
0.0
 70
0
  0
VERTEX
  5
21E
  8
0
 10
49.055
 20
67.355
 30
0.0
 70
0
  0
VERTEX
  5
21F
  8
0
 10
49.124
 20
67.355
 30
0.0
 70
0
  0
VERTEX
  5
220
  8
0
 10
49.196
 20
67.355
 30
0.0
 70
0
  0
VERTEX
  5
221
  8
0
 10
49.267
 20
67.426
 30
0.0
 70
0
  0
VERTEX
  5
222
  8
0
 10
49.338
 20
67.426
 30
0.0
 70
0
  0
VERTEX
  5
223
  8
0
 10
49.478
 20
67.426
 30
0.0
 70
0
  0
VERTEX
  5
224
  8
0
 10
49.478
 20
67.497
 30
0.0
 70
0
  0
VERTEX
  5
225
  8
0
 10
49.549
 20
67.566
 30
0.0
 70
0
  0
VERTEX
  5
226
  8
0
 10
49.618
 20
67.566
 30
0.0
 70
0
  0
VERTEX
  5
227
  8
0
 10
49.618
 20
67.637
 30
0.0
 70
0
  0
VERTEX
  5
228
  8
0
 10
49.689
 20
67.637
 30
0.0
 70
0
  0
VERTEX
  5
229
  8
0
 10
49.689
 20
67.709
 30
0.0
 70
0
  0
VERTEX
  5
22A
  8
0
 10
49.761
 20
67.78
 30
0.0
 70
0
  0
VERTEX
  5
22B
  8
0
 10
49.761
 20
67.849
 30
0.0
 70
0
  0
VERTEX
  5
22C
  8
0
 10
49.833
 20
67.92
 30
0.0
 70
0
  0
VERTEX
  5
22D
  8
0
 10
49.833
 20
67.991
 30
0.0
 70
0
  0
VERTEX
  5
22E
  8
0
 10
49.901
 20
67.991
 30
0.0
 70
0
  0
VERTEX
  5
22F
  8
0
 10
49.901
 20
68.203
 30
0.0
 70
0
  0
VERTEX
  5
230
  8
0
 10
49.972
 20
68.274
 30
0.0
 70
0
  0
VERTEX
  5
231
  8
0
 10
49.972
 20
68.98
 30
0.0
 70
0
  0
SEQEND
  5
21C
  8
0
  0
POLYLINE
  5
232
  8
0
 66
1
 10
0.0
 20
0.0
 30
0.0
 70
0
  0
VERTEX
  5
234
  8
0
 10
48.984
 20
67.566
 30
0.0
 70
0
  0
VERTEX
  5
235
  8
0
 10
48.913
 20
67.566
 30
0.0
 70
0
  0
VERTEX
  5
236
  8
0
 10
48.561
 20
67.566
 30
0.0
 70
0
  0
VERTEX
  5
237
  8
0
 10
48.489
 20
67.637
 30
0.0
 70
0
  0
VERTEX
  5
238
  8
0
 10
48.278
 20
67.637
 30
0.0
 70
0
  0
VERTEX
  5
239
  8
0
 10
48.207
 20
67.709
 30
0.0
 70
0
  0
VERTEX
  5
23A
  8
0
 10
48.136
 20
67.78
 30
0.0
 70
0
  0
VERTEX
  5
23B
  8
0
 10
48.067
 20
67.78
 30
0.0
 70
0
  0
VERTEX
  5
23C
  8
0
 10
47.924
 20
67.849
 30
0.0
 70
0
  0
VERTEX
  5
23D
  8
0
 10
47.853
 20
67.849
 30
0.0
 70
0
  0
VERTEX
  5
23E
  8
0
 10
47.713
 20
67.92
 30
0.0
 70
0
  0
VERTEX
  5
23F
  8
0
 10
47.641
 20
67.991
 30
0.0
 70
0
  0
VERTEX
  5
240
  8
0
 10
47.502
 20
68.06
 30
0.0
 70
0
  0
VERTEX
  5
241
  8
0
 10
47.358
 20
68.06
 30
0.0
 70
0
  0
VERTEX
  5
242
  8
0
 10
47.289
 20
68.132
 30
0.0
 70
0
  0
VERTEX
  5
243
  8
0
 10
47.147
 20
68.274
 30
0.0
 70
0
  0
VERTEX
  5
244
  8
0
 10
47.007
 20
68.274
 30
0.0
 70
0
  0
VERTEX
  5
245
  8
0
 10
46.936
 20
68.343
 30
0.0
 70
0
  0
VERTEX
  5
246
  8
0
 10
46.795
 20
68.486
 30
0.0
 70
0
  0
VERTEX
  5
247
  8
0
 10
46.653
 20
68.557
 30
0.0
 70
0
  0
VERTEX
  5
248
  8
0
 10
46.513
 20
68.626
 30
0.0
 70
0
  0
VERTEX
  5
249
  8
0
 10
46.37
 20
68.768
 30
0.0
 70
0
  0
VERTEX
  5
24A
  8
0
 10
46.158
 20
68.837
 30
0.0
 70
0
  0
VERTEX
  5
24B
  8
0
 10
46.087
 20
68.98
 30
0.0
 70
0
  0
VERTEX
  5
24C
  8
0
 10
45.876
 20
69.051
 30
0.0
 70
0
  0
VERTEX
  5
24D
  8
0
 10
45.736
 20
69.191
 30
0.0
 70
0
  0
VERTEX
  5
24E
  8
0
 10
45.593
 20
69.332
 30
0.0
 70
0
  0
VERTEX
  5
24F
  8
0
 10
45.453
 20
69.403
 30
0.0
 70
0
  0
VERTEX
  5
250
  8
0
 10
45.241
 20
69.545
 30
0.0
 70
0
  0
VERTEX
  5
251
  8
0
 10
45.03
 20
69.757
 30
0.0
 70
0
  0
VERTEX
  5
252
  8
0
 10
44.887
 20
69.826
 30
0.0
 70
0
  0
VERTEX
  5
253
  8
0
 10
44.676
 20
70.04
 30
0.0
 70
0
  0
VERTEX
  5
254
  8
0
 10
44.464
 20
70.18
 30
0.0
 70
0
  0
VERTEX
  5
255
  8
0
 10
44.253
 20
70.322
 30
0.0
 70
0
  0
VERTEX
  5
256
  8
0
 10
44.11
 20
70.463
 30
0.0
 70
0
  0
VERTEX
  5
257
  8
0
 10
43.971
 20
70.603
 30
0.0
 70
0
  0
VERTEX
  5
258
  8
0
 10
43.758
 20
70.817
 30
0.0
 70
0
  0
VERTEX
  5
259
  8
0
 10
43.616
 20
70.886
 30
0.0
 70
0
  0
VERTEX
  5
25A
  8
0
 10
43.476
 20
71.028
 30
0.0
 70
0
  0
VERTEX
  5
25B
  8
0
 10
43.334
 20
71.168
 30
0.0
 70
0
  0
VERTEX
  5
25C
  8
0
 10
43.193
 20
71.311
 30
0.0
 70
0
  0
VERTEX
  5
25D
  8
0
 10
42.982
 20
71.451
 30
0.0
 70
0
  0
VERTEX
  5
25E
  8
0
 10
42.91
 20
71.522
 30
0.0
 70
0
  0
VERTEX
  5
25F
  8
0
 10
42.839
 20
71.522
 30
0.0
 70
0
  0
SEQEND
  5
233
  8
0
  0
POLYLINE
  5
260
  8
0
 66
1
 10
0.0
 20
0.0
 30
0.0
 70
0
  0
VERTEX
  5
262
  8
0
 10
42.699
 20
71.451
 30
0.0
 70
0
  0
VERTEX
  5
263
  8
0
 10
42.771
 20
71.38
 30
0.0
 70
0
  0
VERTEX
  5
264
  8
0
 10
42.91
 20
71.24
 30
0.0
 70
0
  0
VERTEX
  5
265
  8
0
 10
42.982
 20
71.168
 30
0.0
 70
0
  0
VERTEX
  5
266
  8
0
 10
43.122
 20
71.097
 30
0.0
 70
0
  0
VERTEX
  5
267
  8
0
 10
43.264
 20
70.957
 30
0.0
 70
0
  0
VERTEX
  5
268
  8
0
 10
43.405
 20
70.886
 30
0.0
 70
0
  0
VERTEX
  5
269
  8
0
 10
43.547
 20
70.745
 30
0.0
 70
0
  0
VERTEX
  5
26A
  8
0
 10
43.616
 20
70.674
 30
0.0
 70
0
  0
VERTEX
  5
26B
  8
0
 10
43.758
 20
70.534
 30
0.0
 70
0
  0
VERTEX
  5
26C
  8
0
 10
43.899
 20
70.391
 30
0.0
 70
0
  0
VERTEX
  5
26D
  8
0
 10
44.042
 20
70.251
 30
0.0
 70
0
  0
VERTEX
  5
26E
  8
0
 10
44.182
 20
70.18
 30
0.0
 70
0
  0
VERTEX
  5
26F
  8
0
 10
44.322
 20
70.04
 30
0.0
 70
0
  0
VERTEX
  5
270
  8
0
 10
44.464
 20
69.968
 30
0.0
 70
0
  0
VERTEX
  5
271
  8
0
 10
44.676
 20
69.826
 30
0.0
 70
0
  0
VERTEX
  5
272
  8
0
 10
44.816
 20
69.686
 30
0.0
 70
0
  0
VERTEX
  5
273
  8
0
 10
45.03
 20
69.545
 30
0.0
 70
0
  0
VERTEX
  5
274
  8
0
 10
45.17
 20
69.403
 30
0.0
 70
0
  0
VERTEX
  5
275
  8
0
 10
45.313
 20
69.263
 30
0.0
 70
0
  0
VERTEX
  5
276
  8
0
 10
45.524
 20
69.12
 30
0.0
 70
0
  0
VERTEX
  5
277
  8
0
 10
45.665
 20
68.98
 30
0.0
 70
0
  0
VERTEX
  5
278
  8
0
 10
45.876
 20
68.909
 30
0.0
 70
0
  0
VERTEX
  5
279
  8
0
 10
46.018
 20
68.768
 30
0.0
 70
0
  0
VERTEX
  5
27A
  8
0
 10
46.158
 20
68.697
 30
0.0
 70
0
  0
VERTEX
  5
27B
  8
0
 10
46.302
 20
68.557
 30
0.0
 70
0
  0
VERTEX
  5
27C
  8
0
 10
46.441
 20
68.486
 30
0.0
 70
0
  0
VERTEX
  5
27D
  8
0
 10
46.582
 20
68.343
 30
0.0
 70
0
  0
VERTEX
  5
27E
  8
0
 10
46.724
 20
68.274
 30
0.0
 70
0
  0
VERTEX
  5
27F
  8
0
 10
46.865
 20
68.203
 30
0.0
 70
0
  0
VERTEX
  5
280
  8
0
 10
47.007
 20
68.132
 30
0.0
 70
0
  0
VERTEX
  5
281
  8
0
 10
47.147
 20
68.06
 30
0.0
 70
0
  0
VERTEX
  5
282
  8
0
 10
47.218
 20
67.991
 30
0.0
 70
0
  0
VERTEX
  5
283
  8
0
 10
47.358
 20
67.92
 30
0.0
 70
0
  0
VERTEX
  5
284
  8
0
 10
47.43
 20
67.849
 30
0.0
 70
0
  0
VERTEX
  5
285
  8
0
 10
47.573
 20
67.78
 30
0.0
 70
0
  0
VERTEX
  5
286
  8
0
 10
47.641
 20
67.78
 30
0.0
 70
0
  0
VERTEX
  5
287
  8
0
 10
47.784
 20
67.637
 30
0.0
 70
0
  0
VERTEX
  5
288
  8
0
 10
47.853
 20
67.637
 30
0.0
 70
0
  0
VERTEX
  5
289
  8
0
 10
47.995
 20
67.566
 30
0.0
 70
0
  0
VERTEX
  5
28A
  8
0
 10
48.067
 20
67.566
 30
0.0
 70
0
  0
VERTEX
  5
28B
  8
0
 10
48.207
 20
67.497
 30
0.0
 70
0
  0
VERTEX
  5
28C
  8
0
 10
48.278
 20
67.497
 30
0.0
 70
0
  0
VERTEX
  5
28D
  8
0
 10
48.418
 20
67.426
 30
0.0
 70
0
  0
VERTEX
  5
28E
  8
0
 10
48.63
 20
67.426
 30
0.0
 70
0
  0
VERTEX
  5
28F
  8
0
 10
48.702
 20
67.355
 30
0.0
 70
0
  0
VERTEX
  5
290
  8
0
 10
48.913
 20
67.355
 30
0.0
 70
0
  0
VERTEX
  5
291
  8
0
 10
48.984
 20
67.355
 30
0.0
 70
0
  0
SEQEND
  5
261
  8
0
  0
POLYLINE
  5
292
  8
0
 66
1
 10
0.0
 20
0.0
 30
0.0
 70
0
  0
VERTEX
  5
294
  8
0
 10
40.439
 20
73.64
 30
0.0
 70
0
  0
VERTEX
  5
295
  8
0
 10
40.368
 20
73.782
 30
0.0
 70
0
  0
VERTEX
  5
296
  8
0
 10
40.228
 20
73.782
 30
0.0
 70
0
  0
VERTEX
  5
297
  8
0
 10
40.156
 20
73.853
 30
0.0
 70
0
  0
VERTEX
  5
298
  8
0
 10
40.156
 20
73.994
 30
0.0
 70
0
  0
VERTEX
  5
299
  8
0
 10
40.016
 20
73.994
 30
0.0
 70
0
  0
VERTEX
  5
29A
  8
0
 10
39.945
 20
74.065
 30
0.0
 70
0
  0
VERTEX
  5
29B
  8
0
 10
39.874
 20
74.205
 30
0.0
 70
0
  0
VERTEX
  5
29C
  8
0
 10
39.803
 20
74.205
 30
0.0
 70
0
  0
VERTEX
  5
29D
  8
0
 10
39.733
 20
74.276
 30
0.0
 70
0
  0
VERTEX
  5
29E
  8
0
 10
39.662
 20
74.348
 30
0.0
 70
0
  0
VERTEX
  5
29F
  8
0
 10
39.591
 20
74.417
 30
0.0
 70
0
  0
VERTEX
  5
2A0
  8
0
 10
39.52
 20
74.488
 30
0.0
 70
0
  0
VERTEX
  5
2A1
  8
0
 10
39.451
 20
74.488
 30
0.0
 70
0
  0
VERTEX
  5
2A2
  8
0
 10
39.379
 20
74.628
 30
0.0
 70
0
  0
VERTEX
  5
2A3
  8
0
 10
39.308
 20
74.628
 30
0.0
 70
0
  0
VERTEX
  5
2A4
  8
0
 10
39.239
 20
74.699
 30
0.0
 70
0
  0
VERTEX
  5
2A5
  8
0
 10
39.168
 20
74.771
 30
0.0
 70
0
  0
VERTEX
  5
2A6
  8
0
 10
39.096
 20
74.842
 30
0.0
 70
0
  0
VERTEX
  5
2A7
  8
0
 10
39.025
 20
74.842
 30
0.0
 70
0
  0
VERTEX
  5
2A8
  8
0
 10
38.956
 20
74.911
 30
0.0
 70
0
  0
VERTEX
  5
2A9
  8
0
 10
38.885
 20
74.982
 30
0.0
 70
0
  0
VERTEX
  5
2AA
  8
0
 10
38.885
 20
75.053
 30
0.0
 70
0
  0
VERTEX
  5
2AB
  8
0
 10
38.745
 20
75.053
 30
0.0
 70
0
  0
VERTEX
  5
2AC
  8
0
 10
38.745
 20
75.122
 30
0.0
 70
0
  0
VERTEX
  5
2AD
  8
0
 10
38.674
 20
75.122
 30
0.0
 70
0
  0
VERTEX
  5
2AE
  8
0
 10
38.603
 20
75.265
 30
0.0
 70
0
  0
VERTEX
  5
2AF
  8
0
 10
38.531
 20
75.265
 30
0.0
 70
0
  0
VERTEX
  5
2B0
  8
0
 10
38.462
 20
75.336
 30
0.0
 70
0
  0
VERTEX
  5
2B1
  8
0
 10
38.32
 20
75.405
 30
0.0
 70
0
  0
VERTEX
  5
2B2
  8
0
 10
38.32
 20
75.476
 30
0.0
 70
0
  0
VERTEX
  5
2B3
  8
0
 10
38.251
 20
75.476
 30
0.0
 70
0
  0
VERTEX
  5
2B4
  8
0
 10
38.251
 20
75.548
 30
0.0
 70
0
  0
VERTEX
  5
2B5
  8
0
 10
38.108
 20
75.548
 30
0.0
 70
0
  0
VERTEX
  5
2B6
  8
0
 10
38.108
 20
75.619
 30
0.0
 70
0
  0
VERTEX
  5
2B7
  8
0
 10
38.037
 20
75.688
 30
0.0
 70
0
  0
VERTEX
  5
2B8
  8
0
 10
37.968
 20
75.688
 30
0.0
 70
0
  0
VERTEX
  5
2B9
  8
0
 10
37.896
 20
75.759
 30
0.0
 70
0
  0
VERTEX
  5
2BA
  8
0
 10
37.825
 20
75.759
 30
0.0
 70
0
  0
VERTEX
  5
2BB
  8
0
 10
37.825
 20
75.83
 30
0.0
 70
0
  0
VERTEX
  5
2BC
  8
0
 10
37.685
 20
75.899
 30
0.0
 70
0
  0
VERTEX
  5
2BD
  8
0
 10
37.614
 20
75.899
 30
0.0
 70
0
  0
VERTEX
  5
2BE
  8
0
 10
37.614
 20
75.971
 30
0.0
 70
0
  0
VERTEX
  5
2BF
  8
0
 10
37.474
 20
75.971
 30
0.0
 70
0
  0
VERTEX
  5
2C0
  8
0
 10
37.474
 20
76.042
 30
0.0
 70
0
  0
VERTEX
  5
2C1
  8
0
 10
37.402
 20
76.113
 30
0.0
 70
0
  0
VERTEX
  5
2C2
  8
0
 10
37.26
 20
76.113
 30
0.0
 70
0
  0
VERTEX
  5
2C3
  8
0
 10
37.26
 20
76.182
 30
0.0
 70
0
  0
VERTEX
  5
2C4
  8
0
 10
37.191
 20
76.182
 30
0.0
 70
0
  0
VERTEX
  5
2C5
  8
0
 10
37.12
 20
76.182
 30
0.0
 70
0
  0
VERTEX
  5
2C6
  8
0
 10
37.048
 20
76.253
 30
0.0
 70
0
  0
VERTEX
  5
2C7
  8
0
 10
36.98
 20
76.253
 30
0.0
 70
0
  0
VERTEX
  5
2C8
  8
0
 10
36.98
 20
76.325
 30
0.0
 70
0
  0
VERTEX
  5
2C9
  8
0
 10
36.837
 20
76.325
 30
0.0
 70
0
  0
VERTEX
  5
2CA
  8
0
 10
36.765
 20
76.325
 30
0.0
 70
0
  0
VERTEX
  5
2CB
  8
0
 10
36.697
 20
76.325
 30
0.0
 70
0
  0
VERTEX
  5
2CC
  8
0
 10
36.625
 20
76.325
 30
0.0
 70
0
  0
VERTEX
  5
2CD
  8
0
 10
36.554
 20
76.325
 30
0.0
 70
0
  0
VERTEX
  5
2CE
  8
0
 10
36.485
 20
76.325
 30
0.0
 70
0
  0
VERTEX
  5
2CF
  8
0
 10
36.414
 20
76.253
 30
0.0
 70
0
  0
VERTEX
  5
2D0
  8
0
 10
36.343
 20
76.182
 30
0.0
 70
0
  0
VERTEX
  5
2D1
  8
0
 10
36.343
 20
76.113
 30
0.0
 70
0
  0
VERTEX
  5
2D2
  8
0
 10
36.272
 20
76.042
 30
0.0
 70
0
  0
VERTEX
  5
2D3
  8
0
 10
36.272
 20
75.83
 30
0.0
 70
0
  0
SEQEND
  5
293
  8
0
  0
POLYLINE
  5
2D4
  8
0
 66
1
 10
0.0
 20
0.0
 30
0.0
 70
0
  0
VERTEX
  5
2D6
  8
0
 10
36.485
 20
75.83
 30
0.0
 70
0
  0
VERTEX
  5
2D7
  8
0
 10
36.485
 20
76.113
 30
0.0
 70
0
  0
VERTEX
  5
2D8
  8
0
 10
36.554
 20
76.113
 30
0.0
 70
0
  0
VERTEX
  5
2D9
  8
0
 10
36.554
 20
76.182
 30
0.0
 70
0
  0
VERTEX
  5
2DA
  8
0
 10
36.625
 20
76.182
 30
0.0
 70
0
  0
VERTEX
  5
2DB
  8
0
 10
36.696
 20
76.182
 30
0.0
 70
0
  0
VERTEX
  5
2DC
  8
0
 10
36.765
 20
76.182
 30
0.0
 70
0
  0
VERTEX
  5
2DD
  8
0
 10
36.837
 20
76.113
 30
0.0
 70
0
  0
VERTEX
  5
2DE
  8
0
 10
36.98
 20
76.113
 30
0.0
 70
0
  0
VERTEX
  5
2DF
  8
0
 10
37.048
 20
76.113
 30
0.0
 70
0
  0
VERTEX
  5
2E0
  8
0
 10
37.048
 20
76.042
 30
0.0
 70
0
  0
VERTEX
  5
2E1
  8
0
 10
37.12
 20
76.042
 30
0.0
 70
0
  0
VERTEX
  5
2E2
  8
0
 10
37.12
 20
75.971
 30
0.0
 70
0
  0
VERTEX
  5
2E3
  8
0
 10
37.191
 20
75.971
 30
0.0
 70
0
  0
VERTEX
  5
2E4
  8
0
 10
37.26
 20
75.971
 30
0.0
 70
0
  0
VERTEX
  5
2E5
  8
0
 10
37.26
 20
75.899
 30
0.0
 70
0
  0
VERTEX
  5
2E6
  8
0
 10
37.331
 20
75.899
 30
0.0
 70
0
  0
VERTEX
  5
2E7
  8
0
 10
37.402
 20
75.899
 30
0.0
 70
0
  0
VERTEX
  5
2E8
  8
0
 10
37.474
 20
75.83
 30
0.0
 70
0
  0
VERTEX
  5
2E9
  8
0
 10
37.474
 20
75.759
 30
0.0
 70
0
  0
VERTEX
  5
2EA
  8
0
 10
37.614
 20
75.759
 30
0.0
 70
0
  0
VERTEX
  5
2EB
  8
0
 10
37.614
 20
75.688
 30
0.0
 70
0
  0
VERTEX
  5
2EC
  8
0
 10
37.685
 20
75.688
 30
0.0
 70
0
  0
VERTEX
  5
2ED
  8
0
 10
37.754
 20
75.619
 30
0.0
 70
0
  0
VERTEX
  5
2EE
  8
0
 10
37.825
 20
75.548
 30
0.0
 70
0
  0
VERTEX
  5
2EF
  8
0
 10
37.896
 20
75.548
 30
0.0
 70
0
  0
VERTEX
  5
2F0
  8
0
 10
37.896
 20
75.476
 30
0.0
 70
0
  0
VERTEX
  5
2F1
  8
0
 10
38.037
 20
75.476
 30
0.0
 70
0
  0
VERTEX
  5
2F2
  8
0
 10
38.037
 20
75.405
 30
0.0
 70
0
  0
VERTEX
  5
2F3
  8
0
 10
38.108
 20
75.336
 30
0.0
 70
0
  0
VERTEX
  5
2F4
  8
0
 10
38.179
 20
75.336
 30
0.0
 70
0
  0
VERTEX
  5
2F5
  8
0
 10
38.251
 20
75.265
 30
0.0
 70
0
  0
VERTEX
  5
2F6
  8
0
 10
38.32
 20
75.194
 30
0.0
 70
0
  0
VERTEX
  5
2F7
  8
0
 10
38.391
 20
75.122
 30
0.0
 70
0
  0
VERTEX
  5
2F8
  8
0
 10
38.462
 20
75.122
 30
0.0
 70
0
  0
VERTEX
  5
2F9
  8
0
 10
38.462
 20
75.053
 30
0.0
 70
0
  0
VERTEX
  5
2FA
  8
0
 10
38.531
 20
75.053
 30
0.0
 70
0
  0
VERTEX
  5
2FB
  8
0
 10
38.603
 20
74.982
 30
0.0
 70
0
  0
VERTEX
  5
2FC
  8
0
 10
38.674
 20
74.911
 30
0.0
 70
0
  0
VERTEX
  5
2FD
  8
0
 10
38.745
 20
74.911
 30
0.0
 70
0
  0
VERTEX
  5
2FE
  8
0
 10
38.745
 20
74.842
 30
0.0
 70
0
  0
VERTEX
  5
2FF
  8
0
 10
38.814
 20
74.842
 30
0.0
 70
0
  0
VERTEX
  5
300
  8
0
 10
38.885
 20
74.771
 30
0.0
 70
0
  0
VERTEX
  5
301
  8
0
 10
38.956
 20
74.699
 30
0.0
 70
0
  0
VERTEX
  5
302
  8
0
 10
39.025
 20
74.628
 30
0.0
 70
0
  0
VERTEX
  5
303
  8
0
 10
39.096
 20
74.628
 30
0.0
 70
0
  0
VERTEX
  5
304
  8
0
 10
39.168
 20
74.559
 30
0.0
 70
0
  0
VERTEX
  5
305
  8
0
 10
39.168
 20
74.488
 30
0.0
 70
0
  0
VERTEX
  5
306
  8
0
 10
39.239
 20
74.417
 30
0.0
 70
0
  0
VERTEX
  5
307
  8
0
 10
39.308
 20
74.417
 30
0.0
 70
0
  0
VERTEX
  5
308
  8
0
 10
39.379
 20
74.348
 30
0.0
 70
0
  0
VERTEX
  5
309
  8
0
 10
39.379
 20
74.276
 30
0.0
 70
0
  0
VERTEX
  5
30A
  8
0
 10
39.52
 20
74.276
 30
0.0
 70
0
  0
VERTEX
  5
30B
  8
0
 10
39.52
 20
74.205
 30
0.0
 70
0
  0
VERTEX
  5
30C
  8
0
 10
39.591
 20
74.205
 30
0.0
 70
0
  0
VERTEX
  5
30D
  8
0
 10
39.662
 20
74.065
 30
0.0
 70
0
  0
VERTEX
  5
30E
  8
0
 10
39.733
 20
74.065
 30
0.0
 70
0
  0
VERTEX
  5
30F
  8
0
 10
39.803
 20
73.994
 30
0.0
 70
0
  0
VERTEX
  5
310
  8
0
 10
39.945
 20
73.853
 30
0.0
 70
0
  0
VERTEX
  5
311
  8
0
 10
40.016
 20
73.782
 30
0.0
 70
0
  0
VERTEX
  5
312
  8
0
 10
40.085
 20
73.711
 30
0.0
 70
0
  0
VERTEX
  5
313
  8
0
 10
40.156
 20
73.64
 30
0.0
 70
0
  0
VERTEX
  5
314
  8
0
 10
40.227
 20
73.64
 30
0.0
 70
0
  0
VERTEX
  5
315
  8
0
 10
40.227
 20
73.571
 30
0.0
 70
0
  0
SEQEND
  5
2D5
  8
0
  0
POLYLINE
  5
316
  8
0
 66
1
 10
0.0
 20
0.0
 30
0.0
 70
0
  0
VERTEX
  5
318
  8
0
 10
43.827
 20
73.853
 30
0.0
 70
0
  0
VERTEX
  5
319
  8
0
 10
43.971
 20
71.451
 30
0.0
 70
0
  0
VERTEX
  5
31A
  8
0
 10
43.899
 20
73.853
 30
0.0
 70
0
  0
SEQEND
  5
317
  8
0
  0
POLYLINE
  5
31B
  8
0
 66
1
 10
0.0
 20
0.0
 30
0.0
 70
0
  0
VERTEX
  5
31D
  8
0
 10
48.702
 20
71.38
 30
0.0
 70
0
  0
VERTEX
  5
31E
  8
0
 10
48.702
 20
71.522
 30
0.0
 70
0
  0
VERTEX
  5
31F
  8
0
 10
48.702
 20
71.734
 30
0.0
 70
0
  0
SEQEND
  5
31C
  8
0
  0
POLYLINE
  5
320
  8
0
 66
1
 10
0.0
 20
0.0
 30
0.0
 70
0
  0
VERTEX
  5
322
  8
0
 10
49.761
 20
68.98
 30
0.0
 70
0
  0
VERTEX
  5
323
  8
0
 10
49.761
 20
68.132
 30
0.0
 70
0
  0
VERTEX
  5
324
  8
0
 10
49.689
 20
68.132
 30
0.0
 70
0
  0
VERTEX
  5
325
  8
0
 10
49.689
 20
67.991
 30
0.0
 70
0
  0
VERTEX
  5
326
  8
0
 10
49.618
 20
67.92
 30
0.0
 70
0
  0
VERTEX
  5
327
  8
0
 10
49.618
 20
67.849
 30
0.0
 70
0
  0
VERTEX
  5
328
  8
0
 10
49.549
 20
67.849
 30
0.0
 70
0
  0
VERTEX
  5
329
  8
0
 10
49.549
 20
67.78
 30
0.0
 70
0
  0
VERTEX
  5
32A
  8
0
 10
49.478
 20
67.78
 30
0.0
 70
0
  0
VERTEX
  5
32B
  8
0
 10
49.478
 20
67.709
 30
0.0
 70
0
  0
VERTEX
  5
32C
  8
0
 10
49.407
 20
67.637
 30
0.0
 70
0
  0
VERTEX
  5
32D
  8
0
 10
49.338
 20
67.637
 30
0.0
 70
0
  0
VERTEX
  5
32E
  8
0
 10
49.267
 20
67.637
 30
0.0
 70
0
  0
VERTEX
  5
32F
  8
0
 10
49.267
 20
67.566
 30
0.0
 70
0
  0
VERTEX
  5
330
  8
0
 10
49.196
 20
67.566
 30
0.0
 70
0
  0
VERTEX
  5
331
  8
0
 10
49.124
 20
67.566
 30
0.0
 70
0
  0
VERTEX
  5
332
  8
0
 10
49.055
 20
67.566
 30
0.0
 70
0
  0
VERTEX
  5
333
  8
0
 10
48.984
 20
67.566
 30
0.0
 70
0
  0
SEQEND
  5
321
  8
0
  0
POLYLINE
  5
334
  8
0
 66
1
 10
0.0
 20
0.0
 30
0.0
 70
0
  0
VERTEX
  5
336
  8
0
 10
3.672
 20
54.591
 30
0.0
 70
0
  0
VERTEX
  5
337
  8
0
 10
3.603
 20
54.591
 30
0.0
 70
0
  0
VERTEX
  5
338
  8
0
 10
3.603
 20
54.52
 30
0.0
 70
0
  0
VERTEX
  5
339
  8
0
 10
3.603
 20
54.448
 30
0.0
 70
0
  0
VERTEX
  5
33A
  8
0
 10
3.603
 20
54.377
 30
0.0
 70
0
  0
VERTEX
  5
33B
  8
0
 10
3.672
 20
54.308
 30
0.0
 70
0
  0
SEQEND
  5
335
  8
0
  0
POLYLINE
  5
33C
  8
0
 66
1
 10
0.0
 20
0.0
 30
0.0
 70
0
  0
VERTEX
  5
33E
  8
0
 10
1.554
 20
54.308
 30
0.0
 70
0
  0
VERTEX
  5
33F
  8
0
 10
1.554
 20
54.377
 30
0.0
 70
0
  0
VERTEX
  5
340
  8
0
 10
1.554
 20
54.448
 30
0.0
 70
0
  0
VERTEX
  5
341
  8
0
 10
1.554
 20
54.52
 30
0.0
 70
0
  0
VERTEX
  5
342
  8
0
 10
1.554
 20
54.591
 30
0.0
 70
0
  0
SEQEND
  5
33D
  8
0
  0
POLYLINE
  5
343
  8
0
 66
1
 10
0.0
 20
0.0
 30
0.0
 70
0
  0
VERTEX
  5
345
  8
0
 10
1.554
 20
58.191
 30
0.0
 70
0
  0
VERTEX
  5
346
  8
0
 10
1.554
 20
58.262
 30
0.0
 70
0
  0
VERTEX
  5
347
  8
0
 10
1.554
 20
58.333
 30
0.0
 70
0
  0
VERTEX
  5
348
  8
0
 10
1.554
 20
58.405
 30
0.0
 70
0
  0
VERTEX
  5
349
  8
0
 10
1.554
 20
58.474
 30
0.0
 70
0
  0
SEQEND
  5
344
  8
0
  0
POLYLINE
  5
34A
  8
0
 66
1
 10
0.0
 20
0.0
 30
0.0
 70
0
  0
VERTEX
  5
34C
  8
0
 10
3.672
 20
58.474
 30
0.0
 70
0
  0
VERTEX
  5
34D
  8
0
 10
3.603
 20
58.474
 30
0.0
 70
0
  0
VERTEX
  5
34E
  8
0
 10
3.603
 20
58.405
 30
0.0
 70
0
  0
VERTEX
  5
34F
  8
0
 10
3.603
 20
58.333
 30
0.0
 70
0
  0
VERTEX
  5
350
  8
0
 10
3.603
 20
58.262
 30
0.0
 70
0
  0
VERTEX
  5
351
  8
0
 10
3.672
 20
58.191
 30
0.0
 70
0
  0
SEQEND
  5
34B
  8
0
  0
POLYLINE
  5
352
  8
0
 66
1
 10
0.0
 20
0.0
 30
0.0
 70
0
  0
VERTEX
  5
354
  8
0
 10
1.272
 20
50.352
 30
0.0
 70
0
  0
VERTEX
  5
355
  8
0
 10
1.272
 20
50.283
 30
0.0
 70
0
  0
VERTEX
  5
356
  8
0
 10
1.272
 20
50.211
 30
0.0
 70
0
  0
VERTEX
  5
357
  8
0
 10
1.343
 20
50.14
 30
0.0
 70
0
  0
VERTEX
  5
358
  8
0
 10
1.412
 20
50.071
 30
0.0
 70
0
  0
VERTEX
  5
359
  8
0
 10
1.483
 20
50.0
 30
0.0
 70
0
  0
VERTEX
  5
35A
  8
0
 10
1.554
 20
50.0
 30
0.0
 70
0
  0
SEQEND
  5
353
  8
0
  0
POLYLINE
  5
35B
  8
0
 66
1
 10
0.0
 20
0.0
 30
0.0
 70
0
  0
VERTEX
  5
35D
  8
0
 10
1.554
 20
62.782
 30
0.0
 70
0
  0
VERTEX
  5
35E
  8
0
 10
1.483
 20
62.782
 30
0.0
 70
0
  0
VERTEX
  5
35F
  8
0
 10
1.412
 20
62.71
 30
0.0
 70
0
  0
VERTEX
  5
360
  8
0
 10
1.343
 20
62.71
 30
0.0
 70
0
  0
VERTEX
  5
361
  8
0
 10
1.343
 20
62.641
 30
0.0
 70
0
  0
VERTEX
  5
362
  8
0
 10
1.272
 20
62.57
 30
0.0
 70
0
  0
VERTEX
  5
363
  8
0
 10
1.272
 20
62.499
 30
0.0
 70
0
  0
VERTEX
  5
364
  8
0
 10
1.272
 20
62.43
 30
0.0
 70
0
  0
SEQEND
  5
35C
  8
0
  0
POLYLINE
  5
365
  8
0
 66
1
 10
0.0
 20
0.0
 30
0.0
 70
0
  0
VERTEX
  5
367
  8
0
 10
4.026
 20
52.543
 30
0.0
 70
0
  0
VERTEX
  5
368
  8
0
 10
4.097
 20
52.543
 30
0.0
 70
0
  0
VERTEX
  5
369
  8
0
 10
4.165
 20
52.543
 30
0.0
 70
0
  0
VERTEX
  5
36A
  8
0
 10
4.165
 20
52.611
 30
0.0
 70
0
  0
VERTEX
  5
36B
  8
0
 10
4.237
 20
52.611
 30
0.0
 70
0
  0
VERTEX
  5
36C
  8
0
 10
4.237
 20
52.683
 30
0.0
 70
0
  0
VERTEX
  5
36D
  8
0
 10
4.308
 20
52.683
 30
0.0
 70
0
  0
VERTEX
  5
36E
  8
0
 10
4.308
 20
52.754
 30
0.0
 70
0
  0
VERTEX
  5
36F
  8
0
 10
4.308
 20
52.825
 30
0.0
 70
0
  0
VERTEX
  5
370
  8
0
 10
4.308
 20
52.894
 30
0.0
 70
0
  0
VERTEX
  5
371
  8
0
 10
4.308
 20
52.965
 30
0.0
 70
0
  0
VERTEX
  5
372
  8
0
 10
4.237
 20
53.037
 30
0.0
 70
0
  0
VERTEX
  5
373
  8
0
 10
4.237
 20
53.108
 30
0.0
 70
0
  0
VERTEX
  5
374
  8
0
 10
4.165
 20
53.108
 30
0.0
 70
0
  0
VERTEX
  5
375
  8
0
 10
4.097
 20
53.108
 30
0.0
 70
0
  0
VERTEX
  5
376
  8
0
 10
4.097
 20
53.177
 30
0.0
 70
0
  0
VERTEX
  5
377
  8
0
 10
4.026
 20
53.177
 30
0.0
 70
0
  0
SEQEND
  5
366
  8
0
  0
POLYLINE
  5
378
  8
0
 66
1
 10
0.0
 20
0.0
 30
0.0
 70
0
  0
VERTEX
  5
37A
  8
0
 10
4.026
 20
59.956
 30
0.0
 70
0
  0
VERTEX
  5
37B
  8
0
 10
4.097
 20
59.956
 30
0.0
 70
0
  0
VERTEX
  5
37C
  8
0
 10
4.165
 20
59.956
 30
0.0
 70
0
  0
VERTEX
  5
37D
  8
0
 10
4.165
 20
60.028
 30
0.0
 70
0
  0
VERTEX
  5
37E
  8
0
 10
4.237
 20
60.028
 30
0.0
 70
0
  0
VERTEX
  5
37F
  8
0
 10
4.308
 20
60.099
 30
0.0
 70
0
  0
VERTEX
  5
380
  8
0
 10
4.308
 20
60.17
 30
0.0
 70
0
  0
VERTEX
  5
381
  8
0
 10
4.308
 20
60.239
 30
0.0
 70
0
  0
VERTEX
  5
382
  8
0
 10
4.308
 20
60.31
 30
0.0
 70
0
  0
VERTEX
  5
383
  8
0
 10
4.308
 20
60.382
 30
0.0
 70
0
  0
VERTEX
  5
384
  8
0
 10
4.237
 20
60.451
 30
0.0
 70
0
  0
VERTEX
  5
385
  8
0
 10
4.165
 20
60.522
 30
0.0
 70
0
  0
VERTEX
  5
386
  8
0
 10
4.097
 20
60.522
 30
0.0
 70
0
  0
VERTEX
  5
387
  8
0
 10
4.097
 20
60.593
 30
0.0
 70
0
  0
VERTEX
  5
388
  8
0
 10
4.026
 20
60.593
 30
0.0
 70
0
  0
SEQEND
  5
379
  8
0
  0
POLYLINE
  5
389
  8
0
 66
1
 10
0.0
 20
0.0
 30
0.0
 70
0
  0
VERTEX
  5
38B
  8
0
 10
10.311
 20
72.529
 30
0.0
 70
0
  0
VERTEX
  5
38C
  8
0
 10
9.463
 20
72.457
 30
0.0
 70
0
  0
VERTEX
  5
38D
  8
0
 10
8.688
 20
72.315
 30
0.0
 70
0
  0
VERTEX
  5
38E
  8
0
 10
7.911
 20
72.103
 30
0.0
 70
0
  0
VERTEX
  5
38F
  8
0
 10
7.134
 20
71.892
 30
0.0
 70
0
  0
VERTEX
  5
390
  8
0
 10
6.356
 20
71.469
 30
0.0
 70
0
  0
VERTEX
  5
391
  8
0
 10
5.651
 20
71.044
 30
0.0
 70
0
  0
VERTEX
  5
392
  8
0
 10
5.014
 20
70.621
 30
0.0
 70
0
  0
VERTEX
  5
393
  8
0
 10
4.38
 20
70.055
 30
0.0
 70
0
  0
VERTEX
  5
394
  8
0
 10
3.814
 20
69.492
 30
0.0
 70
0
  0
VERTEX
  5
395
  8
0
 10
3.249
 20
68.784
 30
0.0
 70
0
  0
VERTEX
  5
396
  8
0
 10
2.825
 20
68.149
 30
0.0
 70
0
  0
VERTEX
  5
397
  8
0
 10
2.401
 20
67.444
 30
0.0
 70
0
  0
VERTEX
  5
398
  8
0
 10
2.12
 20
66.736
 30
0.0
 70
0
  0
VERTEX
  5
399
  8
0
 10
1.906
 20
65.89
 30
0.0
 70
0
  0
VERTEX
  5
39A
  8
0
 10
1.694
 20
65.113
 30
0.0
 70
0
  0
VERTEX
  5
39B
  8
0
 10
1.554
 20
64.264
 30
0.0
 70
0
  0
VERTEX
  5
39C
  8
0
 10
1.554
 20
63.487
 30
0.0
 70
0
  0
SEQEND
  5
38A
  8
0
  0
POLYLINE
  5
39D
  8
0
 66
1
 10
0.0
 20
0.0
 30
0.0
 70
0
  0
VERTEX
  5
39F
  8
0
 10
10.382
 20
70.409
 30
0.0
 70
0
  0
VERTEX
  5
3A0
  8
0
 10
9.745
 20
70.409
 30
0.0
 70
0
  0
VERTEX
  5
3A1
  8
0
 10
9.111
 20
70.267
 30
0.0
 70
0
  0
VERTEX
  5
3A2
  8
0
 10
8.545
 20
70.126
 30
0.0
 70
0
  0
VERTEX
  5
3A3
  8
0
 10
7.911
 20
69.915
 30
0.0
 70
0
  0
VERTEX
  5
3A4
  8
0
 10
7.345
 20
69.632
 30
0.0
 70
0
  0
VERTEX
  5
3A5
  8
0
 10
6.78
 20
69.349
 30
0.0
 70
0
  0
VERTEX
  5
3A6
  8
0
 10
6.285
 20
68.926
 30
0.0
 70
0
  0
VERTEX
  5
3A7
  8
0
 10
5.791
 20
68.501
 30
0.0
 70
0
  0
VERTEX
  5
3A8
  8
0
 10
5.368
 20
68.078
 30
0.0
 70
0
  0
VERTEX
  5
3A9
  8
0
 10
4.943
 20
67.584
 30
0.0
 70
0
  0
VERTEX
  5
3AA
  8
0
 10
4.662
 20
67.09
 30
0.0
 70
0
  0
VERTEX
  5
3AB
  8
0
 10
4.309
 20
66.524
 30
0.0
 70
0
  0
VERTEX
  5
3AC
  8
0
 10
4.097
 20
65.961
 30
0.0
 70
0
  0
VERTEX
  5
3AD
  8
0
 10
3.885
 20
65.324
 30
0.0
 70
0
  0
VERTEX
  5
3AE
  8
0
 10
3.743
 20
64.69
 30
0.0
 70
0
  0
VERTEX
  5
3AF
  8
0
 10
3.672
 20
64.124
 30
0.0
 70
0
  0
VERTEX
  5
3B0
  8
0
 10
3.672
 20
63.487
 30
0.0
 70
0
  0
SEQEND
  5
39E
  8
0
  0
POLYLINE
  5
3B1
  8
0
 66
1
 10
0.0
 20
0.0
 30
0.0
 70
0
  0
VERTEX
  5
3B3
  8
0
 10
35.92
 20
73.428
 30
0.0
 70
0
  0
VERTEX
  5
3B4
  8
0
 10
35.989
 20
73.428
 30
0.0
 70
0
  0
VERTEX
  5
3B5
  8
0
 10
36.06
 20
73.428
 30
0.0
 70
0
  0
SEQEND
  5
3B2
  8
0
  0
POLYLINE
  5
3B6
  8
0
 66
1
 10
0.0
 20
0.0
 30
0.0
 70
0
  0
VERTEX
  5
3B8
  8
0
 10
36.837
 20
73.428
 30
0.0
 70
0
  0
VERTEX
  5
3B9
  8
0
 10
36.908
 20
73.428
 30
0.0
 70
0
  0
VERTEX
  5
3BA
  8
0
 10
36.98
 20
73.428
 30
0.0
 70
0
  0
SEQEND
  5
3B7
  8
0
  0
POLYLINE
  5
3BB
  8
0
 66
1
 10
0.0
 20
0.0
 30
0.0
 70
0
  0
VERTEX
  5
3BD
  8
0
 10
36.98
 20
73.782
 30
0.0
 70
0
  0
VERTEX
  5
3BE
  8
0
 10
36.908
 20
73.782
 30
0.0
 70
0
  0
VERTEX
  5
3BF
  8
0
 10
36.837
 20
73.782
 30
0.0
 70
0
  0
SEQEND
  5
3BC
  8
0
  0
POLYLINE
  5
3C0
  8
0
 66
1
 10
0.0
 20
0.0
 30
0.0
 70
0
  0
VERTEX
  5
3C2
  8
0
 10
37.614
 20
73.571
 30
0.0
 70
0
  0
VERTEX
  5
3C3
  8
0
 10
37.685
 20
73.571
 30
0.0
 70
0
  0
VERTEX
  5
3C4
  8
0
 10
37.685
 20
73.64
 30
0.0
 70
0
  0
VERTEX
  5
3C5
  8
0
 10
37.754
 20
73.64
 30
0.0
 70
0
  0
VERTEX
  5
3C6
  8
0
 10
37.754
 20
73.711
 30
0.0
 70
0
  0
SEQEND
  5
3C1
  8
0
  0
POLYLINE
  5
3C7
  8
0
 66
1
 10
0.0
 20
0.0
 30
0.0
 70
0
  0
VERTEX
  5
3C9
  8
0
 10
37.12
 20
73.64
 30
0.0
 70
0
  0
VERTEX
  5
3CA
  8
0
 10
37.12
 20
73.711
 30
0.0
 70
0
  0
VERTEX
  5
3CB
  8
0
 10
37.048
 20
73.782
 30
0.0
 70
0
  0
SEQEND
  5
3C8
  8
0
  0
POLYLINE
  5
3CC
  8
0
 66
1
 10
0.0
 20
0.0
 30
0.0
 70
0
  0
VERTEX
  5
3CE
  8
0
 10
36.765
 20
73.782
 30
0.0
 70
0
  0
VERTEX
  5
3CF
  8
0
 10
36.765
 20
73.711
 30
0.0
 70
0
  0
VERTEX
  5
3D0
  8
0
 10
36.696
 20
73.711
 30
0.0
 70
0
  0
VERTEX
  5
3D1
  8
0
 10
36.696
 20
73.64
 30
0.0
 70
0
  0
SEQEND
  5
3CD
  8
0
  0
POLYLINE
  5
3D2
  8
0
 66
1
 10
0.0
 20
0.0
 30
0.0
 70
0
  0
VERTEX
  5
3D4
  8
0
 10
36.202
 20
73.64
 30
0.0
 70
0
  0
VERTEX
  5
3D5
  8
0
 10
36.202
 20
73.711
 30
0.0
 70
0
  0
VERTEX
  5
3D6
  8
0
 10
36.131
 20
73.711
 30
0.0
 70
0
  0
SEQEND
  5
3D3
  8
0
  0
POLYLINE
  5
3D7
  8
0
 66
1
 10
0.0
 20
0.0
 30
0.0
 70
0
  0
VERTEX
  5
3D9
  8
0
 10
35.848
 20
73.711
 30
0.0
 70
0
  0
VERTEX
  5
3DA
  8
0
 10
35.848
 20
73.64
 30
0.0
 70
0
  0
VERTEX
  5
3DB
  8
0
 10
35.777
 20
73.64
 30
0.0
 70
0
  0
SEQEND
  5
3D8
  8
0
  0
POLYLINE
  5
3DC
  8
0
 66
1
 10
0.0
 20
0.0
 30
0.0
 70
0
  0
VERTEX
  5
3DE
  8
0
 10
36.343
 20
74.348
 30
0.0
 70
0
  0
VERTEX
  5
3DF
  8
0
 10
36.343
 20
74.276
 30
0.0
 70
0
  0
VERTEX
  5
3E0
  8
0
 10
36.414
 20
74.276
 30
0.0
 70
0
  0
VERTEX
  5
3E1
  8
0
 10
36.485
 20
74.276
 30
0.0
 70
0
  0
VERTEX
  5
3E2
  8
0
 10
36.554
 20
74.276
 30
0.0
 70
0
  0
VERTEX
  5
3E3
  8
0
 10
36.554
 20
74.348
 30
0.0
 70
0
  0
SEQEND
  5
3DD
  8
0
  0
POLYLINE
  5
3E4
  8
0
 66
1
 10
0.0
 20
0.0
 30
0.0
 70
0
  0
VERTEX
  5
3E6
  8
0
 10
30.834
 20
71.097
 30
0.0
 70
0
  0
VERTEX
  5
3E7
  8
0
 10
30.834
 20
71.028
 30
0.0
 70
0
  0
VERTEX
  5
3E8
  8
0
 10
30.906
 20
71.028
 30
0.0
 70
0
  0
SEQEND
  5
3E5
  8
0
  0
POLYLINE
  5
3E9
  8
0
 66
1
 10
0.0
 20
0.0
 30
0.0
 70
0
  0
VERTEX
  5
3EB
  8
0
 10
51.244
 20
69.12
 30
0.0
 70
0
  0
VERTEX
  5
3EC
  8
0
 10
51.315
 20
69.12
 30
0.0
 70
0
  0
VERTEX
  5
3ED
  8
0
 10
51.384
 20
69.12
 30
0.0
 70
0
  0
SEQEND
  5
3EA
  8
0
  0
POLYLINE
  5
3EE
  8
0
 66
1
 10
0.0
 20
0.0
 30
0.0
 70
0
  0
VERTEX
  5
3F0
  8
0
 10
50.609
 20
71.097
 30
0.0
 70
0
  0
VERTEX
  5
3F1
  8
0
 10
50.538
 20
71.097
 30
0.0
 70
0
  0
VERTEX
  5
3F2
  8
0
 10
50.538
 20
71.168
 30
0.0
 70
0
  0
SEQEND
  5
3EF
  8
0
  0
POLYLINE
  5
3F3
  8
0
 66
1
 10
0.0
 20
0.0
 30
0.0
 70
0
  0
VERTEX
  5
3F5
  8
0
 10
49.478
 20
71.168
 30
0.0
 70
0
  0
VERTEX
  5
3F6
  8
0
 10
49.478
 20
71.097
 30
0.0
 70
0
  0
VERTEX
  5
3F7
  8
0
 10
49.549
 20
71.097
 30
0.0
 70
0
  0
SEQEND
  5
3F4
  8
0
  0
POLYLINE
  5
3F8
  8
0
 66
1
 10
0.0
 20
0.0
 30
0.0
 70
0
  0
VERTEX
  5
3FA
  8
0
 10
47.43
 20
71.663
 30
0.0
 70
0
  0
VERTEX
  5
3FB
  8
0
 10
47.43
 20
71.591
 30
0.0
 70
0
  0
VERTEX
  5
3FC
  8
0
 10
47.502
 20
71.591
 30
0.0
 70
0
  0
VERTEX
  5
3FD
  8
0
 10
47.502
 20
71.522
 30
0.0
 70
0
  0
VERTEX
  5
3FE
  8
0
 10
47.573
 20
71.522
 30
0.0
 70
0
  0
VERTEX
  5
3FF
  8
0
 10
47.641
 20
71.522
 30
0.0
 70
0
  0
VERTEX
  5
400
  8
0
 10
47.641
 20
71.451
 30
0.0
 70
0
  0
VERTEX
  5
401
  8
0
 10
47.713
 20
71.451
 30
0.0
 70
0
  0
VERTEX
  5
402
  8
0
 10
47.784
 20
71.451
 30
0.0
 70
0
  0
SEQEND
  5
3F9
  8
0
  0
POLYLINE
  5
403
  8
0
 66
1
 10
0.0
 20
0.0
 30
0.0
 70
0
  0
VERTEX
  5
405
  8
0
 10
54.986
 20
69.403
 30
0.0
 70
0
  0
VERTEX
  5
406
  8
0
 10
54.986
 20
69.332
 30
0.0
 70
0
  0
VERTEX
  5
407
  8
0
 10
55.057
 20
69.332
 30
0.0
 70
0
  0
VERTEX
  5
408
  8
0
 10
55.057
 20
69.263
 30
0.0
 70
0
  0
VERTEX
  5
409
  8
0
 10
55.057
 20
69.191
 30
0.0
 70
0
  0
VERTEX
  5
40A
  8
0
 10
55.129
 20
69.191
 30
0.0
 70
0
  0
VERTEX
  5
40B
  8
0
 10
55.198
 20
69.191
 30
0.0
 70
0
  0
SEQEND
  5
404
  8
0
  0
POLYLINE
  5
40C
  8
0
 66
1
 10
0.0
 20
0.0
 30
0.0
 70
0
  0
VERTEX
  5
40E
  8
0
 10
53.927
 20
69.191
 30
0.0
 70
0
  0
VERTEX
  5
40F
  8
0
 10
53.998
 20
69.191
 30
0.0
 70
0
  0
VERTEX
  5
410
  8
0
 10
54.069
 20
69.191
 30
0.0
 70
0
  0
VERTEX
  5
411
  8
0
 10
54.14
 20
69.191
 30
0.0
 70
0
  0
VERTEX
  5
412
  8
0
 10
54.14
 20
69.263
 30
0.0
 70
0
  0
VERTEX
  5
413
  8
0
 10
54.14
 20
69.332
 30
0.0
 70
0
  0
SEQEND
  5
40D
  8
0
  0
POLYLINE
  5
414
  8
0
 66
1
 10
0.0
 20
0.0
 30
0.0
 70
0
  0
VERTEX
  5
416
  8
0
 10
54.775
 20
69.191
 30
0.0
 70
0
  0
VERTEX
  5
417
  8
0
 10
54.846
 20
69.191
 30
0.0
 70
0
  0
VERTEX
  5
418
  8
0
 10
54.846
 20
69.263
 30
0.0
 70
0
  0
SEQEND
  5
415
  8
0
  0
POLYLINE
  5
419
  8
0
 66
1
 10
0.0
 20
0.0
 30
0.0
 70
0
  0
VERTEX
  5
41B
  8
0
 10
54.209
 20
69.826
 30
0.0
 70
0
  0
VERTEX
  5
41C
  8
0
 10
54.14
 20
69.826
 30
0.0
 70
0
  0
VERTEX
  5
41D
  8
0
 10
54.14
 20
69.757
 30
0.0
 70
0
  0
SEQEND
  5
41A
  8
0
  0
POLYLINE
  5
41E
  8
0
 66
1
 10
0.0
 20
0.0
 30
0.0
 70
0
  0
VERTEX
  5
420
  8
0
 10
54.28
 20
69.757
 30
0.0
 70
0
  0
VERTEX
  5
421
  8
0
 10
54.28
 20
69.826
 30
0.0
 70
0
  0
VERTEX
  5
422
  8
0
 10
54.209
 20
69.826
 30
0.0
 70
0
  0
SEQEND
  5
41F
  8
0
  0
POLYLINE
  5
423
  8
0
 66
1
 10
0.0
 20
0.0
 30
0.0
 70
0
  0
VERTEX
  5
425
  8
0
 10
54.846
 20
69.826
 30
0.0
 70
0
  0
VERTEX
  5
426
  8
0
 10
54.846
 20
69.757
 30
0.0
 70
0
  0
VERTEX
  5
427
  8
0
 10
54.775
 20
69.757
 30
0.0
 70
0
  0
SEQEND
  5
424
  8
0
  0
POLYLINE
  5
428
  8
0
 66
1
 10
0.0
 20
0.0
 30
0.0
 70
0
  0
VERTEX
  5
42A
  8
0
 10
54.986
 20
69.757
 30
0.0
 70
0
  0
VERTEX
  5
42B
  8
0
 10
54.986
 20
69.826
 30
0.0
 70
0
  0
VERTEX
  5
42C
  8
0
 10
54.915
 20
69.826
 30
0.0
 70
0
  0
SEQEND
  5
429
  8
0
  0
POLYLINE
  5
42D
  8
0
 66
1
 10
0.0
 20
0.0
 30
0.0
 70
0
  0
VERTEX
  5
42F
  8
0
 10
57.74
 20
69.332
 30
0.0
 70
0
  0
VERTEX
  5
430
  8
0
 10
57.812
 20
69.332
 30
0.0
 70
0
  0
VERTEX
  5
431
  8
0
 10
57.882
 20
69.332
 30
0.0
 70
0
  0
SEQEND
  5
42E
  8
0
  0
POLYLINE
  5
432
  8
0
 66
1
 10
0.0
 20
0.0
 30
0.0
 70
0
  0
VERTEX
  5
434
  8
0
 10
54.492
 20
71.945
 30
0.0
 70
0
  0
VERTEX
  5
435
  8
0
 10
54.564
 20
71.945
 30
0.0
 70
0
  0
VERTEX
  5
436
  8
0
 10
54.635
 20
71.945
 30
0.0
 70
0
  0
VERTEX
  5
437
  8
0
 10
54.775
 20
71.945
 30
0.0
 70
0
  0
VERTEX
  5
438
  8
0
 10
54.846
 20
71.945
 30
0.0
 70
0
  0
VERTEX
  5
439
  8
0
 10
54.986
 20
72.017
 30
0.0
 70
0
  0
VERTEX
  5
43A
  8
0
 10
55.057
 20
72.088
 30
0.0
 70
0
  0
VERTEX
  5
43B
  8
0
 10
55.129
 20
72.157
 30
0.0
 70
0
  0
VERTEX
  5
43C
  8
0
 10
55.198
 20
72.157
 30
0.0
 70
0
  0
VERTEX
  5
43D
  8
0
 10
55.269
 20
72.299
 30
0.0
 70
0
  0
VERTEX
  5
43E
  8
0
 10
55.269
 20
72.368
 30
0.0
 70
0
  0
VERTEX
  5
43F
  8
0
 10
55.409
 20
72.368
 30
0.0
 70
0
  0
VERTEX
  5
440
  8
0
 10
55.409
 20
72.511
 30
0.0
 70
0
  0
VERTEX
  5
441
  8
0
 10
55.48
 20
72.582
 30
0.0
 70
0
  0
VERTEX
  5
442
  8
0
 10
55.48
 20
72.722
 30
0.0
 70
0
  0
VERTEX
  5
443
  8
0
 10
55.48
 20
72.794
 30
0.0
 70
0
  0
VERTEX
  5
444
  8
0
 10
55.551
 20
72.863
 30
0.0
 70
0
  0
VERTEX
  5
445
  8
0
 10
55.551
 20
72.934
 30
0.0
 70
0
  0
VERTEX
  5
446
  8
0
 10
55.551
 20
73.076
 30
0.0
 70
0
  0
VERTEX
  5
447
  8
0
 10
55.551
 20
73.145
 30
0.0
 70
0
  0
VERTEX
  5
448
  8
0
 10
55.48
 20
73.217
 30
0.0
 70
0
  0
VERTEX
  5
449
  8
0
 10
55.48
 20
73.357
 30
0.0
 70
0
  0
VERTEX
  5
44A
  8
0
 10
55.48
 20
73.428
 30
0.0
 70
0
  0
VERTEX
  5
44B
  8
0
 10
55.409
 20
73.571
 30
0.0
 70
0
  0
VERTEX
  5
44C
  8
0
 10
55.409
 20
73.64
 30
0.0
 70
0
  0
VERTEX
  5
44D
  8
0
 10
55.34
 20
73.711
 30
0.0
 70
0
  0
VERTEX
  5
44E
  8
0
 10
55.269
 20
73.782
 30
0.0
 70
0
  0
VERTEX
  5
44F
  8
0
 10
55.198
 20
73.853
 30
0.0
 70
0
  0
VERTEX
  5
450
  8
0
 10
55.129
 20
73.853
 30
0.0
 70
0
  0
VERTEX
  5
451
  8
0
 10
55.057
 20
73.994
 30
0.0
 70
0
  0
VERTEX
  5
452
  8
0
 10
54.986
 20
73.994
 30
0.0
 70
0
  0
VERTEX
  5
453
  8
0
 10
54.846
 20
74.065
 30
0.0
 70
0
  0
VERTEX
  5
454
  8
0
 10
54.775
 20
74.065
 30
0.0
 70
0
  0
VERTEX
  5
455
  8
0
 10
54.703
 20
74.065
 30
0.0
 70
0
  0
VERTEX
  5
456
  8
0
 10
54.564
 20
74.134
 30
0.0
 70
0
  0
VERTEX
  5
457
  8
0
 10
54.492
 20
74.134
 30
0.0
 70
0
  0
VERTEX
  5
458
  8
0
 10
54.42
 20
74.134
 30
0.0
 70
0
  0
SEQEND
  5
433
  8
0
  0
POLYLINE
  5
459
  8
0
 66
1
 10
0.0
 20
0.0
 30
0.0
 70
0
  0
VERTEX
  5
45B
  8
0
 10
54.915
 20
73.005
 30
0.0
 70
0
  0
VERTEX
  5
45C
  8
0
 10
54.916
 20
73.005
 30
0.0
 70
0
  0
VERTEX
  5
45D
  8
0
 10
54.917
 20
73.005
 30
0.0
 70
0
  0
VERTEX
  5
45E
  8
0
 10
54.918
 20
73.005
 30
0.0
 70
0
  0
VERTEX
  5
45F
  8
0
 10
54.919
 20
73.005
 30
0.0
 70
0
  0
VERTEX
  5
460
  8
0
 10
54.92
 20
73.005
 30
0.0
 70
0
  0
VERTEX
  5
461
  8
0
 10
54.921
 20
73.005
 30
0.0
 70
0
  0
VERTEX
  5
462
  8
0
 10
54.922
 20
73.005
 30
0.0
 70
0
  0
VERTEX
  5
463
  8
0
 10
54.923
 20
73.005
 30
0.0
 70
0
  0
VERTEX
  5
464
  8
0
 10
54.924
 20
73.005
 30
0.0
 70
0
  0
VERTEX
  5
465
  8
0
 10
54.925
 20
73.005
 30
0.0
 70
0
  0
VERTEX
  5
466
  8
0
 10
54.926
 20
73.005
 30
0.0
 70
0
  0
VERTEX
  5
467
  8
0
 10
54.927
 20
73.005
 30
0.0
 70
0
  0
VERTEX
  5
468
  8
0
 10
54.928
 20
73.005
 30
0.0
 70
0
  0
VERTEX
  5
469
  8
0
 10
54.929
 20
73.005
 30
0.0
 70
0
  0
VERTEX
  5
46A
  8
0
 10
54.93
 20
73.005
 30
0.0
 70
0
  0
VERTEX
  5
46B
  8
0
 10
54.931
 20
73.005
 30
0.0
 70
0
  0
VERTEX
  5
46C
  8
0
 10
54.932
 20
73.005
 30
0.0
 70
0
  0
VERTEX
  5
46D
  8
0
 10
54.933
 20
73.005
 30
0.0
 70
0
  0
VERTEX
  5
46E
  8
0
 10
54.934
 20
73.005
 30
0.0
 70
0
  0
VERTEX
  5
46F
  8
0
 10
54.935
 20
73.005
 30
0.0
 70
0
  0
VERTEX
  5
470
  8
0
 10
54.936
 20
73.005
 30
0.0
 70
0
  0
VERTEX
  5
471
  8
0
 10
54.937
 20
73.005
 30
0.0
 70
0
  0
VERTEX
  5
472
  8
0
 10
54.938
 20
73.005
 30
0.0
 70
0
  0
VERTEX
  5
473
  8
0
 10
54.939
 20
73.005
 30
0.0
 70
0
  0
VERTEX
  5
474
  8
0
 10
54.94
 20
73.005
 30
0.0
 70
0
  0
VERTEX
  5
475
  8
0
 10
54.941
 20
73.005
 30
0.0
 70
0
  0
VERTEX
  5
476
  8
0
 10
54.942
 20
73.005
 30
0.0
 70
0
  0
VERTEX
  5
477
  8
0
 10
54.943
 20
73.005
 30
0.0
 70
0
  0
VERTEX
  5
478
  8
0
 10
54.944
 20
73.005
 30
0.0
 70
0
  0
VERTEX
  5
479
  8
0
 10
54.945
 20
73.005
 30
0.0
 70
0
  0
VERTEX
  5
47A
  8
0
 10
54.946
 20
73.005
 30
0.0
 70
0
  0
VERTEX
  5
47B
  8
0
 10
54.947
 20
73.005
 30
0.0
 70
0
  0
VERTEX
  5
47C
  8
0
 10
54.948
 20
73.005
 30
0.0
 70
0
  0
VERTEX
  5
47D
  8
0
 10
54.949
 20
73.005
 30
0.0
 70
0
  0
VERTEX
  5
47E
  8
0
 10
54.95
 20
73.005
 30
0.0
 70
0
  0
VERTEX
  5
47F
  8
0
 10
54.951
 20
73.005
 30
0.0
 70
0
  0
VERTEX
  5
480
  8
0
 10
54.952
 20
73.005
 30
0.0
 70
0
  0
VERTEX
  5
481
  8
0
 10
54.953
 20
73.005
 30
0.0
 70
0
  0
VERTEX
  5
482
  8
0
 10
54.954
 20
73.005
 30
0.0
 70
0
  0
VERTEX
  5
483
  8
0
 10
54.955
 20
73.005
 30
0.0
 70
0
  0
VERTEX
  5
484
  8
0
 10
54.957
 20
73.005
 30
0.0
 70
0
  0
VERTEX
  5
485
  8
0
 10
54.958
 20
73.005
 30
0.0
 70
0
  0
VERTEX
  5
486
  8
0
 10
54.959
 20
73.005
 30
0.0
 70
0
  0
VERTEX
  5
487
  8
0
 10
54.96
 20
73.005
 30
0.0
 70
0
  0
VERTEX
  5
488
  8
0
 10
54.961
 20
73.005
 30
0.0
 70
0
  0
VERTEX
  5
489
  8
0
 10
54.962
 20
73.005
 30
0.0
 70
0
  0
VERTEX
  5
48A
  8
0
 10
54.963
 20
73.005
 30
0.0
 70
0
  0
VERTEX
  5
48B
  8
0
 10
54.964
 20
73.005
 30
0.0
 70
0
  0
VERTEX
  5
48C
  8
0
 10
54.965
 20
73.005
 30
0.0
 70
0
  0
VERTEX
  5
48D
  8
0
 10
54.966
 20
73.005
 30
0.0
 70
0
  0
VERTEX
  5
48E
  8
0
 10
54.967
 20
73.005
 30
0.0
 70
0
  0
VERTEX
  5
48F
  8
0
 10
54.968
 20
73.005
 30
0.0
 70
0
  0
VERTEX
  5
490
  8
0
 10
54.969
 20
73.005
 30
0.0
 70
0
  0
VERTEX
  5
491
  8
0
 10
54.97
 20
73.005
 30
0.0
 70
0
  0
VERTEX
  5
492
  8
0
 10
54.971
 20
73.005
 30
0.0
 70
0
  0
VERTEX
  5
493
  8
0
 10
54.972
 20
73.005
 30
0.0
 70
0
  0
VERTEX
  5
494
  8
0
 10
54.973
 20
73.005
 30
0.0
 70
0
  0
VERTEX
  5
495
  8
0
 10
54.974
 20
73.005
 30
0.0
 70
0
  0
VERTEX
  5
496
  8
0
 10
54.975
 20
73.005
 30
0.0
 70
0
  0
VERTEX
  5
497
  8
0
 10
54.976
 20
73.005
 30
0.0
 70
0
  0
VERTEX
  5
498
  8
0
 10
54.977
 20
73.005
 30
0.0
 70
0
  0
VERTEX
  5
499
  8
0
 10
54.978
 20
73.005
 30
0.0
 70
0
  0
VERTEX
  5
49A
  8
0
 10
54.979
 20
73.005
 30
0.0
 70
0
  0
VERTEX
  5
49B
  8
0
 10
54.98
 20
73.005
 30
0.0
 70
0
  0
VERTEX
  5
49C
  8
0
 10
54.981
 20
73.005
 30
0.0
 70
0
  0
VERTEX
  5
49D
  8
0
 10
54.982
 20
73.005
 30
0.0
 70
0
  0
VERTEX
  5
49E
  8
0
 10
54.983
 20
73.005
 30
0.0
 70
0
  0
VERTEX
  5
49F
  8
0
 10
54.984
 20
73.005
 30
0.0
 70
0
  0
VERTEX
  5
4A0
  8
0
 10
54.985
 20
73.005
 30
0.0
 70
0
  0
VERTEX
  5
4A1
  8
0
 10
54.986
 20
73.005
 30
0.0
 70
0
  0
VERTEX
  5
4A2
  8
0
 10
54.986
 20
72.999
 30
0.0
 70
0
  0
VERTEX
  5
4A3
  8
0
 10
54.986
 20
72.99
 30
0.0
 70
0
  0
VERTEX
  5
4A4
  8
0
 10
54.985
 20
72.982
 30
0.0
 70
0
  0
VERTEX
  5
4A5
  8
0
 10
54.985
 20
72.974
 30
0.0
 70
0
  0
VERTEX
  5
4A6
  8
0
 10
54.984
 20
72.966
 30
0.0
 70
0
  0
VERTEX
  5
4A7
  8
0
 10
54.983
 20
72.958
 30
0.0
 70
0
  0
VERTEX
  5
4A8
  8
0
 10
54.982
 20
72.95
 30
0.0
 70
0
  0
VERTEX
  5
4A9
  8
0
 10
54.981
 20
72.942
 30
0.0
 70
0
  0
VERTEX
  5
4AA
  8
0
 10
54.98
 20
72.934
 30
0.0
 70
0
  0
VERTEX
  5
4AB
  8
0
 10
54.978
 20
72.926
 30
0.0
 70
0
  0
VERTEX
  5
4AC
  8
0
 10
54.977
 20
72.918
 30
0.0
 70
0
  0
VERTEX
  5
4AD
  8
0
 10
54.975
 20
72.91
 30
0.0
 70
0
  0
VERTEX
  5
4AE
  8
0
 10
54.973
 20
72.903
 30
0.0
 70
0
  0
VERTEX
  5
4AF
  8
0
 10
54.971
 20
72.895
 30
0.0
 70
0
  0
VERTEX
  5
4B0
  8
0
 10
54.969
 20
72.887
 30
0.0
 70
0
  0
VERTEX
  5
4B1
  8
0
 10
54.967
 20
72.88
 30
0.0
 70
0
  0
VERTEX
  5
4B2
  8
0
 10
54.964
 20
72.872
 30
0.0
 70
0
  0
VERTEX
  5
4B3
  8
0
 10
54.962
 20
72.865
 30
0.0
 70
0
  0
VERTEX
  5
4B4
  8
0
 10
54.959
 20
72.857
 30
0.0
 70
0
  0
VERTEX
  5
4B5
  8
0
 10
54.956
 20
72.85
 30
0.0
 70
0
  0
VERTEX
  5
4B6
  8
0
 10
54.953
 20
72.843
 30
0.0
 70
0
  0
VERTEX
  5
4B7
  8
0
 10
54.95
 20
72.835
 30
0.0
 70
0
  0
VERTEX
  5
4B8
  8
0
 10
54.947
 20
72.828
 30
0.0
 70
0
  0
VERTEX
  5
4B9
  8
0
 10
54.944
 20
72.821
 30
0.0
 70
0
  0
VERTEX
  5
4BA
  8
0
 10
54.94
 20
72.814
 30
0.0
 70
0
  0
VERTEX
  5
4BB
  8
0
 10
54.937
 20
72.807
 30
0.0
 70
0
  0
VERTEX
  5
4BC
  8
0
 10
54.933
 20
72.8
 30
0.0
 70
0
  0
VERTEX
  5
4BD
  8
0
 10
54.929
 20
72.793
 30
0.0
 70
0
  0
VERTEX
  5
4BE
  8
0
 10
54.925
 20
72.786
 30
0.0
 70
0
  0
VERTEX
  5
4BF
  8
0
 10
54.921
 20
72.78
 30
0.0
 70
0
  0
VERTEX
  5
4C0
  8
0
 10
54.917
 20
72.773
 30
0.0
 70
0
  0
VERTEX
  5
4C1
  8
0
 10
54.912
 20
72.766
 30
0.0
 70
0
  0
VERTEX
  5
4C2
  8
0
 10
54.908
 20
72.76
 30
0.0
 70
0
  0
VERTEX
  5
4C3
  8
0
 10
54.903
 20
72.753
 30
0.0
 70
0
  0
VERTEX
  5
4C4
  8
0
 10
54.899
 20
72.747
 30
0.0
 70
0
  0
VERTEX
  5
4C5
  8
0
 10
54.894
 20
72.74
 30
0.0
 70
0
  0
VERTEX
  5
4C6
  8
0
 10
54.889
 20
72.734
 30
0.0
 70
0
  0
VERTEX
  5
4C7
  8
0
 10
54.884
 20
72.728
 30
0.0
 70
0
  0
VERTEX
  5
4C8
  8
0
 10
54.879
 20
72.722
 30
0.0
 70
0
  0
VERTEX
  5
4C9
  8
0
 10
54.874
 20
72.716
 30
0.0
 70
0
  0
VERTEX
  5
4CA
  8
0
 10
54.869
 20
72.71
 30
0.0
 70
0
  0
VERTEX
  5
4CB
  8
0
 10
54.863
 20
72.704
 30
0.0
 70
0
  0
VERTEX
  5
4CC
  8
0
 10
54.858
 20
72.698
 30
0.0
 70
0
  0
VERTEX
  5
4CD
  8
0
 10
54.852
 20
72.692
 30
0.0
 70
0
  0
VERTEX
  5
4CE
  8
0
 10
54.847
 20
72.686
 30
0.0
 70
0
  0
VERTEX
  5
4CF
  8
0
 10
54.841
 20
72.681
 30
0.0
 70
0
  0
VERTEX
  5
4D0
  8
0
 10
54.835
 20
72.675
 30
0.0
 70
0
  0
VERTEX
  5
4D1
  8
0
 10
54.829
 20
72.669
 30
0.0
 70
0
  0
VERTEX
  5
4D2
  8
0
 10
54.823
 20
72.664
 30
0.0
 70
0
  0
VERTEX
  5
4D3
  8
0
 10
54.817
 20
72.659
 30
0.0
 70
0
  0
VERTEX
  5
4D4
  8
0
 10
54.811
 20
72.654
 30
0.0
 70
0
  0
VERTEX
  5
4D5
  8
0
 10
54.805
 20
72.648
 30
0.0
 70
0
  0
VERTEX
  5
4D6
  8
0
 10
54.799
 20
72.643
 30
0.0
 70
0
  0
VERTEX
  5
4D7
  8
0
 10
54.792
 20
72.638
 30
0.0
 70
0
  0
VERTEX
  5
4D8
  8
0
 10
54.786
 20
72.633
 30
0.0
 70
0
  0
VERTEX
  5
4D9
  8
0
 10
54.779
 20
72.629
 30
0.0
 70
0
  0
VERTEX
  5
4DA
  8
0
 10
54.773
 20
72.624
 30
0.0
 70
0
  0
VERTEX
  5
4DB
  8
0
 10
54.766
 20
72.619
 30
0.0
 70
0
  0
VERTEX
  5
4DC
  8
0
 10
54.759
 20
72.615
 30
0.0
 70
0
  0
VERTEX
  5
4DD
  8
0
 10
54.752
 20
72.61
 30
0.0
 70
0
  0
VERTEX
  5
4DE
  8
0
 10
54.745
 20
72.606
 30
0.0
 70
0
  0
VERTEX
  5
4DF
  8
0
 10
54.738
 20
72.601
 30
0.0
 70
0
  0
VERTEX
  5
4E0
  8
0
 10
54.731
 20
72.597
 30
0.0
 70
0
  0
VERTEX
  5
4E1
  8
0
 10
54.724
 20
72.593
 30
0.0
 70
0
  0
VERTEX
  5
4E2
  8
0
 10
54.717
 20
72.589
 30
0.0
 70
0
  0
VERTEX
  5
4E3
  8
0
 10
54.71
 20
72.585
 30
0.0
 70
0
  0
VERTEX
  5
4E4
  8
0
 10
54.703
 20
72.581
 30
0.0
 70
0
  0
VERTEX
  5
4E5
  8
0
 10
54.695
 20
72.577
 30
0.0
 70
0
  0
VERTEX
  5
4E6
  8
0
 10
54.688
 20
72.574
 30
0.0
 70
0
  0
VERTEX
  5
4E7
  8
0
 10
54.68
 20
72.57
 30
0.0
 70
0
  0
VERTEX
  5
4E8
  8
0
 10
54.673
 20
72.567
 30
0.0
 70
0
  0
VERTEX
  5
4E9
  8
0
 10
54.665
 20
72.563
 30
0.0
 70
0
  0
VERTEX
  5
4EA
  8
0
 10
54.658
 20
72.56
 30
0.0
 70
0
  0
VERTEX
  5
4EB
  8
0
 10
54.65
 20
72.557
 30
0.0
 70
0
  0
VERTEX
  5
4EC
  8
0
 10
54.643
 20
72.554
 30
0.0
 70
0
  0
VERTEX
  5
4ED
  8
0
 10
54.635
 20
72.551
 30
0.0
 70
0
  0
VERTEX
  5
4EE
  8
0
 10
54.627
 20
72.548
 30
0.0
 70
0
  0
VERTEX
  5
4EF
  8
0
 10
54.619
 20
72.545
 30
0.0
 70
0
  0
VERTEX
  5
4F0
  8
0
 10
54.611
 20
72.543
 30
0.0
 70
0
  0
VERTEX
  5
4F1
  8
0
 10
54.604
 20
72.54
 30
0.0
 70
0
  0
VERTEX
  5
4F2
  8
0
 10
54.596
 20
72.538
 30
0.0
 70
0
  0
VERTEX
  5
4F3
  8
0
 10
54.588
 20
72.535
 30
0.0
 70
0
  0
VERTEX
  5
4F4
  8
0
 10
54.58
 20
72.533
 30
0.0
 70
0
  0
VERTEX
  5
4F5
  8
0
 10
54.572
 20
72.531
 30
0.0
 70
0
  0
VERTEX
  5
4F6
  8
0
 10
54.564
 20
72.529
 30
0.0
 70
0
  0
VERTEX
  5
4F7
  8
0
 10
54.556
 20
72.527
 30
0.0
 70
0
  0
VERTEX
  5
4F8
  8
0
 10
54.547
 20
72.525
 30
0.0
 70
0
  0
VERTEX
  5
4F9
  8
0
 10
54.539
 20
72.523
 30
0.0
 70
0
  0
VERTEX
  5
4FA
  8
0
 10
54.531
 20
72.522
 30
0.0
 70
0
  0
VERTEX
  5
4FB
  8
0
 10
54.523
 20
72.52
 30
0.0
 70
0
  0
VERTEX
  5
4FC
  8
0
 10
54.515
 20
72.519
 30
0.0
 70
0
  0
VERTEX
  5
4FD
  8
0
 10
54.506
 20
72.517
 30
0.0
 70
0
  0
VERTEX
  5
4FE
  8
0
 10
54.498
 20
72.516
 30
0.0
 70
0
  0
VERTEX
  5
4FF
  8
0
 10
54.49
 20
72.515
 30
0.0
 70
0
  0
VERTEX
  5
500
  8
0
 10
54.482
 20
72.514
 30
0.0
 70
0
  0
VERTEX
  5
501
  8
0
 10
54.474
 20
72.513
 30
0.0
 70
0
  0
VERTEX
  5
502
  8
0
 10
54.465
 20
72.513
 30
0.0
 70
0
  0
VERTEX
  5
503
  8
0
 10
54.457
 20
72.512
 30
0.0
 70
0
  0
VERTEX
  5
504
  8
0
 10
54.449
 20
72.512
 30
0.0
 70
0
  0
VERTEX
  5
505
  8
0
 10
54.44
 20
72.511
 30
0.0
 70
0
  0
VERTEX
  5
506
  8
0
 10
54.432
 20
72.511
 30
0.0
 70
0
  0
VERTEX
  5
507
  8
0
 10
54.424
 20
72.511
 30
0.0
 70
0
  0
VERTEX
  5
508
  8
0
 10
54.416
 20
72.511
 30
0.0
 70
0
  0
VERTEX
  5
509
  8
0
 10
54.407
 20
72.511
 30
0.0
 70
0
  0
VERTEX
  5
50A
  8
0
 10
54.399
 20
72.511
 30
0.0
 70
0
  0
VERTEX
  5
50B
  8
0
 10
54.391
 20
72.512
 30
0.0
 70
0
  0
VERTEX
  5
50C
  8
0
 10
54.383
 20
72.512
 30
0.0
 70
0
  0
VERTEX
  5
50D
  8
0
 10
54.375
 20
72.513
 30
0.0
 70
0
  0
VERTEX
  5
50E
  8
0
 10
54.367
 20
72.514
 30
0.0
 70
0
  0
VERTEX
  5
50F
  8
0
 10
54.359
 20
72.514
 30
0.0
 70
0
  0
VERTEX
  5
510
  8
0
 10
54.351
 20
72.515
 30
0.0
 70
0
  0
VERTEX
  5
511
  8
0
 10
54.343
 20
72.517
 30
0.0
 70
0
  0
VERTEX
  5
512
  8
0
 10
54.336
 20
72.518
 30
0.0
 70
0
  0
VERTEX
  5
513
  8
0
 10
54.328
 20
72.519
 30
0.0
 70
0
  0
VERTEX
  5
514
  8
0
 10
54.32
 20
72.52
 30
0.0
 70
0
  0
VERTEX
  5
515
  8
0
 10
54.312
 20
72.522
 30
0.0
 70
0
  0
VERTEX
  5
516
  8
0
 10
54.305
 20
72.524
 30
0.0
 70
0
  0
VERTEX
  5
517
  8
0
 10
54.297
 20
72.525
 30
0.0
 70
0
  0
VERTEX
  5
518
  8
0
 10
54.29
 20
72.527
 30
0.0
 70
0
  0
VERTEX
  5
519
  8
0
 10
54.282
 20
72.529
 30
0.0
 70
0
  0
VERTEX
  5
51A
  8
0
 10
54.275
 20
72.531
 30
0.0
 70
0
  0
VERTEX
  5
51B
  8
0
 10
54.268
 20
72.533
 30
0.0
 70
0
  0
VERTEX
  5
51C
  8
0
 10
54.26
 20
72.536
 30
0.0
 70
0
  0
VERTEX
  5
51D
  8
0
 10
54.253
 20
72.538
 30
0.0
 70
0
  0
VERTEX
  5
51E
  8
0
 10
54.246
 20
72.541
 30
0.0
 70
0
  0
VERTEX
  5
51F
  8
0
 10
54.239
 20
72.543
 30
0.0
 70
0
  0
VERTEX
  5
520
  8
0
 10
54.232
 20
72.546
 30
0.0
 70
0
  0
VERTEX
  5
521
  8
0
 10
54.225
 20
72.549
 30
0.0
 70
0
  0
VERTEX
  5
522
  8
0
 10
54.218
 20
72.551
 30
0.0
 70
0
  0
VERTEX
  5
523
  8
0
 10
54.211
 20
72.554
 30
0.0
 70
0
  0
VERTEX
  5
524
  8
0
 10
54.204
 20
72.558
 30
0.0
 70
0
  0
VERTEX
  5
525
  8
0
 10
54.197
 20
72.561
 30
0.0
 70
0
  0
VERTEX
  5
526
  8
0
 10
54.191
 20
72.564
 30
0.0
 70
0
  0
VERTEX
  5
527
  8
0
 10
54.184
 20
72.567
 30
0.0
 70
0
  0
VERTEX
  5
528
  8
0
 10
54.177
 20
72.571
 30
0.0
 70
0
  0
VERTEX
  5
529
  8
0
 10
54.171
 20
72.575
 30
0.0
 70
0
  0
VERTEX
  5
52A
  8
0
 10
54.164
 20
72.578
 30
0.0
 70
0
  0
VERTEX
  5
52B
  8
0
 10
54.158
 20
72.582
 30
0.0
 70
0
  0
VERTEX
  5
52C
  8
0
 10
54.152
 20
72.586
 30
0.0
 70
0
  0
VERTEX
  5
52D
  8
0
 10
54.146
 20
72.59
 30
0.0
 70
0
  0
VERTEX
  5
52E
  8
0
 10
54.139
 20
72.594
 30
0.0
 70
0
  0
VERTEX
  5
52F
  8
0
 10
54.133
 20
72.598
 30
0.0
 70
0
  0
VERTEX
  5
530
  8
0
 10
54.127
 20
72.602
 30
0.0
 70
0
  0
VERTEX
  5
531
  8
0
 10
54.121
 20
72.607
 30
0.0
 70
0
  0
VERTEX
  5
532
  8
0
 10
54.115
 20
72.611
 30
0.0
 70
0
  0
VERTEX
  5
533
  8
0
 10
54.11
 20
72.616
 30
0.0
 70
0
  0
VERTEX
  5
534
  8
0
 10
54.104
 20
72.62
 30
0.0
 70
0
  0
VERTEX
  5
535
  8
0
 10
54.098
 20
72.625
 30
0.0
 70
0
  0
VERTEX
  5
536
  8
0
 10
54.093
 20
72.63
 30
0.0
 70
0
  0
VERTEX
  5
537
  8
0
 10
54.087
 20
72.634
 30
0.0
 70
0
  0
VERTEX
  5
538
  8
0
 10
54.082
 20
72.639
 30
0.0
 70
0
  0
VERTEX
  5
539
  8
0
 10
54.076
 20
72.644
 30
0.0
 70
0
  0
VERTEX
  5
53A
  8
0
 10
54.071
 20
72.649
 30
0.0
 70
0
  0
VERTEX
  5
53B
  8
0
 10
54.066
 20
72.655
 30
0.0
 70
0
  0
VERTEX
  5
53C
  8
0
 10
54.061
 20
72.66
 30
0.0
 70
0
  0
VERTEX
  5
53D
  8
0
 10
54.056
 20
72.665
 30
0.0
 70
0
  0
VERTEX
  5
53E
  8
0
 10
54.051
 20
72.671
 30
0.0
 70
0
  0
VERTEX
  5
53F
  8
0
 10
54.046
 20
72.676
 30
0.0
 70
0
  0
VERTEX
  5
540
  8
0
 10
54.041
 20
72.682
 30
0.0
 70
0
  0
VERTEX
  5
541
  8
0
 10
54.037
 20
72.687
 30
0.0
 70
0
  0
VERTEX
  5
542
  8
0
 10
54.032
 20
72.693
 30
0.0
 70
0
  0
VERTEX
  5
543
  8
0
 10
54.027
 20
72.699
 30
0.0
 70
0
  0
VERTEX
  5
544
  8
0
 10
54.023
 20
72.705
 30
0.0
 70
0
  0
VERTEX
  5
545
  8
0
 10
54.019
 20
72.711
 30
0.0
 70
0
  0
VERTEX
  5
546
  8
0
 10
54.014
 20
72.717
 30
0.0
 70
0
  0
VERTEX
  5
547
  8
0
 10
54.01
 20
72.723
 30
0.0
 70
0
  0
VERTEX
  5
548
  8
0
 10
54.006
 20
72.729
 30
0.0
 70
0
  0
VERTEX
  5
549
  8
0
 10
54.002
 20
72.735
 30
0.0
 70
0
  0
VERTEX
  5
54A
  8
0
 10
53.998
 20
72.742
 30
0.0
 70
0
  0
VERTEX
  5
54B
  8
0
 10
53.994
 20
72.748
 30
0.0
 70
0
  0
VERTEX
  5
54C
  8
0
 10
53.991
 20
72.754
 30
0.0
 70
0
  0
VERTEX
  5
54D
  8
0
 10
53.987
 20
72.761
 30
0.0
 70
0
  0
VERTEX
  5
54E
  8
0
 10
53.984
 20
72.768
 30
0.0
 70
0
  0
VERTEX
  5
54F
  8
0
 10
53.98
 20
72.774
 30
0.0
 70
0
  0
VERTEX
  5
550
  8
0
 10
53.977
 20
72.781
 30
0.0
 70
0
  0
VERTEX
  5
551
  8
0
 10
53.974
 20
72.788
 30
0.0
 70
0
  0
VERTEX
  5
552
  8
0
 10
53.971
 20
72.794
 30
0.0
 70
0
  0
VERTEX
  5
553
  8
0
 10
53.968
 20
72.801
 30
0.0
 70
0
  0
VERTEX
  5
554
  8
0
 10
53.965
 20
72.808
 30
0.0
 70
0
  0
VERTEX
  5
555
  8
0
 10
53.962
 20
72.815
 30
0.0
 70
0
  0
VERTEX
  5
556
  8
0
 10
53.959
 20
72.822
 30
0.0
 70
0
  0
VERTEX
  5
557
  8
0
 10
53.956
 20
72.83
 30
0.0
 70
0
  0
VERTEX
  5
558
  8
0
 10
53.954
 20
72.837
 30
0.0
 70
0
  0
VERTEX
  5
559
  8
0
 10
53.952
 20
72.844
 30
0.0
 70
0
  0
VERTEX
  5
55A
  8
0
 10
53.949
 20
72.851
 30
0.0
 70
0
  0
VERTEX
  5
55B
  8
0
 10
53.947
 20
72.859
 30
0.0
 70
0
  0
VERTEX
  5
55C
  8
0
 10
53.945
 20
72.866
 30
0.0
 70
0
  0
VERTEX
  5
55D
  8
0
 10
53.943
 20
72.874
 30
0.0
 70
0
  0
VERTEX
  5
55E
  8
0
 10
53.941
 20
72.881
 30
0.0
 70
0
  0
VERTEX
  5
55F
  8
0
 10
53.939
 20
72.889
 30
0.0
 70
0
  0
VERTEX
  5
560
  8
0
 10
53.938
 20
72.896
 30
0.0
 70
0
  0
VERTEX
  5
561
  8
0
 10
53.936
 20
72.904
 30
0.0
 70
0
  0
VERTEX
  5
562
  8
0
 10
53.935
 20
72.912
 30
0.0
 70
0
  0
VERTEX
  5
563
  8
0
 10
53.933
 20
72.92
 30
0.0
 70
0
  0
VERTEX
  5
564
  8
0
 10
53.932
 20
72.928
 30
0.0
 70
0
  0
VERTEX
  5
565
  8
0
 10
53.931
 20
72.935
 30
0.0
 70
0
  0
VERTEX
  5
566
  8
0
 10
53.93
 20
72.943
 30
0.0
 70
0
  0
VERTEX
  5
567
  8
0
 10
53.929
 20
72.951
 30
0.0
 70
0
  0
VERTEX
  5
568
  8
0
 10
53.929
 20
72.959
 30
0.0
 70
0
  0
VERTEX
  5
569
  8
0
 10
53.928
 20
72.967
 30
0.0
 70
0
  0
VERTEX
  5
56A
  8
0
 10
53.928
 20
72.976
 30
0.0
 70
0
  0
VERTEX
  5
56B
  8
0
 10
53.927
 20
72.984
 30
0.0
 70
0
  0
VERTEX
  5
56C
  8
0
 10
53.927
 20
72.992
 30
0.0
 70
0
  0
VERTEX
  5
56D
  8
0
 10
53.927
 20
73.0
 30
0.0
 70
0
  0
VERTEX
  5
56E
  8
0
 10
53.927
 20
73.008
 30
0.0
 70
0
  0
VERTEX
  5
56F
  8
0
 10
53.927
 20
73.017
 30
0.0
 70
0
  0
VERTEX
  5
570
  8
0
 10
53.927
 20
73.025
 30
0.0
 70
0
  0
VERTEX
  5
571
  8
0
 10
53.927
 20
73.033
 30
0.0
 70
0
  0
VERTEX
  5
572
  8
0
 10
53.928
 20
73.042
 30
0.0
 70
0
  0
VERTEX
  5
573
  8
0
 10
53.929
 20
73.05
 30
0.0
 70
0
  0
VERTEX
  5
574
  8
0
 10
53.929
 20
73.058
 30
0.0
 70
0
  0
VERTEX
  5
575
  8
0
 10
53.93
 20
73.067
 30
0.0
 70
0
  0
VERTEX
  5
576
  8
0
 10
53.931
 20
73.075
 30
0.0
 70
0
  0
VERTEX
  5
577
  8
0
 10
53.932
 20
73.083
 30
0.0
 70
0
  0
VERTEX
  5
578
  8
0
 10
53.933
 20
73.091
 30
0.0
 70
0
  0
VERTEX
  5
579
  8
0
 10
53.935
 20
73.099
 30
0.0
 70
0
  0
VERTEX
  5
57A
  8
0
 10
53.936
 20
73.108
 30
0.0
 70
0
  0
VERTEX
  5
57B
  8
0
 10
53.937
 20
73.116
 30
0.0
 70
0
  0
VERTEX
  5
57C
  8
0
 10
53.939
 20
73.124
 30
0.0
 70
0
  0
VERTEX
  5
57D
  8
0
 10
53.941
 20
73.132
 30
0.0
 70
0
  0
VERTEX
  5
57E
  8
0
 10
53.943
 20
73.14
 30
0.0
 70
0
  0
VERTEX
  5
57F
  8
0
 10
53.945
 20
73.148
 30
0.0
 70
0
  0
VERTEX
  5
580
  8
0
 10
53.947
 20
73.156
 30
0.0
 70
0
  0
VERTEX
  5
581
  8
0
 10
53.949
 20
73.164
 30
0.0
 70
0
  0
VERTEX
  5
582
  8
0
 10
53.951
 20
73.172
 30
0.0
 70
0
  0
VERTEX
  5
583
  8
0
 10
53.953
 20
73.18
 30
0.0
 70
0
  0
VERTEX
  5
584
  8
0
 10
53.956
 20
73.188
 30
0.0
 70
0
  0
VERTEX
  5
585
  8
0
 10
53.959
 20
73.196
 30
0.0
 70
0
  0
VERTEX
  5
586
  8
0
 10
53.961
 20
73.204
 30
0.0
 70
0
  0
VERTEX
  5
587
  8
0
 10
53.964
 20
73.212
 30
0.0
 70
0
  0
VERTEX
  5
588
  8
0
 10
53.967
 20
73.219
 30
0.0
 70
0
  0
VERTEX
  5
589
  8
0
 10
53.97
 20
73.227
 30
0.0
 70
0
  0
VERTEX
  5
58A
  8
0
 10
53.973
 20
73.235
 30
0.0
 70
0
  0
VERTEX
  5
58B
  8
0
 10
53.976
 20
73.243
 30
0.0
 70
0
  0
VERTEX
  5
58C
  8
0
 10
53.98
 20
73.25
 30
0.0
 70
0
  0
VERTEX
  5
58D
  8
0
 10
53.983
 20
73.258
 30
0.0
 70
0
  0
VERTEX
  5
58E
  8
0
 10
53.986
 20
73.265
 30
0.0
 70
0
  0
VERTEX
  5
58F
  8
0
 10
53.99
 20
73.273
 30
0.0
 70
0
  0
VERTEX
  5
590
  8
0
 10
53.994
 20
73.28
 30
0.0
 70
0
  0
VERTEX
  5
591
  8
0
 10
53.997
 20
73.287
 30
0.0
 70
0
  0
VERTEX
  5
592
  8
0
 10
54.001
 20
73.295
 30
0.0
 70
0
  0
VERTEX
  5
593
  8
0
 10
54.005
 20
73.302
 30
0.0
 70
0
  0
VERTEX
  5
594
  8
0
 10
54.009
 20
73.309
 30
0.0
 70
0
  0
VERTEX
  5
595
  8
0
 10
54.014
 20
73.316
 30
0.0
 70
0
  0
VERTEX
  5
596
  8
0
 10
54.018
 20
73.323
 30
0.0
 70
0
  0
VERTEX
  5
597
  8
0
 10
54.022
 20
73.33
 30
0.0
 70
0
  0
VERTEX
  5
598
  8
0
 10
54.027
 20
73.337
 30
0.0
 70
0
  0
VERTEX
  5
599
  8
0
 10
54.031
 20
73.344
 30
0.0
 70
0
  0
VERTEX
  5
59A
  8
0
 10
54.036
 20
73.351
 30
0.0
 70
0
  0
VERTEX
  5
59B
  8
0
 10
54.04
 20
73.357
 30
0.0
 70
0
  0
VERTEX
  5
59C
  8
0
 10
54.045
 20
73.364
 30
0.0
 70
0
  0
VERTEX
  5
59D
  8
0
 10
54.05
 20
73.37
 30
0.0
 70
0
  0
VERTEX
  5
59E
  8
0
 10
54.055
 20
73.377
 30
0.0
 70
0
  0
VERTEX
  5
59F
  8
0
 10
54.06
 20
73.383
 30
0.0
 70
0
  0
VERTEX
  5
5A0
  8
0
 10
54.065
 20
73.39
 30
0.0
 70
0
  0
VERTEX
  5
5A1
  8
0
 10
54.07
 20
73.396
 30
0.0
 70
0
  0
VERTEX
  5
5A2
  8
0
 10
54.075
 20
73.402
 30
0.0
 70
0
  0
VERTEX
  5
5A3
  8
0
 10
54.081
 20
73.408
 30
0.0
 70
0
  0
VERTEX
  5
5A4
  8
0
 10
54.086
 20
73.414
 30
0.0
 70
0
  0
VERTEX
  5
5A5
  8
0
 10
54.092
 20
73.42
 30
0.0
 70
0
  0
VERTEX
  5
5A6
  8
0
 10
54.097
 20
73.426
 30
0.0
 70
0
  0
VERTEX
  5
5A7
  8
0
 10
54.103
 20
73.432
 30
0.0
 70
0
  0
VERTEX
  5
5A8
  8
0
 10
54.108
 20
73.437
 30
0.0
 70
0
  0
VERTEX
  5
5A9
  8
0
 10
54.114
 20
73.443
 30
0.0
 70
0
  0
VERTEX
  5
5AA
  8
0
 10
54.12
 20
73.448
 30
0.0
 70
0
  0
VERTEX
  5
5AB
  8
0
 10
54.126
 20
73.454
 30
0.0
 70
0
  0
VERTEX
  5
5AC
  8
0
 10
54.132
 20
73.459
 30
0.0
 70
0
  0
VERTEX
  5
5AD
  8
0
 10
54.138
 20
73.464
 30
0.0
 70
0
  0
VERTEX
  5
5AE
  8
0
 10
54.144
 20
73.469
 30
0.0
 70
0
  0
VERTEX
  5
5AF
  8
0
 10
54.151
 20
73.474
 30
0.0
 70
0
  0
VERTEX
  5
5B0
  8
0
 10
54.157
 20
73.479
 30
0.0
 70
0
  0
VERTEX
  5
5B1
  8
0
 10
54.163
 20
73.484
 30
0.0
 70
0
  0
VERTEX
  5
5B2
  8
0
 10
54.17
 20
73.488
 30
0.0
 70
0
  0
VERTEX
  5
5B3
  8
0
 10
54.176
 20
73.493
 30
0.0
 70
0
  0
VERTEX
  5
5B4
  8
0
 10
54.183
 20
73.497
 30
0.0
 70
0
  0
VERTEX
  5
5B5
  8
0
 10
54.189
 20
73.501
 30
0.0
 70
0
  0
VERTEX
  5
5B6
  8
0
 10
54.196
 20
73.506
 30
0.0
 70
0
  0
VERTEX
  5
5B7
  8
0
 10
54.203
 20
73.51
 30
0.0
 70
0
  0
VERTEX
  5
5B8
  8
0
 10
54.21
 20
73.514
 30
0.0
 70
0
  0
VERTEX
  5
5B9
  8
0
 10
54.216
 20
73.517
 30
0.0
 70
0
  0
VERTEX
  5
5BA
  8
0
 10
54.223
 20
73.521
 30
0.0
 70
0
  0
VERTEX
  5
5BB
  8
0
 10
54.23
 20
73.525
 30
0.0
 70
0
  0
VERTEX
  5
5BC
  8
0
 10
54.237
 20
73.528
 30
0.0
 70
0
  0
VERTEX
  5
5BD
  8
0
 10
54.245
 20
73.532
 30
0.0
 70
0
  0
VERTEX
  5
5BE
  8
0
 10
54.252
 20
73.535
 30
0.0
 70
0
  0
VERTEX
  5
5BF
  8
0
 10
54.259
 20
73.538
 30
0.0
 70
0
  0
VERTEX
  5
5C0
  8
0
 10
54.266
 20
73.541
 30
0.0
 70
0
  0
VERTEX
  5
5C1
  8
0
 10
54.274
 20
73.544
 30
0.0
 70
0
  0
VERTEX
  5
5C2
  8
0
 10
54.281
 20
73.546
 30
0.0
 70
0
  0
VERTEX
  5
5C3
  8
0
 10
54.288
 20
73.549
 30
0.0
 70
0
  0
VERTEX
  5
5C4
  8
0
 10
54.296
 20
73.551
 30
0.0
 70
0
  0
VERTEX
  5
5C5
  8
0
 10
54.303
 20
73.554
 30
0.0
 70
0
  0
VERTEX
  5
5C6
  8
0
 10
54.311
 20
73.556
 30
0.0
 70
0
  0
VERTEX
  5
5C7
  8
0
 10
54.319
 20
73.558
 30
0.0
 70
0
  0
VERTEX
  5
5C8
  8
0
 10
54.326
 20
73.56
 30
0.0
 70
0
  0
VERTEX
  5
5C9
  8
0
 10
54.334
 20
73.562
 30
0.0
 70
0
  0
VERTEX
  5
5CA
  8
0
 10
54.342
 20
73.563
 30
0.0
 70
0
  0
VERTEX
  5
5CB
  8
0
 10
54.35
 20
73.565
 30
0.0
 70
0
  0
VERTEX
  5
5CC
  8
0
 10
54.357
 20
73.566
 30
0.0
 70
0
  0
VERTEX
  5
5CD
  8
0
 10
54.365
 20
73.567
 30
0.0
 70
0
  0
VERTEX
  5
5CE
  8
0
 10
54.373
 20
73.568
 30
0.0
 70
0
  0
VERTEX
  5
5CF
  8
0
 10
54.381
 20
73.569
 30
0.0
 70
0
  0
VERTEX
  5
5D0
  8
0
 10
54.39
 20
73.569
 30
0.0
 70
0
  0
VERTEX
  5
5D1
  8
0
 10
54.398
 20
73.57
 30
0.0
 70
0
  0
VERTEX
  5
5D2
  8
0
 10
54.406
 20
73.57
 30
0.0
 70
0
  0
VERTEX
  5
5D3
  8
0
 10
54.414
 20
73.571
 30
0.0
 70
0
  0
VERTEX
  5
5D4
  8
0
 10
54.422
 20
73.571
 30
0.0
 70
0
  0
VERTEX
  5
5D5
  8
0
 10
54.43
 20
73.571
 30
0.0
 70
0
  0
VERTEX
  5
5D6
  8
0
 10
54.439
 20
73.57
 30
0.0
 70
0
  0
VERTEX
  5
5D7
  8
0
 10
54.447
 20
73.57
 30
0.0
 70
0
  0
VERTEX
  5
5D8
  8
0
 10
54.455
 20
73.569
 30
0.0
 70
0
  0
VERTEX
  5
5D9
  8
0
 10
54.464
 20
73.568
 30
0.0
 70
0
  0
VERTEX
  5
5DA
  8
0
 10
54.472
 20
73.568
 30
0.0
 70
0
  0
VERTEX
  5
5DB
  8
0
 10
54.48
 20
73.567
 30
0.0
 70
0
  0
VERTEX
  5
5DC
  8
0
 10
54.488
 20
73.565
 30
0.0
 70
0
  0
VERTEX
  5
5DD
  8
0
 10
54.497
 20
73.564
 30
0.0
 70
0
  0
VERTEX
  5
5DE
  8
0
 10
54.505
 20
73.562
 30
0.0
 70
0
  0
VERTEX
  5
5DF
  8
0
 10
54.513
 20
73.561
 30
0.0
 70
0
  0
VERTEX
  5
5E0
  8
0
 10
54.521
 20
73.559
 30
0.0
 70
0
  0
VERTEX
  5
5E1
  8
0
 10
54.529
 20
73.557
 30
0.0
 70
0
  0
VERTEX
  5
5E2
  8
0
 10
54.538
 20
73.555
 30
0.0
 70
0
  0
VERTEX
  5
5E3
  8
0
 10
54.546
 20
73.553
 30
0.0
 70
0
  0
VERTEX
  5
5E4
  8
0
 10
54.554
 20
73.55
 30
0.0
 70
0
  0
VERTEX
  5
5E5
  8
0
 10
54.562
 20
73.548
 30
0.0
 70
0
  0
VERTEX
  5
5E6
  8
0
 10
54.57
 20
73.545
 30
0.0
 70
0
  0
VERTEX
  5
5E7
  8
0
 10
54.578
 20
73.543
 30
0.0
 70
0
  0
VERTEX
  5
5E8
  8
0
 10
54.586
 20
73.54
 30
0.0
 70
0
  0
VERTEX
  5
5E9
  8
0
 10
54.594
 20
73.537
 30
0.0
 70
0
  0
VERTEX
  5
5EA
  8
0
 10
54.602
 20
73.534
 30
0.0
 70
0
  0
VERTEX
  5
5EB
  8
0
 10
54.61
 20
73.53
 30
0.0
 70
0
  0
VERTEX
  5
5EC
  8
0
 10
54.618
 20
73.527
 30
0.0
 70
0
  0
VERTEX
  5
5ED
  8
0
 10
54.625
 20
73.523
 30
0.0
 70
0
  0
VERTEX
  5
5EE
  8
0
 10
54.633
 20
73.52
 30
0.0
 70
0
  0
VERTEX
  5
5EF
  8
0
 10
54.641
 20
73.516
 30
0.0
 70
0
  0
VERTEX
  5
5F0
  8
0
 10
54.649
 20
73.512
 30
0.0
 70
0
  0
VERTEX
  5
5F1
  8
0
 10
54.656
 20
73.508
 30
0.0
 70
0
  0
VERTEX
  5
5F2
  8
0
 10
54.664
 20
73.504
 30
0.0
 70
0
  0
VERTEX
  5
5F3
  8
0
 10
54.671
 20
73.5
 30
0.0
 70
0
  0
VERTEX
  5
5F4
  8
0
 10
54.679
 20
73.495
 30
0.0
 70
0
  0
VERTEX
  5
5F5
  8
0
 10
54.686
 20
73.491
 30
0.0
 70
0
  0
VERTEX
  5
5F6
  8
0
 10
54.694
 20
73.486
 30
0.0
 70
0
  0
VERTEX
  5
5F7
  8
0
 10
54.701
 20
73.482
 30
0.0
 70
0
  0
VERTEX
  5
5F8
  8
0
 10
54.708
 20
73.477
 30
0.0
 70
0
  0
VERTEX
  5
5F9
  8
0
 10
54.716
 20
73.472
 30
0.0
 70
0
  0
VERTEX
  5
5FA
  8
0
 10
54.723
 20
73.467
 30
0.0
 70
0
  0
VERTEX
  5
5FB
  8
0
 10
54.73
 20
73.462
 30
0.0
 70
0
  0
VERTEX
  5
5FC
  8
0
 10
54.737
 20
73.457
 30
0.0
 70
0
  0
VERTEX
  5
5FD
  8
0
 10
54.744
 20
73.451
 30
0.0
 70
0
  0
VERTEX
  5
5FE
  8
0
 10
54.751
 20
73.446
 30
0.0
 70
0
  0
VERTEX
  5
5FF
  8
0
 10
54.758
 20
73.441
 30
0.0
 70
0
  0
VERTEX
  5
600
  8
0
 10
54.765
 20
73.435
 30
0.0
 70
0
  0
VERTEX
  5
601
  8
0
 10
54.771
 20
73.429
 30
0.0
 70
0
  0
VERTEX
  5
602
  8
0
 10
54.778
 20
73.424
 30
0.0
 70
0
  0
VERTEX
  5
603
  8
0
 10
54.784
 20
73.418
 30
0.0
 70
0
  0
VERTEX
  5
604
  8
0
 10
54.791
 20
73.412
 30
0.0
 70
0
  0
VERTEX
  5
605
  8
0
 10
54.797
 20
73.406
 30
0.0
 70
0
  0
VERTEX
  5
606
  8
0
 10
54.804
 20
73.399
 30
0.0
 70
0
  0
VERTEX
  5
607
  8
0
 10
54.81
 20
73.393
 30
0.0
 70
0
  0
VERTEX
  5
608
  8
0
 10
54.816
 20
73.387
 30
0.0
 70
0
  0
VERTEX
  5
609
  8
0
 10
54.822
 20
73.381
 30
0.0
 70
0
  0
VERTEX
  5
60A
  8
0
 10
54.828
 20
73.374
 30
0.0
 70
0
  0
VERTEX
  5
60B
  8
0
 10
54.834
 20
73.368
 30
0.0
 70
0
  0
VERTEX
  5
60C
  8
0
 10
54.84
 20
73.361
 30
0.0
 70
0
  0
VERTEX
  5
60D
  8
0
 10
54.846
 20
73.355
 30
0.0
 70
0
  0
VERTEX
  5
60E
  8
0
 10
54.851
 20
73.348
 30
0.0
 70
0
  0
VERTEX
  5
60F
  8
0
 10
54.857
 20
73.341
 30
0.0
 70
0
  0
VERTEX
  5
610
  8
0
 10
54.862
 20
73.334
 30
0.0
 70
0
  0
VERTEX
  5
611
  8
0
 10
54.868
 20
73.327
 30
0.0
 70
0
  0
VERTEX
  5
612
  8
0
 10
54.873
 20
73.32
 30
0.0
 70
0
  0
VERTEX
  5
613
  8
0
 10
54.878
 20
73.313
 30
0.0
 70
0
  0
VERTEX
  5
614
  8
0
 10
54.883
 20
73.306
 30
0.0
 70
0
  0
VERTEX
  5
615
  8
0
 10
54.888
 20
73.299
 30
0.0
 70
0
  0
VERTEX
  5
616
  8
0
 10
54.893
 20
73.292
 30
0.0
 70
0
  0
VERTEX
  5
617
  8
0
 10
54.898
 20
73.284
 30
0.0
 70
0
  0
VERTEX
  5
618
  8
0
 10
54.902
 20
73.277
 30
0.0
 70
0
  0
VERTEX
  5
619
  8
0
 10
54.907
 20
73.27
 30
0.0
 70
0
  0
VERTEX
  5
61A
  8
0
 10
54.911
 20
73.262
 30
0.0
 70
0
  0
VERTEX
  5
61B
  8
0
 10
54.916
 20
73.255
 30
0.0
 70
0
  0
VERTEX
  5
61C
  8
0
 10
54.92
 20
73.247
 30
0.0
 70
0
  0
VERTEX
  5
61D
  8
0
 10
54.924
 20
73.24
 30
0.0
 70
0
  0
VERTEX
  5
61E
  8
0
 10
54.928
 20
73.232
 30
0.0
 70
0
  0
VERTEX
  5
61F
  8
0
 10
54.932
 20
73.224
 30
0.0
 70
0
  0
VERTEX
  5
620
  8
0
 10
54.936
 20
73.216
 30
0.0
 70
0
  0
VERTEX
  5
621
  8
0
 10
54.939
 20
73.208
 30
0.0
 70
0
  0
VERTEX
  5
622
  8
0
 10
54.943
 20
73.201
 30
0.0
 70
0
  0
VERTEX
  5
623
  8
0
 10
54.946
 20
73.193
 30
0.0
 70
0
  0
VERTEX
  5
624
  8
0
 10
54.95
 20
73.185
 30
0.0
 70
0
  0
VERTEX
  5
625
  8
0
 10
54.953
 20
73.177
 30
0.0
 70
0
  0
VERTEX
  5
626
  8
0
 10
54.956
 20
73.169
 30
0.0
 70
0
  0
VERTEX
  5
627
  8
0
 10
54.959
 20
73.161
 30
0.0
 70
0
  0
VERTEX
  5
628
  8
0
 10
54.961
 20
73.153
 30
0.0
 70
0
  0
VERTEX
  5
629
  8
0
 10
54.964
 20
73.145
 30
0.0
 70
0
  0
VERTEX
  5
62A
  8
0
 10
54.966
 20
73.137
 30
0.0
 70
0
  0
VERTEX
  5
62B
  8
0
 10
54.969
 20
73.129
 30
0.0
 70
0
  0
VERTEX
  5
62C
  8
0
 10
54.971
 20
73.121
 30
0.0
 70
0
  0
VERTEX
  5
62D
  8
0
 10
54.973
 20
73.113
 30
0.0
 70
0
  0
VERTEX
  5
62E
  8
0
 10
54.975
 20
73.104
 30
0.0
 70
0
  0
VERTEX
  5
62F
  8
0
 10
54.977
 20
73.096
 30
0.0
 70
0
  0
VERTEX
  5
630
  8
0
 10
54.978
 20
73.088
 30
0.0
 70
0
  0
VERTEX
  5
631
  8
0
 10
54.98
 20
73.08
 30
0.0
 70
0
  0
VERTEX
  5
632
  8
0
 10
54.981
 20
73.072
 30
0.0
 70
0
  0
VERTEX
  5
633
  8
0
 10
54.982
 20
73.063
 30
0.0
 70
0
  0
VERTEX
  5
634
  8
0
 10
54.983
 20
73.055
 30
0.0
 70
0
  0
VERTEX
  5
635
  8
0
 10
54.984
 20
73.047
 30
0.0
 70
0
  0
VERTEX
  5
636
  8
0
 10
54.985
 20
73.038
 30
0.0
 70
0
  0
VERTEX
  5
637
  8
0
 10
54.985
 20
73.03
 30
0.0
 70
0
  0
VERTEX
  5
638
  8
0
 10
54.986
 20
73.022
 30
0.0
 70
0
  0
VERTEX
  5
639
  8
0
 10
54.986
 20
73.013
 30
0.0
 70
0
  0
VERTEX
  5
63A
  8
0
 10
54.986
 20
73.005
 30
0.0
 70
0
  0
SEQEND
  5
45A
  8
0
  0
POLYLINE
  5
63B
  8
0
 66
1
 10
0.0
 20
0.0
 30
0.0
 70
0
  0
VERTEX
  5
63D
  8
0
 10
54.915
 20
73.005
 30
0.0
 70
0
  0
VERTEX
  5
63E
  8
0
 10
54.915
 20
73.0
 30
0.0
 70
0
  0
VERTEX
  5
63F
  8
0
 10
54.915
 20
72.994
 30
0.0
 70
0
  0
VERTEX
  5
640
  8
0
 10
54.914
 20
72.988
 30
0.0
 70
0
  0
VERTEX
  5
641
  8
0
 10
54.914
 20
72.982
 30
0.0
 70
0
  0
VERTEX
  5
642
  8
0
 10
54.913
 20
72.975
 30
0.0
 70
0
  0
VERTEX
  5
643
  8
0
 10
54.913
 20
72.969
 30
0.0
 70
0
  0
VERTEX
  5
644
  8
0
 10
54.912
 20
72.963
 30
0.0
 70
0
  0
VERTEX
  5
645
  8
0
 10
54.911
 20
72.957
 30
0.0
 70
0
  0
VERTEX
  5
646
  8
0
 10
54.91
 20
72.951
 30
0.0
 70
0
  0
VERTEX
  5
647
  8
0
 10
54.909
 20
72.945
 30
0.0
 70
0
  0
VERTEX
  5
648
  8
0
 10
54.908
 20
72.938
 30
0.0
 70
0
  0
VERTEX
  5
649
  8
0
 10
54.906
 20
72.932
 30
0.0
 70
0
  0
VERTEX
  5
64A
  8
0
 10
54.905
 20
72.926
 30
0.0
 70
0
  0
VERTEX
  5
64B
  8
0
 10
54.903
 20
72.92
 30
0.0
 70
0
  0
VERTEX
  5
64C
  8
0
 10
54.902
 20
72.914
 30
0.0
 70
0
  0
VERTEX
  5
64D
  8
0
 10
54.9
 20
72.908
 30
0.0
 70
0
  0
VERTEX
  5
64E
  8
0
 10
54.898
 20
72.902
 30
0.0
 70
0
  0
VERTEX
  5
64F
  8
0
 10
54.896
 20
72.896
 30
0.0
 70
0
  0
VERTEX
  5
650
  8
0
 10
54.894
 20
72.89
 30
0.0
 70
0
  0
VERTEX
  5
651
  8
0
 10
54.892
 20
72.884
 30
0.0
 70
0
  0
VERTEX
  5
652
  8
0
 10
54.89
 20
72.878
 30
0.0
 70
0
  0
VERTEX
  5
653
  8
0
 10
54.887
 20
72.872
 30
0.0
 70
0
  0
VERTEX
  5
654
  8
0
 10
54.885
 20
72.866
 30
0.0
 70
0
  0
VERTEX
  5
655
  8
0
 10
54.882
 20
72.86
 30
0.0
 70
0
  0
VERTEX
  5
656
  8
0
 10
54.879
 20
72.854
 30
0.0
 70
0
  0
VERTEX
  5
657
  8
0
 10
54.876
 20
72.848
 30
0.0
 70
0
  0
VERTEX
  5
658
  8
0
 10
54.874
 20
72.843
 30
0.0
 70
0
  0
VERTEX
  5
659
  8
0
 10
54.871
 20
72.837
 30
0.0
 70
0
  0
VERTEX
  5
65A
  8
0
 10
54.867
 20
72.831
 30
0.0
 70
0
  0
VERTEX
  5
65B
  8
0
 10
54.864
 20
72.825
 30
0.0
 70
0
  0
VERTEX
  5
65C
  8
0
 10
54.861
 20
72.82
 30
0.0
 70
0
  0
VERTEX
  5
65D
  8
0
 10
54.858
 20
72.814
 30
0.0
 70
0
  0
VERTEX
  5
65E
  8
0
 10
54.854
 20
72.809
 30
0.0
 70
0
  0
VERTEX
  5
65F
  8
0
 10
54.85
 20
72.803
 30
0.0
 70
0
  0
VERTEX
  5
660
  8
0
 10
54.847
 20
72.797
 30
0.0
 70
0
  0
VERTEX
  5
661
  8
0
 10
54.843
 20
72.792
 30
0.0
 70
0
  0
VERTEX
  5
662
  8
0
 10
54.839
 20
72.787
 30
0.0
 70
0
  0
VERTEX
  5
663
  8
0
 10
54.835
 20
72.781
 30
0.0
 70
0
  0
VERTEX
  5
664
  8
0
 10
54.831
 20
72.776
 30
0.0
 70
0
  0
VERTEX
  5
665
  8
0
 10
54.827
 20
72.771
 30
0.0
 70
0
  0
VERTEX
  5
666
  8
0
 10
54.823
 20
72.765
 30
0.0
 70
0
  0
VERTEX
  5
667
  8
0
 10
54.818
 20
72.76
 30
0.0
 70
0
  0
VERTEX
  5
668
  8
0
 10
54.814
 20
72.755
 30
0.0
 70
0
  0
VERTEX
  5
669
  8
0
 10
54.809
 20
72.75
 30
0.0
 70
0
  0
VERTEX
  5
66A
  8
0
 10
54.805
 20
72.745
 30
0.0
 70
0
  0
VERTEX
  5
66B
  8
0
 10
54.8
 20
72.74
 30
0.0
 70
0
  0
VERTEX
  5
66C
  8
0
 10
54.795
 20
72.735
 30
0.0
 70
0
  0
VERTEX
  5
66D
  8
0
 10
54.79
 20
72.73
 30
0.0
 70
0
  0
VERTEX
  5
66E
  8
0
 10
54.785
 20
72.725
 30
0.0
 70
0
  0
VERTEX
  5
66F
  8
0
 10
54.78
 20
72.721
 30
0.0
 70
0
  0
VERTEX
  5
670
  8
0
 10
54.775
 20
72.716
 30
0.0
 70
0
  0
VERTEX
  5
671
  8
0
 10
54.77
 20
72.711
 30
0.0
 70
0
  0
VERTEX
  5
672
  8
0
 10
54.765
 20
72.707
 30
0.0
 70
0
  0
VERTEX
  5
673
  8
0
 10
54.759
 20
72.702
 30
0.0
 70
0
  0
VERTEX
  5
674
  8
0
 10
54.754
 20
72.698
 30
0.0
 70
0
  0
VERTEX
  5
675
  8
0
 10
54.749
 20
72.693
 30
0.0
 70
0
  0
VERTEX
  5
676
  8
0
 10
54.743
 20
72.689
 30
0.0
 70
0
  0
VERTEX
  5
677
  8
0
 10
54.737
 20
72.685
 30
0.0
 70
0
  0
VERTEX
  5
678
  8
0
 10
54.732
 20
72.68
 30
0.0
 70
0
  0
VERTEX
  5
679
  8
0
 10
54.726
 20
72.676
 30
0.0
 70
0
  0
VERTEX
  5
67A
  8
0
 10
54.72
 20
72.672
 30
0.0
 70
0
  0
VERTEX
  5
67B
  8
0
 10
54.714
 20
72.668
 30
0.0
 70
0
  0
VERTEX
  5
67C
  8
0
 10
54.708
 20
72.664
 30
0.0
 70
0
  0
VERTEX
  5
67D
  8
0
 10
54.702
 20
72.661
 30
0.0
 70
0
  0
VERTEX
  5
67E
  8
0
 10
54.695
 20
72.657
 30
0.0
 70
0
  0
VERTEX
  5
67F
  8
0
 10
54.689
 20
72.653
 30
0.0
 70
0
  0
VERTEX
  5
680
  8
0
 10
54.683
 20
72.649
 30
0.0
 70
0
  0
VERTEX
  5
681
  8
0
 10
54.676
 20
72.646
 30
0.0
 70
0
  0
VERTEX
  5
682
  8
0
 10
54.67
 20
72.643
 30
0.0
 70
0
  0
VERTEX
  5
683
  8
0
 10
54.664
 20
72.639
 30
0.0
 70
0
  0
VERTEX
  5
684
  8
0
 10
54.657
 20
72.636
 30
0.0
 70
0
  0
VERTEX
  5
685
  8
0
 10
54.65
 20
72.633
 30
0.0
 70
0
  0
VERTEX
  5
686
  8
0
 10
54.644
 20
72.63
 30
0.0
 70
0
  0
VERTEX
  5
687
  8
0
 10
54.637
 20
72.627
 30
0.0
 70
0
  0
VERTEX
  5
688
  8
0
 10
54.63
 20
72.624
 30
0.0
 70
0
  0
VERTEX
  5
689
  8
0
 10
54.623
 20
72.621
 30
0.0
 70
0
  0
VERTEX
  5
68A
  8
0
 10
54.616
 20
72.618
 30
0.0
 70
0
  0
VERTEX
  5
68B
  8
0
 10
54.609
 20
72.615
 30
0.0
 70
0
  0
VERTEX
  5
68C
  8
0
 10
54.602
 20
72.613
 30
0.0
 70
0
  0
VERTEX
  5
68D
  8
0
 10
54.595
 20
72.61
 30
0.0
 70
0
  0
VERTEX
  5
68E
  8
0
 10
54.588
 20
72.608
 30
0.0
 70
0
  0
VERTEX
  5
68F
  8
0
 10
54.58
 20
72.606
 30
0.0
 70
0
  0
VERTEX
  5
690
  8
0
 10
54.573
 20
72.604
 30
0.0
 70
0
  0
VERTEX
  5
691
  8
0
 10
54.566
 20
72.602
 30
0.0
 70
0
  0
VERTEX
  5
692
  8
0
 10
54.558
 20
72.6
 30
0.0
 70
0
  0
VERTEX
  5
693
  8
0
 10
54.551
 20
72.598
 30
0.0
 70
0
  0
VERTEX
  5
694
  8
0
 10
54.543
 20
72.596
 30
0.0
 70
0
  0
VERTEX
  5
695
  8
0
 10
54.535
 20
72.594
 30
0.0
 70
0
  0
VERTEX
  5
696
  8
0
 10
54.528
 20
72.593
 30
0.0
 70
0
  0
VERTEX
  5
697
  8
0
 10
54.52
 20
72.591
 30
0.0
 70
0
  0
VERTEX
  5
698
  8
0
 10
54.512
 20
72.59
 30
0.0
 70
0
  0
VERTEX
  5
699
  8
0
 10
54.504
 20
72.589
 30
0.0
 70
0
  0
VERTEX
  5
69A
  8
0
 10
54.497
 20
72.587
 30
0.0
 70
0
  0
VERTEX
  5
69B
  8
0
 10
54.489
 20
72.586
 30
0.0
 70
0
  0
VERTEX
  5
69C
  8
0
 10
54.481
 20
72.585
 30
0.0
 70
0
  0
VERTEX
  5
69D
  8
0
 10
54.473
 20
72.585
 30
0.0
 70
0
  0
VERTEX
  5
69E
  8
0
 10
54.465
 20
72.584
 30
0.0
 70
0
  0
VERTEX
  5
69F
  8
0
 10
54.457
 20
72.583
 30
0.0
 70
0
  0
VERTEX
  5
6A0
  8
0
 10
54.448
 20
72.583
 30
0.0
 70
0
  0
VERTEX
  5
6A1
  8
0
 10
54.44
 20
72.583
 30
0.0
 70
0
  0
VERTEX
  5
6A2
  8
0
 10
54.432
 20
72.582
 30
0.0
 70
0
  0
VERTEX
  5
6A3
  8
0
 10
54.424
 20
72.582
 30
0.0
 70
0
  0
VERTEX
  5
6A4
  8
0
 10
54.417
 20
72.582
 30
0.0
 70
0
  0
VERTEX
  5
6A5
  8
0
 10
54.411
 20
72.582
 30
0.0
 70
0
  0
VERTEX
  5
6A6
  8
0
 10
54.404
 20
72.583
 30
0.0
 70
0
  0
VERTEX
  5
6A7
  8
0
 10
54.398
 20
72.583
 30
0.0
 70
0
  0
VERTEX
  5
6A8
  8
0
 10
54.392
 20
72.583
 30
0.0
 70
0
  0
VERTEX
  5
6A9
  8
0
 10
54.386
 20
72.584
 30
0.0
 70
0
  0
VERTEX
  5
6AA
  8
0
 10
54.38
 20
72.585
 30
0.0
 70
0
  0
VERTEX
  5
6AB
  8
0
 10
54.373
 20
72.586
 30
0.0
 70
0
  0
VERTEX
  5
6AC
  8
0
 10
54.367
 20
72.587
 30
0.0
 70
0
  0
VERTEX
  5
6AD
  8
0
 10
54.361
 20
72.588
 30
0.0
 70
0
  0
VERTEX
  5
6AE
  8
0
 10
54.355
 20
72.589
 30
0.0
 70
0
  0
VERTEX
  5
6AF
  8
0
 10
54.349
 20
72.59
 30
0.0
 70
0
  0
VERTEX
  5
6B0
  8
0
 10
54.343
 20
72.591
 30
0.0
 70
0
  0
VERTEX
  5
6B1
  8
0
 10
54.337
 20
72.593
 30
0.0
 70
0
  0
VERTEX
  5
6B2
  8
0
 10
54.33
 20
72.595
 30
0.0
 70
0
  0
VERTEX
  5
6B3
  8
0
 10
54.324
 20
72.596
 30
0.0
 70
0
  0
VERTEX
  5
6B4
  8
0
 10
54.318
 20
72.598
 30
0.0
 70
0
  0
VERTEX
  5
6B5
  8
0
 10
54.312
 20
72.6
 30
0.0
 70
0
  0
VERTEX
  5
6B6
  8
0
 10
54.306
 20
72.602
 30
0.0
 70
0
  0
VERTEX
  5
6B7
  8
0
 10
54.3
 20
72.604
 30
0.0
 70
0
  0
VERTEX
  5
6B8
  8
0
 10
54.294
 20
72.606
 30
0.0
 70
0
  0
VERTEX
  5
6B9
  8
0
 10
54.289
 20
72.609
 30
0.0
 70
0
  0
VERTEX
  5
6BA
  8
0
 10
54.283
 20
72.611
 30
0.0
 70
0
  0
VERTEX
  5
6BB
  8
0
 10
54.277
 20
72.613
 30
0.0
 70
0
  0
VERTEX
  5
6BC
  8
0
 10
54.271
 20
72.616
 30
0.0
 70
0
  0
VERTEX
  5
6BD
  8
0
 10
54.265
 20
72.619
 30
0.0
 70
0
  0
VERTEX
  5
6BE
  8
0
 10
54.259
 20
72.621
 30
0.0
 70
0
  0
VERTEX
  5
6BF
  8
0
 10
54.254
 20
72.624
 30
0.0
 70
0
  0
VERTEX
  5
6C0
  8
0
 10
54.248
 20
72.627
 30
0.0
 70
0
  0
VERTEX
  5
6C1
  8
0
 10
54.242
 20
72.63
 30
0.0
 70
0
  0
VERTEX
  5
6C2
  8
0
 10
54.236
 20
72.633
 30
0.0
 70
0
  0
VERTEX
  5
6C3
  8
0
 10
54.231
 20
72.637
 30
0.0
 70
0
  0
VERTEX
  5
6C4
  8
0
 10
54.225
 20
72.64
 30
0.0
 70
0
  0
VERTEX
  5
6C5
  8
0
 10
54.22
 20
72.643
 30
0.0
 70
0
  0
VERTEX
  5
6C6
  8
0
 10
54.214
 20
72.647
 30
0.0
 70
0
  0
VERTEX
  5
6C7
  8
0
 10
54.209
 20
72.65
 30
0.0
 70
0
  0
VERTEX
  5
6C8
  8
0
 10
54.203
 20
72.654
 30
0.0
 70
0
  0
VERTEX
  5
6C9
  8
0
 10
54.198
 20
72.658
 30
0.0
 70
0
  0
VERTEX
  5
6CA
  8
0
 10
54.193
 20
72.661
 30
0.0
 70
0
  0
VERTEX
  5
6CB
  8
0
 10
54.187
 20
72.665
 30
0.0
 70
0
  0
VERTEX
  5
6CC
  8
0
 10
54.182
 20
72.669
 30
0.0
 70
0
  0
VERTEX
  5
6CD
  8
0
 10
54.177
 20
72.673
 30
0.0
 70
0
  0
VERTEX
  5
6CE
  8
0
 10
54.172
 20
72.677
 30
0.0
 70
0
  0
VERTEX
  5
6CF
  8
0
 10
54.166
 20
72.681
 30
0.0
 70
0
  0
VERTEX
  5
6D0
  8
0
 10
54.161
 20
72.685
 30
0.0
 70
0
  0
VERTEX
  5
6D1
  8
0
 10
54.156
 20
72.69
 30
0.0
 70
0
  0
VERTEX
  5
6D2
  8
0
 10
54.151
 20
72.694
 30
0.0
 70
0
  0
VERTEX
  5
6D3
  8
0
 10
54.147
 20
72.699
 30
0.0
 70
0
  0
VERTEX
  5
6D4
  8
0
 10
54.142
 20
72.703
 30
0.0
 70
0
  0
VERTEX
  5
6D5
  8
0
 10
54.137
 20
72.708
 30
0.0
 70
0
  0
VERTEX
  5
6D6
  8
0
 10
54.132
 20
72.712
 30
0.0
 70
0
  0
VERTEX
  5
6D7
  8
0
 10
54.128
 20
72.717
 30
0.0
 70
0
  0
VERTEX
  5
6D8
  8
0
 10
54.123
 20
72.721
 30
0.0
 70
0
  0
VERTEX
  5
6D9
  8
0
 10
54.119
 20
72.726
 30
0.0
 70
0
  0
VERTEX
  5
6DA
  8
0
 10
54.114
 20
72.731
 30
0.0
 70
0
  0
VERTEX
  5
6DB
  8
0
 10
54.11
 20
72.736
 30
0.0
 70
0
  0
VERTEX
  5
6DC
  8
0
 10
54.105
 20
72.741
 30
0.0
 70
0
  0
VERTEX
  5
6DD
  8
0
 10
54.101
 20
72.746
 30
0.0
 70
0
  0
VERTEX
  5
6DE
  8
0
 10
54.097
 20
72.751
 30
0.0
 70
0
  0
VERTEX
  5
6DF
  8
0
 10
54.093
 20
72.756
 30
0.0
 70
0
  0
VERTEX
  5
6E0
  8
0
 10
54.089
 20
72.761
 30
0.0
 70
0
  0
VERTEX
  5
6E1
  8
0
 10
54.085
 20
72.766
 30
0.0
 70
0
  0
VERTEX
  5
6E2
  8
0
 10
54.081
 20
72.772
 30
0.0
 70
0
  0
VERTEX
  5
6E3
  8
0
 10
54.077
 20
72.777
 30
0.0
 70
0
  0
VERTEX
  5
6E4
  8
0
 10
54.073
 20
72.782
 30
0.0
 70
0
  0
VERTEX
  5
6E5
  8
0
 10
54.07
 20
72.788
 30
0.0
 70
0
  0
VERTEX
  5
6E6
  8
0
 10
54.066
 20
72.793
 30
0.0
 70
0
  0
VERTEX
  5
6E7
  8
0
 10
54.062
 20
72.799
 30
0.0
 70
0
  0
VERTEX
  5
6E8
  8
0
 10
54.059
 20
72.804
 30
0.0
 70
0
  0
VERTEX
  5
6E9
  8
0
 10
54.056
 20
72.81
 30
0.0
 70
0
  0
VERTEX
  5
6EA
  8
0
 10
54.052
 20
72.815
 30
0.0
 70
0
  0
VERTEX
  5
6EB
  8
0
 10
54.049
 20
72.821
 30
0.0
 70
0
  0
VERTEX
  5
6EC
  8
0
 10
54.046
 20
72.827
 30
0.0
 70
0
  0
VERTEX
  5
6ED
  8
0
 10
54.043
 20
72.832
 30
0.0
 70
0
  0
VERTEX
  5
6EE
  8
0
 10
54.04
 20
72.838
 30
0.0
 70
0
  0
VERTEX
  5
6EF
  8
0
 10
54.037
 20
72.844
 30
0.0
 70
0
  0
VERTEX
  5
6F0
  8
0
 10
54.035
 20
72.85
 30
0.0
 70
0
  0
VERTEX
  5
6F1
  8
0
 10
54.032
 20
72.855
 30
0.0
 70
0
  0
VERTEX
  5
6F2
  8
0
 10
54.029
 20
72.861
 30
0.0
 70
0
  0
VERTEX
  5
6F3
  8
0
 10
54.027
 20
72.867
 30
0.0
 70
0
  0
VERTEX
  5
6F4
  8
0
 10
54.024
 20
72.873
 30
0.0
 70
0
  0
VERTEX
  5
6F5
  8
0
 10
54.022
 20
72.879
 30
0.0
 70
0
  0
VERTEX
  5
6F6
  8
0
 10
54.02
 20
72.885
 30
0.0
 70
0
  0
VERTEX
  5
6F7
  8
0
 10
54.018
 20
72.891
 30
0.0
 70
0
  0
VERTEX
  5
6F8
  8
0
 10
54.016
 20
72.897
 30
0.0
 70
0
  0
VERTEX
  5
6F9
  8
0
 10
54.014
 20
72.903
 30
0.0
 70
0
  0
VERTEX
  5
6FA
  8
0
 10
54.012
 20
72.909
 30
0.0
 70
0
  0
VERTEX
  5
6FB
  8
0
 10
54.01
 20
72.915
 30
0.0
 70
0
  0
VERTEX
  5
6FC
  8
0
 10
54.009
 20
72.921
 30
0.0
 70
0
  0
VERTEX
  5
6FD
  8
0
 10
54.007
 20
72.927
 30
0.0
 70
0
  0
VERTEX
  5
6FE
  8
0
 10
54.006
 20
72.934
 30
0.0
 70
0
  0
VERTEX
  5
6FF
  8
0
 10
54.005
 20
72.94
 30
0.0
 70
0
  0
VERTEX
  5
700
  8
0
 10
54.004
 20
72.946
 30
0.0
 70
0
  0
VERTEX
  5
701
  8
0
 10
54.002
 20
72.952
 30
0.0
 70
0
  0
VERTEX
  5
702
  8
0
 10
54.001
 20
72.958
 30
0.0
 70
0
  0
VERTEX
  5
703
  8
0
 10
54.001
 20
72.964
 30
0.0
 70
0
  0
VERTEX
  5
704
  8
0
 10
54.0
 20
72.97
 30
0.0
 70
0
  0
VERTEX
  5
705
  8
0
 10
53.999
 20
72.977
 30
0.0
 70
0
  0
VERTEX
  5
706
  8
0
 10
53.999
 20
72.983
 30
0.0
 70
0
  0
VERTEX
  5
707
  8
0
 10
53.998
 20
72.989
 30
0.0
 70
0
  0
VERTEX
  5
708
  8
0
 10
53.998
 20
72.995
 30
0.0
 70
0
  0
VERTEX
  5
709
  8
0
 10
53.998
 20
73.001
 30
0.0
 70
0
  0
VERTEX
  5
70A
  8
0
 10
53.998
 20
73.008
 30
0.0
 70
0
  0
VERTEX
  5
70B
  8
0
 10
53.998
 20
73.017
 30
0.0
 70
0
  0
VERTEX
  5
70C
  8
0
 10
53.998
 20
73.025
 30
0.0
 70
0
  0
VERTEX
  5
70D
  8
0
 10
53.999
 20
73.033
 30
0.0
 70
0
  0
VERTEX
  5
70E
  8
0
 10
53.999
 20
73.041
 30
0.0
 70
0
  0
VERTEX
  5
70F
  8
0
 10
54.0
 20
73.049
 30
0.0
 70
0
  0
VERTEX
  5
710
  8
0
 10
54.0
 20
73.058
 30
0.0
 70
0
  0
VERTEX
  5
711
  8
0
 10
54.001
 20
73.066
 30
0.0
 70
0
  0
VERTEX
  5
712
  8
0
 10
54.002
 20
73.073
 30
0.0
 70
0
  0
VERTEX
  5
713
  8
0
 10
54.003
 20
73.081
 30
0.0
 70
0
  0
VERTEX
  5
714
  8
0
 10
54.004
 20
73.089
 30
0.0
 70
0
  0
VERTEX
  5
715
  8
0
 10
54.006
 20
73.097
 30
0.0
 70
0
  0
VERTEX
  5
716
  8
0
 10
54.007
 20
73.105
 30
0.0
 70
0
  0
VERTEX
  5
717
  8
0
 10
54.009
 20
73.112
 30
0.0
 70
0
  0
VERTEX
  5
718
  8
0
 10
54.01
 20
73.12
 30
0.0
 70
0
  0
VERTEX
  5
719
  8
0
 10
54.012
 20
73.128
 30
0.0
 70
0
  0
VERTEX
  5
71A
  8
0
 10
54.014
 20
73.135
 30
0.0
 70
0
  0
VERTEX
  5
71B
  8
0
 10
54.015
 20
73.143
 30
0.0
 70
0
  0
VERTEX
  5
71C
  8
0
 10
54.017
 20
73.15
 30
0.0
 70
0
  0
VERTEX
  5
71D
  8
0
 10
54.019
 20
73.158
 30
0.0
 70
0
  0
VERTEX
  5
71E
  8
0
 10
54.022
 20
73.165
 30
0.0
 70
0
  0
VERTEX
  5
71F
  8
0
 10
54.024
 20
73.172
 30
0.0
 70
0
  0
VERTEX
  5
720
  8
0
 10
54.026
 20
73.179
 30
0.0
 70
0
  0
VERTEX
  5
721
  8
0
 10
54.029
 20
73.186
 30
0.0
 70
0
  0
VERTEX
  5
722
  8
0
 10
54.031
 20
73.194
 30
0.0
 70
0
  0
VERTEX
  5
723
  8
0
 10
54.034
 20
73.201
 30
0.0
 70
0
  0
VERTEX
  5
724
  8
0
 10
54.037
 20
73.208
 30
0.0
 70
0
  0
VERTEX
  5
725
  8
0
 10
54.04
 20
73.214
 30
0.0
 70
0
  0
VERTEX
  5
726
  8
0
 10
54.042
 20
73.221
 30
0.0
 70
0
  0
VERTEX
  5
727
  8
0
 10
54.045
 20
73.228
 30
0.0
 70
0
  0
VERTEX
  5
728
  8
0
 10
54.049
 20
73.235
 30
0.0
 70
0
  0
VERTEX
  5
729
  8
0
 10
54.052
 20
73.242
 30
0.0
 70
0
  0
VERTEX
  5
72A
  8
0
 10
54.055
 20
73.248
 30
0.0
 70
0
  0
VERTEX
  5
72B
  8
0
 10
54.058
 20
73.255
 30
0.0
 70
0
  0
VERTEX
  5
72C
  8
0
 10
54.062
 20
73.261
 30
0.0
 70
0
  0
VERTEX
  5
72D
  8
0
 10
54.065
 20
73.268
 30
0.0
 70
0
  0
VERTEX
  5
72E
  8
0
 10
54.069
 20
73.274
 30
0.0
 70
0
  0
VERTEX
  5
72F
  8
0
 10
54.073
 20
73.28
 30
0.0
 70
0
  0
VERTEX
  5
730
  8
0
 10
54.076
 20
73.286
 30
0.0
 70
0
  0
VERTEX
  5
731
  8
0
 10
54.08
 20
73.292
 30
0.0
 70
0
  0
VERTEX
  5
732
  8
0
 10
54.084
 20
73.298
 30
0.0
 70
0
  0
VERTEX
  5
733
  8
0
 10
54.088
 20
73.304
 30
0.0
 70
0
  0
VERTEX
  5
734
  8
0
 10
54.092
 20
73.31
 30
0.0
 70
0
  0
VERTEX
  5
735
  8
0
 10
54.096
 20
73.316
 30
0.0
 70
0
  0
VERTEX
  5
736
  8
0
 10
54.1
 20
73.322
 30
0.0
 70
0
  0
VERTEX
  5
737
  8
0
 10
54.105
 20
73.328
 30
0.0
 70
0
  0
VERTEX
  5
738
  8
0
 10
54.109
 20
73.333
 30
0.0
 70
0
  0
VERTEX
  5
739
  8
0
 10
54.113
 20
73.339
 30
0.0
 70
0
  0
VERTEX
  5
73A
  8
0
 10
54.118
 20
73.344
 30
0.0
 70
0
  0
VERTEX
  5
73B
  8
0
 10
54.122
 20
73.349
 30
0.0
 70
0
  0
VERTEX
  5
73C
  8
0
 10
54.127
 20
73.355
 30
0.0
 70
0
  0
VERTEX
  5
73D
  8
0
 10
54.131
 20
73.36
 30
0.0
 70
0
  0
VERTEX
  5
73E
  8
0
 10
54.136
 20
73.365
 30
0.0
 70
0
  0
VERTEX
  5
73F
  8
0
 10
54.141
 20
73.37
 30
0.0
 70
0
  0
VERTEX
  5
740
  8
0
 10
54.146
 20
73.375
 30
0.0
 70
0
  0
VERTEX
  5
741
  8
0
 10
54.151
 20
73.38
 30
0.0
 70
0
  0
VERTEX
  5
742
  8
0
 10
54.155
 20
73.385
 30
0.0
 70
0
  0
VERTEX
  5
743
  8
0
 10
54.16
 20
73.389
 30
0.0
 70
0
  0
VERTEX
  5
744
  8
0
 10
54.165
 20
73.394
 30
0.0
 70
0
  0
VERTEX
  5
745
  8
0
 10
54.171
 20
73.398
 30
0.0
 70
0
  0
VERTEX
  5
746
  8
0
 10
54.176
 20
73.403
 30
0.0
 70
0
  0
VERTEX
  5
747
  8
0
 10
54.181
 20
73.407
 30
0.0
 70
0
  0
VERTEX
  5
748
  8
0
 10
54.186
 20
73.411
 30
0.0
 70
0
  0
VERTEX
  5
749
  8
0
 10
54.192
 20
73.416
 30
0.0
 70
0
  0
VERTEX
  5
74A
  8
0
 10
54.197
 20
73.42
 30
0.0
 70
0
  0
VERTEX
  5
74B
  8
0
 10
54.202
 20
73.424
 30
0.0
 70
0
  0
VERTEX
  5
74C
  8
0
 10
54.208
 20
73.428
 30
0.0
 70
0
  0
VERTEX
  5
74D
  8
0
 10
54.213
 20
73.431
 30
0.0
 70
0
  0
VERTEX
  5
74E
  8
0
 10
54.219
 20
73.435
 30
0.0
 70
0
  0
VERTEX
  5
74F
  8
0
 10
54.224
 20
73.439
 30
0.0
 70
0
  0
VERTEX
  5
750
  8
0
 10
54.23
 20
73.442
 30
0.0
 70
0
  0
VERTEX
  5
751
  8
0
 10
54.235
 20
73.446
 30
0.0
 70
0
  0
VERTEX
  5
752
  8
0
 10
54.241
 20
73.449
 30
0.0
 70
0
  0
VERTEX
  5
753
  8
0
 10
54.247
 20
73.452
 30
0.0
 70
0
  0
VERTEX
  5
754
  8
0
 10
54.252
 20
73.455
 30
0.0
 70
0
  0
VERTEX
  5
755
  8
0
 10
54.258
 20
73.458
 30
0.0
 70
0
  0
VERTEX
  5
756
  8
0
 10
54.264
 20
73.461
 30
0.0
 70
0
  0
VERTEX
  5
757
  8
0
 10
54.27
 20
73.464
 30
0.0
 70
0
  0
VERTEX
  5
758
  8
0
 10
54.276
 20
73.467
 30
0.0
 70
0
  0
VERTEX
  5
759
  8
0
 10
54.281
 20
73.469
 30
0.0
 70
0
  0
VERTEX
  5
75A
  8
0
 10
54.287
 20
73.472
 30
0.0
 70
0
  0
VERTEX
  5
75B
  8
0
 10
54.293
 20
73.474
 30
0.0
 70
0
  0
VERTEX
  5
75C
  8
0
 10
54.299
 20
73.477
 30
0.0
 70
0
  0
VERTEX
  5
75D
  8
0
 10
54.305
 20
73.479
 30
0.0
 70
0
  0
VERTEX
  5
75E
  8
0
 10
54.311
 20
73.481
 30
0.0
 70
0
  0
VERTEX
  5
75F
  8
0
 10
54.317
 20
73.483
 30
0.0
 70
0
  0
VERTEX
  5
760
  8
0
 10
54.323
 20
73.485
 30
0.0
 70
0
  0
VERTEX
  5
761
  8
0
 10
54.329
 20
73.487
 30
0.0
 70
0
  0
VERTEX
  5
762
  8
0
 10
54.335
 20
73.488
 30
0.0
 70
0
  0
VERTEX
  5
763
  8
0
 10
54.341
 20
73.49
 30
0.0
 70
0
  0
VERTEX
  5
764
  8
0
 10
54.348
 20
73.491
 30
0.0
 70
0
  0
VERTEX
  5
765
  8
0
 10
54.354
 20
73.493
 30
0.0
 70
0
  0
VERTEX
  5
766
  8
0
 10
54.36
 20
73.494
 30
0.0
 70
0
  0
VERTEX
  5
767
  8
0
 10
54.366
 20
73.495
 30
0.0
 70
0
  0
VERTEX
  5
768
  8
0
 10
54.372
 20
73.496
 30
0.0
 70
0
  0
VERTEX
  5
769
  8
0
 10
54.378
 20
73.497
 30
0.0
 70
0
  0
VERTEX
  5
76A
  8
0
 10
54.385
 20
73.497
 30
0.0
 70
0
  0
VERTEX
  5
76B
  8
0
 10
54.391
 20
73.498
 30
0.0
 70
0
  0
VERTEX
  5
76C
  8
0
 10
54.397
 20
73.499
 30
0.0
 70
0
  0
VERTEX
  5
76D
  8
0
 10
54.403
 20
73.499
 30
0.0
 70
0
  0
VERTEX
  5
76E
  8
0
 10
54.409
 20
73.499
 30
0.0
 70
0
  0
VERTEX
  5
76F
  8
0
 10
54.416
 20
73.499
 30
0.0
 70
0
  0
VERTEX
  5
770
  8
0
 10
54.422
 20
73.499
 30
0.0
 70
0
  0
VERTEX
  5
771
  8
0
 10
54.43
 20
73.499
 30
0.0
 70
0
  0
VERTEX
  5
772
  8
0
 10
54.439
 20
73.499
 30
0.0
 70
0
  0
VERTEX
  5
773
  8
0
 10
54.447
 20
73.499
 30
0.0
 70
0
  0
VERTEX
  5
774
  8
0
 10
54.455
 20
73.498
 30
0.0
 70
0
  0
VERTEX
  5
775
  8
0
 10
54.463
 20
73.498
 30
0.0
 70
0
  0
VERTEX
  5
776
  8
0
 10
54.471
 20
73.497
 30
0.0
 70
0
  0
VERTEX
  5
777
  8
0
 10
54.479
 20
73.496
 30
0.0
 70
0
  0
VERTEX
  5
778
  8
0
 10
54.487
 20
73.495
 30
0.0
 70
0
  0
VERTEX
  5
779
  8
0
 10
54.495
 20
73.494
 30
0.0
 70
0
  0
VERTEX
  5
77A
  8
0
 10
54.503
 20
73.493
 30
0.0
 70
0
  0
VERTEX
  5
77B
  8
0
 10
54.511
 20
73.492
 30
0.0
 70
0
  0
VERTEX
  5
77C
  8
0
 10
54.518
 20
73.491
 30
0.0
 70
0
  0
VERTEX
  5
77D
  8
0
 10
54.526
 20
73.489
 30
0.0
 70
0
  0
VERTEX
  5
77E
  8
0
 10
54.534
 20
73.488
 30
0.0
 70
0
  0
VERTEX
  5
77F
  8
0
 10
54.541
 20
73.486
 30
0.0
 70
0
  0
VERTEX
  5
780
  8
0
 10
54.549
 20
73.484
 30
0.0
 70
0
  0
VERTEX
  5
781
  8
0
 10
54.557
 20
73.482
 30
0.0
 70
0
  0
VERTEX
  5
782
  8
0
 10
54.564
 20
73.48
 30
0.0
 70
0
  0
VERTEX
  5
783
  8
0
 10
54.571
 20
73.478
 30
0.0
 70
0
  0
VERTEX
  5
784
  8
0
 10
54.579
 20
73.476
 30
0.0
 70
0
  0
VERTEX
  5
785
  8
0
 10
54.586
 20
73.473
 30
0.0
 70
0
  0
VERTEX
  5
786
  8
0
 10
54.593
 20
73.471
 30
0.0
 70
0
  0
VERTEX
  5
787
  8
0
 10
54.6
 20
73.468
 30
0.0
 70
0
  0
VERTEX
  5
788
  8
0
 10
54.608
 20
73.466
 30
0.0
 70
0
  0
VERTEX
  5
789
  8
0
 10
54.615
 20
73.463
 30
0.0
 70
0
  0
VERTEX
  5
78A
  8
0
 10
54.622
 20
73.46
 30
0.0
 70
0
  0
VERTEX
  5
78B
  8
0
 10
54.629
 20
73.457
 30
0.0
 70
0
  0
VERTEX
  5
78C
  8
0
 10
54.635
 20
73.454
 30
0.0
 70
0
  0
VERTEX
  5
78D
  8
0
 10
54.642
 20
73.451
 30
0.0
 70
0
  0
VERTEX
  5
78E
  8
0
 10
54.649
 20
73.448
 30
0.0
 70
0
  0
VERTEX
  5
78F
  8
0
 10
54.656
 20
73.444
 30
0.0
 70
0
  0
VERTEX
  5
790
  8
0
 10
54.662
 20
73.441
 30
0.0
 70
0
  0
VERTEX
  5
791
  8
0
 10
54.669
 20
73.437
 30
0.0
 70
0
  0
VERTEX
  5
792
  8
0
 10
54.675
 20
73.434
 30
0.0
 70
0
  0
VERTEX
  5
793
  8
0
 10
54.682
 20
73.43
 30
0.0
 70
0
  0
VERTEX
  5
794
  8
0
 10
54.688
 20
73.426
 30
0.0
 70
0
  0
VERTEX
  5
795
  8
0
 10
54.694
 20
73.422
 30
0.0
 70
0
  0
VERTEX
  5
796
  8
0
 10
54.7
 20
73.418
 30
0.0
 70
0
  0
VERTEX
  5
797
  8
0
 10
54.707
 20
73.414
 30
0.0
 70
0
  0
VERTEX
  5
798
  8
0
 10
54.713
 20
73.41
 30
0.0
 70
0
  0
VERTEX
  5
799
  8
0
 10
54.719
 20
73.405
 30
0.0
 70
0
  0
VERTEX
  5
79A
  8
0
 10
54.724
 20
73.401
 30
0.0
 70
0
  0
VERTEX
  5
79B
  8
0
 10
54.73
 20
73.397
 30
0.0
 70
0
  0
VERTEX
  5
79C
  8
0
 10
54.736
 20
73.392
 30
0.0
 70
0
  0
VERTEX
  5
79D
  8
0
 10
54.742
 20
73.387
 30
0.0
 70
0
  0
VERTEX
  5
79E
  8
0
 10
54.747
 20
73.383
 30
0.0
 70
0
  0
VERTEX
  5
79F
  8
0
 10
54.753
 20
73.378
 30
0.0
 70
0
  0
VERTEX
  5
7A0
  8
0
 10
54.758
 20
73.373
 30
0.0
 70
0
  0
VERTEX
  5
7A1
  8
0
 10
54.764
 20
73.368
 30
0.0
 70
0
  0
VERTEX
  5
7A2
  8
0
 10
54.769
 20
73.363
 30
0.0
 70
0
  0
VERTEX
  5
7A3
  8
0
 10
54.774
 20
73.358
 30
0.0
 70
0
  0
VERTEX
  5
7A4
  8
0
 10
54.779
 20
73.353
 30
0.0
 70
0
  0
VERTEX
  5
7A5
  8
0
 10
54.784
 20
73.347
 30
0.0
 70
0
  0
VERTEX
  5
7A6
  8
0
 10
54.789
 20
73.342
 30
0.0
 70
0
  0
VERTEX
  5
7A7
  8
0
 10
54.794
 20
73.336
 30
0.0
 70
0
  0
VERTEX
  5
7A8
  8
0
 10
54.799
 20
73.331
 30
0.0
 70
0
  0
VERTEX
  5
7A9
  8
0
 10
54.804
 20
73.325
 30
0.0
 70
0
  0
VERTEX
  5
7AA
  8
0
 10
54.808
 20
73.32
 30
0.0
 70
0
  0
VERTEX
  5
7AB
  8
0
 10
54.813
 20
73.314
 30
0.0
 70
0
  0
VERTEX
  5
7AC
  8
0
 10
54.817
 20
73.308
 30
0.0
 70
0
  0
VERTEX
  5
7AD
  8
0
 10
54.822
 20
73.302
 30
0.0
 70
0
  0
VERTEX
  5
7AE
  8
0
 10
54.826
 20
73.296
 30
0.0
 70
0
  0
VERTEX
  5
7AF
  8
0
 10
54.83
 20
73.29
 30
0.0
 70
0
  0
VERTEX
  5
7B0
  8
0
 10
54.834
 20
73.284
 30
0.0
 70
0
  0
VERTEX
  5
7B1
  8
0
 10
54.838
 20
73.278
 30
0.0
 70
0
  0
VERTEX
  5
7B2
  8
0
 10
54.842
 20
73.271
 30
0.0
 70
0
  0
VERTEX
  5
7B3
  8
0
 10
54.846
 20
73.265
 30
0.0
 70
0
  0
VERTEX
  5
7B4
  8
0
 10
54.85
 20
73.259
 30
0.0
 70
0
  0
VERTEX
  5
7B5
  8
0
 10
54.853
 20
73.252
 30
0.0
 70
0
  0
VERTEX
  5
7B6
  8
0
 10
54.857
 20
73.246
 30
0.0
 70
0
  0
VERTEX
  5
7B7
  8
0
 10
54.86
 20
73.239
 30
0.0
 70
0
  0
VERTEX
  5
7B8
  8
0
 10
54.864
 20
73.232
 30
0.0
 70
0
  0
VERTEX
  5
7B9
  8
0
 10
54.867
 20
73.225
 30
0.0
 70
0
  0
VERTEX
  5
7BA
  8
0
 10
54.87
 20
73.219
 30
0.0
 70
0
  0
VERTEX
  5
7BB
  8
0
 10
54.873
 20
73.212
 30
0.0
 70
0
  0
VERTEX
  5
7BC
  8
0
 10
54.876
 20
73.205
 30
0.0
 70
0
  0
VERTEX
  5
7BD
  8
0
 10
54.879
 20
73.198
 30
0.0
 70
0
  0
VERTEX
  5
7BE
  8
0
 10
54.881
 20
73.191
 30
0.0
 70
0
  0
VERTEX
  5
7BF
  8
0
 10
54.884
 20
73.184
 30
0.0
 70
0
  0
VERTEX
  5
7C0
  8
0
 10
54.887
 20
73.176
 30
0.0
 70
0
  0
VERTEX
  5
7C1
  8
0
 10
54.889
 20
73.169
 30
0.0
 70
0
  0
VERTEX
  5
7C2
  8
0
 10
54.891
 20
73.162
 30
0.0
 70
0
  0
VERTEX
  5
7C3
  8
0
 10
54.894
 20
73.155
 30
0.0
 70
0
  0
VERTEX
  5
7C4
  8
0
 10
54.896
 20
73.147
 30
0.0
 70
0
  0
VERTEX
  5
7C5
  8
0
 10
54.898
 20
73.14
 30
0.0
 70
0
  0
VERTEX
  5
7C6
  8
0
 10
54.9
 20
73.132
 30
0.0
 70
0
  0
VERTEX
  5
7C7
  8
0
 10
54.901
 20
73.125
 30
0.0
 70
0
  0
VERTEX
  5
7C8
  8
0
 10
54.903
 20
73.117
 30
0.0
 70
0
  0
VERTEX
  5
7C9
  8
0
 10
54.905
 20
73.109
 30
0.0
 70
0
  0
VERTEX
  5
7CA
  8
0
 10
54.906
 20
73.102
 30
0.0
 70
0
  0
VERTEX
  5
7CB
  8
0
 10
54.907
 20
73.094
 30
0.0
 70
0
  0
VERTEX
  5
7CC
  8
0
 10
54.909
 20
73.086
 30
0.0
 70
0
  0
VERTEX
  5
7CD
  8
0
 10
54.91
 20
73.078
 30
0.0
 70
0
  0
VERTEX
  5
7CE
  8
0
 10
54.911
 20
73.07
 30
0.0
 70
0
  0
VERTEX
  5
7CF
  8
0
 10
54.912
 20
73.062
 30
0.0
 70
0
  0
VERTEX
  5
7D0
  8
0
 10
54.912
 20
73.054
 30
0.0
 70
0
  0
VERTEX
  5
7D1
  8
0
 10
54.913
 20
73.046
 30
0.0
 70
0
  0
VERTEX
  5
7D2
  8
0
 10
54.914
 20
73.038
 30
0.0
 70
0
  0
VERTEX
  5
7D3
  8
0
 10
54.914
 20
73.03
 30
0.0
 70
0
  0
VERTEX
  5
7D4
  8
0
 10
54.915
 20
73.022
 30
0.0
 70
0
  0
VERTEX
  5
7D5
  8
0
 10
54.915
 20
73.013
 30
0.0
 70
0
  0
VERTEX
  5
7D6
  8
0
 10
54.915
 20
73.005
 30
0.0
 70
0
  0
SEQEND
  5
63C
  8
0
  0
POLYLINE
  5
7D7
  8
0
 66
1
 10
0.0
 20
0.0
 30
0.0
 70
0
  0
VERTEX
  5
7D9
  8
0
 10
54.846
 20
73.005
 30
0.0
 70
0
  0
VERTEX
  5
7DA
  8
0
 10
54.846
 20
73.0
 30
0.0
 70
0
  0
VERTEX
  5
7DB
  8
0
 10
54.846
 20
72.994
 30
0.0
 70
0
  0
VERTEX
  5
7DC
  8
0
 10
54.846
 20
72.988
 30
0.0
 70
0
  0
VERTEX
  5
7DD
  8
0
 10
54.845
 20
72.982
 30
0.0
 70
0
  0
VERTEX
  5
7DE
  8
0
 10
54.845
 20
72.976
 30
0.0
 70
0
  0
VERTEX
  5
7DF
  8
0
 10
54.844
 20
72.97
 30
0.0
 70
0
  0
VERTEX
  5
7E0
  8
0
 10
54.843
 20
72.964
 30
0.0
 70
0
  0
VERTEX
  5
7E1
  8
0
 10
54.842
 20
72.958
 30
0.0
 70
0
  0
VERTEX
  5
7E2
  8
0
 10
54.841
 20
72.952
 30
0.0
 70
0
  0
VERTEX
  5
7E3
  8
0
 10
54.84
 20
72.946
 30
0.0
 70
0
  0
VERTEX
  5
7E4
  8
0
 10
54.839
 20
72.941
 30
0.0
 70
0
  0
VERTEX
  5
7E5
  8
0
 10
54.838
 20
72.935
 30
0.0
 70
0
  0
VERTEX
  5
7E6
  8
0
 10
54.836
 20
72.929
 30
0.0
 70
0
  0
VERTEX
  5
7E7
  8
0
 10
54.835
 20
72.924
 30
0.0
 70
0
  0
VERTEX
  5
7E8
  8
0
 10
54.833
 20
72.918
 30
0.0
 70
0
  0
VERTEX
  5
7E9
  8
0
 10
54.832
 20
72.912
 30
0.0
 70
0
  0
VERTEX
  5
7EA
  8
0
 10
54.83
 20
72.907
 30
0.0
 70
0
  0
VERTEX
  5
7EB
  8
0
 10
54.828
 20
72.901
 30
0.0
 70
0
  0
VERTEX
  5
7EC
  8
0
 10
54.826
 20
72.896
 30
0.0
 70
0
  0
VERTEX
  5
7ED
  8
0
 10
54.824
 20
72.891
 30
0.0
 70
0
  0
VERTEX
  5
7EE
  8
0
 10
54.822
 20
72.885
 30
0.0
 70
0
  0
VERTEX
  5
7EF
  8
0
 10
54.819
 20
72.88
 30
0.0
 70
0
  0
VERTEX
  5
7F0
  8
0
 10
54.817
 20
72.875
 30
0.0
 70
0
  0
VERTEX
  5
7F1
  8
0
 10
54.814
 20
72.87
 30
0.0
 70
0
  0
VERTEX
  5
7F2
  8
0
 10
54.812
 20
72.864
 30
0.0
 70
0
  0
VERTEX
  5
7F3
  8
0
 10
54.809
 20
72.859
 30
0.0
 70
0
  0
VERTEX
  5
7F4
  8
0
 10
54.806
 20
72.854
 30
0.0
 70
0
  0
VERTEX
  5
7F5
  8
0
 10
54.803
 20
72.849
 30
0.0
 70
0
  0
VERTEX
  5
7F6
  8
0
 10
54.8
 20
72.844
 30
0.0
 70
0
  0
VERTEX
  5
7F7
  8
0
 10
54.797
 20
72.84
 30
0.0
 70
0
  0
VERTEX
  5
7F8
  8
0
 10
54.794
 20
72.835
 30
0.0
 70
0
  0
VERTEX
  5
7F9
  8
0
 10
54.791
 20
72.83
 30
0.0
 70
0
  0
VERTEX
  5
7FA
  8
0
 10
54.788
 20
72.825
 30
0.0
 70
0
  0
VERTEX
  5
7FB
  8
0
 10
54.784
 20
72.821
 30
0.0
 70
0
  0
VERTEX
  5
7FC
  8
0
 10
54.781
 20
72.816
 30
0.0
 70
0
  0
VERTEX
  5
7FD
  8
0
 10
54.777
 20
72.811
 30
0.0
 70
0
  0
VERTEX
  5
7FE
  8
0
 10
54.774
 20
72.807
 30
0.0
 70
0
  0
VERTEX
  5
7FF
  8
0
 10
54.77
 20
72.803
 30
0.0
 70
0
  0
VERTEX
  5
800
  8
0
 10
54.766
 20
72.798
 30
0.0
 70
0
  0
VERTEX
  5
801
  8
0
 10
54.762
 20
72.794
 30
0.0
 70
0
  0
VERTEX
  5
802
  8
0
 10
54.758
 20
72.79
 30
0.0
 70
0
  0
VERTEX
  5
803
  8
0
 10
54.754
 20
72.785
 30
0.0
 70
0
  0
VERTEX
  5
804
  8
0
 10
54.75
 20
72.781
 30
0.0
 70
0
  0
VERTEX
  5
805
  8
0
 10
54.746
 20
72.777
 30
0.0
 70
0
  0
VERTEX
  5
806
  8
0
 10
54.742
 20
72.773
 30
0.0
 70
0
  0
VERTEX
  5
807
  8
0
 10
54.738
 20
72.769
 30
0.0
 70
0
  0
VERTEX
  5
808
  8
0
 10
54.733
 20
72.765
 30
0.0
 70
0
  0
VERTEX
  5
809
  8
0
 10
54.729
 20
72.761
 30
0.0
 70
0
  0
VERTEX
  5
80A
  8
0
 10
54.724
 20
72.757
 30
0.0
 70
0
  0
VERTEX
  5
80B
  8
0
 10
54.72
 20
72.754
 30
0.0
 70
0
  0
VERTEX
  5
80C
  8
0
 10
54.715
 20
72.75
 30
0.0
 70
0
  0
VERTEX
  5
80D
  8
0
 10
54.71
 20
72.746
 30
0.0
 70
0
  0
VERTEX
  5
80E
  8
0
 10
54.706
 20
72.743
 30
0.0
 70
0
  0
VERTEX
  5
80F
  8
0
 10
54.701
 20
72.739
 30
0.0
 70
0
  0
VERTEX
  5
810
  8
0
 10
54.696
 20
72.736
 30
0.0
 70
0
  0
VERTEX
  5
811
  8
0
 10
54.691
 20
72.732
 30
0.0
 70
0
  0
VERTEX
  5
812
  8
0
 10
54.686
 20
72.729
 30
0.0
 70
0
  0
VERTEX
  5
813
  8
0
 10
54.681
 20
72.726
 30
0.0
 70
0
  0
VERTEX
  5
814
  8
0
 10
54.676
 20
72.723
 30
0.0
 70
0
  0
VERTEX
  5
815
  8
0
 10
54.671
 20
72.72
 30
0.0
 70
0
  0
VERTEX
  5
816
  8
0
 10
54.666
 20
72.717
 30
0.0
 70
0
  0
VERTEX
  5
817
  8
0
 10
54.66
 20
72.714
 30
0.0
 70
0
  0
VERTEX
  5
818
  8
0
 10
54.655
 20
72.711
 30
0.0
 70
0
  0
VERTEX
  5
819
  8
0
 10
54.65
 20
72.708
 30
0.0
 70
0
  0
VERTEX
  5
81A
  8
0
 10
54.644
 20
72.705
 30
0.0
 70
0
  0
VERTEX
  5
81B
  8
0
 10
54.639
 20
72.702
 30
0.0
 70
0
  0
VERTEX
  5
81C
  8
0
 10
54.633
 20
72.699
 30
0.0
 70
0
  0
VERTEX
  5
81D
  8
0
 10
54.628
 20
72.697
 30
0.0
 70
0
  0
VERTEX
  5
81E
  8
0
 10
54.622
 20
72.694
 30
0.0
 70
0
  0
VERTEX
  5
81F
  8
0
 10
54.617
 20
72.692
 30
0.0
 70
0
  0
VERTEX
  5
820
  8
0
 10
54.611
 20
72.689
 30
0.0
 70
0
  0
VERTEX
  5
821
  8
0
 10
54.605
 20
72.687
 30
0.0
 70
0
  0
VERTEX
  5
822
  8
0
 10
54.6
 20
72.685
 30
0.0
 70
0
  0
VERTEX
  5
823
  8
0
 10
54.594
 20
72.683
 30
0.0
 70
0
  0
VERTEX
  5
824
  8
0
 10
54.588
 20
72.68
 30
0.0
 70
0
  0
VERTEX
  5
825
  8
0
 10
54.582
 20
72.678
 30
0.0
 70
0
  0
VERTEX
  5
826
  8
0
 10
54.577
 20
72.676
 30
0.0
 70
0
  0
VERTEX
  5
827
  8
0
 10
54.571
 20
72.674
 30
0.0
 70
0
  0
VERTEX
  5
828
  8
0
 10
54.565
 20
72.673
 30
0.0
 70
0
  0
VERTEX
  5
829
  8
0
 10
54.559
 20
72.671
 30
0.0
 70
0
  0
VERTEX
  5
82A
  8
0
 10
54.553
 20
72.669
 30
0.0
 70
0
  0
VERTEX
  5
82B
  8
0
 10
54.547
 20
72.668
 30
0.0
 70
0
  0
VERTEX
  5
82C
  8
0
 10
54.541
 20
72.666
 30
0.0
 70
0
  0
VERTEX
  5
82D
  8
0
 10
54.535
 20
72.665
 30
0.0
 70
0
  0
VERTEX
  5
82E
  8
0
 10
54.529
 20
72.663
 30
0.0
 70
0
  0
VERTEX
  5
82F
  8
0
 10
54.522
 20
72.662
 30
0.0
 70
0
  0
VERTEX
  5
830
  8
0
 10
54.516
 20
72.661
 30
0.0
 70
0
  0
VERTEX
  5
831
  8
0
 10
54.51
 20
72.659
 30
0.0
 70
0
  0
VERTEX
  5
832
  8
0
 10
54.504
 20
72.658
 30
0.0
 70
0
  0
VERTEX
  5
833
  8
0
 10
54.498
 20
72.657
 30
0.0
 70
0
  0
VERTEX
  5
834
  8
0
 10
54.492
 20
72.656
 30
0.0
 70
0
  0
VERTEX
  5
835
  8
0
 10
54.486
 20
72.655
 30
0.0
 70
0
  0
VERTEX
  5
836
  8
0
 10
54.479
 20
72.655
 30
0.0
 70
0
  0
VERTEX
  5
837
  8
0
 10
54.473
 20
72.654
 30
0.0
 70
0
  0
VERTEX
  5
838
  8
0
 10
54.467
 20
72.653
 30
0.0
 70
0
  0
VERTEX
  5
839
  8
0
 10
54.461
 20
72.653
 30
0.0
 70
0
  0
VERTEX
  5
83A
  8
0
 10
54.454
 20
72.652
 30
0.0
 70
0
  0
VERTEX
  5
83B
  8
0
 10
54.448
 20
72.652
 30
0.0
 70
0
  0
VERTEX
  5
83C
  8
0
 10
54.442
 20
72.652
 30
0.0
 70
0
  0
VERTEX
  5
83D
  8
0
 10
54.436
 20
72.651
 30
0.0
 70
0
  0
VERTEX
  5
83E
  8
0
 10
54.429
 20
72.651
 30
0.0
 70
0
  0
VERTEX
  5
83F
  8
0
 10
54.423
 20
72.651
 30
0.0
 70
0
  0
VERTEX
  5
840
  8
0
 10
54.417
 20
72.651
 30
0.0
 70
0
  0
VERTEX
  5
841
  8
0
 10
54.411
 20
72.651
 30
0.0
 70
0
  0
VERTEX
  5
842
  8
0
 10
54.405
 20
72.651
 30
0.0
 70
0
  0
VERTEX
  5
843
  8
0
 10
54.398
 20
72.652
 30
0.0
 70
0
  0
VERTEX
  5
844
  8
0
 10
54.392
 20
72.652
 30
0.0
 70
0
  0
VERTEX
  5
845
  8
0
 10
54.386
 20
72.652
 30
0.0
 70
0
  0
VERTEX
  5
846
  8
0
 10
54.38
 20
72.653
 30
0.0
 70
0
  0
VERTEX
  5
847
  8
0
 10
54.375
 20
72.653
 30
0.0
 70
0
  0
VERTEX
  5
848
  8
0
 10
54.369
 20
72.654
 30
0.0
 70
0
  0
VERTEX
  5
849
  8
0
 10
54.363
 20
72.655
 30
0.0
 70
0
  0
VERTEX
  5
84A
  8
0
 10
54.357
 20
72.656
 30
0.0
 70
0
  0
VERTEX
  5
84B
  8
0
 10
54.351
 20
72.657
 30
0.0
 70
0
  0
VERTEX
  5
84C
  8
0
 10
54.346
 20
72.657
 30
0.0
 70
0
  0
VERTEX
  5
84D
  8
0
 10
54.34
 20
72.659
 30
0.0
 70
0
  0
VERTEX
  5
84E
  8
0
 10
54.334
 20
72.66
 30
0.0
 70
0
  0
VERTEX
  5
84F
  8
0
 10
54.329
 20
72.661
 30
0.0
 70
0
  0
VERTEX
  5
850
  8
0
 10
54.323
 20
72.662
 30
0.0
 70
0
  0
VERTEX
  5
851
  8
0
 10
54.318
 20
72.663
 30
0.0
 70
0
  0
VERTEX
  5
852
  8
0
 10
54.313
 20
72.665
 30
0.0
 70
0
  0
VERTEX
  5
853
  8
0
 10
54.307
 20
72.666
 30
0.0
 70
0
  0
VERTEX
  5
854
  8
0
 10
54.302
 20
72.668
 30
0.0
 70
0
  0
VERTEX
  5
855
  8
0
 10
54.297
 20
72.67
 30
0.0
 70
0
  0
VERTEX
  5
856
  8
0
 10
54.291
 20
72.671
 30
0.0
 70
0
  0
VERTEX
  5
857
  8
0
 10
54.286
 20
72.673
 30
0.0
 70
0
  0
VERTEX
  5
858
  8
0
 10
54.281
 20
72.675
 30
0.0
 70
0
  0
VERTEX
  5
859
  8
0
 10
54.276
 20
72.677
 30
0.0
 70
0
  0
VERTEX
  5
85A
  8
0
 10
54.271
 20
72.679
 30
0.0
 70
0
  0
VERTEX
  5
85B
  8
0
 10
54.266
 20
72.681
 30
0.0
 70
0
  0
VERTEX
  5
85C
  8
0
 10
54.261
 20
72.683
 30
0.0
 70
0
  0
VERTEX
  5
85D
  8
0
 10
54.256
 20
72.685
 30
0.0
 70
0
  0
VERTEX
  5
85E
  8
0
 10
54.252
 20
72.687
 30
0.0
 70
0
  0
VERTEX
  5
85F
  8
0
 10
54.247
 20
72.69
 30
0.0
 70
0
  0
VERTEX
  5
860
  8
0
 10
54.242
 20
72.692
 30
0.0
 70
0
  0
VERTEX
  5
861
  8
0
 10
54.238
 20
72.695
 30
0.0
 70
0
  0
VERTEX
  5
862
  8
0
 10
54.233
 20
72.697
 30
0.0
 70
0
  0
VERTEX
  5
863
  8
0
 10
54.229
 20
72.7
 30
0.0
 70
0
  0
VERTEX
  5
864
  8
0
 10
54.224
 20
72.703
 30
0.0
 70
0
  0
VERTEX
  5
865
  8
0
 10
54.22
 20
72.705
 30
0.0
 70
0
  0
VERTEX
  5
866
  8
0
 10
54.215
 20
72.708
 30
0.0
 70
0
  0
VERTEX
  5
867
  8
0
 10
54.211
 20
72.711
 30
0.0
 70
0
  0
VERTEX
  5
868
  8
0
 10
54.207
 20
72.714
 30
0.0
 70
0
  0
VERTEX
  5
869
  8
0
 10
54.203
 20
72.717
 30
0.0
 70
0
  0
VERTEX
  5
86A
  8
0
 10
54.198
 20
72.72
 30
0.0
 70
0
  0
VERTEX
  5
86B
  8
0
 10
54.194
 20
72.723
 30
0.0
 70
0
  0
VERTEX
  5
86C
  8
0
 10
54.19
 20
72.727
 30
0.0
 70
0
  0
VERTEX
  5
86D
  8
0
 10
54.186
 20
72.73
 30
0.0
 70
0
  0
VERTEX
  5
86E
  8
0
 10
54.182
 20
72.733
 30
0.0
 70
0
  0
VERTEX
  5
86F
  8
0
 10
54.178
 20
72.737
 30
0.0
 70
0
  0
VERTEX
  5
870
  8
0
 10
54.175
 20
72.74
 30
0.0
 70
0
  0
VERTEX
  5
871
  8
0
 10
54.171
 20
72.744
 30
0.0
 70
0
  0
VERTEX
  5
872
  8
0
 10
54.167
 20
72.747
 30
0.0
 70
0
  0
VERTEX
  5
873
  8
0
 10
54.164
 20
72.751
 30
0.0
 70
0
  0
VERTEX
  5
874
  8
0
 10
54.16
 20
72.754
 30
0.0
 70
0
  0
VERTEX
  5
875
  8
0
 10
54.157
 20
72.758
 30
0.0
 70
0
  0
VERTEX
  5
876
  8
0
 10
54.153
 20
72.762
 30
0.0
 70
0
  0
VERTEX
  5
877
  8
0
 10
54.15
 20
72.766
 30
0.0
 70
0
  0
VERTEX
  5
878
  8
0
 10
54.147
 20
72.77
 30
0.0
 70
0
  0
VERTEX
  5
879
  8
0
 10
54.143
 20
72.774
 30
0.0
 70
0
  0
VERTEX
  5
87A
  8
0
 10
54.14
 20
72.778
 30
0.0
 70
0
  0
VERTEX
  5
87B
  8
0
 10
54.137
 20
72.782
 30
0.0
 70
0
  0
VERTEX
  5
87C
  8
0
 10
54.134
 20
72.786
 30
0.0
 70
0
  0
VERTEX
  5
87D
  8
0
 10
54.131
 20
72.79
 30
0.0
 70
0
  0
VERTEX
  5
87E
  8
0
 10
54.128
 20
72.795
 30
0.0
 70
0
  0
VERTEX
  5
87F
  8
0
 10
54.125
 20
72.799
 30
0.0
 70
0
  0
VERTEX
  5
880
  8
0
 10
54.122
 20
72.803
 30
0.0
 70
0
  0
VERTEX
  5
881
  8
0
 10
54.12
 20
72.808
 30
0.0
 70
0
  0
VERTEX
  5
882
  8
0
 10
54.117
 20
72.812
 30
0.0
 70
0
  0
VERTEX
  5
883
  8
0
 10
54.115
 20
72.817
 30
0.0
 70
0
  0
VERTEX
  5
884
  8
0
 10
54.112
 20
72.822
 30
0.0
 70
0
  0
VERTEX
  5
885
  8
0
 10
54.11
 20
72.826
 30
0.0
 70
0
  0
VERTEX
  5
886
  8
0
 10
54.107
 20
72.831
 30
0.0
 70
0
  0
VERTEX
  5
887
  8
0
 10
54.105
 20
72.836
 30
0.0
 70
0
  0
VERTEX
  5
888
  8
0
 10
54.103
 20
72.841
 30
0.0
 70
0
  0
VERTEX
  5
889
  8
0
 10
54.1
 20
72.845
 30
0.0
 70
0
  0
VERTEX
  5
88A
  8
0
 10
54.098
 20
72.85
 30
0.0
 70
0
  0
VERTEX
  5
88B
  8
0
 10
54.096
 20
72.855
 30
0.0
 70
0
  0
VERTEX
  5
88C
  8
0
 10
54.094
 20
72.86
 30
0.0
 70
0
  0
VERTEX
  5
88D
  8
0
 10
54.092
 20
72.865
 30
0.0
 70
0
  0
VERTEX
  5
88E
  8
0
 10
54.091
 20
72.871
 30
0.0
 70
0
  0
VERTEX
  5
88F
  8
0
 10
54.089
 20
72.876
 30
0.0
 70
0
  0
VERTEX
  5
890
  8
0
 10
54.087
 20
72.881
 30
0.0
 70
0
  0
VERTEX
  5
891
  8
0
 10
54.086
 20
72.886
 30
0.0
 70
0
  0
VERTEX
  5
892
  8
0
 10
54.084
 20
72.892
 30
0.0
 70
0
  0
VERTEX
  5
893
  8
0
 10
54.083
 20
72.897
 30
0.0
 70
0
  0
VERTEX
  5
894
  8
0
 10
54.081
 20
72.902
 30
0.0
 70
0
  0
VERTEX
  5
895
  8
0
 10
54.08
 20
72.908
 30
0.0
 70
0
  0
VERTEX
  5
896
  8
0
 10
54.079
 20
72.913
 30
0.0
 70
0
  0
VERTEX
  5
897
  8
0
 10
54.077
 20
72.919
 30
0.0
 70
0
  0
VERTEX
  5
898
  8
0
 10
54.076
 20
72.925
 30
0.0
 70
0
  0
VERTEX
  5
899
  8
0
 10
54.075
 20
72.93
 30
0.0
 70
0
  0
VERTEX
  5
89A
  8
0
 10
54.074
 20
72.936
 30
0.0
 70
0
  0
VERTEX
  5
89B
  8
0
 10
54.073
 20
72.942
 30
0.0
 70
0
  0
VERTEX
  5
89C
  8
0
 10
54.073
 20
72.947
 30
0.0
 70
0
  0
VERTEX
  5
89D
  8
0
 10
54.072
 20
72.953
 30
0.0
 70
0
  0
VERTEX
  5
89E
  8
0
 10
54.071
 20
72.959
 30
0.0
 70
0
  0
VERTEX
  5
89F
  8
0
 10
54.071
 20
72.965
 30
0.0
 70
0
  0
VERTEX
  5
8A0
  8
0
 10
54.07
 20
72.971
 30
0.0
 70
0
  0
VERTEX
  5
8A1
  8
0
 10
54.07
 20
72.977
 30
0.0
 70
0
  0
VERTEX
  5
8A2
  8
0
 10
54.07
 20
72.983
 30
0.0
 70
0
  0
VERTEX
  5
8A3
  8
0
 10
54.069
 20
72.989
 30
0.0
 70
0
  0
VERTEX
  5
8A4
  8
0
 10
54.069
 20
72.995
 30
0.0
 70
0
  0
VERTEX
  5
8A5
  8
0
 10
54.069
 20
73.001
 30
0.0
 70
0
  0
VERTEX
  5
8A6
  8
0
 10
54.069
 20
73.008
 30
0.0
 70
0
  0
VERTEX
  5
8A7
  8
0
 10
54.069
 20
73.014
 30
0.0
 70
0
  0
VERTEX
  5
8A8
  8
0
 10
54.069
 20
73.02
 30
0.0
 70
0
  0
VERTEX
  5
8A9
  8
0
 10
54.069
 20
73.026
 30
0.0
 70
0
  0
VERTEX
  5
8AA
  8
0
 10
54.07
 20
73.032
 30
0.0
 70
0
  0
VERTEX
  5
8AB
  8
0
 10
54.07
 20
73.039
 30
0.0
 70
0
  0
VERTEX
  5
8AC
  8
0
 10
54.071
 20
73.045
 30
0.0
 70
0
  0
VERTEX
  5
8AD
  8
0
 10
54.071
 20
73.051
 30
0.0
 70
0
  0
VERTEX
  5
8AE
  8
0
 10
54.072
 20
73.057
 30
0.0
 70
0
  0
VERTEX
  5
8AF
  8
0
 10
54.073
 20
73.063
 30
0.0
 70
0
  0
VERTEX
  5
8B0
  8
0
 10
54.073
 20
73.07
 30
0.0
 70
0
  0
VERTEX
  5
8B1
  8
0
 10
54.074
 20
73.076
 30
0.0
 70
0
  0
VERTEX
  5
8B2
  8
0
 10
54.075
 20
73.082
 30
0.0
 70
0
  0
VERTEX
  5
8B3
  8
0
 10
54.076
 20
73.088
 30
0.0
 70
0
  0
VERTEX
  5
8B4
  8
0
 10
54.077
 20
73.094
 30
0.0
 70
0
  0
VERTEX
  5
8B5
  8
0
 10
54.078
 20
73.1
 30
0.0
 70
0
  0
VERTEX
  5
8B6
  8
0
 10
54.08
 20
73.106
 30
0.0
 70
0
  0
VERTEX
  5
8B7
  8
0
 10
54.081
 20
73.112
 30
0.0
 70
0
  0
VERTEX
  5
8B8
  8
0
 10
54.082
 20
73.118
 30
0.0
 70
0
  0
VERTEX
  5
8B9
  8
0
 10
54.084
 20
73.124
 30
0.0
 70
0
  0
VERTEX
  5
8BA
  8
0
 10
54.085
 20
73.13
 30
0.0
 70
0
  0
VERTEX
  5
8BB
  8
0
 10
54.087
 20
73.136
 30
0.0
 70
0
  0
VERTEX
  5
8BC
  8
0
 10
54.088
 20
73.142
 30
0.0
 70
0
  0
VERTEX
  5
8BD
  8
0
 10
54.09
 20
73.148
 30
0.0
 70
0
  0
VERTEX
  5
8BE
  8
0
 10
54.092
 20
73.154
 30
0.0
 70
0
  0
VERTEX
  5
8BF
  8
0
 10
54.094
 20
73.16
 30
0.0
 70
0
  0
VERTEX
  5
8C0
  8
0
 10
54.096
 20
73.165
 30
0.0
 70
0
  0
VERTEX
  5
8C1
  8
0
 10
54.098
 20
73.171
 30
0.0
 70
0
  0
VERTEX
  5
8C2
  8
0
 10
54.1
 20
73.177
 30
0.0
 70
0
  0
VERTEX
  5
8C3
  8
0
 10
54.102
 20
73.183
 30
0.0
 70
0
  0
VERTEX
  5
8C4
  8
0
 10
54.104
 20
73.188
 30
0.0
 70
0
  0
VERTEX
  5
8C5
  8
0
 10
54.107
 20
73.194
 30
0.0
 70
0
  0
VERTEX
  5
8C6
  8
0
 10
54.109
 20
73.2
 30
0.0
 70
0
  0
VERTEX
  5
8C7
  8
0
 10
54.112
 20
73.205
 30
0.0
 70
0
  0
VERTEX
  5
8C8
  8
0
 10
54.114
 20
73.211
 30
0.0
 70
0
  0
VERTEX
  5
8C9
  8
0
 10
54.117
 20
73.216
 30
0.0
 70
0
  0
VERTEX
  5
8CA
  8
0
 10
54.119
 20
73.222
 30
0.0
 70
0
  0
VERTEX
  5
8CB
  8
0
 10
54.122
 20
73.227
 30
0.0
 70
0
  0
VERTEX
  5
8CC
  8
0
 10
54.125
 20
73.232
 30
0.0
 70
0
  0
VERTEX
  5
8CD
  8
0
 10
54.128
 20
73.238
 30
0.0
 70
0
  0
VERTEX
  5
8CE
  8
0
 10
54.13
 20
73.243
 30
0.0
 70
0
  0
VERTEX
  5
8CF
  8
0
 10
54.133
 20
73.248
 30
0.0
 70
0
  0
VERTEX
  5
8D0
  8
0
 10
54.136
 20
73.253
 30
0.0
 70
0
  0
VERTEX
  5
8D1
  8
0
 10
54.14
 20
73.258
 30
0.0
 70
0
  0
VERTEX
  5
8D2
  8
0
 10
54.143
 20
73.264
 30
0.0
 70
0
  0
VERTEX
  5
8D3
  8
0
 10
54.146
 20
73.269
 30
0.0
 70
0
  0
VERTEX
  5
8D4
  8
0
 10
54.149
 20
73.274
 30
0.0
 70
0
  0
VERTEX
  5
8D5
  8
0
 10
54.153
 20
73.278
 30
0.0
 70
0
  0
VERTEX
  5
8D6
  8
0
 10
54.156
 20
73.283
 30
0.0
 70
0
  0
VERTEX
  5
8D7
  8
0
 10
54.159
 20
73.288
 30
0.0
 70
0
  0
VERTEX
  5
8D8
  8
0
 10
54.163
 20
73.293
 30
0.0
 70
0
  0
VERTEX
  5
8D9
  8
0
 10
54.167
 20
73.297
 30
0.0
 70
0
  0
VERTEX
  5
8DA
  8
0
 10
54.17
 20
73.302
 30
0.0
 70
0
  0
VERTEX
  5
8DB
  8
0
 10
54.174
 20
73.307
 30
0.0
 70
0
  0
VERTEX
  5
8DC
  8
0
 10
54.178
 20
73.311
 30
0.0
 70
0
  0
VERTEX
  5
8DD
  8
0
 10
54.182
 20
73.315
 30
0.0
 70
0
  0
VERTEX
  5
8DE
  8
0
 10
54.186
 20
73.32
 30
0.0
 70
0
  0
VERTEX
  5
8DF
  8
0
 10
54.19
 20
73.324
 30
0.0
 70
0
  0
VERTEX
  5
8E0
  8
0
 10
54.194
 20
73.328
 30
0.0
 70
0
  0
VERTEX
  5
8E1
  8
0
 10
54.198
 20
73.332
 30
0.0
 70
0
  0
VERTEX
  5
8E2
  8
0
 10
54.202
 20
73.337
 30
0.0
 70
0
  0
VERTEX
  5
8E3
  8
0
 10
54.206
 20
73.341
 30
0.0
 70
0
  0
VERTEX
  5
8E4
  8
0
 10
54.21
 20
73.344
 30
0.0
 70
0
  0
VERTEX
  5
8E5
  8
0
 10
54.214
 20
73.348
 30
0.0
 70
0
  0
VERTEX
  5
8E6
  8
0
 10
54.219
 20
73.352
 30
0.0
 70
0
  0
VERTEX
  5
8E7
  8
0
 10
54.223
 20
73.356
 30
0.0
 70
0
  0
VERTEX
  5
8E8
  8
0
 10
54.228
 20
73.359
 30
0.0
 70
0
  0
VERTEX
  5
8E9
  8
0
 10
54.232
 20
73.363
 30
0.0
 70
0
  0
VERTEX
  5
8EA
  8
0
 10
54.237
 20
73.366
 30
0.0
 70
0
  0
VERTEX
  5
8EB
  8
0
 10
54.241
 20
73.37
 30
0.0
 70
0
  0
VERTEX
  5
8EC
  8
0
 10
54.246
 20
73.373
 30
0.0
 70
0
  0
VERTEX
  5
8ED
  8
0
 10
54.251
 20
73.376
 30
0.0
 70
0
  0
VERTEX
  5
8EE
  8
0
 10
54.256
 20
73.379
 30
0.0
 70
0
  0
VERTEX
  5
8EF
  8
0
 10
54.26
 20
73.382
 30
0.0
 70
0
  0
VERTEX
  5
8F0
  8
0
 10
54.265
 20
73.385
 30
0.0
 70
0
  0
VERTEX
  5
8F1
  8
0
 10
54.27
 20
73.388
 30
0.0
 70
0
  0
VERTEX
  5
8F2
  8
0
 10
54.275
 20
73.391
 30
0.0
 70
0
  0
VERTEX
  5
8F3
  8
0
 10
54.28
 20
73.394
 30
0.0
 70
0
  0
VERTEX
  5
8F4
  8
0
 10
54.285
 20
73.396
 30
0.0
 70
0
  0
VERTEX
  5
8F5
  8
0
 10
54.29
 20
73.399
 30
0.0
 70
0
  0
VERTEX
  5
8F6
  8
0
 10
54.296
 20
73.401
 30
0.0
 70
0
  0
VERTEX
  5
8F7
  8
0
 10
54.301
 20
73.404
 30
0.0
 70
0
  0
VERTEX
  5
8F8
  8
0
 10
54.306
 20
73.406
 30
0.0
 70
0
  0
VERTEX
  5
8F9
  8
0
 10
54.311
 20
73.408
 30
0.0
 70
0
  0
VERTEX
  5
8FA
  8
0
 10
54.317
 20
73.41
 30
0.0
 70
0
  0
VERTEX
  5
8FB
  8
0
 10
54.322
 20
73.412
 30
0.0
 70
0
  0
VERTEX
  5
8FC
  8
0
 10
54.328
 20
73.414
 30
0.0
 70
0
  0
VERTEX
  5
8FD
  8
0
 10
54.333
 20
73.415
 30
0.0
 70
0
  0
VERTEX
  5
8FE
  8
0
 10
54.339
 20
73.417
 30
0.0
 70
0
  0
VERTEX
  5
8FF
  8
0
 10
54.344
 20
73.419
 30
0.0
 70
0
  0
VERTEX
  5
900
  8
0
 10
54.35
 20
73.42
 30
0.0
 70
0
  0
VERTEX
  5
901
  8
0
 10
54.356
 20
73.421
 30
0.0
 70
0
  0
VERTEX
  5
902
  8
0
 10
54.362
 20
73.423
 30
0.0
 70
0
  0
VERTEX
  5
903
  8
0
 10
54.368
 20
73.424
 30
0.0
 70
0
  0
VERTEX
  5
904
  8
0
 10
54.373
 20
73.425
 30
0.0
 70
0
  0
VERTEX
  5
905
  8
0
 10
54.379
 20
73.426
 30
0.0
 70
0
  0
VERTEX
  5
906
  8
0
 10
54.385
 20
73.426
 30
0.0
 70
0
  0
VERTEX
  5
907
  8
0
 10
54.391
 20
73.427
 30
0.0
 70
0
  0
VERTEX
  5
908
  8
0
 10
54.397
 20
73.427
 30
0.0
 70
0
  0
VERTEX
  5
909
  8
0
 10
54.403
 20
73.428
 30
0.0
 70
0
  0
VERTEX
  5
90A
  8
0
 10
54.409
 20
73.428
 30
0.0
 70
0
  0
VERTEX
  5
90B
  8
0
 10
54.416
 20
73.428
 30
0.0
 70
0
  0
VERTEX
  5
90C
  8
0
 10
54.422
 20
73.428
 30
0.0
 70
0
  0
VERTEX
  5
90D
  8
0
 10
54.428
 20
73.428
 30
0.0
 70
0
  0
VERTEX
  5
90E
  8
0
 10
54.434
 20
73.428
 30
0.0
 70
0
  0
VERTEX
  5
90F
  8
0
 10
54.441
 20
73.428
 30
0.0
 70
0
  0
VERTEX
  5
910
  8
0
 10
54.447
 20
73.427
 30
0.0
 70
0
  0
VERTEX
  5
911
  8
0
 10
54.453
 20
73.427
 30
0.0
 70
0
  0
VERTEX
  5
912
  8
0
 10
54.459
 20
73.426
 30
0.0
 70
0
  0
VERTEX
  5
913
  8
0
 10
54.466
 20
73.425
 30
0.0
 70
0
  0
VERTEX
  5
914
  8
0
 10
54.472
 20
73.424
 30
0.0
 70
0
  0
VERTEX
  5
915
  8
0
 10
54.478
 20
73.423
 30
0.0
 70
0
  0
VERTEX
  5
916
  8
0
 10
54.484
 20
73.422
 30
0.0
 70
0
  0
VERTEX
  5
917
  8
0
 10
54.49
 20
73.421
 30
0.0
 70
0
  0
VERTEX
  5
918
  8
0
 10
54.497
 20
73.419
 30
0.0
 70
0
  0
VERTEX
  5
919
  8
0
 10
54.503
 20
73.418
 30
0.0
 70
0
  0
VERTEX
  5
91A
  8
0
 10
54.509
 20
73.416
 30
0.0
 70
0
  0
VERTEX
  5
91B
  8
0
 10
54.515
 20
73.415
 30
0.0
 70
0
  0
VERTEX
  5
91C
  8
0
 10
54.521
 20
73.413
 30
0.0
 70
0
  0
VERTEX
  5
91D
  8
0
 10
54.527
 20
73.411
 30
0.0
 70
0
  0
VERTEX
  5
91E
  8
0
 10
54.533
 20
73.409
 30
0.0
 70
0
  0
VERTEX
  5
91F
  8
0
 10
54.539
 20
73.407
 30
0.0
 70
0
  0
VERTEX
  5
920
  8
0
 10
54.545
 20
73.405
 30
0.0
 70
0
  0
VERTEX
  5
921
  8
0
 10
54.552
 20
73.403
 30
0.0
 70
0
  0
VERTEX
  5
922
  8
0
 10
54.558
 20
73.4
 30
0.0
 70
0
  0
VERTEX
  5
923
  8
0
 10
54.564
 20
73.398
 30
0.0
 70
0
  0
VERTEX
  5
924
  8
0
 10
54.569
 20
73.395
 30
0.0
 70
0
  0
VERTEX
  5
925
  8
0
 10
54.575
 20
73.393
 30
0.0
 70
0
  0
VERTEX
  5
926
  8
0
 10
54.581
 20
73.39
 30
0.0
 70
0
  0
VERTEX
  5
927
  8
0
 10
54.587
 20
73.387
 30
0.0
 70
0
  0
VERTEX
  5
928
  8
0
 10
54.593
 20
73.384
 30
0.0
 70
0
  0
VERTEX
  5
929
  8
0
 10
54.599
 20
73.381
 30
0.0
 70
0
  0
VERTEX
  5
92A
  8
0
 10
54.604
 20
73.378
 30
0.0
 70
0
  0
VERTEX
  5
92B
  8
0
 10
54.61
 20
73.375
 30
0.0
 70
0
  0
VERTEX
  5
92C
  8
0
 10
54.616
 20
73.372
 30
0.0
 70
0
  0
VERTEX
  5
92D
  8
0
 10
54.621
 20
73.368
 30
0.0
 70
0
  0
VERTEX
  5
92E
  8
0
 10
54.627
 20
73.365
 30
0.0
 70
0
  0
VERTEX
  5
92F
  8
0
 10
54.632
 20
73.362
 30
0.0
 70
0
  0
VERTEX
  5
930
  8
0
 10
54.638
 20
73.358
 30
0.0
 70
0
  0
VERTEX
  5
931
  8
0
 10
54.643
 20
73.354
 30
0.0
 70
0
  0
VERTEX
  5
932
  8
0
 10
54.649
 20
73.351
 30
0.0
 70
0
  0
VERTEX
  5
933
  8
0
 10
54.654
 20
73.347
 30
0.0
 70
0
  0
VERTEX
  5
934
  8
0
 10
54.659
 20
73.343
 30
0.0
 70
0
  0
VERTEX
  5
935
  8
0
 10
54.664
 20
73.339
 30
0.0
 70
0
  0
VERTEX
  5
936
  8
0
 10
54.67
 20
73.335
 30
0.0
 70
0
  0
VERTEX
  5
937
  8
0
 10
54.675
 20
73.331
 30
0.0
 70
0
  0
VERTEX
  5
938
  8
0
 10
54.68
 20
73.327
 30
0.0
 70
0
  0
VERTEX
  5
939
  8
0
 10
54.685
 20
73.322
 30
0.0
 70
0
  0
VERTEX
  5
93A
  8
0
 10
54.69
 20
73.318
 30
0.0
 70
0
  0
VERTEX
  5
93B
  8
0
 10
54.695
 20
73.314
 30
0.0
 70
0
  0
VERTEX
  5
93C
  8
0
 10
54.7
 20
73.309
 30
0.0
 70
0
  0
VERTEX
  5
93D
  8
0
 10
54.705
 20
73.305
 30
0.0
 70
0
  0
VERTEX
  5
93E
  8
0
 10
54.709
 20
73.3
 30
0.0
 70
0
  0
VERTEX
  5
93F
  8
0
 10
54.714
 20
73.296
 30
0.0
 70
0
  0
VERTEX
  5
940
  8
0
 10
54.719
 20
73.291
 30
0.0
 70
0
  0
VERTEX
  5
941
  8
0
 10
54.723
 20
73.286
 30
0.0
 70
0
  0
VERTEX
  5
942
  8
0
 10
54.728
 20
73.281
 30
0.0
 70
0
  0
VERTEX
  5
943
  8
0
 10
54.732
 20
73.276
 30
0.0
 70
0
  0
VERTEX
  5
944
  8
0
 10
54.737
 20
73.272
 30
0.0
 70
0
  0
VERTEX
  5
945
  8
0
 10
54.741
 20
73.267
 30
0.0
 70
0
  0
VERTEX
  5
946
  8
0
 10
54.745
 20
73.262
 30
0.0
 70
0
  0
VERTEX
  5
947
  8
0
 10
54.749
 20
73.256
 30
0.0
 70
0
  0
VERTEX
  5
948
  8
0
 10
54.754
 20
73.251
 30
0.0
 70
0
  0
VERTEX
  5
949
  8
0
 10
54.758
 20
73.246
 30
0.0
 70
0
  0
VERTEX
  5
94A
  8
0
 10
54.761
 20
73.241
 30
0.0
 70
0
  0
VERTEX
  5
94B
  8
0
 10
54.765
 20
73.235
 30
0.0
 70
0
  0
VERTEX
  5
94C
  8
0
 10
54.769
 20
73.23
 30
0.0
 70
0
  0
VERTEX
  5
94D
  8
0
 10
54.773
 20
73.225
 30
0.0
 70
0
  0
VERTEX
  5
94E
  8
0
 10
54.777
 20
73.219
 30
0.0
 70
0
  0
VERTEX
  5
94F
  8
0
 10
54.78
 20
73.214
 30
0.0
 70
0
  0
VERTEX
  5
950
  8
0
 10
54.784
 20
73.208
 30
0.0
 70
0
  0
VERTEX
  5
951
  8
0
 10
54.787
 20
73.203
 30
0.0
 70
0
  0
VERTEX
  5
952
  8
0
 10
54.79
 20
73.197
 30
0.0
 70
0
  0
VERTEX
  5
953
  8
0
 10
54.794
 20
73.192
 30
0.0
 70
0
  0
VERTEX
  5
954
  8
0
 10
54.797
 20
73.186
 30
0.0
 70
0
  0
VERTEX
  5
955
  8
0
 10
54.8
 20
73.18
 30
0.0
 70
0
  0
VERTEX
  5
956
  8
0
 10
54.803
 20
73.175
 30
0.0
 70
0
  0
VERTEX
  5
957
  8
0
 10
54.806
 20
73.169
 30
0.0
 70
0
  0
VERTEX
  5
958
  8
0
 10
54.808
 20
73.163
 30
0.0
 70
0
  0
VERTEX
  5
959
  8
0
 10
54.811
 20
73.157
 30
0.0
 70
0
  0
VERTEX
  5
95A
  8
0
 10
54.814
 20
73.151
 30
0.0
 70
0
  0
VERTEX
  5
95B
  8
0
 10
54.816
 20
73.146
 30
0.0
 70
0
  0
VERTEX
  5
95C
  8
0
 10
54.819
 20
73.14
 30
0.0
 70
0
  0
VERTEX
  5
95D
  8
0
 10
54.821
 20
73.134
 30
0.0
 70
0
  0
VERTEX
  5
95E
  8
0
 10
54.823
 20
73.128
 30
0.0
 70
0
  0
VERTEX
  5
95F
  8
0
 10
54.825
 20
73.122
 30
0.0
 70
0
  0
VERTEX
  5
960
  8
0
 10
54.827
 20
73.116
 30
0.0
 70
0
  0
VERTEX
  5
961
  8
0
 10
54.829
 20
73.11
 30
0.0
 70
0
  0
VERTEX
  5
962
  8
0
 10
54.831
 20
73.104
 30
0.0
 70
0
  0
VERTEX
  5
963
  8
0
 10
54.833
 20
73.098
 30
0.0
 70
0
  0
VERTEX
  5
964
  8
0
 10
54.835
 20
73.092
 30
0.0
 70
0
  0
VERTEX
  5
965
  8
0
 10
54.836
 20
73.086
 30
0.0
 70
0
  0
VERTEX
  5
966
  8
0
 10
54.838
 20
73.079
 30
0.0
 70
0
  0
VERTEX
  5
967
  8
0
 10
54.839
 20
73.073
 30
0.0
 70
0
  0
VERTEX
  5
968
  8
0
 10
54.84
 20
73.067
 30
0.0
 70
0
  0
VERTEX
  5
969
  8
0
 10
54.841
 20
73.061
 30
0.0
 70
0
  0
VERTEX
  5
96A
  8
0
 10
54.842
 20
73.055
 30
0.0
 70
0
  0
VERTEX
  5
96B
  8
0
 10
54.843
 20
73.049
 30
0.0
 70
0
  0
VERTEX
  5
96C
  8
0
 10
54.844
 20
73.042
 30
0.0
 70
0
  0
VERTEX
  5
96D
  8
0
 10
54.844
 20
73.036
 30
0.0
 70
0
  0
VERTEX
  5
96E
  8
0
 10
54.845
 20
73.03
 30
0.0
 70
0
  0
VERTEX
  5
96F
  8
0
 10
54.845
 20
73.024
 30
0.0
 70
0
  0
VERTEX
  5
970
  8
0
 10
54.846
 20
73.018
 30
0.0
 70
0
  0
VERTEX
  5
971
  8
0
 10
54.846
 20
73.011
 30
0.0
 70
0
  0
VERTEX
  5
972
  8
0
 10
54.846
 20
73.005
 30
0.0
 70
0
  0
SEQEND
  5
7D8
  8
0
  0
POLYLINE
  5
973
  8
0
 66
1
 10
0.0
 20
0.0
 30
0.0
 70
0
  0
VERTEX
  5
975
  8
0
 10
58.871
 20
72.722
 30
0.0
 70
0
  0
VERTEX
  5
976
  8
0
 10
58.871
 20
72.794
 30
0.0
 70
0
  0
VERTEX
  5
977
  8
0
 10
58.94
 20
72.794
 30
0.0
 70
0
  0
SEQEND
  5
974
  8
0
  0
POLYLINE
  5
978
  8
0
 66
1
 10
0.0
 20
0.0
 30
0.0
 70
0
  0
VERTEX
  5
97A
  8
0
 10
55.48
 20
72.017
 30
0.0
 70
0
  0
VERTEX
  5
97B
  8
0
 10
55.551
 20
72.017
 30
0.0
 70
0
  0
VERTEX
  5
97C
  8
0
 10
55.623
 20
72.017
 30
0.0
 70
0
  0
VERTEX
  5
97D
  8
0
 10
55.623
 20
72.088
 30
0.0
 70
0
  0
SEQEND
  5
979
  8
0
  0
POLYLINE
  5
97E
  8
0
 66
1
 10
0.0
 20
0.0
 30
0.0
 70
0
  0
VERTEX
  5
980
  8
0
 10
59.012
 20
73.428
 30
0.0
 70
0
  0
VERTEX
  5
981
  8
0
 10
58.94
 20
73.428
 30
0.0
 70
0
  0
VERTEX
  5
982
  8
0
 10
58.94
 20
73.357
 30
0.0
 70
0
  0
SEQEND
  5
97F
  8
0
  0
POLYLINE
  5
983
  8
0
 66
1
 10
0.0
 20
0.0
 30
0.0
 70
0
  0
VERTEX
  5
985
  8
0
 10
52.02
 20
74.417
 30
0.0
 70
0
  0
VERTEX
  5
986
  8
0
 10
52.02
 20
74.348
 30
0.0
 70
0
  0
VERTEX
  5
987
  8
0
 10
52.02
 20
74.276
 30
0.0
 70
0
  0
VERTEX
  5
988
  8
0
 10
52.092
 20
74.205
 30
0.0
 70
0
  0
VERTEX
  5
989
  8
0
 10
52.092
 20
74.134
 30
0.0
 70
0
  0
VERTEX
  5
98A
  8
0
 10
52.161
 20
74.065
 30
0.0
 70
0
  0
VERTEX
  5
98B
  8
0
 10
52.233
 20
74.065
 30
0.0
 70
0
  0
SEQEND
  5
984
  8
0
  0
POLYLINE
  5
98C
  8
0
 66
1
 10
0.0
 20
0.0
 30
0.0
 70
0
  0
VERTEX
  5
98E
  8
0
 10
52.02
 20
74.417
 30
0.0
 70
0
  0
VERTEX
  5
98F
  8
0
 10
52.02
 20
74.348
 30
0.0
 70
0
  0
VERTEX
  5
990
  8
0
 10
52.02
 20
74.276
 30
0.0
 70
0
  0
VERTEX
  5
991
  8
0
 10
52.092
 20
74.205
 30
0.0
 70
0
  0
VERTEX
  5
992
  8
0
 10
52.092
 20
74.134
 30
0.0
 70
0
  0
VERTEX
  5
993
  8
0
 10
52.161
 20
74.134
 30
0.0
 70
0
  0
VERTEX
  5
994
  8
0
 10
52.161
 20
74.065
 30
0.0
 70
0
  0
VERTEX
  5
995
  8
0
 10
52.233
 20
74.065
 30
0.0
 70
0
  0
SEQEND
  5
98D
  8
0
  0
POLYLINE
  5
996
  8
0
 66
1
 10
0.0
 20
0.0
 30
0.0
 70
0
  0
VERTEX
  5
998
  8
0
 10
52.444
 20
74.065
 30
0.0
 70
0
  0
VERTEX
  5
999
  8
0
 10
52.515
 20
74.065
 30
0.0
 70
0
  0
VERTEX
  5
99A
  8
0
 10
52.586
 20
74.065
 30
0.0
 70
0
  0
VERTEX
  5
99B
  8
0
 10
52.655
 20
74.065
 30
0.0
 70
0
  0
VERTEX
  5
99C
  8
0
 10
52.655
 20
74.134
 30
0.0
 70
0
  0
SEQEND
  5
997
  8
0
  0
POLYLINE
  5
99D
  8
0
 66
1
 10
0.0
 20
0.0
 30
0.0
 70
0
  0
VERTEX
  5
99F
  8
0
 10
59.223
 20
75.971
 30
0.0
 70
0
  0
VERTEX
  5
9A0
  8
0
 10
59.223
 20
75.899
 30
0.0
 70
0
  0
VERTEX
  5
9A1
  8
0
 10
59.154
 20
75.899
 30
0.0
 70
0
  0
SEQEND
  5
99E
  8
0
  0
POLYLINE
  5
9A2
  8
0
 66
1
 10
0.0
 20
0.0
 30
0.0
 70
0
  0
VERTEX
  5
9A4
  8
0
 10
49.196
 20
75.619
 30
0.0
 70
0
  0
VERTEX
  5
9A5
  8
0
 10
49.124
 20
75.619
 30
0.0
 70
0
  0
VERTEX
  5
9A6
  8
0
 10
49.124
 20
75.548
 30
0.0
 70
0
  0
SEQEND
  5
9A3
  8
0
  0
POLYLINE
  5
9A7
  8
0
 66
1
 10
0.0
 20
0.0
 30
0.0
 70
0
  0
VERTEX
  5
9A9
  8
0
 10
49.549
 20
75.548
 30
0.0
 70
0
  0
VERTEX
  5
9AA
  8
0
 10
49.478
 20
75.548
 30
0.0
 70
0
  0
VERTEX
  5
9AB
  8
0
 10
49.478
 20
75.619
 30
0.0
 70
0
  0
SEQEND
  5
9A8
  8
0
  0
POLYLINE
  5
9AC
  8
0
 66
1
 10
0.0
 20
0.0
 30
0.0
 70
0
  0
VERTEX
  5
9AE
  8
0
 10
55.623
 20
74.065
 30
0.0
 70
0
  0
VERTEX
  5
9AF
  8
0
 10
55.623
 20
74.134
 30
0.0
 70
0
  0
VERTEX
  5
9B0
  8
0
 10
55.551
 20
74.134
 30
0.0
 70
0
  0
VERTEX
  5
9B1
  8
0
 10
55.551
 20
74.205
 30
0.0
 70
0
  0
VERTEX
  5
9B2
  8
0
 10
55.48
 20
74.205
 30
0.0
 70
0
  0
SEQEND
  5
9AD
  8
0
  0
POLYLINE
  5
9B3
  8
0
 66
1
 10
0.0
 20
0.0
 30
0.0
 70
0
  0
VERTEX
  5
9B5
  8
0
 10
59.931
 20
75.688
 30
0.0
 70
0
  0
VERTEX
  5
9B6
  8
0
 10
59.86
 20
75.688
 30
0.0
 70
0
  0
VERTEX
  5
9B7
  8
0
 10
59.86
 20
75.759
 30
0.0
 70
0
  0
SEQEND
  5
9B4
  8
0
  0
POLYLINE
  5
9B8
  8
0
 66
1
 10
0.0
 20
0.0
 30
0.0
 70
0
  0
VERTEX
  5
9BA
  8
0
 10
59.789
 20
75.053
 30
0.0
 70
0
  0
VERTEX
  5
9BB
  8
0
 10
59.931
 20
75.194
 30
0.0
 70
0
  0
VERTEX
  5
9BC
  8
0
 10
59.931
 20
75.688
 30
0.0
 70
0
  0
SEQEND
  5
9B9
  8
0
  0
POLYLINE
  5
9BD
  8
0
 66
1
 10
0.0
 20
0.0
 30
0.0
 70
0
  0
VERTEX
  5
9BF
  8
0
 10
37.614
 20
73.64
 30
0.0
 70
0
  0
VERTEX
  5
9C0
  8
0
 10
37.614
 20
73.711
 30
0.0
 70
0
  0
VERTEX
  5
9C1
  8
0
 10
37.685
 20
73.711
 30
0.0
 70
0
  0
SEQEND
  5
9BE
  8
0
  0
POLYLINE
  5
9C2
  8
0
 66
1
 10
0.0
 20
0.0
 30
0.0
 70
0
  0
VERTEX
  5
9C4
  8
0
 10
57.106
 20
74.982
 30
0.0
 70
0
  0
VERTEX
  5
9C5
  8
0
 10
57.035
 20
74.982
 30
0.0
 70
0
  0
VERTEX
  5
9C6
  8
0
 10
56.963
 20
74.982
 30
0.0
 70
0
  0
VERTEX
  5
9C7
  8
0
 10
56.963
 20
74.911
 30
0.0
 70
0
  0
VERTEX
  5
9C8
  8
0
 10
56.895
 20
74.911
 30
0.0
 70
0
  0
VERTEX
  5
9C9
  8
0
 10
56.823
 20
74.842
 30
0.0
 70
0
  0
VERTEX
  5
9CA
  8
0
 10
56.751
 20
74.842
 30
0.0
 70
0
  0
VERTEX
  5
9CB
  8
0
 10
56.751
 20
74.771
 30
0.0
 70
0
  0
VERTEX
  5
9CC
  8
0
 10
56.751
 20
74.699
 30
0.0
 70
0
  0
VERTEX
  5
9CD
  8
0
 10
56.751
 20
74.628
 30
0.0
 70
0
  0
SEQEND
  5
9C3
  8
0
  0
POLYLINE
  5
9CE
  8
0
 66
1
 10
0.0
 20
0.0
 30
0.0
 70
0
  0
VERTEX
  5
9D0
  8
0
 10
56.329
 20
74.276
 30
0.0
 70
0
  0
VERTEX
  5
9D1
  8
0
 10
56.4
 20
74.276
 30
0.0
 70
0
  0
VERTEX
  5
9D2
  8
0
 10
56.469
 20
74.276
 30
0.0
 70
0
  0
VERTEX
  5
9D3
  8
0
 10
56.54
 20
74.276
 30
0.0
 70
0
  0
VERTEX
  5
9D4
  8
0
 10
56.54
 20
74.348
 30
0.0
 70
0
  0
VERTEX
  5
9D5
  8
0
 10
56.612
 20
74.417
 30
0.0
 70
0
  0
VERTEX
  5
9D6
  8
0
 10
56.68
 20
74.417
 30
0.0
 70
0
  0
VERTEX
  5
9D7
  8
0
 10
56.68
 20
74.488
 30
0.0
 70
0
  0
VERTEX
  5
9D8
  8
0
 10
56.751
 20
74.559
 30
0.0
 70
0
  0
VERTEX
  5
9D9
  8
0
 10
56.751
 20
74.628
 30
0.0
 70
0
  0
SEQEND
  5
9CF
  8
0
  0
POLYLINE
  5
9DA
  8
0
 66
1
 10
0.0
 20
0.0
 30
0.0
 70
0
  0
VERTEX
  5
9DC
  8
0
 10
52.02
 20
74.488
 30
0.0
 70
0
  0
VERTEX
  5
9DD
  8
0
 10
52.02
 20
74.417
 30
0.0
 70
0
  0
VERTEX
  5
9DE
  8
0
 10
52.092
 20
74.417
 30
0.0
 70
0
  0
VERTEX
  5
9DF
  8
0
 10
52.092
 20
74.348
 30
0.0
 70
0
  0
VERTEX
  5
9E0
  8
0
 10
52.092
 20
74.276
 30
0.0
 70
0
  0
VERTEX
  5
9E1
  8
0
 10
52.161
 20
74.205
 30
0.0
 70
0
  0
VERTEX
  5
9E2
  8
0
 10
52.233
 20
74.205
 30
0.0
 70
0
  0
VERTEX
  5
9E3
  8
0
 10
52.303
 20
74.205
 30
0.0
 70
0
  0
VERTEX
  5
9E4
  8
0
 10
52.303
 20
74.134
 30
0.0
 70
0
  0
VERTEX
  5
9E5
  8
0
 10
52.375
 20
74.134
 30
0.0
 70
0
  0
VERTEX
  5
9E6
  8
0
 10
52.444
 20
74.134
 30
0.0
 70
0
  0
SEQEND
  5
9DB
  8
0
  0
POLYLINE
  5
9E7
  8
0
 66
1
 10
0.0
 20
0.0
 30
0.0
 70
0
  0
VERTEX
  5
9E9
  8
0
 10
52.02
 20
74.488
 30
0.0
 70
0
  0
VERTEX
  5
9EA
  8
0
 10
52.02
 20
74.559
 30
0.0
 70
0
  0
VERTEX
  5
9EB
  8
0
 10
52.02
 20
74.628
 30
0.0
 70
0
  0
VERTEX
  5
9EC
  8
0
 10
51.949
 20
74.628
 30
0.0
 70
0
  0
VERTEX
  5
9ED
  8
0
 10
51.949
 20
74.699
 30
0.0
 70
0
  0
VERTEX
  5
9EE
  8
0
 10
51.878
 20
74.699
 30
0.0
 70
0
  0
VERTEX
  5
9EF
  8
0
 10
51.809
 20
74.771
 30
0.0
 70
0
  0
VERTEX
  5
9F0
  8
0
 10
51.738
 20
74.771
 30
0.0
 70
0
  0
VERTEX
  5
9F1
  8
0
 10
51.667
 20
74.771
 30
0.0
 70
0
  0
VERTEX
  5
9F2
  8
0
 10
51.667
 20
74.842
 30
0.0
 70
0
  0
SEQEND
  5
9E8
  8
0
  0
POLYLINE
  5
9F3
  8
0
 66
1
 10
0.0
 20
0.0
 30
0.0
 70
0
  0
VERTEX
  5
9F5
  8
0
 10
59.931
 20
75.688
 30
0.0
 70
0
  0
VERTEX
  5
9F6
  8
0
 10
59.931
 20
75.759
 30
0.0
 70
0
  0
VERTEX
  5
9F7
  8
0
 10
59.931
 20
75.83
 30
0.0
 70
0
  0
VERTEX
  5
9F8
  8
0
 10
59.86
 20
75.83
 30
0.0
 70
0
  0
SEQEND
  5
9F4
  8
0
  0
POLYLINE
  5
9F9
  8
0
 66
1
 10
0.0
 20
0.0
 30
0.0
 70
0
  0
VERTEX
  5
9FB
  8
0
 10
48.844
 20
75.476
 30
0.0
 70
0
  0
VERTEX
  5
9FC
  8
0
 10
48.844
 20
75.405
 30
0.0
 70
0
  0
VERTEX
  5
9FD
  8
0
 10
48.772
 20
75.405
 30
0.0
 70
0
  0
VERTEX
  5
9FE
  8
0
 10
48.702
 20
75.336
 30
0.0
 70
0
  0
SEQEND
  5
9FA
  8
0
  0
POLYLINE
  5
9FF
  8
0
 66
1
 10
0.0
 20
0.0
 30
0.0
 70
0
  0
VERTEX
  5
A01
  8
0
 10
36.837
 20
74.065
 30
0.0
 70
0
  0
VERTEX
  5
A02
  8
0
 10
36.837
 20
74.134
 30
0.0
 70
0
  0
VERTEX
  5
A03
  8
0
 10
36.765
 20
74.134
 30
0.0
 70
0
  0
VERTEX
  5
A04
  8
0
 10
36.696
 20
74.134
 30
0.0
 70
0
  0
VERTEX
  5
A05
  8
0
 10
36.625
 20
74.134
 30
0.0
 70
0
  0
VERTEX
  5
A06
  8
0
 10
36.554
 20
74.134
 30
0.0
 70
0
  0
VERTEX
  5
A07
  8
0
 10
36.554
 20
74.065
 30
0.0
 70
0
  0
VERTEX
  5
A08
  8
0
 10
36.485
 20
74.065
 30
0.0
 70
0
  0
SEQEND
  5
A00
  8
0
  0
POLYLINE
  5
A09
  8
0
 66
1
 10
0.0
 20
0.0
 30
0.0
 70
0
  0
VERTEX
  5
A0B
  8
0
 10
36.202
 20
74.134
 30
0.0
 70
0
  0
VERTEX
  5
A0C
  8
0
 10
36.131
 20
74.065
 30
0.0
 70
0
  0
VERTEX
  5
A0D
  8
0
 10
36.06
 20
74.065
 30
0.0
 70
0
  0
VERTEX
  5
A0E
  8
0
 10
35.989
 20
74.065
 30
0.0
 70
0
  0
SEQEND
  5
A0A
  8
0
  0
POLYLINE
  5
A0F
  8
0
 66
1
 10
0.0
 20
0.0
 30
0.0
 70
0
  0
VERTEX
  5
A11
  8
0
 10
36.485
 20
74.065
 30
0.0
 70
0
  0
VERTEX
  5
A12
  8
0
 10
36.414
 20
74.065
 30
0.0
 70
0
  0
VERTEX
  5
A13
  8
0
 10
36.343
 20
74.065
 30
0.0
 70
0
  0
VERTEX
  5
A14
  8
0
 10
36.272
 20
74.065
 30
0.0
 70
0
  0
VERTEX
  5
A15
  8
0
 10
36.272
 20
74.134
 30
0.0
 70
0
  0
VERTEX
  5
A16
  8
0
 10
36.202
 20
74.134
 30
0.0
 70
0
  0
SEQEND
  5
A10
  8
0
  0
POLYLINE
  5
A17
  8
0
 66
1
 10
0.0
 20
0.0
 30
0.0
 70
0
  0
VERTEX
  5
A19
  8
0
 10
36.98
 20
75.476
 30
0.0
 70
0
  0
VERTEX
  5
A1A
  8
0
 10
37.048
 20
75.476
 30
0.0
 70
0
  0
VERTEX
  5
A1B
  8
0
 10
37.12
 20
75.476
 30
0.0
 70
0
  0
VERTEX
  5
A1C
  8
0
 10
37.191
 20
75.476
 30
0.0
 70
0
  0
VERTEX
  5
A1D
  8
0
 10
37.191
 20
75.405
 30
0.0
 70
0
  0
VERTEX
  5
A1E
  8
0
 10
37.26
 20
75.405
 30
0.0
 70
0
  0
VERTEX
  5
A1F
  8
0
 10
37.331
 20
75.405
 30
0.0
 70
0
  0
VERTEX
  5
A20
  8
0
 10
37.331
 20
75.336
 30
0.0
 70
0
  0
VERTEX
  5
A21
  8
0
 10
37.402
 20
75.336
 30
0.0
 70
0
  0
VERTEX
  5
A22
  8
0
 10
37.474
 20
75.336
 30
0.0
 70
0
  0
VERTEX
  5
A23
  8
0
 10
37.474
 20
75.265
 30
0.0
 70
0
  0
VERTEX
  5
A24
  8
0
 10
37.543
 20
75.265
 30
0.0
 70
0
  0
VERTEX
  5
A25
  8
0
 10
37.543
 20
75.194
 30
0.0
 70
0
  0
VERTEX
  5
A26
  8
0
 10
37.614
 20
75.194
 30
0.0
 70
0
  0
VERTEX
  5
A27
  8
0
 10
37.614
 20
75.053
 30
0.0
 70
0
  0
SEQEND
  5
A18
  8
0
  0
POLYLINE
  5
A28
  8
0
 66
1
 10
0.0
 20
0.0
 30
0.0
 70
0
  0
VERTEX
  5
A2A
  8
0
 10
35.214
 20
74.911
 30
0.0
 70
0
  0
VERTEX
  5
A2B
  8
0
 10
35.214
 20
75.122
 30
0.0
 70
0
  0
VERTEX
  5
A2C
  8
0
 10
35.283
 20
75.122
 30
0.0
 70
0
  0
VERTEX
  5
A2D
  8
0
 10
35.283
 20
75.265
 30
0.0
 70
0
  0
VERTEX
  5
A2E
  8
0
 10
35.354
 20
75.265
 30
0.0
 70
0
  0
VERTEX
  5
A2F
  8
0
 10
35.425
 20
75.265
 30
0.0
 70
0
  0
VERTEX
  5
A30
  8
0
 10
35.425
 20
75.336
 30
0.0
 70
0
  0
VERTEX
  5
A31
  8
0
 10
35.494
 20
75.336
 30
0.0
 70
0
  0
VERTEX
  5
A32
  8
0
 10
35.565
 20
75.336
 30
0.0
 70
0
  0
VERTEX
  5
A33
  8
0
 10
35.637
 20
75.336
 30
0.0
 70
0
  0
VERTEX
  5
A34
  8
0
 10
35.708
 20
75.336
 30
0.0
 70
0
  0
VERTEX
  5
A35
  8
0
 10
35.708
 20
75.405
 30
0.0
 70
0
  0
VERTEX
  5
A36
  8
0
 10
35.777
 20
75.405
 30
0.0
 70
0
  0
SEQEND
  5
A29
  8
0
  0
POLYLINE
  5
A37
  8
0
 66
1
 10
0.0
 20
0.0
 30
0.0
 70
0
  0
VERTEX
  5
A39
  8
0
 10
36.765
 20
74.488
 30
0.0
 70
0
  0
VERTEX
  5
A3A
  8
0
 10
36.765
 20
74.628
 30
0.0
 70
0
  0
VERTEX
  5
A3B
  8
0
 10
36.696
 20
74.628
 30
0.0
 70
0
  0
VERTEX
  5
A3C
  8
0
 10
36.625
 20
74.628
 30
0.0
 70
0
  0
VERTEX
  5
A3D
  8
0
 10
36.625
 20
74.699
 30
0.0
 70
0
  0
VERTEX
  5
A3E
  8
0
 10
36.554
 20
74.699
 30
0.0
 70
0
  0
VERTEX
  5
A3F
  8
0
 10
36.485
 20
74.699
 30
0.0
 70
0
  0
SEQEND
  5
A38
  8
0
  0
POLYLINE
  5
A40
  8
0
 66
1
 10
0.0
 20
0.0
 30
0.0
 70
0
  0
VERTEX
  5
A42
  8
0
 10
36.343
 20
74.699
 30
0.0
 70
0
  0
VERTEX
  5
A43
  8
0
 10
36.272
 20
74.699
 30
0.0
 70
0
  0
VERTEX
  5
A44
  8
0
 10
36.272
 20
74.628
 30
0.0
 70
0
  0
VERTEX
  5
A45
  8
0
 10
36.202
 20
74.628
 30
0.0
 70
0
  0
VERTEX
  5
A46
  8
0
 10
36.131
 20
74.628
 30
0.0
 70
0
  0
VERTEX
  5
A47
  8
0
 10
36.131
 20
74.559
 30
0.0
 70
0
  0
VERTEX
  5
A48
  8
0
 10
36.06
 20
74.559
 30
0.0
 70
0
  0
VERTEX
  5
A49
  8
0
 10
36.06
 20
74.488
 30
0.0
 70
0
  0
SEQEND
  5
A41
  8
0
  0
POLYLINE
  5
A4A
  8
0
 66
1
 10
0.0
 20
0.0
 30
0.0
 70
0
  0
VERTEX
  5
A4C
  8
0
 10
36.485
 20
74.205
 30
0.0
 70
0
  0
VERTEX
  5
A4D
  8
0
 10
36.485
 20
74.276
 30
0.0
 70
0
  0
VERTEX
  5
A4E
  8
0
 10
36.554
 20
74.276
 30
0.0
 70
0
  0
VERTEX
  5
A4F
  8
0
 10
36.625
 20
74.276
 30
0.0
 70
0
  0
VERTEX
  5
A50
  8
0
 10
36.696
 20
74.276
 30
0.0
 70
0
  0
VERTEX
  5
A51
  8
0
 10
36.696
 20
74.348
 30
0.0
 70
0
  0
VERTEX
  5
A52
  8
0
 10
36.765
 20
74.348
 30
0.0
 70
0
  0
VERTEX
  5
A53
  8
0
 10
36.765
 20
74.488
 30
0.0
 70
0
  0
SEQEND
  5
A4B
  8
0
  0
POLYLINE
  5
A54
  8
0
 66
1
 10
0.0
 20
0.0
 30
0.0
 70
0
  0
VERTEX
  5
A56
  8
0
 10
36.06
 20
74.488
 30
0.0
 70
0
  0
VERTEX
  5
A57
  8
0
 10
36.06
 20
74.417
 30
0.0
 70
0
  0
VERTEX
  5
A58
  8
0
 10
36.131
 20
74.348
 30
0.0
 70
0
  0
VERTEX
  5
A59
  8
0
 10
36.131
 20
74.276
 30
0.0
 70
0
  0
VERTEX
  5
A5A
  8
0
 10
36.202
 20
74.276
 30
0.0
 70
0
  0
VERTEX
  5
A5B
  8
0
 10
36.272
 20
74.276
 30
0.0
 70
0
  0
VERTEX
  5
A5C
  8
0
 10
36.343
 20
74.276
 30
0.0
 70
0
  0
VERTEX
  5
A5D
  8
0
 10
36.343
 20
74.205
 30
0.0
 70
0
  0
VERTEX
  5
A5E
  8
0
 10
36.414
 20
74.205
 30
0.0
 70
0
  0
VERTEX
  5
A5F
  8
0
 10
36.485
 20
74.205
 30
0.0
 70
0
  0
SEQEND
  5
A55
  8
0
  0
POLYLINE
  5
A60
  8
0
 66
1
 10
0.0
 20
0.0
 30
0.0
 70
0
  0
VERTEX
  5
A62
  8
0
 10
36.485
 20
74.205
 30
0.0
 70
0
  0
VERTEX
  5
A63
  8
0
 10
36.414
 20
74.205
 30
0.0
 70
0
  0
VERTEX
  5
A64
  8
0
 10
36.343
 20
74.205
 30
0.0
 70
0
  0
VERTEX
  5
A65
  8
0
 10
36.272
 20
74.205
 30
0.0
 70
0
  0
VERTEX
  5
A66
  8
0
 10
36.202
 20
74.276
 30
0.0
 70
0
  0
VERTEX
  5
A67
  8
0
 10
36.131
 20
74.276
 30
0.0
 70
0
  0
VERTEX
  5
A68
  8
0
 10
36.06
 20
74.276
 30
0.0
 70
0
  0
VERTEX
  5
A69
  8
0
 10
36.06
 20
74.348
 30
0.0
 70
0
  0
VERTEX
  5
A6A
  8
0
 10
35.989
 20
74.417
 30
0.0
 70
0
  0
VERTEX
  5
A6B
  8
0
 10
35.92
 20
74.488
 30
0.0
 70
0
  0
VERTEX
  5
A6C
  8
0
 10
35.92
 20
74.628
 30
0.0
 70
0
  0
VERTEX
  5
A6D
  8
0
 10
35.989
 20
74.628
 30
0.0
 70
0
  0
VERTEX
  5
A6E
  8
0
 10
35.989
 20
74.699
 30
0.0
 70
0
  0
VERTEX
  5
A6F
  8
0
 10
36.06
 20
74.699
 30
0.0
 70
0
  0
VERTEX
  5
A70
  8
0
 10
36.06
 20
74.771
 30
0.0
 70
0
  0
VERTEX
  5
A71
  8
0
 10
36.131
 20
74.771
 30
0.0
 70
0
  0
VERTEX
  5
A72
  8
0
 10
36.131
 20
74.842
 30
0.0
 70
0
  0
VERTEX
  5
A73
  8
0
 10
36.202
 20
74.842
 30
0.0
 70
0
  0
VERTEX
  5
A74
  8
0
 10
36.272
 20
74.842
 30
0.0
 70
0
  0
VERTEX
  5
A75
  8
0
 10
36.343
 20
74.842
 30
0.0
 70
0
  0
SEQEND
  5
A61
  8
0
  0
POLYLINE
  5
A76
  8
0
 66
1
 10
0.0
 20
0.0
 30
0.0
 70
0
  0
VERTEX
  5
A78
  8
0
 10
36.485
 20
74.842
 30
0.0
 70
0
  0
VERTEX
  5
A79
  8
0
 10
36.554
 20
74.842
 30
0.0
 70
0
  0
VERTEX
  5
A7A
  8
0
 10
36.625
 20
74.842
 30
0.0
 70
0
  0
SEQEND
  5
A77
  8
0
  0
POLYLINE
  5
A7B
  8
0
 66
1
 10
0.0
 20
0.0
 30
0.0
 70
0
  0
VERTEX
  5
A7D
  8
0
 10
36.837
 20
74.488
 30
0.0
 70
0
  0
VERTEX
  5
A7E
  8
0
 10
36.837
 20
74.348
 30
0.0
 70
0
  0
VERTEX
  5
A7F
  8
0
 10
36.765
 20
74.348
 30
0.0
 70
0
  0
VERTEX
  5
A80
  8
0
 10
36.765
 20
74.276
 30
0.0
 70
0
  0
VERTEX
  5
A81
  8
0
 10
36.696
 20
74.276
 30
0.0
 70
0
  0
VERTEX
  5
A82
  8
0
 10
36.625
 20
74.276
 30
0.0
 70
0
  0
VERTEX
  5
A83
  8
0
 10
36.625
 20
74.205
 30
0.0
 70
0
  0
VERTEX
  5
A84
  8
0
 10
36.554
 20
74.205
 30
0.0
 70
0
  0
VERTEX
  5
A85
  8
0
 10
36.485
 20
74.205
 30
0.0
 70
0
  0
SEQEND
  5
A7C
  8
0
  0
POLYLINE
  5
A86
  8
0
 66
1
 10
0.0
 20
0.0
 30
0.0
 70
0
  0
VERTEX
  5
A88
  8
0
 10
36.06
 20
74.488
 30
0.0
 70
0
  0
VERTEX
  5
A89
  8
0
 10
36.06
 20
74.559
 30
0.0
 70
0
  0
VERTEX
  5
A8A
  8
0
 10
36.131
 20
74.559
 30
0.0
 70
0
  0
VERTEX
  5
A8B
  8
0
 10
36.131
 20
74.628
 30
0.0
 70
0
  0
VERTEX
  5
A8C
  8
0
 10
36.202
 20
74.628
 30
0.0
 70
0
  0
VERTEX
  5
A8D
  8
0
 10
36.202
 20
74.699
 30
0.0
 70
0
  0
VERTEX
  5
A8E
  8
0
 10
36.272
 20
74.699
 30
0.0
 70
0
  0
VERTEX
  5
A8F
  8
0
 10
36.343
 20
74.699
 30
0.0
 70
0
  0
SEQEND
  5
A87
  8
0
  0
POLYLINE
  5
A90
  8
0
 66
1
 10
0.0
 20
0.0
 30
0.0
 70
0
  0
VERTEX
  5
A92
  8
0
 10
36.765
 20
74.488
 30
0.0
 70
0
  0
VERTEX
  5
A93
  8
0
 10
36.765
 20
74.489
 30
0.0
 70
0
  0
VERTEX
  5
A94
  8
0
 10
36.765
 20
74.49
 30
0.0
 70
0
  0
VERTEX
  5
A95
  8
0
 10
36.765
 20
74.491
 30
0.0
 70
0
  0
VERTEX
  5
A96
  8
0
 10
36.765
 20
74.492
 30
0.0
 70
0
  0
VERTEX
  5
A97
  8
0
 10
36.765
 20
74.493
 30
0.0
 70
0
  0
VERTEX
  5
A98
  8
0
 10
36.765
 20
74.494
 30
0.0
 70
0
  0
VERTEX
  5
A99
  8
0
 10
36.765
 20
74.495
 30
0.0
 70
0
  0
VERTEX
  5
A9A
  8
0
 10
36.765
 20
74.496
 30
0.0
 70
0
  0
VERTEX
  5
A9B
  8
0
 10
36.765
 20
74.497
 30
0.0
 70
0
  0
VERTEX
  5
A9C
  8
0
 10
36.765
 20
74.498
 30
0.0
 70
0
  0
VERTEX
  5
A9D
  8
0
 10
36.765
 20
74.499
 30
0.0
 70
0
  0
VERTEX
  5
A9E
  8
0
 10
36.765
 20
74.5
 30
0.0
 70
0
  0
VERTEX
  5
A9F
  8
0
 10
36.765
 20
74.501
 30
0.0
 70
0
  0
VERTEX
  5
AA0
  8
0
 10
36.765
 20
74.503
 30
0.0
 70
0
  0
VERTEX
  5
AA1
  8
0
 10
36.765
 20
74.504
 30
0.0
 70
0
  0
VERTEX
  5
AA2
  8
0
 10
36.765
 20
74.506
 30
0.0
 70
0
  0
VERTEX
  5
AA3
  8
0
 10
36.765
 20
74.507
 30
0.0
 70
0
  0
VERTEX
  5
AA4
  8
0
 10
36.765
 20
74.509
 30
0.0
 70
0
  0
VERTEX
  5
AA5
  8
0
 10
36.765
 20
74.51
 30
0.0
 70
0
  0
VERTEX
  5
AA6
  8
0
 10
36.765
 20
74.512
 30
0.0
 70
0
  0
VERTEX
  5
AA7
  8
0
 10
36.765
 20
74.514
 30
0.0
 70
0
  0
VERTEX
  5
AA8
  8
0
 10
36.765
 20
74.516
 30
0.0
 70
0
  0
VERTEX
  5
AA9
  8
0
 10
36.765
 20
74.517
 30
0.0
 70
0
  0
VERTEX
  5
AAA
  8
0
 10
36.765
 20
74.519
 30
0.0
 70
0
  0
VERTEX
  5
AAB
  8
0
 10
36.765
 20
74.521
 30
0.0
 70
0
  0
VERTEX
  5
AAC
  8
0
 10
36.765
 20
74.523
 30
0.0
 70
0
  0
VERTEX
  5
AAD
  8
0
 10
36.765
 20
74.525
 30
0.0
 70
0
  0
VERTEX
  5
AAE
  8
0
 10
36.765
 20
74.527
 30
0.0
 70
0
  0
VERTEX
  5
AAF
  8
0
 10
36.765
 20
74.528
 30
0.0
 70
0
  0
VERTEX
  5
AB0
  8
0
 10
36.765
 20
74.53
 30
0.0
 70
0
  0
VERTEX
  5
AB1
  8
0
 10
36.765
 20
74.532
 30
0.0
 70
0
  0
VERTEX
  5
AB2
  8
0
 10
36.765
 20
74.534
 30
0.0
 70
0
  0
VERTEX
  5
AB3
  8
0
 10
36.765
 20
74.536
 30
0.0
 70
0
  0
VERTEX
  5
AB4
  8
0
 10
36.765
 20
74.539
 30
0.0
 70
0
  0
VERTEX
  5
AB5
  8
0
 10
36.765
 20
74.541
 30
0.0
 70
0
  0
VERTEX
  5
AB6
  8
0
 10
36.765
 20
74.543
 30
0.0
 70
0
  0
VERTEX
  5
AB7
  8
0
 10
36.765
 20
74.545
 30
0.0
 70
0
  0
VERTEX
  5
AB8
  8
0
 10
36.765
 20
74.547
 30
0.0
 70
0
  0
VERTEX
  5
AB9
  8
0
 10
36.765
 20
74.549
 30
0.0
 70
0
  0
VERTEX
  5
ABA
  8
0
 10
36.765
 20
74.551
 30
0.0
 70
0
  0
VERTEX
  5
ABB
  8
0
 10
36.765
 20
74.553
 30
0.0
 70
0
  0
VERTEX
  5
ABC
  8
0
 10
36.765
 20
74.555
 30
0.0
 70
0
  0
VERTEX
  5
ABD
  8
0
 10
36.765
 20
74.557
 30
0.0
 70
0
  0
VERTEX
  5
ABE
  8
0
 10
36.765
 20
74.56
 30
0.0
 70
0
  0
VERTEX
  5
ABF
  8
0
 10
36.765
 20
74.562
 30
0.0
 70
0
  0
VERTEX
  5
AC0
  8
0
 10
36.765
 20
74.564
 30
0.0
 70
0
  0
VERTEX
  5
AC1
  8
0
 10
36.765
 20
74.566
 30
0.0
 70
0
  0
VERTEX
  5
AC2
  8
0
 10
36.765
 20
74.568
 30
0.0
 70
0
  0
VERTEX
  5
AC3
  8
0
 10
36.765
 20
74.57
 30
0.0
 70
0
  0
VERTEX
  5
AC4
  8
0
 10
36.765
 20
74.572
 30
0.0
 70
0
  0
VERTEX
  5
AC5
  8
0
 10
36.765
 20
74.574
 30
0.0
 70
0
  0
VERTEX
  5
AC6
  8
0
 10
36.765
 20
74.576
 30
0.0
 70
0
  0
VERTEX
  5
AC7
  8
0
 10
36.765
 20
74.579
 30
0.0
 70
0
  0
VERTEX
  5
AC8
  8
0
 10
36.765
 20
74.581
 30
0.0
 70
0
  0
VERTEX
  5
AC9
  8
0
 10
36.765
 20
74.583
 30
0.0
 70
0
  0
VERTEX
  5
ACA
  8
0
 10
36.765
 20
74.585
 30
0.0
 70
0
  0
VERTEX
  5
ACB
  8
0
 10
36.765
 20
74.587
 30
0.0
 70
0
  0
VERTEX
  5
ACC
  8
0
 10
36.765
 20
74.589
 30
0.0
 70
0
  0
VERTEX
  5
ACD
  8
0
 10
36.765
 20
74.59
 30
0.0
 70
0
  0
VERTEX
  5
ACE
  8
0
 10
36.765
 20
74.592
 30
0.0
 70
0
  0
VERTEX
  5
ACF
  8
0
 10
36.765
 20
74.594
 30
0.0
 70
0
  0
VERTEX
  5
AD0
  8
0
 10
36.765
 20
74.596
 30
0.0
 70
0
  0
VERTEX
  5
AD1
  8
0
 10
36.765
 20
74.598
 30
0.0
 70
0
  0
VERTEX
  5
AD2
  8
0
 10
36.765
 20
74.6
 30
0.0
 70
0
  0
VERTEX
  5
AD3
  8
0
 10
36.765
 20
74.601
 30
0.0
 70
0
  0
VERTEX
  5
AD4
  8
0
 10
36.765
 20
74.603
 30
0.0
 70
0
  0
VERTEX
  5
AD5
  8
0
 10
36.765
 20
74.605
 30
0.0
 70
0
  0
VERTEX
  5
AD6
  8
0
 10
36.765
 20
74.606
 30
0.0
 70
0
  0
VERTEX
  5
AD7
  8
0
 10
36.765
 20
74.608
 30
0.0
 70
0
  0
VERTEX
  5
AD8
  8
0
 10
36.765
 20
74.609
 30
0.0
 70
0
  0
VERTEX
  5
AD9
  8
0
 10
36.765
 20
74.611
 30
0.0
 70
0
  0
VERTEX
  5
ADA
  8
0
 10
36.765
 20
74.612
 30
0.0
 70
0
  0
VERTEX
  5
ADB
  8
0
 10
36.765
 20
74.614
 30
0.0
 70
0
  0
VERTEX
  5
ADC
  8
0
 10
36.765
 20
74.615
 30
0.0
 70
0
  0
VERTEX
  5
ADD
  8
0
 10
36.765
 20
74.616
 30
0.0
 70
0
  0
VERTEX
  5
ADE
  8
0
 10
36.765
 20
74.618
 30
0.0
 70
0
  0
VERTEX
  5
ADF
  8
0
 10
36.765
 20
74.619
 30
0.0
 70
0
  0
VERTEX
  5
AE0
  8
0
 10
36.765
 20
74.62
 30
0.0
 70
0
  0
VERTEX
  5
AE1
  8
0
 10
36.765
 20
74.621
 30
0.0
 70
0
  0
VERTEX
  5
AE2
  8
0
 10
36.765
 20
74.622
 30
0.0
 70
0
  0
VERTEX
  5
AE3
  8
0
 10
36.765
 20
74.623
 30
0.0
 70
0
  0
VERTEX
  5
AE4
  8
0
 10
36.765
 20
74.624
 30
0.0
 70
0
  0
VERTEX
  5
AE5
  8
0
 10
36.765
 20
74.625
 30
0.0
 70
0
  0
VERTEX
  5
AE6
  8
0
 10
36.765
 20
74.626
 30
0.0
 70
0
  0
VERTEX
  5
AE7
  8
0
 10
36.765
 20
74.627
 30
0.0
 70
0
  0
VERTEX
  5
AE8
  8
0
 10
36.765
 20
74.628
 30
0.0
 70
0
  0
VERTEX
  5
AE9
  8
0
 10
36.764
 20
74.628
 30
0.0
 70
0
  0
VERTEX
  5
AEA
  8
0
 10
36.763
 20
74.628
 30
0.0
 70
0
  0
VERTEX
  5
AEB
  8
0
 10
36.762
 20
74.628
 30
0.0
 70
0
  0
VERTEX
  5
AEC
  8
0
 10
36.761
 20
74.628
 30
0.0
 70
0
  0
VERTEX
  5
AED
  8
0
 10
36.76
 20
74.628
 30
0.0
 70
0
  0
VERTEX
  5
AEE
  8
0
 10
36.759
 20
74.628
 30
0.0
 70
0
  0
VERTEX
  5
AEF
  8
0
 10
36.758
 20
74.628
 30
0.0
 70
0
  0
VERTEX
  5
AF0
  8
0
 10
36.757
 20
74.628
 30
0.0
 70
0
  0
VERTEX
  5
AF1
  8
0
 10
36.756
 20
74.628
 30
0.0
 70
0
  0
VERTEX
  5
AF2
  8
0
 10
36.755
 20
74.628
 30
0.0
 70
0
  0
VERTEX
  5
AF3
  8
0
 10
36.754
 20
74.628
 30
0.0
 70
0
  0
VERTEX
  5
AF4
  8
0
 10
36.753
 20
74.628
 30
0.0
 70
0
  0
VERTEX
  5
AF5
  8
0
 10
36.752
 20
74.628
 30
0.0
 70
0
  0
VERTEX
  5
AF6
  8
0
 10
36.751
 20
74.628
 30
0.0
 70
0
  0
VERTEX
  5
AF7
  8
0
 10
36.75
 20
74.628
 30
0.0
 70
0
  0
VERTEX
  5
AF8
  8
0
 10
36.749
 20
74.628
 30
0.0
 70
0
  0
VERTEX
  5
AF9
  8
0
 10
36.748
 20
74.628
 30
0.0
 70
0
  0
VERTEX
  5
AFA
  8
0
 10
36.747
 20
74.628
 30
0.0
 70
0
  0
VERTEX
  5
AFB
  8
0
 10
36.746
 20
74.628
 30
0.0
 70
0
  0
VERTEX
  5
AFC
  8
0
 10
36.745
 20
74.628
 30
0.0
 70
0
  0
VERTEX
  5
AFD
  8
0
 10
36.744
 20
74.628
 30
0.0
 70
0
  0
VERTEX
  5
AFE
  8
0
 10
36.743
 20
74.628
 30
0.0
 70
0
  0
VERTEX
  5
AFF
  8
0
 10
36.742
 20
74.628
 30
0.0
 70
0
  0
VERTEX
  5
B00
  8
0
 10
36.741
 20
74.628
 30
0.0
 70
0
  0
VERTEX
  5
B01
  8
0
 10
36.74
 20
74.628
 30
0.0
 70
0
  0
VERTEX
  5
B02
  8
0
 10
36.739
 20
74.628
 30
0.0
 70
0
  0
VERTEX
  5
B03
  8
0
 10
36.738
 20
74.628
 30
0.0
 70
0
  0
VERTEX
  5
B04
  8
0
 10
36.737
 20
74.628
 30
0.0
 70
0
  0
VERTEX
  5
B05
  8
0
 10
36.736
 20
74.628
 30
0.0
 70
0
  0
VERTEX
  5
B06
  8
0
 10
36.735
 20
74.628
 30
0.0
 70
0
  0
VERTEX
  5
B07
  8
0
 10
36.734
 20
74.628
 30
0.0
 70
0
  0
VERTEX
  5
B08
  8
0
 10
36.733
 20
74.628
 30
0.0
 70
0
  0
VERTEX
  5
B09
  8
0
 10
36.732
 20
74.628
 30
0.0
 70
0
  0
VERTEX
  5
B0A
  8
0
 10
36.731
 20
74.628
 30
0.0
 70
0
  0
VERTEX
  5
B0B
  8
0
 10
36.73
 20
74.628
 30
0.0
 70
0
  0
VERTEX
  5
B0C
  8
0
 10
36.729
 20
74.628
 30
0.0
 70
0
  0
VERTEX
  5
B0D
  8
0
 10
36.728
 20
74.628
 30
0.0
 70
0
  0
VERTEX
  5
B0E
  8
0
 10
36.727
 20
74.628
 30
0.0
 70
0
  0
VERTEX
  5
B0F
  8
0
 10
36.726
 20
74.628
 30
0.0
 70
0
  0
VERTEX
  5
B10
  8
0
 10
36.725
 20
74.628
 30
0.0
 70
0
  0
VERTEX
  5
B11
  8
0
 10
36.724
 20
74.628
 30
0.0
 70
0
  0
VERTEX
  5
B12
  8
0
 10
36.723
 20
74.628
 30
0.0
 70
0
  0
VERTEX
  5
B13
  8
0
 10
36.722
 20
74.628
 30
0.0
 70
0
  0
VERTEX
  5
B14
  8
0
 10
36.72
 20
74.628
 30
0.0
 70
0
  0
VERTEX
  5
B15
  8
0
 10
36.719
 20
74.628
 30
0.0
 70
0
  0
VERTEX
  5
B16
  8
0
 10
36.718
 20
74.628
 30
0.0
 70
0
  0
VERTEX
  5
B17
  8
0
 10
36.716
 20
74.628
 30
0.0
 70
0
  0
VERTEX
  5
B18
  8
0
 10
36.715
 20
74.628
 30
0.0
 70
0
  0
VERTEX
  5
B19
  8
0
 10
36.714
 20
74.628
 30
0.0
 70
0
  0
VERTEX
  5
B1A
  8
0
 10
36.713
 20
74.628
 30
0.0
 70
0
  0
VERTEX
  5
B1B
  8
0
 10
36.712
 20
74.628
 30
0.0
 70
0
  0
VERTEX
  5
B1C
  8
0
 10
36.711
 20
74.628
 30
0.0
 70
0
  0
VERTEX
  5
B1D
  8
0
 10
36.71
 20
74.628
 30
0.0
 70
0
  0
VERTEX
  5
B1E
  8
0
 10
36.709
 20
74.628
 30
0.0
 70
0
  0
VERTEX
  5
B1F
  8
0
 10
36.708
 20
74.628
 30
0.0
 70
0
  0
VERTEX
  5
B20
  8
0
 10
36.707
 20
74.628
 30
0.0
 70
0
  0
VERTEX
  5
B21
  8
0
 10
36.706
 20
74.628
 30
0.0
 70
0
  0
VERTEX
  5
B22
  8
0
 10
36.705
 20
74.628
 30
0.0
 70
0
  0
VERTEX
  5
B23
  8
0
 10
36.704
 20
74.628
 30
0.0
 70
0
  0
VERTEX
  5
B24
  8
0
 10
36.703
 20
74.628
 30
0.0
 70
0
  0
VERTEX
  5
B25
  8
0
 10
36.702
 20
74.628
 30
0.0
 70
0
  0
VERTEX
  5
B26
  8
0
 10
36.701
 20
74.628
 30
0.0
 70
0
  0
VERTEX
  5
B27
  8
0
 10
36.7
 20
74.628
 30
0.0
 70
0
  0
VERTEX
  5
B28
  8
0
 10
36.699
 20
74.628
 30
0.0
 70
0
  0
VERTEX
  5
B29
  8
0
 10
36.698
 20
74.628
 30
0.0
 70
0
  0
VERTEX
  5
B2A
  8
0
 10
36.697
 20
74.628
 30
0.0
 70
0
  0
VERTEX
  5
B2B
  8
0
 10
36.696
 20
74.628
 30
0.0
 70
0
  0
VERTEX
  5
B2C
  8
0
 10
36.695
 20
74.628
 30
0.0
 70
0
  0
VERTEX
  5
B2D
  8
0
 10
36.694
 20
74.628
 30
0.0
 70
0
  0
VERTEX
  5
B2E
  8
0
 10
36.693
 20
74.628
 30
0.0
 70
0
  0
VERTEX
  5
B2F
  8
0
 10
36.692
 20
74.628
 30
0.0
 70
0
  0
VERTEX
  5
B30
  8
0
 10
36.691
 20
74.628
 30
0.0
 70
0
  0
VERTEX
  5
B31
  8
0
 10
36.69
 20
74.628
 30
0.0
 70
0
  0
VERTEX
  5
B32
  8
0
 10
36.689
 20
74.628
 30
0.0
 70
0
  0
VERTEX
  5
B33
  8
0
 10
36.688
 20
74.628
 30
0.0
 70
0
  0
VERTEX
  5
B34
  8
0
 10
36.687
 20
74.628
 30
0.0
 70
0
  0
VERTEX
  5
B35
  8
0
 10
36.686
 20
74.628
 30
0.0
 70
0
  0
VERTEX
  5
B36
  8
0
 10
36.685
 20
74.628
 30
0.0
 70
0
  0
VERTEX
  5
B37
  8
0
 10
36.684
 20
74.628
 30
0.0
 70
0
  0
VERTEX
  5
B38
  8
0
 10
36.683
 20
74.628
 30
0.0
 70
0
  0
VERTEX
  5
B39
  8
0
 10
36.682
 20
74.628
 30
0.0
 70
0
  0
VERTEX
  5
B3A
  8
0
 10
36.681
 20
74.628
 30
0.0
 70
0
  0
VERTEX
  5
B3B
  8
0
 10
36.68
 20
74.628
 30
0.0
 70
0
  0
VERTEX
  5
B3C
  8
0
 10
36.679
 20
74.628
 30
0.0
 70
0
  0
VERTEX
  5
B3D
  8
0
 10
36.678
 20
74.628
 30
0.0
 70
0
  0
VERTEX
  5
B3E
  8
0
 10
36.677
 20
74.628
 30
0.0
 70
0
  0
VERTEX
  5
B3F
  8
0
 10
36.676
 20
74.628
 30
0.0
 70
0
  0
VERTEX
  5
B40
  8
0
 10
36.675
 20
74.628
 30
0.0
 70
0
  0
VERTEX
  5
B41
  8
0
 10
36.674
 20
74.628
 30
0.0
 70
0
  0
VERTEX
  5
B42
  8
0
 10
36.673
 20
74.628
 30
0.0
 70
0
  0
VERTEX
  5
B43
  8
0
 10
36.672
 20
74.628
 30
0.0
 70
0
  0
VERTEX
  5
B44
  8
0
 10
36.671
 20
74.628
 30
0.0
 70
0
  0
VERTEX
  5
B45
  8
0
 10
36.67
 20
74.628
 30
0.0
 70
0
  0
VERTEX
  5
B46
  8
0
 10
36.669
 20
74.628
 30
0.0
 70
0
  0
VERTEX
  5
B47
  8
0
 10
36.668
 20
74.628
 30
0.0
 70
0
  0
VERTEX
  5
B48
  8
0
 10
36.667
 20
74.628
 30
0.0
 70
0
  0
VERTEX
  5
B49
  8
0
 10
36.666
 20
74.628
 30
0.0
 70
0
  0
VERTEX
  5
B4A
  8
0
 10
36.665
 20
74.628
 30
0.0
 70
0
  0
VERTEX
  5
B4B
  8
0
 10
36.664
 20
74.628
 30
0.0
 70
0
  0
VERTEX
  5
B4C
  8
0
 10
36.662
 20
74.628
 30
0.0
 70
0
  0
VERTEX
  5
B4D
  8
0
 10
36.661
 20
74.628
 30
0.0
 70
0
  0
VERTEX
  5
B4E
  8
0
 10
36.66
 20
74.628
 30
0.0
 70
0
  0
VERTEX
  5
B4F
  8
0
 10
36.659
 20
74.628
 30
0.0
 70
0
  0
VERTEX
  5
B50
  8
0
 10
36.658
 20
74.628
 30
0.0
 70
0
  0
VERTEX
  5
B51
  8
0
 10
36.657
 20
74.628
 30
0.0
 70
0
  0
VERTEX
  5
B52
  8
0
 10
36.656
 20
74.628
 30
0.0
 70
0
  0
VERTEX
  5
B53
  8
0
 10
36.655
 20
74.628
 30
0.0
 70
0
  0
VERTEX
  5
B54
  8
0
 10
36.654
 20
74.628
 30
0.0
 70
0
  0
VERTEX
  5
B55
  8
0
 10
36.653
 20
74.628
 30
0.0
 70
0
  0
VERTEX
  5
B56
  8
0
 10
36.652
 20
74.628
 30
0.0
 70
0
  0
VERTEX
  5
B57
  8
0
 10
36.651
 20
74.628
 30
0.0
 70
0
  0
VERTEX
  5
B58
  8
0
 10
36.65
 20
74.628
 30
0.0
 70
0
  0
VERTEX
  5
B59
  8
0
 10
36.649
 20
74.628
 30
0.0
 70
0
  0
VERTEX
  5
B5A
  8
0
 10
36.648
 20
74.628
 30
0.0
 70
0
  0
VERTEX
  5
B5B
  8
0
 10
36.647
 20
74.628
 30
0.0
 70
0
  0
VERTEX
  5
B5C
  8
0
 10
36.646
 20
74.628
 30
0.0
 70
0
  0
VERTEX
  5
B5D
  8
0
 10
36.645
 20
74.628
 30
0.0
 70
0
  0
VERTEX
  5
B5E
  8
0
 10
36.644
 20
74.628
 30
0.0
 70
0
  0
VERTEX
  5
B5F
  8
0
 10
36.643
 20
74.628
 30
0.0
 70
0
  0
VERTEX
  5
B60
  8
0
 10
36.642
 20
74.628
 30
0.0
 70
0
  0
VERTEX
  5
B61
  8
0
 10
36.641
 20
74.628
 30
0.0
 70
0
  0
VERTEX
  5
B62
  8
0
 10
36.64
 20
74.628
 30
0.0
 70
0
  0
VERTEX
  5
B63
  8
0
 10
36.639
 20
74.628
 30
0.0
 70
0
  0
VERTEX
  5
B64
  8
0
 10
36.638
 20
74.628
 30
0.0
 70
0
  0
VERTEX
  5
B65
  8
0
 10
36.637
 20
74.628
 30
0.0
 70
0
  0
VERTEX
  5
B66
  8
0
 10
36.636
 20
74.628
 30
0.0
 70
0
  0
VERTEX
  5
B67
  8
0
 10
36.635
 20
74.628
 30
0.0
 70
0
  0
VERTEX
  5
B68
  8
0
 10
36.634
 20
74.628
 30
0.0
 70
0
  0
VERTEX
  5
B69
  8
0
 10
36.633
 20
74.628
 30
0.0
 70
0
  0
VERTEX
  5
B6A
  8
0
 10
36.632
 20
74.628
 30
0.0
 70
0
  0
VERTEX
  5
B6B
  8
0
 10
36.631
 20
74.628
 30
0.0
 70
0
  0
VERTEX
  5
B6C
  8
0
 10
36.63
 20
74.628
 30
0.0
 70
0
  0
VERTEX
  5
B6D
  8
0
 10
36.629
 20
74.628
 30
0.0
 70
0
  0
VERTEX
  5
B6E
  8
0
 10
36.628
 20
74.628
 30
0.0
 70
0
  0
VERTEX
  5
B6F
  8
0
 10
36.627
 20
74.628
 30
0.0
 70
0
  0
VERTEX
  5
B70
  8
0
 10
36.626
 20
74.628
 30
0.0
 70
0
  0
VERTEX
  5
B71
  8
0
 10
36.625
 20
74.628
 30
0.0
 70
0
  0
VERTEX
  5
B72
  8
0
 10
36.625
 20
74.629
 30
0.0
 70
0
  0
VERTEX
  5
B73
  8
0
 10
36.625
 20
74.63
 30
0.0
 70
0
  0
VERTEX
  5
B74
  8
0
 10
36.625
 20
74.631
 30
0.0
 70
0
  0
VERTEX
  5
B75
  8
0
 10
36.625
 20
74.632
 30
0.0
 70
0
  0
VERTEX
  5
B76
  8
0
 10
36.625
 20
74.633
 30
0.0
 70
0
  0
VERTEX
  5
B77
  8
0
 10
36.625
 20
74.634
 30
0.0
 70
0
  0
VERTEX
  5
B78
  8
0
 10
36.625
 20
74.635
 30
0.0
 70
0
  0
VERTEX
  5
B79
  8
0
 10
36.625
 20
74.636
 30
0.0
 70
0
  0
VERTEX
  5
B7A
  8
0
 10
36.625
 20
74.637
 30
0.0
 70
0
  0
VERTEX
  5
B7B
  8
0
 10
36.625
 20
74.638
 30
0.0
 70
0
  0
VERTEX
  5
B7C
  8
0
 10
36.625
 20
74.639
 30
0.0
 70
0
  0
VERTEX
  5
B7D
  8
0
 10
36.625
 20
74.64
 30
0.0
 70
0
  0
VERTEX
  5
B7E
  8
0
 10
36.625
 20
74.641
 30
0.0
 70
0
  0
VERTEX
  5
B7F
  8
0
 10
36.625
 20
74.642
 30
0.0
 70
0
  0
VERTEX
  5
B80
  8
0
 10
36.625
 20
74.643
 30
0.0
 70
0
  0
VERTEX
  5
B81
  8
0
 10
36.625
 20
74.644
 30
0.0
 70
0
  0
VERTEX
  5
B82
  8
0
 10
36.625
 20
74.645
 30
0.0
 70
0
  0
VERTEX
  5
B83
  8
0
 10
36.625
 20
74.646
 30
0.0
 70
0
  0
VERTEX
  5
B84
  8
0
 10
36.625
 20
74.647
 30
0.0
 70
0
  0
VERTEX
  5
B85
  8
0
 10
36.625
 20
74.648
 30
0.0
 70
0
  0
VERTEX
  5
B86
  8
0
 10
36.625
 20
74.649
 30
0.0
 70
0
  0
VERTEX
  5
B87
  8
0
 10
36.625
 20
74.65
 30
0.0
 70
0
  0
VERTEX
  5
B88
  8
0
 10
36.625
 20
74.651
 30
0.0
 70
0
  0
VERTEX
  5
B89
  8
0
 10
36.625
 20
74.652
 30
0.0
 70
0
  0
VERTEX
  5
B8A
  8
0
 10
36.625
 20
74.653
 30
0.0
 70
0
  0
VERTEX
  5
B8B
  8
0
 10
36.625
 20
74.654
 30
0.0
 70
0
  0
VERTEX
  5
B8C
  8
0
 10
36.625
 20
74.655
 30
0.0
 70
0
  0
VERTEX
  5
B8D
  8
0
 10
36.625
 20
74.656
 30
0.0
 70
0
  0
VERTEX
  5
B8E
  8
0
 10
36.625
 20
74.657
 30
0.0
 70
0
  0
VERTEX
  5
B8F
  8
0
 10
36.625
 20
74.658
 30
0.0
 70
0
  0
VERTEX
  5
B90
  8
0
 10
36.625
 20
74.659
 30
0.0
 70
0
  0
VERTEX
  5
B91
  8
0
 10
36.625
 20
74.66
 30
0.0
 70
0
  0
VERTEX
  5
B92
  8
0
 10
36.625
 20
74.662
 30
0.0
 70
0
  0
VERTEX
  5
B93
  8
0
 10
36.625
 20
74.663
 30
0.0
 70
0
  0
VERTEX
  5
B94
  8
0
 10
36.625
 20
74.664
 30
0.0
 70
0
  0
VERTEX
  5
B95
  8
0
 10
36.625
 20
74.665
 30
0.0
 70
0
  0
VERTEX
  5
B96
  8
0
 10
36.625
 20
74.666
 30
0.0
 70
0
  0
VERTEX
  5
B97
  8
0
 10
36.625
 20
74.667
 30
0.0
 70
0
  0
VERTEX
  5
B98
  8
0
 10
36.625
 20
74.668
 30
0.0
 70
0
  0
VERTEX
  5
B99
  8
0
 10
36.625
 20
74.669
 30
0.0
 70
0
  0
VERTEX
  5
B9A
  8
0
 10
36.625
 20
74.67
 30
0.0
 70
0
  0
VERTEX
  5
B9B
  8
0
 10
36.625
 20
74.671
 30
0.0
 70
0
  0
VERTEX
  5
B9C
  8
0
 10
36.625
 20
74.672
 30
0.0
 70
0
  0
VERTEX
  5
B9D
  8
0
 10
36.625
 20
74.673
 30
0.0
 70
0
  0
VERTEX
  5
B9E
  8
0
 10
36.625
 20
74.674
 30
0.0
 70
0
  0
VERTEX
  5
B9F
  8
0
 10
36.625
 20
74.675
 30
0.0
 70
0
  0
VERTEX
  5
BA0
  8
0
 10
36.625
 20
74.676
 30
0.0
 70
0
  0
VERTEX
  5
BA1
  8
0
 10
36.625
 20
74.677
 30
0.0
 70
0
  0
VERTEX
  5
BA2
  8
0
 10
36.625
 20
74.678
 30
0.0
 70
0
  0
VERTEX
  5
BA3
  8
0
 10
36.625
 20
74.679
 30
0.0
 70
0
  0
VERTEX
  5
BA4
  8
0
 10
36.625
 20
74.68
 30
0.0
 70
0
  0
VERTEX
  5
BA5
  8
0
 10
36.625
 20
74.681
 30
0.0
 70
0
  0
VERTEX
  5
BA6
  8
0
 10
36.625
 20
74.682
 30
0.0
 70
0
  0
VERTEX
  5
BA7
  8
0
 10
36.625
 20
74.683
 30
0.0
 70
0
  0
VERTEX
  5
BA8
  8
0
 10
36.625
 20
74.684
 30
0.0
 70
0
  0
VERTEX
  5
BA9
  8
0
 10
36.625
 20
74.685
 30
0.0
 70
0
  0
VERTEX
  5
BAA
  8
0
 10
36.625
 20
74.686
 30
0.0
 70
0
  0
VERTEX
  5
BAB
  8
0
 10
36.625
 20
74.687
 30
0.0
 70
0
  0
VERTEX
  5
BAC
  8
0
 10
36.625
 20
74.688
 30
0.0
 70
0
  0
VERTEX
  5
BAD
  8
0
 10
36.625
 20
74.689
 30
0.0
 70
0
  0
VERTEX
  5
BAE
  8
0
 10
36.625
 20
74.69
 30
0.0
 70
0
  0
VERTEX
  5
BAF
  8
0
 10
36.625
 20
74.691
 30
0.0
 70
0
  0
VERTEX
  5
BB0
  8
0
 10
36.625
 20
74.692
 30
0.0
 70
0
  0
VERTEX
  5
BB1
  8
0
 10
36.625
 20
74.693
 30
0.0
 70
0
  0
VERTEX
  5
BB2
  8
0
 10
36.625
 20
74.694
 30
0.0
 70
0
  0
VERTEX
  5
BB3
  8
0
 10
36.625
 20
74.695
 30
0.0
 70
0
  0
VERTEX
  5
BB4
  8
0
 10
36.625
 20
74.696
 30
0.0
 70
0
  0
VERTEX
  5
BB5
  8
0
 10
36.625
 20
74.697
 30
0.0
 70
0
  0
VERTEX
  5
BB6
  8
0
 10
36.625
 20
74.698
 30
0.0
 70
0
  0
VERTEX
  5
BB7
  8
0
 10
36.625
 20
74.699
 30
0.0
 70
0
  0
VERTEX
  5
BB8
  8
0
 10
36.625
 20
74.7
 30
0.0
 70
0
  0
VERTEX
  5
BB9
  8
0
 10
36.624
 20
74.7
 30
0.0
 70
0
  0
VERTEX
  5
BBA
  8
0
 10
36.623
 20
74.7
 30
0.0
 70
0
  0
VERTEX
  5
BBB
  8
0
 10
36.622
 20
74.7
 30
0.0
 70
0
  0
VERTEX
  5
BBC
  8
0
 10
36.621
 20
74.7
 30
0.0
 70
0
  0
VERTEX
  5
BBD
  8
0
 10
36.62
 20
74.7
 30
0.0
 70
0
  0
VERTEX
  5
BBE
  8
0
 10
36.619
 20
74.7
 30
0.0
 70
0
  0
VERTEX
  5
BBF
  8
0
 10
36.618
 20
74.7
 30
0.0
 70
0
  0
VERTEX
  5
BC0
  8
0
 10
36.617
 20
74.7
 30
0.0
 70
0
  0
VERTEX
  5
BC1
  8
0
 10
36.616
 20
74.7
 30
0.0
 70
0
  0
VERTEX
  5
BC2
  8
0
 10
36.615
 20
74.7
 30
0.0
 70
0
  0
VERTEX
  5
BC3
  8
0
 10
36.614
 20
74.7
 30
0.0
 70
0
  0
VERTEX
  5
BC4
  8
0
 10
36.613
 20
74.7
 30
0.0
 70
0
  0
VERTEX
  5
BC5
  8
0
 10
36.612
 20
74.7
 30
0.0
 70
0
  0
VERTEX
  5
BC6
  8
0
 10
36.611
 20
74.7
 30
0.0
 70
0
  0
VERTEX
  5
BC7
  8
0
 10
36.61
 20
74.7
 30
0.0
 70
0
  0
VERTEX
  5
BC8
  8
0
 10
36.609
 20
74.7
 30
0.0
 70
0
  0
VERTEX
  5
BC9
  8
0
 10
36.608
 20
74.7
 30
0.0
 70
0
  0
VERTEX
  5
BCA
  8
0
 10
36.607
 20
74.7
 30
0.0
 70
0
  0
VERTEX
  5
BCB
  8
0
 10
36.606
 20
74.7
 30
0.0
 70
0
  0
VERTEX
  5
BCC
  8
0
 10
36.605
 20
74.7
 30
0.0
 70
0
  0
VERTEX
  5
BCD
  8
0
 10
36.604
 20
74.7
 30
0.0
 70
0
  0
VERTEX
  5
BCE
  8
0
 10
36.603
 20
74.7
 30
0.0
 70
0
  0
VERTEX
  5
BCF
  8
0
 10
36.602
 20
74.7
 30
0.0
 70
0
  0
VERTEX
  5
BD0
  8
0
 10
36.601
 20
74.7
 30
0.0
 70
0
  0
VERTEX
  5
BD1
  8
0
 10
36.6
 20
74.7
 30
0.0
 70
0
  0
VERTEX
  5
BD2
  8
0
 10
36.599
 20
74.7
 30
0.0
 70
0
  0
VERTEX
  5
BD3
  8
0
 10
36.598
 20
74.7
 30
0.0
 70
0
  0
VERTEX
  5
BD4
  8
0
 10
36.597
 20
74.7
 30
0.0
 70
0
  0
VERTEX
  5
BD5
  8
0
 10
36.596
 20
74.7
 30
0.0
 70
0
  0
VERTEX
  5
BD6
  8
0
 10
36.595
 20
74.7
 30
0.0
 70
0
  0
VERTEX
  5
BD7
  8
0
 10
36.594
 20
74.7
 30
0.0
 70
0
  0
VERTEX
  5
BD8
  8
0
 10
36.593
 20
74.7
 30
0.0
 70
0
  0
VERTEX
  5
BD9
  8
0
 10
36.592
 20
74.7
 30
0.0
 70
0
  0
VERTEX
  5
BDA
  8
0
 10
36.591
 20
74.7
 30
0.0
 70
0
  0
VERTEX
  5
BDB
  8
0
 10
36.589
 20
74.7
 30
0.0
 70
0
  0
VERTEX
  5
BDC
  8
0
 10
36.588
 20
74.7
 30
0.0
 70
0
  0
VERTEX
  5
BDD
  8
0
 10
36.587
 20
74.7
 30
0.0
 70
0
  0
VERTEX
  5
BDE
  8
0
 10
36.586
 20
74.7
 30
0.0
 70
0
  0
VERTEX
  5
BDF
  8
0
 10
36.585
 20
74.7
 30
0.0
 70
0
  0
VERTEX
  5
BE0
  8
0
 10
36.584
 20
74.7
 30
0.0
 70
0
  0
VERTEX
  5
BE1
  8
0
 10
36.583
 20
74.7
 30
0.0
 70
0
  0
VERTEX
  5
BE2
  8
0
 10
36.582
 20
74.7
 30
0.0
 70
0
  0
VERTEX
  5
BE3
  8
0
 10
36.581
 20
74.7
 30
0.0
 70
0
  0
VERTEX
  5
BE4
  8
0
 10
36.58
 20
74.7
 30
0.0
 70
0
  0
VERTEX
  5
BE5
  8
0
 10
36.579
 20
74.7
 30
0.0
 70
0
  0
VERTEX
  5
BE6
  8
0
 10
36.578
 20
74.7
 30
0.0
 70
0
  0
VERTEX
  5
BE7
  8
0
 10
36.577
 20
74.7
 30
0.0
 70
0
  0
VERTEX
  5
BE8
  8
0
 10
36.576
 20
74.7
 30
0.0
 70
0
  0
VERTEX
  5
BE9
  8
0
 10
36.575
 20
74.7
 30
0.0
 70
0
  0
VERTEX
  5
BEA
  8
0
 10
36.574
 20
74.7
 30
0.0
 70
0
  0
VERTEX
  5
BEB
  8
0
 10
36.573
 20
74.7
 30
0.0
 70
0
  0
VERTEX
  5
BEC
  8
0
 10
36.572
 20
74.7
 30
0.0
 70
0
  0
VERTEX
  5
BED
  8
0
 10
36.571
 20
74.7
 30
0.0
 70
0
  0
VERTEX
  5
BEE
  8
0
 10
36.57
 20
74.7
 30
0.0
 70
0
  0
VERTEX
  5
BEF
  8
0
 10
36.569
 20
74.7
 30
0.0
 70
0
  0
VERTEX
  5
BF0
  8
0
 10
36.568
 20
74.7
 30
0.0
 70
0
  0
VERTEX
  5
BF1
  8
0
 10
36.567
 20
74.7
 30
0.0
 70
0
  0
VERTEX
  5
BF2
  8
0
 10
36.566
 20
74.7
 30
0.0
 70
0
  0
VERTEX
  5
BF3
  8
0
 10
36.565
 20
74.7
 30
0.0
 70
0
  0
VERTEX
  5
BF4
  8
0
 10
36.564
 20
74.7
 30
0.0
 70
0
  0
VERTEX
  5
BF5
  8
0
 10
36.563
 20
74.7
 30
0.0
 70
0
  0
VERTEX
  5
BF6
  8
0
 10
36.562
 20
74.7
 30
0.0
 70
0
  0
VERTEX
  5
BF7
  8
0
 10
36.561
 20
74.7
 30
0.0
 70
0
  0
VERTEX
  5
BF8
  8
0
 10
36.56
 20
74.7
 30
0.0
 70
0
  0
VERTEX
  5
BF9
  8
0
 10
36.559
 20
74.7
 30
0.0
 70
0
  0
VERTEX
  5
BFA
  8
0
 10
36.558
 20
74.7
 30
0.0
 70
0
  0
VERTEX
  5
BFB
  8
0
 10
36.557
 20
74.7
 30
0.0
 70
0
  0
VERTEX
  5
BFC
  8
0
 10
36.556
 20
74.7
 30
0.0
 70
0
  0
VERTEX
  5
BFD
  8
0
 10
36.555
 20
74.7
 30
0.0
 70
0
  0
VERTEX
  5
BFE
  8
0
 10
36.554
 20
74.7
 30
0.0
 70
0
  0
VERTEX
  5
BFF
  8
0
 10
36.553
 20
74.7
 30
0.0
 70
0
  0
VERTEX
  5
C00
  8
0
 10
36.552
 20
74.7
 30
0.0
 70
0
  0
VERTEX
  5
C01
  8
0
 10
36.551
 20
74.7
 30
0.0
 70
0
  0
VERTEX
  5
C02
  8
0
 10
36.55
 20
74.7
 30
0.0
 70
0
  0
VERTEX
  5
C03
  8
0
 10
36.549
 20
74.7
 30
0.0
 70
0
  0
VERTEX
  5
C04
  8
0
 10
36.548
 20
74.7
 30
0.0
 70
0
  0
VERTEX
  5
C05
  8
0
 10
36.547
 20
74.7
 30
0.0
 70
0
  0
VERTEX
  5
C06
  8
0
 10
36.546
 20
74.7
 30
0.0
 70
0
  0
VERTEX
  5
C07
  8
0
 10
36.545
 20
74.7
 30
0.0
 70
0
  0
VERTEX
  5
C08
  8
0
 10
36.544
 20
74.7
 30
0.0
 70
0
  0
VERTEX
  5
C09
  8
0
 10
36.543
 20
74.7
 30
0.0
 70
0
  0
VERTEX
  5
C0A
  8
0
 10
36.542
 20
74.7
 30
0.0
 70
0
  0
VERTEX
  5
C0B
  8
0
 10
36.541
 20
74.7
 30
0.0
 70
0
  0
VERTEX
  5
C0C
  8
0
 10
36.54
 20
74.7
 30
0.0
 70
0
  0
VERTEX
  5
C0D
  8
0
 10
36.539
 20
74.7
 30
0.0
 70
0
  0
VERTEX
  5
C0E
  8
0
 10
36.538
 20
74.7
 30
0.0
 70
0
  0
VERTEX
  5
C0F
  8
0
 10
36.537
 20
74.7
 30
0.0
 70
0
  0
VERTEX
  5
C10
  8
0
 10
36.536
 20
74.7
 30
0.0
 70
0
  0
VERTEX
  5
C11
  8
0
 10
36.535
 20
74.7
 30
0.0
 70
0
  0
VERTEX
  5
C12
  8
0
 10
36.534
 20
74.7
 30
0.0
 70
0
  0
VERTEX
  5
C13
  8
0
 10
36.533
 20
74.7
 30
0.0
 70
0
  0
VERTEX
  5
C14
  8
0
 10
36.532
 20
74.7
 30
0.0
 70
0
  0
VERTEX
  5
C15
  8
0
 10
36.531
 20
74.7
 30
0.0
 70
0
  0
VERTEX
  5
C16
  8
0
 10
36.53
 20
74.7
 30
0.0
 70
0
  0
VERTEX
  5
C17
  8
0
 10
36.529
 20
74.7
 30
0.0
 70
0
  0
VERTEX
  5
C18
  8
0
 10
36.528
 20
74.7
 30
0.0
 70
0
  0
VERTEX
  5
C19
  8
0
 10
36.527
 20
74.7
 30
0.0
 70
0
  0
VERTEX
  5
C1A
  8
0
 10
36.526
 20
74.7
 30
0.0
 70
0
  0
VERTEX
  5
C1B
  8
0
 10
36.525
 20
74.7
 30
0.0
 70
0
  0
VERTEX
  5
C1C
  8
0
 10
36.524
 20
74.7
 30
0.0
 70
0
  0
VERTEX
  5
C1D
  8
0
 10
36.523
 20
74.7
 30
0.0
 70
0
  0
VERTEX
  5
C1E
  8
0
 10
36.522
 20
74.7
 30
0.0
 70
0
  0
VERTEX
  5
C1F
  8
0
 10
36.521
 20
74.7
 30
0.0
 70
0
  0
VERTEX
  5
C20
  8
0
 10
36.52
 20
74.7
 30
0.0
 70
0
  0
VERTEX
  5
C21
  8
0
 10
36.519
 20
74.7
 30
0.0
 70
0
  0
VERTEX
  5
C22
  8
0
 10
36.518
 20
74.7
 30
0.0
 70
0
  0
VERTEX
  5
C23
  8
0
 10
36.517
 20
74.7
 30
0.0
 70
0
  0
VERTEX
  5
C24
  8
0
 10
36.516
 20
74.7
 30
0.0
 70
0
  0
VERTEX
  5
C25
  8
0
 10
36.515
 20
74.7
 30
0.0
 70
0
  0
VERTEX
  5
C26
  8
0
 10
36.514
 20
74.7
 30
0.0
 70
0
  0
VERTEX
  5
C27
  8
0
 10
36.513
 20
74.7
 30
0.0
 70
0
  0
VERTEX
  5
C28
  8
0
 10
36.512
 20
74.7
 30
0.0
 70
0
  0
VERTEX
  5
C29
  8
0
 10
36.511
 20
74.7
 30
0.0
 70
0
  0
VERTEX
  5
C2A
  8
0
 10
36.509
 20
74.7
 30
0.0
 70
0
  0
VERTEX
  5
C2B
  8
0
 10
36.508
 20
74.7
 30
0.0
 70
0
  0
VERTEX
  5
C2C
  8
0
 10
36.507
 20
74.7
 30
0.0
 70
0
  0
VERTEX
  5
C2D
  8
0
 10
36.506
 20
74.7
 30
0.0
 70
0
  0
VERTEX
  5
C2E
  8
0
 10
36.505
 20
74.7
 30
0.0
 70
0
  0
VERTEX
  5
C2F
  8
0
 10
36.504
 20
74.7
 30
0.0
 70
0
  0
VERTEX
  5
C30
  8
0
 10
36.503
 20
74.7
 30
0.0
 70
0
  0
VERTEX
  5
C31
  8
0
 10
36.502
 20
74.7
 30
0.0
 70
0
  0
VERTEX
  5
C32
  8
0
 10
36.501
 20
74.7
 30
0.0
 70
0
  0
VERTEX
  5
C33
  8
0
 10
36.5
 20
74.7
 30
0.0
 70
0
  0
VERTEX
  5
C34
  8
0
 10
36.499
 20
74.7
 30
0.0
 70
0
  0
VERTEX
  5
C35
  8
0
 10
36.498
 20
74.7
 30
0.0
 70
0
  0
VERTEX
  5
C36
  8
0
 10
36.497
 20
74.7
 30
0.0
 70
0
  0
VERTEX
  5
C37
  8
0
 10
36.496
 20
74.7
 30
0.0
 70
0
  0
VERTEX
  5
C38
  8
0
 10
36.495
 20
74.7
 30
0.0
 70
0
  0
VERTEX
  5
C39
  8
0
 10
36.494
 20
74.7
 30
0.0
 70
0
  0
VERTEX
  5
C3A
  8
0
 10
36.493
 20
74.7
 30
0.0
 70
0
  0
VERTEX
  5
C3B
  8
0
 10
36.492
 20
74.7
 30
0.0
 70
0
  0
VERTEX
  5
C3C
  8
0
 10
36.491
 20
74.7
 30
0.0
 70
0
  0
VERTEX
  5
C3D
  8
0
 10
36.49
 20
74.7
 30
0.0
 70
0
  0
VERTEX
  5
C3E
  8
0
 10
36.489
 20
74.7
 30
0.0
 70
0
  0
VERTEX
  5
C3F
  8
0
 10
36.488
 20
74.7
 30
0.0
 70
0
  0
VERTEX
  5
C40
  8
0
 10
36.487
 20
74.7
 30
0.0
 70
0
  0
VERTEX
  5
C41
  8
0
 10
36.486
 20
74.7
 30
0.0
 70
0
  0
VERTEX
  5
C42
  8
0
 10
36.485
 20
74.7
 30
0.0
 70
0
  0
VERTEX
  5
C43
  8
0
 10
36.486
 20
74.7
 30
0.0
 70
0
  0
VERTEX
  5
C44
  8
0
 10
36.487
 20
74.7
 30
0.0
 70
0
  0
VERTEX
  5
C45
  8
0
 10
36.488
 20
74.7
 30
0.0
 70
0
  0
VERTEX
  5
C46
  8
0
 10
36.489
 20
74.7
 30
0.0
 70
0
  0
VERTEX
  5
C47
  8
0
 10
36.49
 20
74.7
 30
0.0
 70
0
  0
VERTEX
  5
C48
  8
0
 10
36.491
 20
74.7
 30
0.0
 70
0
  0
VERTEX
  5
C49
  8
0
 10
36.492
 20
74.7
 30
0.0
 70
0
  0
VERTEX
  5
C4A
  8
0
 10
36.493
 20
74.7
 30
0.0
 70
0
  0
VERTEX
  5
C4B
  8
0
 10
36.494
 20
74.7
 30
0.0
 70
0
  0
VERTEX
  5
C4C
  8
0
 10
36.495
 20
74.7
 30
0.0
 70
0
  0
VERTEX
  5
C4D
  8
0
 10
36.496
 20
74.7
 30
0.0
 70
0
  0
VERTEX
  5
C4E
  8
0
 10
36.497
 20
74.7
 30
0.0
 70
0
  0
VERTEX
  5
C4F
  8
0
 10
36.498
 20
74.7
 30
0.0
 70
0
  0
VERTEX
  5
C50
  8
0
 10
36.499
 20
74.7
 30
0.0
 70
0
  0
VERTEX
  5
C51
  8
0
 10
36.5
 20
74.7
 30
0.0
 70
0
  0
VERTEX
  5
C52
  8
0
 10
36.501
 20
74.7
 30
0.0
 70
0
  0
VERTEX
  5
C53
  8
0
 10
36.502
 20
74.7
 30
0.0
 70
0
  0
VERTEX
  5
C54
  8
0
 10
36.503
 20
74.7
 30
0.0
 70
0
  0
VERTEX
  5
C55
  8
0
 10
36.504
 20
74.7
 30
0.0
 70
0
  0
VERTEX
  5
C56
  8
0
 10
36.505
 20
74.7
 30
0.0
 70
0
  0
VERTEX
  5
C57
  8
0
 10
36.506
 20
74.7
 30
0.0
 70
0
  0
VERTEX
  5
C58
  8
0
 10
36.507
 20
74.7
 30
0.0
 70
0
  0
VERTEX
  5
C59
  8
0
 10
36.508
 20
74.7
 30
0.0
 70
0
  0
VERTEX
  5
C5A
  8
0
 10
36.509
 20
74.7
 30
0.0
 70
0
  0
VERTEX
  5
C5B
  8
0
 10
36.511
 20
74.7
 30
0.0
 70
0
  0
VERTEX
  5
C5C
  8
0
 10
36.512
 20
74.7
 30
0.0
 70
0
  0
VERTEX
  5
C5D
  8
0
 10
36.513
 20
74.7
 30
0.0
 70
0
  0
VERTEX
  5
C5E
  8
0
 10
36.514
 20
74.7
 30
0.0
 70
0
  0
VERTEX
  5
C5F
  8
0
 10
36.515
 20
74.7
 30
0.0
 70
0
  0
VERTEX
  5
C60
  8
0
 10
36.516
 20
74.7
 30
0.0
 70
0
  0
VERTEX
  5
C61
  8
0
 10
36.517
 20
74.7
 30
0.0
 70
0
  0
VERTEX
  5
C62
  8
0
 10
36.518
 20
74.7
 30
0.0
 70
0
  0
VERTEX
  5
C63
  8
0
 10
36.519
 20
74.7
 30
0.0
 70
0
  0
VERTEX
  5
C64
  8
0
 10
36.52
 20
74.7
 30
0.0
 70
0
  0
VERTEX
  5
C65
  8
0
 10
36.521
 20
74.7
 30
0.0
 70
0
  0
VERTEX
  5
C66
  8
0
 10
36.522
 20
74.7
 30
0.0
 70
0
  0
VERTEX
  5
C67
  8
0
 10
36.523
 20
74.7
 30
0.0
 70
0
  0
VERTEX
  5
C68
  8
0
 10
36.524
 20
74.7
 30
0.0
 70
0
  0
VERTEX
  5
C69
  8
0
 10
36.525
 20
74.7
 30
0.0
 70
0
  0
VERTEX
  5
C6A
  8
0
 10
36.526
 20
74.7
 30
0.0
 70
0
  0
VERTEX
  5
C6B
  8
0
 10
36.527
 20
74.7
 30
0.0
 70
0
  0
VERTEX
  5
C6C
  8
0
 10
36.528
 20
74.7
 30
0.0
 70
0
  0
VERTEX
  5
C6D
  8
0
 10
36.529
 20
74.7
 30
0.0
 70
0
  0
VERTEX
  5
C6E
  8
0
 10
36.53
 20
74.7
 30
0.0
 70
0
  0
VERTEX
  5
C6F
  8
0
 10
36.531
 20
74.7
 30
0.0
 70
0
  0
VERTEX
  5
C70
  8
0
 10
36.532
 20
74.7
 30
0.0
 70
0
  0
VERTEX
  5
C71
  8
0
 10
36.533
 20
74.7
 30
0.0
 70
0
  0
VERTEX
  5
C72
  8
0
 10
36.534
 20
74.7
 30
0.0
 70
0
  0
VERTEX
  5
C73
  8
0
 10
36.535
 20
74.7
 30
0.0
 70
0
  0
VERTEX
  5
C74
  8
0
 10
36.536
 20
74.7
 30
0.0
 70
0
  0
VERTEX
  5
C75
  8
0
 10
36.537
 20
74.7
 30
0.0
 70
0
  0
VERTEX
  5
C76
  8
0
 10
36.538
 20
74.7
 30
0.0
 70
0
  0
VERTEX
  5
C77
  8
0
 10
36.539
 20
74.7
 30
0.0
 70
0
  0
VERTEX
  5
C78
  8
0
 10
36.54
 20
74.7
 30
0.0
 70
0
  0
VERTEX
  5
C79
  8
0
 10
36.541
 20
74.7
 30
0.0
 70
0
  0
VERTEX
  5
C7A
  8
0
 10
36.542
 20
74.7
 30
0.0
 70
0
  0
VERTEX
  5
C7B
  8
0
 10
36.543
 20
74.7
 30
0.0
 70
0
  0
VERTEX
  5
C7C
  8
0
 10
36.544
 20
74.7
 30
0.0
 70
0
  0
VERTEX
  5
C7D
  8
0
 10
36.545
 20
74.7
 30
0.0
 70
0
  0
VERTEX
  5
C7E
  8
0
 10
36.546
 20
74.7
 30
0.0
 70
0
  0
VERTEX
  5
C7F
  8
0
 10
36.547
 20
74.7
 30
0.0
 70
0
  0
VERTEX
  5
C80
  8
0
 10
36.548
 20
74.7
 30
0.0
 70
0
  0
VERTEX
  5
C81
  8
0
 10
36.549
 20
74.7
 30
0.0
 70
0
  0
VERTEX
  5
C82
  8
0
 10
36.55
 20
74.7
 30
0.0
 70
0
  0
VERTEX
  5
C83
  8
0
 10
36.551
 20
74.7
 30
0.0
 70
0
  0
VERTEX
  5
C84
  8
0
 10
36.552
 20
74.7
 30
0.0
 70
0
  0
VERTEX
  5
C85
  8
0
 10
36.553
 20
74.7
 30
0.0
 70
0
  0
VERTEX
  5
C86
  8
0
 10
36.554
 20
74.7
 30
0.0
 70
0
  0
VERTEX
  5
C87
  8
0
 10
36.555
 20
74.7
 30
0.0
 70
0
  0
VERTEX
  5
C88
  8
0
 10
36.556
 20
74.7
 30
0.0
 70
0
  0
VERTEX
  5
C89
  8
0
 10
36.557
 20
74.7
 30
0.0
 70
0
  0
VERTEX
  5
C8A
  8
0
 10
36.558
 20
74.7
 30
0.0
 70
0
  0
VERTEX
  5
C8B
  8
0
 10
36.559
 20
74.7
 30
0.0
 70
0
  0
VERTEX
  5
C8C
  8
0
 10
36.56
 20
74.7
 30
0.0
 70
0
  0
VERTEX
  5
C8D
  8
0
 10
36.561
 20
74.7
 30
0.0
 70
0
  0
VERTEX
  5
C8E
  8
0
 10
36.562
 20
74.7
 30
0.0
 70
0
  0
VERTEX
  5
C8F
  8
0
 10
36.563
 20
74.7
 30
0.0
 70
0
  0
VERTEX
  5
C90
  8
0
 10
36.564
 20
74.7
 30
0.0
 70
0
  0
VERTEX
  5
C91
  8
0
 10
36.565
 20
74.7
 30
0.0
 70
0
  0
VERTEX
  5
C92
  8
0
 10
36.566
 20
74.7
 30
0.0
 70
0
  0
VERTEX
  5
C93
  8
0
 10
36.567
 20
74.7
 30
0.0
 70
0
  0
VERTEX
  5
C94
  8
0
 10
36.568
 20
74.7
 30
0.0
 70
0
  0
VERTEX
  5
C95
  8
0
 10
36.569
 20
74.7
 30
0.0
 70
0
  0
VERTEX
  5
C96
  8
0
 10
36.57
 20
74.7
 30
0.0
 70
0
  0
VERTEX
  5
C97
  8
0
 10
36.571
 20
74.7
 30
0.0
 70
0
  0
VERTEX
  5
C98
  8
0
 10
36.572
 20
74.7
 30
0.0
 70
0
  0
VERTEX
  5
C99
  8
0
 10
36.573
 20
74.7
 30
0.0
 70
0
  0
VERTEX
  5
C9A
  8
0
 10
36.574
 20
74.7
 30
0.0
 70
0
  0
VERTEX
  5
C9B
  8
0
 10
36.575
 20
74.7
 30
0.0
 70
0
  0
VERTEX
  5
C9C
  8
0
 10
36.576
 20
74.7
 30
0.0
 70
0
  0
VERTEX
  5
C9D
  8
0
 10
36.577
 20
74.7
 30
0.0
 70
0
  0
VERTEX
  5
C9E
  8
0
 10
36.578
 20
74.7
 30
0.0
 70
0
  0
VERTEX
  5
C9F
  8
0
 10
36.579
 20
74.7
 30
0.0
 70
0
  0
VERTEX
  5
CA0
  8
0
 10
36.58
 20
74.7
 30
0.0
 70
0
  0
VERTEX
  5
CA1
  8
0
 10
36.581
 20
74.7
 30
0.0
 70
0
  0
VERTEX
  5
CA2
  8
0
 10
36.582
 20
74.7
 30
0.0
 70
0
  0
VERTEX
  5
CA3
  8
0
 10
36.583
 20
74.7
 30
0.0
 70
0
  0
VERTEX
  5
CA4
  8
0
 10
36.584
 20
74.7
 30
0.0
 70
0
  0
VERTEX
  5
CA5
  8
0
 10
36.585
 20
74.7
 30
0.0
 70
0
  0
VERTEX
  5
CA6
  8
0
 10
36.586
 20
74.7
 30
0.0
 70
0
  0
VERTEX
  5
CA7
  8
0
 10
36.587
 20
74.7
 30
0.0
 70
0
  0
VERTEX
  5
CA8
  8
0
 10
36.588
 20
74.7
 30
0.0
 70
0
  0
VERTEX
  5
CA9
  8
0
 10
36.589
 20
74.7
 30
0.0
 70
0
  0
VERTEX
  5
CAA
  8
0
 10
36.591
 20
74.7
 30
0.0
 70
0
  0
VERTEX
  5
CAB
  8
0
 10
36.592
 20
74.7
 30
0.0
 70
0
  0
VERTEX
  5
CAC
  8
0
 10
36.593
 20
74.7
 30
0.0
 70
0
  0
VERTEX
  5
CAD
  8
0
 10
36.594
 20
74.7
 30
0.0
 70
0
  0
VERTEX
  5
CAE
  8
0
 10
36.595
 20
74.7
 30
0.0
 70
0
  0
VERTEX
  5
CAF
  8
0
 10
36.596
 20
74.7
 30
0.0
 70
0
  0
VERTEX
  5
CB0
  8
0
 10
36.597
 20
74.7
 30
0.0
 70
0
  0
VERTEX
  5
CB1
  8
0
 10
36.598
 20
74.7
 30
0.0
 70
0
  0
VERTEX
  5
CB2
  8
0
 10
36.599
 20
74.7
 30
0.0
 70
0
  0
VERTEX
  5
CB3
  8
0
 10
36.6
 20
74.7
 30
0.0
 70
0
  0
VERTEX
  5
CB4
  8
0
 10
36.601
 20
74.7
 30
0.0
 70
0
  0
VERTEX
  5
CB5
  8
0
 10
36.602
 20
74.7
 30
0.0
 70
0
  0
VERTEX
  5
CB6
  8
0
 10
36.603
 20
74.7
 30
0.0
 70
0
  0
VERTEX
  5
CB7
  8
0
 10
36.604
 20
74.7
 30
0.0
 70
0
  0
VERTEX
  5
CB8
  8
0
 10
36.605
 20
74.7
 30
0.0
 70
0
  0
VERTEX
  5
CB9
  8
0
 10
36.606
 20
74.7
 30
0.0
 70
0
  0
VERTEX
  5
CBA
  8
0
 10
36.607
 20
74.7
 30
0.0
 70
0
  0
VERTEX
  5
CBB
  8
0
 10
36.608
 20
74.7
 30
0.0
 70
0
  0
VERTEX
  5
CBC
  8
0
 10
36.609
 20
74.7
 30
0.0
 70
0
  0
VERTEX
  5
CBD
  8
0
 10
36.61
 20
74.7
 30
0.0
 70
0
  0
VERTEX
  5
CBE
  8
0
 10
36.611
 20
74.7
 30
0.0
 70
0
  0
VERTEX
  5
CBF
  8
0
 10
36.612
 20
74.7
 30
0.0
 70
0
  0
VERTEX
  5
CC0
  8
0
 10
36.613
 20
74.7
 30
0.0
 70
0
  0
VERTEX
  5
CC1
  8
0
 10
36.614
 20
74.7
 30
0.0
 70
0
  0
VERTEX
  5
CC2
  8
0
 10
36.615
 20
74.7
 30
0.0
 70
0
  0
VERTEX
  5
CC3
  8
0
 10
36.616
 20
74.7
 30
0.0
 70
0
  0
VERTEX
  5
CC4
  8
0
 10
36.617
 20
74.7
 30
0.0
 70
0
  0
VERTEX
  5
CC5
  8
0
 10
36.618
 20
74.7
 30
0.0
 70
0
  0
VERTEX
  5
CC6
  8
0
 10
36.619
 20
74.7
 30
0.0
 70
0
  0
VERTEX
  5
CC7
  8
0
 10
36.62
 20
74.7
 30
0.0
 70
0
  0
VERTEX
  5
CC8
  8
0
 10
36.621
 20
74.7
 30
0.0
 70
0
  0
VERTEX
  5
CC9
  8
0
 10
36.622
 20
74.7
 30
0.0
 70
0
  0
VERTEX
  5
CCA
  8
0
 10
36.623
 20
74.7
 30
0.0
 70
0
  0
VERTEX
  5
CCB
  8
0
 10
36.624
 20
74.7
 30
0.0
 70
0
  0
VERTEX
  5
CCC
  8
0
 10
36.625
 20
74.7
 30
0.0
 70
0
  0
VERTEX
  5
CCD
  8
0
 10
36.625
 20
74.699
 30
0.0
 70
0
  0
VERTEX
  5
CCE
  8
0
 10
36.625
 20
74.698
 30
0.0
 70
0
  0
VERTEX
  5
CCF
  8
0
 10
36.625
 20
74.697
 30
0.0
 70
0
  0
VERTEX
  5
CD0
  8
0
 10
36.625
 20
74.696
 30
0.0
 70
0
  0
VERTEX
  5
CD1
  8
0
 10
36.625
 20
74.695
 30
0.0
 70
0
  0
VERTEX
  5
CD2
  8
0
 10
36.625
 20
74.694
 30
0.0
 70
0
  0
VERTEX
  5
CD3
  8
0
 10
36.625
 20
74.693
 30
0.0
 70
0
  0
VERTEX
  5
CD4
  8
0
 10
36.625
 20
74.692
 30
0.0
 70
0
  0
VERTEX
  5
CD5
  8
0
 10
36.625
 20
74.691
 30
0.0
 70
0
  0
VERTEX
  5
CD6
  8
0
 10
36.625
 20
74.69
 30
0.0
 70
0
  0
VERTEX
  5
CD7
  8
0
 10
36.625
 20
74.689
 30
0.0
 70
0
  0
VERTEX
  5
CD8
  8
0
 10
36.625
 20
74.688
 30
0.0
 70
0
  0
VERTEX
  5
CD9
  8
0
 10
36.625
 20
74.687
 30
0.0
 70
0
  0
VERTEX
  5
CDA
  8
0
 10
36.625
 20
74.686
 30
0.0
 70
0
  0
VERTEX
  5
CDB
  8
0
 10
36.625
 20
74.685
 30
0.0
 70
0
  0
VERTEX
  5
CDC
  8
0
 10
36.625
 20
74.684
 30
0.0
 70
0
  0
VERTEX
  5
CDD
  8
0
 10
36.625
 20
74.683
 30
0.0
 70
0
  0
VERTEX
  5
CDE
  8
0
 10
36.625
 20
74.682
 30
0.0
 70
0
  0
VERTEX
  5
CDF
  8
0
 10
36.625
 20
74.681
 30
0.0
 70
0
  0
VERTEX
  5
CE0
  8
0
 10
36.625
 20
74.68
 30
0.0
 70
0
  0
VERTEX
  5
CE1
  8
0
 10
36.625
 20
74.679
 30
0.0
 70
0
  0
VERTEX
  5
CE2
  8
0
 10
36.625
 20
74.678
 30
0.0
 70
0
  0
VERTEX
  5
CE3
  8
0
 10
36.625
 20
74.677
 30
0.0
 70
0
  0
VERTEX
  5
CE4
  8
0
 10
36.625
 20
74.676
 30
0.0
 70
0
  0
VERTEX
  5
CE5
  8
0
 10
36.625
 20
74.675
 30
0.0
 70
0
  0
VERTEX
  5
CE6
  8
0
 10
36.625
 20
74.674
 30
0.0
 70
0
  0
VERTEX
  5
CE7
  8
0
 10
36.625
 20
74.673
 30
0.0
 70
0
  0
VERTEX
  5
CE8
  8
0
 10
36.625
 20
74.672
 30
0.0
 70
0
  0
VERTEX
  5
CE9
  8
0
 10
36.625
 20
74.671
 30
0.0
 70
0
  0
VERTEX
  5
CEA
  8
0
 10
36.625
 20
74.67
 30
0.0
 70
0
  0
VERTEX
  5
CEB
  8
0
 10
36.625
 20
74.669
 30
0.0
 70
0
  0
VERTEX
  5
CEC
  8
0
 10
36.625
 20
74.668
 30
0.0
 70
0
  0
VERTEX
  5
CED
  8
0
 10
36.625
 20
74.667
 30
0.0
 70
0
  0
VERTEX
  5
CEE
  8
0
 10
36.625
 20
74.666
 30
0.0
 70
0
  0
VERTEX
  5
CEF
  8
0
 10
36.625
 20
74.665
 30
0.0
 70
0
  0
VERTEX
  5
CF0
  8
0
 10
36.625
 20
74.664
 30
0.0
 70
0
  0
VERTEX
  5
CF1
  8
0
 10
36.625
 20
74.663
 30
0.0
 70
0
  0
VERTEX
  5
CF2
  8
0
 10
36.625
 20
74.662
 30
0.0
 70
0
  0
VERTEX
  5
CF3
  8
0
 10
36.625
 20
74.66
 30
0.0
 70
0
  0
VERTEX
  5
CF4
  8
0
 10
36.625
 20
74.659
 30
0.0
 70
0
  0
VERTEX
  5
CF5
  8
0
 10
36.625
 20
74.658
 30
0.0
 70
0
  0
VERTEX
  5
CF6
  8
0
 10
36.625
 20
74.657
 30
0.0
 70
0
  0
VERTEX
  5
CF7
  8
0
 10
36.625
 20
74.656
 30
0.0
 70
0
  0
VERTEX
  5
CF8
  8
0
 10
36.625
 20
74.655
 30
0.0
 70
0
  0
VERTEX
  5
CF9
  8
0
 10
36.625
 20
74.654
 30
0.0
 70
0
  0
VERTEX
  5
CFA
  8
0
 10
36.625
 20
74.653
 30
0.0
 70
0
  0
VERTEX
  5
CFB
  8
0
 10
36.625
 20
74.652
 30
0.0
 70
0
  0
VERTEX
  5
CFC
  8
0
 10
36.625
 20
74.651
 30
0.0
 70
0
  0
VERTEX
  5
CFD
  8
0
 10
36.625
 20
74.65
 30
0.0
 70
0
  0
VERTEX
  5
CFE
  8
0
 10
36.625
 20
74.649
 30
0.0
 70
0
  0
VERTEX
  5
CFF
  8
0
 10
36.625
 20
74.648
 30
0.0
 70
0
  0
VERTEX
  5
D00
  8
0
 10
36.625
 20
74.647
 30
0.0
 70
0
  0
VERTEX
  5
D01
  8
0
 10
36.625
 20
74.646
 30
0.0
 70
0
  0
VERTEX
  5
D02
  8
0
 10
36.625
 20
74.645
 30
0.0
 70
0
  0
VERTEX
  5
D03
  8
0
 10
36.625
 20
74.644
 30
0.0
 70
0
  0
VERTEX
  5
D04
  8
0
 10
36.625
 20
74.643
 30
0.0
 70
0
  0
VERTEX
  5
D05
  8
0
 10
36.625
 20
74.642
 30
0.0
 70
0
  0
VERTEX
  5
D06
  8
0
 10
36.625
 20
74.641
 30
0.0
 70
0
  0
VERTEX
  5
D07
  8
0
 10
36.625
 20
74.64
 30
0.0
 70
0
  0
VERTEX
  5
D08
  8
0
 10
36.625
 20
74.639
 30
0.0
 70
0
  0
VERTEX
  5
D09
  8
0
 10
36.625
 20
74.638
 30
0.0
 70
0
  0
VERTEX
  5
D0A
  8
0
 10
36.625
 20
74.637
 30
0.0
 70
0
  0
VERTEX
  5
D0B
  8
0
 10
36.625
 20
74.636
 30
0.0
 70
0
  0
VERTEX
  5
D0C
  8
0
 10
36.625
 20
74.635
 30
0.0
 70
0
  0
VERTEX
  5
D0D
  8
0
 10
36.625
 20
74.634
 30
0.0
 70
0
  0
VERTEX
  5
D0E
  8
0
 10
36.625
 20
74.633
 30
0.0
 70
0
  0
VERTEX
  5
D0F
  8
0
 10
36.625
 20
74.632
 30
0.0
 70
0
  0
VERTEX
  5
D10
  8
0
 10
36.625
 20
74.631
 30
0.0
 70
0
  0
VERTEX
  5
D11
  8
0
 10
36.625
 20
74.63
 30
0.0
 70
0
  0
VERTEX
  5
D12
  8
0
 10
36.625
 20
74.629
 30
0.0
 70
0
  0
VERTEX
  5
D13
  8
0
 10
36.625
 20
74.628
 30
0.0
 70
0
  0
VERTEX
  5
D14
  8
0
 10
36.626
 20
74.628
 30
0.0
 70
0
  0
VERTEX
  5
D15
  8
0
 10
36.627
 20
74.628
 30
0.0
 70
0
  0
VERTEX
  5
D16
  8
0
 10
36.628
 20
74.628
 30
0.0
 70
0
  0
VERTEX
  5
D17
  8
0
 10
36.629
 20
74.628
 30
0.0
 70
0
  0
VERTEX
  5
D18
  8
0
 10
36.63
 20
74.628
 30
0.0
 70
0
  0
VERTEX
  5
D19
  8
0
 10
36.631
 20
74.628
 30
0.0
 70
0
  0
VERTEX
  5
D1A
  8
0
 10
36.632
 20
74.628
 30
0.0
 70
0
  0
VERTEX
  5
D1B
  8
0
 10
36.633
 20
74.628
 30
0.0
 70
0
  0
VERTEX
  5
D1C
  8
0
 10
36.634
 20
74.628
 30
0.0
 70
0
  0
VERTEX
  5
D1D
  8
0
 10
36.635
 20
74.628
 30
0.0
 70
0
  0
VERTEX
  5
D1E
  8
0
 10
36.636
 20
74.628
 30
0.0
 70
0
  0
VERTEX
  5
D1F
  8
0
 10
36.637
 20
74.628
 30
0.0
 70
0
  0
VERTEX
  5
D20
  8
0
 10
36.638
 20
74.628
 30
0.0
 70
0
  0
VERTEX
  5
D21
  8
0
 10
36.639
 20
74.628
 30
0.0
 70
0
  0
VERTEX
  5
D22
  8
0
 10
36.64
 20
74.628
 30
0.0
 70
0
  0
VERTEX
  5
D23
  8
0
 10
36.641
 20
74.628
 30
0.0
 70
0
  0
VERTEX
  5
D24
  8
0
 10
36.642
 20
74.628
 30
0.0
 70
0
  0
VERTEX
  5
D25
  8
0
 10
36.643
 20
74.628
 30
0.0
 70
0
  0
VERTEX
  5
D26
  8
0
 10
36.644
 20
74.628
 30
0.0
 70
0
  0
VERTEX
  5
D27
  8
0
 10
36.645
 20
74.628
 30
0.0
 70
0
  0
VERTEX
  5
D28
  8
0
 10
36.646
 20
74.628
 30
0.0
 70
0
  0
VERTEX
  5
D29
  8
0
 10
36.647
 20
74.628
 30
0.0
 70
0
  0
VERTEX
  5
D2A
  8
0
 10
36.648
 20
74.628
 30
0.0
 70
0
  0
VERTEX
  5
D2B
  8
0
 10
36.649
 20
74.628
 30
0.0
 70
0
  0
VERTEX
  5
D2C
  8
0
 10
36.65
 20
74.628
 30
0.0
 70
0
  0
VERTEX
  5
D2D
  8
0
 10
36.651
 20
74.628
 30
0.0
 70
0
  0
VERTEX
  5
D2E
  8
0
 10
36.652
 20
74.628
 30
0.0
 70
0
  0
VERTEX
  5
D2F
  8
0
 10
36.653
 20
74.628
 30
0.0
 70
0
  0
VERTEX
  5
D30
  8
0
 10
36.654
 20
74.628
 30
0.0
 70
0
  0
VERTEX
  5
D31
  8
0
 10
36.655
 20
74.628
 30
0.0
 70
0
  0
VERTEX
  5
D32
  8
0
 10
36.656
 20
74.628
 30
0.0
 70
0
  0
VERTEX
  5
D33
  8
0
 10
36.657
 20
74.628
 30
0.0
 70
0
  0
VERTEX
  5
D34
  8
0
 10
36.658
 20
74.628
 30
0.0
 70
0
  0
VERTEX
  5
D35
  8
0
 10
36.659
 20
74.628
 30
0.0
 70
0
  0
VERTEX
  5
D36
  8
0
 10
36.66
 20
74.628
 30
0.0
 70
0
  0
VERTEX
  5
D37
  8
0
 10
36.661
 20
74.628
 30
0.0
 70
0
  0
VERTEX
  5
D38
  8
0
 10
36.662
 20
74.628
 30
0.0
 70
0
  0
VERTEX
  5
D39
  8
0
 10
36.664
 20
74.628
 30
0.0
 70
0
  0
VERTEX
  5
D3A
  8
0
 10
36.665
 20
74.628
 30
0.0
 70
0
  0
VERTEX
  5
D3B
  8
0
 10
36.666
 20
74.628
 30
0.0
 70
0
  0
VERTEX
  5
D3C
  8
0
 10
36.667
 20
74.628
 30
0.0
 70
0
  0
VERTEX
  5
D3D
  8
0
 10
36.668
 20
74.628
 30
0.0
 70
0
  0
VERTEX
  5
D3E
  8
0
 10
36.669
 20
74.628
 30
0.0
 70
0
  0
VERTEX
  5
D3F
  8
0
 10
36.67
 20
74.628
 30
0.0
 70
0
  0
VERTEX
  5
D40
  8
0
 10
36.671
 20
74.628
 30
0.0
 70
0
  0
VERTEX
  5
D41
  8
0
 10
36.672
 20
74.628
 30
0.0
 70
0
  0
VERTEX
  5
D42
  8
0
 10
36.673
 20
74.628
 30
0.0
 70
0
  0
VERTEX
  5
D43
  8
0
 10
36.674
 20
74.628
 30
0.0
 70
0
  0
VERTEX
  5
D44
  8
0
 10
36.675
 20
74.628
 30
0.0
 70
0
  0
VERTEX
  5
D45
  8
0
 10
36.676
 20
74.628
 30
0.0
 70
0
  0
VERTEX
  5
D46
  8
0
 10
36.677
 20
74.628
 30
0.0
 70
0
  0
VERTEX
  5
D47
  8
0
 10
36.678
 20
74.628
 30
0.0
 70
0
  0
VERTEX
  5
D48
  8
0
 10
36.679
 20
74.628
 30
0.0
 70
0
  0
VERTEX
  5
D49
  8
0
 10
36.68
 20
74.628
 30
0.0
 70
0
  0
VERTEX
  5
D4A
  8
0
 10
36.681
 20
74.628
 30
0.0
 70
0
  0
VERTEX
  5
D4B
  8
0
 10
36.682
 20
74.628
 30
0.0
 70
0
  0
VERTEX
  5
D4C
  8
0
 10
36.683
 20
74.628
 30
0.0
 70
0
  0
VERTEX
  5
D4D
  8
0
 10
36.684
 20
74.628
 30
0.0
 70
0
  0
VERTEX
  5
D4E
  8
0
 10
36.685
 20
74.628
 30
0.0
 70
0
  0
VERTEX
  5
D4F
  8
0
 10
36.686
 20
74.628
 30
0.0
 70
0
  0
VERTEX
  5
D50
  8
0
 10
36.687
 20
74.628
 30
0.0
 70
0
  0
VERTEX
  5
D51
  8
0
 10
36.688
 20
74.628
 30
0.0
 70
0
  0
VERTEX
  5
D52
  8
0
 10
36.689
 20
74.628
 30
0.0
 70
0
  0
VERTEX
  5
D53
  8
0
 10
36.69
 20
74.628
 30
0.0
 70
0
  0
VERTEX
  5
D54
  8
0
 10
36.691
 20
74.628
 30
0.0
 70
0
  0
VERTEX
  5
D55
  8
0
 10
36.692
 20
74.628
 30
0.0
 70
0
  0
VERTEX
  5
D56
  8
0
 10
36.693
 20
74.628
 30
0.0
 70
0
  0
VERTEX
  5
D57
  8
0
 10
36.694
 20
74.628
 30
0.0
 70
0
  0
VERTEX
  5
D58
  8
0
 10
36.695
 20
74.628
 30
0.0
 70
0
  0
VERTEX
  5
D59
  8
0
 10
36.696
 20
74.628
 30
0.0
 70
0
  0
VERTEX
  5
D5A
  8
0
 10
36.697
 20
74.628
 30
0.0
 70
0
  0
VERTEX
  5
D5B
  8
0
 10
36.698
 20
74.628
 30
0.0
 70
0
  0
VERTEX
  5
D5C
  8
0
 10
36.699
 20
74.628
 30
0.0
 70
0
  0
VERTEX
  5
D5D
  8
0
 10
36.7
 20
74.628
 30
0.0
 70
0
  0
VERTEX
  5
D5E
  8
0
 10
36.701
 20
74.628
 30
0.0
 70
0
  0
VERTEX
  5
D5F
  8
0
 10
36.702
 20
74.628
 30
0.0
 70
0
  0
VERTEX
  5
D60
  8
0
 10
36.703
 20
74.628
 30
0.0
 70
0
  0
VERTEX
  5
D61
  8
0
 10
36.704
 20
74.628
 30
0.0
 70
0
  0
VERTEX
  5
D62
  8
0
 10
36.705
 20
74.628
 30
0.0
 70
0
  0
VERTEX
  5
D63
  8
0
 10
36.706
 20
74.628
 30
0.0
 70
0
  0
VERTEX
  5
D64
  8
0
 10
36.707
 20
74.628
 30
0.0
 70
0
  0
VERTEX
  5
D65
  8
0
 10
36.708
 20
74.628
 30
0.0
 70
0
  0
VERTEX
  5
D66
  8
0
 10
36.709
 20
74.628
 30
0.0
 70
0
  0
VERTEX
  5
D67
  8
0
 10
36.71
 20
74.628
 30
0.0
 70
0
  0
VERTEX
  5
D68
  8
0
 10
36.711
 20
74.628
 30
0.0
 70
0
  0
VERTEX
  5
D69
  8
0
 10
36.712
 20
74.628
 30
0.0
 70
0
  0
VERTEX
  5
D6A
  8
0
 10
36.713
 20
74.628
 30
0.0
 70
0
  0
VERTEX
  5
D6B
  8
0
 10
36.714
 20
74.628
 30
0.0
 70
0
  0
VERTEX
  5
D6C
  8
0
 10
36.715
 20
74.628
 30
0.0
 70
0
  0
VERTEX
  5
D6D
  8
0
 10
36.716
 20
74.628
 30
0.0
 70
0
  0
VERTEX
  5
D6E
  8
0
 10
36.718
 20
74.628
 30
0.0
 70
0
  0
VERTEX
  5
D6F
  8
0
 10
36.719
 20
74.628
 30
0.0
 70
0
  0
VERTEX
  5
D70
  8
0
 10
36.72
 20
74.628
 30
0.0
 70
0
  0
VERTEX
  5
D71
  8
0
 10
36.722
 20
74.628
 30
0.0
 70
0
  0
VERTEX
  5
D72
  8
0
 10
36.723
 20
74.628
 30
0.0
 70
0
  0
VERTEX
  5
D73
  8
0
 10
36.724
 20
74.628
 30
0.0
 70
0
  0
VERTEX
  5
D74
  8
0
 10
36.725
 20
74.628
 30
0.0
 70
0
  0
VERTEX
  5
D75
  8
0
 10
36.726
 20
74.628
 30
0.0
 70
0
  0
VERTEX
  5
D76
  8
0
 10
36.727
 20
74.628
 30
0.0
 70
0
  0
VERTEX
  5
D77
  8
0
 10
36.728
 20
74.628
 30
0.0
 70
0
  0
VERTEX
  5
D78
  8
0
 10
36.729
 20
74.628
 30
0.0
 70
0
  0
VERTEX
  5
D79
  8
0
 10
36.73
 20
74.628
 30
0.0
 70
0
  0
VERTEX
  5
D7A
  8
0
 10
36.731
 20
74.628
 30
0.0
 70
0
  0
VERTEX
  5
D7B
  8
0
 10
36.732
 20
74.628
 30
0.0
 70
0
  0
VERTEX
  5
D7C
  8
0
 10
36.733
 20
74.628
 30
0.0
 70
0
  0
VERTEX
  5
D7D
  8
0
 10
36.734
 20
74.628
 30
0.0
 70
0
  0
VERTEX
  5
D7E
  8
0
 10
36.735
 20
74.628
 30
0.0
 70
0
  0
VERTEX
  5
D7F
  8
0
 10
36.736
 20
74.628
 30
0.0
 70
0
  0
VERTEX
  5
D80
  8
0
 10
36.737
 20
74.628
 30
0.0
 70
0
  0
VERTEX
  5
D81
  8
0
 10
36.738
 20
74.628
 30
0.0
 70
0
  0
VERTEX
  5
D82
  8
0
 10
36.739
 20
74.628
 30
0.0
 70
0
  0
VERTEX
  5
D83
  8
0
 10
36.74
 20
74.628
 30
0.0
 70
0
  0
VERTEX
  5
D84
  8
0
 10
36.741
 20
74.628
 30
0.0
 70
0
  0
VERTEX
  5
D85
  8
0
 10
36.742
 20
74.628
 30
0.0
 70
0
  0
VERTEX
  5
D86
  8
0
 10
36.743
 20
74.628
 30
0.0
 70
0
  0
VERTEX
  5
D87
  8
0
 10
36.744
 20
74.628
 30
0.0
 70
0
  0
VERTEX
  5
D88
  8
0
 10
36.745
 20
74.628
 30
0.0
 70
0
  0
VERTEX
  5
D89
  8
0
 10
36.746
 20
74.628
 30
0.0
 70
0
  0
VERTEX
  5
D8A
  8
0
 10
36.747
 20
74.628
 30
0.0
 70
0
  0
VERTEX
  5
D8B
  8
0
 10
36.748
 20
74.628
 30
0.0
 70
0
  0
VERTEX
  5
D8C
  8
0
 10
36.749
 20
74.628
 30
0.0
 70
0
  0
VERTEX
  5
D8D
  8
0
 10
36.75
 20
74.628
 30
0.0
 70
0
  0
VERTEX
  5
D8E
  8
0
 10
36.751
 20
74.628
 30
0.0
 70
0
  0
VERTEX
  5
D8F
  8
0
 10
36.752
 20
74.628
 30
0.0
 70
0
  0
VERTEX
  5
D90
  8
0
 10
36.753
 20
74.628
 30
0.0
 70
0
  0
VERTEX
  5
D91
  8
0
 10
36.754
 20
74.628
 30
0.0
 70
0
  0
VERTEX
  5
D92
  8
0
 10
36.755
 20
74.628
 30
0.0
 70
0
  0
VERTEX
  5
D93
  8
0
 10
36.756
 20
74.628
 30
0.0
 70
0
  0
VERTEX
  5
D94
  8
0
 10
36.757
 20
74.628
 30
0.0
 70
0
  0
VERTEX
  5
D95
  8
0
 10
36.758
 20
74.628
 30
0.0
 70
0
  0
VERTEX
  5
D96
  8
0
 10
36.759
 20
74.628
 30
0.0
 70
0
  0
VERTEX
  5
D97
  8
0
 10
36.76
 20
74.628
 30
0.0
 70
0
  0
VERTEX
  5
D98
  8
0
 10
36.761
 20
74.628
 30
0.0
 70
0
  0
VERTEX
  5
D99
  8
0
 10
36.762
 20
74.628
 30
0.0
 70
0
  0
VERTEX
  5
D9A
  8
0
 10
36.763
 20
74.628
 30
0.0
 70
0
  0
VERTEX
  5
D9B
  8
0
 10
36.764
 20
74.628
 30
0.0
 70
0
  0
VERTEX
  5
D9C
  8
0
 10
36.765
 20
74.628
 30
0.0
 70
0
  0
VERTEX
  5
D9D
  8
0
 10
36.765
 20
74.627
 30
0.0
 70
0
  0
VERTEX
  5
D9E
  8
0
 10
36.765
 20
74.626
 30
0.0
 70
0
  0
VERTEX
  5
D9F
  8
0
 10
36.765
 20
74.625
 30
0.0
 70
0
  0
VERTEX
  5
DA0
  8
0
 10
36.765
 20
74.624
 30
0.0
 70
0
  0
VERTEX
  5
DA1
  8
0
 10
36.765
 20
74.623
 30
0.0
 70
0
  0
VERTEX
  5
DA2
  8
0
 10
36.765
 20
74.622
 30
0.0
 70
0
  0
VERTEX
  5
DA3
  8
0
 10
36.765
 20
74.621
 30
0.0
 70
0
  0
VERTEX
  5
DA4
  8
0
 10
36.765
 20
74.62
 30
0.0
 70
0
  0
VERTEX
  5
DA5
  8
0
 10
36.765
 20
74.619
 30
0.0
 70
0
  0
VERTEX
  5
DA6
  8
0
 10
36.765
 20
74.618
 30
0.0
 70
0
  0
VERTEX
  5
DA7
  8
0
 10
36.765
 20
74.616
 30
0.0
 70
0
  0
VERTEX
  5
DA8
  8
0
 10
36.765
 20
74.615
 30
0.0
 70
0
  0
VERTEX
  5
DA9
  8
0
 10
36.765
 20
74.614
 30
0.0
 70
0
  0
VERTEX
  5
DAA
  8
0
 10
36.765
 20
74.612
 30
0.0
 70
0
  0
VERTEX
  5
DAB
  8
0
 10
36.765
 20
74.611
 30
0.0
 70
0
  0
VERTEX
  5
DAC
  8
0
 10
36.765
 20
74.609
 30
0.0
 70
0
  0
VERTEX
  5
DAD
  8
0
 10
36.765
 20
74.608
 30
0.0
 70
0
  0
VERTEX
  5
DAE
  8
0
 10
36.765
 20
74.606
 30
0.0
 70
0
  0
VERTEX
  5
DAF
  8
0
 10
36.765
 20
74.605
 30
0.0
 70
0
  0
VERTEX
  5
DB0
  8
0
 10
36.765
 20
74.603
 30
0.0
 70
0
  0
VERTEX
  5
DB1
  8
0
 10
36.765
 20
74.601
 30
0.0
 70
0
  0
VERTEX
  5
DB2
  8
0
 10
36.765
 20
74.6
 30
0.0
 70
0
  0
VERTEX
  5
DB3
  8
0
 10
36.765
 20
74.598
 30
0.0
 70
0
  0
VERTEX
  5
DB4
  8
0
 10
36.765
 20
74.596
 30
0.0
 70
0
  0
VERTEX
  5
DB5
  8
0
 10
36.765
 20
74.594
 30
0.0
 70
0
  0
VERTEX
  5
DB6
  8
0
 10
36.765
 20
74.592
 30
0.0
 70
0
  0
VERTEX
  5
DB7
  8
0
 10
36.765
 20
74.59
 30
0.0
 70
0
  0
VERTEX
  5
DB8
  8
0
 10
36.765
 20
74.589
 30
0.0
 70
0
  0
VERTEX
  5
DB9
  8
0
 10
36.765
 20
74.587
 30
0.0
 70
0
  0
VERTEX
  5
DBA
  8
0
 10
36.765
 20
74.585
 30
0.0
 70
0
  0
VERTEX
  5
DBB
  8
0
 10
36.765
 20
74.583
 30
0.0
 70
0
  0
VERTEX
  5
DBC
  8
0
 10
36.765
 20
74.581
 30
0.0
 70
0
  0
VERTEX
  5
DBD
  8
0
 10
36.765
 20
74.579
 30
0.0
 70
0
  0
VERTEX
  5
DBE
  8
0
 10
36.765
 20
74.576
 30
0.0
 70
0
  0
VERTEX
  5
DBF
  8
0
 10
36.765
 20
74.574
 30
0.0
 70
0
  0
VERTEX
  5
DC0
  8
0
 10
36.765
 20
74.572
 30
0.0
 70
0
  0
VERTEX
  5
DC1
  8
0
 10
36.765
 20
74.57
 30
0.0
 70
0
  0
VERTEX
  5
DC2
  8
0
 10
36.765
 20
74.568
 30
0.0
 70
0
  0
VERTEX
  5
DC3
  8
0
 10
36.765
 20
74.566
 30
0.0
 70
0
  0
VERTEX
  5
DC4
  8
0
 10
36.765
 20
74.564
 30
0.0
 70
0
  0
VERTEX
  5
DC5
  8
0
 10
36.765
 20
74.562
 30
0.0
 70
0
  0
VERTEX
  5
DC6
  8
0
 10
36.765
 20
74.56
 30
0.0
 70
0
  0
VERTEX
  5
DC7
  8
0
 10
36.765
 20
74.557
 30
0.0
 70
0
  0
VERTEX
  5
DC8
  8
0
 10
36.765
 20
74.555
 30
0.0
 70
0
  0
VERTEX
  5
DC9
  8
0
 10
36.765
 20
74.553
 30
0.0
 70
0
  0
VERTEX
  5
DCA
  8
0
 10
36.765
 20
74.551
 30
0.0
 70
0
  0
VERTEX
  5
DCB
  8
0
 10
36.765
 20
74.549
 30
0.0
 70
0
  0
VERTEX
  5
DCC
  8
0
 10
36.765
 20
74.547
 30
0.0
 70
0
  0
VERTEX
  5
DCD
  8
0
 10
36.765
 20
74.545
 30
0.0
 70
0
  0
VERTEX
  5
DCE
  8
0
 10
36.765
 20
74.543
 30
0.0
 70
0
  0
VERTEX
  5
DCF
  8
0
 10
36.765
 20
74.541
 30
0.0
 70
0
  0
VERTEX
  5
DD0
  8
0
 10
36.765
 20
74.539
 30
0.0
 70
0
  0
VERTEX
  5
DD1
  8
0
 10
36.765
 20
74.536
 30
0.0
 70
0
  0
VERTEX
  5
DD2
  8
0
 10
36.765
 20
74.534
 30
0.0
 70
0
  0
VERTEX
  5
DD3
  8
0
 10
36.765
 20
74.532
 30
0.0
 70
0
  0
VERTEX
  5
DD4
  8
0
 10
36.765
 20
74.53
 30
0.0
 70
0
  0
VERTEX
  5
DD5
  8
0
 10
36.765
 20
74.528
 30
0.0
 70
0
  0
VERTEX
  5
DD6
  8
0
 10
36.765
 20
74.527
 30
0.0
 70
0
  0
VERTEX
  5
DD7
  8
0
 10
36.765
 20
74.525
 30
0.0
 70
0
  0
VERTEX
  5
DD8
  8
0
 10
36.765
 20
74.523
 30
0.0
 70
0
  0
VERTEX
  5
DD9
  8
0
 10
36.765
 20
74.521
 30
0.0
 70
0
  0
VERTEX
  5
DDA
  8
0
 10
36.765
 20
74.519
 30
0.0
 70
0
  0
VERTEX
  5
DDB
  8
0
 10
36.765
 20
74.517
 30
0.0
 70
0
  0
VERTEX
  5
DDC
  8
0
 10
36.765
 20
74.516
 30
0.0
 70
0
  0
VERTEX
  5
DDD
  8
0
 10
36.765
 20
74.514
 30
0.0
 70
0
  0
VERTEX
  5
DDE
  8
0
 10
36.765
 20
74.512
 30
0.0
 70
0
  0
VERTEX
  5
DDF
  8
0
 10
36.765
 20
74.51
 30
0.0
 70
0
  0
VERTEX
  5
DE0
  8
0
 10
36.765
 20
74.509
 30
0.0
 70
0
  0
VERTEX
  5
DE1
  8
0
 10
36.765
 20
74.507
 30
0.0
 70
0
  0
VERTEX
  5
DE2
  8
0
 10
36.765
 20
74.506
 30
0.0
 70
0
  0
VERTEX
  5
DE3
  8
0
 10
36.765
 20
74.504
 30
0.0
 70
0
  0
VERTEX
  5
DE4
  8
0
 10
36.765
 20
74.503
 30
0.0
 70
0
  0
VERTEX
  5
DE5
  8
0
 10
36.765
 20
74.501
 30
0.0
 70
0
  0
VERTEX
  5
DE6
  8
0
 10
36.765
 20
74.5
 30
0.0
 70
0
  0
VERTEX
  5
DE7
  8
0
 10
36.765
 20
74.499
 30
0.0
 70
0
  0
VERTEX
  5
DE8
  8
0
 10
36.765
 20
74.498
 30
0.0
 70
0
  0
VERTEX
  5
DE9
  8
0
 10
36.765
 20
74.497
 30
0.0
 70
0
  0
VERTEX
  5
DEA
  8
0
 10
36.765
 20
74.496
 30
0.0
 70
0
  0
VERTEX
  5
DEB
  8
0
 10
36.765
 20
74.495
 30
0.0
 70
0
  0
VERTEX
  5
DEC
  8
0
 10
36.765
 20
74.494
 30
0.0
 70
0
  0
VERTEX
  5
DED
  8
0
 10
36.765
 20
74.493
 30
0.0
 70
0
  0
VERTEX
  5
DEE
  8
0
 10
36.765
 20
74.492
 30
0.0
 70
0
  0
VERTEX
  5
DEF
  8
0
 10
36.765
 20
74.491
 30
0.0
 70
0
  0
VERTEX
  5
DF0
  8
0
 10
36.765
 20
74.49
 30
0.0
 70
0
  0
VERTEX
  5
DF1
  8
0
 10
36.765
 20
74.489
 30
0.0
 70
0
  0
VERTEX
  5
DF2
  8
0
 10
36.765
 20
74.488
 30
0.0
 70
0
  0
SEQEND
  5
A91
  8
0
  0
POLYLINE
  5
DF3
  8
0
 66
1
 10
0.0
 20
0.0
 30
0.0
 70
0
  0
VERTEX
  5
DF5
  8
0
 10
36.343
 20
74.699
 30
0.0
 70
0
  0
VERTEX
  5
DF6
  8
0
 10
36.272
 20
74.699
 30
0.0
 70
0
  0
VERTEX
  5
DF7
  8
0
 10
36.202
 20
74.699
 30
0.0
 70
0
  0
VERTEX
  5
DF8
  8
0
 10
36.202
 20
74.628
 30
0.0
 70
0
  0
VERTEX
  5
DF9
  8
0
 10
36.131
 20
74.628
 30
0.0
 70
0
  0
VERTEX
  5
DFA
  8
0
 10
36.131
 20
74.559
 30
0.0
 70
0
  0
VERTEX
  5
DFB
  8
0
 10
36.06
 20
74.559
 30
0.0
 70
0
  0
VERTEX
  5
DFC
  8
0
 10
36.06
 20
74.488
 30
0.0
 70
0
  0
SEQEND
  5
DF4
  8
0
  0
POLYLINE
  5
DFD
  8
0
 66
1
 10
0.0
 20
0.0
 30
0.0
 70
0
  0
VERTEX
  5
DFF
  8
0
 10
47.995
 20
71.663
 30
0.0
 70
0
  0
VERTEX
  5
E00
  8
0
 10
47.995
 20
71.591
 30
0.0
 70
0
  0
VERTEX
  5
E01
  8
0
 10
48.067
 20
71.591
 30
0.0
 70
0
  0
VERTEX
  5
E02
  8
0
 10
48.067
 20
71.522
 30
0.0
 70
0
  0
SEQEND
  5
DFE
  8
0
  0
POLYLINE
  5
E03
  8
0
 66
1
 10
0.0
 20
0.0
 30
0.0
 70
0
  0
VERTEX
  5
E05
  8
0
 10
58.306
 20
69.897
 30
0.0
 70
0
  0
VERTEX
  5
E06
  8
0
 10
58.377
 20
69.897
 30
0.0
 70
0
  0
VERTEX
  5
E07
  8
0
 10
58.377
 20
69.968
 30
0.0
 70
0
  0
VERTEX
  5
E08
  8
0
 10
58.446
 20
69.968
 30
0.0
 70
0
  0
VERTEX
  5
E09
  8
0
 10
58.446
 20
70.04
 30
0.0
 70
0
  0
SEQEND
  5
E04
  8
0
  0
POLYLINE
  5
E0A
  8
0
 66
1
 10
0.0
 20
0.0
 30
0.0
 70
0
  0
VERTEX
  5
E0C
  8
0
 10
58.306
 20
69.897
 30
0.0
 70
0
  0
VERTEX
  5
E0D
  8
0
 10
58.377
 20
69.897
 30
0.0
 70
0
  0
VERTEX
  5
E0E
  8
0
 10
58.377
 20
69.826
 30
0.0
 70
0
  0
SEQEND
  5
E0B
  8
0
  0
POLYLINE
  5
E0F
  8
0
 66
1
 10
0.0
 20
0.0
 30
0.0
 70
0
  0
VERTEX
  5
E11
  8
0
 10
58.446
 20
70.04
 30
0.0
 70
0
  0
VERTEX
  5
E12
  8
0
 10
58.446
 20
69.968
 30
0.0
 70
0
  0
VERTEX
  5
E13
  8
0
 10
58.377
 20
69.968
 30
0.0
 70
0
  0
SEQEND
  5
E10
  8
0
  0
POLYLINE
  5
E14
  8
0
 66
1
 10
0.0
 20
0.0
 30
0.0
 70
0
  0
VERTEX
  5
E16
  8
0
 10
50.749
 20
69.686
 30
0.0
 70
0
  0
VERTEX
  5
E17
  8
0
 10
50.678
 20
69.686
 30
0.0
 70
0
  0
VERTEX
  5
E18
  8
0
 10
50.678
 20
69.757
 30
0.0
 70
0
  0
SEQEND
  5
E15
  8
0
  0
POLYLINE
  5
E19
  8
0
 66
1
 10
0.0
 20
0.0
 30
0.0
 70
0
  0
VERTEX
  5
E1B
  8
0
 10
57.74
 20
73.428
 30
0.0
 70
0
  0
VERTEX
  5
E1C
  8
0
 10
57.671
 20
73.428
 30
0.0
 70
0
  0
VERTEX
  5
E1D
  8
0
 10
57.6
 20
73.428
 30
0.0
 70
0
  0
VERTEX
  5
E1E
  8
0
 10
57.529
 20
73.428
 30
0.0
 70
0
  0
SEQEND
  5
E1A
  8
0
  0
POLYLINE
  5
E1F
  8
0
 66
1
 10
0.0
 20
0.0
 30
0.0
 70
0
  0
VERTEX
  5
E21
  8
0
 10
57.74
 20
73.428
 30
0.0
 70
0
  0
VERTEX
  5
E22
  8
0
 10
57.671
 20
73.428
 30
0.0
 70
0
  0
VERTEX
  5
E23
  8
0
 10
57.6
 20
73.428
 30
0.0
 70
0
  0
VERTEX
  5
E24
  8
0
 10
57.529
 20
73.428
 30
0.0
 70
0
  0
SEQEND
  5
E20
  8
0
  0
POLYLINE
  5
E25
  8
0
 66
1
 10
0.0
 20
0.0
 30
0.0
 70
0
  0
VERTEX
  5
E27
  8
0
 10
57.883
 20
73.428
 30
0.0
 70
0
  0
VERTEX
  5
E28
  8
0
 10
57.812
 20
73.428
 30
0.0
 70
0
  0
VERTEX
  5
E29
  8
0
 10
57.74
 20
73.428
 30
0.0
 70
0
  0
SEQEND
  5
E26
  8
0
  0
POLYLINE
  5
E2A
  8
0
 66
1
 10
0.0
 20
0.0
 30
0.0
 70
0
  0
VERTEX
  5
E2C
  8
0
 10
51.244
 20
71.805
 30
0.0
 70
0
  0
VERTEX
  5
E2D
  8
0
 10
51.244
 20
71.734
 30
0.0
 70
0
  0
VERTEX
  5
E2E
  8
0
 10
51.315
 20
71.734
 30
0.0
 70
0
  0
VERTEX
  5
E2F
  8
0
 10
51.315
 20
71.663
 30
0.0
 70
0
  0
VERTEX
  5
E30
  8
0
 10
51.384
 20
71.663
 30
0.0
 70
0
  0
VERTEX
  5
E31
  8
0
 10
51.384
 20
71.311
 30
0.0
 70
0
  0
VERTEX
  5
E32
  8
0
 10
51.455
 20
71.311
 30
0.0
 70
0
  0
VERTEX
  5
E33
  8
0
 10
51.455
 20
71.097
 30
0.0
 70
0
  0
SEQEND
  5
E2B
  8
0
  0
POLYLINE
  5
E34
  8
0
 66
1
 10
0.0
 20
0.0
 30
0.0
 70
0
  0
VERTEX
  5
E36
  8
0
 10
50.609
 20
71.097
 30
0.0
 70
0
  0
VERTEX
  5
E37
  8
0
 10
50.678
 20
71.097
 30
0.0
 70
0
  0
VERTEX
  5
E38
  8
0
 10
50.749
 20
71.097
 30
0.0
 70
0
  0
VERTEX
  5
E39
  8
0
 10
51.455
 20
71.097
 30
0.0
 70
0
  0
SEQEND
  5
E35
  8
0
  0
POLYLINE
  5
E3A
  8
0
 66
1
 10
0.0
 20
0.0
 30
0.0
 70
0
  0
VERTEX
  5
E3C
  8
0
 10
51.526
 20
69.757
 30
0.0
 70
0
  0
VERTEX
  5
E3D
  8
0
 10
51.033
 20
69.757
 30
0.0
 70
0
  0
VERTEX
  5
E3E
  8
0
 10
50.961
 20
69.757
 30
0.0
 70
0
  0
VERTEX
  5
E3F
  8
0
 10
50.678
 20
69.757
 30
0.0
 70
0
  0
SEQEND
  5
E3B
  8
0
  0
POLYLINE
  5
E40
  8
0
 66
1
 10
0.0
 20
0.0
 30
0.0
 70
0
  0
VERTEX
  5
E42
  8
0
 10
57.883
 20
73.428
 30
0.0
 70
0
  0
VERTEX
  5
E43
  8
0
 10
58.234
 20
73.428
 30
0.0
 70
0
  0
VERTEX
  5
E44
  8
0
 10
58.377
 20
73.499
 30
0.0
 70
0
  0
VERTEX
  5
E45
  8
0
 10
59.082
 20
73.499
 30
0.0
 70
0
  0
VERTEX
  5
E46
  8
0
 10
59.154
 20
73.499
 30
0.0
 70
0
  0
VERTEX
  5
E47
  8
0
 10
59.223
 20
73.499
 30
0.0
 70
0
  0
SEQEND
  5
E41
  8
0
  0
POLYLINE
  5
E48
  8
0
 66
1
 10
0.0
 20
0.0
 30
0.0
 70
0
  0
VERTEX
  5
E4A
  8
0
 10
59.223
 20
75.053
 30
0.0
 70
0
  0
VERTEX
  5
E4B
  8
0
 10
59.154
 20
75.053
 30
0.0
 70
0
  0
VERTEX
  5
E4C
  8
0
 10
59.082
 20
75.053
 30
0.0
 70
0
  0
VERTEX
  5
E4D
  8
0
 10
58.871
 20
75.053
 30
0.0
 70
0
  0
VERTEX
  5
E4E
  8
0
 10
58.8
 20
74.982
 30
0.0
 70
0
  0
VERTEX
  5
E4F
  8
0
 10
57.882
 20
74.982
 30
0.0
 70
0
  0
SEQEND
  5
E49
  8
0
  0
POLYLINE
  5
E50
  8
0
 66
1
 10
0.0
 20
0.0
 30
0.0
 70
0
  0
VERTEX
  5
E52
  8
0
 10
58.446
 20
69.968
 30
0.0
 70
0
  0
VERTEX
  5
E53
  8
0
 10
58.446
 20
70.04
 30
0.0
 70
0
  0
VERTEX
  5
E54
  8
0
 10
58.377
 20
70.04
 30
0.0
 70
0
  0
VERTEX
  5
E55
  8
0
 10
58.377
 20
69.968
 30
0.0
 70
0
  0
VERTEX
  5
E56
  8
0
 10
58.234
 20
69.968
 30
0.0
 70
0
  0
VERTEX
  5
E57
  8
0
 10
57.529
 20
69.968
 30
0.0
 70
0
  0
SEQEND
  5
E51
  8
0
  0
POLYLINE
  5
E58
  8
0
 66
1
 10
0.0
 20
0.0
 30
0.0
 70
0
  0
VERTEX
  5
E5A
  8
0
 10
57.883
 20
73.357
 30
0.0
 70
0
  0
VERTEX
  5
E5B
  8
0
 10
57.812
 20
73.357
 30
0.0
 70
0
  0
VERTEX
  5
E5C
  8
0
 10
57.74
 20
73.357
 30
0.0
 70
0
  0
VERTEX
  5
E5D
  8
0
 10
57.74
 20
73.428
 30
0.0
 70
0
  0
SEQEND
  5
E59
  8
0
  0
POLYLINE
  5
E5E
  8
0
 66
1
 10
0.0
 20
0.0
 30
0.0
 70
0
  0
VERTEX
  5
E60
  8
0
 10
58.023
 20
73.357
 30
0.0
 70
0
  0
VERTEX
  5
E61
  8
0
 10
57.951
 20
73.357
 30
0.0
 70
0
  0
VERTEX
  5
E62
  8
0
 10
57.882
 20
73.357
 30
0.0
 70
0
  0
SEQEND
  5
E5F
  8
0
  0
POLYLINE
  5
E63
  8
0
 66
1
 10
0.0
 20
0.0
 30
0.0
 70
0
  0
VERTEX
  5
E65
  8
0
 10
58.023
 20
73.357
 30
0.0
 70
0
  0
VERTEX
  5
E66
  8
0
 10
58.166
 20
73.357
 30
0.0
 70
0
  0
VERTEX
  5
E67
  8
0
 10
58.234
 20
73.357
 30
0.0
 70
0
  0
VERTEX
  5
E68
  8
0
 10
58.377
 20
73.357
 30
0.0
 70
0
  0
VERTEX
  5
E69
  8
0
 10
58.446
 20
73.357
 30
0.0
 70
0
  0
SEQEND
  5
E64
  8
0
  0
POLYLINE
  5
E6A
  8
0
 66
1
 10
0.0
 20
0.0
 30
0.0
 70
0
  0
VERTEX
  5
E6C
  8
0
 10
49.338
 20
74.7
 30
0.0
 70
0
  0
VERTEX
  5
E6D
  8
0
 10
49.337
 20
74.7
 30
0.0
 70
0
  0
VERTEX
  5
E6E
  8
0
 10
49.336
 20
74.7
 30
0.0
 70
0
  0
VERTEX
  5
E6F
  8
0
 10
49.335
 20
74.7
 30
0.0
 70
0
  0
VERTEX
  5
E70
  8
0
 10
49.334
 20
74.7
 30
0.0
 70
0
  0
VERTEX
  5
E71
  8
0
 10
49.333
 20
74.7
 30
0.0
 70
0
  0
VERTEX
  5
E72
  8
0
 10
49.332
 20
74.7
 30
0.0
 70
0
  0
VERTEX
  5
E73
  8
0
 10
49.331
 20
74.7
 30
0.0
 70
0
  0
VERTEX
  5
E74
  8
0
 10
49.33
 20
74.7
 30
0.0
 70
0
  0
VERTEX
  5
E75
  8
0
 10
49.329
 20
74.7
 30
0.0
 70
0
  0
VERTEX
  5
E76
  8
0
 10
49.328
 20
74.7
 30
0.0
 70
0
  0
VERTEX
  5
E77
  8
0
 10
49.327
 20
74.7
 30
0.0
 70
0
  0
VERTEX
  5
E78
  8
0
 10
49.326
 20
74.7
 30
0.0
 70
0
  0
VERTEX
  5
E79
  8
0
 10
49.325
 20
74.7
 30
0.0
 70
0
  0
VERTEX
  5
E7A
  8
0
 10
49.324
 20
74.7
 30
0.0
 70
0
  0
VERTEX
  5
E7B
  8
0
 10
49.323
 20
74.7
 30
0.0
 70
0
  0
VERTEX
  5
E7C
  8
0
 10
49.322
 20
74.7
 30
0.0
 70
0
  0
VERTEX
  5
E7D
  8
0
 10
49.321
 20
74.7
 30
0.0
 70
0
  0
VERTEX
  5
E7E
  8
0
 10
49.32
 20
74.7
 30
0.0
 70
0
  0
VERTEX
  5
E7F
  8
0
 10
49.319
 20
74.7
 30
0.0
 70
0
  0
VERTEX
  5
E80
  8
0
 10
49.318
 20
74.7
 30
0.0
 70
0
  0
VERTEX
  5
E81
  8
0
 10
49.317
 20
74.7
 30
0.0
 70
0
  0
VERTEX
  5
E82
  8
0
 10
49.316
 20
74.7
 30
0.0
 70
0
  0
VERTEX
  5
E83
  8
0
 10
49.315
 20
74.7
 30
0.0
 70
0
  0
VERTEX
  5
E84
  8
0
 10
49.314
 20
74.7
 30
0.0
 70
0
  0
VERTEX
  5
E85
  8
0
 10
49.313
 20
74.7
 30
0.0
 70
0
  0
VERTEX
  5
E86
  8
0
 10
49.312
 20
74.7
 30
0.0
 70
0
  0
VERTEX
  5
E87
  8
0
 10
49.311
 20
74.7
 30
0.0
 70
0
  0
VERTEX
  5
E88
  8
0
 10
49.31
 20
74.7
 30
0.0
 70
0
  0
VERTEX
  5
E89
  8
0
 10
49.309
 20
74.7
 30
0.0
 70
0
  0
VERTEX
  5
E8A
  8
0
 10
49.308
 20
74.7
 30
0.0
 70
0
  0
VERTEX
  5
E8B
  8
0
 10
49.307
 20
74.7
 30
0.0
 70
0
  0
VERTEX
  5
E8C
  8
0
 10
49.306
 20
74.7
 30
0.0
 70
0
  0
VERTEX
  5
E8D
  8
0
 10
49.305
 20
74.7
 30
0.0
 70
0
  0
VERTEX
  5
E8E
  8
0
 10
49.304
 20
74.7
 30
0.0
 70
0
  0
VERTEX
  5
E8F
  8
0
 10
49.303
 20
74.7
 30
0.0
 70
0
  0
VERTEX
  5
E90
  8
0
 10
49.302
 20
74.7
 30
0.0
 70
0
  0
VERTEX
  5
E91
  8
0
 10
49.301
 20
74.7
 30
0.0
 70
0
  0
VERTEX
  5
E92
  8
0
 10
49.3
 20
74.7
 30
0.0
 70
0
  0
VERTEX
  5
E93
  8
0
 10
49.299
 20
74.7
 30
0.0
 70
0
  0
VERTEX
  5
E94
  8
0
 10
49.298
 20
74.7
 30
0.0
 70
0
  0
VERTEX
  5
E95
  8
0
 10
49.297
 20
74.7
 30
0.0
 70
0
  0
VERTEX
  5
E96
  8
0
 10
49.296
 20
74.7
 30
0.0
 70
0
  0
VERTEX
  5
E97
  8
0
 10
49.295
 20
74.7
 30
0.0
 70
0
  0
VERTEX
  5
E98
  8
0
 10
49.294
 20
74.7
 30
0.0
 70
0
  0
VERTEX
  5
E99
  8
0
 10
49.293
 20
74.7
 30
0.0
 70
0
  0
VERTEX
  5
E9A
  8
0
 10
49.292
 20
74.7
 30
0.0
 70
0
  0
VERTEX
  5
E9B
  8
0
 10
49.291
 20
74.7
 30
0.0
 70
0
  0
VERTEX
  5
E9C
  8
0
 10
49.29
 20
74.7
 30
0.0
 70
0
  0
VERTEX
  5
E9D
  8
0
 10
49.289
 20
74.7
 30
0.0
 70
0
  0
VERTEX
  5
E9E
  8
0
 10
49.288
 20
74.7
 30
0.0
 70
0
  0
VERTEX
  5
E9F
  8
0
 10
49.287
 20
74.7
 30
0.0
 70
0
  0
VERTEX
  5
EA0
  8
0
 10
49.286
 20
74.7
 30
0.0
 70
0
  0
VERTEX
  5
EA1
  8
0
 10
49.285
 20
74.7
 30
0.0
 70
0
  0
VERTEX
  5
EA2
  8
0
 10
49.284
 20
74.7
 30
0.0
 70
0
  0
VERTEX
  5
EA3
  8
0
 10
49.283
 20
74.7
 30
0.0
 70
0
  0
VERTEX
  5
EA4
  8
0
 10
49.282
 20
74.7
 30
0.0
 70
0
  0
VERTEX
  5
EA5
  8
0
 10
49.281
 20
74.7
 30
0.0
 70
0
  0
VERTEX
  5
EA6
  8
0
 10
49.28
 20
74.7
 30
0.0
 70
0
  0
VERTEX
  5
EA7
  8
0
 10
49.279
 20
74.7
 30
0.0
 70
0
  0
VERTEX
  5
EA8
  8
0
 10
49.278
 20
74.7
 30
0.0
 70
0
  0
VERTEX
  5
EA9
  8
0
 10
49.277
 20
74.7
 30
0.0
 70
0
  0
VERTEX
  5
EAA
  8
0
 10
49.276
 20
74.7
 30
0.0
 70
0
  0
VERTEX
  5
EAB
  8
0
 10
49.275
 20
74.7
 30
0.0
 70
0
  0
VERTEX
  5
EAC
  8
0
 10
49.274
 20
74.7
 30
0.0
 70
0
  0
VERTEX
  5
EAD
  8
0
 10
49.273
 20
74.7
 30
0.0
 70
0
  0
VERTEX
  5
EAE
  8
0
 10
49.272
 20
74.7
 30
0.0
 70
0
  0
VERTEX
  5
EAF
  8
0
 10
49.271
 20
74.7
 30
0.0
 70
0
  0
VERTEX
  5
EB0
  8
0
 10
49.27
 20
74.7
 30
0.0
 70
0
  0
VERTEX
  5
EB1
  8
0
 10
49.269
 20
74.7
 30
0.0
 70
0
  0
VERTEX
  5
EB2
  8
0
 10
49.268
 20
74.7
 30
0.0
 70
0
  0
VERTEX
  5
EB3
  8
0
 10
49.267
 20
74.7
 30
0.0
 70
0
  0
VERTEX
  5
EB4
  8
0
 10
49.268
 20
74.7
 30
0.0
 70
0
  0
VERTEX
  5
EB5
  8
0
 10
49.269
 20
74.7
 30
0.0
 70
0
  0
VERTEX
  5
EB6
  8
0
 10
49.27
 20
74.7
 30
0.0
 70
0
  0
VERTEX
  5
EB7
  8
0
 10
49.271
 20
74.7
 30
0.0
 70
0
  0
VERTEX
  5
EB8
  8
0
 10
49.272
 20
74.7
 30
0.0
 70
0
  0
VERTEX
  5
EB9
  8
0
 10
49.273
 20
74.7
 30
0.0
 70
0
  0
VERTEX
  5
EBA
  8
0
 10
49.274
 20
74.7
 30
0.0
 70
0
  0
VERTEX
  5
EBB
  8
0
 10
49.275
 20
74.7
 30
0.0
 70
0
  0
VERTEX
  5
EBC
  8
0
 10
49.276
 20
74.7
 30
0.0
 70
0
  0
VERTEX
  5
EBD
  8
0
 10
49.277
 20
74.7
 30
0.0
 70
0
  0
VERTEX
  5
EBE
  8
0
 10
49.278
 20
74.7
 30
0.0
 70
0
  0
VERTEX
  5
EBF
  8
0
 10
49.279
 20
74.7
 30
0.0
 70
0
  0
VERTEX
  5
EC0
  8
0
 10
49.28
 20
74.7
 30
0.0
 70
0
  0
VERTEX
  5
EC1
  8
0
 10
49.281
 20
74.7
 30
0.0
 70
0
  0
VERTEX
  5
EC2
  8
0
 10
49.282
 20
74.7
 30
0.0
 70
0
  0
VERTEX
  5
EC3
  8
0
 10
49.283
 20
74.7
 30
0.0
 70
0
  0
VERTEX
  5
EC4
  8
0
 10
49.284
 20
74.7
 30
0.0
 70
0
  0
VERTEX
  5
EC5
  8
0
 10
49.285
 20
74.7
 30
0.0
 70
0
  0
VERTEX
  5
EC6
  8
0
 10
49.286
 20
74.7
 30
0.0
 70
0
  0
VERTEX
  5
EC7
  8
0
 10
49.287
 20
74.7
 30
0.0
 70
0
  0
VERTEX
  5
EC8
  8
0
 10
49.288
 20
74.7
 30
0.0
 70
0
  0
VERTEX
  5
EC9
  8
0
 10
49.289
 20
74.7
 30
0.0
 70
0
  0
VERTEX
  5
ECA
  8
0
 10
49.29
 20
74.7
 30
0.0
 70
0
  0
VERTEX
  5
ECB
  8
0
 10
49.291
 20
74.7
 30
0.0
 70
0
  0
VERTEX
  5
ECC
  8
0
 10
49.292
 20
74.7
 30
0.0
 70
0
  0
VERTEX
  5
ECD
  8
0
 10
49.293
 20
74.7
 30
0.0
 70
0
  0
VERTEX
  5
ECE
  8
0
 10
49.294
 20
74.7
 30
0.0
 70
0
  0
VERTEX
  5
ECF
  8
0
 10
49.295
 20
74.7
 30
0.0
 70
0
  0
VERTEX
  5
ED0
  8
0
 10
49.296
 20
74.7
 30
0.0
 70
0
  0
VERTEX
  5
ED1
  8
0
 10
49.297
 20
74.7
 30
0.0
 70
0
  0
VERTEX
  5
ED2
  8
0
 10
49.298
 20
74.7
 30
0.0
 70
0
  0
VERTEX
  5
ED3
  8
0
 10
49.299
 20
74.7
 30
0.0
 70
0
  0
VERTEX
  5
ED4
  8
0
 10
49.3
 20
74.7
 30
0.0
 70
0
  0
VERTEX
  5
ED5
  8
0
 10
49.301
 20
74.7
 30
0.0
 70
0
  0
VERTEX
  5
ED6
  8
0
 10
49.302
 20
74.7
 30
0.0
 70
0
  0
VERTEX
  5
ED7
  8
0
 10
49.303
 20
74.7
 30
0.0
 70
0
  0
VERTEX
  5
ED8
  8
0
 10
49.304
 20
74.7
 30
0.0
 70
0
  0
VERTEX
  5
ED9
  8
0
 10
49.305
 20
74.7
 30
0.0
 70
0
  0
VERTEX
  5
EDA
  8
0
 10
49.306
 20
74.7
 30
0.0
 70
0
  0
VERTEX
  5
EDB
  8
0
 10
49.307
 20
74.7
 30
0.0
 70
0
  0
VERTEX
  5
EDC
  8
0
 10
49.308
 20
74.7
 30
0.0
 70
0
  0
VERTEX
  5
EDD
  8
0
 10
49.309
 20
74.7
 30
0.0
 70
0
  0
VERTEX
  5
EDE
  8
0
 10
49.31
 20
74.7
 30
0.0
 70
0
  0
VERTEX
  5
EDF
  8
0
 10
49.311
 20
74.7
 30
0.0
 70
0
  0
VERTEX
  5
EE0
  8
0
 10
49.312
 20
74.7
 30
0.0
 70
0
  0
VERTEX
  5
EE1
  8
0
 10
49.313
 20
74.7
 30
0.0
 70
0
  0
VERTEX
  5
EE2
  8
0
 10
49.314
 20
74.7
 30
0.0
 70
0
  0
VERTEX
  5
EE3
  8
0
 10
49.315
 20
74.7
 30
0.0
 70
0
  0
VERTEX
  5
EE4
  8
0
 10
49.316
 20
74.7
 30
0.0
 70
0
  0
VERTEX
  5
EE5
  8
0
 10
49.317
 20
74.7
 30
0.0
 70
0
  0
VERTEX
  5
EE6
  8
0
 10
49.318
 20
74.7
 30
0.0
 70
0
  0
VERTEX
  5
EE7
  8
0
 10
49.319
 20
74.7
 30
0.0
 70
0
  0
VERTEX
  5
EE8
  8
0
 10
49.32
 20
74.7
 30
0.0
 70
0
  0
VERTEX
  5
EE9
  8
0
 10
49.321
 20
74.7
 30
0.0
 70
0
  0
VERTEX
  5
EEA
  8
0
 10
49.322
 20
74.7
 30
0.0
 70
0
  0
VERTEX
  5
EEB
  8
0
 10
49.323
 20
74.7
 30
0.0
 70
0
  0
VERTEX
  5
EEC
  8
0
 10
49.324
 20
74.7
 30
0.0
 70
0
  0
VERTEX
  5
EED
  8
0
 10
49.325
 20
74.7
 30
0.0
 70
0
  0
VERTEX
  5
EEE
  8
0
 10
49.326
 20
74.7
 30
0.0
 70
0
  0
VERTEX
  5
EEF
  8
0
 10
49.327
 20
74.7
 30
0.0
 70
0
  0
VERTEX
  5
EF0
  8
0
 10
49.328
 20
74.7
 30
0.0
 70
0
  0
VERTEX
  5
EF1
  8
0
 10
49.329
 20
74.7
 30
0.0
 70
0
  0
VERTEX
  5
EF2
  8
0
 10
49.33
 20
74.7
 30
0.0
 70
0
  0
VERTEX
  5
EF3
  8
0
 10
49.331
 20
74.7
 30
0.0
 70
0
  0
VERTEX
  5
EF4
  8
0
 10
49.332
 20
74.7
 30
0.0
 70
0
  0
VERTEX
  5
EF5
  8
0
 10
49.333
 20
74.7
 30
0.0
 70
0
  0
VERTEX
  5
EF6
  8
0
 10
49.334
 20
74.7
 30
0.0
 70
0
  0
VERTEX
  5
EF7
  8
0
 10
49.335
 20
74.7
 30
0.0
 70
0
  0
VERTEX
  5
EF8
  8
0
 10
49.336
 20
74.7
 30
0.0
 70
0
  0
VERTEX
  5
EF9
  8
0
 10
49.337
 20
74.7
 30
0.0
 70
0
  0
VERTEX
  5
EFA
  8
0
 10
49.338
 20
74.7
 30
0.0
 70
0
  0
SEQEND
  5
E6B
  8
0
  0
POLYLINE
  5
EFB
  8
0
 66
1
 10
0.0
 20
0.0
 30
0.0
 70
0
  0
VERTEX
  5
EFD
  8
0
 10
54.775
 20
69.757
 30
0.0
 70
0
  0
VERTEX
  5
EFE
  8
0
 10
54.703
 20
69.757
 30
0.0
 70
0
  0
VERTEX
  5
EFF
  8
0
 10
54.635
 20
69.757
 30
0.0
 70
0
  0
SEQEND
  5
EFC
  8
0
  0
POLYLINE
  5
F00
  8
0
 66
1
 10
0.0
 20
0.0
 30
0.0
 70
0
  0
VERTEX
  5
F02
  8
0
 10
54.846
 20
69.263
 30
0.0
 70
0
  0
VERTEX
  5
F03
  8
0
 10
54.775
 20
69.263
 30
0.0
 70
0
  0
VERTEX
  5
F04
  8
0
 10
54.703
 20
69.263
 30
0.0
 70
0
  0
VERTEX
  5
F05
  8
0
 10
54.635
 20
69.263
 30
0.0
 70
0
  0
SEQEND
  5
F01
  8
0
  0
POLYLINE
  5
F06
  8
0
 66
1
 10
0.0
 20
0.0
 30
0.0
 70
0
  0
VERTEX
  5
F08
  8
0
 10
54.492
 20
69.757
 30
0.0
 70
0
  0
VERTEX
  5
F09
  8
0
 10
54.42
 20
69.757
 30
0.0
 70
0
  0
VERTEX
  5
F0A
  8
0
 10
54.351
 20
69.757
 30
0.0
 70
0
  0
VERTEX
  5
F0B
  8
0
 10
54.28
 20
69.757
 30
0.0
 70
0
  0
SEQEND
  5
F07
  8
0
  0
POLYLINE
  5
F0C
  8
0
 66
1
 10
0.0
 20
0.0
 30
0.0
 70
0
  0
VERTEX
  5
F0E
  8
0
 10
54.492
 20
69.263
 30
0.0
 70
0
  0
VERTEX
  5
F0F
  8
0
 10
54.42
 20
69.263
 30
0.0
 70
0
  0
VERTEX
  5
F10
  8
0
 10
54.351
 20
69.263
 30
0.0
 70
0
  0
SEQEND
  5
F0D
  8
0
  0
POLYLINE
  5
F11
  8
0
 66
1
 10
0.0
 20
0.0
 30
0.0
 70
0
  0
VERTEX
  5
F13
  8
0
 10
36.343
 20
75.899
 30
0.0
 70
0
  0
VERTEX
  5
F14
  8
0
 10
36.272
 20
75.899
 30
0.0
 70
0
  0
VERTEX
  5
F15
  8
0
 10
36.272
 20
75.83
 30
0.0
 70
0
  0
SEQEND
  5
F12
  8
0
  0
POLYLINE
  5
F16
  8
0
 66
1
 10
0.0
 20
0.0
 30
0.0
 70
0
  0
VERTEX
  5
F18
  8
0
 10
36.485
 20
75.83
 30
0.0
 70
0
  0
VERTEX
  5
F19
  8
0
 10
36.485
 20
75.899
 30
0.0
 70
0
  0
VERTEX
  5
F1A
  8
0
 10
36.414
 20
75.899
 30
0.0
 70
0
  0
VERTEX
  5
F1B
  8
0
 10
36.343
 20
75.899
 30
0.0
 70
0
  0
SEQEND
  5
F17
  8
0
  0
POLYLINE
  5
F1C
  8
0
 66
1
 10
0.0
 20
0.0
 30
0.0
 70
0
  0
VERTEX
  5
F1E
  8
0
 10
36.485
 20
75.548
 30
0.0
 70
0
  0
VERTEX
  5
F1F
  8
0
 10
36.485
 20
75.619
 30
0.0
 70
0
  0
VERTEX
  5
F20
  8
0
 10
36.414
 20
75.619
 30
0.0
 70
0
  0
VERTEX
  5
F21
  8
0
 10
36.343
 20
75.619
 30
0.0
 70
0
  0
VERTEX
  5
F22
  8
0
 10
36.343
 20
75.548
 30
0.0
 70
0
  0
VERTEX
  5
F23
  8
0
 10
36.272
 20
75.548
 30
0.0
 70
0
  0
SEQEND
  5
F1D
  8
0
  0
POLYLINE
  5
F24
  8
0
 66
1
 10
0.0
 20
0.0
 30
0.0
 70
0
  0
VERTEX
  5
F26
  8
0
 10
49.833
 20
70.534
 30
0.0
 70
0
  0
VERTEX
  5
F27
  8
0
 10
49.901
 20
70.534
 30
0.0
 70
0
  0
VERTEX
  5
F28
  8
0
 10
49.901
 20
70.603
 30
0.0
 70
0
  0
VERTEX
  5
F29
  8
0
 10
49.972
 20
70.603
 30
0.0
 70
0
  0
SEQEND
  5
F25
  8
0
  0
POLYLINE
  5
F2A
  8
0
 66
1
 10
0.0
 20
0.0
 30
0.0
 70
0
  0
VERTEX
  5
F2C
  8
0
 10
49.761
 20
70.603
 30
0.0
 70
0
  0
VERTEX
  5
F2D
  8
0
 10
49.761
 20
70.534
 30
0.0
 70
0
  0
VERTEX
  5
F2E
  8
0
 10
49.833
 20
70.534
 30
0.0
 70
0
  0
SEQEND
  5
F2B
  8
0
  0
POLYLINE
  5
F2F
  8
0
 66
1
 10
0.0
 20
0.0
 30
0.0
 70
0
  0
VERTEX
  5
F31
  8
0
 10
31.046
 20
71.168
 30
0.0
 70
0
  0
VERTEX
  5
F32
  8
0
 10
31.117
 20
71.168
 30
0.0
 70
0
  0
VERTEX
  5
F33
  8
0
 10
31.189
 20
71.24
 30
0.0
 70
0
  0
VERTEX
  5
F34
  8
0
 10
31.258
 20
71.24
 30
0.0
 70
0
  0
VERTEX
  5
F35
  8
0
 10
31.329
 20
71.24
 30
0.0
 70
0
  0
VERTEX
  5
F36
  8
0
 10
31.4
 20
71.24
 30
0.0
 70
0
  0
VERTEX
  5
F37
  8
0
 10
31.469
 20
71.24
 30
0.0
 70
0
  0
VERTEX
  5
F38
  8
0
 10
31.612
 20
71.24
 30
0.0
 70
0
  0
VERTEX
  5
F39
  8
0
 10
31.683
 20
71.24
 30
0.0
 70
0
  0
VERTEX
  5
F3A
  8
0
 10
31.823
 20
71.24
 30
0.0
 70
0
  0
VERTEX
  5
F3B
  8
0
 10
31.823
 20
71.168
 30
0.0
 70
0
  0
SEQEND
  5
F30
  8
0
  0
POLYLINE
  5
F3C
  8
0
 66
1
 10
0.0
 20
0.0
 30
0.0
 70
0
  0
VERTEX
  5
F3E
  8
0
 10
36.202
 20
75.265
 30
0.0
 70
0
  0
VERTEX
  5
F3F
  8
0
 10
36.131
 20
75.265
 30
0.0
 70
0
  0
VERTEX
  5
F40
  8
0
 10
36.131
 20
75.122
 30
0.0
 70
0
  0
SEQEND
  5
F3D
  8
0
  0
POLYLINE
  5
F41
  8
0
 66
1
 10
0.0
 20
0.0
 30
0.0
 70
0
  0
VERTEX
  5
F43
  8
0
 10
37.474
 20
74.134
 30
0.0
 70
0
  0
VERTEX
  5
F44
  8
0
 10
37.402
 20
74.134
 30
0.0
 70
0
  0
VERTEX
  5
F45
  8
0
 10
37.331
 20
74.134
 30
0.0
 70
0
  0
VERTEX
  5
F46
  8
0
 10
37.331
 20
74.205
 30
0.0
 70
0
  0
VERTEX
  5
F47
  8
0
 10
37.26
 20
74.205
 30
0.0
 70
0
  0
SEQEND
  5
F42
  8
0
  0
POLYLINE
  5
F48
  8
0
 66
1
 10
0.0
 20
0.0
 30
0.0
 70
0
  0
VERTEX
  5
F4A
  8
0
 10
37.685
 20
74.771
 30
0.0
 70
0
  0
VERTEX
  5
F4B
  8
0
 10
37.685
 20
74.699
 30
0.0
 70
0
  0
VERTEX
  5
F4C
  8
0
 10
37.754
 20
74.699
 30
0.0
 70
0
  0
VERTEX
  5
F4D
  8
0
 10
37.754
 20
74.628
 30
0.0
 70
0
  0
VERTEX
  5
F4E
  8
0
 10
37.825
 20
74.628
 30
0.0
 70
0
  0
VERTEX
  5
F4F
  8
0
 10
37.825
 20
74.205
 30
0.0
 70
0
  0
VERTEX
  5
F50
  8
0
 10
37.754
 20
74.205
 30
0.0
 70
0
  0
VERTEX
  5
F51
  8
0
 10
37.685
 20
74.134
 30
0.0
 70
0
  0
SEQEND
  5
F49
  8
0
  0
POLYLINE
  5
F52
  8
0
 66
1
 10
0.0
 20
0.0
 30
0.0
 70
0
  0
VERTEX
  5
F54
  8
0
 10
37.614
 20
74.065
 30
0.0
 70
0
  0
VERTEX
  5
F55
  8
0
 10
37.543
 20
73.994
 30
0.0
 70
0
  0
VERTEX
  5
F56
  8
0
 10
37.474
 20
73.994
 30
0.0
 70
0
  0
VERTEX
  5
F57
  8
0
 10
37.402
 20
73.994
 30
0.0
 70
0
  0
VERTEX
  5
F58
  8
0
 10
37.331
 20
73.994
 30
0.0
 70
0
  0
VERTEX
  5
F59
  8
0
 10
37.331
 20
74.065
 30
0.0
 70
0
  0
VERTEX
  5
F5A
  8
0
 10
37.26
 20
74.065
 30
0.0
 70
0
  0
VERTEX
  5
F5B
  8
0
 10
37.191
 20
74.065
 30
0.0
 70
0
  0
VERTEX
  5
F5C
  8
0
 10
37.191
 20
74.134
 30
0.0
 70
0
  0
SEQEND
  5
F53
  8
0
  0
POLYLINE
  5
F5D
  8
0
 66
1
 10
0.0
 20
0.0
 30
0.0
 70
0
  0
VERTEX
  5
F5F
  8
0
 10
37.474
 20
74.699
 30
0.0
 70
0
  0
VERTEX
  5
F60
  8
0
 10
37.543
 20
74.699
 30
0.0
 70
0
  0
VERTEX
  5
F61
  8
0
 10
37.614
 20
74.699
 30
0.0
 70
0
  0
SEQEND
  5
F5E
  8
0
  0
POLYLINE
  5
F62
  8
0
 66
1
 10
0.0
 20
0.0
 30
0.0
 70
0
  0
VERTEX
  5
F64
  8
0
 10
37.614
 20
74.205
 30
0.0
 70
0
  0
VERTEX
  5
F65
  8
0
 10
37.543
 20
74.205
 30
0.0
 70
0
  0
VERTEX
  5
F66
  8
0
 10
37.543
 20
74.134
 30
0.0
 70
0
  0
VERTEX
  5
F67
  8
0
 10
37.474
 20
74.134
 30
0.0
 70
0
  0
SEQEND
  5
F63
  8
0
  0
POLYLINE
  5
F68
  8
0
 66
1
 10
0.0
 20
0.0
 30
0.0
 70
0
  0
VERTEX
  5
F6A
  8
0
 10
36.697
 20
75.053
 30
0.0
 70
0
  0
VERTEX
  5
F6B
  8
0
 10
36.698
 20
75.053
 30
0.0
 70
0
  0
VERTEX
  5
F6C
  8
0
 10
36.699
 20
75.053
 30
0.0
 70
0
  0
VERTEX
  5
F6D
  8
0
 10
36.7
 20
75.053
 30
0.0
 70
0
  0
VERTEX
  5
F6E
  8
0
 10
36.701
 20
75.053
 30
0.0
 70
0
  0
VERTEX
  5
F6F
  8
0
 10
36.702
 20
75.053
 30
0.0
 70
0
  0
VERTEX
  5
F70
  8
0
 10
36.703
 20
75.053
 30
0.0
 70
0
  0
VERTEX
  5
F71
  8
0
 10
36.704
 20
75.053
 30
0.0
 70
0
  0
VERTEX
  5
F72
  8
0
 10
36.705
 20
75.053
 30
0.0
 70
0
  0
VERTEX
  5
F73
  8
0
 10
36.706
 20
75.053
 30
0.0
 70
0
  0
VERTEX
  5
F74
  8
0
 10
36.707
 20
75.053
 30
0.0
 70
0
  0
VERTEX
  5
F75
  8
0
 10
36.708
 20
75.053
 30
0.0
 70
0
  0
VERTEX
  5
F76
  8
0
 10
36.709
 20
75.053
 30
0.0
 70
0
  0
VERTEX
  5
F77
  8
0
 10
36.71
 20
75.053
 30
0.0
 70
0
  0
VERTEX
  5
F78
  8
0
 10
36.711
 20
75.053
 30
0.0
 70
0
  0
VERTEX
  5
F79
  8
0
 10
36.712
 20
75.053
 30
0.0
 70
0
  0
VERTEX
  5
F7A
  8
0
 10
36.713
 20
75.053
 30
0.0
 70
0
  0
VERTEX
  5
F7B
  8
0
 10
36.714
 20
75.053
 30
0.0
 70
0
  0
VERTEX
  5
F7C
  8
0
 10
36.715
 20
75.053
 30
0.0
 70
0
  0
VERTEX
  5
F7D
  8
0
 10
36.716
 20
75.053
 30
0.0
 70
0
  0
VERTEX
  5
F7E
  8
0
 10
36.717
 20
75.053
 30
0.0
 70
0
  0
VERTEX
  5
F7F
  8
0
 10
36.718
 20
75.053
 30
0.0
 70
0
  0
VERTEX
  5
F80
  8
0
 10
36.719
 20
75.053
 30
0.0
 70
0
  0
VERTEX
  5
F81
  8
0
 10
36.72
 20
75.053
 30
0.0
 70
0
  0
VERTEX
  5
F82
  8
0
 10
36.721
 20
75.053
 30
0.0
 70
0
  0
VERTEX
  5
F83
  8
0
 10
36.722
 20
75.053
 30
0.0
 70
0
  0
VERTEX
  5
F84
  8
0
 10
36.723
 20
75.053
 30
0.0
 70
0
  0
VERTEX
  5
F85
  8
0
 10
36.724
 20
75.053
 30
0.0
 70
0
  0
VERTEX
  5
F86
  8
0
 10
36.725
 20
75.053
 30
0.0
 70
0
  0
VERTEX
  5
F87
  8
0
 10
36.726
 20
75.053
 30
0.0
 70
0
  0
VERTEX
  5
F88
  8
0
 10
36.727
 20
75.053
 30
0.0
 70
0
  0
VERTEX
  5
F89
  8
0
 10
36.728
 20
75.053
 30
0.0
 70
0
  0
VERTEX
  5
F8A
  8
0
 10
36.729
 20
75.053
 30
0.0
 70
0
  0
VERTEX
  5
F8B
  8
0
 10
36.73
 20
75.053
 30
0.0
 70
0
  0
VERTEX
  5
F8C
  8
0
 10
36.731
 20
75.053
 30
0.0
 70
0
  0
VERTEX
  5
F8D
  8
0
 10
36.732
 20
75.053
 30
0.0
 70
0
  0
VERTEX
  5
F8E
  8
0
 10
36.733
 20
75.053
 30
0.0
 70
0
  0
VERTEX
  5
F8F
  8
0
 10
36.734
 20
75.053
 30
0.0
 70
0
  0
VERTEX
  5
F90
  8
0
 10
36.735
 20
75.053
 30
0.0
 70
0
  0
VERTEX
  5
F91
  8
0
 10
36.736
 20
75.053
 30
0.0
 70
0
  0
VERTEX
  5
F92
  8
0
 10
36.737
 20
75.053
 30
0.0
 70
0
  0
VERTEX
  5
F93
  8
0
 10
36.738
 20
75.053
 30
0.0
 70
0
  0
VERTEX
  5
F94
  8
0
 10
36.739
 20
75.053
 30
0.0
 70
0
  0
VERTEX
  5
F95
  8
0
 10
36.74
 20
75.053
 30
0.0
 70
0
  0
VERTEX
  5
F96
  8
0
 10
36.741
 20
75.053
 30
0.0
 70
0
  0
VERTEX
  5
F97
  8
0
 10
36.742
 20
75.053
 30
0.0
 70
0
  0
VERTEX
  5
F98
  8
0
 10
36.743
 20
75.053
 30
0.0
 70
0
  0
VERTEX
  5
F99
  8
0
 10
36.744
 20
75.053
 30
0.0
 70
0
  0
VERTEX
  5
F9A
  8
0
 10
36.745
 20
75.053
 30
0.0
 70
0
  0
VERTEX
  5
F9B
  8
0
 10
36.746
 20
75.053
 30
0.0
 70
0
  0
VERTEX
  5
F9C
  8
0
 10
36.747
 20
75.053
 30
0.0
 70
0
  0
VERTEX
  5
F9D
  8
0
 10
36.748
 20
75.053
 30
0.0
 70
0
  0
VERTEX
  5
F9E
  8
0
 10
36.749
 20
75.053
 30
0.0
 70
0
  0
VERTEX
  5
F9F
  8
0
 10
36.75
 20
75.053
 30
0.0
 70
0
  0
VERTEX
  5
FA0
  8
0
 10
36.751
 20
75.053
 30
0.0
 70
0
  0
VERTEX
  5
FA1
  8
0
 10
36.752
 20
75.053
 30
0.0
 70
0
  0
VERTEX
  5
FA2
  8
0
 10
36.753
 20
75.053
 30
0.0
 70
0
  0
VERTEX
  5
FA3
  8
0
 10
36.754
 20
75.053
 30
0.0
 70
0
  0
VERTEX
  5
FA4
  8
0
 10
36.755
 20
75.053
 30
0.0
 70
0
  0
VERTEX
  5
FA5
  8
0
 10
36.756
 20
75.053
 30
0.0
 70
0
  0
VERTEX
  5
FA6
  8
0
 10
36.757
 20
75.053
 30
0.0
 70
0
  0
VERTEX
  5
FA7
  8
0
 10
36.758
 20
75.053
 30
0.0
 70
0
  0
VERTEX
  5
FA8
  8
0
 10
36.759
 20
75.053
 30
0.0
 70
0
  0
VERTEX
  5
FA9
  8
0
 10
36.76
 20
75.053
 30
0.0
 70
0
  0
VERTEX
  5
FAA
  8
0
 10
36.761
 20
75.053
 30
0.0
 70
0
  0
VERTEX
  5
FAB
  8
0
 10
36.762
 20
75.053
 30
0.0
 70
0
  0
VERTEX
  5
FAC
  8
0
 10
36.763
 20
75.053
 30
0.0
 70
0
  0
VERTEX
  5
FAD
  8
0
 10
36.764
 20
75.053
 30
0.0
 70
0
  0
VERTEX
  5
FAE
  8
0
 10
36.765
 20
75.053
 30
0.0
 70
0
  0
VERTEX
  5
FAF
  8
0
 10
36.764
 20
75.053
 30
0.0
 70
0
  0
VERTEX
  5
FB0
  8
0
 10
36.763
 20
75.053
 30
0.0
 70
0
  0
VERTEX
  5
FB1
  8
0
 10
36.762
 20
75.053
 30
0.0
 70
0
  0
VERTEX
  5
FB2
  8
0
 10
36.761
 20
75.053
 30
0.0
 70
0
  0
VERTEX
  5
FB3
  8
0
 10
36.76
 20
75.053
 30
0.0
 70
0
  0
VERTEX
  5
FB4
  8
0
 10
36.759
 20
75.053
 30
0.0
 70
0
  0
VERTEX
  5
FB5
  8
0
 10
36.758
 20
75.053
 30
0.0
 70
0
  0
VERTEX
  5
FB6
  8
0
 10
36.757
 20
75.053
 30
0.0
 70
0
  0
VERTEX
  5
FB7
  8
0
 10
36.756
 20
75.053
 30
0.0
 70
0
  0
VERTEX
  5
FB8
  8
0
 10
36.755
 20
75.053
 30
0.0
 70
0
  0
VERTEX
  5
FB9
  8
0
 10
36.754
 20
75.053
 30
0.0
 70
0
  0
VERTEX
  5
FBA
  8
0
 10
36.753
 20
75.053
 30
0.0
 70
0
  0
VERTEX
  5
FBB
  8
0
 10
36.752
 20
75.053
 30
0.0
 70
0
  0
VERTEX
  5
FBC
  8
0
 10
36.751
 20
75.053
 30
0.0
 70
0
  0
VERTEX
  5
FBD
  8
0
 10
36.75
 20
75.053
 30
0.0
 70
0
  0
VERTEX
  5
FBE
  8
0
 10
36.749
 20
75.053
 30
0.0
 70
0
  0
VERTEX
  5
FBF
  8
0
 10
36.748
 20
75.053
 30
0.0
 70
0
  0
VERTEX
  5
FC0
  8
0
 10
36.747
 20
75.053
 30
0.0
 70
0
  0
VERTEX
  5
FC1
  8
0
 10
36.746
 20
75.053
 30
0.0
 70
0
  0
VERTEX
  5
FC2
  8
0
 10
36.745
 20
75.053
 30
0.0
 70
0
  0
VERTEX
  5
FC3
  8
0
 10
36.744
 20
75.053
 30
0.0
 70
0
  0
VERTEX
  5
FC4
  8
0
 10
36.743
 20
75.053
 30
0.0
 70
0
  0
VERTEX
  5
FC5
  8
0
 10
36.742
 20
75.053
 30
0.0
 70
0
  0
VERTEX
  5
FC6
  8
0
 10
36.741
 20
75.053
 30
0.0
 70
0
  0
VERTEX
  5
FC7
  8
0
 10
36.74
 20
75.053
 30
0.0
 70
0
  0
VERTEX
  5
FC8
  8
0
 10
36.739
 20
75.053
 30
0.0
 70
0
  0
VERTEX
  5
FC9
  8
0
 10
36.738
 20
75.053
 30
0.0
 70
0
  0
VERTEX
  5
FCA
  8
0
 10
36.737
 20
75.053
 30
0.0
 70
0
  0
VERTEX
  5
FCB
  8
0
 10
36.736
 20
75.053
 30
0.0
 70
0
  0
VERTEX
  5
FCC
  8
0
 10
36.735
 20
75.053
 30
0.0
 70
0
  0
VERTEX
  5
FCD
  8
0
 10
36.734
 20
75.053
 30
0.0
 70
0
  0
VERTEX
  5
FCE
  8
0
 10
36.733
 20
75.053
 30
0.0
 70
0
  0
VERTEX
  5
FCF
  8
0
 10
36.732
 20
75.053
 30
0.0
 70
0
  0
VERTEX
  5
FD0
  8
0
 10
36.731
 20
75.053
 30
0.0
 70
0
  0
VERTEX
  5
FD1
  8
0
 10
36.73
 20
75.053
 30
0.0
 70
0
  0
VERTEX
  5
FD2
  8
0
 10
36.729
 20
75.053
 30
0.0
 70
0
  0
VERTEX
  5
FD3
  8
0
 10
36.728
 20
75.053
 30
0.0
 70
0
  0
VERTEX
  5
FD4
  8
0
 10
36.727
 20
75.053
 30
0.0
 70
0
  0
VERTEX
  5
FD5
  8
0
 10
36.726
 20
75.053
 30
0.0
 70
0
  0
VERTEX
  5
FD6
  8
0
 10
36.725
 20
75.053
 30
0.0
 70
0
  0
VERTEX
  5
FD7
  8
0
 10
36.724
 20
75.053
 30
0.0
 70
0
  0
VERTEX
  5
FD8
  8
0
 10
36.723
 20
75.053
 30
0.0
 70
0
  0
VERTEX
  5
FD9
  8
0
 10
36.722
 20
75.053
 30
0.0
 70
0
  0
VERTEX
  5
FDA
  8
0
 10
36.721
 20
75.053
 30
0.0
 70
0
  0
VERTEX
  5
FDB
  8
0
 10
36.72
 20
75.053
 30
0.0
 70
0
  0
VERTEX
  5
FDC
  8
0
 10
36.719
 20
75.053
 30
0.0
 70
0
  0
VERTEX
  5
FDD
  8
0
 10
36.718
 20
75.053
 30
0.0
 70
0
  0
VERTEX
  5
FDE
  8
0
 10
36.717
 20
75.053
 30
0.0
 70
0
  0
VERTEX
  5
FDF
  8
0
 10
36.716
 20
75.053
 30
0.0
 70
0
  0
VERTEX
  5
FE0
  8
0
 10
36.715
 20
75.053
 30
0.0
 70
0
  0
VERTEX
  5
FE1
  8
0
 10
36.714
 20
75.053
 30
0.0
 70
0
  0
VERTEX
  5
FE2
  8
0
 10
36.713
 20
75.053
 30
0.0
 70
0
  0
VERTEX
  5
FE3
  8
0
 10
36.712
 20
75.053
 30
0.0
 70
0
  0
VERTEX
  5
FE4
  8
0
 10
36.711
 20
75.053
 30
0.0
 70
0
  0
VERTEX
  5
FE5
  8
0
 10
36.71
 20
75.053
 30
0.0
 70
0
  0
VERTEX
  5
FE6
  8
0
 10
36.709
 20
75.053
 30
0.0
 70
0
  0
VERTEX
  5
FE7
  8
0
 10
36.708
 20
75.053
 30
0.0
 70
0
  0
VERTEX
  5
FE8
  8
0
 10
36.707
 20
75.053
 30
0.0
 70
0
  0
VERTEX
  5
FE9
  8
0
 10
36.706
 20
75.053
 30
0.0
 70
0
  0
VERTEX
  5
FEA
  8
0
 10
36.705
 20
75.053
 30
0.0
 70
0
  0
VERTEX
  5
FEB
  8
0
 10
36.704
 20
75.053
 30
0.0
 70
0
  0
VERTEX
  5
FEC
  8
0
 10
36.703
 20
75.053
 30
0.0
 70
0
  0
VERTEX
  5
FED
  8
0
 10
36.702
 20
75.053
 30
0.0
 70
0
  0
VERTEX
  5
FEE
  8
0
 10
36.701
 20
75.053
 30
0.0
 70
0
  0
VERTEX
  5
FEF
  8
0
 10
36.7
 20
75.053
 30
0.0
 70
0
  0
VERTEX
  5
FF0
  8
0
 10
36.699
 20
75.053
 30
0.0
 70
0
  0
VERTEX
  5
FF1
  8
0
 10
36.698
 20
75.053
 30
0.0
 70
0
  0
VERTEX
  5
FF2
  8
0
 10
36.697
 20
75.053
 30
0.0
 70
0
  0
SEQEND
  5
F69
  8
0
  0
POLYLINE
  5
FF3
  8
0
 66
1
 10
0.0
 20
0.0
 30
0.0
 70
0
  0
VERTEX
  5
FF5
  8
0
 10
36.697
 20
75.053
 30
0.0
 70
0
  0
VERTEX
  5
FF6
  8
0
 10
36.697
 20
74.982
 30
0.0
 70
0
  0
VERTEX
  5
FF7
  8
0
 10
36.625
 20
74.982
 30
0.0
 70
0
  0
VERTEX
  5
FF8
  8
0
 10
36.625
 20
74.911
 30
0.0
 70
0
  0
SEQEND
  5
FF4
  8
0
  0
POLYLINE
  5
FF9
  8
0
 66
1
 10
0.0
 20
0.0
 30
0.0
 70
0
  0
VERTEX
  5
FFB
  8
0
 10
37.543
 20
74.842
 30
0.0
 70
0
  0
VERTEX
  5
FFC
  8
0
 10
37.543
 20
74.771
 30
0.0
 70
0
  0
VERTEX
  5
FFD
  8
0
 10
37.474
 20
74.771
 30
0.0
 70
0
  0
VERTEX
  5
FFE
  8
0
 10
37.474
 20
74.699
 30
0.0
 70
0
  0
SEQEND
  5
FFA
  8
0
  0
POLYLINE
  5
FFF
  8
0
 66
1
 10
0.0
 20
0.0
 30
0.0
 70
0
  0
VERTEX
  5
1001
  8
0
 10
37.191
 20
74.134
 30
0.0
 70
0
  0
VERTEX
  5
1002
  8
0
 10
37.191
 20
74.205
 30
0.0
 70
0
  0
VERTEX
  5
1003
  8
0
 10
37.26
 20
74.205
 30
0.0
 70
0
  0
SEQEND
  5
1000
  8
0
  0
POLYLINE
  5
1004
  8
0
 66
1
 10
0.0
 20
0.0
 30
0.0
 70
0
  0
VERTEX
  5
1006
  8
0
 10
36.131
 20
75.122
 30
0.0
 70
0
  0
VERTEX
  5
1007
  8
0
 10
36.131
 20
75.194
 30
0.0
 70
0
  0
VERTEX
  5
1008
  8
0
 10
36.202
 20
75.194
 30
0.0
 70
0
  0
VERTEX
  5
1009
  8
0
 10
36.202
 20
75.265
 30
0.0
 70
0
  0
SEQEND
  5
1005
  8
0
  0
POLYLINE
  5
100A
  8
0
 66
1
 10
0.0
 20
0.0
 30
0.0
 70
0
  0
VERTEX
  5
100C
  8
0
 10
48.913
 20
75.405
 30
0.0
 70
0
  0
VERTEX
  5
100D
  8
0
 10
48.913
 20
75.336
 30
0.0
 70
0
  0
VERTEX
  5
100E
  8
0
 10
48.844
 20
75.336
 30
0.0
 70
0
  0
SEQEND
  5
100B
  8
0
  0
POLYLINE
  5
100F
  8
0
 66
1
 10
0.0
 20
0.0
 30
0.0
 70
0
  0
VERTEX
  5
1011
  8
0
 10
59.86
 20
75.688
 30
0.0
 70
0
  0
VERTEX
  5
1012
  8
0
 10
59.86
 20
75.759
 30
0.0
 70
0
  0
VERTEX
  5
1013
  8
0
 10
59.86
 20
75.83
 30
0.0
 70
0
  0
SEQEND
  5
1010
  8
0
  0
POLYLINE
  5
1014
  8
0
 66
1
 10
0.0
 20
0.0
 30
0.0
 70
0
  0
VERTEX
  5
1016
  8
0
 10
48.844
 20
75.476
 30
0.0
 70
0
  0
VERTEX
  5
1017
  8
0
 10
48.913
 20
75.476
 30
0.0
 70
0
  0
VERTEX
  5
1018
  8
0
 10
48.913
 20
75.405
 30
0.0
 70
0
  0
SEQEND
  5
1015
  8
0
  0
TEXT
  5
1019
  8
0
 10
0.0
 20
10.0
 30
0.0
 40
3.0
  1
三菱 EL-S13000N/K AHN+EL-XAM002/K
 11
0.0
 21
10.0
 31
0.0
  0
TEXT
  5
101A
  8
0
 10
0.0
 20
95.0
 30
0.0
 40
3.0
  1
LEDｸﾗｽ1300 投光器
 11
0.0
 21
95.0
 31
0.0
  0
TEXT
  5
101B
  8
0
 10
50.0
 20
35.0
 30
0.0
 40
1.5
  1
小形投光器 昼白色（5000K)　Ra75
 11
50.0
 21
35.0
 31
0.0
  0
TEXT
  5
101C
  8
0
 10
50.0
 20
32.0
 30
0.0
 40
1.5
  1
100V～242V共用タイプ
 11
50.0
 21
32.0
 31
0.0
  0
TEXT
  5
101D
  8
0
 10
50.0
 20
29.0
 30
0.0
 40
1.5
  1
本体：アルミダイカスト黒色塗装
 11
50.0
 21
29.0
 31
0.0
  0
TEXT
  5
101E
  8
0
 10
50.0
 20
26.0
 30
0.0
 40
1.5
  1
光源寿命：60,000時間（光束維持率70％）
 11
50.0
 21
26.0
 31
0.0
  0
TEXT
  5
101F
  8
0
 10
50.0
 20
23.0
 30
0.0
 40
1.5
  1
光束：12500lm 消費電力：96W 消費効率：130.2lm/W
 11
50.0
 21
23.0
 31
0.0
  0
VIEWPORT
  5
76
 67
1
  8
0
 10
128.5
 20
97.5
 30
0.0
 40
314.226
 41
222.18
 68
1
 69
1
1001
ACAD
1000
MVIEW
1002
{
1070
16
1010
0.0
1020
0.0
1030
0.0
1010
0.0
1020
0.0
1030
0.0
1040
0
1040
1
1040
0.0
1040
0.0
1040
50
1040
0
1040
0
1070
0
1070
100
1070
0
1070
0
1070
0
1070
0
1070
0
1070
0
1040
0
1040
0.0
1040
0.0
1040
10.0
1040
10.0
1040
10.0
1040
10.0
1070
0
1002
{
1002
}
1002
}
  0
ENDSEC
  0
EOF
