  0
SECTION
  2
HEADER
  9
$ACADVER
  1
AC1009
  9
$DWGCODEPAGE
  3
ANSI_932
  9
$INSBASE
 10
0.0
 20
0.0
 30
0.0
  9
$EXTMIN
 10
0
 20
0
 30
0
  9
$EXTMAX
 10
0
 20
0
 30
0
  9
$LIMMIN
 10
0.0
 20
0.0
  9
$LIMMAX
 10
420.0
 20
297.0
  9
$ORTHOMODE
 70
0
  9
$REGENMODE
 70
1
  9
$FILLMODE
 70
1
  9
$DRAGMODE
 70
2
  9
$QTEXTMODE
 70
0
  9
$MIRRTEXT
 70
1
  9
$OSMODE
 70
37
  9
$LTSCALE
 40
25.4
  9
$ATTMODE
 70
1
  9
$TEXTSIZE
 40
0.2
  9
$TRACEWID
 40
1.0
  9
$TEXTSTYLE
  7
STANDARD
  9
$CLAYER
  8
__
  9
$CELTYPE
  6
BYLAYER
  9
$CECOLOR
 62
256
  9
$DIMSCALE
 40
1.0
  9
$DIMASZ
 40
0.18
  9
$DIMEXO
 40
0.0625
  9
$DIMDLI
 40
0.38
  9
$DIMRND
 40
0.0
  9
$DIMDLE
 40
0.0
  9
$DIMEXE
 40
0.18
  9
$DIMTP
 40
0.0
  9
$DIMTM
 40
0.0
  9
$DIMTXT
 40
0.18
  9
$DIMCEN
 40
0.09
  9
$DIMTSZ
 40
0.0
  9
$DIMTOL
 70
0
  9
$DIMLIM
 70
0
  9
$DIMTIH
 70
1
  9
$DIMTOH
 70
1
  9
$DIMSE1
 70
0
  9
$DIMSE2
 70
0
  9
$DIMTAD
 70
0
  9
$DIMZIN
 70
0
  9
$DIMBLK
  1

  9
$DIMASO
 70
1
  9
$DIMSHO
 70
1
  9
$DIMPOST
  1

  9
$DIMAPOST
  1

  9
$DIMALT
 70
0
  9
$DIMALTD
 70
2
  9
$DIMALTF
 40
25.4
  9
$DIMLFAC
 40
1.0
  9
$DIMTOFL
 70
0
  9
$DIMTVP
 40
0.0
  9
$DIMTIX
 70
0
  9
$DIMSOXD
 70
0
  9
$DIMSAH
 70
0
  9
$DIMBLK1
  1

  9
$DIMBLK2
  1

  9
$DIMSTYLE
  2
STANDARD
  9
$DIMCLRD
 70
0
  9
$DIMCLRE
 70
0
  9
$DIMCLRT
 70
0
  9
$DIMTFAC
 40
1.0
  9
$DIMGAP
 40
0.09
  9
$COORDS
 70
1
  9
$ATTDIA
 70
0
  9
$ATTREQ
 70
1
  9
$HANDLING
 70
1
  9
$LUNITS
 70
2
  9
$LUPREC
 70
2
  9
$SKETCHINC
 40
0.1
  9
$FILLETRAD
 40
0.5
  9
$AUNITS
 70
0
  9
$AUPREC
 70
2
  9
$MENU
  1
.
  9
$ELEVATION
 40
0.0
  9
$PELEVATION
 40
0.0
  9
$THICKNESS
 40
0.0
  9
$LIMCHECK
 70
0
  9
$CHAMFERA
 40
0.0
  9
$CHAMFERB
 40
0.0
  9
$SKPOLY
 70
0
  9
$TDCREATE
 40
2460371.4985763887
  9
$TDUPDATE
 40
2460371.4985763887
  9
$TDINDWG
 40
1.16e-08
  9
$TDUSRTIMER
 40
1.16e-08
  9
$USRTIMER
 70
1
  9
$ANGBASE
 50
0.0
  9
$ANGDIR
 70
0
  9
$PDMODE
 70
1
  9
$PDSIZE
 40
-2.0
  9
$PLINEWID
 40
0.0
  9
$SPLFRAME
 70
0
  9
$SPLINETYPE
 70
6
  9
$SPLINESEGS
 70
8
  9
$HANDSEED
  5
D4C
  9
$SURFTAB1
 70
6
  9
$SURFTAB2
 70
6
  9
$SURFTYPE
 70
6
  9
$SURFU
 70
6
  9
$SURFV
 70
6
  9
$UCSNAME
  2

  9
$UCSORG
 10
0.0
 20
0.0
 30
0.0
  9
$UCSXDIR
 10
1.0
 20
0.0
 30
0.0
  9
$UCSYDIR
 10
0.0
 20
1.0
 30
0.0
  9
$PUCSNAME
  2

  9
$PUCSORG
 10
0.0
 20
0.0
 30
0.0
  9
$PUCSXDIR
 10
1.0
 20
0.0
 30
0.0
  9
$PUCSYDIR
 10
0.0
 20
1.0
 30
0.0
  9
$USERI1
 70
0
  9
$USERI2
 70
0
  9
$USERI3
 70
0
  9
$USERI4
 70
0
  9
$USERI5
 70
0
  9
$USERR1
 40
0.0
  9
$USERR2
 40
0.0
  9
$USERR3
 40
0.0
  9
$USERR4
 40
0.0
  9
$USERR5
 40
0.0
  9
$WORLDVIEW
 70
1
  9
$SHADEDGE
 70
3
  9
$SHADEDIF
 70
70
  9
$TILEMODE
 70
1
  9
$MAXACTVP
 70
64
  9
$PLIMCHECK
 70
0
  9
$PEXTMIN
 10
1e+20
 20
1e+20
 30
1e+20
  9
$PEXTMAX
 10
-1e+20
 20
-1e+20
 30
-1e+20
  9
$PLIMMIN
 10
0.0
 20
0.0
  9
$PLIMMAX
 10
420.0
 20
297.0
  9
$UNITMODE
 70
0
  9
$VISRETAIN
 70
1
  9
$PLINEGEN
 70
0
  9
$PSLTSCALE
 70
1
  0
ENDSEC
  0
SECTION
  2
TABLES
  0
TABLE
  2
VPORT
 70
1
  0
VPORT
  5
81
  2
*ACTIVE
 70
0
 10
0.0
 20
0.0
 11
1.0
 21
1.0
 12
0.0
 22
0.0
 13
0.0
 23
0.0
 14
0.5
 24
0.5
 15
0.5
 25
0.5
 16
0.0
 26
0.0
 36
1.0
 17
0.0
 27
0.0
 37
0.0
 40
296.9895
 41
0.7067921032000568
 42
2000.0
 43
0.0
 44
0.0
 50
0.0
 51
0.0
 71
0
 72
100
 73
1
 74
3
 75
0
 76
0
 77
0
 78
0
  0
ENDTAB
  0
TABLE
  2
LTYPE
 70
3
  0
LTYPE
  5
82
  2
CONTINUOUS
 70
0
  3
Solid line
 72
65
 73
0
 40
0.0
  0
LTYPE
  5
AB
  2
ByBlock
 70
0
  3

 72
65
 73
0
 40
0.0
  0
LTYPE
  5
AC
  2
ByLayer
 70
0
  3

 72
65
 73
0
 40
0.0
  0
ENDTAB
  0
TABLE
  2
LAYER
 70
3
  0
LAYER
  5
83
  2
0
 70
0
 62
7
  6
CONTINUOUS
  0
LAYER
  5
84
  2
__
 70
0
 62
7
  6
CONTINUOUS
  0
LAYER
  5
AD
  2
Defpoints
 70
0
 62
7
  6
Continuous
  0
ENDTAB
  0
TABLE
  2
STYLE
 70
1
  0
STYLE
  5
85
  2
STANDARD
 70
0
 40
0.0
 41
1.0
 50
0.0
 71
0
 42
0.2
  3
txt
  4
BIGFONT.SHX
  0
ENDTAB
  0
TABLE
  2
VIEW
 70
0
  0
ENDTAB
  0
TABLE
  2
UCS
 70
0
  0
ENDTAB
  0
TABLE
  2
APPID
 70
5
  0
APPID
  5
86
  2
ACAD
 70
0
  0
APPID
  5
87
  2
ACCMTRANSPARENCY
 70
0
  0
APPID
  5
88
  2
ACAECLAYERSTANDARD
 70
0
  0
APPID
  5
D4A
  2
HATCHBACKGROUNDCOLOR
 70
0
  0
APPID
  5
D4B
  2
EZDXF
 70
0
  0
ENDTAB
  0
TABLE
  2
DIMSTYLE
 70
1
  0
DIMSTYLE
105
89
  2
STANDARD
 70
0
  3

  4

  5

  6

  7

 40
1.0
 41
0.18
 42
0.0625
 43
0.38
 44
0.18
 45
0.0
 46
0.0
 47
0.0
 48
0.0
140
0.18
141
0.09
142
0.0
143
25.4
144
1.0
145
0.0
146
1.0
147
0.09
 71
0
 72
0
 73
1
 74
1
 75
0
 76
0
 77
0
 78
0
170
0
171
2
172
0
173
0
174
0
175
0
176
0
177
0
178
0
  0
ENDTAB
  0
ENDSEC
  0
SECTION
  2
BLOCKS
  0
BLOCK
  5
8A
  8
0
  2
$Model_Space
 70
0
 10
0.0
 20
0.0
 30
0.0
  3
$Model_Space
  1

1001
EZDXF
1000
WRITTEN_BY_EZDXF
1000
0.16.4 @ 2024-03-01T02:57:57.225607+00:00
  0
ENDBLK
  5
21
  8
0
  0
BLOCK
  5
8B
 67
1
  8
0
  2
$Paper_Space
 70
0
 10
0.0
 20
0.0
 30
0.0
  3
$Paper_Space
  1

  0
ENDBLK
  5
1D
 67
1
  8
0
  0
ENDSEC
  0
SECTION
  2
ENTITIES
  0
LINE
  5
AF
  8
0
 10
0.0
 20
62.184
 30
0.0
 11
0.0
 21
50.0
 31
0.0
  0
LINE
  5
B0
  8
0
 10
0.269
 20
50.813
 30
0.0
 11
0.269
 21
61.373
 31
0.0
  0
LINE
  5
B1
  8
0
 10
1.516
 20
51.084
 30
0.0
 11
1.516
 21
51.029
 31
0.0
  0
LINE
  5
B2
  8
0
 10
2.166
 20
61.047
 30
0.0
 11
2.166
 21
51.137
 31
0.0
  0
LINE
  5
B3
  8
0
 10
2.381
 20
57.691
 30
0.0
 11
2.381
 21
57.312
 31
0.0
  0
LINE
  5
B4
  8
0
 10
2.381
 20
54.874
 30
0.0
 11
2.381
 21
54.495
 31
0.0
  0
LINE
  5
B5
  8
0
 10
2.491
 20
57.636
 30
0.0
 11
2.491
 21
57.365
 31
0.0
  0
LINE
  5
B6
  8
0
 10
2.491
 20
54.819
 30
0.0
 11
2.491
 21
54.55
 31
0.0
  0
LINE
  5
B7
  8
0
 10
58.537
 20
53.466
 30
0.0
 11
58.482
 21
53.466
 31
0.0
  0
LINE
  5
B8
  8
0
 10
55.667
 20
53.034
 30
0.0
 11
55.612
 21
53.034
 31
0.0
  0
LINE
  5
B9
  8
0
 10
55.233
 20
52.924
 30
0.0
 11
55.179
 21
52.924
 31
0.0
  0
LINE
  5
BA
  8
0
 10
58.482
 20
53.466
 30
0.0
 11
58.429
 21
53.466
 31
0.0
  0
LINE
  5
BB
  8
0
 10
55.396
 20
53.358
 30
0.0
 11
55.342
 21
53.358
 31
0.0
  0
LINE
  5
BC
  8
0
 10
55.179
 20
52.924
 30
0.0
 11
55.126
 21
52.924
 31
0.0
  0
LINE
  5
BD
  8
0
 10
58.429
 20
53.466
 30
0.0
 11
58.375
 21
53.466
 31
0.0
  0
LINE
  5
BE
  8
0
 10
52.526
 20
53.466
 30
0.0
 11
52.471
 21
53.466
 31
0.0
  0
LINE
  5
BF
  8
0
 10
55.45
 20
53.358
 30
0.0
 11
55.396
 21
53.358
 31
0.0
  0
LINE
  5
C0
  8
0
 10
58.375
 20
53.466
 30
0.0
 11
58.32
 21
53.466
 31
0.0
  0
LINE
  5
C1
  8
0
 10
52.309
 20
53.466
 30
0.0
 11
52.256
 21
53.466
 31
0.0
  0
LINE
  5
C2
  8
0
 10
51.281
 20
52.871
 30
0.0
 11
51.443
 21
52.871
 31
0.0
  0
LINE
  5
C3
  8
0
 10
52.635
 20
52.924
 30
0.0
 11
54.747
 21
52.924
 31
0.0
  0
LINE
  5
C4
  8
0
 10
54.854
 20
52.924
 30
0.0
 11
55.071
 21
52.924
 31
0.0
  0
LINE
  5
C5
  8
0
 10
55.45
 20
52.924
 30
0.0
 11
55.721
 21
52.924
 31
0.0
  0
LINE
  5
C6
  8
0
 10
55.774
 20
52.924
 30
0.0
 11
57.941
 21
52.924
 31
0.0
  0
LINE
  5
C7
  8
0
 10
55.288
 20
52.924
 30
0.0
 11
55.233
 21
52.924
 31
0.0
  0
LINE
  5
C8
  8
0
 10
58.429
 20
53.358
 30
0.0
 11
55.612
 21
53.358
 31
0.0
  0
LINE
  5
C9
  8
0
 10
55.342
 20
53.358
 30
0.0
 11
55.233
 21
53.358
 31
0.0
  0
LINE
  5
CA
  8
0
 10
55.612
 20
53.358
 30
0.0
 11
55.45
 21
53.358
 31
0.0
  0
LINE
  5
CB
  8
0
 10
57.779
 20
53.466
 30
0.0
 11
52.743
 21
53.466
 31
0.0
  0
LINE
  5
CC
  8
0
 10
58.32
 20
53.466
 30
0.0
 11
58.267
 21
53.466
 31
0.0
  0
LINE
  5
CD
  8
0
 10
52.256
 20
53.466
 30
0.0
 11
52.201
 21
53.466
 31
0.0
  0
LINE
  5
CE
  8
0
 10
52.201
 20
53.466
 30
0.0
 11
52.147
 21
53.466
 31
0.0
  0
LINE
  5
CF
  8
0
 10
55.45
 20
52.924
 30
0.0
 11
55.396
 21
52.924
 31
0.0
  0
LINE
  5
D0
  8
0
 10
55.126
 20
53.358
 30
0.0
 11
55.071
 21
53.358
 31
0.0
  0
LINE
  5
D1
  8
0
 10
52.147
 20
53.466
 30
0.0
 11
52.092
 21
53.466
 31
0.0
  0
LINE
  5
D2
  8
0
 10
57.886
 20
53.466
 30
0.0
 11
57.779
 21
53.466
 31
0.0
  0
LINE
  5
D3
  8
0
 10
52.092
 20
53.466
 30
0.0
 11
52.039
 21
53.466
 31
0.0
  0
LINE
  5
D4
  8
0
 10
55.126
 20
52.924
 30
0.0
 11
55.071
 21
52.924
 31
0.0
  0
LINE
  5
D5
  8
0
 10
55.179
 20
53.358
 30
0.0
 11
55.126
 21
53.358
 31
0.0
  0
LINE
  5
D6
  8
0
 10
55.396
 20
52.924
 30
0.0
 11
55.288
 21
52.924
 31
0.0
  0
LINE
  5
D7
  8
0
 10
55.233
 20
53.358
 30
0.0
 11
55.179
 21
53.358
 31
0.0
  0
LINE
  5
D8
  8
0
 10
52.039
 20
53.413
 30
0.0
 11
52.039
 21
53.466
 31
0.0
  0
LINE
  5
D9
  8
0
 10
53.231
 20
57.312
 30
0.0
 11
53.284
 21
57.312
 31
0.0
  0
LINE
  5
DA
  8
0
 10
58.97
 20
56.282
 30
0.0
 11
59.025
 21
56.282
 31
0.0
  0
LINE
  5
DB
  8
0
 10
59.24
 20
56.337
 30
0.0
 11
59.295
 21
56.337
 31
0.0
  0
LINE
  5
DC
  8
0
 10
59.187
 20
56.337
 30
0.0
 11
59.24
 21
56.337
 31
0.0
  0
LINE
  5
DD
  8
0
 10
59.078
 20
56.337
 30
0.0
 11
59.187
 21
56.337
 31
0.0
  0
LINE
  5
DE
  8
0
 10
58.267
 20
56.282
 30
0.0
 11
58.375
 21
56.282
 31
0.0
  0
LINE
  5
DF
  8
0
 10
59.025
 20
56.337
 30
0.0
 11
59.078
 21
56.337
 31
0.0
  0
LINE
  5
E0
  8
0
 10
35.468
 20
55.145
 30
0.0
 11
36.497
 21
55.145
 31
0.0
  0
LINE
  5
E1
  8
0
 10
56.101
 20
55.145
 30
0.0
 11
56.153
 21
55.145
 31
0.0
  0
LINE
  5
E2
  8
0
 10
35.468
 20
55.198
 30
0.0
 11
36.497
 21
55.198
 31
0.0
  0
LINE
  5
E3
  8
0
 10
36.335
 20
55.198
 30
0.0
 11
35.685
 21
55.198
 31
0.0
  0
LINE
  5
E4
  8
0
 10
55.722
 20
55.253
 30
0.0
 11
56.153
 21
55.253
 31
0.0
  0
LINE
  5
E5
  8
0
 10
58.646
 20
55.794
 30
0.0
 11
58.915
 21
55.794
 31
0.0
  0
LINE
  5
E6
  8
0
 10
58.97
 20
56.282
 30
0.0
 11
58.646
 21
56.282
 31
0.0
  0
LINE
  5
E7
  8
0
 10
57.886
 20
56.337
 30
0.0
 11
58.158
 21
56.337
 31
0.0
  0
LINE
  5
E8
  8
0
 10
55.559
 20
56.986
 30
0.0
 11
56.208
 21
56.986
 31
0.0
  0
LINE
  5
E9
  8
0
 10
39.693
 20
57.148
 30
0.0
 11
40.017
 21
57.148
 31
0.0
  0
LINE
  5
EA
  8
0
 10
40.451
 20
57.148
 30
0.0
 11
40.83
 21
57.148
 31
0.0
  0
LINE
  5
EB
  8
0
 10
41.262
 20
57.148
 30
0.0
 11
41.316
 21
57.148
 31
0.0
  0
LINE
  5
EC
  8
0
 10
39.205
 20
57.203
 30
0.0
 11
39.693
 21
57.203
 31
0.0
  0
LINE
  5
ED
  8
0
 10
40.775
 20
57.203
 30
0.0
 11
41.262
 21
57.203
 31
0.0
  0
LINE
  5
EE
  8
0
 10
39.693
 20
57.203
 30
0.0
 11
40.017
 21
57.203
 31
0.0
  0
LINE
  5
EF
  8
0
 10
40.504
 20
57.203
 30
0.0
 11
40.775
 21
57.203
 31
0.0
  0
LINE
  5
F0
  8
0
 10
58.915
 20
56.337
 30
0.0
 11
59.025
 21
56.337
 31
0.0
  0
LINE
  5
F1
  8
0
 10
58.861
 20
56.337
 30
0.0
 11
58.915
 21
56.337
 31
0.0
  0
LINE
  5
F2
  8
0
 10
58.808
 20
56.337
 30
0.0
 11
58.861
 21
56.337
 31
0.0
  0
LINE
  5
F3
  8
0
 10
58.375
 20
56.282
 30
0.0
 11
58.429
 21
56.282
 31
0.0
  0
LINE
  5
F4
  8
0
 10
58.754
 20
56.337
 30
0.0
 11
58.808
 21
56.337
 31
0.0
  0
LINE
  5
F5
  8
0
 10
58.646
 20
56.337
 30
0.0
 11
58.754
 21
56.337
 31
0.0
  0
LINE
  5
F6
  8
0
 10
58.537
 20
56.337
 30
0.0
 11
58.646
 21
56.337
 31
0.0
  0
LINE
  5
F7
  8
0
 10
58.429
 20
56.337
 30
0.0
 11
58.537
 21
56.337
 31
0.0
  0
LINE
  5
F8
  8
0
 10
58.267
 20
56.337
 30
0.0
 11
58.429
 21
56.337
 31
0.0
  0
LINE
  5
F9
  8
0
 10
58.429
 20
56.282
 30
0.0
 11
58.537
 21
56.282
 31
0.0
  0
LINE
  5
FA
  8
0
 10
58.158
 20
56.337
 30
0.0
 11
58.267
 21
56.337
 31
0.0
  0
LINE
  5
FB
  8
0
 10
58.537
 20
56.282
 30
0.0
 11
58.592
 21
56.282
 31
0.0
  0
LINE
  5
FC
  8
0
 10
58.592
 20
56.282
 30
0.0
 11
58.646
 21
56.282
 31
0.0
  0
LINE
  5
FD
  8
0
 10
56.263
 20
55.253
 30
0.0
 11
56.208
 21
55.253
 31
0.0
  0
LINE
  5
FE
  8
0
 10
58.97
 20
55.794
 30
0.0
 11
58.915
 21
55.794
 31
0.0
  0
LINE
  5
FF
  8
0
 10
58.646
 20
55.794
 30
0.0
 11
58.592
 21
55.794
 31
0.0
  0
LINE
  5
100
  8
0
 10
56.208
 20
55.253
 30
0.0
 11
56.153
 21
55.253
 31
0.0
  0
LINE
  5
101
  8
0
 10
58.32
 20
57.636
 30
0.0
 11
58.212
 21
57.636
 31
0.0
  0
LINE
  5
102
  8
0
 10
58.429
 20
57.636
 30
0.0
 11
58.32
 21
57.636
 31
0.0
  0
LINE
  5
103
  8
0
 10
58.537
 20
57.636
 30
0.0
 11
58.429
 21
57.636
 31
0.0
  0
LINE
  5
104
  8
0
 10
58.699
 20
57.636
 30
0.0
 11
58.537
 21
57.636
 31
0.0
  0
LINE
  5
105
  8
0
 10
58.861
 20
57.636
 30
0.0
 11
58.699
 21
57.636
 31
0.0
  0
LINE
  5
106
  8
0
 10
58.97
 20
57.636
 30
0.0
 11
58.861
 21
57.636
 31
0.0
  0
LINE
  5
107
  8
0
 10
60.0
 20
57.365
 30
0.0
 11
59.891
 21
57.365
 31
0.0
  0
LINE
  5
108
  8
0
 10
50.576
 20
57.365
 30
0.0
 11
50.631
 21
57.365
 31
0.0
  0
LINE
  5
109
  8
0
 10
41.262
 20
57.582
 30
0.0
 11
41.316
 21
57.582
 31
0.0
  0
LINE
  5
10A
  8
0
 10
58.212
 20
57.636
 30
0.0
 11
57.4
 21
57.636
 31
0.0
  0
LINE
  5
10B
  8
0
 10
51.01
 20
57.636
 30
0.0
 11
53.122
 21
57.636
 31
0.0
  0
LINE
  5
10C
  8
0
 10
50.685
 20
58.177
 30
0.0
 11
59.836
 21
58.177
 31
0.0
  0
LINE
  5
10D
  8
0
 10
50.903
 20
58.34
 30
0.0
 11
51.226
 21
58.34
 31
0.0
  0
LINE
  5
10E
  8
0
 10
59.295
 20
58.34
 30
0.0
 11
59.621
 21
58.34
 31
0.0
  0
LINE
  5
10F
  8
0
 10
59.025
 20
57.636
 30
0.0
 11
58.97
 21
57.636
 31
0.0
  0
LINE
  5
110
  8
0
 10
59.133
 20
57.636
 30
0.0
 11
59.025
 21
57.636
 31
0.0
  0
LINE
  5
111
  8
0
 10
59.187
 20
57.636
 30
0.0
 11
59.133
 21
57.636
 31
0.0
  0
LINE
  5
112
  8
0
 10
59.24
 20
57.636
 30
0.0
 11
59.187
 21
57.636
 31
0.0
  0
LINE
  5
113
  8
0
 10
59.295
 20
57.636
 30
0.0
 11
59.24
 21
57.636
 31
0.0
  0
LINE
  5
114
  8
0
 10
56.263
 20
56.986
 30
0.0
 11
56.208
 21
56.986
 31
0.0
  0
LINE
  5
115
  8
0
 10
40.775
 20
58.123
 30
0.0
 11
40.775
 21
58.015
 31
0.0
  0
LINE
  5
116
  8
0
 10
59.349
 20
57.636
 30
0.0
 11
59.295
 21
57.636
 31
0.0
  0
LINE
  5
117
  8
0
 10
40.451
 20
57.474
 30
0.0
 11
40.504
 21
57.474
 31
0.0
  0
LINE
  5
118
  8
0
 10
58.429
 20
53.358
 30
0.0
 11
58.482
 21
53.358
 31
0.0
  0
LINE
  5
119
  8
0
 10
52.147
 20
53.358
 30
0.0
 11
52.526
 21
52.924
 31
0.0
  0
LINE
  5
11A
  8
0
 10
50.576
 20
58.232
 30
0.0
 11
50.631
 21
58.232
 31
0.0
  0
LINE
  5
11B
  8
0
 10
41.209
 20
57.148
 30
0.0
 11
41.209
 21
57.04
 31
0.0
  0
LINE
  5
11C
  8
0
 10
39.963
 20
57.853
 30
0.0
 11
39.963
 21
57.798
 31
0.0
  0
LINE
  5
11D
  8
0
 10
47.437
 20
55.145
 30
0.0
 11
47.437
 21
57.04
 31
0.0
  0
LINE
  5
11E
  8
0
 10
52.688
 20
54.712
 30
0.0
 11
52.688
 21
54.657
 31
0.0
  0
LINE
  5
11F
  8
0
 10
51.064
 20
57.04
 30
0.0
 11
51.01
 21
57.636
 31
0.0
  0
LINE
  5
120
  8
0
 10
51.117
 20
54.657
 30
0.0
 11
51.117
 21
55.145
 31
0.0
  0
LINE
  5
121
  8
0
 10
52.039
 20
53.466
 30
0.0
 11
52.039
 21
53.413
 31
0.0
  0
LINE
  5
122
  8
0
 10
49.656
 20
54.983
 30
0.0
 11
49.656
 21
55.145
 31
0.0
  0
LINE
  5
123
  8
0
 10
50.685
 20
57.527
 30
0.0
 11
50.685
 21
57.257
 31
0.0
  0
LINE
  5
124
  8
0
 10
51.93
 20
54.657
 30
0.0
 11
51.93
 21
55.145
 31
0.0
  0
LINE
  5
125
  8
0
 10
54.313
 20
57.095
 30
0.0
 11
54.313
 21
57.04
 31
0.0
  0
LINE
  5
126
  8
0
 10
52.688
 20
54.657
 30
0.0
 11
52.688
 21
54.604
 31
0.0
  0
LINE
  5
127
  8
0
 10
52.743
 20
53.466
 30
0.0
 11
52.688
 21
54.604
 31
0.0
  0
LINE
  5
128
  8
0
 10
53.231
 20
57.582
 30
0.0
 11
53.231
 21
57.312
 31
0.0
  0
LINE
  5
129
  8
0
 10
52.039
 20
53.413
 30
0.0
 11
52.039
 21
53.358
 31
0.0
  0
LINE
  5
12A
  8
0
 10
52.635
 20
52.924
 30
0.0
 11
52.635
 21
52.871
 31
0.0
  0
LINE
  5
12B
  8
0
 10
52.743
 20
53.413
 30
0.0
 11
52.743
 21
53.466
 31
0.0
  0
LINE
  5
12C
  8
0
 10
52.039
 20
53.466
 30
0.0
 11
52.039
 21
53.413
 31
0.0
  0
LINE
  5
12D
  8
0
 10
58.482
 20
53.413
 30
0.0
 11
58.537
 21
53.413
 31
0.0
  0
LINE
  5
12E
  8
0
 10
54.799
 20
57.04
 30
0.0
 11
54.799
 21
57.095
 31
0.0
  0
LINE
  5
12F
  8
0
 10
55.939
 20
57.04
 30
0.0
 11
55.939
 21
57.095
 31
0.0
  0
LINE
  5
130
  8
0
 10
55.233
 20
52.924
 30
0.0
 11
55.233
 21
53.358
 31
0.0
  0
LINE
  5
131
  8
0
 10
55.612
 20
53.358
 30
0.0
 11
55.667
 21
53.034
 31
0.0
  0
LINE
  5
132
  8
0
 10
54.747
 20
52.924
 30
0.0
 11
54.747
 21
52.871
 31
0.0
  0
LINE
  5
133
  8
0
 10
54.909
 20
53.358
 30
0.0
 11
54.909
 21
53.413
 31
0.0
  0
LINE
  5
134
  8
0
 10
55.233
 20
53.413
 30
0.0
 11
55.233
 21
53.358
 31
0.0
  0
LINE
  5
135
  8
0
 10
55.233
 20
52.871
 30
0.0
 11
55.233
 21
52.924
 31
0.0
  0
LINE
  5
136
  8
0
 10
55.288
 20
52.871
 30
0.0
 11
55.288
 21
52.924
 31
0.0
  0
LINE
  5
137
  8
0
 10
55.342
 20
53.413
 30
0.0
 11
55.342
 21
53.358
 31
0.0
  0
LINE
  5
138
  8
0
 10
55.612
 20
53.358
 30
0.0
 11
55.612
 21
53.413
 31
0.0
  0
LINE
  5
139
  8
0
 10
55.774
 20
52.924
 30
0.0
 11
55.774
 21
52.871
 31
0.0
  0
LINE
  5
13A
  8
0
 10
56.101
 20
55.145
 30
0.0
 11
56.101
 21
55.198
 31
0.0
  0
LINE
  5
13B
  8
0
 10
56.153
 20
55.145
 30
0.0
 11
56.153
 21
55.253
 31
0.0
  0
LINE
  5
13C
  8
0
 10
56.208
 20
57.04
 30
0.0
 11
56.208
 21
56.986
 31
0.0
  0
LINE
  5
13D
  8
0
 10
54.909
 20
53.034
 30
0.0
 11
54.909
 21
53.358
 31
0.0
  0
LINE
  5
13E
  8
0
 10
55.288
 20
52.924
 30
0.0
 11
55.342
 21
53.358
 31
0.0
  0
LINE
  5
13F
  8
0
 10
54.638
 20
57.095
 30
0.0
 11
54.585
 21
57.04
 31
0.0
  0
LINE
  5
140
  8
0
 10
55.774
 20
57.095
 30
0.0
 11
55.721
 21
57.04
 31
0.0
  0
LINE
  5
141
  8
0
 10
56.208
 20
56.986
 30
0.0
 11
56.208
 21
56.282
 31
0.0
  0
LINE
  5
142
  8
0
 10
56.208
 20
55.849
 30
0.0
 11
56.153
 21
55.253
 31
0.0
  0
LINE
  5
143
  8
0
 10
56.263
 20
55.253
 30
0.0
 11
56.318
 21
57.095
 31
0.0
  0
LINE
  5
144
  8
0
 10
56.208
 20
57.095
 30
0.0
 11
56.208
 21
57.04
 31
0.0
  0
LINE
  5
145
  8
0
 10
52.147
 20
53.358
 30
0.0
 11
52.092
 21
53.358
 31
0.0
  0
LINE
  5
146
  8
0
 10
52.526
 20
52.924
 30
0.0
 11
52.471
 21
52.924
 31
0.0
  0
LINE
  5
147
  8
0
 10
59.945
 20
58.232
 30
0.0
 11
59.891
 21
58.232
 31
0.0
  0
LINE
  5
148
  8
0
 10
59.025
 20
55.794
 30
0.0
 11
58.97
 21
55.794
 31
0.0
  0
LINE
  5
149
  8
0
 10
58.429
 20
53.413
 30
0.0
 11
58.482
 21
53.413
 31
0.0
  0
LINE
  5
14A
  8
0
 10
58.429
 20
53.358
 30
0.0
 11
58.429
 21
53.413
 31
0.0
  0
LINE
  5
14B
  8
0
 10
57.779
 20
53.413
 30
0.0
 11
57.779
 21
53.466
 31
0.0
  0
LINE
  5
14C
  8
0
 10
57.941
 20
52.924
 30
0.0
 11
57.941
 21
52.871
 31
0.0
  0
LINE
  5
14D
  8
0
 10
58.429
 20
53.413
 30
0.0
 11
58.429
 21
53.358
 31
0.0
  0
LINE
  5
14E
  8
0
 10
58.646
 20
56.282
 30
0.0
 11
58.646
 21
56.337
 31
0.0
  0
LINE
  5
14F
  8
0
 10
58.915
 20
55.794
 30
0.0
 11
58.915
 21
55.741
 31
0.0
  0
LINE
  5
150
  8
0
 10
58.97
 20
56.337
 30
0.0
 11
58.97
 21
56.282
 31
0.0
  0
LINE
  5
151
  8
0
 10
58.537
 20
53.413
 30
0.0
 11
58.537
 21
53.466
 31
0.0
  0
LINE
  5
152
  8
0
 10
57.779
 20
53.466
 30
0.0
 11
57.886
 21
56.337
 31
0.0
  0
LINE
  5
153
  8
0
 10
58.158
 20
56.337
 30
0.0
 11
58.212
 21
57.636
 31
0.0
  0
LINE
  5
154
  8
0
 10
58.646
 20
56.282
 30
0.0
 11
58.646
 21
55.794
 31
0.0
  0
LINE
  5
155
  8
0
 10
58.267
 20
56.282
 30
0.0
 11
58.267
 21
56.337
 31
0.0
  0
LINE
  5
156
  8
0
 10
59.891
 20
57.257
 30
0.0
 11
59.891
 21
57.527
 31
0.0
  0
LINE
  5
157
  8
0
 10
58.915
 20
55.794
 30
0.0
 11
58.97
 21
56.282
 31
0.0
  0
LINE
  5
158
  8
0
 10
58.646
 20
55.741
 30
0.0
 11
58.646
 21
55.794
 31
0.0
  0
LINE
  5
159
  8
0
 10
58.05
 20
52.924
 30
0.0
 11
58.429
 21
53.358
 31
0.0
  0
LINE
  5
15A
  8
0
 10
0.162
 20
50.0
 30
0.0
 11
0.162
 21
62.184
 31
0.0
  0
LINE
  5
15B
  8
0
 10
0.217
 20
50.109
 30
0.0
 11
0.217
 21
62.077
 31
0.0
  0
LINE
  5
15C
  8
0
 10
2.057
 20
51.137
 30
0.0
 11
2.002
 21
51.137
 31
0.0
  0
LINE
  5
15D
  8
0
 10
2.328
 20
54.495
 30
0.0
 11
2.328
 21
54.55
 31
0.0
  0
LINE
  5
15E
  8
0
 10
2.381
 20
54.819
 30
0.0
 11
2.381
 21
54.874
 31
0.0
  0
LINE
  5
15F
  8
0
 10
2.328
 20
57.312
 30
0.0
 11
2.328
 21
57.419
 31
0.0
  0
LINE
  5
160
  8
0
 10
2.381
 20
57.636
 30
0.0
 11
2.381
 21
57.744
 31
0.0
  0
LINE
  5
161
  8
0
 10
2.491
 20
54.712
 30
0.0
 11
2.491
 21
54.657
 31
0.0
  0
LINE
  5
162
  8
0
 10
2.491
 20
57.527
 30
0.0
 11
2.491
 21
57.474
 31
0.0
  0
LINE
  5
163
  8
0
 10
1.516
 20
51.029
 30
0.0
 11
1.516
 21
51.084
 31
0.0
  0
LINE
  5
164
  8
0
 10
2.057
 20
51.084
 30
0.0
 11
2.057
 21
51.137
 31
0.0
  0
LINE
  5
165
  8
0
 10
2.328
 20
60.885
 30
0.0
 11
2.328
 21
51.301
 31
0.0
  0
LINE
  5
166
  8
0
 10
2.328
 20
57.798
 30
0.0
 11
2.328
 21
57.257
 31
0.0
  0
LINE
  5
167
  8
0
 10
2.328
 20
54.983
 30
0.0
 11
2.328
 21
54.387
 31
0.0
  0
LINE
  5
168
  8
0
 10
2.381
 20
57.798
 30
0.0
 11
2.381
 21
57.257
 31
0.0
  0
LINE
  5
169
  8
0
 10
2.381
 20
54.983
 30
0.0
 11
2.381
 21
54.387
 31
0.0
  0
LINE
  5
16A
  8
0
 10
2.381
 20
54.495
 30
0.0
 11
2.381
 21
54.874
 31
0.0
  0
LINE
  5
16B
  8
0
 10
2.381
 20
57.312
 30
0.0
 11
2.381
 21
57.691
 31
0.0
  0
LINE
  5
16C
  8
0
 10
2.381
 20
54.874
 30
0.0
 11
2.381
 21
57.312
 31
0.0
  0
LINE
  5
16D
  8
0
 10
2.328
 20
57.744
 30
0.0
 11
2.328
 21
57.636
 31
0.0
  0
LINE
  5
16E
  8
0
 10
2.381
 20
57.419
 30
0.0
 11
2.381
 21
57.312
 31
0.0
  0
LINE
  5
16F
  8
0
 10
2.328
 20
54.874
 30
0.0
 11
2.328
 21
54.819
 31
0.0
  0
LINE
  5
170
  8
0
 10
2.381
 20
54.55
 30
0.0
 11
2.381
 21
54.495
 31
0.0
  0
LINE
  5
171
  8
0
 10
1.516
 20
51.084
 30
0.0
 11
1.57
 21
51.084
 31
0.0
  0
LINE
  5
172
  8
0
 10
0.162
 20
50.0
 30
0.0
 11
0.0
 21
50.0
 31
0.0
  0
LINE
  5
173
  8
0
 10
0.217
 20
50.109
 30
0.0
 11
0.162
 21
50.109
 31
0.0
  0
LINE
  5
174
  8
0
 10
52.635
 20
52.871
 30
0.0
 11
57.941
 21
52.871
 31
0.0
  0
LINE
  5
175
  8
0
 10
58.429
 20
53.413
 30
0.0
 11
52.039
 21
53.413
 31
0.0
  0
LINE
  5
176
  8
0
 10
2.381
 20
54.387
 30
0.0
 11
2.328
 21
54.387
 31
0.0
  0
LINE
  5
177
  8
0
 10
51.117
 20
54.657
 30
0.0
 11
51.93
 21
54.657
 31
0.0
  0
LINE
  5
178
  8
0
 10
2.057
 20
51.084
 30
0.0
 11
1.516
 21
51.029
 31
0.0
  0
LINE
  5
179
  8
0
 10
2.166
 20
51.137
 30
0.0
 11
2.057
 21
51.137
 31
0.0
  0
LINE
  5
17A
  8
0
 10
1.516
 20
51.029
 30
0.0
 11
1.244
 21
50.975
 31
0.0
  0
LINE
  5
17B
  8
0
 10
0.812
 20
50.922
 30
0.0
 11
0.269
 21
50.813
 31
0.0
  0
LINE
  5
17C
  8
0
 10
2.002
 20
51.137
 30
0.0
 11
2.057
 21
51.137
 31
0.0
  0
LINE
  5
17D
  8
0
 10
39.963
 20
56.986
 30
0.0
 11
40.072
 21
56.986
 31
0.0
  0
LINE
  5
17E
  8
0
 10
40.504
 20
57.04
 30
0.0
 11
40.451
 21
57.04
 31
0.0
  0
LINE
  5
17F
  8
0
 10
39.639
 20
57.04
 30
0.0
 11
39.746
 21
57.04
 31
0.0
  0
LINE
  5
180
  8
0
 10
40.668
 20
56.986
 30
0.0
 11
40.613
 21
56.986
 31
0.0
  0
LINE
  5
181
  8
0
 10
40.613
 20
57.257
 30
0.0
 11
40.668
 21
57.257
 31
0.0
  0
LINE
  5
182
  8
0
 10
50.576
 20
54.874
 30
0.0
 11
50.414
 21
54.874
 31
0.0
  0
LINE
  5
183
  8
0
 10
2.381
 20
54.983
 30
0.0
 11
2.328
 21
54.983
 31
0.0
  0
LINE
  5
184
  8
0
 10
51.01
 20
54.983
 30
0.0
 11
50.685
 21
54.983
 31
0.0
  0
LINE
  5
185
  8
0
 10
50.414
 20
54.983
 30
0.0
 11
49.656
 21
54.983
 31
0.0
  0
LINE
  5
186
  8
0
 10
51.01
 20
55.036
 30
0.0
 11
50.685
 21
55.036
 31
0.0
  0
LINE
  5
187
  8
0
 10
50.414
 20
55.036
 30
0.0
 11
49.873
 21
55.036
 31
0.0
  0
LINE
  5
188
  8
0
 10
46.353
 20
55.036
 30
0.0
 11
46.462
 21
55.036
 31
0.0
  0
LINE
  5
189
  8
0
 10
50.685
 20
55.145
 30
0.0
 11
50.576
 21
55.145
 31
0.0
  0
LINE
  5
18A
  8
0
 10
35.523
 20
55.145
 30
0.0
 11
36.443
 21
55.145
 31
0.0
  0
LINE
  5
18B
  8
0
 10
51.064
 20
55.145
 30
0.0
 11
51.01
 21
55.145
 31
0.0
  0
LINE
  5
18C
  8
0
 10
46.462
 20
55.145
 30
0.0
 11
55.288
 21
55.145
 31
0.0
  0
LINE
  5
18D
  8
0
 10
2.381
 20
55.198
 30
0.0
 11
46.298
 21
55.198
 31
0.0
  0
LINE
  5
18E
  8
0
 10
55.559
 20
55.198
 30
0.0
 11
56.153
 21
55.198
 31
0.0
  0
LINE
  5
18F
  8
0
 10
58.646
 20
55.741
 30
0.0
 11
58.915
 21
55.741
 31
0.0
  0
LINE
  5
190
  8
0
 10
58.267
 20
56.337
 30
0.0
 11
59.24
 21
56.337
 31
0.0
  0
LINE
  5
191
  8
0
 10
40.504
 20
56.986
 30
0.0
 11
40.775
 21
56.986
 31
0.0
  0
LINE
  5
192
  8
0
 10
2.381
 20
56.986
 30
0.0
 11
46.298
 21
56.986
 31
0.0
  0
LINE
  5
193
  8
0
 10
40.125
 20
56.986
 30
0.0
 11
39.584
 21
56.986
 31
0.0
  0
LINE
  5
194
  8
0
 10
46.462
 20
57.04
 30
0.0
 11
56.208
 21
57.04
 31
0.0
  0
LINE
  5
195
  8
0
 10
40.342
 20
57.04
 30
0.0
 11
40.938
 21
57.04
 31
0.0
  0
LINE
  5
196
  8
0
 10
40.125
 20
57.04
 30
0.0
 11
39.584
 21
57.04
 31
0.0
  0
LINE
  5
197
  8
0
 10
40.504
 20
57.04
 30
0.0
 11
40.775
 21
57.04
 31
0.0
  0
LINE
  5
198
  8
0
 10
41.209
 20
57.04
 30
0.0
 11
39.259
 21
57.04
 31
0.0
  0
LINE
  5
199
  8
0
 10
60.0
 20
57.095
 30
0.0
 11
59.891
 21
57.095
 31
0.0
  0
LINE
  5
19A
  8
0
 10
50.631
 20
57.095
 30
0.0
 11
50.576
 21
57.095
 31
0.0
  0
LINE
  5
19B
  8
0
 10
46.353
 20
57.148
 30
0.0
 11
46.462
 21
57.148
 31
0.0
  0
LINE
  5
19C
  8
0
 10
41.262
 20
57.148
 30
0.0
 11
40.83
 21
57.148
 31
0.0
  0
LINE
  5
19D
  8
0
 10
40.451
 20
57.148
 30
0.0
 11
40.017
 21
57.148
 31
0.0
  0
LINE
  5
19E
  8
0
 10
39.693
 20
57.148
 30
0.0
 11
39.205
 21
57.148
 31
0.0
  0
LINE
  5
19F
  8
0
 10
2.381
 20
57.257
 30
0.0
 11
2.328
 21
57.257
 31
0.0
  0
LINE
  5
1A0
  8
0
 10
2.166
 20
61.047
 30
0.0
 11
0.269
 21
61.373
 31
0.0
  0
LINE
  5
1A1
  8
0
 10
40.017
 20
58.123
 30
0.0
 11
40.072
 21
58.123
 31
0.0
  0
LINE
  5
1A2
  8
0
 10
59.891
 20
57.257
 30
0.0
 11
59.836
 21
57.257
 31
0.0
  0
LINE
  5
1A3
  8
0
 10
59.891
 20
57.527
 30
0.0
 11
59.836
 21
57.527
 31
0.0
  0
LINE
  5
1A4
  8
0
 10
40.451
 20
57.582
 30
0.0
 11
39.855
 21
57.582
 31
0.0
  0
LINE
  5
1A5
  8
0
 10
50.631
 20
57.636
 30
0.0
 11
50.576
 21
57.636
 31
0.0
  0
LINE
  5
1A6
  8
0
 10
59.891
 20
57.636
 30
0.0
 11
60.0
 21
57.636
 31
0.0
  0
LINE
  5
1A7
  8
0
 10
50.631
 20
57.744
 30
0.0
 11
50.576
 21
57.744
 31
0.0
  0
LINE
  5
1A8
  8
0
 10
59.891
 20
57.744
 30
0.0
 11
60.0
 21
57.744
 31
0.0
  0
LINE
  5
1A9
  8
0
 10
2.381
 20
57.798
 30
0.0
 11
2.328
 21
57.798
 31
0.0
  0
LINE
  5
1AA
  8
0
 10
41.262
 20
58.07
 30
0.0
 11
41.316
 21
58.07
 31
0.0
  0
LINE
  5
1AB
  8
0
 10
60.0
 20
58.123
 30
0.0
 11
59.891
 21
58.123
 31
0.0
  0
LINE
  5
1AC
  8
0
 10
50.576
 20
58.123
 30
0.0
 11
50.631
 21
58.123
 31
0.0
  0
LINE
  5
1AD
  8
0
 10
60.0
 20
58.177
 30
0.0
 11
59.891
 21
58.177
 31
0.0
  0
LINE
  5
1AE
  8
0
 10
50.576
 20
58.177
 30
0.0
 11
50.631
 21
58.177
 31
0.0
  0
LINE
  5
1AF
  8
0
 10
59.836
 20
58.232
 30
0.0
 11
59.891
 21
58.232
 31
0.0
  0
LINE
  5
1B0
  8
0
 10
51.226
 20
58.287
 30
0.0
 11
59.295
 21
58.287
 31
0.0
  0
LINE
  5
1B1
  8
0
 10
59.566
 20
58.394
 30
0.0
 11
59.349
 21
58.394
 31
0.0
  0
LINE
  5
1B2
  8
0
 10
51.172
 20
58.394
 30
0.0
 11
50.955
 21
58.394
 31
0.0
  0
LINE
  5
1B3
  8
0
 10
40.775
 20
58.611
 30
0.0
 11
40.342
 21
58.611
 31
0.0
  0
LINE
  5
1B4
  8
0
 10
40.18
 20
58.611
 30
0.0
 11
39.693
 21
58.611
 31
0.0
  0
LINE
  5
1B5
  8
0
 10
39.746
 20
56.986
 30
0.0
 11
39.639
 21
56.986
 31
0.0
  0
LINE
  5
1B6
  8
0
 10
40.072
 20
57.04
 30
0.0
 11
39.963
 21
57.04
 31
0.0
  0
LINE
  5
1B7
  8
0
 10
40.775
 20
57.04
 30
0.0
 11
40.83
 21
57.04
 31
0.0
  0
LINE
  5
1B8
  8
0
 10
39.801
 20
56.986
 30
0.0
 11
39.746
 21
56.986
 31
0.0
  0
LINE
  5
1B9
  8
0
 10
0.217
 20
62.077
 30
0.0
 11
0.162
 21
62.077
 31
0.0
  0
LINE
  5
1BA
  8
0
 10
40.072
 20
58.177
 30
0.0
 11
40.775
 21
58.015
 31
0.0
  0
LINE
  5
1BB
  8
0
 10
0.162
 20
62.184
 30
0.0
 11
0.0
 21
62.184
 31
0.0
  0
LINE
  5
1BC
  8
0
 10
40.017
 20
58.123
 30
0.0
 11
39.639
 21
58.394
 31
0.0
  0
LINE
  5
1BD
  8
0
 10
40.072
 20
58.177
 30
0.0
 11
39.693
 21
58.449
 31
0.0
  0
LINE
  5
1BE
  8
0
 10
45.323
 20
55.198
 30
0.0
 11
45.378
 21
55.145
 31
0.0
  0
LINE
  5
1BF
  8
0
 10
43.7
 20
56.986
 30
0.0
 11
43.59
 21
57.04
 31
0.0
  0
LINE
  5
1C0
  8
0
 10
40.451
 20
57.474
 30
0.0
 11
40.017
 21
58.123
 31
0.0
  0
LINE
  5
1C1
  8
0
 10
54.909
 20
55.903
 30
0.0
 11
55.288
 21
55.687
 31
0.0
  0
LINE
  5
1C2
  8
0
 10
55.612
 20
56.282
 30
0.0
 11
55.288
 21
56.499
 31
0.0
  0
LINE
  5
1C3
  8
0
 10
46.298
 20
55.091
 30
0.0
 11
46.353
 21
55.036
 31
0.0
  0
LINE
  5
1C4
  8
0
 10
46.462
 20
57.095
 30
0.0
 11
46.462
 21
57.148
 31
0.0
  0
LINE
  5
1C5
  8
0
 10
40.559
 20
57.582
 30
0.0
 11
40.072
 21
58.177
 31
0.0
  0
LINE
  5
1C6
  8
0
 10
35.468
 20
55.198
 30
0.0
 11
35.468
 21
55.145
 31
0.0
  0
LINE
  5
1C7
  8
0
 10
36.497
 20
55.198
 30
0.0
 11
36.497
 21
55.145
 31
0.0
  0
LINE
  5
1C8
  8
0
 10
52.039
 20
53.413
 30
0.0
 11
52.471
 21
52.924
 31
0.0
  0
LINE
  5
1C9
  8
0
 10
39.205
 20
57.148
 30
0.0
 11
39.205
 21
58.287
 31
0.0
  0
LINE
  5
1CA
  8
0
 10
39.259
 20
57.04
 30
0.0
 11
39.259
 21
57.148
 31
0.0
  0
LINE
  5
1CB
  8
0
 10
39.367
 20
57.04
 30
0.0
 11
39.367
 21
57.148
 31
0.0
  0
LINE
  5
1CC
  8
0
 10
39.584
 20
56.986
 30
0.0
 11
39.584
 21
57.04
 31
0.0
  0
LINE
  5
1CD
  8
0
 10
39.855
 20
57.257
 30
0.0
 11
39.855
 21
57.582
 31
0.0
  0
LINE
  5
1CE
  8
0
 10
40.125
 20
56.986
 30
0.0
 11
40.125
 21
57.04
 31
0.0
  0
LINE
  5
1CF
  8
0
 10
40.18
 20
58.99
 30
0.0
 11
40.18
 21
58.287
 31
0.0
  0
LINE
  5
1D0
  8
0
 10
40.18
 20
58.123
 30
0.0
 11
40.18
 21
58.07
 31
0.0
  0
LINE
  5
1D1
  8
0
 10
40.18
 20
57.906
 30
0.0
 11
40.18
 21
57.744
 31
0.0
  0
LINE
  5
1D2
  8
0
 10
40.234
 20
57.148
 30
0.0
 11
40.234
 21
57.527
 31
0.0
  0
LINE
  5
1D3
  8
0
 10
40.342
 20
58.99
 30
0.0
 11
40.342
 21
58.232
 31
0.0
  0
LINE
  5
1D4
  8
0
 10
40.342
 20
58.123
 30
0.0
 11
40.342
 21
57.853
 31
0.0
  0
LINE
  5
1D5
  8
0
 10
40.342
 20
57.04
 30
0.0
 11
40.342
 21
56.986
 31
0.0
  0
LINE
  5
1D6
  8
0
 10
40.613
 20
57.257
 30
0.0
 11
40.613
 21
57.419
 31
0.0
  0
LINE
  5
1D7
  8
0
 10
40.613
 20
57.474
 30
0.0
 11
40.613
 21
57.582
 31
0.0
  0
LINE
  5
1D8
  8
0
 10
40.938
 20
57.04
 30
0.0
 11
40.938
 21
56.986
 31
0.0
  0
LINE
  5
1D9
  8
0
 10
41.262
 20
58.287
 30
0.0
 11
41.262
 21
58.07
 31
0.0
  0
LINE
  5
1DA
  8
0
 10
41.316
 20
58.07
 30
0.0
 11
41.316
 21
57.148
 31
0.0
  0
LINE
  5
1DB
  8
0
 10
39.963
 20
57.853
 30
0.0
 11
39.963
 21
57.798
 31
0.0
  0
LINE
  5
1DC
  8
0
 10
40.072
 20
58.123
 30
0.0
 11
40.072
 21
58.177
 31
0.0
  0
LINE
  5
1DD
  8
0
 10
40.775
 20
57.257
 30
0.0
 11
40.721
 21
57.257
 31
0.0
  0
LINE
  5
1DE
  8
0
 10
46.298
 20
55.091
 30
0.0
 11
46.298
 21
57.095
 31
0.0
  0
LINE
  5
1DF
  8
0
 10
46.353
 20
55.036
 30
0.0
 11
46.353
 21
57.148
 31
0.0
  0
LINE
  5
1E0
  8
0
 10
46.462
 20
57.148
 30
0.0
 11
46.462
 21
55.036
 31
0.0
  0
LINE
  5
1E1
  8
0
 10
46.462
 20
55.091
 30
0.0
 11
46.462
 21
57.095
 31
0.0
  0
LINE
  5
1E2
  8
0
 10
49.873
 20
55.145
 30
0.0
 11
49.873
 21
55.036
 31
0.0
  0
LINE
  5
1E3
  8
0
 10
46.298
 20
57.095
 30
0.0
 11
46.353
 21
57.148
 31
0.0
  0
LINE
  5
1E4
  8
0
 10
51.281
 20
54.171
 30
0.0
 11
51.334
 21
54.171
 31
0.0
  0
LINE
  5
1E5
  8
0
 10
51.226
 20
58.34
 30
0.0
 11
51.226
 21
58.287
 31
0.0
  0
LINE
  5
1E6
  8
0
 10
51.01
 20
57.04
 30
0.0
 11
51.01
 21
57.636
 31
0.0
  0
LINE
  5
1E7
  8
0
 10
52.039
 20
53.413
 30
0.0
 11
51.985
 21
54.604
 31
0.0
  0
LINE
  5
1E8
  8
0
 10
49.818
 20
54.983
 30
0.0
 11
49.818
 21
55.145
 31
0.0
  0
LINE
  5
1E9
  8
0
 10
49.873
 20
54.983
 30
0.0
 11
49.873
 21
55.036
 31
0.0
  0
LINE
  5
1EA
  8
0
 10
50.414
 20
54.874
 30
0.0
 11
50.414
 21
54.983
 31
0.0
  0
LINE
  5
1EB
  8
0
 10
50.414
 20
55.036
 30
0.0
 11
50.414
 21
55.145
 31
0.0
  0
LINE
  5
1EC
  8
0
 10
50.576
 20
54.874
 30
0.0
 11
50.576
 21
55.145
 31
0.0
  0
LINE
  5
1ED
  8
0
 10
50.631
 20
57.095
 30
0.0
 11
50.631
 21
57.744
 31
0.0
  0
LINE
  5
1EE
  8
0
 10
50.631
 20
58.123
 30
0.0
 11
50.631
 21
58.177
 31
0.0
  0
LINE
  5
1EF
  8
0
 10
50.685
 20
58.287
 30
0.0
 11
50.685
 21
58.232
 31
0.0
  0
LINE
  5
1F0
  8
0
 10
50.685
 20
54.983
 30
0.0
 11
50.685
 21
55.145
 31
0.0
  0
LINE
  5
1F1
  8
0
 10
50.685
 20
58.287
 30
0.0
 11
50.685
 21
58.232
 31
0.0
  0
LINE
  5
1F2
  8
0
 10
50.685
 20
57.527
 30
0.0
 11
50.685
 21
57.257
 31
0.0
  0
LINE
  5
1F3
  8
0
 10
51.01
 20
54.983
 30
0.0
 11
51.01
 21
55.145
 31
0.0
  0
LINE
  5
1F4
  8
0
 10
51.064
 20
55.145
 30
0.0
 11
51.064
 21
54.712
 31
0.0
  0
LINE
  5
1F5
  8
0
 10
51.281
 20
52.871
 30
0.0
 11
51.281
 21
54.657
 31
0.0
  0
LINE
  5
1F6
  8
0
 10
51.443
 20
52.871
 30
0.0
 11
51.443
 21
54.657
 31
0.0
  0
LINE
  5
1F7
  8
0
 10
50.903
 20
58.34
 30
0.0
 11
50.903
 21
58.287
 31
0.0
  0
LINE
  5
1F8
  8
0
 10
46.462
 20
55.091
 30
0.0
 11
46.462
 21
55.036
 31
0.0
  0
LINE
  5
1F9
  8
0
 10
53.772
 20
57.04
 30
0.0
 11
53.825
 21
57.095
 31
0.0
  0
LINE
  5
1FA
  8
0
 10
55.288
 20
56.499
 30
0.0
 11
54.909
 21
56.282
 31
0.0
  0
LINE
  5
1FB
  8
0
 10
54.259
 20
57.095
 30
0.0
 11
54.259
 21
57.04
 31
0.0
  0
LINE
  5
1FC
  8
0
 10
54.259
 20
57.04
 30
0.0
 11
54.259
 21
57.095
 31
0.0
  0
LINE
  5
1FD
  8
0
 10
55.288
 20
55.687
 30
0.0
 11
55.612
 21
55.903
 31
0.0
  0
LINE
  5
1FE
  8
0
 10
54.854
 20
57.04
 30
0.0
 11
54.854
 21
57.095
 31
0.0
  0
LINE
  5
1FF
  8
0
 10
55.991
 20
57.04
 30
0.0
 11
55.991
 21
57.095
 31
0.0
  0
LINE
  5
200
  8
0
 10
55.071
 20
52.924
 30
0.0
 11
55.071
 21
53.358
 31
0.0
  0
LINE
  5
201
  8
0
 10
55.612
 20
53.358
 30
0.0
 11
55.612
 21
53.034
 31
0.0
  0
LINE
  5
202
  8
0
 10
54.909
 20
56.282
 30
0.0
 11
54.909
 21
55.903
 31
0.0
  0
LINE
  5
203
  8
0
 10
55.288
 20
56.499
 30
0.0
 11
55.288
 21
56.445
 31
0.0
  0
LINE
  5
204
  8
0
 10
55.612
 20
55.903
 30
0.0
 11
55.612
 21
56.282
 31
0.0
  0
LINE
  5
205
  8
0
 10
54.909
 20
53.034
 30
0.0
 11
54.909
 21
53.358
 31
0.0
  0
LINE
  5
206
  8
0
 10
55.45
 20
52.924
 30
0.0
 11
55.45
 21
53.358
 31
0.0
  0
LINE
  5
207
  8
0
 10
54.585
 20
57.095
 30
0.0
 11
54.585
 21
57.04
 31
0.0
  0
LINE
  5
208
  8
0
 10
55.722
 20
57.095
 30
0.0
 11
55.722
 21
57.04
 31
0.0
  0
LINE
  5
209
  8
0
 10
56.263
 20
57.095
 30
0.0
 11
56.208
 21
55.253
 31
0.0
  0
LINE
  5
20A
  8
0
 10
53.446
 20
57.148
 30
0.0
 11
53.446
 21
57.095
 31
0.0
  0
LINE
  5
20B
  8
0
 10
53.446
 20
57.148
 30
0.0
 11
53.446
 21
57.095
 31
0.0
  0
LINE
  5
20C
  8
0
 10
59.621
 20
58.34
 30
0.0
 11
59.674
 21
58.287
 31
0.0
  0
LINE
  5
20D
  8
0
 10
58.537
 20
53.413
 30
0.0
 11
58.592
 21
56.282
 31
0.0
  0
LINE
  5
20E
  8
0
 10
59.836
 20
57.257
 30
0.0
 11
59.836
 21
57.527
 31
0.0
  0
LINE
  5
20F
  8
0
 10
59.836
 20
58.287
 30
0.0
 11
59.836
 21
58.232
 31
0.0
  0
LINE
  5
210
  8
0
 10
59.891
 20
58.287
 30
0.0
 11
59.891
 21
58.232
 31
0.0
  0
LINE
  5
211
  8
0
 10
59.891
 20
58.177
 30
0.0
 11
59.891
 21
58.123
 31
0.0
  0
LINE
  5
212
  8
0
 10
59.891
 20
57.095
 30
0.0
 11
59.891
 21
57.744
 31
0.0
  0
LINE
  5
213
  8
0
 10
59.025
 20
55.794
 30
0.0
 11
59.025
 21
56.282
 31
0.0
  0
LINE
  5
214
  8
0
 10
59.295
 20
56.337
 30
0.0
 11
59.349
 21
57.636
 31
0.0
  0
LINE
  5
215
  8
0
 10
59.295
 20
58.34
 30
0.0
 11
59.295
 21
58.287
 31
0.0
  0
LINE
  5
216
  8
0
 10
58.482
 20
53.413
 30
0.0
 11
58.537
 21
53.413
 31
0.0
  0
LINE
  5
217
  8
0
 10
58.05
 20
52.924
 30
0.0
 11
58.482
 21
53.413
 31
0.0
  0
LINE
  5
218
  8
0
 10
2.491
 20
54.766
 30
0.0
 11
2.491
 21
54.819
 31
0.0
  0
LINE
  5
219
  8
0
 10
2.491
 20
54.712
 30
0.0
 11
2.491
 21
54.766
 31
0.0
  0
LINE
  5
21A
  8
0
 10
36.443
 20
55.145
 30
0.0
 11
36.497
 21
55.145
 31
0.0
  0
LINE
  5
21B
  8
0
 10
35.468
 20
55.145
 30
0.0
 11
35.523
 21
55.145
 31
0.0
  0
LINE
  5
21C
  8
0
 10
55.45
 20
52.871
 30
0.0
 11
55.45
 21
52.924
 31
0.0
  0
LINE
  5
21D
  8
0
 10
58.482
 20
53.413
 30
0.0
 11
58.537
 21
53.413
 31
0.0
  0
LINE
  5
21E
  8
0
 10
40.504
 20
57.257
 30
0.0
 11
40.504
 21
57.203
 31
0.0
  0
LINE
  5
21F
  8
0
 10
40.775
 20
57.203
 30
0.0
 11
40.775
 21
57.257
 31
0.0
  0
LINE
  5
220
  8
0
 10
40.721
 20
57.257
 30
0.0
 11
40.668
 21
57.257
 31
0.0
  0
LINE
  5
221
  8
0
 10
39.693
 20
57.203
 30
0.0
 11
39.693
 21
57.148
 31
0.0
  0
LINE
  5
222
  8
0
 10
40.017
 20
57.148
 30
0.0
 11
40.017
 21
57.203
 31
0.0
  0
LINE
  5
223
  8
0
 10
59.24
 20
56.337
 30
0.0
 11
59.295
 21
56.337
 31
0.0
  0
LINE
  5
224
  8
0
 10
59.891
 20
58.177
 30
0.0
 11
59.891
 21
58.232
 31
0.0
  0
LINE
  5
225
  8
0
 10
59.891
 20
57.527
 30
0.0
 11
59.891
 21
57.582
 31
0.0
  0
LINE
  5
226
  8
0
 10
50.685
 20
57.257
 30
0.0
 11
50.631
 21
57.257
 31
0.0
  0
LINE
  5
227
  8
0
 10
50.631
 20
57.582
 30
0.0
 11
50.685
 21
57.527
 31
0.0
  0
LINE
  5
228
  8
0
 10
53.61
 20
57.095
 30
0.0
 11
56.913
 21
57.095
 31
0.0
  0
LINE
  5
229
  8
0
 10
39.205
 20
57.148
 30
0.0
 11
41.209
 21
57.148
 31
0.0
  0
LINE
  5
22A
  8
0
 10
59.783
 20
57.636
 30
0.0
 11
57.562
 21
57.636
 31
0.0
  0
LINE
  5
22B
  8
0
 10
50.738
 20
57.636
 30
0.0
 11
53.014
 21
57.636
 31
0.0
  0
LINE
  5
22C
  8
0
 10
50.685
 20
58.287
 30
0.0
 11
59.891
 21
58.287
 31
0.0
  0
LINE
  5
22D
  8
0
 10
50.685
 20
58.287
 30
0.0
 11
50.685
 21
58.232
 31
0.0
  0
LINE
  5
22E
  8
0
 10
50.631
 20
57.744
 30
0.0
 11
50.738
 21
57.636
 31
0.0
  0
LINE
  5
22F
  8
0
 10
41.262
 20
57.148
 30
0.0
 11
41.262
 21
58.07
 31
0.0
  0
LINE
  5
230
  8
0
 10
50.576
 20
57.095
 30
0.0
 11
50.576
 21
58.177
 31
0.0
  0
LINE
  5
231
  8
0
 10
50.631
 20
57.744
 30
0.0
 11
50.631
 21
58.123
 31
0.0
  0
LINE
  5
232
  8
0
 10
50.685
 20
58.232
 30
0.0
 11
50.685
 21
58.177
 31
0.0
  0
LINE
  5
233
  8
0
 10
59.836
 20
58.177
 30
0.0
 11
59.836
 21
58.232
 31
0.0
  0
LINE
  5
234
  8
0
 10
60.0
 20
57.095
 30
0.0
 11
60.0
 21
58.177
 31
0.0
  0
LINE
  5
235
  8
0
 10
59.836
 20
58.232
 30
0.0
 11
59.836
 21
58.287
 31
0.0
  0
LINE
  5
236
  8
0
 10
41.209
 20
57.148
 30
0.0
 11
41.262
 21
57.148
 31
0.0
  0
LINE
  5
237
  8
0
 10
59.836
 20
58.177
 30
0.0
 11
59.891
 21
58.123
 31
0.0
  0
POLYLINE
  5
238
  8
0
 66
1
 10
0.0
 20
0.0
 30
0.0
 70
0
  0
VERTEX
  5
23A
  8
0
 10
54.747
 20
52.924
 30
0.0
 70
0
  0
VERTEX
  5
23B
  8
0
 10
54.799
 20
52.924
 30
0.0
 70
0
  0
VERTEX
  5
23C
  8
0
 10
54.854
 20
52.924
 30
0.0
 70
0
  0
VERTEX
  5
23D
  8
0
 10
54.854
 20
52.979
 30
0.0
 70
0
  0
VERTEX
  5
23E
  8
0
 10
54.909
 20
52.979
 30
0.0
 70
0
  0
VERTEX
  5
23F
  8
0
 10
54.909
 20
53.034
 30
0.0
 70
0
  0
SEQEND
  5
239
  8
0
  0
POLYLINE
  5
240
  8
0
 66
1
 10
0.0
 20
0.0
 30
0.0
 70
0
  0
VERTEX
  5
242
  8
0
 10
57.941
 20
52.924
 30
0.0
 70
0
  0
VERTEX
  5
243
  8
0
 10
57.995
 20
52.924
 30
0.0
 70
0
  0
VERTEX
  5
244
  8
0
 10
58.05
 20
52.924
 30
0.0
 70
0
  0
SEQEND
  5
241
  8
0
  0
POLYLINE
  5
245
  8
0
 66
1
 10
0.0
 20
0.0
 30
0.0
 70
0
  0
VERTEX
  5
247
  8
0
 10
52.743
 20
53.466
 30
0.0
 70
0
  0
VERTEX
  5
248
  8
0
 10
52.688
 20
53.466
 30
0.0
 70
0
  0
VERTEX
  5
249
  8
0
 10
52.635
 20
53.466
 30
0.0
 70
0
  0
VERTEX
  5
24A
  8
0
 10
52.526
 20
53.466
 30
0.0
 70
0
  0
SEQEND
  5
246
  8
0
  0
POLYLINE
  5
24B
  8
0
 66
1
 10
0.0
 20
0.0
 30
0.0
 70
0
  0
VERTEX
  5
24D
  8
0
 10
52.471
 20
53.466
 30
0.0
 70
0
  0
VERTEX
  5
24E
  8
0
 10
52.364
 20
53.466
 30
0.0
 70
0
  0
VERTEX
  5
24F
  8
0
 10
52.309
 20
53.466
 30
0.0
 70
0
  0
SEQEND
  5
24C
  8
0
  0
POLYLINE
  5
250
  8
0
 66
1
 10
0.0
 20
0.0
 30
0.0
 70
0
  0
VERTEX
  5
252
  8
0
 10
55.071
 20
53.358
 30
0.0
 70
0
  0
VERTEX
  5
253
  8
0
 10
54.909
 20
53.358
 30
0.0
 70
0
  0
VERTEX
  5
254
  8
0
 10
52.147
 20
53.358
 30
0.0
 70
0
  0
SEQEND
  5
251
  8
0
  0
POLYLINE
  5
255
  8
0
 66
1
 10
0.0
 20
0.0
 30
0.0
 70
0
  0
VERTEX
  5
257
  8
0
 10
58.267
 20
53.466
 30
0.0
 70
0
  0
VERTEX
  5
258
  8
0
 10
58.212
 20
53.466
 30
0.0
 70
0
  0
VERTEX
  5
259
  8
0
 10
58.103
 20
53.466
 30
0.0
 70
0
  0
SEQEND
  5
256
  8
0
  0
POLYLINE
  5
25A
  8
0
 66
1
 10
0.0
 20
0.0
 30
0.0
 70
0
  0
VERTEX
  5
25C
  8
0
 10
58.103
 20
53.466
 30
0.0
 70
0
  0
VERTEX
  5
25D
  8
0
 10
57.995
 20
53.466
 30
0.0
 70
0
  0
VERTEX
  5
25E
  8
0
 10
57.941
 20
53.466
 30
0.0
 70
0
  0
VERTEX
  5
25F
  8
0
 10
57.886
 20
53.466
 30
0.0
 70
0
  0
SEQEND
  5
25B
  8
0
  0
POLYLINE
  5
260
  8
0
 66
1
 10
0.0
 20
0.0
 30
0.0
 70
0
  0
VERTEX
  5
262
  8
0
 10
40.342
 20
57.636
 30
0.0
 70
0
  0
VERTEX
  5
263
  8
0
 10
40.287
 20
57.636
 30
0.0
 70
0
  0
VERTEX
  5
264
  8
0
 10
40.234
 20
57.636
 30
0.0
 70
0
  0
SEQEND
  5
261
  8
0
  0
POLYLINE
  5
265
  8
0
 66
1
 10
0.0
 20
0.0
 30
0.0
 70
0
  0
VERTEX
  5
267
  8
0
 10
40.504
 20
57.474
 30
0.0
 70
0
  0
VERTEX
  5
268
  8
0
 10
40.504
 20
57.527
 30
0.0
 70
0
  0
VERTEX
  5
269
  8
0
 10
40.559
 20
57.527
 30
0.0
 70
0
  0
VERTEX
  5
26A
  8
0
 10
40.559
 20
57.582
 30
0.0
 70
0
  0
SEQEND
  5
266
  8
0
  0
POLYLINE
  5
26B
  8
0
 66
1
 10
0.0
 20
0.0
 30
0.0
 70
0
  0
VERTEX
  5
26D
  8
0
 10
58.267
 20
56.337
 30
0.0
 70
0
  0
VERTEX
  5
26E
  8
0
 10
58.212
 20
56.337
 30
0.0
 70
0
  0
VERTEX
  5
26F
  8
0
 10
58.158
 20
56.337
 30
0.0
 70
0
  0
SEQEND
  5
26C
  8
0
  0
POLYLINE
  5
270
  8
0
 66
1
 10
0.0
 20
0.0
 30
0.0
 70
0
  0
VERTEX
  5
272
  8
0
 10
58.267
 20
56.282
 30
0.0
 70
0
  0
VERTEX
  5
273
  8
0
 10
58.212
 20
56.282
 30
0.0
 70
0
  0
VERTEX
  5
274
  8
0
 10
58.103
 20
56.282
 30
0.0
 70
0
  0
SEQEND
  5
271
  8
0
  0
POLYLINE
  5
275
  8
0
 66
1
 10
0.0
 20
0.0
 30
0.0
 70
0
  0
VERTEX
  5
277
  8
0
 10
56.101
 20
55.145
 30
0.0
 70
0
  0
VERTEX
  5
278
  8
0
 10
56.046
 20
55.145
 30
0.0
 70
0
  0
VERTEX
  5
279
  8
0
 10
56.046
 20
55.198
 30
0.0
 70
0
  0
VERTEX
  5
27A
  8
0
 10
55.991
 20
55.198
 30
0.0
 70
0
  0
SEQEND
  5
276
  8
0
  0
POLYLINE
  5
27B
  8
0
 66
1
 10
0.0
 20
0.0
 30
0.0
 70
0
  0
VERTEX
  5
27D
  8
0
 10
40.234
 20
58.394
 30
0.0
 70
0
  0
VERTEX
  5
27E
  8
0
 10
40.18
 20
58.394
 30
0.0
 70
0
  0
VERTEX
  5
27F
  8
0
 10
40.18
 20
58.34
 30
0.0
 70
0
  0
SEQEND
  5
27C
  8
0
  0
POLYLINE
  5
280
  8
0
 66
1
 10
0.0
 20
0.0
 30
0.0
 70
0
  0
VERTEX
  5
282
  8
0
 10
40.234
 20
57.636
 30
0.0
 70
0
  0
VERTEX
  5
283
  8
0
 10
40.18
 20
57.636
 30
0.0
 70
0
  0
VERTEX
  5
284
  8
0
 10
40.125
 20
57.636
 30
0.0
 70
0
  0
VERTEX
  5
285
  8
0
 10
40.017
 20
57.636
 30
0.0
 70
0
  0
VERTEX
  5
286
  8
0
 10
40.017
 20
57.691
 30
0.0
 70
0
  0
VERTEX
  5
287
  8
0
 10
39.963
 20
57.691
 30
0.0
 70
0
  0
VERTEX
  5
288
  8
0
 10
39.963
 20
57.744
 30
0.0
 70
0
  0
VERTEX
  5
289
  8
0
 10
39.908
 20
57.744
 30
0.0
 70
0
  0
VERTEX
  5
28A
  8
0
 10
39.855
 20
57.798
 30
0.0
 70
0
  0
VERTEX
  5
28B
  8
0
 10
39.855
 20
58.015
 30
0.0
 70
0
  0
VERTEX
  5
28C
  8
0
 10
39.908
 20
58.07
 30
0.0
 70
0
  0
VERTEX
  5
28D
  8
0
 10
39.963
 20
58.07
 30
0.0
 70
0
  0
VERTEX
  5
28E
  8
0
 10
39.963
 20
58.123
 30
0.0
 70
0
  0
SEQEND
  5
281
  8
0
  0
POLYLINE
  5
28F
  8
0
 66
1
 10
0.0
 20
0.0
 30
0.0
 70
0
  0
VERTEX
  5
291
  8
0
 10
58.158
 20
56.337
 30
0.0
 70
0
  0
VERTEX
  5
292
  8
0
 10
58.103
 20
56.337
 30
0.0
 70
0
  0
VERTEX
  5
293
  8
0
 10
58.05
 20
56.337
 30
0.0
 70
0
  0
SEQEND
  5
290
  8
0
  0
POLYLINE
  5
294
  8
0
 66
1
 10
0.0
 20
0.0
 30
0.0
 70
0
  0
VERTEX
  5
296
  8
0
 10
40.342
 20
58.07
 30
0.0
 70
0
  0
VERTEX
  5
297
  8
0
 10
40.396
 20
58.07
 30
0.0
 70
0
  0
VERTEX
  5
298
  8
0
 10
40.396
 20
58.015
 30
0.0
 70
0
  0
VERTEX
  5
299
  8
0
 10
40.451
 20
58.015
 30
0.0
 70
0
  0
VERTEX
  5
29A
  8
0
 10
40.451
 20
57.961
 30
0.0
 70
0
  0
VERTEX
  5
29B
  8
0
 10
40.504
 20
57.961
 30
0.0
 70
0
  0
VERTEX
  5
29C
  8
0
 10
40.504
 20
57.906
 30
0.0
 70
0
  0
VERTEX
  5
29D
  8
0
 10
40.559
 20
57.906
 30
0.0
 70
0
  0
VERTEX
  5
29E
  8
0
 10
40.559
 20
57.798
 30
0.0
 70
0
  0
SEQEND
  5
295
  8
0
  0
POLYLINE
  5
29F
  8
0
 66
1
 10
0.0
 20
0.0
 30
0.0
 70
0
  0
VERTEX
  5
2A1
  8
0
 10
58.05
 20
56.337
 30
0.0
 70
0
  0
VERTEX
  5
2A2
  8
0
 10
57.995
 20
56.337
 30
0.0
 70
0
  0
VERTEX
  5
2A3
  8
0
 10
57.941
 20
56.337
 30
0.0
 70
0
  0
VERTEX
  5
2A4
  8
0
 10
57.886
 20
56.337
 30
0.0
 70
0
  0
SEQEND
  5
2A0
  8
0
  0
POLYLINE
  5
2A5
  8
0
 66
1
 10
0.0
 20
0.0
 30
0.0
 70
0
  0
VERTEX
  5
2A7
  8
0
 10
58.103
 20
56.282
 30
0.0
 70
0
  0
VERTEX
  5
2A8
  8
0
 10
58.05
 20
56.282
 30
0.0
 70
0
  0
VERTEX
  5
2A9
  8
0
 10
58.05
 20
56.337
 30
0.0
 70
0
  0
SEQEND
  5
2A6
  8
0
  0
POLYLINE
  5
2AA
  8
0
 66
1
 10
0.0
 20
0.0
 30
0.0
 70
0
  0
VERTEX
  5
2AC
  8
0
 10
58.05
 20
56.337
 30
0.0
 70
0
  0
VERTEX
  5
2AD
  8
0
 10
57.941
 20
56.337
 30
0.0
 70
0
  0
VERTEX
  5
2AE
  8
0
 10
57.886
 20
56.337
 30
0.0
 70
0
  0
SEQEND
  5
2AB
  8
0
  0
POLYLINE
  5
2AF
  8
0
 66
1
 10
0.0
 20
0.0
 30
0.0
 70
0
  0
VERTEX
  5
2B1
  8
0
 10
52.039
 20
53.413
 30
0.0
 70
0
  0
VERTEX
  5
2B2
  8
0
 10
52.039
 20
53.358
 30
0.0
 70
0
  0
VERTEX
  5
2B3
  8
0
 10
52.147
 20
53.358
 30
0.0
 70
0
  0
SEQEND
  5
2B0
  8
0
  0
POLYLINE
  5
2B4
  8
0
 66
1
 10
0.0
 20
0.0
 30
0.0
 70
0
  0
VERTEX
  5
2B6
  8
0
 10
40.613
 20
58.07
 30
0.0
 70
0
  0
VERTEX
  5
2B7
  8
0
 10
40.613
 20
57.961
 30
0.0
 70
0
  0
VERTEX
  5
2B8
  8
0
 10
40.668
 20
57.961
 30
0.0
 70
0
  0
VERTEX
  5
2B9
  8
0
 10
40.668
 20
57.853
 30
0.0
 70
0
  0
VERTEX
  5
2BA
  8
0
 10
40.613
 20
57.853
 30
0.0
 70
0
  0
VERTEX
  5
2BB
  8
0
 10
40.613
 20
57.744
 30
0.0
 70
0
  0
VERTEX
  5
2BC
  8
0
 10
40.559
 20
57.744
 30
0.0
 70
0
  0
VERTEX
  5
2BD
  8
0
 10
40.504
 20
57.691
 30
0.0
 70
0
  0
VERTEX
  5
2BE
  8
0
 10
40.451
 20
57.636
 30
0.0
 70
0
  0
SEQEND
  5
2B5
  8
0
  0
POLYLINE
  5
2BF
  8
0
 66
1
 10
0.0
 20
0.0
 30
0.0
 70
0
  0
VERTEX
  5
2C1
  8
0
 10
52.526
 20
52.924
 30
0.0
 70
0
  0
VERTEX
  5
2C2
  8
0
 10
52.58
 20
52.924
 30
0.0
 70
0
  0
VERTEX
  5
2C3
  8
0
 10
52.635
 20
52.924
 30
0.0
 70
0
  0
SEQEND
  5
2C0
  8
0
  0
POLYLINE
  5
2C4
  8
0
 66
1
 10
0.0
 20
0.0
 30
0.0
 70
0
  0
VERTEX
  5
2C6
  8
0
 10
40.559
 20
57.798
 30
0.0
 70
0
  0
VERTEX
  5
2C7
  8
0
 10
40.559
 20
57.906
 30
0.0
 70
0
  0
VERTEX
  5
2C8
  8
0
 10
40.504
 20
57.906
 30
0.0
 70
0
  0
VERTEX
  5
2C9
  8
0
 10
40.504
 20
57.961
 30
0.0
 70
0
  0
VERTEX
  5
2CA
  8
0
 10
40.451
 20
57.961
 30
0.0
 70
0
  0
VERTEX
  5
2CB
  8
0
 10
40.451
 20
58.015
 30
0.0
 70
0
  0
VERTEX
  5
2CC
  8
0
 10
40.396
 20
58.015
 30
0.0
 70
0
  0
VERTEX
  5
2CD
  8
0
 10
40.342
 20
58.07
 30
0.0
 70
0
  0
SEQEND
  5
2C5
  8
0
  0
POLYLINE
  5
2CE
  8
0
 66
1
 10
0.0
 20
0.0
 30
0.0
 70
0
  0
VERTEX
  5
2D0
  8
0
 10
40.342
 20
58.34
 30
0.0
 70
0
  0
VERTEX
  5
2D1
  8
0
 10
40.287
 20
58.394
 30
0.0
 70
0
  0
VERTEX
  5
2D2
  8
0
 10
40.234
 20
58.394
 30
0.0
 70
0
  0
SEQEND
  5
2CF
  8
0
  0
POLYLINE
  5
2D3
  8
0
 66
1
 10
0.0
 20
0.0
 30
0.0
 70
0
  0
VERTEX
  5
2D5
  8
0
 10
39.963
 20
57.798
 30
0.0
 70
0
  0
VERTEX
  5
2D6
  8
0
 10
39.963
 20
57.961
 30
0.0
 70
0
  0
VERTEX
  5
2D7
  8
0
 10
40.017
 20
57.961
 30
0.0
 70
0
  0
VERTEX
  5
2D8
  8
0
 10
40.017
 20
58.015
 30
0.0
 70
0
  0
VERTEX
  5
2D9
  8
0
 10
40.072
 20
58.015
 30
0.0
 70
0
  0
SEQEND
  5
2D4
  8
0
  0
POLYLINE
  5
2DA
  8
0
 66
1
 10
0.0
 20
0.0
 30
0.0
 70
0
  0
VERTEX
  5
2DC
  8
0
 10
40.072
 20
58.015
 30
0.0
 70
0
  0
VERTEX
  5
2DD
  8
0
 10
40.017
 20
57.961
 30
0.0
 70
0
  0
VERTEX
  5
2DE
  8
0
 10
39.963
 20
57.961
 30
0.0
 70
0
  0
VERTEX
  5
2DF
  8
0
 10
39.963
 20
57.853
 30
0.0
 70
0
  0
SEQEND
  5
2DB
  8
0
  0
POLYLINE
  5
2E0
  8
0
 66
1
 10
0.0
 20
0.0
 30
0.0
 70
0
  0
VERTEX
  5
2E2
  8
0
 10
40.072
 20
58.123
 30
0.0
 70
0
  0
VERTEX
  5
2E3
  8
0
 10
40.125
 20
58.123
 30
0.0
 70
0
  0
VERTEX
  5
2E4
  8
0
 10
40.125
 20
58.177
 30
0.0
 70
0
  0
SEQEND
  5
2E1
  8
0
  0
POLYLINE
  5
2E5
  8
0
 66
1
 10
0.0
 20
0.0
 30
0.0
 70
0
  0
VERTEX
  5
2E7
  8
0
 10
51.985
 20
54.604
 30
0.0
 70
0
  0
VERTEX
  5
2E8
  8
0
 10
52.039
 20
54.604
 30
0.0
 70
0
  0
VERTEX
  5
2E9
  8
0
 10
52.092
 20
54.604
 30
0.0
 70
0
  0
VERTEX
  5
2EA
  8
0
 10
52.147
 20
54.604
 30
0.0
 70
0
  0
VERTEX
  5
2EB
  8
0
 10
52.201
 20
54.604
 30
0.0
 70
0
  0
VERTEX
  5
2EC
  8
0
 10
52.309
 20
54.604
 30
0.0
 70
0
  0
VERTEX
  5
2ED
  8
0
 10
52.364
 20
54.604
 30
0.0
 70
0
  0
VERTEX
  5
2EE
  8
0
 10
52.471
 20
54.604
 30
0.0
 70
0
  0
VERTEX
  5
2EF
  8
0
 10
52.526
 20
54.604
 30
0.0
 70
0
  0
VERTEX
  5
2F0
  8
0
 10
52.635
 20
54.604
 30
0.0
 70
0
  0
VERTEX
  5
2F1
  8
0
 10
52.688
 20
54.604
 30
0.0
 70
0
  0
SEQEND
  5
2E6
  8
0
  0
POLYLINE
  5
2F2
  8
0
 66
1
 10
0.0
 20
0.0
 30
0.0
 70
0
  0
VERTEX
  5
2F4
  8
0
 10
52.58
 20
55.145
 30
0.0
 70
0
  0
VERTEX
  5
2F5
  8
0
 10
52.635
 20
55.145
 30
0.0
 70
0
  0
VERTEX
  5
2F6
  8
0
 10
52.635
 20
54.983
 30
0.0
 70
0
  0
VERTEX
  5
2F7
  8
0
 10
52.688
 20
54.929
 30
0.0
 70
0
  0
VERTEX
  5
2F8
  8
0
 10
52.688
 20
54.712
 30
0.0
 70
0
  0
SEQEND
  5
2F3
  8
0
  0
POLYLINE
  5
2F9
  8
0
 66
1
 10
0.0
 20
0.0
 30
0.0
 70
0
  0
VERTEX
  5
2FB
  8
0
 10
53.231
 20
57.312
 30
0.0
 70
0
  0
VERTEX
  5
2FC
  8
0
 10
53.231
 20
57.257
 30
0.0
 70
0
  0
VERTEX
  5
2FD
  8
0
 10
53.284
 20
57.257
 30
0.0
 70
0
  0
VERTEX
  5
2FE
  8
0
 10
53.284
 20
57.095
 30
0.0
 70
0
  0
VERTEX
  5
2FF
  8
0
 10
53.338
 20
57.095
 30
0.0
 70
0
  0
VERTEX
  5
300
  8
0
 10
53.338
 20
57.04
 30
0.0
 70
0
  0
SEQEND
  5
2FA
  8
0
  0
POLYLINE
  5
301
  8
0
 66
1
 10
0.0
 20
0.0
 30
0.0
 70
0
  0
VERTEX
  5
303
  8
0
 10
55.667
 20
53.034
 30
0.0
 70
0
  0
VERTEX
  5
304
  8
0
 10
55.667
 20
52.979
 30
0.0
 70
0
  0
VERTEX
  5
305
  8
0
 10
55.721
 20
52.924
 30
0.0
 70
0
  0
VERTEX
  5
306
  8
0
 10
55.774
 20
52.924
 30
0.0
 70
0
  0
SEQEND
  5
302
  8
0
  0
POLYLINE
  5
307
  8
0
 66
1
 10
0.0
 20
0.0
 30
0.0
 70
0
  0
VERTEX
  5
309
  8
0
 10
56.263
 20
55.253
 30
0.0
 70
0
  0
VERTEX
  5
30A
  8
0
 10
56.263
 20
55.198
 30
0.0
 70
0
  0
VERTEX
  5
30B
  8
0
 10
56.208
 20
55.198
 30
0.0
 70
0
  0
VERTEX
  5
30C
  8
0
 10
56.208
 20
55.145
 30
0.0
 70
0
  0
VERTEX
  5
30D
  8
0
 10
56.153
 20
55.145
 30
0.0
 70
0
  0
SEQEND
  5
308
  8
0
  0
POLYLINE
  5
30E
  8
0
 66
1
 10
0.0
 20
0.0
 30
0.0
 70
0
  0
VERTEX
  5
310
  8
0
 10
58.158
 20
56.337
 30
0.0
 70
0
  0
VERTEX
  5
311
  8
0
 10
58.158
 20
56.282
 30
0.0
 70
0
  0
VERTEX
  5
312
  8
0
 10
58.103
 20
56.282
 30
0.0
 70
0
  0
SEQEND
  5
30F
  8
0
  0
POLYLINE
  5
313
  8
0
 66
1
 10
0.0
 20
0.0
 30
0.0
 70
0
  0
VERTEX
  5
315
  8
0
 10
58.537
 20
53.466
 30
0.0
 70
0
  0
VERTEX
  5
316
  8
0
 10
58.537
 20
53.413
 30
0.0
 70
0
  0
VERTEX
  5
317
  8
0
 10
58.482
 20
53.413
 30
0.0
 70
0
  0
VERTEX
  5
318
  8
0
 10
58.429
 20
53.413
 30
0.0
 70
0
  0
SEQEND
  5
314
  8
0
  0
POLYLINE
  5
319
  8
0
 66
1
 10
0.0
 20
0.0
 30
0.0
 70
0
  0
VERTEX
  5
31B
  8
0
 10
58.482
 20
53.413
 30
0.0
 70
0
  0
VERTEX
  5
31C
  8
0
 10
58.537
 20
53.413
 30
0.0
 70
0
  0
VERTEX
  5
31D
  8
0
 10
58.537
 20
53.466
 30
0.0
 70
0
  0
SEQEND
  5
31A
  8
0
  0
POLYLINE
  5
31E
  8
0
 66
1
 10
0.0
 20
0.0
 30
0.0
 70
0
  0
VERTEX
  5
320
  8
0
 10
50.524
 20
51.518
 30
0.0
 70
0
  0
VERTEX
  5
321
  8
0
 10
50.576
 20
51.518
 30
0.0
 70
0
  0
VERTEX
  5
322
  8
0
 10
50.685
 20
51.518
 30
0.0
 70
0
  0
VERTEX
  5
323
  8
0
 10
50.738
 20
51.518
 30
0.0
 70
0
  0
VERTEX
  5
324
  8
0
 10
50.738
 20
51.571
 30
0.0
 70
0
  0
VERTEX
  5
325
  8
0
 10
50.847
 20
51.571
 30
0.0
 70
0
  0
VERTEX
  5
326
  8
0
 10
50.903
 20
51.571
 30
0.0
 70
0
  0
VERTEX
  5
327
  8
0
 10
50.955
 20
51.625
 30
0.0
 70
0
  0
VERTEX
  5
328
  8
0
 10
51.01
 20
51.625
 30
0.0
 70
0
  0
VERTEX
  5
329
  8
0
 10
51.064
 20
51.68
 30
0.0
 70
0
  0
VERTEX
  5
32A
  8
0
 10
51.064
 20
51.733
 30
0.0
 70
0
  0
VERTEX
  5
32B
  8
0
 10
51.172
 20
51.733
 30
0.0
 70
0
  0
VERTEX
  5
32C
  8
0
 10
51.172
 20
51.842
 30
0.0
 70
0
  0
VERTEX
  5
32D
  8
0
 10
51.226
 20
51.842
 30
0.0
 70
0
  0
VERTEX
  5
32E
  8
0
 10
51.226
 20
51.95
 30
0.0
 70
0
  0
VERTEX
  5
32F
  8
0
 10
51.281
 20
51.95
 30
0.0
 70
0
  0
VERTEX
  5
330
  8
0
 10
51.281
 20
52.004
 30
0.0
 70
0
  0
VERTEX
  5
331
  8
0
 10
51.334
 20
52.059
 30
0.0
 70
0
  0
VERTEX
  5
332
  8
0
 10
51.334
 20
52.221
 30
0.0
 70
0
  0
VERTEX
  5
333
  8
0
 10
51.389
 20
52.276
 30
0.0
 70
0
  0
VERTEX
  5
334
  8
0
 10
51.389
 20
52.6
 30
0.0
 70
0
  0
VERTEX
  5
335
  8
0
 10
51.443
 20
52.655
 30
0.0
 70
0
  0
VERTEX
  5
336
  8
0
 10
51.443
 20
52.871
 30
0.0
 70
0
  0
SEQEND
  5
31F
  8
0
  0
POLYLINE
  5
337
  8
0
 66
1
 10
0.0
 20
0.0
 30
0.0
 70
0
  0
VERTEX
  5
339
  8
0
 10
50.524
 20
51.68
 30
0.0
 70
0
  0
VERTEX
  5
33A
  8
0
 10
50.359
 20
51.68
 30
0.0
 70
0
  0
VERTEX
  5
33B
  8
0
 10
50.306
 20
51.733
 30
0.0
 70
0
  0
VERTEX
  5
33C
  8
0
 10
50.09
 20
51.733
 30
0.0
 70
0
  0
VERTEX
  5
33D
  8
0
 10
50.035
 20
51.787
 30
0.0
 70
0
  0
VERTEX
  5
33E
  8
0
 10
49.927
 20
51.787
 30
0.0
 70
0
  0
VERTEX
  5
33F
  8
0
 10
49.873
 20
51.842
 30
0.0
 70
0
  0
VERTEX
  5
340
  8
0
 10
49.764
 20
51.897
 30
0.0
 70
0
  0
VERTEX
  5
341
  8
0
 10
49.711
 20
51.95
 30
0.0
 70
0
  0
VERTEX
  5
342
  8
0
 10
49.601
 20
51.95
 30
0.0
 70
0
  0
VERTEX
  5
343
  8
0
 10
49.494
 20
52.004
 30
0.0
 70
0
  0
VERTEX
  5
344
  8
0
 10
49.439
 20
52.059
 30
0.0
 70
0
  0
VERTEX
  5
345
  8
0
 10
49.332
 20
52.112
 30
0.0
 70
0
  0
VERTEX
  5
346
  8
0
 10
49.222
 20
52.166
 30
0.0
 70
0
  0
VERTEX
  5
347
  8
0
 10
49.115
 20
52.221
 30
0.0
 70
0
  0
VERTEX
  5
348
  8
0
 10
49.06
 20
52.276
 30
0.0
 70
0
  0
VERTEX
  5
349
  8
0
 10
48.952
 20
52.383
 30
0.0
 70
0
  0
VERTEX
  5
34A
  8
0
 10
48.843
 20
52.438
 30
0.0
 70
0
  0
VERTEX
  5
34B
  8
0
 10
48.736
 20
52.545
 30
0.0
 70
0
  0
VERTEX
  5
34C
  8
0
 10
48.627
 20
52.6
 30
0.0
 70
0
  0
VERTEX
  5
34D
  8
0
 10
48.464
 20
52.708
 30
0.0
 70
0
  0
VERTEX
  5
34E
  8
0
 10
48.41
 20
52.762
 30
0.0
 70
0
  0
VERTEX
  5
34F
  8
0
 10
48.248
 20
52.871
 30
0.0
 70
0
  0
VERTEX
  5
350
  8
0
 10
48.14
 20
52.924
 30
0.0
 70
0
  0
VERTEX
  5
351
  8
0
 10
48.031
 20
53.034
 30
0.0
 70
0
  0
VERTEX
  5
352
  8
0
 10
47.923
 20
53.141
 30
0.0
 70
0
  0
VERTEX
  5
353
  8
0
 10
47.761
 20
53.25
 30
0.0
 70
0
  0
VERTEX
  5
354
  8
0
 10
47.599
 20
53.358
 30
0.0
 70
0
  0
VERTEX
  5
355
  8
0
 10
47.49
 20
53.52
 30
0.0
 70
0
  0
VERTEX
  5
356
  8
0
 10
47.328
 20
53.575
 30
0.0
 70
0
  0
VERTEX
  5
357
  8
0
 10
47.165
 20
53.737
 30
0.0
 70
0
  0
VERTEX
  5
358
  8
0
 10
47.003
 20
53.899
 30
0.0
 70
0
  0
VERTEX
  5
359
  8
0
 10
46.841
 20
54.008
 30
0.0
 70
0
  0
VERTEX
  5
35A
  8
0
 10
46.677
 20
54.171
 30
0.0
 70
0
  0
VERTEX
  5
35B
  8
0
 10
46.515
 20
54.278
 30
0.0
 70
0
  0
VERTEX
  5
35C
  8
0
 10
46.408
 20
54.387
 30
0.0
 70
0
  0
VERTEX
  5
35D
  8
0
 10
46.298
 20
54.55
 30
0.0
 70
0
  0
VERTEX
  5
35E
  8
0
 10
46.136
 20
54.657
 30
0.0
 70
0
  0
VERTEX
  5
35F
  8
0
 10
46.028
 20
54.766
 30
0.0
 70
0
  0
VERTEX
  5
360
  8
0
 10
45.919
 20
54.874
 30
0.0
 70
0
  0
VERTEX
  5
361
  8
0
 10
45.811
 20
54.983
 30
0.0
 70
0
  0
VERTEX
  5
362
  8
0
 10
45.649
 20
55.091
 30
0.0
 70
0
  0
VERTEX
  5
363
  8
0
 10
45.54
 20
55.198
 30
0.0
 70
0
  0
SEQEND
  5
338
  8
0
  0
POLYLINE
  5
364
  8
0
 66
1
 10
0.0
 20
0.0
 30
0.0
 70
0
  0
VERTEX
  5
366
  8
0
 10
51.334
 20
54.171
 30
0.0
 70
0
  0
VERTEX
  5
367
  8
0
 10
51.389
 20
54.171
 30
0.0
 70
0
  0
VERTEX
  5
368
  8
0
 10
51.443
 20
54.171
 30
0.0
 70
0
  0
SEQEND
  5
365
  8
0
  0
POLYLINE
  5
369
  8
0
 66
1
 10
0.0
 20
0.0
 30
0.0
 70
0
  0
VERTEX
  5
36B
  8
0
 10
0.812
 20
50.922
 30
0.0
 70
0
  0
VERTEX
  5
36C
  8
0
 10
0.865
 20
50.922
 30
0.0
 70
0
  0
VERTEX
  5
36D
  8
0
 10
0.92
 20
50.922
 30
0.0
 70
0
  0
VERTEX
  5
36E
  8
0
 10
0.974
 20
50.922
 30
0.0
 70
0
  0
VERTEX
  5
36F
  8
0
 10
1.027
 20
50.922
 30
0.0
 70
0
  0
VERTEX
  5
370
  8
0
 10
1.082
 20
50.922
 30
0.0
 70
0
  0
VERTEX
  5
371
  8
0
 10
1.082
 20
50.975
 30
0.0
 70
0
  0
SEQEND
  5
36A
  8
0
  0
POLYLINE
  5
372
  8
0
 66
1
 10
0.0
 20
0.0
 30
0.0
 70
0
  0
VERTEX
  5
374
  8
0
 10
39.584
 20
58.611
 30
0.0
 70
0
  0
VERTEX
  5
375
  8
0
 10
39.639
 20
58.611
 30
0.0
 70
0
  0
VERTEX
  5
376
  8
0
 10
39.693
 20
58.611
 30
0.0
 70
0
  0
SEQEND
  5
373
  8
0
  0
POLYLINE
  5
377
  8
0
 66
1
 10
0.0
 20
0.0
 30
0.0
 70
0
  0
VERTEX
  5
379
  8
0
 10
1.57
 20
51.084
 30
0.0
 70
0
  0
VERTEX
  5
37A
  8
0
 10
1.516
 20
51.084
 30
0.0
 70
0
  0
VERTEX
  5
37B
  8
0
 10
1.516
 20
51.029
 30
0.0
 70
0
  0
SEQEND
  5
378
  8
0
  0
POLYLINE
  5
37C
  8
0
 66
1
 10
0.0
 20
0.0
 30
0.0
 70
0
  0
VERTEX
  5
37E
  8
0
 10
1.57
 20
51.084
 30
0.0
 70
0
  0
VERTEX
  5
37F
  8
0
 10
1.571
 20
51.084
 30
0.0
 70
0
  0
VERTEX
  5
380
  8
0
 10
1.572
 20
51.084
 30
0.0
 70
0
  0
VERTEX
  5
381
  8
0
 10
1.573
 20
51.084
 30
0.0
 70
0
  0
VERTEX
  5
382
  8
0
 10
1.574
 20
51.085
 30
0.0
 70
0
  0
VERTEX
  5
383
  8
0
 10
1.575
 20
51.085
 30
0.0
 70
0
  0
VERTEX
  5
384
  8
0
 10
1.577
 20
51.085
 30
0.0
 70
0
  0
VERTEX
  5
385
  8
0
 10
1.578
 20
51.085
 30
0.0
 70
0
  0
VERTEX
  5
386
  8
0
 10
1.58
 20
51.085
 30
0.0
 70
0
  0
VERTEX
  5
387
  8
0
 10
1.582
 20
51.086
 30
0.0
 70
0
  0
VERTEX
  5
388
  8
0
 10
1.584
 20
51.086
 30
0.0
 70
0
  0
VERTEX
  5
389
  8
0
 10
1.587
 20
51.086
 30
0.0
 70
0
  0
VERTEX
  5
38A
  8
0
 10
1.589
 20
51.086
 30
0.0
 70
0
  0
VERTEX
  5
38B
  8
0
 10
1.592
 20
51.087
 30
0.0
 70
0
  0
VERTEX
  5
38C
  8
0
 10
1.595
 20
51.087
 30
0.0
 70
0
  0
VERTEX
  5
38D
  8
0
 10
1.597
 20
51.087
 30
0.0
 70
0
  0
VERTEX
  5
38E
  8
0
 10
1.601
 20
51.088
 30
0.0
 70
0
  0
VERTEX
  5
38F
  8
0
 10
1.604
 20
51.088
 30
0.0
 70
0
  0
VERTEX
  5
390
  8
0
 10
1.607
 20
51.089
 30
0.0
 70
0
  0
VERTEX
  5
391
  8
0
 10
1.611
 20
51.089
 30
0.0
 70
0
  0
VERTEX
  5
392
  8
0
 10
1.614
 20
51.089
 30
0.0
 70
0
  0
VERTEX
  5
393
  8
0
 10
1.618
 20
51.09
 30
0.0
 70
0
  0
VERTEX
  5
394
  8
0
 10
1.622
 20
51.09
 30
0.0
 70
0
  0
VERTEX
  5
395
  8
0
 10
1.626
 20
51.091
 30
0.0
 70
0
  0
VERTEX
  5
396
  8
0
 10
1.63
 20
51.091
 30
0.0
 70
0
  0
VERTEX
  5
397
  8
0
 10
1.634
 20
51.092
 30
0.0
 70
0
  0
VERTEX
  5
398
  8
0
 10
1.638
 20
51.092
 30
0.0
 70
0
  0
VERTEX
  5
399
  8
0
 10
1.643
 20
51.093
 30
0.0
 70
0
  0
VERTEX
  5
39A
  8
0
 10
1.647
 20
51.093
 30
0.0
 70
0
  0
VERTEX
  5
39B
  8
0
 10
1.652
 20
51.094
 30
0.0
 70
0
  0
VERTEX
  5
39C
  8
0
 10
1.657
 20
51.095
 30
0.0
 70
0
  0
VERTEX
  5
39D
  8
0
 10
1.661
 20
51.095
 30
0.0
 70
0
  0
VERTEX
  5
39E
  8
0
 10
1.666
 20
51.096
 30
0.0
 70
0
  0
VERTEX
  5
39F
  8
0
 10
1.671
 20
51.096
 30
0.0
 70
0
  0
VERTEX
  5
3A0
  8
0
 10
1.676
 20
51.097
 30
0.0
 70
0
  0
VERTEX
  5
3A1
  8
0
 10
1.682
 20
51.098
 30
0.0
 70
0
  0
VERTEX
  5
3A2
  8
0
 10
1.687
 20
51.098
 30
0.0
 70
0
  0
VERTEX
  5
3A3
  8
0
 10
1.692
 20
51.099
 30
0.0
 70
0
  0
VERTEX
  5
3A4
  8
0
 10
1.697
 20
51.1
 30
0.0
 70
0
  0
VERTEX
  5
3A5
  8
0
 10
1.703
 20
51.1
 30
0.0
 70
0
  0
VERTEX
  5
3A6
  8
0
 10
1.708
 20
51.101
 30
0.0
 70
0
  0
VERTEX
  5
3A7
  8
0
 10
1.713
 20
51.102
 30
0.0
 70
0
  0
VERTEX
  5
3A8
  8
0
 10
1.719
 20
51.102
 30
0.0
 70
0
  0
VERTEX
  5
3A9
  8
0
 10
1.725
 20
51.103
 30
0.0
 70
0
  0
VERTEX
  5
3AA
  8
0
 10
1.73
 20
51.104
 30
0.0
 70
0
  0
VERTEX
  5
3AB
  8
0
 10
1.736
 20
51.104
 30
0.0
 70
0
  0
VERTEX
  5
3AC
  8
0
 10
1.742
 20
51.105
 30
0.0
 70
0
  0
VERTEX
  5
3AD
  8
0
 10
1.747
 20
51.106
 30
0.0
 70
0
  0
VERTEX
  5
3AE
  8
0
 10
1.753
 20
51.106
 30
0.0
 70
0
  0
VERTEX
  5
3AF
  8
0
 10
1.759
 20
51.107
 30
0.0
 70
0
  0
VERTEX
  5
3B0
  8
0
 10
1.765
 20
51.108
 30
0.0
 70
0
  0
VERTEX
  5
3B1
  8
0
 10
1.77
 20
51.109
 30
0.0
 70
0
  0
VERTEX
  5
3B2
  8
0
 10
1.776
 20
51.109
 30
0.0
 70
0
  0
VERTEX
  5
3B3
  8
0
 10
1.782
 20
51.11
 30
0.0
 70
0
  0
VERTEX
  5
3B4
  8
0
 10
1.788
 20
51.111
 30
0.0
 70
0
  0
VERTEX
  5
3B5
  8
0
 10
1.794
 20
51.111
 30
0.0
 70
0
  0
VERTEX
  5
3B6
  8
0
 10
1.799
 20
51.112
 30
0.0
 70
0
  0
VERTEX
  5
3B7
  8
0
 10
1.805
 20
51.113
 30
0.0
 70
0
  0
VERTEX
  5
3B8
  8
0
 10
1.811
 20
51.114
 30
0.0
 70
0
  0
VERTEX
  5
3B9
  8
0
 10
1.817
 20
51.114
 30
0.0
 70
0
  0
VERTEX
  5
3BA
  8
0
 10
1.822
 20
51.115
 30
0.0
 70
0
  0
VERTEX
  5
3BB
  8
0
 10
1.828
 20
51.116
 30
0.0
 70
0
  0
VERTEX
  5
3BC
  8
0
 10
1.834
 20
51.116
 30
0.0
 70
0
  0
VERTEX
  5
3BD
  8
0
 10
1.839
 20
51.117
 30
0.0
 70
0
  0
VERTEX
  5
3BE
  8
0
 10
1.845
 20
51.118
 30
0.0
 70
0
  0
VERTEX
  5
3BF
  8
0
 10
1.851
 20
51.118
 30
0.0
 70
0
  0
VERTEX
  5
3C0
  8
0
 10
1.856
 20
51.119
 30
0.0
 70
0
  0
VERTEX
  5
3C1
  8
0
 10
1.862
 20
51.12
 30
0.0
 70
0
  0
VERTEX
  5
3C2
  8
0
 10
1.867
 20
51.12
 30
0.0
 70
0
  0
VERTEX
  5
3C3
  8
0
 10
1.873
 20
51.121
 30
0.0
 70
0
  0
VERTEX
  5
3C4
  8
0
 10
1.878
 20
51.122
 30
0.0
 70
0
  0
VERTEX
  5
3C5
  8
0
 10
1.883
 20
51.122
 30
0.0
 70
0
  0
VERTEX
  5
3C6
  8
0
 10
1.889
 20
51.123
 30
0.0
 70
0
  0
VERTEX
  5
3C7
  8
0
 10
1.894
 20
51.124
 30
0.0
 70
0
  0
VERTEX
  5
3C8
  8
0
 10
1.899
 20
51.124
 30
0.0
 70
0
  0
VERTEX
  5
3C9
  8
0
 10
1.904
 20
51.125
 30
0.0
 70
0
  0
VERTEX
  5
3CA
  8
0
 10
1.909
 20
51.125
 30
0.0
 70
0
  0
VERTEX
  5
3CB
  8
0
 10
1.914
 20
51.126
 30
0.0
 70
0
  0
VERTEX
  5
3CC
  8
0
 10
1.918
 20
51.127
 30
0.0
 70
0
  0
VERTEX
  5
3CD
  8
0
 10
1.923
 20
51.127
 30
0.0
 70
0
  0
VERTEX
  5
3CE
  8
0
 10
1.928
 20
51.128
 30
0.0
 70
0
  0
VERTEX
  5
3CF
  8
0
 10
1.932
 20
51.128
 30
0.0
 70
0
  0
VERTEX
  5
3D0
  8
0
 10
1.936
 20
51.129
 30
0.0
 70
0
  0
VERTEX
  5
3D1
  8
0
 10
1.941
 20
51.129
 30
0.0
 70
0
  0
VERTEX
  5
3D2
  8
0
 10
1.945
 20
51.13
 30
0.0
 70
0
  0
VERTEX
  5
3D3
  8
0
 10
1.949
 20
51.13
 30
0.0
 70
0
  0
VERTEX
  5
3D4
  8
0
 10
1.953
 20
51.131
 30
0.0
 70
0
  0
VERTEX
  5
3D5
  8
0
 10
1.957
 20
51.131
 30
0.0
 70
0
  0
VERTEX
  5
3D6
  8
0
 10
1.96
 20
51.132
 30
0.0
 70
0
  0
VERTEX
  5
3D7
  8
0
 10
1.964
 20
51.132
 30
0.0
 70
0
  0
VERTEX
  5
3D8
  8
0
 10
1.967
 20
51.133
 30
0.0
 70
0
  0
VERTEX
  5
3D9
  8
0
 10
1.97
 20
51.133
 30
0.0
 70
0
  0
VERTEX
  5
3DA
  8
0
 10
1.974
 20
51.134
 30
0.0
 70
0
  0
VERTEX
  5
3DB
  8
0
 10
1.977
 20
51.134
 30
0.0
 70
0
  0
VERTEX
  5
3DC
  8
0
 10
1.98
 20
51.134
 30
0.0
 70
0
  0
VERTEX
  5
3DD
  8
0
 10
1.982
 20
51.135
 30
0.0
 70
0
  0
VERTEX
  5
3DE
  8
0
 10
1.985
 20
51.135
 30
0.0
 70
0
  0
VERTEX
  5
3DF
  8
0
 10
1.987
 20
51.135
 30
0.0
 70
0
  0
VERTEX
  5
3E0
  8
0
 10
1.989
 20
51.135
 30
0.0
 70
0
  0
VERTEX
  5
3E1
  8
0
 10
1.991
 20
51.136
 30
0.0
 70
0
  0
VERTEX
  5
3E2
  8
0
 10
1.993
 20
51.136
 30
0.0
 70
0
  0
VERTEX
  5
3E3
  8
0
 10
1.995
 20
51.136
 30
0.0
 70
0
  0
VERTEX
  5
3E4
  8
0
 10
1.997
 20
51.136
 30
0.0
 70
0
  0
VERTEX
  5
3E5
  8
0
 10
1.998
 20
51.136
 30
0.0
 70
0
  0
VERTEX
  5
3E6
  8
0
 10
1.999
 20
51.137
 30
0.0
 70
0
  0
VERTEX
  5
3E7
  8
0
 10
2.0
 20
51.137
 30
0.0
 70
0
  0
VERTEX
  5
3E8
  8
0
 10
2.001
 20
51.137
 30
0.0
 70
0
  0
VERTEX
  5
3E9
  8
0
 10
2.002
 20
51.137
 30
0.0
 70
0
  0
VERTEX
  5
3EA
  8
0
 10
2.001
 20
51.137
 30
0.0
 70
0
  0
VERTEX
  5
3EB
  8
0
 10
2.0
 20
51.137
 30
0.0
 70
0
  0
VERTEX
  5
3EC
  8
0
 10
1.999
 20
51.137
 30
0.0
 70
0
  0
VERTEX
  5
3ED
  8
0
 10
1.998
 20
51.136
 30
0.0
 70
0
  0
VERTEX
  5
3EE
  8
0
 10
1.997
 20
51.136
 30
0.0
 70
0
  0
VERTEX
  5
3EF
  8
0
 10
1.995
 20
51.136
 30
0.0
 70
0
  0
VERTEX
  5
3F0
  8
0
 10
1.993
 20
51.136
 30
0.0
 70
0
  0
VERTEX
  5
3F1
  8
0
 10
1.991
 20
51.136
 30
0.0
 70
0
  0
VERTEX
  5
3F2
  8
0
 10
1.989
 20
51.135
 30
0.0
 70
0
  0
VERTEX
  5
3F3
  8
0
 10
1.987
 20
51.135
 30
0.0
 70
0
  0
VERTEX
  5
3F4
  8
0
 10
1.985
 20
51.135
 30
0.0
 70
0
  0
VERTEX
  5
3F5
  8
0
 10
1.982
 20
51.135
 30
0.0
 70
0
  0
VERTEX
  5
3F6
  8
0
 10
1.98
 20
51.134
 30
0.0
 70
0
  0
VERTEX
  5
3F7
  8
0
 10
1.977
 20
51.134
 30
0.0
 70
0
  0
VERTEX
  5
3F8
  8
0
 10
1.974
 20
51.134
 30
0.0
 70
0
  0
VERTEX
  5
3F9
  8
0
 10
1.97
 20
51.133
 30
0.0
 70
0
  0
VERTEX
  5
3FA
  8
0
 10
1.967
 20
51.133
 30
0.0
 70
0
  0
VERTEX
  5
3FB
  8
0
 10
1.964
 20
51.132
 30
0.0
 70
0
  0
VERTEX
  5
3FC
  8
0
 10
1.96
 20
51.132
 30
0.0
 70
0
  0
VERTEX
  5
3FD
  8
0
 10
1.957
 20
51.131
 30
0.0
 70
0
  0
VERTEX
  5
3FE
  8
0
 10
1.953
 20
51.131
 30
0.0
 70
0
  0
VERTEX
  5
3FF
  8
0
 10
1.949
 20
51.13
 30
0.0
 70
0
  0
VERTEX
  5
400
  8
0
 10
1.945
 20
51.13
 30
0.0
 70
0
  0
VERTEX
  5
401
  8
0
 10
1.941
 20
51.129
 30
0.0
 70
0
  0
VERTEX
  5
402
  8
0
 10
1.936
 20
51.129
 30
0.0
 70
0
  0
VERTEX
  5
403
  8
0
 10
1.932
 20
51.128
 30
0.0
 70
0
  0
VERTEX
  5
404
  8
0
 10
1.928
 20
51.128
 30
0.0
 70
0
  0
VERTEX
  5
405
  8
0
 10
1.923
 20
51.127
 30
0.0
 70
0
  0
VERTEX
  5
406
  8
0
 10
1.918
 20
51.127
 30
0.0
 70
0
  0
VERTEX
  5
407
  8
0
 10
1.914
 20
51.126
 30
0.0
 70
0
  0
VERTEX
  5
408
  8
0
 10
1.909
 20
51.125
 30
0.0
 70
0
  0
VERTEX
  5
409
  8
0
 10
1.904
 20
51.125
 30
0.0
 70
0
  0
VERTEX
  5
40A
  8
0
 10
1.899
 20
51.124
 30
0.0
 70
0
  0
VERTEX
  5
40B
  8
0
 10
1.894
 20
51.124
 30
0.0
 70
0
  0
VERTEX
  5
40C
  8
0
 10
1.889
 20
51.123
 30
0.0
 70
0
  0
VERTEX
  5
40D
  8
0
 10
1.883
 20
51.122
 30
0.0
 70
0
  0
VERTEX
  5
40E
  8
0
 10
1.878
 20
51.122
 30
0.0
 70
0
  0
VERTEX
  5
40F
  8
0
 10
1.873
 20
51.121
 30
0.0
 70
0
  0
VERTEX
  5
410
  8
0
 10
1.867
 20
51.12
 30
0.0
 70
0
  0
VERTEX
  5
411
  8
0
 10
1.862
 20
51.12
 30
0.0
 70
0
  0
VERTEX
  5
412
  8
0
 10
1.856
 20
51.119
 30
0.0
 70
0
  0
VERTEX
  5
413
  8
0
 10
1.851
 20
51.118
 30
0.0
 70
0
  0
VERTEX
  5
414
  8
0
 10
1.845
 20
51.118
 30
0.0
 70
0
  0
VERTEX
  5
415
  8
0
 10
1.839
 20
51.117
 30
0.0
 70
0
  0
VERTEX
  5
416
  8
0
 10
1.834
 20
51.116
 30
0.0
 70
0
  0
VERTEX
  5
417
  8
0
 10
1.828
 20
51.116
 30
0.0
 70
0
  0
VERTEX
  5
418
  8
0
 10
1.822
 20
51.115
 30
0.0
 70
0
  0
VERTEX
  5
419
  8
0
 10
1.817
 20
51.114
 30
0.0
 70
0
  0
VERTEX
  5
41A
  8
0
 10
1.811
 20
51.114
 30
0.0
 70
0
  0
VERTEX
  5
41B
  8
0
 10
1.805
 20
51.113
 30
0.0
 70
0
  0
VERTEX
  5
41C
  8
0
 10
1.799
 20
51.112
 30
0.0
 70
0
  0
VERTEX
  5
41D
  8
0
 10
1.794
 20
51.111
 30
0.0
 70
0
  0
VERTEX
  5
41E
  8
0
 10
1.788
 20
51.111
 30
0.0
 70
0
  0
VERTEX
  5
41F
  8
0
 10
1.782
 20
51.11
 30
0.0
 70
0
  0
VERTEX
  5
420
  8
0
 10
1.776
 20
51.109
 30
0.0
 70
0
  0
VERTEX
  5
421
  8
0
 10
1.77
 20
51.109
 30
0.0
 70
0
  0
VERTEX
  5
422
  8
0
 10
1.765
 20
51.108
 30
0.0
 70
0
  0
VERTEX
  5
423
  8
0
 10
1.759
 20
51.107
 30
0.0
 70
0
  0
VERTEX
  5
424
  8
0
 10
1.753
 20
51.106
 30
0.0
 70
0
  0
VERTEX
  5
425
  8
0
 10
1.747
 20
51.106
 30
0.0
 70
0
  0
VERTEX
  5
426
  8
0
 10
1.742
 20
51.105
 30
0.0
 70
0
  0
VERTEX
  5
427
  8
0
 10
1.736
 20
51.104
 30
0.0
 70
0
  0
VERTEX
  5
428
  8
0
 10
1.73
 20
51.104
 30
0.0
 70
0
  0
VERTEX
  5
429
  8
0
 10
1.725
 20
51.103
 30
0.0
 70
0
  0
VERTEX
  5
42A
  8
0
 10
1.719
 20
51.102
 30
0.0
 70
0
  0
VERTEX
  5
42B
  8
0
 10
1.713
 20
51.102
 30
0.0
 70
0
  0
VERTEX
  5
42C
  8
0
 10
1.708
 20
51.101
 30
0.0
 70
0
  0
VERTEX
  5
42D
  8
0
 10
1.703
 20
51.1
 30
0.0
 70
0
  0
VERTEX
  5
42E
  8
0
 10
1.697
 20
51.1
 30
0.0
 70
0
  0
VERTEX
  5
42F
  8
0
 10
1.692
 20
51.099
 30
0.0
 70
0
  0
VERTEX
  5
430
  8
0
 10
1.687
 20
51.098
 30
0.0
 70
0
  0
VERTEX
  5
431
  8
0
 10
1.682
 20
51.098
 30
0.0
 70
0
  0
VERTEX
  5
432
  8
0
 10
1.676
 20
51.097
 30
0.0
 70
0
  0
VERTEX
  5
433
  8
0
 10
1.671
 20
51.096
 30
0.0
 70
0
  0
VERTEX
  5
434
  8
0
 10
1.666
 20
51.096
 30
0.0
 70
0
  0
VERTEX
  5
435
  8
0
 10
1.661
 20
51.095
 30
0.0
 70
0
  0
VERTEX
  5
436
  8
0
 10
1.657
 20
51.095
 30
0.0
 70
0
  0
VERTEX
  5
437
  8
0
 10
1.652
 20
51.094
 30
0.0
 70
0
  0
VERTEX
  5
438
  8
0
 10
1.647
 20
51.093
 30
0.0
 70
0
  0
VERTEX
  5
439
  8
0
 10
1.643
 20
51.093
 30
0.0
 70
0
  0
VERTEX
  5
43A
  8
0
 10
1.638
 20
51.092
 30
0.0
 70
0
  0
VERTEX
  5
43B
  8
0
 10
1.634
 20
51.092
 30
0.0
 70
0
  0
VERTEX
  5
43C
  8
0
 10
1.63
 20
51.091
 30
0.0
 70
0
  0
VERTEX
  5
43D
  8
0
 10
1.626
 20
51.091
 30
0.0
 70
0
  0
VERTEX
  5
43E
  8
0
 10
1.622
 20
51.09
 30
0.0
 70
0
  0
VERTEX
  5
43F
  8
0
 10
1.618
 20
51.09
 30
0.0
 70
0
  0
VERTEX
  5
440
  8
0
 10
1.614
 20
51.089
 30
0.0
 70
0
  0
VERTEX
  5
441
  8
0
 10
1.611
 20
51.089
 30
0.0
 70
0
  0
VERTEX
  5
442
  8
0
 10
1.607
 20
51.089
 30
0.0
 70
0
  0
VERTEX
  5
443
  8
0
 10
1.604
 20
51.088
 30
0.0
 70
0
  0
VERTEX
  5
444
  8
0
 10
1.601
 20
51.088
 30
0.0
 70
0
  0
VERTEX
  5
445
  8
0
 10
1.597
 20
51.087
 30
0.0
 70
0
  0
VERTEX
  5
446
  8
0
 10
1.595
 20
51.087
 30
0.0
 70
0
  0
VERTEX
  5
447
  8
0
 10
1.592
 20
51.087
 30
0.0
 70
0
  0
VERTEX
  5
448
  8
0
 10
1.589
 20
51.086
 30
0.0
 70
0
  0
VERTEX
  5
449
  8
0
 10
1.587
 20
51.086
 30
0.0
 70
0
  0
VERTEX
  5
44A
  8
0
 10
1.584
 20
51.086
 30
0.0
 70
0
  0
VERTEX
  5
44B
  8
0
 10
1.582
 20
51.086
 30
0.0
 70
0
  0
VERTEX
  5
44C
  8
0
 10
1.58
 20
51.085
 30
0.0
 70
0
  0
VERTEX
  5
44D
  8
0
 10
1.578
 20
51.085
 30
0.0
 70
0
  0
VERTEX
  5
44E
  8
0
 10
1.577
 20
51.085
 30
0.0
 70
0
  0
VERTEX
  5
44F
  8
0
 10
1.575
 20
51.085
 30
0.0
 70
0
  0
VERTEX
  5
450
  8
0
 10
1.574
 20
51.085
 30
0.0
 70
0
  0
VERTEX
  5
451
  8
0
 10
1.573
 20
51.084
 30
0.0
 70
0
  0
VERTEX
  5
452
  8
0
 10
1.572
 20
51.084
 30
0.0
 70
0
  0
VERTEX
  5
453
  8
0
 10
1.571
 20
51.084
 30
0.0
 70
0
  0
VERTEX
  5
454
  8
0
 10
1.57
 20
51.084
 30
0.0
 70
0
  0
SEQEND
  5
37D
  8
0
  0
POLYLINE
  5
455
  8
0
 66
1
 10
0.0
 20
0.0
 30
0.0
 70
0
  0
VERTEX
  5
457
  8
0
 10
1.082
 20
50.975
 30
0.0
 70
0
  0
VERTEX
  5
458
  8
0
 10
1.137
 20
50.975
 30
0.0
 70
0
  0
VERTEX
  5
459
  8
0
 10
1.191
 20
50.975
 30
0.0
 70
0
  0
VERTEX
  5
45A
  8
0
 10
1.244
 20
50.975
 30
0.0
 70
0
  0
SEQEND
  5
456
  8
0
  0
POLYLINE
  5
45B
  8
0
 66
1
 10
0.0
 20
0.0
 30
0.0
 70
0
  0
VERTEX
  5
45D
  8
0
 10
39.963
 20
56.986
 30
0.0
 70
0
  0
VERTEX
  5
45E
  8
0
 10
39.908
 20
56.986
 30
0.0
 70
0
  0
VERTEX
  5
45F
  8
0
 10
39.855
 20
56.986
 30
0.0
 70
0
  0
VERTEX
  5
460
  8
0
 10
39.801
 20
56.986
 30
0.0
 70
0
  0
SEQEND
  5
45C
  8
0
  0
POLYLINE
  5
461
  8
0
 66
1
 10
0.0
 20
0.0
 30
0.0
 70
0
  0
VERTEX
  5
463
  8
0
 10
39.639
 20
58.394
 30
0.0
 70
0
  0
VERTEX
  5
464
  8
0
 10
39.693
 20
58.394
 30
0.0
 70
0
  0
VERTEX
  5
465
  8
0
 10
39.693
 20
58.449
 30
0.0
 70
0
  0
VERTEX
  5
466
  8
0
 10
39.639
 20
58.449
 30
0.0
 70
0
  0
VERTEX
  5
467
  8
0
 10
39.639
 20
58.394
 30
0.0
 70
0
  0
SEQEND
  5
462
  8
0
  0
POLYLINE
  5
468
  8
0
 66
1
 10
0.0
 20
0.0
 30
0.0
 70
0
  0
VERTEX
  5
46A
  8
0
 10
40.234
 20
58.773
 30
0.0
 70
0
  0
VERTEX
  5
46B
  8
0
 10
40.18
 20
58.773
 30
0.0
 70
0
  0
VERTEX
  5
46C
  8
0
 10
40.18
 20
58.718
 30
0.0
 70
0
  0
SEQEND
  5
469
  8
0
  0
POLYLINE
  5
46D
  8
0
 66
1
 10
0.0
 20
0.0
 30
0.0
 70
0
  0
VERTEX
  5
46F
  8
0
 10
40.234
 20
59.045
 30
0.0
 70
0
  0
VERTEX
  5
470
  8
0
 10
40.18
 20
59.045
 30
0.0
 70
0
  0
VERTEX
  5
471
  8
0
 10
40.18
 20
58.99
 30
0.0
 70
0
  0
SEQEND
  5
46E
  8
0
  0
POLYLINE
  5
472
  8
0
 66
1
 10
0.0
 20
0.0
 30
0.0
 70
0
  0
VERTEX
  5
474
  8
0
 10
40.234
 20
57.636
 30
0.0
 70
0
  0
VERTEX
  5
475
  8
0
 10
40.287
 20
57.636
 30
0.0
 70
0
  0
VERTEX
  5
476
  8
0
 10
40.342
 20
57.636
 30
0.0
 70
0
  0
SEQEND
  5
473
  8
0
  0
POLYLINE
  5
477
  8
0
 66
1
 10
0.0
 20
0.0
 30
0.0
 70
0
  0
VERTEX
  5
479
  8
0
 10
40.451
 20
57.582
 30
0.0
 70
0
  0
VERTEX
  5
47A
  8
0
 10
40.396
 20
57.582
 30
0.0
 70
0
  0
VERTEX
  5
47B
  8
0
 10
40.342
 20
57.527
 30
0.0
 70
0
  0
VERTEX
  5
47C
  8
0
 10
40.287
 20
57.527
 30
0.0
 70
0
  0
VERTEX
  5
47D
  8
0
 10
40.234
 20
57.527
 30
0.0
 70
0
  0
SEQEND
  5
478
  8
0
  0
POLYLINE
  5
47E
  8
0
 66
1
 10
0.0
 20
0.0
 30
0.0
 70
0
  0
VERTEX
  5
480
  8
0
 10
40.072
 20
57.582
 30
0.0
 70
0
  0
VERTEX
  5
481
  8
0
 10
40.017
 20
57.582
 30
0.0
 70
0
  0
VERTEX
  5
482
  8
0
 10
40.017
 20
57.527
 30
0.0
 70
0
  0
VERTEX
  5
483
  8
0
 10
39.963
 20
57.527
 30
0.0
 70
0
  0
VERTEX
  5
484
  8
0
 10
39.855
 20
57.527
 30
0.0
 70
0
  0
SEQEND
  5
47F
  8
0
  0
POLYLINE
  5
485
  8
0
 66
1
 10
0.0
 20
0.0
 30
0.0
 70
0
  0
VERTEX
  5
487
  8
0
 10
40.721
 20
57.419
 30
0.0
 70
0
  0
VERTEX
  5
488
  8
0
 10
40.668
 20
57.419
 30
0.0
 70
0
  0
VERTEX
  5
489
  8
0
 10
40.613
 20
57.419
 30
0.0
 70
0
  0
VERTEX
  5
48A
  8
0
 10
40.559
 20
57.419
 30
0.0
 70
0
  0
VERTEX
  5
48B
  8
0
 10
40.504
 20
57.474
 30
0.0
 70
0
  0
VERTEX
  5
48C
  8
0
 10
40.451
 20
57.474
 30
0.0
 70
0
  0
SEQEND
  5
486
  8
0
  0
POLYLINE
  5
48D
  8
0
 66
1
 10
0.0
 20
0.0
 30
0.0
 70
0
  0
VERTEX
  5
48F
  8
0
 10
40.721
 20
57.474
 30
0.0
 70
0
  0
VERTEX
  5
490
  8
0
 10
40.668
 20
57.474
 30
0.0
 70
0
  0
VERTEX
  5
491
  8
0
 10
40.613
 20
57.474
 30
0.0
 70
0
  0
VERTEX
  5
492
  8
0
 10
40.613
 20
57.582
 30
0.0
 70
0
  0
VERTEX
  5
493
  8
0
 10
40.559
 20
57.582
 30
0.0
 70
0
  0
SEQEND
  5
48E
  8
0
  0
POLYLINE
  5
494
  8
0
 66
1
 10
0.0
 20
0.0
 30
0.0
 70
0
  0
VERTEX
  5
496
  8
0
 10
40.775
 20
58.611
 30
0.0
 70
0
  0
VERTEX
  5
497
  8
0
 10
40.83
 20
58.611
 30
0.0
 70
0
  0
VERTEX
  5
498
  8
0
 10
40.938
 20
58.611
 30
0.0
 70
0
  0
VERTEX
  5
499
  8
0
 10
40.992
 20
58.611
 30
0.0
 70
0
  0
VERTEX
  5
49A
  8
0
 10
41.047
 20
58.556
 30
0.0
 70
0
  0
VERTEX
  5
49B
  8
0
 10
41.1
 20
58.556
 30
0.0
 70
0
  0
VERTEX
  5
49C
  8
0
 10
41.154
 20
58.556
 30
0.0
 70
0
  0
VERTEX
  5
49D
  8
0
 10
41.154
 20
58.449
 30
0.0
 70
0
  0
VERTEX
  5
49E
  8
0
 10
41.209
 20
58.449
 30
0.0
 70
0
  0
VERTEX
  5
49F
  8
0
 10
41.262
 20
58.394
 30
0.0
 70
0
  0
VERTEX
  5
4A0
  8
0
 10
41.262
 20
58.287
 30
0.0
 70
0
  0
SEQEND
  5
495
  8
0
  0
POLYLINE
  5
4A1
  8
0
 66
1
 10
0.0
 20
0.0
 30
0.0
 70
0
  0
VERTEX
  5
4A3
  8
0
 10
40.125
 20
58.287
 30
0.0
 70
0
  0
VERTEX
  5
4A4
  8
0
 10
40.775
 20
58.123
 30
0.0
 70
0
  0
VERTEX
  5
4A5
  8
0
 10
40.83
 20
58.07
 30
0.0
 70
0
  0
VERTEX
  5
4A6
  8
0
 10
40.883
 20
58.07
 30
0.0
 70
0
  0
VERTEX
  5
4A7
  8
0
 10
40.938
 20
58.07
 30
0.0
 70
0
  0
VERTEX
  5
4A8
  8
0
 10
40.938
 20
57.961
 30
0.0
 70
0
  0
VERTEX
  5
4A9
  8
0
 10
40.992
 20
57.961
 30
0.0
 70
0
  0
VERTEX
  5
4AA
  8
0
 10
40.992
 20
57.798
 30
0.0
 70
0
  0
VERTEX
  5
4AB
  8
0
 10
41.047
 20
57.798
 30
0.0
 70
0
  0
VERTEX
  5
4AC
  8
0
 10
41.047
 20
57.744
 30
0.0
 70
0
  0
VERTEX
  5
4AD
  8
0
 10
40.992
 20
57.691
 30
0.0
 70
0
  0
VERTEX
  5
4AE
  8
0
 10
40.992
 20
57.527
 30
0.0
 70
0
  0
VERTEX
  5
4AF
  8
0
 10
40.938
 20
57.527
 30
0.0
 70
0
  0
VERTEX
  5
4B0
  8
0
 10
40.938
 20
57.474
 30
0.0
 70
0
  0
VERTEX
  5
4B1
  8
0
 10
40.883
 20
57.474
 30
0.0
 70
0
  0
VERTEX
  5
4B2
  8
0
 10
40.883
 20
57.419
 30
0.0
 70
0
  0
VERTEX
  5
4B3
  8
0
 10
40.83
 20
57.419
 30
0.0
 70
0
  0
VERTEX
  5
4B4
  8
0
 10
40.775
 20
57.419
 30
0.0
 70
0
  0
VERTEX
  5
4B5
  8
0
 10
40.721
 20
57.419
 30
0.0
 70
0
  0
SEQEND
  5
4A2
  8
0
  0
POLYLINE
  5
4B6
  8
0
 66
1
 10
0.0
 20
0.0
 30
0.0
 70
0
  0
VERTEX
  5
4B8
  8
0
 10
40.775
 20
58.015
 30
0.0
 70
0
  0
VERTEX
  5
4B9
  8
0
 10
40.775
 20
57.961
 30
0.0
 70
0
  0
VERTEX
  5
4BA
  8
0
 10
40.83
 20
57.961
 30
0.0
 70
0
  0
VERTEX
  5
4BB
  8
0
 10
40.83
 20
57.906
 30
0.0
 70
0
  0
VERTEX
  5
4BC
  8
0
 10
40.883
 20
57.906
 30
0.0
 70
0
  0
VERTEX
  5
4BD
  8
0
 10
40.938
 20
57.906
 30
0.0
 70
0
  0
VERTEX
  5
4BE
  8
0
 10
40.938
 20
57.636
 30
0.0
 70
0
  0
VERTEX
  5
4BF
  8
0
 10
40.883
 20
57.636
 30
0.0
 70
0
  0
VERTEX
  5
4C0
  8
0
 10
40.883
 20
57.582
 30
0.0
 70
0
  0
VERTEX
  5
4C1
  8
0
 10
40.83
 20
57.582
 30
0.0
 70
0
  0
VERTEX
  5
4C2
  8
0
 10
40.83
 20
57.527
 30
0.0
 70
0
  0
VERTEX
  5
4C3
  8
0
 10
40.775
 20
57.527
 30
0.0
 70
0
  0
VERTEX
  5
4C4
  8
0
 10
40.775
 20
57.474
 30
0.0
 70
0
  0
VERTEX
  5
4C5
  8
0
 10
40.721
 20
57.474
 30
0.0
 70
0
  0
SEQEND
  5
4B7
  8
0
  0
POLYLINE
  5
4C6
  8
0
 66
1
 10
0.0
 20
0.0
 30
0.0
 70
0
  0
VERTEX
  5
4C8
  8
0
 10
40.234
 20
57.527
 30
0.0
 70
0
  0
VERTEX
  5
4C9
  8
0
 10
40.18
 20
57.527
 30
0.0
 70
0
  0
VERTEX
  5
4CA
  8
0
 10
40.125
 20
57.527
 30
0.0
 70
0
  0
VERTEX
  5
4CB
  8
0
 10
40.125
 20
57.582
 30
0.0
 70
0
  0
VERTEX
  5
4CC
  8
0
 10
40.072
 20
57.582
 30
0.0
 70
0
  0
SEQEND
  5
4C7
  8
0
  0
POLYLINE
  5
4CD
  8
0
 66
1
 10
0.0
 20
0.0
 30
0.0
 70
0
  0
VERTEX
  5
4CF
  8
0
 10
45.378
 20
55.145
 30
0.0
 70
0
  0
VERTEX
  5
4D0
  8
0
 10
45.487
 20
55.036
 30
0.0
 70
0
  0
VERTEX
  5
4D1
  8
0
 10
45.54
 20
54.983
 30
0.0
 70
0
  0
VERTEX
  5
4D2
  8
0
 10
45.649
 20
54.874
 30
0.0
 70
0
  0
VERTEX
  5
4D3
  8
0
 10
45.757
 20
54.819
 30
0.0
 70
0
  0
VERTEX
  5
4D4
  8
0
 10
45.866
 20
54.712
 30
0.0
 70
0
  0
VERTEX
  5
4D5
  8
0
 10
45.974
 20
54.604
 30
0.0
 70
0
  0
VERTEX
  5
4D6
  8
0
 10
46.028
 20
54.495
 30
0.0
 70
0
  0
VERTEX
  5
4D7
  8
0
 10
46.191
 20
54.44
 30
0.0
 70
0
  0
VERTEX
  5
4D8
  8
0
 10
46.298
 20
54.333
 30
0.0
 70
0
  0
VERTEX
  5
4D9
  8
0
 10
46.353
 20
54.225
 30
0.0
 70
0
  0
VERTEX
  5
4DA
  8
0
 10
46.515
 20
54.116
 30
0.0
 70
0
  0
VERTEX
  5
4DB
  8
0
 10
46.624
 20
54.008
 30
0.0
 70
0
  0
VERTEX
  5
4DC
  8
0
 10
46.731
 20
53.899
 30
0.0
 70
0
  0
VERTEX
  5
4DD
  8
0
 10
46.841
 20
53.845
 30
0.0
 70
0
  0
VERTEX
  5
4DE
  8
0
 10
47.003
 20
53.682
 30
0.0
 70
0
  0
VERTEX
  5
4DF
  8
0
 10
47.111
 20
53.575
 30
0.0
 70
0
  0
VERTEX
  5
4E0
  8
0
 10
47.273
 20
53.466
 30
0.0
 70
0
  0
VERTEX
  5
4E1
  8
0
 10
47.437
 20
53.358
 30
0.0
 70
0
  0
VERTEX
  5
4E2
  8
0
 10
47.544
 20
53.196
 30
0.0
 70
0
  0
VERTEX
  5
4E3
  8
0
 10
47.707
 20
53.087
 30
0.0
 70
0
  0
VERTEX
  5
4E4
  8
0
 10
47.816
 20
52.979
 30
0.0
 70
0
  0
VERTEX
  5
4E5
  8
0
 10
47.978
 20
52.871
 30
0.0
 70
0
  0
VERTEX
  5
4E6
  8
0
 10
48.085
 20
52.762
 30
0.0
 70
0
  0
VERTEX
  5
4E7
  8
0
 10
48.248
 20
52.708
 30
0.0
 70
0
  0
VERTEX
  5
4E8
  8
0
 10
48.302
 20
52.6
 30
0.0
 70
0
  0
VERTEX
  5
4E9
  8
0
 10
48.464
 20
52.545
 30
0.0
 70
0
  0
VERTEX
  5
4EA
  8
0
 10
48.574
 20
52.438
 30
0.0
 70
0
  0
VERTEX
  5
4EB
  8
0
 10
48.681
 20
52.383
 30
0.0
 70
0
  0
VERTEX
  5
4EC
  8
0
 10
48.791
 20
52.276
 30
0.0
 70
0
  0
VERTEX
  5
4ED
  8
0
 10
48.898
 20
52.221
 30
0.0
 70
0
  0
VERTEX
  5
4EE
  8
0
 10
49.005
 20
52.112
 30
0.0
 70
0
  0
VERTEX
  5
4EF
  8
0
 10
49.115
 20
52.059
 30
0.0
 70
0
  0
VERTEX
  5
4F0
  8
0
 10
49.222
 20
52.059
 30
0.0
 70
0
  0
VERTEX
  5
4F1
  8
0
 10
49.277
 20
51.95
 30
0.0
 70
0
  0
VERTEX
  5
4F2
  8
0
 10
49.384
 20
51.897
 30
0.0
 70
0
  0
VERTEX
  5
4F3
  8
0
 10
49.439
 20
51.897
 30
0.0
 70
0
  0
VERTEX
  5
4F4
  8
0
 10
49.549
 20
51.787
 30
0.0
 70
0
  0
VERTEX
  5
4F5
  8
0
 10
49.656
 20
51.787
 30
0.0
 70
0
  0
VERTEX
  5
4F6
  8
0
 10
49.711
 20
51.733
 30
0.0
 70
0
  0
VERTEX
  5
4F7
  8
0
 10
49.818
 20
51.733
 30
0.0
 70
0
  0
VERTEX
  5
4F8
  8
0
 10
49.873
 20
51.68
 30
0.0
 70
0
  0
VERTEX
  5
4F9
  8
0
 10
49.927
 20
51.625
 30
0.0
 70
0
  0
VERTEX
  5
4FA
  8
0
 10
50.035
 20
51.625
 30
0.0
 70
0
  0
VERTEX
  5
4FB
  8
0
 10
50.09
 20
51.571
 30
0.0
 70
0
  0
VERTEX
  5
4FC
  8
0
 10
50.306
 20
51.571
 30
0.0
 70
0
  0
VERTEX
  5
4FD
  8
0
 10
50.359
 20
51.518
 30
0.0
 70
0
  0
VERTEX
  5
4FE
  8
0
 10
50.524
 20
51.518
 30
0.0
 70
0
  0
SEQEND
  5
4CE
  8
0
  0
POLYLINE
  5
4FF
  8
0
 66
1
 10
0.0
 20
0.0
 30
0.0
 70
0
  0
VERTEX
  5
501
  8
0
 10
43.59
 20
57.04
 30
0.0
 70
0
  0
VERTEX
  5
502
  8
0
 10
43.537
 20
57.095
 30
0.0
 70
0
  0
VERTEX
  5
503
  8
0
 10
43.428
 20
57.148
 30
0.0
 70
0
  0
VERTEX
  5
504
  8
0
 10
43.375
 20
57.257
 30
0.0
 70
0
  0
VERTEX
  5
505
  8
0
 10
43.321
 20
57.312
 30
0.0
 70
0
  0
VERTEX
  5
506
  8
0
 10
43.266
 20
57.365
 30
0.0
 70
0
  0
VERTEX
  5
507
  8
0
 10
43.212
 20
57.419
 30
0.0
 70
0
  0
VERTEX
  5
508
  8
0
 10
43.104
 20
57.474
 30
0.0
 70
0
  0
VERTEX
  5
509
  8
0
 10
43.049
 20
57.527
 30
0.0
 70
0
  0
VERTEX
  5
50A
  8
0
 10
42.995
 20
57.582
 30
0.0
 70
0
  0
VERTEX
  5
50B
  8
0
 10
42.942
 20
57.636
 30
0.0
 70
0
  0
VERTEX
  5
50C
  8
0
 10
42.887
 20
57.691
 30
0.0
 70
0
  0
VERTEX
  5
50D
  8
0
 10
42.832
 20
57.744
 30
0.0
 70
0
  0
VERTEX
  5
50E
  8
0
 10
42.78
 20
57.798
 30
0.0
 70
0
  0
VERTEX
  5
50F
  8
0
 10
42.725
 20
57.853
 30
0.0
 70
0
  0
VERTEX
  5
510
  8
0
 10
42.67
 20
57.906
 30
0.0
 70
0
  0
VERTEX
  5
511
  8
0
 10
42.615
 20
57.961
 30
0.0
 70
0
  0
VERTEX
  5
512
  8
0
 10
42.563
 20
57.961
 30
0.0
 70
0
  0
VERTEX
  5
513
  8
0
 10
42.508
 20
58.07
 30
0.0
 70
0
  0
VERTEX
  5
514
  8
0
 10
42.454
 20
58.07
 30
0.0
 70
0
  0
VERTEX
  5
515
  8
0
 10
42.401
 20
58.123
 30
0.0
 70
0
  0
VERTEX
  5
516
  8
0
 10
42.346
 20
58.177
 30
0.0
 70
0
  0
VERTEX
  5
517
  8
0
 10
42.292
 20
58.232
 30
0.0
 70
0
  0
VERTEX
  5
518
  8
0
 10
42.236
 20
58.287
 30
0.0
 70
0
  0
VERTEX
  5
519
  8
0
 10
42.184
 20
58.287
 30
0.0
 70
0
  0
VERTEX
  5
51A
  8
0
 10
42.129
 20
58.394
 30
0.0
 70
0
  0
VERTEX
  5
51B
  8
0
 10
42.075
 20
58.394
 30
0.0
 70
0
  0
VERTEX
  5
51C
  8
0
 10
42.075
 20
58.449
 30
0.0
 70
0
  0
VERTEX
  5
51D
  8
0
 10
41.967
 20
58.449
 30
0.0
 70
0
  0
VERTEX
  5
51E
  8
0
 10
41.967
 20
58.502
 30
0.0
 70
0
  0
VERTEX
  5
51F
  8
0
 10
41.913
 20
58.556
 30
0.0
 70
0
  0
VERTEX
  5
520
  8
0
 10
41.858
 20
58.611
 30
0.0
 70
0
  0
VERTEX
  5
521
  8
0
 10
41.805
 20
58.611
 30
0.0
 70
0
  0
VERTEX
  5
522
  8
0
 10
41.75
 20
58.666
 30
0.0
 70
0
  0
VERTEX
  5
523
  8
0
 10
41.75
 20
58.718
 30
0.0
 70
0
  0
VERTEX
  5
524
  8
0
 10
41.641
 20
58.718
 30
0.0
 70
0
  0
VERTEX
  5
525
  8
0
 10
41.641
 20
58.773
 30
0.0
 70
0
  0
VERTEX
  5
526
  8
0
 10
41.588
 20
58.773
 30
0.0
 70
0
  0
VERTEX
  5
527
  8
0
 10
41.533
 20
58.828
 30
0.0
 70
0
  0
VERTEX
  5
528
  8
0
 10
41.479
 20
58.881
 30
0.0
 70
0
  0
VERTEX
  5
529
  8
0
 10
41.426
 20
58.935
 30
0.0
 70
0
  0
VERTEX
  5
52A
  8
0
 10
41.371
 20
58.935
 30
0.0
 70
0
  0
VERTEX
  5
52B
  8
0
 10
41.316
 20
58.99
 30
0.0
 70
0
  0
VERTEX
  5
52C
  8
0
 10
41.316
 20
59.045
 30
0.0
 70
0
  0
VERTEX
  5
52D
  8
0
 10
41.262
 20
59.045
 30
0.0
 70
0
  0
VERTEX
  5
52E
  8
0
 10
41.262
 20
59.097
 30
0.0
 70
0
  0
VERTEX
  5
52F
  8
0
 10
41.154
 20
59.097
 30
0.0
 70
0
  0
VERTEX
  5
530
  8
0
 10
41.154
 20
59.152
 30
0.0
 70
0
  0
VERTEX
  5
531
  8
0
 10
41.1
 20
59.152
 30
0.0
 70
0
  0
VERTEX
  5
532
  8
0
 10
41.1
 20
59.207
 30
0.0
 70
0
  0
VERTEX
  5
533
  8
0
 10
40.992
 20
59.207
 30
0.0
 70
0
  0
VERTEX
  5
534
  8
0
 10
40.992
 20
59.26
 30
0.0
 70
0
  0
VERTEX
  5
535
  8
0
 10
40.938
 20
59.26
 30
0.0
 70
0
  0
VERTEX
  5
536
  8
0
 10
40.883
 20
59.26
 30
0.0
 70
0
  0
VERTEX
  5
537
  8
0
 10
40.83
 20
59.314
 30
0.0
 70
0
  0
VERTEX
  5
538
  8
0
 10
40.775
 20
59.314
 30
0.0
 70
0
  0
VERTEX
  5
539
  8
0
 10
40.721
 20
59.314
 30
0.0
 70
0
  0
VERTEX
  5
53A
  8
0
 10
40.668
 20
59.369
 30
0.0
 70
0
  0
VERTEX
  5
53B
  8
0
 10
40.613
 20
59.369
 30
0.0
 70
0
  0
VERTEX
  5
53C
  8
0
 10
40.613
 20
59.424
 30
0.0
 70
0
  0
VERTEX
  5
53D
  8
0
 10
40.504
 20
59.424
 30
0.0
 70
0
  0
VERTEX
  5
53E
  8
0
 10
40.451
 20
59.424
 30
0.0
 70
0
  0
VERTEX
  5
53F
  8
0
 10
40.396
 20
59.424
 30
0.0
 70
0
  0
VERTEX
  5
540
  8
0
 10
40.396
 20
59.369
 30
0.0
 70
0
  0
VERTEX
  5
541
  8
0
 10
40.342
 20
59.369
 30
0.0
 70
0
  0
VERTEX
  5
542
  8
0
 10
40.342
 20
59.314
 30
0.0
 70
0
  0
VERTEX
  5
543
  8
0
 10
40.287
 20
59.314
 30
0.0
 70
0
  0
VERTEX
  5
544
  8
0
 10
40.287
 20
59.26
 30
0.0
 70
0
  0
VERTEX
  5
545
  8
0
 10
40.234
 20
59.26
 30
0.0
 70
0
  0
VERTEX
  5
546
  8
0
 10
40.18
 20
59.26
 30
0.0
 70
0
  0
VERTEX
  5
547
  8
0
 10
40.18
 20
58.99
 30
0.0
 70
0
  0
SEQEND
  5
500
  8
0
  0
POLYLINE
  5
548
  8
0
 66
1
 10
0.0
 20
0.0
 30
0.0
 70
0
  0
VERTEX
  5
54A
  8
0
 10
53.446
 20
57.148
 30
0.0
 70
0
  0
VERTEX
  5
54B
  8
0
 10
53.446
 20
57.095
 30
0.0
 70
0
  0
VERTEX
  5
54C
  8
0
 10
53.61
 20
57.04
 30
0.0
 70
0
  0
SEQEND
  5
549
  8
0
  0
POLYLINE
  5
54D
  8
0
 66
1
 10
0.0
 20
0.0
 30
0.0
 70
0
  0
VERTEX
  5
54F
  8
0
 10
39.963
 20
57.798
 30
0.0
 70
0
  0
VERTEX
  5
550
  8
0
 10
39.963
 20
57.744
 30
0.0
 70
0
  0
VERTEX
  5
551
  8
0
 10
40.017
 20
57.744
 30
0.0
 70
0
  0
VERTEX
  5
552
  8
0
 10
40.017
 20
57.691
 30
0.0
 70
0
  0
VERTEX
  5
553
  8
0
 10
40.072
 20
57.691
 30
0.0
 70
0
  0
VERTEX
  5
554
  8
0
 10
40.072
 20
57.636
 30
0.0
 70
0
  0
VERTEX
  5
555
  8
0
 10
40.125
 20
57.636
 30
0.0
 70
0
  0
VERTEX
  5
556
  8
0
 10
40.18
 20
57.636
 30
0.0
 70
0
  0
VERTEX
  5
557
  8
0
 10
40.234
 20
57.636
 30
0.0
 70
0
  0
SEQEND
  5
54E
  8
0
  0
POLYLINE
  5
558
  8
0
 66
1
 10
0.0
 20
0.0
 30
0.0
 70
0
  0
VERTEX
  5
55A
  8
0
 10
39.205
 20
58.287
 30
0.0
 70
0
  0
VERTEX
  5
55B
  8
0
 10
39.205
 20
58.394
 30
0.0
 70
0
  0
VERTEX
  5
55C
  8
0
 10
39.259
 20
58.394
 30
0.0
 70
0
  0
VERTEX
  5
55D
  8
0
 10
39.259
 20
58.449
 30
0.0
 70
0
  0
VERTEX
  5
55E
  8
0
 10
39.314
 20
58.449
 30
0.0
 70
0
  0
VERTEX
  5
55F
  8
0
 10
39.314
 20
58.502
 30
0.0
 70
0
  0
VERTEX
  5
560
  8
0
 10
39.367
 20
58.502
 30
0.0
 70
0
  0
VERTEX
  5
561
  8
0
 10
39.367
 20
58.556
 30
0.0
 70
0
  0
VERTEX
  5
562
  8
0
 10
39.422
 20
58.556
 30
0.0
 70
0
  0
VERTEX
  5
563
  8
0
 10
39.476
 20
58.556
 30
0.0
 70
0
  0
SEQEND
  5
559
  8
0
  0
POLYLINE
  5
564
  8
0
 66
1
 10
0.0
 20
0.0
 30
0.0
 70
0
  0
VERTEX
  5
566
  8
0
 10
53.446
 20
57.04
 30
0.0
 70
0
  0
VERTEX
  5
567
  8
0
 10
53.393
 20
57.095
 30
0.0
 70
0
  0
VERTEX
  5
568
  8
0
 10
53.338
 20
57.095
 30
0.0
 70
0
  0
VERTEX
  5
569
  8
0
 10
53.338
 20
57.203
 30
0.0
 70
0
  0
VERTEX
  5
56A
  8
0
 10
53.284
 20
57.257
 30
0.0
 70
0
  0
VERTEX
  5
56B
  8
0
 10
53.284
 20
57.312
 30
0.0
 70
0
  0
SEQEND
  5
565
  8
0
  0
POLYLINE
  5
56C
  8
0
 66
1
 10
0.0
 20
0.0
 30
0.0
 70
0
  0
VERTEX
  5
56E
  8
0
 10
40.559
 20
57.798
 30
0.0
 70
0
  0
VERTEX
  5
56F
  8
0
 10
40.559
 20
57.906
 30
0.0
 70
0
  0
VERTEX
  5
570
  8
0
 10
40.504
 20
57.906
 30
0.0
 70
0
  0
VERTEX
  5
571
  8
0
 10
40.504
 20
57.961
 30
0.0
 70
0
  0
VERTEX
  5
572
  8
0
 10
40.451
 20
57.961
 30
0.0
 70
0
  0
VERTEX
  5
573
  8
0
 10
40.396
 20
57.961
 30
0.0
 70
0
  0
VERTEX
  5
574
  8
0
 10
40.396
 20
58.015
 30
0.0
 70
0
  0
VERTEX
  5
575
  8
0
 10
40.342
 20
58.015
 30
0.0
 70
0
  0
SEQEND
  5
56D
  8
0
  0
POLYLINE
  5
576
  8
0
 66
1
 10
0.0
 20
0.0
 30
0.0
 70
0
  0
VERTEX
  5
578
  8
0
 10
40.342
 20
58.99
 30
0.0
 70
0
  0
VERTEX
  5
579
  8
0
 10
40.342
 20
59.045
 30
0.0
 70
0
  0
VERTEX
  5
57A
  8
0
 10
40.287
 20
59.045
 30
0.0
 70
0
  0
VERTEX
  5
57B
  8
0
 10
40.234
 20
59.045
 30
0.0
 70
0
  0
SEQEND
  5
577
  8
0
  0
POLYLINE
  5
57C
  8
0
 66
1
 10
0.0
 20
0.0
 30
0.0
 70
0
  0
VERTEX
  5
57E
  8
0
 10
40.342
 20
58.718
 30
0.0
 70
0
  0
VERTEX
  5
57F
  8
0
 10
40.342
 20
58.773
 30
0.0
 70
0
  0
VERTEX
  5
580
  8
0
 10
40.287
 20
58.773
 30
0.0
 70
0
  0
VERTEX
  5
581
  8
0
 10
40.234
 20
58.773
 30
0.0
 70
0
  0
SEQEND
  5
57D
  8
0
  0
POLYLINE
  5
582
  8
0
 66
1
 10
0.0
 20
0.0
 30
0.0
 70
0
  0
VERTEX
  5
584
  8
0
 10
40.342
 20
58.99
 30
0.0
 70
0
  0
VERTEX
  5
585
  8
0
 10
40.342
 20
59.207
 30
0.0
 70
0
  0
VERTEX
  5
586
  8
0
 10
40.396
 20
59.207
 30
0.0
 70
0
  0
VERTEX
  5
587
  8
0
 10
40.451
 20
59.26
 30
0.0
 70
0
  0
VERTEX
  5
588
  8
0
 10
40.504
 20
59.26
 30
0.0
 70
0
  0
VERTEX
  5
589
  8
0
 10
40.559
 20
59.26
 30
0.0
 70
0
  0
VERTEX
  5
58A
  8
0
 10
40.613
 20
59.26
 30
0.0
 70
0
  0
VERTEX
  5
58B
  8
0
 10
40.613
 20
59.207
 30
0.0
 70
0
  0
VERTEX
  5
58C
  8
0
 10
40.668
 20
59.207
 30
0.0
 70
0
  0
VERTEX
  5
58D
  8
0
 10
40.721
 20
59.207
 30
0.0
 70
0
  0
VERTEX
  5
58E
  8
0
 10
40.775
 20
59.207
 30
0.0
 70
0
  0
VERTEX
  5
58F
  8
0
 10
40.775
 20
59.152
 30
0.0
 70
0
  0
VERTEX
  5
590
  8
0
 10
40.83
 20
59.152
 30
0.0
 70
0
  0
VERTEX
  5
591
  8
0
 10
40.83
 20
59.097
 30
0.0
 70
0
  0
VERTEX
  5
592
  8
0
 10
40.938
 20
59.097
 30
0.0
 70
0
  0
VERTEX
  5
593
  8
0
 10
40.938
 20
59.045
 30
0.0
 70
0
  0
VERTEX
  5
594
  8
0
 10
40.992
 20
59.045
 30
0.0
 70
0
  0
VERTEX
  5
595
  8
0
 10
41.047
 20
59.045
 30
0.0
 70
0
  0
VERTEX
  5
596
  8
0
 10
41.1
 20
58.99
 30
0.0
 70
0
  0
VERTEX
  5
597
  8
0
 10
41.1
 20
58.935
 30
0.0
 70
0
  0
VERTEX
  5
598
  8
0
 10
41.154
 20
58.935
 30
0.0
 70
0
  0
VERTEX
  5
599
  8
0
 10
41.209
 20
58.881
 30
0.0
 70
0
  0
VERTEX
  5
59A
  8
0
 10
41.262
 20
58.881
 30
0.0
 70
0
  0
VERTEX
  5
59B
  8
0
 10
41.316
 20
58.828
 30
0.0
 70
0
  0
VERTEX
  5
59C
  8
0
 10
41.371
 20
58.773
 30
0.0
 70
0
  0
VERTEX
  5
59D
  8
0
 10
41.426
 20
58.773
 30
0.0
 70
0
  0
VERTEX
  5
59E
  8
0
 10
41.426
 20
58.718
 30
0.0
 70
0
  0
VERTEX
  5
59F
  8
0
 10
41.479
 20
58.718
 30
0.0
 70
0
  0
VERTEX
  5
5A0
  8
0
 10
41.533
 20
58.666
 30
0.0
 70
0
  0
VERTEX
  5
5A1
  8
0
 10
41.588
 20
58.611
 30
0.0
 70
0
  0
VERTEX
  5
5A2
  8
0
 10
41.641
 20
58.556
 30
0.0
 70
0
  0
VERTEX
  5
5A3
  8
0
 10
41.75
 20
58.502
 30
0.0
 70
0
  0
VERTEX
  5
5A4
  8
0
 10
41.75
 20
58.449
 30
0.0
 70
0
  0
VERTEX
  5
5A5
  8
0
 10
41.805
 20
58.449
 30
0.0
 70
0
  0
VERTEX
  5
5A6
  8
0
 10
41.805
 20
58.394
 30
0.0
 70
0
  0
VERTEX
  5
5A7
  8
0
 10
41.913
 20
58.394
 30
0.0
 70
0
  0
VERTEX
  5
5A8
  8
0
 10
41.967
 20
58.34
 30
0.0
 70
0
  0
VERTEX
  5
5A9
  8
0
 10
41.967
 20
58.287
 30
0.0
 70
0
  0
VERTEX
  5
5AA
  8
0
 10
42.022
 20
58.232
 30
0.0
 70
0
  0
VERTEX
  5
5AB
  8
0
 10
42.075
 20
58.232
 30
0.0
 70
0
  0
VERTEX
  5
5AC
  8
0
 10
42.075
 20
58.177
 30
0.0
 70
0
  0
VERTEX
  5
5AD
  8
0
 10
42.129
 20
58.123
 30
0.0
 70
0
  0
VERTEX
  5
5AE
  8
0
 10
42.184
 20
58.123
 30
0.0
 70
0
  0
VERTEX
  5
5AF
  8
0
 10
42.236
 20
58.07
 30
0.0
 70
0
  0
VERTEX
  5
5B0
  8
0
 10
42.292
 20
58.015
 30
0.0
 70
0
  0
VERTEX
  5
5B1
  8
0
 10
42.346
 20
57.961
 30
0.0
 70
0
  0
VERTEX
  5
5B2
  8
0
 10
42.401
 20
57.961
 30
0.0
 70
0
  0
VERTEX
  5
5B3
  8
0
 10
42.454
 20
57.906
 30
0.0
 70
0
  0
VERTEX
  5
5B4
  8
0
 10
42.454
 20
57.853
 30
0.0
 70
0
  0
VERTEX
  5
5B5
  8
0
 10
42.508
 20
57.798
 30
0.0
 70
0
  0
VERTEX
  5
5B6
  8
0
 10
42.563
 20
57.798
 30
0.0
 70
0
  0
VERTEX
  5
5B7
  8
0
 10
42.615
 20
57.744
 30
0.0
 70
0
  0
VERTEX
  5
5B8
  8
0
 10
42.67
 20
57.691
 30
0.0
 70
0
  0
VERTEX
  5
5B9
  8
0
 10
42.725
 20
57.636
 30
0.0
 70
0
  0
VERTEX
  5
5BA
  8
0
 10
42.78
 20
57.582
 30
0.0
 70
0
  0
VERTEX
  5
5BB
  8
0
 10
42.832
 20
57.527
 30
0.0
 70
0
  0
VERTEX
  5
5BC
  8
0
 10
42.887
 20
57.474
 30
0.0
 70
0
  0
VERTEX
  5
5BD
  8
0
 10
42.942
 20
57.419
 30
0.0
 70
0
  0
VERTEX
  5
5BE
  8
0
 10
42.995
 20
57.419
 30
0.0
 70
0
  0
VERTEX
  5
5BF
  8
0
 10
43.049
 20
57.312
 30
0.0
 70
0
  0
VERTEX
  5
5C0
  8
0
 10
43.104
 20
57.312
 30
0.0
 70
0
  0
VERTEX
  5
5C1
  8
0
 10
43.104
 20
57.257
 30
0.0
 70
0
  0
VERTEX
  5
5C2
  8
0
 10
43.212
 20
57.203
 30
0.0
 70
0
  0
VERTEX
  5
5C3
  8
0
 10
43.266
 20
57.148
 30
0.0
 70
0
  0
VERTEX
  5
5C4
  8
0
 10
43.266
 20
57.095
 30
0.0
 70
0
  0
VERTEX
  5
5C5
  8
0
 10
43.375
 20
57.095
 30
0.0
 70
0
  0
VERTEX
  5
5C6
  8
0
 10
43.428
 20
56.986
 30
0.0
 70
0
  0
SEQEND
  5
583
  8
0
  0
POLYLINE
  5
5C7
  8
0
 66
1
 10
0.0
 20
0.0
 30
0.0
 70
0
  0
VERTEX
  5
5C9
  8
0
 10
40.072
 20
57.961
 30
0.0
 70
0
  0
VERTEX
  5
5CA
  8
0
 10
40.017
 20
57.961
 30
0.0
 70
0
  0
VERTEX
  5
5CB
  8
0
 10
39.963
 20
57.906
 30
0.0
 70
0
  0
VERTEX
  5
5CC
  8
0
 10
39.963
 20
57.853
 30
0.0
 70
0
  0
SEQEND
  5
5C8
  8
0
  0
POLYLINE
  5
5CD
  8
0
 66
1
 10
0.0
 20
0.0
 30
0.0
 70
0
  0
VERTEX
  5
5CF
  8
0
 10
40.125
 20
58.232
 30
0.0
 70
0
  0
VERTEX
  5
5D0
  8
0
 10
40.072
 20
58.232
 30
0.0
 70
0
  0
VERTEX
  5
5D1
  8
0
 10
40.072
 20
58.177
 30
0.0
 70
0
  0
SEQEND
  5
5CE
  8
0
  0
POLYLINE
  5
5D2
  8
0
 66
1
 10
0.0
 20
0.0
 30
0.0
 70
0
  0
VERTEX
  5
5D4
  8
0
 10
40.451
 20
57.691
 30
0.0
 70
0
  0
VERTEX
  5
5D5
  8
0
 10
40.504
 20
57.744
 30
0.0
 70
0
  0
VERTEX
  5
5D6
  8
0
 10
40.559
 20
57.798
 30
0.0
 70
0
  0
SEQEND
  5
5D3
  8
0
  0
POLYLINE
  5
5D7
  8
0
 66
1
 10
0.0
 20
0.0
 30
0.0
 70
0
  0
VERTEX
  5
5D9
  8
0
 10
35.685
 20
55.198
 30
0.0
 70
0
  0
VERTEX
  5
5DA
  8
0
 10
35.739
 20
55.253
 30
0.0
 70
0
  0
VERTEX
  5
5DB
  8
0
 10
35.794
 20
55.253
 30
0.0
 70
0
  0
VERTEX
  5
5DC
  8
0
 10
35.847
 20
55.253
 30
0.0
 70
0
  0
VERTEX
  5
5DD
  8
0
 10
35.847
 20
55.308
 30
0.0
 70
0
  0
VERTEX
  5
5DE
  8
0
 10
35.901
 20
55.308
 30
0.0
 70
0
  0
VERTEX
  5
5DF
  8
0
 10
35.956
 20
55.308
 30
0.0
 70
0
  0
VERTEX
  5
5E0
  8
0
 10
36.011
 20
55.308
 30
0.0
 70
0
  0
VERTEX
  5
5E1
  8
0
 10
36.064
 20
55.308
 30
0.0
 70
0
  0
VERTEX
  5
5E2
  8
0
 10
36.118
 20
55.308
 30
0.0
 70
0
  0
VERTEX
  5
5E3
  8
0
 10
36.173
 20
55.308
 30
0.0
 70
0
  0
VERTEX
  5
5E4
  8
0
 10
36.173
 20
55.253
 30
0.0
 70
0
  0
VERTEX
  5
5E5
  8
0
 10
36.226
 20
55.253
 30
0.0
 70
0
  0
VERTEX
  5
5E6
  8
0
 10
36.28
 20
55.253
 30
0.0
 70
0
  0
VERTEX
  5
5E7
  8
0
 10
36.28
 20
55.198
 30
0.0
 70
0
  0
VERTEX
  5
5E8
  8
0
 10
36.335
 20
55.198
 30
0.0
 70
0
  0
SEQEND
  5
5D8
  8
0
  0
POLYLINE
  5
5E9
  8
0
 66
1
 10
0.0
 20
0.0
 30
0.0
 70
0
  0
VERTEX
  5
5EB
  8
0
 10
51.281
 20
52.871
 30
0.0
 70
0
  0
VERTEX
  5
5EC
  8
0
 10
51.281
 20
52.6
 30
0.0
 70
0
  0
VERTEX
  5
5ED
  8
0
 10
51.226
 20
52.545
 30
0.0
 70
0
  0
VERTEX
  5
5EE
  8
0
 10
51.226
 20
52.221
 30
0.0
 70
0
  0
VERTEX
  5
5EF
  8
0
 10
51.172
 20
52.221
 30
0.0
 70
0
  0
VERTEX
  5
5F0
  8
0
 10
51.172
 20
52.059
 30
0.0
 70
0
  0
VERTEX
  5
5F1
  8
0
 10
51.117
 20
52.059
 30
0.0
 70
0
  0
VERTEX
  5
5F2
  8
0
 10
51.117
 20
51.95
 30
0.0
 70
0
  0
VERTEX
  5
5F3
  8
0
 10
51.064
 20
51.95
 30
0.0
 70
0
  0
VERTEX
  5
5F4
  8
0
 10
51.064
 20
51.897
 30
0.0
 70
0
  0
VERTEX
  5
5F5
  8
0
 10
51.01
 20
51.897
 30
0.0
 70
0
  0
VERTEX
  5
5F6
  8
0
 10
51.01
 20
51.787
 30
0.0
 70
0
  0
VERTEX
  5
5F7
  8
0
 10
50.955
 20
51.787
 30
0.0
 70
0
  0
VERTEX
  5
5F8
  8
0
 10
50.903
 20
51.787
 30
0.0
 70
0
  0
VERTEX
  5
5F9
  8
0
 10
50.903
 20
51.733
 30
0.0
 70
0
  0
VERTEX
  5
5FA
  8
0
 10
50.847
 20
51.733
 30
0.0
 70
0
  0
VERTEX
  5
5FB
  8
0
 10
50.738
 20
51.733
 30
0.0
 70
0
  0
VERTEX
  5
5FC
  8
0
 10
50.738
 20
51.68
 30
0.0
 70
0
  0
VERTEX
  5
5FD
  8
0
 10
50.685
 20
51.68
 30
0.0
 70
0
  0
VERTEX
  5
5FE
  8
0
 10
50.576
 20
51.68
 30
0.0
 70
0
  0
VERTEX
  5
5FF
  8
0
 10
50.524
 20
51.68
 30
0.0
 70
0
  0
SEQEND
  5
5EA
  8
0
  0
POLYLINE
  5
600
  8
0
 66
1
 10
0.0
 20
0.0
 30
0.0
 70
0
  0
VERTEX
  5
602
  8
0
 10
53.284
 20
57.474
 30
0.0
 70
0
  0
VERTEX
  5
603
  8
0
 10
53.284
 20
57.473
 30
0.0
 70
0
  0
VERTEX
  5
604
  8
0
 10
53.284
 20
57.472
 30
0.0
 70
0
  0
VERTEX
  5
605
  8
0
 10
53.284
 20
57.471
 30
0.0
 70
0
  0
VERTEX
  5
606
  8
0
 10
53.284
 20
57.47
 30
0.0
 70
0
  0
VERTEX
  5
607
  8
0
 10
53.284
 20
57.469
 30
0.0
 70
0
  0
VERTEX
  5
608
  8
0
 10
53.284
 20
57.468
 30
0.0
 70
0
  0
VERTEX
  5
609
  8
0
 10
53.284
 20
57.467
 30
0.0
 70
0
  0
VERTEX
  5
60A
  8
0
 10
53.284
 20
57.466
 30
0.0
 70
0
  0
VERTEX
  5
60B
  8
0
 10
53.284
 20
57.465
 30
0.0
 70
0
  0
VERTEX
  5
60C
  8
0
 10
53.284
 20
57.464
 30
0.0
 70
0
  0
VERTEX
  5
60D
  8
0
 10
53.284
 20
57.463
 30
0.0
 70
0
  0
VERTEX
  5
60E
  8
0
 10
53.284
 20
57.462
 30
0.0
 70
0
  0
VERTEX
  5
60F
  8
0
 10
53.284
 20
57.46
 30
0.0
 70
0
  0
VERTEX
  5
610
  8
0
 10
53.284
 20
57.459
 30
0.0
 70
0
  0
VERTEX
  5
611
  8
0
 10
53.284
 20
57.458
 30
0.0
 70
0
  0
VERTEX
  5
612
  8
0
 10
53.284
 20
57.456
 30
0.0
 70
0
  0
VERTEX
  5
613
  8
0
 10
53.284
 20
57.455
 30
0.0
 70
0
  0
VERTEX
  5
614
  8
0
 10
53.284
 20
57.453
 30
0.0
 70
0
  0
VERTEX
  5
615
  8
0
 10
53.284
 20
57.452
 30
0.0
 70
0
  0
VERTEX
  5
616
  8
0
 10
53.284
 20
57.45
 30
0.0
 70
0
  0
VERTEX
  5
617
  8
0
 10
53.284
 20
57.448
 30
0.0
 70
0
  0
VERTEX
  5
618
  8
0
 10
53.284
 20
57.447
 30
0.0
 70
0
  0
VERTEX
  5
619
  8
0
 10
53.284
 20
57.445
 30
0.0
 70
0
  0
VERTEX
  5
61A
  8
0
 10
53.284
 20
57.443
 30
0.0
 70
0
  0
VERTEX
  5
61B
  8
0
 10
53.284
 20
57.442
 30
0.0
 70
0
  0
VERTEX
  5
61C
  8
0
 10
53.284
 20
57.44
 30
0.0
 70
0
  0
VERTEX
  5
61D
  8
0
 10
53.284
 20
57.438
 30
0.0
 70
0
  0
VERTEX
  5
61E
  8
0
 10
53.284
 20
57.436
 30
0.0
 70
0
  0
VERTEX
  5
61F
  8
0
 10
53.284
 20
57.434
 30
0.0
 70
0
  0
VERTEX
  5
620
  8
0
 10
53.284
 20
57.432
 30
0.0
 70
0
  0
VERTEX
  5
621
  8
0
 10
53.284
 20
57.43
 30
0.0
 70
0
  0
VERTEX
  5
622
  8
0
 10
53.284
 20
57.428
 30
0.0
 70
0
  0
VERTEX
  5
623
  8
0
 10
53.284
 20
57.426
 30
0.0
 70
0
  0
VERTEX
  5
624
  8
0
 10
53.284
 20
57.424
 30
0.0
 70
0
  0
VERTEX
  5
625
  8
0
 10
53.284
 20
57.422
 30
0.0
 70
0
  0
VERTEX
  5
626
  8
0
 10
53.284
 20
57.42
 30
0.0
 70
0
  0
VERTEX
  5
627
  8
0
 10
53.284
 20
57.418
 30
0.0
 70
0
  0
VERTEX
  5
628
  8
0
 10
53.284
 20
57.416
 30
0.0
 70
0
  0
VERTEX
  5
629
  8
0
 10
53.284
 20
57.414
 30
0.0
 70
0
  0
VERTEX
  5
62A
  8
0
 10
53.284
 20
57.412
 30
0.0
 70
0
  0
VERTEX
  5
62B
  8
0
 10
53.284
 20
57.41
 30
0.0
 70
0
  0
VERTEX
  5
62C
  8
0
 10
53.284
 20
57.408
 30
0.0
 70
0
  0
VERTEX
  5
62D
  8
0
 10
53.284
 20
57.405
 30
0.0
 70
0
  0
VERTEX
  5
62E
  8
0
 10
53.284
 20
57.403
 30
0.0
 70
0
  0
VERTEX
  5
62F
  8
0
 10
53.284
 20
57.401
 30
0.0
 70
0
  0
VERTEX
  5
630
  8
0
 10
53.284
 20
57.399
 30
0.0
 70
0
  0
VERTEX
  5
631
  8
0
 10
53.284
 20
57.397
 30
0.0
 70
0
  0
VERTEX
  5
632
  8
0
 10
53.284
 20
57.395
 30
0.0
 70
0
  0
VERTEX
  5
633
  8
0
 10
53.284
 20
57.392
 30
0.0
 70
0
  0
VERTEX
  5
634
  8
0
 10
53.284
 20
57.39
 30
0.0
 70
0
  0
VERTEX
  5
635
  8
0
 10
53.284
 20
57.388
 30
0.0
 70
0
  0
VERTEX
  5
636
  8
0
 10
53.284
 20
57.386
 30
0.0
 70
0
  0
VERTEX
  5
637
  8
0
 10
53.284
 20
57.384
 30
0.0
 70
0
  0
VERTEX
  5
638
  8
0
 10
53.284
 20
57.381
 30
0.0
 70
0
  0
VERTEX
  5
639
  8
0
 10
53.284
 20
57.379
 30
0.0
 70
0
  0
VERTEX
  5
63A
  8
0
 10
53.284
 20
57.377
 30
0.0
 70
0
  0
VERTEX
  5
63B
  8
0
 10
53.284
 20
57.375
 30
0.0
 70
0
  0
VERTEX
  5
63C
  8
0
 10
53.284
 20
57.373
 30
0.0
 70
0
  0
VERTEX
  5
63D
  8
0
 10
53.284
 20
57.371
 30
0.0
 70
0
  0
VERTEX
  5
63E
  8
0
 10
53.284
 20
57.369
 30
0.0
 70
0
  0
VERTEX
  5
63F
  8
0
 10
53.284
 20
57.367
 30
0.0
 70
0
  0
VERTEX
  5
640
  8
0
 10
53.284
 20
57.365
 30
0.0
 70
0
  0
VERTEX
  5
641
  8
0
 10
53.284
 20
57.363
 30
0.0
 70
0
  0
VERTEX
  5
642
  8
0
 10
53.284
 20
57.36
 30
0.0
 70
0
  0
VERTEX
  5
643
  8
0
 10
53.284
 20
57.358
 30
0.0
 70
0
  0
VERTEX
  5
644
  8
0
 10
53.284
 20
57.357
 30
0.0
 70
0
  0
VERTEX
  5
645
  8
0
 10
53.284
 20
57.354
 30
0.0
 70
0
  0
VERTEX
  5
646
  8
0
 10
53.284
 20
57.353
 30
0.0
 70
0
  0
VERTEX
  5
647
  8
0
 10
53.284
 20
57.351
 30
0.0
 70
0
  0
VERTEX
  5
648
  8
0
 10
53.284
 20
57.349
 30
0.0
 70
0
  0
VERTEX
  5
649
  8
0
 10
53.284
 20
57.347
 30
0.0
 70
0
  0
VERTEX
  5
64A
  8
0
 10
53.284
 20
57.345
 30
0.0
 70
0
  0
VERTEX
  5
64B
  8
0
 10
53.284
 20
57.343
 30
0.0
 70
0
  0
VERTEX
  5
64C
  8
0
 10
53.284
 20
57.342
 30
0.0
 70
0
  0
VERTEX
  5
64D
  8
0
 10
53.284
 20
57.34
 30
0.0
 70
0
  0
VERTEX
  5
64E
  8
0
 10
53.284
 20
57.338
 30
0.0
 70
0
  0
VERTEX
  5
64F
  8
0
 10
53.284
 20
57.337
 30
0.0
 70
0
  0
VERTEX
  5
650
  8
0
 10
53.284
 20
57.335
 30
0.0
 70
0
  0
VERTEX
  5
651
  8
0
 10
53.284
 20
57.333
 30
0.0
 70
0
  0
VERTEX
  5
652
  8
0
 10
53.284
 20
57.332
 30
0.0
 70
0
  0
VERTEX
  5
653
  8
0
 10
53.284
 20
57.33
 30
0.0
 70
0
  0
VERTEX
  5
654
  8
0
 10
53.284
 20
57.329
 30
0.0
 70
0
  0
VERTEX
  5
655
  8
0
 10
53.284
 20
57.328
 30
0.0
 70
0
  0
VERTEX
  5
656
  8
0
 10
53.284
 20
57.326
 30
0.0
 70
0
  0
VERTEX
  5
657
  8
0
 10
53.284
 20
57.325
 30
0.0
 70
0
  0
VERTEX
  5
658
  8
0
 10
53.284
 20
57.324
 30
0.0
 70
0
  0
VERTEX
  5
659
  8
0
 10
53.284
 20
57.323
 30
0.0
 70
0
  0
VERTEX
  5
65A
  8
0
 10
53.284
 20
57.321
 30
0.0
 70
0
  0
VERTEX
  5
65B
  8
0
 10
53.284
 20
57.32
 30
0.0
 70
0
  0
VERTEX
  5
65C
  8
0
 10
53.284
 20
57.319
 30
0.0
 70
0
  0
VERTEX
  5
65D
  8
0
 10
53.284
 20
57.318
 30
0.0
 70
0
  0
VERTEX
  5
65E
  8
0
 10
53.284
 20
57.317
 30
0.0
 70
0
  0
VERTEX
  5
65F
  8
0
 10
53.284
 20
57.316
 30
0.0
 70
0
  0
VERTEX
  5
660
  8
0
 10
53.284
 20
57.315
 30
0.0
 70
0
  0
VERTEX
  5
661
  8
0
 10
53.284
 20
57.314
 30
0.0
 70
0
  0
VERTEX
  5
662
  8
0
 10
53.284
 20
57.313
 30
0.0
 70
0
  0
VERTEX
  5
663
  8
0
 10
53.284
 20
57.312
 30
0.0
 70
0
  0
VERTEX
  5
664
  8
0
 10
53.284
 20
57.313
 30
0.0
 70
0
  0
VERTEX
  5
665
  8
0
 10
53.284
 20
57.314
 30
0.0
 70
0
  0
VERTEX
  5
666
  8
0
 10
53.284
 20
57.315
 30
0.0
 70
0
  0
VERTEX
  5
667
  8
0
 10
53.284
 20
57.316
 30
0.0
 70
0
  0
VERTEX
  5
668
  8
0
 10
53.284
 20
57.317
 30
0.0
 70
0
  0
VERTEX
  5
669
  8
0
 10
53.284
 20
57.318
 30
0.0
 70
0
  0
VERTEX
  5
66A
  8
0
 10
53.284
 20
57.319
 30
0.0
 70
0
  0
VERTEX
  5
66B
  8
0
 10
53.284
 20
57.32
 30
0.0
 70
0
  0
VERTEX
  5
66C
  8
0
 10
53.284
 20
57.321
 30
0.0
 70
0
  0
VERTEX
  5
66D
  8
0
 10
53.284
 20
57.323
 30
0.0
 70
0
  0
VERTEX
  5
66E
  8
0
 10
53.284
 20
57.324
 30
0.0
 70
0
  0
VERTEX
  5
66F
  8
0
 10
53.284
 20
57.325
 30
0.0
 70
0
  0
VERTEX
  5
670
  8
0
 10
53.284
 20
57.326
 30
0.0
 70
0
  0
VERTEX
  5
671
  8
0
 10
53.284
 20
57.328
 30
0.0
 70
0
  0
VERTEX
  5
672
  8
0
 10
53.284
 20
57.329
 30
0.0
 70
0
  0
VERTEX
  5
673
  8
0
 10
53.284
 20
57.33
 30
0.0
 70
0
  0
VERTEX
  5
674
  8
0
 10
53.284
 20
57.332
 30
0.0
 70
0
  0
VERTEX
  5
675
  8
0
 10
53.284
 20
57.333
 30
0.0
 70
0
  0
VERTEX
  5
676
  8
0
 10
53.284
 20
57.335
 30
0.0
 70
0
  0
VERTEX
  5
677
  8
0
 10
53.284
 20
57.337
 30
0.0
 70
0
  0
VERTEX
  5
678
  8
0
 10
53.284
 20
57.338
 30
0.0
 70
0
  0
VERTEX
  5
679
  8
0
 10
53.284
 20
57.34
 30
0.0
 70
0
  0
VERTEX
  5
67A
  8
0
 10
53.284
 20
57.342
 30
0.0
 70
0
  0
VERTEX
  5
67B
  8
0
 10
53.284
 20
57.343
 30
0.0
 70
0
  0
VERTEX
  5
67C
  8
0
 10
53.284
 20
57.345
 30
0.0
 70
0
  0
VERTEX
  5
67D
  8
0
 10
53.284
 20
57.347
 30
0.0
 70
0
  0
VERTEX
  5
67E
  8
0
 10
53.284
 20
57.349
 30
0.0
 70
0
  0
VERTEX
  5
67F
  8
0
 10
53.284
 20
57.351
 30
0.0
 70
0
  0
VERTEX
  5
680
  8
0
 10
53.284
 20
57.353
 30
0.0
 70
0
  0
VERTEX
  5
681
  8
0
 10
53.284
 20
57.354
 30
0.0
 70
0
  0
VERTEX
  5
682
  8
0
 10
53.284
 20
57.357
 30
0.0
 70
0
  0
VERTEX
  5
683
  8
0
 10
53.284
 20
57.358
 30
0.0
 70
0
  0
VERTEX
  5
684
  8
0
 10
53.284
 20
57.36
 30
0.0
 70
0
  0
VERTEX
  5
685
  8
0
 10
53.284
 20
57.363
 30
0.0
 70
0
  0
VERTEX
  5
686
  8
0
 10
53.284
 20
57.365
 30
0.0
 70
0
  0
VERTEX
  5
687
  8
0
 10
53.284
 20
57.367
 30
0.0
 70
0
  0
VERTEX
  5
688
  8
0
 10
53.284
 20
57.369
 30
0.0
 70
0
  0
VERTEX
  5
689
  8
0
 10
53.284
 20
57.371
 30
0.0
 70
0
  0
VERTEX
  5
68A
  8
0
 10
53.284
 20
57.373
 30
0.0
 70
0
  0
VERTEX
  5
68B
  8
0
 10
53.284
 20
57.375
 30
0.0
 70
0
  0
VERTEX
  5
68C
  8
0
 10
53.284
 20
57.377
 30
0.0
 70
0
  0
VERTEX
  5
68D
  8
0
 10
53.284
 20
57.379
 30
0.0
 70
0
  0
VERTEX
  5
68E
  8
0
 10
53.284
 20
57.381
 30
0.0
 70
0
  0
VERTEX
  5
68F
  8
0
 10
53.284
 20
57.384
 30
0.0
 70
0
  0
VERTEX
  5
690
  8
0
 10
53.284
 20
57.386
 30
0.0
 70
0
  0
VERTEX
  5
691
  8
0
 10
53.284
 20
57.388
 30
0.0
 70
0
  0
VERTEX
  5
692
  8
0
 10
53.284
 20
57.39
 30
0.0
 70
0
  0
VERTEX
  5
693
  8
0
 10
53.284
 20
57.392
 30
0.0
 70
0
  0
VERTEX
  5
694
  8
0
 10
53.284
 20
57.395
 30
0.0
 70
0
  0
VERTEX
  5
695
  8
0
 10
53.284
 20
57.397
 30
0.0
 70
0
  0
VERTEX
  5
696
  8
0
 10
53.284
 20
57.399
 30
0.0
 70
0
  0
VERTEX
  5
697
  8
0
 10
53.284
 20
57.401
 30
0.0
 70
0
  0
VERTEX
  5
698
  8
0
 10
53.284
 20
57.403
 30
0.0
 70
0
  0
VERTEX
  5
699
  8
0
 10
53.284
 20
57.405
 30
0.0
 70
0
  0
VERTEX
  5
69A
  8
0
 10
53.284
 20
57.408
 30
0.0
 70
0
  0
VERTEX
  5
69B
  8
0
 10
53.284
 20
57.41
 30
0.0
 70
0
  0
VERTEX
  5
69C
  8
0
 10
53.284
 20
57.412
 30
0.0
 70
0
  0
VERTEX
  5
69D
  8
0
 10
53.284
 20
57.414
 30
0.0
 70
0
  0
VERTEX
  5
69E
  8
0
 10
53.284
 20
57.416
 30
0.0
 70
0
  0
VERTEX
  5
69F
  8
0
 10
53.284
 20
57.418
 30
0.0
 70
0
  0
VERTEX
  5
6A0
  8
0
 10
53.284
 20
57.42
 30
0.0
 70
0
  0
VERTEX
  5
6A1
  8
0
 10
53.284
 20
57.422
 30
0.0
 70
0
  0
VERTEX
  5
6A2
  8
0
 10
53.284
 20
57.424
 30
0.0
 70
0
  0
VERTEX
  5
6A3
  8
0
 10
53.284
 20
57.426
 30
0.0
 70
0
  0
VERTEX
  5
6A4
  8
0
 10
53.284
 20
57.428
 30
0.0
 70
0
  0
VERTEX
  5
6A5
  8
0
 10
53.284
 20
57.43
 30
0.0
 70
0
  0
VERTEX
  5
6A6
  8
0
 10
53.284
 20
57.432
 30
0.0
 70
0
  0
VERTEX
  5
6A7
  8
0
 10
53.284
 20
57.434
 30
0.0
 70
0
  0
VERTEX
  5
6A8
  8
0
 10
53.284
 20
57.436
 30
0.0
 70
0
  0
VERTEX
  5
6A9
  8
0
 10
53.284
 20
57.438
 30
0.0
 70
0
  0
VERTEX
  5
6AA
  8
0
 10
53.284
 20
57.44
 30
0.0
 70
0
  0
VERTEX
  5
6AB
  8
0
 10
53.284
 20
57.442
 30
0.0
 70
0
  0
VERTEX
  5
6AC
  8
0
 10
53.284
 20
57.443
 30
0.0
 70
0
  0
VERTEX
  5
6AD
  8
0
 10
53.284
 20
57.445
 30
0.0
 70
0
  0
VERTEX
  5
6AE
  8
0
 10
53.284
 20
57.447
 30
0.0
 70
0
  0
VERTEX
  5
6AF
  8
0
 10
53.284
 20
57.448
 30
0.0
 70
0
  0
VERTEX
  5
6B0
  8
0
 10
53.284
 20
57.45
 30
0.0
 70
0
  0
VERTEX
  5
6B1
  8
0
 10
53.284
 20
57.452
 30
0.0
 70
0
  0
VERTEX
  5
6B2
  8
0
 10
53.284
 20
57.453
 30
0.0
 70
0
  0
VERTEX
  5
6B3
  8
0
 10
53.284
 20
57.455
 30
0.0
 70
0
  0
VERTEX
  5
6B4
  8
0
 10
53.284
 20
57.456
 30
0.0
 70
0
  0
VERTEX
  5
6B5
  8
0
 10
53.284
 20
57.458
 30
0.0
 70
0
  0
VERTEX
  5
6B6
  8
0
 10
53.284
 20
57.459
 30
0.0
 70
0
  0
VERTEX
  5
6B7
  8
0
 10
53.284
 20
57.46
 30
0.0
 70
0
  0
VERTEX
  5
6B8
  8
0
 10
53.284
 20
57.462
 30
0.0
 70
0
  0
VERTEX
  5
6B9
  8
0
 10
53.284
 20
57.463
 30
0.0
 70
0
  0
VERTEX
  5
6BA
  8
0
 10
53.284
 20
57.464
 30
0.0
 70
0
  0
VERTEX
  5
6BB
  8
0
 10
53.284
 20
57.465
 30
0.0
 70
0
  0
VERTEX
  5
6BC
  8
0
 10
53.284
 20
57.466
 30
0.0
 70
0
  0
VERTEX
  5
6BD
  8
0
 10
53.284
 20
57.467
 30
0.0
 70
0
  0
VERTEX
  5
6BE
  8
0
 10
53.284
 20
57.468
 30
0.0
 70
0
  0
VERTEX
  5
6BF
  8
0
 10
53.284
 20
57.469
 30
0.0
 70
0
  0
VERTEX
  5
6C0
  8
0
 10
53.284
 20
57.47
 30
0.0
 70
0
  0
VERTEX
  5
6C1
  8
0
 10
53.284
 20
57.471
 30
0.0
 70
0
  0
VERTEX
  5
6C2
  8
0
 10
53.284
 20
57.472
 30
0.0
 70
0
  0
VERTEX
  5
6C3
  8
0
 10
53.284
 20
57.473
 30
0.0
 70
0
  0
VERTEX
  5
6C4
  8
0
 10
53.284
 20
57.474
 30
0.0
 70
0
  0
SEQEND
  5
601
  8
0
  0
POLYLINE
  5
6C5
  8
0
 66
1
 10
0.0
 20
0.0
 30
0.0
 70
0
  0
VERTEX
  5
6C7
  8
0
 10
2.491
 20
54.55
 30
0.0
 70
0
  0
VERTEX
  5
6C8
  8
0
 10
2.491
 20
54.604
 30
0.0
 70
0
  0
VERTEX
  5
6C9
  8
0
 10
2.491
 20
54.657
 30
0.0
 70
0
  0
SEQEND
  5
6C6
  8
0
  0
POLYLINE
  5
6CA
  8
0
 66
1
 10
0.0
 20
0.0
 30
0.0
 70
0
  0
VERTEX
  5
6CC
  8
0
 10
2.166
 20
51.137
 30
0.0
 70
0
  0
VERTEX
  5
6CD
  8
0
 10
2.219
 20
51.137
 30
0.0
 70
0
  0
VERTEX
  5
6CE
  8
0
 10
2.274
 20
51.192
 30
0.0
 70
0
  0
VERTEX
  5
6CF
  8
0
 10
2.274
 20
51.246
 30
0.0
 70
0
  0
VERTEX
  5
6D0
  8
0
 10
2.328
 20
51.246
 30
0.0
 70
0
  0
VERTEX
  5
6D1
  8
0
 10
2.328
 20
51.301
 30
0.0
 70
0
  0
SEQEND
  5
6CB
  8
0
  0
POLYLINE
  5
6D2
  8
0
 66
1
 10
0.0
 20
0.0
 30
0.0
 70
0
  0
VERTEX
  5
6D4
  8
0
 10
2.491
 20
54.819
 30
0.0
 70
0
  0
VERTEX
  5
6D5
  8
0
 10
2.436
 20
54.819
 30
0.0
 70
0
  0
VERTEX
  5
6D6
  8
0
 10
2.436
 20
54.874
 30
0.0
 70
0
  0
VERTEX
  5
6D7
  8
0
 10
2.381
 20
54.874
 30
0.0
 70
0
  0
SEQEND
  5
6D3
  8
0
  0
POLYLINE
  5
6D8
  8
0
 66
1
 10
0.0
 20
0.0
 30
0.0
 70
0
  0
VERTEX
  5
6DA
  8
0
 10
2.381
 20
54.495
 30
0.0
 70
0
  0
VERTEX
  5
6DB
  8
0
 10
2.436
 20
54.495
 30
0.0
 70
0
  0
VERTEX
  5
6DC
  8
0
 10
2.491
 20
54.495
 30
0.0
 70
0
  0
VERTEX
  5
6DD
  8
0
 10
2.491
 20
54.55
 30
0.0
 70
0
  0
SEQEND
  5
6D9
  8
0
  0
POLYLINE
  5
6DE
  8
0
 66
1
 10
0.0
 20
0.0
 30
0.0
 70
0
  0
VERTEX
  5
6E0
  8
0
 10
0.269
 20
50.813
 30
0.0
 70
0
  0
VERTEX
  5
6E1
  8
0
 10
0.269
 20
50.758
 30
0.0
 70
0
  0
VERTEX
  5
6E2
  8
0
 10
0.217
 20
50.758
 30
0.0
 70
0
  0
SEQEND
  5
6DF
  8
0
  0
POLYLINE
  5
6E3
  8
0
 66
1
 10
0.0
 20
0.0
 30
0.0
 70
0
  0
VERTEX
  5
6E5
  8
0
 10
2.491
 20
57.365
 30
0.0
 70
0
  0
VERTEX
  5
6E6
  8
0
 10
2.491
 20
57.419
 30
0.0
 70
0
  0
VERTEX
  5
6E7
  8
0
 10
2.491
 20
57.474
 30
0.0
 70
0
  0
SEQEND
  5
6E4
  8
0
  0
POLYLINE
  5
6E8
  8
0
 66
1
 10
0.0
 20
0.0
 30
0.0
 70
0
  0
VERTEX
  5
6EA
  8
0
 10
2.491
 20
57.527
 30
0.0
 70
0
  0
VERTEX
  5
6EB
  8
0
 10
2.491
 20
57.582
 30
0.0
 70
0
  0
VERTEX
  5
6EC
  8
0
 10
2.491
 20
57.636
 30
0.0
 70
0
  0
SEQEND
  5
6E9
  8
0
  0
POLYLINE
  5
6ED
  8
0
 66
1
 10
0.0
 20
0.0
 30
0.0
 70
0
  0
VERTEX
  5
6EF
  8
0
 10
2.328
 20
60.885
 30
0.0
 70
0
  0
VERTEX
  5
6F0
  8
0
 10
2.328
 20
60.94
 30
0.0
 70
0
  0
VERTEX
  5
6F1
  8
0
 10
2.274
 20
60.94
 30
0.0
 70
0
  0
VERTEX
  5
6F2
  8
0
 10
2.274
 20
60.994
 30
0.0
 70
0
  0
VERTEX
  5
6F3
  8
0
 10
2.219
 20
60.994
 30
0.0
 70
0
  0
VERTEX
  5
6F4
  8
0
 10
2.219
 20
61.047
 30
0.0
 70
0
  0
VERTEX
  5
6F5
  8
0
 10
2.166
 20
61.047
 30
0.0
 70
0
  0
SEQEND
  5
6EE
  8
0
  0
POLYLINE
  5
6F6
  8
0
 66
1
 10
0.0
 20
0.0
 30
0.0
 70
0
  0
VERTEX
  5
6F8
  8
0
 10
2.491
 20
57.636
 30
0.0
 70
0
  0
VERTEX
  5
6F9
  8
0
 10
2.491
 20
57.691
 30
0.0
 70
0
  0
VERTEX
  5
6FA
  8
0
 10
2.436
 20
57.691
 30
0.0
 70
0
  0
VERTEX
  5
6FB
  8
0
 10
2.381
 20
57.691
 30
0.0
 70
0
  0
SEQEND
  5
6F7
  8
0
  0
POLYLINE
  5
6FC
  8
0
 66
1
 10
0.0
 20
0.0
 30
0.0
 70
0
  0
VERTEX
  5
6FE
  8
0
 10
2.381
 20
57.312
 30
0.0
 70
0
  0
VERTEX
  5
6FF
  8
0
 10
2.436
 20
57.312
 30
0.0
 70
0
  0
VERTEX
  5
700
  8
0
 10
2.436
 20
57.365
 30
0.0
 70
0
  0
VERTEX
  5
701
  8
0
 10
2.491
 20
57.365
 30
0.0
 70
0
  0
SEQEND
  5
6FD
  8
0
  0
POLYLINE
  5
702
  8
0
 66
1
 10
0.0
 20
0.0
 30
0.0
 70
0
  0
VERTEX
  5
704
  8
0
 10
0.217
 20
61.426
 30
0.0
 70
0
  0
VERTEX
  5
705
  8
0
 10
0.269
 20
61.426
 30
0.0
 70
0
  0
VERTEX
  5
706
  8
0
 10
0.269
 20
61.373
 30
0.0
 70
0
  0
SEQEND
  5
703
  8
0
  0
POLYLINE
  5
707
  8
0
 66
1
 10
0.0
 20
0.0
 30
0.0
 70
0
  0
VERTEX
  5
709
  8
0
 10
54.747
 20
52.871
 30
0.0
 70
0
  0
VERTEX
  5
70A
  8
0
 10
54.799
 20
52.871
 30
0.0
 70
0
  0
VERTEX
  5
70B
  8
0
 10
54.799
 20
52.924
 30
0.0
 70
0
  0
VERTEX
  5
70C
  8
0
 10
54.854
 20
52.924
 30
0.0
 70
0
  0
VERTEX
  5
70D
  8
0
 10
54.909
 20
52.924
 30
0.0
 70
0
  0
VERTEX
  5
70E
  8
0
 10
54.909
 20
52.979
 30
0.0
 70
0
  0
VERTEX
  5
70F
  8
0
 10
54.909
 20
53.034
 30
0.0
 70
0
  0
SEQEND
  5
708
  8
0
  0
POLYLINE
  5
710
  8
0
 66
1
 10
0.0
 20
0.0
 30
0.0
 70
0
  0
VERTEX
  5
712
  8
0
 10
52.471
 20
52.924
 30
0.0
 70
0
  0
VERTEX
  5
713
  8
0
 10
52.526
 20
52.924
 30
0.0
 70
0
  0
VERTEX
  5
714
  8
0
 10
52.58
 20
52.871
 30
0.0
 70
0
  0
VERTEX
  5
715
  8
0
 10
52.635
 20
52.871
 30
0.0
 70
0
  0
SEQEND
  5
711
  8
0
  0
POLYLINE
  5
716
  8
0
 66
1
 10
0.0
 20
0.0
 30
0.0
 70
0
  0
VERTEX
  5
718
  8
0
 10
55.071
 20
52.924
 30
0.0
 70
0
  0
VERTEX
  5
719
  8
0
 10
55.071
 20
52.871
 30
0.0
 70
0
  0
VERTEX
  5
71A
  8
0
 10
55.126
 20
52.871
 30
0.0
 70
0
  0
SEQEND
  5
717
  8
0
  0
POLYLINE
  5
71B
  8
0
 66
1
 10
0.0
 20
0.0
 30
0.0
 70
0
  0
VERTEX
  5
71D
  8
0
 10
54.964
 20
53.413
 30
0.0
 70
0
  0
VERTEX
  5
71E
  8
0
 10
54.909
 20
53.413
 30
0.0
 70
0
  0
VERTEX
  5
71F
  8
0
 10
54.909
 20
53.358
 30
0.0
 70
0
  0
SEQEND
  5
71C
  8
0
  0
POLYLINE
  5
720
  8
0
 66
1
 10
0.0
 20
0.0
 30
0.0
 70
0
  0
VERTEX
  5
722
  8
0
 10
55.071
 20
53.358
 30
0.0
 70
0
  0
VERTEX
  5
723
  8
0
 10
55.071
 20
53.413
 30
0.0
 70
0
  0
VERTEX
  5
724
  8
0
 10
55.017
 20
53.413
 30
0.0
 70
0
  0
SEQEND
  5
721
  8
0
  0
POLYLINE
  5
725
  8
0
 66
1
 10
0.0
 20
0.0
 30
0.0
 70
0
  0
VERTEX
  5
727
  8
0
 10
57.941
 20
52.871
 30
0.0
 70
0
  0
VERTEX
  5
728
  8
0
 10
57.941
 20
52.924
 30
0.0
 70
0
  0
VERTEX
  5
729
  8
0
 10
57.995
 20
52.924
 30
0.0
 70
0
  0
VERTEX
  5
72A
  8
0
 10
58.05
 20
52.924
 30
0.0
 70
0
  0
SEQEND
  5
726
  8
0
  0
POLYLINE
  5
72B
  8
0
 66
1
 10
0.0
 20
0.0
 30
0.0
 70
0
  0
VERTEX
  5
72D
  8
0
 10
55.612
 20
53.034
 30
0.0
 70
0
  0
VERTEX
  5
72E
  8
0
 10
55.612
 20
52.979
 30
0.0
 70
0
  0
VERTEX
  5
72F
  8
0
 10
55.667
 20
52.979
 30
0.0
 70
0
  0
VERTEX
  5
730
  8
0
 10
55.667
 20
52.924
 30
0.0
 70
0
  0
VERTEX
  5
731
  8
0
 10
55.721
 20
52.924
 30
0.0
 70
0
  0
VERTEX
  5
732
  8
0
 10
55.721
 20
52.871
 30
0.0
 70
0
  0
VERTEX
  5
733
  8
0
 10
55.774
 20
52.871
 30
0.0
 70
0
  0
SEQEND
  5
72C
  8
0
  0
POLYLINE
  5
734
  8
0
 66
1
 10
0.0
 20
0.0
 30
0.0
 70
0
  0
VERTEX
  5
736
  8
0
 10
55.559
 20
53.413
 30
0.0
 70
0
  0
VERTEX
  5
737
  8
0
 10
55.505
 20
53.413
 30
0.0
 70
0
  0
VERTEX
  5
738
  8
0
 10
55.505
 20
53.358
 30
0.0
 70
0
  0
VERTEX
  5
739
  8
0
 10
55.45
 20
53.358
 30
0.0
 70
0
  0
SEQEND
  5
735
  8
0
  0
POLYLINE
  5
73A
  8
0
 66
1
 10
0.0
 20
0.0
 30
0.0
 70
0
  0
VERTEX
  5
73C
  8
0
 10
55.612
 20
53.358
 30
0.0
 70
0
  0
VERTEX
  5
73D
  8
0
 10
55.612
 20
53.413
 30
0.0
 70
0
  0
VERTEX
  5
73E
  8
0
 10
55.559
 20
53.413
 30
0.0
 70
0
  0
SEQEND
  5
73B
  8
0
  0
POLYLINE
  5
73F
  8
0
 66
1
 10
0.0
 20
0.0
 30
0.0
 70
0
  0
VERTEX
  5
741
  8
0
 10
49.384
 20
55.145
 30
0.0
 70
0
  0
VERTEX
  5
742
  8
0
 10
49.439
 20
55.091
 30
0.0
 70
0
  0
VERTEX
  5
743
  8
0
 10
49.439
 20
55.036
 30
0.0
 70
0
  0
VERTEX
  5
744
  8
0
 10
49.494
 20
55.036
 30
0.0
 70
0
  0
VERTEX
  5
745
  8
0
 10
49.549
 20
55.036
 30
0.0
 70
0
  0
VERTEX
  5
746
  8
0
 10
49.549
 20
54.983
 30
0.0
 70
0
  0
VERTEX
  5
747
  8
0
 10
49.601
 20
54.983
 30
0.0
 70
0
  0
VERTEX
  5
748
  8
0
 10
49.656
 20
54.983
 30
0.0
 70
0
  0
SEQEND
  5
740
  8
0
  0
POLYLINE
  5
749
  8
0
 66
1
 10
0.0
 20
0.0
 30
0.0
 70
0
  0
VERTEX
  5
74B
  8
0
 10
58.915
 20
55.741
 30
0.0
 70
0
  0
VERTEX
  5
74C
  8
0
 10
58.97
 20
55.741
 30
0.0
 70
0
  0
VERTEX
  5
74D
  8
0
 10
59.025
 20
55.794
 30
0.0
 70
0
  0
SEQEND
  5
74A
  8
0
  0
POLYLINE
  5
74E
  8
0
 66
1
 10
0.0
 20
0.0
 30
0.0
 70
0
  0
VERTEX
  5
750
  8
0
 10
58.646
 20
55.741
 30
0.0
 70
0
  0
VERTEX
  5
751
  8
0
 10
58.592
 20
55.741
 30
0.0
 70
0
  0
VERTEX
  5
752
  8
0
 10
58.592
 20
55.687
 30
0.0
 70
0
  0
SEQEND
  5
74F
  8
0
  0
POLYLINE
  5
753
  8
0
 66
1
 10
0.0
 20
0.0
 30
0.0
 70
0
  0
VERTEX
  5
755
  8
0
 10
51.985
 20
54.604
 30
0.0
 70
0
  0
VERTEX
  5
756
  8
0
 10
51.985
 20
54.657
 30
0.0
 70
0
  0
VERTEX
  5
757
  8
0
 10
51.93
 20
54.657
 30
0.0
 70
0
  0
SEQEND
  5
754
  8
0
  0
POLYLINE
  5
758
  8
0
 66
1
 10
0.0
 20
0.0
 30
0.0
 70
0
  0
VERTEX
  5
75A
  8
0
 10
51.064
 20
54.712
 30
0.0
 70
0
  0
VERTEX
  5
75B
  8
0
 10
51.064
 20
54.657
 30
0.0
 70
0
  0
VERTEX
  5
75C
  8
0
 10
51.117
 20
54.657
 30
0.0
 70
0
  0
SEQEND
  5
759
  8
0
  0
POLYLINE
  5
75D
  8
0
 66
1
 10
0.0
 20
0.0
 30
0.0
 70
0
  0
VERTEX
  5
75F
  8
0
 10
56.153
 20
55.198
 30
0.0
 70
0
  0
VERTEX
  5
760
  8
0
 10
56.208
 20
55.198
 30
0.0
 70
0
  0
VERTEX
  5
761
  8
0
 10
56.208
 20
55.253
 30
0.0
 70
0
  0
SEQEND
  5
75E
  8
0
  0
POLYLINE
  5
762
  8
0
 66
1
 10
0.0
 20
0.0
 30
0.0
 70
0
  0
VERTEX
  5
764
  8
0
 10
39.746
 20
57.257
 30
0.0
 70
0
  0
VERTEX
  5
765
  8
0
 10
39.693
 20
57.257
 30
0.0
 70
0
  0
VERTEX
  5
766
  8
0
 10
39.693
 20
57.203
 30
0.0
 70
0
  0
SEQEND
  5
763
  8
0
  0
POLYLINE
  5
767
  8
0
 66
1
 10
0.0
 20
0.0
 30
0.0
 70
0
  0
VERTEX
  5
769
  8
0
 10
40.017
 20
57.203
 30
0.0
 70
0
  0
VERTEX
  5
76A
  8
0
 10
40.017
 20
57.257
 30
0.0
 70
0
  0
VERTEX
  5
76B
  8
0
 10
39.963
 20
57.257
 30
0.0
 70
0
  0
SEQEND
  5
768
  8
0
  0
POLYLINE
  5
76C
  8
0
 66
1
 10
0.0
 20
0.0
 30
0.0
 70
0
  0
VERTEX
  5
76E
  8
0
 10
40.613
 20
57.257
 30
0.0
 70
0
  0
VERTEX
  5
76F
  8
0
 10
40.559
 20
57.257
 30
0.0
 70
0
  0
VERTEX
  5
770
  8
0
 10
40.504
 20
57.257
 30
0.0
 70
0
  0
SEQEND
  5
76D
  8
0
  0
POLYLINE
  5
771
  8
0
 66
1
 10
0.0
 20
0.0
 30
0.0
 70
0
  0
VERTEX
  5
773
  8
0
 10
39.963
 20
57.257
 30
0.0
 70
0
  0
VERTEX
  5
774
  8
0
 10
39.908
 20
57.257
 30
0.0
 70
0
  0
VERTEX
  5
775
  8
0
 10
39.855
 20
57.257
 30
0.0
 70
0
  0
VERTEX
  5
776
  8
0
 10
39.801
 20
57.257
 30
0.0
 70
0
  0
VERTEX
  5
777
  8
0
 10
39.746
 20
57.257
 30
0.0
 70
0
  0
SEQEND
  5
772
  8
0
  0
POLYLINE
  5
778
  8
0
 66
1
 10
0.0
 20
0.0
 30
0.0
 70
0
  0
VERTEX
  5
77A
  8
0
 10
41.209
 20
57.04
 30
0.0
 70
0
  0
VERTEX
  5
77B
  8
0
 10
41.262
 20
57.04
 30
0.0
 70
0
  0
VERTEX
  5
77C
  8
0
 10
41.262
 20
57.095
 30
0.0
 70
0
  0
VERTEX
  5
77D
  8
0
 10
41.316
 20
57.095
 30
0.0
 70
0
  0
VERTEX
  5
77E
  8
0
 10
41.316
 20
57.148
 30
0.0
 70
0
  0
SEQEND
  5
779
  8
0
  0
POLYLINE
  5
77F
  8
0
 66
1
 10
0.0
 20
0.0
 30
0.0
 70
0
  0
VERTEX
  5
781
  8
0
 10
40.504
 20
57.203
 30
0.0
 70
0
  0
VERTEX
  5
782
  8
0
 10
40.451
 20
57.203
 30
0.0
 70
0
  0
VERTEX
  5
783
  8
0
 10
40.451
 20
57.148
 30
0.0
 70
0
  0
SEQEND
  5
780
  8
0
  0
POLYLINE
  5
784
  8
0
 66
1
 10
0.0
 20
0.0
 30
0.0
 70
0
  0
VERTEX
  5
786
  8
0
 10
40.83
 20
57.148
 30
0.0
 70
0
  0
VERTEX
  5
787
  8
0
 10
40.83
 20
57.203
 30
0.0
 70
0
  0
VERTEX
  5
788
  8
0
 10
40.775
 20
57.203
 30
0.0
 70
0
  0
SEQEND
  5
785
  8
0
  0
POLYLINE
  5
789
  8
0
 66
1
 10
0.0
 20
0.0
 30
0.0
 70
0
  0
VERTEX
  5
78B
  8
0
 10
40.18
 20
57.744
 30
0.0
 70
0
  0
VERTEX
  5
78C
  8
0
 10
40.18
 20
57.691
 30
0.0
 70
0
  0
VERTEX
  5
78D
  8
0
 10
40.18
 20
57.636
 30
0.0
 70
0
  0
VERTEX
  5
78E
  8
0
 10
40.234
 20
57.636
 30
0.0
 70
0
  0
VERTEX
  5
78F
  8
0
 10
40.287
 20
57.636
 30
0.0
 70
0
  0
VERTEX
  5
790
  8
0
 10
40.287
 20
57.691
 30
0.0
 70
0
  0
SEQEND
  5
78A
  8
0
  0
POLYLINE
  5
791
  8
0
 66
1
 10
0.0
 20
0.0
 30
0.0
 70
0
  0
VERTEX
  5
793
  8
0
 10
55.288
 20
55.145
 30
0.0
 70
0
  0
VERTEX
  5
794
  8
0
 10
55.342
 20
55.145
 30
0.0
 70
0
  0
VERTEX
  5
795
  8
0
 10
55.45
 20
55.198
 30
0.0
 70
0
  0
VERTEX
  5
796
  8
0
 10
55.505
 20
55.198
 30
0.0
 70
0
  0
VERTEX
  5
797
  8
0
 10
55.612
 20
55.198
 30
0.0
 70
0
  0
VERTEX
  5
798
  8
0
 10
55.667
 20
55.253
 30
0.0
 70
0
  0
VERTEX
  5
799
  8
0
 10
55.722
 20
55.308
 30
0.0
 70
0
  0
VERTEX
  5
79A
  8
0
 10
55.774
 20
55.308
 30
0.0
 70
0
  0
VERTEX
  5
79B
  8
0
 10
55.884
 20
55.362
 30
0.0
 70
0
  0
VERTEX
  5
79C
  8
0
 10
55.939
 20
55.47
 30
0.0
 70
0
  0
VERTEX
  5
79D
  8
0
 10
55.991
 20
55.524
 30
0.0
 70
0
  0
VERTEX
  5
79E
  8
0
 10
56.046
 20
55.524
 30
0.0
 70
0
  0
VERTEX
  5
79F
  8
0
 10
56.101
 20
55.632
 30
0.0
 70
0
  0
VERTEX
  5
7A0
  8
0
 10
56.101
 20
55.687
 30
0.0
 70
0
  0
VERTEX
  5
7A1
  8
0
 10
56.153
 20
55.794
 30
0.0
 70
0
  0
VERTEX
  5
7A2
  8
0
 10
56.153
 20
55.849
 30
0.0
 70
0
  0
VERTEX
  5
7A3
  8
0
 10
56.208
 20
55.958
 30
0.0
 70
0
  0
VERTEX
  5
7A4
  8
0
 10
56.208
 20
56.011
 30
0.0
 70
0
  0
VERTEX
  5
7A5
  8
0
 10
56.208
 20
56.12
 30
0.0
 70
0
  0
VERTEX
  5
7A6
  8
0
 10
56.208
 20
56.173
 30
0.0
 70
0
  0
VERTEX
  5
7A7
  8
0
 10
56.208
 20
56.282
 30
0.0
 70
0
  0
VERTEX
  5
7A8
  8
0
 10
56.153
 20
56.337
 30
0.0
 70
0
  0
VERTEX
  5
7A9
  8
0
 10
56.153
 20
56.445
 30
0.0
 70
0
  0
VERTEX
  5
7AA
  8
0
 10
56.101
 20
56.499
 30
0.0
 70
0
  0
VERTEX
  5
7AB
  8
0
 10
56.101
 20
56.552
 30
0.0
 70
0
  0
VERTEX
  5
7AC
  8
0
 10
56.046
 20
56.607
 30
0.0
 70
0
  0
VERTEX
  5
7AD
  8
0
 10
55.991
 20
56.661
 30
0.0
 70
0
  0
VERTEX
  5
7AE
  8
0
 10
55.939
 20
56.769
 30
0.0
 70
0
  0
VERTEX
  5
7AF
  8
0
 10
55.884
 20
56.824
 30
0.0
 70
0
  0
VERTEX
  5
7B0
  8
0
 10
55.774
 20
56.824
 30
0.0
 70
0
  0
VERTEX
  5
7B1
  8
0
 10
55.722
 20
56.933
 30
0.0
 70
0
  0
VERTEX
  5
7B2
  8
0
 10
55.667
 20
56.933
 30
0.0
 70
0
  0
VERTEX
  5
7B3
  8
0
 10
55.612
 20
56.986
 30
0.0
 70
0
  0
VERTEX
  5
7B4
  8
0
 10
55.505
 20
56.986
 30
0.0
 70
0
  0
VERTEX
  5
7B5
  8
0
 10
55.45
 20
56.986
 30
0.0
 70
0
  0
VERTEX
  5
7B6
  8
0
 10
55.342
 20
56.986
 30
0.0
 70
0
  0
VERTEX
  5
7B7
  8
0
 10
55.288
 20
57.04
 30
0.0
 70
0
  0
SEQEND
  5
792
  8
0
  0
POLYLINE
  5
7B8
  8
0
 66
1
 10
0.0
 20
0.0
 30
0.0
 70
0
  0
VERTEX
  5
7BA
  8
0
 10
55.667
 20
56.12
 30
0.0
 70
0
  0
VERTEX
  5
7BB
  8
0
 10
55.668
 20
56.12
 30
0.0
 70
0
  0
VERTEX
  5
7BC
  8
0
 10
55.669
 20
56.12
 30
0.0
 70
0
  0
VERTEX
  5
7BD
  8
0
 10
55.67
 20
56.12
 30
0.0
 70
0
  0
VERTEX
  5
7BE
  8
0
 10
55.671
 20
56.12
 30
0.0
 70
0
  0
VERTEX
  5
7BF
  8
0
 10
55.672
 20
56.12
 30
0.0
 70
0
  0
VERTEX
  5
7C0
  8
0
 10
55.673
 20
56.12
 30
0.0
 70
0
  0
VERTEX
  5
7C1
  8
0
 10
55.674
 20
56.12
 30
0.0
 70
0
  0
VERTEX
  5
7C2
  8
0
 10
55.675
 20
56.12
 30
0.0
 70
0
  0
VERTEX
  5
7C3
  8
0
 10
55.676
 20
56.12
 30
0.0
 70
0
  0
VERTEX
  5
7C4
  8
0
 10
55.677
 20
56.12
 30
0.0
 70
0
  0
VERTEX
  5
7C5
  8
0
 10
55.678
 20
56.12
 30
0.0
 70
0
  0
VERTEX
  5
7C6
  8
0
 10
55.679
 20
56.12
 30
0.0
 70
0
  0
VERTEX
  5
7C7
  8
0
 10
55.68
 20
56.12
 30
0.0
 70
0
  0
VERTEX
  5
7C8
  8
0
 10
55.681
 20
56.12
 30
0.0
 70
0
  0
VERTEX
  5
7C9
  8
0
 10
55.682
 20
56.12
 30
0.0
 70
0
  0
VERTEX
  5
7CA
  8
0
 10
55.683
 20
56.12
 30
0.0
 70
0
  0
VERTEX
  5
7CB
  8
0
 10
55.684
 20
56.12
 30
0.0
 70
0
  0
VERTEX
  5
7CC
  8
0
 10
55.685
 20
56.12
 30
0.0
 70
0
  0
VERTEX
  5
7CD
  8
0
 10
55.686
 20
56.12
 30
0.0
 70
0
  0
VERTEX
  5
7CE
  8
0
 10
55.687
 20
56.12
 30
0.0
 70
0
  0
VERTEX
  5
7CF
  8
0
 10
55.688
 20
56.12
 30
0.0
 70
0
  0
VERTEX
  5
7D0
  8
0
 10
55.689
 20
56.12
 30
0.0
 70
0
  0
VERTEX
  5
7D1
  8
0
 10
55.69
 20
56.12
 30
0.0
 70
0
  0
VERTEX
  5
7D2
  8
0
 10
55.691
 20
56.12
 30
0.0
 70
0
  0
VERTEX
  5
7D3
  8
0
 10
55.692
 20
56.12
 30
0.0
 70
0
  0
VERTEX
  5
7D4
  8
0
 10
55.693
 20
56.12
 30
0.0
 70
0
  0
VERTEX
  5
7D5
  8
0
 10
55.694
 20
56.12
 30
0.0
 70
0
  0
VERTEX
  5
7D6
  8
0
 10
55.695
 20
56.12
 30
0.0
 70
0
  0
VERTEX
  5
7D7
  8
0
 10
55.696
 20
56.12
 30
0.0
 70
0
  0
VERTEX
  5
7D8
  8
0
 10
55.697
 20
56.12
 30
0.0
 70
0
  0
VERTEX
  5
7D9
  8
0
 10
55.698
 20
56.12
 30
0.0
 70
0
  0
VERTEX
  5
7DA
  8
0
 10
55.699
 20
56.12
 30
0.0
 70
0
  0
VERTEX
  5
7DB
  8
0
 10
55.7
 20
56.12
 30
0.0
 70
0
  0
VERTEX
  5
7DC
  8
0
 10
55.701
 20
56.12
 30
0.0
 70
0
  0
VERTEX
  5
7DD
  8
0
 10
55.702
 20
56.12
 30
0.0
 70
0
  0
VERTEX
  5
7DE
  8
0
 10
55.703
 20
56.12
 30
0.0
 70
0
  0
VERTEX
  5
7DF
  8
0
 10
55.704
 20
56.12
 30
0.0
 70
0
  0
VERTEX
  5
7E0
  8
0
 10
55.705
 20
56.12
 30
0.0
 70
0
  0
VERTEX
  5
7E1
  8
0
 10
55.706
 20
56.12
 30
0.0
 70
0
  0
VERTEX
  5
7E2
  8
0
 10
55.707
 20
56.12
 30
0.0
 70
0
  0
VERTEX
  5
7E3
  8
0
 10
55.708
 20
56.12
 30
0.0
 70
0
  0
VERTEX
  5
7E4
  8
0
 10
55.709
 20
56.12
 30
0.0
 70
0
  0
VERTEX
  5
7E5
  8
0
 10
55.71
 20
56.12
 30
0.0
 70
0
  0
VERTEX
  5
7E6
  8
0
 10
55.711
 20
56.12
 30
0.0
 70
0
  0
VERTEX
  5
7E7
  8
0
 10
55.712
 20
56.12
 30
0.0
 70
0
  0
VERTEX
  5
7E8
  8
0
 10
55.713
 20
56.12
 30
0.0
 70
0
  0
VERTEX
  5
7E9
  8
0
 10
55.714
 20
56.12
 30
0.0
 70
0
  0
VERTEX
  5
7EA
  8
0
 10
55.715
 20
56.12
 30
0.0
 70
0
  0
VERTEX
  5
7EB
  8
0
 10
55.716
 20
56.12
 30
0.0
 70
0
  0
VERTEX
  5
7EC
  8
0
 10
55.717
 20
56.12
 30
0.0
 70
0
  0
VERTEX
  5
7ED
  8
0
 10
55.718
 20
56.12
 30
0.0
 70
0
  0
VERTEX
  5
7EE
  8
0
 10
55.719
 20
56.12
 30
0.0
 70
0
  0
VERTEX
  5
7EF
  8
0
 10
55.72
 20
56.12
 30
0.0
 70
0
  0
VERTEX
  5
7F0
  8
0
 10
55.721
 20
56.12
 30
0.0
 70
0
  0
VERTEX
  5
7F1
  8
0
 10
55.721
 20
56.114
 30
0.0
 70
0
  0
VERTEX
  5
7F2
  8
0
 10
55.721
 20
56.106
 30
0.0
 70
0
  0
VERTEX
  5
7F3
  8
0
 10
55.721
 20
56.098
 30
0.0
 70
0
  0
VERTEX
  5
7F4
  8
0
 10
55.721
 20
56.09
 30
0.0
 70
0
  0
VERTEX
  5
7F5
  8
0
 10
55.72
 20
56.083
 30
0.0
 70
0
  0
VERTEX
  5
7F6
  8
0
 10
55.719
 20
56.075
 30
0.0
 70
0
  0
VERTEX
  5
7F7
  8
0
 10
55.719
 20
56.068
 30
0.0
 70
0
  0
VERTEX
  5
7F8
  8
0
 10
55.718
 20
56.06
 30
0.0
 70
0
  0
VERTEX
  5
7F9
  8
0
 10
55.717
 20
56.053
 30
0.0
 70
0
  0
VERTEX
  5
7FA
  8
0
 10
55.716
 20
56.045
 30
0.0
 70
0
  0
VERTEX
  5
7FB
  8
0
 10
55.714
 20
56.038
 30
0.0
 70
0
  0
VERTEX
  5
7FC
  8
0
 10
55.713
 20
56.031
 30
0.0
 70
0
  0
VERTEX
  5
7FD
  8
0
 10
55.712
 20
56.024
 30
0.0
 70
0
  0
VERTEX
  5
7FE
  8
0
 10
55.71
 20
56.016
 30
0.0
 70
0
  0
VERTEX
  5
7FF
  8
0
 10
55.708
 20
56.009
 30
0.0
 70
0
  0
VERTEX
  5
800
  8
0
 10
55.707
 20
56.002
 30
0.0
 70
0
  0
VERTEX
  5
801
  8
0
 10
55.705
 20
55.995
 30
0.0
 70
0
  0
VERTEX
  5
802
  8
0
 10
55.703
 20
55.989
 30
0.0
 70
0
  0
VERTEX
  5
803
  8
0
 10
55.701
 20
55.982
 30
0.0
 70
0
  0
VERTEX
  5
804
  8
0
 10
55.699
 20
55.975
 30
0.0
 70
0
  0
VERTEX
  5
805
  8
0
 10
55.696
 20
55.969
 30
0.0
 70
0
  0
VERTEX
  5
806
  8
0
 10
55.694
 20
55.962
 30
0.0
 70
0
  0
VERTEX
  5
807
  8
0
 10
55.692
 20
55.955
 30
0.0
 70
0
  0
VERTEX
  5
808
  8
0
 10
55.689
 20
55.949
 30
0.0
 70
0
  0
VERTEX
  5
809
  8
0
 10
55.686
 20
55.943
 30
0.0
 70
0
  0
VERTEX
  5
80A
  8
0
 10
55.683
 20
55.936
 30
0.0
 70
0
  0
VERTEX
  5
80B
  8
0
 10
55.681
 20
55.93
 30
0.0
 70
0
  0
VERTEX
  5
80C
  8
0
 10
55.678
 20
55.924
 30
0.0
 70
0
  0
VERTEX
  5
80D
  8
0
 10
55.675
 20
55.918
 30
0.0
 70
0
  0
VERTEX
  5
80E
  8
0
 10
55.672
 20
55.912
 30
0.0
 70
0
  0
VERTEX
  5
80F
  8
0
 10
55.668
 20
55.906
 30
0.0
 70
0
  0
VERTEX
  5
810
  8
0
 10
55.665
 20
55.9
 30
0.0
 70
0
  0
VERTEX
  5
811
  8
0
 10
55.662
 20
55.894
 30
0.0
 70
0
  0
VERTEX
  5
812
  8
0
 10
55.658
 20
55.889
 30
0.0
 70
0
  0
VERTEX
  5
813
  8
0
 10
55.655
 20
55.883
 30
0.0
 70
0
  0
VERTEX
  5
814
  8
0
 10
55.651
 20
55.877
 30
0.0
 70
0
  0
VERTEX
  5
815
  8
0
 10
55.647
 20
55.872
 30
0.0
 70
0
  0
VERTEX
  5
816
  8
0
 10
55.643
 20
55.867
 30
0.0
 70
0
  0
VERTEX
  5
817
  8
0
 10
55.64
 20
55.861
 30
0.0
 70
0
  0
VERTEX
  5
818
  8
0
 10
55.636
 20
55.856
 30
0.0
 70
0
  0
VERTEX
  5
819
  8
0
 10
55.632
 20
55.851
 30
0.0
 70
0
  0
VERTEX
  5
81A
  8
0
 10
55.628
 20
55.846
 30
0.0
 70
0
  0
VERTEX
  5
81B
  8
0
 10
55.623
 20
55.841
 30
0.0
 70
0
  0
VERTEX
  5
81C
  8
0
 10
55.619
 20
55.836
 30
0.0
 70
0
  0
VERTEX
  5
81D
  8
0
 10
55.615
 20
55.831
 30
0.0
 70
0
  0
VERTEX
  5
81E
  8
0
 10
55.61
 20
55.826
 30
0.0
 70
0
  0
VERTEX
  5
81F
  8
0
 10
55.606
 20
55.821
 30
0.0
 70
0
  0
VERTEX
  5
820
  8
0
 10
55.601
 20
55.816
 30
0.0
 70
0
  0
VERTEX
  5
821
  8
0
 10
55.597
 20
55.812
 30
0.0
 70
0
  0
VERTEX
  5
822
  8
0
 10
55.592
 20
55.807
 30
0.0
 70
0
  0
VERTEX
  5
823
  8
0
 10
55.587
 20
55.803
 30
0.0
 70
0
  0
VERTEX
  5
824
  8
0
 10
55.583
 20
55.798
 30
0.0
 70
0
  0
VERTEX
  5
825
  8
0
 10
55.578
 20
55.794
 30
0.0
 70
0
  0
VERTEX
  5
826
  8
0
 10
55.573
 20
55.79
 30
0.0
 70
0
  0
VERTEX
  5
827
  8
0
 10
55.568
 20
55.786
 30
0.0
 70
0
  0
VERTEX
  5
828
  8
0
 10
55.563
 20
55.782
 30
0.0
 70
0
  0
VERTEX
  5
829
  8
0
 10
55.558
 20
55.778
 30
0.0
 70
0
  0
VERTEX
  5
82A
  8
0
 10
55.553
 20
55.774
 30
0.0
 70
0
  0
VERTEX
  5
82B
  8
0
 10
55.547
 20
55.77
 30
0.0
 70
0
  0
VERTEX
  5
82C
  8
0
 10
55.542
 20
55.767
 30
0.0
 70
0
  0
VERTEX
  5
82D
  8
0
 10
55.537
 20
55.763
 30
0.0
 70
0
  0
VERTEX
  5
82E
  8
0
 10
55.532
 20
55.759
 30
0.0
 70
0
  0
VERTEX
  5
82F
  8
0
 10
55.526
 20
55.756
 30
0.0
 70
0
  0
VERTEX
  5
830
  8
0
 10
55.521
 20
55.752
 30
0.0
 70
0
  0
VERTEX
  5
831
  8
0
 10
55.515
 20
55.749
 30
0.0
 70
0
  0
VERTEX
  5
832
  8
0
 10
55.51
 20
55.746
 30
0.0
 70
0
  0
VERTEX
  5
833
  8
0
 10
55.504
 20
55.743
 30
0.0
 70
0
  0
VERTEX
  5
834
  8
0
 10
55.498
 20
55.74
 30
0.0
 70
0
  0
VERTEX
  5
835
  8
0
 10
55.493
 20
55.737
 30
0.0
 70
0
  0
VERTEX
  5
836
  8
0
 10
55.487
 20
55.734
 30
0.0
 70
0
  0
VERTEX
  5
837
  8
0
 10
55.481
 20
55.731
 30
0.0
 70
0
  0
VERTEX
  5
838
  8
0
 10
55.476
 20
55.728
 30
0.0
 70
0
  0
VERTEX
  5
839
  8
0
 10
55.47
 20
55.726
 30
0.0
 70
0
  0
VERTEX
  5
83A
  8
0
 10
55.464
 20
55.723
 30
0.0
 70
0
  0
VERTEX
  5
83B
  8
0
 10
55.458
 20
55.721
 30
0.0
 70
0
  0
VERTEX
  5
83C
  8
0
 10
55.452
 20
55.718
 30
0.0
 70
0
  0
VERTEX
  5
83D
  8
0
 10
55.446
 20
55.716
 30
0.0
 70
0
  0
VERTEX
  5
83E
  8
0
 10
55.44
 20
55.714
 30
0.0
 70
0
  0
VERTEX
  5
83F
  8
0
 10
55.434
 20
55.712
 30
0.0
 70
0
  0
VERTEX
  5
840
  8
0
 10
55.428
 20
55.709
 30
0.0
 70
0
  0
VERTEX
  5
841
  8
0
 10
55.422
 20
55.707
 30
0.0
 70
0
  0
VERTEX
  5
842
  8
0
 10
55.416
 20
55.706
 30
0.0
 70
0
  0
VERTEX
  5
843
  8
0
 10
55.41
 20
55.704
 30
0.0
 70
0
  0
VERTEX
  5
844
  8
0
 10
55.404
 20
55.702
 30
0.0
 70
0
  0
VERTEX
  5
845
  8
0
 10
55.398
 20
55.7
 30
0.0
 70
0
  0
VERTEX
  5
846
  8
0
 10
55.391
 20
55.699
 30
0.0
 70
0
  0
VERTEX
  5
847
  8
0
 10
55.385
 20
55.697
 30
0.0
 70
0
  0
VERTEX
  5
848
  8
0
 10
55.379
 20
55.696
 30
0.0
 70
0
  0
VERTEX
  5
849
  8
0
 10
55.373
 20
55.695
 30
0.0
 70
0
  0
VERTEX
  5
84A
  8
0
 10
55.366
 20
55.694
 30
0.0
 70
0
  0
VERTEX
  5
84B
  8
0
 10
55.36
 20
55.693
 30
0.0
 70
0
  0
VERTEX
  5
84C
  8
0
 10
55.354
 20
55.692
 30
0.0
 70
0
  0
VERTEX
  5
84D
  8
0
 10
55.348
 20
55.691
 30
0.0
 70
0
  0
VERTEX
  5
84E
  8
0
 10
55.341
 20
55.69
 30
0.0
 70
0
  0
VERTEX
  5
84F
  8
0
 10
55.335
 20
55.689
 30
0.0
 70
0
  0
VERTEX
  5
850
  8
0
 10
55.328
 20
55.688
 30
0.0
 70
0
  0
VERTEX
  5
851
  8
0
 10
55.322
 20
55.688
 30
0.0
 70
0
  0
VERTEX
  5
852
  8
0
 10
55.316
 20
55.687
 30
0.0
 70
0
  0
VERTEX
  5
853
  8
0
 10
55.309
 20
55.687
 30
0.0
 70
0
  0
VERTEX
  5
854
  8
0
 10
55.303
 20
55.687
 30
0.0
 70
0
  0
VERTEX
  5
855
  8
0
 10
55.297
 20
55.687
 30
0.0
 70
0
  0
VERTEX
  5
856
  8
0
 10
55.29
 20
55.687
 30
0.0
 70
0
  0
VERTEX
  5
857
  8
0
 10
55.283
 20
55.687
 30
0.0
 70
0
  0
VERTEX
  5
858
  8
0
 10
55.275
 20
55.687
 30
0.0
 70
0
  0
VERTEX
  5
859
  8
0
 10
55.267
 20
55.687
 30
0.0
 70
0
  0
VERTEX
  5
85A
  8
0
 10
55.26
 20
55.687
 30
0.0
 70
0
  0
VERTEX
  5
85B
  8
0
 10
55.252
 20
55.688
 30
0.0
 70
0
  0
VERTEX
  5
85C
  8
0
 10
55.244
 20
55.688
 30
0.0
 70
0
  0
VERTEX
  5
85D
  8
0
 10
55.237
 20
55.689
 30
0.0
 70
0
  0
VERTEX
  5
85E
  8
0
 10
55.229
 20
55.689
 30
0.0
 70
0
  0
VERTEX
  5
85F
  8
0
 10
55.222
 20
55.69
 30
0.0
 70
0
  0
VERTEX
  5
860
  8
0
 10
55.214
 20
55.691
 30
0.0
 70
0
  0
VERTEX
  5
861
  8
0
 10
55.207
 20
55.692
 30
0.0
 70
0
  0
VERTEX
  5
862
  8
0
 10
55.2
 20
55.693
 30
0.0
 70
0
  0
VERTEX
  5
863
  8
0
 10
55.192
 20
55.694
 30
0.0
 70
0
  0
VERTEX
  5
864
  8
0
 10
55.185
 20
55.695
 30
0.0
 70
0
  0
VERTEX
  5
865
  8
0
 10
55.178
 20
55.696
 30
0.0
 70
0
  0
VERTEX
  5
866
  8
0
 10
55.171
 20
55.698
 30
0.0
 70
0
  0
VERTEX
  5
867
  8
0
 10
55.164
 20
55.699
 30
0.0
 70
0
  0
VERTEX
  5
868
  8
0
 10
55.158
 20
55.701
 30
0.0
 70
0
  0
VERTEX
  5
869
  8
0
 10
55.151
 20
55.702
 30
0.0
 70
0
  0
VERTEX
  5
86A
  8
0
 10
55.144
 20
55.704
 30
0.0
 70
0
  0
VERTEX
  5
86B
  8
0
 10
55.137
 20
55.706
 30
0.0
 70
0
  0
VERTEX
  5
86C
  8
0
 10
55.131
 20
55.708
 30
0.0
 70
0
  0
VERTEX
  5
86D
  8
0
 10
55.124
 20
55.71
 30
0.0
 70
0
  0
VERTEX
  5
86E
  8
0
 10
55.118
 20
55.712
 30
0.0
 70
0
  0
VERTEX
  5
86F
  8
0
 10
55.112
 20
55.714
 30
0.0
 70
0
  0
VERTEX
  5
870
  8
0
 10
55.105
 20
55.716
 30
0.0
 70
0
  0
VERTEX
  5
871
  8
0
 10
55.099
 20
55.719
 30
0.0
 70
0
  0
VERTEX
  5
872
  8
0
 10
55.093
 20
55.721
 30
0.0
 70
0
  0
VERTEX
  5
873
  8
0
 10
55.087
 20
55.724
 30
0.0
 70
0
  0
VERTEX
  5
874
  8
0
 10
55.081
 20
55.726
 30
0.0
 70
0
  0
VERTEX
  5
875
  8
0
 10
55.075
 20
55.729
 30
0.0
 70
0
  0
VERTEX
  5
876
  8
0
 10
55.069
 20
55.731
 30
0.0
 70
0
  0
VERTEX
  5
877
  8
0
 10
55.063
 20
55.734
 30
0.0
 70
0
  0
VERTEX
  5
878
  8
0
 10
55.057
 20
55.737
 30
0.0
 70
0
  0
VERTEX
  5
879
  8
0
 10
55.052
 20
55.74
 30
0.0
 70
0
  0
VERTEX
  5
87A
  8
0
 10
55.046
 20
55.743
 30
0.0
 70
0
  0
VERTEX
  5
87B
  8
0
 10
55.041
 20
55.747
 30
0.0
 70
0
  0
VERTEX
  5
87C
  8
0
 10
55.035
 20
55.75
 30
0.0
 70
0
  0
VERTEX
  5
87D
  8
0
 10
55.03
 20
55.753
 30
0.0
 70
0
  0
VERTEX
  5
87E
  8
0
 10
55.025
 20
55.757
 30
0.0
 70
0
  0
VERTEX
  5
87F
  8
0
 10
55.019
 20
55.76
 30
0.0
 70
0
  0
VERTEX
  5
880
  8
0
 10
55.014
 20
55.764
 30
0.0
 70
0
  0
VERTEX
  5
881
  8
0
 10
55.009
 20
55.767
 30
0.0
 70
0
  0
VERTEX
  5
882
  8
0
 10
55.004
 20
55.771
 30
0.0
 70
0
  0
VERTEX
  5
883
  8
0
 10
54.999
 20
55.775
 30
0.0
 70
0
  0
VERTEX
  5
884
  8
0
 10
54.994
 20
55.779
 30
0.0
 70
0
  0
VERTEX
  5
885
  8
0
 10
54.99
 20
55.783
 30
0.0
 70
0
  0
VERTEX
  5
886
  8
0
 10
54.985
 20
55.787
 30
0.0
 70
0
  0
VERTEX
  5
887
  8
0
 10
54.98
 20
55.791
 30
0.0
 70
0
  0
VERTEX
  5
888
  8
0
 10
54.976
 20
55.795
 30
0.0
 70
0
  0
VERTEX
  5
889
  8
0
 10
54.971
 20
55.799
 30
0.0
 70
0
  0
VERTEX
  5
88A
  8
0
 10
54.967
 20
55.804
 30
0.0
 70
0
  0
VERTEX
  5
88B
  8
0
 10
54.963
 20
55.808
 30
0.0
 70
0
  0
VERTEX
  5
88C
  8
0
 10
54.959
 20
55.813
 30
0.0
 70
0
  0
VERTEX
  5
88D
  8
0
 10
54.954
 20
55.817
 30
0.0
 70
0
  0
VERTEX
  5
88E
  8
0
 10
54.95
 20
55.822
 30
0.0
 70
0
  0
VERTEX
  5
88F
  8
0
 10
54.946
 20
55.827
 30
0.0
 70
0
  0
VERTEX
  5
890
  8
0
 10
54.942
 20
55.832
 30
0.0
 70
0
  0
VERTEX
  5
891
  8
0
 10
54.939
 20
55.837
 30
0.0
 70
0
  0
VERTEX
  5
892
  8
0
 10
54.935
 20
55.842
 30
0.0
 70
0
  0
VERTEX
  5
893
  8
0
 10
54.931
 20
55.847
 30
0.0
 70
0
  0
VERTEX
  5
894
  8
0
 10
54.928
 20
55.852
 30
0.0
 70
0
  0
VERTEX
  5
895
  8
0
 10
54.924
 20
55.857
 30
0.0
 70
0
  0
VERTEX
  5
896
  8
0
 10
54.921
 20
55.862
 30
0.0
 70
0
  0
VERTEX
  5
897
  8
0
 10
54.917
 20
55.868
 30
0.0
 70
0
  0
VERTEX
  5
898
  8
0
 10
54.914
 20
55.873
 30
0.0
 70
0
  0
VERTEX
  5
899
  8
0
 10
54.911
 20
55.879
 30
0.0
 70
0
  0
VERTEX
  5
89A
  8
0
 10
54.908
 20
55.884
 30
0.0
 70
0
  0
VERTEX
  5
89B
  8
0
 10
54.905
 20
55.89
 30
0.0
 70
0
  0
VERTEX
  5
89C
  8
0
 10
54.902
 20
55.895
 30
0.0
 70
0
  0
VERTEX
  5
89D
  8
0
 10
54.899
 20
55.901
 30
0.0
 70
0
  0
VERTEX
  5
89E
  8
0
 10
54.896
 20
55.907
 30
0.0
 70
0
  0
VERTEX
  5
89F
  8
0
 10
54.894
 20
55.913
 30
0.0
 70
0
  0
VERTEX
  5
8A0
  8
0
 10
54.891
 20
55.919
 30
0.0
 70
0
  0
VERTEX
  5
8A1
  8
0
 10
54.889
 20
55.925
 30
0.0
 70
0
  0
VERTEX
  5
8A2
  8
0
 10
54.886
 20
55.931
 30
0.0
 70
0
  0
VERTEX
  5
8A3
  8
0
 10
54.884
 20
55.938
 30
0.0
 70
0
  0
VERTEX
  5
8A4
  8
0
 10
54.882
 20
55.944
 30
0.0
 70
0
  0
VERTEX
  5
8A5
  8
0
 10
54.879
 20
55.95
 30
0.0
 70
0
  0
VERTEX
  5
8A6
  8
0
 10
54.877
 20
55.957
 30
0.0
 70
0
  0
VERTEX
  5
8A7
  8
0
 10
54.875
 20
55.963
 30
0.0
 70
0
  0
VERTEX
  5
8A8
  8
0
 10
54.873
 20
55.97
 30
0.0
 70
0
  0
VERTEX
  5
8A9
  8
0
 10
54.872
 20
55.976
 30
0.0
 70
0
  0
VERTEX
  5
8AA
  8
0
 10
54.87
 20
55.983
 30
0.0
 70
0
  0
VERTEX
  5
8AB
  8
0
 10
54.868
 20
55.99
 30
0.0
 70
0
  0
VERTEX
  5
8AC
  8
0
 10
54.867
 20
55.997
 30
0.0
 70
0
  0
VERTEX
  5
8AD
  8
0
 10
54.865
 20
56.004
 30
0.0
 70
0
  0
VERTEX
  5
8AE
  8
0
 10
54.864
 20
56.011
 30
0.0
 70
0
  0
VERTEX
  5
8AF
  8
0
 10
54.863
 20
56.018
 30
0.0
 70
0
  0
VERTEX
  5
8B0
  8
0
 10
54.861
 20
56.025
 30
0.0
 70
0
  0
VERTEX
  5
8B1
  8
0
 10
54.86
 20
56.032
 30
0.0
 70
0
  0
VERTEX
  5
8B2
  8
0
 10
54.859
 20
56.039
 30
0.0
 70
0
  0
VERTEX
  5
8B3
  8
0
 10
54.858
 20
56.047
 30
0.0
 70
0
  0
VERTEX
  5
8B4
  8
0
 10
54.858
 20
56.054
 30
0.0
 70
0
  0
VERTEX
  5
8B5
  8
0
 10
54.857
 20
56.061
 30
0.0
 70
0
  0
VERTEX
  5
8B6
  8
0
 10
54.856
 20
56.069
 30
0.0
 70
0
  0
VERTEX
  5
8B7
  8
0
 10
54.856
 20
56.077
 30
0.0
 70
0
  0
VERTEX
  5
8B8
  8
0
 10
54.855
 20
56.084
 30
0.0
 70
0
  0
VERTEX
  5
8B9
  8
0
 10
54.855
 20
56.092
 30
0.0
 70
0
  0
VERTEX
  5
8BA
  8
0
 10
54.854
 20
56.1
 30
0.0
 70
0
  0
VERTEX
  5
8BB
  8
0
 10
54.854
 20
56.108
 30
0.0
 70
0
  0
VERTEX
  5
8BC
  8
0
 10
54.854
 20
56.115
 30
0.0
 70
0
  0
VERTEX
  5
8BD
  8
0
 10
54.854
 20
56.123
 30
0.0
 70
0
  0
VERTEX
  5
8BE
  8
0
 10
54.854
 20
56.129
 30
0.0
 70
0
  0
VERTEX
  5
8BF
  8
0
 10
54.854
 20
56.135
 30
0.0
 70
0
  0
VERTEX
  5
8C0
  8
0
 10
54.855
 20
56.142
 30
0.0
 70
0
  0
VERTEX
  5
8C1
  8
0
 10
54.855
 20
56.148
 30
0.0
 70
0
  0
VERTEX
  5
8C2
  8
0
 10
54.855
 20
56.154
 30
0.0
 70
0
  0
VERTEX
  5
8C3
  8
0
 10
54.856
 20
56.16
 30
0.0
 70
0
  0
VERTEX
  5
8C4
  8
0
 10
54.857
 20
56.166
 30
0.0
 70
0
  0
VERTEX
  5
8C5
  8
0
 10
54.857
 20
56.173
 30
0.0
 70
0
  0
VERTEX
  5
8C6
  8
0
 10
54.858
 20
56.179
 30
0.0
 70
0
  0
VERTEX
  5
8C7
  8
0
 10
54.859
 20
56.185
 30
0.0
 70
0
  0
VERTEX
  5
8C8
  8
0
 10
54.86
 20
56.191
 30
0.0
 70
0
  0
VERTEX
  5
8C9
  8
0
 10
54.861
 20
56.197
 30
0.0
 70
0
  0
VERTEX
  5
8CA
  8
0
 10
54.862
 20
56.202
 30
0.0
 70
0
  0
VERTEX
  5
8CB
  8
0
 10
54.864
 20
56.208
 30
0.0
 70
0
  0
VERTEX
  5
8CC
  8
0
 10
54.865
 20
56.214
 30
0.0
 70
0
  0
VERTEX
  5
8CD
  8
0
 10
54.866
 20
56.22
 30
0.0
 70
0
  0
VERTEX
  5
8CE
  8
0
 10
54.868
 20
56.226
 30
0.0
 70
0
  0
VERTEX
  5
8CF
  8
0
 10
54.87
 20
56.231
 30
0.0
 70
0
  0
VERTEX
  5
8D0
  8
0
 10
54.871
 20
56.237
 30
0.0
 70
0
  0
VERTEX
  5
8D1
  8
0
 10
54.873
 20
56.243
 30
0.0
 70
0
  0
VERTEX
  5
8D2
  8
0
 10
54.875
 20
56.248
 30
0.0
 70
0
  0
VERTEX
  5
8D3
  8
0
 10
54.877
 20
56.254
 30
0.0
 70
0
  0
VERTEX
  5
8D4
  8
0
 10
54.879
 20
56.259
 30
0.0
 70
0
  0
VERTEX
  5
8D5
  8
0
 10
54.881
 20
56.265
 30
0.0
 70
0
  0
VERTEX
  5
8D6
  8
0
 10
54.883
 20
56.27
 30
0.0
 70
0
  0
VERTEX
  5
8D7
  8
0
 10
54.886
 20
56.275
 30
0.0
 70
0
  0
VERTEX
  5
8D8
  8
0
 10
54.888
 20
56.281
 30
0.0
 70
0
  0
VERTEX
  5
8D9
  8
0
 10
54.891
 20
56.286
 30
0.0
 70
0
  0
VERTEX
  5
8DA
  8
0
 10
54.893
 20
56.291
 30
0.0
 70
0
  0
VERTEX
  5
8DB
  8
0
 10
54.896
 20
56.296
 30
0.0
 70
0
  0
VERTEX
  5
8DC
  8
0
 10
54.899
 20
56.301
 30
0.0
 70
0
  0
VERTEX
  5
8DD
  8
0
 10
54.901
 20
56.307
 30
0.0
 70
0
  0
VERTEX
  5
8DE
  8
0
 10
54.904
 20
56.312
 30
0.0
 70
0
  0
VERTEX
  5
8DF
  8
0
 10
54.907
 20
56.316
 30
0.0
 70
0
  0
VERTEX
  5
8E0
  8
0
 10
54.91
 20
56.321
 30
0.0
 70
0
  0
VERTEX
  5
8E1
  8
0
 10
54.914
 20
56.326
 30
0.0
 70
0
  0
VERTEX
  5
8E2
  8
0
 10
54.917
 20
56.331
 30
0.0
 70
0
  0
VERTEX
  5
8E3
  8
0
 10
54.92
 20
56.336
 30
0.0
 70
0
  0
VERTEX
  5
8E4
  8
0
 10
54.923
 20
56.34
 30
0.0
 70
0
  0
VERTEX
  5
8E5
  8
0
 10
54.927
 20
56.345
 30
0.0
 70
0
  0
VERTEX
  5
8E6
  8
0
 10
54.931
 20
56.35
 30
0.0
 70
0
  0
VERTEX
  5
8E7
  8
0
 10
54.934
 20
56.354
 30
0.0
 70
0
  0
VERTEX
  5
8E8
  8
0
 10
54.938
 20
56.359
 30
0.0
 70
0
  0
VERTEX
  5
8E9
  8
0
 10
54.942
 20
56.363
 30
0.0
 70
0
  0
VERTEX
  5
8EA
  8
0
 10
54.946
 20
56.367
 30
0.0
 70
0
  0
VERTEX
  5
8EB
  8
0
 10
54.95
 20
56.372
 30
0.0
 70
0
  0
VERTEX
  5
8EC
  8
0
 10
54.954
 20
56.376
 30
0.0
 70
0
  0
VERTEX
  5
8ED
  8
0
 10
54.958
 20
56.38
 30
0.0
 70
0
  0
VERTEX
  5
8EE
  8
0
 10
54.962
 20
56.384
 30
0.0
 70
0
  0
VERTEX
  5
8EF
  8
0
 10
54.966
 20
56.388
 30
0.0
 70
0
  0
VERTEX
  5
8F0
  8
0
 10
54.971
 20
56.392
 30
0.0
 70
0
  0
VERTEX
  5
8F1
  8
0
 10
54.975
 20
56.396
 30
0.0
 70
0
  0
VERTEX
  5
8F2
  8
0
 10
54.98
 20
56.4
 30
0.0
 70
0
  0
VERTEX
  5
8F3
  8
0
 10
54.984
 20
56.404
 30
0.0
 70
0
  0
VERTEX
  5
8F4
  8
0
 10
54.989
 20
56.408
 30
0.0
 70
0
  0
VERTEX
  5
8F5
  8
0
 10
54.993
 20
56.411
 30
0.0
 70
0
  0
VERTEX
  5
8F6
  8
0
 10
54.998
 20
56.415
 30
0.0
 70
0
  0
VERTEX
  5
8F7
  8
0
 10
55.003
 20
56.418
 30
0.0
 70
0
  0
VERTEX
  5
8F8
  8
0
 10
55.008
 20
56.422
 30
0.0
 70
0
  0
VERTEX
  5
8F9
  8
0
 10
55.013
 20
56.425
 30
0.0
 70
0
  0
VERTEX
  5
8FA
  8
0
 10
55.018
 20
56.428
 30
0.0
 70
0
  0
VERTEX
  5
8FB
  8
0
 10
55.024
 20
56.432
 30
0.0
 70
0
  0
VERTEX
  5
8FC
  8
0
 10
55.029
 20
56.435
 30
0.0
 70
0
  0
VERTEX
  5
8FD
  8
0
 10
55.034
 20
56.438
 30
0.0
 70
0
  0
VERTEX
  5
8FE
  8
0
 10
55.04
 20
56.441
 30
0.0
 70
0
  0
VERTEX
  5
8FF
  8
0
 10
55.045
 20
56.444
 30
0.0
 70
0
  0
VERTEX
  5
900
  8
0
 10
55.051
 20
56.447
 30
0.0
 70
0
  0
VERTEX
  5
901
  8
0
 10
55.056
 20
56.45
 30
0.0
 70
0
  0
VERTEX
  5
902
  8
0
 10
55.062
 20
56.453
 30
0.0
 70
0
  0
VERTEX
  5
903
  8
0
 10
55.068
 20
56.455
 30
0.0
 70
0
  0
VERTEX
  5
904
  8
0
 10
55.074
 20
56.458
 30
0.0
 70
0
  0
VERTEX
  5
905
  8
0
 10
55.08
 20
56.46
 30
0.0
 70
0
  0
VERTEX
  5
906
  8
0
 10
55.086
 20
56.463
 30
0.0
 70
0
  0
VERTEX
  5
907
  8
0
 10
55.092
 20
56.465
 30
0.0
 70
0
  0
VERTEX
  5
908
  8
0
 10
55.098
 20
56.468
 30
0.0
 70
0
  0
VERTEX
  5
909
  8
0
 10
55.104
 20
56.47
 30
0.0
 70
0
  0
VERTEX
  5
90A
  8
0
 10
55.11
 20
56.472
 30
0.0
 70
0
  0
VERTEX
  5
90B
  8
0
 10
55.117
 20
56.474
 30
0.0
 70
0
  0
VERTEX
  5
90C
  8
0
 10
55.123
 20
56.476
 30
0.0
 70
0
  0
VERTEX
  5
90D
  8
0
 10
55.13
 20
56.478
 30
0.0
 70
0
  0
VERTEX
  5
90E
  8
0
 10
55.136
 20
56.48
 30
0.0
 70
0
  0
VERTEX
  5
90F
  8
0
 10
55.143
 20
56.482
 30
0.0
 70
0
  0
VERTEX
  5
910
  8
0
 10
55.15
 20
56.483
 30
0.0
 70
0
  0
VERTEX
  5
911
  8
0
 10
55.156
 20
56.485
 30
0.0
 70
0
  0
VERTEX
  5
912
  8
0
 10
55.163
 20
56.487
 30
0.0
 70
0
  0
VERTEX
  5
913
  8
0
 10
55.17
 20
56.488
 30
0.0
 70
0
  0
VERTEX
  5
914
  8
0
 10
55.177
 20
56.489
 30
0.0
 70
0
  0
VERTEX
  5
915
  8
0
 10
55.184
 20
56.491
 30
0.0
 70
0
  0
VERTEX
  5
916
  8
0
 10
55.191
 20
56.492
 30
0.0
 70
0
  0
VERTEX
  5
917
  8
0
 10
55.198
 20
56.493
 30
0.0
 70
0
  0
VERTEX
  5
918
  8
0
 10
55.206
 20
56.494
 30
0.0
 70
0
  0
VERTEX
  5
919
  8
0
 10
55.213
 20
56.495
 30
0.0
 70
0
  0
VERTEX
  5
91A
  8
0
 10
55.22
 20
56.496
 30
0.0
 70
0
  0
VERTEX
  5
91B
  8
0
 10
55.228
 20
56.496
 30
0.0
 70
0
  0
VERTEX
  5
91C
  8
0
 10
55.235
 20
56.497
 30
0.0
 70
0
  0
VERTEX
  5
91D
  8
0
 10
55.243
 20
56.498
 30
0.0
 70
0
  0
VERTEX
  5
91E
  8
0
 10
55.25
 20
56.498
 30
0.0
 70
0
  0
VERTEX
  5
91F
  8
0
 10
55.258
 20
56.499
 30
0.0
 70
0
  0
VERTEX
  5
920
  8
0
 10
55.266
 20
56.499
 30
0.0
 70
0
  0
VERTEX
  5
921
  8
0
 10
55.274
 20
56.499
 30
0.0
 70
0
  0
VERTEX
  5
922
  8
0
 10
55.281
 20
56.499
 30
0.0
 70
0
  0
VERTEX
  5
923
  8
0
 10
55.289
 20
56.499
 30
0.0
 70
0
  0
VERTEX
  5
924
  8
0
 10
55.295
 20
56.499
 30
0.0
 70
0
  0
VERTEX
  5
925
  8
0
 10
55.302
 20
56.499
 30
0.0
 70
0
  0
VERTEX
  5
926
  8
0
 10
55.308
 20
56.499
 30
0.0
 70
0
  0
VERTEX
  5
927
  8
0
 10
55.315
 20
56.498
 30
0.0
 70
0
  0
VERTEX
  5
928
  8
0
 10
55.321
 20
56.498
 30
0.0
 70
0
  0
VERTEX
  5
929
  8
0
 10
55.327
 20
56.497
 30
0.0
 70
0
  0
VERTEX
  5
92A
  8
0
 10
55.334
 20
56.497
 30
0.0
 70
0
  0
VERTEX
  5
92B
  8
0
 10
55.34
 20
56.496
 30
0.0
 70
0
  0
VERTEX
  5
92C
  8
0
 10
55.346
 20
56.495
 30
0.0
 70
0
  0
VERTEX
  5
92D
  8
0
 10
55.353
 20
56.494
 30
0.0
 70
0
  0
VERTEX
  5
92E
  8
0
 10
55.359
 20
56.493
 30
0.0
 70
0
  0
VERTEX
  5
92F
  8
0
 10
55.365
 20
56.492
 30
0.0
 70
0
  0
VERTEX
  5
930
  8
0
 10
55.371
 20
56.491
 30
0.0
 70
0
  0
VERTEX
  5
931
  8
0
 10
55.378
 20
56.49
 30
0.0
 70
0
  0
VERTEX
  5
932
  8
0
 10
55.384
 20
56.489
 30
0.0
 70
0
  0
VERTEX
  5
933
  8
0
 10
55.39
 20
56.487
 30
0.0
 70
0
  0
VERTEX
  5
934
  8
0
 10
55.396
 20
56.486
 30
0.0
 70
0
  0
VERTEX
  5
935
  8
0
 10
55.402
 20
56.484
 30
0.0
 70
0
  0
VERTEX
  5
936
  8
0
 10
55.409
 20
56.483
 30
0.0
 70
0
  0
VERTEX
  5
937
  8
0
 10
55.415
 20
56.481
 30
0.0
 70
0
  0
VERTEX
  5
938
  8
0
 10
55.421
 20
56.479
 30
0.0
 70
0
  0
VERTEX
  5
939
  8
0
 10
55.427
 20
56.477
 30
0.0
 70
0
  0
VERTEX
  5
93A
  8
0
 10
55.433
 20
56.475
 30
0.0
 70
0
  0
VERTEX
  5
93B
  8
0
 10
55.439
 20
56.473
 30
0.0
 70
0
  0
VERTEX
  5
93C
  8
0
 10
55.445
 20
56.471
 30
0.0
 70
0
  0
VERTEX
  5
93D
  8
0
 10
55.451
 20
56.469
 30
0.0
 70
0
  0
VERTEX
  5
93E
  8
0
 10
55.457
 20
56.467
 30
0.0
 70
0
  0
VERTEX
  5
93F
  8
0
 10
55.463
 20
56.464
 30
0.0
 70
0
  0
VERTEX
  5
940
  8
0
 10
55.469
 20
56.462
 30
0.0
 70
0
  0
VERTEX
  5
941
  8
0
 10
55.474
 20
56.459
 30
0.0
 70
0
  0
VERTEX
  5
942
  8
0
 10
55.48
 20
56.457
 30
0.0
 70
0
  0
VERTEX
  5
943
  8
0
 10
55.486
 20
56.454
 30
0.0
 70
0
  0
VERTEX
  5
944
  8
0
 10
55.492
 20
56.452
 30
0.0
 70
0
  0
VERTEX
  5
945
  8
0
 10
55.497
 20
56.449
 30
0.0
 70
0
  0
VERTEX
  5
946
  8
0
 10
55.503
 20
56.446
 30
0.0
 70
0
  0
VERTEX
  5
947
  8
0
 10
55.509
 20
56.443
 30
0.0
 70
0
  0
VERTEX
  5
948
  8
0
 10
55.514
 20
56.44
 30
0.0
 70
0
  0
VERTEX
  5
949
  8
0
 10
55.52
 20
56.437
 30
0.0
 70
0
  0
VERTEX
  5
94A
  8
0
 10
55.525
 20
56.434
 30
0.0
 70
0
  0
VERTEX
  5
94B
  8
0
 10
55.531
 20
56.431
 30
0.0
 70
0
  0
VERTEX
  5
94C
  8
0
 10
55.536
 20
56.427
 30
0.0
 70
0
  0
VERTEX
  5
94D
  8
0
 10
55.541
 20
56.424
 30
0.0
 70
0
  0
VERTEX
  5
94E
  8
0
 10
55.546
 20
56.42
 30
0.0
 70
0
  0
VERTEX
  5
94F
  8
0
 10
55.552
 20
56.417
 30
0.0
 70
0
  0
VERTEX
  5
950
  8
0
 10
55.557
 20
56.413
 30
0.0
 70
0
  0
VERTEX
  5
951
  8
0
 10
55.562
 20
56.41
 30
0.0
 70
0
  0
VERTEX
  5
952
  8
0
 10
55.567
 20
56.406
 30
0.0
 70
0
  0
VERTEX
  5
953
  8
0
 10
55.572
 20
56.402
 30
0.0
 70
0
  0
VERTEX
  5
954
  8
0
 10
55.577
 20
56.398
 30
0.0
 70
0
  0
VERTEX
  5
955
  8
0
 10
55.582
 20
56.395
 30
0.0
 70
0
  0
VERTEX
  5
956
  8
0
 10
55.586
 20
56.391
 30
0.0
 70
0
  0
VERTEX
  5
957
  8
0
 10
55.591
 20
56.387
 30
0.0
 70
0
  0
VERTEX
  5
958
  8
0
 10
55.596
 20
56.383
 30
0.0
 70
0
  0
VERTEX
  5
959
  8
0
 10
55.6
 20
56.378
 30
0.0
 70
0
  0
VERTEX
  5
95A
  8
0
 10
55.605
 20
56.374
 30
0.0
 70
0
  0
VERTEX
  5
95B
  8
0
 10
55.61
 20
56.37
 30
0.0
 70
0
  0
VERTEX
  5
95C
  8
0
 10
55.614
 20
56.366
 30
0.0
 70
0
  0
VERTEX
  5
95D
  8
0
 10
55.618
 20
56.361
 30
0.0
 70
0
  0
VERTEX
  5
95E
  8
0
 10
55.622
 20
56.357
 30
0.0
 70
0
  0
VERTEX
  5
95F
  8
0
 10
55.627
 20
56.352
 30
0.0
 70
0
  0
VERTEX
  5
960
  8
0
 10
55.631
 20
56.348
 30
0.0
 70
0
  0
VERTEX
  5
961
  8
0
 10
55.635
 20
56.343
 30
0.0
 70
0
  0
VERTEX
  5
962
  8
0
 10
55.639
 20
56.339
 30
0.0
 70
0
  0
VERTEX
  5
963
  8
0
 10
55.643
 20
56.334
 30
0.0
 70
0
  0
VERTEX
  5
964
  8
0
 10
55.646
 20
56.329
 30
0.0
 70
0
  0
VERTEX
  5
965
  8
0
 10
55.65
 20
56.324
 30
0.0
 70
0
  0
VERTEX
  5
966
  8
0
 10
55.654
 20
56.319
 30
0.0
 70
0
  0
VERTEX
  5
967
  8
0
 10
55.657
 20
56.315
 30
0.0
 70
0
  0
VERTEX
  5
968
  8
0
 10
55.661
 20
56.31
 30
0.0
 70
0
  0
VERTEX
  5
969
  8
0
 10
55.664
 20
56.305
 30
0.0
 70
0
  0
VERTEX
  5
96A
  8
0
 10
55.668
 20
56.299
 30
0.0
 70
0
  0
VERTEX
  5
96B
  8
0
 10
55.671
 20
56.294
 30
0.0
 70
0
  0
VERTEX
  5
96C
  8
0
 10
55.674
 20
56.289
 30
0.0
 70
0
  0
VERTEX
  5
96D
  8
0
 10
55.677
 20
56.284
 30
0.0
 70
0
  0
VERTEX
  5
96E
  8
0
 10
55.68
 20
56.279
 30
0.0
 70
0
  0
VERTEX
  5
96F
  8
0
 10
55.683
 20
56.273
 30
0.0
 70
0
  0
VERTEX
  5
970
  8
0
 10
55.686
 20
56.268
 30
0.0
 70
0
  0
VERTEX
  5
971
  8
0
 10
55.688
 20
56.263
 30
0.0
 70
0
  0
VERTEX
  5
972
  8
0
 10
55.691
 20
56.257
 30
0.0
 70
0
  0
VERTEX
  5
973
  8
0
 10
55.693
 20
56.252
 30
0.0
 70
0
  0
VERTEX
  5
974
  8
0
 10
55.696
 20
56.246
 30
0.0
 70
0
  0
VERTEX
  5
975
  8
0
 10
55.698
 20
56.24
 30
0.0
 70
0
  0
VERTEX
  5
976
  8
0
 10
55.7
 20
56.235
 30
0.0
 70
0
  0
VERTEX
  5
977
  8
0
 10
55.702
 20
56.229
 30
0.0
 70
0
  0
VERTEX
  5
978
  8
0
 10
55.704
 20
56.223
 30
0.0
 70
0
  0
VERTEX
  5
979
  8
0
 10
55.706
 20
56.218
 30
0.0
 70
0
  0
VERTEX
  5
97A
  8
0
 10
55.708
 20
56.212
 30
0.0
 70
0
  0
VERTEX
  5
97B
  8
0
 10
55.71
 20
56.206
 30
0.0
 70
0
  0
VERTEX
  5
97C
  8
0
 10
55.711
 20
56.2
 30
0.0
 70
0
  0
VERTEX
  5
97D
  8
0
 10
55.713
 20
56.194
 30
0.0
 70
0
  0
VERTEX
  5
97E
  8
0
 10
55.714
 20
56.188
 30
0.0
 70
0
  0
VERTEX
  5
97F
  8
0
 10
55.715
 20
56.182
 30
0.0
 70
0
  0
VERTEX
  5
980
  8
0
 10
55.716
 20
56.176
 30
0.0
 70
0
  0
VERTEX
  5
981
  8
0
 10
55.717
 20
56.17
 30
0.0
 70
0
  0
VERTEX
  5
982
  8
0
 10
55.718
 20
56.164
 30
0.0
 70
0
  0
VERTEX
  5
983
  8
0
 10
55.719
 20
56.158
 30
0.0
 70
0
  0
VERTEX
  5
984
  8
0
 10
55.72
 20
56.152
 30
0.0
 70
0
  0
VERTEX
  5
985
  8
0
 10
55.72
 20
56.145
 30
0.0
 70
0
  0
VERTEX
  5
986
  8
0
 10
55.721
 20
56.139
 30
0.0
 70
0
  0
VERTEX
  5
987
  8
0
 10
55.721
 20
56.133
 30
0.0
 70
0
  0
VERTEX
  5
988
  8
0
 10
55.721
 20
56.127
 30
0.0
 70
0
  0
VERTEX
  5
989
  8
0
 10
55.721
 20
56.12
 30
0.0
 70
0
  0
SEQEND
  5
7B9
  8
0
  0
POLYLINE
  5
98A
  8
0
 66
1
 10
0.0
 20
0.0
 30
0.0
 70
0
  0
VERTEX
  5
98C
  8
0
 10
55.667
 20
56.12
 30
0.0
 70
0
  0
VERTEX
  5
98D
  8
0
 10
55.667
 20
56.115
 30
0.0
 70
0
  0
VERTEX
  5
98E
  8
0
 10
55.667
 20
56.109
 30
0.0
 70
0
  0
VERTEX
  5
98F
  8
0
 10
55.667
 20
56.102
 30
0.0
 70
0
  0
VERTEX
  5
990
  8
0
 10
55.666
 20
56.096
 30
0.0
 70
0
  0
VERTEX
  5
991
  8
0
 10
55.666
 20
56.09
 30
0.0
 70
0
  0
VERTEX
  5
992
  8
0
 10
55.665
 20
56.083
 30
0.0
 70
0
  0
VERTEX
  5
993
  8
0
 10
55.665
 20
56.077
 30
0.0
 70
0
  0
VERTEX
  5
994
  8
0
 10
55.664
 20
56.071
 30
0.0
 70
0
  0
VERTEX
  5
995
  8
0
 10
55.663
 20
56.064
 30
0.0
 70
0
  0
VERTEX
  5
996
  8
0
 10
55.663
 20
56.058
 30
0.0
 70
0
  0
VERTEX
  5
997
  8
0
 10
55.662
 20
56.052
 30
0.0
 70
0
  0
VERTEX
  5
998
  8
0
 10
55.661
 20
56.046
 30
0.0
 70
0
  0
VERTEX
  5
999
  8
0
 10
55.66
 20
56.039
 30
0.0
 70
0
  0
VERTEX
  5
99A
  8
0
 10
55.658
 20
56.033
 30
0.0
 70
0
  0
VERTEX
  5
99B
  8
0
 10
55.657
 20
56.027
 30
0.0
 70
0
  0
VERTEX
  5
99C
  8
0
 10
55.656
 20
56.02
 30
0.0
 70
0
  0
VERTEX
  5
99D
  8
0
 10
55.654
 20
56.014
 30
0.0
 70
0
  0
VERTEX
  5
99E
  8
0
 10
55.653
 20
56.008
 30
0.0
 70
0
  0
VERTEX
  5
99F
  8
0
 10
55.651
 20
56.002
 30
0.0
 70
0
  0
VERTEX
  5
9A0
  8
0
 10
55.65
 20
55.996
 30
0.0
 70
0
  0
VERTEX
  5
9A1
  8
0
 10
55.648
 20
55.99
 30
0.0
 70
0
  0
VERTEX
  5
9A2
  8
0
 10
55.646
 20
55.984
 30
0.0
 70
0
  0
VERTEX
  5
9A3
  8
0
 10
55.644
 20
55.977
 30
0.0
 70
0
  0
VERTEX
  5
9A4
  8
0
 10
55.642
 20
55.971
 30
0.0
 70
0
  0
VERTEX
  5
9A5
  8
0
 10
55.64
 20
55.965
 30
0.0
 70
0
  0
VERTEX
  5
9A6
  8
0
 10
55.638
 20
55.96
 30
0.0
 70
0
  0
VERTEX
  5
9A7
  8
0
 10
55.635
 20
55.954
 30
0.0
 70
0
  0
VERTEX
  5
9A8
  8
0
 10
55.633
 20
55.948
 30
0.0
 70
0
  0
VERTEX
  5
9A9
  8
0
 10
55.631
 20
55.942
 30
0.0
 70
0
  0
VERTEX
  5
9AA
  8
0
 10
55.628
 20
55.936
 30
0.0
 70
0
  0
VERTEX
  5
9AB
  8
0
 10
55.626
 20
55.93
 30
0.0
 70
0
  0
VERTEX
  5
9AC
  8
0
 10
55.623
 20
55.924
 30
0.0
 70
0
  0
VERTEX
  5
9AD
  8
0
 10
55.62
 20
55.919
 30
0.0
 70
0
  0
VERTEX
  5
9AE
  8
0
 10
55.618
 20
55.913
 30
0.0
 70
0
  0
VERTEX
  5
9AF
  8
0
 10
55.615
 20
55.907
 30
0.0
 70
0
  0
VERTEX
  5
9B0
  8
0
 10
55.612
 20
55.902
 30
0.0
 70
0
  0
VERTEX
  5
9B1
  8
0
 10
55.609
 20
55.896
 30
0.0
 70
0
  0
VERTEX
  5
9B2
  8
0
 10
55.606
 20
55.891
 30
0.0
 70
0
  0
VERTEX
  5
9B3
  8
0
 10
55.603
 20
55.885
 30
0.0
 70
0
  0
VERTEX
  5
9B4
  8
0
 10
55.6
 20
55.88
 30
0.0
 70
0
  0
VERTEX
  5
9B5
  8
0
 10
55.596
 20
55.874
 30
0.0
 70
0
  0
VERTEX
  5
9B6
  8
0
 10
55.593
 20
55.869
 30
0.0
 70
0
  0
VERTEX
  5
9B7
  8
0
 10
55.59
 20
55.864
 30
0.0
 70
0
  0
VERTEX
  5
9B8
  8
0
 10
55.586
 20
55.858
 30
0.0
 70
0
  0
VERTEX
  5
9B9
  8
0
 10
55.583
 20
55.853
 30
0.0
 70
0
  0
VERTEX
  5
9BA
  8
0
 10
55.579
 20
55.848
 30
0.0
 70
0
  0
VERTEX
  5
9BB
  8
0
 10
55.575
 20
55.843
 30
0.0
 70
0
  0
VERTEX
  5
9BC
  8
0
 10
55.572
 20
55.838
 30
0.0
 70
0
  0
VERTEX
  5
9BD
  8
0
 10
55.568
 20
55.833
 30
0.0
 70
0
  0
VERTEX
  5
9BE
  8
0
 10
55.564
 20
55.828
 30
0.0
 70
0
  0
VERTEX
  5
9BF
  8
0
 10
55.56
 20
55.824
 30
0.0
 70
0
  0
VERTEX
  5
9C0
  8
0
 10
55.556
 20
55.819
 30
0.0
 70
0
  0
VERTEX
  5
9C1
  8
0
 10
55.552
 20
55.814
 30
0.0
 70
0
  0
VERTEX
  5
9C2
  8
0
 10
55.548
 20
55.81
 30
0.0
 70
0
  0
VERTEX
  5
9C3
  8
0
 10
55.544
 20
55.805
 30
0.0
 70
0
  0
VERTEX
  5
9C4
  8
0
 10
55.539
 20
55.8
 30
0.0
 70
0
  0
VERTEX
  5
9C5
  8
0
 10
55.535
 20
55.796
 30
0.0
 70
0
  0
VERTEX
  5
9C6
  8
0
 10
55.531
 20
55.792
 30
0.0
 70
0
  0
VERTEX
  5
9C7
  8
0
 10
55.526
 20
55.787
 30
0.0
 70
0
  0
VERTEX
  5
9C8
  8
0
 10
55.522
 20
55.783
 30
0.0
 70
0
  0
VERTEX
  5
9C9
  8
0
 10
55.517
 20
55.779
 30
0.0
 70
0
  0
VERTEX
  5
9CA
  8
0
 10
55.513
 20
55.775
 30
0.0
 70
0
  0
VERTEX
  5
9CB
  8
0
 10
55.508
 20
55.771
 30
0.0
 70
0
  0
VERTEX
  5
9CC
  8
0
 10
55.503
 20
55.767
 30
0.0
 70
0
  0
VERTEX
  5
9CD
  8
0
 10
55.499
 20
55.763
 30
0.0
 70
0
  0
VERTEX
  5
9CE
  8
0
 10
55.494
 20
55.759
 30
0.0
 70
0
  0
VERTEX
  5
9CF
  8
0
 10
55.489
 20
55.756
 30
0.0
 70
0
  0
VERTEX
  5
9D0
  8
0
 10
55.484
 20
55.752
 30
0.0
 70
0
  0
VERTEX
  5
9D1
  8
0
 10
55.479
 20
55.748
 30
0.0
 70
0
  0
VERTEX
  5
9D2
  8
0
 10
55.474
 20
55.745
 30
0.0
 70
0
  0
VERTEX
  5
9D3
  8
0
 10
55.469
 20
55.742
 30
0.0
 70
0
  0
VERTEX
  5
9D4
  8
0
 10
55.464
 20
55.738
 30
0.0
 70
0
  0
VERTEX
  5
9D5
  8
0
 10
55.459
 20
55.735
 30
0.0
 70
0
  0
VERTEX
  5
9D6
  8
0
 10
55.454
 20
55.732
 30
0.0
 70
0
  0
VERTEX
  5
9D7
  8
0
 10
55.448
 20
55.729
 30
0.0
 70
0
  0
VERTEX
  5
9D8
  8
0
 10
55.443
 20
55.726
 30
0.0
 70
0
  0
VERTEX
  5
9D9
  8
0
 10
55.438
 20
55.723
 30
0.0
 70
0
  0
VERTEX
  5
9DA
  8
0
 10
55.432
 20
55.721
 30
0.0
 70
0
  0
VERTEX
  5
9DB
  8
0
 10
55.427
 20
55.718
 30
0.0
 70
0
  0
VERTEX
  5
9DC
  8
0
 10
55.421
 20
55.716
 30
0.0
 70
0
  0
VERTEX
  5
9DD
  8
0
 10
55.416
 20
55.713
 30
0.0
 70
0
  0
VERTEX
  5
9DE
  8
0
 10
55.41
 20
55.711
 30
0.0
 70
0
  0
VERTEX
  5
9DF
  8
0
 10
55.405
 20
55.709
 30
0.0
 70
0
  0
VERTEX
  5
9E0
  8
0
 10
55.399
 20
55.706
 30
0.0
 70
0
  0
VERTEX
  5
9E1
  8
0
 10
55.393
 20
55.704
 30
0.0
 70
0
  0
VERTEX
  5
9E2
  8
0
 10
55.388
 20
55.702
 30
0.0
 70
0
  0
VERTEX
  5
9E3
  8
0
 10
55.382
 20
55.701
 30
0.0
 70
0
  0
VERTEX
  5
9E4
  8
0
 10
55.376
 20
55.699
 30
0.0
 70
0
  0
VERTEX
  5
9E5
  8
0
 10
55.37
 20
55.697
 30
0.0
 70
0
  0
VERTEX
  5
9E6
  8
0
 10
55.364
 20
55.696
 30
0.0
 70
0
  0
VERTEX
  5
9E7
  8
0
 10
55.358
 20
55.694
 30
0.0
 70
0
  0
VERTEX
  5
9E8
  8
0
 10
55.352
 20
55.693
 30
0.0
 70
0
  0
VERTEX
  5
9E9
  8
0
 10
55.346
 20
55.692
 30
0.0
 70
0
  0
VERTEX
  5
9EA
  8
0
 10
55.34
 20
55.691
 30
0.0
 70
0
  0
VERTEX
  5
9EB
  8
0
 10
55.334
 20
55.69
 30
0.0
 70
0
  0
VERTEX
  5
9EC
  8
0
 10
55.328
 20
55.689
 30
0.0
 70
0
  0
VERTEX
  5
9ED
  8
0
 10
55.322
 20
55.688
 30
0.0
 70
0
  0
VERTEX
  5
9EE
  8
0
 10
55.315
 20
55.688
 30
0.0
 70
0
  0
VERTEX
  5
9EF
  8
0
 10
55.309
 20
55.687
 30
0.0
 70
0
  0
VERTEX
  5
9F0
  8
0
 10
55.303
 20
55.687
 30
0.0
 70
0
  0
VERTEX
  5
9F1
  8
0
 10
55.297
 20
55.687
 30
0.0
 70
0
  0
VERTEX
  5
9F2
  8
0
 10
55.29
 20
55.687
 30
0.0
 70
0
  0
VERTEX
  5
9F3
  8
0
 10
55.284
 20
55.687
 30
0.0
 70
0
  0
VERTEX
  5
9F4
  8
0
 10
55.278
 20
55.687
 30
0.0
 70
0
  0
VERTEX
  5
9F5
  8
0
 10
55.271
 20
55.687
 30
0.0
 70
0
  0
VERTEX
  5
9F6
  8
0
 10
55.265
 20
55.687
 30
0.0
 70
0
  0
VERTEX
  5
9F7
  8
0
 10
55.259
 20
55.688
 30
0.0
 70
0
  0
VERTEX
  5
9F8
  8
0
 10
55.253
 20
55.688
 30
0.0
 70
0
  0
VERTEX
  5
9F9
  8
0
 10
55.246
 20
55.689
 30
0.0
 70
0
  0
VERTEX
  5
9FA
  8
0
 10
55.24
 20
55.69
 30
0.0
 70
0
  0
VERTEX
  5
9FB
  8
0
 10
55.234
 20
55.691
 30
0.0
 70
0
  0
VERTEX
  5
9FC
  8
0
 10
55.228
 20
55.692
 30
0.0
 70
0
  0
VERTEX
  5
9FD
  8
0
 10
55.222
 20
55.693
 30
0.0
 70
0
  0
VERTEX
  5
9FE
  8
0
 10
55.216
 20
55.695
 30
0.0
 70
0
  0
VERTEX
  5
9FF
  8
0
 10
55.21
 20
55.696
 30
0.0
 70
0
  0
VERTEX
  5
A00
  8
0
 10
55.204
 20
55.698
 30
0.0
 70
0
  0
VERTEX
  5
A01
  8
0
 10
55.199
 20
55.699
 30
0.0
 70
0
  0
VERTEX
  5
A02
  8
0
 10
55.193
 20
55.701
 30
0.0
 70
0
  0
VERTEX
  5
A03
  8
0
 10
55.187
 20
55.703
 30
0.0
 70
0
  0
VERTEX
  5
A04
  8
0
 10
55.181
 20
55.705
 30
0.0
 70
0
  0
VERTEX
  5
A05
  8
0
 10
55.175
 20
55.707
 30
0.0
 70
0
  0
VERTEX
  5
A06
  8
0
 10
55.17
 20
55.709
 30
0.0
 70
0
  0
VERTEX
  5
A07
  8
0
 10
55.164
 20
55.711
 30
0.0
 70
0
  0
VERTEX
  5
A08
  8
0
 10
55.159
 20
55.714
 30
0.0
 70
0
  0
VERTEX
  5
A09
  8
0
 10
55.153
 20
55.716
 30
0.0
 70
0
  0
VERTEX
  5
A0A
  8
0
 10
55.148
 20
55.719
 30
0.0
 70
0
  0
VERTEX
  5
A0B
  8
0
 10
55.142
 20
55.721
 30
0.0
 70
0
  0
VERTEX
  5
A0C
  8
0
 10
55.137
 20
55.724
 30
0.0
 70
0
  0
VERTEX
  5
A0D
  8
0
 10
55.132
 20
55.727
 30
0.0
 70
0
  0
VERTEX
  5
A0E
  8
0
 10
55.126
 20
55.73
 30
0.0
 70
0
  0
VERTEX
  5
A0F
  8
0
 10
55.121
 20
55.733
 30
0.0
 70
0
  0
VERTEX
  5
A10
  8
0
 10
55.116
 20
55.736
 30
0.0
 70
0
  0
VERTEX
  5
A11
  8
0
 10
55.111
 20
55.739
 30
0.0
 70
0
  0
VERTEX
  5
A12
  8
0
 10
55.106
 20
55.742
 30
0.0
 70
0
  0
VERTEX
  5
A13
  8
0
 10
55.101
 20
55.746
 30
0.0
 70
0
  0
VERTEX
  5
A14
  8
0
 10
55.096
 20
55.749
 30
0.0
 70
0
  0
VERTEX
  5
A15
  8
0
 10
55.091
 20
55.753
 30
0.0
 70
0
  0
VERTEX
  5
A16
  8
0
 10
55.086
 20
55.756
 30
0.0
 70
0
  0
VERTEX
  5
A17
  8
0
 10
55.081
 20
55.76
 30
0.0
 70
0
  0
VERTEX
  5
A18
  8
0
 10
55.076
 20
55.764
 30
0.0
 70
0
  0
VERTEX
  5
A19
  8
0
 10
55.071
 20
55.768
 30
0.0
 70
0
  0
VERTEX
  5
A1A
  8
0
 10
55.067
 20
55.772
 30
0.0
 70
0
  0
VERTEX
  5
A1B
  8
0
 10
55.062
 20
55.776
 30
0.0
 70
0
  0
VERTEX
  5
A1C
  8
0
 10
55.058
 20
55.78
 30
0.0
 70
0
  0
VERTEX
  5
A1D
  8
0
 10
55.053
 20
55.784
 30
0.0
 70
0
  0
VERTEX
  5
A1E
  8
0
 10
55.049
 20
55.788
 30
0.0
 70
0
  0
VERTEX
  5
A1F
  8
0
 10
55.044
 20
55.792
 30
0.0
 70
0
  0
VERTEX
  5
A20
  8
0
 10
55.04
 20
55.797
 30
0.0
 70
0
  0
VERTEX
  5
A21
  8
0
 10
55.036
 20
55.801
 30
0.0
 70
0
  0
VERTEX
  5
A22
  8
0
 10
55.031
 20
55.806
 30
0.0
 70
0
  0
VERTEX
  5
A23
  8
0
 10
55.027
 20
55.81
 30
0.0
 70
0
  0
VERTEX
  5
A24
  8
0
 10
55.023
 20
55.815
 30
0.0
 70
0
  0
VERTEX
  5
A25
  8
0
 10
55.019
 20
55.82
 30
0.0
 70
0
  0
VERTEX
  5
A26
  8
0
 10
55.015
 20
55.824
 30
0.0
 70
0
  0
VERTEX
  5
A27
  8
0
 10
55.011
 20
55.829
 30
0.0
 70
0
  0
VERTEX
  5
A28
  8
0
 10
55.007
 20
55.834
 30
0.0
 70
0
  0
VERTEX
  5
A29
  8
0
 10
55.004
 20
55.839
 30
0.0
 70
0
  0
VERTEX
  5
A2A
  8
0
 10
55.0
 20
55.844
 30
0.0
 70
0
  0
VERTEX
  5
A2B
  8
0
 10
54.996
 20
55.849
 30
0.0
 70
0
  0
VERTEX
  5
A2C
  8
0
 10
54.993
 20
55.854
 30
0.0
 70
0
  0
VERTEX
  5
A2D
  8
0
 10
54.989
 20
55.86
 30
0.0
 70
0
  0
VERTEX
  5
A2E
  8
0
 10
54.986
 20
55.865
 30
0.0
 70
0
  0
VERTEX
  5
A2F
  8
0
 10
54.982
 20
55.87
 30
0.0
 70
0
  0
VERTEX
  5
A30
  8
0
 10
54.979
 20
55.875
 30
0.0
 70
0
  0
VERTEX
  5
A31
  8
0
 10
54.976
 20
55.881
 30
0.0
 70
0
  0
VERTEX
  5
A32
  8
0
 10
54.972
 20
55.886
 30
0.0
 70
0
  0
VERTEX
  5
A33
  8
0
 10
54.969
 20
55.892
 30
0.0
 70
0
  0
VERTEX
  5
A34
  8
0
 10
54.966
 20
55.897
 30
0.0
 70
0
  0
VERTEX
  5
A35
  8
0
 10
54.963
 20
55.903
 30
0.0
 70
0
  0
VERTEX
  5
A36
  8
0
 10
54.96
 20
55.908
 30
0.0
 70
0
  0
VERTEX
  5
A37
  8
0
 10
54.958
 20
55.914
 30
0.0
 70
0
  0
VERTEX
  5
A38
  8
0
 10
54.955
 20
55.92
 30
0.0
 70
0
  0
VERTEX
  5
A39
  8
0
 10
54.952
 20
55.926
 30
0.0
 70
0
  0
VERTEX
  5
A3A
  8
0
 10
54.95
 20
55.931
 30
0.0
 70
0
  0
VERTEX
  5
A3B
  8
0
 10
54.947
 20
55.937
 30
0.0
 70
0
  0
VERTEX
  5
A3C
  8
0
 10
54.945
 20
55.943
 30
0.0
 70
0
  0
VERTEX
  5
A3D
  8
0
 10
54.942
 20
55.949
 30
0.0
 70
0
  0
VERTEX
  5
A3E
  8
0
 10
54.94
 20
55.955
 30
0.0
 70
0
  0
VERTEX
  5
A3F
  8
0
 10
54.938
 20
55.961
 30
0.0
 70
0
  0
VERTEX
  5
A40
  8
0
 10
54.936
 20
55.967
 30
0.0
 70
0
  0
VERTEX
  5
A41
  8
0
 10
54.933
 20
55.973
 30
0.0
 70
0
  0
VERTEX
  5
A42
  8
0
 10
54.931
 20
55.979
 30
0.0
 70
0
  0
VERTEX
  5
A43
  8
0
 10
54.93
 20
55.985
 30
0.0
 70
0
  0
VERTEX
  5
A44
  8
0
 10
54.928
 20
55.991
 30
0.0
 70
0
  0
VERTEX
  5
A45
  8
0
 10
54.926
 20
55.997
 30
0.0
 70
0
  0
VERTEX
  5
A46
  8
0
 10
54.924
 20
56.003
 30
0.0
 70
0
  0
VERTEX
  5
A47
  8
0
 10
54.923
 20
56.009
 30
0.0
 70
0
  0
VERTEX
  5
A48
  8
0
 10
54.921
 20
56.015
 30
0.0
 70
0
  0
VERTEX
  5
A49
  8
0
 10
54.92
 20
56.022
 30
0.0
 70
0
  0
VERTEX
  5
A4A
  8
0
 10
54.918
 20
56.028
 30
0.0
 70
0
  0
VERTEX
  5
A4B
  8
0
 10
54.917
 20
56.034
 30
0.0
 70
0
  0
VERTEX
  5
A4C
  8
0
 10
54.916
 20
56.04
 30
0.0
 70
0
  0
VERTEX
  5
A4D
  8
0
 10
54.915
 20
56.047
 30
0.0
 70
0
  0
VERTEX
  5
A4E
  8
0
 10
54.914
 20
56.053
 30
0.0
 70
0
  0
VERTEX
  5
A4F
  8
0
 10
54.913
 20
56.059
 30
0.0
 70
0
  0
VERTEX
  5
A50
  8
0
 10
54.912
 20
56.066
 30
0.0
 70
0
  0
VERTEX
  5
A51
  8
0
 10
54.911
 20
56.072
 30
0.0
 70
0
  0
VERTEX
  5
A52
  8
0
 10
54.911
 20
56.078
 30
0.0
 70
0
  0
VERTEX
  5
A53
  8
0
 10
54.91
 20
56.085
 30
0.0
 70
0
  0
VERTEX
  5
A54
  8
0
 10
54.91
 20
56.091
 30
0.0
 70
0
  0
VERTEX
  5
A55
  8
0
 10
54.909
 20
56.097
 30
0.0
 70
0
  0
VERTEX
  5
A56
  8
0
 10
54.909
 20
56.104
 30
0.0
 70
0
  0
VERTEX
  5
A57
  8
0
 10
54.909
 20
56.11
 30
0.0
 70
0
  0
VERTEX
  5
A58
  8
0
 10
54.909
 20
56.116
 30
0.0
 70
0
  0
VERTEX
  5
A59
  8
0
 10
54.909
 20
56.123
 30
0.0
 70
0
  0
VERTEX
  5
A5A
  8
0
 10
54.909
 20
56.129
 30
0.0
 70
0
  0
VERTEX
  5
A5B
  8
0
 10
54.909
 20
56.135
 30
0.0
 70
0
  0
VERTEX
  5
A5C
  8
0
 10
54.909
 20
56.142
 30
0.0
 70
0
  0
VERTEX
  5
A5D
  8
0
 10
54.91
 20
56.148
 30
0.0
 70
0
  0
VERTEX
  5
A5E
  8
0
 10
54.91
 20
56.154
 30
0.0
 70
0
  0
VERTEX
  5
A5F
  8
0
 10
54.911
 20
56.16
 30
0.0
 70
0
  0
VERTEX
  5
A60
  8
0
 10
54.911
 20
56.166
 30
0.0
 70
0
  0
VERTEX
  5
A61
  8
0
 10
54.912
 20
56.173
 30
0.0
 70
0
  0
VERTEX
  5
A62
  8
0
 10
54.913
 20
56.179
 30
0.0
 70
0
  0
VERTEX
  5
A63
  8
0
 10
54.914
 20
56.185
 30
0.0
 70
0
  0
VERTEX
  5
A64
  8
0
 10
54.915
 20
56.191
 30
0.0
 70
0
  0
VERTEX
  5
A65
  8
0
 10
54.916
 20
56.197
 30
0.0
 70
0
  0
VERTEX
  5
A66
  8
0
 10
54.917
 20
56.202
 30
0.0
 70
0
  0
VERTEX
  5
A67
  8
0
 10
54.918
 20
56.208
 30
0.0
 70
0
  0
VERTEX
  5
A68
  8
0
 10
54.92
 20
56.214
 30
0.0
 70
0
  0
VERTEX
  5
A69
  8
0
 10
54.921
 20
56.22
 30
0.0
 70
0
  0
VERTEX
  5
A6A
  8
0
 10
54.922
 20
56.226
 30
0.0
 70
0
  0
VERTEX
  5
A6B
  8
0
 10
54.924
 20
56.231
 30
0.0
 70
0
  0
VERTEX
  5
A6C
  8
0
 10
54.926
 20
56.237
 30
0.0
 70
0
  0
VERTEX
  5
A6D
  8
0
 10
54.927
 20
56.243
 30
0.0
 70
0
  0
VERTEX
  5
A6E
  8
0
 10
54.929
 20
56.248
 30
0.0
 70
0
  0
VERTEX
  5
A6F
  8
0
 10
54.931
 20
56.254
 30
0.0
 70
0
  0
VERTEX
  5
A70
  8
0
 10
54.933
 20
56.259
 30
0.0
 70
0
  0
VERTEX
  5
A71
  8
0
 10
54.935
 20
56.265
 30
0.0
 70
0
  0
VERTEX
  5
A72
  8
0
 10
54.937
 20
56.27
 30
0.0
 70
0
  0
VERTEX
  5
A73
  8
0
 10
54.939
 20
56.275
 30
0.0
 70
0
  0
VERTEX
  5
A74
  8
0
 10
54.942
 20
56.281
 30
0.0
 70
0
  0
VERTEX
  5
A75
  8
0
 10
54.944
 20
56.286
 30
0.0
 70
0
  0
VERTEX
  5
A76
  8
0
 10
54.947
 20
56.291
 30
0.0
 70
0
  0
VERTEX
  5
A77
  8
0
 10
54.949
 20
56.296
 30
0.0
 70
0
  0
VERTEX
  5
A78
  8
0
 10
54.952
 20
56.301
 30
0.0
 70
0
  0
VERTEX
  5
A79
  8
0
 10
54.954
 20
56.307
 30
0.0
 70
0
  0
VERTEX
  5
A7A
  8
0
 10
54.957
 20
56.312
 30
0.0
 70
0
  0
VERTEX
  5
A7B
  8
0
 10
54.96
 20
56.316
 30
0.0
 70
0
  0
VERTEX
  5
A7C
  8
0
 10
54.963
 20
56.321
 30
0.0
 70
0
  0
VERTEX
  5
A7D
  8
0
 10
54.966
 20
56.326
 30
0.0
 70
0
  0
VERTEX
  5
A7E
  8
0
 10
54.969
 20
56.331
 30
0.0
 70
0
  0
VERTEX
  5
A7F
  8
0
 10
54.972
 20
56.336
 30
0.0
 70
0
  0
VERTEX
  5
A80
  8
0
 10
54.975
 20
56.34
 30
0.0
 70
0
  0
VERTEX
  5
A81
  8
0
 10
54.978
 20
56.345
 30
0.0
 70
0
  0
VERTEX
  5
A82
  8
0
 10
54.982
 20
56.35
 30
0.0
 70
0
  0
VERTEX
  5
A83
  8
0
 10
54.985
 20
56.354
 30
0.0
 70
0
  0
VERTEX
  5
A84
  8
0
 10
54.988
 20
56.359
 30
0.0
 70
0
  0
VERTEX
  5
A85
  8
0
 10
54.992
 20
56.363
 30
0.0
 70
0
  0
VERTEX
  5
A86
  8
0
 10
54.995
 20
56.367
 30
0.0
 70
0
  0
VERTEX
  5
A87
  8
0
 10
54.999
 20
56.372
 30
0.0
 70
0
  0
VERTEX
  5
A88
  8
0
 10
55.003
 20
56.376
 30
0.0
 70
0
  0
VERTEX
  5
A89
  8
0
 10
55.007
 20
56.38
 30
0.0
 70
0
  0
VERTEX
  5
A8A
  8
0
 10
55.01
 20
56.384
 30
0.0
 70
0
  0
VERTEX
  5
A8B
  8
0
 10
55.014
 20
56.388
 30
0.0
 70
0
  0
VERTEX
  5
A8C
  8
0
 10
55.018
 20
56.392
 30
0.0
 70
0
  0
VERTEX
  5
A8D
  8
0
 10
55.022
 20
56.396
 30
0.0
 70
0
  0
VERTEX
  5
A8E
  8
0
 10
55.026
 20
56.4
 30
0.0
 70
0
  0
VERTEX
  5
A8F
  8
0
 10
55.031
 20
56.404
 30
0.0
 70
0
  0
VERTEX
  5
A90
  8
0
 10
55.035
 20
56.408
 30
0.0
 70
0
  0
VERTEX
  5
A91
  8
0
 10
55.039
 20
56.411
 30
0.0
 70
0
  0
VERTEX
  5
A92
  8
0
 10
55.043
 20
56.415
 30
0.0
 70
0
  0
VERTEX
  5
A93
  8
0
 10
55.048
 20
56.418
 30
0.0
 70
0
  0
VERTEX
  5
A94
  8
0
 10
55.052
 20
56.422
 30
0.0
 70
0
  0
VERTEX
  5
A95
  8
0
 10
55.057
 20
56.425
 30
0.0
 70
0
  0
VERTEX
  5
A96
  8
0
 10
55.061
 20
56.428
 30
0.0
 70
0
  0
VERTEX
  5
A97
  8
0
 10
55.066
 20
56.432
 30
0.0
 70
0
  0
VERTEX
  5
A98
  8
0
 10
55.07
 20
56.435
 30
0.0
 70
0
  0
VERTEX
  5
A99
  8
0
 10
55.075
 20
56.438
 30
0.0
 70
0
  0
VERTEX
  5
A9A
  8
0
 10
55.08
 20
56.441
 30
0.0
 70
0
  0
VERTEX
  5
A9B
  8
0
 10
55.085
 20
56.444
 30
0.0
 70
0
  0
VERTEX
  5
A9C
  8
0
 10
55.09
 20
56.447
 30
0.0
 70
0
  0
VERTEX
  5
A9D
  8
0
 10
55.095
 20
56.45
 30
0.0
 70
0
  0
VERTEX
  5
A9E
  8
0
 10
55.1
 20
56.453
 30
0.0
 70
0
  0
VERTEX
  5
A9F
  8
0
 10
55.105
 20
56.455
 30
0.0
 70
0
  0
VERTEX
  5
AA0
  8
0
 10
55.11
 20
56.458
 30
0.0
 70
0
  0
VERTEX
  5
AA1
  8
0
 10
55.115
 20
56.46
 30
0.0
 70
0
  0
VERTEX
  5
AA2
  8
0
 10
55.12
 20
56.463
 30
0.0
 70
0
  0
VERTEX
  5
AA3
  8
0
 10
55.125
 20
56.465
 30
0.0
 70
0
  0
VERTEX
  5
AA4
  8
0
 10
55.13
 20
56.468
 30
0.0
 70
0
  0
VERTEX
  5
AA5
  8
0
 10
55.136
 20
56.47
 30
0.0
 70
0
  0
VERTEX
  5
AA6
  8
0
 10
55.141
 20
56.472
 30
0.0
 70
0
  0
VERTEX
  5
AA7
  8
0
 10
55.147
 20
56.474
 30
0.0
 70
0
  0
VERTEX
  5
AA8
  8
0
 10
55.152
 20
56.476
 30
0.0
 70
0
  0
VERTEX
  5
AA9
  8
0
 10
55.158
 20
56.478
 30
0.0
 70
0
  0
VERTEX
  5
AAA
  8
0
 10
55.163
 20
56.48
 30
0.0
 70
0
  0
VERTEX
  5
AAB
  8
0
 10
55.169
 20
56.482
 30
0.0
 70
0
  0
VERTEX
  5
AAC
  8
0
 10
55.174
 20
56.483
 30
0.0
 70
0
  0
VERTEX
  5
AAD
  8
0
 10
55.18
 20
56.485
 30
0.0
 70
0
  0
VERTEX
  5
AAE
  8
0
 10
55.186
 20
56.487
 30
0.0
 70
0
  0
VERTEX
  5
AAF
  8
0
 10
55.192
 20
56.488
 30
0.0
 70
0
  0
VERTEX
  5
AB0
  8
0
 10
55.197
 20
56.489
 30
0.0
 70
0
  0
VERTEX
  5
AB1
  8
0
 10
55.203
 20
56.491
 30
0.0
 70
0
  0
VERTEX
  5
AB2
  8
0
 10
55.209
 20
56.492
 30
0.0
 70
0
  0
VERTEX
  5
AB3
  8
0
 10
55.215
 20
56.493
 30
0.0
 70
0
  0
VERTEX
  5
AB4
  8
0
 10
55.221
 20
56.494
 30
0.0
 70
0
  0
VERTEX
  5
AB5
  8
0
 10
55.227
 20
56.495
 30
0.0
 70
0
  0
VERTEX
  5
AB6
  8
0
 10
55.233
 20
56.496
 30
0.0
 70
0
  0
VERTEX
  5
AB7
  8
0
 10
55.239
 20
56.496
 30
0.0
 70
0
  0
VERTEX
  5
AB8
  8
0
 10
55.245
 20
56.497
 30
0.0
 70
0
  0
VERTEX
  5
AB9
  8
0
 10
55.251
 20
56.498
 30
0.0
 70
0
  0
VERTEX
  5
ABA
  8
0
 10
55.258
 20
56.498
 30
0.0
 70
0
  0
VERTEX
  5
ABB
  8
0
 10
55.264
 20
56.499
 30
0.0
 70
0
  0
VERTEX
  5
ABC
  8
0
 10
55.27
 20
56.499
 30
0.0
 70
0
  0
VERTEX
  5
ABD
  8
0
 10
55.276
 20
56.499
 30
0.0
 70
0
  0
VERTEX
  5
ABE
  8
0
 10
55.283
 20
56.499
 30
0.0
 70
0
  0
VERTEX
  5
ABF
  8
0
 10
55.289
 20
56.499
 30
0.0
 70
0
  0
VERTEX
  5
AC0
  8
0
 10
55.295
 20
56.499
 30
0.0
 70
0
  0
VERTEX
  5
AC1
  8
0
 10
55.302
 20
56.499
 30
0.0
 70
0
  0
VERTEX
  5
AC2
  8
0
 10
55.308
 20
56.499
 30
0.0
 70
0
  0
VERTEX
  5
AC3
  8
0
 10
55.314
 20
56.498
 30
0.0
 70
0
  0
VERTEX
  5
AC4
  8
0
 10
55.32
 20
56.498
 30
0.0
 70
0
  0
VERTEX
  5
AC5
  8
0
 10
55.327
 20
56.497
 30
0.0
 70
0
  0
VERTEX
  5
AC6
  8
0
 10
55.333
 20
56.497
 30
0.0
 70
0
  0
VERTEX
  5
AC7
  8
0
 10
55.339
 20
56.496
 30
0.0
 70
0
  0
VERTEX
  5
AC8
  8
0
 10
55.345
 20
56.495
 30
0.0
 70
0
  0
VERTEX
  5
AC9
  8
0
 10
55.351
 20
56.494
 30
0.0
 70
0
  0
VERTEX
  5
ACA
  8
0
 10
55.357
 20
56.493
 30
0.0
 70
0
  0
VERTEX
  5
ACB
  8
0
 10
55.363
 20
56.492
 30
0.0
 70
0
  0
VERTEX
  5
ACC
  8
0
 10
55.369
 20
56.491
 30
0.0
 70
0
  0
VERTEX
  5
ACD
  8
0
 10
55.375
 20
56.49
 30
0.0
 70
0
  0
VERTEX
  5
ACE
  8
0
 10
55.381
 20
56.489
 30
0.0
 70
0
  0
VERTEX
  5
ACF
  8
0
 10
55.386
 20
56.487
 30
0.0
 70
0
  0
VERTEX
  5
AD0
  8
0
 10
55.392
 20
56.486
 30
0.0
 70
0
  0
VERTEX
  5
AD1
  8
0
 10
55.398
 20
56.484
 30
0.0
 70
0
  0
VERTEX
  5
AD2
  8
0
 10
55.404
 20
56.483
 30
0.0
 70
0
  0
VERTEX
  5
AD3
  8
0
 10
55.409
 20
56.481
 30
0.0
 70
0
  0
VERTEX
  5
AD4
  8
0
 10
55.415
 20
56.479
 30
0.0
 70
0
  0
VERTEX
  5
AD5
  8
0
 10
55.42
 20
56.477
 30
0.0
 70
0
  0
VERTEX
  5
AD6
  8
0
 10
55.426
 20
56.475
 30
0.0
 70
0
  0
VERTEX
  5
AD7
  8
0
 10
55.431
 20
56.473
 30
0.0
 70
0
  0
VERTEX
  5
AD8
  8
0
 10
55.437
 20
56.471
 30
0.0
 70
0
  0
VERTEX
  5
AD9
  8
0
 10
55.442
 20
56.469
 30
0.0
 70
0
  0
VERTEX
  5
ADA
  8
0
 10
55.447
 20
56.467
 30
0.0
 70
0
  0
VERTEX
  5
ADB
  8
0
 10
55.453
 20
56.464
 30
0.0
 70
0
  0
VERTEX
  5
ADC
  8
0
 10
55.458
 20
56.462
 30
0.0
 70
0
  0
VERTEX
  5
ADD
  8
0
 10
55.463
 20
56.459
 30
0.0
 70
0
  0
VERTEX
  5
ADE
  8
0
 10
55.468
 20
56.457
 30
0.0
 70
0
  0
VERTEX
  5
ADF
  8
0
 10
55.473
 20
56.454
 30
0.0
 70
0
  0
VERTEX
  5
AE0
  8
0
 10
55.478
 20
56.452
 30
0.0
 70
0
  0
VERTEX
  5
AE1
  8
0
 10
55.483
 20
56.449
 30
0.0
 70
0
  0
VERTEX
  5
AE2
  8
0
 10
55.488
 20
56.446
 30
0.0
 70
0
  0
VERTEX
  5
AE3
  8
0
 10
55.493
 20
56.443
 30
0.0
 70
0
  0
VERTEX
  5
AE4
  8
0
 10
55.498
 20
56.44
 30
0.0
 70
0
  0
VERTEX
  5
AE5
  8
0
 10
55.503
 20
56.437
 30
0.0
 70
0
  0
VERTEX
  5
AE6
  8
0
 10
55.507
 20
56.434
 30
0.0
 70
0
  0
VERTEX
  5
AE7
  8
0
 10
55.512
 20
56.431
 30
0.0
 70
0
  0
VERTEX
  5
AE8
  8
0
 10
55.517
 20
56.427
 30
0.0
 70
0
  0
VERTEX
  5
AE9
  8
0
 10
55.521
 20
56.424
 30
0.0
 70
0
  0
VERTEX
  5
AEA
  8
0
 10
55.525
 20
56.42
 30
0.0
 70
0
  0
VERTEX
  5
AEB
  8
0
 10
55.53
 20
56.417
 30
0.0
 70
0
  0
VERTEX
  5
AEC
  8
0
 10
55.534
 20
56.413
 30
0.0
 70
0
  0
VERTEX
  5
AED
  8
0
 10
55.539
 20
56.41
 30
0.0
 70
0
  0
VERTEX
  5
AEE
  8
0
 10
55.543
 20
56.406
 30
0.0
 70
0
  0
VERTEX
  5
AEF
  8
0
 10
55.547
 20
56.402
 30
0.0
 70
0
  0
VERTEX
  5
AF0
  8
0
 10
55.551
 20
56.398
 30
0.0
 70
0
  0
VERTEX
  5
AF1
  8
0
 10
55.555
 20
56.395
 30
0.0
 70
0
  0
VERTEX
  5
AF2
  8
0
 10
55.559
 20
56.391
 30
0.0
 70
0
  0
VERTEX
  5
AF3
  8
0
 10
55.563
 20
56.387
 30
0.0
 70
0
  0
VERTEX
  5
AF4
  8
0
 10
55.567
 20
56.383
 30
0.0
 70
0
  0
VERTEX
  5
AF5
  8
0
 10
55.571
 20
56.378
 30
0.0
 70
0
  0
VERTEX
  5
AF6
  8
0
 10
55.574
 20
56.374
 30
0.0
 70
0
  0
VERTEX
  5
AF7
  8
0
 10
55.578
 20
56.37
 30
0.0
 70
0
  0
VERTEX
  5
AF8
  8
0
 10
55.582
 20
56.366
 30
0.0
 70
0
  0
VERTEX
  5
AF9
  8
0
 10
55.585
 20
56.361
 30
0.0
 70
0
  0
VERTEX
  5
AFA
  8
0
 10
55.589
 20
56.357
 30
0.0
 70
0
  0
VERTEX
  5
AFB
  8
0
 10
55.592
 20
56.352
 30
0.0
 70
0
  0
VERTEX
  5
AFC
  8
0
 10
55.596
 20
56.348
 30
0.0
 70
0
  0
VERTEX
  5
AFD
  8
0
 10
55.599
 20
56.343
 30
0.0
 70
0
  0
VERTEX
  5
AFE
  8
0
 10
55.602
 20
56.339
 30
0.0
 70
0
  0
VERTEX
  5
AFF
  8
0
 10
55.605
 20
56.334
 30
0.0
 70
0
  0
VERTEX
  5
B00
  8
0
 10
55.608
 20
56.329
 30
0.0
 70
0
  0
VERTEX
  5
B01
  8
0
 10
55.611
 20
56.324
 30
0.0
 70
0
  0
VERTEX
  5
B02
  8
0
 10
55.614
 20
56.319
 30
0.0
 70
0
  0
VERTEX
  5
B03
  8
0
 10
55.617
 20
56.315
 30
0.0
 70
0
  0
VERTEX
  5
B04
  8
0
 10
55.62
 20
56.31
 30
0.0
 70
0
  0
VERTEX
  5
B05
  8
0
 10
55.623
 20
56.305
 30
0.0
 70
0
  0
VERTEX
  5
B06
  8
0
 10
55.625
 20
56.299
 30
0.0
 70
0
  0
VERTEX
  5
B07
  8
0
 10
55.628
 20
56.294
 30
0.0
 70
0
  0
VERTEX
  5
B08
  8
0
 10
55.63
 20
56.289
 30
0.0
 70
0
  0
VERTEX
  5
B09
  8
0
 10
55.633
 20
56.284
 30
0.0
 70
0
  0
VERTEX
  5
B0A
  8
0
 10
55.635
 20
56.279
 30
0.0
 70
0
  0
VERTEX
  5
B0B
  8
0
 10
55.637
 20
56.273
 30
0.0
 70
0
  0
VERTEX
  5
B0C
  8
0
 10
55.639
 20
56.268
 30
0.0
 70
0
  0
VERTEX
  5
B0D
  8
0
 10
55.641
 20
56.263
 30
0.0
 70
0
  0
VERTEX
  5
B0E
  8
0
 10
55.644
 20
56.257
 30
0.0
 70
0
  0
VERTEX
  5
B0F
  8
0
 10
55.645
 20
56.252
 30
0.0
 70
0
  0
VERTEX
  5
B10
  8
0
 10
55.647
 20
56.246
 30
0.0
 70
0
  0
VERTEX
  5
B11
  8
0
 10
55.649
 20
56.24
 30
0.0
 70
0
  0
VERTEX
  5
B12
  8
0
 10
55.651
 20
56.235
 30
0.0
 70
0
  0
VERTEX
  5
B13
  8
0
 10
55.652
 20
56.229
 30
0.0
 70
0
  0
VERTEX
  5
B14
  8
0
 10
55.654
 20
56.223
 30
0.0
 70
0
  0
VERTEX
  5
B15
  8
0
 10
55.655
 20
56.218
 30
0.0
 70
0
  0
VERTEX
  5
B16
  8
0
 10
55.657
 20
56.212
 30
0.0
 70
0
  0
VERTEX
  5
B17
  8
0
 10
55.658
 20
56.206
 30
0.0
 70
0
  0
VERTEX
  5
B18
  8
0
 10
55.659
 20
56.2
 30
0.0
 70
0
  0
VERTEX
  5
B19
  8
0
 10
55.66
 20
56.194
 30
0.0
 70
0
  0
VERTEX
  5
B1A
  8
0
 10
55.661
 20
56.188
 30
0.0
 70
0
  0
VERTEX
  5
B1B
  8
0
 10
55.662
 20
56.182
 30
0.0
 70
0
  0
VERTEX
  5
B1C
  8
0
 10
55.663
 20
56.176
 30
0.0
 70
0
  0
VERTEX
  5
B1D
  8
0
 10
55.664
 20
56.17
 30
0.0
 70
0
  0
VERTEX
  5
B1E
  8
0
 10
55.665
 20
56.164
 30
0.0
 70
0
  0
VERTEX
  5
B1F
  8
0
 10
55.665
 20
56.158
 30
0.0
 70
0
  0
VERTEX
  5
B20
  8
0
 10
55.666
 20
56.152
 30
0.0
 70
0
  0
VERTEX
  5
B21
  8
0
 10
55.666
 20
56.145
 30
0.0
 70
0
  0
VERTEX
  5
B22
  8
0
 10
55.667
 20
56.139
 30
0.0
 70
0
  0
VERTEX
  5
B23
  8
0
 10
55.667
 20
56.133
 30
0.0
 70
0
  0
VERTEX
  5
B24
  8
0
 10
55.667
 20
56.127
 30
0.0
 70
0
  0
VERTEX
  5
B25
  8
0
 10
55.667
 20
56.12
 30
0.0
 70
0
  0
SEQEND
  5
98B
  8
0
  0
POLYLINE
  5
B26
  8
0
 66
1
 10
0.0
 20
0.0
 30
0.0
 70
0
  0
VERTEX
  5
B28
  8
0
 10
55.612
 20
56.12
 30
0.0
 70
0
  0
VERTEX
  5
B29
  8
0
 10
55.612
 20
56.115
 30
0.0
 70
0
  0
VERTEX
  5
B2A
  8
0
 10
55.612
 20
56.109
 30
0.0
 70
0
  0
VERTEX
  5
B2B
  8
0
 10
55.612
 20
56.103
 30
0.0
 70
0
  0
VERTEX
  5
B2C
  8
0
 10
55.612
 20
56.096
 30
0.0
 70
0
  0
VERTEX
  5
B2D
  8
0
 10
55.611
 20
56.09
 30
0.0
 70
0
  0
VERTEX
  5
B2E
  8
0
 10
55.611
 20
56.084
 30
0.0
 70
0
  0
VERTEX
  5
B2F
  8
0
 10
55.61
 20
56.078
 30
0.0
 70
0
  0
VERTEX
  5
B30
  8
0
 10
55.61
 20
56.072
 30
0.0
 70
0
  0
VERTEX
  5
B31
  8
0
 10
55.609
 20
56.067
 30
0.0
 70
0
  0
VERTEX
  5
B32
  8
0
 10
55.608
 20
56.061
 30
0.0
 70
0
  0
VERTEX
  5
B33
  8
0
 10
55.607
 20
56.055
 30
0.0
 70
0
  0
VERTEX
  5
B34
  8
0
 10
55.606
 20
56.049
 30
0.0
 70
0
  0
VERTEX
  5
B35
  8
0
 10
55.605
 20
56.044
 30
0.0
 70
0
  0
VERTEX
  5
B36
  8
0
 10
55.604
 20
56.038
 30
0.0
 70
0
  0
VERTEX
  5
B37
  8
0
 10
55.603
 20
56.033
 30
0.0
 70
0
  0
VERTEX
  5
B38
  8
0
 10
55.601
 20
56.027
 30
0.0
 70
0
  0
VERTEX
  5
B39
  8
0
 10
55.6
 20
56.022
 30
0.0
 70
0
  0
VERTEX
  5
B3A
  8
0
 10
55.599
 20
56.017
 30
0.0
 70
0
  0
VERTEX
  5
B3B
  8
0
 10
55.597
 20
56.011
 30
0.0
 70
0
  0
VERTEX
  5
B3C
  8
0
 10
55.595
 20
56.006
 30
0.0
 70
0
  0
VERTEX
  5
B3D
  8
0
 10
55.594
 20
56.001
 30
0.0
 70
0
  0
VERTEX
  5
B3E
  8
0
 10
55.592
 20
55.996
 30
0.0
 70
0
  0
VERTEX
  5
B3F
  8
0
 10
55.59
 20
55.991
 30
0.0
 70
0
  0
VERTEX
  5
B40
  8
0
 10
55.588
 20
55.986
 30
0.0
 70
0
  0
VERTEX
  5
B41
  8
0
 10
55.586
 20
55.981
 30
0.0
 70
0
  0
VERTEX
  5
B42
  8
0
 10
55.584
 20
55.977
 30
0.0
 70
0
  0
VERTEX
  5
B43
  8
0
 10
55.582
 20
55.972
 30
0.0
 70
0
  0
VERTEX
  5
B44
  8
0
 10
55.58
 20
55.967
 30
0.0
 70
0
  0
VERTEX
  5
B45
  8
0
 10
55.577
 20
55.963
 30
0.0
 70
0
  0
VERTEX
  5
B46
  8
0
 10
55.575
 20
55.958
 30
0.0
 70
0
  0
VERTEX
  5
B47
  8
0
 10
55.573
 20
55.954
 30
0.0
 70
0
  0
VERTEX
  5
B48
  8
0
 10
55.57
 20
55.949
 30
0.0
 70
0
  0
VERTEX
  5
B49
  8
0
 10
55.568
 20
55.945
 30
0.0
 70
0
  0
VERTEX
  5
B4A
  8
0
 10
55.565
 20
55.94
 30
0.0
 70
0
  0
VERTEX
  5
B4B
  8
0
 10
55.562
 20
55.936
 30
0.0
 70
0
  0
VERTEX
  5
B4C
  8
0
 10
55.56
 20
55.932
 30
0.0
 70
0
  0
VERTEX
  5
B4D
  8
0
 10
55.557
 20
55.928
 30
0.0
 70
0
  0
VERTEX
  5
B4E
  8
0
 10
55.554
 20
55.924
 30
0.0
 70
0
  0
VERTEX
  5
B4F
  8
0
 10
55.551
 20
55.92
 30
0.0
 70
0
  0
VERTEX
  5
B50
  8
0
 10
55.548
 20
55.916
 30
0.0
 70
0
  0
VERTEX
  5
B51
  8
0
 10
55.545
 20
55.912
 30
0.0
 70
0
  0
VERTEX
  5
B52
  8
0
 10
55.542
 20
55.908
 30
0.0
 70
0
  0
VERTEX
  5
B53
  8
0
 10
55.539
 20
55.905
 30
0.0
 70
0
  0
VERTEX
  5
B54
  8
0
 10
55.536
 20
55.901
 30
0.0
 70
0
  0
VERTEX
  5
B55
  8
0
 10
55.533
 20
55.897
 30
0.0
 70
0
  0
VERTEX
  5
B56
  8
0
 10
55.529
 20
55.894
 30
0.0
 70
0
  0
VERTEX
  5
B57
  8
0
 10
55.526
 20
55.89
 30
0.0
 70
0
  0
VERTEX
  5
B58
  8
0
 10
55.523
 20
55.887
 30
0.0
 70
0
  0
VERTEX
  5
B59
  8
0
 10
55.519
 20
55.883
 30
0.0
 70
0
  0
VERTEX
  5
B5A
  8
0
 10
55.516
 20
55.88
 30
0.0
 70
0
  0
VERTEX
  5
B5B
  8
0
 10
55.512
 20
55.877
 30
0.0
 70
0
  0
VERTEX
  5
B5C
  8
0
 10
55.509
 20
55.874
 30
0.0
 70
0
  0
VERTEX
  5
B5D
  8
0
 10
55.505
 20
55.871
 30
0.0
 70
0
  0
VERTEX
  5
B5E
  8
0
 10
55.501
 20
55.867
 30
0.0
 70
0
  0
VERTEX
  5
B5F
  8
0
 10
55.497
 20
55.865
 30
0.0
 70
0
  0
VERTEX
  5
B60
  8
0
 10
55.494
 20
55.862
 30
0.0
 70
0
  0
VERTEX
  5
B61
  8
0
 10
55.49
 20
55.859
 30
0.0
 70
0
  0
VERTEX
  5
B62
  8
0
 10
55.486
 20
55.856
 30
0.0
 70
0
  0
VERTEX
  5
B63
  8
0
 10
55.482
 20
55.853
 30
0.0
 70
0
  0
VERTEX
  5
B64
  8
0
 10
55.478
 20
55.85
 30
0.0
 70
0
  0
VERTEX
  5
B65
  8
0
 10
55.474
 20
55.848
 30
0.0
 70
0
  0
VERTEX
  5
B66
  8
0
 10
55.47
 20
55.845
 30
0.0
 70
0
  0
VERTEX
  5
B67
  8
0
 10
55.466
 20
55.843
 30
0.0
 70
0
  0
VERTEX
  5
B68
  8
0
 10
55.462
 20
55.84
 30
0.0
 70
0
  0
VERTEX
  5
B69
  8
0
 10
55.458
 20
55.838
 30
0.0
 70
0
  0
VERTEX
  5
B6A
  8
0
 10
55.454
 20
55.836
 30
0.0
 70
0
  0
VERTEX
  5
B6B
  8
0
 10
55.45
 20
55.833
 30
0.0
 70
0
  0
VERTEX
  5
B6C
  8
0
 10
55.446
 20
55.831
 30
0.0
 70
0
  0
VERTEX
  5
B6D
  8
0
 10
55.441
 20
55.829
 30
0.0
 70
0
  0
VERTEX
  5
B6E
  8
0
 10
55.437
 20
55.827
 30
0.0
 70
0
  0
VERTEX
  5
B6F
  8
0
 10
55.433
 20
55.825
 30
0.0
 70
0
  0
VERTEX
  5
B70
  8
0
 10
55.429
 20
55.823
 30
0.0
 70
0
  0
VERTEX
  5
B71
  8
0
 10
55.424
 20
55.821
 30
0.0
 70
0
  0
VERTEX
  5
B72
  8
0
 10
55.42
 20
55.819
 30
0.0
 70
0
  0
VERTEX
  5
B73
  8
0
 10
55.415
 20
55.818
 30
0.0
 70
0
  0
VERTEX
  5
B74
  8
0
 10
55.411
 20
55.816
 30
0.0
 70
0
  0
VERTEX
  5
B75
  8
0
 10
55.406
 20
55.814
 30
0.0
 70
0
  0
VERTEX
  5
B76
  8
0
 10
55.402
 20
55.813
 30
0.0
 70
0
  0
VERTEX
  5
B77
  8
0
 10
55.397
 20
55.811
 30
0.0
 70
0
  0
VERTEX
  5
B78
  8
0
 10
55.393
 20
55.81
 30
0.0
 70
0
  0
VERTEX
  5
B79
  8
0
 10
55.388
 20
55.808
 30
0.0
 70
0
  0
VERTEX
  5
B7A
  8
0
 10
55.384
 20
55.807
 30
0.0
 70
0
  0
VERTEX
  5
B7B
  8
0
 10
55.379
 20
55.806
 30
0.0
 70
0
  0
VERTEX
  5
B7C
  8
0
 10
55.375
 20
55.805
 30
0.0
 70
0
  0
VERTEX
  5
B7D
  8
0
 10
55.37
 20
55.804
 30
0.0
 70
0
  0
VERTEX
  5
B7E
  8
0
 10
55.365
 20
55.803
 30
0.0
 70
0
  0
VERTEX
  5
B7F
  8
0
 10
55.361
 20
55.802
 30
0.0
 70
0
  0
VERTEX
  5
B80
  8
0
 10
55.356
 20
55.801
 30
0.0
 70
0
  0
VERTEX
  5
B81
  8
0
 10
55.351
 20
55.8
 30
0.0
 70
0
  0
VERTEX
  5
B82
  8
0
 10
55.347
 20
55.799
 30
0.0
 70
0
  0
VERTEX
  5
B83
  8
0
 10
55.342
 20
55.798
 30
0.0
 70
0
  0
VERTEX
  5
B84
  8
0
 10
55.337
 20
55.797
 30
0.0
 70
0
  0
VERTEX
  5
B85
  8
0
 10
55.332
 20
55.797
 30
0.0
 70
0
  0
VERTEX
  5
B86
  8
0
 10
55.328
 20
55.796
 30
0.0
 70
0
  0
VERTEX
  5
B87
  8
0
 10
55.323
 20
55.796
 30
0.0
 70
0
  0
VERTEX
  5
B88
  8
0
 10
55.318
 20
55.795
 30
0.0
 70
0
  0
VERTEX
  5
B89
  8
0
 10
55.314
 20
55.795
 30
0.0
 70
0
  0
VERTEX
  5
B8A
  8
0
 10
55.309
 20
55.795
 30
0.0
 70
0
  0
VERTEX
  5
B8B
  8
0
 10
55.304
 20
55.795
 30
0.0
 70
0
  0
VERTEX
  5
B8C
  8
0
 10
55.299
 20
55.794
 30
0.0
 70
0
  0
VERTEX
  5
B8D
  8
0
 10
55.294
 20
55.794
 30
0.0
 70
0
  0
VERTEX
  5
B8E
  8
0
 10
55.29
 20
55.794
 30
0.0
 70
0
  0
VERTEX
  5
B8F
  8
0
 10
55.284
 20
55.794
 30
0.0
 70
0
  0
VERTEX
  5
B90
  8
0
 10
55.278
 20
55.794
 30
0.0
 70
0
  0
VERTEX
  5
B91
  8
0
 10
55.271
 20
55.794
 30
0.0
 70
0
  0
VERTEX
  5
B92
  8
0
 10
55.265
 20
55.795
 30
0.0
 70
0
  0
VERTEX
  5
B93
  8
0
 10
55.259
 20
55.795
 30
0.0
 70
0
  0
VERTEX
  5
B94
  8
0
 10
55.253
 20
55.795
 30
0.0
 70
0
  0
VERTEX
  5
B95
  8
0
 10
55.247
 20
55.795
 30
0.0
 70
0
  0
VERTEX
  5
B96
  8
0
 10
55.241
 20
55.796
 30
0.0
 70
0
  0
VERTEX
  5
B97
  8
0
 10
55.235
 20
55.796
 30
0.0
 70
0
  0
VERTEX
  5
B98
  8
0
 10
55.23
 20
55.797
 30
0.0
 70
0
  0
VERTEX
  5
B99
  8
0
 10
55.224
 20
55.798
 30
0.0
 70
0
  0
VERTEX
  5
B9A
  8
0
 10
55.218
 20
55.798
 30
0.0
 70
0
  0
VERTEX
  5
B9B
  8
0
 10
55.213
 20
55.799
 30
0.0
 70
0
  0
VERTEX
  5
B9C
  8
0
 10
55.207
 20
55.8
 30
0.0
 70
0
  0
VERTEX
  5
B9D
  8
0
 10
55.202
 20
55.801
 30
0.0
 70
0
  0
VERTEX
  5
B9E
  8
0
 10
55.196
 20
55.802
 30
0.0
 70
0
  0
VERTEX
  5
B9F
  8
0
 10
55.191
 20
55.803
 30
0.0
 70
0
  0
VERTEX
  5
BA0
  8
0
 10
55.186
 20
55.804
 30
0.0
 70
0
  0
VERTEX
  5
BA1
  8
0
 10
55.18
 20
55.805
 30
0.0
 70
0
  0
VERTEX
  5
BA2
  8
0
 10
55.175
 20
55.806
 30
0.0
 70
0
  0
VERTEX
  5
BA3
  8
0
 10
55.17
 20
55.807
 30
0.0
 70
0
  0
VERTEX
  5
BA4
  8
0
 10
55.165
 20
55.809
 30
0.0
 70
0
  0
VERTEX
  5
BA5
  8
0
 10
55.16
 20
55.81
 30
0.0
 70
0
  0
VERTEX
  5
BA6
  8
0
 10
55.155
 20
55.812
 30
0.0
 70
0
  0
VERTEX
  5
BA7
  8
0
 10
55.15
 20
55.813
 30
0.0
 70
0
  0
VERTEX
  5
BA8
  8
0
 10
55.146
 20
55.815
 30
0.0
 70
0
  0
VERTEX
  5
BA9
  8
0
 10
55.141
 20
55.816
 30
0.0
 70
0
  0
VERTEX
  5
BAA
  8
0
 10
55.136
 20
55.818
 30
0.0
 70
0
  0
VERTEX
  5
BAB
  8
0
 10
55.132
 20
55.82
 30
0.0
 70
0
  0
VERTEX
  5
BAC
  8
0
 10
55.127
 20
55.822
 30
0.0
 70
0
  0
VERTEX
  5
BAD
  8
0
 10
55.123
 20
55.823
 30
0.0
 70
0
  0
VERTEX
  5
BAE
  8
0
 10
55.118
 20
55.825
 30
0.0
 70
0
  0
VERTEX
  5
BAF
  8
0
 10
55.114
 20
55.827
 30
0.0
 70
0
  0
VERTEX
  5
BB0
  8
0
 10
55.109
 20
55.829
 30
0.0
 70
0
  0
VERTEX
  5
BB1
  8
0
 10
55.105
 20
55.832
 30
0.0
 70
0
  0
VERTEX
  5
BB2
  8
0
 10
55.101
 20
55.834
 30
0.0
 70
0
  0
VERTEX
  5
BB3
  8
0
 10
55.097
 20
55.836
 30
0.0
 70
0
  0
VERTEX
  5
BB4
  8
0
 10
55.093
 20
55.838
 30
0.0
 70
0
  0
VERTEX
  5
BB5
  8
0
 10
55.089
 20
55.841
 30
0.0
 70
0
  0
VERTEX
  5
BB6
  8
0
 10
55.085
 20
55.843
 30
0.0
 70
0
  0
VERTEX
  5
BB7
  8
0
 10
55.081
 20
55.846
 30
0.0
 70
0
  0
VERTEX
  5
BB8
  8
0
 10
55.078
 20
55.848
 30
0.0
 70
0
  0
VERTEX
  5
BB9
  8
0
 10
55.074
 20
55.851
 30
0.0
 70
0
  0
VERTEX
  5
BBA
  8
0
 10
55.07
 20
55.854
 30
0.0
 70
0
  0
VERTEX
  5
BBB
  8
0
 10
55.067
 20
55.856
 30
0.0
 70
0
  0
VERTEX
  5
BBC
  8
0
 10
55.063
 20
55.859
 30
0.0
 70
0
  0
VERTEX
  5
BBD
  8
0
 10
55.059
 20
55.862
 30
0.0
 70
0
  0
VERTEX
  5
BBE
  8
0
 10
55.056
 20
55.865
 30
0.0
 70
0
  0
VERTEX
  5
BBF
  8
0
 10
55.053
 20
55.868
 30
0.0
 70
0
  0
VERTEX
  5
BC0
  8
0
 10
55.049
 20
55.871
 30
0.0
 70
0
  0
VERTEX
  5
BC1
  8
0
 10
55.046
 20
55.874
 30
0.0
 70
0
  0
VERTEX
  5
BC2
  8
0
 10
55.043
 20
55.877
 30
0.0
 70
0
  0
VERTEX
  5
BC3
  8
0
 10
55.04
 20
55.881
 30
0.0
 70
0
  0
VERTEX
  5
BC4
  8
0
 10
55.037
 20
55.884
 30
0.0
 70
0
  0
VERTEX
  5
BC5
  8
0
 10
55.034
 20
55.887
 30
0.0
 70
0
  0
VERTEX
  5
BC6
  8
0
 10
55.031
 20
55.891
 30
0.0
 70
0
  0
VERTEX
  5
BC7
  8
0
 10
55.028
 20
55.894
 30
0.0
 70
0
  0
VERTEX
  5
BC8
  8
0
 10
55.025
 20
55.898
 30
0.0
 70
0
  0
VERTEX
  5
BC9
  8
0
 10
55.023
 20
55.902
 30
0.0
 70
0
  0
VERTEX
  5
BCA
  8
0
 10
55.02
 20
55.905
 30
0.0
 70
0
  0
VERTEX
  5
BCB
  8
0
 10
55.017
 20
55.909
 30
0.0
 70
0
  0
VERTEX
  5
BCC
  8
0
 10
55.015
 20
55.913
 30
0.0
 70
0
  0
VERTEX
  5
BCD
  8
0
 10
55.012
 20
55.917
 30
0.0
 70
0
  0
VERTEX
  5
BCE
  8
0
 10
55.01
 20
55.921
 30
0.0
 70
0
  0
VERTEX
  5
BCF
  8
0
 10
55.008
 20
55.925
 30
0.0
 70
0
  0
VERTEX
  5
BD0
  8
0
 10
55.005
 20
55.929
 30
0.0
 70
0
  0
VERTEX
  5
BD1
  8
0
 10
55.003
 20
55.933
 30
0.0
 70
0
  0
VERTEX
  5
BD2
  8
0
 10
55.001
 20
55.937
 30
0.0
 70
0
  0
VERTEX
  5
BD3
  8
0
 10
54.999
 20
55.941
 30
0.0
 70
0
  0
VERTEX
  5
BD4
  8
0
 10
54.997
 20
55.946
 30
0.0
 70
0
  0
VERTEX
  5
BD5
  8
0
 10
54.995
 20
55.95
 30
0.0
 70
0
  0
VERTEX
  5
BD6
  8
0
 10
54.993
 20
55.954
 30
0.0
 70
0
  0
VERTEX
  5
BD7
  8
0
 10
54.991
 20
55.959
 30
0.0
 70
0
  0
VERTEX
  5
BD8
  8
0
 10
54.989
 20
55.964
 30
0.0
 70
0
  0
VERTEX
  5
BD9
  8
0
 10
54.987
 20
55.968
 30
0.0
 70
0
  0
VERTEX
  5
BDA
  8
0
 10
54.986
 20
55.973
 30
0.0
 70
0
  0
VERTEX
  5
BDB
  8
0
 10
54.984
 20
55.978
 30
0.0
 70
0
  0
VERTEX
  5
BDC
  8
0
 10
54.983
 20
55.982
 30
0.0
 70
0
  0
VERTEX
  5
BDD
  8
0
 10
54.981
 20
55.987
 30
0.0
 70
0
  0
VERTEX
  5
BDE
  8
0
 10
54.98
 20
55.992
 30
0.0
 70
0
  0
VERTEX
  5
BDF
  8
0
 10
54.978
 20
55.997
 30
0.0
 70
0
  0
VERTEX
  5
BE0
  8
0
 10
54.977
 20
56.002
 30
0.0
 70
0
  0
VERTEX
  5
BE1
  8
0
 10
54.976
 20
56.007
 30
0.0
 70
0
  0
VERTEX
  5
BE2
  8
0
 10
54.975
 20
56.013
 30
0.0
 70
0
  0
VERTEX
  5
BE3
  8
0
 10
54.973
 20
56.018
 30
0.0
 70
0
  0
VERTEX
  5
BE4
  8
0
 10
54.972
 20
56.023
 30
0.0
 70
0
  0
VERTEX
  5
BE5
  8
0
 10
54.971
 20
56.028
 30
0.0
 70
0
  0
VERTEX
  5
BE6
  8
0
 10
54.97
 20
56.034
 30
0.0
 70
0
  0
VERTEX
  5
BE7
  8
0
 10
54.97
 20
56.039
 30
0.0
 70
0
  0
VERTEX
  5
BE8
  8
0
 10
54.969
 20
56.045
 30
0.0
 70
0
  0
VERTEX
  5
BE9
  8
0
 10
54.968
 20
56.05
 30
0.0
 70
0
  0
VERTEX
  5
BEA
  8
0
 10
54.967
 20
56.056
 30
0.0
 70
0
  0
VERTEX
  5
BEB
  8
0
 10
54.967
 20
56.062
 30
0.0
 70
0
  0
VERTEX
  5
BEC
  8
0
 10
54.966
 20
56.068
 30
0.0
 70
0
  0
VERTEX
  5
BED
  8
0
 10
54.966
 20
56.074
 30
0.0
 70
0
  0
VERTEX
  5
BEE
  8
0
 10
54.965
 20
56.08
 30
0.0
 70
0
  0
VERTEX
  5
BEF
  8
0
 10
54.965
 20
56.086
 30
0.0
 70
0
  0
VERTEX
  5
BF0
  8
0
 10
54.965
 20
56.092
 30
0.0
 70
0
  0
VERTEX
  5
BF1
  8
0
 10
54.964
 20
56.098
 30
0.0
 70
0
  0
VERTEX
  5
BF2
  8
0
 10
54.964
 20
56.104
 30
0.0
 70
0
  0
VERTEX
  5
BF3
  8
0
 10
54.964
 20
56.11
 30
0.0
 70
0
  0
VERTEX
  5
BF4
  8
0
 10
54.964
 20
56.116
 30
0.0
 70
0
  0
VERTEX
  5
BF5
  8
0
 10
54.964
 20
56.122
 30
0.0
 70
0
  0
VERTEX
  5
BF6
  8
0
 10
54.964
 20
56.127
 30
0.0
 70
0
  0
VERTEX
  5
BF7
  8
0
 10
54.964
 20
56.132
 30
0.0
 70
0
  0
VERTEX
  5
BF8
  8
0
 10
54.964
 20
56.136
 30
0.0
 70
0
  0
VERTEX
  5
BF9
  8
0
 10
54.964
 20
56.141
 30
0.0
 70
0
  0
VERTEX
  5
BFA
  8
0
 10
54.965
 20
56.146
 30
0.0
 70
0
  0
VERTEX
  5
BFB
  8
0
 10
54.965
 20
56.151
 30
0.0
 70
0
  0
VERTEX
  5
BFC
  8
0
 10
54.966
 20
56.155
 30
0.0
 70
0
  0
VERTEX
  5
BFD
  8
0
 10
54.966
 20
56.16
 30
0.0
 70
0
  0
VERTEX
  5
BFE
  8
0
 10
54.967
 20
56.165
 30
0.0
 70
0
  0
VERTEX
  5
BFF
  8
0
 10
54.967
 20
56.17
 30
0.0
 70
0
  0
VERTEX
  5
C00
  8
0
 10
54.968
 20
56.174
 30
0.0
 70
0
  0
VERTEX
  5
C01
  8
0
 10
54.969
 20
56.179
 30
0.0
 70
0
  0
VERTEX
  5
C02
  8
0
 10
54.969
 20
56.184
 30
0.0
 70
0
  0
VERTEX
  5
C03
  8
0
 10
54.97
 20
56.188
 30
0.0
 70
0
  0
VERTEX
  5
C04
  8
0
 10
54.971
 20
56.193
 30
0.0
 70
0
  0
VERTEX
  5
C05
  8
0
 10
54.972
 20
56.198
 30
0.0
 70
0
  0
VERTEX
  5
C06
  8
0
 10
54.973
 20
56.202
 30
0.0
 70
0
  0
VERTEX
  5
C07
  8
0
 10
54.974
 20
56.207
 30
0.0
 70
0
  0
VERTEX
  5
C08
  8
0
 10
54.975
 20
56.211
 30
0.0
 70
0
  0
VERTEX
  5
C09
  8
0
 10
54.977
 20
56.216
 30
0.0
 70
0
  0
VERTEX
  5
C0A
  8
0
 10
54.978
 20
56.221
 30
0.0
 70
0
  0
VERTEX
  5
C0B
  8
0
 10
54.979
 20
56.225
 30
0.0
 70
0
  0
VERTEX
  5
C0C
  8
0
 10
54.981
 20
56.23
 30
0.0
 70
0
  0
VERTEX
  5
C0D
  8
0
 10
54.982
 20
56.234
 30
0.0
 70
0
  0
VERTEX
  5
C0E
  8
0
 10
54.984
 20
56.239
 30
0.0
 70
0
  0
VERTEX
  5
C0F
  8
0
 10
54.985
 20
56.243
 30
0.0
 70
0
  0
VERTEX
  5
C10
  8
0
 10
54.987
 20
56.247
 30
0.0
 70
0
  0
VERTEX
  5
C11
  8
0
 10
54.989
 20
56.252
 30
0.0
 70
0
  0
VERTEX
  5
C12
  8
0
 10
54.991
 20
56.256
 30
0.0
 70
0
  0
VERTEX
  5
C13
  8
0
 10
54.992
 20
56.261
 30
0.0
 70
0
  0
VERTEX
  5
C14
  8
0
 10
54.994
 20
56.265
 30
0.0
 70
0
  0
VERTEX
  5
C15
  8
0
 10
54.996
 20
56.269
 30
0.0
 70
0
  0
VERTEX
  5
C16
  8
0
 10
54.998
 20
56.274
 30
0.0
 70
0
  0
VERTEX
  5
C17
  8
0
 10
55.0
 20
56.278
 30
0.0
 70
0
  0
VERTEX
  5
C18
  8
0
 10
55.003
 20
56.282
 30
0.0
 70
0
  0
VERTEX
  5
C19
  8
0
 10
55.005
 20
56.286
 30
0.0
 70
0
  0
VERTEX
  5
C1A
  8
0
 10
55.007
 20
56.29
 30
0.0
 70
0
  0
VERTEX
  5
C1B
  8
0
 10
55.009
 20
56.294
 30
0.0
 70
0
  0
VERTEX
  5
C1C
  8
0
 10
55.012
 20
56.299
 30
0.0
 70
0
  0
VERTEX
  5
C1D
  8
0
 10
55.014
 20
56.302
 30
0.0
 70
0
  0
VERTEX
  5
C1E
  8
0
 10
55.017
 20
56.307
 30
0.0
 70
0
  0
VERTEX
  5
C1F
  8
0
 10
55.019
 20
56.31
 30
0.0
 70
0
  0
VERTEX
  5
C20
  8
0
 10
55.022
 20
56.314
 30
0.0
 70
0
  0
VERTEX
  5
C21
  8
0
 10
55.025
 20
56.318
 30
0.0
 70
0
  0
VERTEX
  5
C22
  8
0
 10
55.028
 20
56.322
 30
0.0
 70
0
  0
VERTEX
  5
C23
  8
0
 10
55.03
 20
56.326
 30
0.0
 70
0
  0
VERTEX
  5
C24
  8
0
 10
55.033
 20
56.33
 30
0.0
 70
0
  0
VERTEX
  5
C25
  8
0
 10
55.036
 20
56.333
 30
0.0
 70
0
  0
VERTEX
  5
C26
  8
0
 10
55.039
 20
56.337
 30
0.0
 70
0
  0
VERTEX
  5
C27
  8
0
 10
55.042
 20
56.341
 30
0.0
 70
0
  0
VERTEX
  5
C28
  8
0
 10
55.046
 20
56.344
 30
0.0
 70
0
  0
VERTEX
  5
C29
  8
0
 10
55.049
 20
56.348
 30
0.0
 70
0
  0
VERTEX
  5
C2A
  8
0
 10
55.052
 20
56.351
 30
0.0
 70
0
  0
VERTEX
  5
C2B
  8
0
 10
55.055
 20
56.355
 30
0.0
 70
0
  0
VERTEX
  5
C2C
  8
0
 10
55.059
 20
56.358
 30
0.0
 70
0
  0
VERTEX
  5
C2D
  8
0
 10
55.062
 20
56.361
 30
0.0
 70
0
  0
VERTEX
  5
C2E
  8
0
 10
55.066
 20
56.365
 30
0.0
 70
0
  0
VERTEX
  5
C2F
  8
0
 10
55.069
 20
56.368
 30
0.0
 70
0
  0
VERTEX
  5
C30
  8
0
 10
55.073
 20
56.371
 30
0.0
 70
0
  0
VERTEX
  5
C31
  8
0
 10
55.077
 20
56.374
 30
0.0
 70
0
  0
VERTEX
  5
C32
  8
0
 10
55.08
 20
56.377
 30
0.0
 70
0
  0
VERTEX
  5
C33
  8
0
 10
55.084
 20
56.38
 30
0.0
 70
0
  0
VERTEX
  5
C34
  8
0
 10
55.088
 20
56.383
 30
0.0
 70
0
  0
VERTEX
  5
C35
  8
0
 10
55.092
 20
56.386
 30
0.0
 70
0
  0
VERTEX
  5
C36
  8
0
 10
55.096
 20
56.389
 30
0.0
 70
0
  0
VERTEX
  5
C37
  8
0
 10
55.1
 20
56.392
 30
0.0
 70
0
  0
VERTEX
  5
C38
  8
0
 10
55.104
 20
56.395
 30
0.0
 70
0
  0
VERTEX
  5
C39
  8
0
 10
55.109
 20
56.397
 30
0.0
 70
0
  0
VERTEX
  5
C3A
  8
0
 10
55.113
 20
56.4
 30
0.0
 70
0
  0
VERTEX
  5
C3B
  8
0
 10
55.117
 20
56.402
 30
0.0
 70
0
  0
VERTEX
  5
C3C
  8
0
 10
55.122
 20
56.405
 30
0.0
 70
0
  0
VERTEX
  5
C3D
  8
0
 10
55.126
 20
56.407
 30
0.0
 70
0
  0
VERTEX
  5
C3E
  8
0
 10
55.131
 20
56.41
 30
0.0
 70
0
  0
VERTEX
  5
C3F
  8
0
 10
55.135
 20
56.412
 30
0.0
 70
0
  0
VERTEX
  5
C40
  8
0
 10
55.14
 20
56.414
 30
0.0
 70
0
  0
VERTEX
  5
C41
  8
0
 10
55.145
 20
56.416
 30
0.0
 70
0
  0
VERTEX
  5
C42
  8
0
 10
55.149
 20
56.418
 30
0.0
 70
0
  0
VERTEX
  5
C43
  8
0
 10
55.154
 20
56.42
 30
0.0
 70
0
  0
VERTEX
  5
C44
  8
0
 10
55.159
 20
56.422
 30
0.0
 70
0
  0
VERTEX
  5
C45
  8
0
 10
55.164
 20
56.424
 30
0.0
 70
0
  0
VERTEX
  5
C46
  8
0
 10
55.169
 20
56.426
 30
0.0
 70
0
  0
VERTEX
  5
C47
  8
0
 10
55.174
 20
56.427
 30
0.0
 70
0
  0
VERTEX
  5
C48
  8
0
 10
55.179
 20
56.429
 30
0.0
 70
0
  0
VERTEX
  5
C49
  8
0
 10
55.185
 20
56.431
 30
0.0
 70
0
  0
VERTEX
  5
C4A
  8
0
 10
55.19
 20
56.432
 30
0.0
 70
0
  0
VERTEX
  5
C4B
  8
0
 10
55.195
 20
56.433
 30
0.0
 70
0
  0
VERTEX
  5
C4C
  8
0
 10
55.201
 20
56.435
 30
0.0
 70
0
  0
VERTEX
  5
C4D
  8
0
 10
55.206
 20
56.436
 30
0.0
 70
0
  0
VERTEX
  5
C4E
  8
0
 10
55.212
 20
56.437
 30
0.0
 70
0
  0
VERTEX
  5
C4F
  8
0
 10
55.217
 20
56.438
 30
0.0
 70
0
  0
VERTEX
  5
C50
  8
0
 10
55.223
 20
56.439
 30
0.0
 70
0
  0
VERTEX
  5
C51
  8
0
 10
55.228
 20
56.44
 30
0.0
 70
0
  0
VERTEX
  5
C52
  8
0
 10
55.234
 20
56.441
 30
0.0
 70
0
  0
VERTEX
  5
C53
  8
0
 10
55.24
 20
56.442
 30
0.0
 70
0
  0
VERTEX
  5
C54
  8
0
 10
55.246
 20
56.442
 30
0.0
 70
0
  0
VERTEX
  5
C55
  8
0
 10
55.252
 20
56.443
 30
0.0
 70
0
  0
VERTEX
  5
C56
  8
0
 10
55.258
 20
56.443
 30
0.0
 70
0
  0
VERTEX
  5
C57
  8
0
 10
55.264
 20
56.444
 30
0.0
 70
0
  0
VERTEX
  5
C58
  8
0
 10
55.27
 20
56.444
 30
0.0
 70
0
  0
VERTEX
  5
C59
  8
0
 10
55.276
 20
56.444
 30
0.0
 70
0
  0
VERTEX
  5
C5A
  8
0
 10
55.283
 20
56.444
 30
0.0
 70
0
  0
VERTEX
  5
C5B
  8
0
 10
55.289
 20
56.445
 30
0.0
 70
0
  0
VERTEX
  5
C5C
  8
0
 10
55.294
 20
56.444
 30
0.0
 70
0
  0
VERTEX
  5
C5D
  8
0
 10
55.298
 20
56.444
 30
0.0
 70
0
  0
VERTEX
  5
C5E
  8
0
 10
55.303
 20
56.444
 30
0.0
 70
0
  0
VERTEX
  5
C5F
  8
0
 10
55.308
 20
56.444
 30
0.0
 70
0
  0
VERTEX
  5
C60
  8
0
 10
55.313
 20
56.443
 30
0.0
 70
0
  0
VERTEX
  5
C61
  8
0
 10
55.317
 20
56.443
 30
0.0
 70
0
  0
VERTEX
  5
C62
  8
0
 10
55.322
 20
56.442
 30
0.0
 70
0
  0
VERTEX
  5
C63
  8
0
 10
55.327
 20
56.442
 30
0.0
 70
0
  0
VERTEX
  5
C64
  8
0
 10
55.332
 20
56.441
 30
0.0
 70
0
  0
VERTEX
  5
C65
  8
0
 10
55.336
 20
56.44
 30
0.0
 70
0
  0
VERTEX
  5
C66
  8
0
 10
55.341
 20
56.439
 30
0.0
 70
0
  0
VERTEX
  5
C67
  8
0
 10
55.346
 20
56.438
 30
0.0
 70
0
  0
VERTEX
  5
C68
  8
0
 10
55.35
 20
56.437
 30
0.0
 70
0
  0
VERTEX
  5
C69
  8
0
 10
55.355
 20
56.436
 30
0.0
 70
0
  0
VERTEX
  5
C6A
  8
0
 10
55.36
 20
56.434
 30
0.0
 70
0
  0
VERTEX
  5
C6B
  8
0
 10
55.364
 20
56.433
 30
0.0
 70
0
  0
VERTEX
  5
C6C
  8
0
 10
55.369
 20
56.432
 30
0.0
 70
0
  0
VERTEX
  5
C6D
  8
0
 10
55.374
 20
56.43
 30
0.0
 70
0
  0
VERTEX
  5
C6E
  8
0
 10
55.378
 20
56.428
 30
0.0
 70
0
  0
VERTEX
  5
C6F
  8
0
 10
55.383
 20
56.427
 30
0.0
 70
0
  0
VERTEX
  5
C70
  8
0
 10
55.387
 20
56.425
 30
0.0
 70
0
  0
VERTEX
  5
C71
  8
0
 10
55.392
 20
56.423
 30
0.0
 70
0
  0
VERTEX
  5
C72
  8
0
 10
55.397
 20
56.421
 30
0.0
 70
0
  0
VERTEX
  5
C73
  8
0
 10
55.401
 20
56.419
 30
0.0
 70
0
  0
VERTEX
  5
C74
  8
0
 10
55.405
 20
56.417
 30
0.0
 70
0
  0
VERTEX
  5
C75
  8
0
 10
55.41
 20
56.415
 30
0.0
 70
0
  0
VERTEX
  5
C76
  8
0
 10
55.414
 20
56.413
 30
0.0
 70
0
  0
VERTEX
  5
C77
  8
0
 10
55.419
 20
56.411
 30
0.0
 70
0
  0
VERTEX
  5
C78
  8
0
 10
55.423
 20
56.409
 30
0.0
 70
0
  0
VERTEX
  5
C79
  8
0
 10
55.428
 20
56.406
 30
0.0
 70
0
  0
VERTEX
  5
C7A
  8
0
 10
55.432
 20
56.404
 30
0.0
 70
0
  0
VERTEX
  5
C7B
  8
0
 10
55.436
 20
56.401
 30
0.0
 70
0
  0
VERTEX
  5
C7C
  8
0
 10
55.441
 20
56.399
 30
0.0
 70
0
  0
VERTEX
  5
C7D
  8
0
 10
55.445
 20
56.396
 30
0.0
 70
0
  0
VERTEX
  5
C7E
  8
0
 10
55.449
 20
56.393
 30
0.0
 70
0
  0
VERTEX
  5
C7F
  8
0
 10
55.453
 20
56.391
 30
0.0
 70
0
  0
VERTEX
  5
C80
  8
0
 10
55.457
 20
56.388
 30
0.0
 70
0
  0
VERTEX
  5
C81
  8
0
 10
55.461
 20
56.385
 30
0.0
 70
0
  0
VERTEX
  5
C82
  8
0
 10
55.465
 20
56.382
 30
0.0
 70
0
  0
VERTEX
  5
C83
  8
0
 10
55.47
 20
56.379
 30
0.0
 70
0
  0
VERTEX
  5
C84
  8
0
 10
55.474
 20
56.376
 30
0.0
 70
0
  0
VERTEX
  5
C85
  8
0
 10
55.477
 20
56.373
 30
0.0
 70
0
  0
VERTEX
  5
C86
  8
0
 10
55.481
 20
56.37
 30
0.0
 70
0
  0
VERTEX
  5
C87
  8
0
 10
55.485
 20
56.367
 30
0.0
 70
0
  0
VERTEX
  5
C88
  8
0
 10
55.489
 20
56.363
 30
0.0
 70
0
  0
VERTEX
  5
C89
  8
0
 10
55.493
 20
56.36
 30
0.0
 70
0
  0
VERTEX
  5
C8A
  8
0
 10
55.497
 20
56.357
 30
0.0
 70
0
  0
VERTEX
  5
C8B
  8
0
 10
55.501
 20
56.353
 30
0.0
 70
0
  0
VERTEX
  5
C8C
  8
0
 10
55.504
 20
56.35
 30
0.0
 70
0
  0
VERTEX
  5
C8D
  8
0
 10
55.508
 20
56.346
 30
0.0
 70
0
  0
VERTEX
  5
C8E
  8
0
 10
55.511
 20
56.343
 30
0.0
 70
0
  0
VERTEX
  5
C8F
  8
0
 10
55.515
 20
56.339
 30
0.0
 70
0
  0
VERTEX
  5
C90
  8
0
 10
55.518
 20
56.336
 30
0.0
 70
0
  0
VERTEX
  5
C91
  8
0
 10
55.522
 20
56.332
 30
0.0
 70
0
  0
VERTEX
  5
C92
  8
0
 10
55.525
 20
56.328
 30
0.0
 70
0
  0
VERTEX
  5
C93
  8
0
 10
55.529
 20
56.324
 30
0.0
 70
0
  0
VERTEX
  5
C94
  8
0
 10
55.532
 20
56.321
 30
0.0
 70
0
  0
VERTEX
  5
C95
  8
0
 10
55.535
 20
56.317
 30
0.0
 70
0
  0
VERTEX
  5
C96
  8
0
 10
55.538
 20
56.313
 30
0.0
 70
0
  0
VERTEX
  5
C97
  8
0
 10
55.541
 20
56.309
 30
0.0
 70
0
  0
VERTEX
  5
C98
  8
0
 10
55.545
 20
56.305
 30
0.0
 70
0
  0
VERTEX
  5
C99
  8
0
 10
55.548
 20
56.301
 30
0.0
 70
0
  0
VERTEX
  5
C9A
  8
0
 10
55.551
 20
56.297
 30
0.0
 70
0
  0
VERTEX
  5
C9B
  8
0
 10
55.553
 20
56.293
 30
0.0
 70
0
  0
VERTEX
  5
C9C
  8
0
 10
55.556
 20
56.289
 30
0.0
 70
0
  0
VERTEX
  5
C9D
  8
0
 10
55.559
 20
56.284
 30
0.0
 70
0
  0
VERTEX
  5
C9E
  8
0
 10
55.562
 20
56.28
 30
0.0
 70
0
  0
VERTEX
  5
C9F
  8
0
 10
55.564
 20
56.276
 30
0.0
 70
0
  0
VERTEX
  5
CA0
  8
0
 10
55.567
 20
56.272
 30
0.0
 70
0
  0
VERTEX
  5
CA1
  8
0
 10
55.57
 20
56.268
 30
0.0
 70
0
  0
VERTEX
  5
CA2
  8
0
 10
55.572
 20
56.263
 30
0.0
 70
0
  0
VERTEX
  5
CA3
  8
0
 10
55.575
 20
56.259
 30
0.0
 70
0
  0
VERTEX
  5
CA4
  8
0
 10
55.577
 20
56.255
 30
0.0
 70
0
  0
VERTEX
  5
CA5
  8
0
 10
55.579
 20
56.25
 30
0.0
 70
0
  0
VERTEX
  5
CA6
  8
0
 10
55.581
 20
56.246
 30
0.0
 70
0
  0
VERTEX
  5
CA7
  8
0
 10
55.584
 20
56.241
 30
0.0
 70
0
  0
VERTEX
  5
CA8
  8
0
 10
55.586
 20
56.237
 30
0.0
 70
0
  0
VERTEX
  5
CA9
  8
0
 10
55.588
 20
56.232
 30
0.0
 70
0
  0
VERTEX
  5
CAA
  8
0
 10
55.59
 20
56.228
 30
0.0
 70
0
  0
VERTEX
  5
CAB
  8
0
 10
55.591
 20
56.223
 30
0.0
 70
0
  0
VERTEX
  5
CAC
  8
0
 10
55.593
 20
56.219
 30
0.0
 70
0
  0
VERTEX
  5
CAD
  8
0
 10
55.595
 20
56.214
 30
0.0
 70
0
  0
VERTEX
  5
CAE
  8
0
 10
55.597
 20
56.21
 30
0.0
 70
0
  0
VERTEX
  5
CAF
  8
0
 10
55.598
 20
56.205
 30
0.0
 70
0
  0
VERTEX
  5
CB0
  8
0
 10
55.6
 20
56.2
 30
0.0
 70
0
  0
VERTEX
  5
CB1
  8
0
 10
55.601
 20
56.196
 30
0.0
 70
0
  0
VERTEX
  5
CB2
  8
0
 10
55.602
 20
56.191
 30
0.0
 70
0
  0
VERTEX
  5
CB3
  8
0
 10
55.604
 20
56.186
 30
0.0
 70
0
  0
VERTEX
  5
CB4
  8
0
 10
55.605
 20
56.182
 30
0.0
 70
0
  0
VERTEX
  5
CB5
  8
0
 10
55.606
 20
56.177
 30
0.0
 70
0
  0
VERTEX
  5
CB6
  8
0
 10
55.607
 20
56.172
 30
0.0
 70
0
  0
VERTEX
  5
CB7
  8
0
 10
55.608
 20
56.168
 30
0.0
 70
0
  0
VERTEX
  5
CB8
  8
0
 10
55.609
 20
56.163
 30
0.0
 70
0
  0
VERTEX
  5
CB9
  8
0
 10
55.609
 20
56.158
 30
0.0
 70
0
  0
VERTEX
  5
CBA
  8
0
 10
55.61
 20
56.153
 30
0.0
 70
0
  0
VERTEX
  5
CBB
  8
0
 10
55.611
 20
56.149
 30
0.0
 70
0
  0
VERTEX
  5
CBC
  8
0
 10
55.611
 20
56.144
 30
0.0
 70
0
  0
VERTEX
  5
CBD
  8
0
 10
55.612
 20
56.139
 30
0.0
 70
0
  0
VERTEX
  5
CBE
  8
0
 10
55.612
 20
56.135
 30
0.0
 70
0
  0
VERTEX
  5
CBF
  8
0
 10
55.612
 20
56.13
 30
0.0
 70
0
  0
VERTEX
  5
CC0
  8
0
 10
55.612
 20
56.125
 30
0.0
 70
0
  0
VERTEX
  5
CC1
  8
0
 10
55.612
 20
56.12
 30
0.0
 70
0
  0
SEQEND
  5
B27
  8
0
  0
POLYLINE
  5
CC2
  8
0
 66
1
 10
0.0
 20
0.0
 30
0.0
 70
0
  0
VERTEX
  5
CC4
  8
0
 10
58.646
 20
56.337
 30
0.0
 70
0
  0
VERTEX
  5
CC5
  8
0
 10
58.646
 20
56.282
 30
0.0
 70
0
  0
VERTEX
  5
CC6
  8
0
 10
58.592
 20
56.282
 30
0.0
 70
0
  0
SEQEND
  5
CC3
  8
0
  0
POLYLINE
  5
CC7
  8
0
 66
1
 10
0.0
 20
0.0
 30
0.0
 70
0
  0
VERTEX
  5
CC9
  8
0
 10
56.263
 20
56.986
 30
0.0
 70
0
  0
VERTEX
  5
CCA
  8
0
 10
56.208
 20
56.986
 30
0.0
 70
0
  0
VERTEX
  5
CCB
  8
0
 10
56.208
 20
57.04
 30
0.0
 70
0
  0
SEQEND
  5
CC8
  8
0
  0
POLYLINE
  5
CCC
  8
0
 66
1
 10
0.0
 20
0.0
 30
0.0
 70
0
  0
VERTEX
  5
CCE
  8
0
 10
59.078
 20
56.337
 30
0.0
 70
0
  0
VERTEX
  5
CCF
  8
0
 10
59.078
 20
56.282
 30
0.0
 70
0
  0
VERTEX
  5
CD0
  8
0
 10
59.025
 20
56.282
 30
0.0
 70
0
  0
SEQEND
  5
CCD
  8
0
  0
POLYLINE
  5
CD1
  8
0
 66
1
 10
0.0
 20
0.0
 30
0.0
 70
0
  0
VERTEX
  5
CD3
  8
0
 10
53.284
 20
57.312
 30
0.0
 70
0
  0
VERTEX
  5
CD4
  8
0
 10
53.284
 20
57.257
 30
0.0
 70
0
  0
VERTEX
  5
CD5
  8
0
 10
53.284
 20
57.203
 30
0.0
 70
0
  0
VERTEX
  5
CD6
  8
0
 10
53.338
 20
57.148
 30
0.0
 70
0
  0
VERTEX
  5
CD7
  8
0
 10
53.338
 20
57.095
 30
0.0
 70
0
  0
VERTEX
  5
CD8
  8
0
 10
53.393
 20
57.095
 30
0.0
 70
0
  0
VERTEX
  5
CD9
  8
0
 10
53.393
 20
57.04
 30
0.0
 70
0
  0
VERTEX
  5
CDA
  8
0
 10
53.446
 20
57.04
 30
0.0
 70
0
  0
SEQEND
  5
CD2
  8
0
  0
POLYLINE
  5
CDB
  8
0
 66
1
 10
0.0
 20
0.0
 30
0.0
 70
0
  0
VERTEX
  5
CDD
  8
0
 10
53.61
 20
57.04
 30
0.0
 70
0
  0
VERTEX
  5
CDE
  8
0
 10
53.663
 20
57.04
 30
0.0
 70
0
  0
VERTEX
  5
CDF
  8
0
 10
53.717
 20
57.04
 30
0.0
 70
0
  0
VERTEX
  5
CE0
  8
0
 10
53.772
 20
57.04
 30
0.0
 70
0
  0
VERTEX
  5
CE1
  8
0
 10
53.772
 20
57.095
 30
0.0
 70
0
  0
VERTEX
  5
CE2
  8
0
 10
53.825
 20
57.095
 30
0.0
 70
0
  0
SEQEND
  5
CDC
  8
0
  0
POLYLINE
  5
CE3
  8
0
 66
1
 10
0.0
 20
0.0
 30
0.0
 70
0
  0
VERTEX
  5
CE5
  8
0
 10
51.226
 20
58.34
 30
0.0
 70
0
  0
VERTEX
  5
CE6
  8
0
 10
51.226
 20
58.394
 30
0.0
 70
0
  0
VERTEX
  5
CE7
  8
0
 10
51.172
 20
58.394
 30
0.0
 70
0
  0
SEQEND
  5
CE4
  8
0
  0
POLYLINE
  5
CE8
  8
0
 66
1
 10
0.0
 20
0.0
 30
0.0
 70
0
  0
VERTEX
  5
CEA
  8
0
 10
50.955
 20
58.394
 30
0.0
 70
0
  0
VERTEX
  5
CEB
  8
0
 10
50.903
 20
58.394
 30
0.0
 70
0
  0
VERTEX
  5
CEC
  8
0
 10
50.903
 20
58.34
 30
0.0
 70
0
  0
SEQEND
  5
CE9
  8
0
  0
POLYLINE
  5
CED
  8
0
 66
1
 10
0.0
 20
0.0
 30
0.0
 70
0
  0
VERTEX
  5
CEF
  8
0
 10
59.621
 20
58.34
 30
0.0
 70
0
  0
VERTEX
  5
CF0
  8
0
 10
59.621
 20
58.394
 30
0.0
 70
0
  0
VERTEX
  5
CF1
  8
0
 10
59.566
 20
58.394
 30
0.0
 70
0
  0
SEQEND
  5
CEE
  8
0
  0
POLYLINE
  5
CF2
  8
0
 66
1
 10
0.0
 20
0.0
 30
0.0
 70
0
  0
VERTEX
  5
CF4
  8
0
 10
59.349
 20
58.394
 30
0.0
 70
0
  0
VERTEX
  5
CF5
  8
0
 10
59.295
 20
58.394
 30
0.0
 70
0
  0
VERTEX
  5
CF6
  8
0
 10
59.295
 20
58.34
 30
0.0
 70
0
  0
SEQEND
  5
CF3
  8
0
  0
POLYLINE
  5
CF7
  8
0
 66
1
 10
0.0
 20
0.0
 30
0.0
 70
0
  0
VERTEX
  5
CF9
  8
0
 10
50.685
 20
58.232
 30
0.0
 70
0
  0
VERTEX
  5
CFA
  8
0
 10
50.631
 20
58.232
 30
0.0
 70
0
  0
VERTEX
  5
CFB
  8
0
 10
50.631
 20
58.177
 30
0.0
 70
0
  0
SEQEND
  5
CF8
  8
0
  0
POLYLINE
  5
CFC
  8
0
 66
1
 10
0.0
 20
0.0
 30
0.0
 70
0
  0
VERTEX
  5
CFE
  8
0
 10
59.783
 20
57.636
 30
0.0
 70
0
  0
VERTEX
  5
CFF
  8
0
 10
59.891
 20
57.744
 30
0.0
 70
0
  0
VERTEX
  5
D00
  8
0
 10
59.891
 20
58.123
 30
0.0
 70
0
  0
SEQEND
  5
CFD
  8
0
  0
POLYLINE
  5
D01
  8
0
 66
1
 10
0.0
 20
0.0
 30
0.0
 70
0
  0
VERTEX
  5
D03
  8
0
 10
57.562
 20
57.636
 30
0.0
 70
0
  0
VERTEX
  5
D04
  8
0
 10
57.507
 20
57.636
 30
0.0
 70
0
  0
VERTEX
  5
D05
  8
0
 10
57.454
 20
57.636
 30
0.0
 70
0
  0
VERTEX
  5
D06
  8
0
 10
57.4
 20
57.636
 30
0.0
 70
0
  0
VERTEX
  5
D07
  8
0
 10
57.345
 20
57.582
 30
0.0
 70
0
  0
VERTEX
  5
D08
  8
0
 10
57.292
 20
57.582
 30
0.0
 70
0
  0
VERTEX
  5
D09
  8
0
 10
57.292
 20
57.527
 30
0.0
 70
0
  0
VERTEX
  5
D0A
  8
0
 10
57.238
 20
57.474
 30
0.0
 70
0
  0
VERTEX
  5
D0B
  8
0
 10
57.238
 20
57.419
 30
0.0
 70
0
  0
VERTEX
  5
D0C
  8
0
 10
57.238
 20
57.365
 30
0.0
 70
0
  0
SEQEND
  5
D02
  8
0
  0
POLYLINE
  5
D0D
  8
0
 66
1
 10
0.0
 20
0.0
 30
0.0
 70
0
  0
VERTEX
  5
D0F
  8
0
 10
56.913
 20
57.095
 30
0.0
 70
0
  0
VERTEX
  5
D10
  8
0
 10
56.966
 20
57.095
 30
0.0
 70
0
  0
VERTEX
  5
D11
  8
0
 10
57.021
 20
57.095
 30
0.0
 70
0
  0
VERTEX
  5
D12
  8
0
 10
57.075
 20
57.095
 30
0.0
 70
0
  0
VERTEX
  5
D13
  8
0
 10
57.075
 20
57.148
 30
0.0
 70
0
  0
VERTEX
  5
D14
  8
0
 10
57.128
 20
57.148
 30
0.0
 70
0
  0
VERTEX
  5
D15
  8
0
 10
57.183
 20
57.203
 30
0.0
 70
0
  0
VERTEX
  5
D16
  8
0
 10
57.183
 20
57.257
 30
0.0
 70
0
  0
VERTEX
  5
D17
  8
0
 10
57.238
 20
57.312
 30
0.0
 70
0
  0
VERTEX
  5
D18
  8
0
 10
57.238
 20
57.365
 30
0.0
 70
0
  0
SEQEND
  5
D0E
  8
0
  0
POLYLINE
  5
D19
  8
0
 66
1
 10
0.0
 20
0.0
 30
0.0
 70
0
  0
VERTEX
  5
D1B
  8
0
 10
53.284
 20
57.365
 30
0.0
 70
0
  0
VERTEX
  5
D1C
  8
0
 10
53.284
 20
57.312
 30
0.0
 70
0
  0
VERTEX
  5
D1D
  8
0
 10
53.338
 20
57.312
 30
0.0
 70
0
  0
VERTEX
  5
D1E
  8
0
 10
53.338
 20
57.257
 30
0.0
 70
0
  0
VERTEX
  5
D1F
  8
0
 10
53.393
 20
57.203
 30
0.0
 70
0
  0
VERTEX
  5
D20
  8
0
 10
53.393
 20
57.148
 30
0.0
 70
0
  0
VERTEX
  5
D21
  8
0
 10
53.446
 20
57.148
 30
0.0
 70
0
  0
VERTEX
  5
D22
  8
0
 10
53.5
 20
57.095
 30
0.0
 70
0
  0
VERTEX
  5
D23
  8
0
 10
53.555
 20
57.095
 30
0.0
 70
0
  0
VERTEX
  5
D24
  8
0
 10
53.61
 20
57.095
 30
0.0
 70
0
  0
SEQEND
  5
D1A
  8
0
  0
POLYLINE
  5
D25
  8
0
 66
1
 10
0.0
 20
0.0
 30
0.0
 70
0
  0
VERTEX
  5
D27
  8
0
 10
53.284
 20
57.365
 30
0.0
 70
0
  0
VERTEX
  5
D28
  8
0
 10
53.284
 20
57.419
 30
0.0
 70
0
  0
VERTEX
  5
D29
  8
0
 10
53.284
 20
57.474
 30
0.0
 70
0
  0
VERTEX
  5
D2A
  8
0
 10
53.284
 20
57.527
 30
0.0
 70
0
  0
VERTEX
  5
D2B
  8
0
 10
53.231
 20
57.582
 30
0.0
 70
0
  0
VERTEX
  5
D2C
  8
0
 10
53.176
 20
57.582
 30
0.0
 70
0
  0
VERTEX
  5
D2D
  8
0
 10
53.176
 20
57.636
 30
0.0
 70
0
  0
VERTEX
  5
D2E
  8
0
 10
53.122
 20
57.636
 30
0.0
 70
0
  0
VERTEX
  5
D2F
  8
0
 10
53.067
 20
57.636
 30
0.0
 70
0
  0
VERTEX
  5
D30
  8
0
 10
53.014
 20
57.636
 30
0.0
 70
0
  0
SEQEND
  5
D26
  8
0
  0
POLYLINE
  5
D31
  8
0
 66
1
 10
0.0
 20
0.0
 30
0.0
 70
0
  0
VERTEX
  5
D33
  8
0
 10
60.0
 20
58.177
 30
0.0
 70
0
  0
VERTEX
  5
D34
  8
0
 10
59.945
 20
58.232
 30
0.0
 70
0
  0
VERTEX
  5
D35
  8
0
 10
59.891
 20
58.232
 30
0.0
 70
0
  0
VERTEX
  5
D36
  8
0
 10
59.891
 20
58.287
 30
0.0
 70
0
  0
SEQEND
  5
D32
  8
0
  0
POLYLINE
  5
D37
  8
0
 66
1
 10
0.0
 20
0.0
 30
0.0
 70
0
  0
VERTEX
  5
D39
  8
0
 10
50.685
 20
58.287
 30
0.0
 70
0
  0
VERTEX
  5
D3A
  8
0
 10
50.631
 20
58.287
 30
0.0
 70
0
  0
VERTEX
  5
D3B
  8
0
 10
50.576
 20
58.287
 30
0.0
 70
0
  0
VERTEX
  5
D3C
  8
0
 10
50.576
 20
58.232
 30
0.0
 70
0
  0
VERTEX
  5
D3D
  8
0
 10
50.576
 20
58.177
 30
0.0
 70
0
  0
SEQEND
  5
D38
  8
0
  0
POLYLINE
  5
D3E
  8
0
 66
1
 10
0.0
 20
0.0
 30
0.0
 70
0
  0
VERTEX
  5
D40
  8
0
 10
50.631
 20
58.123
 30
0.0
 70
0
  0
VERTEX
  5
D41
  8
0
 10
50.685
 20
58.123
 30
0.0
 70
0
  0
VERTEX
  5
D42
  8
0
 10
50.685
 20
58.177
 30
0.0
 70
0
  0
SEQEND
  5
D3F
  8
0
  0
TEXT
  5
D43
  8
0
 10
0.0
 20
10.0
 30
0.0
 40
3.0
  1
三菱 EL-S13000N/K AHN+EL-XAM003/K
 11
0.0
 21
10.0
 31
0.0
  0
TEXT
  5
D44
  8
0
 10
0.0
 20
95.0
 30
0.0
 40
3.0
  1
LEDｸﾗｽ1300 投光器
 11
0.0
 21
95.0
 31
0.0
  0
TEXT
  5
D45
  8
0
 10
50.0
 20
35.0
 30
0.0
 40
1.5
  1
小形投光器 昼白色（5000K)　Ra75
 11
50.0
 21
35.0
 31
0.0
  0
TEXT
  5
D46
  8
0
 10
50.0
 20
32.0
 30
0.0
 40
1.5
  1
100V～242V共用タイプ
 11
50.0
 21
32.0
 31
0.0
  0
TEXT
  5
D47
  8
0
 10
50.0
 20
29.0
 30
0.0
 40
1.5
  1
本体：アルミダイカスト黒色塗装
 11
50.0
 21
29.0
 31
0.0
  0
TEXT
  5
D48
  8
0
 10
50.0
 20
26.0
 30
0.0
 40
1.5
  1
光源寿命：60,000時間（光束維持率70％）
 11
50.0
 21
26.0
 31
0.0
  0
TEXT
  5
D49
  8
0
 10
50.0
 20
23.0
 30
0.0
 40
1.5
  1
光束：12500lm 消費電力：96W 消費効率：130.2lm/W
 11
50.0
 21
23.0
 31
0.0
  0
VIEWPORT
  5
76
 67
1
  8
0
 10
128.5
 20
97.5
 30
0.0
 40
314.226
 41
222.18
 68
1
 69
1
1001
ACAD
1000
MVIEW
1002
{
1070
16
1010
0.0
1020
0.0
1030
0.0
1010
0.0
1020
0.0
1030
0.0
1040
0
1040
1
1040
0.0
1040
0.0
1040
50
1040
0
1040
0
1070
0
1070
100
1070
0
1070
0
1070
0
1070
0
1070
0
1070
0
1040
0
1040
0.0
1040
0.0
1040
10.0
1040
10.0
1040
10.0
1040
10.0
1070
0
1002
{
1002
}
1002
}
  0
ENDSEC
  0
EOF
