  0
SECTION
  2
HEADER
  9
$ACADVER
  1
AC1009
  9
$DWGCODEPAGE
  3
ANSI_932
  9
$INSBASE
 10
0.0
 20
0.0
 30
0.0
  9
$EXTMIN
 10
0
 20
0
 30
0
  9
$EXTMAX
 10
0
 20
0
 30
0
  9
$LIMMIN
 10
0.0
 20
0.0
  9
$LIMMAX
 10
420.0
 20
297.0
  9
$ORTHOMODE
 70
0
  9
$REGENMODE
 70
1
  9
$FILLMODE
 70
1
  9
$DRAGMODE
 70
2
  9
$QTEXTMODE
 70
0
  9
$MIRRTEXT
 70
1
  9
$OSMODE
 70
37
  9
$LTSCALE
 40
25.4
  9
$ATTMODE
 70
1
  9
$TEXTSIZE
 40
0.2
  9
$TRACEWID
 40
1.0
  9
$TEXTSTYLE
  7
STANDARD
  9
$CLAYER
  8
__
  9
$CELTYPE
  6
BYLAYER
  9
$CECOLOR
 62
256
  9
$DIMSCALE
 40
1.0
  9
$DIMASZ
 40
0.18
  9
$DIMEXO
 40
0.0625
  9
$DIMDLI
 40
0.38
  9
$DIMRND
 40
0.0
  9
$DIMDLE
 40
0.0
  9
$DIMEXE
 40
0.18
  9
$DIMTP
 40
0.0
  9
$DIMTM
 40
0.0
  9
$DIMTXT
 40
0.18
  9
$DIMCEN
 40
0.09
  9
$DIMTSZ
 40
0.0
  9
$DIMTOL
 70
0
  9
$DIMLIM
 70
0
  9
$DIMTIH
 70
1
  9
$DIMTOH
 70
1
  9
$DIMSE1
 70
0
  9
$DIMSE2
 70
0
  9
$DIMTAD
 70
0
  9
$DIMZIN
 70
0
  9
$DIMBLK
  1

  9
$DIMASO
 70
1
  9
$DIMSHO
 70
1
  9
$DIMPOST
  1

  9
$DIMAPOST
  1

  9
$DIMALT
 70
0
  9
$DIMALTD
 70
2
  9
$DIMALTF
 40
25.4
  9
$DIMLFAC
 40
1.0
  9
$DIMTOFL
 70
0
  9
$DIMTVP
 40
0.0
  9
$DIMTIX
 70
0
  9
$DIMSOXD
 70
0
  9
$DIMSAH
 70
0
  9
$DIMBLK1
  1

  9
$DIMBLK2
  1

  9
$DIMSTYLE
  2
STANDARD
  9
$DIMCLRD
 70
0
  9
$DIMCLRE
 70
0
  9
$DIMCLRT
 70
0
  9
$DIMTFAC
 40
1.0
  9
$DIMGAP
 40
0.09
  9
$COORDS
 70
1
  9
$ATTDIA
 70
0
  9
$ATTREQ
 70
1
  9
$HANDLING
 70
1
  9
$LUNITS
 70
2
  9
$LUPREC
 70
2
  9
$SKETCHINC
 40
0.1
  9
$FILLETRAD
 40
0.5
  9
$AUNITS
 70
0
  9
$AUPREC
 70
2
  9
$MENU
  1
.
  9
$ELEVATION
 40
0.0
  9
$PELEVATION
 40
0.0
  9
$THICKNESS
 40
0.0
  9
$LIMCHECK
 70
0
  9
$CHAMFERA
 40
0.0
  9
$CHAMFERB
 40
0.0
  9
$SKPOLY
 70
0
  9
$TDCREATE
 40
2460371.4986921297
  9
$TDUPDATE
 40
2460371.4986921297
  9
$TDINDWG
 40
1.16e-08
  9
$TDUSRTIMER
 40
1.16e-08
  9
$USRTIMER
 70
1
  9
$ANGBASE
 50
0.0
  9
$ANGDIR
 70
0
  9
$PDMODE
 70
1
  9
$PDSIZE
 40
-2.0
  9
$PLINEWID
 40
0.0
  9
$SPLFRAME
 70
0
  9
$SPLINETYPE
 70
6
  9
$SPLINESEGS
 70
8
  9
$HANDSEED
  5
D60
  9
$SURFTAB1
 70
6
  9
$SURFTAB2
 70
6
  9
$SURFTYPE
 70
6
  9
$SURFU
 70
6
  9
$SURFV
 70
6
  9
$UCSNAME
  2

  9
$UCSORG
 10
0.0
 20
0.0
 30
0.0
  9
$UCSXDIR
 10
1.0
 20
0.0
 30
0.0
  9
$UCSYDIR
 10
0.0
 20
1.0
 30
0.0
  9
$PUCSNAME
  2

  9
$PUCSORG
 10
0.0
 20
0.0
 30
0.0
  9
$PUCSXDIR
 10
1.0
 20
0.0
 30
0.0
  9
$PUCSYDIR
 10
0.0
 20
1.0
 30
0.0
  9
$USERI1
 70
0
  9
$USERI2
 70
0
  9
$USERI3
 70
0
  9
$USERI4
 70
0
  9
$USERI5
 70
0
  9
$USERR1
 40
0.0
  9
$USERR2
 40
0.0
  9
$USERR3
 40
0.0
  9
$USERR4
 40
0.0
  9
$USERR5
 40
0.0
  9
$WORLDVIEW
 70
1
  9
$SHADEDGE
 70
3
  9
$SHADEDIF
 70
70
  9
$TILEMODE
 70
1
  9
$MAXACTVP
 70
64
  9
$PLIMCHECK
 70
0
  9
$PEXTMIN
 10
1e+20
 20
1e+20
 30
1e+20
  9
$PEXTMAX
 10
-1e+20
 20
-1e+20
 30
-1e+20
  9
$PLIMMIN
 10
0.0
 20
0.0
  9
$PLIMMAX
 10
420.0
 20
297.0
  9
$UNITMODE
 70
0
  9
$VISRETAIN
 70
1
  9
$PLINEGEN
 70
0
  9
$PSLTSCALE
 70
1
  0
ENDSEC
  0
SECTION
  2
TABLES
  0
TABLE
  2
VPORT
 70
1
  0
VPORT
  5
81
  2
*ACTIVE
 70
0
 10
0.0
 20
0.0
 11
1.0
 21
1.0
 12
0.0
 22
0.0
 13
0.0
 23
0.0
 14
0.5
 24
0.5
 15
0.5
 25
0.5
 16
0.0
 26
0.0
 36
1.0
 17
0.0
 27
0.0
 37
0.0
 40
296.9895
 41
0.7067921032000568
 42
2000.0
 43
0.0
 44
0.0
 50
0.0
 51
0.0
 71
0
 72
100
 73
1
 74
3
 75
0
 76
0
 77
0
 78
0
  0
ENDTAB
  0
TABLE
  2
LTYPE
 70
3
  0
LTYPE
  5
82
  2
CONTINUOUS
 70
0
  3
Solid line
 72
65
 73
0
 40
0.0
  0
LTYPE
  5
AB
  2
ByBlock
 70
0
  3

 72
65
 73
0
 40
0.0
  0
LTYPE
  5
AC
  2
ByLayer
 70
0
  3

 72
65
 73
0
 40
0.0
  0
ENDTAB
  0
TABLE
  2
LAYER
 70
3
  0
LAYER
  5
83
  2
0
 70
0
 62
7
  6
CONTINUOUS
  0
LAYER
  5
84
  2
__
 70
0
 62
7
  6
CONTINUOUS
  0
LAYER
  5
AD
  2
Defpoints
 70
0
 62
7
  6
Continuous
  0
ENDTAB
  0
TABLE
  2
STYLE
 70
1
  0
STYLE
  5
85
  2
STANDARD
 70
0
 40
0.0
 41
1.0
 50
0.0
 71
0
 42
0.2
  3
txt
  4
BIGFONT.SHX
  0
ENDTAB
  0
TABLE
  2
VIEW
 70
0
  0
ENDTAB
  0
TABLE
  2
UCS
 70
0
  0
ENDTAB
  0
TABLE
  2
APPID
 70
5
  0
APPID
  5
86
  2
ACAD
 70
0
  0
APPID
  5
87
  2
ACCMTRANSPARENCY
 70
0
  0
APPID
  5
88
  2
ACAECLAYERSTANDARD
 70
0
  0
APPID
  5
D5E
  2
HATCHBACKGROUNDCOLOR
 70
0
  0
APPID
  5
D5F
  2
EZDXF
 70
0
  0
ENDTAB
  0
TABLE
  2
DIMSTYLE
 70
1
  0
DIMSTYLE
105
89
  2
STANDARD
 70
0
  3

  4

  5

  6

  7

 40
1.0
 41
0.18
 42
0.0625
 43
0.38
 44
0.18
 45
0.0
 46
0.0
 47
0.0
 48
0.0
140
0.18
141
0.09
142
0.0
143
25.4
144
1.0
145
0.0
146
1.0
147
0.09
 71
0
 72
0
 73
1
 74
1
 75
0
 76
0
 77
0
 78
0
170
0
171
2
172
0
173
0
174
0
175
0
176
0
177
0
178
0
  0
ENDTAB
  0
ENDSEC
  0
SECTION
  2
BLOCKS
  0
BLOCK
  5
8A
  8
0
  2
$Model_Space
 70
0
 10
0.0
 20
0.0
 30
0.0
  3
$Model_Space
  1

1001
EZDXF
1000
WRITTEN_BY_EZDXF
1000
0.16.4 @ 2024-03-01T02:58:07.858800+00:00
  0
ENDBLK
  5
21
  8
0
  0
BLOCK
  5
8B
 67
1
  8
0
  2
$Paper_Space
 70
0
 10
0.0
 20
0.0
 30
0.0
  3
$Paper_Space
  1

  0
ENDBLK
  5
1D
 67
1
  8
0
  0
ENDSEC
  0
SECTION
  2
ENTITIES
  0
LINE
  5
AF
  8
0
 10
0.0
 20
64.683
 30
0.0
 11
0.0
 21
50.0
 31
0.0
  0
LINE
  5
B0
  8
0
 10
0.325
 20
50.979
 30
0.0
 11
0.325
 21
63.706
 31
0.0
  0
LINE
  5
B1
  8
0
 10
1.827
 20
51.306
 30
0.0
 11
1.827
 21
51.241
 31
0.0
  0
LINE
  5
B2
  8
0
 10
2.61
 20
63.313
 30
0.0
 11
2.61
 21
51.37
 31
0.0
  0
LINE
  5
B3
  8
0
 10
2.87
 20
59.268
 30
0.0
 11
2.87
 21
58.811
 31
0.0
  0
LINE
  5
B4
  8
0
 10
2.87
 20
55.874
 30
0.0
 11
2.87
 21
55.417
 31
0.0
  0
LINE
  5
B5
  8
0
 10
3.001
 20
59.202
 30
0.0
 11
3.001
 21
58.875
 31
0.0
  0
LINE
  5
B6
  8
0
 10
3.001
 20
55.808
 30
0.0
 11
3.001
 21
55.483
 31
0.0
  0
LINE
  5
B7
  8
0
 10
58.237
 20
54.176
 30
0.0
 11
58.17
 21
54.176
 31
0.0
  0
LINE
  5
B8
  8
0
 10
54.778
 20
53.656
 30
0.0
 11
54.712
 21
53.656
 31
0.0
  0
LINE
  5
B9
  8
0
 10
54.256
 20
53.524
 30
0.0
 11
54.19
 21
53.524
 31
0.0
  0
LINE
  5
BA
  8
0
 10
58.17
 20
54.176
 30
0.0
 11
58.107
 21
54.176
 31
0.0
  0
LINE
  5
BB
  8
0
 10
54.451
 20
54.047
 30
0.0
 11
54.387
 21
54.047
 31
0.0
  0
LINE
  5
BC
  8
0
 10
54.19
 20
53.524
 30
0.0
 11
54.126
 21
53.524
 31
0.0
  0
LINE
  5
BD
  8
0
 10
58.107
 20
54.176
 30
0.0
 11
58.041
 21
54.176
 31
0.0
  0
LINE
  5
BE
  8
0
 10
50.993
 20
54.176
 30
0.0
 11
50.927
 21
54.176
 31
0.0
  0
LINE
  5
BF
  8
0
 10
54.517
 20
54.047
 30
0.0
 11
54.451
 21
54.047
 31
0.0
  0
LINE
  5
C0
  8
0
 10
58.041
 20
54.176
 30
0.0
 11
57.975
 21
54.176
 31
0.0
  0
LINE
  5
C1
  8
0
 10
50.732
 20
54.176
 30
0.0
 11
50.668
 21
54.176
 31
0.0
  0
LINE
  5
C2
  8
0
 10
49.493
 20
53.46
 30
0.0
 11
49.689
 21
53.46
 31
0.0
  0
LINE
  5
C3
  8
0
 10
51.124
 20
53.524
 30
0.0
 11
53.669
 21
53.524
 31
0.0
  0
LINE
  5
C4
  8
0
 10
53.799
 20
53.524
 30
0.0
 11
54.06
 21
53.524
 31
0.0
  0
LINE
  5
C5
  8
0
 10
54.517
 20
53.524
 30
0.0
 11
54.844
 21
53.524
 31
0.0
  0
LINE
  5
C6
  8
0
 10
54.908
 20
53.524
 30
0.0
 11
57.519
 21
53.524
 31
0.0
  0
LINE
  5
C7
  8
0
 10
54.321
 20
53.524
 30
0.0
 11
54.256
 21
53.524
 31
0.0
  0
LINE
  5
C8
  8
0
 10
58.107
 20
54.047
 30
0.0
 11
54.712
 21
54.047
 31
0.0
  0
LINE
  5
C9
  8
0
 10
54.387
 20
54.047
 30
0.0
 11
54.256
 21
54.047
 31
0.0
  0
LINE
  5
CA
  8
0
 10
54.712
 20
54.047
 30
0.0
 11
54.517
 21
54.047
 31
0.0
  0
LINE
  5
CB
  8
0
 10
57.323
 20
54.176
 30
0.0
 11
51.254
 21
54.176
 31
0.0
  0
LINE
  5
CC
  8
0
 10
57.975
 20
54.176
 30
0.0
 11
57.912
 21
54.176
 31
0.0
  0
LINE
  5
CD
  8
0
 10
50.668
 20
54.176
 30
0.0
 11
50.602
 21
54.176
 31
0.0
  0
LINE
  5
CE
  8
0
 10
50.602
 20
54.176
 30
0.0
 11
50.536
 21
54.176
 31
0.0
  0
LINE
  5
CF
  8
0
 10
54.517
 20
53.524
 30
0.0
 11
54.451
 21
53.524
 31
0.0
  0
LINE
  5
D0
  8
0
 10
54.126
 20
54.047
 30
0.0
 11
54.06
 21
54.047
 31
0.0
  0
LINE
  5
D1
  8
0
 10
50.536
 20
54.176
 30
0.0
 11
50.47
 21
54.176
 31
0.0
  0
LINE
  5
D2
  8
0
 10
57.453
 20
54.176
 30
0.0
 11
57.323
 21
54.176
 31
0.0
  0
LINE
  5
D3
  8
0
 10
50.47
 20
54.176
 30
0.0
 11
50.407
 21
54.176
 31
0.0
  0
LINE
  5
D4
  8
0
 10
54.126
 20
53.524
 30
0.0
 11
54.06
 21
53.524
 31
0.0
  0
LINE
  5
D5
  8
0
 10
54.19
 20
54.047
 30
0.0
 11
54.126
 21
54.047
 31
0.0
  0
LINE
  5
D6
  8
0
 10
54.451
 20
53.524
 30
0.0
 11
54.321
 21
53.524
 31
0.0
  0
LINE
  5
D7
  8
0
 10
54.256
 20
54.047
 30
0.0
 11
54.19
 21
54.047
 31
0.0
  0
LINE
  5
D8
  8
0
 10
50.407
 20
54.113
 30
0.0
 11
50.407
 21
54.176
 31
0.0
  0
LINE
  5
D9
  8
0
 10
51.843
 20
58.811
 30
0.0
 11
51.906
 21
58.811
 31
0.0
  0
LINE
  5
DA
  8
0
 10
58.759
 20
57.571
 30
0.0
 11
58.825
 21
57.571
 31
0.0
  0
LINE
  5
DB
  8
0
 10
59.084
 20
57.637
 30
0.0
 11
59.15
 21
57.637
 31
0.0
  0
LINE
  5
DC
  8
0
 10
59.02
 20
57.637
 30
0.0
 11
59.084
 21
57.637
 31
0.0
  0
LINE
  5
DD
  8
0
 10
58.889
 20
57.637
 30
0.0
 11
59.02
 21
57.637
 31
0.0
  0
LINE
  5
DE
  8
0
 10
57.912
 20
57.571
 30
0.0
 11
58.041
 21
57.571
 31
0.0
  0
LINE
  5
DF
  8
0
 10
58.825
 20
57.637
 30
0.0
 11
58.889
 21
57.637
 31
0.0
  0
LINE
  5
E0
  8
0
 10
30.436
 20
56.201
 30
0.0
 11
31.677
 21
56.201
 31
0.0
  0
LINE
  5
E1
  8
0
 10
55.301
 20
56.201
 30
0.0
 11
55.364
 21
56.201
 31
0.0
  0
LINE
  5
E2
  8
0
 10
30.436
 20
56.264
 30
0.0
 11
31.677
 21
56.264
 31
0.0
  0
LINE
  5
E3
  8
0
 10
31.482
 20
56.264
 30
0.0
 11
30.698
 21
56.264
 31
0.0
  0
LINE
  5
E4
  8
0
 10
54.844
 20
56.33
 30
0.0
 11
55.364
 21
56.33
 31
0.0
  0
LINE
  5
E5
  8
0
 10
58.369
 20
56.982
 30
0.0
 11
58.693
 21
56.982
 31
0.0
  0
LINE
  5
E6
  8
0
 10
58.759
 20
57.571
 30
0.0
 11
58.369
 21
57.571
 31
0.0
  0
LINE
  5
E7
  8
0
 10
57.453
 20
57.637
 30
0.0
 11
57.78
 21
57.637
 31
0.0
  0
LINE
  5
E8
  8
0
 10
54.649
 20
58.418
 30
0.0
 11
55.43
 21
58.418
 31
0.0
  0
LINE
  5
E9
  8
0
 10
35.529
 20
58.614
 30
0.0
 11
35.919
 21
58.614
 31
0.0
  0
LINE
  5
EA
  8
0
 10
36.442
 20
58.614
 30
0.0
 11
36.898
 21
58.614
 31
0.0
  0
LINE
  5
EB
  8
0
 10
37.419
 20
58.614
 30
0.0
 11
37.485
 21
58.614
 31
0.0
  0
LINE
  5
EC
  8
0
 10
34.94
 20
58.68
 30
0.0
 11
35.529
 21
58.68
 31
0.0
  0
LINE
  5
ED
  8
0
 10
36.833
 20
58.68
 30
0.0
 11
37.419
 21
58.68
 31
0.0
  0
LINE
  5
EE
  8
0
 10
35.529
 20
58.68
 30
0.0
 11
35.919
 21
58.68
 31
0.0
  0
LINE
  5
EF
  8
0
 10
36.506
 20
58.68
 30
0.0
 11
36.833
 21
58.68
 31
0.0
  0
LINE
  5
F0
  8
0
 10
58.693
 20
57.637
 30
0.0
 11
58.825
 21
57.637
 31
0.0
  0
LINE
  5
F1
  8
0
 10
58.627
 20
57.637
 30
0.0
 11
58.693
 21
57.637
 31
0.0
  0
LINE
  5
F2
  8
0
 10
58.564
 20
57.637
 30
0.0
 11
58.627
 21
57.637
 31
0.0
  0
LINE
  5
F3
  8
0
 10
58.041
 20
57.571
 30
0.0
 11
58.107
 21
57.571
 31
0.0
  0
LINE
  5
F4
  8
0
 10
58.498
 20
57.637
 30
0.0
 11
58.564
 21
57.637
 31
0.0
  0
LINE
  5
F5
  8
0
 10
58.369
 20
57.637
 30
0.0
 11
58.498
 21
57.637
 31
0.0
  0
LINE
  5
F6
  8
0
 10
58.237
 20
57.637
 30
0.0
 11
58.369
 21
57.637
 31
0.0
  0
LINE
  5
F7
  8
0
 10
58.107
 20
57.637
 30
0.0
 11
58.237
 21
57.637
 31
0.0
  0
LINE
  5
F8
  8
0
 10
57.912
 20
57.637
 30
0.0
 11
58.107
 21
57.637
 31
0.0
  0
LINE
  5
F9
  8
0
 10
58.107
 20
57.571
 30
0.0
 11
58.237
 21
57.571
 31
0.0
  0
LINE
  5
FA
  8
0
 10
57.78
 20
57.637
 30
0.0
 11
57.912
 21
57.637
 31
0.0
  0
LINE
  5
FB
  8
0
 10
58.237
 20
57.571
 30
0.0
 11
58.303
 21
57.571
 31
0.0
  0
LINE
  5
FC
  8
0
 10
58.303
 20
57.571
 30
0.0
 11
58.369
 21
57.571
 31
0.0
  0
LINE
  5
FD
  8
0
 10
55.496
 20
56.33
 30
0.0
 11
55.43
 21
56.33
 31
0.0
  0
LINE
  5
FE
  8
0
 10
58.759
 20
56.982
 30
0.0
 11
58.693
 21
56.982
 31
0.0
  0
LINE
  5
FF
  8
0
 10
58.369
 20
56.982
 30
0.0
 11
58.303
 21
56.982
 31
0.0
  0
LINE
  5
100
  8
0
 10
55.43
 20
56.33
 30
0.0
 11
55.364
 21
56.33
 31
0.0
  0
LINE
  5
101
  8
0
 10
57.975
 20
59.202
 30
0.0
 11
57.846
 21
59.202
 31
0.0
  0
LINE
  5
102
  8
0
 10
58.107
 20
59.202
 30
0.0
 11
57.975
 21
59.202
 31
0.0
  0
LINE
  5
103
  8
0
 10
58.237
 20
59.202
 30
0.0
 11
58.107
 21
59.202
 31
0.0
  0
LINE
  5
104
  8
0
 10
58.432
 20
59.202
 30
0.0
 11
58.237
 21
59.202
 31
0.0
  0
LINE
  5
105
  8
0
 10
58.627
 20
59.202
 30
0.0
 11
58.432
 21
59.202
 31
0.0
  0
LINE
  5
106
  8
0
 10
58.759
 20
59.202
 30
0.0
 11
58.627
 21
59.202
 31
0.0
  0
LINE
  5
107
  8
0
 10
60.0
 20
58.875
 30
0.0
 11
59.868
 21
58.875
 31
0.0
  0
LINE
  5
108
  8
0
 10
48.644
 20
58.875
 30
0.0
 11
48.709
 21
58.875
 31
0.0
  0
LINE
  5
109
  8
0
 10
37.419
 20
59.136
 30
0.0
 11
37.485
 21
59.136
 31
0.0
  0
LINE
  5
10A
  8
0
 10
57.846
 20
59.202
 30
0.0
 11
56.866
 21
59.202
 31
0.0
  0
LINE
  5
10B
  8
0
 10
49.166
 20
59.202
 30
0.0
 11
51.711
 21
59.202
 31
0.0
  0
LINE
  5
10C
  8
0
 10
48.775
 20
59.854
 30
0.0
 11
59.802
 21
59.854
 31
0.0
  0
LINE
  5
10D
  8
0
 10
49.037
 20
60.05
 30
0.0
 11
49.427
 21
60.05
 31
0.0
  0
LINE
  5
10E
  8
0
 10
59.15
 20
60.05
 30
0.0
 11
59.543
 21
60.05
 31
0.0
  0
LINE
  5
10F
  8
0
 10
58.825
 20
59.202
 30
0.0
 11
58.759
 21
59.202
 31
0.0
  0
LINE
  5
110
  8
0
 10
58.955
 20
59.202
 30
0.0
 11
58.825
 21
59.202
 31
0.0
  0
LINE
  5
111
  8
0
 10
59.02
 20
59.202
 30
0.0
 11
58.955
 21
59.202
 31
0.0
  0
LINE
  5
112
  8
0
 10
59.084
 20
59.202
 30
0.0
 11
59.02
 21
59.202
 31
0.0
  0
LINE
  5
113
  8
0
 10
59.15
 20
59.202
 30
0.0
 11
59.084
 21
59.202
 31
0.0
  0
LINE
  5
114
  8
0
 10
55.496
 20
58.418
 30
0.0
 11
55.43
 21
58.418
 31
0.0
  0
LINE
  5
115
  8
0
 10
36.833
 20
59.789
 30
0.0
 11
36.833
 21
59.659
 31
0.0
  0
LINE
  5
116
  8
0
 10
59.216
 20
59.202
 30
0.0
 11
59.15
 21
59.202
 31
0.0
  0
LINE
  5
117
  8
0
 10
36.442
 20
59.007
 30
0.0
 11
36.506
 21
59.007
 31
0.0
  0
LINE
  5
118
  8
0
 10
58.107
 20
54.047
 30
0.0
 11
58.17
 21
54.047
 31
0.0
  0
LINE
  5
119
  8
0
 10
50.536
 20
54.047
 30
0.0
 11
50.993
 21
53.524
 31
0.0
  0
LINE
  5
11A
  8
0
 10
48.644
 20
59.92
 30
0.0
 11
48.709
 21
59.92
 31
0.0
  0
LINE
  5
11B
  8
0
 10
37.355
 20
58.614
 30
0.0
 11
37.355
 21
58.484
 31
0.0
  0
LINE
  5
11C
  8
0
 10
35.853
 20
59.463
 30
0.0
 11
35.853
 21
59.398
 31
0.0
  0
LINE
  5
11D
  8
0
 10
44.86
 20
56.201
 30
0.0
 11
44.86
 21
58.484
 31
0.0
  0
LINE
  5
11E
  8
0
 10
51.189
 20
55.678
 30
0.0
 11
51.189
 21
55.612
 31
0.0
  0
LINE
  5
11F
  8
0
 10
49.232
 20
58.484
 30
0.0
 11
49.166
 21
59.202
 31
0.0
  0
LINE
  5
120
  8
0
 10
49.296
 20
55.612
 30
0.0
 11
49.296
 21
56.201
 31
0.0
  0
LINE
  5
121
  8
0
 10
50.407
 20
54.176
 30
0.0
 11
50.407
 21
54.113
 31
0.0
  0
LINE
  5
122
  8
0
 10
47.535
 20
56.005
 30
0.0
 11
47.535
 21
56.201
 31
0.0
  0
LINE
  5
123
  8
0
 10
48.775
 20
59.071
 30
0.0
 11
48.775
 21
58.746
 31
0.0
  0
LINE
  5
124
  8
0
 10
50.275
 20
55.612
 30
0.0
 11
50.275
 21
56.201
 31
0.0
  0
LINE
  5
125
  8
0
 10
53.147
 20
58.55
 30
0.0
 11
53.147
 21
58.484
 31
0.0
  0
LINE
  5
126
  8
0
 10
51.189
 20
55.612
 30
0.0
 11
51.189
 21
55.549
 31
0.0
  0
LINE
  5
127
  8
0
 10
51.254
 20
54.176
 30
0.0
 11
51.189
 21
55.549
 31
0.0
  0
LINE
  5
128
  8
0
 10
51.843
 20
59.136
 30
0.0
 11
51.843
 21
58.811
 31
0.0
  0
LINE
  5
129
  8
0
 10
50.407
 20
54.113
 30
0.0
 11
50.407
 21
54.047
 31
0.0
  0
LINE
  5
12A
  8
0
 10
51.124
 20
53.524
 30
0.0
 11
51.124
 21
53.46
 31
0.0
  0
LINE
  5
12B
  8
0
 10
51.254
 20
54.113
 30
0.0
 11
51.254
 21
54.176
 31
0.0
  0
LINE
  5
12C
  8
0
 10
50.407
 20
54.176
 30
0.0
 11
50.407
 21
54.113
 31
0.0
  0
LINE
  5
12D
  8
0
 10
58.17
 20
54.113
 30
0.0
 11
58.237
 21
54.113
 31
0.0
  0
LINE
  5
12E
  8
0
 10
53.733
 20
58.484
 30
0.0
 11
53.733
 21
58.55
 31
0.0
  0
LINE
  5
12F
  8
0
 10
55.106
 20
58.484
 30
0.0
 11
55.106
 21
58.55
 31
0.0
  0
LINE
  5
130
  8
0
 10
54.256
 20
53.524
 30
0.0
 11
54.256
 21
54.047
 31
0.0
  0
LINE
  5
131
  8
0
 10
54.712
 20
54.047
 30
0.0
 11
54.778
 21
53.656
 31
0.0
  0
LINE
  5
132
  8
0
 10
53.669
 20
53.524
 30
0.0
 11
53.669
 21
53.46
 31
0.0
  0
LINE
  5
133
  8
0
 10
53.865
 20
54.047
 30
0.0
 11
53.865
 21
54.113
 31
0.0
  0
LINE
  5
134
  8
0
 10
54.256
 20
54.113
 30
0.0
 11
54.256
 21
54.047
 31
0.0
  0
LINE
  5
135
  8
0
 10
54.256
 20
53.46
 30
0.0
 11
54.256
 21
53.524
 31
0.0
  0
LINE
  5
136
  8
0
 10
54.321
 20
53.46
 30
0.0
 11
54.321
 21
53.524
 31
0.0
  0
LINE
  5
137
  8
0
 10
54.387
 20
54.113
 30
0.0
 11
54.387
 21
54.047
 31
0.0
  0
LINE
  5
138
  8
0
 10
54.712
 20
54.047
 30
0.0
 11
54.712
 21
54.113
 31
0.0
  0
LINE
  5
139
  8
0
 10
54.908
 20
53.524
 30
0.0
 11
54.908
 21
53.46
 31
0.0
  0
LINE
  5
13A
  8
0
 10
55.301
 20
56.201
 30
0.0
 11
55.301
 21
56.264
 31
0.0
  0
LINE
  5
13B
  8
0
 10
55.364
 20
56.201
 30
0.0
 11
55.364
 21
56.33
 31
0.0
  0
LINE
  5
13C
  8
0
 10
55.43
 20
58.484
 30
0.0
 11
55.43
 21
58.418
 31
0.0
  0
LINE
  5
13D
  8
0
 10
53.865
 20
53.656
 30
0.0
 11
53.865
 21
54.047
 31
0.0
  0
LINE
  5
13E
  8
0
 10
54.321
 20
53.524
 30
0.0
 11
54.387
 21
54.047
 31
0.0
  0
LINE
  5
13F
  8
0
 10
53.538
 20
58.55
 30
0.0
 11
53.474
 21
58.484
 31
0.0
  0
LINE
  5
140
  8
0
 10
54.908
 20
58.55
 30
0.0
 11
54.844
 21
58.484
 31
0.0
  0
LINE
  5
141
  8
0
 10
55.43
 20
58.418
 30
0.0
 11
55.43
 21
57.571
 31
0.0
  0
LINE
  5
142
  8
0
 10
55.43
 20
57.048
 30
0.0
 11
55.364
 21
56.33
 31
0.0
  0
LINE
  5
143
  8
0
 10
55.496
 20
56.33
 30
0.0
 11
55.562
 21
58.55
 31
0.0
  0
LINE
  5
144
  8
0
 10
55.43
 20
58.55
 30
0.0
 11
55.43
 21
58.484
 31
0.0
  0
LINE
  5
145
  8
0
 10
50.536
 20
54.047
 30
0.0
 11
50.47
 21
54.047
 31
0.0
  0
LINE
  5
146
  8
0
 10
50.993
 20
53.524
 30
0.0
 11
50.927
 21
53.524
 31
0.0
  0
LINE
  5
147
  8
0
 10
59.934
 20
59.92
 30
0.0
 11
59.868
 21
59.92
 31
0.0
  0
LINE
  5
148
  8
0
 10
58.825
 20
56.982
 30
0.0
 11
58.759
 21
56.982
 31
0.0
  0
LINE
  5
149
  8
0
 10
58.107
 20
54.113
 30
0.0
 11
58.17
 21
54.113
 31
0.0
  0
LINE
  5
14A
  8
0
 10
58.107
 20
54.047
 30
0.0
 11
58.107
 21
54.113
 31
0.0
  0
LINE
  5
14B
  8
0
 10
57.323
 20
54.113
 30
0.0
 11
57.323
 21
54.176
 31
0.0
  0
LINE
  5
14C
  8
0
 10
57.519
 20
53.524
 30
0.0
 11
57.519
 21
53.46
 31
0.0
  0
LINE
  5
14D
  8
0
 10
58.107
 20
54.113
 30
0.0
 11
58.107
 21
54.047
 31
0.0
  0
LINE
  5
14E
  8
0
 10
58.369
 20
57.571
 30
0.0
 11
58.369
 21
57.637
 31
0.0
  0
LINE
  5
14F
  8
0
 10
58.693
 20
56.982
 30
0.0
 11
58.693
 21
56.919
 31
0.0
  0
LINE
  5
150
  8
0
 10
58.759
 20
57.637
 30
0.0
 11
58.759
 21
57.571
 31
0.0
  0
LINE
  5
151
  8
0
 10
58.237
 20
54.113
 30
0.0
 11
58.237
 21
54.176
 31
0.0
  0
LINE
  5
152
  8
0
 10
57.323
 20
54.176
 30
0.0
 11
57.453
 21
57.637
 31
0.0
  0
LINE
  5
153
  8
0
 10
57.78
 20
57.637
 30
0.0
 11
57.846
 21
59.202
 31
0.0
  0
LINE
  5
154
  8
0
 10
58.369
 20
57.571
 30
0.0
 11
58.369
 21
56.982
 31
0.0
  0
LINE
  5
155
  8
0
 10
57.912
 20
57.571
 30
0.0
 11
57.912
 21
57.637
 31
0.0
  0
LINE
  5
156
  8
0
 10
59.868
 20
58.746
 30
0.0
 11
59.868
 21
59.071
 31
0.0
  0
LINE
  5
157
  8
0
 10
58.693
 20
56.982
 30
0.0
 11
58.759
 21
57.571
 31
0.0
  0
LINE
  5
158
  8
0
 10
58.369
 20
56.919
 30
0.0
 11
58.369
 21
56.982
 31
0.0
  0
LINE
  5
159
  8
0
 10
57.65
 20
53.524
 30
0.0
 11
58.107
 21
54.047
 31
0.0
  0
LINE
  5
15A
  8
0
 10
0.195
 20
50.0
 30
0.0
 11
0.195
 21
64.683
 31
0.0
  0
LINE
  5
15B
  8
0
 10
0.261
 20
50.132
 30
0.0
 11
0.261
 21
64.553
 31
0.0
  0
LINE
  5
15C
  8
0
 10
2.479
 20
51.37
 30
0.0
 11
2.413
 21
51.37
 31
0.0
  0
LINE
  5
15D
  8
0
 10
2.806
 20
55.417
 30
0.0
 11
2.806
 21
55.483
 31
0.0
  0
LINE
  5
15E
  8
0
 10
2.87
 20
55.808
 30
0.0
 11
2.87
 21
55.874
 31
0.0
  0
LINE
  5
15F
  8
0
 10
2.806
 20
58.811
 30
0.0
 11
2.806
 21
58.941
 31
0.0
  0
LINE
  5
160
  8
0
 10
2.87
 20
59.202
 30
0.0
 11
2.87
 21
59.332
 31
0.0
  0
LINE
  5
161
  8
0
 10
3.001
 20
55.678
 30
0.0
 11
3.001
 21
55.612
 31
0.0
  0
LINE
  5
162
  8
0
 10
3.001
 20
59.071
 30
0.0
 11
3.001
 21
59.007
 31
0.0
  0
LINE
  5
163
  8
0
 10
1.827
 20
51.241
 30
0.0
 11
1.827
 21
51.306
 31
0.0
  0
LINE
  5
164
  8
0
 10
2.479
 20
51.306
 30
0.0
 11
2.479
 21
51.37
 31
0.0
  0
LINE
  5
165
  8
0
 10
2.806
 20
63.117
 30
0.0
 11
2.806
 21
51.568
 31
0.0
  0
LINE
  5
166
  8
0
 10
2.806
 20
59.398
 30
0.0
 11
2.806
 21
58.746
 31
0.0
  0
LINE
  5
167
  8
0
 10
2.806
 20
56.005
 30
0.0
 11
2.806
 21
55.287
 31
0.0
  0
LINE
  5
168
  8
0
 10
2.87
 20
59.398
 30
0.0
 11
2.87
 21
58.746
 31
0.0
  0
LINE
  5
169
  8
0
 10
2.87
 20
56.005
 30
0.0
 11
2.87
 21
55.287
 31
0.0
  0
LINE
  5
16A
  8
0
 10
2.87
 20
55.417
 30
0.0
 11
2.87
 21
55.874
 31
0.0
  0
LINE
  5
16B
  8
0
 10
2.87
 20
58.811
 30
0.0
 11
2.87
 21
59.268
 31
0.0
  0
LINE
  5
16C
  8
0
 10
2.87
 20
55.874
 30
0.0
 11
2.87
 21
58.811
 31
0.0
  0
LINE
  5
16D
  8
0
 10
2.806
 20
59.332
 30
0.0
 11
2.806
 21
59.202
 31
0.0
  0
LINE
  5
16E
  8
0
 10
2.87
 20
58.941
 30
0.0
 11
2.87
 21
58.811
 31
0.0
  0
LINE
  5
16F
  8
0
 10
2.806
 20
55.874
 30
0.0
 11
2.806
 21
55.808
 31
0.0
  0
LINE
  5
170
  8
0
 10
2.87
 20
55.483
 30
0.0
 11
2.87
 21
55.417
 31
0.0
  0
LINE
  5
171
  8
0
 10
1.827
 20
51.306
 30
0.0
 11
1.892
 21
51.306
 31
0.0
  0
LINE
  5
172
  8
0
 10
0.195
 20
50.0
 30
0.0
 11
0.0
 21
50.0
 31
0.0
  0
LINE
  5
173
  8
0
 10
0.261
 20
50.132
 30
0.0
 11
0.195
 21
50.132
 31
0.0
  0
LINE
  5
174
  8
0
 10
51.124
 20
53.46
 30
0.0
 11
57.519
 21
53.46
 31
0.0
  0
LINE
  5
175
  8
0
 10
58.107
 20
54.113
 30
0.0
 11
50.407
 21
54.113
 31
0.0
  0
LINE
  5
176
  8
0
 10
2.87
 20
55.287
 30
0.0
 11
2.806
 21
55.287
 31
0.0
  0
LINE
  5
177
  8
0
 10
49.296
 20
55.612
 30
0.0
 11
50.275
 21
55.612
 31
0.0
  0
LINE
  5
178
  8
0
 10
2.479
 20
51.306
 30
0.0
 11
1.827
 21
51.241
 31
0.0
  0
LINE
  5
179
  8
0
 10
2.61
 20
51.37
 30
0.0
 11
2.479
 21
51.37
 31
0.0
  0
LINE
  5
17A
  8
0
 10
1.827
 20
51.241
 30
0.0
 11
1.499
 21
51.175
 31
0.0
  0
LINE
  5
17B
  8
0
 10
0.979
 20
51.111
 30
0.0
 11
0.325
 21
50.979
 31
0.0
  0
LINE
  5
17C
  8
0
 10
2.413
 20
51.37
 30
0.0
 11
2.479
 21
51.37
 31
0.0
  0
LINE
  5
17D
  8
0
 10
35.853
 20
58.418
 30
0.0
 11
35.985
 21
58.418
 31
0.0
  0
LINE
  5
17E
  8
0
 10
36.506
 20
58.484
 30
0.0
 11
36.442
 21
58.484
 31
0.0
  0
LINE
  5
17F
  8
0
 10
35.463
 20
58.484
 30
0.0
 11
35.592
 21
58.484
 31
0.0
  0
LINE
  5
180
  8
0
 10
36.703
 20
58.418
 30
0.0
 11
36.637
 21
58.418
 31
0.0
  0
LINE
  5
181
  8
0
 10
36.637
 20
58.746
 30
0.0
 11
36.703
 21
58.746
 31
0.0
  0
LINE
  5
182
  8
0
 10
48.644
 20
55.874
 30
0.0
 11
48.448
 21
55.874
 31
0.0
  0
LINE
  5
183
  8
0
 10
2.87
 20
56.005
 30
0.0
 11
2.806
 21
56.005
 31
0.0
  0
LINE
  5
184
  8
0
 10
49.166
 20
56.005
 30
0.0
 11
48.775
 21
56.005
 31
0.0
  0
LINE
  5
185
  8
0
 10
48.448
 20
56.005
 30
0.0
 11
47.535
 21
56.005
 31
0.0
  0
LINE
  5
186
  8
0
 10
49.166
 20
56.069
 30
0.0
 11
48.775
 21
56.069
 31
0.0
  0
LINE
  5
187
  8
0
 10
48.448
 20
56.069
 30
0.0
 11
47.796
 21
56.069
 31
0.0
  0
LINE
  5
188
  8
0
 10
43.554
 20
56.069
 30
0.0
 11
43.686
 21
56.069
 31
0.0
  0
LINE
  5
189
  8
0
 10
48.775
 20
56.201
 30
0.0
 11
48.644
 21
56.201
 31
0.0
  0
LINE
  5
18A
  8
0
 10
30.503
 20
56.201
 30
0.0
 11
31.612
 21
56.201
 31
0.0
  0
LINE
  5
18B
  8
0
 10
49.232
 20
56.201
 30
0.0
 11
49.166
 21
56.201
 31
0.0
  0
LINE
  5
18C
  8
0
 10
43.686
 20
56.201
 30
0.0
 11
54.321
 21
56.201
 31
0.0
  0
LINE
  5
18D
  8
0
 10
54.649
 20
56.264
 30
0.0
 11
55.364
 21
56.264
 31
0.0
  0
LINE
  5
18E
  8
0
 10
58.369
 20
56.919
 30
0.0
 11
58.693
 21
56.919
 31
0.0
  0
LINE
  5
18F
  8
0
 10
57.912
 20
57.637
 30
0.0
 11
59.084
 21
57.637
 31
0.0
  0
LINE
  5
190
  8
0
 10
36.506
 20
58.418
 30
0.0
 11
36.833
 21
58.418
 31
0.0
  0
LINE
  5
191
  8
0
 10
36.049
 20
58.418
 30
0.0
 11
35.397
 21
58.418
 31
0.0
  0
LINE
  5
192
  8
0
 10
43.686
 20
58.484
 30
0.0
 11
55.43
 21
58.484
 31
0.0
  0
LINE
  5
193
  8
0
 10
36.31
 20
58.484
 30
0.0
 11
37.028
 21
58.484
 31
0.0
  0
LINE
  5
194
  8
0
 10
36.049
 20
58.484
 30
0.0
 11
35.397
 21
58.484
 31
0.0
  0
LINE
  5
195
  8
0
 10
36.506
 20
58.484
 30
0.0
 11
36.833
 21
58.484
 31
0.0
  0
LINE
  5
196
  8
0
 10
37.355
 20
58.484
 30
0.0
 11
35.006
 21
58.484
 31
0.0
  0
LINE
  5
197
  8
0
 10
60.0
 20
58.55
 30
0.0
 11
59.868
 21
58.55
 31
0.0
  0
LINE
  5
198
  8
0
 10
48.709
 20
58.55
 30
0.0
 11
48.644
 21
58.55
 31
0.0
  0
LINE
  5
199
  8
0
 10
43.554
 20
58.614
 30
0.0
 11
43.686
 21
58.614
 31
0.0
  0
LINE
  5
19A
  8
0
 10
37.419
 20
58.614
 30
0.0
 11
36.899
 21
58.614
 31
0.0
  0
LINE
  5
19B
  8
0
 10
36.442
 20
58.614
 30
0.0
 11
35.919
 21
58.614
 31
0.0
  0
LINE
  5
19C
  8
0
 10
35.529
 20
58.614
 30
0.0
 11
34.94
 21
58.614
 31
0.0
  0
LINE
  5
19D
  8
0
 10
2.87
 20
58.746
 30
0.0
 11
2.806
 21
58.746
 31
0.0
  0
LINE
  5
19E
  8
0
 10
2.61
 20
63.313
 30
0.0
 11
0.325
 21
63.706
 31
0.0
  0
LINE
  5
19F
  8
0
 10
35.919
 20
59.789
 30
0.0
 11
35.985
 21
59.789
 31
0.0
  0
LINE
  5
1A0
  8
0
 10
59.868
 20
58.746
 30
0.0
 11
59.802
 21
58.746
 31
0.0
  0
LINE
  5
1A1
  8
0
 10
59.868
 20
59.071
 30
0.0
 11
59.802
 21
59.071
 31
0.0
  0
LINE
  5
1A2
  8
0
 10
36.442
 20
59.136
 30
0.0
 11
35.724
 21
59.136
 31
0.0
  0
LINE
  5
1A3
  8
0
 10
48.709
 20
59.202
 30
0.0
 11
48.644
 21
59.202
 31
0.0
  0
LINE
  5
1A4
  8
0
 10
59.868
 20
59.202
 30
0.0
 11
60.0
 21
59.202
 31
0.0
  0
LINE
  5
1A5
  8
0
 10
48.709
 20
59.332
 30
0.0
 11
48.644
 21
59.332
 31
0.0
  0
LINE
  5
1A6
  8
0
 10
59.868
 20
59.332
 30
0.0
 11
60.0
 21
59.332
 31
0.0
  0
LINE
  5
1A7
  8
0
 10
2.87
 20
59.398
 30
0.0
 11
2.806
 21
59.398
 31
0.0
  0
LINE
  5
1A8
  8
0
 10
37.419
 20
59.725
 30
0.0
 11
37.485
 21
59.725
 31
0.0
  0
LINE
  5
1A9
  8
0
 10
60.0
 20
59.789
 30
0.0
 11
59.868
 21
59.789
 31
0.0
  0
LINE
  5
1AA
  8
0
 10
48.644
 20
59.789
 30
0.0
 11
48.709
 21
59.789
 31
0.0
  0
LINE
  5
1AB
  8
0
 10
60.0
 20
59.854
 30
0.0
 11
59.868
 21
59.854
 31
0.0
  0
LINE
  5
1AC
  8
0
 10
48.644
 20
59.854
 30
0.0
 11
48.709
 21
59.854
 31
0.0
  0
LINE
  5
1AD
  8
0
 10
59.802
 20
59.92
 30
0.0
 11
59.868
 21
59.92
 31
0.0
  0
LINE
  5
1AE
  8
0
 10
49.427
 20
59.986
 30
0.0
 11
59.15
 21
59.986
 31
0.0
  0
LINE
  5
1AF
  8
0
 10
59.477
 20
60.116
 30
0.0
 11
59.216
 21
60.116
 31
0.0
  0
LINE
  5
1B0
  8
0
 10
49.362
 20
60.116
 30
0.0
 11
49.1
 21
60.116
 31
0.0
  0
LINE
  5
1B1
  8
0
 10
36.833
 20
60.377
 30
0.0
 11
36.31
 21
60.377
 31
0.0
  0
LINE
  5
1B2
  8
0
 10
36.115
 20
60.377
 30
0.0
 11
35.529
 21
60.377
 31
0.0
  0
LINE
  5
1B3
  8
0
 10
35.592
 20
58.418
 30
0.0
 11
35.463
 21
58.418
 31
0.0
  0
LINE
  5
1B4
  8
0
 10
35.985
 20
58.484
 30
0.0
 11
35.853
 21
58.484
 31
0.0
  0
LINE
  5
1B5
  8
0
 10
36.833
 20
58.484
 30
0.0
 11
36.898
 21
58.484
 31
0.0
  0
LINE
  5
1B6
  8
0
 10
35.658
 20
58.418
 30
0.0
 11
35.592
 21
58.418
 31
0.0
  0
LINE
  5
1B7
  8
0
 10
0.261
 20
64.553
 30
0.0
 11
0.195
 21
64.553
 31
0.0
  0
LINE
  5
1B8
  8
0
 10
35.985
 20
59.854
 30
0.0
 11
36.833
 21
59.659
 31
0.0
  0
LINE
  5
1B9
  8
0
 10
0.195
 20
64.683
 30
0.0
 11
0.0
 21
64.683
 31
0.0
  0
LINE
  5
1BA
  8
0
 10
35.919
 20
59.789
 30
0.0
 11
35.463
 21
60.116
 31
0.0
  0
LINE
  5
1BB
  8
0
 10
35.985
 20
59.854
 30
0.0
 11
35.529
 21
60.181
 31
0.0
  0
LINE
  5
1BC
  8
0
 10
42.313
 20
56.264
 30
0.0
 11
42.379
 21
56.201
 31
0.0
  0
LINE
  5
1BD
  8
0
 10
40.357
 20
58.418
 30
0.0
 11
40.225
 21
58.484
 31
0.0
  0
LINE
  5
1BE
  8
0
 10
36.442
 20
59.007
 30
0.0
 11
35.919
 21
59.789
 31
0.0
  0
LINE
  5
1BF
  8
0
 10
53.865
 20
57.114
 30
0.0
 11
54.321
 21
56.853
 31
0.0
  0
LINE
  5
1C0
  8
0
 10
54.712
 20
57.571
 30
0.0
 11
54.321
 21
57.832
 31
0.0
  0
LINE
  5
1C1
  8
0
 10
43.488
 20
56.135
 30
0.0
 11
43.554
 21
56.069
 31
0.0
  0
LINE
  5
1C2
  8
0
 10
43.686
 20
58.55
 30
0.0
 11
43.686
 21
58.614
 31
0.0
  0
LINE
  5
1C3
  8
0
 10
36.572
 20
59.136
 30
0.0
 11
35.985
 21
59.854
 31
0.0
  0
LINE
  5
1C4
  8
0
 10
30.436
 20
56.264
 30
0.0
 11
30.436
 21
56.201
 31
0.0
  0
LINE
  5
1C5
  8
0
 10
31.677
 20
56.264
 30
0.0
 11
31.677
 21
56.201
 31
0.0
  0
LINE
  5
1C6
  8
0
 10
50.407
 20
54.113
 30
0.0
 11
50.927
 21
53.524
 31
0.0
  0
LINE
  5
1C7
  8
0
 10
34.94
 20
58.614
 30
0.0
 11
34.94
 21
59.986
 31
0.0
  0
LINE
  5
1C8
  8
0
 10
35.006
 20
58.484
 30
0.0
 11
35.006
 21
58.614
 31
0.0
  0
LINE
  5
1C9
  8
0
 10
35.135
 20
58.484
 30
0.0
 11
35.135
 21
58.614
 31
0.0
  0
LINE
  5
1CA
  8
0
 10
35.397
 20
58.418
 30
0.0
 11
35.397
 21
58.484
 31
0.0
  0
LINE
  5
1CB
  8
0
 10
35.724
 20
58.746
 30
0.0
 11
35.724
 21
59.136
 31
0.0
  0
LINE
  5
1CC
  8
0
 10
36.049
 20
58.418
 30
0.0
 11
36.049
 21
58.484
 31
0.0
  0
LINE
  5
1CD
  8
0
 10
36.115
 20
60.834
 30
0.0
 11
36.115
 21
59.986
 31
0.0
  0
LINE
  5
1CE
  8
0
 10
36.115
 20
59.789
 30
0.0
 11
36.115
 21
59.725
 31
0.0
  0
LINE
  5
1CF
  8
0
 10
36.115
 20
59.527
 30
0.0
 11
36.115
 21
59.332
 31
0.0
  0
LINE
  5
1D0
  8
0
 10
36.181
 20
58.614
 30
0.0
 11
36.181
 21
59.071
 31
0.0
  0
LINE
  5
1D1
  8
0
 10
36.31
 20
60.834
 30
0.0
 11
36.31
 21
59.92
 31
0.0
  0
LINE
  5
1D2
  8
0
 10
36.31
 20
59.789
 30
0.0
 11
36.31
 21
59.463
 31
0.0
  0
LINE
  5
1D3
  8
0
 10
36.31
 20
58.484
 30
0.0
 11
36.31
 21
58.418
 31
0.0
  0
LINE
  5
1D4
  8
0
 10
36.637
 20
58.746
 30
0.0
 11
36.637
 21
58.941
 31
0.0
  0
LINE
  5
1D5
  8
0
 10
36.637
 20
59.007
 30
0.0
 11
36.637
 21
59.136
 31
0.0
  0
LINE
  5
1D6
  8
0
 10
37.028
 20
58.484
 30
0.0
 11
37.028
 21
58.418
 31
0.0
  0
LINE
  5
1D7
  8
0
 10
37.419
 20
59.986
 30
0.0
 11
37.419
 21
59.725
 31
0.0
  0
LINE
  5
1D8
  8
0
 10
37.485
 20
59.725
 30
0.0
 11
37.485
 21
58.614
 31
0.0
  0
LINE
  5
1D9
  8
0
 10
35.853
 20
59.463
 30
0.0
 11
35.853
 21
59.398
 31
0.0
  0
LINE
  5
1DA
  8
0
 10
35.985
 20
59.789
 30
0.0
 11
35.985
 21
59.854
 31
0.0
  0
LINE
  5
1DB
  8
0
 10
36.833
 20
58.746
 30
0.0
 11
36.767
 21
58.746
 31
0.0
  0
LINE
  5
1DC
  8
0
 10
43.488
 20
56.135
 30
0.0
 11
43.488
 21
58.55
 31
0.0
  0
LINE
  5
1DD
  8
0
 10
43.554
 20
56.069
 30
0.0
 11
43.554
 21
58.614
 31
0.0
  0
LINE
  5
1DE
  8
0
 10
43.686
 20
58.614
 30
0.0
 11
43.686
 21
56.069
 31
0.0
  0
LINE
  5
1DF
  8
0
 10
43.686
 20
56.135
 30
0.0
 11
43.686
 21
58.55
 31
0.0
  0
LINE
  5
1E0
  8
0
 10
47.796
 20
56.201
 30
0.0
 11
47.796
 21
56.069
 31
0.0
  0
LINE
  5
1E1
  8
0
 10
43.488
 20
58.55
 30
0.0
 11
43.554
 21
58.614
 31
0.0
  0
LINE
  5
1E2
  8
0
 10
49.493
 20
55.026
 30
0.0
 11
49.557
 21
55.026
 31
0.0
  0
LINE
  5
1E3
  8
0
 10
49.427
 20
60.05
 30
0.0
 11
49.427
 21
59.986
 31
0.0
  0
LINE
  5
1E4
  8
0
 10
49.166
 20
58.484
 30
0.0
 11
49.166
 21
59.202
 31
0.0
  0
LINE
  5
1E5
  8
0
 10
50.407
 20
54.113
 30
0.0
 11
50.341
 21
55.549
 31
0.0
  0
LINE
  5
1E6
  8
0
 10
47.73
 20
56.005
 30
0.0
 11
47.73
 21
56.201
 31
0.0
  0
LINE
  5
1E7
  8
0
 10
47.796
 20
56.005
 30
0.0
 11
47.796
 21
56.069
 31
0.0
  0
LINE
  5
1E8
  8
0
 10
48.448
 20
55.874
 30
0.0
 11
48.448
 21
56.005
 31
0.0
  0
LINE
  5
1E9
  8
0
 10
48.448
 20
56.069
 30
0.0
 11
48.448
 21
56.201
 31
0.0
  0
LINE
  5
1EA
  8
0
 10
48.644
 20
55.874
 30
0.0
 11
48.644
 21
56.201
 31
0.0
  0
LINE
  5
1EB
  8
0
 10
48.709
 20
58.55
 30
0.0
 11
48.709
 21
59.332
 31
0.0
  0
LINE
  5
1EC
  8
0
 10
48.709
 20
59.789
 30
0.0
 11
48.709
 21
59.854
 31
0.0
  0
LINE
  5
1ED
  8
0
 10
48.775
 20
59.986
 30
0.0
 11
48.775
 21
59.92
 31
0.0
  0
LINE
  5
1EE
  8
0
 10
48.775
 20
56.005
 30
0.0
 11
48.775
 21
56.201
 31
0.0
  0
LINE
  5
1EF
  8
0
 10
48.775
 20
59.986
 30
0.0
 11
48.775
 21
59.92
 31
0.0
  0
LINE
  5
1F0
  8
0
 10
48.775
 20
59.071
 30
0.0
 11
48.775
 21
58.746
 31
0.0
  0
LINE
  5
1F1
  8
0
 10
49.166
 20
56.005
 30
0.0
 11
49.166
 21
56.201
 31
0.0
  0
LINE
  5
1F2
  8
0
 10
49.232
 20
56.201
 30
0.0
 11
49.232
 21
55.678
 31
0.0
  0
LINE
  5
1F3
  8
0
 10
49.493
 20
53.46
 30
0.0
 11
49.493
 21
55.612
 31
0.0
  0
LINE
  5
1F4
  8
0
 10
49.689
 20
53.46
 30
0.0
 11
49.689
 21
55.612
 31
0.0
  0
LINE
  5
1F5
  8
0
 10
49.037
 20
60.05
 30
0.0
 11
49.037
 21
59.986
 31
0.0
  0
LINE
  5
1F6
  8
0
 10
43.686
 20
56.135
 30
0.0
 11
43.686
 21
56.069
 31
0.0
  0
LINE
  5
1F7
  8
0
 10
52.495
 20
58.484
 30
0.0
 11
52.559
 21
58.55
 31
0.0
  0
LINE
  5
1F8
  8
0
 10
54.321
 20
57.832
 30
0.0
 11
53.865
 21
57.571
 31
0.0
  0
LINE
  5
1F9
  8
0
 10
53.081
 20
58.55
 30
0.0
 11
53.081
 21
58.484
 31
0.0
  0
LINE
  5
1FA
  8
0
 10
53.081
 20
58.484
 30
0.0
 11
53.081
 21
58.55
 31
0.0
  0
LINE
  5
1FB
  8
0
 10
54.321
 20
56.853
 30
0.0
 11
54.712
 21
57.114
 31
0.0
  0
LINE
  5
1FC
  8
0
 10
53.799
 20
58.484
 30
0.0
 11
53.799
 21
58.55
 31
0.0
  0
LINE
  5
1FD
  8
0
 10
55.169
 20
58.484
 30
0.0
 11
55.169
 21
58.55
 31
0.0
  0
LINE
  5
1FE
  8
0
 10
54.06
 20
53.524
 30
0.0
 11
54.06
 21
54.047
 31
0.0
  0
LINE
  5
1FF
  8
0
 10
54.712
 20
54.047
 30
0.0
 11
54.712
 21
53.656
 31
0.0
  0
LINE
  5
200
  8
0
 10
53.865
 20
57.571
 30
0.0
 11
53.865
 21
57.114
 31
0.0
  0
LINE
  5
201
  8
0
 10
54.321
 20
57.832
 30
0.0
 11
54.321
 21
57.766
 31
0.0
  0
LINE
  5
202
  8
0
 10
54.712
 20
57.114
 30
0.0
 11
54.712
 21
57.571
 31
0.0
  0
LINE
  5
203
  8
0
 10
53.865
 20
53.656
 30
0.0
 11
53.865
 21
54.047
 31
0.0
  0
LINE
  5
204
  8
0
 10
54.517
 20
53.524
 30
0.0
 11
54.517
 21
54.047
 31
0.0
  0
LINE
  5
205
  8
0
 10
53.474
 20
58.55
 30
0.0
 11
53.474
 21
58.484
 31
0.0
  0
LINE
  5
206
  8
0
 10
54.844
 20
58.55
 30
0.0
 11
54.844
 21
58.484
 31
0.0
  0
LINE
  5
207
  8
0
 10
55.496
 20
58.55
 30
0.0
 11
55.43
 21
56.33
 31
0.0
  0
LINE
  5
208
  8
0
 10
52.102
 20
58.614
 30
0.0
 11
52.102
 21
58.55
 31
0.0
  0
LINE
  5
209
  8
0
 10
52.102
 20
58.614
 30
0.0
 11
52.102
 21
58.55
 31
0.0
  0
LINE
  5
20A
  8
0
 10
59.543
 20
60.05
 30
0.0
 11
59.607
 21
59.986
 31
0.0
  0
LINE
  5
20B
  8
0
 10
58.237
 20
54.113
 30
0.0
 11
58.303
 21
57.571
 31
0.0
  0
LINE
  5
20C
  8
0
 10
59.802
 20
58.746
 30
0.0
 11
59.802
 21
59.071
 31
0.0
  0
LINE
  5
20D
  8
0
 10
59.802
 20
59.986
 30
0.0
 11
59.802
 21
59.92
 31
0.0
  0
LINE
  5
20E
  8
0
 10
59.868
 20
59.986
 30
0.0
 11
59.868
 21
59.92
 31
0.0
  0
LINE
  5
20F
  8
0
 10
59.868
 20
59.854
 30
0.0
 11
59.868
 21
59.789
 31
0.0
  0
LINE
  5
210
  8
0
 10
59.868
 20
58.55
 30
0.0
 11
59.868
 21
59.332
 31
0.0
  0
LINE
  5
211
  8
0
 10
58.825
 20
56.982
 30
0.0
 11
58.825
 21
57.571
 31
0.0
  0
LINE
  5
212
  8
0
 10
59.15
 20
57.637
 30
0.0
 11
59.216
 21
59.202
 31
0.0
  0
LINE
  5
213
  8
0
 10
59.15
 20
60.05
 30
0.0
 11
59.15
 21
59.986
 31
0.0
  0
LINE
  5
214
  8
0
 10
58.17
 20
54.113
 30
0.0
 11
58.237
 21
54.113
 31
0.0
  0
LINE
  5
215
  8
0
 10
57.65
 20
53.524
 30
0.0
 11
58.17
 21
54.113
 31
0.0
  0
LINE
  5
216
  8
0
 10
3.001
 20
55.744
 30
0.0
 11
3.001
 21
55.808
 31
0.0
  0
LINE
  5
217
  8
0
 10
3.001
 20
55.678
 30
0.0
 11
3.001
 21
55.744
 31
0.0
  0
LINE
  5
218
  8
0
 10
31.612
 20
56.201
 30
0.0
 11
31.677
 21
56.201
 31
0.0
  0
LINE
  5
219
  8
0
 10
30.436
 20
56.201
 30
0.0
 11
30.503
 21
56.201
 31
0.0
  0
LINE
  5
21A
  8
0
 10
54.517
 20
53.46
 30
0.0
 11
54.517
 21
53.524
 31
0.0
  0
LINE
  5
21B
  8
0
 10
58.17
 20
54.113
 30
0.0
 11
58.237
 21
54.113
 31
0.0
  0
LINE
  5
21C
  8
0
 10
36.506
 20
58.746
 30
0.0
 11
36.506
 21
58.68
 31
0.0
  0
LINE
  5
21D
  8
0
 10
36.833
 20
58.68
 30
0.0
 11
36.833
 21
58.746
 31
0.0
  0
LINE
  5
21E
  8
0
 10
36.767
 20
58.746
 30
0.0
 11
36.703
 21
58.746
 31
0.0
  0
LINE
  5
21F
  8
0
 10
35.529
 20
58.68
 30
0.0
 11
35.529
 21
58.614
 31
0.0
  0
LINE
  5
220
  8
0
 10
35.919
 20
58.614
 30
0.0
 11
35.919
 21
58.68
 31
0.0
  0
LINE
  5
221
  8
0
 10
59.084
 20
57.637
 30
0.0
 11
59.15
 21
57.637
 31
0.0
  0
LINE
  5
222
  8
0
 10
59.868
 20
59.854
 30
0.0
 11
59.868
 21
59.92
 31
0.0
  0
LINE
  5
223
  8
0
 10
59.868
 20
59.071
 30
0.0
 11
59.868
 21
59.136
 31
0.0
  0
LINE
  5
224
  8
0
 10
48.775
 20
58.746
 30
0.0
 11
48.709
 21
58.746
 31
0.0
  0
LINE
  5
225
  8
0
 10
48.709
 20
59.136
 30
0.0
 11
48.775
 21
59.071
 31
0.0
  0
LINE
  5
226
  8
0
 10
52.3
 20
58.55
 30
0.0
 11
56.28
 21
58.55
 31
0.0
  0
LINE
  5
227
  8
0
 10
34.94
 20
58.614
 30
0.0
 11
37.355
 21
58.614
 31
0.0
  0
LINE
  5
228
  8
0
 10
59.738
 20
59.202
 30
0.0
 11
57.062
 21
59.202
 31
0.0
  0
LINE
  5
229
  8
0
 10
48.839
 20
59.202
 30
0.0
 11
51.581
 21
59.202
 31
0.0
  0
LINE
  5
22A
  8
0
 10
48.775
 20
59.986
 30
0.0
 11
59.868
 21
59.986
 31
0.0
  0
LINE
  5
22B
  8
0
 10
48.775
 20
59.986
 30
0.0
 11
48.775
 21
59.92
 31
0.0
  0
LINE
  5
22C
  8
0
 10
48.709
 20
59.332
 30
0.0
 11
48.839
 21
59.202
 31
0.0
  0
LINE
  5
22D
  8
0
 10
37.419
 20
58.614
 30
0.0
 11
37.419
 21
59.725
 31
0.0
  0
LINE
  5
22E
  8
0
 10
48.644
 20
58.55
 30
0.0
 11
48.644
 21
59.854
 31
0.0
  0
LINE
  5
22F
  8
0
 10
48.709
 20
59.332
 30
0.0
 11
48.709
 21
59.789
 31
0.0
  0
LINE
  5
230
  8
0
 10
48.775
 20
59.92
 30
0.0
 11
48.775
 21
59.854
 31
0.0
  0
LINE
  5
231
  8
0
 10
59.802
 20
59.854
 30
0.0
 11
59.802
 21
59.92
 31
0.0
  0
LINE
  5
232
  8
0
 10
60.0
 20
58.55
 30
0.0
 11
60.0
 21
59.854
 31
0.0
  0
LINE
  5
233
  8
0
 10
59.802
 20
59.92
 30
0.0
 11
59.802
 21
59.986
 31
0.0
  0
LINE
  5
234
  8
0
 10
37.355
 20
58.614
 30
0.0
 11
37.419
 21
58.614
 31
0.0
  0
LINE
  5
235
  8
0
 10
59.802
 20
59.854
 30
0.0
 11
59.868
 21
59.789
 31
0.0
  0
LINE
  5
236
  8
0
 10
2.87
 20
58.418
 30
0.0
 11
43.488
 21
58.418
 31
0.0
  0
LINE
  5
237
  8
0
 10
2.87
 20
56.264
 30
0.0
 11
43.488
 21
56.264
 31
0.0
  0
POLYLINE
  5
238
  8
0
 66
1
 10
0.0
 20
0.0
 30
0.0
 70
0
  0
VERTEX
  5
23A
  8
0
 10
53.669
 20
53.524
 30
0.0
 70
0
  0
VERTEX
  5
23B
  8
0
 10
53.733
 20
53.524
 30
0.0
 70
0
  0
VERTEX
  5
23C
  8
0
 10
53.799
 20
53.524
 30
0.0
 70
0
  0
VERTEX
  5
23D
  8
0
 10
53.799
 20
53.59
 30
0.0
 70
0
  0
VERTEX
  5
23E
  8
0
 10
53.865
 20
53.59
 30
0.0
 70
0
  0
VERTEX
  5
23F
  8
0
 10
53.865
 20
53.656
 30
0.0
 70
0
  0
SEQEND
  5
239
  8
0
  0
POLYLINE
  5
240
  8
0
 66
1
 10
0.0
 20
0.0
 30
0.0
 70
0
  0
VERTEX
  5
242
  8
0
 10
57.519
 20
53.524
 30
0.0
 70
0
  0
VERTEX
  5
243
  8
0
 10
57.584
 20
53.524
 30
0.0
 70
0
  0
VERTEX
  5
244
  8
0
 10
57.65
 20
53.524
 30
0.0
 70
0
  0
SEQEND
  5
241
  8
0
  0
POLYLINE
  5
245
  8
0
 66
1
 10
0.0
 20
0.0
 30
0.0
 70
0
  0
VERTEX
  5
247
  8
0
 10
51.254
 20
54.176
 30
0.0
 70
0
  0
VERTEX
  5
248
  8
0
 10
51.189
 20
54.176
 30
0.0
 70
0
  0
VERTEX
  5
249
  8
0
 10
51.124
 20
54.176
 30
0.0
 70
0
  0
VERTEX
  5
24A
  8
0
 10
50.993
 20
54.176
 30
0.0
 70
0
  0
SEQEND
  5
246
  8
0
  0
POLYLINE
  5
24B
  8
0
 66
1
 10
0.0
 20
0.0
 30
0.0
 70
0
  0
VERTEX
  5
24D
  8
0
 10
50.927
 20
54.176
 30
0.0
 70
0
  0
VERTEX
  5
24E
  8
0
 10
50.798
 20
54.176
 30
0.0
 70
0
  0
VERTEX
  5
24F
  8
0
 10
50.732
 20
54.176
 30
0.0
 70
0
  0
SEQEND
  5
24C
  8
0
  0
POLYLINE
  5
250
  8
0
 66
1
 10
0.0
 20
0.0
 30
0.0
 70
0
  0
VERTEX
  5
252
  8
0
 10
54.06
 20
54.047
 30
0.0
 70
0
  0
VERTEX
  5
253
  8
0
 10
53.865
 20
54.047
 30
0.0
 70
0
  0
VERTEX
  5
254
  8
0
 10
50.536
 20
54.047
 30
0.0
 70
0
  0
SEQEND
  5
251
  8
0
  0
POLYLINE
  5
255
  8
0
 66
1
 10
0.0
 20
0.0
 30
0.0
 70
0
  0
VERTEX
  5
257
  8
0
 10
57.912
 20
54.176
 30
0.0
 70
0
  0
VERTEX
  5
258
  8
0
 10
57.846
 20
54.176
 30
0.0
 70
0
  0
VERTEX
  5
259
  8
0
 10
57.714
 20
54.176
 30
0.0
 70
0
  0
SEQEND
  5
256
  8
0
  0
POLYLINE
  5
25A
  8
0
 66
1
 10
0.0
 20
0.0
 30
0.0
 70
0
  0
VERTEX
  5
25C
  8
0
 10
57.714
 20
54.176
 30
0.0
 70
0
  0
VERTEX
  5
25D
  8
0
 10
57.584
 20
54.176
 30
0.0
 70
0
  0
VERTEX
  5
25E
  8
0
 10
57.519
 20
54.176
 30
0.0
 70
0
  0
VERTEX
  5
25F
  8
0
 10
57.453
 20
54.176
 30
0.0
 70
0
  0
SEQEND
  5
25B
  8
0
  0
POLYLINE
  5
260
  8
0
 66
1
 10
0.0
 20
0.0
 30
0.0
 70
0
  0
VERTEX
  5
262
  8
0
 10
36.31
 20
59.202
 30
0.0
 70
0
  0
VERTEX
  5
263
  8
0
 10
36.244
 20
59.202
 30
0.0
 70
0
  0
VERTEX
  5
264
  8
0
 10
36.181
 20
59.202
 30
0.0
 70
0
  0
SEQEND
  5
261
  8
0
  0
POLYLINE
  5
265
  8
0
 66
1
 10
0.0
 20
0.0
 30
0.0
 70
0
  0
VERTEX
  5
267
  8
0
 10
36.506
 20
59.007
 30
0.0
 70
0
  0
VERTEX
  5
268
  8
0
 10
36.506
 20
59.071
 30
0.0
 70
0
  0
VERTEX
  5
269
  8
0
 10
36.572
 20
59.071
 30
0.0
 70
0
  0
VERTEX
  5
26A
  8
0
 10
36.572
 20
59.136
 30
0.0
 70
0
  0
SEQEND
  5
266
  8
0
  0
POLYLINE
  5
26B
  8
0
 66
1
 10
0.0
 20
0.0
 30
0.0
 70
0
  0
VERTEX
  5
26D
  8
0
 10
57.912
 20
57.637
 30
0.0
 70
0
  0
VERTEX
  5
26E
  8
0
 10
57.846
 20
57.637
 30
0.0
 70
0
  0
VERTEX
  5
26F
  8
0
 10
57.78
 20
57.637
 30
0.0
 70
0
  0
SEQEND
  5
26C
  8
0
  0
POLYLINE
  5
270
  8
0
 66
1
 10
0.0
 20
0.0
 30
0.0
 70
0
  0
VERTEX
  5
272
  8
0
 10
57.912
 20
57.571
 30
0.0
 70
0
  0
VERTEX
  5
273
  8
0
 10
57.846
 20
57.571
 30
0.0
 70
0
  0
VERTEX
  5
274
  8
0
 10
57.714
 20
57.571
 30
0.0
 70
0
  0
SEQEND
  5
271
  8
0
  0
POLYLINE
  5
275
  8
0
 66
1
 10
0.0
 20
0.0
 30
0.0
 70
0
  0
VERTEX
  5
277
  8
0
 10
55.301
 20
56.201
 30
0.0
 70
0
  0
VERTEX
  5
278
  8
0
 10
55.235
 20
56.201
 30
0.0
 70
0
  0
VERTEX
  5
279
  8
0
 10
55.235
 20
56.264
 30
0.0
 70
0
  0
VERTEX
  5
27A
  8
0
 10
55.169
 20
56.264
 30
0.0
 70
0
  0
SEQEND
  5
276
  8
0
  0
POLYLINE
  5
27B
  8
0
 66
1
 10
0.0
 20
0.0
 30
0.0
 70
0
  0
VERTEX
  5
27D
  8
0
 10
36.181
 20
60.116
 30
0.0
 70
0
  0
VERTEX
  5
27E
  8
0
 10
36.115
 20
60.116
 30
0.0
 70
0
  0
VERTEX
  5
27F
  8
0
 10
36.115
 20
60.05
 30
0.0
 70
0
  0
SEQEND
  5
27C
  8
0
  0
POLYLINE
  5
280
  8
0
 66
1
 10
0.0
 20
0.0
 30
0.0
 70
0
  0
VERTEX
  5
282
  8
0
 10
36.181
 20
59.202
 30
0.0
 70
0
  0
VERTEX
  5
283
  8
0
 10
36.115
 20
59.202
 30
0.0
 70
0
  0
VERTEX
  5
284
  8
0
 10
36.049
 20
59.202
 30
0.0
 70
0
  0
VERTEX
  5
285
  8
0
 10
35.919
 20
59.202
 30
0.0
 70
0
  0
VERTEX
  5
286
  8
0
 10
35.919
 20
59.268
 30
0.0
 70
0
  0
VERTEX
  5
287
  8
0
 10
35.853
 20
59.268
 30
0.0
 70
0
  0
VERTEX
  5
288
  8
0
 10
35.853
 20
59.332
 30
0.0
 70
0
  0
VERTEX
  5
289
  8
0
 10
35.787
 20
59.332
 30
0.0
 70
0
  0
VERTEX
  5
28A
  8
0
 10
35.724
 20
59.398
 30
0.0
 70
0
  0
VERTEX
  5
28B
  8
0
 10
35.724
 20
59.659
 30
0.0
 70
0
  0
VERTEX
  5
28C
  8
0
 10
35.787
 20
59.725
 30
0.0
 70
0
  0
VERTEX
  5
28D
  8
0
 10
35.853
 20
59.725
 30
0.0
 70
0
  0
VERTEX
  5
28E
  8
0
 10
35.853
 20
59.789
 30
0.0
 70
0
  0
SEQEND
  5
281
  8
0
  0
POLYLINE
  5
28F
  8
0
 66
1
 10
0.0
 20
0.0
 30
0.0
 70
0
  0
VERTEX
  5
291
  8
0
 10
57.78
 20
57.637
 30
0.0
 70
0
  0
VERTEX
  5
292
  8
0
 10
57.714
 20
57.637
 30
0.0
 70
0
  0
VERTEX
  5
293
  8
0
 10
57.65
 20
57.637
 30
0.0
 70
0
  0
SEQEND
  5
290
  8
0
  0
POLYLINE
  5
294
  8
0
 66
1
 10
0.0
 20
0.0
 30
0.0
 70
0
  0
VERTEX
  5
296
  8
0
 10
36.31
 20
59.725
 30
0.0
 70
0
  0
VERTEX
  5
297
  8
0
 10
36.376
 20
59.725
 30
0.0
 70
0
  0
VERTEX
  5
298
  8
0
 10
36.376
 20
59.659
 30
0.0
 70
0
  0
VERTEX
  5
299
  8
0
 10
36.442
 20
59.659
 30
0.0
 70
0
  0
VERTEX
  5
29A
  8
0
 10
36.442
 20
59.593
 30
0.0
 70
0
  0
VERTEX
  5
29B
  8
0
 10
36.506
 20
59.593
 30
0.0
 70
0
  0
VERTEX
  5
29C
  8
0
 10
36.506
 20
59.527
 30
0.0
 70
0
  0
VERTEX
  5
29D
  8
0
 10
36.572
 20
59.527
 30
0.0
 70
0
  0
VERTEX
  5
29E
  8
0
 10
36.572
 20
59.398
 30
0.0
 70
0
  0
SEQEND
  5
295
  8
0
  0
POLYLINE
  5
29F
  8
0
 66
1
 10
0.0
 20
0.0
 30
0.0
 70
0
  0
VERTEX
  5
2A1
  8
0
 10
57.65
 20
57.637
 30
0.0
 70
0
  0
VERTEX
  5
2A2
  8
0
 10
57.584
 20
57.637
 30
0.0
 70
0
  0
VERTEX
  5
2A3
  8
0
 10
57.519
 20
57.637
 30
0.0
 70
0
  0
VERTEX
  5
2A4
  8
0
 10
57.453
 20
57.637
 30
0.0
 70
0
  0
SEQEND
  5
2A0
  8
0
  0
POLYLINE
  5
2A5
  8
0
 66
1
 10
0.0
 20
0.0
 30
0.0
 70
0
  0
VERTEX
  5
2A7
  8
0
 10
57.714
 20
57.571
 30
0.0
 70
0
  0
VERTEX
  5
2A8
  8
0
 10
57.65
 20
57.571
 30
0.0
 70
0
  0
VERTEX
  5
2A9
  8
0
 10
57.65
 20
57.637
 30
0.0
 70
0
  0
SEQEND
  5
2A6
  8
0
  0
POLYLINE
  5
2AA
  8
0
 66
1
 10
0.0
 20
0.0
 30
0.0
 70
0
  0
VERTEX
  5
2AC
  8
0
 10
57.65
 20
57.637
 30
0.0
 70
0
  0
VERTEX
  5
2AD
  8
0
 10
57.519
 20
57.637
 30
0.0
 70
0
  0
VERTEX
  5
2AE
  8
0
 10
57.453
 20
57.637
 30
0.0
 70
0
  0
SEQEND
  5
2AB
  8
0
  0
POLYLINE
  5
2AF
  8
0
 66
1
 10
0.0
 20
0.0
 30
0.0
 70
0
  0
VERTEX
  5
2B1
  8
0
 10
50.407
 20
54.113
 30
0.0
 70
0
  0
VERTEX
  5
2B2
  8
0
 10
50.407
 20
54.047
 30
0.0
 70
0
  0
VERTEX
  5
2B3
  8
0
 10
50.536
 20
54.047
 30
0.0
 70
0
  0
SEQEND
  5
2B0
  8
0
  0
POLYLINE
  5
2B4
  8
0
 66
1
 10
0.0
 20
0.0
 30
0.0
 70
0
  0
VERTEX
  5
2B6
  8
0
 10
36.637
 20
59.725
 30
0.0
 70
0
  0
VERTEX
  5
2B7
  8
0
 10
36.637
 20
59.593
 30
0.0
 70
0
  0
VERTEX
  5
2B8
  8
0
 10
36.703
 20
59.593
 30
0.0
 70
0
  0
VERTEX
  5
2B9
  8
0
 10
36.703
 20
59.463
 30
0.0
 70
0
  0
VERTEX
  5
2BA
  8
0
 10
36.637
 20
59.463
 30
0.0
 70
0
  0
VERTEX
  5
2BB
  8
0
 10
36.637
 20
59.332
 30
0.0
 70
0
  0
VERTEX
  5
2BC
  8
0
 10
36.572
 20
59.332
 30
0.0
 70
0
  0
VERTEX
  5
2BD
  8
0
 10
36.506
 20
59.268
 30
0.0
 70
0
  0
VERTEX
  5
2BE
  8
0
 10
36.442
 20
59.202
 30
0.0
 70
0
  0
SEQEND
  5
2B5
  8
0
  0
POLYLINE
  5
2BF
  8
0
 66
1
 10
0.0
 20
0.0
 30
0.0
 70
0
  0
VERTEX
  5
2C1
  8
0
 10
50.993
 20
53.524
 30
0.0
 70
0
  0
VERTEX
  5
2C2
  8
0
 10
51.059
 20
53.524
 30
0.0
 70
0
  0
VERTEX
  5
2C3
  8
0
 10
51.124
 20
53.524
 30
0.0
 70
0
  0
SEQEND
  5
2C0
  8
0
  0
POLYLINE
  5
2C4
  8
0
 66
1
 10
0.0
 20
0.0
 30
0.0
 70
0
  0
VERTEX
  5
2C6
  8
0
 10
36.572
 20
59.398
 30
0.0
 70
0
  0
VERTEX
  5
2C7
  8
0
 10
36.572
 20
59.527
 30
0.0
 70
0
  0
VERTEX
  5
2C8
  8
0
 10
36.506
 20
59.527
 30
0.0
 70
0
  0
VERTEX
  5
2C9
  8
0
 10
36.506
 20
59.593
 30
0.0
 70
0
  0
VERTEX
  5
2CA
  8
0
 10
36.442
 20
59.593
 30
0.0
 70
0
  0
VERTEX
  5
2CB
  8
0
 10
36.442
 20
59.659
 30
0.0
 70
0
  0
VERTEX
  5
2CC
  8
0
 10
36.376
 20
59.659
 30
0.0
 70
0
  0
VERTEX
  5
2CD
  8
0
 10
36.31
 20
59.725
 30
0.0
 70
0
  0
SEQEND
  5
2C5
  8
0
  0
POLYLINE
  5
2CE
  8
0
 66
1
 10
0.0
 20
0.0
 30
0.0
 70
0
  0
VERTEX
  5
2D0
  8
0
 10
36.31
 20
60.05
 30
0.0
 70
0
  0
VERTEX
  5
2D1
  8
0
 10
36.244
 20
60.116
 30
0.0
 70
0
  0
VERTEX
  5
2D2
  8
0
 10
36.181
 20
60.116
 30
0.0
 70
0
  0
SEQEND
  5
2CF
  8
0
  0
POLYLINE
  5
2D3
  8
0
 66
1
 10
0.0
 20
0.0
 30
0.0
 70
0
  0
VERTEX
  5
2D5
  8
0
 10
35.853
 20
59.398
 30
0.0
 70
0
  0
VERTEX
  5
2D6
  8
0
 10
35.853
 20
59.593
 30
0.0
 70
0
  0
VERTEX
  5
2D7
  8
0
 10
35.919
 20
59.593
 30
0.0
 70
0
  0
VERTEX
  5
2D8
  8
0
 10
35.919
 20
59.659
 30
0.0
 70
0
  0
VERTEX
  5
2D9
  8
0
 10
35.985
 20
59.659
 30
0.0
 70
0
  0
SEQEND
  5
2D4
  8
0
  0
POLYLINE
  5
2DA
  8
0
 66
1
 10
0.0
 20
0.0
 30
0.0
 70
0
  0
VERTEX
  5
2DC
  8
0
 10
35.985
 20
59.659
 30
0.0
 70
0
  0
VERTEX
  5
2DD
  8
0
 10
35.919
 20
59.593
 30
0.0
 70
0
  0
VERTEX
  5
2DE
  8
0
 10
35.853
 20
59.593
 30
0.0
 70
0
  0
VERTEX
  5
2DF
  8
0
 10
35.853
 20
59.463
 30
0.0
 70
0
  0
SEQEND
  5
2DB
  8
0
  0
POLYLINE
  5
2E0
  8
0
 66
1
 10
0.0
 20
0.0
 30
0.0
 70
0
  0
VERTEX
  5
2E2
  8
0
 10
35.985
 20
59.789
 30
0.0
 70
0
  0
VERTEX
  5
2E3
  8
0
 10
36.049
 20
59.789
 30
0.0
 70
0
  0
VERTEX
  5
2E4
  8
0
 10
36.049
 20
59.854
 30
0.0
 70
0
  0
SEQEND
  5
2E1
  8
0
  0
POLYLINE
  5
2E5
  8
0
 66
1
 10
0.0
 20
0.0
 30
0.0
 70
0
  0
VERTEX
  5
2E7
  8
0
 10
50.341
 20
55.549
 30
0.0
 70
0
  0
VERTEX
  5
2E8
  8
0
 10
50.407
 20
55.549
 30
0.0
 70
0
  0
VERTEX
  5
2E9
  8
0
 10
50.47
 20
55.549
 30
0.0
 70
0
  0
VERTEX
  5
2EA
  8
0
 10
50.536
 20
55.549
 30
0.0
 70
0
  0
VERTEX
  5
2EB
  8
0
 10
50.602
 20
55.549
 30
0.0
 70
0
  0
VERTEX
  5
2EC
  8
0
 10
50.732
 20
55.549
 30
0.0
 70
0
  0
VERTEX
  5
2ED
  8
0
 10
50.798
 20
55.549
 30
0.0
 70
0
  0
VERTEX
  5
2EE
  8
0
 10
50.927
 20
55.549
 30
0.0
 70
0
  0
VERTEX
  5
2EF
  8
0
 10
50.993
 20
55.549
 30
0.0
 70
0
  0
VERTEX
  5
2F0
  8
0
 10
51.124
 20
55.549
 30
0.0
 70
0
  0
VERTEX
  5
2F1
  8
0
 10
51.189
 20
55.549
 30
0.0
 70
0
  0
SEQEND
  5
2E6
  8
0
  0
POLYLINE
  5
2F2
  8
0
 66
1
 10
0.0
 20
0.0
 30
0.0
 70
0
  0
VERTEX
  5
2F4
  8
0
 10
51.059
 20
56.201
 30
0.0
 70
0
  0
VERTEX
  5
2F5
  8
0
 10
51.124
 20
56.201
 30
0.0
 70
0
  0
VERTEX
  5
2F6
  8
0
 10
51.124
 20
56.005
 30
0.0
 70
0
  0
VERTEX
  5
2F7
  8
0
 10
51.189
 20
55.939
 30
0.0
 70
0
  0
VERTEX
  5
2F8
  8
0
 10
51.189
 20
55.678
 30
0.0
 70
0
  0
SEQEND
  5
2F3
  8
0
  0
POLYLINE
  5
2F9
  8
0
 66
1
 10
0.0
 20
0.0
 30
0.0
 70
0
  0
VERTEX
  5
2FB
  8
0
 10
51.843
 20
58.811
 30
0.0
 70
0
  0
VERTEX
  5
2FC
  8
0
 10
51.843
 20
58.746
 30
0.0
 70
0
  0
VERTEX
  5
2FD
  8
0
 10
51.906
 20
58.746
 30
0.0
 70
0
  0
VERTEX
  5
2FE
  8
0
 10
51.906
 20
58.55
 30
0.0
 70
0
  0
VERTEX
  5
2FF
  8
0
 10
51.972
 20
58.55
 30
0.0
 70
0
  0
VERTEX
  5
300
  8
0
 10
51.972
 20
58.484
 30
0.0
 70
0
  0
SEQEND
  5
2FA
  8
0
  0
POLYLINE
  5
301
  8
0
 66
1
 10
0.0
 20
0.0
 30
0.0
 70
0
  0
VERTEX
  5
303
  8
0
 10
54.778
 20
53.656
 30
0.0
 70
0
  0
VERTEX
  5
304
  8
0
 10
54.778
 20
53.59
 30
0.0
 70
0
  0
VERTEX
  5
305
  8
0
 10
54.844
 20
53.524
 30
0.0
 70
0
  0
VERTEX
  5
306
  8
0
 10
54.908
 20
53.524
 30
0.0
 70
0
  0
SEQEND
  5
302
  8
0
  0
POLYLINE
  5
307
  8
0
 66
1
 10
0.0
 20
0.0
 30
0.0
 70
0
  0
VERTEX
  5
309
  8
0
 10
55.496
 20
56.33
 30
0.0
 70
0
  0
VERTEX
  5
30A
  8
0
 10
55.496
 20
56.264
 30
0.0
 70
0
  0
VERTEX
  5
30B
  8
0
 10
55.43
 20
56.264
 30
0.0
 70
0
  0
VERTEX
  5
30C
  8
0
 10
55.43
 20
56.201
 30
0.0
 70
0
  0
VERTEX
  5
30D
  8
0
 10
55.364
 20
56.201
 30
0.0
 70
0
  0
SEQEND
  5
308
  8
0
  0
POLYLINE
  5
30E
  8
0
 66
1
 10
0.0
 20
0.0
 30
0.0
 70
0
  0
VERTEX
  5
310
  8
0
 10
57.78
 20
57.637
 30
0.0
 70
0
  0
VERTEX
  5
311
  8
0
 10
57.78
 20
57.571
 30
0.0
 70
0
  0
VERTEX
  5
312
  8
0
 10
57.714
 20
57.571
 30
0.0
 70
0
  0
SEQEND
  5
30F
  8
0
  0
POLYLINE
  5
313
  8
0
 66
1
 10
0.0
 20
0.0
 30
0.0
 70
0
  0
VERTEX
  5
315
  8
0
 10
58.237
 20
54.176
 30
0.0
 70
0
  0
VERTEX
  5
316
  8
0
 10
58.237
 20
54.113
 30
0.0
 70
0
  0
VERTEX
  5
317
  8
0
 10
58.17
 20
54.113
 30
0.0
 70
0
  0
VERTEX
  5
318
  8
0
 10
58.107
 20
54.113
 30
0.0
 70
0
  0
SEQEND
  5
314
  8
0
  0
POLYLINE
  5
319
  8
0
 66
1
 10
0.0
 20
0.0
 30
0.0
 70
0
  0
VERTEX
  5
31B
  8
0
 10
58.17
 20
54.113
 30
0.0
 70
0
  0
VERTEX
  5
31C
  8
0
 10
58.237
 20
54.113
 30
0.0
 70
0
  0
VERTEX
  5
31D
  8
0
 10
58.237
 20
54.176
 30
0.0
 70
0
  0
SEQEND
  5
31A
  8
0
  0
POLYLINE
  5
31E
  8
0
 66
1
 10
0.0
 20
0.0
 30
0.0
 70
0
  0
VERTEX
  5
320
  8
0
 10
48.58
 20
51.829
 30
0.0
 70
0
  0
VERTEX
  5
321
  8
0
 10
48.644
 20
51.829
 30
0.0
 70
0
  0
VERTEX
  5
322
  8
0
 10
48.775
 20
51.829
 30
0.0
 70
0
  0
VERTEX
  5
323
  8
0
 10
48.839
 20
51.829
 30
0.0
 70
0
  0
VERTEX
  5
324
  8
0
 10
48.839
 20
51.893
 30
0.0
 70
0
  0
VERTEX
  5
325
  8
0
 10
48.97
 20
51.893
 30
0.0
 70
0
  0
VERTEX
  5
326
  8
0
 10
49.037
 20
51.893
 30
0.0
 70
0
  0
VERTEX
  5
327
  8
0
 10
49.1
 20
51.959
 30
0.0
 70
0
  0
VERTEX
  5
328
  8
0
 10
49.166
 20
51.959
 30
0.0
 70
0
  0
VERTEX
  5
329
  8
0
 10
49.232
 20
52.024
 30
0.0
 70
0
  0
VERTEX
  5
32A
  8
0
 10
49.232
 20
52.088
 30
0.0
 70
0
  0
VERTEX
  5
32B
  8
0
 10
49.362
 20
52.088
 30
0.0
 70
0
  0
VERTEX
  5
32C
  8
0
 10
49.362
 20
52.22
 30
0.0
 70
0
  0
VERTEX
  5
32D
  8
0
 10
49.427
 20
52.22
 30
0.0
 70
0
  0
VERTEX
  5
32E
  8
0
 10
49.427
 20
52.349
 30
0.0
 70
0
  0
VERTEX
  5
32F
  8
0
 10
49.493
 20
52.349
 30
0.0
 70
0
  0
VERTEX
  5
330
  8
0
 10
49.493
 20
52.415
 30
0.0
 70
0
  0
VERTEX
  5
331
  8
0
 10
49.557
 20
52.481
 30
0.0
 70
0
  0
VERTEX
  5
332
  8
0
 10
49.557
 20
52.677
 30
0.0
 70
0
  0
VERTEX
  5
333
  8
0
 10
49.623
 20
52.742
 30
0.0
 70
0
  0
VERTEX
  5
334
  8
0
 10
49.623
 20
53.133
 30
0.0
 70
0
  0
VERTEX
  5
335
  8
0
 10
49.689
 20
53.199
 30
0.0
 70
0
  0
VERTEX
  5
336
  8
0
 10
49.689
 20
53.46
 30
0.0
 70
0
  0
SEQEND
  5
31F
  8
0
  0
POLYLINE
  5
337
  8
0
 66
1
 10
0.0
 20
0.0
 30
0.0
 70
0
  0
VERTEX
  5
339
  8
0
 10
48.58
 20
52.024
 30
0.0
 70
0
  0
VERTEX
  5
33A
  8
0
 10
48.382
 20
52.024
 30
0.0
 70
0
  0
VERTEX
  5
33B
  8
0
 10
48.318
 20
52.088
 30
0.0
 70
0
  0
VERTEX
  5
33C
  8
0
 10
48.057
 20
52.088
 30
0.0
 70
0
  0
VERTEX
  5
33D
  8
0
 10
47.992
 20
52.154
 30
0.0
 70
0
  0
VERTEX
  5
33E
  8
0
 10
47.862
 20
52.154
 30
0.0
 70
0
  0
VERTEX
  5
33F
  8
0
 10
47.796
 20
52.22
 30
0.0
 70
0
  0
VERTEX
  5
340
  8
0
 10
47.664
 20
52.286
 30
0.0
 70
0
  0
VERTEX
  5
341
  8
0
 10
47.601
 20
52.349
 30
0.0
 70
0
  0
VERTEX
  5
342
  8
0
 10
47.469
 20
52.349
 30
0.0
 70
0
  0
VERTEX
  5
343
  8
0
 10
47.339
 20
52.415
 30
0.0
 70
0
  0
VERTEX
  5
344
  8
0
 10
47.273
 20
52.481
 30
0.0
 70
0
  0
VERTEX
  5
345
  8
0
 10
47.144
 20
52.545
 30
0.0
 70
0
  0
VERTEX
  5
346
  8
0
 10
47.012
 20
52.611
 30
0.0
 70
0
  0
VERTEX
  5
347
  8
0
 10
46.883
 20
52.677
 30
0.0
 70
0
  0
VERTEX
  5
348
  8
0
 10
46.817
 20
52.742
 30
0.0
 70
0
  0
VERTEX
  5
349
  8
0
 10
46.687
 20
52.872
 30
0.0
 70
0
  0
VERTEX
  5
34A
  8
0
 10
46.555
 20
52.938
 30
0.0
 70
0
  0
VERTEX
  5
34B
  8
0
 10
46.426
 20
53.067
 30
0.0
 70
0
  0
VERTEX
  5
34C
  8
0
 10
46.294
 20
53.133
 30
0.0
 70
0
  0
VERTEX
  5
34D
  8
0
 10
46.099
 20
53.263
 30
0.0
 70
0
  0
VERTEX
  5
34E
  8
0
 10
46.033
 20
53.329
 30
0.0
 70
0
  0
VERTEX
  5
34F
  8
0
 10
45.837
 20
53.46
 30
0.0
 70
0
  0
VERTEX
  5
350
  8
0
 10
45.708
 20
53.524
 30
0.0
 70
0
  0
VERTEX
  5
351
  8
0
 10
45.576
 20
53.656
 30
0.0
 70
0
  0
VERTEX
  5
352
  8
0
 10
45.447
 20
53.785
 30
0.0
 70
0
  0
VERTEX
  5
353
  8
0
 10
45.251
 20
53.917
 30
0.0
 70
0
  0
VERTEX
  5
354
  8
0
 10
45.055
 20
54.047
 30
0.0
 70
0
  0
VERTEX
  5
355
  8
0
 10
44.924
 20
54.242
 30
0.0
 70
0
  0
VERTEX
  5
356
  8
0
 10
44.729
 20
54.308
 30
0.0
 70
0
  0
VERTEX
  5
357
  8
0
 10
44.533
 20
54.503
 30
0.0
 70
0
  0
VERTEX
  5
358
  8
0
 10
44.338
 20
54.699
 30
0.0
 70
0
  0
VERTEX
  5
359
  8
0
 10
44.143
 20
54.831
 30
0.0
 70
0
  0
VERTEX
  5
35A
  8
0
 10
43.944
 20
55.026
 30
0.0
 70
0
  0
VERTEX
  5
35B
  8
0
 10
43.749
 20
55.156
 30
0.0
 70
0
  0
VERTEX
  5
35C
  8
0
 10
43.62
 20
55.287
 30
0.0
 70
0
  0
VERTEX
  5
35D
  8
0
 10
43.488
 20
55.483
 30
0.0
 70
0
  0
VERTEX
  5
35E
  8
0
 10
43.293
 20
55.612
 30
0.0
 70
0
  0
VERTEX
  5
35F
  8
0
 10
43.163
 20
55.744
 30
0.0
 70
0
  0
VERTEX
  5
360
  8
0
 10
43.032
 20
55.874
 30
0.0
 70
0
  0
VERTEX
  5
361
  8
0
 10
42.901
 20
56.005
 30
0.0
 70
0
  0
VERTEX
  5
362
  8
0
 10
42.706
 20
56.135
 30
0.0
 70
0
  0
VERTEX
  5
363
  8
0
 10
42.575
 20
56.264
 30
0.0
 70
0
  0
SEQEND
  5
338
  8
0
  0
POLYLINE
  5
364
  8
0
 66
1
 10
0.0
 20
0.0
 30
0.0
 70
0
  0
VERTEX
  5
366
  8
0
 10
49.557
 20
55.026
 30
0.0
 70
0
  0
VERTEX
  5
367
  8
0
 10
49.623
 20
55.026
 30
0.0
 70
0
  0
VERTEX
  5
368
  8
0
 10
49.689
 20
55.026
 30
0.0
 70
0
  0
SEQEND
  5
365
  8
0
  0
POLYLINE
  5
369
  8
0
 66
1
 10
0.0
 20
0.0
 30
0.0
 70
0
  0
VERTEX
  5
36B
  8
0
 10
0.979
 20
51.111
 30
0.0
 70
0
  0
VERTEX
  5
36C
  8
0
 10
1.043
 20
51.111
 30
0.0
 70
0
  0
VERTEX
  5
36D
  8
0
 10
1.109
 20
51.111
 30
0.0
 70
0
  0
VERTEX
  5
36E
  8
0
 10
1.174
 20
51.111
 30
0.0
 70
0
  0
VERTEX
  5
36F
  8
0
 10
1.238
 20
51.111
 30
0.0
 70
0
  0
VERTEX
  5
370
  8
0
 10
1.304
 20
51.111
 30
0.0
 70
0
  0
VERTEX
  5
371
  8
0
 10
1.304
 20
51.175
 30
0.0
 70
0
  0
SEQEND
  5
36A
  8
0
  0
POLYLINE
  5
372
  8
0
 66
1
 10
0.0
 20
0.0
 30
0.0
 70
0
  0
VERTEX
  5
374
  8
0
 10
35.397
 20
60.377
 30
0.0
 70
0
  0
VERTEX
  5
375
  8
0
 10
35.463
 20
60.377
 30
0.0
 70
0
  0
VERTEX
  5
376
  8
0
 10
35.529
 20
60.377
 30
0.0
 70
0
  0
SEQEND
  5
373
  8
0
  0
POLYLINE
  5
377
  8
0
 66
1
 10
0.0
 20
0.0
 30
0.0
 70
0
  0
VERTEX
  5
379
  8
0
 10
1.892
 20
51.306
 30
0.0
 70
0
  0
VERTEX
  5
37A
  8
0
 10
1.827
 20
51.306
 30
0.0
 70
0
  0
VERTEX
  5
37B
  8
0
 10
1.827
 20
51.241
 30
0.0
 70
0
  0
SEQEND
  5
378
  8
0
  0
POLYLINE
  5
37C
  8
0
 66
1
 10
0.0
 20
0.0
 30
0.0
 70
0
  0
VERTEX
  5
37E
  8
0
 10
1.892
 20
51.306
 30
0.0
 70
0
  0
VERTEX
  5
37F
  8
0
 10
1.893
 20
51.306
 30
0.0
 70
0
  0
VERTEX
  5
380
  8
0
 10
1.894
 20
51.307
 30
0.0
 70
0
  0
VERTEX
  5
381
  8
0
 10
1.895
 20
51.307
 30
0.0
 70
0
  0
VERTEX
  5
382
  8
0
 10
1.897
 20
51.307
 30
0.0
 70
0
  0
VERTEX
  5
383
  8
0
 10
1.898
 20
51.307
 30
0.0
 70
0
  0
VERTEX
  5
384
  8
0
 10
1.9
 20
51.307
 30
0.0
 70
0
  0
VERTEX
  5
385
  8
0
 10
1.902
 20
51.308
 30
0.0
 70
0
  0
VERTEX
  5
386
  8
0
 10
1.904
 20
51.308
 30
0.0
 70
0
  0
VERTEX
  5
387
  8
0
 10
1.907
 20
51.308
 30
0.0
 70
0
  0
VERTEX
  5
388
  8
0
 10
1.909
 20
51.308
 30
0.0
 70
0
  0
VERTEX
  5
389
  8
0
 10
1.912
 20
51.309
 30
0.0
 70
0
  0
VERTEX
  5
38A
  8
0
 10
1.915
 20
51.309
 30
0.0
 70
0
  0
VERTEX
  5
38B
  8
0
 10
1.918
 20
51.31
 30
0.0
 70
0
  0
VERTEX
  5
38C
  8
0
 10
1.922
 20
51.31
 30
0.0
 70
0
  0
VERTEX
  5
38D
  8
0
 10
1.925
 20
51.31
 30
0.0
 70
0
  0
VERTEX
  5
38E
  8
0
 10
1.929
 20
51.311
 30
0.0
 70
0
  0
VERTEX
  5
38F
  8
0
 10
1.933
 20
51.311
 30
0.0
 70
0
  0
VERTEX
  5
390
  8
0
 10
1.937
 20
51.312
 30
0.0
 70
0
  0
VERTEX
  5
391
  8
0
 10
1.941
 20
51.312
 30
0.0
 70
0
  0
VERTEX
  5
392
  8
0
 10
1.945
 20
51.313
 30
0.0
 70
0
  0
VERTEX
  5
393
  8
0
 10
1.95
 20
51.313
 30
0.0
 70
0
  0
VERTEX
  5
394
  8
0
 10
1.954
 20
51.314
 30
0.0
 70
0
  0
VERTEX
  5
395
  8
0
 10
1.959
 20
51.315
 30
0.0
 70
0
  0
VERTEX
  5
396
  8
0
 10
1.964
 20
51.315
 30
0.0
 70
0
  0
VERTEX
  5
397
  8
0
 10
1.969
 20
51.316
 30
0.0
 70
0
  0
VERTEX
  5
398
  8
0
 10
1.974
 20
51.317
 30
0.0
 70
0
  0
VERTEX
  5
399
  8
0
 10
1.98
 20
51.317
 30
0.0
 70
0
  0
VERTEX
  5
39A
  8
0
 10
1.985
 20
51.318
 30
0.0
 70
0
  0
VERTEX
  5
39B
  8
0
 10
1.991
 20
51.319
 30
0.0
 70
0
  0
VERTEX
  5
39C
  8
0
 10
1.996
 20
51.319
 30
0.0
 70
0
  0
VERTEX
  5
39D
  8
0
 10
2.002
 20
51.32
 30
0.0
 70
0
  0
VERTEX
  5
39E
  8
0
 10
2.008
 20
51.321
 30
0.0
 70
0
  0
VERTEX
  5
39F
  8
0
 10
2.014
 20
51.321
 30
0.0
 70
0
  0
VERTEX
  5
3A0
  8
0
 10
2.02
 20
51.322
 30
0.0
 70
0
  0
VERTEX
  5
3A1
  8
0
 10
2.026
 20
51.323
 30
0.0
 70
0
  0
VERTEX
  5
3A2
  8
0
 10
2.033
 20
51.324
 30
0.0
 70
0
  0
VERTEX
  5
3A3
  8
0
 10
2.039
 20
51.324
 30
0.0
 70
0
  0
VERTEX
  5
3A4
  8
0
 10
2.045
 20
51.325
 30
0.0
 70
0
  0
VERTEX
  5
3A5
  8
0
 10
2.052
 20
51.326
 30
0.0
 70
0
  0
VERTEX
  5
3A6
  8
0
 10
2.058
 20
51.327
 30
0.0
 70
0
  0
VERTEX
  5
3A7
  8
0
 10
2.065
 20
51.328
 30
0.0
 70
0
  0
VERTEX
  5
3A8
  8
0
 10
2.072
 20
51.328
 30
0.0
 70
0
  0
VERTEX
  5
3A9
  8
0
 10
2.078
 20
51.329
 30
0.0
 70
0
  0
VERTEX
  5
3AA
  8
0
 10
2.085
 20
51.33
 30
0.0
 70
0
  0
VERTEX
  5
3AB
  8
0
 10
2.092
 20
51.331
 30
0.0
 70
0
  0
VERTEX
  5
3AC
  8
0
 10
2.099
 20
51.332
 30
0.0
 70
0
  0
VERTEX
  5
3AD
  8
0
 10
2.106
 20
51.333
 30
0.0
 70
0
  0
VERTEX
  5
3AE
  8
0
 10
2.113
 20
51.333
 30
0.0
 70
0
  0
VERTEX
  5
3AF
  8
0
 10
2.119
 20
51.334
 30
0.0
 70
0
  0
VERTEX
  5
3B0
  8
0
 10
2.126
 20
51.335
 30
0.0
 70
0
  0
VERTEX
  5
3B1
  8
0
 10
2.133
 20
51.336
 30
0.0
 70
0
  0
VERTEX
  5
3B2
  8
0
 10
2.14
 20
51.337
 30
0.0
 70
0
  0
VERTEX
  5
3B3
  8
0
 10
2.147
 20
51.338
 30
0.0
 70
0
  0
VERTEX
  5
3B4
  8
0
 10
2.154
 20
51.339
 30
0.0
 70
0
  0
VERTEX
  5
3B5
  8
0
 10
2.161
 20
51.339
 30
0.0
 70
0
  0
VERTEX
  5
3B6
  8
0
 10
2.168
 20
51.34
 30
0.0
 70
0
  0
VERTEX
  5
3B7
  8
0
 10
2.175
 20
51.341
 30
0.0
 70
0
  0
VERTEX
  5
3B8
  8
0
 10
2.182
 20
51.342
 30
0.0
 70
0
  0
VERTEX
  5
3B9
  8
0
 10
2.189
 20
51.343
 30
0.0
 70
0
  0
VERTEX
  5
3BA
  8
0
 10
2.196
 20
51.344
 30
0.0
 70
0
  0
VERTEX
  5
3BB
  8
0
 10
2.203
 20
51.344
 30
0.0
 70
0
  0
VERTEX
  5
3BC
  8
0
 10
2.21
 20
51.345
 30
0.0
 70
0
  0
VERTEX
  5
3BD
  8
0
 10
2.217
 20
51.346
 30
0.0
 70
0
  0
VERTEX
  5
3BE
  8
0
 10
2.224
 20
51.347
 30
0.0
 70
0
  0
VERTEX
  5
3BF
  8
0
 10
2.23
 20
51.348
 30
0.0
 70
0
  0
VERTEX
  5
3C0
  8
0
 10
2.237
 20
51.349
 30
0.0
 70
0
  0
VERTEX
  5
3C1
  8
0
 10
2.244
 20
51.349
 30
0.0
 70
0
  0
VERTEX
  5
3C2
  8
0
 10
2.25
 20
51.35
 30
0.0
 70
0
  0
VERTEX
  5
3C3
  8
0
 10
2.257
 20
51.351
 30
0.0
 70
0
  0
VERTEX
  5
3C4
  8
0
 10
2.263
 20
51.352
 30
0.0
 70
0
  0
VERTEX
  5
3C5
  8
0
 10
2.27
 20
51.353
 30
0.0
 70
0
  0
VERTEX
  5
3C6
  8
0
 10
2.276
 20
51.353
 30
0.0
 70
0
  0
VERTEX
  5
3C7
  8
0
 10
2.282
 20
51.354
 30
0.0
 70
0
  0
VERTEX
  5
3C8
  8
0
 10
2.288
 20
51.355
 30
0.0
 70
0
  0
VERTEX
  5
3C9
  8
0
 10
2.294
 20
51.356
 30
0.0
 70
0
  0
VERTEX
  5
3CA
  8
0
 10
2.3
 20
51.356
 30
0.0
 70
0
  0
VERTEX
  5
3CB
  8
0
 10
2.306
 20
51.357
 30
0.0
 70
0
  0
VERTEX
  5
3CC
  8
0
 10
2.312
 20
51.358
 30
0.0
 70
0
  0
VERTEX
  5
3CD
  8
0
 10
2.317
 20
51.358
 30
0.0
 70
0
  0
VERTEX
  5
3CE
  8
0
 10
2.323
 20
51.359
 30
0.0
 70
0
  0
VERTEX
  5
3CF
  8
0
 10
2.328
 20
51.36
 30
0.0
 70
0
  0
VERTEX
  5
3D0
  8
0
 10
2.334
 20
51.36
 30
0.0
 70
0
  0
VERTEX
  5
3D1
  8
0
 10
2.339
 20
51.361
 30
0.0
 70
0
  0
VERTEX
  5
3D2
  8
0
 10
2.344
 20
51.362
 30
0.0
 70
0
  0
VERTEX
  5
3D3
  8
0
 10
2.349
 20
51.362
 30
0.0
 70
0
  0
VERTEX
  5
3D4
  8
0
 10
2.353
 20
51.363
 30
0.0
 70
0
  0
VERTEX
  5
3D5
  8
0
 10
2.358
 20
51.363
 30
0.0
 70
0
  0
VERTEX
  5
3D6
  8
0
 10
2.362
 20
51.364
 30
0.0
 70
0
  0
VERTEX
  5
3D7
  8
0
 10
2.367
 20
51.364
 30
0.0
 70
0
  0
VERTEX
  5
3D8
  8
0
 10
2.371
 20
51.365
 30
0.0
 70
0
  0
VERTEX
  5
3D9
  8
0
 10
2.375
 20
51.366
 30
0.0
 70
0
  0
VERTEX
  5
3DA
  8
0
 10
2.378
 20
51.366
 30
0.0
 70
0
  0
VERTEX
  5
3DB
  8
0
 10
2.382
 20
51.366
 30
0.0
 70
0
  0
VERTEX
  5
3DC
  8
0
 10
2.386
 20
51.367
 30
0.0
 70
0
  0
VERTEX
  5
3DD
  8
0
 10
2.389
 20
51.367
 30
0.0
 70
0
  0
VERTEX
  5
3DE
  8
0
 10
2.392
 20
51.368
 30
0.0
 70
0
  0
VERTEX
  5
3DF
  8
0
 10
2.395
 20
51.368
 30
0.0
 70
0
  0
VERTEX
  5
3E0
  8
0
 10
2.397
 20
51.368
 30
0.0
 70
0
  0
VERTEX
  5
3E1
  8
0
 10
2.4
 20
51.369
 30
0.0
 70
0
  0
VERTEX
  5
3E2
  8
0
 10
2.402
 20
51.369
 30
0.0
 70
0
  0
VERTEX
  5
3E3
  8
0
 10
2.404
 20
51.369
 30
0.0
 70
0
  0
VERTEX
  5
3E4
  8
0
 10
2.406
 20
51.369
 30
0.0
 70
0
  0
VERTEX
  5
3E5
  8
0
 10
2.408
 20
51.37
 30
0.0
 70
0
  0
VERTEX
  5
3E6
  8
0
 10
2.409
 20
51.37
 30
0.0
 70
0
  0
VERTEX
  5
3E7
  8
0
 10
2.41
 20
51.37
 30
0.0
 70
0
  0
VERTEX
  5
3E8
  8
0
 10
2.411
 20
51.37
 30
0.0
 70
0
  0
VERTEX
  5
3E9
  8
0
 10
2.412
 20
51.37
 30
0.0
 70
0
  0
VERTEX
  5
3EA
  8
0
 10
2.413
 20
51.37
 30
0.0
 70
0
  0
VERTEX
  5
3EB
  8
0
 10
2.412
 20
51.37
 30
0.0
 70
0
  0
VERTEX
  5
3EC
  8
0
 10
2.411
 20
51.37
 30
0.0
 70
0
  0
VERTEX
  5
3ED
  8
0
 10
2.41
 20
51.37
 30
0.0
 70
0
  0
VERTEX
  5
3EE
  8
0
 10
2.409
 20
51.37
 30
0.0
 70
0
  0
VERTEX
  5
3EF
  8
0
 10
2.408
 20
51.37
 30
0.0
 70
0
  0
VERTEX
  5
3F0
  8
0
 10
2.406
 20
51.369
 30
0.0
 70
0
  0
VERTEX
  5
3F1
  8
0
 10
2.404
 20
51.369
 30
0.0
 70
0
  0
VERTEX
  5
3F2
  8
0
 10
2.402
 20
51.369
 30
0.0
 70
0
  0
VERTEX
  5
3F3
  8
0
 10
2.4
 20
51.369
 30
0.0
 70
0
  0
VERTEX
  5
3F4
  8
0
 10
2.397
 20
51.368
 30
0.0
 70
0
  0
VERTEX
  5
3F5
  8
0
 10
2.395
 20
51.368
 30
0.0
 70
0
  0
VERTEX
  5
3F6
  8
0
 10
2.392
 20
51.368
 30
0.0
 70
0
  0
VERTEX
  5
3F7
  8
0
 10
2.389
 20
51.367
 30
0.0
 70
0
  0
VERTEX
  5
3F8
  8
0
 10
2.386
 20
51.367
 30
0.0
 70
0
  0
VERTEX
  5
3F9
  8
0
 10
2.382
 20
51.366
 30
0.0
 70
0
  0
VERTEX
  5
3FA
  8
0
 10
2.378
 20
51.366
 30
0.0
 70
0
  0
VERTEX
  5
3FB
  8
0
 10
2.375
 20
51.366
 30
0.0
 70
0
  0
VERTEX
  5
3FC
  8
0
 10
2.371
 20
51.365
 30
0.0
 70
0
  0
VERTEX
  5
3FD
  8
0
 10
2.367
 20
51.364
 30
0.0
 70
0
  0
VERTEX
  5
3FE
  8
0
 10
2.362
 20
51.364
 30
0.0
 70
0
  0
VERTEX
  5
3FF
  8
0
 10
2.358
 20
51.363
 30
0.0
 70
0
  0
VERTEX
  5
400
  8
0
 10
2.353
 20
51.363
 30
0.0
 70
0
  0
VERTEX
  5
401
  8
0
 10
2.349
 20
51.362
 30
0.0
 70
0
  0
VERTEX
  5
402
  8
0
 10
2.344
 20
51.362
 30
0.0
 70
0
  0
VERTEX
  5
403
  8
0
 10
2.339
 20
51.361
 30
0.0
 70
0
  0
VERTEX
  5
404
  8
0
 10
2.334
 20
51.36
 30
0.0
 70
0
  0
VERTEX
  5
405
  8
0
 10
2.328
 20
51.36
 30
0.0
 70
0
  0
VERTEX
  5
406
  8
0
 10
2.323
 20
51.359
 30
0.0
 70
0
  0
VERTEX
  5
407
  8
0
 10
2.317
 20
51.358
 30
0.0
 70
0
  0
VERTEX
  5
408
  8
0
 10
2.312
 20
51.358
 30
0.0
 70
0
  0
VERTEX
  5
409
  8
0
 10
2.306
 20
51.357
 30
0.0
 70
0
  0
VERTEX
  5
40A
  8
0
 10
2.3
 20
51.356
 30
0.0
 70
0
  0
VERTEX
  5
40B
  8
0
 10
2.294
 20
51.356
 30
0.0
 70
0
  0
VERTEX
  5
40C
  8
0
 10
2.288
 20
51.355
 30
0.0
 70
0
  0
VERTEX
  5
40D
  8
0
 10
2.282
 20
51.354
 30
0.0
 70
0
  0
VERTEX
  5
40E
  8
0
 10
2.276
 20
51.353
 30
0.0
 70
0
  0
VERTEX
  5
40F
  8
0
 10
2.27
 20
51.353
 30
0.0
 70
0
  0
VERTEX
  5
410
  8
0
 10
2.263
 20
51.352
 30
0.0
 70
0
  0
VERTEX
  5
411
  8
0
 10
2.257
 20
51.351
 30
0.0
 70
0
  0
VERTEX
  5
412
  8
0
 10
2.25
 20
51.35
 30
0.0
 70
0
  0
VERTEX
  5
413
  8
0
 10
2.244
 20
51.349
 30
0.0
 70
0
  0
VERTEX
  5
414
  8
0
 10
2.237
 20
51.349
 30
0.0
 70
0
  0
VERTEX
  5
415
  8
0
 10
2.23
 20
51.348
 30
0.0
 70
0
  0
VERTEX
  5
416
  8
0
 10
2.224
 20
51.347
 30
0.0
 70
0
  0
VERTEX
  5
417
  8
0
 10
2.217
 20
51.346
 30
0.0
 70
0
  0
VERTEX
  5
418
  8
0
 10
2.21
 20
51.345
 30
0.0
 70
0
  0
VERTEX
  5
419
  8
0
 10
2.203
 20
51.344
 30
0.0
 70
0
  0
VERTEX
  5
41A
  8
0
 10
2.196
 20
51.344
 30
0.0
 70
0
  0
VERTEX
  5
41B
  8
0
 10
2.189
 20
51.343
 30
0.0
 70
0
  0
VERTEX
  5
41C
  8
0
 10
2.182
 20
51.342
 30
0.0
 70
0
  0
VERTEX
  5
41D
  8
0
 10
2.175
 20
51.341
 30
0.0
 70
0
  0
VERTEX
  5
41E
  8
0
 10
2.168
 20
51.34
 30
0.0
 70
0
  0
VERTEX
  5
41F
  8
0
 10
2.161
 20
51.339
 30
0.0
 70
0
  0
VERTEX
  5
420
  8
0
 10
2.154
 20
51.339
 30
0.0
 70
0
  0
VERTEX
  5
421
  8
0
 10
2.147
 20
51.338
 30
0.0
 70
0
  0
VERTEX
  5
422
  8
0
 10
2.14
 20
51.337
 30
0.0
 70
0
  0
VERTEX
  5
423
  8
0
 10
2.133
 20
51.336
 30
0.0
 70
0
  0
VERTEX
  5
424
  8
0
 10
2.126
 20
51.335
 30
0.0
 70
0
  0
VERTEX
  5
425
  8
0
 10
2.119
 20
51.334
 30
0.0
 70
0
  0
VERTEX
  5
426
  8
0
 10
2.113
 20
51.333
 30
0.0
 70
0
  0
VERTEX
  5
427
  8
0
 10
2.106
 20
51.333
 30
0.0
 70
0
  0
VERTEX
  5
428
  8
0
 10
2.099
 20
51.332
 30
0.0
 70
0
  0
VERTEX
  5
429
  8
0
 10
2.092
 20
51.331
 30
0.0
 70
0
  0
VERTEX
  5
42A
  8
0
 10
2.085
 20
51.33
 30
0.0
 70
0
  0
VERTEX
  5
42B
  8
0
 10
2.078
 20
51.329
 30
0.0
 70
0
  0
VERTEX
  5
42C
  8
0
 10
2.072
 20
51.328
 30
0.0
 70
0
  0
VERTEX
  5
42D
  8
0
 10
2.065
 20
51.328
 30
0.0
 70
0
  0
VERTEX
  5
42E
  8
0
 10
2.058
 20
51.327
 30
0.0
 70
0
  0
VERTEX
  5
42F
  8
0
 10
2.052
 20
51.326
 30
0.0
 70
0
  0
VERTEX
  5
430
  8
0
 10
2.045
 20
51.325
 30
0.0
 70
0
  0
VERTEX
  5
431
  8
0
 10
2.039
 20
51.324
 30
0.0
 70
0
  0
VERTEX
  5
432
  8
0
 10
2.033
 20
51.324
 30
0.0
 70
0
  0
VERTEX
  5
433
  8
0
 10
2.026
 20
51.323
 30
0.0
 70
0
  0
VERTEX
  5
434
  8
0
 10
2.02
 20
51.322
 30
0.0
 70
0
  0
VERTEX
  5
435
  8
0
 10
2.014
 20
51.321
 30
0.0
 70
0
  0
VERTEX
  5
436
  8
0
 10
2.008
 20
51.321
 30
0.0
 70
0
  0
VERTEX
  5
437
  8
0
 10
2.002
 20
51.32
 30
0.0
 70
0
  0
VERTEX
  5
438
  8
0
 10
1.996
 20
51.319
 30
0.0
 70
0
  0
VERTEX
  5
439
  8
0
 10
1.991
 20
51.319
 30
0.0
 70
0
  0
VERTEX
  5
43A
  8
0
 10
1.985
 20
51.318
 30
0.0
 70
0
  0
VERTEX
  5
43B
  8
0
 10
1.98
 20
51.317
 30
0.0
 70
0
  0
VERTEX
  5
43C
  8
0
 10
1.974
 20
51.317
 30
0.0
 70
0
  0
VERTEX
  5
43D
  8
0
 10
1.969
 20
51.316
 30
0.0
 70
0
  0
VERTEX
  5
43E
  8
0
 10
1.964
 20
51.315
 30
0.0
 70
0
  0
VERTEX
  5
43F
  8
0
 10
1.959
 20
51.315
 30
0.0
 70
0
  0
VERTEX
  5
440
  8
0
 10
1.954
 20
51.314
 30
0.0
 70
0
  0
VERTEX
  5
441
  8
0
 10
1.95
 20
51.313
 30
0.0
 70
0
  0
VERTEX
  5
442
  8
0
 10
1.945
 20
51.313
 30
0.0
 70
0
  0
VERTEX
  5
443
  8
0
 10
1.941
 20
51.312
 30
0.0
 70
0
  0
VERTEX
  5
444
  8
0
 10
1.937
 20
51.312
 30
0.0
 70
0
  0
VERTEX
  5
445
  8
0
 10
1.933
 20
51.311
 30
0.0
 70
0
  0
VERTEX
  5
446
  8
0
 10
1.929
 20
51.311
 30
0.0
 70
0
  0
VERTEX
  5
447
  8
0
 10
1.925
 20
51.31
 30
0.0
 70
0
  0
VERTEX
  5
448
  8
0
 10
1.922
 20
51.31
 30
0.0
 70
0
  0
VERTEX
  5
449
  8
0
 10
1.918
 20
51.31
 30
0.0
 70
0
  0
VERTEX
  5
44A
  8
0
 10
1.915
 20
51.309
 30
0.0
 70
0
  0
VERTEX
  5
44B
  8
0
 10
1.912
 20
51.309
 30
0.0
 70
0
  0
VERTEX
  5
44C
  8
0
 10
1.909
 20
51.308
 30
0.0
 70
0
  0
VERTEX
  5
44D
  8
0
 10
1.907
 20
51.308
 30
0.0
 70
0
  0
VERTEX
  5
44E
  8
0
 10
1.904
 20
51.308
 30
0.0
 70
0
  0
VERTEX
  5
44F
  8
0
 10
1.902
 20
51.308
 30
0.0
 70
0
  0
VERTEX
  5
450
  8
0
 10
1.9
 20
51.307
 30
0.0
 70
0
  0
VERTEX
  5
451
  8
0
 10
1.898
 20
51.307
 30
0.0
 70
0
  0
VERTEX
  5
452
  8
0
 10
1.897
 20
51.307
 30
0.0
 70
0
  0
VERTEX
  5
453
  8
0
 10
1.895
 20
51.307
 30
0.0
 70
0
  0
VERTEX
  5
454
  8
0
 10
1.894
 20
51.307
 30
0.0
 70
0
  0
VERTEX
  5
455
  8
0
 10
1.893
 20
51.306
 30
0.0
 70
0
  0
VERTEX
  5
456
  8
0
 10
1.892
 20
51.306
 30
0.0
 70
0
  0
SEQEND
  5
37D
  8
0
  0
POLYLINE
  5
457
  8
0
 66
1
 10
0.0
 20
0.0
 30
0.0
 70
0
  0
VERTEX
  5
459
  8
0
 10
1.304
 20
51.175
 30
0.0
 70
0
  0
VERTEX
  5
45A
  8
0
 10
1.37
 20
51.175
 30
0.0
 70
0
  0
VERTEX
  5
45B
  8
0
 10
1.436
 20
51.175
 30
0.0
 70
0
  0
VERTEX
  5
45C
  8
0
 10
1.499
 20
51.175
 30
0.0
 70
0
  0
SEQEND
  5
458
  8
0
  0
POLYLINE
  5
45D
  8
0
 66
1
 10
0.0
 20
0.0
 30
0.0
 70
0
  0
VERTEX
  5
45F
  8
0
 10
35.853
 20
58.418
 30
0.0
 70
0
  0
VERTEX
  5
460
  8
0
 10
35.787
 20
58.418
 30
0.0
 70
0
  0
VERTEX
  5
461
  8
0
 10
35.724
 20
58.418
 30
0.0
 70
0
  0
VERTEX
  5
462
  8
0
 10
35.658
 20
58.418
 30
0.0
 70
0
  0
SEQEND
  5
45E
  8
0
  0
POLYLINE
  5
463
  8
0
 66
1
 10
0.0
 20
0.0
 30
0.0
 70
0
  0
VERTEX
  5
465
  8
0
 10
35.463
 20
60.116
 30
0.0
 70
0
  0
VERTEX
  5
466
  8
0
 10
35.529
 20
60.116
 30
0.0
 70
0
  0
VERTEX
  5
467
  8
0
 10
35.529
 20
60.181
 30
0.0
 70
0
  0
VERTEX
  5
468
  8
0
 10
35.463
 20
60.181
 30
0.0
 70
0
  0
VERTEX
  5
469
  8
0
 10
35.463
 20
60.116
 30
0.0
 70
0
  0
SEQEND
  5
464
  8
0
  0
POLYLINE
  5
46A
  8
0
 66
1
 10
0.0
 20
0.0
 30
0.0
 70
0
  0
VERTEX
  5
46C
  8
0
 10
36.181
 20
60.572
 30
0.0
 70
0
  0
VERTEX
  5
46D
  8
0
 10
36.115
 20
60.572
 30
0.0
 70
0
  0
VERTEX
  5
46E
  8
0
 10
36.115
 20
60.506
 30
0.0
 70
0
  0
SEQEND
  5
46B
  8
0
  0
POLYLINE
  5
46F
  8
0
 66
1
 10
0.0
 20
0.0
 30
0.0
 70
0
  0
VERTEX
  5
471
  8
0
 10
36.181
 20
60.899
 30
0.0
 70
0
  0
VERTEX
  5
472
  8
0
 10
36.115
 20
60.899
 30
0.0
 70
0
  0
VERTEX
  5
473
  8
0
 10
36.115
 20
60.834
 30
0.0
 70
0
  0
SEQEND
  5
470
  8
0
  0
POLYLINE
  5
474
  8
0
 66
1
 10
0.0
 20
0.0
 30
0.0
 70
0
  0
VERTEX
  5
476
  8
0
 10
36.181
 20
59.202
 30
0.0
 70
0
  0
VERTEX
  5
477
  8
0
 10
36.244
 20
59.202
 30
0.0
 70
0
  0
VERTEX
  5
478
  8
0
 10
36.31
 20
59.202
 30
0.0
 70
0
  0
SEQEND
  5
475
  8
0
  0
POLYLINE
  5
479
  8
0
 66
1
 10
0.0
 20
0.0
 30
0.0
 70
0
  0
VERTEX
  5
47B
  8
0
 10
36.442
 20
59.136
 30
0.0
 70
0
  0
VERTEX
  5
47C
  8
0
 10
36.376
 20
59.136
 30
0.0
 70
0
  0
VERTEX
  5
47D
  8
0
 10
36.31
 20
59.071
 30
0.0
 70
0
  0
VERTEX
  5
47E
  8
0
 10
36.244
 20
59.071
 30
0.0
 70
0
  0
VERTEX
  5
47F
  8
0
 10
36.181
 20
59.071
 30
0.0
 70
0
  0
SEQEND
  5
47A
  8
0
  0
POLYLINE
  5
480
  8
0
 66
1
 10
0.0
 20
0.0
 30
0.0
 70
0
  0
VERTEX
  5
482
  8
0
 10
35.985
 20
59.136
 30
0.0
 70
0
  0
VERTEX
  5
483
  8
0
 10
35.919
 20
59.136
 30
0.0
 70
0
  0
VERTEX
  5
484
  8
0
 10
35.919
 20
59.071
 30
0.0
 70
0
  0
VERTEX
  5
485
  8
0
 10
35.853
 20
59.071
 30
0.0
 70
0
  0
VERTEX
  5
486
  8
0
 10
35.724
 20
59.071
 30
0.0
 70
0
  0
SEQEND
  5
481
  8
0
  0
POLYLINE
  5
487
  8
0
 66
1
 10
0.0
 20
0.0
 30
0.0
 70
0
  0
VERTEX
  5
489
  8
0
 10
36.767
 20
58.941
 30
0.0
 70
0
  0
VERTEX
  5
48A
  8
0
 10
36.703
 20
58.941
 30
0.0
 70
0
  0
VERTEX
  5
48B
  8
0
 10
36.637
 20
58.941
 30
0.0
 70
0
  0
VERTEX
  5
48C
  8
0
 10
36.572
 20
58.941
 30
0.0
 70
0
  0
VERTEX
  5
48D
  8
0
 10
36.506
 20
59.007
 30
0.0
 70
0
  0
VERTEX
  5
48E
  8
0
 10
36.442
 20
59.007
 30
0.0
 70
0
  0
SEQEND
  5
488
  8
0
  0
POLYLINE
  5
48F
  8
0
 66
1
 10
0.0
 20
0.0
 30
0.0
 70
0
  0
VERTEX
  5
491
  8
0
 10
36.767
 20
59.007
 30
0.0
 70
0
  0
VERTEX
  5
492
  8
0
 10
36.703
 20
59.007
 30
0.0
 70
0
  0
VERTEX
  5
493
  8
0
 10
36.637
 20
59.007
 30
0.0
 70
0
  0
VERTEX
  5
494
  8
0
 10
36.637
 20
59.136
 30
0.0
 70
0
  0
VERTEX
  5
495
  8
0
 10
36.572
 20
59.136
 30
0.0
 70
0
  0
SEQEND
  5
490
  8
0
  0
POLYLINE
  5
496
  8
0
 66
1
 10
0.0
 20
0.0
 30
0.0
 70
0
  0
VERTEX
  5
498
  8
0
 10
36.833
 20
60.377
 30
0.0
 70
0
  0
VERTEX
  5
499
  8
0
 10
36.898
 20
60.377
 30
0.0
 70
0
  0
VERTEX
  5
49A
  8
0
 10
37.028
 20
60.377
 30
0.0
 70
0
  0
VERTEX
  5
49B
  8
0
 10
37.094
 20
60.377
 30
0.0
 70
0
  0
VERTEX
  5
49C
  8
0
 10
37.16
 20
60.311
 30
0.0
 70
0
  0
VERTEX
  5
49D
  8
0
 10
37.224
 20
60.311
 30
0.0
 70
0
  0
VERTEX
  5
49E
  8
0
 10
37.289
 20
60.311
 30
0.0
 70
0
  0
VERTEX
  5
49F
  8
0
 10
37.289
 20
60.181
 30
0.0
 70
0
  0
VERTEX
  5
4A0
  8
0
 10
37.355
 20
60.181
 30
0.0
 70
0
  0
VERTEX
  5
4A1
  8
0
 10
37.419
 20
60.116
 30
0.0
 70
0
  0
VERTEX
  5
4A2
  8
0
 10
37.419
 20
59.986
 30
0.0
 70
0
  0
SEQEND
  5
497
  8
0
  0
POLYLINE
  5
4A3
  8
0
 66
1
 10
0.0
 20
0.0
 30
0.0
 70
0
  0
VERTEX
  5
4A5
  8
0
 10
36.049
 20
59.986
 30
0.0
 70
0
  0
VERTEX
  5
4A6
  8
0
 10
36.833
 20
59.789
 30
0.0
 70
0
  0
VERTEX
  5
4A7
  8
0
 10
36.898
 20
59.725
 30
0.0
 70
0
  0
VERTEX
  5
4A8
  8
0
 10
36.962
 20
59.725
 30
0.0
 70
0
  0
VERTEX
  5
4A9
  8
0
 10
37.028
 20
59.725
 30
0.0
 70
0
  0
VERTEX
  5
4AA
  8
0
 10
37.028
 20
59.593
 30
0.0
 70
0
  0
VERTEX
  5
4AB
  8
0
 10
37.094
 20
59.593
 30
0.0
 70
0
  0
VERTEX
  5
4AC
  8
0
 10
37.094
 20
59.398
 30
0.0
 70
0
  0
VERTEX
  5
4AD
  8
0
 10
37.16
 20
59.398
 30
0.0
 70
0
  0
VERTEX
  5
4AE
  8
0
 10
37.16
 20
59.332
 30
0.0
 70
0
  0
VERTEX
  5
4AF
  8
0
 10
37.094
 20
59.268
 30
0.0
 70
0
  0
VERTEX
  5
4B0
  8
0
 10
37.094
 20
59.071
 30
0.0
 70
0
  0
VERTEX
  5
4B1
  8
0
 10
37.028
 20
59.071
 30
0.0
 70
0
  0
VERTEX
  5
4B2
  8
0
 10
37.028
 20
59.007
 30
0.0
 70
0
  0
VERTEX
  5
4B3
  8
0
 10
36.962
 20
59.007
 30
0.0
 70
0
  0
VERTEX
  5
4B4
  8
0
 10
36.962
 20
58.941
 30
0.0
 70
0
  0
VERTEX
  5
4B5
  8
0
 10
36.898
 20
58.941
 30
0.0
 70
0
  0
VERTEX
  5
4B6
  8
0
 10
36.833
 20
58.941
 30
0.0
 70
0
  0
VERTEX
  5
4B7
  8
0
 10
36.767
 20
58.941
 30
0.0
 70
0
  0
SEQEND
  5
4A4
  8
0
  0
POLYLINE
  5
4B8
  8
0
 66
1
 10
0.0
 20
0.0
 30
0.0
 70
0
  0
VERTEX
  5
4BA
  8
0
 10
36.833
 20
59.659
 30
0.0
 70
0
  0
VERTEX
  5
4BB
  8
0
 10
36.833
 20
59.593
 30
0.0
 70
0
  0
VERTEX
  5
4BC
  8
0
 10
36.898
 20
59.593
 30
0.0
 70
0
  0
VERTEX
  5
4BD
  8
0
 10
36.898
 20
59.527
 30
0.0
 70
0
  0
VERTEX
  5
4BE
  8
0
 10
36.962
 20
59.527
 30
0.0
 70
0
  0
VERTEX
  5
4BF
  8
0
 10
37.028
 20
59.527
 30
0.0
 70
0
  0
VERTEX
  5
4C0
  8
0
 10
37.028
 20
59.202
 30
0.0
 70
0
  0
VERTEX
  5
4C1
  8
0
 10
36.962
 20
59.202
 30
0.0
 70
0
  0
VERTEX
  5
4C2
  8
0
 10
36.962
 20
59.136
 30
0.0
 70
0
  0
VERTEX
  5
4C3
  8
0
 10
36.898
 20
59.136
 30
0.0
 70
0
  0
VERTEX
  5
4C4
  8
0
 10
36.898
 20
59.071
 30
0.0
 70
0
  0
VERTEX
  5
4C5
  8
0
 10
36.833
 20
59.071
 30
0.0
 70
0
  0
VERTEX
  5
4C6
  8
0
 10
36.833
 20
59.007
 30
0.0
 70
0
  0
VERTEX
  5
4C7
  8
0
 10
36.767
 20
59.007
 30
0.0
 70
0
  0
SEQEND
  5
4B9
  8
0
  0
POLYLINE
  5
4C8
  8
0
 66
1
 10
0.0
 20
0.0
 30
0.0
 70
0
  0
VERTEX
  5
4CA
  8
0
 10
36.181
 20
59.071
 30
0.0
 70
0
  0
VERTEX
  5
4CB
  8
0
 10
36.115
 20
59.071
 30
0.0
 70
0
  0
VERTEX
  5
4CC
  8
0
 10
36.049
 20
59.071
 30
0.0
 70
0
  0
VERTEX
  5
4CD
  8
0
 10
36.049
 20
59.136
 30
0.0
 70
0
  0
VERTEX
  5
4CE
  8
0
 10
35.985
 20
59.136
 30
0.0
 70
0
  0
SEQEND
  5
4C9
  8
0
  0
POLYLINE
  5
4CF
  8
0
 66
1
 10
0.0
 20
0.0
 30
0.0
 70
0
  0
VERTEX
  5
4D1
  8
0
 10
42.379
 20
56.201
 30
0.0
 70
0
  0
VERTEX
  5
4D2
  8
0
 10
42.511
 20
56.069
 30
0.0
 70
0
  0
VERTEX
  5
4D3
  8
0
 10
42.575
 20
56.005
 30
0.0
 70
0
  0
VERTEX
  5
4D4
  8
0
 10
42.706
 20
55.874
 30
0.0
 70
0
  0
VERTEX
  5
4D5
  8
0
 10
42.836
 20
55.808
 30
0.0
 70
0
  0
VERTEX
  5
4D6
  8
0
 10
42.967
 20
55.678
 30
0.0
 70
0
  0
VERTEX
  5
4D7
  8
0
 10
43.097
 20
55.549
 30
0.0
 70
0
  0
VERTEX
  5
4D8
  8
0
 10
43.163
 20
55.417
 30
0.0
 70
0
  0
VERTEX
  5
4D9
  8
0
 10
43.358
 20
55.351
 30
0.0
 70
0
  0
VERTEX
  5
4DA
  8
0
 10
43.488
 20
55.221
 30
0.0
 70
0
  0
VERTEX
  5
4DB
  8
0
 10
43.554
 20
55.092
 30
0.0
 70
0
  0
VERTEX
  5
4DC
  8
0
 10
43.749
 20
54.96
 30
0.0
 70
0
  0
VERTEX
  5
4DD
  8
0
 10
43.881
 20
54.831
 30
0.0
 70
0
  0
VERTEX
  5
4DE
  8
0
 10
44.01
 20
54.699
 30
0.0
 70
0
  0
VERTEX
  5
4DF
  8
0
 10
44.143
 20
54.633
 30
0.0
 70
0
  0
VERTEX
  5
4E0
  8
0
 10
44.338
 20
54.438
 30
0.0
 70
0
  0
VERTEX
  5
4E1
  8
0
 10
44.467
 20
54.308
 30
0.0
 70
0
  0
VERTEX
  5
4E2
  8
0
 10
44.663
 20
54.176
 30
0.0
 70
0
  0
VERTEX
  5
4E3
  8
0
 10
44.86
 20
54.047
 30
0.0
 70
0
  0
VERTEX
  5
4E4
  8
0
 10
44.99
 20
53.851
 30
0.0
 70
0
  0
VERTEX
  5
4E5
  8
0
 10
45.186
 20
53.72
 30
0.0
 70
0
  0
VERTEX
  5
4E6
  8
0
 10
45.317
 20
53.59
 30
0.0
 70
0
  0
VERTEX
  5
4E7
  8
0
 10
45.512
 20
53.46
 30
0.0
 70
0
  0
VERTEX
  5
4E8
  8
0
 10
45.642
 20
53.329
 30
0.0
 70
0
  0
VERTEX
  5
4E9
  8
0
 10
45.837
 20
53.263
 30
0.0
 70
0
  0
VERTEX
  5
4EA
  8
0
 10
45.903
 20
53.133
 30
0.0
 70
0
  0
VERTEX
  5
4EB
  8
0
 10
46.099
 20
53.067
 30
0.0
 70
0
  0
VERTEX
  5
4EC
  8
0
 10
46.23
 20
52.938
 30
0.0
 70
0
  0
VERTEX
  5
4ED
  8
0
 10
46.36
 20
52.872
 30
0.0
 70
0
  0
VERTEX
  5
4EE
  8
0
 10
46.492
 20
52.742
 30
0.0
 70
0
  0
VERTEX
  5
4EF
  8
0
 10
46.621
 20
52.677
 30
0.0
 70
0
  0
VERTEX
  5
4F0
  8
0
 10
46.751
 20
52.545
 30
0.0
 70
0
  0
VERTEX
  5
4F1
  8
0
 10
46.883
 20
52.481
 30
0.0
 70
0
  0
VERTEX
  5
4F2
  8
0
 10
47.012
 20
52.481
 30
0.0
 70
0
  0
VERTEX
  5
4F3
  8
0
 10
47.078
 20
52.349
 30
0.0
 70
0
  0
VERTEX
  5
4F4
  8
0
 10
47.207
 20
52.286
 30
0.0
 70
0
  0
VERTEX
  5
4F5
  8
0
 10
47.273
 20
52.286
 30
0.0
 70
0
  0
VERTEX
  5
4F6
  8
0
 10
47.405
 20
52.154
 30
0.0
 70
0
  0
VERTEX
  5
4F7
  8
0
 10
47.535
 20
52.154
 30
0.0
 70
0
  0
VERTEX
  5
4F8
  8
0
 10
47.601
 20
52.088
 30
0.0
 70
0
  0
VERTEX
  5
4F9
  8
0
 10
47.73
 20
52.088
 30
0.0
 70
0
  0
VERTEX
  5
4FA
  8
0
 10
47.796
 20
52.024
 30
0.0
 70
0
  0
VERTEX
  5
4FB
  8
0
 10
47.862
 20
51.959
 30
0.0
 70
0
  0
VERTEX
  5
4FC
  8
0
 10
47.992
 20
51.959
 30
0.0
 70
0
  0
VERTEX
  5
4FD
  8
0
 10
48.057
 20
51.893
 30
0.0
 70
0
  0
VERTEX
  5
4FE
  8
0
 10
48.318
 20
51.893
 30
0.0
 70
0
  0
VERTEX
  5
4FF
  8
0
 10
48.382
 20
51.829
 30
0.0
 70
0
  0
VERTEX
  5
500
  8
0
 10
48.58
 20
51.829
 30
0.0
 70
0
  0
SEQEND
  5
4D0
  8
0
  0
POLYLINE
  5
501
  8
0
 66
1
 10
0.0
 20
0.0
 30
0.0
 70
0
  0
VERTEX
  5
503
  8
0
 10
40.225
 20
58.484
 30
0.0
 70
0
  0
VERTEX
  5
504
  8
0
 10
40.161
 20
58.55
 30
0.0
 70
0
  0
VERTEX
  5
505
  8
0
 10
40.03
 20
58.614
 30
0.0
 70
0
  0
VERTEX
  5
506
  8
0
 10
39.966
 20
58.746
 30
0.0
 70
0
  0
VERTEX
  5
507
  8
0
 10
39.9
 20
58.811
 30
0.0
 70
0
  0
VERTEX
  5
508
  8
0
 10
39.835
 20
58.875
 30
0.0
 70
0
  0
VERTEX
  5
509
  8
0
 10
39.769
 20
58.941
 30
0.0
 70
0
  0
VERTEX
  5
50A
  8
0
 10
39.639
 20
59.007
 30
0.0
 70
0
  0
VERTEX
  5
50B
  8
0
 10
39.573
 20
59.071
 30
0.0
 70
0
  0
VERTEX
  5
50C
  8
0
 10
39.507
 20
59.136
 30
0.0
 70
0
  0
VERTEX
  5
50D
  8
0
 10
39.443
 20
59.202
 30
0.0
 70
0
  0
VERTEX
  5
50E
  8
0
 10
39.378
 20
59.268
 30
0.0
 70
0
  0
VERTEX
  5
50F
  8
0
 10
39.312
 20
59.332
 30
0.0
 70
0
  0
VERTEX
  5
510
  8
0
 10
39.248
 20
59.398
 30
0.0
 70
0
  0
VERTEX
  5
511
  8
0
 10
39.182
 20
59.463
 30
0.0
 70
0
  0
VERTEX
  5
512
  8
0
 10
39.116
 20
59.527
 30
0.0
 70
0
  0
VERTEX
  5
513
  8
0
 10
39.05
 20
59.593
 30
0.0
 70
0
  0
VERTEX
  5
514
  8
0
 10
38.987
 20
59.593
 30
0.0
 70
0
  0
VERTEX
  5
515
  8
0
 10
38.921
 20
59.725
 30
0.0
 70
0
  0
VERTEX
  5
516
  8
0
 10
38.855
 20
59.725
 30
0.0
 70
0
  0
VERTEX
  5
517
  8
0
 10
38.792
 20
59.789
 30
0.0
 70
0
  0
VERTEX
  5
518
  8
0
 10
38.726
 20
59.854
 30
0.0
 70
0
  0
VERTEX
  5
519
  8
0
 10
38.66
 20
59.92
 30
0.0
 70
0
  0
VERTEX
  5
51A
  8
0
 10
38.593
 20
59.986
 30
0.0
 70
0
  0
VERTEX
  5
51B
  8
0
 10
38.53
 20
59.986
 30
0.0
 70
0
  0
VERTEX
  5
51C
  8
0
 10
38.464
 20
60.116
 30
0.0
 70
0
  0
VERTEX
  5
51D
  8
0
 10
38.398
 20
60.116
 30
0.0
 70
0
  0
VERTEX
  5
51E
  8
0
 10
38.398
 20
60.181
 30
0.0
 70
0
  0
VERTEX
  5
51F
  8
0
 10
38.269
 20
60.181
 30
0.0
 70
0
  0
VERTEX
  5
520
  8
0
 10
38.269
 20
60.245
 30
0.0
 70
0
  0
VERTEX
  5
521
  8
0
 10
38.203
 20
60.311
 30
0.0
 70
0
  0
VERTEX
  5
522
  8
0
 10
38.137
 20
60.377
 30
0.0
 70
0
  0
VERTEX
  5
523
  8
0
 10
38.073
 20
60.377
 30
0.0
 70
0
  0
VERTEX
  5
524
  8
0
 10
38.007
 20
60.443
 30
0.0
 70
0
  0
VERTEX
  5
525
  8
0
 10
38.007
 20
60.506
 30
0.0
 70
0
  0
VERTEX
  5
526
  8
0
 10
37.876
 20
60.506
 30
0.0
 70
0
  0
VERTEX
  5
527
  8
0
 10
37.876
 20
60.572
 30
0.0
 70
0
  0
VERTEX
  5
528
  8
0
 10
37.812
 20
60.572
 30
0.0
 70
0
  0
VERTEX
  5
529
  8
0
 10
37.746
 20
60.638
 30
0.0
 70
0
  0
VERTEX
  5
52A
  8
0
 10
37.68
 20
60.702
 30
0.0
 70
0
  0
VERTEX
  5
52B
  8
0
 10
37.617
 20
60.768
 30
0.0
 70
0
  0
VERTEX
  5
52C
  8
0
 10
37.55
 20
60.768
 30
0.0
 70
0
  0
VERTEX
  5
52D
  8
0
 10
37.485
 20
60.834
 30
0.0
 70
0
  0
VERTEX
  5
52E
  8
0
 10
37.485
 20
60.899
 30
0.0
 70
0
  0
VERTEX
  5
52F
  8
0
 10
37.419
 20
60.899
 30
0.0
 70
0
  0
VERTEX
  5
530
  8
0
 10
37.419
 20
60.963
 30
0.0
 70
0
  0
VERTEX
  5
531
  8
0
 10
37.289
 20
60.963
 30
0.0
 70
0
  0
VERTEX
  5
532
  8
0
 10
37.289
 20
61.029
 30
0.0
 70
0
  0
VERTEX
  5
533
  8
0
 10
37.224
 20
61.029
 30
0.0
 70
0
  0
VERTEX
  5
534
  8
0
 10
37.224
 20
61.095
 30
0.0
 70
0
  0
VERTEX
  5
535
  8
0
 10
37.094
 20
61.095
 30
0.0
 70
0
  0
VERTEX
  5
536
  8
0
 10
37.094
 20
61.159
 30
0.0
 70
0
  0
VERTEX
  5
537
  8
0
 10
37.028
 20
61.159
 30
0.0
 70
0
  0
VERTEX
  5
538
  8
0
 10
36.962
 20
61.159
 30
0.0
 70
0
  0
VERTEX
  5
539
  8
0
 10
36.898
 20
61.224
 30
0.0
 70
0
  0
VERTEX
  5
53A
  8
0
 10
36.833
 20
61.224
 30
0.0
 70
0
  0
VERTEX
  5
53B
  8
0
 10
36.767
 20
61.224
 30
0.0
 70
0
  0
VERTEX
  5
53C
  8
0
 10
36.703
 20
61.29
 30
0.0
 70
0
  0
VERTEX
  5
53D
  8
0
 10
36.637
 20
61.29
 30
0.0
 70
0
  0
VERTEX
  5
53E
  8
0
 10
36.637
 20
61.356
 30
0.0
 70
0
  0
VERTEX
  5
53F
  8
0
 10
36.506
 20
61.356
 30
0.0
 70
0
  0
VERTEX
  5
540
  8
0
 10
36.442
 20
61.356
 30
0.0
 70
0
  0
VERTEX
  5
541
  8
0
 10
36.376
 20
61.356
 30
0.0
 70
0
  0
VERTEX
  5
542
  8
0
 10
36.376
 20
61.29
 30
0.0
 70
0
  0
VERTEX
  5
543
  8
0
 10
36.31
 20
61.29
 30
0.0
 70
0
  0
VERTEX
  5
544
  8
0
 10
36.31
 20
61.224
 30
0.0
 70
0
  0
VERTEX
  5
545
  8
0
 10
36.244
 20
61.224
 30
0.0
 70
0
  0
VERTEX
  5
546
  8
0
 10
36.244
 20
61.159
 30
0.0
 70
0
  0
VERTEX
  5
547
  8
0
 10
36.181
 20
61.159
 30
0.0
 70
0
  0
VERTEX
  5
548
  8
0
 10
36.115
 20
61.159
 30
0.0
 70
0
  0
VERTEX
  5
549
  8
0
 10
36.115
 20
60.834
 30
0.0
 70
0
  0
SEQEND
  5
502
  8
0
  0
POLYLINE
  5
54A
  8
0
 66
1
 10
0.0
 20
0.0
 30
0.0
 70
0
  0
VERTEX
  5
54C
  8
0
 10
52.102
 20
58.614
 30
0.0
 70
0
  0
VERTEX
  5
54D
  8
0
 10
52.102
 20
58.55
 30
0.0
 70
0
  0
VERTEX
  5
54E
  8
0
 10
52.3
 20
58.484
 30
0.0
 70
0
  0
SEQEND
  5
54B
  8
0
  0
POLYLINE
  5
54F
  8
0
 66
1
 10
0.0
 20
0.0
 30
0.0
 70
0
  0
VERTEX
  5
551
  8
0
 10
35.853
 20
59.398
 30
0.0
 70
0
  0
VERTEX
  5
552
  8
0
 10
35.853
 20
59.332
 30
0.0
 70
0
  0
VERTEX
  5
553
  8
0
 10
35.919
 20
59.332
 30
0.0
 70
0
  0
VERTEX
  5
554
  8
0
 10
35.919
 20
59.268
 30
0.0
 70
0
  0
VERTEX
  5
555
  8
0
 10
35.985
 20
59.268
 30
0.0
 70
0
  0
VERTEX
  5
556
  8
0
 10
35.985
 20
59.202
 30
0.0
 70
0
  0
VERTEX
  5
557
  8
0
 10
36.049
 20
59.202
 30
0.0
 70
0
  0
VERTEX
  5
558
  8
0
 10
36.115
 20
59.202
 30
0.0
 70
0
  0
VERTEX
  5
559
  8
0
 10
36.181
 20
59.202
 30
0.0
 70
0
  0
SEQEND
  5
550
  8
0
  0
POLYLINE
  5
55A
  8
0
 66
1
 10
0.0
 20
0.0
 30
0.0
 70
0
  0
VERTEX
  5
55C
  8
0
 10
34.94
 20
59.986
 30
0.0
 70
0
  0
VERTEX
  5
55D
  8
0
 10
34.94
 20
60.116
 30
0.0
 70
0
  0
VERTEX
  5
55E
  8
0
 10
35.006
 20
60.116
 30
0.0
 70
0
  0
VERTEX
  5
55F
  8
0
 10
35.006
 20
60.181
 30
0.0
 70
0
  0
VERTEX
  5
560
  8
0
 10
35.072
 20
60.181
 30
0.0
 70
0
  0
VERTEX
  5
561
  8
0
 10
35.072
 20
60.245
 30
0.0
 70
0
  0
VERTEX
  5
562
  8
0
 10
35.135
 20
60.245
 30
0.0
 70
0
  0
VERTEX
  5
563
  8
0
 10
35.135
 20
60.311
 30
0.0
 70
0
  0
VERTEX
  5
564
  8
0
 10
35.201
 20
60.311
 30
0.0
 70
0
  0
VERTEX
  5
565
  8
0
 10
35.267
 20
60.311
 30
0.0
 70
0
  0
SEQEND
  5
55B
  8
0
  0
POLYLINE
  5
566
  8
0
 66
1
 10
0.0
 20
0.0
 30
0.0
 70
0
  0
VERTEX
  5
568
  8
0
 10
52.102
 20
58.484
 30
0.0
 70
0
  0
VERTEX
  5
569
  8
0
 10
52.038
 20
58.55
 30
0.0
 70
0
  0
VERTEX
  5
56A
  8
0
 10
51.972
 20
58.55
 30
0.0
 70
0
  0
VERTEX
  5
56B
  8
0
 10
51.972
 20
58.68
 30
0.0
 70
0
  0
VERTEX
  5
56C
  8
0
 10
51.906
 20
58.746
 30
0.0
 70
0
  0
VERTEX
  5
56D
  8
0
 10
51.906
 20
58.811
 30
0.0
 70
0
  0
SEQEND
  5
567
  8
0
  0
POLYLINE
  5
56E
  8
0
 66
1
 10
0.0
 20
0.0
 30
0.0
 70
0
  0
VERTEX
  5
570
  8
0
 10
36.572
 20
59.398
 30
0.0
 70
0
  0
VERTEX
  5
571
  8
0
 10
36.572
 20
59.527
 30
0.0
 70
0
  0
VERTEX
  5
572
  8
0
 10
36.506
 20
59.527
 30
0.0
 70
0
  0
VERTEX
  5
573
  8
0
 10
36.506
 20
59.593
 30
0.0
 70
0
  0
VERTEX
  5
574
  8
0
 10
36.442
 20
59.593
 30
0.0
 70
0
  0
VERTEX
  5
575
  8
0
 10
36.376
 20
59.593
 30
0.0
 70
0
  0
VERTEX
  5
576
  8
0
 10
36.376
 20
59.659
 30
0.0
 70
0
  0
VERTEX
  5
577
  8
0
 10
36.31
 20
59.659
 30
0.0
 70
0
  0
SEQEND
  5
56F
  8
0
  0
POLYLINE
  5
578
  8
0
 66
1
 10
0.0
 20
0.0
 30
0.0
 70
0
  0
VERTEX
  5
57A
  8
0
 10
36.31
 20
60.834
 30
0.0
 70
0
  0
VERTEX
  5
57B
  8
0
 10
36.31
 20
60.899
 30
0.0
 70
0
  0
VERTEX
  5
57C
  8
0
 10
36.244
 20
60.899
 30
0.0
 70
0
  0
VERTEX
  5
57D
  8
0
 10
36.181
 20
60.899
 30
0.0
 70
0
  0
SEQEND
  5
579
  8
0
  0
POLYLINE
  5
57E
  8
0
 66
1
 10
0.0
 20
0.0
 30
0.0
 70
0
  0
VERTEX
  5
580
  8
0
 10
36.31
 20
60.506
 30
0.0
 70
0
  0
VERTEX
  5
581
  8
0
 10
36.31
 20
60.572
 30
0.0
 70
0
  0
VERTEX
  5
582
  8
0
 10
36.244
 20
60.572
 30
0.0
 70
0
  0
VERTEX
  5
583
  8
0
 10
36.181
 20
60.572
 30
0.0
 70
0
  0
SEQEND
  5
57F
  8
0
  0
POLYLINE
  5
584
  8
0
 66
1
 10
0.0
 20
0.0
 30
0.0
 70
0
  0
VERTEX
  5
586
  8
0
 10
36.31
 20
60.834
 30
0.0
 70
0
  0
VERTEX
  5
587
  8
0
 10
36.31
 20
61.095
 30
0.0
 70
0
  0
VERTEX
  5
588
  8
0
 10
36.376
 20
61.095
 30
0.0
 70
0
  0
VERTEX
  5
589
  8
0
 10
36.442
 20
61.159
 30
0.0
 70
0
  0
VERTEX
  5
58A
  8
0
 10
36.506
 20
61.159
 30
0.0
 70
0
  0
VERTEX
  5
58B
  8
0
 10
36.572
 20
61.159
 30
0.0
 70
0
  0
VERTEX
  5
58C
  8
0
 10
36.637
 20
61.159
 30
0.0
 70
0
  0
VERTEX
  5
58D
  8
0
 10
36.637
 20
61.095
 30
0.0
 70
0
  0
VERTEX
  5
58E
  8
0
 10
36.703
 20
61.095
 30
0.0
 70
0
  0
VERTEX
  5
58F
  8
0
 10
36.767
 20
61.095
 30
0.0
 70
0
  0
VERTEX
  5
590
  8
0
 10
36.833
 20
61.095
 30
0.0
 70
0
  0
VERTEX
  5
591
  8
0
 10
36.833
 20
61.029
 30
0.0
 70
0
  0
VERTEX
  5
592
  8
0
 10
36.898
 20
61.029
 30
0.0
 70
0
  0
VERTEX
  5
593
  8
0
 10
36.898
 20
60.963
 30
0.0
 70
0
  0
VERTEX
  5
594
  8
0
 10
37.028
 20
60.963
 30
0.0
 70
0
  0
VERTEX
  5
595
  8
0
 10
37.028
 20
60.899
 30
0.0
 70
0
  0
VERTEX
  5
596
  8
0
 10
37.094
 20
60.899
 30
0.0
 70
0
  0
VERTEX
  5
597
  8
0
 10
37.16
 20
60.899
 30
0.0
 70
0
  0
VERTEX
  5
598
  8
0
 10
37.224
 20
60.834
 30
0.0
 70
0
  0
VERTEX
  5
599
  8
0
 10
37.224
 20
60.768
 30
0.0
 70
0
  0
VERTEX
  5
59A
  8
0
 10
37.289
 20
60.768
 30
0.0
 70
0
  0
VERTEX
  5
59B
  8
0
 10
37.355
 20
60.702
 30
0.0
 70
0
  0
VERTEX
  5
59C
  8
0
 10
37.419
 20
60.702
 30
0.0
 70
0
  0
VERTEX
  5
59D
  8
0
 10
37.485
 20
60.638
 30
0.0
 70
0
  0
VERTEX
  5
59E
  8
0
 10
37.55
 20
60.572
 30
0.0
 70
0
  0
VERTEX
  5
59F
  8
0
 10
37.617
 20
60.572
 30
0.0
 70
0
  0
VERTEX
  5
5A0
  8
0
 10
37.617
 20
60.506
 30
0.0
 70
0
  0
VERTEX
  5
5A1
  8
0
 10
37.68
 20
60.506
 30
0.0
 70
0
  0
VERTEX
  5
5A2
  8
0
 10
37.746
 20
60.443
 30
0.0
 70
0
  0
VERTEX
  5
5A3
  8
0
 10
37.812
 20
60.377
 30
0.0
 70
0
  0
VERTEX
  5
5A4
  8
0
 10
37.876
 20
60.311
 30
0.0
 70
0
  0
VERTEX
  5
5A5
  8
0
 10
38.007
 20
60.245
 30
0.0
 70
0
  0
VERTEX
  5
5A6
  8
0
 10
38.007
 20
60.181
 30
0.0
 70
0
  0
VERTEX
  5
5A7
  8
0
 10
38.073
 20
60.181
 30
0.0
 70
0
  0
VERTEX
  5
5A8
  8
0
 10
38.073
 20
60.116
 30
0.0
 70
0
  0
VERTEX
  5
5A9
  8
0
 10
38.203
 20
60.116
 30
0.0
 70
0
  0
VERTEX
  5
5AA
  8
0
 10
38.269
 20
60.05
 30
0.0
 70
0
  0
VERTEX
  5
5AB
  8
0
 10
38.269
 20
59.986
 30
0.0
 70
0
  0
VERTEX
  5
5AC
  8
0
 10
38.335
 20
59.92
 30
0.0
 70
0
  0
VERTEX
  5
5AD
  8
0
 10
38.398
 20
59.92
 30
0.0
 70
0
  0
VERTEX
  5
5AE
  8
0
 10
38.398
 20
59.854
 30
0.0
 70
0
  0
VERTEX
  5
5AF
  8
0
 10
38.464
 20
59.789
 30
0.0
 70
0
  0
VERTEX
  5
5B0
  8
0
 10
38.53
 20
59.789
 30
0.0
 70
0
  0
VERTEX
  5
5B1
  8
0
 10
38.593
 20
59.725
 30
0.0
 70
0
  0
VERTEX
  5
5B2
  8
0
 10
38.66
 20
59.659
 30
0.0
 70
0
  0
VERTEX
  5
5B3
  8
0
 10
38.726
 20
59.593
 30
0.0
 70
0
  0
VERTEX
  5
5B4
  8
0
 10
38.792
 20
59.593
 30
0.0
 70
0
  0
VERTEX
  5
5B5
  8
0
 10
38.855
 20
59.527
 30
0.0
 70
0
  0
VERTEX
  5
5B6
  8
0
 10
38.855
 20
59.463
 30
0.0
 70
0
  0
VERTEX
  5
5B7
  8
0
 10
38.921
 20
59.398
 30
0.0
 70
0
  0
VERTEX
  5
5B8
  8
0
 10
38.987
 20
59.398
 30
0.0
 70
0
  0
VERTEX
  5
5B9
  8
0
 10
39.05
 20
59.332
 30
0.0
 70
0
  0
VERTEX
  5
5BA
  8
0
 10
39.116
 20
59.268
 30
0.0
 70
0
  0
VERTEX
  5
5BB
  8
0
 10
39.182
 20
59.202
 30
0.0
 70
0
  0
VERTEX
  5
5BC
  8
0
 10
39.248
 20
59.136
 30
0.0
 70
0
  0
VERTEX
  5
5BD
  8
0
 10
39.312
 20
59.071
 30
0.0
 70
0
  0
VERTEX
  5
5BE
  8
0
 10
39.378
 20
59.007
 30
0.0
 70
0
  0
VERTEX
  5
5BF
  8
0
 10
39.443
 20
58.941
 30
0.0
 70
0
  0
VERTEX
  5
5C0
  8
0
 10
39.507
 20
58.941
 30
0.0
 70
0
  0
VERTEX
  5
5C1
  8
0
 10
39.573
 20
58.811
 30
0.0
 70
0
  0
VERTEX
  5
5C2
  8
0
 10
39.639
 20
58.811
 30
0.0
 70
0
  0
VERTEX
  5
5C3
  8
0
 10
39.639
 20
58.746
 30
0.0
 70
0
  0
VERTEX
  5
5C4
  8
0
 10
39.769
 20
58.68
 30
0.0
 70
0
  0
VERTEX
  5
5C5
  8
0
 10
39.835
 20
58.614
 30
0.0
 70
0
  0
VERTEX
  5
5C6
  8
0
 10
39.835
 20
58.55
 30
0.0
 70
0
  0
VERTEX
  5
5C7
  8
0
 10
39.966
 20
58.55
 30
0.0
 70
0
  0
VERTEX
  5
5C8
  8
0
 10
40.03
 20
58.418
 30
0.0
 70
0
  0
SEQEND
  5
585
  8
0
  0
POLYLINE
  5
5C9
  8
0
 66
1
 10
0.0
 20
0.0
 30
0.0
 70
0
  0
VERTEX
  5
5CB
  8
0
 10
35.985
 20
59.593
 30
0.0
 70
0
  0
VERTEX
  5
5CC
  8
0
 10
35.919
 20
59.593
 30
0.0
 70
0
  0
VERTEX
  5
5CD
  8
0
 10
35.853
 20
59.527
 30
0.0
 70
0
  0
VERTEX
  5
5CE
  8
0
 10
35.853
 20
59.463
 30
0.0
 70
0
  0
SEQEND
  5
5CA
  8
0
  0
POLYLINE
  5
5CF
  8
0
 66
1
 10
0.0
 20
0.0
 30
0.0
 70
0
  0
VERTEX
  5
5D1
  8
0
 10
36.049
 20
59.92
 30
0.0
 70
0
  0
VERTEX
  5
5D2
  8
0
 10
35.985
 20
59.92
 30
0.0
 70
0
  0
VERTEX
  5
5D3
  8
0
 10
35.985
 20
59.854
 30
0.0
 70
0
  0
SEQEND
  5
5D0
  8
0
  0
POLYLINE
  5
5D4
  8
0
 66
1
 10
0.0
 20
0.0
 30
0.0
 70
0
  0
VERTEX
  5
5D6
  8
0
 10
36.442
 20
59.268
 30
0.0
 70
0
  0
VERTEX
  5
5D7
  8
0
 10
36.506
 20
59.332
 30
0.0
 70
0
  0
VERTEX
  5
5D8
  8
0
 10
36.572
 20
59.398
 30
0.0
 70
0
  0
SEQEND
  5
5D5
  8
0
  0
POLYLINE
  5
5D9
  8
0
 66
1
 10
0.0
 20
0.0
 30
0.0
 70
0
  0
VERTEX
  5
5DB
  8
0
 10
30.698
 20
56.264
 30
0.0
 70
0
  0
VERTEX
  5
5DC
  8
0
 10
30.764
 20
56.33
 30
0.0
 70
0
  0
VERTEX
  5
5DD
  8
0
 10
30.83
 20
56.33
 30
0.0
 70
0
  0
VERTEX
  5
5DE
  8
0
 10
30.893
 20
56.33
 30
0.0
 70
0
  0
VERTEX
  5
5DF
  8
0
 10
30.893
 20
56.396
 30
0.0
 70
0
  0
VERTEX
  5
5E0
  8
0
 10
30.959
 20
56.396
 30
0.0
 70
0
  0
VERTEX
  5
5E1
  8
0
 10
31.025
 20
56.396
 30
0.0
 70
0
  0
VERTEX
  5
5E2
  8
0
 10
31.091
 20
56.396
 30
0.0
 70
0
  0
VERTEX
  5
5E3
  8
0
 10
31.155
 20
56.396
 30
0.0
 70
0
  0
VERTEX
  5
5E4
  8
0
 10
31.221
 20
56.396
 30
0.0
 70
0
  0
VERTEX
  5
5E5
  8
0
 10
31.286
 20
56.396
 30
0.0
 70
0
  0
VERTEX
  5
5E6
  8
0
 10
31.286
 20
56.33
 30
0.0
 70
0
  0
VERTEX
  5
5E7
  8
0
 10
31.35
 20
56.33
 30
0.0
 70
0
  0
VERTEX
  5
5E8
  8
0
 10
31.416
 20
56.33
 30
0.0
 70
0
  0
VERTEX
  5
5E9
  8
0
 10
31.416
 20
56.264
 30
0.0
 70
0
  0
VERTEX
  5
5EA
  8
0
 10
31.482
 20
56.264
 30
0.0
 70
0
  0
SEQEND
  5
5DA
  8
0
  0
POLYLINE
  5
5EB
  8
0
 66
1
 10
0.0
 20
0.0
 30
0.0
 70
0
  0
VERTEX
  5
5ED
  8
0
 10
49.493
 20
53.46
 30
0.0
 70
0
  0
VERTEX
  5
5EE
  8
0
 10
49.493
 20
53.133
 30
0.0
 70
0
  0
VERTEX
  5
5EF
  8
0
 10
49.427
 20
53.067
 30
0.0
 70
0
  0
VERTEX
  5
5F0
  8
0
 10
49.427
 20
52.677
 30
0.0
 70
0
  0
VERTEX
  5
5F1
  8
0
 10
49.362
 20
52.677
 30
0.0
 70
0
  0
VERTEX
  5
5F2
  8
0
 10
49.362
 20
52.481
 30
0.0
 70
0
  0
VERTEX
  5
5F3
  8
0
 10
49.296
 20
52.481
 30
0.0
 70
0
  0
VERTEX
  5
5F4
  8
0
 10
49.296
 20
52.349
 30
0.0
 70
0
  0
VERTEX
  5
5F5
  8
0
 10
49.232
 20
52.349
 30
0.0
 70
0
  0
VERTEX
  5
5F6
  8
0
 10
49.232
 20
52.286
 30
0.0
 70
0
  0
VERTEX
  5
5F7
  8
0
 10
49.166
 20
52.286
 30
0.0
 70
0
  0
VERTEX
  5
5F8
  8
0
 10
49.166
 20
52.154
 30
0.0
 70
0
  0
VERTEX
  5
5F9
  8
0
 10
49.1
 20
52.154
 30
0.0
 70
0
  0
VERTEX
  5
5FA
  8
0
 10
49.037
 20
52.154
 30
0.0
 70
0
  0
VERTEX
  5
5FB
  8
0
 10
49.037
 20
52.088
 30
0.0
 70
0
  0
VERTEX
  5
5FC
  8
0
 10
48.97
 20
52.088
 30
0.0
 70
0
  0
VERTEX
  5
5FD
  8
0
 10
48.839
 20
52.088
 30
0.0
 70
0
  0
VERTEX
  5
5FE
  8
0
 10
48.839
 20
52.024
 30
0.0
 70
0
  0
VERTEX
  5
5FF
  8
0
 10
48.775
 20
52.024
 30
0.0
 70
0
  0
VERTEX
  5
600
  8
0
 10
48.644
 20
52.024
 30
0.0
 70
0
  0
VERTEX
  5
601
  8
0
 10
48.58
 20
52.024
 30
0.0
 70
0
  0
SEQEND
  5
5EC
  8
0
  0
POLYLINE
  5
602
  8
0
 66
1
 10
0.0
 20
0.0
 30
0.0
 70
0
  0
VERTEX
  5
604
  8
0
 10
51.906
 20
59.007
 30
0.0
 70
0
  0
VERTEX
  5
605
  8
0
 10
51.906
 20
59.006
 30
0.0
 70
0
  0
VERTEX
  5
606
  8
0
 10
51.906
 20
59.005
 30
0.0
 70
0
  0
VERTEX
  5
607
  8
0
 10
51.906
 20
59.004
 30
0.0
 70
0
  0
VERTEX
  5
608
  8
0
 10
51.906
 20
59.003
 30
0.0
 70
0
  0
VERTEX
  5
609
  8
0
 10
51.906
 20
59.002
 30
0.0
 70
0
  0
VERTEX
  5
60A
  8
0
 10
51.906
 20
59.001
 30
0.0
 70
0
  0
VERTEX
  5
60B
  8
0
 10
51.906
 20
58.999
 30
0.0
 70
0
  0
VERTEX
  5
60C
  8
0
 10
51.906
 20
58.998
 30
0.0
 70
0
  0
VERTEX
  5
60D
  8
0
 10
51.906
 20
58.997
 30
0.0
 70
0
  0
VERTEX
  5
60E
  8
0
 10
51.906
 20
58.996
 30
0.0
 70
0
  0
VERTEX
  5
60F
  8
0
 10
51.906
 20
58.995
 30
0.0
 70
0
  0
VERTEX
  5
610
  8
0
 10
51.906
 20
58.993
 30
0.0
 70
0
  0
VERTEX
  5
611
  8
0
 10
51.906
 20
58.992
 30
0.0
 70
0
  0
VERTEX
  5
612
  8
0
 10
51.906
 20
58.99
 30
0.0
 70
0
  0
VERTEX
  5
613
  8
0
 10
51.906
 20
58.989
 30
0.0
 70
0
  0
VERTEX
  5
614
  8
0
 10
51.906
 20
58.987
 30
0.0
 70
0
  0
VERTEX
  5
615
  8
0
 10
51.906
 20
58.985
 30
0.0
 70
0
  0
VERTEX
  5
616
  8
0
 10
51.906
 20
58.983
 30
0.0
 70
0
  0
VERTEX
  5
617
  8
0
 10
51.906
 20
58.982
 30
0.0
 70
0
  0
VERTEX
  5
618
  8
0
 10
51.906
 20
58.98
 30
0.0
 70
0
  0
VERTEX
  5
619
  8
0
 10
51.906
 20
58.978
 30
0.0
 70
0
  0
VERTEX
  5
61A
  8
0
 10
51.906
 20
58.976
 30
0.0
 70
0
  0
VERTEX
  5
61B
  8
0
 10
51.906
 20
58.974
 30
0.0
 70
0
  0
VERTEX
  5
61C
  8
0
 10
51.906
 20
58.972
 30
0.0
 70
0
  0
VERTEX
  5
61D
  8
0
 10
51.906
 20
58.97
 30
0.0
 70
0
  0
VERTEX
  5
61E
  8
0
 10
51.906
 20
58.968
 30
0.0
 70
0
  0
VERTEX
  5
61F
  8
0
 10
51.906
 20
58.966
 30
0.0
 70
0
  0
VERTEX
  5
620
  8
0
 10
51.906
 20
58.963
 30
0.0
 70
0
  0
VERTEX
  5
621
  8
0
 10
51.906
 20
58.961
 30
0.0
 70
0
  0
VERTEX
  5
622
  8
0
 10
51.906
 20
58.959
 30
0.0
 70
0
  0
VERTEX
  5
623
  8
0
 10
51.906
 20
58.956
 30
0.0
 70
0
  0
VERTEX
  5
624
  8
0
 10
51.906
 20
58.954
 30
0.0
 70
0
  0
VERTEX
  5
625
  8
0
 10
51.906
 20
58.952
 30
0.0
 70
0
  0
VERTEX
  5
626
  8
0
 10
51.906
 20
58.949
 30
0.0
 70
0
  0
VERTEX
  5
627
  8
0
 10
51.906
 20
58.947
 30
0.0
 70
0
  0
VERTEX
  5
628
  8
0
 10
51.906
 20
58.944
 30
0.0
 70
0
  0
VERTEX
  5
629
  8
0
 10
51.906
 20
58.942
 30
0.0
 70
0
  0
VERTEX
  5
62A
  8
0
 10
51.906
 20
58.94
 30
0.0
 70
0
  0
VERTEX
  5
62B
  8
0
 10
51.906
 20
58.937
 30
0.0
 70
0
  0
VERTEX
  5
62C
  8
0
 10
51.906
 20
58.934
 30
0.0
 70
0
  0
VERTEX
  5
62D
  8
0
 10
51.906
 20
58.932
 30
0.0
 70
0
  0
VERTEX
  5
62E
  8
0
 10
51.906
 20
58.929
 30
0.0
 70
0
  0
VERTEX
  5
62F
  8
0
 10
51.906
 20
58.927
 30
0.0
 70
0
  0
VERTEX
  5
630
  8
0
 10
51.906
 20
58.924
 30
0.0
 70
0
  0
VERTEX
  5
631
  8
0
 10
51.906
 20
58.921
 30
0.0
 70
0
  0
VERTEX
  5
632
  8
0
 10
51.906
 20
58.919
 30
0.0
 70
0
  0
VERTEX
  5
633
  8
0
 10
51.906
 20
58.916
 30
0.0
 70
0
  0
VERTEX
  5
634
  8
0
 10
51.906
 20
58.914
 30
0.0
 70
0
  0
VERTEX
  5
635
  8
0
 10
51.906
 20
58.911
 30
0.0
 70
0
  0
VERTEX
  5
636
  8
0
 10
51.906
 20
58.908
 30
0.0
 70
0
  0
VERTEX
  5
637
  8
0
 10
51.906
 20
58.906
 30
0.0
 70
0
  0
VERTEX
  5
638
  8
0
 10
51.906
 20
58.903
 30
0.0
 70
0
  0
VERTEX
  5
639
  8
0
 10
51.906
 20
58.901
 30
0.0
 70
0
  0
VERTEX
  5
63A
  8
0
 10
51.906
 20
58.898
 30
0.0
 70
0
  0
VERTEX
  5
63B
  8
0
 10
51.906
 20
58.895
 30
0.0
 70
0
  0
VERTEX
  5
63C
  8
0
 10
51.906
 20
58.893
 30
0.0
 70
0
  0
VERTEX
  5
63D
  8
0
 10
51.906
 20
58.89
 30
0.0
 70
0
  0
VERTEX
  5
63E
  8
0
 10
51.906
 20
58.888
 30
0.0
 70
0
  0
VERTEX
  5
63F
  8
0
 10
51.906
 20
58.885
 30
0.0
 70
0
  0
VERTEX
  5
640
  8
0
 10
51.906
 20
58.882
 30
0.0
 70
0
  0
VERTEX
  5
641
  8
0
 10
51.906
 20
58.88
 30
0.0
 70
0
  0
VERTEX
  5
642
  8
0
 10
51.906
 20
58.877
 30
0.0
 70
0
  0
VERTEX
  5
643
  8
0
 10
51.906
 20
58.875
 30
0.0
 70
0
  0
VERTEX
  5
644
  8
0
 10
51.906
 20
58.872
 30
0.0
 70
0
  0
VERTEX
  5
645
  8
0
 10
51.906
 20
58.87
 30
0.0
 70
0
  0
VERTEX
  5
646
  8
0
 10
51.906
 20
58.868
 30
0.0
 70
0
  0
VERTEX
  5
647
  8
0
 10
51.906
 20
58.865
 30
0.0
 70
0
  0
VERTEX
  5
648
  8
0
 10
51.906
 20
58.863
 30
0.0
 70
0
  0
VERTEX
  5
649
  8
0
 10
51.906
 20
58.86
 30
0.0
 70
0
  0
VERTEX
  5
64A
  8
0
 10
51.906
 20
58.858
 30
0.0
 70
0
  0
VERTEX
  5
64B
  8
0
 10
51.906
 20
58.856
 30
0.0
 70
0
  0
VERTEX
  5
64C
  8
0
 10
51.906
 20
58.854
 30
0.0
 70
0
  0
VERTEX
  5
64D
  8
0
 10
51.906
 20
58.851
 30
0.0
 70
0
  0
VERTEX
  5
64E
  8
0
 10
51.906
 20
58.849
 30
0.0
 70
0
  0
VERTEX
  5
64F
  8
0
 10
51.906
 20
58.847
 30
0.0
 70
0
  0
VERTEX
  5
650
  8
0
 10
51.906
 20
58.845
 30
0.0
 70
0
  0
VERTEX
  5
651
  8
0
 10
51.906
 20
58.843
 30
0.0
 70
0
  0
VERTEX
  5
652
  8
0
 10
51.906
 20
58.841
 30
0.0
 70
0
  0
VERTEX
  5
653
  8
0
 10
51.906
 20
58.839
 30
0.0
 70
0
  0
VERTEX
  5
654
  8
0
 10
51.906
 20
58.837
 30
0.0
 70
0
  0
VERTEX
  5
655
  8
0
 10
51.906
 20
58.835
 30
0.0
 70
0
  0
VERTEX
  5
656
  8
0
 10
51.906
 20
58.834
 30
0.0
 70
0
  0
VERTEX
  5
657
  8
0
 10
51.906
 20
58.832
 30
0.0
 70
0
  0
VERTEX
  5
658
  8
0
 10
51.906
 20
58.83
 30
0.0
 70
0
  0
VERTEX
  5
659
  8
0
 10
51.906
 20
58.829
 30
0.0
 70
0
  0
VERTEX
  5
65A
  8
0
 10
51.906
 20
58.827
 30
0.0
 70
0
  0
VERTEX
  5
65B
  8
0
 10
51.906
 20
58.826
 30
0.0
 70
0
  0
VERTEX
  5
65C
  8
0
 10
51.906
 20
58.824
 30
0.0
 70
0
  0
VERTEX
  5
65D
  8
0
 10
51.906
 20
58.823
 30
0.0
 70
0
  0
VERTEX
  5
65E
  8
0
 10
51.906
 20
58.822
 30
0.0
 70
0
  0
VERTEX
  5
65F
  8
0
 10
51.906
 20
58.82
 30
0.0
 70
0
  0
VERTEX
  5
660
  8
0
 10
51.906
 20
58.819
 30
0.0
 70
0
  0
VERTEX
  5
661
  8
0
 10
51.906
 20
58.818
 30
0.0
 70
0
  0
VERTEX
  5
662
  8
0
 10
51.906
 20
58.817
 30
0.0
 70
0
  0
VERTEX
  5
663
  8
0
 10
51.906
 20
58.816
 30
0.0
 70
0
  0
VERTEX
  5
664
  8
0
 10
51.906
 20
58.815
 30
0.0
 70
0
  0
VERTEX
  5
665
  8
0
 10
51.906
 20
58.814
 30
0.0
 70
0
  0
VERTEX
  5
666
  8
0
 10
51.906
 20
58.813
 30
0.0
 70
0
  0
VERTEX
  5
667
  8
0
 10
51.906
 20
58.812
 30
0.0
 70
0
  0
VERTEX
  5
668
  8
0
 10
51.906
 20
58.811
 30
0.0
 70
0
  0
VERTEX
  5
669
  8
0
 10
51.906
 20
58.812
 30
0.0
 70
0
  0
VERTEX
  5
66A
  8
0
 10
51.906
 20
58.813
 30
0.0
 70
0
  0
VERTEX
  5
66B
  8
0
 10
51.906
 20
58.814
 30
0.0
 70
0
  0
VERTEX
  5
66C
  8
0
 10
51.906
 20
58.815
 30
0.0
 70
0
  0
VERTEX
  5
66D
  8
0
 10
51.906
 20
58.816
 30
0.0
 70
0
  0
VERTEX
  5
66E
  8
0
 10
51.906
 20
58.817
 30
0.0
 70
0
  0
VERTEX
  5
66F
  8
0
 10
51.906
 20
58.818
 30
0.0
 70
0
  0
VERTEX
  5
670
  8
0
 10
51.906
 20
58.819
 30
0.0
 70
0
  0
VERTEX
  5
671
  8
0
 10
51.906
 20
58.82
 30
0.0
 70
0
  0
VERTEX
  5
672
  8
0
 10
51.906
 20
58.822
 30
0.0
 70
0
  0
VERTEX
  5
673
  8
0
 10
51.906
 20
58.823
 30
0.0
 70
0
  0
VERTEX
  5
674
  8
0
 10
51.906
 20
58.824
 30
0.0
 70
0
  0
VERTEX
  5
675
  8
0
 10
51.906
 20
58.826
 30
0.0
 70
0
  0
VERTEX
  5
676
  8
0
 10
51.906
 20
58.827
 30
0.0
 70
0
  0
VERTEX
  5
677
  8
0
 10
51.906
 20
58.829
 30
0.0
 70
0
  0
VERTEX
  5
678
  8
0
 10
51.906
 20
58.83
 30
0.0
 70
0
  0
VERTEX
  5
679
  8
0
 10
51.906
 20
58.832
 30
0.0
 70
0
  0
VERTEX
  5
67A
  8
0
 10
51.906
 20
58.834
 30
0.0
 70
0
  0
VERTEX
  5
67B
  8
0
 10
51.906
 20
58.835
 30
0.0
 70
0
  0
VERTEX
  5
67C
  8
0
 10
51.906
 20
58.837
 30
0.0
 70
0
  0
VERTEX
  5
67D
  8
0
 10
51.906
 20
58.839
 30
0.0
 70
0
  0
VERTEX
  5
67E
  8
0
 10
51.906
 20
58.841
 30
0.0
 70
0
  0
VERTEX
  5
67F
  8
0
 10
51.906
 20
58.843
 30
0.0
 70
0
  0
VERTEX
  5
680
  8
0
 10
51.906
 20
58.845
 30
0.0
 70
0
  0
VERTEX
  5
681
  8
0
 10
51.906
 20
58.847
 30
0.0
 70
0
  0
VERTEX
  5
682
  8
0
 10
51.906
 20
58.849
 30
0.0
 70
0
  0
VERTEX
  5
683
  8
0
 10
51.906
 20
58.851
 30
0.0
 70
0
  0
VERTEX
  5
684
  8
0
 10
51.906
 20
58.854
 30
0.0
 70
0
  0
VERTEX
  5
685
  8
0
 10
51.906
 20
58.856
 30
0.0
 70
0
  0
VERTEX
  5
686
  8
0
 10
51.906
 20
58.858
 30
0.0
 70
0
  0
VERTEX
  5
687
  8
0
 10
51.906
 20
58.86
 30
0.0
 70
0
  0
VERTEX
  5
688
  8
0
 10
51.906
 20
58.863
 30
0.0
 70
0
  0
VERTEX
  5
689
  8
0
 10
51.906
 20
58.865
 30
0.0
 70
0
  0
VERTEX
  5
68A
  8
0
 10
51.906
 20
58.868
 30
0.0
 70
0
  0
VERTEX
  5
68B
  8
0
 10
51.906
 20
58.87
 30
0.0
 70
0
  0
VERTEX
  5
68C
  8
0
 10
51.906
 20
58.872
 30
0.0
 70
0
  0
VERTEX
  5
68D
  8
0
 10
51.906
 20
58.875
 30
0.0
 70
0
  0
VERTEX
  5
68E
  8
0
 10
51.906
 20
58.877
 30
0.0
 70
0
  0
VERTEX
  5
68F
  8
0
 10
51.906
 20
58.88
 30
0.0
 70
0
  0
VERTEX
  5
690
  8
0
 10
51.906
 20
58.882
 30
0.0
 70
0
  0
VERTEX
  5
691
  8
0
 10
51.906
 20
58.885
 30
0.0
 70
0
  0
VERTEX
  5
692
  8
0
 10
51.906
 20
58.888
 30
0.0
 70
0
  0
VERTEX
  5
693
  8
0
 10
51.906
 20
58.89
 30
0.0
 70
0
  0
VERTEX
  5
694
  8
0
 10
51.906
 20
58.893
 30
0.0
 70
0
  0
VERTEX
  5
695
  8
0
 10
51.906
 20
58.895
 30
0.0
 70
0
  0
VERTEX
  5
696
  8
0
 10
51.906
 20
58.898
 30
0.0
 70
0
  0
VERTEX
  5
697
  8
0
 10
51.906
 20
58.901
 30
0.0
 70
0
  0
VERTEX
  5
698
  8
0
 10
51.906
 20
58.903
 30
0.0
 70
0
  0
VERTEX
  5
699
  8
0
 10
51.906
 20
58.906
 30
0.0
 70
0
  0
VERTEX
  5
69A
  8
0
 10
51.906
 20
58.908
 30
0.0
 70
0
  0
VERTEX
  5
69B
  8
0
 10
51.906
 20
58.911
 30
0.0
 70
0
  0
VERTEX
  5
69C
  8
0
 10
51.906
 20
58.914
 30
0.0
 70
0
  0
VERTEX
  5
69D
  8
0
 10
51.906
 20
58.916
 30
0.0
 70
0
  0
VERTEX
  5
69E
  8
0
 10
51.906
 20
58.919
 30
0.0
 70
0
  0
VERTEX
  5
69F
  8
0
 10
51.906
 20
58.921
 30
0.0
 70
0
  0
VERTEX
  5
6A0
  8
0
 10
51.906
 20
58.924
 30
0.0
 70
0
  0
VERTEX
  5
6A1
  8
0
 10
51.906
 20
58.927
 30
0.0
 70
0
  0
VERTEX
  5
6A2
  8
0
 10
51.906
 20
58.929
 30
0.0
 70
0
  0
VERTEX
  5
6A3
  8
0
 10
51.906
 20
58.932
 30
0.0
 70
0
  0
VERTEX
  5
6A4
  8
0
 10
51.906
 20
58.934
 30
0.0
 70
0
  0
VERTEX
  5
6A5
  8
0
 10
51.906
 20
58.937
 30
0.0
 70
0
  0
VERTEX
  5
6A6
  8
0
 10
51.906
 20
58.94
 30
0.0
 70
0
  0
VERTEX
  5
6A7
  8
0
 10
51.906
 20
58.942
 30
0.0
 70
0
  0
VERTEX
  5
6A8
  8
0
 10
51.906
 20
58.944
 30
0.0
 70
0
  0
VERTEX
  5
6A9
  8
0
 10
51.906
 20
58.947
 30
0.0
 70
0
  0
VERTEX
  5
6AA
  8
0
 10
51.906
 20
58.949
 30
0.0
 70
0
  0
VERTEX
  5
6AB
  8
0
 10
51.906
 20
58.952
 30
0.0
 70
0
  0
VERTEX
  5
6AC
  8
0
 10
51.906
 20
58.954
 30
0.0
 70
0
  0
VERTEX
  5
6AD
  8
0
 10
51.906
 20
58.956
 30
0.0
 70
0
  0
VERTEX
  5
6AE
  8
0
 10
51.906
 20
58.959
 30
0.0
 70
0
  0
VERTEX
  5
6AF
  8
0
 10
51.906
 20
58.961
 30
0.0
 70
0
  0
VERTEX
  5
6B0
  8
0
 10
51.906
 20
58.963
 30
0.0
 70
0
  0
VERTEX
  5
6B1
  8
0
 10
51.906
 20
58.966
 30
0.0
 70
0
  0
VERTEX
  5
6B2
  8
0
 10
51.906
 20
58.968
 30
0.0
 70
0
  0
VERTEX
  5
6B3
  8
0
 10
51.906
 20
58.97
 30
0.0
 70
0
  0
VERTEX
  5
6B4
  8
0
 10
51.906
 20
58.972
 30
0.0
 70
0
  0
VERTEX
  5
6B5
  8
0
 10
51.906
 20
58.974
 30
0.0
 70
0
  0
VERTEX
  5
6B6
  8
0
 10
51.906
 20
58.976
 30
0.0
 70
0
  0
VERTEX
  5
6B7
  8
0
 10
51.906
 20
58.978
 30
0.0
 70
0
  0
VERTEX
  5
6B8
  8
0
 10
51.906
 20
58.98
 30
0.0
 70
0
  0
VERTEX
  5
6B9
  8
0
 10
51.906
 20
58.982
 30
0.0
 70
0
  0
VERTEX
  5
6BA
  8
0
 10
51.906
 20
58.983
 30
0.0
 70
0
  0
VERTEX
  5
6BB
  8
0
 10
51.906
 20
58.985
 30
0.0
 70
0
  0
VERTEX
  5
6BC
  8
0
 10
51.906
 20
58.987
 30
0.0
 70
0
  0
VERTEX
  5
6BD
  8
0
 10
51.906
 20
58.989
 30
0.0
 70
0
  0
VERTEX
  5
6BE
  8
0
 10
51.906
 20
58.99
 30
0.0
 70
0
  0
VERTEX
  5
6BF
  8
0
 10
51.906
 20
58.992
 30
0.0
 70
0
  0
VERTEX
  5
6C0
  8
0
 10
51.906
 20
58.993
 30
0.0
 70
0
  0
VERTEX
  5
6C1
  8
0
 10
51.906
 20
58.995
 30
0.0
 70
0
  0
VERTEX
  5
6C2
  8
0
 10
51.906
 20
58.996
 30
0.0
 70
0
  0
VERTEX
  5
6C3
  8
0
 10
51.906
 20
58.997
 30
0.0
 70
0
  0
VERTEX
  5
6C4
  8
0
 10
51.906
 20
58.998
 30
0.0
 70
0
  0
VERTEX
  5
6C5
  8
0
 10
51.906
 20
58.999
 30
0.0
 70
0
  0
VERTEX
  5
6C6
  8
0
 10
51.906
 20
59.001
 30
0.0
 70
0
  0
VERTEX
  5
6C7
  8
0
 10
51.906
 20
59.002
 30
0.0
 70
0
  0
VERTEX
  5
6C8
  8
0
 10
51.906
 20
59.003
 30
0.0
 70
0
  0
VERTEX
  5
6C9
  8
0
 10
51.906
 20
59.004
 30
0.0
 70
0
  0
VERTEX
  5
6CA
  8
0
 10
51.906
 20
59.005
 30
0.0
 70
0
  0
VERTEX
  5
6CB
  8
0
 10
51.906
 20
59.006
 30
0.0
 70
0
  0
VERTEX
  5
6CC
  8
0
 10
51.906
 20
59.007
 30
0.0
 70
0
  0
SEQEND
  5
603
  8
0
  0
POLYLINE
  5
6CD
  8
0
 66
1
 10
0.0
 20
0.0
 30
0.0
 70
0
  0
VERTEX
  5
6CF
  8
0
 10
3.001
 20
55.483
 30
0.0
 70
0
  0
VERTEX
  5
6D0
  8
0
 10
3.001
 20
55.549
 30
0.0
 70
0
  0
VERTEX
  5
6D1
  8
0
 10
3.001
 20
55.612
 30
0.0
 70
0
  0
SEQEND
  5
6CE
  8
0
  0
POLYLINE
  5
6D2
  8
0
 66
1
 10
0.0
 20
0.0
 30
0.0
 70
0
  0
VERTEX
  5
6D4
  8
0
 10
2.61
 20
51.37
 30
0.0
 70
0
  0
VERTEX
  5
6D5
  8
0
 10
2.674
 20
51.37
 30
0.0
 70
0
  0
VERTEX
  5
6D6
  8
0
 10
2.74
 20
51.436
 30
0.0
 70
0
  0
VERTEX
  5
6D7
  8
0
 10
2.74
 20
51.502
 30
0.0
 70
0
  0
VERTEX
  5
6D8
  8
0
 10
2.806
 20
51.502
 30
0.0
 70
0
  0
VERTEX
  5
6D9
  8
0
 10
2.806
 20
51.568
 30
0.0
 70
0
  0
SEQEND
  5
6D3
  8
0
  0
POLYLINE
  5
6DA
  8
0
 66
1
 10
0.0
 20
0.0
 30
0.0
 70
0
  0
VERTEX
  5
6DC
  8
0
 10
3.001
 20
55.808
 30
0.0
 70
0
  0
VERTEX
  5
6DD
  8
0
 10
2.935
 20
55.808
 30
0.0
 70
0
  0
VERTEX
  5
6DE
  8
0
 10
2.935
 20
55.874
 30
0.0
 70
0
  0
VERTEX
  5
6DF
  8
0
 10
2.87
 20
55.874
 30
0.0
 70
0
  0
SEQEND
  5
6DB
  8
0
  0
POLYLINE
  5
6E0
  8
0
 66
1
 10
0.0
 20
0.0
 30
0.0
 70
0
  0
VERTEX
  5
6E2
  8
0
 10
2.87
 20
55.417
 30
0.0
 70
0
  0
VERTEX
  5
6E3
  8
0
 10
2.935
 20
55.417
 30
0.0
 70
0
  0
VERTEX
  5
6E4
  8
0
 10
3.001
 20
55.417
 30
0.0
 70
0
  0
VERTEX
  5
6E5
  8
0
 10
3.001
 20
55.483
 30
0.0
 70
0
  0
SEQEND
  5
6E1
  8
0
  0
POLYLINE
  5
6E6
  8
0
 66
1
 10
0.0
 20
0.0
 30
0.0
 70
0
  0
VERTEX
  5
6E8
  8
0
 10
0.325
 20
50.979
 30
0.0
 70
0
  0
VERTEX
  5
6E9
  8
0
 10
0.325
 20
50.913
 30
0.0
 70
0
  0
VERTEX
  5
6EA
  8
0
 10
0.261
 20
50.913
 30
0.0
 70
0
  0
SEQEND
  5
6E7
  8
0
  0
POLYLINE
  5
6EB
  8
0
 66
1
 10
0.0
 20
0.0
 30
0.0
 70
0
  0
VERTEX
  5
6ED
  8
0
 10
3.001
 20
58.875
 30
0.0
 70
0
  0
VERTEX
  5
6EE
  8
0
 10
3.001
 20
58.941
 30
0.0
 70
0
  0
VERTEX
  5
6EF
  8
0
 10
3.001
 20
59.007
 30
0.0
 70
0
  0
SEQEND
  5
6EC
  8
0
  0
POLYLINE
  5
6F0
  8
0
 66
1
 10
0.0
 20
0.0
 30
0.0
 70
0
  0
VERTEX
  5
6F2
  8
0
 10
3.001
 20
59.071
 30
0.0
 70
0
  0
VERTEX
  5
6F3
  8
0
 10
3.001
 20
59.136
 30
0.0
 70
0
  0
VERTEX
  5
6F4
  8
0
 10
3.001
 20
59.202
 30
0.0
 70
0
  0
SEQEND
  5
6F1
  8
0
  0
POLYLINE
  5
6F5
  8
0
 66
1
 10
0.0
 20
0.0
 30
0.0
 70
0
  0
VERTEX
  5
6F7
  8
0
 10
2.806
 20
63.117
 30
0.0
 70
0
  0
VERTEX
  5
6F8
  8
0
 10
2.806
 20
63.183
 30
0.0
 70
0
  0
VERTEX
  5
6F9
  8
0
 10
2.74
 20
63.183
 30
0.0
 70
0
  0
VERTEX
  5
6FA
  8
0
 10
2.74
 20
63.249
 30
0.0
 70
0
  0
VERTEX
  5
6FB
  8
0
 10
2.674
 20
63.249
 30
0.0
 70
0
  0
VERTEX
  5
6FC
  8
0
 10
2.674
 20
63.313
 30
0.0
 70
0
  0
VERTEX
  5
6FD
  8
0
 10
2.611
 20
63.313
 30
0.0
 70
0
  0
SEQEND
  5
6F6
  8
0
  0
POLYLINE
  5
6FE
  8
0
 66
1
 10
0.0
 20
0.0
 30
0.0
 70
0
  0
VERTEX
  5
700
  8
0
 10
3.001
 20
59.202
 30
0.0
 70
0
  0
VERTEX
  5
701
  8
0
 10
3.001
 20
59.268
 30
0.0
 70
0
  0
VERTEX
  5
702
  8
0
 10
2.935
 20
59.268
 30
0.0
 70
0
  0
VERTEX
  5
703
  8
0
 10
2.87
 20
59.268
 30
0.0
 70
0
  0
SEQEND
  5
6FF
  8
0
  0
POLYLINE
  5
704
  8
0
 66
1
 10
0.0
 20
0.0
 30
0.0
 70
0
  0
VERTEX
  5
706
  8
0
 10
2.87
 20
58.811
 30
0.0
 70
0
  0
VERTEX
  5
707
  8
0
 10
2.935
 20
58.811
 30
0.0
 70
0
  0
VERTEX
  5
708
  8
0
 10
2.935
 20
58.875
 30
0.0
 70
0
  0
VERTEX
  5
709
  8
0
 10
3.001
 20
58.875
 30
0.0
 70
0
  0
SEQEND
  5
705
  8
0
  0
POLYLINE
  5
70A
  8
0
 66
1
 10
0.0
 20
0.0
 30
0.0
 70
0
  0
VERTEX
  5
70C
  8
0
 10
0.261
 20
63.769
 30
0.0
 70
0
  0
VERTEX
  5
70D
  8
0
 10
0.325
 20
63.769
 30
0.0
 70
0
  0
VERTEX
  5
70E
  8
0
 10
0.325
 20
63.706
 30
0.0
 70
0
  0
SEQEND
  5
70B
  8
0
  0
POLYLINE
  5
70F
  8
0
 66
1
 10
0.0
 20
0.0
 30
0.0
 70
0
  0
VERTEX
  5
711
  8
0
 10
53.669
 20
53.46
 30
0.0
 70
0
  0
VERTEX
  5
712
  8
0
 10
53.733
 20
53.46
 30
0.0
 70
0
  0
VERTEX
  5
713
  8
0
 10
53.733
 20
53.524
 30
0.0
 70
0
  0
VERTEX
  5
714
  8
0
 10
53.799
 20
53.524
 30
0.0
 70
0
  0
VERTEX
  5
715
  8
0
 10
53.865
 20
53.524
 30
0.0
 70
0
  0
VERTEX
  5
716
  8
0
 10
53.865
 20
53.59
 30
0.0
 70
0
  0
VERTEX
  5
717
  8
0
 10
53.865
 20
53.656
 30
0.0
 70
0
  0
SEQEND
  5
710
  8
0
  0
POLYLINE
  5
718
  8
0
 66
1
 10
0.0
 20
0.0
 30
0.0
 70
0
  0
VERTEX
  5
71A
  8
0
 10
50.927
 20
53.524
 30
0.0
 70
0
  0
VERTEX
  5
71B
  8
0
 10
50.993
 20
53.524
 30
0.0
 70
0
  0
VERTEX
  5
71C
  8
0
 10
51.059
 20
53.46
 30
0.0
 70
0
  0
VERTEX
  5
71D
  8
0
 10
51.124
 20
53.46
 30
0.0
 70
0
  0
SEQEND
  5
719
  8
0
  0
POLYLINE
  5
71E
  8
0
 66
1
 10
0.0
 20
0.0
 30
0.0
 70
0
  0
VERTEX
  5
720
  8
0
 10
54.06
 20
53.524
 30
0.0
 70
0
  0
VERTEX
  5
721
  8
0
 10
54.06
 20
53.46
 30
0.0
 70
0
  0
VERTEX
  5
722
  8
0
 10
54.126
 20
53.46
 30
0.0
 70
0
  0
SEQEND
  5
71F
  8
0
  0
POLYLINE
  5
723
  8
0
 66
1
 10
0.0
 20
0.0
 30
0.0
 70
0
  0
VERTEX
  5
725
  8
0
 10
53.931
 20
54.113
 30
0.0
 70
0
  0
VERTEX
  5
726
  8
0
 10
53.865
 20
54.113
 30
0.0
 70
0
  0
VERTEX
  5
727
  8
0
 10
53.865
 20
54.047
 30
0.0
 70
0
  0
SEQEND
  5
724
  8
0
  0
POLYLINE
  5
728
  8
0
 66
1
 10
0.0
 20
0.0
 30
0.0
 70
0
  0
VERTEX
  5
72A
  8
0
 10
54.06
 20
54.047
 30
0.0
 70
0
  0
VERTEX
  5
72B
  8
0
 10
54.06
 20
54.113
 30
0.0
 70
0
  0
VERTEX
  5
72C
  8
0
 10
53.995
 20
54.113
 30
0.0
 70
0
  0
SEQEND
  5
729
  8
0
  0
POLYLINE
  5
72D
  8
0
 66
1
 10
0.0
 20
0.0
 30
0.0
 70
0
  0
VERTEX
  5
72F
  8
0
 10
57.519
 20
53.46
 30
0.0
 70
0
  0
VERTEX
  5
730
  8
0
 10
57.519
 20
53.524
 30
0.0
 70
0
  0
VERTEX
  5
731
  8
0
 10
57.584
 20
53.524
 30
0.0
 70
0
  0
VERTEX
  5
732
  8
0
 10
57.65
 20
53.524
 30
0.0
 70
0
  0
SEQEND
  5
72E
  8
0
  0
POLYLINE
  5
733
  8
0
 66
1
 10
0.0
 20
0.0
 30
0.0
 70
0
  0
VERTEX
  5
735
  8
0
 10
54.712
 20
53.656
 30
0.0
 70
0
  0
VERTEX
  5
736
  8
0
 10
54.712
 20
53.59
 30
0.0
 70
0
  0
VERTEX
  5
737
  8
0
 10
54.778
 20
53.59
 30
0.0
 70
0
  0
VERTEX
  5
738
  8
0
 10
54.778
 20
53.524
 30
0.0
 70
0
  0
VERTEX
  5
739
  8
0
 10
54.844
 20
53.524
 30
0.0
 70
0
  0
VERTEX
  5
73A
  8
0
 10
54.844
 20
53.46
 30
0.0
 70
0
  0
VERTEX
  5
73B
  8
0
 10
54.908
 20
53.46
 30
0.0
 70
0
  0
SEQEND
  5
734
  8
0
  0
POLYLINE
  5
73C
  8
0
 66
1
 10
0.0
 20
0.0
 30
0.0
 70
0
  0
VERTEX
  5
73E
  8
0
 10
54.649
 20
54.113
 30
0.0
 70
0
  0
VERTEX
  5
73F
  8
0
 10
54.583
 20
54.113
 30
0.0
 70
0
  0
VERTEX
  5
740
  8
0
 10
54.583
 20
54.047
 30
0.0
 70
0
  0
VERTEX
  5
741
  8
0
 10
54.517
 20
54.047
 30
0.0
 70
0
  0
SEQEND
  5
73D
  8
0
  0
POLYLINE
  5
742
  8
0
 66
1
 10
0.0
 20
0.0
 30
0.0
 70
0
  0
VERTEX
  5
744
  8
0
 10
54.712
 20
54.047
 30
0.0
 70
0
  0
VERTEX
  5
745
  8
0
 10
54.712
 20
54.113
 30
0.0
 70
0
  0
VERTEX
  5
746
  8
0
 10
54.649
 20
54.113
 30
0.0
 70
0
  0
SEQEND
  5
743
  8
0
  0
POLYLINE
  5
747
  8
0
 66
1
 10
0.0
 20
0.0
 30
0.0
 70
0
  0
VERTEX
  5
749
  8
0
 10
47.207
 20
56.201
 30
0.0
 70
0
  0
VERTEX
  5
74A
  8
0
 10
47.273
 20
56.135
 30
0.0
 70
0
  0
VERTEX
  5
74B
  8
0
 10
47.273
 20
56.069
 30
0.0
 70
0
  0
VERTEX
  5
74C
  8
0
 10
47.339
 20
56.069
 30
0.0
 70
0
  0
VERTEX
  5
74D
  8
0
 10
47.405
 20
56.069
 30
0.0
 70
0
  0
VERTEX
  5
74E
  8
0
 10
47.405
 20
56.005
 30
0.0
 70
0
  0
VERTEX
  5
74F
  8
0
 10
47.469
 20
56.005
 30
0.0
 70
0
  0
VERTEX
  5
750
  8
0
 10
47.535
 20
56.005
 30
0.0
 70
0
  0
SEQEND
  5
748
  8
0
  0
POLYLINE
  5
751
  8
0
 66
1
 10
0.0
 20
0.0
 30
0.0
 70
0
  0
VERTEX
  5
753
  8
0
 10
58.693
 20
56.919
 30
0.0
 70
0
  0
VERTEX
  5
754
  8
0
 10
58.759
 20
56.919
 30
0.0
 70
0
  0
VERTEX
  5
755
  8
0
 10
58.825
 20
56.982
 30
0.0
 70
0
  0
SEQEND
  5
752
  8
0
  0
POLYLINE
  5
756
  8
0
 66
1
 10
0.0
 20
0.0
 30
0.0
 70
0
  0
VERTEX
  5
758
  8
0
 10
58.369
 20
56.919
 30
0.0
 70
0
  0
VERTEX
  5
759
  8
0
 10
58.303
 20
56.919
 30
0.0
 70
0
  0
VERTEX
  5
75A
  8
0
 10
58.303
 20
56.853
 30
0.0
 70
0
  0
SEQEND
  5
757
  8
0
  0
POLYLINE
  5
75B
  8
0
 66
1
 10
0.0
 20
0.0
 30
0.0
 70
0
  0
VERTEX
  5
75D
  8
0
 10
50.341
 20
55.549
 30
0.0
 70
0
  0
VERTEX
  5
75E
  8
0
 10
50.341
 20
55.612
 30
0.0
 70
0
  0
VERTEX
  5
75F
  8
0
 10
50.275
 20
55.612
 30
0.0
 70
0
  0
SEQEND
  5
75C
  8
0
  0
POLYLINE
  5
760
  8
0
 66
1
 10
0.0
 20
0.0
 30
0.0
 70
0
  0
VERTEX
  5
762
  8
0
 10
49.232
 20
55.678
 30
0.0
 70
0
  0
VERTEX
  5
763
  8
0
 10
49.232
 20
55.612
 30
0.0
 70
0
  0
VERTEX
  5
764
  8
0
 10
49.296
 20
55.612
 30
0.0
 70
0
  0
SEQEND
  5
761
  8
0
  0
POLYLINE
  5
765
  8
0
 66
1
 10
0.0
 20
0.0
 30
0.0
 70
0
  0
VERTEX
  5
767
  8
0
 10
55.364
 20
56.264
 30
0.0
 70
0
  0
VERTEX
  5
768
  8
0
 10
55.43
 20
56.264
 30
0.0
 70
0
  0
VERTEX
  5
769
  8
0
 10
55.43
 20
56.33
 30
0.0
 70
0
  0
SEQEND
  5
766
  8
0
  0
POLYLINE
  5
76A
  8
0
 66
1
 10
0.0
 20
0.0
 30
0.0
 70
0
  0
VERTEX
  5
76C
  8
0
 10
35.592
 20
58.746
 30
0.0
 70
0
  0
VERTEX
  5
76D
  8
0
 10
35.529
 20
58.746
 30
0.0
 70
0
  0
VERTEX
  5
76E
  8
0
 10
35.529
 20
58.68
 30
0.0
 70
0
  0
SEQEND
  5
76B
  8
0
  0
POLYLINE
  5
76F
  8
0
 66
1
 10
0.0
 20
0.0
 30
0.0
 70
0
  0
VERTEX
  5
771
  8
0
 10
35.919
 20
58.68
 30
0.0
 70
0
  0
VERTEX
  5
772
  8
0
 10
35.919
 20
58.746
 30
0.0
 70
0
  0
VERTEX
  5
773
  8
0
 10
35.853
 20
58.746
 30
0.0
 70
0
  0
SEQEND
  5
770
  8
0
  0
POLYLINE
  5
774
  8
0
 66
1
 10
0.0
 20
0.0
 30
0.0
 70
0
  0
VERTEX
  5
776
  8
0
 10
36.637
 20
58.746
 30
0.0
 70
0
  0
VERTEX
  5
777
  8
0
 10
36.572
 20
58.746
 30
0.0
 70
0
  0
VERTEX
  5
778
  8
0
 10
36.506
 20
58.746
 30
0.0
 70
0
  0
SEQEND
  5
775
  8
0
  0
POLYLINE
  5
779
  8
0
 66
1
 10
0.0
 20
0.0
 30
0.0
 70
0
  0
VERTEX
  5
77B
  8
0
 10
35.853
 20
58.746
 30
0.0
 70
0
  0
VERTEX
  5
77C
  8
0
 10
35.787
 20
58.746
 30
0.0
 70
0
  0
VERTEX
  5
77D
  8
0
 10
35.724
 20
58.746
 30
0.0
 70
0
  0
VERTEX
  5
77E
  8
0
 10
35.658
 20
58.746
 30
0.0
 70
0
  0
VERTEX
  5
77F
  8
0
 10
35.592
 20
58.746
 30
0.0
 70
0
  0
SEQEND
  5
77A
  8
0
  0
POLYLINE
  5
780
  8
0
 66
1
 10
0.0
 20
0.0
 30
0.0
 70
0
  0
VERTEX
  5
782
  8
0
 10
37.355
 20
58.484
 30
0.0
 70
0
  0
VERTEX
  5
783
  8
0
 10
37.419
 20
58.484
 30
0.0
 70
0
  0
VERTEX
  5
784
  8
0
 10
37.419
 20
58.55
 30
0.0
 70
0
  0
VERTEX
  5
785
  8
0
 10
37.485
 20
58.55
 30
0.0
 70
0
  0
VERTEX
  5
786
  8
0
 10
37.485
 20
58.614
 30
0.0
 70
0
  0
SEQEND
  5
781
  8
0
  0
POLYLINE
  5
787
  8
0
 66
1
 10
0.0
 20
0.0
 30
0.0
 70
0
  0
VERTEX
  5
789
  8
0
 10
36.506
 20
58.68
 30
0.0
 70
0
  0
VERTEX
  5
78A
  8
0
 10
36.442
 20
58.68
 30
0.0
 70
0
  0
VERTEX
  5
78B
  8
0
 10
36.442
 20
58.614
 30
0.0
 70
0
  0
SEQEND
  5
788
  8
0
  0
POLYLINE
  5
78C
  8
0
 66
1
 10
0.0
 20
0.0
 30
0.0
 70
0
  0
VERTEX
  5
78E
  8
0
 10
36.899
 20
58.614
 30
0.0
 70
0
  0
VERTEX
  5
78F
  8
0
 10
36.899
 20
58.68
 30
0.0
 70
0
  0
VERTEX
  5
790
  8
0
 10
36.833
 20
58.68
 30
0.0
 70
0
  0
SEQEND
  5
78D
  8
0
  0
POLYLINE
  5
791
  8
0
 66
1
 10
0.0
 20
0.0
 30
0.0
 70
0
  0
VERTEX
  5
793
  8
0
 10
36.115
 20
59.332
 30
0.0
 70
0
  0
VERTEX
  5
794
  8
0
 10
36.115
 20
59.268
 30
0.0
 70
0
  0
VERTEX
  5
795
  8
0
 10
36.115
 20
59.202
 30
0.0
 70
0
  0
VERTEX
  5
796
  8
0
 10
36.181
 20
59.202
 30
0.0
 70
0
  0
VERTEX
  5
797
  8
0
 10
36.244
 20
59.202
 30
0.0
 70
0
  0
VERTEX
  5
798
  8
0
 10
36.244
 20
59.268
 30
0.0
 70
0
  0
SEQEND
  5
792
  8
0
  0
POLYLINE
  5
799
  8
0
 66
1
 10
0.0
 20
0.0
 30
0.0
 70
0
  0
VERTEX
  5
79B
  8
0
 10
54.321
 20
56.201
 30
0.0
 70
0
  0
VERTEX
  5
79C
  8
0
 10
54.387
 20
56.201
 30
0.0
 70
0
  0
VERTEX
  5
79D
  8
0
 10
54.517
 20
56.264
 30
0.0
 70
0
  0
VERTEX
  5
79E
  8
0
 10
54.583
 20
56.264
 30
0.0
 70
0
  0
VERTEX
  5
79F
  8
0
 10
54.712
 20
56.264
 30
0.0
 70
0
  0
VERTEX
  5
7A0
  8
0
 10
54.778
 20
56.33
 30
0.0
 70
0
  0
VERTEX
  5
7A1
  8
0
 10
54.844
 20
56.396
 30
0.0
 70
0
  0
VERTEX
  5
7A2
  8
0
 10
54.908
 20
56.396
 30
0.0
 70
0
  0
VERTEX
  5
7A3
  8
0
 10
55.04
 20
56.462
 30
0.0
 70
0
  0
VERTEX
  5
7A4
  8
0
 10
55.106
 20
56.592
 30
0.0
 70
0
  0
VERTEX
  5
7A5
  8
0
 10
55.169
 20
56.657
 30
0.0
 70
0
  0
VERTEX
  5
7A6
  8
0
 10
55.235
 20
56.657
 30
0.0
 70
0
  0
VERTEX
  5
7A7
  8
0
 10
55.301
 20
56.787
 30
0.0
 70
0
  0
VERTEX
  5
7A8
  8
0
 10
55.301
 20
56.853
 30
0.0
 70
0
  0
VERTEX
  5
7A9
  8
0
 10
55.364
 20
56.982
 30
0.0
 70
0
  0
VERTEX
  5
7AA
  8
0
 10
55.364
 20
57.048
 30
0.0
 70
0
  0
VERTEX
  5
7AB
  8
0
 10
55.43
 20
57.18
 30
0.0
 70
0
  0
VERTEX
  5
7AC
  8
0
 10
55.43
 20
57.244
 30
0.0
 70
0
  0
VERTEX
  5
7AD
  8
0
 10
55.43
 20
57.375
 30
0.0
 70
0
  0
VERTEX
  5
7AE
  8
0
 10
55.43
 20
57.439
 30
0.0
 70
0
  0
VERTEX
  5
7AF
  8
0
 10
55.43
 20
57.571
 30
0.0
 70
0
  0
VERTEX
  5
7B0
  8
0
 10
55.364
 20
57.637
 30
0.0
 70
0
  0
VERTEX
  5
7B1
  8
0
 10
55.364
 20
57.766
 30
0.0
 70
0
  0
VERTEX
  5
7B2
  8
0
 10
55.301
 20
57.832
 30
0.0
 70
0
  0
VERTEX
  5
7B3
  8
0
 10
55.301
 20
57.896
 30
0.0
 70
0
  0
VERTEX
  5
7B4
  8
0
 10
55.235
 20
57.962
 30
0.0
 70
0
  0
VERTEX
  5
7B5
  8
0
 10
55.169
 20
58.028
 30
0.0
 70
0
  0
VERTEX
  5
7B6
  8
0
 10
55.106
 20
58.157
 30
0.0
 70
0
  0
VERTEX
  5
7B7
  8
0
 10
55.04
 20
58.223
 30
0.0
 70
0
  0
VERTEX
  5
7B8
  8
0
 10
54.908
 20
58.223
 30
0.0
 70
0
  0
VERTEX
  5
7B9
  8
0
 10
54.844
 20
58.355
 30
0.0
 70
0
  0
VERTEX
  5
7BA
  8
0
 10
54.778
 20
58.355
 30
0.0
 70
0
  0
VERTEX
  5
7BB
  8
0
 10
54.712
 20
58.418
 30
0.0
 70
0
  0
VERTEX
  5
7BC
  8
0
 10
54.583
 20
58.418
 30
0.0
 70
0
  0
VERTEX
  5
7BD
  8
0
 10
54.517
 20
58.418
 30
0.0
 70
0
  0
VERTEX
  5
7BE
  8
0
 10
54.387
 20
58.418
 30
0.0
 70
0
  0
VERTEX
  5
7BF
  8
0
 10
54.321
 20
58.484
 30
0.0
 70
0
  0
SEQEND
  5
79A
  8
0
  0
POLYLINE
  5
7C0
  8
0
 66
1
 10
0.0
 20
0.0
 30
0.0
 70
0
  0
VERTEX
  5
7C2
  8
0
 10
54.778
 20
57.375
 30
0.0
 70
0
  0
VERTEX
  5
7C3
  8
0
 10
54.779
 20
57.375
 30
0.0
 70
0
  0
VERTEX
  5
7C4
  8
0
 10
54.78
 20
57.375
 30
0.0
 70
0
  0
VERTEX
  5
7C5
  8
0
 10
54.781
 20
57.375
 30
0.0
 70
0
  0
VERTEX
  5
7C6
  8
0
 10
54.782
 20
57.375
 30
0.0
 70
0
  0
VERTEX
  5
7C7
  8
0
 10
54.783
 20
57.375
 30
0.0
 70
0
  0
VERTEX
  5
7C8
  8
0
 10
54.784
 20
57.375
 30
0.0
 70
0
  0
VERTEX
  5
7C9
  8
0
 10
54.785
 20
57.375
 30
0.0
 70
0
  0
VERTEX
  5
7CA
  8
0
 10
54.786
 20
57.375
 30
0.0
 70
0
  0
VERTEX
  5
7CB
  8
0
 10
54.787
 20
57.375
 30
0.0
 70
0
  0
VERTEX
  5
7CC
  8
0
 10
54.788
 20
57.375
 30
0.0
 70
0
  0
VERTEX
  5
7CD
  8
0
 10
54.789
 20
57.375
 30
0.0
 70
0
  0
VERTEX
  5
7CE
  8
0
 10
54.79
 20
57.375
 30
0.0
 70
0
  0
VERTEX
  5
7CF
  8
0
 10
54.791
 20
57.375
 30
0.0
 70
0
  0
VERTEX
  5
7D0
  8
0
 10
54.792
 20
57.375
 30
0.0
 70
0
  0
VERTEX
  5
7D1
  8
0
 10
54.793
 20
57.375
 30
0.0
 70
0
  0
VERTEX
  5
7D2
  8
0
 10
54.794
 20
57.375
 30
0.0
 70
0
  0
VERTEX
  5
7D3
  8
0
 10
54.795
 20
57.375
 30
0.0
 70
0
  0
VERTEX
  5
7D4
  8
0
 10
54.796
 20
57.375
 30
0.0
 70
0
  0
VERTEX
  5
7D5
  8
0
 10
54.797
 20
57.375
 30
0.0
 70
0
  0
VERTEX
  5
7D6
  8
0
 10
54.798
 20
57.375
 30
0.0
 70
0
  0
VERTEX
  5
7D7
  8
0
 10
54.799
 20
57.375
 30
0.0
 70
0
  0
VERTEX
  5
7D8
  8
0
 10
54.8
 20
57.375
 30
0.0
 70
0
  0
VERTEX
  5
7D9
  8
0
 10
54.801
 20
57.375
 30
0.0
 70
0
  0
VERTEX
  5
7DA
  8
0
 10
54.802
 20
57.375
 30
0.0
 70
0
  0
VERTEX
  5
7DB
  8
0
 10
54.803
 20
57.375
 30
0.0
 70
0
  0
VERTEX
  5
7DC
  8
0
 10
54.804
 20
57.375
 30
0.0
 70
0
  0
VERTEX
  5
7DD
  8
0
 10
54.805
 20
57.375
 30
0.0
 70
0
  0
VERTEX
  5
7DE
  8
0
 10
54.806
 20
57.375
 30
0.0
 70
0
  0
VERTEX
  5
7DF
  8
0
 10
54.807
 20
57.375
 30
0.0
 70
0
  0
VERTEX
  5
7E0
  8
0
 10
54.808
 20
57.375
 30
0.0
 70
0
  0
VERTEX
  5
7E1
  8
0
 10
54.809
 20
57.375
 30
0.0
 70
0
  0
VERTEX
  5
7E2
  8
0
 10
54.81
 20
57.375
 30
0.0
 70
0
  0
VERTEX
  5
7E3
  8
0
 10
54.811
 20
57.375
 30
0.0
 70
0
  0
VERTEX
  5
7E4
  8
0
 10
54.812
 20
57.375
 30
0.0
 70
0
  0
VERTEX
  5
7E5
  8
0
 10
54.813
 20
57.375
 30
0.0
 70
0
  0
VERTEX
  5
7E6
  8
0
 10
54.814
 20
57.375
 30
0.0
 70
0
  0
VERTEX
  5
7E7
  8
0
 10
54.815
 20
57.375
 30
0.0
 70
0
  0
VERTEX
  5
7E8
  8
0
 10
54.816
 20
57.375
 30
0.0
 70
0
  0
VERTEX
  5
7E9
  8
0
 10
54.817
 20
57.375
 30
0.0
 70
0
  0
VERTEX
  5
7EA
  8
0
 10
54.818
 20
57.375
 30
0.0
 70
0
  0
VERTEX
  5
7EB
  8
0
 10
54.819
 20
57.375
 30
0.0
 70
0
  0
VERTEX
  5
7EC
  8
0
 10
54.82
 20
57.375
 30
0.0
 70
0
  0
VERTEX
  5
7ED
  8
0
 10
54.821
 20
57.375
 30
0.0
 70
0
  0
VERTEX
  5
7EE
  8
0
 10
54.822
 20
57.375
 30
0.0
 70
0
  0
VERTEX
  5
7EF
  8
0
 10
54.823
 20
57.375
 30
0.0
 70
0
  0
VERTEX
  5
7F0
  8
0
 10
54.824
 20
57.375
 30
0.0
 70
0
  0
VERTEX
  5
7F1
  8
0
 10
54.825
 20
57.375
 30
0.0
 70
0
  0
VERTEX
  5
7F2
  8
0
 10
54.826
 20
57.375
 30
0.0
 70
0
  0
VERTEX
  5
7F3
  8
0
 10
54.827
 20
57.375
 30
0.0
 70
0
  0
VERTEX
  5
7F4
  8
0
 10
54.828
 20
57.375
 30
0.0
 70
0
  0
VERTEX
  5
7F5
  8
0
 10
54.829
 20
57.375
 30
0.0
 70
0
  0
VERTEX
  5
7F6
  8
0
 10
54.83
 20
57.375
 30
0.0
 70
0
  0
VERTEX
  5
7F7
  8
0
 10
54.831
 20
57.375
 30
0.0
 70
0
  0
VERTEX
  5
7F8
  8
0
 10
54.832
 20
57.375
 30
0.0
 70
0
  0
VERTEX
  5
7F9
  8
0
 10
54.833
 20
57.375
 30
0.0
 70
0
  0
VERTEX
  5
7FA
  8
0
 10
54.834
 20
57.375
 30
0.0
 70
0
  0
VERTEX
  5
7FB
  8
0
 10
54.835
 20
57.375
 30
0.0
 70
0
  0
VERTEX
  5
7FC
  8
0
 10
54.836
 20
57.375
 30
0.0
 70
0
  0
VERTEX
  5
7FD
  8
0
 10
54.837
 20
57.375
 30
0.0
 70
0
  0
VERTEX
  5
7FE
  8
0
 10
54.838
 20
57.375
 30
0.0
 70
0
  0
VERTEX
  5
7FF
  8
0
 10
54.839
 20
57.375
 30
0.0
 70
0
  0
VERTEX
  5
800
  8
0
 10
54.84
 20
57.375
 30
0.0
 70
0
  0
VERTEX
  5
801
  8
0
 10
54.841
 20
57.375
 30
0.0
 70
0
  0
VERTEX
  5
802
  8
0
 10
54.842
 20
57.375
 30
0.0
 70
0
  0
VERTEX
  5
803
  8
0
 10
54.843
 20
57.375
 30
0.0
 70
0
  0
VERTEX
  5
804
  8
0
 10
54.844
 20
57.375
 30
0.0
 70
0
  0
VERTEX
  5
805
  8
0
 10
54.844
 20
57.368
 30
0.0
 70
0
  0
VERTEX
  5
806
  8
0
 10
54.844
 20
57.358
 30
0.0
 70
0
  0
VERTEX
  5
807
  8
0
 10
54.843
 20
57.349
 30
0.0
 70
0
  0
VERTEX
  5
808
  8
0
 10
54.843
 20
57.339
 30
0.0
 70
0
  0
VERTEX
  5
809
  8
0
 10
54.842
 20
57.33
 30
0.0
 70
0
  0
VERTEX
  5
80A
  8
0
 10
54.841
 20
57.321
 30
0.0
 70
0
  0
VERTEX
  5
80B
  8
0
 10
54.841
 20
57.312
 30
0.0
 70
0
  0
VERTEX
  5
80C
  8
0
 10
54.839
 20
57.303
 30
0.0
 70
0
  0
VERTEX
  5
80D
  8
0
 10
54.838
 20
57.294
 30
0.0
 70
0
  0
VERTEX
  5
80E
  8
0
 10
54.837
 20
57.285
 30
0.0
 70
0
  0
VERTEX
  5
80F
  8
0
 10
54.835
 20
57.276
 30
0.0
 70
0
  0
VERTEX
  5
810
  8
0
 10
54.834
 20
57.267
 30
0.0
 70
0
  0
VERTEX
  5
811
  8
0
 10
54.832
 20
57.259
 30
0.0
 70
0
  0
VERTEX
  5
812
  8
0
 10
54.83
 20
57.25
 30
0.0
 70
0
  0
VERTEX
  5
813
  8
0
 10
54.828
 20
57.242
 30
0.0
 70
0
  0
VERTEX
  5
814
  8
0
 10
54.826
 20
57.233
 30
0.0
 70
0
  0
VERTEX
  5
815
  8
0
 10
54.824
 20
57.225
 30
0.0
 70
0
  0
VERTEX
  5
816
  8
0
 10
54.822
 20
57.217
 30
0.0
 70
0
  0
VERTEX
  5
817
  8
0
 10
54.819
 20
57.209
 30
0.0
 70
0
  0
VERTEX
  5
818
  8
0
 10
54.816
 20
57.201
 30
0.0
 70
0
  0
VERTEX
  5
819
  8
0
 10
54.814
 20
57.193
 30
0.0
 70
0
  0
VERTEX
  5
81A
  8
0
 10
54.811
 20
57.185
 30
0.0
 70
0
  0
VERTEX
  5
81B
  8
0
 10
54.808
 20
57.177
 30
0.0
 70
0
  0
VERTEX
  5
81C
  8
0
 10
54.805
 20
57.169
 30
0.0
 70
0
  0
VERTEX
  5
81D
  8
0
 10
54.802
 20
57.161
 30
0.0
 70
0
  0
VERTEX
  5
81E
  8
0
 10
54.798
 20
57.154
 30
0.0
 70
0
  0
VERTEX
  5
81F
  8
0
 10
54.795
 20
57.146
 30
0.0
 70
0
  0
VERTEX
  5
820
  8
0
 10
54.791
 20
57.139
 30
0.0
 70
0
  0
VERTEX
  5
821
  8
0
 10
54.788
 20
57.132
 30
0.0
 70
0
  0
VERTEX
  5
822
  8
0
 10
54.784
 20
57.124
 30
0.0
 70
0
  0
VERTEX
  5
823
  8
0
 10
54.78
 20
57.117
 30
0.0
 70
0
  0
VERTEX
  5
824
  8
0
 10
54.776
 20
57.11
 30
0.0
 70
0
  0
VERTEX
  5
825
  8
0
 10
54.772
 20
57.103
 30
0.0
 70
0
  0
VERTEX
  5
826
  8
0
 10
54.768
 20
57.096
 30
0.0
 70
0
  0
VERTEX
  5
827
  8
0
 10
54.763
 20
57.09
 30
0.0
 70
0
  0
VERTEX
  5
828
  8
0
 10
54.759
 20
57.083
 30
0.0
 70
0
  0
VERTEX
  5
829
  8
0
 10
54.755
 20
57.076
 30
0.0
 70
0
  0
VERTEX
  5
82A
  8
0
 10
54.75
 20
57.07
 30
0.0
 70
0
  0
VERTEX
  5
82B
  8
0
 10
54.745
 20
57.063
 30
0.0
 70
0
  0
VERTEX
  5
82C
  8
0
 10
54.741
 20
57.057
 30
0.0
 70
0
  0
VERTEX
  5
82D
  8
0
 10
54.736
 20
57.051
 30
0.0
 70
0
  0
VERTEX
  5
82E
  8
0
 10
54.731
 20
57.044
 30
0.0
 70
0
  0
VERTEX
  5
82F
  8
0
 10
54.726
 20
57.038
 30
0.0
 70
0
  0
VERTEX
  5
830
  8
0
 10
54.721
 20
57.032
 30
0.0
 70
0
  0
VERTEX
  5
831
  8
0
 10
54.715
 20
57.027
 30
0.0
 70
0
  0
VERTEX
  5
832
  8
0
 10
54.71
 20
57.021
 30
0.0
 70
0
  0
VERTEX
  5
833
  8
0
 10
54.705
 20
57.015
 30
0.0
 70
0
  0
VERTEX
  5
834
  8
0
 10
54.699
 20
57.009
 30
0.0
 70
0
  0
VERTEX
  5
835
  8
0
 10
54.694
 20
57.004
 30
0.0
 70
0
  0
VERTEX
  5
836
  8
0
 10
54.688
 20
56.998
 30
0.0
 70
0
  0
VERTEX
  5
837
  8
0
 10
54.683
 20
56.993
 30
0.0
 70
0
  0
VERTEX
  5
838
  8
0
 10
54.677
 20
56.988
 30
0.0
 70
0
  0
VERTEX
  5
839
  8
0
 10
54.671
 20
56.983
 30
0.0
 70
0
  0
VERTEX
  5
83A
  8
0
 10
54.665
 20
56.977
 30
0.0
 70
0
  0
VERTEX
  5
83B
  8
0
 10
54.659
 20
56.973
 30
0.0
 70
0
  0
VERTEX
  5
83C
  8
0
 10
54.653
 20
56.968
 30
0.0
 70
0
  0
VERTEX
  5
83D
  8
0
 10
54.647
 20
56.963
 30
0.0
 70
0
  0
VERTEX
  5
83E
  8
0
 10
54.641
 20
56.958
 30
0.0
 70
0
  0
VERTEX
  5
83F
  8
0
 10
54.634
 20
56.954
 30
0.0
 70
0
  0
VERTEX
  5
840
  8
0
 10
54.628
 20
56.949
 30
0.0
 70
0
  0
VERTEX
  5
841
  8
0
 10
54.622
 20
56.945
 30
0.0
 70
0
  0
VERTEX
  5
842
  8
0
 10
54.615
 20
56.94
 30
0.0
 70
0
  0
VERTEX
  5
843
  8
0
 10
54.609
 20
56.936
 30
0.0
 70
0
  0
VERTEX
  5
844
  8
0
 10
54.602
 20
56.932
 30
0.0
 70
0
  0
VERTEX
  5
845
  8
0
 10
54.596
 20
56.928
 30
0.0
 70
0
  0
VERTEX
  5
846
  8
0
 10
54.589
 20
56.924
 30
0.0
 70
0
  0
VERTEX
  5
847
  8
0
 10
54.582
 20
56.92
 30
0.0
 70
0
  0
VERTEX
  5
848
  8
0
 10
54.575
 20
56.917
 30
0.0
 70
0
  0
VERTEX
  5
849
  8
0
 10
54.569
 20
56.913
 30
0.0
 70
0
  0
VERTEX
  5
84A
  8
0
 10
54.562
 20
56.91
 30
0.0
 70
0
  0
VERTEX
  5
84B
  8
0
 10
54.555
 20
56.906
 30
0.0
 70
0
  0
VERTEX
  5
84C
  8
0
 10
54.548
 20
56.903
 30
0.0
 70
0
  0
VERTEX
  5
84D
  8
0
 10
54.541
 20
56.9
 30
0.0
 70
0
  0
VERTEX
  5
84E
  8
0
 10
54.534
 20
56.897
 30
0.0
 70
0
  0
VERTEX
  5
84F
  8
0
 10
54.527
 20
56.894
 30
0.0
 70
0
  0
VERTEX
  5
850
  8
0
 10
54.519
 20
56.891
 30
0.0
 70
0
  0
VERTEX
  5
851
  8
0
 10
54.512
 20
56.888
 30
0.0
 70
0
  0
VERTEX
  5
852
  8
0
 10
54.505
 20
56.885
 30
0.0
 70
0
  0
VERTEX
  5
853
  8
0
 10
54.498
 20
56.883
 30
0.0
 70
0
  0
VERTEX
  5
854
  8
0
 10
54.491
 20
56.88
 30
0.0
 70
0
  0
VERTEX
  5
855
  8
0
 10
54.483
 20
56.878
 30
0.0
 70
0
  0
VERTEX
  5
856
  8
0
 10
54.476
 20
56.876
 30
0.0
 70
0
  0
VERTEX
  5
857
  8
0
 10
54.468
 20
56.873
 30
0.0
 70
0
  0
VERTEX
  5
858
  8
0
 10
54.461
 20
56.871
 30
0.0
 70
0
  0
VERTEX
  5
859
  8
0
 10
54.454
 20
56.869
 30
0.0
 70
0
  0
VERTEX
  5
85A
  8
0
 10
54.446
 20
56.868
 30
0.0
 70
0
  0
VERTEX
  5
85B
  8
0
 10
54.439
 20
56.866
 30
0.0
 70
0
  0
VERTEX
  5
85C
  8
0
 10
54.431
 20
56.864
 30
0.0
 70
0
  0
VERTEX
  5
85D
  8
0
 10
54.424
 20
56.863
 30
0.0
 70
0
  0
VERTEX
  5
85E
  8
0
 10
54.416
 20
56.861
 30
0.0
 70
0
  0
VERTEX
  5
85F
  8
0
 10
54.409
 20
56.86
 30
0.0
 70
0
  0
VERTEX
  5
860
  8
0
 10
54.401
 20
56.859
 30
0.0
 70
0
  0
VERTEX
  5
861
  8
0
 10
54.393
 20
56.858
 30
0.0
 70
0
  0
VERTEX
  5
862
  8
0
 10
54.386
 20
56.857
 30
0.0
 70
0
  0
VERTEX
  5
863
  8
0
 10
54.378
 20
56.856
 30
0.0
 70
0
  0
VERTEX
  5
864
  8
0
 10
54.37
 20
56.855
 30
0.0
 70
0
  0
VERTEX
  5
865
  8
0
 10
54.363
 20
56.854
 30
0.0
 70
0
  0
VERTEX
  5
866
  8
0
 10
54.355
 20
56.854
 30
0.0
 70
0
  0
VERTEX
  5
867
  8
0
 10
54.347
 20
56.853
 30
0.0
 70
0
  0
VERTEX
  5
868
  8
0
 10
54.34
 20
56.853
 30
0.0
 70
0
  0
VERTEX
  5
869
  8
0
 10
54.332
 20
56.853
 30
0.0
 70
0
  0
VERTEX
  5
86A
  8
0
 10
54.324
 20
56.853
 30
0.0
 70
0
  0
VERTEX
  5
86B
  8
0
 10
54.316
 20
56.853
 30
0.0
 70
0
  0
VERTEX
  5
86C
  8
0
 10
54.306
 20
56.853
 30
0.0
 70
0
  0
VERTEX
  5
86D
  8
0
 10
54.297
 20
56.853
 30
0.0
 70
0
  0
VERTEX
  5
86E
  8
0
 10
54.287
 20
56.854
 30
0.0
 70
0
  0
VERTEX
  5
86F
  8
0
 10
54.278
 20
56.854
 30
0.0
 70
0
  0
VERTEX
  5
870
  8
0
 10
54.269
 20
56.854
 30
0.0
 70
0
  0
VERTEX
  5
871
  8
0
 10
54.26
 20
56.855
 30
0.0
 70
0
  0
VERTEX
  5
872
  8
0
 10
54.251
 20
56.856
 30
0.0
 70
0
  0
VERTEX
  5
873
  8
0
 10
54.242
 20
56.857
 30
0.0
 70
0
  0
VERTEX
  5
874
  8
0
 10
54.233
 20
56.858
 30
0.0
 70
0
  0
VERTEX
  5
875
  8
0
 10
54.224
 20
56.859
 30
0.0
 70
0
  0
VERTEX
  5
876
  8
0
 10
54.215
 20
56.86
 30
0.0
 70
0
  0
VERTEX
  5
877
  8
0
 10
54.207
 20
56.862
 30
0.0
 70
0
  0
VERTEX
  5
878
  8
0
 10
54.198
 20
56.863
 30
0.0
 70
0
  0
VERTEX
  5
879
  8
0
 10
54.19
 20
56.865
 30
0.0
 70
0
  0
VERTEX
  5
87A
  8
0
 10
54.181
 20
56.866
 30
0.0
 70
0
  0
VERTEX
  5
87B
  8
0
 10
54.173
 20
56.868
 30
0.0
 70
0
  0
VERTEX
  5
87C
  8
0
 10
54.165
 20
56.87
 30
0.0
 70
0
  0
VERTEX
  5
87D
  8
0
 10
54.156
 20
56.872
 30
0.0
 70
0
  0
VERTEX
  5
87E
  8
0
 10
54.148
 20
56.874
 30
0.0
 70
0
  0
VERTEX
  5
87F
  8
0
 10
54.14
 20
56.876
 30
0.0
 70
0
  0
VERTEX
  5
880
  8
0
 10
54.132
 20
56.878
 30
0.0
 70
0
  0
VERTEX
  5
881
  8
0
 10
54.124
 20
56.881
 30
0.0
 70
0
  0
VERTEX
  5
882
  8
0
 10
54.117
 20
56.883
 30
0.0
 70
0
  0
VERTEX
  5
883
  8
0
 10
54.109
 20
56.886
 30
0.0
 70
0
  0
VERTEX
  5
884
  8
0
 10
54.101
 20
56.889
 30
0.0
 70
0
  0
VERTEX
  5
885
  8
0
 10
54.094
 20
56.891
 30
0.0
 70
0
  0
VERTEX
  5
886
  8
0
 10
54.087
 20
56.894
 30
0.0
 70
0
  0
VERTEX
  5
887
  8
0
 10
54.079
 20
56.897
 30
0.0
 70
0
  0
VERTEX
  5
888
  8
0
 10
54.072
 20
56.9
 30
0.0
 70
0
  0
VERTEX
  5
889
  8
0
 10
54.065
 20
56.904
 30
0.0
 70
0
  0
VERTEX
  5
88A
  8
0
 10
54.058
 20
56.907
 30
0.0
 70
0
  0
VERTEX
  5
88B
  8
0
 10
54.051
 20
56.91
 30
0.0
 70
0
  0
VERTEX
  5
88C
  8
0
 10
54.044
 20
56.914
 30
0.0
 70
0
  0
VERTEX
  5
88D
  8
0
 10
54.037
 20
56.918
 30
0.0
 70
0
  0
VERTEX
  5
88E
  8
0
 10
54.03
 20
56.921
 30
0.0
 70
0
  0
VERTEX
  5
88F
  8
0
 10
54.024
 20
56.925
 30
0.0
 70
0
  0
VERTEX
  5
890
  8
0
 10
54.017
 20
56.929
 30
0.0
 70
0
  0
VERTEX
  5
891
  8
0
 10
54.011
 20
56.933
 30
0.0
 70
0
  0
VERTEX
  5
892
  8
0
 10
54.004
 20
56.937
 30
0.0
 70
0
  0
VERTEX
  5
893
  8
0
 10
53.998
 20
56.941
 30
0.0
 70
0
  0
VERTEX
  5
894
  8
0
 10
53.992
 20
56.946
 30
0.0
 70
0
  0
VERTEX
  5
895
  8
0
 10
53.986
 20
56.95
 30
0.0
 70
0
  0
VERTEX
  5
896
  8
0
 10
53.98
 20
56.955
 30
0.0
 70
0
  0
VERTEX
  5
897
  8
0
 10
53.974
 20
56.959
 30
0.0
 70
0
  0
VERTEX
  5
898
  8
0
 10
53.968
 20
56.964
 30
0.0
 70
0
  0
VERTEX
  5
899
  8
0
 10
53.962
 20
56.969
 30
0.0
 70
0
  0
VERTEX
  5
89A
  8
0
 10
53.956
 20
56.973
 30
0.0
 70
0
  0
VERTEX
  5
89B
  8
0
 10
53.951
 20
56.979
 30
0.0
 70
0
  0
VERTEX
  5
89C
  8
0
 10
53.946
 20
56.984
 30
0.0
 70
0
  0
VERTEX
  5
89D
  8
0
 10
53.94
 20
56.989
 30
0.0
 70
0
  0
VERTEX
  5
89E
  8
0
 10
53.935
 20
56.994
 30
0.0
 70
0
  0
VERTEX
  5
89F
  8
0
 10
53.93
 20
56.999
 30
0.0
 70
0
  0
VERTEX
  5
8A0
  8
0
 10
53.925
 20
57.005
 30
0.0
 70
0
  0
VERTEX
  5
8A1
  8
0
 10
53.92
 20
57.01
 30
0.0
 70
0
  0
VERTEX
  5
8A2
  8
0
 10
53.915
 20
57.016
 30
0.0
 70
0
  0
VERTEX
  5
8A3
  8
0
 10
53.91
 20
57.022
 30
0.0
 70
0
  0
VERTEX
  5
8A4
  8
0
 10
53.905
 20
57.028
 30
0.0
 70
0
  0
VERTEX
  5
8A5
  8
0
 10
53.901
 20
57.034
 30
0.0
 70
0
  0
VERTEX
  5
8A6
  8
0
 10
53.896
 20
57.04
 30
0.0
 70
0
  0
VERTEX
  5
8A7
  8
0
 10
53.892
 20
57.046
 30
0.0
 70
0
  0
VERTEX
  5
8A8
  8
0
 10
53.887
 20
57.052
 30
0.0
 70
0
  0
VERTEX
  5
8A9
  8
0
 10
53.883
 20
57.058
 30
0.0
 70
0
  0
VERTEX
  5
8AA
  8
0
 10
53.879
 20
57.064
 30
0.0
 70
0
  0
VERTEX
  5
8AB
  8
0
 10
53.875
 20
57.071
 30
0.0
 70
0
  0
VERTEX
  5
8AC
  8
0
 10
53.871
 20
57.078
 30
0.0
 70
0
  0
VERTEX
  5
8AD
  8
0
 10
53.867
 20
57.084
 30
0.0
 70
0
  0
VERTEX
  5
8AE
  8
0
 10
53.864
 20
57.091
 30
0.0
 70
0
  0
VERTEX
  5
8AF
  8
0
 10
53.86
 20
57.098
 30
0.0
 70
0
  0
VERTEX
  5
8B0
  8
0
 10
53.856
 20
57.105
 30
0.0
 70
0
  0
VERTEX
  5
8B1
  8
0
 10
53.853
 20
57.112
 30
0.0
 70
0
  0
VERTEX
  5
8B2
  8
0
 10
53.85
 20
57.119
 30
0.0
 70
0
  0
VERTEX
  5
8B3
  8
0
 10
53.847
 20
57.126
 30
0.0
 70
0
  0
VERTEX
  5
8B4
  8
0
 10
53.843
 20
57.133
 30
0.0
 70
0
  0
VERTEX
  5
8B5
  8
0
 10
53.84
 20
57.14
 30
0.0
 70
0
  0
VERTEX
  5
8B6
  8
0
 10
53.837
 20
57.148
 30
0.0
 70
0
  0
VERTEX
  5
8B7
  8
0
 10
53.835
 20
57.155
 30
0.0
 70
0
  0
VERTEX
  5
8B8
  8
0
 10
53.832
 20
57.163
 30
0.0
 70
0
  0
VERTEX
  5
8B9
  8
0
 10
53.829
 20
57.171
 30
0.0
 70
0
  0
VERTEX
  5
8BA
  8
0
 10
53.827
 20
57.178
 30
0.0
 70
0
  0
VERTEX
  5
8BB
  8
0
 10
53.824
 20
57.186
 30
0.0
 70
0
  0
VERTEX
  5
8BC
  8
0
 10
53.822
 20
57.194
 30
0.0
 70
0
  0
VERTEX
  5
8BD
  8
0
 10
53.82
 20
57.202
 30
0.0
 70
0
  0
VERTEX
  5
8BE
  8
0
 10
53.818
 20
57.21
 30
0.0
 70
0
  0
VERTEX
  5
8BF
  8
0
 10
53.816
 20
57.218
 30
0.0
 70
0
  0
VERTEX
  5
8C0
  8
0
 10
53.814
 20
57.227
 30
0.0
 70
0
  0
VERTEX
  5
8C1
  8
0
 10
53.812
 20
57.235
 30
0.0
 70
0
  0
VERTEX
  5
8C2
  8
0
 10
53.811
 20
57.243
 30
0.0
 70
0
  0
VERTEX
  5
8C3
  8
0
 10
53.809
 20
57.252
 30
0.0
 70
0
  0
VERTEX
  5
8C4
  8
0
 10
53.808
 20
57.261
 30
0.0
 70
0
  0
VERTEX
  5
8C5
  8
0
 10
53.806
 20
57.269
 30
0.0
 70
0
  0
VERTEX
  5
8C6
  8
0
 10
53.805
 20
57.278
 30
0.0
 70
0
  0
VERTEX
  5
8C7
  8
0
 10
53.804
 20
57.287
 30
0.0
 70
0
  0
VERTEX
  5
8C8
  8
0
 10
53.803
 20
57.296
 30
0.0
 70
0
  0
VERTEX
  5
8C9
  8
0
 10
53.802
 20
57.305
 30
0.0
 70
0
  0
VERTEX
  5
8CA
  8
0
 10
53.801
 20
57.314
 30
0.0
 70
0
  0
VERTEX
  5
8CB
  8
0
 10
53.801
 20
57.323
 30
0.0
 70
0
  0
VERTEX
  5
8CC
  8
0
 10
53.8
 20
57.332
 30
0.0
 70
0
  0
VERTEX
  5
8CD
  8
0
 10
53.8
 20
57.341
 30
0.0
 70
0
  0
VERTEX
  5
8CE
  8
0
 10
53.799
 20
57.351
 30
0.0
 70
0
  0
VERTEX
  5
8CF
  8
0
 10
53.799
 20
57.36
 30
0.0
 70
0
  0
VERTEX
  5
8D0
  8
0
 10
53.799
 20
57.37
 30
0.0
 70
0
  0
VERTEX
  5
8D1
  8
0
 10
53.799
 20
57.378
 30
0.0
 70
0
  0
VERTEX
  5
8D2
  8
0
 10
53.799
 20
57.386
 30
0.0
 70
0
  0
VERTEX
  5
8D3
  8
0
 10
53.799
 20
57.394
 30
0.0
 70
0
  0
VERTEX
  5
8D4
  8
0
 10
53.799
 20
57.401
 30
0.0
 70
0
  0
VERTEX
  5
8D5
  8
0
 10
53.8
 20
57.409
 30
0.0
 70
0
  0
VERTEX
  5
8D6
  8
0
 10
53.8
 20
57.416
 30
0.0
 70
0
  0
VERTEX
  5
8D7
  8
0
 10
53.801
 20
57.424
 30
0.0
 70
0
  0
VERTEX
  5
8D8
  8
0
 10
53.802
 20
57.431
 30
0.0
 70
0
  0
VERTEX
  5
8D9
  8
0
 10
53.803
 20
57.438
 30
0.0
 70
0
  0
VERTEX
  5
8DA
  8
0
 10
53.804
 20
57.446
 30
0.0
 70
0
  0
VERTEX
  5
8DB
  8
0
 10
53.805
 20
57.453
 30
0.0
 70
0
  0
VERTEX
  5
8DC
  8
0
 10
53.806
 20
57.46
 30
0.0
 70
0
  0
VERTEX
  5
8DD
  8
0
 10
53.807
 20
57.467
 30
0.0
 70
0
  0
VERTEX
  5
8DE
  8
0
 10
53.809
 20
57.474
 30
0.0
 70
0
  0
VERTEX
  5
8DF
  8
0
 10
53.81
 20
57.482
 30
0.0
 70
0
  0
VERTEX
  5
8E0
  8
0
 10
53.812
 20
57.489
 30
0.0
 70
0
  0
VERTEX
  5
8E1
  8
0
 10
53.814
 20
57.496
 30
0.0
 70
0
  0
VERTEX
  5
8E2
  8
0
 10
53.816
 20
57.503
 30
0.0
 70
0
  0
VERTEX
  5
8E3
  8
0
 10
53.817
 20
57.509
 30
0.0
 70
0
  0
VERTEX
  5
8E4
  8
0
 10
53.82
 20
57.516
 30
0.0
 70
0
  0
VERTEX
  5
8E5
  8
0
 10
53.822
 20
57.523
 30
0.0
 70
0
  0
VERTEX
  5
8E6
  8
0
 10
53.824
 20
57.53
 30
0.0
 70
0
  0
VERTEX
  5
8E7
  8
0
 10
53.826
 20
57.536
 30
0.0
 70
0
  0
VERTEX
  5
8E8
  8
0
 10
53.829
 20
57.543
 30
0.0
 70
0
  0
VERTEX
  5
8E9
  8
0
 10
53.831
 20
57.55
 30
0.0
 70
0
  0
VERTEX
  5
8EA
  8
0
 10
53.834
 20
57.556
 30
0.0
 70
0
  0
VERTEX
  5
8EB
  8
0
 10
53.837
 20
57.562
 30
0.0
 70
0
  0
VERTEX
  5
8EC
  8
0
 10
53.84
 20
57.569
 30
0.0
 70
0
  0
VERTEX
  5
8ED
  8
0
 10
53.843
 20
57.575
 30
0.0
 70
0
  0
VERTEX
  5
8EE
  8
0
 10
53.846
 20
57.581
 30
0.0
 70
0
  0
VERTEX
  5
8EF
  8
0
 10
53.849
 20
57.588
 30
0.0
 70
0
  0
VERTEX
  5
8F0
  8
0
 10
53.852
 20
57.594
 30
0.0
 70
0
  0
VERTEX
  5
8F1
  8
0
 10
53.856
 20
57.6
 30
0.0
 70
0
  0
VERTEX
  5
8F2
  8
0
 10
53.859
 20
57.606
 30
0.0
 70
0
  0
VERTEX
  5
8F3
  8
0
 10
53.863
 20
57.612
 30
0.0
 70
0
  0
VERTEX
  5
8F4
  8
0
 10
53.867
 20
57.618
 30
0.0
 70
0
  0
VERTEX
  5
8F5
  8
0
 10
53.87
 20
57.624
 30
0.0
 70
0
  0
VERTEX
  5
8F6
  8
0
 10
53.874
 20
57.629
 30
0.0
 70
0
  0
VERTEX
  5
8F7
  8
0
 10
53.878
 20
57.635
 30
0.0
 70
0
  0
VERTEX
  5
8F8
  8
0
 10
53.882
 20
57.641
 30
0.0
 70
0
  0
VERTEX
  5
8F9
  8
0
 10
53.887
 20
57.646
 30
0.0
 70
0
  0
VERTEX
  5
8FA
  8
0
 10
53.891
 20
57.652
 30
0.0
 70
0
  0
VERTEX
  5
8FB
  8
0
 10
53.895
 20
57.657
 30
0.0
 70
0
  0
VERTEX
  5
8FC
  8
0
 10
53.9
 20
57.663
 30
0.0
 70
0
  0
VERTEX
  5
8FD
  8
0
 10
53.904
 20
57.668
 30
0.0
 70
0
  0
VERTEX
  5
8FE
  8
0
 10
53.909
 20
57.673
 30
0.0
 70
0
  0
VERTEX
  5
8FF
  8
0
 10
53.914
 20
57.678
 30
0.0
 70
0
  0
VERTEX
  5
900
  8
0
 10
53.919
 20
57.683
 30
0.0
 70
0
  0
VERTEX
  5
901
  8
0
 10
53.924
 20
57.689
 30
0.0
 70
0
  0
VERTEX
  5
902
  8
0
 10
53.929
 20
57.694
 30
0.0
 70
0
  0
VERTEX
  5
903
  8
0
 10
53.934
 20
57.698
 30
0.0
 70
0
  0
VERTEX
  5
904
  8
0
 10
53.939
 20
57.703
 30
0.0
 70
0
  0
VERTEX
  5
905
  8
0
 10
53.944
 20
57.708
 30
0.0
 70
0
  0
VERTEX
  5
906
  8
0
 10
53.95
 20
57.712
 30
0.0
 70
0
  0
VERTEX
  5
907
  8
0
 10
53.955
 20
57.717
 30
0.0
 70
0
  0
VERTEX
  5
908
  8
0
 10
53.961
 20
57.722
 30
0.0
 70
0
  0
VERTEX
  5
909
  8
0
 10
53.967
 20
57.726
 30
0.0
 70
0
  0
VERTEX
  5
90A
  8
0
 10
53.973
 20
57.73
 30
0.0
 70
0
  0
VERTEX
  5
90B
  8
0
 10
53.979
 20
57.735
 30
0.0
 70
0
  0
VERTEX
  5
90C
  8
0
 10
53.985
 20
57.739
 30
0.0
 70
0
  0
VERTEX
  5
90D
  8
0
 10
53.991
 20
57.743
 30
0.0
 70
0
  0
VERTEX
  5
90E
  8
0
 10
53.997
 20
57.747
 30
0.0
 70
0
  0
VERTEX
  5
90F
  8
0
 10
54.003
 20
57.751
 30
0.0
 70
0
  0
VERTEX
  5
910
  8
0
 10
54.009
 20
57.755
 30
0.0
 70
0
  0
VERTEX
  5
911
  8
0
 10
54.016
 20
57.758
 30
0.0
 70
0
  0
VERTEX
  5
912
  8
0
 10
54.022
 20
57.762
 30
0.0
 70
0
  0
VERTEX
  5
913
  8
0
 10
54.029
 20
57.766
 30
0.0
 70
0
  0
VERTEX
  5
914
  8
0
 10
54.036
 20
57.769
 30
0.0
 70
0
  0
VERTEX
  5
915
  8
0
 10
54.042
 20
57.773
 30
0.0
 70
0
  0
VERTEX
  5
916
  8
0
 10
54.049
 20
57.776
 30
0.0
 70
0
  0
VERTEX
  5
917
  8
0
 10
54.056
 20
57.779
 30
0.0
 70
0
  0
VERTEX
  5
918
  8
0
 10
54.063
 20
57.782
 30
0.0
 70
0
  0
VERTEX
  5
919
  8
0
 10
54.071
 20
57.785
 30
0.0
 70
0
  0
VERTEX
  5
91A
  8
0
 10
54.078
 20
57.788
 30
0.0
 70
0
  0
VERTEX
  5
91B
  8
0
 10
54.085
 20
57.791
 30
0.0
 70
0
  0
VERTEX
  5
91C
  8
0
 10
54.092
 20
57.794
 30
0.0
 70
0
  0
VERTEX
  5
91D
  8
0
 10
54.1
 20
57.797
 30
0.0
 70
0
  0
VERTEX
  5
91E
  8
0
 10
54.108
 20
57.799
 30
0.0
 70
0
  0
VERTEX
  5
91F
  8
0
 10
54.115
 20
57.802
 30
0.0
 70
0
  0
VERTEX
  5
920
  8
0
 10
54.123
 20
57.804
 30
0.0
 70
0
  0
VERTEX
  5
921
  8
0
 10
54.131
 20
57.807
 30
0.0
 70
0
  0
VERTEX
  5
922
  8
0
 10
54.139
 20
57.809
 30
0.0
 70
0
  0
VERTEX
  5
923
  8
0
 10
54.147
 20
57.811
 30
0.0
 70
0
  0
VERTEX
  5
924
  8
0
 10
54.155
 20
57.813
 30
0.0
 70
0
  0
VERTEX
  5
925
  8
0
 10
54.163
 20
57.815
 30
0.0
 70
0
  0
VERTEX
  5
926
  8
0
 10
54.171
 20
57.817
 30
0.0
 70
0
  0
VERTEX
  5
927
  8
0
 10
54.179
 20
57.819
 30
0.0
 70
0
  0
VERTEX
  5
928
  8
0
 10
54.188
 20
57.82
 30
0.0
 70
0
  0
VERTEX
  5
929
  8
0
 10
54.196
 20
57.822
 30
0.0
 70
0
  0
VERTEX
  5
92A
  8
0
 10
54.205
 20
57.823
 30
0.0
 70
0
  0
VERTEX
  5
92B
  8
0
 10
54.213
 20
57.824
 30
0.0
 70
0
  0
VERTEX
  5
92C
  8
0
 10
54.222
 20
57.826
 30
0.0
 70
0
  0
VERTEX
  5
92D
  8
0
 10
54.231
 20
57.827
 30
0.0
 70
0
  0
VERTEX
  5
92E
  8
0
 10
54.24
 20
57.828
 30
0.0
 70
0
  0
VERTEX
  5
92F
  8
0
 10
54.249
 20
57.829
 30
0.0
 70
0
  0
VERTEX
  5
930
  8
0
 10
54.258
 20
57.829
 30
0.0
 70
0
  0
VERTEX
  5
931
  8
0
 10
54.267
 20
57.83
 30
0.0
 70
0
  0
VERTEX
  5
932
  8
0
 10
54.276
 20
57.831
 30
0.0
 70
0
  0
VERTEX
  5
933
  8
0
 10
54.285
 20
57.831
 30
0.0
 70
0
  0
VERTEX
  5
934
  8
0
 10
54.295
 20
57.832
 30
0.0
 70
0
  0
VERTEX
  5
935
  8
0
 10
54.304
 20
57.832
 30
0.0
 70
0
  0
VERTEX
  5
936
  8
0
 10
54.314
 20
57.832
 30
0.0
 70
0
  0
VERTEX
  5
937
  8
0
 10
54.323
 20
57.832
 30
0.0
 70
0
  0
VERTEX
  5
938
  8
0
 10
54.331
 20
57.832
 30
0.0
 70
0
  0
VERTEX
  5
939
  8
0
 10
54.338
 20
57.832
 30
0.0
 70
0
  0
VERTEX
  5
93A
  8
0
 10
54.346
 20
57.831
 30
0.0
 70
0
  0
VERTEX
  5
93B
  8
0
 10
54.354
 20
57.831
 30
0.0
 70
0
  0
VERTEX
  5
93C
  8
0
 10
54.361
 20
57.831
 30
0.0
 70
0
  0
VERTEX
  5
93D
  8
0
 10
54.369
 20
57.83
 30
0.0
 70
0
  0
VERTEX
  5
93E
  8
0
 10
54.377
 20
57.829
 30
0.0
 70
0
  0
VERTEX
  5
93F
  8
0
 10
54.384
 20
57.828
 30
0.0
 70
0
  0
VERTEX
  5
940
  8
0
 10
54.392
 20
57.827
 30
0.0
 70
0
  0
VERTEX
  5
941
  8
0
 10
54.399
 20
57.826
 30
0.0
 70
0
  0
VERTEX
  5
942
  8
0
 10
54.407
 20
57.825
 30
0.0
 70
0
  0
VERTEX
  5
943
  8
0
 10
54.415
 20
57.824
 30
0.0
 70
0
  0
VERTEX
  5
944
  8
0
 10
54.422
 20
57.823
 30
0.0
 70
0
  0
VERTEX
  5
945
  8
0
 10
54.43
 20
57.821
 30
0.0
 70
0
  0
VERTEX
  5
946
  8
0
 10
54.437
 20
57.819
 30
0.0
 70
0
  0
VERTEX
  5
947
  8
0
 10
54.445
 20
57.818
 30
0.0
 70
0
  0
VERTEX
  5
948
  8
0
 10
54.452
 20
57.816
 30
0.0
 70
0
  0
VERTEX
  5
949
  8
0
 10
54.46
 20
57.814
 30
0.0
 70
0
  0
VERTEX
  5
94A
  8
0
 10
54.467
 20
57.812
 30
0.0
 70
0
  0
VERTEX
  5
94B
  8
0
 10
54.474
 20
57.81
 30
0.0
 70
0
  0
VERTEX
  5
94C
  8
0
 10
54.482
 20
57.808
 30
0.0
 70
0
  0
VERTEX
  5
94D
  8
0
 10
54.489
 20
57.806
 30
0.0
 70
0
  0
VERTEX
  5
94E
  8
0
 10
54.496
 20
57.803
 30
0.0
 70
0
  0
VERTEX
  5
94F
  8
0
 10
54.504
 20
57.801
 30
0.0
 70
0
  0
VERTEX
  5
950
  8
0
 10
54.511
 20
57.798
 30
0.0
 70
0
  0
VERTEX
  5
951
  8
0
 10
54.518
 20
57.796
 30
0.0
 70
0
  0
VERTEX
  5
952
  8
0
 10
54.525
 20
57.793
 30
0.0
 70
0
  0
VERTEX
  5
953
  8
0
 10
54.532
 20
57.79
 30
0.0
 70
0
  0
VERTEX
  5
954
  8
0
 10
54.539
 20
57.787
 30
0.0
 70
0
  0
VERTEX
  5
955
  8
0
 10
54.546
 20
57.784
 30
0.0
 70
0
  0
VERTEX
  5
956
  8
0
 10
54.553
 20
57.781
 30
0.0
 70
0
  0
VERTEX
  5
957
  8
0
 10
54.56
 20
57.778
 30
0.0
 70
0
  0
VERTEX
  5
958
  8
0
 10
54.567
 20
57.775
 30
0.0
 70
0
  0
VERTEX
  5
959
  8
0
 10
54.574
 20
57.771
 30
0.0
 70
0
  0
VERTEX
  5
95A
  8
0
 10
54.581
 20
57.768
 30
0.0
 70
0
  0
VERTEX
  5
95B
  8
0
 10
54.588
 20
57.764
 30
0.0
 70
0
  0
VERTEX
  5
95C
  8
0
 10
54.594
 20
57.761
 30
0.0
 70
0
  0
VERTEX
  5
95D
  8
0
 10
54.601
 20
57.757
 30
0.0
 70
0
  0
VERTEX
  5
95E
  8
0
 10
54.607
 20
57.753
 30
0.0
 70
0
  0
VERTEX
  5
95F
  8
0
 10
54.614
 20
57.749
 30
0.0
 70
0
  0
VERTEX
  5
960
  8
0
 10
54.62
 20
57.745
 30
0.0
 70
0
  0
VERTEX
  5
961
  8
0
 10
54.627
 20
57.741
 30
0.0
 70
0
  0
VERTEX
  5
962
  8
0
 10
54.633
 20
57.737
 30
0.0
 70
0
  0
VERTEX
  5
963
  8
0
 10
54.639
 20
57.733
 30
0.0
 70
0
  0
VERTEX
  5
964
  8
0
 10
54.646
 20
57.729
 30
0.0
 70
0
  0
VERTEX
  5
965
  8
0
 10
54.652
 20
57.724
 30
0.0
 70
0
  0
VERTEX
  5
966
  8
0
 10
54.658
 20
57.72
 30
0.0
 70
0
  0
VERTEX
  5
967
  8
0
 10
54.664
 20
57.715
 30
0.0
 70
0
  0
VERTEX
  5
968
  8
0
 10
54.67
 20
57.711
 30
0.0
 70
0
  0
VERTEX
  5
969
  8
0
 10
54.676
 20
57.706
 30
0.0
 70
0
  0
VERTEX
  5
96A
  8
0
 10
54.681
 20
57.701
 30
0.0
 70
0
  0
VERTEX
  5
96B
  8
0
 10
54.687
 20
57.696
 30
0.0
 70
0
  0
VERTEX
  5
96C
  8
0
 10
54.693
 20
57.692
 30
0.0
 70
0
  0
VERTEX
  5
96D
  8
0
 10
54.698
 20
57.687
 30
0.0
 70
0
  0
VERTEX
  5
96E
  8
0
 10
54.704
 20
57.681
 30
0.0
 70
0
  0
VERTEX
  5
96F
  8
0
 10
54.709
 20
57.676
 30
0.0
 70
0
  0
VERTEX
  5
970
  8
0
 10
54.714
 20
57.671
 30
0.0
 70
0
  0
VERTEX
  5
971
  8
0
 10
54.72
 20
57.666
 30
0.0
 70
0
  0
VERTEX
  5
972
  8
0
 10
54.725
 20
57.661
 30
0.0
 70
0
  0
VERTEX
  5
973
  8
0
 10
54.73
 20
57.655
 30
0.0
 70
0
  0
VERTEX
  5
974
  8
0
 10
54.735
 20
57.65
 30
0.0
 70
0
  0
VERTEX
  5
975
  8
0
 10
54.74
 20
57.644
 30
0.0
 70
0
  0
VERTEX
  5
976
  8
0
 10
54.744
 20
57.638
 30
0.0
 70
0
  0
VERTEX
  5
977
  8
0
 10
54.749
 20
57.633
 30
0.0
 70
0
  0
VERTEX
  5
978
  8
0
 10
54.754
 20
57.627
 30
0.0
 70
0
  0
VERTEX
  5
979
  8
0
 10
54.758
 20
57.621
 30
0.0
 70
0
  0
VERTEX
  5
97A
  8
0
 10
54.763
 20
57.615
 30
0.0
 70
0
  0
VERTEX
  5
97B
  8
0
 10
54.767
 20
57.61
 30
0.0
 70
0
  0
VERTEX
  5
97C
  8
0
 10
54.771
 20
57.603
 30
0.0
 70
0
  0
VERTEX
  5
97D
  8
0
 10
54.775
 20
57.597
 30
0.0
 70
0
  0
VERTEX
  5
97E
  8
0
 10
54.779
 20
57.591
 30
0.0
 70
0
  0
VERTEX
  5
97F
  8
0
 10
54.783
 20
57.585
 30
0.0
 70
0
  0
VERTEX
  5
980
  8
0
 10
54.787
 20
57.579
 30
0.0
 70
0
  0
VERTEX
  5
981
  8
0
 10
54.791
 20
57.573
 30
0.0
 70
0
  0
VERTEX
  5
982
  8
0
 10
54.794
 20
57.566
 30
0.0
 70
0
  0
VERTEX
  5
983
  8
0
 10
54.798
 20
57.56
 30
0.0
 70
0
  0
VERTEX
  5
984
  8
0
 10
54.801
 20
57.553
 30
0.0
 70
0
  0
VERTEX
  5
985
  8
0
 10
54.804
 20
57.547
 30
0.0
 70
0
  0
VERTEX
  5
986
  8
0
 10
54.807
 20
57.54
 30
0.0
 70
0
  0
VERTEX
  5
987
  8
0
 10
54.81
 20
57.534
 30
0.0
 70
0
  0
VERTEX
  5
988
  8
0
 10
54.813
 20
57.527
 30
0.0
 70
0
  0
VERTEX
  5
989
  8
0
 10
54.816
 20
57.52
 30
0.0
 70
0
  0
VERTEX
  5
98A
  8
0
 10
54.818
 20
57.513
 30
0.0
 70
0
  0
VERTEX
  5
98B
  8
0
 10
54.821
 20
57.507
 30
0.0
 70
0
  0
VERTEX
  5
98C
  8
0
 10
54.823
 20
57.5
 30
0.0
 70
0
  0
VERTEX
  5
98D
  8
0
 10
54.826
 20
57.493
 30
0.0
 70
0
  0
VERTEX
  5
98E
  8
0
 10
54.828
 20
57.486
 30
0.0
 70
0
  0
VERTEX
  5
98F
  8
0
 10
54.83
 20
57.479
 30
0.0
 70
0
  0
VERTEX
  5
990
  8
0
 10
54.832
 20
57.472
 30
0.0
 70
0
  0
VERTEX
  5
991
  8
0
 10
54.834
 20
57.464
 30
0.0
 70
0
  0
VERTEX
  5
992
  8
0
 10
54.835
 20
57.457
 30
0.0
 70
0
  0
VERTEX
  5
993
  8
0
 10
54.837
 20
57.45
 30
0.0
 70
0
  0
VERTEX
  5
994
  8
0
 10
54.838
 20
57.443
 30
0.0
 70
0
  0
VERTEX
  5
995
  8
0
 10
54.839
 20
57.435
 30
0.0
 70
0
  0
VERTEX
  5
996
  8
0
 10
54.84
 20
57.428
 30
0.0
 70
0
  0
VERTEX
  5
997
  8
0
 10
54.841
 20
57.421
 30
0.0
 70
0
  0
VERTEX
  5
998
  8
0
 10
54.842
 20
57.413
 30
0.0
 70
0
  0
VERTEX
  5
999
  8
0
 10
54.843
 20
57.406
 30
0.0
 70
0
  0
VERTEX
  5
99A
  8
0
 10
54.843
 20
57.398
 30
0.0
 70
0
  0
VERTEX
  5
99B
  8
0
 10
54.844
 20
57.391
 30
0.0
 70
0
  0
VERTEX
  5
99C
  8
0
 10
54.844
 20
57.383
 30
0.0
 70
0
  0
VERTEX
  5
99D
  8
0
 10
54.844
 20
57.375
 30
0.0
 70
0
  0
SEQEND
  5
7C1
  8
0
  0
POLYLINE
  5
99E
  8
0
 66
1
 10
0.0
 20
0.0
 30
0.0
 70
0
  0
VERTEX
  5
9A0
  8
0
 10
54.778
 20
57.375
 30
0.0
 70
0
  0
VERTEX
  5
9A1
  8
0
 10
54.778
 20
57.369
 30
0.0
 70
0
  0
VERTEX
  5
9A2
  8
0
 10
54.778
 20
57.362
 30
0.0
 70
0
  0
VERTEX
  5
9A3
  8
0
 10
54.778
 20
57.354
 30
0.0
 70
0
  0
VERTEX
  5
9A4
  8
0
 10
54.777
 20
57.346
 30
0.0
 70
0
  0
VERTEX
  5
9A5
  8
0
 10
54.777
 20
57.339
 30
0.0
 70
0
  0
VERTEX
  5
9A6
  8
0
 10
54.777
 20
57.331
 30
0.0
 70
0
  0
VERTEX
  5
9A7
  8
0
 10
54.776
 20
57.323
 30
0.0
 70
0
  0
VERTEX
  5
9A8
  8
0
 10
54.775
 20
57.316
 30
0.0
 70
0
  0
VERTEX
  5
9A9
  8
0
 10
54.774
 20
57.308
 30
0.0
 70
0
  0
VERTEX
  5
9AA
  8
0
 10
54.773
 20
57.3
 30
0.0
 70
0
  0
VERTEX
  5
9AB
  8
0
 10
54.772
 20
57.293
 30
0.0
 70
0
  0
VERTEX
  5
9AC
  8
0
 10
54.771
 20
57.285
 30
0.0
 70
0
  0
VERTEX
  5
9AD
  8
0
 10
54.769
 20
57.278
 30
0.0
 70
0
  0
VERTEX
  5
9AE
  8
0
 10
54.768
 20
57.27
 30
0.0
 70
0
  0
VERTEX
  5
9AF
  8
0
 10
54.766
 20
57.263
 30
0.0
 70
0
  0
VERTEX
  5
9B0
  8
0
 10
54.765
 20
57.255
 30
0.0
 70
0
  0
VERTEX
  5
9B1
  8
0
 10
54.763
 20
57.248
 30
0.0
 70
0
  0
VERTEX
  5
9B2
  8
0
 10
54.761
 20
57.24
 30
0.0
 70
0
  0
VERTEX
  5
9B3
  8
0
 10
54.759
 20
57.233
 30
0.0
 70
0
  0
VERTEX
  5
9B4
  8
0
 10
54.757
 20
57.225
 30
0.0
 70
0
  0
VERTEX
  5
9B5
  8
0
 10
54.755
 20
57.218
 30
0.0
 70
0
  0
VERTEX
  5
9B6
  8
0
 10
54.753
 20
57.211
 30
0.0
 70
0
  0
VERTEX
  5
9B7
  8
0
 10
54.751
 20
57.203
 30
0.0
 70
0
  0
VERTEX
  5
9B8
  8
0
 10
54.748
 20
57.196
 30
0.0
 70
0
  0
VERTEX
  5
9B9
  8
0
 10
54.746
 20
57.189
 30
0.0
 70
0
  0
VERTEX
  5
9BA
  8
0
 10
54.743
 20
57.182
 30
0.0
 70
0
  0
VERTEX
  5
9BB
  8
0
 10
54.74
 20
57.174
 30
0.0
 70
0
  0
VERTEX
  5
9BC
  8
0
 10
54.738
 20
57.167
 30
0.0
 70
0
  0
VERTEX
  5
9BD
  8
0
 10
54.735
 20
57.16
 30
0.0
 70
0
  0
VERTEX
  5
9BE
  8
0
 10
54.732
 20
57.153
 30
0.0
 70
0
  0
VERTEX
  5
9BF
  8
0
 10
54.729
 20
57.146
 30
0.0
 70
0
  0
VERTEX
  5
9C0
  8
0
 10
54.726
 20
57.139
 30
0.0
 70
0
  0
VERTEX
  5
9C1
  8
0
 10
54.722
 20
57.132
 30
0.0
 70
0
  0
VERTEX
  5
9C2
  8
0
 10
54.719
 20
57.126
 30
0.0
 70
0
  0
VERTEX
  5
9C3
  8
0
 10
54.716
 20
57.119
 30
0.0
 70
0
  0
VERTEX
  5
9C4
  8
0
 10
54.712
 20
57.112
 30
0.0
 70
0
  0
VERTEX
  5
9C5
  8
0
 10
54.708
 20
57.105
 30
0.0
 70
0
  0
VERTEX
  5
9C6
  8
0
 10
54.705
 20
57.099
 30
0.0
 70
0
  0
VERTEX
  5
9C7
  8
0
 10
54.701
 20
57.092
 30
0.0
 70
0
  0
VERTEX
  5
9C8
  8
0
 10
54.697
 20
57.086
 30
0.0
 70
0
  0
VERTEX
  5
9C9
  8
0
 10
54.693
 20
57.079
 30
0.0
 70
0
  0
VERTEX
  5
9CA
  8
0
 10
54.689
 20
57.073
 30
0.0
 70
0
  0
VERTEX
  5
9CB
  8
0
 10
54.685
 20
57.066
 30
0.0
 70
0
  0
VERTEX
  5
9CC
  8
0
 10
54.681
 20
57.06
 30
0.0
 70
0
  0
VERTEX
  5
9CD
  8
0
 10
54.677
 20
57.054
 30
0.0
 70
0
  0
VERTEX
  5
9CE
  8
0
 10
54.672
 20
57.048
 30
0.0
 70
0
  0
VERTEX
  5
9CF
  8
0
 10
54.668
 20
57.041
 30
0.0
 70
0
  0
VERTEX
  5
9D0
  8
0
 10
54.663
 20
57.035
 30
0.0
 70
0
  0
VERTEX
  5
9D1
  8
0
 10
54.659
 20
57.03
 30
0.0
 70
0
  0
VERTEX
  5
9D2
  8
0
 10
54.654
 20
57.024
 30
0.0
 70
0
  0
VERTEX
  5
9D3
  8
0
 10
54.649
 20
57.018
 30
0.0
 70
0
  0
VERTEX
  5
9D4
  8
0
 10
54.645
 20
57.012
 30
0.0
 70
0
  0
VERTEX
  5
9D5
  8
0
 10
54.64
 20
57.006
 30
0.0
 70
0
  0
VERTEX
  5
9D6
  8
0
 10
54.635
 20
57.001
 30
0.0
 70
0
  0
VERTEX
  5
9D7
  8
0
 10
54.63
 20
56.995
 30
0.0
 70
0
  0
VERTEX
  5
9D8
  8
0
 10
54.625
 20
56.99
 30
0.0
 70
0
  0
VERTEX
  5
9D9
  8
0
 10
54.619
 20
56.985
 30
0.0
 70
0
  0
VERTEX
  5
9DA
  8
0
 10
54.614
 20
56.979
 30
0.0
 70
0
  0
VERTEX
  5
9DB
  8
0
 10
54.609
 20
56.974
 30
0.0
 70
0
  0
VERTEX
  5
9DC
  8
0
 10
54.604
 20
56.969
 30
0.0
 70
0
  0
VERTEX
  5
9DD
  8
0
 10
54.598
 20
56.964
 30
0.0
 70
0
  0
VERTEX
  5
9DE
  8
0
 10
54.592
 20
56.959
 30
0.0
 70
0
  0
VERTEX
  5
9DF
  8
0
 10
54.587
 20
56.954
 30
0.0
 70
0
  0
VERTEX
  5
9E0
  8
0
 10
54.581
 20
56.95
 30
0.0
 70
0
  0
VERTEX
  5
9E1
  8
0
 10
54.576
 20
56.945
 30
0.0
 70
0
  0
VERTEX
  5
9E2
  8
0
 10
54.57
 20
56.94
 30
0.0
 70
0
  0
VERTEX
  5
9E3
  8
0
 10
54.564
 20
56.936
 30
0.0
 70
0
  0
VERTEX
  5
9E4
  8
0
 10
54.558
 20
56.932
 30
0.0
 70
0
  0
VERTEX
  5
9E5
  8
0
 10
54.552
 20
56.927
 30
0.0
 70
0
  0
VERTEX
  5
9E6
  8
0
 10
54.546
 20
56.923
 30
0.0
 70
0
  0
VERTEX
  5
9E7
  8
0
 10
54.54
 20
56.919
 30
0.0
 70
0
  0
VERTEX
  5
9E8
  8
0
 10
54.534
 20
56.915
 30
0.0
 70
0
  0
VERTEX
  5
9E9
  8
0
 10
54.528
 20
56.912
 30
0.0
 70
0
  0
VERTEX
  5
9EA
  8
0
 10
54.521
 20
56.908
 30
0.0
 70
0
  0
VERTEX
  5
9EB
  8
0
 10
54.515
 20
56.904
 30
0.0
 70
0
  0
VERTEX
  5
9EC
  8
0
 10
54.509
 20
56.901
 30
0.0
 70
0
  0
VERTEX
  5
9ED
  8
0
 10
54.502
 20
56.897
 30
0.0
 70
0
  0
VERTEX
  5
9EE
  8
0
 10
54.496
 20
56.894
 30
0.0
 70
0
  0
VERTEX
  5
9EF
  8
0
 10
54.489
 20
56.891
 30
0.0
 70
0
  0
VERTEX
  5
9F0
  8
0
 10
54.482
 20
56.888
 30
0.0
 70
0
  0
VERTEX
  5
9F1
  8
0
 10
54.476
 20
56.885
 30
0.0
 70
0
  0
VERTEX
  5
9F2
  8
0
 10
54.469
 20
56.882
 30
0.0
 70
0
  0
VERTEX
  5
9F3
  8
0
 10
54.462
 20
56.879
 30
0.0
 70
0
  0
VERTEX
  5
9F4
  8
0
 10
54.455
 20
56.877
 30
0.0
 70
0
  0
VERTEX
  5
9F5
  8
0
 10
54.449
 20
56.874
 30
0.0
 70
0
  0
VERTEX
  5
9F6
  8
0
 10
54.442
 20
56.872
 30
0.0
 70
0
  0
VERTEX
  5
9F7
  8
0
 10
54.435
 20
56.87
 30
0.0
 70
0
  0
VERTEX
  5
9F8
  8
0
 10
54.428
 20
56.868
 30
0.0
 70
0
  0
VERTEX
  5
9F9
  8
0
 10
54.421
 20
56.866
 30
0.0
 70
0
  0
VERTEX
  5
9FA
  8
0
 10
54.413
 20
56.864
 30
0.0
 70
0
  0
VERTEX
  5
9FB
  8
0
 10
54.406
 20
56.862
 30
0.0
 70
0
  0
VERTEX
  5
9FC
  8
0
 10
54.399
 20
56.861
 30
0.0
 70
0
  0
VERTEX
  5
9FD
  8
0
 10
54.392
 20
56.859
 30
0.0
 70
0
  0
VERTEX
  5
9FE
  8
0
 10
54.384
 20
56.858
 30
0.0
 70
0
  0
VERTEX
  5
9FF
  8
0
 10
54.377
 20
56.857
 30
0.0
 70
0
  0
VERTEX
  5
A00
  8
0
 10
54.37
 20
56.856
 30
0.0
 70
0
  0
VERTEX
  5
A01
  8
0
 10
54.362
 20
56.855
 30
0.0
 70
0
  0
VERTEX
  5
A02
  8
0
 10
54.355
 20
56.854
 30
0.0
 70
0
  0
VERTEX
  5
A03
  8
0
 10
54.347
 20
56.854
 30
0.0
 70
0
  0
VERTEX
  5
A04
  8
0
 10
54.34
 20
56.853
 30
0.0
 70
0
  0
VERTEX
  5
A05
  8
0
 10
54.332
 20
56.853
 30
0.0
 70
0
  0
VERTEX
  5
A06
  8
0
 10
54.324
 20
56.853
 30
0.0
 70
0
  0
VERTEX
  5
A07
  8
0
 10
54.317
 20
56.853
 30
0.0
 70
0
  0
VERTEX
  5
A08
  8
0
 10
54.309
 20
56.853
 30
0.0
 70
0
  0
VERTEX
  5
A09
  8
0
 10
54.302
 20
56.853
 30
0.0
 70
0
  0
VERTEX
  5
A0A
  8
0
 10
54.294
 20
56.854
 30
0.0
 70
0
  0
VERTEX
  5
A0B
  8
0
 10
54.287
 20
56.854
 30
0.0
 70
0
  0
VERTEX
  5
A0C
  8
0
 10
54.279
 20
56.855
 30
0.0
 70
0
  0
VERTEX
  5
A0D
  8
0
 10
54.272
 20
56.856
 30
0.0
 70
0
  0
VERTEX
  5
A0E
  8
0
 10
54.264
 20
56.857
 30
0.0
 70
0
  0
VERTEX
  5
A0F
  8
0
 10
54.257
 20
56.858
 30
0.0
 70
0
  0
VERTEX
  5
A10
  8
0
 10
54.25
 20
56.86
 30
0.0
 70
0
  0
VERTEX
  5
A11
  8
0
 10
54.242
 20
56.861
 30
0.0
 70
0
  0
VERTEX
  5
A12
  8
0
 10
54.235
 20
56.862
 30
0.0
 70
0
  0
VERTEX
  5
A13
  8
0
 10
54.228
 20
56.864
 30
0.0
 70
0
  0
VERTEX
  5
A14
  8
0
 10
54.221
 20
56.866
 30
0.0
 70
0
  0
VERTEX
  5
A15
  8
0
 10
54.214
 20
56.868
 30
0.0
 70
0
  0
VERTEX
  5
A16
  8
0
 10
54.207
 20
56.87
 30
0.0
 70
0
  0
VERTEX
  5
A17
  8
0
 10
54.2
 20
56.872
 30
0.0
 70
0
  0
VERTEX
  5
A18
  8
0
 10
54.193
 20
56.875
 30
0.0
 70
0
  0
VERTEX
  5
A19
  8
0
 10
54.186
 20
56.877
 30
0.0
 70
0
  0
VERTEX
  5
A1A
  8
0
 10
54.179
 20
56.88
 30
0.0
 70
0
  0
VERTEX
  5
A1B
  8
0
 10
54.173
 20
56.883
 30
0.0
 70
0
  0
VERTEX
  5
A1C
  8
0
 10
54.166
 20
56.885
 30
0.0
 70
0
  0
VERTEX
  5
A1D
  8
0
 10
54.159
 20
56.888
 30
0.0
 70
0
  0
VERTEX
  5
A1E
  8
0
 10
54.153
 20
56.891
 30
0.0
 70
0
  0
VERTEX
  5
A1F
  8
0
 10
54.146
 20
56.895
 30
0.0
 70
0
  0
VERTEX
  5
A20
  8
0
 10
54.14
 20
56.898
 30
0.0
 70
0
  0
VERTEX
  5
A21
  8
0
 10
54.133
 20
56.901
 30
0.0
 70
0
  0
VERTEX
  5
A22
  8
0
 10
54.127
 20
56.905
 30
0.0
 70
0
  0
VERTEX
  5
A23
  8
0
 10
54.12
 20
56.908
 30
0.0
 70
0
  0
VERTEX
  5
A24
  8
0
 10
54.114
 20
56.912
 30
0.0
 70
0
  0
VERTEX
  5
A25
  8
0
 10
54.108
 20
56.916
 30
0.0
 70
0
  0
VERTEX
  5
A26
  8
0
 10
54.102
 20
56.92
 30
0.0
 70
0
  0
VERTEX
  5
A27
  8
0
 10
54.096
 20
56.924
 30
0.0
 70
0
  0
VERTEX
  5
A28
  8
0
 10
54.09
 20
56.928
 30
0.0
 70
0
  0
VERTEX
  5
A29
  8
0
 10
54.084
 20
56.932
 30
0.0
 70
0
  0
VERTEX
  5
A2A
  8
0
 10
54.078
 20
56.937
 30
0.0
 70
0
  0
VERTEX
  5
A2B
  8
0
 10
54.072
 20
56.941
 30
0.0
 70
0
  0
VERTEX
  5
A2C
  8
0
 10
54.066
 20
56.946
 30
0.0
 70
0
  0
VERTEX
  5
A2D
  8
0
 10
54.061
 20
56.951
 30
0.0
 70
0
  0
VERTEX
  5
A2E
  8
0
 10
54.055
 20
56.955
 30
0.0
 70
0
  0
VERTEX
  5
A2F
  8
0
 10
54.049
 20
56.96
 30
0.0
 70
0
  0
VERTEX
  5
A30
  8
0
 10
54.044
 20
56.965
 30
0.0
 70
0
  0
VERTEX
  5
A31
  8
0
 10
54.038
 20
56.97
 30
0.0
 70
0
  0
VERTEX
  5
A32
  8
0
 10
54.033
 20
56.975
 30
0.0
 70
0
  0
VERTEX
  5
A33
  8
0
 10
54.028
 20
56.98
 30
0.0
 70
0
  0
VERTEX
  5
A34
  8
0
 10
54.023
 20
56.986
 30
0.0
 70
0
  0
VERTEX
  5
A35
  8
0
 10
54.017
 20
56.991
 30
0.0
 70
0
  0
VERTEX
  5
A36
  8
0
 10
54.012
 20
56.996
 30
0.0
 70
0
  0
VERTEX
  5
A37
  8
0
 10
54.007
 20
57.002
 30
0.0
 70
0
  0
VERTEX
  5
A38
  8
0
 10
54.002
 20
57.008
 30
0.0
 70
0
  0
VERTEX
  5
A39
  8
0
 10
53.997
 20
57.013
 30
0.0
 70
0
  0
VERTEX
  5
A3A
  8
0
 10
53.993
 20
57.019
 30
0.0
 70
0
  0
VERTEX
  5
A3B
  8
0
 10
53.988
 20
57.025
 30
0.0
 70
0
  0
VERTEX
  5
A3C
  8
0
 10
53.983
 20
57.031
 30
0.0
 70
0
  0
VERTEX
  5
A3D
  8
0
 10
53.979
 20
57.037
 30
0.0
 70
0
  0
VERTEX
  5
A3E
  8
0
 10
53.974
 20
57.043
 30
0.0
 70
0
  0
VERTEX
  5
A3F
  8
0
 10
53.97
 20
57.049
 30
0.0
 70
0
  0
VERTEX
  5
A40
  8
0
 10
53.966
 20
57.055
 30
0.0
 70
0
  0
VERTEX
  5
A41
  8
0
 10
53.961
 20
57.061
 30
0.0
 70
0
  0
VERTEX
  5
A42
  8
0
 10
53.957
 20
57.068
 30
0.0
 70
0
  0
VERTEX
  5
A43
  8
0
 10
53.953
 20
57.074
 30
0.0
 70
0
  0
VERTEX
  5
A44
  8
0
 10
53.949
 20
57.08
 30
0.0
 70
0
  0
VERTEX
  5
A45
  8
0
 10
53.945
 20
57.087
 30
0.0
 70
0
  0
VERTEX
  5
A46
  8
0
 10
53.941
 20
57.093
 30
0.0
 70
0
  0
VERTEX
  5
A47
  8
0
 10
53.938
 20
57.1
 30
0.0
 70
0
  0
VERTEX
  5
A48
  8
0
 10
53.934
 20
57.107
 30
0.0
 70
0
  0
VERTEX
  5
A49
  8
0
 10
53.93
 20
57.113
 30
0.0
 70
0
  0
VERTEX
  5
A4A
  8
0
 10
53.927
 20
57.12
 30
0.0
 70
0
  0
VERTEX
  5
A4B
  8
0
 10
53.923
 20
57.127
 30
0.0
 70
0
  0
VERTEX
  5
A4C
  8
0
 10
53.92
 20
57.134
 30
0.0
 70
0
  0
VERTEX
  5
A4D
  8
0
 10
53.917
 20
57.141
 30
0.0
 70
0
  0
VERTEX
  5
A4E
  8
0
 10
53.914
 20
57.148
 30
0.0
 70
0
  0
VERTEX
  5
A4F
  8
0
 10
53.911
 20
57.155
 30
0.0
 70
0
  0
VERTEX
  5
A50
  8
0
 10
53.908
 20
57.162
 30
0.0
 70
0
  0
VERTEX
  5
A51
  8
0
 10
53.905
 20
57.169
 30
0.0
 70
0
  0
VERTEX
  5
A52
  8
0
 10
53.902
 20
57.176
 30
0.0
 70
0
  0
VERTEX
  5
A53
  8
0
 10
53.899
 20
57.183
 30
0.0
 70
0
  0
VERTEX
  5
A54
  8
0
 10
53.897
 20
57.19
 30
0.0
 70
0
  0
VERTEX
  5
A55
  8
0
 10
53.894
 20
57.198
 30
0.0
 70
0
  0
VERTEX
  5
A56
  8
0
 10
53.892
 20
57.205
 30
0.0
 70
0
  0
VERTEX
  5
A57
  8
0
 10
53.89
 20
57.212
 30
0.0
 70
0
  0
VERTEX
  5
A58
  8
0
 10
53.887
 20
57.22
 30
0.0
 70
0
  0
VERTEX
  5
A59
  8
0
 10
53.885
 20
57.227
 30
0.0
 70
0
  0
VERTEX
  5
A5A
  8
0
 10
53.883
 20
57.234
 30
0.0
 70
0
  0
VERTEX
  5
A5B
  8
0
 10
53.881
 20
57.242
 30
0.0
 70
0
  0
VERTEX
  5
A5C
  8
0
 10
53.88
 20
57.249
 30
0.0
 70
0
  0
VERTEX
  5
A5D
  8
0
 10
53.878
 20
57.257
 30
0.0
 70
0
  0
VERTEX
  5
A5E
  8
0
 10
53.876
 20
57.264
 30
0.0
 70
0
  0
VERTEX
  5
A5F
  8
0
 10
53.875
 20
57.272
 30
0.0
 70
0
  0
VERTEX
  5
A60
  8
0
 10
53.873
 20
57.279
 30
0.0
 70
0
  0
VERTEX
  5
A61
  8
0
 10
53.872
 20
57.287
 30
0.0
 70
0
  0
VERTEX
  5
A62
  8
0
 10
53.871
 20
57.294
 30
0.0
 70
0
  0
VERTEX
  5
A63
  8
0
 10
53.87
 20
57.302
 30
0.0
 70
0
  0
VERTEX
  5
A64
  8
0
 10
53.869
 20
57.31
 30
0.0
 70
0
  0
VERTEX
  5
A65
  8
0
 10
53.868
 20
57.317
 30
0.0
 70
0
  0
VERTEX
  5
A66
  8
0
 10
53.867
 20
57.325
 30
0.0
 70
0
  0
VERTEX
  5
A67
  8
0
 10
53.866
 20
57.333
 30
0.0
 70
0
  0
VERTEX
  5
A68
  8
0
 10
53.866
 20
57.34
 30
0.0
 70
0
  0
VERTEX
  5
A69
  8
0
 10
53.865
 20
57.348
 30
0.0
 70
0
  0
VERTEX
  5
A6A
  8
0
 10
53.865
 20
57.355
 30
0.0
 70
0
  0
VERTEX
  5
A6B
  8
0
 10
53.865
 20
57.363
 30
0.0
 70
0
  0
VERTEX
  5
A6C
  8
0
 10
53.865
 20
57.371
 30
0.0
 70
0
  0
VERTEX
  5
A6D
  8
0
 10
53.865
 20
57.378
 30
0.0
 70
0
  0
VERTEX
  5
A6E
  8
0
 10
53.865
 20
57.386
 30
0.0
 70
0
  0
VERTEX
  5
A6F
  8
0
 10
53.865
 20
57.394
 30
0.0
 70
0
  0
VERTEX
  5
A70
  8
0
 10
53.865
 20
57.401
 30
0.0
 70
0
  0
VERTEX
  5
A71
  8
0
 10
53.866
 20
57.409
 30
0.0
 70
0
  0
VERTEX
  5
A72
  8
0
 10
53.866
 20
57.416
 30
0.0
 70
0
  0
VERTEX
  5
A73
  8
0
 10
53.867
 20
57.424
 30
0.0
 70
0
  0
VERTEX
  5
A74
  8
0
 10
53.868
 20
57.431
 30
0.0
 70
0
  0
VERTEX
  5
A75
  8
0
 10
53.869
 20
57.438
 30
0.0
 70
0
  0
VERTEX
  5
A76
  8
0
 10
53.87
 20
57.446
 30
0.0
 70
0
  0
VERTEX
  5
A77
  8
0
 10
53.871
 20
57.453
 30
0.0
 70
0
  0
VERTEX
  5
A78
  8
0
 10
53.872
 20
57.46
 30
0.0
 70
0
  0
VERTEX
  5
A79
  8
0
 10
53.873
 20
57.467
 30
0.0
 70
0
  0
VERTEX
  5
A7A
  8
0
 10
53.874
 20
57.474
 30
0.0
 70
0
  0
VERTEX
  5
A7B
  8
0
 10
53.876
 20
57.482
 30
0.0
 70
0
  0
VERTEX
  5
A7C
  8
0
 10
53.878
 20
57.489
 30
0.0
 70
0
  0
VERTEX
  5
A7D
  8
0
 10
53.879
 20
57.496
 30
0.0
 70
0
  0
VERTEX
  5
A7E
  8
0
 10
53.881
 20
57.503
 30
0.0
 70
0
  0
VERTEX
  5
A7F
  8
0
 10
53.883
 20
57.509
 30
0.0
 70
0
  0
VERTEX
  5
A80
  8
0
 10
53.885
 20
57.516
 30
0.0
 70
0
  0
VERTEX
  5
A81
  8
0
 10
53.887
 20
57.523
 30
0.0
 70
0
  0
VERTEX
  5
A82
  8
0
 10
53.889
 20
57.53
 30
0.0
 70
0
  0
VERTEX
  5
A83
  8
0
 10
53.891
 20
57.536
 30
0.0
 70
0
  0
VERTEX
  5
A84
  8
0
 10
53.894
 20
57.543
 30
0.0
 70
0
  0
VERTEX
  5
A85
  8
0
 10
53.896
 20
57.55
 30
0.0
 70
0
  0
VERTEX
  5
A86
  8
0
 10
53.899
 20
57.556
 30
0.0
 70
0
  0
VERTEX
  5
A87
  8
0
 10
53.902
 20
57.562
 30
0.0
 70
0
  0
VERTEX
  5
A88
  8
0
 10
53.904
 20
57.569
 30
0.0
 70
0
  0
VERTEX
  5
A89
  8
0
 10
53.907
 20
57.575
 30
0.0
 70
0
  0
VERTEX
  5
A8A
  8
0
 10
53.91
 20
57.581
 30
0.0
 70
0
  0
VERTEX
  5
A8B
  8
0
 10
53.913
 20
57.588
 30
0.0
 70
0
  0
VERTEX
  5
A8C
  8
0
 10
53.916
 20
57.594
 30
0.0
 70
0
  0
VERTEX
  5
A8D
  8
0
 10
53.919
 20
57.6
 30
0.0
 70
0
  0
VERTEX
  5
A8E
  8
0
 10
53.923
 20
57.606
 30
0.0
 70
0
  0
VERTEX
  5
A8F
  8
0
 10
53.926
 20
57.612
 30
0.0
 70
0
  0
VERTEX
  5
A90
  8
0
 10
53.93
 20
57.618
 30
0.0
 70
0
  0
VERTEX
  5
A91
  8
0
 10
53.933
 20
57.624
 30
0.0
 70
0
  0
VERTEX
  5
A92
  8
0
 10
53.937
 20
57.629
 30
0.0
 70
0
  0
VERTEX
  5
A93
  8
0
 10
53.941
 20
57.635
 30
0.0
 70
0
  0
VERTEX
  5
A94
  8
0
 10
53.944
 20
57.641
 30
0.0
 70
0
  0
VERTEX
  5
A95
  8
0
 10
53.948
 20
57.646
 30
0.0
 70
0
  0
VERTEX
  5
A96
  8
0
 10
53.952
 20
57.652
 30
0.0
 70
0
  0
VERTEX
  5
A97
  8
0
 10
53.956
 20
57.657
 30
0.0
 70
0
  0
VERTEX
  5
A98
  8
0
 10
53.96
 20
57.663
 30
0.0
 70
0
  0
VERTEX
  5
A99
  8
0
 10
53.965
 20
57.668
 30
0.0
 70
0
  0
VERTEX
  5
A9A
  8
0
 10
53.969
 20
57.673
 30
0.0
 70
0
  0
VERTEX
  5
A9B
  8
0
 10
53.973
 20
57.678
 30
0.0
 70
0
  0
VERTEX
  5
A9C
  8
0
 10
53.978
 20
57.683
 30
0.0
 70
0
  0
VERTEX
  5
A9D
  8
0
 10
53.983
 20
57.689
 30
0.0
 70
0
  0
VERTEX
  5
A9E
  8
0
 10
53.987
 20
57.694
 30
0.0
 70
0
  0
VERTEX
  5
A9F
  8
0
 10
53.992
 20
57.698
 30
0.0
 70
0
  0
VERTEX
  5
AA0
  8
0
 10
53.997
 20
57.703
 30
0.0
 70
0
  0
VERTEX
  5
AA1
  8
0
 10
54.001
 20
57.708
 30
0.0
 70
0
  0
VERTEX
  5
AA2
  8
0
 10
54.006
 20
57.712
 30
0.0
 70
0
  0
VERTEX
  5
AA3
  8
0
 10
54.011
 20
57.717
 30
0.0
 70
0
  0
VERTEX
  5
AA4
  8
0
 10
54.016
 20
57.722
 30
0.0
 70
0
  0
VERTEX
  5
AA5
  8
0
 10
54.022
 20
57.726
 30
0.0
 70
0
  0
VERTEX
  5
AA6
  8
0
 10
54.027
 20
57.73
 30
0.0
 70
0
  0
VERTEX
  5
AA7
  8
0
 10
54.032
 20
57.735
 30
0.0
 70
0
  0
VERTEX
  5
AA8
  8
0
 10
54.037
 20
57.739
 30
0.0
 70
0
  0
VERTEX
  5
AA9
  8
0
 10
54.043
 20
57.743
 30
0.0
 70
0
  0
VERTEX
  5
AAA
  8
0
 10
54.048
 20
57.747
 30
0.0
 70
0
  0
VERTEX
  5
AAB
  8
0
 10
54.054
 20
57.751
 30
0.0
 70
0
  0
VERTEX
  5
AAC
  8
0
 10
54.059
 20
57.755
 30
0.0
 70
0
  0
VERTEX
  5
AAD
  8
0
 10
54.065
 20
57.758
 30
0.0
 70
0
  0
VERTEX
  5
AAE
  8
0
 10
54.071
 20
57.762
 30
0.0
 70
0
  0
VERTEX
  5
AAF
  8
0
 10
54.077
 20
57.766
 30
0.0
 70
0
  0
VERTEX
  5
AB0
  8
0
 10
54.083
 20
57.769
 30
0.0
 70
0
  0
VERTEX
  5
AB1
  8
0
 10
54.089
 20
57.773
 30
0.0
 70
0
  0
VERTEX
  5
AB2
  8
0
 10
54.095
 20
57.776
 30
0.0
 70
0
  0
VERTEX
  5
AB3
  8
0
 10
54.101
 20
57.779
 30
0.0
 70
0
  0
VERTEX
  5
AB4
  8
0
 10
54.107
 20
57.782
 30
0.0
 70
0
  0
VERTEX
  5
AB5
  8
0
 10
54.113
 20
57.785
 30
0.0
 70
0
  0
VERTEX
  5
AB6
  8
0
 10
54.119
 20
57.788
 30
0.0
 70
0
  0
VERTEX
  5
AB7
  8
0
 10
54.125
 20
57.791
 30
0.0
 70
0
  0
VERTEX
  5
AB8
  8
0
 10
54.132
 20
57.794
 30
0.0
 70
0
  0
VERTEX
  5
AB9
  8
0
 10
54.138
 20
57.797
 30
0.0
 70
0
  0
VERTEX
  5
ABA
  8
0
 10
54.145
 20
57.799
 30
0.0
 70
0
  0
VERTEX
  5
ABB
  8
0
 10
54.151
 20
57.802
 30
0.0
 70
0
  0
VERTEX
  5
ABC
  8
0
 10
54.158
 20
57.804
 30
0.0
 70
0
  0
VERTEX
  5
ABD
  8
0
 10
54.165
 20
57.807
 30
0.0
 70
0
  0
VERTEX
  5
ABE
  8
0
 10
54.171
 20
57.809
 30
0.0
 70
0
  0
VERTEX
  5
ABF
  8
0
 10
54.178
 20
57.811
 30
0.0
 70
0
  0
VERTEX
  5
AC0
  8
0
 10
54.185
 20
57.813
 30
0.0
 70
0
  0
VERTEX
  5
AC1
  8
0
 10
54.192
 20
57.815
 30
0.0
 70
0
  0
VERTEX
  5
AC2
  8
0
 10
54.198
 20
57.817
 30
0.0
 70
0
  0
VERTEX
  5
AC3
  8
0
 10
54.205
 20
57.819
 30
0.0
 70
0
  0
VERTEX
  5
AC4
  8
0
 10
54.213
 20
57.82
 30
0.0
 70
0
  0
VERTEX
  5
AC5
  8
0
 10
54.22
 20
57.822
 30
0.0
 70
0
  0
VERTEX
  5
AC6
  8
0
 10
54.227
 20
57.823
 30
0.0
 70
0
  0
VERTEX
  5
AC7
  8
0
 10
54.234
 20
57.824
 30
0.0
 70
0
  0
VERTEX
  5
AC8
  8
0
 10
54.241
 20
57.826
 30
0.0
 70
0
  0
VERTEX
  5
AC9
  8
0
 10
54.248
 20
57.827
 30
0.0
 70
0
  0
VERTEX
  5
ACA
  8
0
 10
54.256
 20
57.828
 30
0.0
 70
0
  0
VERTEX
  5
ACB
  8
0
 10
54.263
 20
57.829
 30
0.0
 70
0
  0
VERTEX
  5
ACC
  8
0
 10
54.27
 20
57.829
 30
0.0
 70
0
  0
VERTEX
  5
ACD
  8
0
 10
54.278
 20
57.83
 30
0.0
 70
0
  0
VERTEX
  5
ACE
  8
0
 10
54.285
 20
57.831
 30
0.0
 70
0
  0
VERTEX
  5
ACF
  8
0
 10
54.293
 20
57.831
 30
0.0
 70
0
  0
VERTEX
  5
AD0
  8
0
 10
54.3
 20
57.832
 30
0.0
 70
0
  0
VERTEX
  5
AD1
  8
0
 10
54.308
 20
57.832
 30
0.0
 70
0
  0
VERTEX
  5
AD2
  8
0
 10
54.315
 20
57.832
 30
0.0
 70
0
  0
VERTEX
  5
AD3
  8
0
 10
54.323
 20
57.832
 30
0.0
 70
0
  0
VERTEX
  5
AD4
  8
0
 10
54.331
 20
57.832
 30
0.0
 70
0
  0
VERTEX
  5
AD5
  8
0
 10
54.338
 20
57.832
 30
0.0
 70
0
  0
VERTEX
  5
AD6
  8
0
 10
54.346
 20
57.831
 30
0.0
 70
0
  0
VERTEX
  5
AD7
  8
0
 10
54.353
 20
57.831
 30
0.0
 70
0
  0
VERTEX
  5
AD8
  8
0
 10
54.361
 20
57.831
 30
0.0
 70
0
  0
VERTEX
  5
AD9
  8
0
 10
54.368
 20
57.83
 30
0.0
 70
0
  0
VERTEX
  5
ADA
  8
0
 10
54.376
 20
57.829
 30
0.0
 70
0
  0
VERTEX
  5
ADB
  8
0
 10
54.383
 20
57.828
 30
0.0
 70
0
  0
VERTEX
  5
ADC
  8
0
 10
54.39
 20
57.827
 30
0.0
 70
0
  0
VERTEX
  5
ADD
  8
0
 10
54.398
 20
57.826
 30
0.0
 70
0
  0
VERTEX
  5
ADE
  8
0
 10
54.405
 20
57.825
 30
0.0
 70
0
  0
VERTEX
  5
ADF
  8
0
 10
54.412
 20
57.824
 30
0.0
 70
0
  0
VERTEX
  5
AE0
  8
0
 10
54.419
 20
57.823
 30
0.0
 70
0
  0
VERTEX
  5
AE1
  8
0
 10
54.426
 20
57.821
 30
0.0
 70
0
  0
VERTEX
  5
AE2
  8
0
 10
54.433
 20
57.819
 30
0.0
 70
0
  0
VERTEX
  5
AE3
  8
0
 10
54.44
 20
57.818
 30
0.0
 70
0
  0
VERTEX
  5
AE4
  8
0
 10
54.447
 20
57.816
 30
0.0
 70
0
  0
VERTEX
  5
AE5
  8
0
 10
54.454
 20
57.814
 30
0.0
 70
0
  0
VERTEX
  5
AE6
  8
0
 10
54.461
 20
57.812
 30
0.0
 70
0
  0
VERTEX
  5
AE7
  8
0
 10
54.468
 20
57.81
 30
0.0
 70
0
  0
VERTEX
  5
AE8
  8
0
 10
54.474
 20
57.808
 30
0.0
 70
0
  0
VERTEX
  5
AE9
  8
0
 10
54.481
 20
57.806
 30
0.0
 70
0
  0
VERTEX
  5
AEA
  8
0
 10
54.488
 20
57.803
 30
0.0
 70
0
  0
VERTEX
  5
AEB
  8
0
 10
54.494
 20
57.801
 30
0.0
 70
0
  0
VERTEX
  5
AEC
  8
0
 10
54.501
 20
57.798
 30
0.0
 70
0
  0
VERTEX
  5
AED
  8
0
 10
54.507
 20
57.796
 30
0.0
 70
0
  0
VERTEX
  5
AEE
  8
0
 10
54.514
 20
57.793
 30
0.0
 70
0
  0
VERTEX
  5
AEF
  8
0
 10
54.52
 20
57.79
 30
0.0
 70
0
  0
VERTEX
  5
AF0
  8
0
 10
54.526
 20
57.787
 30
0.0
 70
0
  0
VERTEX
  5
AF1
  8
0
 10
54.533
 20
57.784
 30
0.0
 70
0
  0
VERTEX
  5
AF2
  8
0
 10
54.539
 20
57.781
 30
0.0
 70
0
  0
VERTEX
  5
AF3
  8
0
 10
54.545
 20
57.778
 30
0.0
 70
0
  0
VERTEX
  5
AF4
  8
0
 10
54.551
 20
57.775
 30
0.0
 70
0
  0
VERTEX
  5
AF5
  8
0
 10
54.557
 20
57.771
 30
0.0
 70
0
  0
VERTEX
  5
AF6
  8
0
 10
54.563
 20
57.768
 30
0.0
 70
0
  0
VERTEX
  5
AF7
  8
0
 10
54.569
 20
57.764
 30
0.0
 70
0
  0
VERTEX
  5
AF8
  8
0
 10
54.574
 20
57.761
 30
0.0
 70
0
  0
VERTEX
  5
AF9
  8
0
 10
54.58
 20
57.757
 30
0.0
 70
0
  0
VERTEX
  5
AFA
  8
0
 10
54.586
 20
57.753
 30
0.0
 70
0
  0
VERTEX
  5
AFB
  8
0
 10
54.591
 20
57.749
 30
0.0
 70
0
  0
VERTEX
  5
AFC
  8
0
 10
54.597
 20
57.745
 30
0.0
 70
0
  0
VERTEX
  5
AFD
  8
0
 10
54.603
 20
57.741
 30
0.0
 70
0
  0
VERTEX
  5
AFE
  8
0
 10
54.608
 20
57.737
 30
0.0
 70
0
  0
VERTEX
  5
AFF
  8
0
 10
54.613
 20
57.733
 30
0.0
 70
0
  0
VERTEX
  5
B00
  8
0
 10
54.618
 20
57.729
 30
0.0
 70
0
  0
VERTEX
  5
B01
  8
0
 10
54.624
 20
57.724
 30
0.0
 70
0
  0
VERTEX
  5
B02
  8
0
 10
54.629
 20
57.72
 30
0.0
 70
0
  0
VERTEX
  5
B03
  8
0
 10
54.634
 20
57.715
 30
0.0
 70
0
  0
VERTEX
  5
B04
  8
0
 10
54.639
 20
57.711
 30
0.0
 70
0
  0
VERTEX
  5
B05
  8
0
 10
54.644
 20
57.706
 30
0.0
 70
0
  0
VERTEX
  5
B06
  8
0
 10
54.648
 20
57.701
 30
0.0
 70
0
  0
VERTEX
  5
B07
  8
0
 10
54.653
 20
57.696
 30
0.0
 70
0
  0
VERTEX
  5
B08
  8
0
 10
54.658
 20
57.692
 30
0.0
 70
0
  0
VERTEX
  5
B09
  8
0
 10
54.662
 20
57.687
 30
0.0
 70
0
  0
VERTEX
  5
B0A
  8
0
 10
54.667
 20
57.681
 30
0.0
 70
0
  0
VERTEX
  5
B0B
  8
0
 10
54.671
 20
57.676
 30
0.0
 70
0
  0
VERTEX
  5
B0C
  8
0
 10
54.676
 20
57.671
 30
0.0
 70
0
  0
VERTEX
  5
B0D
  8
0
 10
54.68
 20
57.666
 30
0.0
 70
0
  0
VERTEX
  5
B0E
  8
0
 10
54.684
 20
57.661
 30
0.0
 70
0
  0
VERTEX
  5
B0F
  8
0
 10
54.688
 20
57.655
 30
0.0
 70
0
  0
VERTEX
  5
B10
  8
0
 10
54.692
 20
57.65
 30
0.0
 70
0
  0
VERTEX
  5
B11
  8
0
 10
54.696
 20
57.644
 30
0.0
 70
0
  0
VERTEX
  5
B12
  8
0
 10
54.7
 20
57.638
 30
0.0
 70
0
  0
VERTEX
  5
B13
  8
0
 10
54.704
 20
57.633
 30
0.0
 70
0
  0
VERTEX
  5
B14
  8
0
 10
54.708
 20
57.627
 30
0.0
 70
0
  0
VERTEX
  5
B15
  8
0
 10
54.711
 20
57.621
 30
0.0
 70
0
  0
VERTEX
  5
B16
  8
0
 10
54.715
 20
57.615
 30
0.0
 70
0
  0
VERTEX
  5
B17
  8
0
 10
54.718
 20
57.61
 30
0.0
 70
0
  0
VERTEX
  5
B18
  8
0
 10
54.722
 20
57.603
 30
0.0
 70
0
  0
VERTEX
  5
B19
  8
0
 10
54.725
 20
57.597
 30
0.0
 70
0
  0
VERTEX
  5
B1A
  8
0
 10
54.728
 20
57.591
 30
0.0
 70
0
  0
VERTEX
  5
B1B
  8
0
 10
54.731
 20
57.585
 30
0.0
 70
0
  0
VERTEX
  5
B1C
  8
0
 10
54.734
 20
57.579
 30
0.0
 70
0
  0
VERTEX
  5
B1D
  8
0
 10
54.737
 20
57.573
 30
0.0
 70
0
  0
VERTEX
  5
B1E
  8
0
 10
54.74
 20
57.566
 30
0.0
 70
0
  0
VERTEX
  5
B1F
  8
0
 10
54.742
 20
57.56
 30
0.0
 70
0
  0
VERTEX
  5
B20
  8
0
 10
54.745
 20
57.553
 30
0.0
 70
0
  0
VERTEX
  5
B21
  8
0
 10
54.748
 20
57.547
 30
0.0
 70
0
  0
VERTEX
  5
B22
  8
0
 10
54.75
 20
57.54
 30
0.0
 70
0
  0
VERTEX
  5
B23
  8
0
 10
54.752
 20
57.534
 30
0.0
 70
0
  0
VERTEX
  5
B24
  8
0
 10
54.755
 20
57.527
 30
0.0
 70
0
  0
VERTEX
  5
B25
  8
0
 10
54.757
 20
57.52
 30
0.0
 70
0
  0
VERTEX
  5
B26
  8
0
 10
54.759
 20
57.513
 30
0.0
 70
0
  0
VERTEX
  5
B27
  8
0
 10
54.761
 20
57.507
 30
0.0
 70
0
  0
VERTEX
  5
B28
  8
0
 10
54.763
 20
57.5
 30
0.0
 70
0
  0
VERTEX
  5
B29
  8
0
 10
54.765
 20
57.493
 30
0.0
 70
0
  0
VERTEX
  5
B2A
  8
0
 10
54.766
 20
57.486
 30
0.0
 70
0
  0
VERTEX
  5
B2B
  8
0
 10
54.768
 20
57.479
 30
0.0
 70
0
  0
VERTEX
  5
B2C
  8
0
 10
54.769
 20
57.472
 30
0.0
 70
0
  0
VERTEX
  5
B2D
  8
0
 10
54.771
 20
57.464
 30
0.0
 70
0
  0
VERTEX
  5
B2E
  8
0
 10
54.772
 20
57.457
 30
0.0
 70
0
  0
VERTEX
  5
B2F
  8
0
 10
54.773
 20
57.45
 30
0.0
 70
0
  0
VERTEX
  5
B30
  8
0
 10
54.774
 20
57.443
 30
0.0
 70
0
  0
VERTEX
  5
B31
  8
0
 10
54.775
 20
57.435
 30
0.0
 70
0
  0
VERTEX
  5
B32
  8
0
 10
54.776
 20
57.428
 30
0.0
 70
0
  0
VERTEX
  5
B33
  8
0
 10
54.776
 20
57.421
 30
0.0
 70
0
  0
VERTEX
  5
B34
  8
0
 10
54.777
 20
57.413
 30
0.0
 70
0
  0
VERTEX
  5
B35
  8
0
 10
54.777
 20
57.406
 30
0.0
 70
0
  0
VERTEX
  5
B36
  8
0
 10
54.778
 20
57.398
 30
0.0
 70
0
  0
VERTEX
  5
B37
  8
0
 10
54.778
 20
57.391
 30
0.0
 70
0
  0
VERTEX
  5
B38
  8
0
 10
54.778
 20
57.383
 30
0.0
 70
0
  0
VERTEX
  5
B39
  8
0
 10
54.778
 20
57.375
 30
0.0
 70
0
  0
SEQEND
  5
99F
  8
0
  0
POLYLINE
  5
B3A
  8
0
 66
1
 10
0.0
 20
0.0
 30
0.0
 70
0
  0
VERTEX
  5
B3C
  8
0
 10
54.713
 20
57.375
 30
0.0
 70
0
  0
VERTEX
  5
B3D
  8
0
 10
54.712
 20
57.369
 30
0.0
 70
0
  0
VERTEX
  5
B3E
  8
0
 10
54.712
 20
57.362
 30
0.0
 70
0
  0
VERTEX
  5
B3F
  8
0
 10
54.712
 20
57.354
 30
0.0
 70
0
  0
VERTEX
  5
B40
  8
0
 10
54.712
 20
57.347
 30
0.0
 70
0
  0
VERTEX
  5
B41
  8
0
 10
54.711
 20
57.339
 30
0.0
 70
0
  0
VERTEX
  5
B42
  8
0
 10
54.711
 20
57.332
 30
0.0
 70
0
  0
VERTEX
  5
B43
  8
0
 10
54.71
 20
57.325
 30
0.0
 70
0
  0
VERTEX
  5
B44
  8
0
 10
54.709
 20
57.318
 30
0.0
 70
0
  0
VERTEX
  5
B45
  8
0
 10
54.708
 20
57.311
 30
0.0
 70
0
  0
VERTEX
  5
B46
  8
0
 10
54.707
 20
57.304
 30
0.0
 70
0
  0
VERTEX
  5
B47
  8
0
 10
54.706
 20
57.297
 30
0.0
 70
0
  0
VERTEX
  5
B48
  8
0
 10
54.705
 20
57.29
 30
0.0
 70
0
  0
VERTEX
  5
B49
  8
0
 10
54.704
 20
57.283
 30
0.0
 70
0
  0
VERTEX
  5
B4A
  8
0
 10
54.702
 20
57.277
 30
0.0
 70
0
  0
VERTEX
  5
B4B
  8
0
 10
54.701
 20
57.27
 30
0.0
 70
0
  0
VERTEX
  5
B4C
  8
0
 10
54.699
 20
57.263
 30
0.0
 70
0
  0
VERTEX
  5
B4D
  8
0
 10
54.697
 20
57.257
 30
0.0
 70
0
  0
VERTEX
  5
B4E
  8
0
 10
54.696
 20
57.251
 30
0.0
 70
0
  0
VERTEX
  5
B4F
  8
0
 10
54.694
 20
57.244
 30
0.0
 70
0
  0
VERTEX
  5
B50
  8
0
 10
54.692
 20
57.238
 30
0.0
 70
0
  0
VERTEX
  5
B51
  8
0
 10
54.69
 20
57.232
 30
0.0
 70
0
  0
VERTEX
  5
B52
  8
0
 10
54.688
 20
57.226
 30
0.0
 70
0
  0
VERTEX
  5
B53
  8
0
 10
54.685
 20
57.22
 30
0.0
 70
0
  0
VERTEX
  5
B54
  8
0
 10
54.683
 20
57.214
 30
0.0
 70
0
  0
VERTEX
  5
B55
  8
0
 10
54.681
 20
57.208
 30
0.0
 70
0
  0
VERTEX
  5
B56
  8
0
 10
54.678
 20
57.202
 30
0.0
 70
0
  0
VERTEX
  5
B57
  8
0
 10
54.676
 20
57.197
 30
0.0
 70
0
  0
VERTEX
  5
B58
  8
0
 10
54.673
 20
57.191
 30
0.0
 70
0
  0
VERTEX
  5
B59
  8
0
 10
54.67
 20
57.185
 30
0.0
 70
0
  0
VERTEX
  5
B5A
  8
0
 10
54.668
 20
57.18
 30
0.0
 70
0
  0
VERTEX
  5
B5B
  8
0
 10
54.665
 20
57.174
 30
0.0
 70
0
  0
VERTEX
  5
B5C
  8
0
 10
54.662
 20
57.169
 30
0.0
 70
0
  0
VERTEX
  5
B5D
  8
0
 10
54.659
 20
57.164
 30
0.0
 70
0
  0
VERTEX
  5
B5E
  8
0
 10
54.656
 20
57.159
 30
0.0
 70
0
  0
VERTEX
  5
B5F
  8
0
 10
54.652
 20
57.154
 30
0.0
 70
0
  0
VERTEX
  5
B60
  8
0
 10
54.649
 20
57.149
 30
0.0
 70
0
  0
VERTEX
  5
B61
  8
0
 10
54.646
 20
57.144
 30
0.0
 70
0
  0
VERTEX
  5
B62
  8
0
 10
54.642
 20
57.139
 30
0.0
 70
0
  0
VERTEX
  5
B63
  8
0
 10
54.639
 20
57.134
 30
0.0
 70
0
  0
VERTEX
  5
B64
  8
0
 10
54.635
 20
57.129
 30
0.0
 70
0
  0
VERTEX
  5
B65
  8
0
 10
54.631
 20
57.125
 30
0.0
 70
0
  0
VERTEX
  5
B66
  8
0
 10
54.628
 20
57.12
 30
0.0
 70
0
  0
VERTEX
  5
B67
  8
0
 10
54.624
 20
57.115
 30
0.0
 70
0
  0
VERTEX
  5
B68
  8
0
 10
54.62
 20
57.111
 30
0.0
 70
0
  0
VERTEX
  5
B69
  8
0
 10
54.616
 20
57.107
 30
0.0
 70
0
  0
VERTEX
  5
B6A
  8
0
 10
54.612
 20
57.102
 30
0.0
 70
0
  0
VERTEX
  5
B6B
  8
0
 10
54.608
 20
57.098
 30
0.0
 70
0
  0
VERTEX
  5
B6C
  8
0
 10
54.604
 20
57.094
 30
0.0
 70
0
  0
VERTEX
  5
B6D
  8
0
 10
54.6
 20
57.09
 30
0.0
 70
0
  0
VERTEX
  5
B6E
  8
0
 10
54.596
 20
57.086
 30
0.0
 70
0
  0
VERTEX
  5
B6F
  8
0
 10
54.592
 20
57.082
 30
0.0
 70
0
  0
VERTEX
  5
B70
  8
0
 10
54.587
 20
57.078
 30
0.0
 70
0
  0
VERTEX
  5
B71
  8
0
 10
54.583
 20
57.074
 30
0.0
 70
0
  0
VERTEX
  5
B72
  8
0
 10
54.579
 20
57.071
 30
0.0
 70
0
  0
VERTEX
  5
B73
  8
0
 10
54.574
 20
57.067
 30
0.0
 70
0
  0
VERTEX
  5
B74
  8
0
 10
54.57
 20
57.064
 30
0.0
 70
0
  0
VERTEX
  5
B75
  8
0
 10
54.565
 20
57.06
 30
0.0
 70
0
  0
VERTEX
  5
B76
  8
0
 10
54.56
 20
57.057
 30
0.0
 70
0
  0
VERTEX
  5
B77
  8
0
 10
54.556
 20
57.053
 30
0.0
 70
0
  0
VERTEX
  5
B78
  8
0
 10
54.551
 20
57.05
 30
0.0
 70
0
  0
VERTEX
  5
B79
  8
0
 10
54.546
 20
57.047
 30
0.0
 70
0
  0
VERTEX
  5
B7A
  8
0
 10
54.541
 20
57.044
 30
0.0
 70
0
  0
VERTEX
  5
B7B
  8
0
 10
54.537
 20
57.041
 30
0.0
 70
0
  0
VERTEX
  5
B7C
  8
0
 10
54.532
 20
57.038
 30
0.0
 70
0
  0
VERTEX
  5
B7D
  8
0
 10
54.527
 20
57.035
 30
0.0
 70
0
  0
VERTEX
  5
B7E
  8
0
 10
54.522
 20
57.032
 30
0.0
 70
0
  0
VERTEX
  5
B7F
  8
0
 10
54.517
 20
57.03
 30
0.0
 70
0
  0
VERTEX
  5
B80
  8
0
 10
54.512
 20
57.027
 30
0.0
 70
0
  0
VERTEX
  5
B81
  8
0
 10
54.506
 20
57.025
 30
0.0
 70
0
  0
VERTEX
  5
B82
  8
0
 10
54.501
 20
57.022
 30
0.0
 70
0
  0
VERTEX
  5
B83
  8
0
 10
54.496
 20
57.02
 30
0.0
 70
0
  0
VERTEX
  5
B84
  8
0
 10
54.491
 20
57.017
 30
0.0
 70
0
  0
VERTEX
  5
B85
  8
0
 10
54.486
 20
57.015
 30
0.0
 70
0
  0
VERTEX
  5
B86
  8
0
 10
54.48
 20
57.013
 30
0.0
 70
0
  0
VERTEX
  5
B87
  8
0
 10
54.475
 20
57.011
 30
0.0
 70
0
  0
VERTEX
  5
B88
  8
0
 10
54.47
 20
57.009
 30
0.0
 70
0
  0
VERTEX
  5
B89
  8
0
 10
54.464
 20
57.007
 30
0.0
 70
0
  0
VERTEX
  5
B8A
  8
0
 10
54.459
 20
57.005
 30
0.0
 70
0
  0
VERTEX
  5
B8B
  8
0
 10
54.453
 20
57.003
 30
0.0
 70
0
  0
VERTEX
  5
B8C
  8
0
 10
54.448
 20
57.001
 30
0.0
 70
0
  0
VERTEX
  5
B8D
  8
0
 10
54.443
 20
57.0
 30
0.0
 70
0
  0
VERTEX
  5
B8E
  8
0
 10
54.437
 20
56.998
 30
0.0
 70
0
  0
VERTEX
  5
B8F
  8
0
 10
54.432
 20
56.997
 30
0.0
 70
0
  0
VERTEX
  5
B90
  8
0
 10
54.426
 20
56.995
 30
0.0
 70
0
  0
VERTEX
  5
B91
  8
0
 10
54.42
 20
56.994
 30
0.0
 70
0
  0
VERTEX
  5
B92
  8
0
 10
54.415
 20
56.993
 30
0.0
 70
0
  0
VERTEX
  5
B93
  8
0
 10
54.409
 20
56.991
 30
0.0
 70
0
  0
VERTEX
  5
B94
  8
0
 10
54.404
 20
56.99
 30
0.0
 70
0
  0
VERTEX
  5
B95
  8
0
 10
54.398
 20
56.989
 30
0.0
 70
0
  0
VERTEX
  5
B96
  8
0
 10
54.392
 20
56.988
 30
0.0
 70
0
  0
VERTEX
  5
B97
  8
0
 10
54.387
 20
56.987
 30
0.0
 70
0
  0
VERTEX
  5
B98
  8
0
 10
54.381
 20
56.986
 30
0.0
 70
0
  0
VERTEX
  5
B99
  8
0
 10
54.375
 20
56.986
 30
0.0
 70
0
  0
VERTEX
  5
B9A
  8
0
 10
54.37
 20
56.985
 30
0.0
 70
0
  0
VERTEX
  5
B9B
  8
0
 10
54.364
 20
56.984
 30
0.0
 70
0
  0
VERTEX
  5
B9C
  8
0
 10
54.358
 20
56.984
 30
0.0
 70
0
  0
VERTEX
  5
B9D
  8
0
 10
54.352
 20
56.984
 30
0.0
 70
0
  0
VERTEX
  5
B9E
  8
0
 10
54.347
 20
56.983
 30
0.0
 70
0
  0
VERTEX
  5
B9F
  8
0
 10
54.341
 20
56.983
 30
0.0
 70
0
  0
VERTEX
  5
BA0
  8
0
 10
54.335
 20
56.983
 30
0.0
 70
0
  0
VERTEX
  5
BA1
  8
0
 10
54.329
 20
56.982
 30
0.0
 70
0
  0
VERTEX
  5
BA2
  8
0
 10
54.324
 20
56.982
 30
0.0
 70
0
  0
VERTEX
  5
BA3
  8
0
 10
54.317
 20
56.982
 30
0.0
 70
0
  0
VERTEX
  5
BA4
  8
0
 10
54.309
 20
56.982
 30
0.0
 70
0
  0
VERTEX
  5
BA5
  8
0
 10
54.302
 20
56.983
 30
0.0
 70
0
  0
VERTEX
  5
BA6
  8
0
 10
54.294
 20
56.983
 30
0.0
 70
0
  0
VERTEX
  5
BA7
  8
0
 10
54.287
 20
56.983
 30
0.0
 70
0
  0
VERTEX
  5
BA8
  8
0
 10
54.28
 20
56.984
 30
0.0
 70
0
  0
VERTEX
  5
BA9
  8
0
 10
54.272
 20
56.984
 30
0.0
 70
0
  0
VERTEX
  5
BAA
  8
0
 10
54.265
 20
56.985
 30
0.0
 70
0
  0
VERTEX
  5
BAB
  8
0
 10
54.258
 20
56.985
 30
0.0
 70
0
  0
VERTEX
  5
BAC
  8
0
 10
54.251
 20
56.986
 30
0.0
 70
0
  0
VERTEX
  5
BAD
  8
0
 10
54.244
 20
56.987
 30
0.0
 70
0
  0
VERTEX
  5
BAE
  8
0
 10
54.238
 20
56.988
 30
0.0
 70
0
  0
VERTEX
  5
BAF
  8
0
 10
54.231
 20
56.988
 30
0.0
 70
0
  0
VERTEX
  5
BB0
  8
0
 10
54.224
 20
56.989
 30
0.0
 70
0
  0
VERTEX
  5
BB1
  8
0
 10
54.218
 20
56.99
 30
0.0
 70
0
  0
VERTEX
  5
BB2
  8
0
 10
54.211
 20
56.992
 30
0.0
 70
0
  0
VERTEX
  5
BB3
  8
0
 10
54.205
 20
56.993
 30
0.0
 70
0
  0
VERTEX
  5
BB4
  8
0
 10
54.198
 20
56.994
 30
0.0
 70
0
  0
VERTEX
  5
BB5
  8
0
 10
54.192
 20
56.996
 30
0.0
 70
0
  0
VERTEX
  5
BB6
  8
0
 10
54.186
 20
56.997
 30
0.0
 70
0
  0
VERTEX
  5
BB7
  8
0
 10
54.18
 20
56.998
 30
0.0
 70
0
  0
VERTEX
  5
BB8
  8
0
 10
54.174
 20
57.0
 30
0.0
 70
0
  0
VERTEX
  5
BB9
  8
0
 10
54.167
 20
57.002
 30
0.0
 70
0
  0
VERTEX
  5
BBA
  8
0
 10
54.162
 20
57.003
 30
0.0
 70
0
  0
VERTEX
  5
BBB
  8
0
 10
54.156
 20
57.005
 30
0.0
 70
0
  0
VERTEX
  5
BBC
  8
0
 10
54.15
 20
57.007
 30
0.0
 70
0
  0
VERTEX
  5
BBD
  8
0
 10
54.144
 20
57.009
 30
0.0
 70
0
  0
VERTEX
  5
BBE
  8
0
 10
54.139
 20
57.011
 30
0.0
 70
0
  0
VERTEX
  5
BBF
  8
0
 10
54.133
 20
57.013
 30
0.0
 70
0
  0
VERTEX
  5
BC0
  8
0
 10
54.128
 20
57.015
 30
0.0
 70
0
  0
VERTEX
  5
BC1
  8
0
 10
54.122
 20
57.018
 30
0.0
 70
0
  0
VERTEX
  5
BC2
  8
0
 10
54.117
 20
57.02
 30
0.0
 70
0
  0
VERTEX
  5
BC3
  8
0
 10
54.112
 20
57.023
 30
0.0
 70
0
  0
VERTEX
  5
BC4
  8
0
 10
54.107
 20
57.025
 30
0.0
 70
0
  0
VERTEX
  5
BC5
  8
0
 10
54.102
 20
57.028
 30
0.0
 70
0
  0
VERTEX
  5
BC6
  8
0
 10
54.096
 20
57.03
 30
0.0
 70
0
  0
VERTEX
  5
BC7
  8
0
 10
54.092
 20
57.033
 30
0.0
 70
0
  0
VERTEX
  5
BC8
  8
0
 10
54.087
 20
57.036
 30
0.0
 70
0
  0
VERTEX
  5
BC9
  8
0
 10
54.082
 20
57.039
 30
0.0
 70
0
  0
VERTEX
  5
BCA
  8
0
 10
54.077
 20
57.042
 30
0.0
 70
0
  0
VERTEX
  5
BCB
  8
0
 10
54.073
 20
57.045
 30
0.0
 70
0
  0
VERTEX
  5
BCC
  8
0
 10
54.068
 20
57.048
 30
0.0
 70
0
  0
VERTEX
  5
BCD
  8
0
 10
54.063
 20
57.051
 30
0.0
 70
0
  0
VERTEX
  5
BCE
  8
0
 10
54.059
 20
57.054
 30
0.0
 70
0
  0
VERTEX
  5
BCF
  8
0
 10
54.055
 20
57.057
 30
0.0
 70
0
  0
VERTEX
  5
BD0
  8
0
 10
54.051
 20
57.061
 30
0.0
 70
0
  0
VERTEX
  5
BD1
  8
0
 10
54.046
 20
57.064
 30
0.0
 70
0
  0
VERTEX
  5
BD2
  8
0
 10
54.042
 20
57.068
 30
0.0
 70
0
  0
VERTEX
  5
BD3
  8
0
 10
54.038
 20
57.072
 30
0.0
 70
0
  0
VERTEX
  5
BD4
  8
0
 10
54.034
 20
57.075
 30
0.0
 70
0
  0
VERTEX
  5
BD5
  8
0
 10
54.03
 20
57.079
 30
0.0
 70
0
  0
VERTEX
  5
BD6
  8
0
 10
54.026
 20
57.083
 30
0.0
 70
0
  0
VERTEX
  5
BD7
  8
0
 10
54.023
 20
57.087
 30
0.0
 70
0
  0
VERTEX
  5
BD8
  8
0
 10
54.019
 20
57.091
 30
0.0
 70
0
  0
VERTEX
  5
BD9
  8
0
 10
54.016
 20
57.095
 30
0.0
 70
0
  0
VERTEX
  5
BDA
  8
0
 10
54.012
 20
57.099
 30
0.0
 70
0
  0
VERTEX
  5
BDB
  8
0
 10
54.008
 20
57.103
 30
0.0
 70
0
  0
VERTEX
  5
BDC
  8
0
 10
54.005
 20
57.107
 30
0.0
 70
0
  0
VERTEX
  5
BDD
  8
0
 10
54.002
 20
57.112
 30
0.0
 70
0
  0
VERTEX
  5
BDE
  8
0
 10
53.999
 20
57.116
 30
0.0
 70
0
  0
VERTEX
  5
BDF
  8
0
 10
53.995
 20
57.121
 30
0.0
 70
0
  0
VERTEX
  5
BE0
  8
0
 10
53.992
 20
57.125
 30
0.0
 70
0
  0
VERTEX
  5
BE1
  8
0
 10
53.989
 20
57.13
 30
0.0
 70
0
  0
VERTEX
  5
BE2
  8
0
 10
53.987
 20
57.135
 30
0.0
 70
0
  0
VERTEX
  5
BE3
  8
0
 10
53.984
 20
57.14
 30
0.0
 70
0
  0
VERTEX
  5
BE4
  8
0
 10
53.981
 20
57.145
 30
0.0
 70
0
  0
VERTEX
  5
BE5
  8
0
 10
53.978
 20
57.15
 30
0.0
 70
0
  0
VERTEX
  5
BE6
  8
0
 10
53.976
 20
57.155
 30
0.0
 70
0
  0
VERTEX
  5
BE7
  8
0
 10
53.973
 20
57.16
 30
0.0
 70
0
  0
VERTEX
  5
BE8
  8
0
 10
53.971
 20
57.165
 30
0.0
 70
0
  0
VERTEX
  5
BE9
  8
0
 10
53.968
 20
57.17
 30
0.0
 70
0
  0
VERTEX
  5
BEA
  8
0
 10
53.966
 20
57.176
 30
0.0
 70
0
  0
VERTEX
  5
BEB
  8
0
 10
53.964
 20
57.181
 30
0.0
 70
0
  0
VERTEX
  5
BEC
  8
0
 10
53.961
 20
57.187
 30
0.0
 70
0
  0
VERTEX
  5
BED
  8
0
 10
53.959
 20
57.192
 30
0.0
 70
0
  0
VERTEX
  5
BEE
  8
0
 10
53.957
 20
57.198
 30
0.0
 70
0
  0
VERTEX
  5
BEF
  8
0
 10
53.955
 20
57.203
 30
0.0
 70
0
  0
VERTEX
  5
BF0
  8
0
 10
53.954
 20
57.209
 30
0.0
 70
0
  0
VERTEX
  5
BF1
  8
0
 10
53.952
 20
57.215
 30
0.0
 70
0
  0
VERTEX
  5
BF2
  8
0
 10
53.95
 20
57.221
 30
0.0
 70
0
  0
VERTEX
  5
BF3
  8
0
 10
53.948
 20
57.227
 30
0.0
 70
0
  0
VERTEX
  5
BF4
  8
0
 10
53.947
 20
57.233
 30
0.0
 70
0
  0
VERTEX
  5
BF5
  8
0
 10
53.945
 20
57.239
 30
0.0
 70
0
  0
VERTEX
  5
BF6
  8
0
 10
53.944
 20
57.246
 30
0.0
 70
0
  0
VERTEX
  5
BF7
  8
0
 10
53.943
 20
57.252
 30
0.0
 70
0
  0
VERTEX
  5
BF8
  8
0
 10
53.941
 20
57.258
 30
0.0
 70
0
  0
VERTEX
  5
BF9
  8
0
 10
53.94
 20
57.265
 30
0.0
 70
0
  0
VERTEX
  5
BFA
  8
0
 10
53.939
 20
57.271
 30
0.0
 70
0
  0
VERTEX
  5
BFB
  8
0
 10
53.938
 20
57.278
 30
0.0
 70
0
  0
VERTEX
  5
BFC
  8
0
 10
53.937
 20
57.285
 30
0.0
 70
0
  0
VERTEX
  5
BFD
  8
0
 10
53.936
 20
57.291
 30
0.0
 70
0
  0
VERTEX
  5
BFE
  8
0
 10
53.935
 20
57.298
 30
0.0
 70
0
  0
VERTEX
  5
BFF
  8
0
 10
53.934
 20
57.305
 30
0.0
 70
0
  0
VERTEX
  5
C00
  8
0
 10
53.934
 20
57.312
 30
0.0
 70
0
  0
VERTEX
  5
C01
  8
0
 10
53.933
 20
57.319
 30
0.0
 70
0
  0
VERTEX
  5
C02
  8
0
 10
53.933
 20
57.326
 30
0.0
 70
0
  0
VERTEX
  5
C03
  8
0
 10
53.932
 20
57.334
 30
0.0
 70
0
  0
VERTEX
  5
C04
  8
0
 10
53.932
 20
57.341
 30
0.0
 70
0
  0
VERTEX
  5
C05
  8
0
 10
53.931
 20
57.348
 30
0.0
 70
0
  0
VERTEX
  5
C06
  8
0
 10
53.931
 20
57.356
 30
0.0
 70
0
  0
VERTEX
  5
C07
  8
0
 10
53.931
 20
57.363
 30
0.0
 70
0
  0
VERTEX
  5
C08
  8
0
 10
53.931
 20
57.371
 30
0.0
 70
0
  0
VERTEX
  5
C09
  8
0
 10
53.931
 20
57.378
 30
0.0
 70
0
  0
VERTEX
  5
C0A
  8
0
 10
53.931
 20
57.383
 30
0.0
 70
0
  0
VERTEX
  5
C0B
  8
0
 10
53.931
 20
57.389
 30
0.0
 70
0
  0
VERTEX
  5
C0C
  8
0
 10
53.931
 20
57.395
 30
0.0
 70
0
  0
VERTEX
  5
C0D
  8
0
 10
53.932
 20
57.401
 30
0.0
 70
0
  0
VERTEX
  5
C0E
  8
0
 10
53.932
 20
57.406
 30
0.0
 70
0
  0
VERTEX
  5
C0F
  8
0
 10
53.933
 20
57.412
 30
0.0
 70
0
  0
VERTEX
  5
C10
  8
0
 10
53.933
 20
57.418
 30
0.0
 70
0
  0
VERTEX
  5
C11
  8
0
 10
53.934
 20
57.423
 30
0.0
 70
0
  0
VERTEX
  5
C12
  8
0
 10
53.934
 20
57.429
 30
0.0
 70
0
  0
VERTEX
  5
C13
  8
0
 10
53.935
 20
57.435
 30
0.0
 70
0
  0
VERTEX
  5
C14
  8
0
 10
53.936
 20
57.441
 30
0.0
 70
0
  0
VERTEX
  5
C15
  8
0
 10
53.937
 20
57.446
 30
0.0
 70
0
  0
VERTEX
  5
C16
  8
0
 10
53.938
 20
57.452
 30
0.0
 70
0
  0
VERTEX
  5
C17
  8
0
 10
53.939
 20
57.457
 30
0.0
 70
0
  0
VERTEX
  5
C18
  8
0
 10
53.94
 20
57.463
 30
0.0
 70
0
  0
VERTEX
  5
C19
  8
0
 10
53.941
 20
57.469
 30
0.0
 70
0
  0
VERTEX
  5
C1A
  8
0
 10
53.942
 20
57.474
 30
0.0
 70
0
  0
VERTEX
  5
C1B
  8
0
 10
53.944
 20
57.48
 30
0.0
 70
0
  0
VERTEX
  5
C1C
  8
0
 10
53.945
 20
57.485
 30
0.0
 70
0
  0
VERTEX
  5
C1D
  8
0
 10
53.946
 20
57.491
 30
0.0
 70
0
  0
VERTEX
  5
C1E
  8
0
 10
53.948
 20
57.496
 30
0.0
 70
0
  0
VERTEX
  5
C1F
  8
0
 10
53.95
 20
57.502
 30
0.0
 70
0
  0
VERTEX
  5
C20
  8
0
 10
53.951
 20
57.507
 30
0.0
 70
0
  0
VERTEX
  5
C21
  8
0
 10
53.953
 20
57.513
 30
0.0
 70
0
  0
VERTEX
  5
C22
  8
0
 10
53.955
 20
57.518
 30
0.0
 70
0
  0
VERTEX
  5
C23
  8
0
 10
53.957
 20
57.523
 30
0.0
 70
0
  0
VERTEX
  5
C24
  8
0
 10
53.959
 20
57.529
 30
0.0
 70
0
  0
VERTEX
  5
C25
  8
0
 10
53.961
 20
57.534
 30
0.0
 70
0
  0
VERTEX
  5
C26
  8
0
 10
53.963
 20
57.539
 30
0.0
 70
0
  0
VERTEX
  5
C27
  8
0
 10
53.965
 20
57.545
 30
0.0
 70
0
  0
VERTEX
  5
C28
  8
0
 10
53.968
 20
57.55
 30
0.0
 70
0
  0
VERTEX
  5
C29
  8
0
 10
53.97
 20
57.555
 30
0.0
 70
0
  0
VERTEX
  5
C2A
  8
0
 10
53.973
 20
57.56
 30
0.0
 70
0
  0
VERTEX
  5
C2B
  8
0
 10
53.975
 20
57.565
 30
0.0
 70
0
  0
VERTEX
  5
C2C
  8
0
 10
53.978
 20
57.57
 30
0.0
 70
0
  0
VERTEX
  5
C2D
  8
0
 10
53.98
 20
57.575
 30
0.0
 70
0
  0
VERTEX
  5
C2E
  8
0
 10
53.983
 20
57.58
 30
0.0
 70
0
  0
VERTEX
  5
C2F
  8
0
 10
53.986
 20
57.585
 30
0.0
 70
0
  0
VERTEX
  5
C30
  8
0
 10
53.989
 20
57.59
 30
0.0
 70
0
  0
VERTEX
  5
C31
  8
0
 10
53.992
 20
57.595
 30
0.0
 70
0
  0
VERTEX
  5
C32
  8
0
 10
53.995
 20
57.6
 30
0.0
 70
0
  0
VERTEX
  5
C33
  8
0
 10
53.998
 20
57.605
 30
0.0
 70
0
  0
VERTEX
  5
C34
  8
0
 10
54.001
 20
57.609
 30
0.0
 70
0
  0
VERTEX
  5
C35
  8
0
 10
54.004
 20
57.614
 30
0.0
 70
0
  0
VERTEX
  5
C36
  8
0
 10
54.008
 20
57.619
 30
0.0
 70
0
  0
VERTEX
  5
C37
  8
0
 10
54.011
 20
57.623
 30
0.0
 70
0
  0
VERTEX
  5
C38
  8
0
 10
54.015
 20
57.628
 30
0.0
 70
0
  0
VERTEX
  5
C39
  8
0
 10
54.018
 20
57.632
 30
0.0
 70
0
  0
VERTEX
  5
C3A
  8
0
 10
54.022
 20
57.637
 30
0.0
 70
0
  0
VERTEX
  5
C3B
  8
0
 10
54.026
 20
57.641
 30
0.0
 70
0
  0
VERTEX
  5
C3C
  8
0
 10
54.03
 20
57.645
 30
0.0
 70
0
  0
VERTEX
  5
C3D
  8
0
 10
54.033
 20
57.65
 30
0.0
 70
0
  0
VERTEX
  5
C3E
  8
0
 10
54.037
 20
57.654
 30
0.0
 70
0
  0
VERTEX
  5
C3F
  8
0
 10
54.041
 20
57.658
 30
0.0
 70
0
  0
VERTEX
  5
C40
  8
0
 10
54.045
 20
57.662
 30
0.0
 70
0
  0
VERTEX
  5
C41
  8
0
 10
54.05
 20
57.666
 30
0.0
 70
0
  0
VERTEX
  5
C42
  8
0
 10
54.054
 20
57.67
 30
0.0
 70
0
  0
VERTEX
  5
C43
  8
0
 10
54.058
 20
57.674
 30
0.0
 70
0
  0
VERTEX
  5
C44
  8
0
 10
54.063
 20
57.678
 30
0.0
 70
0
  0
VERTEX
  5
C45
  8
0
 10
54.067
 20
57.681
 30
0.0
 70
0
  0
VERTEX
  5
C46
  8
0
 10
54.072
 20
57.685
 30
0.0
 70
0
  0
VERTEX
  5
C47
  8
0
 10
54.076
 20
57.689
 30
0.0
 70
0
  0
VERTEX
  5
C48
  8
0
 10
54.081
 20
57.692
 30
0.0
 70
0
  0
VERTEX
  5
C49
  8
0
 10
54.086
 20
57.696
 30
0.0
 70
0
  0
VERTEX
  5
C4A
  8
0
 10
54.091
 20
57.699
 30
0.0
 70
0
  0
VERTEX
  5
C4B
  8
0
 10
54.096
 20
57.703
 30
0.0
 70
0
  0
VERTEX
  5
C4C
  8
0
 10
54.1
 20
57.706
 30
0.0
 70
0
  0
VERTEX
  5
C4D
  8
0
 10
54.106
 20
57.709
 30
0.0
 70
0
  0
VERTEX
  5
C4E
  8
0
 10
54.111
 20
57.712
 30
0.0
 70
0
  0
VERTEX
  5
C4F
  8
0
 10
54.116
 20
57.715
 30
0.0
 70
0
  0
VERTEX
  5
C50
  8
0
 10
54.121
 20
57.718
 30
0.0
 70
0
  0
VERTEX
  5
C51
  8
0
 10
54.127
 20
57.721
 30
0.0
 70
0
  0
VERTEX
  5
C52
  8
0
 10
54.132
 20
57.724
 30
0.0
 70
0
  0
VERTEX
  5
C53
  8
0
 10
54.138
 20
57.727
 30
0.0
 70
0
  0
VERTEX
  5
C54
  8
0
 10
54.143
 20
57.729
 30
0.0
 70
0
  0
VERTEX
  5
C55
  8
0
 10
54.149
 20
57.732
 30
0.0
 70
0
  0
VERTEX
  5
C56
  8
0
 10
54.155
 20
57.735
 30
0.0
 70
0
  0
VERTEX
  5
C57
  8
0
 10
54.16
 20
57.737
 30
0.0
 70
0
  0
VERTEX
  5
C58
  8
0
 10
54.166
 20
57.739
 30
0.0
 70
0
  0
VERTEX
  5
C59
  8
0
 10
54.172
 20
57.741
 30
0.0
 70
0
  0
VERTEX
  5
C5A
  8
0
 10
54.178
 20
57.744
 30
0.0
 70
0
  0
VERTEX
  5
C5B
  8
0
 10
54.184
 20
57.746
 30
0.0
 70
0
  0
VERTEX
  5
C5C
  8
0
 10
54.191
 20
57.748
 30
0.0
 70
0
  0
VERTEX
  5
C5D
  8
0
 10
54.197
 20
57.749
 30
0.0
 70
0
  0
VERTEX
  5
C5E
  8
0
 10
54.203
 20
57.751
 30
0.0
 70
0
  0
VERTEX
  5
C5F
  8
0
 10
54.21
 20
57.753
 30
0.0
 70
0
  0
VERTEX
  5
C60
  8
0
 10
54.216
 20
57.755
 30
0.0
 70
0
  0
VERTEX
  5
C61
  8
0
 10
54.223
 20
57.756
 30
0.0
 70
0
  0
VERTEX
  5
C62
  8
0
 10
54.229
 20
57.757
 30
0.0
 70
0
  0
VERTEX
  5
C63
  8
0
 10
54.236
 20
57.759
 30
0.0
 70
0
  0
VERTEX
  5
C64
  8
0
 10
54.243
 20
57.76
 30
0.0
 70
0
  0
VERTEX
  5
C65
  8
0
 10
54.25
 20
57.761
 30
0.0
 70
0
  0
VERTEX
  5
C66
  8
0
 10
54.257
 20
57.762
 30
0.0
 70
0
  0
VERTEX
  5
C67
  8
0
 10
54.264
 20
57.763
 30
0.0
 70
0
  0
VERTEX
  5
C68
  8
0
 10
54.271
 20
57.764
 30
0.0
 70
0
  0
VERTEX
  5
C69
  8
0
 10
54.278
 20
57.764
 30
0.0
 70
0
  0
VERTEX
  5
C6A
  8
0
 10
54.285
 20
57.765
 30
0.0
 70
0
  0
VERTEX
  5
C6B
  8
0
 10
54.293
 20
57.765
 30
0.0
 70
0
  0
VERTEX
  5
C6C
  8
0
 10
54.3
 20
57.766
 30
0.0
 70
0
  0
VERTEX
  5
C6D
  8
0
 10
54.308
 20
57.766
 30
0.0
 70
0
  0
VERTEX
  5
C6E
  8
0
 10
54.315
 20
57.766
 30
0.0
 70
0
  0
VERTEX
  5
C6F
  8
0
 10
54.323
 20
57.766
 30
0.0
 70
0
  0
VERTEX
  5
C70
  8
0
 10
54.328
 20
57.766
 30
0.0
 70
0
  0
VERTEX
  5
C71
  8
0
 10
54.334
 20
57.766
 30
0.0
 70
0
  0
VERTEX
  5
C72
  8
0
 10
54.34
 20
57.766
 30
0.0
 70
0
  0
VERTEX
  5
C73
  8
0
 10
54.346
 20
57.765
 30
0.0
 70
0
  0
VERTEX
  5
C74
  8
0
 10
54.351
 20
57.765
 30
0.0
 70
0
  0
VERTEX
  5
C75
  8
0
 10
54.357
 20
57.764
 30
0.0
 70
0
  0
VERTEX
  5
C76
  8
0
 10
54.363
 20
57.763
 30
0.0
 70
0
  0
VERTEX
  5
C77
  8
0
 10
54.368
 20
57.763
 30
0.0
 70
0
  0
VERTEX
  5
C78
  8
0
 10
54.374
 20
57.762
 30
0.0
 70
0
  0
VERTEX
  5
C79
  8
0
 10
54.38
 20
57.761
 30
0.0
 70
0
  0
VERTEX
  5
C7A
  8
0
 10
54.385
 20
57.759
 30
0.0
 70
0
  0
VERTEX
  5
C7B
  8
0
 10
54.391
 20
57.758
 30
0.0
 70
0
  0
VERTEX
  5
C7C
  8
0
 10
54.397
 20
57.757
 30
0.0
 70
0
  0
VERTEX
  5
C7D
  8
0
 10
54.402
 20
57.755
 30
0.0
 70
0
  0
VERTEX
  5
C7E
  8
0
 10
54.408
 20
57.754
 30
0.0
 70
0
  0
VERTEX
  5
C7F
  8
0
 10
54.414
 20
57.752
 30
0.0
 70
0
  0
VERTEX
  5
C80
  8
0
 10
54.419
 20
57.751
 30
0.0
 70
0
  0
VERTEX
  5
C81
  8
0
 10
54.425
 20
57.749
 30
0.0
 70
0
  0
VERTEX
  5
C82
  8
0
 10
54.43
 20
57.747
 30
0.0
 70
0
  0
VERTEX
  5
C83
  8
0
 10
54.436
 20
57.745
 30
0.0
 70
0
  0
VERTEX
  5
C84
  8
0
 10
54.441
 20
57.743
 30
0.0
 70
0
  0
VERTEX
  5
C85
  8
0
 10
54.447
 20
57.741
 30
0.0
 70
0
  0
VERTEX
  5
C86
  8
0
 10
54.452
 20
57.738
 30
0.0
 70
0
  0
VERTEX
  5
C87
  8
0
 10
54.458
 20
57.736
 30
0.0
 70
0
  0
VERTEX
  5
C88
  8
0
 10
54.463
 20
57.733
 30
0.0
 70
0
  0
VERTEX
  5
C89
  8
0
 10
54.469
 20
57.731
 30
0.0
 70
0
  0
VERTEX
  5
C8A
  8
0
 10
54.474
 20
57.728
 30
0.0
 70
0
  0
VERTEX
  5
C8B
  8
0
 10
54.479
 20
57.726
 30
0.0
 70
0
  0
VERTEX
  5
C8C
  8
0
 10
54.485
 20
57.723
 30
0.0
 70
0
  0
VERTEX
  5
C8D
  8
0
 10
54.49
 20
57.72
 30
0.0
 70
0
  0
VERTEX
  5
C8E
  8
0
 10
54.495
 20
57.717
 30
0.0
 70
0
  0
VERTEX
  5
C8F
  8
0
 10
54.5
 20
57.714
 30
0.0
 70
0
  0
VERTEX
  5
C90
  8
0
 10
54.505
 20
57.711
 30
0.0
 70
0
  0
VERTEX
  5
C91
  8
0
 10
54.51
 20
57.708
 30
0.0
 70
0
  0
VERTEX
  5
C92
  8
0
 10
54.516
 20
57.705
 30
0.0
 70
0
  0
VERTEX
  5
C93
  8
0
 10
54.521
 20
57.701
 30
0.0
 70
0
  0
VERTEX
  5
C94
  8
0
 10
54.526
 20
57.698
 30
0.0
 70
0
  0
VERTEX
  5
C95
  8
0
 10
54.531
 20
57.695
 30
0.0
 70
0
  0
VERTEX
  5
C96
  8
0
 10
54.536
 20
57.691
 30
0.0
 70
0
  0
VERTEX
  5
C97
  8
0
 10
54.54
 20
57.687
 30
0.0
 70
0
  0
VERTEX
  5
C98
  8
0
 10
54.545
 20
57.684
 30
0.0
 70
0
  0
VERTEX
  5
C99
  8
0
 10
54.55
 20
57.68
 30
0.0
 70
0
  0
VERTEX
  5
C9A
  8
0
 10
54.555
 20
57.676
 30
0.0
 70
0
  0
VERTEX
  5
C9B
  8
0
 10
54.56
 20
57.672
 30
0.0
 70
0
  0
VERTEX
  5
C9C
  8
0
 10
54.564
 20
57.668
 30
0.0
 70
0
  0
VERTEX
  5
C9D
  8
0
 10
54.569
 20
57.665
 30
0.0
 70
0
  0
VERTEX
  5
C9E
  8
0
 10
54.573
 20
57.66
 30
0.0
 70
0
  0
VERTEX
  5
C9F
  8
0
 10
54.578
 20
57.656
 30
0.0
 70
0
  0
VERTEX
  5
CA0
  8
0
 10
54.582
 20
57.652
 30
0.0
 70
0
  0
VERTEX
  5
CA1
  8
0
 10
54.586
 20
57.648
 30
0.0
 70
0
  0
VERTEX
  5
CA2
  8
0
 10
54.591
 20
57.644
 30
0.0
 70
0
  0
VERTEX
  5
CA3
  8
0
 10
54.595
 20
57.639
 30
0.0
 70
0
  0
VERTEX
  5
CA4
  8
0
 10
54.599
 20
57.635
 30
0.0
 70
0
  0
VERTEX
  5
CA5
  8
0
 10
54.603
 20
57.63
 30
0.0
 70
0
  0
VERTEX
  5
CA6
  8
0
 10
54.608
 20
57.626
 30
0.0
 70
0
  0
VERTEX
  5
CA7
  8
0
 10
54.612
 20
57.621
 30
0.0
 70
0
  0
VERTEX
  5
CA8
  8
0
 10
54.616
 20
57.617
 30
0.0
 70
0
  0
VERTEX
  5
CA9
  8
0
 10
54.619
 20
57.612
 30
0.0
 70
0
  0
VERTEX
  5
CAA
  8
0
 10
54.623
 20
57.608
 30
0.0
 70
0
  0
VERTEX
  5
CAB
  8
0
 10
54.627
 20
57.603
 30
0.0
 70
0
  0
VERTEX
  5
CAC
  8
0
 10
54.631
 20
57.598
 30
0.0
 70
0
  0
VERTEX
  5
CAD
  8
0
 10
54.634
 20
57.593
 30
0.0
 70
0
  0
VERTEX
  5
CAE
  8
0
 10
54.638
 20
57.588
 30
0.0
 70
0
  0
VERTEX
  5
CAF
  8
0
 10
54.642
 20
57.583
 30
0.0
 70
0
  0
VERTEX
  5
CB0
  8
0
 10
54.645
 20
57.578
 30
0.0
 70
0
  0
VERTEX
  5
CB1
  8
0
 10
54.648
 20
57.573
 30
0.0
 70
0
  0
VERTEX
  5
CB2
  8
0
 10
54.652
 20
57.568
 30
0.0
 70
0
  0
VERTEX
  5
CB3
  8
0
 10
54.655
 20
57.563
 30
0.0
 70
0
  0
VERTEX
  5
CB4
  8
0
 10
54.658
 20
57.558
 30
0.0
 70
0
  0
VERTEX
  5
CB5
  8
0
 10
54.661
 20
57.553
 30
0.0
 70
0
  0
VERTEX
  5
CB6
  8
0
 10
54.664
 20
57.548
 30
0.0
 70
0
  0
VERTEX
  5
CB7
  8
0
 10
54.667
 20
57.542
 30
0.0
 70
0
  0
VERTEX
  5
CB8
  8
0
 10
54.67
 20
57.537
 30
0.0
 70
0
  0
VERTEX
  5
CB9
  8
0
 10
54.672
 20
57.532
 30
0.0
 70
0
  0
VERTEX
  5
CBA
  8
0
 10
54.675
 20
57.527
 30
0.0
 70
0
  0
VERTEX
  5
CBB
  8
0
 10
54.678
 20
57.521
 30
0.0
 70
0
  0
VERTEX
  5
CBC
  8
0
 10
54.68
 20
57.516
 30
0.0
 70
0
  0
VERTEX
  5
CBD
  8
0
 10
54.683
 20
57.511
 30
0.0
 70
0
  0
VERTEX
  5
CBE
  8
0
 10
54.685
 20
57.505
 30
0.0
 70
0
  0
VERTEX
  5
CBF
  8
0
 10
54.687
 20
57.5
 30
0.0
 70
0
  0
VERTEX
  5
CC0
  8
0
 10
54.689
 20
57.494
 30
0.0
 70
0
  0
VERTEX
  5
CC1
  8
0
 10
54.692
 20
57.489
 30
0.0
 70
0
  0
VERTEX
  5
CC2
  8
0
 10
54.693
 20
57.483
 30
0.0
 70
0
  0
VERTEX
  5
CC3
  8
0
 10
54.695
 20
57.478
 30
0.0
 70
0
  0
VERTEX
  5
CC4
  8
0
 10
54.697
 20
57.472
 30
0.0
 70
0
  0
VERTEX
  5
CC5
  8
0
 10
54.699
 20
57.466
 30
0.0
 70
0
  0
VERTEX
  5
CC6
  8
0
 10
54.701
 20
57.461
 30
0.0
 70
0
  0
VERTEX
  5
CC7
  8
0
 10
54.702
 20
57.455
 30
0.0
 70
0
  0
VERTEX
  5
CC8
  8
0
 10
54.703
 20
57.45
 30
0.0
 70
0
  0
VERTEX
  5
CC9
  8
0
 10
54.705
 20
57.444
 30
0.0
 70
0
  0
VERTEX
  5
CCA
  8
0
 10
54.706
 20
57.438
 30
0.0
 70
0
  0
VERTEX
  5
CCB
  8
0
 10
54.707
 20
57.433
 30
0.0
 70
0
  0
VERTEX
  5
CCC
  8
0
 10
54.708
 20
57.427
 30
0.0
 70
0
  0
VERTEX
  5
CCD
  8
0
 10
54.709
 20
57.421
 30
0.0
 70
0
  0
VERTEX
  5
CCE
  8
0
 10
54.71
 20
57.415
 30
0.0
 70
0
  0
VERTEX
  5
CCF
  8
0
 10
54.711
 20
57.41
 30
0.0
 70
0
  0
VERTEX
  5
CD0
  8
0
 10
54.711
 20
57.404
 30
0.0
 70
0
  0
VERTEX
  5
CD1
  8
0
 10
54.712
 20
57.398
 30
0.0
 70
0
  0
VERTEX
  5
CD2
  8
0
 10
54.712
 20
57.393
 30
0.0
 70
0
  0
VERTEX
  5
CD3
  8
0
 10
54.712
 20
57.387
 30
0.0
 70
0
  0
VERTEX
  5
CD4
  8
0
 10
54.712
 20
57.381
 30
0.0
 70
0
  0
VERTEX
  5
CD5
  8
0
 10
54.713
 20
57.375
 30
0.0
 70
0
  0
SEQEND
  5
B3B
  8
0
  0
POLYLINE
  5
CD6
  8
0
 66
1
 10
0.0
 20
0.0
 30
0.0
 70
0
  0
VERTEX
  5
CD8
  8
0
 10
58.369
 20
57.637
 30
0.0
 70
0
  0
VERTEX
  5
CD9
  8
0
 10
58.369
 20
57.571
 30
0.0
 70
0
  0
VERTEX
  5
CDA
  8
0
 10
58.303
 20
57.571
 30
0.0
 70
0
  0
SEQEND
  5
CD7
  8
0
  0
POLYLINE
  5
CDB
  8
0
 66
1
 10
0.0
 20
0.0
 30
0.0
 70
0
  0
VERTEX
  5
CDD
  8
0
 10
55.496
 20
58.418
 30
0.0
 70
0
  0
VERTEX
  5
CDE
  8
0
 10
55.43
 20
58.418
 30
0.0
 70
0
  0
VERTEX
  5
CDF
  8
0
 10
55.43
 20
58.484
 30
0.0
 70
0
  0
SEQEND
  5
CDC
  8
0
  0
POLYLINE
  5
CE0
  8
0
 66
1
 10
0.0
 20
0.0
 30
0.0
 70
0
  0
VERTEX
  5
CE2
  8
0
 10
58.889
 20
57.637
 30
0.0
 70
0
  0
VERTEX
  5
CE3
  8
0
 10
58.889
 20
57.571
 30
0.0
 70
0
  0
VERTEX
  5
CE4
  8
0
 10
58.825
 20
57.571
 30
0.0
 70
0
  0
SEQEND
  5
CE1
  8
0
  0
POLYLINE
  5
CE5
  8
0
 66
1
 10
0.0
 20
0.0
 30
0.0
 70
0
  0
VERTEX
  5
CE7
  8
0
 10
51.906
 20
58.811
 30
0.0
 70
0
  0
VERTEX
  5
CE8
  8
0
 10
51.906
 20
58.746
 30
0.0
 70
0
  0
VERTEX
  5
CE9
  8
0
 10
51.906
 20
58.68
 30
0.0
 70
0
  0
VERTEX
  5
CEA
  8
0
 10
51.972
 20
58.614
 30
0.0
 70
0
  0
VERTEX
  5
CEB
  8
0
 10
51.972
 20
58.55
 30
0.0
 70
0
  0
VERTEX
  5
CEC
  8
0
 10
52.038
 20
58.55
 30
0.0
 70
0
  0
VERTEX
  5
CED
  8
0
 10
52.038
 20
58.484
 30
0.0
 70
0
  0
VERTEX
  5
CEE
  8
0
 10
52.102
 20
58.484
 30
0.0
 70
0
  0
SEQEND
  5
CE6
  8
0
  0
POLYLINE
  5
CEF
  8
0
 66
1
 10
0.0
 20
0.0
 30
0.0
 70
0
  0
VERTEX
  5
CF1
  8
0
 10
52.3
 20
58.484
 30
0.0
 70
0
  0
VERTEX
  5
CF2
  8
0
 10
52.363
 20
58.484
 30
0.0
 70
0
  0
VERTEX
  5
CF3
  8
0
 10
52.429
 20
58.484
 30
0.0
 70
0
  0
VERTEX
  5
CF4
  8
0
 10
52.495
 20
58.484
 30
0.0
 70
0
  0
VERTEX
  5
CF5
  8
0
 10
52.495
 20
58.55
 30
0.0
 70
0
  0
VERTEX
  5
CF6
  8
0
 10
52.559
 20
58.55
 30
0.0
 70
0
  0
SEQEND
  5
CF0
  8
0
  0
POLYLINE
  5
CF7
  8
0
 66
1
 10
0.0
 20
0.0
 30
0.0
 70
0
  0
VERTEX
  5
CF9
  8
0
 10
49.427
 20
60.05
 30
0.0
 70
0
  0
VERTEX
  5
CFA
  8
0
 10
49.427
 20
60.116
 30
0.0
 70
0
  0
VERTEX
  5
CFB
  8
0
 10
49.362
 20
60.116
 30
0.0
 70
0
  0
SEQEND
  5
CF8
  8
0
  0
POLYLINE
  5
CFC
  8
0
 66
1
 10
0.0
 20
0.0
 30
0.0
 70
0
  0
VERTEX
  5
CFE
  8
0
 10
49.1
 20
60.116
 30
0.0
 70
0
  0
VERTEX
  5
CFF
  8
0
 10
49.037
 20
60.116
 30
0.0
 70
0
  0
VERTEX
  5
D00
  8
0
 10
49.037
 20
60.05
 30
0.0
 70
0
  0
SEQEND
  5
CFD
  8
0
  0
POLYLINE
  5
D01
  8
0
 66
1
 10
0.0
 20
0.0
 30
0.0
 70
0
  0
VERTEX
  5
D03
  8
0
 10
59.543
 20
60.05
 30
0.0
 70
0
  0
VERTEX
  5
D04
  8
0
 10
59.543
 20
60.116
 30
0.0
 70
0
  0
VERTEX
  5
D05
  8
0
 10
59.477
 20
60.116
 30
0.0
 70
0
  0
SEQEND
  5
D02
  8
0
  0
POLYLINE
  5
D06
  8
0
 66
1
 10
0.0
 20
0.0
 30
0.0
 70
0
  0
VERTEX
  5
D08
  8
0
 10
59.216
 20
60.116
 30
0.0
 70
0
  0
VERTEX
  5
D09
  8
0
 10
59.15
 20
60.116
 30
0.0
 70
0
  0
VERTEX
  5
D0A
  8
0
 10
59.15
 20
60.05
 30
0.0
 70
0
  0
SEQEND
  5
D07
  8
0
  0
POLYLINE
  5
D0B
  8
0
 66
1
 10
0.0
 20
0.0
 30
0.0
 70
0
  0
VERTEX
  5
D0D
  8
0
 10
48.775
 20
59.92
 30
0.0
 70
0
  0
VERTEX
  5
D0E
  8
0
 10
48.709
 20
59.92
 30
0.0
 70
0
  0
VERTEX
  5
D0F
  8
0
 10
48.709
 20
59.854
 30
0.0
 70
0
  0
SEQEND
  5
D0C
  8
0
  0
POLYLINE
  5
D10
  8
0
 66
1
 10
0.0
 20
0.0
 30
0.0
 70
0
  0
VERTEX
  5
D12
  8
0
 10
59.738
 20
59.202
 30
0.0
 70
0
  0
VERTEX
  5
D13
  8
0
 10
59.868
 20
59.332
 30
0.0
 70
0
  0
VERTEX
  5
D14
  8
0
 10
59.868
 20
59.789
 30
0.0
 70
0
  0
SEQEND
  5
D11
  8
0
  0
POLYLINE
  5
D15
  8
0
 66
1
 10
0.0
 20
0.0
 30
0.0
 70
0
  0
VERTEX
  5
D17
  8
0
 10
57.062
 20
59.202
 30
0.0
 70
0
  0
VERTEX
  5
D18
  8
0
 10
56.996
 20
59.202
 30
0.0
 70
0
  0
VERTEX
  5
D19
  8
0
 10
56.932
 20
59.202
 30
0.0
 70
0
  0
VERTEX
  5
D1A
  8
0
 10
56.866
 20
59.202
 30
0.0
 70
0
  0
VERTEX
  5
D1B
  8
0
 10
56.801
 20
59.136
 30
0.0
 70
0
  0
VERTEX
  5
D1C
  8
0
 10
56.737
 20
59.136
 30
0.0
 70
0
  0
VERTEX
  5
D1D
  8
0
 10
56.737
 20
59.071
 30
0.0
 70
0
  0
VERTEX
  5
D1E
  8
0
 10
56.671
 20
59.007
 30
0.0
 70
0
  0
VERTEX
  5
D1F
  8
0
 10
56.671
 20
58.941
 30
0.0
 70
0
  0
VERTEX
  5
D20
  8
0
 10
56.671
 20
58.875
 30
0.0
 70
0
  0
SEQEND
  5
D16
  8
0
  0
POLYLINE
  5
D21
  8
0
 66
1
 10
0.0
 20
0.0
 30
0.0
 70
0
  0
VERTEX
  5
D23
  8
0
 10
56.28
 20
58.55
 30
0.0
 70
0
  0
VERTEX
  5
D24
  8
0
 10
56.344
 20
58.55
 30
0.0
 70
0
  0
VERTEX
  5
D25
  8
0
 10
56.41
 20
58.55
 30
0.0
 70
0
  0
VERTEX
  5
D26
  8
0
 10
56.475
 20
58.55
 30
0.0
 70
0
  0
VERTEX
  5
D27
  8
0
 10
56.475
 20
58.614
 30
0.0
 70
0
  0
VERTEX
  5
D28
  8
0
 10
56.539
 20
58.614
 30
0.0
 70
0
  0
VERTEX
  5
D29
  8
0
 10
56.605
 20
58.68
 30
0.0
 70
0
  0
VERTEX
  5
D2A
  8
0
 10
56.605
 20
58.746
 30
0.0
 70
0
  0
VERTEX
  5
D2B
  8
0
 10
56.671
 20
58.811
 30
0.0
 70
0
  0
VERTEX
  5
D2C
  8
0
 10
56.671
 20
58.875
 30
0.0
 70
0
  0
SEQEND
  5
D22
  8
0
  0
POLYLINE
  5
D2D
  8
0
 66
1
 10
0.0
 20
0.0
 30
0.0
 70
0
  0
VERTEX
  5
D2F
  8
0
 10
51.906
 20
58.875
 30
0.0
 70
0
  0
VERTEX
  5
D30
  8
0
 10
51.906
 20
58.811
 30
0.0
 70
0
  0
VERTEX
  5
D31
  8
0
 10
51.972
 20
58.811
 30
0.0
 70
0
  0
VERTEX
  5
D32
  8
0
 10
51.972
 20
58.746
 30
0.0
 70
0
  0
VERTEX
  5
D33
  8
0
 10
52.038
 20
58.68
 30
0.0
 70
0
  0
VERTEX
  5
D34
  8
0
 10
52.038
 20
58.614
 30
0.0
 70
0
  0
VERTEX
  5
D35
  8
0
 10
52.102
 20
58.614
 30
0.0
 70
0
  0
VERTEX
  5
D36
  8
0
 10
52.167
 20
58.55
 30
0.0
 70
0
  0
VERTEX
  5
D37
  8
0
 10
52.233
 20
58.55
 30
0.0
 70
0
  0
VERTEX
  5
D38
  8
0
 10
52.3
 20
58.55
 30
0.0
 70
0
  0
SEQEND
  5
D2E
  8
0
  0
POLYLINE
  5
D39
  8
0
 66
1
 10
0.0
 20
0.0
 30
0.0
 70
0
  0
VERTEX
  5
D3B
  8
0
 10
51.906
 20
58.875
 30
0.0
 70
0
  0
VERTEX
  5
D3C
  8
0
 10
51.906
 20
58.941
 30
0.0
 70
0
  0
VERTEX
  5
D3D
  8
0
 10
51.906
 20
59.007
 30
0.0
 70
0
  0
VERTEX
  5
D3E
  8
0
 10
51.906
 20
59.071
 30
0.0
 70
0
  0
VERTEX
  5
D3F
  8
0
 10
51.843
 20
59.136
 30
0.0
 70
0
  0
VERTEX
  5
D40
  8
0
 10
51.777
 20
59.136
 30
0.0
 70
0
  0
VERTEX
  5
D41
  8
0
 10
51.777
 20
59.202
 30
0.0
 70
0
  0
VERTEX
  5
D42
  8
0
 10
51.711
 20
59.202
 30
0.0
 70
0
  0
VERTEX
  5
D43
  8
0
 10
51.645
 20
59.202
 30
0.0
 70
0
  0
VERTEX
  5
D44
  8
0
 10
51.581
 20
59.202
 30
0.0
 70
0
  0
SEQEND
  5
D3A
  8
0
  0
POLYLINE
  5
D45
  8
0
 66
1
 10
0.0
 20
0.0
 30
0.0
 70
0
  0
VERTEX
  5
D47
  8
0
 10
60.0
 20
59.854
 30
0.0
 70
0
  0
VERTEX
  5
D48
  8
0
 10
59.934
 20
59.92
 30
0.0
 70
0
  0
VERTEX
  5
D49
  8
0
 10
59.868
 20
59.92
 30
0.0
 70
0
  0
VERTEX
  5
D4A
  8
0
 10
59.868
 20
59.986
 30
0.0
 70
0
  0
SEQEND
  5
D46
  8
0
  0
POLYLINE
  5
D4B
  8
0
 66
1
 10
0.0
 20
0.0
 30
0.0
 70
0
  0
VERTEX
  5
D4D
  8
0
 10
48.775
 20
59.986
 30
0.0
 70
0
  0
VERTEX
  5
D4E
  8
0
 10
48.709
 20
59.986
 30
0.0
 70
0
  0
VERTEX
  5
D4F
  8
0
 10
48.644
 20
59.986
 30
0.0
 70
0
  0
VERTEX
  5
D50
  8
0
 10
48.644
 20
59.92
 30
0.0
 70
0
  0
VERTEX
  5
D51
  8
0
 10
48.644
 20
59.854
 30
0.0
 70
0
  0
SEQEND
  5
D4C
  8
0
  0
POLYLINE
  5
D52
  8
0
 66
1
 10
0.0
 20
0.0
 30
0.0
 70
0
  0
VERTEX
  5
D54
  8
0
 10
48.709
 20
59.789
 30
0.0
 70
0
  0
VERTEX
  5
D55
  8
0
 10
48.775
 20
59.789
 30
0.0
 70
0
  0
VERTEX
  5
D56
  8
0
 10
48.775
 20
59.854
 30
0.0
 70
0
  0
SEQEND
  5
D53
  8
0
  0
TEXT
  5
D57
  8
0
 10
0.0
 20
10.0
 30
0.0
 40
3.0
  1
三菱 EL-S13000N/K AHN+EL-XAM004/K
 11
0.0
 21
10.0
 31
0.0
  0
TEXT
  5
D58
  8
0
 10
0.0
 20
95.0
 30
0.0
 40
3.0
  1
LEDｸﾗｽ1300 投光器
 11
0.0
 21
95.0
 31
0.0
  0
TEXT
  5
D59
  8
0
 10
50.0
 20
35.0
 30
0.0
 40
1.5
  1
小形投光器 昼白色（5000K)　Ra75
 11
50.0
 21
35.0
 31
0.0
  0
TEXT
  5
D5A
  8
0
 10
50.0
 20
32.0
 30
0.0
 40
1.5
  1
100V～242V共用タイプ
 11
50.0
 21
32.0
 31
0.0
  0
TEXT
  5
D5B
  8
0
 10
50.0
 20
29.0
 30
0.0
 40
1.5
  1
本体：アルミダイカスト黒色塗装
 11
50.0
 21
29.0
 31
0.0
  0
TEXT
  5
D5C
  8
0
 10
50.0
 20
26.0
 30
0.0
 40
1.5
  1
光源寿命：60,000時間（光束維持率70％）
 11
50.0
 21
26.0
 31
0.0
  0
TEXT
  5
D5D
  8
0
 10
50.0
 20
23.0
 30
0.0
 40
1.5
  1
光束：12500lm 消費電力：96W 消費効率：130.2lm/W
 11
50.0
 21
23.0
 31
0.0
  0
VIEWPORT
  5
76
 67
1
  8
0
 10
128.5
 20
97.5
 30
0.0
 40
314.226
 41
222.18
 68
1
 69
1
1001
ACAD
1000
MVIEW
1002
{
1070
16
1010
0.0
1020
0.0
1030
0.0
1010
0.0
1020
0.0
1030
0.0
1040
0
1040
1
1040
0.0
1040
0.0
1040
50
1040
0
1040
0
1070
0
1070
100
1070
0
1070
0
1070
0
1070
0
1070
0
1070
0
1040
0
1040
0.0
1040
0.0
1040
10.0
1040
10.0
1040
10.0
1040
10.0
1070
0
1002
{
1002
}
1002
}
  0
ENDSEC
  0
EOF
