  0
SECTION
  2
HEADER
  9
$ACADVER
  1
AC1009
  9
$DWGCODEPAGE
  3
dos932
  9
$INSBASE
 10
0
 20
0
 30
0
  9
$EXTMIN
 10
98.055088846406392
 20
69.878550095777726
 30
0
  9
$EXTMAX
 10
271.67602384095477
 20
160.28682591983554
 30
0
  9
$LIMMIN
 10
0
 20
0
  9
$LIMMAX
 10
297
 20
210
  9
$SNAPMODE
 70
0
  9
$SNAPUNIT
 10
1
 20
1
  9
$SNAPBASE
 10
0
 20
0
  9
$SNAPANG
 50
0
  9
$SNAPSTYLE
 70
0
  9
$SNAPISOPAIR
 70
0
  9
$ORTHOMODE
 70
0
  9
$REGENMODE
 70
1
  9
$FILLMODE
 70
1
  9
$QTEXTMODE
 70
0
  9
$MIRRTEXT
 70
1
  9
$LTSCALE
 40
1
  9
$OSMODE
 70
37
  9
$ATTMODE
 70
1
  9
$TEXTSIZE
 40
0.2
  9
$TRACEWID
 40
0.05
  9
$TEXTSTYLE
  7
STANDARD
  9
$CLAYER
  8
0
  9
$CELTYPE
  6
CONTINUOUS
  9
$CECOLOR
 62
256
  9
$DIMSCALE
 40
1
  9
$DIMASZ
 40
0.18
  9
$DIMEXO
 40
0.0625
  9
$DIMDLI
 40
0.38
  9
$DIMRND
 40
0
  9
$DIMDLE
 40
0
  9
$DIMEXE
 40
0.18
  9
$DIMTP
 40
0
  9
$DIMTM
 40
0
  9
$DIMTXT
 40
0.18
  9
$DIMCEN
 40
0.09
  9
$DIMTSZ
 40
0
  9
$DIMTOL
 70
0
  9
$DIMLIM
 70
0
  9
$DIMTIH
 70
1
  9
$DIMTOH
 70
1
  9
$DIMSE1
 70
0
  9
$DIMSE2
 70
0
  9
$DIMTAD
 70
0
  9
$DIMZIN
 70
0
  9
$DIMBLK
  1

  9
$DIMASO
 70
1
  9
$DIMSHO
 70
1
  9
$DIMPOST
  1

  9
$DIMAPOST
  1

  9
$DIMALT
 70
0
  9
$DIMALTD
 70
2
  9
$DIMALTF
 40
25.4
  9
$DIMLFAC
 40
1
  9
$DIMTOFL
 70
0
  9
$DIMTVP
 40
0
  9
$DIMTIX
 70
0
  9
$DIMSOXD
 70
0
  9
$DIMSAH
 70
0
  9
$DIMBLK1
  1

  9
$DIMBLK2
  1

  9
$DIMSTYLE
  2
STANDARD
  9
$DIMCLRD
 70
0
  9
$DIMCLRE
 70
0
  9
$DIMCLRT
 70
0
  9
$DIMTFAC
 40
1
  9
$DIMGAP
 40
0.09
  9
$LUNITS
 70
2
  9
$LUPREC
 70
4
  9
$SKETCHINC
 40
0.1
  9
$FILLETRAD
 40
0
  9
$AUNITS
 70
0
  9
$AUPREC
 70
0
  9
$MENU
  1
.
  9
$ELEVATION
 40
0
  9
$PELEVATION
 40
0
  9
$THICKNESS
 40
0
  9
$LIMCHECK
 70
0
  9
$CHAMFERA
 40
0
  9
$CHAMFERB
 40
0
  9
$SKPOLY
 70
0
  9
$TDCREATE
 40
2454461.4048481365
  9
$TDUPDATE
 40
2456765.6181399422
  9
$TDINDWG
 40
1.0290116666666667
  9
$TDUSRTIMER
 40
1.0289389814814816
  9
$USRTIMER
 70
1
  9
$ANGBASE
 50
0
  9
$ANGDIR
 70
0
  9
$PDMODE
 70
0
  9
$PDSIZE
 40
0
  9
$PLINEWID
 40
0
  9
$SPLFRAME
 70
0
  9
$SPLINETYPE
 70
6
  9
$SPLINESEGS
 70
8
  9
$HANDLING
 70
1
  9
$HANDSEED
  5
194F4A
  9
$SURFTAB1
 70
6
  9
$SURFTAB2
 70
6
  9
$SURFTYPE
 70
6
  9
$SURFU
 70
6
  9
$SURFV
 70
6
  9
$UCSORG
 10
0
 20
0
 30
0
  9
$UCSXDIR
 10
1
 20
0
 30
0
  9
$UCSYDIR
 10
0
 20
1
 30
0
  9
$PUCSORG
 10
0
 20
0
 30
0
  9
$PUCSXDIR
 10
1
 20
0
 30
0
  9
$PUCSYDIR
 10
0
 20
1
 30
0
  9
$USERI1
 70
0
  9
$USERI2
 70
0
  9
$USERI3
 70
0
  9
$USERI4
 70
0
  9
$USERI5
 70
0
  9
$USERR1
 40
0
  9
$USERR2
 40
0
  9
$USERR3
 40
0
  9
$USERR4
 40
0
  9
$USERR5
 40
0
  9
$WORLDVIEW
 70
1
  9
$SHADEDGE
 70
3
  9
$SHADEDIF
 70
70
  9
$TILEMODE
 70
1
  9
$MAXACTVP
 70
64
  9
$PINSBASE
 10
0
 20
0
 30
0
  9
$PLIMCHECK
 70
0
  9
$PEXTMIN
 10
1E+20
 20
1E+20
 30
1E+20
  9
$PEXTMAX
 10
-1E+20
 20
-1E+20
 30
-1E+20
  9
$PLIMMAX
 10
12
 20
9
  9
$PLIMMIN
 10
0
 20
0
  9
$UNITMODE
 70
0
  9
$VISRETAIN
 70
1
  9
$PLINEGEN
 70
0
  9
$PSLTSCALE
 70
1
  9
$TREEDEPTH
 70
3020
  9
$DRAGMODE
 70
     2
  9
$BLIPMODE
 70
     0
  9
$COORDS
 70
     1
  9
$ATTDIA
 70
     0
  9
$ATTREQ
 70
     1
  0
ENDSEC
  0
SECTION
  2
TABLES
  0
TABLE
  2
VPORT
  5
194F3C
 70
1
  0
VPORT
  5
194F10
  2
*ACTIVE
 70
0
 10
0
 20
0
 11
1
 21
1
 12
167.22069051698361
 22
88.558383277380642
 13
0
 23
0
 14
1
 24
1
 15
0
 25
0
 16
0
 26
0
 36
1
 17
0
 27
0
 37
0
 40
226.15957887962111
 41
1.41002277904328
 42
50
 43
0
 44
0
 50
0
 51
0
 71
0
 72
100
 73
1
 74
1
 75
0
 76
0
 77
0
 78
0
  0
ENDTAB
  0
TABLE
  2
LTYPE
  5
194F3D
 70
24
  0
LTYPE
  5
194EF6
  2
CONTINUOUS
  3
実線
 70
0
 72
65
 73
0
 40
0
  0
LTYPE
  5
194EF7
  2
DASHED1
  3
--  --  --  --  --  --  --  --  
 70
0
 72
65
 73
2
 40
2.5
 49
1.25
 49
-1.25
  0
LTYPE
  5
194EF8
  2
DASHED2
  3
----    ----    ----    ----    
 70
0
 72
65
 73
2
 40
5
 49
2.5
 49
-2.5
  0
LTYPE
  5
194EF9
  2
DASHED3
  3
------  ------  ------  ------  
 70
0
 72
65
 73
2
 40
5
 49
3.75
 49
-1.25
  0
LTYPE
  5
194EFA
  2
CENTER1
  3
----- - ----- - ----- - ----- - 
 70
0
 72
65
 73
4
 40
10
 49
6.25
 49
-1.25
 49
1.25
 49
-1.25
  0
LTYPE
  5
194EFB
  2
CENTER2
  3
----------  --  ----------  --  
 70
0
 72
65
 73
4
 40
20
 49
12.5
 49
-2.5
 49
2.5
 49
-2.5
  0
LTYPE
  5
194EFC
  2
PHANTOM1
  3
--- - - --- - - --- - - --- - - 
 70
0
 72
65
 73
6
 40
9.5
 49
3.25
 49
-1.25
 49
1.25
 49
-1.25
 49
1.25
 49
-1.25
  0
LTYPE
  5
194EFD
  2
PHANTOM2
  3
--------  -  -  --------  -  -  
 70
0
 72
65
 73
6
 40
20
 49
10
 49
-2.5
 49
1.25
 49
-2.5
 49
1.25
 49
-2.5
  0
LTYPE
  5
194EFE
  2
DOT
  3
-   -   -   -   -   -   -   -   
 70
0
 72
65
 73
2
 40
2.5
 49
0.625
 49
-1.875
  0
LTYPE
  5
194EFF
  2
DUMMY
  3
ダミー
 70
0
 72
65
 73
0
 40
0
  0
LTYPE
  5
194F00
  2
RAND1
  3
----- - ----- - ----- - ----- - 
 70
0
 72
65
 73
4
 40
10
 49
6.25
 49
-1.25
 49
1.25
 49
-1.25
  0
LTYPE
  5
194F01
  2
RAND2
  3
----------  --  ----------  --  
 70
0
 72
65
 73
4
 40
20
 49
12.5
 49
-2.5
 49
2.5
 49
-2.5
  0
LTYPE
  5
194F02
  2
RAND3
  3
--- - - --- - - --- - - --- - - 
 70
0
 72
65
 73
6
 40
9.5
 49
3.25
 49
-1.25
 49
1.25
 49
-1.25
 49
1.25
 49
-1.25
  0
LTYPE
  5
194F03
  2
RAND4
  3
--------  -  -  --------  -  -  
 70
0
 72
65
 73
6
 40
20
 49
10
 49
-2.5
 49
1.25
 49
-2.5
 49
1.25
 49
-2.5
  0
LTYPE
  5
194F04
  2
RAND5
  3
----- - ----- - ----- - ----- - 
 70
0
 72
65
 73
4
 40
10
 49
6.25
 49
-1.25
 49
1.25
 49
-1.25
  0
LTYPE
  5
194F05
  2
LONG1
  3
----------  --  ----------  --  
 70
0
 72
65
 73
4
 40
20
 49
12.5
 49
-2.5
 49
2.5
 49
-2.5
  0
LTYPE
  5
194F06
  2
LONG2
  3
--- - - --- - - --- - - --- - - 
 70
0
 72
65
 73
6
 40
9.5
 49
3.25
 49
-1.25
 49
1.25
 49
-1.25
 49
1.25
 49
-1.25
  0
LTYPE
  5
194F07
  2
LONG3
  3
--------  -  -  --------  -  -  
 70
0
 72
65
 73
6
 40
20
 49
10
 49
-2.5
 49
1.25
 49
-2.5
 49
1.25
 49
-2.5
  0
LTYPE
  5
194F08
  2
LONG4
  3
----- - ----- - ----- - ----- - 
 70
0
 72
65
 73
4
 40
10
 49
6.25
 49
-1.25
 49
1.25
 49
-1.25
  0
LTYPE
  5
194F09
  2
LONG5
  3
----------  --  ----------  --  
 70
0
 72
65
 73
4
 40
20
 49
12.5
 49
-2.5
 49
2.5
 49
-2.5
  0
LTYPE
  5
194F0A
  2
CENTER
  3
____ _ ____ _ ____ _ ____ _ ____ _ ____ _ ____
 70
0
 72
65
 73
4
 40
0.6
 49
0.375
 49
-0.075
 49
0.075
 49
-0.075
  0
LTYPE
  5
194F0B
  2
PHANTOM
  3
_____ _ _ _____ _ _ _____ _ _ _____
 70
0
 72
65
 73
6
 40
0.8
 49
0.45
 49
-0.05
 49
0.1
 49
-0.05
 49
0.1
 49
-0.05
  0
LTYPE
  5
194F0C
  2
ByBlock
  3

 70
64
 72
65
 73
0
 40
0
  0
LTYPE
  5
194F0D
  2
ByLayer
  3

 70
64
 72
65
 73
0
 40
0
  0
ENDTAB
  0
TABLE
  2
LAYER
  5
194F3E
 70
2
  0
LAYER
  5
194EDE
 70
0
  2
0
 62
7
  6
CONTINUOUS
  0
LAYER
  5
194EDF
 70
0
  2
SPEC
 62
7
  6
CONTINUOUS
  0
ENDTAB
  0
TABLE
  2
STYLE
  5
194F3F
 70
2
  0
STYLE
  5
194EF4
  2
STANDARD
 70
0
 40
0
 41
1
 50
0
 71
0
 42
0.2
  3
txt.shx
  4
extfont2.shx
  0
STYLE
  5
194EF5
  2
ANNOTATIVE
 70
0
 40
0
 41
1
 50
0
 71
0
 42
0.2
  3
txt
  0
ENDTAB
  0
TABLE
  2
APPID
  5
194F42
 70
4
  0
APPID
  5
194F43
  2
ACAD
 70
0
  0
APPID
  5
194F46
  2
ACADANNOTATIVE
 70
0
  0
APPID
  5
194F47
  2
ACAD_MLEADERVER
 70
0
  0
APPID
  5
194F48
  2
ACAD_EXEMPT_FROM_CAD_STANDARDS
 70
0
  0
ENDTAB
  0
TABLE
  2
DIMSTYLE
  5
194F44
 70
2
  0
DIMSTYLE
105
194F0E
  2
STANDARD
 70
0
  3

  4

  5

  6

  7

 40
1
 41
0.18
 42
0.0625
 43
0.38
 44
0.18
 45
0
 46
0
 47
0
 48
0
140
0.18
141
0.09
142
0
143
25.4
144
1
145
0
146
1
147
0.09
 71
0
 72
0
 73
1
 74
1
 75
0
 76
0
 77
0
 78
0
170
0
171
2
172
0
173
0
174
0
175
0
176
0
177
0
178
0
  0
DIMSTYLE
105
194F0F
  2
ANNOTATIVE
 70
0
  3

  4

  5

  6

  7

 40
1
 41
0.18
 42
0.0625
 43
0.38
 44
0.18
 45
0
 46
0
 47
0
 48
0
140
0.18
141
0.09
142
0
143
25.4
144
1
145
0
146
1
147
0.09
 71
0
 72
0
 73
1
 74
1
 75
0
 76
0
 77
0
 78
0
170
0
171
2
172
0
173
0
174
0
175
0
176
0
177
0
178
0
  0
ENDTAB
  0
ENDSEC
  0
SECTION
  2
BLOCKS
  0
BLOCK
  5
194EE1
  8
0
  2
$MODEL_SPACE
 70
0
 10
0
 20
0
 30
0
  3
$MODEL_SPACE
  0
ENDBLK
  5
193306
  8
0
  0
BLOCK
  5
194EE3
  8
0
 67
1
  2
$PAPER_SPACE
 70
0
 10
0
 20
0
 30
0
  3
$PAPER_SPACE
  0
ENDBLK
  5
193302
  8
0
  0
BLOCK
  5
194EE5
  8
0
  2
_OPEN
 70
0
 10
0
 20
0
 30
0
  3
_OPEN
  0
LINE
  5
A63B1
  8
0
  6
ByBlock
 62
0
 10
0
 20
0
 30
0
 11
-1
 21
0.3333333333
 31
0
  0
LINE
  5
A63B2
  8
0
  6
ByBlock
 62
0
 10
-1
 20
-0.3333333333
 30
0
 11
0
 21
0
 31
0
  0
LINE
  5
A63B3
  8
0
  6
ByBlock
 62
0
 10
-1
 20
0
 30
0
 11
0
 21
0
 31
0
  0
ENDBLK
  5
A63B4
  8
0
  0
BLOCK
  5
194EE7
  8
0
  2
SPECEL-S3002WKEL-X0035
 70
64
 10
0
 20
0
 30
0
  3
SPECEL-S3002WKEL-X0035
  0
TEXT
  5
194EE8
  8
SPEC
 10
0
 20
0
 30
0
 40
1.5
  1
ｽﾎﾟｯﾄﾗｲﾄ 白色(4000K) Ra85
  7
STANDARD
  0
TEXT
  5
194EE9
  8
SPEC
 10
0
 20
-3
 30
0
 40
1.5
  1
光源寿命:40,000時間 光束維持率70%時(推定)
  7
STANDARD
  0
TEXT
  5
194EEA
  8
SPEC
 10
0
 20
-6
 30
0
 40
1.5
  1
光束:2740lm 消費電力:46.0W 消費効率:59.6lm/W
  7
STANDARD
  0
ENDBLK
  5
194EEB
  8
0
  0
BLOCK
  5
194EED
  8
0
  2
*MODEL_SPACE
 70
64
 10
0
 20
0
 30
0
  3
*MODEL_SPACE
  0
ENDBLK
  5
194EF0
  8
0
  0
BLOCK
  5
194EF2
  8
0
 67
1
  2
*PAPER_SPACE
 70
64
 10
0
 20
0
 30
0
  3
*PAPER_SPACE
  0
ENDBLK
  5
194EF3
  8
0
  0
ENDSEC
  0
SECTION
  2
ENTITIES
  0
TEXT
  5
A63B5
  8
0
 62
7
 10
97.520606
 20
154.52683999999991
 30
0
 40
4.5
  1
ＬＥＤ４６Ｗ×１　 スポットライト
 41
0.96982639999999987
  7
STANDARD
  0
TEXT
  5
A63B6
  8
0
 62
7
 10
97.520606
 20
70.526845
 30
0
 40
4.5
  1
三菱　ＥＬ－Ｓ３００２Ｗ／Ｋ＋ＥＬ－Ｘ００３５
 41
0.9893333
  7
STANDARD
  0
POLYLINE
  5
14E56D
  8
0
 62
7
 66
1
 70
0
 10
0
 20
0
 30
0
  0
VERTEX
  5
194112
  8
0
 62
7
 10
130.68023460874221
 20
100.3810719772833
 70
0
  0
VERTEX
  5
194113
  8
0
 62
7
 10
130.68023460874221
 20
100.3810719772833
 70
0
  0
SEQEND
  5
194114
  8
0
  0
POLYLINE
  5
14E571
  8
0
 62
7
 66
1
 70
0
 10
0
 20
0
 30
0
  0
VERTEX
  5
194115
  8
0
 62
7
 10
130.1724271992187
 20
100.59242872473431
 70
0
  0
VERTEX
  5
194116
  8
0
 62
7
 10
129.66427527991931
 20
100.88905164169481
 70
0
  0
SEQEND
  5
194117
  8
0
  0
POLYLINE
  5
14E575
  8
0
 62
7
 66
1
 70
0
 10
0
 20
0
 30
0
  0
VERTEX
  5
194118
  8
0
 62
7
 10
129.66427527991931
 20
100.88905164169481
 70
0
  0
VERTEX
  5
194119
  8
0
 62
7
 10
129.19884257281871
 20
101.2275324964145
 70
0
  0
VERTEX
  5
19411A
  8
0
 62
7
 10
129.1564678703958
 20
101.2700794537254
 70
0
  0
SEQEND
  5
19411B
  8
0
  0
POLYLINE
  5
14E57A
  8
0
 62
7
 66
1
 70
0
 10
0
 20
0
 30
0
  0
VERTEX
  5
19411C
  8
0
 62
7
 10
127.6750758344722
 20
103.8520079684297
 70
0
  0
VERTEX
  5
19411D
  8
0
 62
7
 10
127.8438856246123
 20
103.2594511540602
 70
0
  0
VERTEX
  5
19411E
  8
0
 62
7
 10
128.05610364650281
 20
102.6670665945788
 70
0
  0
VERTEX
  5
19411F
  8
0
 62
7
 10
128.35169303413591
 20
102.1165399728565
 70
0
  0
VERTEX
  5
194120
  8
0
 62
7
 10
128.73272084616639
 20
101.60856030844511
 70
0
  0
VERTEX
  5
194121
  8
0
 62
7
 10
129.113748658197
 20
101.18498553910371
 70
0
  0
VERTEX
  5
194122
  8
0
 62
7
 10
129.62190057749641
 20
100.8039577270732
 70
0
  0
VERTEX
  5
194123
  8
0
 62
7
 10
130.12970798701991
 20
100.5080238296642
 70
0
  0
VERTEX
  5
194124
  8
0
 62
7
 10
130.63785990631931
 20
100.2959780626617
 70
0
  0
VERTEX
  5
194125
  8
0
 62
7
 10
131.18838652804161
 20
100.16885395539291
 70
0
  0
VERTEX
  5
194126
  8
0
 62
7
 10
131.73891314976379
 20
100.16885395539291
 70
0
  0
VERTEX
  5
194127
  8
0
 62
7
 10
132.33146996413319
 20
100.2539478700146
 70
0
  0
SEQEND
  5
194128
  8
0
  0
POLYLINE
  5
14E588
  8
0
 62
7
 66
1
 70
0
 10
0
 20
0
 30
0
  0
VERTEX
  5
194129
  8
0
 62
7
 10
127.2513288102429
 20
106.3500483527278
 70
0
  0
VERTEX
  5
19412A
  8
0
 62
7
 10
127.2513288102429
 20
106.307501395417
 70
0
  0
VERTEX
  5
19412B
  8
0
 62
7
 10
127.2940480224416
 20
106.2649544381061
 70
0
  0
VERTEX
  5
19412C
  8
0
 62
7
 10
127.335733705313
 20
106.222924245459
 70
0
  0
VERTEX
  5
19412D
  8
0
 62
7
 10
127.37845291751169
 20
106.18054954303609
 70
0
  0
VERTEX
  5
19412E
  8
0
 62
7
 10
127.4208276199346
 20
106.1380025857252
 70
0
  0
VERTEX
  5
19412F
  8
0
 62
7
 10
127.50523251500471
 20
106.1380025857252
 70
0
  0
VERTEX
  5
194130
  8
0
 62
7
 10
127.5899819198506
 20
106.1380025857252
 70
0
  0
VERTEX
  5
194131
  8
0
 62
7
 10
127.5899819198506
 20
106.18054954303609
 70
0
  0
SEQEND
  5
194132
  8
0
  0
POLYLINE
  5
14E593
  8
0
 62
7
 66
1
 70
0
 10
0
 20
0
 30
0
  0
VERTEX
  5
194133
  8
0
 62
7
 10
127.5479517272035
 20
106.4770002051087
 70
0
  0
VERTEX
  5
194134
  8
0
 62
7
 10
127.5479517272035
 20
106.43445324779781
 70
0
  0
SEQEND
  5
194135
  8
0
  0
POLYLINE
  5
14E597
  8
0
 62
7
 66
1
 70
0
 10
0
 20
0
 30
0
  0
VERTEX
  5
194136
  8
0
 62
7
 10
127.63235662227351
 20
106.4770002051087
 70
0
  0
VERTEX
  5
194137
  8
0
 62
7
 10
127.63235662227351
 20
106.4770002051087
 70
0
  0
SEQEND
  5
194138
  8
0
  0
POLYLINE
  5
14E59B
  8
0
 62
7
 66
1
 70
0
 10
0
 20
0
 30
0
  0
VERTEX
  5
194139
  8
0
 62
7
 10
134.74441643380959
 20
119.13446162274781
 70
0
  0
VERTEX
  5
19413A
  8
0
 62
7
 10
135.04103935077
 20
119.2188665178179
 70
0
  0
SEQEND
  5
19413B
  8
0
  0
POLYLINE
  5
14E59F
  8
0
 62
7
 66
1
 70
0
 10
0
 20
0
 30
0
  0
VERTEX
  5
19413C
  8
0
 62
7
 10
133.89795591467839
 20
97.9254062954083
 70
0
  0
VERTEX
  5
19413D
  8
0
 62
7
 10
133.89795591467839
 20
97.9254062954083
 70
0
  0
SEQEND
  5
19413E
  8
0
  0
POLYLINE
  5
14E5A3
  8
0
 62
7
 66
1
 70
0
 10
0
 20
0
 30
0
  0
VERTEX
  5
19413F
  8
0
 62
7
 10
131.86603725703259
 20
97.841001400338229
 70
0
  0
VERTEX
  5
194140
  8
0
 62
7
 10
131.907722939904
 20
97.841001400338229
 70
0
  0
SEQEND
  5
194141
  8
0
  0
POLYLINE
  5
14E5A7
  8
0
 62
7
 66
1
 70
0
 10
0
 20
0
 30
0
  0
VERTEX
  5
194142
  8
0
 62
7
 10
132.83927737365681
 20
98.095077359987869
 70
0
  0
VERTEX
  5
194143
  8
0
 62
7
 10
132.24706506906321
 20
98.052530402677064
 70
0
  0
SEQEND
  5
194144
  8
0
  0
POLYLINE
  5
14E5AB
  8
0
 62
7
 66
1
 70
0
 10
0
 20
0
 30
0
  0
VERTEX
  5
194145
  8
0
 62
7
 10
132.20434585686451
 20
98.771866814539436
 70
0
  0
VERTEX
  5
194146
  8
0
 62
7
 10
133.89795591467839
 20
98.771866814539436
 70
0
  0
SEQEND
  5
194147
  8
0
  0
POLYLINE
  5
14E5AF
  8
0
 62
7
 66
1
 70
0
 10
0
 20
0
 30
0
  0
VERTEX
  5
194148
  8
0
 62
7
 10
130.68023460874221
 20
100.3810719772833
 70
0
  0
VERTEX
  5
194149
  8
0
 62
7
 10
131.23110574024031
 20
100.2539478700146
 70
0
  0
VERTEX
  5
19414A
  8
0
 62
7
 10
131.82331804483391
 20
100.2539478700146
 70
0
  0
SEQEND
  5
19414B
  8
0
  0
POLYLINE
  5
14E5B4
  8
0
 62
7
 66
1
 70
0
 10
0
 20
0
 30
0
  0
VERTEX
  5
19414C
  8
0
 62
7
 10
132.62809288109369
 20
99.872920057984047
 70
0
  0
VERTEX
  5
19414D
  8
0
 62
7
 10
132.62809288109369
 20
99.914950250631165
 70
0
  0
VERTEX
  5
19414E
  8
0
 62
7
 10
132.585373668895
 20
99.914950250631165
 70
0
  0
VERTEX
  5
19414F
  8
0
 62
7
 10
132.54299896647211
 20
99.872920057984047
 70
0
  0
VERTEX
  5
194150
  8
0
 62
7
 10
132.45824956162619
 20
99.872920057984047
 70
0
  0
VERTEX
  5
194151
  8
0
 62
7
 10
132.45824956162619
 20
99.830545355561085
 70
0
  0
VERTEX
  5
194152
  8
0
 62
7
 10
132.41587485920331
 20
99.7879983982503
 70
0
  0
VERTEX
  5
194153
  8
0
 62
7
 10
132.3738446665561
 20
99.7879983982503
 70
0
  0
VERTEX
  5
194154
  8
0
 62
7
 10
132.3738446665561
 20
99.619016353222264
 70
0
  0
SEQEND
  5
194155
  8
0
  0
POLYLINE
  5
14E5BF
  8
0
 62
7
 66
1
 70
0
 10
0
 20
0
 30
0
  0
VERTEX
  5
194156
  8
0
 62
7
 10
138.04654263481589
 20
119.43108453970829
 70
0
  0
VERTEX
  5
194157
  8
0
 62
7
 10
138.0889173372388
 20
119.4729424774676
 70
0
  0
VERTEX
  5
194158
  8
0
 62
7
 10
138.1309475298859
 20
119.55803639208921
 70
0
  0
VERTEX
  5
194159
  8
0
 62
7
 10
138.1309475298859
 20
119.5998943298484
 70
0
  0
SEQEND
  5
19415A
  8
0
  0
POLYLINE
  5
14E5C5
  8
0
 62
7
 66
1
 70
0
 10
0
 20
0
 30
0
  0
VERTEX
  5
19415B
  8
0
 62
7
 10
133.89795591467839
 20
97.9254062954083
 70
0
  0
VERTEX
  5
19415C
  8
0
 62
7
 10
134.74441643380959
 20
98.136935297747129
 70
0
  0
SEQEND
  5
19415D
  8
0
  0
POLYLINE
  5
14E5C9
  8
0
 62
7
 66
1
 70
0
 10
0
 20
0
 30
0
  0
VERTEX
  5
19415E
  8
0
 62
7
 10
129.28324746788871
 20
98.136935297747129
 70
0
  0
VERTEX
  5
19415F
  8
0
 62
7
 10
130.93448282327981
 20
98.390839002508926
 70
0
  0
SEQEND
  5
194160
  8
0
  0
POLYLINE
  5
14E5CD
  8
0
 62
7
 66
1
 70
0
 10
0
 20
0
 30
0
  0
VERTEX
  5
194161
  8
0
 62
7
 10
128.81781476078811
 20
98.306434107438875
 70
0
  0
VERTEX
  5
194162
  8
0
 62
7
 10
128.9022196558582
 20
98.34898106474968
 70
0
  0
SEQEND
  5
194163
  8
0
  0
POLYLINE
  5
14E5D1
  8
0
 62
7
 66
1
 70
0
 10
0
 20
0
 30
0
  0
VERTEX
  5
194164
  8
0
 62
7
 10
135.12544424584021
 20
99.619016353222264
 70
0
  0
VERTEX
  5
194165
  8
0
 62
7
 10
134.91391524350129
 20
99.576469395911445
 70
0
  0
SEQEND
  5
194166
  8
0
  0
POLYLINE
  5
14E5D5
  8
0
 62
7
 66
1
 70
0
 10
0
 20
0
 30
0
  0
VERTEX
  5
194167
  8
0
 62
7
 10
132.11994096179441
 20
98.603057024399376
 70
0
  0
VERTEX
  5
194168
  8
0
 62
7
 10
133.89795591467839
 20
98.771866814539436
 70
0
  0
SEQEND
  5
194169
  8
0
  0
POLYLINE
  5
14E5D9
  8
0
 62
7
 66
1
 70
0
 10
0
 20
0
 30
0
  0
VERTEX
  5
19416A
  8
0
 62
7
 10
129.36799687273461
 20
98.814413771850283
 70
0
  0
VERTEX
  5
19416B
  8
0
 62
7
 10
129.62190057749641
 20
98.856960729161131
 70
0
  0
SEQEND
  5
19416C
  8
0
  0
POLYLINE
  5
14E5DD
  8
0
 62
7
 66
1
 70
0
 10
0
 20
0
 30
0
  0
VERTEX
  5
19416D
  8
0
 62
7
 10
127.335733705313
 20
100.2539478700146
 70
0
  0
VERTEX
  5
19416E
  8
0
 62
7
 10
126.6163972934506
 20
100.2114009127037
 70
0
  0
SEQEND
  5
19416F
  8
0
  0
POLYLINE
  5
14E5E1
  8
0
 62
7
 66
1
 70
0
 10
0
 20
0
 30
0
  0
VERTEX
  5
194170
  8
0
 62
7
 10
134.278983726709
 20
99.830545355561085
 70
0
  0
VERTEX
  5
194171
  8
0
 62
7
 10
134.40610783397781
 20
99.830545355561085
 70
0
  0
SEQEND
  5
194172
  8
0
  0
POLYLINE
  5
14E5E5
  8
0
 62
7
 66
1
 70
0
 10
0
 20
0
 30
0
  0
VERTEX
  5
194173
  8
0
 62
7
 10
131.78094334241061
 20
100.2539478700146
 70
0
  0
VERTEX
  5
194174
  8
0
 62
7
 10
131.23110574024031
 20
100.2539478700146
 70
0
  0
VERTEX
  5
194175
  8
0
 62
7
 10
130.68023460874221
 20
100.3810719772833
 70
0
  0
VERTEX
  5
194176
  8
0
 62
7
 10
130.1724271992187
 20
100.59242872473431
 70
0
  0
SEQEND
  5
194177
  8
0
  0
POLYLINE
  5
14E5F6
  8
0
 62
7
 66
1
 70
0
 10
0
 20
0
 30
0
  0
VERTEX
  5
194178
  8
0
 62
7
 10
128.52153635360341
 20
107.4078656193099
 70
0
  0
VERTEX
  5
194179
  8
0
 62
7
 10
128.52153635360341
 20
107.4078656193099
 70
0
  0
SEQEND
  5
19417A
  8
0
  0
POLYLINE
  5
14E5FA
  8
0
 62
7
 66
1
 70
0
 10
0
 20
0
 30
0
  0
VERTEX
  5
19417B
  8
0
 62
7
 10
128.52153635360341
 20
107.4078656193099
 70
0
  0
VERTEX
  5
19417C
  8
0
 62
7
 10
128.9022196558582
 20
107.87398734596221
 70
0
  0
SEQEND
  5
19417D
  8
0
  0
POLYLINE
  5
14E5FE
  8
0
 62
7
 66
1
 70
0
 10
0
 20
0
 30
0
  0
VERTEX
  5
19417E
  8
0
 62
7
 10
134.91391524350129
 20
115.9169125716995
 70
0
  0
VERTEX
  5
19417F
  8
0
 62
7
 10
134.91391524350129
 20
115.9169125716995
 70
0
  0
SEQEND
  5
194180
  8
0
  0
POLYLINE
  5
14E602
  8
0
 62
7
 66
1
 70
0
 10
0
 20
0
 30
0
  0
VERTEX
  5
194181
  8
0
 62
7
 10
132.62809288109369
 20
99.703421248292372
 70
0
  0
VERTEX
  5
194182
  8
0
 62
7
 10
132.62809288109369
 20
99.703421248292372
 70
0
  0
SEQEND
  5
194183
  8
0
  0
POLYLINE
  5
14E606
  8
0
 62
7
 66
1
 70
0
 10
0
 20
0
 30
0
  0
VERTEX
  5
194184
  8
0
 62
7
 10
132.71249777616379
 20
99.703421248292372
 70
0
  0
VERTEX
  5
194185
  8
0
 62
7
 10
132.71249777616379
 20
99.703421248292372
 70
0
  0
SEQEND
  5
194186
  8
0
  0
POLYLINE
  5
14E60A
  8
0
 62
7
 66
1
 70
0
 10
0
 20
0
 30
0
  0
VERTEX
  5
194187
  8
0
 62
7
 10
126.6163972934506
 20
100.041902103012
 70
0
  0
VERTEX
  5
194188
  8
0
 62
7
 10
127.4628578125818
 20
100.1269960176337
 70
0
  0
SEQEND
  5
194189
  8
0
  0
POLYLINE
  5
14E60E
  8
0
 62
7
 66
1
 70
0
 10
0
 20
0
 30
0
  0
VERTEX
  5
19418A
  8
0
 62
7
 10
126.3197743764901
 20
100.4229299150426
 70
0
  0
VERTEX
  5
19418B
  8
0
 62
7
 10
126.5319923983805
 20
100.46547687235341
 70
0
  0
SEQEND
  5
19418C
  8
0
  0
POLYLINE
  5
14E612
  8
0
 62
7
 66
1
 70
0
 10
0
 20
0
 30
0
  0
VERTEX
  5
19418D
  8
0
 62
7
 10
132.33146996413319
 20
100.2959780626617
 70
0
  0
VERTEX
  5
19418E
  8
0
 62
7
 10
131.78094334241061
 20
100.2539478700146
 70
0
  0
SEQEND
  5
19418F
  8
0
  0
POLYLINE
  5
14E616
  8
0
 62
7
 66
1
 70
0
 10
0
 20
0
 30
0
  0
VERTEX
  5
194190
  8
0
 62
7
 10
131.82331804483391
 20
100.2539478700146
 70
0
  0
VERTEX
  5
194191
  8
0
 62
7
 10
132.33146996413319
 20
100.2959780626617
 70
0
  0
SEQEND
  5
194192
  8
0
  0
POLYLINE
  5
14E61A
  8
0
 62
7
 66
1
 70
0
 10
0
 20
0
 30
0
  0
VERTEX
  5
194193
  8
0
 62
7
 10
132.62809288109369
 20
99.703421248292372
 70
0
  0
VERTEX
  5
194194
  8
0
 62
7
 10
132.62809288109369
 20
99.703421248292372
 70
0
  0
SEQEND
  5
194195
  8
0
  0
POLYLINE
  5
14E61E
  8
0
 62
7
 66
1
 70
0
 10
0
 20
0
 30
0
  0
VERTEX
  5
194196
  8
0
 62
7
 10
132.71249777616379
 20
99.745968205603134
 70
0
  0
VERTEX
  5
194197
  8
0
 62
7
 10
132.71249777616379
 20
99.703421248292372
 70
0
  0
SEQEND
  5
194198
  8
0
  0
POLYLINE
  5
14E622
  8
0
 62
7
 66
1
 70
0
 10
0
 20
0
 30
0
  0
VERTEX
  5
194199
  8
0
 62
7
 10
132.54299896647211
 20
124.1718835644394
 70
0
  0
VERTEX
  5
19419A
  8
0
 62
7
 10
132.54299896647211
 20
123.9179798596776
 70
0
  0
SEQEND
  5
19419B
  8
0
  0
POLYLINE
  5
14E626
  8
0
 62
7
 66
1
 70
0
 10
0
 20
0
 30
0
  0
VERTEX
  5
19419C
  8
0
 62
7
 10
133.13590029061729
 20
123.6639039000279
 70
0
  0
VERTEX
  5
19419D
  8
0
 62
7
 10
133.22030518568741
 20
122.0128407995248
 70
0
  0
SEQEND
  5
19419E
  8
0
  0
POLYLINE
  5
14E62A
  8
0
 62
7
 66
1
 70
0
 10
0
 20
0
 30
0
  0
VERTEX
  5
19419F
  8
0
 62
7
 10
133.00877618334849
 20
124.0449317120585
 70
0
  0
VERTEX
  5
1941A0
  8
0
 62
7
 10
133.00877618334849
 20
124.2990076717082
 70
0
  0
SEQEND
  5
1941A1
  8
0
  0
POLYLINE
  5
14E62E
  8
0
 62
7
 66
1
 70
0
 10
0
 20
0
 30
0
  0
VERTEX
  5
1941A2
  8
0
 62
7
 10
133.389803995379
 20
124.256977479061
 70
0
  0
VERTEX
  5
1941A3
  8
0
 62
7
 10
133.389803995379
 20
124.0030737742993
 70
0
  0
SEQEND
  5
1941A4
  8
0
  0
POLYLINE
  5
14E632
  8
0
 62
7
 66
1
 70
0
 10
0
 20
0
 30
0
  0
VERTEX
  5
1941A5
  8
0
 62
7
 10
134.91391524350129
 20
115.9169125716995
 70
0
  0
VERTEX
  5
1941A6
  8
0
 62
7
 10
134.91391524350129
 20
115.9169125716995
 70
0
  0
SEQEND
  5
1941A7
  8
0
  0
POLYLINE
  5
14E636
  8
0
 62
7
 66
1
 70
0
 10
0
 20
0
 30
0
  0
VERTEX
  5
1941A8
  8
0
 62
7
 10
135.04103935077
 20
116.6789681957606
 70
0
  0
VERTEX
  5
1941A9
  8
0
 62
7
 10
134.87154054107839
 20
116.00200648632121
 70
0
  0
SEQEND
  5
1941AA
  8
0
  0
POLYLINE
  5
14E63A
  8
0
 62
7
 66
1
 70
0
 10
0
 20
0
 30
0
  0
VERTEX
  5
1941AB
  8
0
 62
7
 10
134.74441643380959
 20
116.128958338702
 70
0
  0
VERTEX
  5
1941AC
  8
0
 62
7
 10
134.87154054107839
 20
116.5945633006906
 70
0
  0
SEQEND
  5
1941AD
  8
0
  0
POLYLINE
  5
14E63E
  8
0
 62
7
 66
1
 70
0
 10
0
 20
0
 30
0
  0
VERTEX
  5
1941AE
  8
0
 62
7
 10
128.9022196558582
 20
107.87398734596221
 70
0
  0
VERTEX
  5
1941AF
  8
0
 62
7
 10
129.28324746788871
 20
108.2550151579927
 70
0
  0
VERTEX
  5
1941B0
  8
0
 62
7
 10
129.79139938718811
 20
108.59349601271251
 70
0
  0
VERTEX
  5
1941B1
  8
0
 62
7
 10
130.29955130648739
 20
108.8050250150513
 70
0
  0
VERTEX
  5
1941B2
  8
0
 62
7
 10
130.807358716011
 20
108.974523824743
 70
0
  0
SEQEND
  5
1941B3
  8
0
  0
POLYLINE
  5
14E645
  8
0
 62
7
 66
1
 70
0
 10
0
 20
0
 30
0
  0
VERTEX
  5
1941B4
  8
0
 62
7
 10
141.55985332838509
 20
117.313899712553
 70
0
  0
VERTEX
  5
1941B5
  8
0
 62
7
 10
141.55985332838509
 20
117.313899712553
 70
0
  0
VERTEX
  5
1941B6
  8
0
 62
7
 10
141.60222803080811
 20
117.3564466698638
 70
0
  0
VERTEX
  5
1941B7
  8
0
 62
7
 10
141.60222803080811
 20
117.39899362717461
 70
0
  0
VERTEX
  5
1941B8
  8
0
 62
7
 10
141.6449472430069
 20
117.39899362717461
 70
0
  0
VERTEX
  5
1941B9
  8
0
 62
7
 10
141.6449472430069
 20
117.44085156493379
 70
0
  0
SEQEND
  5
1941BA
  8
0
  0
POLYLINE
  5
14E64D
  8
0
 62
7
 66
1
 70
0
 10
0
 20
0
 30
0
  0
VERTEX
  5
1941BB
  8
0
 62
7
 10
141.60222803080811
 20
117.1869478601721
 70
0
  0
VERTEX
  5
1941BC
  8
0
 62
7
 10
141.60222803080811
 20
117.2294948174829
 70
0
  0
VERTEX
  5
1941BD
  8
0
 62
7
 10
141.6449472430069
 20
117.27204177479371
 70
0
  0
VERTEX
  5
1941BE
  8
0
 62
7
 10
141.686977435654
 20
117.313899712553
 70
0
  0
VERTEX
  5
1941BF
  8
0
 62
7
 10
141.686977435654
 20
117.3564466698638
 70
0
  0
SEQEND
  5
1941C0
  8
0
  0
POLYLINE
  5
14E654
  8
0
 62
7
 66
1
 70
0
 10
0
 20
0
 30
0
  0
VERTEX
  5
1941C1
  8
0
 62
7
 10
139.9513371851929
 20
116.4674391934218
 70
0
  0
VERTEX
  5
1941C2
  8
0
 62
7
 10
139.5703093731623
 20
116.3404873410409
 70
0
  0
VERTEX
  5
1941C3
  8
0
 62
7
 10
138.89300315394709
 20
116.1709885313491
 70
0
  0
SEQEND
  5
1941C4
  8
0
  0
POLYLINE
  5
14E659
  8
0
 62
7
 66
1
 70
0
 10
0
 20
0
 30
0
  0
VERTEX
  5
1941C5
  8
0
 62
7
 10
132.33146996413319
 20
100.2539478700146
 70
0
  0
VERTEX
  5
1941C6
  8
0
 62
7
 10
132.83927737365681
 20
100.3810719772833
 70
0
  0
VERTEX
  5
1941C7
  8
0
 62
7
 10
133.34742929295609
 20
100.6349756820451
 70
0
  0
VERTEX
  5
1941C8
  8
0
 62
7
 10
133.85523670247969
 20
100.930909579454
 70
0
  0
VERTEX
  5
1941C9
  8
0
 62
7
 10
134.278983726709
 20
101.3544843487954
 70
0
  0
VERTEX
  5
1941CA
  8
0
 62
7
 10
134.6600115387395
 20
101.8199170558961
 70
0
  0
VERTEX
  5
1941CB
  8
0
 62
7
 10
134.99832013857139
 20
102.32789672030751
 70
0
  0
VERTEX
  5
1941CC
  8
0
 62
7
 10
135.20984914091019
 20
102.9209702993406
 70
0
  0
VERTEX
  5
1941CD
  8
0
 62
7
 10
135.3793479506019
 20
103.47098015639919
 70
0
  0
VERTEX
  5
1941CE
  8
0
 62
7
 10
135.463752845672
 20
104.1059116731915
 70
0
  0
VERTEX
  5
1941CF
  8
0
 62
7
 10
135.5064720578707
 20
104.74084318998391
 70
0
  0
VERTEX
  5
1941D0
  8
0
 62
7
 10
135.42206716280069
 20
105.3759469616641
 70
0
  0
VERTEX
  5
1941D1
  8
0
 62
7
 10
135.25222384333321
 20
106.01087847845641
 70
0
  0
VERTEX
  5
1941D2
  8
0
 62
7
 10
135.04103935077
 20
106.60395205748959
 70
0
  0
VERTEX
  5
1941D3
  8
0
 62
7
 10
134.74441643380959
 20
107.15396191454821
 70
0
  0
VERTEX
  5
1941D4
  8
0
 62
7
 10
134.40610783397781
 20
107.6619415789596
 70
0
  0
VERTEX
  5
1941D5
  8
0
 62
7
 10
133.98236080974851
 20
108.085516348301
 70
0
  0
VERTEX
  5
1941D6
  8
0
 62
7
 10
133.51692810264791
 20
108.46654416033159
 70
0
  0
VERTEX
  5
1941D7
  8
0
 62
7
 10
133.00877618334849
 20
108.7629948224041
 70
0
  0
VERTEX
  5
1941D8
  8
0
 62
7
 10
132.45824956162619
 20
108.9319768674322
 70
0
  0
VERTEX
  5
1941D9
  8
0
 62
7
 10
131.907722939904
 20
109.0589287198131
 70
0
  0
VERTEX
  5
1941DA
  8
0
 62
7
 10
131.35788533773319
 20
109.1014756771239
 70
0
  0
VERTEX
  5
1941DB
  8
0
 62
7
 10
130.807358716011
 20
109.01707078205381
 70
0
  0
SEQEND
  5
1941DC
  8
0
  0
POLYLINE
  5
14E672
  8
0
 62
7
 66
1
 70
0
 10
0
 20
0
 30
0
  0
VERTEX
  5
1941DD
  8
0
 62
7
 10
132.71249777616379
 20
100.3810719772833
 70
0
  0
VERTEX
  5
1941DE
  8
0
 62
7
 10
132.33146996413319
 20
100.2959780626617
 70
0
  0
SEQEND
  5
1941DF
  8
0
  0
POLYLINE
  5
14E676
  8
0
 62
7
 66
1
 70
0
 10
0
 20
0
 30
0
  0
VERTEX
  5
1941E0
  8
0
 62
7
 10
136.6919301963853
 20
102.45502082757631
 70
0
  0
VERTEX
  5
1941E1
  8
0
 62
7
 10
136.56480608911659
 20
102.4129906349291
 70
0
  0
SEQEND
  5
1941E2
  8
0
  0
POLYLINE
  5
14E67A
  8
0
 62
7
 66
1
 70
0
 10
0
 20
0
 30
0
  0
VERTEX
  5
1941E3
  8
0
 62
7
 10
136.0990288722401
 20
102.624519637268
 70
0
  0
VERTEX
  5
1941E4
  8
0
 62
7
 10
136.77633509145539
 20
102.7089245323381
 70
0
  0
SEQEND
  5
1941E5
  8
0
  0
POLYLINE
  5
14E67E
  8
0
 62
7
 66
1
 70
0
 10
0
 20
0
 30
0
  0
VERTEX
  5
1941E6
  8
0
 62
7
 10
135.88749986990121
 20
102.2860387825483
 70
0
  0
VERTEX
  5
1941E7
  8
0
 62
7
 10
136.14140357466309
 20
102.2860387825483
 70
0
  0
SEQEND
  5
1941E8
  8
0
  0
POLYLINE
  5
14E682
  8
0
 62
7
 66
1
 70
0
 10
0
 20
0
 30
0
  0
VERTEX
  5
1941E9
  8
0
 62
7
 10
125.7272175621207
 20
103.30199811137121
 70
0
  0
VERTEX
  5
1941EA
  8
0
 62
7
 10
125.21941015259711
 20
103.30199811137121
 70
0
  0
SEQEND
  5
1941EB
  8
0
  0
POLYLINE
  5
14E686
  8
0
 62
7
 66
1
 70
0
 10
0
 20
0
 30
0
  0
VERTEX
  5
1941EC
  8
0
 62
7
 10
127.5479517272035
 20
106.6459822501367
 70
0
  0
VERTEX
  5
1941ED
  8
0
 62
7
 10
127.50523251500471
 20
106.6459822501367
 70
0
  0
VERTEX
  5
1941EE
  8
0
 62
7
 10
127.37845291751169
 20
106.6459822501367
 70
0
  0
VERTEX
  5
1941EF
  8
0
 62
7
 10
127.37845291751169
 20
106.60395205748959
 70
0
  0
VERTEX
  5
1941F0
  8
0
 62
7
 10
127.335733705313
 20
106.60395205748959
 70
0
  0
VERTEX
  5
1941F1
  8
0
 62
7
 10
127.335733705313
 20
106.5188581428679
 70
0
  0
VERTEX
  5
1941F2
  8
0
 62
7
 10
127.2940480224416
 20
106.5188581428679
 70
0
  0
VERTEX
  5
1941F3
  8
0
 62
7
 10
127.2513288102429
 20
106.4770002051087
 70
0
  0
VERTEX
  5
1941F4
  8
0
 62
7
 10
127.2513288102429
 20
106.3500483527278
 70
0
  0
SEQEND
  5
1941F5
  8
0
  0
POLYLINE
  5
14E691
  8
0
 62
7
 66
1
 70
0
 10
0
 20
0
 30
0
  0
VERTEX
  5
1941F6
  8
0
 62
7
 10
134.74441643380959
 20
116.55201634337971
 70
0
  0
VERTEX
  5
1941F7
  8
0
 62
7
 10
134.74441643380959
 20
116.128958338702
 70
0
  0
SEQEND
  5
1941F8
  8
0
  0
POLYLINE
  5
14E695
  8
0
 62
7
 66
1
 70
0
 10
0
 20
0
 30
0
  0
VERTEX
  5
1941F9
  8
0
 62
7
 10
134.40610783397781
 20
118.41512521088541
 70
0
  0
VERTEX
  5
1941FA
  8
0
 62
7
 10
134.40610783397781
 20
118.880557917986
 70
0
  0
SEQEND
  5
1941FB
  8
0
  0
POLYLINE
  5
14E699
  8
0
 62
7
 66
1
 70
0
 10
0
 20
0
 30
0
  0
VERTEX
  5
1941FC
  8
0
 62
7
 10
134.49051272904779
 20
118.9649628130561
 70
0
  0
VERTEX
  5
1941FD
  8
0
 62
7
 10
134.49051272904779
 20
118.4995301059555
 70
0
  0
SEQEND
  5
1941FE
  8
0
  0
POLYLINE
  5
14E69D
  8
0
 62
7
 66
1
 70
0
 10
0
 20
0
 30
0
  0
VERTEX
  5
1941FF
  8
0
 62
7
 10
134.70169722161091
 20
118.54207706326631
 70
0
  0
VERTEX
  5
194200
  8
0
 62
7
 10
134.70169722161091
 20
118.9649628130561
 70
0
  0
SEQEND
  5
194201
  8
0
  0
POLYLINE
  5
14E6A1
  8
0
 62
7
 66
1
 70
0
 10
0
 20
0
 30
0
  0
VERTEX
  5
194202
  8
0
 62
7
 10
141.60222803080811
 20
117.1869478601721
 70
0
  0
VERTEX
  5
194203
  8
0
 62
7
 10
141.55985332838509
 20
117.1869478601721
 70
0
  0
SEQEND
  5
194204
  8
0
  0
POLYLINE
  5
14E6A5
  8
0
 62
7
 66
1
 70
0
 10
0
 20
0
 30
0
  0
VERTEX
  5
194205
  8
0
 62
7
 10
125.0499113429054
 20
103.6830259234017
 70
0
  0
VERTEX
  5
194206
  8
0
 62
7
 10
125.6848428596977
 20
103.724883861161
 70
0
  0
SEQEND
  5
194207
  8
0
  0
POLYLINE
  5
14E6A9
  8
0
 62
7
 66
1
 70
0
 10
0
 20
0
 30
0
  0
VERTEX
  5
194208
  8
0
 62
7
 10
135.9298745723242
 20
118.7959807680281
 70
0
  0
VERTEX
  5
194209
  8
0
 62
7
 10
135.9298745723242
 20
119.2188665178179
 70
0
  0
SEQEND
  5
19420A
  8
0
  0
POLYLINE
  5
14E6AD
  8
0
 62
7
 66
1
 70
0
 10
0
 20
0
 30
0
  0
VERTEX
  5
19420B
  8
0
 62
7
 10
136.183778277086
 20
118.7959807680281
 70
0
  0
VERTEX
  5
19420C
  8
0
 62
7
 10
136.183778277086
 20
119.2188665178179
 70
0
  0
SEQEND
  5
19420D
  8
0
  0
POLYLINE
  5
14E6B1
  8
0
 62
7
 66
1
 70
0
 10
0
 20
0
 30
0
  0
VERTEX
  5
19420E
  8
0
 62
7
 10
136.43802649162359
 20
118.71088685340639
 70
0
  0
VERTEX
  5
19420F
  8
0
 62
7
 10
136.43802649162359
 20
119.1770085800586
 70
0
  0
SEQEND
  5
194210
  8
0
  0
POLYLINE
  5
14E6B5
  8
0
 62
7
 66
1
 70
0
 10
0
 20
0
 30
0
  0
VERTEX
  5
194211
  8
0
 62
7
 10
130.29955130648739
 20
108.8050250150513
 70
0
  0
VERTEX
  5
194212
  8
0
 62
7
 10
129.79139938718811
 20
108.5509490554016
 70
0
  0
SEQEND
  5
194213
  8
0
  0
POLYLINE
  5
14E6B9
  8
0
 62
7
 66
1
 70
0
 10
0
 20
0
 30
0
  0
VERTEX
  5
194214
  8
0
 62
7
 10
154.6408895153657
 20
109.43995653184361
 70
0
  0
VERTEX
  5
194215
  8
0
 62
7
 10
147.99495143048179
 20
108.169921243371
 70
0
  0
SEQEND
  5
194216
  8
0
  0
POLYLINE
  5
14E6BD
  8
0
 62
7
 66
1
 70
0
 10
0
 20
0
 30
0
  0
VERTEX
  5
194217
  8
0
 62
7
 10
136.0990288722401
 20
105.8420686883163
 70
0
  0
VERTEX
  5
194218
  8
0
 62
7
 10
136.77633509145539
 20
105.9264735833864
 70
0
  0
SEQEND
  5
194219
  8
0
  0
POLYLINE
  5
14E6C1
  8
0
 62
7
 66
1
 70
0
 10
0
 20
0
 30
0
  0
VERTEX
  5
19421A
  8
0
 62
7
 10
136.183778277086
 20
105.3340890239049
 70
0
  0
VERTEX
  5
19421B
  8
0
 62
7
 10
136.90345919872419
 20
105.4184939189749
 70
0
  0
SEQEND
  5
19421C
  8
0
  0
POLYLINE
  5
14E6C5
  8
0
 62
7
 66
1
 70
0
 10
0
 20
0
 30
0
  0
VERTEX
  5
19421D
  8
0
 62
7
 10
136.90345919872419
 20
105.502898814045
 70
0
  0
VERTEX
  5
19421E
  8
0
 62
7
 10
136.26852768193189
 20
105.46104087628579
 70
0
  0
SEQEND
  5
19421F
  8
0
  0
POLYLINE
  5
14E6C9
  8
0
 62
7
 66
1
 70
0
 10
0
 20
0
 30
0
  0
VERTEX
  5
194220
  8
0
 62
7
 10
138.1309475298859
 20
119.5998943298484
 70
0
  0
VERTEX
  5
194221
  8
0
 62
7
 10
138.2160414445076
 20
124.2144305217502
 70
0
  0
SEQEND
  5
194222
  8
0
  0
POLYLINE
  5
14E6CD
  8
0
 62
7
 66
1
 70
0
 10
0
 20
0
 30
0
  0
VERTEX
  5
194223
  8
0
 62
7
 10
141.55985332838509
 20
117.44085156493379
 70
0
  0
VERTEX
  5
194224
  8
0
 62
7
 10
141.55985332838509
 20
117.44085156493379
 70
0
  0
SEQEND
  5
194225
  8
0
  0
POLYLINE
  5
14E6D1
  8
0
 62
7
 66
1
 70
0
 10
0
 20
0
 30
0
  0
VERTEX
  5
194226
  8
0
 62
7
 10
125.21941015259711
 20
106.6459822501367
 70
0
  0
VERTEX
  5
194227
  8
0
 62
7
 10
125.51603306955759
 20
106.6459822501367
 70
0
  0
SEQEND
  5
194228
  8
0
  0
POLYLINE
  5
14E6D5
  8
0
 62
7
 66
1
 70
0
 10
0
 20
0
 30
0
  0
VERTEX
  5
194229
  8
0
 62
7
 10
147.99495143048179
 20
108.169921243371
 70
0
  0
VERTEX
  5
19422A
  8
0
 62
7
 10
147.95223221828309
 20
108.169921243371
 70
0
  0
SEQEND
  5
19422B
  8
0
  0
POLYLINE
  5
14E6D9
  8
0
 62
7
 66
1
 70
0
 10
0
 20
0
 30
0
  0
VERTEX
  5
19422C
  8
0
 62
7
 10
134.74441643380959
 20
116.0865836362791
 70
0
  0
VERTEX
  5
19422D
  8
0
 62
7
 10
134.74441643380959
 20
116.128958338702
 70
0
  0
SEQEND
  5
19422E
  8
0
  0
POLYLINE
  5
14E6DD
  8
0
 62
7
 66
1
 70
0
 10
0
 20
0
 30
0
  0
VERTEX
  5
19422F
  8
0
 62
7
 10
141.686977435654
 20
117.3564466698638
 70
0
  0
VERTEX
  5
194230
  8
0
 62
7
 10
141.686977435654
 20
117.313899712553
 70
0
  0
VERTEX
  5
194231
  8
0
 62
7
 10
141.6449472430069
 20
117.313899712553
 70
0
  0
VERTEX
  5
194232
  8
0
 62
7
 10
141.6449472430069
 20
117.27204177479371
 70
0
  0
VERTEX
  5
194233
  8
0
 62
7
 10
141.60222803080811
 20
117.27204177479371
 70
0
  0
VERTEX
  5
194234
  8
0
 62
7
 10
141.55985332838509
 20
117.27204177479371
 70
0
  0
SEQEND
  5
194235
  8
0
  0
POLYLINE
  5
14E6E5
  8
0
 62
7
 66
1
 70
0
 10
0
 20
0
 30
0
  0
VERTEX
  5
194236
  8
0
 62
7
 10
127.50523251500471
 20
106.43445324779781
 70
0
  0
VERTEX
  5
194237
  8
0
 62
7
 10
127.5479517272035
 20
106.43445324779781
 70
0
  0
SEQEND
  5
194238
  8
0
  0
POLYLINE
  5
14E6E9
  8
0
 62
7
 66
1
 70
0
 10
0
 20
0
 30
0
  0
VERTEX
  5
194239
  8
0
 62
7
 10
127.63235662227351
 20
106.4770002051087
 70
0
  0
VERTEX
  5
19423A
  8
0
 62
7
 10
127.63235662227351
 20
106.4770002051087
 70
0
  0
SEQEND
  5
19423B
  8
0
  0
POLYLINE
  5
14E6ED
  8
0
 62
7
 66
1
 70
0
 10
0
 20
0
 30
0
  0
VERTEX
  5
19423C
  8
0
 62
7
 10
125.4733138573589
 20
106.9849798695201
 70
0
  0
VERTEX
  5
19423D
  8
0
 62
7
 10
126.06587067172831
 20
107.1121039767889
 70
0
  0
SEQEND
  5
19423E
  8
0
  0
POLYLINE
  5
14E6F1
  8
0
 62
7
 66
1
 70
0
 10
0
 20
0
 30
0
  0
VERTEX
  5
19423F
  8
0
 62
7
 10
134.7867911362325
 20
108.59349601271251
 70
0
  0
VERTEX
  5
194240
  8
0
 62
7
 10
134.99832013857139
 20
108.6360429700232
 70
0
  0
SEQEND
  5
194241
  8
0
  0
POLYLINE
  5
14E6F5
  8
0
 62
7
 66
1
 70
0
 10
0
 20
0
 30
0
  0
VERTEX
  5
194242
  8
0
 62
7
 10
135.0827250336414
 20
108.169921243371
 70
0
  0
VERTEX
  5
194243
  8
0
 62
7
 10
135.88749986990121
 20
108.29687309575191
 70
0
  0
SEQEND
  5
194244
  8
0
  0
POLYLINE
  5
14E6F9
  8
0
 62
7
 66
1
 70
0
 10
0
 20
0
 30
0
  0
VERTEX
  5
194245
  8
0
 62
7
 10
135.8030949748312
 20
108.3819670103736
 70
0
  0
VERTEX
  5
194246
  8
0
 62
7
 10
135.12544424584021
 20
108.3819670103736
 70
0
  0
SEQEND
  5
194247
  8
0
  0
POLYLINE
  5
14E6FD
  8
0
 62
7
 66
1
 70
0
 10
0
 20
0
 30
0
  0
VERTEX
  5
194248
  8
0
 62
7
 10
135.463752845672
 20
108.72044786509331
 70
0
  0
VERTEX
  5
194249
  8
0
 62
7
 10
135.63325165536369
 20
108.7629948224041
 70
0
  0
SEQEND
  5
19424A
  8
0
  0
POLYLINE
  5
14E701
  8
0
 62
7
 66
1
 70
0
 10
0
 20
0
 30
0
  0
VERTEX
  5
19424B
  8
0
 62
7
 10
131.35788533773319
 20
109.01707078205381
 70
0
  0
VERTEX
  5
19424C
  8
0
 62
7
 10
131.907722939904
 20
109.01707078205381
 70
0
  0
SEQEND
  5
19424D
  8
0
  0
POLYLINE
  5
14E705
  8
0
 62
7
 66
1
 70
0
 10
0
 20
0
 30
0
  0
VERTEX
  5
19424E
  8
0
 62
7
 10
134.87154054107839
 20
116.00200648632121
 70
0
  0
VERTEX
  5
19424F
  8
0
 62
7
 10
134.91391524350129
 20
115.9594595290103
 70
0
  0
VERTEX
  5
194250
  8
0
 62
7
 10
134.91391524350129
 20
115.9169125716995
 70
0
  0
SEQEND
  5
194251
  8
0
  0
POLYLINE
  5
14E70A
  8
0
 62
7
 66
1
 70
0
 10
0
 20
0
 30
0
  0
VERTEX
  5
194252
  8
0
 62
7
 10
127.63235662227351
 20
109.3555516367735
 70
0
  0
VERTEX
  5
194253
  8
0
 62
7
 10
127.5479517272035
 20
109.31300467946279
 70
0
  0
SEQEND
  5
194254
  8
0
  0
POLYLINE
  5
14E70E
  8
0
 62
7
 66
1
 70
0
 10
0
 20
0
 30
0
  0
VERTEX
  5
194255
  8
0
 62
7
 10
130.807358716011
 20
108.974523824743
 70
0
  0
VERTEX
  5
194256
  8
0
 62
7
 10
131.35788533773319
 20
109.01707078205381
 70
0
  0
SEQEND
  5
194257
  8
0
  0
POLYLINE
  5
14E712
  8
0
 62
7
 66
1
 70
0
 10
0
 20
0
 30
0
  0
VERTEX
  5
194258
  8
0
 62
7
 10
132.96640148092561
 20
110.7950857349378
 70
0
  0
VERTEX
  5
194259
  8
0
 62
7
 10
133.22030518568741
 20
110.7950857349378
 70
0
  0
SEQEND
  5
19425A
  8
0
  0
POLYLINE
  5
14E716
  8
0
 62
7
 66
1
 70
0
 10
0
 20
0
 30
0
  0
VERTEX
  5
19425B
  8
0
 62
7
 10
126.8703009982124
 20
109.6094553415353
 70
0
  0
VERTEX
  5
19425C
  8
0
 62
7
 10
126.9974251054811
 20
109.6094553415353
 70
0
  0
SEQEND
  5
19425D
  8
0
  0
POLYLINE
  5
14E71A
  8
0
 62
7
 66
1
 70
0
 10
0
 20
0
 30
0
  0
VERTEX
  5
19425E
  8
0
 62
7
 10
127.20895410782
 20
109.9479361962551
 70
0
  0
VERTEX
  5
19425F
  8
0
 62
7
 10
128.64831595109641
 20
109.9904831535659
 70
0
  0
SEQEND
  5
194260
  8
0
  0
POLYLINE
  5
14E71E
  8
0
 62
7
 66
1
 70
0
 10
0
 20
0
 30
0
  0
VERTEX
  5
194261
  8
0
 62
7
 10
148.036981623129
 20
108.169921243371
 70
0
  0
VERTEX
  5
194262
  8
0
 62
7
 10
147.99495143048179
 20
108.169921243371
 70
0
  0
SEQEND
  5
194263
  8
0
  0
POLYLINE
  5
14E722
  8
0
 62
7
 66
1
 70
0
 10
0
 20
0
 30
0
  0
VERTEX
  5
194264
  8
0
 62
7
 10
134.7867911362325
 20
116.0438644240804
 70
0
  0
VERTEX
  5
194265
  8
0
 62
7
 10
134.74441643380959
 20
116.0865836362791
 70
0
  0
SEQEND
  5
194266
  8
0
  0
POLYLINE
  5
14E726
  8
0
 62
7
 66
1
 70
0
 10
0
 20
0
 30
0
  0
VERTEX
  5
194267
  8
0
 62
7
 10
134.8288213288796
 20
115.9169125716995
 70
0
  0
VERTEX
  5
194268
  8
0
 62
7
 10
134.7867911362325
 20
115.9594595290103
 70
0
  0
SEQEND
  5
194269
  8
0
  0
POLYLINE
  5
14E72A
  8
0
 62
7
 66
1
 70
0
 10
0
 20
0
 30
0
  0
VERTEX
  5
19426A
  8
0
 62
7
 10
134.74441643380959
 20
116.0438644240804
 70
0
  0
VERTEX
  5
19426B
  8
0
 62
7
 10
134.7867911362325
 20
116.00200648632121
 70
0
  0
VERTEX
  5
19426C
  8
0
 62
7
 10
134.87154054107839
 20
116.00200648632121
 70
0
  0
SEQEND
  5
19426D
  8
0
  0
POLYLINE
  5
14E72F
  8
0
 62
7
 66
1
 70
0
 10
0
 20
0
 30
0
  0
VERTEX
  5
19426E
  8
0
 62
7
 10
141.55985332838509
 20
117.44085156493379
 70
0
  0
VERTEX
  5
19426F
  8
0
 62
7
 10
141.6449472430069
 20
123.1559242356165
 70
0
  0
SEQEND
  5
194270
  8
0
  0
POLYLINE
  5
14E733
  8
0
 62
7
 66
1
 70
0
 10
0
 20
0
 30
0
  0
VERTEX
  5
194271
  8
0
 62
7
 10
141.72935213807691
 20
123.11406629785731
 70
0
  0
VERTEX
  5
194272
  8
0
 62
7
 10
141.6449472430069
 20
117.44085156493379
 70
0
  0
SEQEND
  5
194273
  8
0
  0
POLYLINE
  5
14E737
  8
0
 62
7
 66
1
 70
0
 10
0
 20
0
 30
0
  0
VERTEX
  5
194274
  8
0
 62
7
 10
130.85007792820971
 20
108.974523824743
 70
0
  0
VERTEX
  5
194275
  8
0
 62
7
 10
130.29955130648739
 20
108.8050250150513
 70
0
  0
SEQEND
  5
194276
  8
0
  0
POLYLINE
  5
14E73B
  8
0
 62
7
 66
1
 70
0
 10
0
 20
0
 30
0
  0
VERTEX
  5
194277
  8
0
 62
7
 10
130.807358716011
 20
109.01707078205381
 70
0
  0
VERTEX
  5
194278
  8
0
 62
7
 10
130.25683209428871
 20
108.889946674785
 70
0
  0
VERTEX
  5
194279
  8
0
 62
7
 10
129.749024684765
 20
108.6360429700232
 70
0
  0
VERTEX
  5
19427A
  8
0
 62
7
 10
129.24087276546581
 20
108.29687309575191
 70
0
  0
VERTEX
  5
19427B
  8
0
 62
7
 10
128.81781476078811
 20
107.9158452837214
 70
0
  0
VERTEX
  5
19427C
  8
0
 62
7
 10
128.43678694875749
 20
107.45041257662081
 70
0
  0
VERTEX
  5
19427D
  8
0
 62
7
 10
128.1405085415729
 20
106.9424329122093
 70
0
  0
VERTEX
  5
19427E
  8
0
 62
7
 10
127.8862603270353
 20
106.3500483527278
 70
0
  0
VERTEX
  5
19427F
  8
0
 62
7
 10
127.7167615173435
 20
105.75697477369469
 70
0
  0
VERTEX
  5
194280
  8
0
 62
7
 10
127.63235662227351
 20
105.1218710020144
 70
0
  0
VERTEX
  5
194281
  8
0
 62
7
 10
127.63235662227351
 20
104.486939485222
 70
0
  0
VERTEX
  5
194282
  8
0
 62
7
 10
127.6750758344722
 20
103.8520079684297
 70
0
  0
SEQEND
  5
194283
  8
0
  0
POLYLINE
  5
14E749
  8
0
 62
7
 66
1
 70
0
 10
0
 20
0
 30
0
  0
VERTEX
  5
194284
  8
0
 62
7
 10
130.1724271992187
 20
110.4984628179774
 70
0
  0
VERTEX
  5
194285
  8
0
 62
7
 10
131.82331804483391
 20
110.7950857349378
 70
0
  0
SEQEND
  5
194286
  8
0
  0
POLYLINE
  5
14E74D
  8
0
 62
7
 66
1
 70
0
 10
0
 20
0
 30
0
  0
VERTEX
  5
194287
  8
0
 62
7
 10
132.45824956162619
 20
110.28710607052641
 70
0
  0
VERTEX
  5
194288
  8
0
 62
7
 10
132.54299896647211
 20
110.28710607052641
 70
0
  0
SEQEND
  5
194289
  8
0
  0
POLYLINE
  5
14E751
  8
0
 62
7
 66
1
 70
0
 10
0
 20
0
 30
0
  0
VERTEX
  5
19428A
  8
0
 62
7
 10
131.82331804483391
 20
110.7950857349378
 70
0
  0
VERTEX
  5
19428B
  8
0
 62
7
 10
130.0453030919499
 20
110.58286771304741
 70
0
  0
SEQEND
  5
19428C
  8
0
  0
POLYLINE
  5
14E755
  8
0
 62
7
 66
1
 70
0
 10
0
 20
0
 30
0
  0
VERTEX
  5
19428D
  8
0
 62
7
 10
129.96089819687981
 20
111.1759412920805
 70
0
  0
VERTEX
  5
19428E
  8
0
 62
7
 10
131.485009445002
 20
111.30306539934929
 70
0
  0
SEQEND
  5
19428F
  8
0
  0
POLYLINE
  5
14E759
  8
0
 62
7
 66
1
 70
0
 10
0
 20
0
 30
0
  0
VERTEX
  5
194290
  8
0
 62
7
 10
130.0453030919499
 20
111.30306539934929
 70
0
  0
VERTEX
  5
194291
  8
0
 62
7
 10
131.27279142311161
 20
111.30306539934929
 70
0
  0
SEQEND
  5
194292
  8
0
  0
POLYLINE
  5
14E75D
  8
0
 62
7
 66
1
 70
0
 10
0
 20
0
 30
0
  0
VERTEX
  5
194293
  8
0
 62
7
 10
154.6408895153657
 20
109.43995653184361
 70
0
  0
VERTEX
  5
194294
  8
0
 62
7
 10
154.68326421778869
 20
109.43995653184361
 70
0
  0
SEQEND
  5
194295
  8
0
  0
POLYLINE
  5
14E761
  8
0
 62
7
 66
1
 70
0
 10
0
 20
0
 30
0
  0
VERTEX
  5
194296
  8
0
 62
7
 10
147.95223221828309
 20
108.169921243371
 70
0
  0
VERTEX
  5
194297
  8
0
 62
7
 10
147.95223221828309
 20
108.169921243371
 70
0
  0
SEQEND
  5
194298
  8
0
  0
POLYLINE
  5
14E765
  8
0
 62
7
 66
1
 70
0
 10
0
 20
0
 30
0
  0
VERTEX
  5
194299
  8
0
 62
7
 10
147.99495143048179
 20
108.169921243371
 70
0
  0
VERTEX
  5
19429A
  8
0
 62
7
 10
141.55985332838509
 20
111.9798548539009
 70
0
  0
SEQEND
  5
19429B
  8
0
  0
POLYLINE
  5
14E769
  8
0
 62
7
 66
1
 70
0
 10
0
 20
0
 30
0
  0
VERTEX
  5
19429C
  8
0
 62
7
 10
139.9513371851929
 20
112.9115815425416
 70
0
  0
VERTEX
  5
19429D
  8
0
 62
7
 10
135.97190476497141
 20
115.28198105490721
 70
0
  0
SEQEND
  5
19429E
  8
0
  0
POLYLINE
  5
14E76D
  8
0
 62
7
 66
1
 70
0
 10
0
 20
0
 30
0
  0
VERTEX
  5
19429F
  8
0
 62
7
 10
135.20984914091019
 20
115.7481027815594
 70
0
  0
VERTEX
  5
1942A0
  8
0
 62
7
 10
134.91391524350129
 20
115.9169125716995
 70
0
  0
SEQEND
  5
1942A1
  8
0
  0
POLYLINE
  5
14E771
  8
0
 62
7
 66
1
 70
0
 10
0
 20
0
 30
0
  0
VERTEX
  5
1942A2
  8
0
 62
7
 10
136.9458339011471
 20
99.619016353222264
 70
0
  0
VERTEX
  5
1942A3
  8
0
 62
7
 10
137.5383907155165
 20
100.33852501997249
 70
0
  0
VERTEX
  5
1942A4
  8
0
 62
7
 10
138.04654263481589
 20
101.1429553464566
 70
0
  0
VERTEX
  5
1942A5
  8
0
 62
7
 10
138.4272259370706
 20
101.9894158655878
 70
0
  0
VERTEX
  5
1942A6
  8
0
 62
7
 10
138.7238488540311
 20
102.9209702993406
 70
0
  0
VERTEX
  5
1942A7
  8
0
 62
7
 10
138.8509729612999
 20
103.89438267085271
 70
0
  0
SEQEND
  5
1942A8
  8
0
  0
POLYLINE
  5
14E779
  8
0
 62
7
 66
1
 70
0
 10
0
 20
0
 30
0
  0
VERTEX
  5
1942A9
  8
0
 62
7
 10
134.87154054107839
 20
115.9169125716995
 70
0
  0
VERTEX
  5
1942AA
  8
0
 62
7
 10
134.91391524350129
 20
115.9169125716995
 70
0
  0
SEQEND
  5
1942AB
  8
0
  0
POLYLINE
  5
14E77D
  8
0
 62
7
 66
1
 70
0
 10
0
 20
0
 30
0
  0
VERTEX
  5
1942AC
  8
0
 62
7
 10
134.8288213288796
 20
116.0438644240804
 70
0
  0
VERTEX
  5
1942AD
  8
0
 62
7
 10
134.7867911362325
 20
116.0438644240804
 70
0
  0
SEQEND
  5
1942AE
  8
0
  0
POLYLINE
  5
14E781
  8
0
 62
7
 66
1
 70
0
 10
0
 20
0
 30
0
  0
VERTEX
  5
1942AF
  8
0
 62
7
 10
134.49051272904779
 20
118.2029071889949
 70
0
  0
VERTEX
  5
1942B0
  8
0
 62
7
 10
133.77083180740959
 20
118.5839350010255
 70
0
  0
SEQEND
  5
1942B1
  8
0
  0
POLYLINE
  5
14E785
  8
0
 62
7
 66
1
 70
0
 10
0
 20
0
 30
0
  0
VERTEX
  5
1942B2
  8
0
 62
7
 10
133.60133299771789
 20
118.7534338107173
 70
0
  0
VERTEX
  5
1942B3
  8
0
 62
7
 10
133.77083180740959
 20
118.5839350010255
 70
0
  0
SEQEND
  5
1942B4
  8
0
  0
POLYLINE
  5
14E789
  8
0
 62
7
 66
1
 70
0
 10
0
 20
0
 30
0
  0
VERTEX
  5
1942B5
  8
0
 62
7
 10
144.43892152471381
 20
108.2550151579927
 70
0
  0
VERTEX
  5
1942B6
  8
0
 62
7
 10
144.8199493367444
 20
106.2649544381061
 70
0
  0
SEQEND
  5
1942B7
  8
0
  0
POLYLINE
  5
14E78D
  8
0
 62
7
 66
1
 70
0
 10
0
 20
0
 30
0
  0
VERTEX
  5
1942B8
  8
0
 62
7
 10
144.60773131485391
 20
104.19100558781319
 70
0
  0
VERTEX
  5
1942B9
  8
0
 62
7
 10
144.65045052705261
 20
104.1484586305023
 70
0
  0
SEQEND
  5
1942BA
  8
0
  0
POLYLINE
  5
14E791
  8
0
 62
7
 66
1
 70
0
 10
0
 20
0
 30
0
  0
VERTEX
  5
1942BB
  8
0
 62
7
 10
144.8199493367444
 20
106.2649544381061
 70
0
  0
VERTEX
  5
1942BC
  8
0
 62
7
 10
145.1158832341533
 20
104.2754104828832
 70
0
  0
SEQEND
  5
1942BD
  8
0
  0
POLYLINE
  5
14E795
  8
0
 62
7
 66
1
 70
0
 10
0
 20
0
 30
0
  0
VERTEX
  5
1942BE
  8
0
 62
7
 10
154.68326421778869
 20
109.4825034891544
 70
0
  0
VERTEX
  5
1942BF
  8
0
 62
7
 10
154.6408895153657
 20
109.43995653184361
 70
0
  0
SEQEND
  5
1942C0
  8
0
  0
POLYLINE
  5
14E799
  8
0
 62
7
 66
1
 70
0
 10
0
 20
0
 30
0
  0
VERTEX
  5
1942C1
  8
0
 62
7
 10
135.25222384333321
 20
115.8750546339402
 70
0
  0
VERTEX
  5
1942C2
  8
0
 62
7
 10
134.91391524350129
 20
115.9169125716995
 70
0
  0
SEQEND
  5
1942C3
  8
0
  0
POLYLINE
  5
14E79D
  8
0
 62
7
 66
1
 70
0
 10
0
 20
0
 30
0
  0
VERTEX
  5
1942C4
  8
0
 62
7
 10
135.25222384333321
 20
115.9169125716995
 70
0
  0
VERTEX
  5
1942C5
  8
0
 62
7
 10
134.91391524350129
 20
115.9169125716995
 70
0
  0
SEQEND
  5
1942C6
  8
0
  0
POLYLINE
  5
14E7A1
  8
0
 62
7
 66
1
 70
0
 10
0
 20
0
 30
0
  0
VERTEX
  5
1942C7
  8
0
 62
7
 10
134.87154054107839
 20
116.00200648632121
 70
0
  0
VERTEX
  5
1942C8
  8
0
 62
7
 10
134.87154054107839
 20
116.0438644240804
 70
0
  0
VERTEX
  5
1942C9
  8
0
 62
7
 10
134.8288213288796
 20
116.0438644240804
 70
0
  0
SEQEND
  5
1942CA
  8
0
  0
POLYLINE
  5
14E7A6
  8
0
 62
7
 66
1
 70
0
 10
0
 20
0
 30
0
  0
VERTEX
  5
1942CB
  8
0
 62
7
 10
133.72845710498669
 20
118.6264819583364
 70
0
  0
VERTEX
  5
1942CC
  8
0
 62
7
 10
133.72845710498669
 20
118.5839350010255
 70
0
  0
VERTEX
  5
1942CD
  8
0
 62
7
 10
133.77083180740959
 20
118.5839350010255
 70
0
  0
SEQEND
  5
1942CE
  8
0
  0
POLYLINE
  5
14E7AB
  8
0
 62
7
 66
1
 70
0
 10
0
 20
0
 30
0
  0
VERTEX
  5
1942CF
  8
0
 62
7
 10
141.6449472430069
 20
117.44085156493379
 70
0
  0
VERTEX
  5
1942D0
  8
0
 62
7
 10
141.686977435654
 20
117.39899362717461
 70
0
  0
VERTEX
  5
1942D1
  8
0
 62
7
 10
141.686977435654
 20
117.3564466698638
 70
0
  0
SEQEND
  5
1942D2
  8
0
  0
POLYLINE
  5
14E7B0
  8
0
 62
7
 66
1
 70
0
 10
0
 20
0
 30
0
  0
VERTEX
  5
1942D3
  8
0
 62
7
 10
135.54884676029371
 20
98.517963109777682
 70
0
  0
VERTEX
  5
1942D4
  8
0
 62
7
 10
136.26852768193189
 20
99.025942774189147
 70
0
  0
VERTEX
  5
1942D5
  8
0
 62
7
 10
136.9458339011471
 20
99.619016353222264
 70
0
  0
SEQEND
  5
1942D6
  8
0
  0
POLYLINE
  5
14E7B5
  8
0
 62
7
 66
1
 70
0
 10
0
 20
0
 30
0
  0
VERTEX
  5
1942D7
  8
0
 62
7
 10
139.9513371851929
 20
116.42489223611091
 70
0
  0
VERTEX
  5
1942D8
  8
0
 62
7
 10
139.31640566840059
 20
116.2560824459708
 70
0
  0
VERTEX
  5
1942D9
  8
0
 62
7
 10
138.5543500443394
 20
116.0865836362791
 70
0
  0
VERTEX
  5
1942DA
  8
0
 62
7
 10
137.6655148227853
 20
115.9594595290103
 70
0
  0
VERTEX
  5
1942DB
  8
0
 62
7
 10
136.77633509145539
 20
115.9169125716995
 70
0
  0
VERTEX
  5
1942DC
  8
0
 62
7
 10
136.056998679593
 20
115.8750546339402
 70
0
  0
SEQEND
  5
1942DD
  8
0
  0
POLYLINE
  5
14E7BD
  8
0
 62
7
 66
1
 70
0
 10
0
 20
0
 30
0
  0
VERTEX
  5
1942DE
  8
0
 62
7
 10
134.87154054107839
 20
116.00200648632121
 70
0
  0
VERTEX
  5
1942DF
  8
0
 62
7
 10
134.87154054107839
 20
116.00200648632121
 70
0
  0
SEQEND
  5
1942E0
  8
0
  0
POLYLINE
  5
14E7C1
  8
0
 62
7
 66
1
 70
0
 10
0
 20
0
 30
0
  0
VERTEX
  5
1942E1
  8
0
 62
7
 10
138.89300315394709
 20
116.1709885313491
 70
0
  0
VERTEX
  5
1942E2
  8
0
 62
7
 10
138.17332223230889
 20
116.0438644240804
 70
0
  0
VERTEX
  5
1942E3
  8
0
 62
7
 10
137.4112666082477
 20
116.00200648632121
 70
0
  0
VERTEX
  5
1942E4
  8
0
 62
7
 10
136.56480608911659
 20
115.9169125716995
 70
0
  0
VERTEX
  5
1942E5
  8
0
 62
7
 10
136.056998679593
 20
115.9169125716995
 70
0
  0
SEQEND
  5
1942E6
  8
0
  0
POLYLINE
  5
14E7C8
  8
0
 62
7
 66
1
 70
0
 10
0
 20
0
 30
0
  0
VERTEX
  5
1942E7
  8
0
 62
7
 10
134.91391524350129
 20
115.9169125716995
 70
0
  0
VERTEX
  5
1942E8
  8
0
 62
7
 10
134.87154054107839
 20
115.9169125716995
 70
0
  0
VERTEX
  5
1942E9
  8
0
 62
7
 10
134.8288213288796
 20
115.9169125716995
 70
0
  0
SEQEND
  5
1942EA
  8
0
  0
POLYLINE
  5
14E7CD
  8
0
 62
7
 66
1
 70
0
 10
0
 20
0
 30
0
  0
VERTEX
  5
1942EB
  8
0
 62
7
 10
141.55985332838509
 20
117.2294948174829
 70
0
  0
VERTEX
  5
1942EC
  8
0
 62
7
 10
141.55985332838509
 20
117.2294948174829
 70
0
  0
VERTEX
  5
1942ED
  8
0
 62
7
 10
141.60222803080811
 20
117.1869478601721
 70
0
  0
SEQEND
  5
1942EE
  8
0
  0
POLYLINE
  5
14E7D2
  8
0
 62
7
 66
1
 70
0
 10
0
 20
0
 30
0
  0
VERTEX
  5
1942EF
  8
0
 62
7
 10
141.60222803080811
 20
117.1869478601721
 70
0
  0
VERTEX
  5
1942F0
  8
0
 62
7
 10
154.6408895153657
 20
109.43995653184361
 70
0
  0
SEQEND
  5
1942F1
  8
0
  0
POLYLINE
  5
14E7D6
  8
0
 62
7
 66
1
 70
0
 10
0
 20
0
 30
0
  0
VERTEX
  5
1942F2
  8
0
 62
7
 10
138.04654263481589
 20
119.43108453970829
 70
0
  0
VERTEX
  5
1942F3
  8
0
 62
7
 10
139.01978275144009
 20
118.83783870578731
 70
0
  0
SEQEND
  5
1942F4
  8
0
  0
POLYLINE
  5
14E7DA
  8
0
 62
7
 66
1
 70
0
 10
0
 20
0
 30
0
  0
VERTEX
  5
1942F5
  8
0
 62
7
 10
154.7680136226345
 20
109.6094553415353
 70
0
  0
VERTEX
  5
1942F6
  8
0
 62
7
 10
141.686977435654
 20
117.3564466698638
 70
0
  0
SEQEND
  5
1942F7
  8
0
  0
POLYLINE
  5
14E7DE
  8
0
 62
7
 66
1
 70
0
 10
0
 20
0
 30
0
  0
VERTEX
  5
1942F8
  8
0
 62
7
 10
141.55985332838509
 20
117.44085156493379
 70
0
  0
VERTEX
  5
1942F9
  8
0
 62
7
 10
141.55985332838509
 20
117.44085156493379
 70
0
  0
SEQEND
  5
1942FA
  8
0
  0
POLYLINE
  5
14E7E2
  8
0
 62
7
 66
1
 70
0
 10
0
 20
0
 30
0
  0
VERTEX
  5
1942FB
  8
0
 62
7
 10
134.74441643380959
 20
98.136935297747129
 70
0
  0
VERTEX
  5
1942FC
  8
0
 62
7
 10
135.54884676029371
 20
98.517963109777682
 70
0
  0
SEQEND
  5
1942FD
  8
0
  0
POLYLINE
  5
14E7E6
  8
0
 62
7
 66
1
 70
0
 10
0
 20
0
 30
0
  0
VERTEX
  5
1942FE
  8
0
 62
7
 10
138.04654263481589
 20
119.43108453970829
 70
0
  0
VERTEX
  5
1942FF
  8
0
 62
7
 10
137.74991971785539
 20
119.55803639208921
 70
0
  0
VERTEX
  5
194300
  8
0
 62
7
 10
137.4112666082477
 20
119.68498824447011
 70
0
  0
VERTEX
  5
194301
  8
0
 62
7
 10
136.98786409379429
 20
119.769565394428
 70
0
  0
VERTEX
  5
194302
  8
0
 62
7
 10
136.5224313866936
 20
119.8121123517389
 70
0
  0
VERTEX
  5
194303
  8
0
 62
7
 10
136.056998679593
 20
119.85397028949809
 70
0
  0
VERTEX
  5
194304
  8
0
 62
7
 10
135.59087695294079
 20
119.85397028949809
 70
0
  0
VERTEX
  5
194305
  8
0
 62
7
 10
135.12544424584021
 20
119.8121123517389
 70
0
  0
VERTEX
  5
194306
  8
0
 62
7
 10
134.6600115387395
 20
119.7270184371172
 70
0
  0
SEQEND
  5
194307
  8
0
  0
POLYLINE
  5
14E7F1
  8
0
 62
7
 66
1
 70
0
 10
0
 20
0
 30
0
  0
VERTEX
  5
194308
  8
0
 62
7
 10
138.1309475298859
 20
119.5998943298484
 70
0
  0
VERTEX
  5
194309
  8
0
 62
7
 10
137.835013632477
 20
119.7270184371172
 70
0
  0
VERTEX
  5
19430A
  8
0
 62
7
 10
137.45398582044649
 20
119.85397028949809
 70
0
  0
VERTEX
  5
19430B
  8
0
 62
7
 10
137.03023879621719
 20
119.9390642041198
 70
0
  0
VERTEX
  5
19430C
  8
0
 62
7
 10
136.56480608911659
 20
119.980922141879
 70
0
  0
VERTEX
  5
19430D
  8
0
 62
7
 10
136.056998679593
 20
120.0234690991898
 70
0
  0
VERTEX
  5
19430E
  8
0
 62
7
 10
135.54884676029371
 20
120.0234690991898
 70
0
  0
VERTEX
  5
19430F
  8
0
 62
7
 10
135.0827250336414
 20
119.980922141879
 70
0
  0
VERTEX
  5
194310
  8
0
 62
7
 10
134.61729232654079
 20
119.9390642041198
 70
0
  0
SEQEND
  5
194311
  8
0
  0
POLYLINE
  5
14E7FC
  8
0
 62
7
 66
1
 70
0
 10
0
 20
0
 30
0
  0
VERTEX
  5
194312
  8
0
 62
7
 10
139.2740309659776
 20
118.9231048752968
 70
0
  0
VERTEX
  5
194313
  8
0
 62
7
 10
138.1309475298859
 20
119.5998943298484
 70
0
  0
SEQEND
  5
194314
  8
0
  0
POLYLINE
  5
14E800
  8
0
 62
7
 66
1
 70
0
 10
0
 20
0
 30
0
  0
VERTEX
  5
194315
  8
0
 62
7
 10
154.72598342998739
 20
109.5250504464653
 70
0
  0
VERTEX
  5
194316
  8
0
 62
7
 10
154.68326421778869
 20
109.4825034891544
 70
0
  0
SEQEND
  5
194317
  8
0
  0
POLYLINE
  5
14E804
  8
0
 62
7
 66
1
 70
0
 10
0
 20
0
 30
0
  0
VERTEX
  5
194318
  8
0
 62
7
 10
134.6600115387395
 20
119.7270184371172
 70
0
  0
VERTEX
  5
194319
  8
0
 62
7
 10
134.278983726709
 20
119.6424412871593
 70
0
  0
VERTEX
  5
19431A
  8
0
 62
7
 10
133.98236080974851
 20
119.55803639208921
 70
0
  0
VERTEX
  5
19431B
  8
0
 62
7
 10
133.72845710498669
 20
119.3885375823975
 70
0
  0
VERTEX
  5
19431C
  8
0
 62
7
 10
133.51692810264791
 20
119.2188665178179
 70
0
  0
VERTEX
  5
19431D
  8
0
 62
7
 10
133.47455340022481
 20
119.091914665437
 70
0
  0
VERTEX
  5
19431E
  8
0
 62
7
 10
133.47455340022481
 20
118.9231048752968
 70
0
  0
VERTEX
  5
19431F
  8
0
 62
7
 10
133.60133299771789
 20
118.7534338107173
 70
0
  0
SEQEND
  5
194320
  8
0
  0
POLYLINE
  5
14E80E
  8
0
 62
7
 66
1
 70
0
 10
0
 20
0
 30
0
  0
VERTEX
  5
194321
  8
0
 62
7
 10
134.61729232654079
 20
119.9390642041198
 70
0
  0
VERTEX
  5
194322
  8
0
 62
7
 10
134.19388981208729
 20
119.8121123517389
 70
0
  0
VERTEX
  5
194323
  8
0
 62
7
 10
133.85523670247969
 20
119.68498824447011
 70
0
  0
VERTEX
  5
194324
  8
0
 62
7
 10
133.60133299771789
 20
119.55803639208921
 70
0
  0
VERTEX
  5
194325
  8
0
 62
7
 10
133.389803995379
 20
119.3885375823975
 70
0
  0
VERTEX
  5
194326
  8
0
 62
7
 10
133.34742929295609
 20
119.2188665178179
 70
0
  0
VERTEX
  5
194327
  8
0
 62
7
 10
133.34742929295609
 20
119.13446162274781
 70
0
  0
SEQEND
  5
194328
  8
0
  0
POLYLINE
  5
14E817
  8
0
 62
7
 66
1
 70
0
 10
0
 20
0
 30
0
  0
VERTEX
  5
194329
  8
0
 62
7
 10
154.7680136226345
 20
109.5669083842245
 70
0
  0
VERTEX
  5
19432A
  8
0
 62
7
 10
154.72598342998739
 20
109.5250504464653
 70
0
  0
SEQEND
  5
19432B
  8
0
  0
POLYLINE
  5
14E81B
  8
0
 62
7
 66
1
 70
0
 10
0
 20
0
 30
0
  0
VERTEX
  5
19432C
  8
0
 62
7
 10
154.7680136226345
 20
109.6094553415353
 70
0
  0
VERTEX
  5
19432D
  8
0
 62
7
 10
154.9375124323262
 20
115.28198105490721
 70
0
  0
SEQEND
  5
19432E
  8
0
  0
POLYLINE
  5
14E81F
  8
0
 62
7
 66
1
 70
0
 10
0
 20
0
 30
0
  0
VERTEX
  5
19432F
  8
0
 62
7
 10
154.7680136226345
 20
109.6094553415353
 70
0
  0
VERTEX
  5
194330
  8
0
 62
7
 10
154.7680136226345
 20
109.5669083842245
 70
0
  0
SEQEND
  5
194331
  8
0
  0
POLYLINE
  5
14E823
  8
0
 62
7
 66
1
 70
0
 10
0
 20
0
 30
0
  0
VERTEX
  5
194332
  8
0
 62
7
 10
135.29494305553189
 20
125.441918852912
 70
0
  0
VERTEX
  5
194333
  8
0
 62
7
 10
135.336973248179
 20
125.4844658102228
 70
0
  0
VERTEX
  5
194334
  8
0
 62
7
 10
135.463752845672
 20
125.52701276753361
 70
0
  0
VERTEX
  5
194335
  8
0
 62
7
 10
135.76037576263249
 20
125.52701276753361
 70
0
  0
VERTEX
  5
194336
  8
0
 62
7
 10
135.88749986990121
 20
125.5688707052928
 70
0
  0
SEQEND
  5
194337
  8
0
  0
POLYLINE
  5
14E82A
  8
0
 62
7
 66
1
 70
0
 10
0
 20
0
 30
0
  0
VERTEX
  5
194338
  8
0
 62
7
 10
125.0499113429054
 20
103.6830259234017
 70
0
  0
VERTEX
  5
194339
  8
0
 62
7
 10
124.9655064478353
 20
104.6989852522246
 70
0
  0
VERTEX
  5
19433A
  8
0
 62
7
 10
125.0499113429054
 20
105.6723976237367
 70
0
  0
VERTEX
  5
19433B
  8
0
 62
7
 10
125.21941015259711
 20
106.6459822501367
 70
0
  0
SEQEND
  5
19433C
  8
0
  0
POLYLINE
  5
14E830
  8
0
 62
7
 66
1
 70
0
 10
0
 20
0
 30
0
  0
VERTEX
  5
19433D
  8
0
 62
7
 10
135.59087695294079
 20
126.1621165392138
 70
0
  0
VERTEX
  5
19433E
  8
0
 62
7
 10
135.63325165536369
 20
126.2039744769731
 70
0
  0
VERTEX
  5
19433F
  8
0
 62
7
 10
135.6759708675624
 20
126.2039744769731
 70
0
  0
VERTEX
  5
194340
  8
0
 62
7
 10
135.76037576263249
 20
126.24652143428391
 70
0
  0
VERTEX
  5
194341
  8
0
 62
7
 10
136.056998679593
 20
126.24652143428391
 70
0
  0
VERTEX
  5
194342
  8
0
 62
7
 10
136.0990288722401
 20
126.2039744769731
 70
0
  0
VERTEX
  5
194343
  8
0
 62
7
 10
136.183778277086
 20
126.2039744769731
 70
0
  0
SEQEND
  5
194344
  8
0
  0
POLYLINE
  5
14E839
  8
0
 62
7
 66
1
 70
0
 10
0
 20
0
 30
0
  0
VERTEX
  5
194345
  8
0
 62
7
 10
135.12544424584021
 20
125.69599481256159
 70
0
  0
VERTEX
  5
194346
  8
0
 62
7
 10
135.167818948263
 20
125.7810887271833
 70
0
  0
VERTEX
  5
194347
  8
0
 62
7
 10
135.25222384333321
 20
125.7810887271833
 70
0
  0
VERTEX
  5
194348
  8
0
 62
7
 10
135.336973248179
 20
125.82294666494251
 70
0
  0
VERTEX
  5
194349
  8
0
 62
7
 10
135.42206716280069
 20
125.8654936222534
 70
0
  0
VERTEX
  5
19434A
  8
0
 62
7
 10
135.54884676029371
 20
125.9080405795642
 70
0
  0
VERTEX
  5
19434B
  8
0
 62
7
 10
136.183778277086
 20
125.9080405795642
 70
0
  0
VERTEX
  5
19434C
  8
0
 62
7
 10
136.31090238435479
 20
125.8654936222534
 70
0
  0
VERTEX
  5
19434D
  8
0
 62
7
 10
136.43802649162359
 20
125.82294666494251
 70
0
  0
VERTEX
  5
19434E
  8
0
 62
7
 10
136.5224313866936
 20
125.82294666494251
 70
0
  0
VERTEX
  5
19434F
  8
0
 62
7
 10
136.60683628176369
 20
125.7810887271833
 70
0
  0
SEQEND
  5
194350
  8
0
  0
POLYLINE
  5
14E846
  8
0
 62
7
 66
1
 70
0
 10
0
 20
0
 30
0
  0
VERTEX
  5
194351
  8
0
 62
7
 10
134.99832013857139
 20
124.55291137646989
 70
0
  0
VERTEX
  5
194352
  8
0
 62
7
 10
135.12544424584021
 20
124.6380052910916
 70
0
  0
VERTEX
  5
194353
  8
0
 62
7
 10
135.29494305553189
 20
124.6380052910916
 70
0
  0
SEQEND
  5
194354
  8
0
  0
POLYLINE
  5
14E84B
  8
0
 62
7
 66
1
 70
0
 10
0
 20
0
 30
0
  0
VERTEX
  5
194355
  8
0
 62
7
 10
128.81781476078811
 20
98.306434107438875
 70
0
  0
VERTEX
  5
194356
  8
0
 62
7
 10
128.0133844343041
 20
98.771866814539436
 70
0
  0
VERTEX
  5
194357
  8
0
 62
7
 10
127.2940480224416
 20
99.3649403935726
 70
0
  0
VERTEX
  5
194358
  8
0
 62
7
 10
126.6163972934506
 20
100.041902103012
 70
0
  0
SEQEND
  5
194359
  8
0
  0
POLYLINE
  5
14E851
  8
0
 62
7
 66
1
 70
0
 10
0
 20
0
 30
0
  0
VERTEX
  5
19435A
  8
0
 62
7
 10
129.28324746788871
 20
98.136935297747129
 70
0
  0
VERTEX
  5
19435B
  8
0
 62
7
 10
129.24087276546581
 20
98.136935297747129
 70
0
  0
VERTEX
  5
19435C
  8
0
 62
7
 10
129.24087276546581
 20
98.179482255057934
 70
0
  0
VERTEX
  5
19435D
  8
0
 62
7
 10
129.19884257281871
 20
98.2220292123688
 70
0
  0
SEQEND
  5
19435E
  8
0
  0
POLYLINE
  5
14E857
  8
0
 62
7
 66
1
 70
0
 10
0
 20
0
 30
0
  0
VERTEX
  5
19435F
  8
0
 62
7
 10
126.7008021885206
 20
101.0160034940757
 70
0
  0
VERTEX
  5
194360
  8
0
 62
7
 10
127.2513288102429
 20
100.2959780626617
 70
0
  0
VERTEX
  5
194361
  8
0
 62
7
 10
127.928979539234
 20
99.703421248292372
 70
0
  0
VERTEX
  5
194362
  8
0
 62
7
 10
128.64831595109641
 20
99.237988541191683
 70
0
  0
SEQEND
  5
194363
  8
0
  0
POLYLINE
  5
14E85D
  8
0
 62
7
 66
1
 70
0
 10
0
 20
0
 30
0
  0
VERTEX
  5
194364
  8
0
 62
7
 10
126.78589610314231
 20
101.0160034940757
 70
0
  0
VERTEX
  5
194365
  8
0
 62
7
 10
127.2513288102429
 20
100.4229299150426
 70
0
  0
VERTEX
  5
194366
  8
0
 62
7
 10
127.80185543196519
 20
99.914950250631165
 70
0
  0
VERTEX
  5
194367
  8
0
 62
7
 10
128.39441224633461
 20
99.492064500841352
 70
0
  0
VERTEX
  5
194368
  8
0
 62
7
 10
129.029343763127
 20
99.111036688810813
 70
0
  0
SEQEND
  5
194369
  8
0
  0
POLYLINE
  5
14E864
  8
0
 62
7
 66
1
 70
0
 10
0
 20
0
 30
0
  0
VERTEX
  5
19436A
  8
0
 62
7
 10
126.78589610314231
 20
101.0578614318348
 70
0
  0
VERTEX
  5
19436B
  8
0
 62
7
 10
127.2513288102429
 20
100.46547687235341
 70
0
  0
VERTEX
  5
19436C
  8
0
 62
7
 10
127.80185543196519
 20
99.957497207942012
 70
0
  0
VERTEX
  5
19436D
  8
0
 62
7
 10
128.39441224633461
 20
99.5339224386006
 70
0
  0
VERTEX
  5
19436E
  8
0
 62
7
 10
129.029343763127
 20
99.195441583880864
 70
0
  0
VERTEX
  5
19436F
  8
0
 62
7
 10
129.66427527991931
 20
98.941537879119124
 70
0
  0
VERTEX
  5
194370
  8
0
 62
7
 10
130.38395620155751
 20
98.814413771850283
 70
0
  0
VERTEX
  5
194371
  8
0
 62
7
 10
131.06126242077281
 20
98.771866814539436
 70
0
  0
VERTEX
  5
194372
  8
0
 62
7
 10
131.73891314976379
 20
98.856960729161131
 70
0
  0
SEQEND
  5
194373
  8
0
  0
POLYLINE
  5
14E86F
  8
0
 62
7
 66
1
 70
0
 10
0
 20
0
 30
0
  0
VERTEX
  5
194374
  8
0
 62
7
 10
126.6163972934506
 20
100.041902103012
 70
0
  0
VERTEX
  5
194375
  8
0
 62
7
 10
126.6163972934506
 20
100.0844490603228
 70
0
  0
SEQEND
  5
194376
  8
0
  0
POLYLINE
  5
14E873
  8
0
 62
7
 66
1
 70
0
 10
0
 20
0
 30
0
  0
VERTEX
  5
194377
  8
0
 62
7
 10
126.3197743764901
 20
100.4229299150426
 70
0
  0
VERTEX
  5
194378
  8
0
 62
7
 10
125.81196696696649
 20
101.2700794537254
 70
0
  0
VERTEX
  5
194379
  8
0
 62
7
 10
125.430939154936
 20
102.20094486792659
 70
0
  0
VERTEX
  5
19437A
  8
0
 62
7
 10
125.1766909403984
 20
103.17504625899031
 70
0
  0
SEQEND
  5
19437B
  8
0
  0
POLYLINE
  5
14E879
  8
0
 62
7
 66
1
 70
0
 10
0
 20
0
 30
0
  0
VERTEX
  5
19437C
  8
0
 62
7
 10
125.6848428596977
 20
103.5560740710208
 70
0
  0
VERTEX
  5
19437D
  8
0
 62
7
 10
125.93874656445951
 20
102.6670665945788
 70
0
  0
VERTEX
  5
19437E
  8
0
 62
7
 10
126.23536948142
 20
101.7780591181367
 70
0
  0
VERTEX
  5
19437F
  8
0
 62
7
 10
126.7008021885206
 20
101.0160034940757
 70
0
  0
SEQEND
  5
194380
  8
0
  0
POLYLINE
  5
14E87F
  8
0
 62
7
 66
1
 70
0
 10
0
 20
0
 30
0
  0
VERTEX
  5
194381
  8
0
 62
7
 10
124.8383823405666
 20
103.3438560491304
 70
0
  0
VERTEX
  5
194382
  8
0
 62
7
 10
125.09228604532819
 20
102.4129906349291
 70
0
  0
VERTEX
  5
194383
  8
0
 62
7
 10
125.4733138573589
 20
101.4388892438655
 70
0
  0
VERTEX
  5
194384
  8
0
 62
7
 10
125.93874656445951
 20
100.59242872473431
 70
0
  0
VERTEX
  5
194385
  8
0
 62
7
 10
126.48927318618181
 20
99.7879983982503
 70
0
  0
VERTEX
  5
194386
  8
0
 62
7
 10
127.12454921275
 20
99.111036688810813
 70
0
  0
VERTEX
  5
194387
  8
0
 62
7
 10
127.8862603270353
 20
98.517963109777682
 70
0
  0
VERTEX
  5
194388
  8
0
 62
7
 10
128.69103516329511
 20
98.095077359987869
 70
0
  0
VERTEX
  5
194389
  8
0
 62
7
 10
129.53749568242631
 20
97.755907485716591
 70
0
  0
VERTEX
  5
19438A
  8
0
 62
7
 10
130.42633090398041
 20
97.587097695576475
 70
0
  0
VERTEX
  5
19438B
  8
0
 62
7
 10
131.31551063531029
 20
97.5020037809548
 70
0
  0
VERTEX
  5
19438C
  8
0
 62
7
 10
131.99281685452561
 20
97.587097695576475
 70
0
  0
SEQEND
  5
19438D
  8
0
  0
POLYLINE
  5
14E88D
  8
0
 62
7
 66
1
 70
0
 10
0
 20
0
 30
0
  0
VERTEX
  5
19438E
  8
0
 62
7
 10
125.1766909403984
 20
103.17504625899031
 70
0
  0
VERTEX
  5
19438F
  8
0
 62
7
 10
125.1766909403984
 20
103.17504625899031
 70
0
  0
SEQEND
  5
194390
  8
0
  0
POLYLINE
  5
14E891
  8
0
 62
7
 66
1
 70
0
 10
0
 20
0
 30
0
  0
VERTEX
  5
194391
  8
0
 62
7
 10
125.0499113429054
 20
103.6830259234017
 70
0
  0
VERTEX
  5
194392
  8
0
 62
7
 10
125.0499113429054
 20
103.6830259234017
 70
0
  0
SEQEND
  5
194393
  8
0
  0
POLYLINE
  5
14E895
  8
0
 62
7
 66
1
 70
0
 10
0
 20
0
 30
0
  0
VERTEX
  5
194394
  8
0
 62
7
 10
125.3889089622888
 20
107.1121039767889
 70
0
  0
VERTEX
  5
194395
  8
0
 62
7
 10
125.3889089622888
 20
107.15396191454821
 70
0
  0
SEQEND
  5
194396
  8
0
  0
POLYLINE
  5
14E899
  8
0
 62
7
 66
1
 70
0
 10
0
 20
0
 30
0
  0
VERTEX
  5
194397
  8
0
 62
7
 10
126.6163972934506
 20
100.0844490603228
 70
0
  0
VERTEX
  5
194398
  8
0
 62
7
 10
126.6163972934506
 20
100.2114009127037
 70
0
  0
SEQEND
  5
194399
  8
0
  0
POLYLINE
  5
14E89D
  8
0
 62
7
 66
1
 70
0
 10
0
 20
0
 30
0
  0
VERTEX
  5
19439A
  8
0
 62
7
 10
125.1766909403984
 20
103.17504625899031
 70
0
  0
VERTEX
  5
19439B
  8
0
 62
7
 10
125.1766909403984
 20
103.2594511540602
 70
0
  0
VERTEX
  5
19439C
  8
0
 62
7
 10
125.21941015259711
 20
103.30199811137121
 70
0
  0
SEQEND
  5
19439D
  8
0
  0
POLYLINE
  5
14E8A2
  8
0
 62
7
 66
1
 70
0
 10
0
 20
0
 30
0
  0
VERTEX
  5
19439E
  8
0
 62
7
 10
135.04103935077
 20
125.441918852912
 70
0
  0
VERTEX
  5
19439F
  8
0
 62
7
 10
135.0827250336414
 20
125.4844658102228
 70
0
  0
VERTEX
  5
1943A0
  8
0
 62
7
 10
135.167818948263
 20
125.52701276753361
 70
0
  0
SEQEND
  5
1943A1
  8
0
  0
POLYLINE
  5
14E8A7
  8
0
 62
7
 66
1
 70
0
 10
0
 20
0
 30
0
  0
VERTEX
  5
1943A2
  8
0
 62
7
 10
135.59087695294079
 20
126.1621165392138
 70
0
  0
VERTEX
  5
1943A3
  8
0
 62
7
 10
135.12544424584021
 20
125.69599481256159
 70
0
  0
SEQEND
  5
1943A4
  8
0
  0
POLYLINE
  5
14E8AB
  8
0
 62
7
 66
1
 70
0
 10
0
 20
0
 30
0
  0
VERTEX
  5
1943A5
  8
0
 62
7
 10
135.04103935077
 20
123.11406629785731
 70
0
  0
VERTEX
  5
1943A6
  8
0
 62
7
 10
135.12544424584021
 20
123.11406629785731
 70
0
  0
VERTEX
  5
1943A7
  8
0
 62
7
 10
135.167818948263
 20
123.1559242356165
 70
0
  0
VERTEX
  5
1943A8
  8
0
 62
7
 10
135.167818948263
 20
123.2410181502382
 70
0
  0
SEQEND
  5
1943A9
  8
0
  0
POLYLINE
  5
14E8B1
  8
0
 62
7
 66
1
 70
0
 10
0
 20
0
 30
0
  0
VERTEX
  5
1943AA
  8
0
 62
7
 10
129.029343763127
 20
99.111036688810813
 70
0
  0
VERTEX
  5
1943AB
  8
0
 62
7
 10
129.7069944921179
 20
98.898990921808263
 70
0
  0
VERTEX
  5
1943AC
  8
0
 62
7
 10
130.42633090398041
 20
98.771866814539436
 70
0
  0
VERTEX
  5
1943AD
  8
0
 62
7
 10
131.10398163297151
 20
98.730008876780246
 70
0
  0
VERTEX
  5
1943AE
  8
0
 62
7
 10
131.31551063531029
 20
98.730008876780246
 70
0
  0
SEQEND
  5
1943AF
  8
0
  0
POLYLINE
  5
14E8B8
  8
0
 62
7
 66
1
 70
0
 10
0
 20
0
 30
0
  0
VERTEX
  5
1943B0
  8
0
 62
7
 10
128.64831595109641
 20
99.237988541191683
 70
0
  0
VERTEX
  5
1943B1
  8
0
 62
7
 10
129.41037157515751
 20
98.856960729161131
 70
0
  0
SEQEND
  5
1943B2
  8
0
  0
POLYLINE
  5
14E8BC
  8
0
 62
7
 66
1
 70
0
 10
0
 20
0
 30
0
  0
VERTEX
  5
1943B3
  8
0
 62
7
 10
131.82331804483391
 20
98.64491496215858
 70
0
  0
VERTEX
  5
1943B4
  8
0
 62
7
 10
131.82331804483391
 20
98.64491496215858
 70
0
  0
VERTEX
  5
1943B5
  8
0
 62
7
 10
131.86603725703259
 20
98.603057024399376
 70
0
  0
VERTEX
  5
1943B6
  8
0
 62
7
 10
131.86603725703259
 20
98.560510067088515
 70
0
  0
SEQEND
  5
1943B7
  8
0
  0
POLYLINE
  5
14E8C2
  8
0
 62
7
 66
1
 70
0
 10
0
 20
0
 30
0
  0
VERTEX
  5
1943B8
  8
0
 62
7
 10
129.79139938718811
 20
99.619016353222264
 70
0
  0
VERTEX
  5
1943B9
  8
0
 62
7
 10
129.1564678703958
 20
99.914950250631165
 70
0
  0
SEQEND
  5
1943BA
  8
0
  0
POLYLINE
  5
14E8C6
  8
0
 62
7
 66
1
 70
0
 10
0
 20
0
 30
0
  0
VERTEX
  5
1943BB
  8
0
 62
7
 10
129.1564678703958
 20
99.914950250631165
 70
0
  0
VERTEX
  5
1943BC
  8
0
 62
7
 10
128.6059412486735
 20
100.3810719772833
 70
0
  0
VERTEX
  5
1943BD
  8
0
 62
7
 10
128.1405085415729
 20
100.88905164169481
 70
0
  0
VERTEX
  5
1943BE
  8
0
 62
7
 10
127.6750758344722
 20
101.4388892438655
 70
0
  0
VERTEX
  5
1943BF
  8
0
 62
7
 10
127.335733705313
 20
102.0739930155457
 70
0
  0
VERTEX
  5
1943C0
  8
0
 62
7
 10
127.0397998079041
 20
102.75147148964891
 70
0
  0
VERTEX
  5
1943C1
  8
0
 62
7
 10
126.8279262957894
 20
103.47098015639919
 70
0
  0
VERTEX
  5
1943C2
  8
0
 62
7
 10
126.7435214007194
 20
104.2328635255724
 70
0
  0
VERTEX
  5
1943C3
  8
0
 62
7
 10
126.7008021885206
 20
104.9530612118743
 70
0
  0
VERTEX
  5
1943C4
  8
0
 62
7
 10
126.78589610314231
 20
105.7149445810475
 70
0
  0
VERTEX
  5
1943C5
  8
0
 62
7
 10
126.95470589328239
 20
106.43445324779781
 70
0
  0
SEQEND
  5
1943C6
  8
0
  0
POLYLINE
  5
14E92B
  8
0
 62
7
 66
1
 70
0
 10
0
 20
0
 30
0
  0
VERTEX
  5
1943C7
  8
0
 62
7
 10
127.335733705313
 20
103.6404789660909
 70
0
  0
VERTEX
  5
1943C8
  8
0
 62
7
 10
127.2940480224416
 20
103.6830259234017
 70
0
  0
VERTEX
  5
1943C9
  8
0
 62
7
 10
127.2513288102429
 20
103.724883861161
 70
0
  0
VERTEX
  5
1943CA
  8
0
 62
7
 10
127.2513288102429
 20
103.8520079684297
 70
0
  0
VERTEX
  5
1943CB
  8
0
 62
7
 10
127.2940480224416
 20
103.9371018830514
 70
0
  0
SEQEND
  5
1943CC
  8
0
  0
POLYLINE
  5
14E9D2
  8
0
 62
7
 66
1
 70
0
 10
0
 20
0
 30
0
  0
VERTEX
  5
1943CD
  8
0
 62
7
 10
129.113748658197
 20
99.025942774189147
 70
0
  0
VERTEX
  5
1943CE
  8
0
 62
7
 10
129.113748658197
 20
98.984084836429943
 70
0
  0
SEQEND
  5
1943CF
  8
0
  0
POLYLINE
  5
14EA36
  8
0
 62
7
 66
1
 70
0
 10
0
 20
0
 30
0
  0
VERTEX
  5
1943D0
  8
0
 62
7
 10
127.37845291751169
 20
106.60395205748959
 70
0
  0
VERTEX
  5
1943D1
  8
0
 62
7
 10
127.37845291751169
 20
106.4770002051087
 70
0
  0
VERTEX
  5
1943D2
  8
0
 62
7
 10
127.4208276199346
 20
106.4770002051087
 70
0
  0
VERTEX
  5
1943D3
  8
0
 62
7
 10
127.4208276199346
 20
106.43445324779781
 70
0
  0
SEQEND
  5
1943D4
  8
0
  0
POLYLINE
  5
14EA3C
  8
0
 62
7
 66
1
 70
0
 10
0
 20
0
 30
0
  0
VERTEX
  5
1943D5
  8
0
 62
7
 10
127.50523251500471
 20
106.60395205748959
 70
0
  0
VERTEX
  5
1943D6
  8
0
 62
7
 10
127.50523251500471
 20
106.4770002051087
 70
0
  0
SEQEND
  5
1943D7
  8
0
  0
POLYLINE
  5
14EA48
  8
0
 62
7
 66
1
 70
0
 10
0
 20
0
 30
0
  0
VERTEX
  5
1943D8
  8
0
 62
7
 10
127.20895410782
 20
109.8209843438742
 70
0
  0
VERTEX
  5
1943D9
  8
0
 62
7
 10
127.20895410782
 20
109.9479361962551
 70
0
  0
SEQEND
  5
1943DA
  8
0
  0
POLYLINE
  5
14EA5C
  8
0
 62
7
 66
1
 70
0
 10
0
 20
0
 30
0
  0
VERTEX
  5
1943DB
  8
0
 62
7
 10
127.63235662227351
 20
106.4770002051087
 70
0
  0
VERTEX
  5
1943DC
  8
0
 62
7
 10
127.63235662227351
 20
106.4770002051087
 70
0
  0
SEQEND
  5
1943DD
  8
0
  0
POLYLINE
  5
14EA88
  8
0
 62
7
 66
1
 70
0
 10
0
 20
0
 30
0
  0
VERTEX
  5
1943DE
  8
0
 62
7
 10
126.95470589328239
 20
106.43445324779781
 70
0
  0
VERTEX
  5
1943DF
  8
0
 62
7
 10
126.95470589328239
 20
106.5188581428679
 70
0
  0
SEQEND
  5
1943E0
  8
0
  0
POLYLINE
  5
14EA8C
  8
0
 62
7
 66
1
 70
0
 10
0
 20
0
 30
0
  0
VERTEX
  5
1943E1
  8
0
 62
7
 10
126.06587067172831
 20
107.196508871859
 70
0
  0
VERTEX
  5
1943E2
  8
0
 62
7
 10
125.81196696696649
 20
106.3500483527278
 70
0
  0
VERTEX
  5
1943E3
  8
0
 62
7
 10
125.64281266705061
 20
105.4184939189749
 70
0
  0
VERTEX
  5
1943E4
  8
0
 62
7
 10
125.6004379646277
 20
104.486939485222
 70
0
  0
VERTEX
  5
1943E5
  8
0
 62
7
 10
125.6848428596977
 20
103.5560740710208
 70
0
  0
SEQEND
  5
1943E6
  8
0
  0
POLYLINE
  5
14EA93
  8
0
 62
7
 66
1
 70
0
 10
0
 20
0
 30
0
  0
VERTEX
  5
1943E7
  8
0
 62
7
 10
125.3889089622888
 20
107.15396191454821
 70
0
  0
VERTEX
  5
1943E8
  8
0
 62
7
 10
125.76993677431941
 20
108.04296939099
 70
0
  0
VERTEX
  5
1943E9
  8
0
 62
7
 10
126.23536948142
 20
108.889946674785
 70
0
  0
VERTEX
  5
1943EA
  8
0
 62
7
 10
126.8703009982124
 20
109.6094553415353
 70
0
  0
SEQEND
  5
1943EB
  8
0
  0
POLYLINE
  5
14EA99
  8
0
 62
7
 66
1
 70
0
 10
0
 20
0
 30
0
  0
VERTEX
  5
1943EC
  8
0
 62
7
 10
134.6600115387395
 20
124.341554629019
 70
0
  0
VERTEX
  5
1943ED
  8
0
 62
7
 10
134.6600115387395
 20
124.38410158632981
 70
0
  0
VERTEX
  5
1943EE
  8
0
 62
7
 10
134.74441643380959
 20
124.4685064813999
 70
0
  0
VERTEX
  5
1943EF
  8
0
 62
7
 10
134.87154054107839
 20
124.5110534387107
 70
0
  0
VERTEX
  5
1943F0
  8
0
 62
7
 10
134.99832013857139
 20
124.55291137646989
 70
0
  0
SEQEND
  5
1943F1
  8
0
  0
POLYLINE
  5
14EAA0
  8
0
 62
7
 66
1
 70
0
 10
0
 20
0
 30
0
  0
VERTEX
  5
1943F2
  8
0
 62
7
 10
133.85523670247969
 20
124.0030737742993
 70
0
  0
VERTEX
  5
1943F3
  8
0
 62
7
 10
133.89795591467839
 20
124.0030737742993
 70
0
  0
VERTEX
  5
1943F4
  8
0
 62
7
 10
133.98236080974851
 20
124.0874786693693
 70
0
  0
VERTEX
  5
1943F5
  8
0
 62
7
 10
134.15185961944019
 20
124.1718835644394
 70
0
  0
VERTEX
  5
1943F6
  8
0
 62
7
 10
134.363388621779
 20
124.256977479061
 70
0
  0
VERTEX
  5
1943F7
  8
0
 62
7
 10
134.5749176241178
 20
124.341554629019
 70
0
  0
VERTEX
  5
1943F8
  8
0
 62
7
 10
134.87154054107839
 20
124.38410158632981
 70
0
  0
SEQEND
  5
1943F9
  8
0
  0
POLYLINE
  5
14EAA9
  8
0
 62
7
 66
1
 70
0
 10
0
 20
0
 30
0
  0
VERTEX
  5
1943FA
  8
0
 62
7
 10
132.3738446665561
 20
97.967953252719113
 70
0
  0
VERTEX
  5
1943FB
  8
0
 62
7
 10
132.28875075193449
 20
97.967953252719113
 70
0
  0
VERTEX
  5
1943FC
  8
0
 62
7
 10
132.24706506906321
 20
98.0099834453663
 70
0
  0
VERTEX
  5
1943FD
  8
0
 62
7
 10
132.24706506906321
 20
98.052530402677064
 70
0
  0
SEQEND
  5
1943FE
  8
0
  0
POLYLINE
  5
14EAAF
  8
0
 62
7
 66
1
 70
0
 10
0
 20
0
 30
0
  0
VERTEX
  5
1943FF
  8
0
 62
7
 10
131.78094334241061
 20
98.64491496215858
 70
0
  0
VERTEX
  5
194400
  8
0
 62
7
 10
131.82331804483391
 20
98.64491496215858
 70
0
  0
SEQEND
  5
194401
  8
0
  0
POLYLINE
  5
14EAB3
  8
0
 62
7
 66
1
 70
0
 10
0
 20
0
 30
0
  0
VERTEX
  5
194402
  8
0
 62
7
 10
131.06126242077281
 20
99.237988541191683
 70
0
  0
VERTEX
  5
194403
  8
0
 62
7
 10
130.42633090398041
 20
99.3649403935726
 70
0
  0
SEQEND
  5
194404
  8
0
  0
POLYLINE
  5
14EAB7
  8
0
 62
7
 66
1
 70
0
 10
0
 20
0
 30
0
  0
VERTEX
  5
194405
  8
0
 62
7
 10
129.41037157515751
 20
98.856960729161131
 70
0
  0
VERTEX
  5
194406
  8
0
 62
7
 10
130.25683209428871
 20
98.64491496215858
 70
0
  0
VERTEX
  5
194407
  8
0
 62
7
 10
131.06126242077281
 20
98.603057024399376
 70
0
  0
SEQEND
  5
194408
  8
0
  0
POLYLINE
  5
14EABC
  8
0
 62
7
 66
1
 70
0
 10
0
 20
0
 30
0
  0
VERTEX
  5
194409
  8
0
 62
7
 10
130.93448282327981
 20
98.390839002508926
 70
0
  0
VERTEX
  5
19440A
  8
0
 62
7
 10
131.78094334241061
 20
98.136935297747129
 70
0
  0
VERTEX
  5
19440B
  8
0
 62
7
 10
131.95044215210271
 20
98.136935297747129
 70
0
  0
SEQEND
  5
19440C
  8
0
  0
POLYLINE
  5
14EAC1
  8
0
 62
7
 66
1
 70
0
 10
0
 20
0
 30
0
  0
VERTEX
  5
19440D
  8
0
 62
7
 10
130.42633090398041
 20
99.3649403935726
 70
0
  0
VERTEX
  5
19440E
  8
0
 62
7
 10
129.79139938718811
 20
99.619016353222264
 70
0
  0
SEQEND
  5
19440F
  8
0
  0
POLYLINE
  5
14EADD
  8
0
 62
7
 66
1
 70
0
 10
0
 20
0
 30
0
  0
VERTEX
  5
194410
  8
0
 62
7
 10
132.62809288109369
 20
99.703421248292372
 70
0
  0
VERTEX
  5
194411
  8
0
 62
7
 10
132.62809288109369
 20
99.703421248292372
 70
0
  0
SEQEND
  5
194412
  8
0
  0
POLYLINE
  5
14EAE9
  8
0
 62
7
 66
1
 70
0
 10
0
 20
0
 30
0
  0
VERTEX
  5
194413
  8
0
 62
7
 10
132.62809288109369
 20
99.703421248292372
 70
0
  0
VERTEX
  5
194414
  8
0
 62
7
 10
132.62809288109369
 20
99.703421248292372
 70
0
  0
VERTEX
  5
194415
  8
0
 62
7
 10
132.66977856396511
 20
99.660874290981482
 70
0
  0
VERTEX
  5
194416
  8
0
 62
7
 10
132.71249777616379
 20
99.660874290981482
 70
0
  0
SEQEND
  5
194417
  8
0
  0
POLYLINE
  5
14EAF7
  8
0
 62
7
 66
1
 70
0
 10
0
 20
0
 30
0
  0
VERTEX
  5
194418
  8
0
 62
7
 10
132.24706506906321
 20
99.280018733838844
 70
0
  0
VERTEX
  5
194419
  8
0
 62
7
 10
132.20434585686451
 20
99.280018733838844
 70
0
  0
VERTEX
  5
19441A
  8
0
 62
7
 10
132.16197115444149
 20
99.3649403935726
 70
0
  0
VERTEX
  5
19441B
  8
0
 62
7
 10
132.11994096179441
 20
99.406970586219714
 70
0
  0
VERTEX
  5
19441C
  8
0
 62
7
 10
132.07722174959571
 20
99.5339224386006
 70
0
  0
VERTEX
  5
19441D
  8
0
 62
7
 10
132.07722174959571
 20
99.7879983982503
 70
0
  0
VERTEX
  5
19441E
  8
0
 62
7
 10
132.11994096179441
 20
99.872920057984047
 70
0
  0
VERTEX
  5
19441F
  8
0
 62
7
 10
132.20434585686451
 20
99.914950250631165
 70
0
  0
VERTEX
  5
194420
  8
0
 62
7
 10
132.24706506906321
 20
100.0000441652528
 70
0
  0
VERTEX
  5
194421
  8
0
 62
7
 10
132.33146996413319
 20
100.0000441652528
 70
0
  0
SEQEND
  5
194422
  8
0
  0
POLYLINE
  5
14EB53
  8
0
 62
7
 66
1
 70
0
 10
0
 20
0
 30
0
  0
VERTEX
  5
194423
  8
0
 62
7
 10
132.41587485920331
 20
99.406970586219714
 70
0
  0
VERTEX
  5
194424
  8
0
 62
7
 10
132.45824956162619
 20
99.3649403935726
 70
0
  0
SEQEND
  5
194425
  8
0
  0
POLYLINE
  5
14EB57
  8
0
 62
7
 66
1
 70
0
 10
0
 20
0
 30
0
  0
VERTEX
  5
194426
  8
0
 62
7
 10
132.62809288109369
 20
99.703421248292372
 70
0
  0
VERTEX
  5
194427
  8
0
 62
7
 10
132.62809288109369
 20
99.703421248292372
 70
0
  0
SEQEND
  5
194428
  8
0
  0
POLYLINE
  5
14EB5B
  8
0
 62
7
 66
1
 70
0
 10
0
 20
0
 30
0
  0
VERTEX
  5
194429
  8
0
 62
7
 10
132.585373668895
 20
99.745968205603134
 70
0
  0
VERTEX
  5
19442A
  8
0
 62
7
 10
132.500968773825
 20
99.830545355561085
 70
0
  0
SEQEND
  5
19442B
  8
0
  0
POLYLINE
  5
14EB5F
  8
0
 62
7
 66
1
 70
0
 10
0
 20
0
 30
0
  0
VERTEX
  5
19442C
  8
0
 62
7
 10
127.63235662227351
 20
106.3500483527278
 70
0
  0
VERTEX
  5
19442D
  8
0
 62
7
 10
127.63235662227351
 20
106.391906290487
 70
0
  0
VERTEX
  5
19442E
  8
0
 62
7
 10
127.5899819198506
 20
106.391906290487
 70
0
  0
SEQEND
  5
19442F
  8
0
  0
POLYLINE
  5
14EB64
  8
0
 62
7
 66
1
 70
0
 10
0
 20
0
 30
0
  0
VERTEX
  5
194430
  8
0
 62
7
 10
130.93448282327981
 20
98.390839002508926
 70
0
  0
VERTEX
  5
194431
  8
0
 62
7
 10
130.93448282327981
 20
98.390839002508926
 70
0
  0
SEQEND
  5
194432
  8
0
  0
POLYLINE
  5
14EB68
  8
0
 62
7
 66
1
 70
0
 10
0
 20
0
 30
0
  0
VERTEX
  5
194433
  8
0
 62
7
 10
127.8862603270353
 20
103.30199811137121
 70
0
  0
VERTEX
  5
194434
  8
0
 62
7
 10
127.9710097318811
 20
103.1324993016794
 70
0
  0
VERTEX
  5
194435
  8
0
 62
7
 10
128.0133844343041
 20
102.9630004919877
 70
0
  0
VERTEX
  5
194436
  8
0
 62
7
 10
128.09778932937411
 20
102.75147148964891
 70
0
  0
VERTEX
  5
194437
  8
0
 62
7
 10
128.1828832439958
 20
102.5819726799572
 70
0
  0
VERTEX
  5
194438
  8
0
 62
7
 10
128.26728813906581
 20
102.4129906349291
 70
0
  0
VERTEX
  5
194439
  8
0
 62
7
 10
128.35169303413591
 20
102.2434918252374
 70
0
  0
VERTEX
  5
19443A
  8
0
 62
7
 10
128.4788171414047
 20
102.0739930155457
 70
0
  0
VERTEX
  5
19443B
  8
0
 62
7
 10
128.5639110560264
 20
101.9468689082769
 70
0
  0
VERTEX
  5
19443C
  8
0
 62
7
 10
128.69103516329511
 20
101.7780591181367
 70
0
  0
VERTEX
  5
19443D
  8
0
 62
7
 10
128.77544005836521
 20
101.650935010868
 70
0
  0
VERTEX
  5
19443E
  8
0
 62
7
 10
128.9022196558582
 20
101.48143620117629
 70
0
  0
VERTEX
  5
19443F
  8
0
 62
7
 10
129.029343763127
 20
101.3544843487954
 70
0
  0
VERTEX
  5
194440
  8
0
 62
7
 10
129.19884257281871
 20
101.2275324964145
 70
0
  0
VERTEX
  5
194441
  8
0
 62
7
 10
129.32596668008739
 20
101.1429553464566
 70
0
  0
VERTEX
  5
194442
  8
0
 62
7
 10
129.49477647022761
 20
101.0160034940757
 70
0
  0
VERTEX
  5
194443
  8
0
 62
7
 10
129.62190057749641
 20
100.88905164169481
 70
0
  0
VERTEX
  5
194444
  8
0
 62
7
 10
129.79139938718811
 20
100.8039577270732
 70
0
  0
VERTEX
  5
194445
  8
0
 62
7
 10
129.91852349445691
 20
100.6770058746923
 70
0
  0
VERTEX
  5
194446
  8
0
 62
7
 10
130.08802230414861
 20
100.6349756820451
 70
0
  0
VERTEX
  5
194447
  8
0
 62
7
 10
130.25683209428871
 20
100.5498817674235
 70
0
  0
VERTEX
  5
194448
  8
0
 62
7
 10
130.42633090398041
 20
100.5080238296642
 70
0
  0
VERTEX
  5
194449
  8
0
 62
7
 10
130.55345501124921
 20
100.4229299150426
 70
0
  0
SEQEND
  5
19444A
  8
0
  0
POLYLINE
  5
14EB81
  8
0
 62
7
 66
1
 70
0
 10
0
 20
0
 30
0
  0
VERTEX
  5
19444B
  8
0
 62
7
 10
127.20895410782
 20
106.3500483527278
 70
0
  0
VERTEX
  5
19444C
  8
0
 62
7
 10
127.2513288102429
 20
106.2649544381061
 70
0
  0
VERTEX
  5
19444D
  8
0
 62
7
 10
127.2513288102429
 20
106.222924245459
 70
0
  0
VERTEX
  5
19444E
  8
0
 62
7
 10
127.2940480224416
 20
106.18054954303609
 70
0
  0
VERTEX
  5
19444F
  8
0
 62
7
 10
127.335733705313
 20
106.1380025857252
 70
0
  0
VERTEX
  5
194450
  8
0
 62
7
 10
127.37845291751169
 20
106.0959723930781
 70
0
  0
VERTEX
  5
194451
  8
0
 62
7
 10
127.4208276199346
 20
106.0959723930781
 70
0
  0
VERTEX
  5
194452
  8
0
 62
7
 10
127.4628578125818
 20
106.0534254357673
 70
0
  0
SEQEND
  5
194453
  8
0
  0
POLYLINE
  5
14EB8B
  8
0
 62
7
 66
1
 70
0
 10
0
 20
0
 30
0
  0
VERTEX
  5
194454
  8
0
 62
7
 10
127.335733705313
 20
106.307501395417
 70
0
  0
VERTEX
  5
194455
  8
0
 62
7
 10
127.335733705313
 20
106.3500483527278
 70
0
  0
VERTEX
  5
194456
  8
0
 62
7
 10
127.2940480224416
 20
106.3500483527278
 70
0
  0
SEQEND
  5
194457
  8
0
  0
POLYLINE
  5
14EB90
  8
0
 62
7
 66
1
 70
0
 10
0
 20
0
 30
0
  0
VERTEX
  5
194458
  8
0
 62
7
 10
127.4208276199346
 20
106.3500483527278
 70
0
  0
VERTEX
  5
194459
  8
0
 62
7
 10
127.4208276199346
 20
106.3500483527278
 70
0
  0
VERTEX
  5
19445A
  8
0
 62
7
 10
127.4628578125818
 20
106.307501395417
 70
0
  0
VERTEX
  5
19445B
  8
0
 62
7
 10
127.4628578125818
 20
106.18054954303609
 70
0
  0
SEQEND
  5
19445C
  8
0
  0
POLYLINE
  5
14EB96
  8
0
 62
7
 66
1
 70
0
 10
0
 20
0
 30
0
  0
VERTEX
  5
19445D
  8
0
 62
7
 10
127.50523251500471
 20
106.3500483527278
 70
0
  0
VERTEX
  5
19445E
  8
0
 62
7
 10
127.50523251500471
 20
106.307501395417
 70
0
  0
VERTEX
  5
19445F
  8
0
 62
7
 10
127.5479517272035
 20
106.307501395417
 70
0
  0
VERTEX
  5
194460
  8
0
 62
7
 10
127.5479517272035
 20
106.222924245459
 70
0
  0
VERTEX
  5
194461
  8
0
 62
7
 10
127.5899819198506
 20
106.222924245459
 70
0
  0
SEQEND
  5
194462
  8
0
  0
POLYLINE
  5
14EBA1
  8
0
 62
7
 66
1
 70
0
 10
0
 20
0
 30
0
  0
VERTEX
  5
194463
  8
0
 62
7
 10
127.7594807295423
 20
103.89438267085271
 70
0
  0
VERTEX
  5
194464
  8
0
 62
7
 10
127.80185543196519
 20
103.6830259234017
 70
0
  0
VERTEX
  5
194465
  8
0
 62
7
 10
127.8438856246123
 20
103.47098015639919
 70
0
  0
VERTEX
  5
194466
  8
0
 62
7
 10
127.8862603270353
 20
103.30199811137121
 70
0
  0
SEQEND
  5
194467
  8
0
  0
POLYLINE
  5
14EBBB
  8
0
 62
7
 66
1
 70
0
 10
0
 20
0
 30
0
  0
VERTEX
  5
194468
  8
0
 62
7
 10
127.50523251500471
 20
106.43445324779781
 70
0
  0
VERTEX
  5
194469
  8
0
 62
7
 10
127.5479517272035
 20
106.3500483527278
 70
0
  0
SEQEND
  5
19446A
  8
0
  0
POLYLINE
  5
14EBBF
  8
0
 62
7
 66
1
 70
0
 10
0
 20
0
 30
0
  0
VERTEX
  5
19446B
  8
0
 62
7
 10
127.63235662227351
 20
106.4770002051087
 70
0
  0
VERTEX
  5
19446C
  8
0
 62
7
 10
127.63235662227351
 20
106.3500483527278
 70
0
  0
SEQEND
  5
19446D
  8
0
  0
POLYLINE
  5
14EBC7
  8
0
 62
7
 66
1
 70
0
 10
0
 20
0
 30
0
  0
VERTEX
  5
19446E
  8
0
 62
7
 10
127.2940480224416
 20
106.3500483527278
 70
0
  0
VERTEX
  5
19446F
  8
0
 62
7
 10
127.2940480224416
 20
106.391906290487
 70
0
  0
SEQEND
  5
194470
  8
0
  0
POLYLINE
  5
14EBD7
  8
0
 62
7
 66
1
 70
0
 10
0
 20
0
 30
0
  0
VERTEX
  5
194471
  8
0
 62
7
 10
129.19884257281871
 20
98.2220292123688
 70
0
  0
VERTEX
  5
194472
  8
0
 62
7
 10
129.19884257281871
 20
98.263887150128042
 70
0
  0
SEQEND
  5
194473
  8
0
  0
POLYLINE
  5
14EBDB
  8
0
 62
7
 66
1
 70
0
 10
0
 20
0
 30
0
  0
VERTEX
  5
194474
  8
0
 62
7
 10
129.113748658197
 20
98.984084836429943
 70
0
  0
VERTEX
  5
194475
  8
0
 62
7
 10
129.113748658197
 20
98.898990921808263
 70
0
  0
SEQEND
  5
194476
  8
0
  0
POLYLINE
  5
14EC3B
  8
0
 62
7
 66
1
 70
0
 10
0
 20
0
 30
0
  0
VERTEX
  5
194477
  8
0
 62
7
 10
127.5479517272035
 20
106.3500483527278
 70
0
  0
VERTEX
  5
194478
  8
0
 62
7
 10
127.5479517272035
 20
106.43445324779781
 70
0
  0
VERTEX
  5
194479
  8
0
 62
7
 10
127.50523251500471
 20
106.43445324779781
 70
0
  0
SEQEND
  5
19447A
  8
0
  0
POLYLINE
  5
14EC44
  8
0
 62
7
 66
1
 70
0
 10
0
 20
0
 30
0
  0
VERTEX
  5
19447B
  8
0
 62
7
 10
126.95470589328239
 20
106.5188581428679
 70
0
  0
VERTEX
  5
19447C
  8
0
 62
7
 10
126.95470589328239
 20
106.5188581428679
 70
0
  0
VERTEX
  5
19447D
  8
0
 62
7
 10
126.9974251054811
 20
106.5614051001787
 70
0
  0
VERTEX
  5
19447E
  8
0
 62
7
 10
126.9974251054811
 20
106.60395205748959
 70
0
  0
SEQEND
  5
19447F
  8
0
  0
POLYLINE
  5
14EC52
  8
0
 62
7
 66
1
 70
0
 10
0
 20
0
 30
0
  0
VERTEX
  5
194480
  8
0
 62
7
 10
126.9974251054811
 20
106.60395205748959
 70
0
  0
VERTEX
  5
194481
  8
0
 62
7
 10
127.2513288102429
 20
107.2390558291698
 70
0
  0
VERTEX
  5
194482
  8
0
 62
7
 10
127.5479517272035
 20
107.7888934313405
 70
0
  0
VERTEX
  5
194483
  8
0
 62
7
 10
127.928979539234
 20
108.3819670103736
 70
0
  0
SEQEND
  5
194484
  8
0
  0
POLYLINE
  5
14EC58
  8
0
 62
7
 66
1
 70
0
 10
0
 20
0
 30
0
  0
VERTEX
  5
194485
  8
0
 62
7
 10
125.21941015259711
 20
106.6459822501367
 70
0
  0
VERTEX
  5
194486
  8
0
 62
7
 10
125.2617848550199
 20
106.6885292074475
 70
0
  0
VERTEX
  5
194487
  8
0
 62
7
 10
125.3038150476672
 20
106.73107616475841
 70
0
  0
VERTEX
  5
194488
  8
0
 62
7
 10
125.34653425986591
 20
106.73107616475841
 70
0
  0
SEQEND
  5
194489
  8
0
  0
POLYLINE
  5
14EC5E
  8
0
 62
7
 66
1
 70
0
 10
0
 20
0
 30
0
  0
VERTEX
  5
19448A
  8
0
 62
7
 10
134.40610783397781
 20
118.880557917986
 70
0
  0
VERTEX
  5
19448B
  8
0
 62
7
 10
134.40610783397781
 20
118.9231048752968
 70
0
  0
VERTEX
  5
19448C
  8
0
 62
7
 10
134.49051272904779
 20
118.9231048752968
 70
0
  0
VERTEX
  5
19448D
  8
0
 62
7
 10
134.49051272904779
 20
118.9649628130561
 70
0
  0
SEQEND
  5
19448E
  8
0
  0
POLYLINE
  5
14EC64
  8
0
 62
7
 66
1
 70
0
 10
0
 20
0
 30
0
  0
VERTEX
  5
19448F
  8
0
 62
7
 10
135.12544424584021
 20
119.3459906250867
 70
0
  0
VERTEX
  5
194490
  8
0
 62
7
 10
135.0827250336414
 20
119.3459906250867
 70
0
  0
VERTEX
  5
194491
  8
0
 62
7
 10
135.0827250336414
 20
119.3039604324395
 70
0
  0
VERTEX
  5
194492
  8
0
 62
7
 10
135.04103935077
 20
119.26158573001661
 70
0
  0
VERTEX
  5
194493
  8
0
 62
7
 10
135.04103935077
 20
119.2188665178179
 70
0
  0
SEQEND
  5
194494
  8
0
  0
POLYLINE
  5
14EC6B
  8
0
 62
7
 66
1
 70
0
 10
0
 20
0
 30
0
  0
VERTEX
  5
194495
  8
0
 62
7
 10
134.49051272904779
 20
118.9649628130561
 70
0
  0
VERTEX
  5
194496
  8
0
 62
7
 10
134.53288743147081
 20
118.9649628130561
 70
0
  0
SEQEND
  5
194497
  8
0
  0
POLYLINE
  5
14EC6F
  8
0
 62
7
 66
1
 70
0
 10
0
 20
0
 30
0
  0
VERTEX
  5
194498
  8
0
 62
7
 10
134.8288213288796
 20
119.26158573001661
 70
0
  0
VERTEX
  5
194499
  8
0
 62
7
 10
135.12544424584021
 20
119.3459906250867
 70
0
  0
SEQEND
  5
19449A
  8
0
  0
POLYLINE
  5
14EC73
  8
0
 62
7
 66
1
 70
0
 10
0
 20
0
 30
0
  0
VERTEX
  5
19449B
  8
0
 62
7
 10
133.72845710498669
 20
97.882859338097461
 70
0
  0
VERTEX
  5
19449C
  8
0
 62
7
 10
133.89795591467839
 20
97.9254062954083
 70
0
  0
SEQEND
  5
19449D
  8
0
  0
POLYLINE
  5
14EC77
  8
0
 62
7
 66
1
 70
0
 10
0
 20
0
 30
0
  0
VERTEX
  5
19449E
  8
0
 62
7
 10
131.99281685452561
 20
97.587097695576475
 70
0
  0
VERTEX
  5
19449F
  8
0
 62
7
 10
132.20434585686451
 20
97.628955633335721
 70
0
  0
SEQEND
  5
1944A0
  8
0
  0
POLYLINE
  5
14EC7B
  8
0
 62
7
 66
1
 70
0
 10
0
 20
0
 30
0
  0
VERTEX
  5
1944A1
  8
0
 62
7
 10
133.72845710498669
 20
97.882859338097461
 70
0
  0
VERTEX
  5
1944A2
  8
0
 62
7
 10
131.99281685452561
 20
97.587097695576475
 70
0
  0
SEQEND
  5
1944A3
  8
0
  0
POLYLINE
  5
14EC7F
  8
0
 62
7
 66
1
 70
0
 10
0
 20
0
 30
0
  0
VERTEX
  5
1944A4
  8
0
 62
7
 10
132.3738446665561
 20
97.967953252719113
 70
0
  0
VERTEX
  5
1944A5
  8
0
 62
7
 10
132.3738446665561
 20
97.967953252719113
 70
0
  0
SEQEND
  5
1944A6
  8
0
  0
POLYLINE
  5
14EC83
  8
0
 62
7
 66
1
 70
0
 10
0
 20
0
 30
0
  0
VERTEX
  5
1944A7
  8
0
 62
7
 10
128.85984495343521
 20
98.306434107438875
 70
0
  0
VERTEX
  5
1944A8
  8
0
 62
7
 10
128.81781476078811
 20
98.306434107438875
 70
0
  0
SEQEND
  5
1944A9
  8
0
  0
POLYLINE
  5
14EC87
  8
0
 62
7
 66
1
 70
0
 10
0
 20
0
 30
0
  0
VERTEX
  5
1944AA
  8
0
 62
7
 10
131.73891314976379
 20
98.64491496215858
 70
0
  0
VERTEX
  5
1944AB
  8
0
 62
7
 10
131.78094334241061
 20
98.64491496215858
 70
0
  0
SEQEND
  5
1944AC
  8
0
  0
POLYLINE
  5
14EC8B
  8
0
 62
7
 66
1
 70
0
 10
0
 20
0
 30
0
  0
VERTEX
  5
1944AD
  8
0
 62
7
 10
131.86603725703259
 20
97.841001400338229
 70
0
  0
VERTEX
  5
1944AE
  8
0
 62
7
 10
131.01888771834979
 20
97.7984544430274
 70
0
  0
VERTEX
  5
1944AF
  8
0
 62
7
 10
130.12970798701991
 20
97.882859338097461
 70
0
  0
VERTEX
  5
1944B0
  8
0
 62
7
 10
129.28324746788871
 20
98.136935297747129
 70
0
  0
SEQEND
  5
1944B1
  8
0
  0
POLYLINE
  5
14EC91
  8
0
 62
7
 66
1
 70
0
 10
0
 20
0
 30
0
  0
VERTEX
  5
1944B2
  8
0
 62
7
 10
130.93448282327981
 20
98.390839002508926
 70
0
  0
VERTEX
  5
1944B3
  8
0
 62
7
 10
129.19884257281871
 20
98.263887150128042
 70
0
  0
SEQEND
  5
1944B4
  8
0
  0
POLYLINE
  5
14EC95
  8
0
 62
7
 66
1
 70
0
 10
0
 20
0
 30
0
  0
VERTEX
  5
1944B5
  8
0
 62
7
 10
131.06126242077281
 20
98.603057024399376
 70
0
  0
VERTEX
  5
1944B6
  8
0
 62
7
 10
131.86603725703259
 20
98.64491496215858
 70
0
  0
SEQEND
  5
1944B7
  8
0
  0
POLYLINE
  5
14EC99
  8
0
 62
7
 66
1
 70
0
 10
0
 20
0
 30
0
  0
VERTEX
  5
1944B8
  8
0
 62
7
 10
131.73891314976379
 20
99.152894626570074
 70
0
  0
VERTEX
  5
1944B9
  8
0
 62
7
 10
131.06126242077281
 20
99.237988541191683
 70
0
  0
SEQEND
  5
1944BA
  8
0
  0
POLYLINE
  5
14ECA1
  8
0
 62
7
 66
1
 70
0
 10
0
 20
0
 30
0
  0
VERTEX
  5
1944BB
  8
0
 62
7
 10
130.85007792820971
 20
100.33852501997249
 70
0
  0
VERTEX
  5
1944BC
  8
0
 62
7
 10
131.44229023280329
 20
100.2539478700146
 70
0
  0
VERTEX
  5
1944BD
  8
0
 62
7
 10
131.99281685452561
 20
100.2539478700146
 70
0
  0
SEQEND
  5
1944BE
  8
0
  0
POLYLINE
  5
14ECBE
  8
0
 62
7
 66
1
 70
0
 10
0
 20
0
 30
0
  0
VERTEX
  5
1944BF
  8
0
 62
7
 10
130.72295382094089
 20
100.3810719772833
 70
0
  0
VERTEX
  5
1944C0
  8
0
 62
7
 10
130.93448282327981
 20
100.33852501997249
 70
0
  0
VERTEX
  5
1944C1
  8
0
 62
7
 10
131.06126242077281
 20
100.2959780626617
 70
0
  0
VERTEX
  5
1944C2
  8
0
 62
7
 10
131.23110574024031
 20
100.2959780626617
 70
0
  0
VERTEX
  5
1944C3
  8
0
 62
7
 10
131.44229023280329
 20
100.2539478700146
 70
0
  0
VERTEX
  5
1944C4
  8
0
 62
7
 10
131.95044215210271
 20
100.2539478700146
 70
0
  0
SEQEND
  5
1944C5
  8
0
  0
POLYLINE
  5
14ECDE
  8
0
 62
7
 66
1
 70
0
 10
0
 20
0
 30
0
  0
VERTEX
  5
1944C6
  8
0
 62
7
 10
130.55345501124921
 20
100.4229299150426
 70
0
  0
VERTEX
  5
1944C7
  8
0
 62
7
 10
130.72295382094089
 20
100.3810719772833
 70
0
  0
SEQEND
  5
1944C8
  8
0
  0
POLYLINE
  5
14ECEA
  8
0
 62
7
 66
1
 70
0
 10
0
 20
0
 30
0
  0
VERTEX
  5
1944C9
  8
0
 62
7
 10
130.807358716011
 20
100.3810719772833
 70
0
  0
VERTEX
  5
1944CA
  8
0
 62
7
 10
130.85007792820971
 20
100.33852501997249
 70
0
  0
SEQEND
  5
1944CB
  8
0
  0
POLYLINE
  5
14ECFE
  8
0
 62
7
 66
1
 70
0
 10
0
 20
0
 30
0
  0
VERTEX
  5
1944CC
  8
0
 62
7
 10
127.12454921275
 20
106.01087847845641
 70
0
  0
VERTEX
  5
1944CD
  8
0
 62
7
 10
127.08183000055119
 20
106.0959723930781
 70
0
  0
VERTEX
  5
1944CE
  8
0
 62
7
 10
126.9974251054811
 20
106.1380025857252
 70
0
  0
VERTEX
  5
1944CF
  8
0
 62
7
 10
126.95470589328239
 20
106.2649544381061
 70
0
  0
VERTEX
  5
1944D0
  8
0
 62
7
 10
126.95470589328239
 20
106.43445324779781
 70
0
  0
SEQEND
  5
1944D1
  8
0
  0
POLYLINE
  5
14ED05
  8
0
 62
7
 66
1
 70
0
 10
0
 20
0
 30
0
  0
VERTEX
  5
1944D2
  8
0
 62
7
 10
127.50523251500471
 20
106.4770002051087
 70
0
  0
VERTEX
  5
1944D3
  8
0
 62
7
 10
127.37845291751169
 20
106.60395205748959
 70
0
  0
SEQEND
  5
1944D4
  8
0
  0
POLYLINE
  5
14ED09
  8
0
 62
7
 66
1
 70
0
 10
0
 20
0
 30
0
  0
VERTEX
  5
1944D5
  8
0
 62
7
 10
127.50523251500471
 20
106.43445324779781
 70
0
  0
VERTEX
  5
1944D6
  8
0
 62
7
 10
127.50523251500471
 20
106.4770002051087
 70
0
  0
SEQEND
  5
1944D7
  8
0
  0
POLYLINE
  5
14ED0D
  8
0
 62
7
 66
1
 70
0
 10
0
 20
0
 30
0
  0
VERTEX
  5
1944D8
  8
0
 62
7
 10
132.71249777616379
 20
99.619016353222264
 70
0
  0
VERTEX
  5
1944D9
  8
0
 62
7
 10
132.71249777616379
 20
99.660874290981482
 70
0
  0
SEQEND
  5
1944DA
  8
0
  0
POLYLINE
  5
14ED11
  8
0
 62
7
 66
1
 70
0
 10
0
 20
0
 30
0
  0
VERTEX
  5
1944DB
  8
0
 62
7
 10
127.20895410782
 20
109.7789541512271
 70
0
  0
VERTEX
  5
1944DC
  8
0
 62
7
 10
127.20895410782
 20
109.8209843438742
 70
0
  0
SEQEND
  5
1944DD
  8
0
  0
POLYLINE
  5
14ED15
  8
0
 62
7
 66
1
 70
0
 10
0
 20
0
 30
0
  0
VERTEX
  5
1944DE
  8
0
 62
7
 10
129.79139938718811
 20
110.5410097752882
 70
0
  0
VERTEX
  5
1944DF
  8
0
 62
7
 10
129.79139938718811
 20
110.45591586066639
 70
0
  0
VERTEX
  5
1944E0
  8
0
 62
7
 10
129.749024684765
 20
110.4140579229073
 70
0
  0
SEQEND
  5
1944E1
  8
0
  0
POLYLINE
  5
14ED1A
  8
0
 62
7
 66
1
 70
0
 10
0
 20
0
 30
0
  0
VERTEX
  5
1944E2
  8
0
 62
7
 10
130.25683209428871
 20
111.59899929675819
 70
0
  0
VERTEX
  5
1944E3
  8
0
 62
7
 10
130.25683209428871
 20
117.14508992241279
 70
0
  0
SEQEND
  5
1944E4
  8
0
  0
POLYLINE
  5
14ED1E
  8
0
 62
7
 66
1
 70
0
 10
0
 20
0
 30
0
  0
VERTEX
  5
1944E5
  8
0
 62
7
 10
130.34192600891021
 20
111.59899929675819
 70
0
  0
VERTEX
  5
1944E6
  8
0
 62
7
 10
130.34192600891021
 20
117.0599960077912
 70
0
  0
SEQEND
  5
1944E7
  8
0
  0
POLYLINE
  5
14ED22
  8
0
 62
7
 66
1
 70
0
 10
0
 20
0
 30
0
  0
VERTEX
  5
1944E8
  8
0
 62
7
 10
129.96089819687981
 20
111.1759412920805
 70
0
  0
VERTEX
  5
1944E9
  8
0
 62
7
 10
129.96089819687981
 20
111.2179714847277
 70
0
  0
VERTEX
  5
1944EA
  8
0
 62
7
 10
130.00292838952689
 20
111.2605184420385
 70
0
  0
VERTEX
  5
1944EB
  8
0
 62
7
 10
130.00292838952689
 20
111.30306539934929
 70
0
  0
VERTEX
  5
1944EC
  8
0
 62
7
 10
130.0453030919499
 20
111.30306539934929
 70
0
  0
SEQEND
  5
1944ED
  8
0
  0
POLYLINE
  5
14ED29
  8
0
 62
7
 66
1
 70
0
 10
0
 20
0
 30
0
  0
VERTEX
  5
1944EE
  8
0
 62
7
 10
132.41587485920331
 20
123.8759496670305
 70
0
  0
VERTEX
  5
1944EF
  8
0
 62
7
 10
132.45824956162619
 20
123.8759496670305
 70
0
  0
VERTEX
  5
1944F0
  8
0
 62
7
 10
132.45824956162619
 20
123.9179798596776
 70
0
  0
VERTEX
  5
1944F1
  8
0
 62
7
 10
132.54299896647211
 20
123.9179798596776
 70
0
  0
SEQEND
  5
1944F2
  8
0
  0
POLYLINE
  5
14ED2F
  8
0
 62
7
 66
1
 70
0
 10
0
 20
0
 30
0
  0
VERTEX
  5
1944F3
  8
0
 62
7
 10
133.09352558819441
 20
121.9284359044547
 70
0
  0
VERTEX
  5
1944F4
  8
0
 62
7
 10
133.09352558819441
 20
121.97098286176561
 70
0
  0
VERTEX
  5
1944F5
  8
0
 62
7
 10
133.13590029061729
 20
121.97098286176561
 70
0
  0
VERTEX
  5
1944F6
  8
0
 62
7
 10
133.13590029061729
 20
122.0128407995248
 70
0
  0
VERTEX
  5
1944F7
  8
0
 62
7
 10
133.22030518568741
 20
122.0128407995248
 70
0
  0
SEQEND
  5
1944F8
  8
0
  0
POLYLINE
  5
14ED52
  8
0
 62
7
 66
1
 70
0
 10
0
 20
0
 30
0
  0
VERTEX
  5
1944F9
  8
0
 62
7
 10
127.63235662227351
 20
106.2649544381061
 70
0
  0
VERTEX
  5
1944FA
  8
0
 62
7
 10
127.5899819198506
 20
106.1380025857252
 70
0
  0
VERTEX
  5
1944FB
  8
0
 62
7
 10
127.5479517272035
 20
106.0959723930781
 70
0
  0
VERTEX
  5
1944FC
  8
0
 62
7
 10
127.4628578125818
 20
106.0534254357673
 70
0
  0
VERTEX
  5
1944FD
  8
0
 62
7
 10
127.37845291751169
 20
106.01087847845641
 70
0
  0
VERTEX
  5
1944FE
  8
0
 62
7
 10
127.335733705313
 20
106.01087847845641
 70
0
  0
SEQEND
  5
1944FF
  8
0
  0
POLYLINE
  5
14ED6A
  8
0
 62
7
 66
1
 70
0
 10
0
 20
0
 30
0
  0
VERTEX
  5
194500
  8
0
 62
7
 10
127.4628578125818
 20
106.18054954303609
 70
0
  0
VERTEX
  5
194501
  8
0
 62
7
 10
127.50523251500471
 20
106.307501395417
 70
0
  0
SEQEND
  5
194502
  8
0
  0
POLYLINE
  5
14ED8A
  8
0
 62
7
 66
1
 70
0
 10
0
 20
0
 30
0
  0
VERTEX
  5
194503
  8
0
 62
7
 10
127.5899819198506
 20
106.391906290487
 70
0
  0
VERTEX
  5
194504
  8
0
 62
7
 10
127.5899819198506
 20
106.43445324779781
 70
0
  0
VERTEX
  5
194505
  8
0
 62
7
 10
127.63235662227351
 20
106.43445324779781
 70
0
  0
VERTEX
  5
194506
  8
0
 62
7
 10
127.63235662227351
 20
106.4770002051087
 70
0
  0
SEQEND
  5
194507
  8
0
  0
POLYLINE
  5
14ED98
  8
0
 62
7
 66
1
 70
0
 10
0
 20
0
 30
0
  0
VERTEX
  5
194508
  8
0
 62
7
 10
134.40610783397781
 20
118.41512521088541
 70
0
  0
VERTEX
  5
194509
  8
0
 62
7
 10
134.363388621779
 20
118.3724059986867
 70
0
  0
SEQEND
  5
19450A
  8
0
  0
POLYLINE
  5
14ED9C
  8
0
 62
7
 66
1
 70
0
 10
0
 20
0
 30
0
  0
VERTEX
  5
19450B
  8
0
 62
7
 10
134.6600115387395
 20
118.4569831486447
 70
0
  0
VERTEX
  5
19450C
  8
0
 62
7
 10
134.5749176241178
 20
118.28800110361659
 70
0
  0
VERTEX
  5
19450D
  8
0
 62
7
 10
134.49051272904779
 20
118.11850229392491
 70
0
  0
VERTEX
  5
19450E
  8
0
 62
7
 10
134.363388621779
 20
117.9490034842332
 70
0
  0
SEQEND
  5
19450F
  8
0
  0
POLYLINE
  5
14EDA2
  8
0
 62
7
 66
1
 70
0
 10
0
 20
0
 30
0
  0
VERTEX
  5
194510
  8
0
 62
7
 10
127.335733705313
 20
108.9319768674322
 70
0
  0
VERTEX
  5
194511
  8
0
 62
7
 10
126.8279262957894
 20
108.3819670103736
 70
0
  0
VERTEX
  5
194512
  8
0
 62
7
 10
126.4468984837589
 20
107.74703549358129
 70
0
  0
VERTEX
  5
194513
  8
0
 62
7
 10
126.1082453741512
 20
107.0693847645902
 70
0
  0
VERTEX
  5
194514
  8
0
 62
7
 10
125.8543416693895
 20
106.3500483527278
 70
0
  0
VERTEX
  5
194515
  8
0
 62
7
 10
125.6848428596977
 20
105.5454457713558
 70
0
  0
VERTEX
  5
194516
  8
0
 62
7
 10
125.64281266705061
 20
104.74084318998391
 70
0
  0
VERTEX
  5
194517
  8
0
 62
7
 10
125.6848428596977
 20
103.9789598208106
 70
0
  0
VERTEX
  5
194518
  8
0
 62
7
 10
125.81196696696649
 20
103.17504625899031
 70
0
  0
VERTEX
  5
194519
  8
0
 62
7
 10
126.06587067172831
 20
102.4129906349291
 70
0
  0
VERTEX
  5
19451A
  8
0
 62
7
 10
126.36249358868881
 20
101.6929652035152
 70
0
  0
VERTEX
  5
19451B
  8
0
 62
7
 10
126.78589610314231
 20
101.0160034940757
 70
0
  0
SEQEND
  5
19451C
  8
0
  0
POLYLINE
  5
14EDB0
  8
0
 62
7
 66
1
 70
0
 10
0
 20
0
 30
0
  0
VERTEX
  5
19451D
  8
0
 62
7
 10
134.49051272904779
 20
118.4995301059555
 70
0
  0
VERTEX
  5
19451E
  8
0
 62
7
 10
134.49051272904779
 20
118.4569831486447
 70
0
  0
VERTEX
  5
19451F
  8
0
 62
7
 10
134.40610783397781
 20
118.4569831486447
 70
0
  0
VERTEX
  5
194520
  8
0
 62
7
 10
134.40610783397781
 20
118.41512521088541
 70
0
  0
SEQEND
  5
194521
  8
0
  0
POLYLINE
  5
14EDB6
  8
0
 62
7
 66
1
 70
0
 10
0
 20
0
 30
0
  0
VERTEX
  5
194522
  8
0
 62
7
 10
134.91391524350129
 20
117.56797567220261
 70
0
  0
VERTEX
  5
194523
  8
0
 62
7
 10
134.95594543614851
 20
117.6530695868243
 70
0
  0
VERTEX
  5
194524
  8
0
 62
7
 10
135.04103935077
 20
117.69492752458351
 70
0
  0
VERTEX
  5
194525
  8
0
 62
7
 10
135.167818948263
 20
117.69492752458351
 70
0
  0
VERTEX
  5
194526
  8
0
 62
7
 10
135.29494305553189
 20
117.7374744818943
 70
0
  0
VERTEX
  5
194527
  8
0
 62
7
 10
135.42206716280069
 20
117.7800214392052
 70
0
  0
VERTEX
  5
194528
  8
0
 62
7
 10
135.54884676029371
 20
117.7800214392052
 70
0
  0
VERTEX
  5
194529
  8
0
 62
7
 10
135.6759708675624
 20
117.8218793769644
 70
0
  0
VERTEX
  5
19452A
  8
0
 62
7
 10
136.14140357466309
 20
117.8218793769644
 70
0
  0
VERTEX
  5
19452B
  8
0
 62
7
 10
136.31090238435479
 20
117.7800214392052
 70
0
  0
VERTEX
  5
19452C
  8
0
 62
7
 10
136.43802649162359
 20
117.7800214392052
 70
0
  0
VERTEX
  5
19452D
  8
0
 62
7
 10
136.56480608911659
 20
117.7374744818943
 70
0
  0
VERTEX
  5
19452E
  8
0
 62
7
 10
136.6919301963853
 20
117.69492752458351
 70
0
  0
SEQEND
  5
19452F
  8
0
  0
POLYLINE
  5
14EDC5
  8
0
 62
7
 66
1
 70
0
 10
0
 20
0
 30
0
  0
VERTEX
  5
194530
  8
0
 62
7
 10
134.8288213288796
 20
117.6530695868243
 70
0
  0
VERTEX
  5
194531
  8
0
 62
7
 10
134.91391524350129
 20
117.69492752458351
 70
0
  0
VERTEX
  5
194532
  8
0
 62
7
 10
135.12544424584021
 20
117.7800214392052
 70
0
  0
VERTEX
  5
194533
  8
0
 62
7
 10
135.29494305553189
 20
117.8218793769644
 70
0
  0
SEQEND
  5
194534
  8
0
  0
POLYLINE
  5
14EDCB
  8
0
 62
7
 66
1
 70
0
 10
0
 20
0
 30
0
  0
VERTEX
  5
194535
  8
0
 62
7
 10
135.29494305553189
 20
118.0759553366141
 70
0
  0
VERTEX
  5
194536
  8
0
 62
7
 10
135.167818948263
 20
118.0340973988549
 70
0
  0
VERTEX
  5
194537
  8
0
 62
7
 10
135.04103935077
 20
117.9490034842332
 70
0
  0
VERTEX
  5
194538
  8
0
 62
7
 10
134.91391524350129
 20
117.8218793769644
 70
0
  0
VERTEX
  5
194539
  8
0
 62
7
 10
134.8288213288796
 20
117.6530695868243
 70
0
  0
SEQEND
  5
19453A
  8
0
  0
POLYLINE
  5
14EDD2
  8
0
 62
7
 66
1
 70
0
 10
0
 20
0
 30
0
  0
VERTEX
  5
19453B
  8
0
 62
7
 10
134.74441643380959
 20
118.9231048752968
 70
0
  0
VERTEX
  5
19453C
  8
0
 62
7
 10
135.04103935077
 20
119.0500567276777
 70
0
  0
SEQEND
  5
19453D
  8
0
  0
POLYLINE
  5
14EDD6
  8
0
 62
7
 66
1
 70
0
 10
0
 20
0
 30
0
  0
VERTEX
  5
19453E
  8
0
 62
7
 10
135.167818948263
 20
118.9649628130561
 70
0
  0
VERTEX
  5
19453F
  8
0
 62
7
 10
134.87154054107839
 20
118.880557917986
 70
0
  0
SEQEND
  5
194540
  8
0
  0
POLYLINE
  5
14EDDA
  8
0
 62
7
 66
1
 70
0
 10
0
 20
0
 30
0
  0
VERTEX
  5
194541
  8
0
 62
7
 10
132.20434585686451
 20
97.628955633335721
 70
0
  0
VERTEX
  5
194542
  8
0
 62
7
 10
133.00877618334849
 20
97.882859338097461
 70
0
  0
VERTEX
  5
194543
  8
0
 62
7
 10
133.85523670247969
 20
98.263887150128042
 70
0
  0
VERTEX
  5
194544
  8
0
 62
7
 10
134.61729232654079
 20
98.771866814539436
 70
0
  0
VERTEX
  5
194545
  8
0
 62
7
 10
135.29494305553189
 20
99.406970586219714
 70
0
  0
VERTEX
  5
194546
  8
0
 62
7
 10
135.88749986990121
 20
100.1269960176337
 70
0
  0
VERTEX
  5
194547
  8
0
 62
7
 10
136.3953072794248
 20
100.930909579454
 70
0
  0
VERTEX
  5
194548
  8
0
 62
7
 10
136.77633509145539
 20
101.8199170558961
 70
0
  0
VERTEX
  5
194549
  8
0
 62
7
 10
137.03023879621719
 20
102.7940184469597
 70
0
  0
VERTEX
  5
19454A
  8
0
 62
7
 10
137.157362903486
 20
103.76743081847179
 70
0
  0
VERTEX
  5
19454B
  8
0
 62
7
 10
137.20008211568469
 20
104.7835624021826
 70
0
  0
VERTEX
  5
19454C
  8
0
 62
7
 10
137.0729580084159
 20
105.75697477369469
 70
0
  0
SEQEND
  5
19454D
  8
0
  0
POLYLINE
  5
14EDE8
  8
0
 62
7
 66
1
 70
0
 10
0
 20
0
 30
0
  0
VERTEX
  5
19454E
  8
0
 62
7
 10
133.89795591467839
 20
97.9254062954083
 70
0
  0
VERTEX
  5
19454F
  8
0
 62
7
 10
134.70169722161091
 20
98.136935297747129
 70
0
  0
VERTEX
  5
194550
  8
0
 62
7
 10
135.5064720578707
 20
98.517963109777682
 70
0
  0
VERTEX
  5
194551
  8
0
 62
7
 10
136.26852768193189
 20
98.984084836429943
 70
0
  0
VERTEX
  5
194552
  8
0
 62
7
 10
136.9458339011471
 20
99.619016353222264
 70
0
  0
SEQEND
  5
194553
  8
0
  0
POLYLINE
  5
14EDEF
  8
0
 62
7
 66
1
 70
0
 10
0
 20
0
 30
0
  0
VERTEX
  5
194554
  8
0
 62
7
 10
132.3738446665561
 20
97.967953252719113
 70
0
  0
VERTEX
  5
194555
  8
0
 62
7
 10
132.3738446665561
 20
97.967953252719113
 70
0
  0
SEQEND
  5
194556
  8
0
  0
POLYLINE
  5
14EDF3
  8
0
 62
7
 66
1
 70
0
 10
0
 20
0
 30
0
  0
VERTEX
  5
194557
  8
0
 62
7
 10
132.20434585686451
 20
98.771866814539436
 70
0
  0
VERTEX
  5
194558
  8
0
 62
7
 10
132.07722174959571
 20
98.730008876780246
 70
0
  0
VERTEX
  5
194559
  8
0
 62
7
 10
131.907722939904
 20
98.687461919469428
 70
0
  0
VERTEX
  5
19455A
  8
0
 62
7
 10
131.73891314976379
 20
98.64491496215858
 70
0
  0
SEQEND
  5
19455B
  8
0
  0
POLYLINE
  5
14EDF9
  8
0
 62
7
 66
1
 70
0
 10
0
 20
0
 30
0
  0
VERTEX
  5
19455C
  8
0
 62
7
 10
131.907722939904
 20
97.841001400338229
 70
0
  0
VERTEX
  5
19455D
  8
0
 62
7
 10
131.86603725703259
 20
97.841001400338229
 70
0
  0
SEQEND
  5
19455E
  8
0
  0
POLYLINE
  5
14EDFD
  8
0
 62
7
 66
1
 70
0
 10
0
 20
0
 30
0
  0
VERTEX
  5
19455F
  8
0
 62
7
 10
128.85984495343521
 20
98.306434107438875
 70
0
  0
VERTEX
  5
194560
  8
0
 62
7
 10
128.85984495343521
 20
98.306434107438875
 70
0
  0
SEQEND
  5
194561
  8
0
  0
POLYLINE
  5
14EE01
  8
0
 62
7
 66
1
 70
0
 10
0
 20
0
 30
0
  0
VERTEX
  5
194562
  8
0
 62
7
 10
135.04103935077
 20
99.5339224386006
 70
0
  0
VERTEX
  5
194563
  8
0
 62
7
 10
135.04103935077
 20
99.5339224386006
 70
0
  0
SEQEND
  5
194564
  8
0
  0
POLYLINE
  5
14EE05
  8
0
 62
7
 66
1
 70
0
 10
0
 20
0
 30
0
  0
VERTEX
  5
194565
  8
0
 62
7
 10
132.62809288109369
 20
99.406970586219714
 70
0
  0
VERTEX
  5
194566
  8
0
 62
7
 10
132.62809288109369
 20
99.406970586219714
 70
0
  0
SEQEND
  5
194567
  8
0
  0
POLYLINE
  5
14EE09
  8
0
 62
7
 66
1
 70
0
 10
0
 20
0
 30
0
  0
VERTEX
  5
194568
  8
0
 62
7
 10
132.71249777616379
 20
99.492064500841352
 70
0
  0
VERTEX
  5
194569
  8
0
 62
7
 10
132.71249777616379
 20
99.492064500841352
 70
0
  0
SEQEND
  5
19456A
  8
0
  0
POLYLINE
  5
14EE19
  8
0
 62
7
 66
1
 70
0
 10
0
 20
0
 30
0
  0
VERTEX
  5
19456B
  8
0
 62
7
 10
132.54299896647211
 20
99.406970586219714
 70
0
  0
VERTEX
  5
19456C
  8
0
 62
7
 10
132.54299896647211
 20
99.406970586219714
 70
0
  0
SEQEND
  5
19456D
  8
0
  0
POLYLINE
  5
14EE4D
  8
0
 62
7
 66
1
 70
0
 10
0
 20
0
 30
0
  0
VERTEX
  5
19456E
  8
0
 62
7
 10
132.585373668895
 20
99.449517543530561
 70
0
  0
VERTEX
  5
19456F
  8
0
 62
7
 10
132.66977856396511
 20
99.449517543530561
 70
0
  0
SEQEND
  5
194570
  8
0
  0
POLYLINE
  5
14EE89
  8
0
 62
7
 66
1
 70
0
 10
0
 20
0
 30
0
  0
VERTEX
  5
194571
  8
0
 62
7
 10
131.82331804483391
 20
98.814413771850283
 70
0
  0
VERTEX
  5
194572
  8
0
 62
7
 10
131.35788533773319
 20
98.730008876780246
 70
0
  0
SEQEND
  5
194573
  8
0
  0
POLYLINE
  5
14EE8D
  8
0
 62
7
 66
1
 70
0
 10
0
 20
0
 30
0
  0
VERTEX
  5
194574
  8
0
 62
7
 10
131.31551063531029
 20
98.730008876780246
 70
0
  0
VERTEX
  5
194575
  8
0
 62
7
 10
131.82331804483391
 20
98.814413771850283
 70
0
  0
SEQEND
  5
194576
  8
0
  0
POLYLINE
  5
14EE9D
  8
0
 62
7
 66
1
 70
0
 10
0
 20
0
 30
0
  0
VERTEX
  5
194577
  8
0
 62
7
 10
130.97685752570271
 20
99.06848973149998
 70
0
  0
VERTEX
  5
194578
  8
0
 62
7
 10
131.69653844734091
 20
99.152894626570074
 70
0
  0
SEQEND
  5
194579
  8
0
  0
POLYLINE
  5
14EEB1
  8
0
 62
7
 66
1
 70
0
 10
0
 20
0
 30
0
  0
VERTEX
  5
19457A
  8
0
 62
7
 10
130.55345501124921
 20
99.06848973149998
 70
0
  0
VERTEX
  5
19457B
  8
0
 62
7
 10
131.31551063531029
 20
99.152894626570074
 70
0
  0
SEQEND
  5
19457C
  8
0
  0
POLYLINE
  5
14EEC5
  8
0
 62
7
 66
1
 70
0
 10
0
 20
0
 30
0
  0
VERTEX
  5
19457D
  8
0
 62
7
 10
130.1724271992187
 20
99.111036688810813
 70
0
  0
VERTEX
  5
19457E
  8
0
 62
7
 10
130.93448282327981
 20
99.237988541191683
 70
0
  0
SEQEND
  5
19457F
  8
0
  0
POLYLINE
  5
14EED9
  8
0
 62
7
 66
1
 70
0
 10
0
 20
0
 30
0
  0
VERTEX
  5
194580
  8
0
 62
7
 10
129.833774089611
 20
99.195441583880864
 70
0
  0
VERTEX
  5
194581
  8
0
 62
7
 10
130.55345501124921
 20
99.280018733838844
 70
0
  0
SEQEND
  5
194582
  8
0
  0
POLYLINE
  5
14EEE9
  8
0
 62
7
 66
1
 70
0
 10
0
 20
0
 30
0
  0
VERTEX
  5
194583
  8
0
 62
7
 10
129.45309078735619
 20
99.280018733838844
 70
0
  0
VERTEX
  5
194584
  8
0
 62
7
 10
130.1724271992187
 20
99.406970586219714
 70
0
  0
SEQEND
  5
194585
  8
0
  0
POLYLINE
  5
14EEF1
  8
0
 62
7
 66
1
 70
0
 10
0
 20
0
 30
0
  0
VERTEX
  5
194586
  8
0
 62
7
 10
134.61729232654079
 20
100.0000441652528
 70
0
  0
VERTEX
  5
194587
  8
0
 62
7
 10
135.54884676029371
 20
100.1269960176337
 70
0
  0
SEQEND
  5
194588
  8
0
  0
POLYLINE
  5
14EEF5
  8
0
 62
7
 66
1
 70
0
 10
0
 20
0
 30
0
  0
VERTEX
  5
194589
  8
0
 62
7
 10
131.06126242077281
 20
98.603057024399376
 70
0
  0
VERTEX
  5
19458A
  8
0
 62
7
 10
131.86603725703259
 20
98.730008876780246
 70
0
  0
VERTEX
  5
19458B
  8
0
 62
7
 10
132.66977856396511
 20
98.941537879119124
 70
0
  0
VERTEX
  5
19458C
  8
0
 62
7
 10
133.389803995379
 20
99.280018733838844
 70
0
  0
VERTEX
  5
19458D
  8
0
 62
7
 10
134.10948491701731
 20
99.7879983982503
 70
0
  0
SEQEND
  5
19458E
  8
0
  0
POLYLINE
  5
14EEFC
  8
0
 62
7
 66
1
 70
0
 10
0
 20
0
 30
0
  0
VERTEX
  5
19458F
  8
0
 62
7
 10
131.99281685452561
 20
99.237988541191683
 70
0
  0
VERTEX
  5
194590
  8
0
 62
7
 10
131.73891314976379
 20
99.152894626570074
 70
0
  0
SEQEND
  5
194591
  8
0
  0
POLYLINE
  5
14EF00
  8
0
 62
7
 66
1
 70
0
 10
0
 20
0
 30
0
  0
VERTEX
  5
194592
  8
0
 62
7
 10
132.62809288109369
 20
99.619016353222264
 70
0
  0
VERTEX
  5
194593
  8
0
 62
7
 10
132.54299896647211
 20
99.576469395911445
 70
0
  0
SEQEND
  5
194594
  8
0
  0
POLYLINE
  5
14EF04
  8
0
 62
7
 66
1
 70
0
 10
0
 20
0
 30
0
  0
VERTEX
  5
194595
  8
0
 62
7
 10
132.62809288109369
 20
99.703421248292372
 70
0
  0
VERTEX
  5
194596
  8
0
 62
7
 10
132.500968773825
 20
99.703421248292372
 70
0
  0
SEQEND
  5
194597
  8
0
  0
POLYLINE
  5
14EF08
  8
0
 62
7
 66
1
 70
0
 10
0
 20
0
 30
0
  0
VERTEX
  5
194598
  8
0
 62
7
 10
132.71249777616379
 20
99.745968205603134
 70
0
  0
VERTEX
  5
194599
  8
0
 62
7
 10
132.62809288109369
 20
99.703421248292372
 70
0
  0
SEQEND
  5
19459A
  8
0
  0
POLYLINE
  5
14EF0C
  8
0
 62
7
 66
1
 70
0
 10
0
 20
0
 30
0
  0
VERTEX
  5
19459B
  8
0
 62
7
 10
134.61729232654079
 20
100.16885395539291
 70
0
  0
VERTEX
  5
19459C
  8
0
 62
7
 10
135.63325165536369
 20
100.2114009127037
 70
0
  0
SEQEND
  5
19459D
  8
0
  0
POLYLINE
  5
14EF18
  8
0
 62
7
 66
1
 70
0
 10
0
 20
0
 30
0
  0
VERTEX
  5
19459E
  8
0
 62
7
 10
132.3738446665561
 20
100.0000441652528
 70
0
  0
VERTEX
  5
19459F
  8
0
 62
7
 10
132.500968773825
 20
100.0000441652528
 70
0
  0
VERTEX
  5
1945A0
  8
0
 62
7
 10
132.585373668895
 20
99.957497207942012
 70
0
  0
VERTEX
  5
1945A1
  8
0
 62
7
 10
132.62809288109369
 20
99.914950250631165
 70
0
  0
VERTEX
  5
1945A2
  8
0
 62
7
 10
132.71249777616379
 20
99.830545355561085
 70
0
  0
VERTEX
  5
1945A3
  8
0
 62
7
 10
132.71249777616379
 20
99.5339224386006
 70
0
  0
SEQEND
  5
1945A4
  8
0
  0
POLYLINE
  5
14EF28
  8
0
 62
7
 66
1
 70
0
 10
0
 20
0
 30
0
  0
VERTEX
  5
1945A5
  8
0
 62
7
 10
135.04103935077
 20
99.5339224386006
 70
0
  0
VERTEX
  5
1945A6
  8
0
 62
7
 10
134.95594543614851
 20
99.5339224386006
 70
0
  0
VERTEX
  5
1945A7
  8
0
 62
7
 10
134.91391524350129
 20
99.576469395911445
 70
0
  0
SEQEND
  5
1945A8
  8
0
  0
POLYLINE
  5
14EF31
  8
0
 62
7
 66
1
 70
0
 10
0
 20
0
 30
0
  0
VERTEX
  5
1945A9
  8
0
 62
7
 10
126.4468984837589
 20
100.3810719772833
 70
0
  0
VERTEX
  5
1945AA
  8
0
 62
7
 10
126.36249358868881
 20
100.4229299150426
 70
0
  0
VERTEX
  5
1945AB
  8
0
 62
7
 10
126.3197743764901
 20
100.4229299150426
 70
0
  0
SEQEND
  5
1945AC
  8
0
  0
POLYLINE
  5
14EF3E
  8
0
 62
7
 66
1
 70
0
 10
0
 20
0
 30
0
  0
VERTEX
  5
1945AD
  8
0
 62
7
 10
134.32101391935609
 20
99.872920057984047
 70
0
  0
VERTEX
  5
1945AE
  8
0
 62
7
 10
134.363388621779
 20
99.872920057984047
 70
0
  0
VERTEX
  5
1945AF
  8
0
 62
7
 10
134.40610783397781
 20
99.830545355561085
 70
0
  0
SEQEND
  5
1945B0
  8
0
  0
POLYLINE
  5
14EF67
  8
0
 62
7
 66
1
 70
0
 10
0
 20
0
 30
0
  0
VERTEX
  5
1945B1
  8
0
 62
7
 10
125.4733138573589
 20
106.9849798695201
 70
0
  0
VERTEX
  5
1945B2
  8
0
 62
7
 10
125.430939154936
 20
107.02701006216731
 70
0
  0
VERTEX
  5
1945B3
  8
0
 62
7
 10
125.430939154936
 20
107.0693847645902
 70
0
  0
VERTEX
  5
1945B4
  8
0
 62
7
 10
125.3889089622888
 20
107.1121039767889
 70
0
  0
SEQEND
  5
1945B5
  8
0
  0
POLYLINE
  5
14EF6D
  8
0
 62
7
 66
1
 70
0
 10
0
 20
0
 30
0
  0
VERTEX
  5
1945B6
  8
0
 62
7
 10
126.9974251054811
 20
109.5669083842245
 70
0
  0
VERTEX
  5
1945B7
  8
0
 62
7
 10
127.335733705313
 20
109.14402263443471
 70
0
  0
SEQEND
  5
1945B8
  8
0
  0
POLYLINE
  5
14EF71
  8
0
 62
7
 66
1
 70
0
 10
0
 20
0
 30
0
  0
VERTEX
  5
1945B9
  8
0
 62
7
 10
134.40610783397781
 20
99.830545355561085
 70
0
  0
VERTEX
  5
1945BA
  8
0
 62
7
 10
134.74441643380959
 20
99.3649403935726
 70
0
  0
SEQEND
  5
1945BB
  8
0
  0
POLYLINE
  5
14EF75
  8
0
 62
7
 66
1
 70
0
 10
0
 20
0
 30
0
  0
VERTEX
  5
1945BC
  8
0
 62
7
 10
134.91391524350129
 20
99.576469395911445
 70
0
  0
VERTEX
  5
1945BD
  8
0
 62
7
 10
134.61729232654079
 20
100.0000441652528
 70
0
  0
SEQEND
  5
1945BE
  8
0
  0
POLYLINE
  5
14EF79
  8
0
 62
7
 66
1
 70
0
 10
0
 20
0
 30
0
  0
VERTEX
  5
1945BF
  8
0
 62
7
 10
127.5479517272035
 20
109.31300467946279
 70
0
  0
VERTEX
  5
1945C0
  8
0
 62
7
 10
127.20895410782
 20
109.7789541512271
 70
0
  0
SEQEND
  5
1945C1
  8
0
  0
POLYLINE
  5
14EF7D
  8
0
 62
7
 66
1
 70
0
 10
0
 20
0
 30
0
  0
VERTEX
  5
1945C2
  8
0
 62
7
 10
134.74441643380959
 20
99.3649403935726
 70
0
  0
VERTEX
  5
1945C3
  8
0
 62
7
 10
134.74441643380959
 20
99.3649403935726
 70
0
  0
VERTEX
  5
1945C4
  8
0
 62
7
 10
134.7867911362325
 20
99.322393436261777
 70
0
  0
SEQEND
  5
1945C5
  8
0
  0
POLYLINE
  5
14EF82
  8
0
 62
7
 66
1
 70
0
 10
0
 20
0
 30
0
  0
VERTEX
  5
1945C6
  8
0
 62
7
 10
134.61729232654079
 20
100.0000441652528
 70
0
  0
VERTEX
  5
1945C7
  8
0
 62
7
 10
134.61729232654079
 20
100.0000441652528
 70
0
  0
VERTEX
  5
1945C8
  8
0
 62
7
 10
134.5749176241178
 20
100.041902103012
 70
0
  0
SEQEND
  5
1945C9
  8
0
  0
POLYLINE
  5
14EF87
  8
0
 62
7
 66
1
 70
0
 10
0
 20
0
 30
0
  0
VERTEX
  5
1945CA
  8
0
 62
7
 10
132.33146996413319
 20
99.619016353222264
 70
0
  0
VERTEX
  5
1945CB
  8
0
 62
7
 10
132.33146996413319
 20
99.5339224386006
 70
0
  0
VERTEX
  5
1945CC
  8
0
 62
7
 10
132.3738446665561
 20
99.492064500841352
 70
0
  0
VERTEX
  5
1945CD
  8
0
 62
7
 10
132.3738446665561
 20
99.449517543530561
 70
0
  0
VERTEX
  5
1945CE
  8
0
 62
7
 10
132.41587485920331
 20
99.406970586219714
 70
0
  0
SEQEND
  5
1945CF
  8
0
  0
POLYLINE
  5
14EF8E
  8
0
 62
7
 66
1
 70
0
 10
0
 20
0
 30
0
  0
VERTEX
  5
1945D0
  8
0
 62
7
 10
132.41587485920331
 20
99.5339224386006
 70
0
  0
VERTEX
  5
1945D1
  8
0
 62
7
 10
132.41587485920331
 20
99.619016353222264
 70
0
  0
SEQEND
  5
1945D2
  8
0
  0
POLYLINE
  5
14EF92
  8
0
 62
7
 66
1
 70
0
 10
0
 20
0
 30
0
  0
VERTEX
  5
1945D3
  8
0
 62
7
 10
132.54299896647211
 20
99.576469395911445
 70
0
  0
VERTEX
  5
1945D4
  8
0
 62
7
 10
132.54299896647211
 20
99.492064500841352
 70
0
  0
VERTEX
  5
1945D5
  8
0
 62
7
 10
132.585373668895
 20
99.492064500841352
 70
0
  0
VERTEX
  5
1945D6
  8
0
 62
7
 10
132.585373668895
 20
99.449517543530561
 70
0
  0
SEQEND
  5
1945D7
  8
0
  0
POLYLINE
  5
14EF98
  8
0
 62
7
 66
1
 70
0
 10
0
 20
0
 30
0
  0
VERTEX
  5
1945D8
  8
0
 62
7
 10
132.62809288109369
 20
99.619016353222264
 70
0
  0
VERTEX
  5
1945D9
  8
0
 62
7
 10
132.62809288109369
 20
99.492064500841352
 70
0
  0
VERTEX
  5
1945DA
  8
0
 62
7
 10
132.66977856396511
 20
99.492064500841352
 70
0
  0
VERTEX
  5
1945DB
  8
0
 62
7
 10
132.66977856396511
 20
99.449517543530561
 70
0
  0
SEQEND
  5
1945DC
  8
0
  0
POLYLINE
  5
14EF9E
  8
0
 62
7
 66
1
 70
0
 10
0
 20
0
 30
0
  0
VERTEX
  5
1945DD
  8
0
 62
7
 10
131.99281685452561
 20
98.0099834453663
 70
0
  0
VERTEX
  5
1945DE
  8
0
 62
7
 10
131.86603725703259
 20
98.560510067088515
 70
0
  0
SEQEND
  5
1945DF
  8
0
  0
POLYLINE
  5
14EFA2
  8
0
 62
7
 66
1
 70
0
 10
0
 20
0
 30
0
  0
VERTEX
  5
1945E0
  8
0
 62
7
 10
129.79139938718811
 20
110.5410097752882
 70
0
  0
VERTEX
  5
1945E1
  8
0
 62
7
 10
129.7069944921179
 20
111.0908473774589
 70
0
  0
SEQEND
  5
1945E2
  8
0
  0
POLYLINE
  5
14EFA6
  8
0
 62
7
 66
1
 70
0
 10
0
 20
0
 30
0
  0
VERTEX
  5
1945E3
  8
0
 62
7
 10
129.96089819687981
 20
111.1759412920805
 70
0
  0
VERTEX
  5
1945E4
  8
0
 62
7
 10
130.0453030919499
 20
110.58286771304741
 70
0
  0
SEQEND
  5
1945E5
  8
0
  0
POLYLINE
  5
14EFAA
  8
0
 62
7
 66
1
 70
0
 10
0
 20
0
 30
0
  0
VERTEX
  5
1945E6
  8
0
 62
7
 10
132.11994096179441
 20
98.603057024399376
 70
0
  0
VERTEX
  5
1945E7
  8
0
 62
7
 10
132.24706506906321
 20
98.052530402677064
 70
0
  0
SEQEND
  5
1945E8
  8
0
  0
POLYLINE
  5
14EFAE
  8
0
 62
7
 66
1
 70
0
 10
0
 20
0
 30
0
  0
VERTEX
  5
1945E9
  8
0
 62
7
 10
132.500968773825
 20
99.830545355561085
 70
0
  0
VERTEX
  5
1945EA
  8
0
 62
7
 10
132.500968773825
 20
99.703421248292372
 70
0
  0
SEQEND
  5
1945EB
  8
0
  0
POLYLINE
  5
14EFB2
  8
0
 62
7
 66
1
 70
0
 10
0
 20
0
 30
0
  0
VERTEX
  5
1945EC
  8
0
 62
7
 10
132.585373668895
 20
99.872920057984047
 70
0
  0
VERTEX
  5
1945ED
  8
0
 62
7
 10
132.585373668895
 20
99.745968205603134
 70
0
  0
VERTEX
  5
1945EE
  8
0
 62
7
 10
132.62809288109369
 20
99.703421248292372
 70
0
  0
SEQEND
  5
1945EF
  8
0
  0
POLYLINE
  5
14EFB7
  8
0
 62
7
 66
1
 70
0
 10
0
 20
0
 30
0
  0
VERTEX
  5
1945F0
  8
0
 62
7
 10
132.11994096179441
 20
98.603057024399376
 70
0
  0
VERTEX
  5
1945F1
  8
0
 62
7
 10
132.11994096179441
 20
98.64491496215858
 70
0
  0
VERTEX
  5
1945F2
  8
0
 62
7
 10
132.16197115444149
 20
98.730008876780246
 70
0
  0
VERTEX
  5
1945F3
  8
0
 62
7
 10
132.20434585686451
 20
98.730008876780246
 70
0
  0
VERTEX
  5
1945F4
  8
0
 62
7
 10
132.20434585686451
 20
98.771866814539436
 70
0
  0
SEQEND
  5
1945F5
  8
0
  0
POLYLINE
  5
14EFBE
  8
0
 62
7
 66
1
 70
0
 10
0
 20
0
 30
0
  0
VERTEX
  5
1945F6
  8
0
 62
7
 10
131.18838652804161
 20
116.3830342983517
 70
0
  0
VERTEX
  5
1945F7
  8
0
 62
7
 10
131.18838652804161
 20
111.641546254069
 70
0
  0
SEQEND
  5
1945F8
  8
0
  0
POLYLINE
  5
14EFC2
  8
0
 62
7
 66
1
 70
0
 10
0
 20
0
 30
0
  0
VERTEX
  5
1945F9
  8
0
 62
7
 10
131.52669512787341
 20
116.1709885313491
 70
0
  0
VERTEX
  5
1945FA
  8
0
 62
7
 10
131.52669512787341
 20
111.641546254069
 70
0
  0
SEQEND
  5
1945FB
  8
0
  0
POLYLINE
  5
14EFC6
  8
0
 62
7
 66
1
 70
0
 10
0
 20
0
 30
0
  0
VERTEX
  5
1945FC
  8
0
 62
7
 10
131.86603725703259
 20
112.1069789611696
 70
0
  0
VERTEX
  5
1945FD
  8
0
 62
7
 10
131.86603725703259
 20
116.00200648632121
 70
0
  0
SEQEND
  5
1945FE
  8
0
  0
POLYLINE
  5
14EFCA
  8
0
 62
7
 66
1
 70
0
 10
0
 20
0
 30
0
  0
VERTEX
  5
1945FF
  8
0
 62
7
 10
131.99281685452561
 20
98.0099834453663
 70
0
  0
VERTEX
  5
194600
  8
0
 62
7
 10
131.99281685452561
 20
97.967953252719113
 70
0
  0
VERTEX
  5
194601
  8
0
 62
7
 10
131.95044215210271
 20
97.882859338097461
 70
0
  0
SEQEND
  5
194602
  8
0
  0
POLYLINE
  5
14EFCF
  8
0
 62
7
 66
1
 70
0
 10
0
 20
0
 30
0
  0
VERTEX
  5
194603
  8
0
 62
7
 10
133.26302439788611
 20
122.2250588214152
 70
0
  0
VERTEX
  5
194604
  8
0
 62
7
 10
133.26302439788611
 20
122.3094637164853
 70
0
  0
VERTEX
  5
194605
  8
0
 62
7
 10
133.34742929295609
 20
122.478962526177
 70
0
  0
VERTEX
  5
194606
  8
0
 62
7
 10
133.51692810264791
 20
122.647944571205
 70
0
  0
VERTEX
  5
194607
  8
0
 62
7
 10
133.8128620000567
 20
122.7748964235859
 70
0
  0
VERTEX
  5
194608
  8
0
 62
7
 10
134.15185961944019
 20
122.9020205308547
 70
0
  0
VERTEX
  5
194609
  8
0
 62
7
 10
134.5749176241178
 20
123.0289723832356
 70
0
  0
VERTEX
  5
19460A
  8
0
 62
7
 10
135.04103935077
 20
123.11406629785731
 70
0
  0
SEQEND
  5
19460B
  8
0
  0
POLYLINE
  5
14EFD9
  8
0
 62
7
 66
1
 70
0
 10
0
 20
0
 30
0
  0
VERTEX
  5
19460C
  8
0
 62
7
 10
135.12544424584021
 20
125.6539646199145
 70
0
  0
VERTEX
  5
19460D
  8
0
 62
7
 10
135.12544424584021
 20
125.69599481256159
 70
0
  0
SEQEND
  5
19460E
  8
0
  0
POLYLINE
  5
14EFDD
  8
0
 62
7
 66
1
 70
0
 10
0
 20
0
 30
0
  0
VERTEX
  5
19460F
  8
0
 62
7
 10
133.72845710498669
 20
123.70645085733879
 70
0
  0
VERTEX
  5
194610
  8
0
 62
7
 10
133.72845710498669
 20
123.7908557524088
 70
0
  0
VERTEX
  5
194611
  8
0
 62
7
 10
133.8128620000567
 20
123.9179798596776
 70
0
  0
VERTEX
  5
194612
  8
0
 62
7
 10
133.93998610732561
 20
124.0449317120585
 70
0
  0
VERTEX
  5
194613
  8
0
 62
7
 10
134.10948491701731
 20
124.13002562668019
 70
0
  0
VERTEX
  5
194614
  8
0
 62
7
 10
134.278983726709
 20
124.2144305217502
 70
0
  0
VERTEX
  5
194615
  8
0
 62
7
 10
134.53288743147081
 20
124.2990076717082
 70
0
  0
VERTEX
  5
194616
  8
0
 62
7
 10
134.7867911362325
 20
124.38410158632981
 70
0
  0
SEQEND
  5
194617
  8
0
  0
POLYLINE
  5
14EFE7
  8
0
 62
7
 66
1
 70
0
 10
0
 20
0
 30
0
  0
VERTEX
  5
194618
  8
0
 62
7
 10
135.20984914091019
 20
124.5110534387107
 70
0
  0
VERTEX
  5
194619
  8
0
 62
7
 10
135.20984914091019
 20
124.55291137646989
 70
0
  0
VERTEX
  5
19461A
  8
0
 62
7
 10
135.25222384333321
 20
124.6380052910916
 70
0
  0
VERTEX
  5
19461B
  8
0
 62
7
 10
135.29494305553189
 20
124.6380052910916
 70
0
  0
VERTEX
  5
19461C
  8
0
 62
7
 10
135.336973248179
 20
124.67986322885081
 70
0
  0
SEQEND
  5
19461D
  8
0
  0
POLYLINE
  5
14EFEE
  8
0
 62
7
 66
1
 70
0
 10
0
 20
0
 30
0
  0
VERTEX
  5
19461E
  8
0
 62
7
 10
135.04103935077
 20
124.5954583337808
 70
0
  0
VERTEX
  5
19461F
  8
0
 62
7
 10
135.04103935077
 20
124.6380052910916
 70
0
  0
VERTEX
  5
194620
  8
0
 62
7
 10
135.0827250336414
 20
124.67986322885081
 70
0
  0
VERTEX
  5
194621
  8
0
 62
7
 10
135.167818948263
 20
124.7224101861617
 70
0
  0
VERTEX
  5
194622
  8
0
 62
7
 10
135.25222384333321
 20
124.7651293983604
 70
0
  0
VERTEX
  5
194623
  8
0
 62
7
 10
135.336973248179
 20
124.8069873361197
 70
0
  0
SEQEND
  5
194624
  8
0
  0
POLYLINE
  5
14EFF6
  8
0
 62
7
 66
1
 70
0
 10
0
 20
0
 30
0
  0
VERTEX
  5
194625
  8
0
 62
7
 10
134.49051272904779
 20
118.28800110361659
 70
0
  0
VERTEX
  5
194626
  8
0
 62
7
 10
134.363388621779
 20
117.9490034842332
 70
0
  0
SEQEND
  5
194627
  8
0
  0
POLYLINE
  5
14EFFA
  8
0
 62
7
 66
1
 70
0
 10
0
 20
0
 30
0
  0
VERTEX
  5
194628
  8
0
 62
7
 10
134.49051272904779
 20
118.28800110361659
 70
0
  0
VERTEX
  5
194629
  8
0
 62
7
 10
134.53288743147081
 20
118.3298590413758
 70
0
  0
VERTEX
  5
19462A
  8
0
 62
7
 10
134.5749176241178
 20
118.41512521088541
 70
0
  0
VERTEX
  5
19462B
  8
0
 62
7
 10
134.6600115387395
 20
118.4569831486447
 70
0
  0
SEQEND
  5
19462C
  8
0
  0
POLYLINE
  5
14F000
  8
0
 62
7
 66
1
 70
0
 10
0
 20
0
 30
0
  0
VERTEX
  5
19462D
  8
0
 62
7
 10
135.04103935077
 20
116.6371102580014
 70
0
  0
VERTEX
  5
19462E
  8
0
 62
7
 10
135.12544424584021
 20
116.7640621103823
 70
0
  0
SEQEND
  5
19462F
  8
0
  0
POLYLINE
  5
14F014
  8
0
 62
7
 66
1
 70
0
 10
0
 20
0
 30
0
  0
VERTEX
  5
194630
  8
0
 62
7
 10
127.5899819198506
 20
106.391906290487
 70
0
  0
VERTEX
  5
194631
  8
0
 62
7
 10
127.5899819198506
 20
106.3500483527278
 70
0
  0
VERTEX
  5
194632
  8
0
 62
7
 10
127.5479517272035
 20
106.3500483527278
 70
0
  0
SEQEND
  5
194633
  8
0
  0
POLYLINE
  5
14F029
  8
0
 62
7
 66
1
 70
0
 10
0
 20
0
 30
0
  0
VERTEX
  5
194634
  8
0
 62
7
 10
126.9974251054811
 20
106.60395205748959
 70
0
  0
VERTEX
  5
194635
  8
0
 62
7
 10
127.0397998079041
 20
106.6459822501367
 70
0
  0
VERTEX
  5
194636
  8
0
 62
7
 10
127.12454921275
 20
106.73107616475841
 70
0
  0
VERTEX
  5
194637
  8
0
 62
7
 10
127.20895410782
 20
106.73107616475841
 70
0
  0
VERTEX
  5
194638
  8
0
 62
7
 10
127.2513288102429
 20
106.7729341025176
 70
0
  0
SEQEND
  5
194639
  8
0
  0
POLYLINE
  5
14F058
  8
0
 62
7
 66
1
 70
0
 10
0
 20
0
 30
0
  0
VERTEX
  5
19463A
  8
0
 62
7
 10
127.928979539234
 20
108.3819670103736
 70
0
  0
VERTEX
  5
19463B
  8
0
 62
7
 10
128.39441224633461
 20
108.8473997174742
 70
0
  0
SEQEND
  5
19463C
  8
0
  0
POLYLINE
  5
14F05C
  8
0
 62
7
 66
1
 70
0
 10
0
 20
0
 30
0
  0
VERTEX
  5
19463D
  8
0
 62
7
 10
127.5899819198506
 20
109.31300467946279
 70
0
  0
VERTEX
  5
19463E
  8
0
 62
7
 10
126.9974251054811
 20
108.72044786509331
 70
0
  0
VERTEX
  5
19463F
  8
0
 62
7
 10
126.48927318618181
 20
108.000939198343
 70
0
  0
VERTEX
  5
194640
  8
0
 62
7
 10
126.06587067172831
 20
107.196508871859
 70
0
  0
SEQEND
  5
194641
  8
0
  0
POLYLINE
  5
14F062
  8
0
 62
7
 66
1
 70
0
 10
0
 20
0
 30
0
  0
VERTEX
  5
194642
  8
0
 62
7
 10
127.8862603270353
 20
109.43995653184361
 70
0
  0
VERTEX
  5
194643
  8
0
 62
7
 10
127.335733705313
 20
108.9319768674322
 70
0
  0
SEQEND
  5
194644
  8
0
  0
POLYLINE
  5
14F066
  8
0
 62
7
 66
1
 70
0
 10
0
 20
0
 30
0
  0
VERTEX
  5
194645
  8
0
 62
7
 10
127.8862603270353
 20
109.3979263391965
 70
0
  0
VERTEX
  5
194646
  8
0
 62
7
 10
127.335733705313
 20
108.889946674785
 70
0
  0
VERTEX
  5
194647
  8
0
 62
7
 10
126.8703009982124
 20
108.3394200530628
 70
0
  0
VERTEX
  5
194648
  8
0
 62
7
 10
126.4468984837589
 20
107.74703549358129
 70
0
  0
VERTEX
  5
194649
  8
0
 62
7
 10
126.1082453741512
 20
107.02701006216731
 70
0
  0
VERTEX
  5
19464A
  8
0
 62
7
 10
125.8543416693895
 20
106.307501395417
 70
0
  0
VERTEX
  5
19464B
  8
0
 62
7
 10
125.7272175621207
 20
105.5454457713558
 70
0
  0
VERTEX
  5
19464C
  8
0
 62
7
 10
125.6848428596977
 20
104.74084318998391
 70
0
  0
VERTEX
  5
19464D
  8
0
 62
7
 10
125.7272175621207
 20
103.9789598208106
 70
0
  0
VERTEX
  5
19464E
  8
0
 62
7
 10
125.8543416693895
 20
103.17504625899031
 70
0
  0
VERTEX
  5
19464F
  8
0
 62
7
 10
126.06587067172831
 20
102.45502082757631
 70
0
  0
VERTEX
  5
194650
  8
0
 62
7
 10
126.4048682911117
 20
101.735512160826
 70
0
  0
VERTEX
  5
194651
  8
0
 62
7
 10
126.78589610314231
 20
101.0578614318348
 70
0
  0
SEQEND
  5
194652
  8
0
  0
POLYLINE
  5
14F075
  8
0
 62
7
 66
1
 70
0
 10
0
 20
0
 30
0
  0
VERTEX
  5
194653
  8
0
 62
7
 10
127.20895410782
 20
109.9479361962551
 70
0
  0
VERTEX
  5
194654
  8
0
 62
7
 10
127.9710097318811
 20
110.4984628179774
 70
0
  0
VERTEX
  5
194655
  8
0
 62
7
 10
128.73272084616639
 20
110.9220375873187
 70
0
  0
VERTEX
  5
194656
  8
0
 62
7
 10
129.5798703848493
 20
111.2179714847277
 70
0
  0
SEQEND
  5
194657
  8
0
  0
POLYLINE
  5
14F07B
  8
0
 62
7
 66
1
 70
0
 10
0
 20
0
 30
0
  0
VERTEX
  5
194658
  8
0
 62
7
 10
131.82331804483391
 20
98.814413771850283
 70
0
  0
VERTEX
  5
194659
  8
0
 62
7
 10
132.500968773825
 20
98.984084836429943
 70
0
  0
SEQEND
  5
19465A
  8
0
  0
POLYLINE
  5
14F07F
  8
0
 62
7
 66
1
 70
0
 10
0
 20
0
 30
0
  0
VERTEX
  5
19465B
  8
0
 62
7
 10
131.73891314976379
 20
98.856960729161131
 70
0
  0
VERTEX
  5
19465C
  8
0
 62
7
 10
132.45824956162619
 20
99.06848973149998
 70
0
  0
SEQEND
  5
19465D
  8
0
  0
POLYLINE
  5
14F083
  8
0
 62
7
 66
1
 70
0
 10
0
 20
0
 30
0
  0
VERTEX
  5
19465E
  8
0
 62
7
 10
132.45824956162619
 20
99.576469395911445
 70
0
  0
VERTEX
  5
19465F
  8
0
 62
7
 10
132.41587485920331
 20
99.5339224386006
 70
0
  0
SEQEND
  5
194660
  8
0
  0
POLYLINE
  5
14F087
  8
0
 62
7
 66
1
 70
0
 10
0
 20
0
 30
0
  0
VERTEX
  5
194661
  8
0
 62
7
 10
132.41587485920331
 20
99.660874290981482
 70
0
  0
VERTEX
  5
194662
  8
0
 62
7
 10
132.3738446665561
 20
99.660874290981482
 70
0
  0
SEQEND
  5
194663
  8
0
  0
POLYLINE
  5
14F08B
  8
0
 62
7
 66
1
 70
0
 10
0
 20
0
 30
0
  0
VERTEX
  5
194664
  8
0
 62
7
 10
132.45824956162619
 20
99.576469395911445
 70
0
  0
VERTEX
  5
194665
  8
0
 62
7
 10
132.45824956162619
 20
99.576469395911445
 70
0
  0
SEQEND
  5
194666
  8
0
  0
POLYLINE
  5
14F08F
  8
0
 62
7
 66
1
 70
0
 10
0
 20
0
 30
0
  0
VERTEX
  5
194667
  8
0
 62
7
 10
132.45824956162619
 20
99.660874290981482
 70
0
  0
VERTEX
  5
194668
  8
0
 62
7
 10
132.41587485920331
 20
99.660874290981482
 70
0
  0
SEQEND
  5
194669
  8
0
  0
POLYLINE
  5
14F093
  8
0
 62
7
 66
1
 70
0
 10
0
 20
0
 30
0
  0
VERTEX
  5
19466A
  8
0
 62
7
 10
132.54299896647211
 20
99.576469395911445
 70
0
  0
VERTEX
  5
19466B
  8
0
 62
7
 10
132.45824956162619
 20
99.576469395911445
 70
0
  0
SEQEND
  5
19466C
  8
0
  0
POLYLINE
  5
14F097
  8
0
 62
7
 66
1
 70
0
 10
0
 20
0
 30
0
  0
VERTEX
  5
19466D
  8
0
 62
7
 10
132.500968773825
 20
99.703421248292372
 70
0
  0
VERTEX
  5
19466E
  8
0
 62
7
 10
132.500968773825
 20
99.660874290981482
 70
0
  0
VERTEX
  5
19466F
  8
0
 62
7
 10
132.45824956162619
 20
99.660874290981482
 70
0
  0
SEQEND
  5
194670
  8
0
  0
POLYLINE
  5
14F09C
  8
0
 62
7
 66
1
 70
0
 10
0
 20
0
 30
0
  0
VERTEX
  5
194671
  8
0
 62
7
 10
132.62809288109369
 20
99.703421248292372
 70
0
  0
VERTEX
  5
194672
  8
0
 62
7
 10
132.71249777616379
 20
99.745968205603134
 70
0
  0
SEQEND
  5
194673
  8
0
  0
POLYLINE
  5
14F0A0
  8
0
 62
7
 66
1
 70
0
 10
0
 20
0
 30
0
  0
VERTEX
  5
194674
  8
0
 62
7
 10
132.45824956162619
 20
100.33852501997249
 70
0
  0
VERTEX
  5
194675
  8
0
 62
7
 10
132.24706506906321
 20
100.2959780626617
 70
0
  0
VERTEX
  5
194676
  8
0
 62
7
 10
131.99281685452561
 20
100.2959780626617
 70
0
  0
SEQEND
  5
194677
  8
0
  0
POLYLINE
  5
14F0A5
  8
0
 62
7
 66
1
 70
0
 10
0
 20
0
 30
0
  0
VERTEX
  5
194678
  8
0
 62
7
 10
132.71249777616379
 20
99.619016353222264
 70
0
  0
VERTEX
  5
194679
  8
0
 62
7
 10
132.62809288109369
 20
99.619016353222264
 70
0
  0
SEQEND
  5
19467A
  8
0
  0
POLYLINE
  5
14F0A9
  8
0
 62
7
 66
1
 70
0
 10
0
 20
0
 30
0
  0
VERTEX
  5
19467B
  8
0
 62
7
 10
132.66977856396511
 20
99.745968205603134
 70
0
  0
VERTEX
  5
19467C
  8
0
 62
7
 10
132.62809288109369
 20
99.703421248292372
 70
0
  0
SEQEND
  5
19467D
  8
0
  0
POLYLINE
  5
14F0AD
  8
0
 62
7
 66
1
 70
0
 10
0
 20
0
 30
0
  0
VERTEX
  5
19467E
  8
0
 62
7
 10
132.71249777616379
 20
99.619016353222264
 70
0
  0
VERTEX
  5
19467F
  8
0
 62
7
 10
132.71249777616379
 20
99.619016353222264
 70
0
  0
SEQEND
  5
194680
  8
0
  0
POLYLINE
  5
14F0B1
  8
0
 62
7
 66
1
 70
0
 10
0
 20
0
 30
0
  0
VERTEX
  5
194681
  8
0
 62
7
 10
132.71249777616379
 20
99.745968205603134
 70
0
  0
VERTEX
  5
194682
  8
0
 62
7
 10
132.66977856396511
 20
99.745968205603134
 70
0
  0
SEQEND
  5
194683
  8
0
  0
POLYLINE
  5
14F0B5
  8
0
 62
7
 66
1
 70
0
 10
0
 20
0
 30
0
  0
VERTEX
  5
194684
  8
0
 62
7
 10
132.24706506906321
 20
100.2959780626617
 70
0
  0
VERTEX
  5
194685
  8
0
 62
7
 10
132.33146996413319
 20
100.2959780626617
 70
0
  0
SEQEND
  5
194686
  8
0
  0
POLYLINE
  5
14F115
  8
0
 62
7
 66
1
 70
0
 10
0
 20
0
 30
0
  0
VERTEX
  5
194687
  8
0
 62
7
 10
132.62809288109369
 20
99.703421248292372
 70
0
  0
VERTEX
  5
194688
  8
0
 62
7
 10
132.66977856396511
 20
99.703421248292372
 70
0
  0
VERTEX
  5
194689
  8
0
 62
7
 10
132.71249777616379
 20
99.703421248292372
 70
0
  0
VERTEX
  5
19468A
  8
0
 62
7
 10
132.71249777616379
 20
99.745968205603134
 70
0
  0
SEQEND
  5
19468B
  8
0
  0
POLYLINE
  5
14F11B
  8
0
 62
7
 66
1
 70
0
 10
0
 20
0
 30
0
  0
VERTEX
  5
19468C
  8
0
 62
7
 10
132.585373668895
 20
99.872920057984047
 70
0
  0
VERTEX
  5
19468D
  8
0
 62
7
 10
132.54299896647211
 20
99.872920057984047
 70
0
  0
VERTEX
  5
19468E
  8
0
 62
7
 10
132.500968773825
 20
99.830545355561085
 70
0
  0
SEQEND
  5
19468F
  8
0
  0
POLYLINE
  5
14F120
  8
0
 62
7
 66
1
 70
0
 10
0
 20
0
 30
0
  0
VERTEX
  5
194690
  8
0
 62
7
 10
132.3738446665561
 20
99.660874290981482
 70
0
  0
VERTEX
  5
194691
  8
0
 62
7
 10
132.62809288109369
 20
99.703421248292372
 70
0
  0
SEQEND
  5
194692
  8
0
  0
POLYLINE
  5
14F15C
  8
0
 62
7
 66
1
 70
0
 10
0
 20
0
 30
0
  0
VERTEX
  5
194693
  8
0
 62
7
 10
132.33146996413319
 20
100.0000441652528
 70
0
  0
VERTEX
  5
194694
  8
0
 62
7
 10
132.3738446665561
 20
100.0000441652528
 70
0
  0
SEQEND
  5
194695
  8
0
  0
POLYLINE
  5
14F16C
  8
0
 62
7
 66
1
 70
0
 10
0
 20
0
 30
0
  0
VERTEX
  5
194696
  8
0
 62
7
 10
129.113748658197
 20
99.449517543530561
 70
0
  0
VERTEX
  5
194697
  8
0
 62
7
 10
129.833774089611
 20
99.5339224386006
 70
0
  0
SEQEND
  5
194698
  8
0
  0
POLYLINE
  5
14F188
  8
0
 62
7
 66
1
 70
0
 10
0
 20
0
 30
0
  0
VERTEX
  5
194699
  8
0
 62
7
 10
128.73272084616639
 20
99.619016353222264
 70
0
  0
VERTEX
  5
19469A
  8
0
 62
7
 10
129.49477647022761
 20
99.745968205603134
 70
0
  0
SEQEND
  5
19469B
  8
0
  0
POLYLINE
  5
14F1A4
  8
0
 62
7
 66
1
 70
0
 10
0
 20
0
 30
0
  0
VERTEX
  5
19469C
  8
0
 62
7
 10
128.39441224633461
 20
99.830545355561085
 70
0
  0
VERTEX
  5
19469D
  8
0
 62
7
 10
129.1564678703958
 20
99.914950250631165
 70
0
  0
SEQEND
  5
19469E
  8
0
  0
POLYLINE
  5
14F1BC
  8
0
 62
7
 66
1
 70
0
 10
0
 20
0
 30
0
  0
VERTEX
  5
19469F
  8
0
 62
7
 10
128.05610364650281
 20
100.041902103012
 70
0
  0
VERTEX
  5
1946A0
  8
0
 62
7
 10
128.81781476078811
 20
100.16885395539291
 70
0
  0
SEQEND
  5
1946A1
  8
0
  0
POLYLINE
  5
14F1D4
  8
0
 62
7
 66
1
 70
0
 10
0
 20
0
 30
0
  0
VERTEX
  5
1946A2
  8
0
 62
7
 10
127.7594807295423
 20
100.33852501997249
 70
0
  0
VERTEX
  5
1946A3
  8
0
 62
7
 10
128.52153635360341
 20
100.4229299150426
 70
0
  0
SEQEND
  5
1946A4
  8
0
  0
POLYLINE
  5
14F1E4
  8
0
 62
7
 66
1
 70
0
 10
0
 20
0
 30
0
  0
VERTEX
  5
1946A5
  8
0
 62
7
 10
127.4628578125818
 20
100.6349756820451
 70
0
  0
VERTEX
  5
1946A6
  8
0
 62
7
 10
128.22491343664291
 20
100.7193805771152
 70
0
  0
SEQEND
  5
1946A7
  8
0
  0
POLYLINE
  5
14F1F4
  8
0
 62
7
 66
1
 70
0
 10
0
 20
0
 30
0
  0
VERTEX
  5
1946A8
  8
0
 62
7
 10
131.95044215210271
 20
100.2539478700146
 70
0
  0
VERTEX
  5
1946A9
  8
0
 62
7
 10
132.11994096179441
 20
100.2959780626617
 70
0
  0
VERTEX
  5
1946AA
  8
0
 62
7
 10
132.28875075193449
 20
100.2959780626617
 70
0
  0
VERTEX
  5
1946AB
  8
0
 62
7
 10
132.45824956162619
 20
100.3810719772833
 70
0
  0
VERTEX
  5
1946AC
  8
0
 62
7
 10
132.62809288109369
 20
100.4229299150426
 70
0
  0
VERTEX
  5
1946AD
  8
0
 62
7
 10
132.7969026712338
 20
100.46547687235341
 70
0
  0
VERTEX
  5
1946AE
  8
0
 62
7
 10
132.96640148092561
 20
100.5080238296642
 70
0
  0
VERTEX
  5
1946AF
  8
0
 62
7
 10
133.09352558819441
 20
100.59242872473431
 70
0
  0
VERTEX
  5
1946B0
  8
0
 62
7
 10
133.26302439788611
 20
100.6770058746923
 70
0
  0
VERTEX
  5
1946B1
  8
0
 62
7
 10
133.43183418802619
 20
100.76209978931379
 70
0
  0
VERTEX
  5
1946B2
  8
0
 62
7
 10
133.60133299771789
 20
100.88905164169481
 70
0
  0
VERTEX
  5
1946B3
  8
0
 62
7
 10
133.72845710498669
 20
100.9734565367649
 70
0
  0
VERTEX
  5
1946B4
  8
0
 62
7
 10
133.85523670247969
 20
101.0578614318348
 70
0
  0
SEQEND
  5
1946B5
  8
0
  0
POLYLINE
  5
14F207
  8
0
 62
7
 66
1
 70
0
 10
0
 20
0
 30
0
  0
VERTEX
  5
1946B6
  8
0
 62
7
 10
131.99281685452561
 20
100.2539478700146
 70
0
  0
VERTEX
  5
1946B7
  8
0
 62
7
 10
132.11994096179441
 20
100.2539478700146
 70
0
  0
VERTEX
  5
1946B8
  8
0
 62
7
 10
132.24706506906321
 20
100.2959780626617
 70
0
  0
SEQEND
  5
1946B9
  8
0
  0
POLYLINE
  5
14F228
  8
0
 62
7
 66
1
 70
0
 10
0
 20
0
 30
0
  0
VERTEX
  5
1946BA
  8
0
 62
7
 10
135.97190476497141
 20
102.32789672030751
 70
0
  0
VERTEX
  5
1946BB
  8
0
 62
7
 10
136.01427946739429
 20
102.32789672030751
 70
0
  0
SEQEND
  5
1946BC
  8
0
  0
POLYLINE
  5
14F22C
  8
0
 62
7
 66
1
 70
0
 10
0
 20
0
 30
0
  0
VERTEX
  5
1946BD
  8
0
 62
7
 10
125.3889089622888
 20
106.73107616475841
 70
0
  0
VERTEX
  5
1946BE
  8
0
 62
7
 10
125.8543416693895
 20
106.5188581428679
 70
0
  0
SEQEND
  5
1946BF
  8
0
  0
POLYLINE
  5
14F230
  8
0
 62
7
 66
1
 70
0
 10
0
 20
0
 30
0
  0
VERTEX
  5
1946C0
  8
0
 62
7
 10
136.01427946739429
 20
102.32789672030751
 70
0
  0
VERTEX
  5
1946C1
  8
0
 62
7
 10
136.47971217449481
 20
102.15908693016741
 70
0
  0
SEQEND
  5
1946C2
  8
0
  0
POLYLINE
  5
14F234
  8
0
 62
7
 66
1
 70
0
 10
0
 20
0
 30
0
  0
VERTEX
  5
1946C3
  8
0
 62
7
 10
136.56480608911659
 20
102.4129906349291
 70
0
  0
VERTEX
  5
1946C4
  8
0
 62
7
 10
136.0990288722401
 20
102.624519637268
 70
0
  0
SEQEND
  5
1946C5
  8
0
  0
POLYLINE
  5
14F238
  8
0
 62
7
 66
1
 70
0
 10
0
 20
0
 30
0
  0
VERTEX
  5
1946C6
  8
0
 62
7
 10
125.93874656445951
 20
106.8154810598284
 70
0
  0
VERTEX
  5
1946C7
  8
0
 62
7
 10
125.4733138573589
 20
106.9849798695201
 70
0
  0
SEQEND
  5
1946C8
  8
0
  0
POLYLINE
  5
14F23C
  8
0
 62
7
 66
1
 70
0
 10
0
 20
0
 30
0
  0
VERTEX
  5
1946C9
  8
0
 62
7
 10
127.5479517272035
 20
106.43445324779781
 70
0
  0
VERTEX
  5
1946CA
  8
0
 62
7
 10
127.50523251500471
 20
106.43445324779781
 70
0
  0
SEQEND
  5
1946CB
  8
0
  0
POLYLINE
  5
14F240
  8
0
 62
7
 66
1
 70
0
 10
0
 20
0
 30
0
  0
VERTEX
  5
1946CC
  8
0
 62
7
 10
127.5479517272035
 20
106.43445324779781
 70
0
  0
VERTEX
  5
1946CD
  8
0
 62
7
 10
127.5899819198506
 20
106.43445324779781
 70
0
  0
VERTEX
  5
1946CE
  8
0
 62
7
 10
127.5899819198506
 20
106.391906290487
 70
0
  0
SEQEND
  5
1946CF
  8
0
  0
POLYLINE
  5
14F245
  8
0
 62
7
 66
1
 70
0
 10
0
 20
0
 30
0
  0
VERTEX
  5
1946D0
  8
0
 62
7
 10
136.47971217449481
 20
102.15908693016741
 70
0
  0
VERTEX
  5
1946D1
  8
0
 62
7
 10
136.5224313866936
 20
102.15908693016741
 70
0
  0
VERTEX
  5
1946D2
  8
0
 62
7
 10
136.56480608911659
 20
102.0739930155457
 70
0
  0
SEQEND
  5
1946D3
  8
0
  0
POLYLINE
  5
14F24A
  8
0
 62
7
 66
1
 70
0
 10
0
 20
0
 30
0
  0
VERTEX
  5
1946D4
  8
0
 62
7
 10
136.0990288722401
 20
102.624519637268
 70
0
  0
VERTEX
  5
1946D5
  8
0
 62
7
 10
136.056998679593
 20
102.6670665945788
 70
0
  0
VERTEX
  5
1946D6
  8
0
 62
7
 10
136.01427946739429
 20
102.7089245323381
 70
0
  0
SEQEND
  5
1946D7
  8
0
  0
POLYLINE
  5
14F24F
  8
0
 62
7
 66
1
 70
0
 10
0
 20
0
 30
0
  0
VERTEX
  5
1946D8
  8
0
 62
7
 10
132.62809288109369
 20
99.703421248292372
 70
0
  0
VERTEX
  5
1946D9
  8
0
 62
7
 10
132.62809288109369
 20
99.619016353222264
 70
0
  0
SEQEND
  5
1946DA
  8
0
  0
POLYLINE
  5
14F253
  8
0
 62
7
 66
1
 70
0
 10
0
 20
0
 30
0
  0
VERTEX
  5
1946DB
  8
0
 62
7
 10
132.71249777616379
 20
99.745968205603134
 70
0
  0
VERTEX
  5
1946DC
  8
0
 62
7
 10
132.71249777616379
 20
99.660874290981482
 70
0
  0
SEQEND
  5
1946DD
  8
0
  0
POLYLINE
  5
14F257
  8
0
 62
7
 66
1
 70
0
 10
0
 20
0
 30
0
  0
VERTEX
  5
1946DE
  8
0
 62
7
 10
133.89795591467839
 20
98.603057024399376
 70
0
  0
VERTEX
  5
1946DF
  8
0
 62
7
 10
133.89795591467839
 20
98.771866814539436
 70
0
  0
SEQEND
  5
1946E0
  8
0
  0
POLYLINE
  5
14F25B
  8
0
 62
7
 66
1
 70
0
 10
0
 20
0
 30
0
  0
VERTEX
  5
1946E1
  8
0
 62
7
 10
131.82331804483391
 20
110.7950857349378
 70
0
  0
VERTEX
  5
1946E2
  8
0
 62
7
 10
131.73891314976379
 20
111.30306539934929
 70
0
  0
SEQEND
  5
1946E3
  8
0
  0
POLYLINE
  5
14F25F
  8
0
 62
7
 66
1
 70
0
 10
0
 20
0
 30
0
  0
VERTEX
  5
1946E4
  8
0
 62
7
 10
132.41587485920331
 20
99.619016353222264
 70
0
  0
VERTEX
  5
1946E5
  8
0
 62
7
 10
132.3738446665561
 20
99.660874290981482
 70
0
  0
SEQEND
  5
1946E6
  8
0
  0
POLYLINE
  5
14F26B
  8
0
 62
7
 66
1
 70
0
 10
0
 20
0
 30
0
  0
VERTEX
  5
1946E7
  8
0
 62
7
 10
132.83927737365681
 20
110.15998196325759
 70
0
  0
VERTEX
  5
1946E8
  8
0
 62
7
 10
132.83927737365681
 20
110.2443868583277
 70
0
  0
SEQEND
  5
1946E9
  8
0
  0
POLYLINE
  5
14F26F
  8
0
 62
7
 66
1
 70
0
 10
0
 20
0
 30
0
  0
VERTEX
  5
1946EA
  8
0
 62
7
 10
132.75487247858669
 20
110.9220375873187
 70
0
  0
VERTEX
  5
1946EB
  8
0
 62
7
 10
132.75487247858669
 20
110.87949063000789
 70
0
  0
SEQEND
  5
1946EC
  8
0
  0
POLYLINE
  5
14F27F
  8
0
 62
7
 66
1
 70
0
 10
0
 20
0
 30
0
  0
VERTEX
  5
1946ED
  8
0
 62
7
 10
132.41587485920331
 20
124.13002562668019
 70
0
  0
VERTEX
  5
1946EE
  8
0
 62
7
 10
132.41587485920331
 20
123.8759496670305
 70
0
  0
SEQEND
  5
1946EF
  8
0
  0
POLYLINE
  5
14F283
  8
0
 62
7
 66
1
 70
0
 10
0
 20
0
 30
0
  0
VERTEX
  5
1946F0
  8
0
 62
7
 10
133.09352558819441
 20
121.9284359044547
 70
0
  0
VERTEX
  5
1946F1
  8
0
 62
7
 10
133.00877618334849
 20
123.5794990049579
 70
0
  0
SEQEND
  5
1946F2
  8
0
  0
POLYLINE
  5
14F287
  8
0
 62
7
 66
1
 70
0
 10
0
 20
0
 30
0
  0
VERTEX
  5
1946F3
  8
0
 62
7
 10
133.34742929295609
 20
119.13446162274781
 70
0
  0
VERTEX
  5
1946F4
  8
0
 62
7
 10
133.26302439788611
 20
122.2250588214152
 70
0
  0
SEQEND
  5
1946F5
  8
0
  0
POLYLINE
  5
14F28B
  8
0
 62
7
 66
1
 70
0
 10
0
 20
0
 30
0
  0
VERTEX
  5
1946F6
  8
0
 62
7
 10
133.685737892788
 20
123.7908557524088
 70
0
  0
VERTEX
  5
1946F7
  8
0
 62
7
 10
133.685737892788
 20
124.0449317120585
 70
0
  0
SEQEND
  5
1946F8
  8
0
  0
POLYLINE
  5
14F28F
  8
0
 62
7
 66
1
 70
0
 10
0
 20
0
 30
0
  0
VERTEX
  5
1946F9
  8
0
 62
7
 10
132.71249777616379
 20
99.703421248292372
 70
0
  0
VERTEX
  5
1946FA
  8
0
 62
7
 10
132.71249777616379
 20
99.745968205603134
 70
0
  0
SEQEND
  5
1946FB
  8
0
  0
POLYLINE
  5
14F293
  8
0
 62
7
 66
1
 70
0
 10
0
 20
0
 30
0
  0
VERTEX
  5
1946FC
  8
0
 62
7
 10
134.363388621779
 20
118.83783870578731
 70
0
  0
VERTEX
  5
1946FD
  8
0
 62
7
 10
134.363388621779
 20
118.83783870578731
 70
0
  0
VERTEX
  5
1946FE
  8
0
 62
7
 10
134.40610783397781
 20
118.880557917986
 70
0
  0
SEQEND
  5
1946FF
  8
0
  0
POLYLINE
  5
14F298
  8
0
 62
7
 66
1
 70
0
 10
0
 20
0
 30
0
  0
VERTEX
  5
194700
  8
0
 62
7
 10
134.70169722161091
 20
117.3564466698638
 70
0
  0
VERTEX
  5
194701
  8
0
 62
7
 10
134.70169722161091
 20
117.39899362717461
 70
0
  0
VERTEX
  5
194702
  8
0
 62
7
 10
134.74441643380959
 20
117.44085156493379
 70
0
  0
VERTEX
  5
194703
  8
0
 62
7
 10
134.7867911362325
 20
117.5259454795555
 70
0
  0
VERTEX
  5
194704
  8
0
 62
7
 10
134.87154054107839
 20
117.56797567220261
 70
0
  0
VERTEX
  5
194705
  8
0
 62
7
 10
134.95594543614851
 20
117.6530695868243
 70
0
  0
VERTEX
  5
194706
  8
0
 62
7
 10
135.0827250336414
 20
117.6530695868243
 70
0
  0
VERTEX
  5
194707
  8
0
 62
7
 10
135.25222384333321
 20
117.69492752458351
 70
0
  0
VERTEX
  5
194708
  8
0
 62
7
 10
135.3793479506019
 20
117.7374744818943
 70
0
  0
VERTEX
  5
194709
  8
0
 62
7
 10
135.54884676029371
 20
117.7800214392052
 70
0
  0
VERTEX
  5
19470A
  8
0
 62
7
 10
136.26852768193189
 20
117.7800214392052
 70
0
  0
VERTEX
  5
19470B
  8
0
 62
7
 10
136.43802649162359
 20
117.7374744818943
 70
0
  0
VERTEX
  5
19470C
  8
0
 62
7
 10
136.56480608911659
 20
117.69492752458351
 70
0
  0
VERTEX
  5
19470D
  8
0
 62
7
 10
136.6919301963853
 20
117.69492752458351
 70
0
  0
SEQEND
  5
19470E
  8
0
  0
POLYLINE
  5
14F2A8
  8
0
 62
7
 66
1
 70
0
 10
0
 20
0
 30
0
  0
VERTEX
  5
19470F
  8
0
 62
7
 10
134.61729232654079
 20
118.9649628130561
 70
0
  0
VERTEX
  5
194710
  8
0
 62
7
 10
134.6600115387395
 20
119.0500567276777
 70
0
  0
VERTEX
  5
194711
  8
0
 62
7
 10
134.6600115387395
 20
119.091914665437
 70
0
  0
VERTEX
  5
194712
  8
0
 62
7
 10
134.74441643380959
 20
119.13446162274781
 70
0
  0
SEQEND
  5
194713
  8
0
  0
POLYLINE
  5
14F2AE
  8
0
 62
7
 66
1
 70
0
 10
0
 20
0
 30
0
  0
VERTEX
  5
194714
  8
0
 62
7
 10
135.336973248179
 20
117.0599960077912
 70
0
  0
VERTEX
  5
194715
  8
0
 62
7
 10
135.336973248179
 20
117.0599960077912
 70
0
  0
VERTEX
  5
194716
  8
0
 62
7
 10
135.3793479506019
 20
117.14508992241279
 70
0
  0
VERTEX
  5
194717
  8
0
 62
7
 10
135.42206716280069
 20
117.14508992241279
 70
0
  0
VERTEX
  5
194718
  8
0
 62
7
 10
135.463752845672
 20
117.1869478601721
 70
0
  0
VERTEX
  5
194719
  8
0
 62
7
 10
135.54884676029371
 20
117.1869478601721
 70
0
  0
VERTEX
  5
19471A
  8
0
 62
7
 10
135.63325165536369
 20
117.2294948174829
 70
0
  0
VERTEX
  5
19471B
  8
0
 62
7
 10
135.71800106020959
 20
117.2294948174829
 70
0
  0
VERTEX
  5
19471C
  8
0
 62
7
 10
135.8030949748312
 20
117.27204177479371
 70
0
  0
VERTEX
  5
19471D
  8
0
 62
7
 10
136.01427946739429
 20
117.27204177479371
 70
0
  0
VERTEX
  5
19471E
  8
0
 62
7
 10
136.0990288722401
 20
117.2294948174829
 70
0
  0
VERTEX
  5
19471F
  8
0
 62
7
 10
136.183778277086
 20
117.2294948174829
 70
0
  0
VERTEX
  5
194720
  8
0
 62
7
 10
136.26852768193189
 20
117.1869478601721
 70
0
  0
VERTEX
  5
194721
  8
0
 62
7
 10
136.35293257700181
 20
117.1869478601721
 70
0
  0
VERTEX
  5
194722
  8
0
 62
7
 10
136.3953072794248
 20
117.14508992241279
 70
0
  0
SEQEND
  5
194723
  8
0
  0
POLYLINE
  5
14F2BF
  8
0
 62
7
 66
1
 70
0
 10
0
 20
0
 30
0
  0
VERTEX
  5
194724
  8
0
 62
7
 10
135.76037576263249
 20
118.71088685340639
 70
0
  0
VERTEX
  5
194725
  8
0
 62
7
 10
135.76037576263249
 20
118.7534338107173
 70
0
  0
VERTEX
  5
194726
  8
0
 62
7
 10
135.8030949748312
 20
118.7534338107173
 70
0
  0
VERTEX
  5
194727
  8
0
 62
7
 10
135.8030949748312
 20
118.7959807680281
 70
0
  0
VERTEX
  5
194728
  8
0
 62
7
 10
135.84478065770259
 20
118.7959807680281
 70
0
  0
SEQEND
  5
194729
  8
0
  0
POLYLINE
  5
14F2C6
  8
0
 62
7
 66
1
 70
0
 10
0
 20
0
 30
0
  0
VERTEX
  5
19472A
  8
0
 62
7
 10
135.76037576263249
 20
119.2188665178179
 70
0
  0
VERTEX
  5
19472B
  8
0
 62
7
 10
135.8030949748312
 20
119.2188665178179
 70
0
  0
VERTEX
  5
19472C
  8
0
 62
7
 10
135.84478065770259
 20
119.2188665178179
 70
0
  0
SEQEND
  5
19472D
  8
0
  0
POLYLINE
  5
14F2CB
  8
0
 62
7
 66
1
 70
0
 10
0
 20
0
 30
0
  0
VERTEX
  5
19472E
  8
0
 62
7
 10
132.75487247858669
 20
110.87949063000789
 70
0
  0
VERTEX
  5
19472F
  8
0
 62
7
 10
132.585373668895
 20
110.3289640082856
 70
0
  0
SEQEND
  5
194730
  8
0
  0
POLYLINE
  5
14F2CF
  8
0
 62
7
 66
1
 70
0
 10
0
 20
0
 30
0
  0
VERTEX
  5
194731
  8
0
 62
7
 10
129.113748658197
 20
98.898990921808263
 70
0
  0
VERTEX
  5
194732
  8
0
 62
7
 10
128.986969060704
 20
98.390839002508926
 70
0
  0
SEQEND
  5
194733
  8
0
  0
POLYLINE
  5
14F2D3
  8
0
 62
7
 66
1
 70
0
 10
0
 20
0
 30
0
  0
VERTEX
  5
194734
  8
0
 62
7
 10
129.19884257281871
 20
98.263887150128042
 70
0
  0
VERTEX
  5
194735
  8
0
 62
7
 10
129.36799687273461
 20
98.814413771850283
 70
0
  0
SEQEND
  5
194736
  8
0
  0
POLYLINE
  5
14F2D7
  8
0
 62
7
 66
1
 70
0
 10
0
 20
0
 30
0
  0
VERTEX
  5
194737
  8
0
 62
7
 10
132.83927737365681
 20
110.2443868583277
 70
0
  0
VERTEX
  5
194738
  8
0
 62
7
 10
132.96640148092561
 20
110.7950857349378
 70
0
  0
SEQEND
  5
194739
  8
0
  0
POLYLINE
  5
14F2DB
  8
0
 62
7
 66
1
 70
0
 10
0
 20
0
 30
0
  0
VERTEX
  5
19473A
  8
0
 62
7
 10
134.74441643380959
 20
116.128958338702
 70
0
  0
VERTEX
  5
19473B
  8
0
 62
7
 10
134.74441643380959
 20
116.128958338702
 70
0
  0
SEQEND
  5
19473C
  8
0
  0
POLYLINE
  5
14F2DF
  8
0
 62
7
 66
1
 70
0
 10
0
 20
0
 30
0
  0
VERTEX
  5
19473D
  8
0
 62
7
 10
132.585373668895
 20
110.3289640082856
 70
0
  0
VERTEX
  5
19473E
  8
0
 62
7
 10
132.585373668895
 20
110.28710607052641
 70
0
  0
VERTEX
  5
19473F
  8
0
 62
7
 10
132.500968773825
 20
110.28710607052641
 70
0
  0
SEQEND
  5
194740
  8
0
  0
POLYLINE
  5
14F2E4
  8
0
 62
7
 66
1
 70
0
 10
0
 20
0
 30
0
  0
VERTEX
  5
194741
  8
0
 62
7
 10
132.96640148092561
 20
110.7950857349378
 70
0
  0
VERTEX
  5
194742
  8
0
 62
7
 10
133.00877618334849
 20
110.7950857349378
 70
0
  0
VERTEX
  5
194743
  8
0
 62
7
 10
133.05080637599559
 20
110.8369436726971
 70
0
  0
VERTEX
  5
194744
  8
0
 62
7
 10
133.09352558819441
 20
110.8369436726971
 70
0
  0
SEQEND
  5
194745
  8
0
  0
POLYLINE
  5
14F2EA
  8
0
 62
7
 66
1
 70
0
 10
0
 20
0
 30
0
  0
VERTEX
  5
194746
  8
0
 62
7
 10
137.157362903486
 20
118.6690289156472
 70
0
  0
VERTEX
  5
194747
  8
0
 62
7
 10
137.157362903486
 20
118.71088685340639
 70
0
  0
VERTEX
  5
194748
  8
0
 62
7
 10
137.20008211568469
 20
118.7534338107173
 70
0
  0
SEQEND
  5
194749
  8
0
  0
POLYLINE
  5
14F2EF
  8
0
 62
7
 66
1
 70
0
 10
0
 20
0
 30
0
  0
VERTEX
  5
19474A
  8
0
 62
7
 10
127.2940480224416
 20
103.9371018830514
 70
0
  0
VERTEX
  5
19474B
  8
0
 62
7
 10
127.2940480224416
 20
103.9371018830514
 70
0
  0
VERTEX
  5
19474C
  8
0
 62
7
 10
127.2513288102429
 20
103.8520079684297
 70
0
  0
VERTEX
  5
19474D
  8
0
 62
7
 10
127.2513288102429
 20
103.724883861161
 70
0
  0
VERTEX
  5
19474E
  8
0
 62
7
 10
127.2940480224416
 20
103.6830259234017
 70
0
  0
VERTEX
  5
19474F
  8
0
 62
7
 10
127.335733705313
 20
103.6404789660909
 70
0
  0
SEQEND
  5
194750
  8
0
  0
POLYLINE
  5
14F333
  8
0
 62
7
 66
1
 70
0
 10
0
 20
0
 30
0
  0
VERTEX
  5
194751
  8
0
 62
7
 10
128.39441224633461
 20
108.8473997174742
 70
0
  0
VERTEX
  5
194752
  8
0
 62
7
 10
128.85984495343521
 20
109.2709744868156
 70
0
  0
SEQEND
  5
194753
  8
0
  0
POLYLINE
  5
14F337
  8
0
 62
7
 66
1
 70
0
 10
0
 20
0
 30
0
  0
VERTEX
  5
194754
  8
0
 62
7
 10
128.26728813906581
 20
109.8209843438742
 70
0
  0
VERTEX
  5
194755
  8
0
 62
7
 10
127.5899819198506
 20
109.31300467946279
 70
0
  0
SEQEND
  5
194756
  8
0
  0
POLYLINE
  5
14F33B
  8
0
 62
7
 66
1
 70
0
 10
0
 20
0
 30
0
  0
VERTEX
  5
194757
  8
0
 62
7
 10
126.8703009982124
 20
109.6094553415353
 70
0
  0
VERTEX
  5
194758
  8
0
 62
7
 10
126.8703009982124
 20
109.6520022988462
 70
0
  0
VERTEX
  5
194759
  8
0
 62
7
 10
126.95470589328239
 20
109.6520022988462
 70
0
  0
SEQEND
  5
19475A
  8
0
  0
POLYLINE
  5
14F34C
  8
0
 62
7
 66
1
 70
0
 10
0
 20
0
 30
0
  0
VERTEX
  5
19475B
  8
0
 62
7
 10
132.33146996413319
 20
100.2959780626617
 70
0
  0
VERTEX
  5
19475C
  8
0
 62
7
 10
132.71249777616379
 20
100.3810719772833
 70
0
  0
SEQEND
  5
19475D
  8
0
  0
POLYLINE
  5
14F35C
  8
0
 62
7
 66
1
 70
0
 10
0
 20
0
 30
0
  0
VERTEX
  5
19475E
  8
0
 62
7
 10
144.73485542212271
 20
104.1484586305023
 70
0
  0
VERTEX
  5
19475F
  8
0
 62
7
 10
144.90435423181441
 20
104.19100558781319
 70
0
  0
VERTEX
  5
194760
  8
0
 62
7
 10
145.07385304150611
 20
104.2328635255724
 70
0
  0
VERTEX
  5
194761
  8
0
 62
7
 10
145.15825793657621
 20
104.2328635255724
 70
0
  0
VERTEX
  5
194762
  8
0
 62
7
 10
145.20097714877491
 20
104.2754104828832
 70
0
  0
SEQEND
  5
194763
  8
0
  0
POLYLINE
  5
14F373
  8
0
 62
7
 66
1
 70
0
 10
0
 20
0
 30
0
  0
VERTEX
  5
194764
  8
0
 62
7
 10
141.17882551635461
 20
103.428949963752
 70
0
  0
VERTEX
  5
194765
  8
0
 62
7
 10
144.73485542212271
 20
104.1484586305023
 70
0
  0
SEQEND
  5
194766
  8
0
  0
POLYLINE
  5
14F377
  8
0
 62
7
 66
1
 70
0
 10
0
 20
0
 30
0
  0
VERTEX
  5
194767
  8
0
 62
7
 10
141.2215447285534
 20
103.47098015639919
 70
0
  0
VERTEX
  5
194768
  8
0
 62
7
 10
144.65045052705261
 20
104.1484586305023
 70
0
  0
SEQEND
  5
194769
  8
0
  0
POLYLINE
  5
14F37B
  8
0
 62
7
 66
1
 70
0
 10
0
 20
0
 30
0
  0
VERTEX
  5
19476A
  8
0
 62
7
 10
142.2375040573763
 20
103.89438267085271
 70
0
  0
VERTEX
  5
19476B
  8
0
 62
7
 10
142.491407762138
 20
103.9371018830514
 70
0
  0
SEQEND
  5
19476C
  8
0
  0
POLYLINE
  5
14F37F
  8
0
 62
7
 66
1
 70
0
 10
0
 20
0
 30
0
  0
VERTEX
  5
19476D
  8
0
 62
7
 10
143.0839645765075
 20
104.0640537354323
 70
0
  0
VERTEX
  5
19476E
  8
0
 62
7
 10
143.16905849112911
 20
104.0640537354323
 70
0
  0
SEQEND
  5
19476F
  8
0
  0
POLYLINE
  5
14F387
  8
0
 62
7
 66
1
 70
0
 10
0
 20
0
 30
0
  0
VERTEX
  5
194770
  8
0
 62
7
 10
136.6495554939624
 20
102.4129906349291
 70
0
  0
VERTEX
  5
194771
  8
0
 62
7
 10
136.6495554939624
 20
102.4129906349291
 70
0
  0
SEQEND
  5
194772
  8
0
  0
POLYLINE
  5
14F38B
  8
0
 62
7
 66
1
 70
0
 10
0
 20
0
 30
0
  0
VERTEX
  5
194773
  8
0
 62
7
 10
126.4468984837589
 20
100.4229299150426
 70
0
  0
VERTEX
  5
194774
  8
0
 62
7
 10
126.4468984837589
 20
100.3810719772833
 70
0
  0
SEQEND
  5
194775
  8
0
  0
POLYLINE
  5
14F38F
  8
0
 62
7
 66
1
 70
0
 10
0
 20
0
 30
0
  0
VERTEX
  5
194776
  8
0
 62
7
 10
127.20895410782
 20
100.930909579454
 70
0
  0
VERTEX
  5
194777
  8
0
 62
7
 10
127.9710097318811
 20
101.0160034940757
 70
0
  0
SEQEND
  5
194778
  8
0
  0
POLYLINE
  5
14F393
  8
0
 62
7
 66
1
 70
0
 10
0
 20
0
 30
0
  0
VERTEX
  5
194779
  8
0
 62
7
 10
126.95470589328239
 20
101.2700794537254
 70
0
  0
VERTEX
  5
19477A
  8
0
 62
7
 10
127.7167615173435
 20
101.3544843487954
 70
0
  0
SEQEND
  5
19477B
  8
0
  0
POLYLINE
  5
14F3A3
  8
0
 62
7
 66
1
 70
0
 10
0
 20
0
 30
0
  0
VERTEX
  5
19477C
  8
0
 62
7
 10
126.7435214007194
 20
101.650935010868
 70
0
  0
VERTEX
  5
19477D
  8
0
 62
7
 10
127.50523251500471
 20
101.6929652035152
 70
0
  0
SEQEND
  5
19477E
  8
0
  0
POLYLINE
  5
14F3B3
  8
0
 62
7
 66
1
 70
0
 10
0
 20
0
 30
0
  0
VERTEX
  5
19477F
  8
0
 62
7
 10
126.5319923983805
 20
102.03196282289861
 70
0
  0
VERTEX
  5
194780
  8
0
 62
7
 10
127.2940480224416
 20
102.0739930155457
 70
0
  0
SEQEND
  5
194781
  8
0
  0
POLYLINE
  5
14F3EB
  8
0
 62
7
 66
1
 70
0
 10
0
 20
0
 30
0
  0
VERTEX
  5
194782
  8
0
 62
7
 10
144.90435423181441
 20
104.2328635255724
 70
0
  0
VERTEX
  5
194783
  8
0
 62
7
 10
139.6974334804311
 20
103.724883861161
 70
0
  0
SEQEND
  5
194784
  8
0
  0
POLYLINE
  5
14F3EF
  8
0
 62
7
 66
1
 70
0
 10
0
 20
0
 30
0
  0
VERTEX
  5
194785
  8
0
 62
7
 10
145.1158832341533
 20
104.2754104828832
 70
0
  0
VERTEX
  5
194786
  8
0
 62
7
 10
139.739808182854
 20
103.8099777757826
 70
0
  0
SEQEND
  5
194787
  8
0
  0
POLYLINE
  5
14F3F3
  8
0
 62
7
 66
1
 70
0
 10
0
 20
0
 30
0
  0
VERTEX
  5
194788
  8
0
 62
7
 10
136.6495554939624
 20
102.4129906349291
 70
0
  0
VERTEX
  5
194789
  8
0
 62
7
 10
136.56480608911659
 20
102.4129906349291
 70
0
  0
SEQEND
  5
19478A
  8
0
  0
POLYLINE
  5
14F3F7
  8
0
 62
7
 66
1
 70
0
 10
0
 20
0
 30
0
  0
VERTEX
  5
19478B
  8
0
 62
7
 10
136.01427946739429
 20
102.7940184469597
 70
0
  0
VERTEX
  5
19478C
  8
0
 62
7
 10
136.77633509145539
 20
102.835876384719
 70
0
  0
SEQEND
  5
19478D
  8
0
  0
POLYLINE
  5
14F3FB
  8
0
 62
7
 66
1
 70
0
 10
0
 20
0
 30
0
  0
VERTEX
  5
19478E
  8
0
 62
7
 10
142.3642836548693
 20
103.9371018830514
 70
0
  0
VERTEX
  5
19478F
  8
0
 62
7
 10
142.491407762138
 20
103.9371018830514
 70
0
  0
SEQEND
  5
194790
  8
0
  0
POLYLINE
  5
14F3FF
  8
0
 62
7
 66
1
 70
0
 10
0
 20
0
 30
0
  0
VERTEX
  5
194791
  8
0
 62
7
 10
125.1766909403984
 20
103.59793200878011
 70
0
  0
VERTEX
  5
194792
  8
0
 62
7
 10
125.09228604532819
 20
103.59793200878011
 70
0
  0
VERTEX
  5
194793
  8
0
 62
7
 10
125.09228604532819
 20
103.6404789660909
 70
0
  0
VERTEX
  5
194794
  8
0
 62
7
 10
125.0499113429054
 20
103.6830259234017
 70
0
  0
SEQEND
  5
194795
  8
0
  0
POLYLINE
  5
14F4DD
  8
0
 62
7
 66
1
 70
0
 10
0
 20
0
 30
0
  0
VERTEX
  5
194796
  8
0
 62
7
 10
131.82331804483391
 20
110.7950857349378
 70
0
  0
VERTEX
  5
194797
  8
0
 62
7
 10
131.82331804483391
 20
110.7950857349378
 70
0
  0
SEQEND
  5
194798
  8
0
  0
POLYLINE
  5
14F569
  8
0
 62
7
 66
1
 70
0
 10
0
 20
0
 30
0
  0
VERTEX
  5
194799
  8
0
 62
7
 10
136.01427946739429
 20
102.7089245323381
 70
0
  0
VERTEX
  5
19479A
  8
0
 62
7
 10
136.01427946739429
 20
102.7940184469597
 70
0
  0
SEQEND
  5
19479B
  8
0
  0
POLYLINE
  5
14F57D
  8
0
 62
7
 66
1
 70
0
 10
0
 20
0
 30
0
  0
VERTEX
  5
19479C
  8
0
 62
7
 10
133.72845710498669
 20
122.7748964235859
 70
0
  0
VERTEX
  5
19479D
  8
0
 62
7
 10
133.72845710498669
 20
123.70645085733879
 70
0
  0
SEQEND
  5
19479E
  8
0
  0
POLYLINE
  5
14F585
  8
0
 62
7
 66
1
 70
0
 10
0
 20
0
 30
0
  0
VERTEX
  5
19479F
  8
0
 62
7
 10
134.5749176241178
 20
100.041902103012
 70
0
  0
VERTEX
  5
1947A0
  8
0
 62
7
 10
134.5749176241178
 20
100.1269960176337
 70
0
  0
VERTEX
  5
1947A1
  8
0
 62
7
 10
134.61729232654079
 20
100.1269960176337
 70
0
  0
VERTEX
  5
1947A2
  8
0
 62
7
 10
134.61729232654079
 20
100.16885395539291
 70
0
  0
SEQEND
  5
1947A3
  8
0
  0
POLYLINE
  5
14F58B
  8
0
 62
7
 66
1
 70
0
 10
0
 20
0
 30
0
  0
VERTEX
  5
1947A4
  8
0
 62
7
 10
134.74441643380959
 20
116.55201634337971
 70
0
  0
VERTEX
  5
1947A5
  8
0
 62
7
 10
134.74441643380959
 20
116.128958338702
 70
0
  0
SEQEND
  5
1947A6
  8
0
  0
POLYLINE
  5
14F58F
  8
0
 62
7
 66
1
 70
0
 10
0
 20
0
 30
0
  0
VERTEX
  5
1947A7
  8
0
 62
7
 10
135.04103935077
 20
108.2550151579927
 70
0
  0
VERTEX
  5
1947A8
  8
0
 62
7
 10
135.04103935077
 20
108.29687309575191
 70
0
  0
VERTEX
  5
1947A9
  8
0
 62
7
 10
135.0827250336414
 20
108.3394200530628
 70
0
  0
VERTEX
  5
1947AA
  8
0
 62
7
 10
135.12544424584021
 20
108.3819670103736
 70
0
  0
SEQEND
  5
1947AB
  8
0
  0
POLYLINE
  5
14F595
  8
0
 62
7
 66
1
 70
0
 10
0
 20
0
 30
0
  0
VERTEX
  5
1947AC
  8
0
 62
7
 10
135.336973248179
 20
109.0589287198131
 70
0
  0
VERTEX
  5
1947AD
  8
0
 62
7
 10
135.336973248179
 20
108.974523824743
 70
0
  0
VERTEX
  5
1947AE
  8
0
 62
7
 10
135.29494305553189
 20
108.9319768674322
 70
0
  0
SEQEND
  5
1947AF
  8
0
  0
POLYLINE
  5
14F59E
  8
0
 62
7
 66
1
 70
0
 10
0
 20
0
 30
0
  0
VERTEX
  5
1947B0
  8
0
 62
7
 10
134.7867911362325
 20
99.322393436261777
 70
0
  0
VERTEX
  5
1947B1
  8
0
 62
7
 10
134.7867911362325
 20
99.280018733838844
 70
0
  0
VERTEX
  5
1947B2
  8
0
 62
7
 10
134.74441643380959
 20
99.237988541191683
 70
0
  0
VERTEX
  5
1947B3
  8
0
 62
7
 10
134.74441643380959
 20
99.195441583880864
 70
0
  0
SEQEND
  5
1947B4
  8
0
  0
POLYLINE
  5
14F5A4
  8
0
 62
7
 66
1
 70
0
 10
0
 20
0
 30
0
  0
VERTEX
  5
1947B5
  8
0
 62
7
 10
135.167818948263
 20
125.441918852912
 70
0
  0
VERTEX
  5
1947B6
  8
0
 62
7
 10
135.167818948263
 20
125.52701276753361
 70
0
  0
SEQEND
  5
1947B7
  8
0
  0
POLYLINE
  5
14F5AC
  8
0
 62
7
 66
1
 70
0
 10
0
 20
0
 30
0
  0
VERTEX
  5
1947B8
  8
0
 62
7
 10
134.278983726709
 20
125.27310906277189
 70
0
  0
VERTEX
  5
1947B9
  8
0
 62
7
 10
134.278983726709
 20
124.9339391885005
 70
0
  0
SEQEND
  5
1947BA
  8
0
  0
POLYLINE
  5
14F5B0
  8
0
 62
7
 66
1
 70
0
 10
0
 20
0
 30
0
  0
VERTEX
  5
1947BB
  8
0
 62
7
 10
134.363388621779
 20
118.3724059986867
 70
0
  0
VERTEX
  5
1947BC
  8
0
 62
7
 10
134.363388621779
 20
118.83783870578731
 70
0
  0
SEQEND
  5
1947BD
  8
0
  0
POLYLINE
  5
14F5B4
  8
0
 62
7
 66
1
 70
0
 10
0
 20
0
 30
0
  0
VERTEX
  5
1947BE
  8
0
 62
7
 10
134.70169722161091
 20
117.3564466698638
 70
0
  0
VERTEX
  5
1947BF
  8
0
 62
7
 10
134.70169722161091
 20
117.0599960077912
 70
0
  0
SEQEND
  5
1947C0
  8
0
  0
POLYLINE
  5
14F5B8
  8
0
 62
7
 66
1
 70
0
 10
0
 20
0
 30
0
  0
VERTEX
  5
1947C1
  8
0
 62
7
 10
134.74441643380959
 20
116.9328719005224
 70
0
  0
VERTEX
  5
1947C2
  8
0
 62
7
 10
134.74441643380959
 20
116.8059200481415
 70
0
  0
SEQEND
  5
1947C3
  8
0
  0
POLYLINE
  5
14F5BC
  8
0
 62
7
 66
1
 70
0
 10
0
 20
0
 30
0
  0
VERTEX
  5
1947C4
  8
0
 62
7
 10
134.74441643380959
 20
119.13446162274781
 70
0
  0
VERTEX
  5
1947C5
  8
0
 62
7
 10
134.74441643380959
 20
118.9231048752968
 70
0
  0
SEQEND
  5
1947C6
  8
0
  0
POLYLINE
  5
14F5C0
  8
0
 62
7
 66
1
 70
0
 10
0
 20
0
 30
0
  0
VERTEX
  5
1947C7
  8
0
 62
7
 10
134.91391524350129
 20
118.880557917986
 70
0
  0
VERTEX
  5
1947C8
  8
0
 62
7
 10
134.91391524350129
 20
118.4995301059555
 70
0
  0
SEQEND
  5
1947C9
  8
0
  0
POLYLINE
  5
14F5C4
  8
0
 62
7
 66
1
 70
0
 10
0
 20
0
 30
0
  0
VERTEX
  5
1947CA
  8
0
 62
7
 10
135.04103935077
 20
119.2188665178179
 70
0
  0
VERTEX
  5
1947CB
  8
0
 62
7
 10
135.04103935077
 20
119.0500567276777
 70
0
  0
SEQEND
  5
1947CC
  8
0
  0
POLYLINE
  5
14F5C8
  8
0
 62
7
 66
1
 70
0
 10
0
 20
0
 30
0
  0
VERTEX
  5
1947CD
  8
0
 62
7
 10
135.12544424584021
 20
125.6539646199145
 70
0
  0
VERTEX
  5
1947CE
  8
0
 62
7
 10
135.12544424584021
 20
125.4844658102228
 70
0
  0
SEQEND
  5
1947CF
  8
0
  0
POLYLINE
  5
14F5CC
  8
0
 62
7
 66
1
 70
0
 10
0
 20
0
 30
0
  0
VERTEX
  5
1947D0
  8
0
 62
7
 10
135.167818948263
 20
119.1770085800586
 70
0
  0
VERTEX
  5
1947D1
  8
0
 62
7
 10
135.167818948263
 20
118.9649628130561
 70
0
  0
SEQEND
  5
1947D2
  8
0
  0
POLYLINE
  5
14F5D0
  8
0
 62
7
 66
1
 70
0
 10
0
 20
0
 30
0
  0
VERTEX
  5
1947D3
  8
0
 62
7
 10
135.25222384333321
 20
125.441918852912
 70
0
  0
VERTEX
  5
1947D4
  8
0
 62
7
 10
135.25222384333321
 20
125.10343799819221
 70
0
  0
SEQEND
  5
1947D5
  8
0
  0
POLYLINE
  5
14F5D4
  8
0
 62
7
 66
1
 70
0
 10
0
 20
0
 30
0
  0
VERTEX
  5
1947D6
  8
0
 62
7
 10
135.25222384333321
 20
119.3459906250867
 70
0
  0
VERTEX
  5
1947D7
  8
0
 62
7
 10
135.25222384333321
 20
119.13446162274781
 70
0
  0
SEQEND
  5
1947D8
  8
0
  0
POLYLINE
  5
14F5D8
  8
0
 62
7
 66
1
 70
0
 10
0
 20
0
 30
0
  0
VERTEX
  5
1947D9
  8
0
 62
7
 10
135.336973248179
 20
125.0190331031222
 70
0
  0
VERTEX
  5
1947DA
  8
0
 62
7
 10
135.336973248179
 20
124.67986322885081
 70
0
  0
SEQEND
  5
1947DB
  8
0
  0
POLYLINE
  5
14F5E4
  8
0
 62
7
 66
1
 70
0
 10
0
 20
0
 30
0
  0
VERTEX
  5
1947DC
  8
0
 62
7
 10
135.20984914091019
 20
124.5110534387107
 70
0
  0
VERTEX
  5
1947DD
  8
0
 62
7
 10
135.167818948263
 20
123.2410181502382
 70
0
  0
SEQEND
  5
1947DE
  8
0
  0
POLYLINE
  5
14F608
  8
0
 62
7
 66
1
 70
0
 10
0
 20
0
 30
0
  0
VERTEX
  5
1947DF
  8
0
 62
7
 10
134.74441643380959
 20
119.13446162274781
 70
0
  0
VERTEX
  5
1947E0
  8
0
 62
7
 10
134.74441643380959
 20
119.2188665178179
 70
0
  0
VERTEX
  5
1947E1
  8
0
 62
7
 10
134.7867911362325
 20
119.2188665178179
 70
0
  0
VERTEX
  5
1947E2
  8
0
 62
7
 10
134.7867911362325
 20
119.26158573001661
 70
0
  0
VERTEX
  5
1947E3
  8
0
 62
7
 10
134.8288213288796
 20
119.26158573001661
 70
0
  0
SEQEND
  5
1947E4
  8
0
  0
POLYLINE
  5
14F617
  8
0
 62
7
 66
1
 70
0
 10
0
 20
0
 30
0
  0
VERTEX
  5
1947E5
  8
0
 62
7
 10
135.42206716280069
 20
117.14508992241279
 70
0
  0
VERTEX
  5
1947E6
  8
0
 62
7
 10
135.3793479506019
 20
116.84846700545231
 70
0
  0
VERTEX
  5
1947E7
  8
0
 62
7
 10
135.336973248179
 20
116.55201634337971
 70
0
  0
VERTEX
  5
1947E8
  8
0
 62
7
 10
135.29494305553189
 20
116.2560824459708
 70
0
  0
VERTEX
  5
1947E9
  8
0
 62
7
 10
135.25222384333321
 20
116.00200648632121
 70
0
  0
VERTEX
  5
1947EA
  8
0
 62
7
 10
135.20984914091019
 20
115.70555582424851
 70
0
  0
VERTEX
  5
1947EB
  8
0
 62
7
 10
135.167818948263
 20
115.4089329072881
 70
0
  0
VERTEX
  5
1947EC
  8
0
 62
7
 10
135.12544424584021
 20
115.15485694763839
 70
0
  0
VERTEX
  5
1947ED
  8
0
 62
7
 10
135.04103935077
 20
114.9009532428766
 70
0
  0
VERTEX
  5
1947EE
  8
0
 62
7
 10
134.99832013857139
 20
114.6468772832269
 70
0
  0
VERTEX
  5
1947EF
  8
0
 62
7
 10
134.91391524350129
 20
114.3929735784651
 70
0
  0
VERTEX
  5
1947F0
  8
0
 62
7
 10
134.87154054107839
 20
114.1814445761263
 70
0
  0
VERTEX
  5
1947F1
  8
0
 62
7
 10
134.8288213288796
 20
113.9700878286754
 70
0
  0
VERTEX
  5
1947F2
  8
0
 62
7
 10
134.74441643380959
 20
113.7578698067849
 70
0
  0
VERTEX
  5
1947F3
  8
0
 62
7
 10
134.70169722161091
 20
113.58906001664479
 70
0
  0
VERTEX
  5
1947F4
  8
0
 62
7
 10
134.61729232654079
 20
113.3770142496423
 70
0
  0
VERTEX
  5
1947F5
  8
0
 62
7
 10
134.5749176241178
 20
113.2080322046142
 70
0
  0
VERTEX
  5
1947F6
  8
0
 62
7
 10
134.49051272904779
 20
113.0810803522333
 70
0
  0
VERTEX
  5
1947F7
  8
0
 62
7
 10
134.44779351684909
 20
112.9115815425416
 70
0
  0
VERTEX
  5
1947F8
  8
0
 62
7
 10
134.363388621779
 20
112.7844574352728
 70
0
  0
VERTEX
  5
1947F9
  8
0
 62
7
 10
134.32101391935609
 20
112.657505582892
 70
0
  0
VERTEX
  5
1947FA
  8
0
 62
7
 10
134.278983726709
 20
112.57310068782191
 70
0
  0
VERTEX
  5
1947FB
  8
0
 62
7
 10
134.19388981208729
 20
112.44597658055309
 70
0
  0
VERTEX
  5
1947FC
  8
0
 62
7
 10
134.15185961944019
 20
112.3608826659314
 70
0
  0
VERTEX
  5
1947FD
  8
0
 62
7
 10
134.10948491701731
 20
112.27647777086141
 70
0
  0
VERTEX
  5
1947FE
  8
0
 62
7
 10
134.02508002194719
 20
112.1920728757913
 70
0
  0
VERTEX
  5
1947FF
  8
0
 62
7
 10
133.98236080974851
 20
112.1069789611696
 70
0
  0
VERTEX
  5
194800
  8
0
 62
7
 10
133.89795591467839
 20
112.0651210234104
 70
0
  0
VERTEX
  5
194801
  8
0
 62
7
 10
133.85523670247969
 20
111.9798548539009
 70
0
  0
VERTEX
  5
194802
  8
0
 62
7
 10
133.85523670247969
 20
111.9379969161417
 70
0
  0
VERTEX
  5
194803
  8
0
 62
7
 10
133.77083180740959
 20
111.8954499588308
 70
0
  0
VERTEX
  5
194804
  8
0
 62
7
 10
133.72845710498669
 20
111.85290300152
 70
0
  0
VERTEX
  5
194805
  8
0
 62
7
 10
133.685737892788
 20
111.8110450637608
 70
0
  0
VERTEX
  5
194806
  8
0
 62
7
 10
133.6440522099166
 20
111.8110450637608
 70
0
  0
VERTEX
  5
194807
  8
0
 62
7
 10
133.60133299771789
 20
111.7684981064499
 70
0
  0
VERTEX
  5
194808
  8
0
 62
7
 10
133.558958295295
 20
111.72595114913911
 70
0
  0
VERTEX
  5
194809
  8
0
 62
7
 10
133.47455340022481
 20
111.72595114913911
 70
0
  0
VERTEX
  5
19480A
  8
0
 62
7
 10
133.389803995379
 20
111.6840932113799
 70
0
  0
SEQEND
  5
19480B
  8
0
  0
POLYLINE
  5
14F667
  8
0
 62
7
 66
1
 70
0
 10
0
 20
0
 30
0
  0
VERTEX
  5
19480C
  8
0
 62
7
 10
136.47971217449481
 20
117.0599960077912
 70
0
  0
VERTEX
  5
19480D
  8
0
 62
7
 10
136.47971217449481
 20
117.017965815144
 70
0
  0
VERTEX
  5
19480E
  8
0
 62
7
 10
136.43802649162359
 20
116.97541885783321
 70
0
  0
VERTEX
  5
19480F
  8
0
 62
7
 10
136.3953072794248
 20
116.9328719005224
 70
0
  0
VERTEX
  5
194810
  8
0
 62
7
 10
136.35293257700181
 20
116.9328719005224
 70
0
  0
VERTEX
  5
194811
  8
0
 62
7
 10
136.26852768193189
 20
116.8910139627632
 70
0
  0
VERTEX
  5
194812
  8
0
 62
7
 10
136.183778277086
 20
116.8910139627632
 70
0
  0
SEQEND
  5
194813
  8
0
  0
POLYLINE
  5
14F670
  8
0
 62
7
 66
1
 70
0
 10
0
 20
0
 30
0
  0
VERTEX
  5
194814
  8
0
 62
7
 10
131.01888771834979
 20
98.603057024399376
 70
0
  0
VERTEX
  5
194815
  8
0
 62
7
 10
130.93448282327981
 20
98.390839002508926
 70
0
  0
SEQEND
  5
194816
  8
0
  0
POLYLINE
  5
14F674
  8
0
 62
7
 66
1
 70
0
 10
0
 20
0
 30
0
  0
VERTEX
  5
194817
  8
0
 62
7
 10
128.986969060704
 20
98.390839002508926
 70
0
  0
VERTEX
  5
194818
  8
0
 62
7
 10
128.94493886805691
 20
98.34898106474968
 70
0
  0
VERTEX
  5
194819
  8
0
 62
7
 10
128.9022196558582
 20
98.34898106474968
 70
0
  0
VERTEX
  5
19481A
  8
0
 62
7
 10
128.85984495343521
 20
98.306434107438875
 70
0
  0
SEQEND
  5
19481B
  8
0
  0
POLYLINE
  5
14F67A
  8
0
 62
7
 66
1
 70
0
 10
0
 20
0
 30
0
  0
VERTEX
  5
19481C
  8
0
 62
7
 10
126.8703009982124
 20
100.8039577270732
 70
0
  0
VERTEX
  5
19481D
  8
0
 62
7
 10
126.8703009982124
 20
100.8039577270732
 70
0
  0
SEQEND
  5
19481E
  8
0
  0
POLYLINE
  5
14F67E
  8
0
 62
7
 66
1
 70
0
 10
0
 20
0
 30
0
  0
VERTEX
  5
19481F
  8
0
 62
7
 10
134.363388621779
 20
111.3449233371086
 70
0
  0
VERTEX
  5
194820
  8
0
 62
7
 10
134.40610783397781
 20
111.43001725173021
 70
0
  0
VERTEX
  5
194821
  8
0
 62
7
 10
134.53288743147081
 20
111.4718751894894
 70
0
  0
VERTEX
  5
194822
  8
0
 62
7
 10
134.61729232654079
 20
111.59899929675819
 70
0
  0
VERTEX
  5
194823
  8
0
 62
7
 10
134.6600115387395
 20
111.6840932113799
 70
0
  0
VERTEX
  5
194824
  8
0
 62
7
 10
134.74441643380959
 20
111.8110450637608
 70
0
  0
VERTEX
  5
194825
  8
0
 62
7
 10
134.8288213288796
 20
111.9379969161417
 70
0
  0
VERTEX
  5
194826
  8
0
 62
7
 10
134.91391524350129
 20
112.0651210234104
 70
0
  0
VERTEX
  5
194827
  8
0
 62
7
 10
134.99832013857139
 20
112.1920728757913
 70
0
  0
VERTEX
  5
194828
  8
0
 62
7
 10
135.04103935077
 20
112.3608826659314
 70
0
  0
VERTEX
  5
194829
  8
0
 62
7
 10
135.12544424584021
 20
112.4878345183123
 70
0
  0
VERTEX
  5
19482A
  8
0
 62
7
 10
135.20984914091019
 20
112.70005254020271
 70
0
  0
VERTEX
  5
19482B
  8
0
 62
7
 10
135.29494305553189
 20
112.86886233034291
 70
0
  0
VERTEX
  5
19482C
  8
0
 62
7
 10
135.3793479506019
 20
113.0385333949225
 70
0
  0
VERTEX
  5
19482D
  8
0
 62
7
 10
135.42206716280069
 20
113.2498901423735
 70
0
  0
VERTEX
  5
19482E
  8
0
 62
7
 10
135.5064720578707
 20
113.4621081642639
 70
0
  0
VERTEX
  5
19482F
  8
0
 62
7
 10
135.59087695294079
 20
113.71601186902571
 70
0
  0
VERTEX
  5
194830
  8
0
 62
7
 10
135.63325165536369
 20
113.9275408713645
 70
0
  0
VERTEX
  5
194831
  8
0
 62
7
 10
135.71800106020959
 20
114.1814445761263
 70
0
  0
VERTEX
  5
194832
  8
0
 62
7
 10
135.8030949748312
 20
114.4780674930868
 70
0
  0
VERTEX
  5
194833
  8
0
 62
7
 10
135.84478065770259
 20
114.7319711978485
 70
0
  0
VERTEX
  5
194834
  8
0
 62
7
 10
135.88749986990121
 20
114.98604715749821
 70
0
  0
VERTEX
  5
194835
  8
0
 62
7
 10
135.97190476497141
 20
115.28198105490721
 70
0
  0
VERTEX
  5
194836
  8
0
 62
7
 10
136.01427946739429
 20
115.57843171697969
 70
0
  0
VERTEX
  5
194837
  8
0
 62
7
 10
136.056998679593
 20
115.8750546339402
 70
0
  0
VERTEX
  5
194838
  8
0
 62
7
 10
136.0990288722401
 20
116.1709885313491
 70
0
  0
VERTEX
  5
194839
  8
0
 62
7
 10
136.14140357466309
 20
116.5099861507326
 70
0
  0
VERTEX
  5
19483A
  8
0
 62
7
 10
136.183778277086
 20
116.8059200481415
 70
0
  0
VERTEX
  5
19483B
  8
0
 62
7
 10
136.2258084697331
 20
117.102542965102
 70
0
  0
VERTEX
  5
19483C
  8
0
 62
7
 10
136.2258084697331
 20
117.1869478601721
 70
0
  0
SEQEND
  5
19483D
  8
0
  0
POLYLINE
  5
14F6DA
  8
0
 62
7
 66
1
 70
0
 10
0
 20
0
 30
0
  0
VERTEX
  5
19483E
  8
0
 62
7
 10
128.85984495343521
 20
109.2709744868156
 70
0
  0
VERTEX
  5
19483F
  8
0
 62
7
 10
129.41037157515751
 20
109.5669083842245
 70
0
  0
SEQEND
  5
194840
  8
0
  0
POLYLINE
  5
14F6DE
  8
0
 62
7
 66
1
 70
0
 10
0
 20
0
 30
0
  0
VERTEX
  5
194841
  8
0
 62
7
 10
129.79139938718811
 20
110.6254146703583
 70
0
  0
VERTEX
  5
194842
  8
0
 62
7
 10
129.66427527991931
 20
110.5410097752882
 70
0
  0
VERTEX
  5
194843
  8
0
 62
7
 10
129.28324746788871
 20
110.28710607052641
 70
0
  0
SEQEND
  5
194844
  8
0
  0
POLYLINE
  5
14F6E3
  8
0
 62
7
 66
1
 70
0
 10
0
 20
0
 30
0
  0
VERTEX
  5
194845
  8
0
 62
7
 10
141.2639194309763
 20
105.2915420665941
 70
0
  0
VERTEX
  5
194846
  8
0
 62
7
 10
141.2639194309763
 20
105.2915420665941
 70
0
  0
VERTEX
  5
194847
  8
0
 62
7
 10
141.3483243260464
 20
105.3340890239049
 70
0
  0
VERTEX
  5
194848
  8
0
 62
7
 10
141.3910435382451
 20
105.3759469616641
 70
0
  0
VERTEX
  5
194849
  8
0
 62
7
 10
141.3910435382451
 20
105.46104087628579
 70
0
  0
VERTEX
  5
19484A
  8
0
 62
7
 10
141.4327292211164
 20
105.502898814045
 70
0
  0
VERTEX
  5
19484B
  8
0
 62
7
 10
141.47544843331511
 20
105.6300229213138
 70
0
  0
VERTEX
  5
19484C
  8
0
 62
7
 10
141.47544843331511
 20
105.8420686883163
 70
0
  0
SEQEND
  5
19484D
  8
0
  0
POLYLINE
  5
14F6ED
  8
0
 62
7
 66
1
 70
0
 10
0
 20
0
 30
0
  0
VERTEX
  5
19484E
  8
0
 62
7
 10
141.1367953237075
 20
105.2489951092832
 70
0
  0
VERTEX
  5
19484F
  8
0
 62
7
 10
141.1367953237075
 20
105.2489951092832
 70
0
  0
VERTEX
  5
194850
  8
0
 62
7
 10
141.2215447285534
 20
105.2915420665941
 70
0
  0
SEQEND
  5
194851
  8
0
  0
POLYLINE
  5
14F6F2
  8
0
 62
7
 66
1
 70
0
 10
0
 20
0
 30
0
  0
VERTEX
  5
194852
  8
0
 62
7
 10
139.8245575876999
 20
103.8520079684297
 70
0
  0
VERTEX
  5
194853
  8
0
 62
7
 10
140.9249218115929
 20
104.0640537354323
 70
0
  0
SEQEND
  5
194854
  8
0
  0
POLYLINE
  5
14F6F6
  8
0
 62
7
 66
1
 70
0
 10
0
 20
0
 30
0
  0
VERTEX
  5
194855
  8
0
 62
7
 10
139.8669322901228
 20
103.8520079684297
 70
0
  0
VERTEX
  5
194856
  8
0
 62
7
 10
140.713392809254
 20
104.02150677812151
 70
0
  0
SEQEND
  5
194857
  8
0
  0
POLYLINE
  5
14F6FA
  8
0
 62
7
 66
1
 70
0
 10
0
 20
0
 30
0
  0
VERTEX
  5
194858
  8
0
 62
7
 10
141.55985332838509
 20
104.3599876328412
 70
0
  0
VERTEX
  5
194859
  8
0
 62
7
 10
141.47544843331511
 20
104.3599876328412
 70
0
  0
SEQEND
  5
19485A
  8
0
  0
POLYLINE
  5
14F6FE
  8
0
 62
7
 66
1
 70
0
 10
0
 20
0
 30
0
  0
VERTEX
  5
19485B
  8
0
 62
7
 10
140.9672965140158
 20
104.6989852522246
 70
0
  0
VERTEX
  5
19485C
  8
0
 62
7
 10
140.9672965140158
 20
104.6989852522246
 70
0
  0
SEQEND
  5
19485D
  8
0
  0
POLYLINE
  5
14F702
  8
0
 62
7
 66
1
 70
0
 10
0
 20
0
 30
0
  0
VERTEX
  5
19485E
  8
0
 62
7
 10
141.05170140908589
 20
105.2489951092832
 70
0
  0
VERTEX
  5
19485F
  8
0
 62
7
 10
141.2639194309763
 20
105.2915420665941
 70
0
  0
SEQEND
  5
194860
  8
0
  0
POLYLINE
  5
14F706
  8
0
 62
7
 66
1
 70
0
 10
0
 20
0
 30
0
  0
VERTEX
  5
194861
  8
0
 62
7
 10
126.36249358868881
 20
102.4129906349291
 70
0
  0
VERTEX
  5
194862
  8
0
 62
7
 10
127.12454921275
 20
102.45502082757631
 70
0
  0
SEQEND
  5
194863
  8
0
  0
POLYLINE
  5
14F70A
  8
0
 62
7
 66
1
 70
0
 10
0
 20
0
 30
0
  0
VERTEX
  5
194864
  8
0
 62
7
 10
126.1929947789971
 20
102.7940184469597
 70
0
  0
VERTEX
  5
194865
  8
0
 62
7
 10
126.9974251054811
 20
102.87842334202981
 70
0
  0
SEQEND
  5
194866
  8
0
  0
POLYLINE
  5
14F70E
  8
0
 62
7
 66
1
 70
0
 10
0
 20
0
 30
0
  0
VERTEX
  5
194867
  8
0
 62
7
 10
125.1766909403984
 20
103.17504625899031
 70
0
  0
VERTEX
  5
194868
  8
0
 62
7
 10
125.76993677431941
 20
103.2169041967495
 70
0
  0
SEQEND
  5
194869
  8
0
  0
POLYLINE
  5
14F712
  8
0
 62
7
 66
1
 70
0
 10
0
 20
0
 30
0
  0
VERTEX
  5
19486A
  8
0
 62
7
 10
126.1082453741512
 20
103.2169041967495
 70
0
  0
VERTEX
  5
19486B
  8
0
 62
7
 10
126.8703009982124
 20
103.30199811137121
 70
0
  0
SEQEND
  5
19486C
  8
0
  0
POLYLINE
  5
14F716
  8
0
 62
7
 66
1
 70
0
 10
0
 20
0
 30
0
  0
VERTEX
  5
19486D
  8
0
 62
7
 10
125.9814657766582
 20
103.6404789660909
 70
0
  0
VERTEX
  5
19486E
  8
0
 62
7
 10
126.78589610314231
 20
103.724883861161
 70
0
  0
SEQEND
  5
19486F
  8
0
  0
POLYLINE
  5
14F71E
  8
0
 62
7
 66
1
 70
0
 10
0
 20
0
 30
0
  0
VERTEX
  5
194870
  8
0
 62
7
 10
138.8509729612999
 20
103.8520079684297
 70
0
  0
VERTEX
  5
194871
  8
0
 62
7
 10
140.713392809254
 20
104.02150677812151
 70
0
  0
SEQEND
  5
194872
  8
0
  0
POLYLINE
  5
14F736
  8
0
 62
7
 66
1
 70
0
 10
0
 20
0
 30
0
  0
VERTEX
  5
194873
  8
0
 62
7
 10
138.8509729612999
 20
103.89438267085271
 70
0
  0
VERTEX
  5
194874
  8
0
 62
7
 10
140.9249218115929
 20
104.0640537354323
 70
0
  0
SEQEND
  5
194875
  8
0
  0
POLYLINE
  5
14F76A
  8
0
 62
7
 66
1
 70
0
 10
0
 20
0
 30
0
  0
VERTEX
  5
194876
  8
0
 62
7
 10
144.90435423181441
 20
104.2328635255724
 70
0
  0
VERTEX
  5
194877
  8
0
 62
7
 10
144.94707344401311
 20
104.2328635255724
 70
0
  0
SEQEND
  5
194878
  8
0
  0
POLYLINE
  5
14F76E
  8
0
 62
7
 66
1
 70
0
 10
0
 20
0
 30
0
  0
VERTEX
  5
194879
  8
0
 62
7
 10
143.0839645765075
 20
104.0640537354323
 70
0
  0
VERTEX
  5
19487A
  8
0
 62
7
 10
142.87243557416841
 20
104.0640537354323
 70
0
  0
SEQEND
  5
19487B
  8
0
  0
POLYLINE
  5
14F772
  8
0
 62
7
 66
1
 70
0
 10
0
 20
0
 30
0
  0
VERTEX
  5
19487C
  8
0
 62
7
 10
141.3910435382451
 20
104.3599876328412
 70
0
  0
VERTEX
  5
19487D
  8
0
 62
7
 10
141.47544843331511
 20
104.3599876328412
 70
0
  0
SEQEND
  5
19487E
  8
0
  0
POLYLINE
  5
14F776
  8
0
 62
7
 66
1
 70
0
 10
0
 20
0
 30
0
  0
VERTEX
  5
19487F
  8
0
 62
7
 10
136.77633509145539
 20
105.58799272866671
 70
0
  0
VERTEX
  5
194880
  8
0
 62
7
 10
136.8190543036541
 20
105.58799272866671
 70
0
  0
SEQEND
  5
194881
  8
0
  0
POLYLINE
  5
14F77A
  8
0
 62
7
 66
1
 70
0
 10
0
 20
0
 30
0
  0
VERTEX
  5
194882
  8
0
 62
7
 10
125.34653425986591
 20
106.73107616475841
 70
0
  0
VERTEX
  5
194883
  8
0
 62
7
 10
125.3889089622888
 20
106.73107616475841
 70
0
  0
SEQEND
  5
194884
  8
0
  0
POLYLINE
  5
14F77E
  8
0
 62
7
 66
1
 70
0
 10
0
 20
0
 30
0
  0
VERTEX
  5
194885
  8
0
 62
7
 10
127.5899819198506
 20
109.31300467946279
 70
0
  0
VERTEX
  5
194886
  8
0
 62
7
 10
127.5479517272035
 20
109.31300467946279
 70
0
  0
SEQEND
  5
194887
  8
0
  0
POLYLINE
  5
14F79E
  8
0
 62
7
 66
1
 70
0
 10
0
 20
0
 30
0
  0
VERTEX
  5
194888
  8
0
 62
7
 10
136.8190543036541
 20
105.58799272866671
 70
0
  0
VERTEX
  5
194889
  8
0
 62
7
 10
136.8190543036541
 20
105.5454457713558
 70
0
  0
VERTEX
  5
19488A
  8
0
 62
7
 10
136.86073998652549
 20
105.502898814045
 70
0
  0
VERTEX
  5
19488B
  8
0
 62
7
 10
136.90345919872419
 20
105.46104087628579
 70
0
  0
SEQEND
  5
19488C
  8
0
  0
POLYLINE
  5
14F7C8
  8
0
 62
7
 66
1
 70
0
 10
0
 20
0
 30
0
  0
VERTEX
  5
19488D
  8
0
 62
7
 10
133.34742929295609
 20
108.5090911176424
 70
0
  0
VERTEX
  5
19488E
  8
0
 62
7
 10
133.51692810264791
 20
108.3819670103736
 70
0
  0
SEQEND
  5
19488F
  8
0
  0
POLYLINE
  5
14F7F9
  8
0
 62
7
 66
1
 70
0
 10
0
 20
0
 30
0
  0
VERTEX
  5
194890
  8
0
 62
7
 10
134.7867911362325
 20
108.59349601271251
 70
0
  0
VERTEX
  5
194891
  8
0
 62
7
 10
134.87154054107839
 20
108.46654416033159
 70
0
  0
VERTEX
  5
194892
  8
0
 62
7
 10
134.99832013857139
 20
108.3394200530628
 70
0
  0
VERTEX
  5
194893
  8
0
 62
7
 10
135.0827250336414
 20
108.169921243371
 70
0
  0
SEQEND
  5
194894
  8
0
  0
POLYLINE
  5
14F7FF
  8
0
 62
7
 66
1
 70
0
 10
0
 20
0
 30
0
  0
VERTEX
  5
194895
  8
0
 62
7
 10
134.99832013857139
 20
108.1280633056118
 70
0
  0
VERTEX
  5
194896
  8
0
 62
7
 10
134.40610783397781
 20
108.8473997174742
 70
0
  0
SEQEND
  5
194897
  8
0
  0
POLYLINE
  5
14F803
  8
0
 62
7
 66
1
 70
0
 10
0
 20
0
 30
0
  0
VERTEX
  5
194898
  8
0
 62
7
 10
134.87154054107839
 20
108.1280633056118
 70
0
  0
VERTEX
  5
194899
  8
0
 62
7
 10
135.25222384333321
 20
107.4078656193099
 70
0
  0
VERTEX
  5
19489A
  8
0
 62
7
 10
135.59087695294079
 20
106.73107616475841
 70
0
  0
VERTEX
  5
19489B
  8
0
 62
7
 10
135.8030949748312
 20
105.9690205406972
 70
0
  0
SEQEND
  5
19489C
  8
0
  0
POLYLINE
  5
14F80E
  8
0
 62
7
 66
1
 70
0
 10
0
 20
0
 30
0
  0
VERTEX
  5
19489D
  8
0
 62
7
 10
135.0827250336414
 20
108.169921243371
 70
0
  0
VERTEX
  5
19489E
  8
0
 62
7
 10
135.0827250336414
 20
108.2124682006819
 70
0
  0
VERTEX
  5
19489F
  8
0
 62
7
 10
135.04103935077
 20
108.2550151579927
 70
0
  0
SEQEND
  5
1948A0
  8
0
  0
POLYLINE
  5
14F813
  8
0
 62
7
 66
1
 70
0
 10
0
 20
0
 30
0
  0
VERTEX
  5
1948A1
  8
0
 62
7
 10
136.01427946739429
 20
105.58799272866671
 70
0
  0
VERTEX
  5
1948A2
  8
0
 62
7
 10
135.8030949748312
 20
106.4770002051087
 70
0
  0
VERTEX
  5
1948A3
  8
0
 62
7
 10
135.42206716280069
 20
107.3660076815507
 70
0
  0
VERTEX
  5
1948A4
  8
0
 62
7
 10
134.99832013857139
 20
108.1280633056118
 70
0
  0
SEQEND
  5
1948A5
  8
0
  0
POLYLINE
  5
14F819
  8
0
 62
7
 66
1
 70
0
 10
0
 20
0
 30
0
  0
VERTEX
  5
1948A6
  8
0
 62
7
 10
136.0990288722401
 20
105.8420686883163
 70
0
  0
VERTEX
  5
1948A7
  8
0
 62
7
 10
136.0990288722401
 20
105.75697477369469
 70
0
  0
VERTEX
  5
1948A8
  8
0
 62
7
 10
136.14140357466309
 20
105.7149445810475
 70
0
  0
VERTEX
  5
1948A9
  8
0
 62
7
 10
136.14140357466309
 20
105.58799272866671
 70
0
  0
SEQEND
  5
1948AA
  8
0
  0
POLYLINE
  5
14F81F
  8
0
 62
7
 66
1
 70
0
 10
0
 20
0
 30
0
  0
VERTEX
  5
1948AB
  8
0
 62
7
 10
135.336973248179
 20
105.3759469616641
 70
0
  0
VERTEX
  5
1948AC
  8
0
 62
7
 10
135.29494305553189
 20
105.58799272866671
 70
0
  0
VERTEX
  5
1948AD
  8
0
 62
7
 10
135.25222384333321
 20
105.75697477369469
 70
0
  0
VERTEX
  5
1948AE
  8
0
 62
7
 10
135.167818948263
 20
105.9690205406972
 70
0
  0
VERTEX
  5
1948AF
  8
0
 62
7
 10
135.12544424584021
 20
106.1380025857252
 70
0
  0
VERTEX
  5
1948B0
  8
0
 62
7
 10
135.04103935077
 20
106.307501395417
 70
0
  0
VERTEX
  5
1948B1
  8
0
 62
7
 10
134.99832013857139
 20
106.5188581428679
 70
0
  0
VERTEX
  5
1948B2
  8
0
 62
7
 10
134.91391524350129
 20
106.6459822501367
 70
0
  0
VERTEX
  5
1948B3
  8
0
 62
7
 10
134.8288213288796
 20
106.85802801713921
 70
0
  0
VERTEX
  5
1948B4
  8
0
 62
7
 10
134.74441643380959
 20
107.02701006216731
 70
0
  0
VERTEX
  5
1948B5
  8
0
 62
7
 10
134.61729232654079
 20
107.15396191454821
 70
0
  0
VERTEX
  5
1948B6
  8
0
 62
7
 10
134.53288743147081
 20
107.32346072423989
 70
0
  0
VERTEX
  5
1948B7
  8
0
 62
7
 10
134.40610783397781
 20
107.4929595339316
 70
0
  0
VERTEX
  5
1948B8
  8
0
 62
7
 10
134.278983726709
 20
107.6200836412004
 70
0
  0
VERTEX
  5
1948B9
  8
0
 62
7
 10
134.15185961944019
 20
107.7888934313405
 70
0
  0
VERTEX
  5
1948BA
  8
0
 62
7
 10
134.02508002194719
 20
107.9158452837214
 70
0
  0
VERTEX
  5
1948BB
  8
0
 62
7
 10
133.89795591467839
 20
108.04296939099
 70
0
  0
VERTEX
  5
1948BC
  8
0
 62
7
 10
133.77083180740959
 20
108.169921243371
 70
0
  0
VERTEX
  5
1948BD
  8
0
 62
7
 10
133.60133299771789
 20
108.2550151579927
 70
0
  0
VERTEX
  5
1948BE
  8
0
 62
7
 10
133.47455340022481
 20
108.3819670103736
 70
0
  0
VERTEX
  5
1948BF
  8
0
 62
7
 10
133.34742929295609
 20
108.46654416033159
 70
0
  0
SEQEND
  5
1948C0
  8
0
  0
POLYLINE
  5
14F836
  8
0
 62
7
 66
1
 70
0
 10
0
 20
0
 30
0
  0
VERTEX
  5
1948C1
  8
0
 62
7
 10
135.8030949748312
 20
105.16441795932521
 70
0
  0
VERTEX
  5
1948C2
  8
0
 62
7
 10
135.6759708675624
 20
105.9264735833864
 70
0
  0
VERTEX
  5
1948C3
  8
0
 62
7
 10
135.463752845672
 20
106.6885292074475
 70
0
  0
VERTEX
  5
1948C4
  8
0
 62
7
 10
135.167818948263
 20
107.4078656193099
 70
0
  0
VERTEX
  5
1948C5
  8
0
 62
7
 10
134.74441643380959
 20
108.04296939099
 70
0
  0
VERTEX
  5
1948C6
  8
0
 62
7
 10
134.278983726709
 20
108.6360429700232
 70
0
  0
VERTEX
  5
1948C7
  8
0
 62
7
 10
133.77083180740959
 20
109.14402263443471
 70
0
  0
VERTEX
  5
1948C8
  8
0
 62
7
 10
133.13590029061729
 20
109.5669083842245
 70
0
  0
SEQEND
  5
1948C9
  8
0
  0
POLYLINE
  5
14F840
  8
0
 62
7
 66
1
 70
0
 10
0
 20
0
 30
0
  0
VERTEX
  5
1948CA
  8
0
 62
7
 10
135.8030949748312
 20
105.9690205406972
 70
0
  0
VERTEX
  5
1948CB
  8
0
 62
7
 10
135.9298745723242
 20
105.16441795932521
 70
0
  0
VERTEX
  5
1948CC
  8
0
 62
7
 10
136.01427946739429
 20
104.3599876328412
 70
0
  0
VERTEX
  5
1948CD
  8
0
 62
7
 10
135.9298745723242
 20
103.59793200878011
 70
0
  0
VERTEX
  5
1948CE
  8
0
 62
7
 10
135.8030949748312
 20
102.7940184469597
 70
0
  0
VERTEX
  5
1948CF
  8
0
 62
7
 10
135.54884676029371
 20
102.0739930155457
 70
0
  0
VERTEX
  5
1948D0
  8
0
 62
7
 10
135.20984914091019
 20
101.3970313061062
 70
0
  0
VERTEX
  5
1948D1
  8
0
 62
7
 10
134.7867911362325
 20
100.76209978931379
 70
0
  0
VERTEX
  5
1948D2
  8
0
 62
7
 10
134.32101391935609
 20
100.16885395539291
 70
0
  0
SEQEND
  5
1948D3
  8
0
  0
POLYLINE
  5
14F84F
  8
0
 62
7
 66
1
 70
0
 10
0
 20
0
 30
0
  0
VERTEX
  5
1948D4
  8
0
 62
7
 10
135.76037576263249
 20
118.71088685340639
 70
0
  0
VERTEX
  5
1948D5
  8
0
 62
7
 10
135.76037576263249
 20
118.71088685340639
 70
0
  0
SEQEND
  5
1948D6
  8
0
  0
POLYLINE
  5
14F853
  8
0
 62
7
 66
1
 70
0
 10
0
 20
0
 30
0
  0
VERTEX
  5
1948D7
  8
0
 62
7
 10
134.70169722161091
 20
117.0599960077912
 70
0
  0
VERTEX
  5
1948D8
  8
0
 62
7
 10
134.70169722161091
 20
117.017965815144
 70
0
  0
VERTEX
  5
1948D9
  8
0
 62
7
 10
134.74441643380959
 20
116.9328719005224
 70
0
  0
VERTEX
  5
1948DA
  8
0
 62
7
 10
134.7867911362325
 20
116.8910139627632
 70
0
  0
VERTEX
  5
1948DB
  8
0
 62
7
 10
134.87154054107839
 20
116.84846700545231
 70
0
  0
SEQEND
  5
1948DC
  8
0
  0
POLYLINE
  5
14F85A
  8
0
 62
7
 66
1
 70
0
 10
0
 20
0
 30
0
  0
VERTEX
  5
1948DD
  8
0
 62
7
 10
136.56480608911659
 20
102.0739930155457
 70
0
  0
VERTEX
  5
1948DE
  8
0
 62
7
 10
136.56480608911659
 20
101.9894158655878
 70
0
  0
SEQEND
  5
1948DF
  8
0
  0
POLYLINE
  5
14F85E
  8
0
 62
7
 66
1
 70
0
 10
0
 20
0
 30
0
  0
VERTEX
  5
1948E0
  8
0
 62
7
 10
136.90345919872419
 20
105.46104087628579
 70
0
  0
VERTEX
  5
1948E1
  8
0
 62
7
 10
136.9458339011471
 20
104.486939485222
 70
0
  0
VERTEX
  5
1948E2
  8
0
 62
7
 10
136.90345919872419
 20
103.47098015639919
 70
0
  0
VERTEX
  5
1948E3
  8
0
 62
7
 10
136.6919301963853
 20
102.4973955299992
 70
0
  0
SEQEND
  5
1948E4
  8
0
  0
POLYLINE
  5
14F864
  8
0
 62
7
 66
1
 70
0
 10
0
 20
0
 30
0
  0
VERTEX
  5
1948E5
  8
0
 62
7
 10
135.76037576263249
 20
118.71088685340639
 70
0
  0
VERTEX
  5
1948E6
  8
0
 62
7
 10
135.76037576263249
 20
119.2188665178179
 70
0
  0
SEQEND
  5
1948E7
  8
0
  0
POLYLINE
  5
14F868
  8
0
 62
7
 66
1
 70
0
 10
0
 20
0
 30
0
  0
VERTEX
  5
1948E8
  8
0
 62
7
 10
135.97190476497141
 20
125.1459849555031
 70
0
  0
VERTEX
  5
1948E9
  8
0
 62
7
 10
135.97190476497141
 20
125.4844658102228
 70
0
  0
SEQEND
  5
1948EA
  8
0
  0
POLYLINE
  5
14F86C
  8
0
 62
7
 66
1
 70
0
 10
0
 20
0
 30
0
  0
VERTEX
  5
1948EB
  8
0
 62
7
 10
136.6919301963853
 20
125.6539646199145
 70
0
  0
VERTEX
  5
1948EC
  8
0
 62
7
 10
136.6919301963853
 20
125.4844658102228
 70
0
  0
SEQEND
  5
1948ED
  8
0
  0
POLYLINE
  5
14F870
  8
0
 62
7
 66
1
 70
0
 10
0
 20
0
 30
0
  0
VERTEX
  5
1948EE
  8
0
 62
7
 10
136.77633509145539
 20
125.0190331031222
 70
0
  0
VERTEX
  5
1948EF
  8
0
 62
7
 10
136.77633509145539
 20
125.40006091515281
 70
0
  0
SEQEND
  5
1948F0
  8
0
  0
POLYLINE
  5
14F874
  8
0
 62
7
 66
1
 70
0
 10
0
 20
0
 30
0
  0
VERTEX
  5
1948F1
  8
0
 62
7
 10
136.9458339011471
 20
124.67986322885081
 70
0
  0
VERTEX
  5
1948F2
  8
0
 62
7
 10
136.9458339011471
 20
124.9339391885005
 70
0
  0
SEQEND
  5
1948F3
  8
0
  0
POLYLINE
  5
14F878
  8
0
 62
7
 66
1
 70
0
 10
0
 20
0
 30
0
  0
VERTEX
  5
1948F4
  8
0
 62
7
 10
136.77633509145539
 20
106.01087847845641
 70
0
  0
VERTEX
  5
1948F5
  8
0
 62
7
 10
136.77633509145539
 20
105.88392662607551
 70
0
  0
VERTEX
  5
1948F6
  8
0
 62
7
 10
136.6919301963853
 20
105.8420686883163
 70
0
  0
SEQEND
  5
1948F7
  8
0
  0
POLYLINE
  5
14F87D
  8
0
 62
7
 66
1
 70
0
 10
0
 20
0
 30
0
  0
VERTEX
  5
1948F8
  8
0
 62
7
 10
135.88749986990121
 20
125.69599481256159
 70
0
  0
VERTEX
  5
1948F9
  8
0
 62
7
 10
135.88749986990121
 20
125.5688707052928
 70
0
  0
SEQEND
  5
1948FA
  8
0
  0
POLYLINE
  5
14F881
  8
0
 62
7
 66
1
 70
0
 10
0
 20
0
 30
0
  0
VERTEX
  5
1948FB
  8
0
 62
7
 10
136.183778277086
 20
105.3340890239049
 70
0
  0
VERTEX
  5
1948FC
  8
0
 62
7
 10
136.183778277086
 20
105.4184939189749
 70
0
  0
VERTEX
  5
1948FD
  8
0
 62
7
 10
136.2258084697331
 20
105.46104087628579
 70
0
  0
VERTEX
  5
1948FE
  8
0
 62
7
 10
136.26852768193189
 20
105.46104087628579
 70
0
  0
SEQEND
  5
1948FF
  8
0
  0
POLYLINE
  5
14F8B7
  8
0
 62
7
 66
1
 70
0
 10
0
 20
0
 30
0
  0
VERTEX
  5
194900
  8
0
 62
7
 10
132.71249777616379
 20
99.5339224386006
 70
0
  0
VERTEX
  5
194901
  8
0
 62
7
 10
132.71249777616379
 20
99.492064500841352
 70
0
  0
SEQEND
  5
194902
  8
0
  0
POLYLINE
  5
14F8C3
  8
0
 62
7
 66
1
 70
0
 10
0
 20
0
 30
0
  0
VERTEX
  5
194903
  8
0
 62
7
 10
132.62809288109369
 20
99.619016353222264
 70
0
  0
VERTEX
  5
194904
  8
0
 62
7
 10
132.62809288109369
 20
99.703421248292372
 70
0
  0
SEQEND
  5
194905
  8
0
  0
POLYLINE
  5
14F8E7
  8
0
 62
7
 66
1
 70
0
 10
0
 20
0
 30
0
  0
VERTEX
  5
194906
  8
0
 62
7
 10
129.36799687273461
 20
98.814413771850283
 70
0
  0
VERTEX
  5
194907
  8
0
 62
7
 10
129.36799687273461
 20
98.856960729161131
 70
0
  0
VERTEX
  5
194908
  8
0
 62
7
 10
129.41037157515751
 20
98.898990921808263
 70
0
  0
SEQEND
  5
194909
  8
0
  0
POLYLINE
  5
14F8FC
  8
0
 62
7
 66
1
 70
0
 10
0
 20
0
 30
0
  0
VERTEX
  5
19490A
  8
0
 62
7
 10
127.63235662227351
 20
106.4770002051087
 70
0
  0
VERTEX
  5
19490B
  8
0
 62
7
 10
127.63235662227351
 20
106.4770002051087
 70
0
  0
SEQEND
  5
19490C
  8
0
  0
POLYLINE
  5
14F90C
  8
0
 62
7
 66
1
 70
0
 10
0
 20
0
 30
0
  0
VERTEX
  5
19490D
  8
0
 62
7
 10
127.37845291751169
 20
106.73107616475841
 70
0
  0
VERTEX
  5
19490E
  8
0
 62
7
 10
127.37845291751169
 20
106.73107616475841
 70
0
  0
VERTEX
  5
19490F
  8
0
 62
7
 10
127.335733705313
 20
106.6885292074475
 70
0
  0
VERTEX
  5
194910
  8
0
 62
7
 10
127.335733705313
 20
106.6459822501367
 70
0
  0
VERTEX
  5
194911
  8
0
 62
7
 10
127.2513288102429
 20
106.60395205748959
 70
0
  0
VERTEX
  5
194912
  8
0
 62
7
 10
127.2513288102429
 20
106.5188581428679
 70
0
  0
VERTEX
  5
194913
  8
0
 62
7
 10
127.20895410782
 20
106.4770002051087
 70
0
  0
VERTEX
  5
194914
  8
0
 62
7
 10
127.20895410782
 20
106.3500483527278
 70
0
  0
SEQEND
  5
194915
  8
0
  0
POLYLINE
  5
14F91A
  8
0
 62
7
 66
1
 70
0
 10
0
 20
0
 30
0
  0
VERTEX
  5
194916
  8
0
 62
7
 10
130.00292838952689
 20
108.6779009077825
 70
0
  0
VERTEX
  5
194917
  8
0
 62
7
 10
129.79139938718811
 20
108.59349601271251
 70
0
  0
VERTEX
  5
194918
  8
0
 62
7
 10
129.66427527991931
 20
108.5090911176424
 70
0
  0
VERTEX
  5
194919
  8
0
 62
7
 10
129.53749568242631
 20
108.3819670103736
 70
0
  0
VERTEX
  5
19491A
  8
0
 62
7
 10
129.36799687273461
 20
108.29687309575191
 70
0
  0
VERTEX
  5
19491B
  8
0
 62
7
 10
129.24087276546581
 20
108.169921243371
 70
0
  0
VERTEX
  5
19491C
  8
0
 62
7
 10
129.113748658197
 20
108.04296939099
 70
0
  0
VERTEX
  5
19491D
  8
0
 62
7
 10
128.986969060704
 20
107.9158452837214
 70
0
  0
VERTEX
  5
19491E
  8
0
 62
7
 10
128.85984495343521
 20
107.7888934313405
 70
0
  0
VERTEX
  5
19491F
  8
0
 62
7
 10
128.73272084616639
 20
107.6619415789596
 70
0
  0
VERTEX
  5
194920
  8
0
 62
7
 10
128.6059412486735
 20
107.5349897265787
 70
0
  0
VERTEX
  5
194921
  8
0
 62
7
 10
128.4788171414047
 20
107.3660076815507
 70
0
  0
VERTEX
  5
194922
  8
0
 62
7
 10
128.39441224633461
 20
107.2390558291698
 70
0
  0
VERTEX
  5
194923
  8
0
 62
7
 10
128.26728813906581
 20
107.0693847645902
 70
0
  0
VERTEX
  5
194924
  8
0
 62
7
 10
128.22491343664291
 20
106.89988595489839
 70
0
  0
VERTEX
  5
194925
  8
0
 62
7
 10
128.09778932937411
 20
106.73107616475841
 70
0
  0
VERTEX
  5
194926
  8
0
 62
7
 10
128.0133844343041
 20
106.5614051001787
 70
0
  0
VERTEX
  5
194927
  8
0
 62
7
 10
127.9710097318811
 20
106.391906290487
 70
0
  0
VERTEX
  5
194928
  8
0
 62
7
 10
127.8862603270353
 20
106.222924245459
 70
0
  0
VERTEX
  5
194929
  8
0
 62
7
 10
127.8438856246123
 20
106.01087847845641
 70
0
  0
VERTEX
  5
19492A
  8
0
 62
7
 10
127.80185543196519
 20
105.8420686883163
 70
0
  0
VERTEX
  5
19492B
  8
0
 62
7
 10
127.7594807295423
 20
105.6300229213138
 70
0
  0
VERTEX
  5
19492C
  8
0
 62
7
 10
127.7167615173435
 20
105.46104087628579
 70
0
  0
VERTEX
  5
19492D
  8
0
 62
7
 10
127.7167615173435
 20
105.0800130642552
 70
0
  0
VERTEX
  5
19492E
  8
0
 62
7
 10
127.6750758344722
 20
104.86796729725261
 70
0
  0
VERTEX
  5
19492F
  8
0
 62
7
 10
127.6750758344722
 20
104.6564382949138
 70
0
  0
VERTEX
  5
194930
  8
0
 62
7
 10
127.7167615173435
 20
104.486939485222
 70
0
  0
VERTEX
  5
194931
  8
0
 62
7
 10
127.7167615173435
 20
104.0640537354323
 70
0
  0
VERTEX
  5
194932
  8
0
 62
7
 10
127.7594807295423
 20
103.89438267085271
 70
0
  0
SEQEND
  5
194933
  8
0
  0
POLYLINE
  5
14F949
  8
0
 62
7
 66
1
 70
0
 10
0
 20
0
 30
0
  0
VERTEX
  5
194934
  8
0
 62
7
 10
130.12970798701991
 20
108.7629948224041
 70
0
  0
VERTEX
  5
194935
  8
0
 62
7
 10
130.00292838952689
 20
108.6779009077825
 70
0
  0
SEQEND
  5
194936
  8
0
  0
POLYLINE
  5
14F955
  8
0
 62
7
 66
1
 70
0
 10
0
 20
0
 30
0
  0
VERTEX
  5
194937
  8
0
 62
7
 10
129.41037157515751
 20
109.5669083842245
 70
0
  0
VERTEX
  5
194938
  8
0
 62
7
 10
130.00292838952689
 20
109.8209843438742
 70
0
  0
SEQEND
  5
194939
  8
0
  0
POLYLINE
  5
14F959
  8
0
 62
7
 66
1
 70
0
 10
0
 20
0
 30
0
  0
VERTEX
  5
19493A
  8
0
 62
7
 10
129.833774089611
 20
110.4140579229073
 70
0
  0
VERTEX
  5
19493B
  8
0
 62
7
 10
129.029343763127
 20
110.2020121559047
 70
0
  0
VERTEX
  5
19493C
  8
0
 62
7
 10
128.26728813906581
 20
109.8209843438742
 70
0
  0
SEQEND
  5
19493D
  8
0
  0
POLYLINE
  5
14F95E
  8
0
 62
7
 66
1
 70
0
 10
0
 20
0
 30
0
  0
VERTEX
  5
19493E
  8
0
 62
7
 10
140.8405169165228
 20
106.8154810598284
 70
0
  0
VERTEX
  5
19493F
  8
0
 62
7
 10
140.7977977043241
 20
106.8154810598284
 70
0
  0
VERTEX
  5
194940
  8
0
 62
7
 10
140.713392809254
 20
106.7729341025176
 70
0
  0
SEQEND
  5
194941
  8
0
  0
POLYLINE
  5
14F963
  8
0
 62
7
 66
1
 70
0
 10
0
 20
0
 30
0
  0
VERTEX
  5
194942
  8
0
 62
7
 10
136.77633509145539
 20
105.58799272866671
 70
0
  0
VERTEX
  5
194943
  8
0
 62
7
 10
136.26852768193189
 20
105.46104087628579
 70
0
  0
SEQEND
  5
194944
  8
0
  0
POLYLINE
  5
14F967
  8
0
 62
7
 66
1
 70
0
 10
0
 20
0
 30
0
  0
VERTEX
  5
194945
  8
0
 62
7
 10
125.7272175621207
 20
103.3864030064412
 70
0
  0
VERTEX
  5
194946
  8
0
 62
7
 10
125.21941015259711
 20
103.30199811137121
 70
0
  0
SEQEND
  5
194947
  8
0
  0
POLYLINE
  5
14F96B
  8
0
 62
7
 66
1
 70
0
 10
0
 20
0
 30
0
  0
VERTEX
  5
194948
  8
0
 62
7
 10
125.1766909403984
 20
103.59793200878011
 70
0
  0
VERTEX
  5
194949
  8
0
 62
7
 10
125.6848428596977
 20
103.6830259234017
 70
0
  0
SEQEND
  5
19494A
  8
0
  0
POLYLINE
  5
14F96F
  8
0
 62
7
 66
1
 70
0
 10
0
 20
0
 30
0
  0
VERTEX
  5
19494B
  8
0
 62
7
 10
136.2258084697331
 20
105.75697477369469
 70
0
  0
VERTEX
  5
19494C
  8
0
 62
7
 10
136.6919301963853
 20
105.8420686883163
 70
0
  0
SEQEND
  5
19494D
  8
0
  0
POLYLINE
  5
14F973
  8
0
 62
7
 66
1
 70
0
 10
0
 20
0
 30
0
  0
VERTEX
  5
19494E
  8
0
 62
7
 10
148.036981623129
 20
108.169921243371
 70
0
  0
VERTEX
  5
19494F
  8
0
 62
7
 10
154.68326421778869
 20
109.43995653184361
 70
0
  0
SEQEND
  5
194950
  8
0
  0
POLYLINE
  5
14F977
  8
0
 62
7
 66
1
 70
0
 10
0
 20
0
 30
0
  0
VERTEX
  5
194951
  8
0
 62
7
 10
140.713392809254
 20
106.7729341025176
 70
0
  0
VERTEX
  5
194952
  8
0
 62
7
 10
140.9672965140158
 20
106.8154810598284
 70
0
  0
SEQEND
  5
194953
  8
0
  0
POLYLINE
  5
14F97B
  8
0
 62
7
 66
1
 70
0
 10
0
 20
0
 30
0
  0
VERTEX
  5
194954
  8
0
 62
7
 10
136.2258084697331
 20
105.75697477369469
 70
0
  0
VERTEX
  5
194955
  8
0
 62
7
 10
136.2258084697331
 20
105.75697477369469
 70
0
  0
SEQEND
  5
194956
  8
0
  0
POLYLINE
  5
14F97F
  8
0
 62
7
 66
1
 70
0
 10
0
 20
0
 30
0
  0
VERTEX
  5
194957
  8
0
 62
7
 10
125.1766909403984
 20
103.59793200878011
 70
0
  0
VERTEX
  5
194958
  8
0
 62
7
 10
125.1766909403984
 20
103.59793200878011
 70
0
  0
SEQEND
  5
194959
  8
0
  0
POLYLINE
  5
14F983
  8
0
 62
7
 66
1
 70
0
 10
0
 20
0
 30
0
  0
VERTEX
  5
19495A
  8
0
 62
7
 10
127.1669239151729
 20
103.5560740710208
 70
0
  0
VERTEX
  5
19495B
  8
0
 62
7
 10
127.1669239151729
 20
103.5560740710208
 70
0
  0
SEQEND
  5
19495C
  8
0
  0
POLYLINE
  5
14F987
  8
0
 62
7
 66
1
 70
0
 10
0
 20
0
 30
0
  0
VERTEX
  5
19495D
  8
0
 62
7
 10
127.12454921275
 20
103.9789598208106
 70
0
  0
VERTEX
  5
19495E
  8
0
 62
7
 10
127.08183000055119
 20
103.9789598208106
 70
0
  0
SEQEND
  5
19495F
  8
0
  0
POLYLINE
  5
14F98B
  8
0
 62
7
 66
1
 70
0
 10
0
 20
0
 30
0
  0
VERTEX
  5
194960
  8
0
 62
7
 10
140.9672965140158
 20
106.8154810598284
 70
0
  0
VERTEX
  5
194961
  8
0
 62
7
 10
141.01001572621451
 20
106.8154810598284
 70
0
  0
VERTEX
  5
194962
  8
0
 62
7
 10
141.0944206212846
 20
106.7729341025176
 70
0
  0
VERTEX
  5
194963
  8
0
 62
7
 10
141.1367953237075
 20
106.73107616475841
 70
0
  0
VERTEX
  5
194964
  8
0
 62
7
 10
141.2215447285534
 20
106.6885292074475
 70
0
  0
VERTEX
  5
194965
  8
0
 62
7
 10
141.2639194309763
 20
106.60395205748959
 70
0
  0
VERTEX
  5
194966
  8
0
 62
7
 10
141.3483243260464
 20
106.5188581428679
 70
0
  0
VERTEX
  5
194967
  8
0
 62
7
 10
141.3910435382451
 20
106.391906290487
 70
0
  0
VERTEX
  5
194968
  8
0
 62
7
 10
141.3910435382451
 20
106.307501395417
 70
0
  0
VERTEX
  5
194969
  8
0
 62
7
 10
141.4327292211164
 20
106.18054954303609
 70
0
  0
VERTEX
  5
19496A
  8
0
 62
7
 10
141.47544843331511
 20
106.0534254357673
 70
0
  0
VERTEX
  5
19496B
  8
0
 62
7
 10
141.47544843331511
 20
105.8420686883163
 70
0
  0
SEQEND
  5
19496C
  8
0
  0
POLYLINE
  5
14F999
  8
0
 62
7
 66
1
 70
0
 10
0
 20
0
 30
0
  0
VERTEX
  5
19496D
  8
0
 62
7
 10
136.77633509145539
 20
105.58799272866671
 70
0
  0
VERTEX
  5
19496E
  8
0
 62
7
 10
136.77633509145539
 20
105.58799272866671
 70
0
  0
SEQEND
  5
19496F
  8
0
  0
POLYLINE
  5
14F99D
  8
0
 62
7
 66
1
 70
0
 10
0
 20
0
 30
0
  0
VERTEX
  5
194970
  8
0
 62
7
 10
125.93874656445951
 20
104.0640537354323
 70
0
  0
VERTEX
  5
194971
  8
0
 62
7
 10
126.7435214007194
 20
104.1484586305023
 70
0
  0
SEQEND
  5
194972
  8
0
  0
POLYLINE
  5
14F9A1
  8
0
 62
7
 66
1
 70
0
 10
0
 20
0
 30
0
  0
VERTEX
  5
194973
  8
0
 62
7
 10
144.8199493367444
 20
106.2649544381061
 70
0
  0
VERTEX
  5
194974
  8
0
 62
7
 10
141.55985332838509
 20
105.9690205406972
 70
0
  0
SEQEND
  5
194975
  8
0
  0
POLYLINE
  5
14F9A5
  8
0
 62
7
 66
1
 70
0
 10
0
 20
0
 30
0
  0
VERTEX
  5
194976
  8
0
 62
7
 10
125.93874656445951
 20
104.486939485222
 70
0
  0
VERTEX
  5
194977
  8
0
 62
7
 10
126.7008021885206
 20
104.5720333998438
 70
0
  0
SEQEND
  5
194978
  8
0
  0
POLYLINE
  5
14F9A9
  8
0
 62
7
 66
1
 70
0
 10
0
 20
0
 30
0
  0
VERTEX
  5
194979
  8
0
 62
7
 10
125.93874656445951
 20
104.9530612118743
 70
0
  0
VERTEX
  5
19497A
  8
0
 62
7
 10
126.7008021885206
 20
104.9949191496335
 70
0
  0
SEQEND
  5
19497B
  8
0
  0
POLYLINE
  5
14F9AD
  8
0
 62
7
 66
1
 70
0
 10
0
 20
0
 30
0
  0
VERTEX
  5
19497C
  8
0
 62
7
 10
125.93874656445951
 20
105.3759469616641
 70
0
  0
VERTEX
  5
19497D
  8
0
 62
7
 10
126.7435214007194
 20
105.46104087628579
 70
0
  0
SEQEND
  5
19497E
  8
0
  0
POLYLINE
  5
14F9B1
  8
0
 62
7
 66
1
 70
0
 10
0
 20
0
 30
0
  0
VERTEX
  5
19497F
  8
0
 62
7
 10
126.0238404790812
 20
105.7995217310055
 70
0
  0
VERTEX
  5
194980
  8
0
 62
7
 10
126.78589610314231
 20
105.8420686883163
 70
0
  0
SEQEND
  5
194981
  8
0
  0
POLYLINE
  5
14F9CD
  8
0
 62
7
 66
1
 70
0
 10
0
 20
0
 30
0
  0
VERTEX
  5
194982
  8
0
 62
7
 10
127.335733705313
 20
106.01087847845641
 70
0
  0
VERTEX
  5
194983
  8
0
 62
7
 10
127.12454921275
 20
106.01087847845641
 70
0
  0
SEQEND
  5
194984
  8
0
  0
POLYLINE
  5
14F9F9
  8
0
 62
7
 66
1
 70
0
 10
0
 20
0
 30
0
  0
VERTEX
  5
194985
  8
0
 62
7
 10
136.2258084697331
 20
105.75697477369469
 70
0
  0
VERTEX
  5
194986
  8
0
 62
7
 10
136.14140357466309
 20
105.75697477369469
 70
0
  0
VERTEX
  5
194987
  8
0
 62
7
 10
136.0990288722401
 20
105.8420686883163
 70
0
  0
SEQEND
  5
194988
  8
0
  0
POLYLINE
  5
14FA4A
  8
0
 62
7
 66
1
 70
0
 10
0
 20
0
 30
0
  0
VERTEX
  5
194989
  8
0
 62
7
 10
140.9672965140158
 20
105.2489951092832
 70
0
  0
VERTEX
  5
19498A
  8
0
 62
7
 10
141.1367953237075
 20
105.2489951092832
 70
0
  0
SEQEND
  5
19498B
  8
0
  0
POLYLINE
  5
14FA4E
  8
0
 62
7
 66
1
 70
0
 10
0
 20
0
 30
0
  0
VERTEX
  5
19498C
  8
0
 62
7
 10
129.62190057749641
 20
111.2179714847277
 70
0
  0
VERTEX
  5
19498D
  8
0
 62
7
 10
129.66427527991931
 20
111.1759412920805
 70
0
  0
VERTEX
  5
19498E
  8
0
 62
7
 10
129.7069944921179
 20
111.1759412920805
 70
0
  0
VERTEX
  5
19498F
  8
0
 62
7
 10
129.7069944921179
 20
111.0908473774589
 70
0
  0
SEQEND
  5
194990
  8
0
  0
POLYLINE
  5
14FA54
  8
0
 62
7
 66
1
 70
0
 10
0
 20
0
 30
0
  0
VERTEX
  5
194991
  8
0
 62
7
 10
140.9672965140158
 20
104.5720333998438
 70
0
  0
VERTEX
  5
194992
  8
0
 62
7
 10
141.3910435382451
 20
104.3599876328412
 70
0
  0
SEQEND
  5
194993
  8
0
  0
POLYLINE
  5
14FA58
  8
0
 62
7
 66
1
 70
0
 10
0
 20
0
 30
0
  0
VERTEX
  5
194994
  8
0
 62
7
 10
133.00877618334849
 20
108.6779009077825
 70
0
  0
VERTEX
  5
194995
  8
0
 62
7
 10
133.17793048326439
 20
108.59349601271251
 70
0
  0
VERTEX
  5
194996
  8
0
 62
7
 10
133.34742929295609
 20
108.5090911176424
 70
0
  0
SEQEND
  5
194997
  8
0
  0
POLYLINE
  5
14FA5D
  8
0
 62
7
 66
1
 70
0
 10
0
 20
0
 30
0
  0
VERTEX
  5
194998
  8
0
 62
7
 10
133.22030518568741
 20
109.6520022988462
 70
0
  0
VERTEX
  5
194999
  8
0
 62
7
 10
132.585373668895
 20
109.9904831535659
 70
0
  0
VERTEX
  5
19499A
  8
0
 62
7
 10
131.907722939904
 20
110.2443868583277
 70
0
  0
SEQEND
  5
19499B
  8
0
  0
POLYLINE
  5
14FA62
  8
0
 62
7
 66
1
 70
0
 10
0
 20
0
 30
0
  0
VERTEX
  5
19499C
  8
0
 62
7
 10
132.62809288109369
 20
109.9904831535659
 70
0
  0
VERTEX
  5
19499D
  8
0
 62
7
 10
133.26302439788611
 20
109.6520022988462
 70
0
  0
SEQEND
  5
19499E
  8
0
  0
POLYLINE
  5
14FA66
  8
0
 62
7
 66
1
 70
0
 10
0
 20
0
 30
0
  0
VERTEX
  5
19499F
  8
0
 62
7
 10
133.13590029061729
 20
109.5669083842245
 70
0
  0
VERTEX
  5
1949A0
  8
0
 62
7
 10
132.500968773825
 20
109.9479361962551
 70
0
  0
SEQEND
  5
1949A1
  8
0
  0
POLYLINE
  5
14FA6A
  8
0
 62
7
 66
1
 70
0
 10
0
 20
0
 30
0
  0
VERTEX
  5
1949A2
  8
0
 62
7
 10
130.12970798701991
 20
110.4984628179774
 70
0
  0
VERTEX
  5
1949A3
  8
0
 62
7
 10
130.12970798701991
 20
110.5410097752882
 70
0
  0
VERTEX
  5
1949A4
  8
0
 62
7
 10
130.08802230414861
 20
110.5410097752882
 70
0
  0
VERTEX
  5
1949A5
  8
0
 62
7
 10
130.0453030919499
 20
110.58286771304741
 70
0
  0
SEQEND
  5
1949A6
  8
0
  0
POLYLINE
  5
14FA70
  8
0
 62
7
 66
1
 70
0
 10
0
 20
0
 30
0
  0
VERTEX
  5
1949A7
  8
0
 62
7
 10
141.55985332838509
 20
104.3599876328412
 70
0
  0
VERTEX
  5
1949A8
  8
0
 62
7
 10
140.9672965140158
 20
104.6989852522246
 70
0
  0
SEQEND
  5
1949A9
  8
0
  0
POLYLINE
  5
14FA74
  8
0
 62
7
 66
1
 70
0
 10
0
 20
0
 30
0
  0
VERTEX
  5
1949AA
  8
0
 62
7
 10
133.34742929295609
 20
108.46654416033159
 70
0
  0
VERTEX
  5
1949AB
  8
0
 62
7
 10
133.13590029061729
 20
108.5509490554016
 70
0
  0
VERTEX
  5
1949AC
  8
0
 62
7
 10
133.00877618334849
 20
108.6360429700232
 70
0
  0
VERTEX
  5
1949AD
  8
0
 62
7
 10
132.83927737365681
 20
108.72044786509331
 70
0
  0
VERTEX
  5
1949AE
  8
0
 62
7
 10
132.66977856396511
 20
108.7629948224041
 70
0
  0
VERTEX
  5
1949AF
  8
0
 62
7
 10
132.500968773825
 20
108.8473997174742
 70
0
  0
VERTEX
  5
1949B0
  8
0
 62
7
 10
132.33146996413319
 20
108.889946674785
 70
0
  0
VERTEX
  5
1949B1
  8
0
 62
7
 10
132.16197115444149
 20
108.9319768674322
 70
0
  0
VERTEX
  5
1949B2
  8
0
 62
7
 10
131.99281685452561
 20
108.9319768674322
 70
0
  0
VERTEX
  5
1949B3
  8
0
 62
7
 10
131.82331804483391
 20
108.974523824743
 70
0
  0
VERTEX
  5
1949B4
  8
0
 62
7
 10
131.65381923514221
 20
109.01707078205381
 70
0
  0
VERTEX
  5
1949B5
  8
0
 62
7
 10
131.14601182561859
 20
109.01707078205381
 70
0
  0
SEQEND
  5
1949B6
  8
0
  0
POLYLINE
  5
14FA82
  8
0
 62
7
 66
1
 70
0
 10
0
 20
0
 30
0
  0
VERTEX
  5
1949B7
  8
0
 62
7
 10
140.9672965140158
 20
104.6989852522246
 70
0
  0
VERTEX
  5
1949B8
  8
0
 62
7
 10
140.9672965140158
 20
104.6989852522246
 70
0
  0
SEQEND
  5
1949B9
  8
0
  0
POLYLINE
  5
14FA86
  8
0
 62
7
 66
1
 70
0
 10
0
 20
0
 30
0
  0
VERTEX
  5
1949BA
  8
0
 62
7
 10
140.9672965140158
 20
104.613891337603
 70
0
  0
VERTEX
  5
1949BB
  8
0
 62
7
 10
141.3910435382451
 20
104.3599876328412
 70
0
  0
SEQEND
  5
1949BC
  8
0
  0
POLYLINE
  5
14FA8A
  8
0
 62
7
 66
1
 70
0
 10
0
 20
0
 30
0
  0
VERTEX
  5
1949BD
  8
0
 62
7
 10
132.88199658585549
 20
110.0748880486359
 70
0
  0
VERTEX
  5
1949BE
  8
0
 62
7
 10
132.83927737365681
 20
110.0748880486359
 70
0
  0
VERTEX
  5
1949BF
  8
0
 62
7
 10
132.83927737365681
 20
110.15998196325759
 70
0
  0
SEQEND
  5
1949C0
  8
0
  0
POLYLINE
  5
14FA8F
  8
0
 62
7
 66
1
 70
0
 10
0
 20
0
 30
0
  0
VERTEX
  5
1949C1
  8
0
 62
7
 10
133.8128620000567
 20
109.2284275295048
 70
0
  0
VERTEX
  5
1949C2
  8
0
 62
7
 10
133.22030518568741
 20
109.6520022988462
 70
0
  0
SEQEND
  5
1949C3
  8
0
  0
POLYLINE
  5
14FA93
  8
0
 62
7
 66
1
 70
0
 10
0
 20
0
 30
0
  0
VERTEX
  5
1949C4
  8
0
 62
7
 10
133.26302439788611
 20
109.6520022988462
 70
0
  0
VERTEX
  5
1949C5
  8
0
 62
7
 10
133.85523670247969
 20
109.2284275295048
 70
0
  0
VERTEX
  5
1949C6
  8
0
 62
7
 10
134.40610783397781
 20
108.6779009077825
 70
0
  0
VERTEX
  5
1949C7
  8
0
 62
7
 10
134.87154054107839
 20
108.1280633056118
 70
0
  0
SEQEND
  5
1949C8
  8
0
  0
POLYLINE
  5
14FA99
  8
0
 62
7
 66
1
 70
0
 10
0
 20
0
 30
0
  0
VERTEX
  5
1949C9
  8
0
 62
7
 10
134.40610783397781
 20
108.8473997174742
 70
0
  0
VERTEX
  5
1949CA
  8
0
 62
7
 10
133.77083180740959
 20
109.43995653184361
 70
0
  0
VERTEX
  5
1949CB
  8
0
 62
7
 10
133.05080637599559
 20
109.9060782584958
 70
0
  0
VERTEX
  5
1949CC
  8
0
 62
7
 10
132.24706506906321
 20
110.28710607052641
 70
0
  0
VERTEX
  5
1949CD
  8
0
 62
7
 10
131.44229023280329
 20
110.45591586066639
 70
0
  0
VERTEX
  5
1949CE
  8
0
 62
7
 10
130.63785990631931
 20
110.5410097752882
 70
0
  0
VERTEX
  5
1949CF
  8
0
 62
7
 10
129.96089819687981
 20
110.45591586066639
 70
0
  0
SEQEND
  5
1949D0
  8
0
  0
POLYLINE
  5
14FAA2
  8
0
 62
7
 66
1
 70
0
 10
0
 20
0
 30
0
  0
VERTEX
  5
1949D1
  8
0
 62
7
 10
139.90896248277
 20
103.8520079684297
 70
0
  0
VERTEX
  5
1949D2
  8
0
 62
7
 10
139.90896248277
 20
103.89438267085271
 70
0
  0
SEQEND
  5
1949D3
  8
0
  0
POLYLINE
  5
14FAA6
  8
0
 62
7
 66
1
 70
0
 10
0
 20
0
 30
0
  0
VERTEX
  5
1949D4
  8
0
 62
7
 10
135.29494305553189
 20
109.14402263443471
 70
0
  0
VERTEX
  5
1949D5
  8
0
 62
7
 10
135.336973248179
 20
109.1014756771239
 70
0
  0
VERTEX
  5
1949D6
  8
0
 62
7
 10
135.336973248179
 20
109.0589287198131
 70
0
  0
SEQEND
  5
1949D7
  8
0
  0
POLYLINE
  5
14FAAB
  8
0
 62
7
 66
1
 70
0
 10
0
 20
0
 30
0
  0
VERTEX
  5
1949D8
  8
0
 62
7
 10
135.63325165536369
 20
108.72044786509331
 70
0
  0
VERTEX
  5
1949D9
  8
0
 62
7
 10
136.14140357466309
 20
107.87398734596221
 70
0
  0
VERTEX
  5
1949DA
  8
0
 62
7
 10
136.5224313866936
 20
106.9849798695201
 70
0
  0
VERTEX
  5
1949DB
  8
0
 62
7
 10
136.77633509145539
 20
106.01087847845641
 70
0
  0
SEQEND
  5
1949DC
  8
0
  0
POLYLINE
  5
14FAB1
  8
0
 62
7
 66
1
 70
0
 10
0
 20
0
 30
0
  0
VERTEX
  5
1949DD
  8
0
 62
7
 10
134.363388621779
 20
118.3724059986867
 70
0
  0
VERTEX
  5
1949DE
  8
0
 62
7
 10
134.363388621779
 20
118.3298590413758
 70
0
  0
VERTEX
  5
1949DF
  8
0
 62
7
 10
134.40610783397781
 20
118.28800110361659
 70
0
  0
SEQEND
  5
1949E0
  8
0
  0
POLYLINE
  5
14FAB6
  8
0
 62
7
 66
1
 70
0
 10
0
 20
0
 30
0
  0
VERTEX
  5
1949E1
  8
0
 62
7
 10
137.0729580084159
 20
105.75697477369469
 70
0
  0
VERTEX
  5
1949E2
  8
0
 62
7
 10
136.8190543036541
 20
106.8154810598284
 70
0
  0
VERTEX
  5
1949E3
  8
0
 62
7
 10
136.43802649162359
 20
107.7888934313405
 70
0
  0
VERTEX
  5
1949E4
  8
0
 62
7
 10
135.9298745723242
 20
108.6779009077825
 70
0
  0
VERTEX
  5
1949E5
  8
0
 62
7
 10
135.336973248179
 20
109.4825034891544
 70
0
  0
VERTEX
  5
1949E6
  8
0
 62
7
 10
134.61729232654079
 20
110.2020121559047
 70
0
  0
VERTEX
  5
1949E7
  8
0
 62
7
 10
133.85523670247969
 20
110.7950857349378
 70
0
  0
VERTEX
  5
1949E8
  8
0
 62
7
 10
132.96640148092561
 20
111.2179714847277
 70
0
  0
VERTEX
  5
1949E9
  8
0
 62
7
 10
132.07722174959571
 20
111.4718751894894
 70
0
  0
VERTEX
  5
1949EA
  8
0
 62
7
 10
131.14601182561859
 20
111.59899929675819
 70
0
  0
VERTEX
  5
1949EB
  8
0
 62
7
 10
130.72295382094089
 20
111.641546254069
 70
0
  0
SEQEND
  5
1949EC
  8
0
  0
POLYLINE
  5
14FAC3
  8
0
 62
7
 66
1
 70
0
 10
0
 20
0
 30
0
  0
VERTEX
  5
1949ED
  8
0
 62
7
 10
133.34742929295609
 20
119.13446162274781
 70
0
  0
VERTEX
  5
1949EE
  8
0
 62
7
 10
133.34742929295609
 20
118.9649628130561
 70
0
  0
VERTEX
  5
1949EF
  8
0
 62
7
 10
133.51692810264791
 20
118.7959807680281
 70
0
  0
VERTEX
  5
1949F0
  8
0
 62
7
 10
133.72845710498669
 20
118.6264819583364
 70
0
  0
SEQEND
  5
1949F1
  8
0
  0
POLYLINE
  5
14FAC9
  8
0
 62
7
 66
1
 70
0
 10
0
 20
0
 30
0
  0
VERTEX
  5
1949F2
  8
0
 62
7
 10
136.77633509145539
 20
106.01087847845641
 70
0
  0
VERTEX
  5
1949F3
  8
0
 62
7
 10
136.77633509145539
 20
106.01087847845641
 70
0
  0
SEQEND
  5
1949F4
  8
0
  0
POLYLINE
  5
14FACD
  8
0
 62
7
 66
1
 70
0
 10
0
 20
0
 30
0
  0
VERTEX
  5
1949F5
  8
0
 62
7
 10
134.74441643380959
 20
116.0438644240804
 70
0
  0
VERTEX
  5
1949F6
  8
0
 62
7
 10
134.74441643380959
 20
116.128958338702
 70
0
  0
SEQEND
  5
1949F7
  8
0
  0
POLYLINE
  5
14FAD1
  8
0
 62
7
 66
1
 70
0
 10
0
 20
0
 30
0
  0
VERTEX
  5
1949F8
  8
0
 62
7
 10
136.90345919872419
 20
105.46104087628579
 70
0
  0
VERTEX
  5
1949F9
  8
0
 62
7
 10
136.90345919872419
 20
105.46104087628579
 70
0
  0
SEQEND
  5
1949FA
  8
0
  0
POLYLINE
  5
14FAD5
  8
0
 62
7
 66
1
 70
0
 10
0
 20
0
 30
0
  0
VERTEX
  5
1949FB
  8
0
 62
7
 10
136.14140357466309
 20
105.58799272866671
 70
0
  0
VERTEX
  5
1949FC
  8
0
 62
7
 10
136.14140357466309
 20
105.502898814045
 70
0
  0
VERTEX
  5
1949FD
  8
0
 62
7
 10
136.183778277086
 20
105.4184939189749
 70
0
  0
VERTEX
  5
1949FE
  8
0
 62
7
 10
136.183778277086
 20
105.3340890239049
 70
0
  0
SEQEND
  5
1949FF
  8
0
  0
POLYLINE
  5
14FADB
  8
0
 62
7
 66
1
 70
0
 10
0
 20
0
 30
0
  0
VERTEX
  5
194A00
  8
0
 62
7
 10
137.114988201063
 20
117.0599960077912
 70
0
  0
VERTEX
  5
194A01
  8
0
 62
7
 10
137.114988201063
 20
117.0599960077912
 70
0
  0
VERTEX
  5
194A02
  8
0
 62
7
 10
137.0729580084159
 20
117.14508992241279
 70
0
  0
VERTEX
  5
194A03
  8
0
 62
7
 10
137.03023879621719
 20
117.1869478601721
 70
0
  0
VERTEX
  5
194A04
  8
0
 62
7
 10
136.9458339011471
 20
117.27204177479371
 70
0
  0
SEQEND
  5
194A05
  8
0
  0
POLYLINE
  5
14FAE2
  8
0
 62
7
 66
1
 70
0
 10
0
 20
0
 30
0
  0
VERTEX
  5
194A06
  8
0
 62
7
 10
137.114988201063
 20
117.27204177479371
 70
0
  0
VERTEX
  5
194A07
  8
0
 62
7
 10
137.114988201063
 20
117.0599960077912
 70
0
  0
SEQEND
  5
194A08
  8
0
  0
POLYLINE
  5
14FAE6
  8
0
 62
7
 66
1
 70
0
 10
0
 20
0
 30
0
  0
VERTEX
  5
194A09
  8
0
 62
7
 10
137.20008211568469
 20
118.9649628130561
 70
0
  0
VERTEX
  5
194A0A
  8
0
 62
7
 10
137.20008211568469
 20
118.7534338107173
 70
0
  0
SEQEND
  5
194A0B
  8
0
  0
POLYLINE
  5
14FAEA
  8
0
 62
7
 66
1
 70
0
 10
0
 20
0
 30
0
  0
VERTEX
  5
194A0C
  8
0
 62
7
 10
136.01427946739429
 20
102.7940184469597
 70
0
  0
VERTEX
  5
194A0D
  8
0
 62
7
 10
135.97190476497141
 20
102.5819726799572
 70
0
  0
VERTEX
  5
194A0E
  8
0
 62
7
 10
135.9298745723242
 20
102.45502082757631
 70
0
  0
VERTEX
  5
194A0F
  8
0
 62
7
 10
135.88749986990121
 20
102.2860387825483
 70
0
  0
SEQEND
  5
194A10
  8
0
  0
POLYLINE
  5
14FAF0
  8
0
 62
7
 66
1
 70
0
 10
0
 20
0
 30
0
  0
VERTEX
  5
194A11
  8
0
 62
7
 10
140.2899902948005
 20
119.0500567276777
 70
0
  0
VERTEX
  5
194A12
  8
0
 62
7
 10
139.9513371851929
 20
118.1610492512357
 70
0
  0
SEQEND
  5
194A13
  8
0
  0
POLYLINE
  5
14FB0C
  8
0
 62
7
 66
1
 70
0
 10
0
 20
0
 30
0
  0
VERTEX
  5
194A14
  8
0
 62
7
 10
132.585373668895
 20
99.449517543530561
 70
0
  0
VERTEX
  5
194A15
  8
0
 62
7
 10
132.62809288109369
 20
99.576469395911445
 70
0
  0
SEQEND
  5
194A16
  8
0
  0
POLYLINE
  5
14FB40
  8
0
 62
7
 66
1
 70
0
 10
0
 20
0
 30
0
  0
VERTEX
  5
194A17
  8
0
 62
7
 10
135.29494305553189
 20
108.9319768674322
 70
0
  0
VERTEX
  5
194A18
  8
0
 62
7
 10
134.91391524350129
 20
108.59349601271251
 70
0
  0
SEQEND
  5
194A19
  8
0
  0
POLYLINE
  5
14FB44
  8
0
 62
7
 66
1
 70
0
 10
0
 20
0
 30
0
  0
VERTEX
  5
194A1A
  8
0
 62
7
 10
126.8703009982124
 20
100.8039577270732
 70
0
  0
VERTEX
  5
194A1B
  8
0
 62
7
 10
126.48927318618181
 20
100.4229299150426
 70
0
  0
SEQEND
  5
194A1C
  8
0
  0
POLYLINE
  5
14FB48
  8
0
 62
7
 66
1
 70
0
 10
0
 20
0
 30
0
  0
VERTEX
  5
194A1D
  8
0
 62
7
 10
126.6163972934506
 20
100.2114009127037
 70
0
  0
VERTEX
  5
194A1E
  8
0
 62
7
 10
126.9974251054811
 20
100.5498817674235
 70
0
  0
SEQEND
  5
194A1F
  8
0
  0
POLYLINE
  5
14FB4C
  8
0
 62
7
 66
1
 70
0
 10
0
 20
0
 30
0
  0
VERTEX
  5
194A20
  8
0
 62
7
 10
135.12544424584021
 20
108.3819670103736
 70
0
  0
VERTEX
  5
194A21
  8
0
 62
7
 10
135.463752845672
 20
108.72044786509331
 70
0
  0
SEQEND
  5
194A22
  8
0
  0
POLYLINE
  5
14FB50
  8
0
 62
7
 66
1
 70
0
 10
0
 20
0
 30
0
  0
VERTEX
  5
194A23
  8
0
 62
7
 10
134.91391524350129
 20
108.59349601271251
 70
0
  0
VERTEX
  5
194A24
  8
0
 62
7
 10
134.91391524350129
 20
108.5509490554016
 70
0
  0
VERTEX
  5
194A25
  8
0
 62
7
 10
134.87154054107839
 20
108.5509490554016
 70
0
  0
SEQEND
  5
194A26
  8
0
  0
POLYLINE
  5
14FB55
  8
0
 62
7
 66
1
 70
0
 10
0
 20
0
 30
0
  0
VERTEX
  5
194A27
  8
0
 62
7
 10
135.463752845672
 20
108.72044786509331
 70
0
  0
VERTEX
  5
194A28
  8
0
 62
7
 10
135.5064720578707
 20
108.7629948224041
 70
0
  0
VERTEX
  5
194A29
  8
0
 62
7
 10
135.54884676029371
 20
108.7629948224041
 70
0
  0
SEQEND
  5
194A2A
  8
0
  0
POLYLINE
  5
14FB8A
  8
0
 62
7
 66
1
 70
0
 10
0
 20
0
 30
0
  0
VERTEX
  5
194A2B
  8
0
 62
7
 10
127.4628578125818
 20
106.18054954303609
 70
0
  0
VERTEX
  5
194A2C
  8
0
 62
7
 10
127.50523251500471
 20
106.18054954303609
 70
0
  0
VERTEX
  5
194A2D
  8
0
 62
7
 10
127.50523251500471
 20
106.222924245459
 70
0
  0
VERTEX
  5
194A2E
  8
0
 62
7
 10
127.5899819198506
 20
106.222924245459
 70
0
  0
SEQEND
  5
194A2F
  8
0
  0
POLYLINE
  5
14FB90
  8
0
 62
7
 66
1
 70
0
 10
0
 20
0
 30
0
  0
VERTEX
  5
194A30
  8
0
 62
7
 10
127.2940480224416
 20
106.391906290487
 70
0
  0
VERTEX
  5
194A31
  8
0
 62
7
 10
127.5479517272035
 20
106.4770002051087
 70
0
  0
SEQEND
  5
194A32
  8
0
  0
POLYLINE
  5
14FB94
  8
0
 62
7
 66
1
 70
0
 10
0
 20
0
 30
0
  0
VERTEX
  5
194A33
  8
0
 62
7
 10
148.036981623129
 20
108.169921243371
 70
0
  0
VERTEX
  5
194A34
  8
0
 62
7
 10
147.99495143048179
 20
108.1280633056118
 70
0
  0
VERTEX
  5
194A35
  8
0
 62
7
 10
147.99495143048179
 20
108.169921243371
 70
0
  0
SEQEND
  5
194A36
  8
0
  0
POLYLINE
  5
14FB99
  8
0
 62
7
 66
1
 70
0
 10
0
 20
0
 30
0
  0
VERTEX
  5
194A37
  8
0
 62
7
 10
127.50523251500471
 20
106.3500483527278
 70
0
  0
VERTEX
  5
194A38
  8
0
 62
7
 10
127.4208276199346
 20
106.3500483527278
 70
0
  0
SEQEND
  5
194A39
  8
0
  0
POLYLINE
  5
14FB9D
  8
0
 62
7
 66
1
 70
0
 10
0
 20
0
 30
0
  0
VERTEX
  5
194A3A
  8
0
 62
7
 10
127.50523251500471
 20
106.43445324779781
 70
0
  0
VERTEX
  5
194A3B
  8
0
 62
7
 10
127.4208276199346
 20
106.43445324779781
 70
0
  0
SEQEND
  5
194A3C
  8
0
  0
POLYLINE
  5
14FBA1
  8
0
 62
7
 66
1
 70
0
 10
0
 20
0
 30
0
  0
VERTEX
  5
194A3D
  8
0
 62
7
 10
127.63235662227351
 20
106.4770002051087
 70
0
  0
VERTEX
  5
194A3E
  8
0
 62
7
 10
127.50523251500471
 20
106.4770002051087
 70
0
  0
SEQEND
  5
194A3F
  8
0
  0
POLYLINE
  5
14FBA5
  8
0
 62
7
 66
1
 70
0
 10
0
 20
0
 30
0
  0
VERTEX
  5
194A40
  8
0
 62
7
 10
144.43892152471381
 20
108.2550151579927
 70
0
  0
VERTEX
  5
194A41
  8
0
 62
7
 10
141.55985332838509
 20
108.000939198343
 70
0
  0
SEQEND
  5
194A42
  8
0
  0
POLYLINE
  5
14FBA9
  8
0
 62
7
 66
1
 70
0
 10
0
 20
0
 30
0
  0
VERTEX
  5
194A43
  8
0
 62
7
 10
140.2479601021534
 20
108.04296939099
 70
0
  0
VERTEX
  5
194A44
  8
0
 62
7
 10
138.17332223230889
 20
107.87398734596221
 70
0
  0
SEQEND
  5
194A45
  8
0
  0
POLYLINE
  5
14FBAD
  8
0
 62
7
 66
1
 70
0
 10
0
 20
0
 30
0
  0
VERTEX
  5
194A46
  8
0
 62
7
 10
126.1082453741512
 20
106.222924245459
 70
0
  0
VERTEX
  5
194A47
  8
0
 62
7
 10
126.8703009982124
 20
106.2649544381061
 70
0
  0
SEQEND
  5
194A48
  8
0
  0
POLYLINE
  5
14FBB1
  8
0
 62
7
 66
1
 70
0
 10
0
 20
0
 30
0
  0
VERTEX
  5
194A49
  8
0
 62
7
 10
126.23536948142
 20
106.60395205748959
 70
0
  0
VERTEX
  5
194A4A
  8
0
 62
7
 10
126.9974251054811
 20
106.6885292074475
 70
0
  0
SEQEND
  5
194A4B
  8
0
  0
POLYLINE
  5
14FBB5
  8
0
 62
7
 66
1
 70
0
 10
0
 20
0
 30
0
  0
VERTEX
  5
194A4C
  8
0
 62
7
 10
126.36249358868881
 20
107.02701006216731
 70
0
  0
VERTEX
  5
194A4D
  8
0
 62
7
 10
127.1669239151729
 20
107.0693847645902
 70
0
  0
SEQEND
  5
194A4E
  8
0
  0
POLYLINE
  5
14FBB9
  8
0
 62
7
 66
1
 70
0
 10
0
 20
0
 30
0
  0
VERTEX
  5
194A4F
  8
0
 62
7
 10
144.43892152471381
 20
108.2550151579927
 70
0
  0
VERTEX
  5
194A50
  8
0
 62
7
 10
144.52332641978381
 20
108.2550151579927
 70
0
  0
SEQEND
  5
194A51
  8
0
  0
POLYLINE
  5
14FBBD
  8
0
 62
7
 66
1
 70
0
 10
0
 20
0
 30
0
  0
VERTEX
  5
194A52
  8
0
 62
7
 10
126.5740225910277
 20
107.4078656193099
 70
0
  0
VERTEX
  5
194A53
  8
0
 62
7
 10
127.335733705313
 20
107.45041257662081
 70
0
  0
SEQEND
  5
194A54
  8
0
  0
POLYLINE
  5
14FBC1
  8
0
 62
7
 66
1
 70
0
 10
0
 20
0
 30
0
  0
VERTEX
  5
194A55
  8
0
 62
7
 10
125.3889089622888
 20
107.15396191454821
 70
0
  0
VERTEX
  5
194A56
  8
0
 62
7
 10
126.1082453741512
 20
107.2390558291698
 70
0
  0
SEQEND
  5
194A57
  8
0
  0
POLYLINE
  5
14FBC5
  8
0
 62
7
 66
1
 70
0
 10
0
 20
0
 30
0
  0
VERTEX
  5
194A58
  8
0
 62
7
 10
127.2513288102429
 20
106.7729341025176
 70
0
  0
VERTEX
  5
194A59
  8
0
 62
7
 10
127.2513288102429
 20
106.7729341025176
 70
0
  0
VERTEX
  5
194A5A
  8
0
 62
7
 10
127.37845291751169
 20
106.73107616475841
 70
0
  0
VERTEX
  5
194A5B
  8
0
 62
7
 10
127.4628578125818
 20
106.73107616475841
 70
0
  0
VERTEX
  5
194A5C
  8
0
 62
7
 10
127.50523251500471
 20
106.6459822501367
 70
0
  0
VERTEX
  5
194A5D
  8
0
 62
7
 10
127.5899819198506
 20
106.60395205748959
 70
0
  0
VERTEX
  5
194A5E
  8
0
 62
7
 10
127.63235662227351
 20
106.5188581428679
 70
0
  0
VERTEX
  5
194A5F
  8
0
 62
7
 10
127.63235662227351
 20
106.2649544381061
 70
0
  0
SEQEND
  5
194A60
  8
0
  0
POLYLINE
  5
14FC37
  8
0
 62
7
 66
1
 70
0
 10
0
 20
0
 30
0
  0
VERTEX
  5
194A61
  8
0
 62
7
 10
131.907722939904
 20
109.01707078205381
 70
0
  0
VERTEX
  5
194A62
  8
0
 62
7
 10
131.73891314976379
 20
109.01707078205381
 70
0
  0
SEQEND
  5
194A63
  8
0
  0
POLYLINE
  5
14FC3F
  8
0
 62
7
 66
1
 70
0
 10
0
 20
0
 30
0
  0
VERTEX
  5
194A64
  8
0
 62
7
 10
131.82331804483391
 20
109.01707078205381
 70
0
  0
VERTEX
  5
194A65
  8
0
 62
7
 10
131.99281685452561
 20
108.974523824743
 70
0
  0
VERTEX
  5
194A66
  8
0
 62
7
 10
132.16197115444149
 20
108.9319768674322
 70
0
  0
VERTEX
  5
194A67
  8
0
 62
7
 10
132.33146996413319
 20
108.889946674785
 70
0
  0
VERTEX
  5
194A68
  8
0
 62
7
 10
132.500968773825
 20
108.889946674785
 70
0
  0
VERTEX
  5
194A69
  8
0
 62
7
 10
132.71249777616379
 20
108.8050250150513
 70
0
  0
VERTEX
  5
194A6A
  8
0
 62
7
 10
132.83927737365681
 20
108.7629948224041
 70
0
  0
VERTEX
  5
194A6B
  8
0
 62
7
 10
133.00877618334849
 20
108.6779009077825
 70
0
  0
SEQEND
  5
194A6C
  8
0
  0
POLYLINE
  5
14FC69
  8
0
 62
7
 66
1
 70
0
 10
0
 20
0
 30
0
  0
VERTEX
  5
194A6D
  8
0
 62
7
 10
132.45824956162619
 20
108.889946674785
 70
0
  0
VERTEX
  5
194A6E
  8
0
 62
7
 10
131.907722939904
 20
109.01707078205381
 70
0
  0
SEQEND
  5
194A6F
  8
0
  0
POLYLINE
  5
14FC6D
  8
0
 62
7
 66
1
 70
0
 10
0
 20
0
 30
0
  0
VERTEX
  5
194A70
  8
0
 62
7
 10
140.88289161894571
 20
106.8154810598284
 70
0
  0
VERTEX
  5
194A71
  8
0
 62
7
 10
140.8405169165228
 20
106.8154810598284
 70
0
  0
SEQEND
  5
194A72
  8
0
  0
POLYLINE
  5
14FC71
  8
0
 62
7
 66
1
 70
0
 10
0
 20
0
 30
0
  0
VERTEX
  5
194A73
  8
0
 62
7
 10
132.500968773825
 20
109.9479361962551
 70
0
  0
VERTEX
  5
194A74
  8
0
 62
7
 10
131.86603725703259
 20
110.15998196325759
 70
0
  0
VERTEX
  5
194A75
  8
0
 62
7
 10
131.18838652804161
 20
110.28710607052641
 70
0
  0
VERTEX
  5
194A76
  8
0
 62
7
 10
130.46905011617909
 20
110.3289640082856
 70
0
  0
VERTEX
  5
194A77
  8
0
 62
7
 10
129.79139938718811
 20
110.2443868583277
 70
0
  0
SEQEND
  5
194A78
  8
0
  0
POLYLINE
  5
14FC78
  8
0
 62
7
 66
1
 70
0
 10
0
 20
0
 30
0
  0
VERTEX
  5
194A79
  8
0
 62
7
 10
132.45824956162619
 20
110.28710607052641
 70
0
  0
VERTEX
  5
194A7A
  8
0
 62
7
 10
132.585373668895
 20
110.2020121559047
 70
0
  0
VERTEX
  5
194A7B
  8
0
 62
7
 10
132.75487247858669
 20
110.15998196325759
 70
0
  0
VERTEX
  5
194A7C
  8
0
 62
7
 10
132.88199658585549
 20
110.0748880486359
 70
0
  0
SEQEND
  5
194A7D
  8
0
  0
POLYLINE
  5
14FC7E
  8
0
 62
7
 66
1
 70
0
 10
0
 20
0
 30
0
  0
VERTEX
  5
194A7E
  8
0
 62
7
 10
139.1048766660617
 20
107.9158452837214
 70
0
  0
VERTEX
  5
194A7F
  8
0
 62
7
 10
138.76587904667821
 20
108.085516348301
 70
0
  0
VERTEX
  5
194A80
  8
0
 62
7
 10
138.00382342261719
 20
108.5090911176424
 70
0
  0
VERTEX
  5
194A81
  8
0
 62
7
 10
137.7078895252082
 20
108.6779009077825
 70
0
  0
SEQEND
  5
194A82
  8
0
  0
POLYLINE
  5
14FC84
  8
0
 62
7
 66
1
 70
0
 10
0
 20
0
 30
0
  0
VERTEX
  5
194A83
  8
0
 62
7
 10
133.13590029061729
 20
110.8369436726971
 70
0
  0
VERTEX
  5
194A84
  8
0
 62
7
 10
133.93998610732561
 20
110.4140579229073
 70
0
  0
VERTEX
  5
194A85
  8
0
 62
7
 10
134.6600115387395
 20
109.8209843438742
 70
0
  0
VERTEX
  5
194A86
  8
0
 62
7
 10
135.29494305553189
 20
109.14402263443471
 70
0
  0
SEQEND
  5
194A87
  8
0
  0
POLYLINE
  5
14FC8A
  8
0
 62
7
 66
1
 70
0
 10
0
 20
0
 30
0
  0
VERTEX
  5
194A88
  8
0
 62
7
 10
132.66977856396511
 20
111.0489894396996
 70
0
  0
VERTEX
  5
194A89
  8
0
 62
7
 10
132.71249777616379
 20
111.00644248238881
 70
0
  0
VERTEX
  5
194A8A
  8
0
 62
7
 10
132.75487247858669
 20
110.963895525078
 70
0
  0
VERTEX
  5
194A8B
  8
0
 62
7
 10
132.75487247858669
 20
110.9220375873187
 70
0
  0
SEQEND
  5
194A8C
  8
0
  0
POLYLINE
  5
14FC90
  8
0
 62
7
 66
1
 70
0
 10
0
 20
0
 30
0
  0
VERTEX
  5
194A8D
  8
0
 62
7
 10
140.9672965140158
 20
105.2915420665941
 70
0
  0
VERTEX
  5
194A8E
  8
0
 62
7
 10
140.9672965140158
 20
105.2489951092832
 70
0
  0
SEQEND
  5
194A8F
  8
0
  0
POLYLINE
  5
14FC94
  8
0
 62
7
 66
1
 70
0
 10
0
 20
0
 30
0
  0
VERTEX
  5
194A90
  8
0
 62
7
 10
140.9672965140158
 20
105.46104087628579
 70
0
  0
VERTEX
  5
194A91
  8
0
 62
7
 10
140.9672965140158
 20
105.4184939189749
 70
0
  0
VERTEX
  5
194A92
  8
0
 62
7
 10
141.01001572621451
 20
105.3759469616641
 70
0
  0
VERTEX
  5
194A93
  8
0
 62
7
 10
141.0944206212846
 20
105.3340890239049
 70
0
  0
VERTEX
  5
194A94
  8
0
 62
7
 10
141.1367953237075
 20
105.2915420665941
 70
0
  0
VERTEX
  5
194A95
  8
0
 62
7
 10
141.2639194309763
 20
105.2915420665941
 70
0
  0
SEQEND
  5
194A96
  8
0
  0
POLYLINE
  5
14FC9C
  8
0
 62
7
 66
1
 70
0
 10
0
 20
0
 30
0
  0
VERTEX
  5
194A97
  8
0
 62
7
 10
141.2639194309763
 20
103.47098015639919
 70
0
  0
VERTEX
  5
194A98
  8
0
 62
7
 10
141.2639194309763
 20
103.51352711371
 70
0
  0
SEQEND
  5
194A99
  8
0
  0
POLYLINE
  5
14FCA0
  8
0
 62
7
 66
1
 70
0
 10
0
 20
0
 30
0
  0
VERTEX
  5
194A9A
  8
0
 62
7
 10
142.2375040573763
 20
103.6830259234017
 70
0
  0
VERTEX
  5
194A9B
  8
0
 62
7
 10
142.1103799501075
 20
103.8520079684297
 70
0
  0
SEQEND
  5
194A9C
  8
0
  0
POLYLINE
  5
14FCA4
  8
0
 62
7
 66
1
 70
0
 10
0
 20
0
 30
0
  0
VERTEX
  5
194A9D
  8
0
 62
7
 10
141.60222803080811
 20
103.6830259234017
 70
0
  0
VERTEX
  5
194A9E
  8
0
 62
7
 10
141.6449472430069
 20
103.5560740710208
 70
0
  0
SEQEND
  5
194A9F
  8
0
  0
POLYLINE
  5
14FCA8
  8
0
 62
7
 66
1
 70
0
 10
0
 20
0
 30
0
  0
VERTEX
  5
194AA0
  8
0
 62
7
 10
140.2479601021534
 20
103.9789598208106
 70
0
  0
VERTEX
  5
194AA1
  8
0
 62
7
 10
140.2479601021534
 20
103.9371018830514
 70
0
  0
SEQEND
  5
194AA2
  8
0
  0
POLYLINE
  5
14FCAC
  8
0
 62
7
 66
1
 70
0
 10
0
 20
0
 30
0
  0
VERTEX
  5
194AA3
  8
0
 62
7
 10
138.17332223230889
 20
107.87398734596221
 70
0
  0
VERTEX
  5
194AA4
  8
0
 62
7
 10
137.7078895252082
 20
108.72044786509331
 70
0
  0
VERTEX
  5
194AA5
  8
0
 62
7
 10
137.0729580084159
 20
109.5250504464653
 70
0
  0
VERTEX
  5
194AA6
  8
0
 62
7
 10
136.35293257700181
 20
110.2443868583277
 70
0
  0
VERTEX
  5
194AA7
  8
0
 62
7
 10
135.54884676029371
 20
110.7950857349378
 70
0
  0
SEQEND
  5
194AA8
  8
0
  0
POLYLINE
  5
14FCB3
  8
0
 62
7
 66
1
 70
0
 10
0
 20
0
 30
0
  0
VERTEX
  5
194AA9
  8
0
 62
7
 10
138.17332223230889
 20
107.87398734596221
 70
0
  0
VERTEX
  5
194AAA
  8
0
 62
7
 10
137.7078895252082
 20
108.6779009077825
 70
0
  0
VERTEX
  5
194AAB
  8
0
 62
7
 10
137.157362903486
 20
109.43995653184361
 70
0
  0
VERTEX
  5
194AAC
  8
0
 62
7
 10
136.47971217449481
 20
110.15998196325759
 70
0
  0
VERTEX
  5
194AAD
  8
0
 62
7
 10
135.76037576263249
 20
110.70999182031621
 70
0
  0
SEQEND
  5
194AAE
  8
0
  0
POLYLINE
  5
14FCBA
  8
0
 62
7
 66
1
 70
0
 10
0
 20
0
 30
0
  0
VERTEX
  5
194AAF
  8
0
 62
7
 10
134.74441643380959
 20
116.0438644240804
 70
0
  0
VERTEX
  5
194AB0
  8
0
 62
7
 10
134.74441643380959
 20
116.0438644240804
 70
0
  0
SEQEND
  5
194AB1
  8
0
  0
POLYLINE
  5
14FCBE
  8
0
 62
7
 66
1
 70
0
 10
0
 20
0
 30
0
  0
VERTEX
  5
194AB2
  8
0
 62
7
 10
134.363388621779
 20
117.017965815144
 70
0
  0
VERTEX
  5
194AB3
  8
0
 62
7
 10
134.23626451451031
 20
117.5259454795555
 70
0
  0
SEQEND
  5
194AB4
  8
0
  0
POLYLINE
  5
14FCC2
  8
0
 62
7
 66
1
 70
0
 10
0
 20
0
 30
0
  0
VERTEX
  5
194AB5
  8
0
 62
7
 10
135.76037576263249
 20
118.71088685340639
 70
0
  0
VERTEX
  5
194AB6
  8
0
 62
7
 10
135.8030949748312
 20
118.6690289156472
 70
0
  0
SEQEND
  5
194AB7
  8
0
  0
POLYLINE
  5
14FCC6
  8
0
 62
7
 66
1
 70
0
 10
0
 20
0
 30
0
  0
VERTEX
  5
194AB8
  8
0
 62
7
 10
139.6974334804311
 20
119.00750977036689
 70
0
  0
VERTEX
  5
194AB9
  8
0
 62
7
 10
139.739808182854
 20
123.28287608799739
 70
0
  0
SEQEND
  5
194ABA
  8
0
  0
POLYLINE
  5
14FCCA
  8
0
 62
7
 66
1
 70
0
 10
0
 20
0
 30
0
  0
VERTEX
  5
194ABB
  8
0
 62
7
 10
136.56480608911659
 20
101.9894158655878
 70
0
  0
VERTEX
  5
194ABC
  8
0
 62
7
 10
136.183778277086
 20
101.1004083891458
 70
0
  0
VERTEX
  5
194ABD
  8
0
 62
7
 10
135.6759708675624
 20
100.2959780626617
 70
0
  0
VERTEX
  5
194ABE
  8
0
 62
7
 10
135.0827250336414
 20
99.5339224386006
 70
0
  0
SEQEND
  5
194ABF
  8
0
  0
POLYLINE
  5
14FCD0
  8
0
 62
7
 66
1
 70
0
 10
0
 20
0
 30
0
  0
VERTEX
  5
194AC0
  8
0
 62
7
 10
132.71249777616379
 20
99.660874290981482
 70
0
  0
VERTEX
  5
194AC1
  8
0
 62
7
 10
132.71249777616379
 20
99.703421248292372
 70
0
  0
SEQEND
  5
194AC2
  8
0
  0
POLYLINE
  5
14FCE0
  8
0
 62
7
 66
1
 70
0
 10
0
 20
0
 30
0
  0
VERTEX
  5
194AC3
  8
0
 62
7
 10
132.71249777616379
 20
99.660874290981482
 70
0
  0
VERTEX
  5
194AC4
  8
0
 62
7
 10
132.71249777616379
 20
99.660874290981482
 70
0
  0
VERTEX
  5
194AC5
  8
0
 62
7
 10
132.66977856396511
 20
99.619016353222264
 70
0
  0
SEQEND
  5
194AC6
  8
0
  0
POLYLINE
  5
14FD19
  8
0
 62
7
 66
1
 70
0
 10
0
 20
0
 30
0
  0
VERTEX
  5
194AC7
  8
0
 62
7
 10
126.48927318618181
 20
100.4229299150426
 70
0
  0
VERTEX
  5
194AC8
  8
0
 62
7
 10
126.4468984837589
 20
100.4229299150426
 70
0
  0
SEQEND
  5
194AC9
  8
0
  0
POLYLINE
  5
14FD1D
  8
0
 62
7
 66
1
 70
0
 10
0
 20
0
 30
0
  0
VERTEX
  5
194ACA
  8
0
 62
7
 10
127.335733705313
 20
106.307501395417
 70
0
  0
VERTEX
  5
194ACB
  8
0
 62
7
 10
127.335733705313
 20
106.307501395417
 70
0
  0
SEQEND
  5
194ACC
  8
0
  0
POLYLINE
  5
14FD21
  8
0
 62
7
 66
1
 70
0
 10
0
 20
0
 30
0
  0
VERTEX
  5
194ACD
  8
0
 62
7
 10
127.335733705313
 20
106.391906290487
 70
0
  0
VERTEX
  5
194ACE
  8
0
 62
7
 10
127.2940480224416
 20
106.391906290487
 70
0
  0
SEQEND
  5
194ACF
  8
0
  0
POLYLINE
  5
14FD25
  8
0
 62
7
 66
1
 70
0
 10
0
 20
0
 30
0
  0
VERTEX
  5
194AD0
  8
0
 62
7
 10
127.37845291751169
 20
106.307501395417
 70
0
  0
VERTEX
  5
194AD1
  8
0
 62
7
 10
127.335733705313
 20
106.307501395417
 70
0
  0
SEQEND
  5
194AD2
  8
0
  0
POLYLINE
  5
14FD29
  8
0
 62
7
 66
1
 70
0
 10
0
 20
0
 30
0
  0
VERTEX
  5
194AD3
  8
0
 62
7
 10
127.37845291751169
 20
106.43445324779781
 70
0
  0
VERTEX
  5
194AD4
  8
0
 62
7
 10
127.335733705313
 20
106.391906290487
 70
0
  0
SEQEND
  5
194AD5
  8
0
  0
POLYLINE
  5
14FD2D
  8
0
 62
7
 66
1
 70
0
 10
0
 20
0
 30
0
  0
VERTEX
  5
194AD6
  8
0
 62
7
 10
127.4208276199346
 20
106.3500483527278
 70
0
  0
VERTEX
  5
194AD7
  8
0
 62
7
 10
127.4208276199346
 20
106.3500483527278
 70
0
  0
VERTEX
  5
194AD8
  8
0
 62
7
 10
127.37845291751169
 20
106.307501395417
 70
0
  0
SEQEND
  5
194AD9
  8
0
  0
POLYLINE
  5
14FD32
  8
0
 62
7
 66
1
 70
0
 10
0
 20
0
 30
0
  0
VERTEX
  5
194ADA
  8
0
 62
7
 10
127.4208276199346
 20
106.43445324779781
 70
0
  0
VERTEX
  5
194ADB
  8
0
 62
7
 10
127.37845291751169
 20
106.43445324779781
 70
0
  0
SEQEND
  5
194ADC
  8
0
  0
POLYLINE
  5
14FD36
  8
0
 62
7
 66
1
 70
0
 10
0
 20
0
 30
0
  0
VERTEX
  5
194ADD
  8
0
 62
7
 10
127.50523251500471
 20
106.43445324779781
 70
0
  0
VERTEX
  5
194ADE
  8
0
 62
7
 10
127.63235662227351
 20
106.4770002051087
 70
0
  0
SEQEND
  5
194ADF
  8
0
  0
POLYLINE
  5
14FD3A
  8
0
 62
7
 66
1
 70
0
 10
0
 20
0
 30
0
  0
VERTEX
  5
194AE0
  8
0
 62
7
 10
127.5899819198506
 20
106.3500483527278
 70
0
  0
VERTEX
  5
194AE1
  8
0
 62
7
 10
127.50523251500471
 20
106.3500483527278
 70
0
  0
SEQEND
  5
194AE2
  8
0
  0
POLYLINE
  5
14FD3E
  8
0
 62
7
 66
1
 70
0
 10
0
 20
0
 30
0
  0
VERTEX
  5
194AE3
  8
0
 62
7
 10
127.5899819198506
 20
106.4770002051087
 70
0
  0
VERTEX
  5
194AE4
  8
0
 62
7
 10
127.50523251500471
 20
106.4770002051087
 70
0
  0
SEQEND
  5
194AE5
  8
0
  0
POLYLINE
  5
14FD42
  8
0
 62
7
 66
1
 70
0
 10
0
 20
0
 30
0
  0
VERTEX
  5
194AE6
  8
0
 62
7
 10
127.63235662227351
 20
106.391906290487
 70
0
  0
VERTEX
  5
194AE7
  8
0
 62
7
 10
127.63235662227351
 20
106.3500483527278
 70
0
  0
VERTEX
  5
194AE8
  8
0
 62
7
 10
127.5899819198506
 20
106.3500483527278
 70
0
  0
SEQEND
  5
194AE9
  8
0
  0
POLYLINE
  5
14FD47
  8
0
 62
7
 66
1
 70
0
 10
0
 20
0
 30
0
  0
VERTEX
  5
194AEA
  8
0
 62
7
 10
127.63235662227351
 20
106.4770002051087
 70
0
  0
VERTEX
  5
194AEB
  8
0
 62
7
 10
127.5899819198506
 20
106.4770002051087
 70
0
  0
SEQEND
  5
194AEC
  8
0
  0
POLYLINE
  5
14FD4B
  8
0
 62
7
 66
1
 70
0
 10
0
 20
0
 30
0
  0
VERTEX
  5
194AED
  8
0
 62
7
 10
134.87154054107839
 20
108.5509490554016
 70
0
  0
VERTEX
  5
194AEE
  8
0
 62
7
 10
134.87154054107839
 20
108.5509490554016
 70
0
  0
SEQEND
  5
194AEF
  8
0
  0
POLYLINE
  5
14FD4F
  8
0
 62
7
 66
1
 70
0
 10
0
 20
0
 30
0
  0
VERTEX
  5
194AF0
  8
0
 62
7
 10
127.5479517272035
 20
106.4770002051087
 70
0
  0
VERTEX
  5
194AF1
  8
0
 62
7
 10
127.5899819198506
 20
106.4770002051087
 70
0
  0
VERTEX
  5
194AF2
  8
0
 62
7
 10
127.63235662227351
 20
106.4770002051087
 70
0
  0
SEQEND
  5
194AF3
  8
0
  0
POLYLINE
  5
14FD54
  8
0
 62
7
 66
1
 70
0
 10
0
 20
0
 30
0
  0
VERTEX
  5
194AF4
  8
0
 62
7
 10
127.50523251500471
 20
106.60395205748959
 70
0
  0
VERTEX
  5
194AF5
  8
0
 62
7
 10
127.37845291751169
 20
106.60395205748959
 70
0
  0
SEQEND
  5
194AF6
  8
0
  0
POLYLINE
  5
14FD70
  8
0
 62
7
 66
1
 70
0
 10
0
 20
0
 30
0
  0
VERTEX
  5
194AF7
  8
0
 62
7
 10
131.23110574024031
 20
109.01707078205381
 70
0
  0
VERTEX
  5
194AF8
  8
0
 62
7
 10
131.82331804483391
 20
109.01707078205381
 70
0
  0
SEQEND
  5
194AF9
  8
0
  0
POLYLINE
  5
14FD78
  8
0
 62
7
 66
1
 70
0
 10
0
 20
0
 30
0
  0
VERTEX
  5
194AFA
  8
0
 62
7
 10
126.7435214007194
 20
107.74703549358129
 70
0
  0
VERTEX
  5
194AFB
  8
0
 62
7
 10
127.50523251500471
 20
107.7888934313405
 70
0
  0
SEQEND
  5
194AFC
  8
0
  0
POLYLINE
  5
14FD80
  8
0
 62
7
 66
1
 70
0
 10
0
 20
0
 30
0
  0
VERTEX
  5
194AFD
  8
0
 62
7
 10
126.9974251054811
 20
108.1280633056118
 70
0
  0
VERTEX
  5
194AFE
  8
0
 62
7
 10
127.7594807295423
 20
108.1280633056118
 70
0
  0
SEQEND
  5
194AFF
  8
0
  0
POLYLINE
  5
14FD88
  8
0
 62
7
 66
1
 70
0
 10
0
 20
0
 30
0
  0
VERTEX
  5
194B00
  8
0
 62
7
 10
127.2513288102429
 20
108.4239972030207
 70
0
  0
VERTEX
  5
194B01
  8
0
 62
7
 10
128.0133844343041
 20
108.46654416033159
 70
0
  0
SEQEND
  5
194B02
  8
0
  0
POLYLINE
  5
14FD94
  8
0
 62
7
 66
1
 70
0
 10
0
 20
0
 30
0
  0
VERTEX
  5
194B03
  8
0
 62
7
 10
127.50523251500471
 20
108.72044786509331
 70
0
  0
VERTEX
  5
194B04
  8
0
 62
7
 10
128.26728813906581
 20
108.7629948224041
 70
0
  0
SEQEND
  5
194B05
  8
0
  0
POLYLINE
  5
14FDA8
  8
0
 62
7
 66
1
 70
0
 10
0
 20
0
 30
0
  0
VERTEX
  5
194B06
  8
0
 62
7
 10
127.80185543196519
 20
109.01707078205381
 70
0
  0
VERTEX
  5
194B07
  8
0
 62
7
 10
128.5639110560264
 20
109.01707078205381
 70
0
  0
SEQEND
  5
194B08
  8
0
  0
POLYLINE
  5
14FDC4
  8
0
 62
7
 66
1
 70
0
 10
0
 20
0
 30
0
  0
VERTEX
  5
194B09
  8
0
 62
7
 10
128.1405085415729
 20
109.2284275295048
 70
0
  0
VERTEX
  5
194B0A
  8
0
 62
7
 10
128.9022196558582
 20
109.2709744868156
 70
0
  0
SEQEND
  5
194B0B
  8
0
  0
POLYLINE
  5
14FE70
  8
0
 62
7
 66
1
 70
0
 10
0
 20
0
 30
0
  0
VERTEX
  5
194B0C
  8
0
 62
7
 10
131.73891314976379
 20
109.01707078205381
 70
0
  0
VERTEX
  5
194B0D
  8
0
 62
7
 10
131.18838652804161
 20
109.01707078205381
 70
0
  0
SEQEND
  5
194B0E
  8
0
  0
POLYLINE
  5
14FE7C
  8
0
 62
7
 66
1
 70
0
 10
0
 20
0
 30
0
  0
VERTEX
  5
194B0F
  8
0
 62
7
 10
134.87154054107839
 20
108.5509490554016
 70
0
  0
VERTEX
  5
194B10
  8
0
 62
7
 10
134.7867911362325
 20
108.5509490554016
 70
0
  0
VERTEX
  5
194B11
  8
0
 62
7
 10
134.7867911362325
 20
108.59349601271251
 70
0
  0
SEQEND
  5
194B12
  8
0
  0
POLYLINE
  5
14FE81
  8
0
 62
7
 66
1
 70
0
 10
0
 20
0
 30
0
  0
VERTEX
  5
194B13
  8
0
 62
7
 10
126.95470589328239
 20
109.6520022988462
 70
0
  0
VERTEX
  5
194B14
  8
0
 62
7
 10
126.95470589328239
 20
109.6520022988462
 70
0
  0
VERTEX
  5
194B15
  8
0
 62
7
 10
126.9974251054811
 20
109.6094553415353
 70
0
  0
VERTEX
  5
194B16
  8
0
 62
7
 10
126.9974251054811
 20
109.5669083842245
 70
0
  0
SEQEND
  5
194B17
  8
0
  0
POLYLINE
  5
14FE87
  8
0
 62
7
 66
1
 70
0
 10
0
 20
0
 30
0
  0
VERTEX
  5
194B18
  8
0
 62
7
 10
131.907722939904
 20
109.01707078205381
 70
0
  0
VERTEX
  5
194B19
  8
0
 62
7
 10
131.39991553038041
 20
109.01707078205381
 70
0
  0
SEQEND
  5
194B1A
  8
0
  0
POLYLINE
  5
14FE8B
  8
0
 62
7
 66
1
 70
0
 10
0
 20
0
 30
0
  0
VERTEX
  5
194B1B
  8
0
 62
7
 10
135.54884676029371
 20
108.7629948224041
 70
0
  0
VERTEX
  5
194B1C
  8
0
 62
7
 10
135.59087695294079
 20
108.7629948224041
 70
0
  0
VERTEX
  5
194B1D
  8
0
 62
7
 10
135.63325165536369
 20
108.72044786509331
 70
0
  0
SEQEND
  5
194B1E
  8
0
  0
POLYLINE
  5
14FE90
  8
0
 62
7
 66
1
 70
0
 10
0
 20
0
 30
0
  0
VERTEX
  5
194B1F
  8
0
 62
7
 10
130.1724271992187
 20
110.4984628179774
 70
0
  0
VERTEX
  5
194B20
  8
0
 62
7
 10
130.12970798701991
 20
110.4984628179774
 70
0
  0
SEQEND
  5
194B21
  8
0
  0
POLYLINE
  5
14FE94
  8
0
 62
7
 66
1
 70
0
 10
0
 20
0
 30
0
  0
VERTEX
  5
194B22
  8
0
 62
7
 10
131.907722939904
 20
110.2443868583277
 70
0
  0
VERTEX
  5
194B23
  8
0
 62
7
 10
131.18838652804161
 20
110.3715109655965
 70
0
  0
VERTEX
  5
194B24
  8
0
 62
7
 10
130.51073579905051
 20
110.4140579229073
 70
0
  0
SEQEND
  5
194B25
  8
0
  0
POLYLINE
  5
14FE99
  8
0
 62
7
 66
1
 70
0
 10
0
 20
0
 30
0
  0
VERTEX
  5
194B26
  8
0
 62
7
 10
131.23110574024031
 20
110.3715109655965
 70
0
  0
VERTEX
  5
194B27
  8
0
 62
7
 10
131.95044215210271
 20
110.2443868583277
 70
0
  0
VERTEX
  5
194B28
  8
0
 62
7
 10
132.62809288109369
 20
109.9904831535659
 70
0
  0
SEQEND
  5
194B29
  8
0
  0
POLYLINE
  5
14FE9E
  8
0
 62
7
 66
1
 70
0
 10
0
 20
0
 30
0
  0
VERTEX
  5
194B2A
  8
0
 62
7
 10
133.09352558819441
 20
110.8369436726971
 70
0
  0
VERTEX
  5
194B2B
  8
0
 62
7
 10
133.13590029061729
 20
110.8369436726971
 70
0
  0
SEQEND
  5
194B2C
  8
0
  0
POLYLINE
  5
14FEA2
  8
0
 62
7
 66
1
 70
0
 10
0
 20
0
 30
0
  0
VERTEX
  5
194B2D
  8
0
 62
7
 10
139.9513371851929
 20
108.2550151579927
 70
0
  0
VERTEX
  5
194B2E
  8
0
 62
7
 10
139.2740309659776
 20
108.5090911176424
 70
0
  0
VERTEX
  5
194B2F
  8
0
 62
7
 10
137.835013632477
 20
109.14402263443471
 70
0
  0
VERTEX
  5
194B30
  8
0
 62
7
 10
136.90345919872419
 20
109.6938602366054
 70
0
  0
SEQEND
  5
194B31
  8
0
  0
POLYLINE
  5
14FEA8
  8
0
 62
7
 66
1
 70
0
 10
0
 20
0
 30
0
  0
VERTEX
  5
194B32
  8
0
 62
7
 10
135.54884676029371
 20
110.7950857349378
 70
0
  0
VERTEX
  5
194B33
  8
0
 62
7
 10
134.70169722161091
 20
111.2179714847277
 70
0
  0
VERTEX
  5
194B34
  8
0
 62
7
 10
133.77083180740959
 20
111.5569691041111
 70
0
  0
VERTEX
  5
194B35
  8
0
 62
7
 10
132.83927737365681
 20
111.6840932113799
 70
0
  0
VERTEX
  5
194B36
  8
0
 62
7
 10
132.500968773825
 20
111.6840932113799
 70
0
  0
SEQEND
  5
194B37
  8
0
  0
POLYLINE
  5
14FEAF
  8
0
 62
7
 66
1
 70
0
 10
0
 20
0
 30
0
  0
VERTEX
  5
194B38
  8
0
 62
7
 10
135.76037576263249
 20
110.70999182031621
 70
0
  0
VERTEX
  5
194B39
  8
0
 62
7
 10
134.95594543614851
 20
111.13356658965761
 70
0
  0
VERTEX
  5
194B3A
  8
0
 62
7
 10
134.10948491701731
 20
111.43001725173021
 70
0
  0
VERTEX
  5
194B3B
  8
0
 62
7
 10
133.26302439788611
 20
111.59899929675819
 70
0
  0
VERTEX
  5
194B3C
  8
0
 62
7
 10
132.500968773825
 20
111.6840932113799
 70
0
  0
SEQEND
  5
194B3D
  8
0
  0
POLYLINE
  5
14FEB6
  8
0
 62
7
 66
1
 70
0
 10
0
 20
0
 30
0
  0
VERTEX
  5
194B3E
  8
0
 62
7
 10
131.18838652804161
 20
116.3830342983517
 70
0
  0
VERTEX
  5
194B3F
  8
0
 62
7
 10
130.34192600891021
 20
117.0599960077912
 70
0
  0
SEQEND
  5
194B40
  8
0
  0
POLYLINE
  5
14FEBA
  8
0
 62
7
 66
1
 70
0
 10
0
 20
0
 30
0
  0
VERTEX
  5
194B41
  8
0
 62
7
 10
134.74441643380959
 20
116.0438644240804
 70
0
  0
VERTEX
  5
194B42
  8
0
 62
7
 10
134.7867911362325
 20
115.9594595290103
 70
0
  0
SEQEND
  5
194B43
  8
0
  0
POLYLINE
  5
14FEBE
  8
0
 62
7
 66
1
 70
0
 10
0
 20
0
 30
0
  0
VERTEX
  5
194B44
  8
0
 62
7
 10
134.7867911362325
 20
115.9594595290103
 70
0
  0
VERTEX
  5
194B45
  8
0
 62
7
 10
134.7867911362325
 20
115.9594595290103
 70
0
  0
SEQEND
  5
194B46
  8
0
  0
POLYLINE
  5
14FEC2
  8
0
 62
7
 66
1
 70
0
 10
0
 20
0
 30
0
  0
VERTEX
  5
194B47
  8
0
 62
7
 10
143.21074417400041
 20
103.8520079684297
 70
0
  0
VERTEX
  5
194B48
  8
0
 62
7
 10
143.0839645765075
 20
104.0640537354323
 70
0
  0
SEQEND
  5
194B49
  8
0
  0
POLYLINE
  5
14FEC6
  8
0
 62
7
 66
1
 70
0
 10
0
 20
0
 30
0
  0
VERTEX
  5
194B4A
  8
0
 62
7
 10
142.491407762138
 20
103.9371018830514
 70
0
  0
VERTEX
  5
194B4B
  8
0
 62
7
 10
142.61853186940681
 20
103.724883861161
 70
0
  0
SEQEND
  5
194B4C
  8
0
  0
POLYLINE
  5
14FECA
  8
0
 62
7
 66
1
 70
0
 10
0
 20
0
 30
0
  0
VERTEX
  5
194B4D
  8
0
 62
7
 10
143.50736709096091
 20
104.1059116731915
 70
0
  0
VERTEX
  5
194B4E
  8
0
 62
7
 10
143.591771986031
 20
103.9371018830514
 70
0
  0
SEQEND
  5
194B4F
  8
0
  0
POLYLINE
  5
14FECE
  8
0
 62
7
 66
1
 70
0
 10
0
 20
0
 30
0
  0
VERTEX
  5
194B50
  8
0
 62
7
 10
140.2479601021534
 20
108.04296939099
 70
0
  0
VERTEX
  5
194B51
  8
0
 62
7
 10
140.5018638069152
 20
107.4078656193099
 70
0
  0
VERTEX
  5
194B52
  8
0
 62
7
 10
140.713392809254
 20
106.7729341025176
 70
0
  0
VERTEX
  5
194B53
  8
0
 62
7
 10
140.88289161894571
 20
106.0959723930781
 70
0
  0
SEQEND
  5
194B54
  8
0
  0
POLYLINE
  5
14FED4
  8
0
 62
7
 66
1
 70
0
 10
0
 20
0
 30
0
  0
VERTEX
  5
194B55
  8
0
 62
7
 10
136.77633509145539
 20
117.5259454795555
 70
0
  0
VERTEX
  5
194B56
  8
0
 62
7
 10
136.60683628176369
 20
117.991550441544
 70
0
  0
SEQEND
  5
194B57
  8
0
  0
POLYLINE
  5
14FED8
  8
0
 62
7
 66
1
 70
0
 10
0
 20
0
 30
0
  0
VERTEX
  5
194B58
  8
0
 62
7
 10
137.20008211568469
 20
118.7534338107173
 70
0
  0
VERTEX
  5
194B59
  8
0
 62
7
 10
137.157362903486
 20
118.7959807680281
 70
0
  0
VERTEX
  5
194B5A
  8
0
 62
7
 10
137.157362903486
 20
118.880557917986
 70
0
  0
VERTEX
  5
194B5B
  8
0
 62
7
 10
137.0729580084159
 20
118.9231048752968
 70
0
  0
VERTEX
  5
194B5C
  8
0
 62
7
 10
136.98786409379429
 20
118.9649628130561
 70
0
  0
VERTEX
  5
194B5D
  8
0
 62
7
 10
136.90345919872419
 20
119.0500567276777
 70
0
  0
VERTEX
  5
194B5E
  8
0
 62
7
 10
136.77633509145539
 20
119.091914665437
 70
0
  0
VERTEX
  5
194B5F
  8
0
 62
7
 10
136.60683628176369
 20
119.091914665437
 70
0
  0
VERTEX
  5
194B60
  8
0
 62
7
 10
136.5224313866936
 20
119.13446162274781
 70
0
  0
SEQEND
  5
194B61
  8
0
  0
POLYLINE
  5
14FEE3
  8
0
 62
7
 66
1
 70
0
 10
0
 20
0
 30
0
  0
VERTEX
  5
194B62
  8
0
 62
7
 10
140.2479601021534
 20
103.9789598208106
 70
0
  0
VERTEX
  5
194B63
  8
0
 62
7
 10
140.2479601021534
 20
103.9371018830514
 70
0
  0
SEQEND
  5
194B64
  8
0
  0
POLYLINE
  5
14FEE7
  8
0
 62
7
 66
1
 70
0
 10
0
 20
0
 30
0
  0
VERTEX
  5
194B65
  8
0
 62
7
 10
139.9513371851929
 20
108.000939198343
 70
0
  0
VERTEX
  5
194B66
  8
0
 62
7
 10
139.9513371851929
 20
118.1610492512357
 70
0
  0
SEQEND
  5
194B67
  8
0
  0
POLYLINE
  5
14FEEB
  8
0
 62
7
 66
1
 70
0
 10
0
 20
0
 30
0
  0
VERTEX
  5
194B68
  8
0
 62
7
 10
140.2899902948005
 20
107.9158452837214
 70
0
  0
VERTEX
  5
194B69
  8
0
 62
7
 10
140.2899902948005
 20
119.0500567276777
 70
0
  0
SEQEND
  5
194B6A
  8
0
  0
POLYLINE
  5
14FEEF
  8
0
 62
7
 66
1
 70
0
 10
0
 20
0
 30
0
  0
VERTEX
  5
194B6B
  8
0
 62
7
 10
140.33236499722349
 20
119.13446162274781
 70
0
  0
VERTEX
  5
194B6C
  8
0
 62
7
 10
140.33236499722349
 20
107.7888934313405
 70
0
  0
SEQEND
  5
194B6D
  8
0
  0
POLYLINE
  5
14FEF3
  8
0
 62
7
 66
1
 70
0
 10
0
 20
0
 30
0
  0
VERTEX
  5
194B6E
  8
0
 62
7
 10
140.9672965140158
 20
118.7959807680281
 70
0
  0
VERTEX
  5
194B6F
  8
0
 62
7
 10
140.9672965140158
 20
106.8154810598284
 70
0
  0
SEQEND
  5
194B70
  8
0
  0
POLYLINE
  5
14FEF7
  8
0
 62
7
 66
1
 70
0
 10
0
 20
0
 30
0
  0
VERTEX
  5
194B71
  8
0
 62
7
 10
140.9672965140158
 20
105.2489951092832
 70
0
  0
VERTEX
  5
194B72
  8
0
 62
7
 10
140.9672965140158
 20
104.6989852522246
 70
0
  0
SEQEND
  5
194B73
  8
0
  0
POLYLINE
  5
14FEFB
  8
0
 62
7
 66
1
 70
0
 10
0
 20
0
 30
0
  0
VERTEX
  5
194B74
  8
0
 62
7
 10
136.6919301963853
 20
102.4973955299992
 70
0
  0
VERTEX
  5
194B75
  8
0
 62
7
 10
136.6919301963853
 20
102.45502082757631
 70
0
  0
VERTEX
  5
194B76
  8
0
 62
7
 10
136.6495554939624
 20
102.45502082757631
 70
0
  0
VERTEX
  5
194B77
  8
0
 62
7
 10
136.6495554939624
 20
102.4129906349291
 70
0
  0
SEQEND
  5
194B78
  8
0
  0
POLYLINE
  5
14FF01
  8
0
 62
7
 66
1
 70
0
 10
0
 20
0
 30
0
  0
VERTEX
  5
194B79
  8
0
 62
7
 10
135.88749986990121
 20
102.2860387825483
 70
0
  0
VERTEX
  5
194B7A
  8
0
 62
7
 10
135.88749986990121
 20
102.32789672030751
 70
0
  0
VERTEX
  5
194B7B
  8
0
 62
7
 10
135.97190476497141
 20
102.32789672030751
 70
0
  0
SEQEND
  5
194B7C
  8
0
  0
POLYLINE
  5
14FF06
  8
0
 62
7
 66
1
 70
0
 10
0
 20
0
 30
0
  0
VERTEX
  5
194B7D
  8
0
 62
7
 10
134.70169722161091
 20
100.4229299150426
 70
0
  0
VERTEX
  5
194B7E
  8
0
 62
7
 10
135.20984914091019
 20
101.1429553464566
 70
0
  0
VERTEX
  5
194B7F
  8
0
 62
7
 10
135.63325165536369
 20
101.9468689082769
 70
0
  0
VERTEX
  5
194B80
  8
0
 62
7
 10
135.88749986990121
 20
102.7940184469597
 70
0
  0
VERTEX
  5
194B81
  8
0
 62
7
 10
136.056998679593
 20
103.724883861161
 70
0
  0
VERTEX
  5
194B82
  8
0
 62
7
 10
136.0990288722401
 20
104.6564382949138
 70
0
  0
VERTEX
  5
194B83
  8
0
 62
7
 10
136.01427946739429
 20
105.58799272866671
 70
0
  0
SEQEND
  5
194B84
  8
0
  0
POLYLINE
  5
14FF4B
  8
0
 62
7
 66
1
 70
0
 10
0
 20
0
 30
0
  0
VERTEX
  5
194B85
  8
0
 62
7
 10
127.1669239151729
 20
103.5560740710208
 70
0
  0
VERTEX
  5
194B86
  8
0
 62
7
 10
127.2513288102429
 20
103.5560740710208
 70
0
  0
VERTEX
  5
194B87
  8
0
 62
7
 10
127.2940480224416
 20
103.59793200878011
 70
0
  0
VERTEX
  5
194B88
  8
0
 62
7
 10
127.335733705313
 20
103.6404789660909
 70
0
  0
VERTEX
  5
194B89
  8
0
 62
7
 10
127.335733705313
 20
103.89438267085271
 70
0
  0
VERTEX
  5
194B8A
  8
0
 62
7
 10
127.2513288102429
 20
103.9371018830514
 70
0
  0
VERTEX
  5
194B8B
  8
0
 62
7
 10
127.20895410782
 20
103.9789598208106
 70
0
  0
VERTEX
  5
194B8C
  8
0
 62
7
 10
127.12454921275
 20
103.9789598208106
 70
0
  0
SEQEND
  5
194B8D
  8
0
  0
POLYLINE
  5
14FF55
  8
0
 62
7
 66
1
 70
0
 10
0
 20
0
 30
0
  0
VERTEX
  5
194B8E
  8
0
 62
7
 10
127.08183000055119
 20
103.9789598208106
 70
0
  0
VERTEX
  5
194B8F
  8
0
 62
7
 10
127.0397998079041
 20
103.9789598208106
 70
0
  0
VERTEX
  5
194B90
  8
0
 62
7
 10
126.9974251054811
 20
103.9371018830514
 70
0
  0
VERTEX
  5
194B91
  8
0
 62
7
 10
126.95470589328239
 20
103.89438267085271
 70
0
  0
VERTEX
  5
194B92
  8
0
 62
7
 10
126.95470589328239
 20
103.8099777757826
 70
0
  0
VERTEX
  5
194B93
  8
0
 62
7
 10
126.91302021041111
 20
103.76743081847179
 70
0
  0
VERTEX
  5
194B94
  8
0
 62
7
 10
126.95470589328239
 20
103.6830259234017
 70
0
  0
VERTEX
  5
194B95
  8
0
 62
7
 10
126.95470589328239
 20
103.6404789660909
 70
0
  0
VERTEX
  5
194B96
  8
0
 62
7
 10
126.9974251054811
 20
103.59793200878011
 70
0
  0
VERTEX
  5
194B97
  8
0
 62
7
 10
127.08183000055119
 20
103.5560740710208
 70
0
  0
VERTEX
  5
194B98
  8
0
 62
7
 10
127.1669239151729
 20
103.5560740710208
 70
0
  0
SEQEND
  5
194B99
  8
0
  0
POLYLINE
  5
14FF8A
  8
0
 62
7
 66
1
 70
0
 10
0
 20
0
 30
0
  0
VERTEX
  5
194B9A
  8
0
 62
7
 10
130.97685752570271
 20
109.01707078205381
 70
0
  0
VERTEX
  5
194B9B
  8
0
 62
7
 10
130.85007792820971
 20
108.974523824743
 70
0
  0
SEQEND
  5
194B9C
  8
0
  0
POLYLINE
  5
14FF92
  8
0
 62
7
 66
1
 70
0
 10
0
 20
0
 30
0
  0
VERTEX
  5
194B9D
  8
0
 62
7
 10
130.97685752570271
 20
108.974523824743
 70
0
  0
VERTEX
  5
194B9E
  8
0
 62
7
 10
130.807358716011
 20
108.9319768674322
 70
0
  0
VERTEX
  5
194B9F
  8
0
 62
7
 10
130.5958297136722
 20
108.889946674785
 70
0
  0
VERTEX
  5
194BA0
  8
0
 62
7
 10
130.46905011617909
 20
108.8473997174742
 70
0
  0
VERTEX
  5
194BA1
  8
0
 62
7
 10
130.29955130648739
 20
108.8050250150513
 70
0
  0
VERTEX
  5
194BA2
  8
0
 62
7
 10
130.12970798701991
 20
108.7629948224041
 70
0
  0
SEQEND
  5
194BA3
  8
0
  0
POLYLINE
  5
14FF9A
  8
0
 62
7
 66
1
 70
0
 10
0
 20
0
 30
0
  0
VERTEX
  5
194BA4
  8
0
 62
7
 10
132.88199658585549
 20
110.0748880486359
 70
0
  0
VERTEX
  5
194BA5
  8
0
 62
7
 10
134.10948491701731
 20
110.28710607052641
 70
0
  0
SEQEND
  5
194BA6
  8
0
  0
POLYLINE
  5
14FFA2
  8
0
 62
7
 66
1
 70
0
 10
0
 20
0
 30
0
  0
VERTEX
  5
194BA7
  8
0
 62
7
 10
130.5958297136722
 20
109.9904831535659
 70
0
  0
VERTEX
  5
194BA8
  8
0
 62
7
 10
130.93448282327981
 20
110.0330301108767
 70
0
  0
SEQEND
  5
194BA9
  8
0
  0
POLYLINE
  5
14FFA6
  8
0
 62
7
 66
1
 70
0
 10
0
 20
0
 30
0
  0
VERTEX
  5
194BAA
  8
0
 62
7
 10
131.14601182561859
 20
109.01707078205381
 70
0
  0
VERTEX
  5
194BAB
  8
0
 62
7
 10
130.97685752570271
 20
108.974523824743
 70
0
  0
SEQEND
  5
194BAC
  8
0
  0
POLYLINE
  5
14FFAA
  8
0
 62
7
 66
1
 70
0
 10
0
 20
0
 30
0
  0
VERTEX
  5
194BAD
  8
0
 62
7
 10
131.39991553038041
 20
109.01707078205381
 70
0
  0
VERTEX
  5
194BAE
  8
0
 62
7
 10
130.85007792820971
 20
108.974523824743
 70
0
  0
SEQEND
  5
194BAF
  8
0
  0
POLYLINE
  5
14FFAE
  8
0
 62
7
 66
1
 70
0
 10
0
 20
0
 30
0
  0
VERTEX
  5
194BB0
  8
0
 62
7
 10
131.18838652804161
 20
109.01707078205381
 70
0
  0
VERTEX
  5
194BB1
  8
0
 62
7
 10
130.97685752570271
 20
109.01707078205381
 70
0
  0
SEQEND
  5
194BB2
  8
0
  0
POLYLINE
  5
14FFB2
  8
0
 62
7
 66
1
 70
0
 10
0
 20
0
 30
0
  0
VERTEX
  5
194BB3
  8
0
 62
7
 10
132.500968773825
 20
110.28710607052641
 70
0
  0
VERTEX
  5
194BB4
  8
0
 62
7
 10
132.500968773825
 20
110.2443868583277
 70
0
  0
VERTEX
  5
194BB5
  8
0
 62
7
 10
132.45824956162619
 20
110.28710607052641
 70
0
  0
SEQEND
  5
194BB6
  8
0
  0
POLYLINE
  5
14FFB7
  8
0
 62
7
 66
1
 70
0
 10
0
 20
0
 30
0
  0
VERTEX
  5
194BB7
  8
0
 62
7
 10
130.51073579905051
 20
110.4140579229073
 70
0
  0
VERTEX
  5
194BB8
  8
0
 62
7
 10
130.25683209428871
 20
110.3715109655965
 70
0
  0
SEQEND
  5
194BB9
  8
0
  0
POLYLINE
  5
14FFBB
  8
0
 62
7
 66
1
 70
0
 10
0
 20
0
 30
0
  0
VERTEX
  5
194BBA
  8
0
 62
7
 10
130.29955130648739
 20
110.4140579229073
 70
0
  0
VERTEX
  5
194BBB
  8
0
 62
7
 10
130.55345501124921
 20
110.4140579229073
 70
0
  0
VERTEX
  5
194BBC
  8
0
 62
7
 10
131.23110574024031
 20
110.3715109655965
 70
0
  0
SEQEND
  5
194BBD
  8
0
  0
POLYLINE
  5
14FFC0
  8
0
 62
7
 66
1
 70
0
 10
0
 20
0
 30
0
  0
VERTEX
  5
194BBE
  8
0
 62
7
 10
131.82331804483391
 20
110.7950857349378
 70
0
  0
VERTEX
  5
194BBF
  8
0
 62
7
 10
132.71249777616379
 20
110.7950857349378
 70
0
  0
SEQEND
  5
194BC0
  8
0
  0
POLYLINE
  5
14FFC4
  8
0
 62
7
 66
1
 70
0
 10
0
 20
0
 30
0
  0
VERTEX
  5
194BC1
  8
0
 62
7
 10
134.02508002194719
 20
110.3289640082856
 70
0
  0
VERTEX
  5
194BC2
  8
0
 62
7
 10
132.83927737365681
 20
110.2443868583277
 70
0
  0
SEQEND
  5
194BC3
  8
0
  0
POLYLINE
  5
14FFD0
  8
0
 62
7
 66
1
 70
0
 10
0
 20
0
 30
0
  0
VERTEX
  5
194BC4
  8
0
 62
7
 10
128.4788171414047
 20
109.43995653184361
 70
0
  0
VERTEX
  5
194BC5
  8
0
 62
7
 10
129.19884257281871
 20
109.4825034891544
 70
0
  0
SEQEND
  5
194BC6
  8
0
  0
POLYLINE
  5
14FFE4
  8
0
 62
7
 66
1
 70
0
 10
0
 20
0
 30
0
  0
VERTEX
  5
194BC7
  8
0
 62
7
 10
128.77544005836521
 20
109.6520022988462
 70
0
  0
VERTEX
  5
194BC8
  8
0
 62
7
 10
129.53749568242631
 20
109.6520022988462
 70
0
  0
SEQEND
  5
194BC9
  8
0
  0
POLYLINE
  5
14FFF8
  8
0
 62
7
 66
1
 70
0
 10
0
 20
0
 30
0
  0
VERTEX
  5
194BCA
  8
0
 62
7
 10
129.1564678703958
 20
109.7789541512271
 70
0
  0
VERTEX
  5
194BCB
  8
0
 62
7
 10
129.91852349445691
 20
109.8209843438742
 70
0
  0
SEQEND
  5
194BCC
  8
0
  0
POLYLINE
  5
15000C
  8
0
 62
7
 66
1
 70
0
 10
0
 20
0
 30
0
  0
VERTEX
  5
194BCD
  8
0
 62
7
 10
129.49477647022761
 20
109.9060782584958
 70
0
  0
VERTEX
  5
194BCE
  8
0
 62
7
 10
130.25683209428871
 20
109.9479361962551
 70
0
  0
SEQEND
  5
194BCF
  8
0
  0
POLYLINE
  5
150028
  8
0
 62
7
 66
1
 70
0
 10
0
 20
0
 30
0
  0
VERTEX
  5
194BD0
  8
0
 62
7
 10
130.08802230414861
 20
110.0330301108767
 70
0
  0
VERTEX
  5
194BD1
  8
0
 62
7
 10
130.807358716011
 20
110.0330301108767
 70
0
  0
SEQEND
  5
194BD2
  8
0
  0
POLYLINE
  5
1500C0
  8
0
 62
7
 66
1
 70
0
 10
0
 20
0
 30
0
  0
VERTEX
  5
194BD3
  8
0
 62
7
 10
130.72295382094089
 20
111.3449233371086
 70
0
  0
VERTEX
  5
194BD4
  8
0
 62
7
 10
130.93448282327981
 20
111.3449233371086
 70
0
  0
VERTEX
  5
194BD5
  8
0
 62
7
 10
131.82331804483391
 20
111.2605184420385
 70
0
  0
VERTEX
  5
194BD6
  8
0
 62
7
 10
132.66977856396511
 20
111.0489894396996
 70
0
  0
SEQEND
  5
194BD7
  8
0
  0
POLYLINE
  5
1500C6
  8
0
 62
7
 66
1
 70
0
 10
0
 20
0
 30
0
  0
VERTEX
  5
194BD8
  8
0
 62
7
 10
129.62190057749641
 20
111.2179714847277
 70
0
  0
VERTEX
  5
194BD9
  8
0
 62
7
 10
129.62190057749641
 20
111.2179714847277
 70
0
  0
SEQEND
  5
194BDA
  8
0
  0
POLYLINE
  5
1500CA
  8
0
 62
7
 66
1
 70
0
 10
0
 20
0
 30
0
  0
VERTEX
  5
194BDB
  8
0
 62
7
 10
147.99495143048179
 20
108.169921243371
 70
0
  0
VERTEX
  5
194BDC
  8
0
 62
7
 10
147.95223221828309
 20
108.169921243371
 70
0
  0
SEQEND
  5
194BDD
  8
0
  0
POLYLINE
  5
1500CE
  8
0
 62
7
 66
1
 70
0
 10
0
 20
0
 30
0
  0
VERTEX
  5
194BDE
  8
0
 62
7
 10
131.86603725703259
 20
116.00200648632121
 70
0
  0
VERTEX
  5
194BDF
  8
0
 62
7
 10
131.52669512787341
 20
116.1709885313491
 70
0
  0
SEQEND
  5
194BE0
  8
0
  0
POLYLINE
  5
1500D2
  8
0
 62
7
 66
1
 70
0
 10
0
 20
0
 30
0
  0
VERTEX
  5
194BE1
  8
0
 62
7
 10
131.52669512787341
 20
116.1709885313491
 70
0
  0
VERTEX
  5
194BE2
  8
0
 62
7
 10
131.18838652804161
 20
116.3830342983517
 70
0
  0
SEQEND
  5
194BE3
  8
0
  0
POLYLINE
  5
1500D6
  8
0
 62
7
 66
1
 70
0
 10
0
 20
0
 30
0
  0
VERTEX
  5
194BE4
  8
0
 62
7
 10
144.185017819952
 20
104.0640537354323
 70
0
  0
VERTEX
  5
194BE5
  8
0
 62
7
 10
144.1422986077533
 20
104.1484586305023
 70
0
  0
SEQEND
  5
194BE6
  8
0
  0
POLYLINE
  5
1500DA
  8
0
 62
7
 66
1
 70
0
 10
0
 20
0
 30
0
  0
VERTEX
  5
194BE7
  8
0
 62
7
 10
145.20097714877491
 20
104.2754104828832
 70
0
  0
VERTEX
  5
194BE8
  8
0
 62
7
 10
145.1158832341533
 20
104.2754104828832
 70
0
  0
SEQEND
  5
194BE9
  8
0
  0
POLYLINE
  5
1500DE
  8
0
 62
7
 66
1
 70
0
 10
0
 20
0
 30
0
  0
VERTEX
  5
194BEA
  8
0
 62
7
 10
144.52332641978381
 20
104.19100558781319
 70
0
  0
VERTEX
  5
194BEB
  8
0
 62
7
 10
144.5660456319826
 20
104.1059116731915
 70
0
  0
SEQEND
  5
194BEC
  8
0
  0
POLYLINE
  5
1500E2
  8
0
 62
7
 66
1
 70
0
 10
0
 20
0
 30
0
  0
VERTEX
  5
194BED
  8
0
 62
7
 10
137.114988201063
 20
118.7534338107173
 70
0
  0
VERTEX
  5
194BEE
  8
0
 62
7
 10
137.20008211568469
 20
118.4995301059555
 70
0
  0
SEQEND
  5
194BEF
  8
0
  0
POLYLINE
  5
1500E6
  8
0
 62
7
 66
1
 70
0
 10
0
 20
0
 30
0
  0
VERTEX
  5
194BF0
  8
0
 62
7
 10
141.6449472430069
 20
103.6830259234017
 70
0
  0
VERTEX
  5
194BF1
  8
0
 62
7
 10
141.6449472430069
 20
103.5560740710208
 70
0
  0
SEQEND
  5
194BF2
  8
0
  0
POLYLINE
  5
1500EA
  8
0
 62
7
 66
1
 70
0
 10
0
 20
0
 30
0
  0
VERTEX
  5
194BF3
  8
0
 62
7
 10
140.88289161894571
 20
106.0959723930781
 70
0
  0
VERTEX
  5
194BF4
  8
0
 62
7
 10
140.9672965140158
 20
105.4184939189749
 70
0
  0
VERTEX
  5
194BF5
  8
0
 62
7
 10
140.9672965140158
 20
104.74084318998391
 70
0
  0
VERTEX
  5
194BF6
  8
0
 62
7
 10
140.9249218115929
 20
104.0640537354323
 70
0
  0
SEQEND
  5
194BF7
  8
0
  0
POLYLINE
  5
1500F0
  8
0
 62
7
 66
1
 70
0
 10
0
 20
0
 30
0
  0
VERTEX
  5
194BF8
  8
0
 62
7
 10
141.55985332838509
 20
104.3599876328412
 70
0
  0
VERTEX
  5
194BF9
  8
0
 62
7
 10
141.55985332838509
 20
118.41512521088541
 70
0
  0
SEQEND
  5
194BFA
  8
0
  0
POLYLINE
  5
1500F4
  8
0
 62
7
 66
1
 70
0
 10
0
 20
0
 30
0
  0
VERTEX
  5
194BFB
  8
0
 62
7
 10
140.75611202145271
 20
106.60395205748959
 70
0
  0
VERTEX
  5
194BFC
  8
0
 62
7
 10
140.75611202145271
 20
106.6459822501367
 70
0
  0
VERTEX
  5
194BFD
  8
0
 62
7
 10
140.8405169165228
 20
106.73107616475841
 70
0
  0
VERTEX
  5
194BFE
  8
0
 62
7
 10
140.88289161894571
 20
106.7729341025176
 70
0
  0
VERTEX
  5
194BFF
  8
0
 62
7
 10
140.9249218115929
 20
106.8154810598284
 70
0
  0
VERTEX
  5
194C00
  8
0
 62
7
 10
140.9672965140158
 20
106.8154810598284
 70
0
  0
SEQEND
  5
194C01
  8
0
  0
POLYLINE
  5
1500FC
  8
0
 62
7
 66
1
 70
0
 10
0
 20
0
 30
0
  0
VERTEX
  5
194C02
  8
0
 62
7
 10
134.61729232654079
 20
100.16885395539291
 70
0
  0
VERTEX
  5
194C03
  8
0
 62
7
 10
134.49051272904779
 20
100.041902103012
 70
0
  0
VERTEX
  5
194C04
  8
0
 62
7
 10
134.363388621779
 20
99.957497207942012
 70
0
  0
VERTEX
  5
194C05
  8
0
 62
7
 10
134.278983726709
 20
99.830545355561085
 70
0
  0
SEQEND
  5
194C06
  8
0
  0
POLYLINE
  5
150102
  8
0
 62
7
 66
1
 70
0
 10
0
 20
0
 30
0
  0
VERTEX
  5
194C07
  8
0
 62
7
 10
134.10948491701731
 20
99.7879983982503
 70
0
  0
VERTEX
  5
194C08
  8
0
 62
7
 10
134.70169722161091
 20
100.4229299150426
 70
0
  0
SEQEND
  5
194C09
  8
0
  0
POLYLINE
  5
150106
  8
0
 62
7
 66
1
 70
0
 10
0
 20
0
 30
0
  0
VERTEX
  5
194C0A
  8
0
 62
7
 10
134.19388981208729
 20
101.31193739148461
 70
0
  0
VERTEX
  5
194C0B
  8
0
 62
7
 10
134.15185961944019
 20
101.2700794537254
 70
0
  0
SEQEND
  5
194C0C
  8
0
  0
POLYLINE
  5
15010A
  8
0
 62
7
 66
1
 70
0
 10
0
 20
0
 30
0
  0
VERTEX
  5
194C0D
  8
0
 62
7
 10
134.15185961944019
 20
101.2700794537254
 70
0
  0
VERTEX
  5
194C0E
  8
0
 62
7
 10
134.02508002194719
 20
101.1429553464566
 70
0
  0
VERTEX
  5
194C0F
  8
0
 62
7
 10
133.89795591467839
 20
101.0578614318348
 70
0
  0
SEQEND
  5
194C10
  8
0
  0
POLYLINE
  5
15010F
  8
0
 62
7
 66
1
 70
0
 10
0
 20
0
 30
0
  0
VERTEX
  5
194C11
  8
0
 62
7
 10
133.85523670247969
 20
101.0578614318348
 70
0
  0
VERTEX
  5
194C12
  8
0
 62
7
 10
133.98236080974851
 20
101.18498553910371
 70
0
  0
VERTEX
  5
194C13
  8
0
 62
7
 10
134.10948491701731
 20
101.31193739148461
 70
0
  0
VERTEX
  5
194C14
  8
0
 62
7
 10
134.23626451451031
 20
101.4388892438655
 70
0
  0
VERTEX
  5
194C15
  8
0
 62
7
 10
134.363388621779
 20
101.5658410962464
 70
0
  0
VERTEX
  5
194C16
  8
0
 62
7
 10
134.49051272904779
 20
101.735512160826
 70
0
  0
VERTEX
  5
194C17
  8
0
 62
7
 10
134.61729232654079
 20
101.90501097051769
 70
0
  0
VERTEX
  5
194C18
  8
0
 62
7
 10
134.70169722161091
 20
102.03196282289861
 70
0
  0
VERTEX
  5
194C19
  8
0
 62
7
 10
134.7867911362325
 20
102.20094486792659
 70
0
  0
VERTEX
  5
194C1A
  8
0
 62
7
 10
134.87154054107839
 20
102.3704436776183
 70
0
  0
VERTEX
  5
194C1B
  8
0
 62
7
 10
134.99832013857139
 20
102.53994248731
 70
0
  0
VERTEX
  5
194C1C
  8
0
 62
7
 10
135.04103935077
 20
102.7089245323381
 70
0
  0
VERTEX
  5
194C1D
  8
0
 62
7
 10
135.12544424584021
 20
102.87842334202981
 70
0
  0
VERTEX
  5
194C1E
  8
0
 62
7
 10
135.167818948263
 20
103.04792215172139
 70
0
  0
VERTEX
  5
194C1F
  8
0
 62
7
 10
135.25222384333321
 20
103.2594511540602
 70
0
  0
VERTEX
  5
194C20
  8
0
 62
7
 10
135.29494305553189
 20
103.428949963752
 70
0
  0
VERTEX
  5
194C21
  8
0
 62
7
 10
135.29494305553189
 20
103.59793200878011
 70
0
  0
VERTEX
  5
194C22
  8
0
 62
7
 10
135.3793479506019
 20
103.8099777757826
 70
0
  0
VERTEX
  5
194C23
  8
0
 62
7
 10
135.3793479506019
 20
104.19100558781319
 70
0
  0
VERTEX
  5
194C24
  8
0
 62
7
 10
135.42206716280069
 20
104.402534590152
 70
0
  0
VERTEX
  5
194C25
  8
0
 62
7
 10
135.42206716280069
 20
104.613891337603
 70
0
  0
VERTEX
  5
194C26
  8
0
 62
7
 10
135.3793479506019
 20
104.7835624021826
 70
0
  0
VERTEX
  5
194C27
  8
0
 62
7
 10
135.3793479506019
 20
105.2069649166361
 70
0
  0
VERTEX
  5
194C28
  8
0
 62
7
 10
135.336973248179
 20
105.3759469616641
 70
0
  0
SEQEND
  5
194C29
  8
0
  0
POLYLINE
  5
15012D
  8
0
 62
7
 66
1
 70
0
 10
0
 20
0
 30
0
  0
VERTEX
  5
194C2A
  8
0
 62
7
 10
133.72845710498669
 20
100.88905164169481
 70
0
  0
VERTEX
  5
194C2B
  8
0
 62
7
 10
134.15185961944019
 20
101.2700794537254
 70
0
  0
VERTEX
  5
194C2C
  8
0
 62
7
 10
134.53288743147081
 20
101.735512160826
 70
0
  0
VERTEX
  5
194C2D
  8
0
 62
7
 10
134.87154054107839
 20
102.2434918252374
 70
0
  0
VERTEX
  5
194C2E
  8
0
 62
7
 10
135.12544424584021
 20
102.7940184469597
 70
0
  0
VERTEX
  5
194C2F
  8
0
 62
7
 10
135.336973248179
 20
103.428949963752
 70
0
  0
VERTEX
  5
194C30
  8
0
 62
7
 10
135.42206716280069
 20
104.02150677812151
 70
0
  0
VERTEX
  5
194C31
  8
0
 62
7
 10
135.463752845672
 20
104.6564382949138
 70
0
  0
VERTEX
  5
194C32
  8
0
 62
7
 10
135.3793479506019
 20
105.3340890239049
 70
0
  0
VERTEX
  5
194C33
  8
0
 62
7
 10
135.25222384333321
 20
105.9264735833864
 70
0
  0
VERTEX
  5
194C34
  8
0
 62
7
 10
135.04103935077
 20
106.5188581428679
 70
0
  0
VERTEX
  5
194C35
  8
0
 62
7
 10
134.74441643380959
 20
107.0693847645902
 70
0
  0
VERTEX
  5
194C36
  8
0
 62
7
 10
134.40610783397781
 20
107.57753668388951
 70
0
  0
VERTEX
  5
194C37
  8
0
 62
7
 10
133.98236080974851
 20
108.04296939099
 70
0
  0
VERTEX
  5
194C38
  8
0
 62
7
 10
133.51692810264791
 20
108.3819670103736
 70
0
  0
VERTEX
  5
194C39
  8
0
 62
7
 10
133.00877618334849
 20
108.6779009077825
 70
0
  0
VERTEX
  5
194C3A
  8
0
 62
7
 10
132.45824956162619
 20
108.889946674785
 70
0
  0
SEQEND
  5
194C3B
  8
0
  0
POLYLINE
  5
150170
  8
0
 62
7
 66
1
 70
0
 10
0
 20
0
 30
0
  0
VERTEX
  5
194C3C
  8
0
 62
7
 10
130.85007792820971
 20
108.974523824743
 70
0
  0
VERTEX
  5
194C3D
  8
0
 62
7
 10
130.29955130648739
 20
108.8050250150513
 70
0
  0
VERTEX
  5
194C3E
  8
0
 62
7
 10
130.21480190164161
 20
108.7629948224041
 70
0
  0
SEQEND
  5
194C3F
  8
0
  0
POLYLINE
  5
150175
  8
0
 62
7
 66
1
 70
0
 10
0
 20
0
 30
0
  0
VERTEX
  5
194C40
  8
0
 62
7
 10
130.00292838952689
 20
109.8209843438742
 70
0
  0
VERTEX
  5
194C41
  8
0
 62
7
 10
130.5958297136722
 20
109.9904831535659
 70
0
  0
SEQEND
  5
194C42
  8
0
  0
POLYLINE
  5
150179
  8
0
 62
7
 66
1
 70
0
 10
0
 20
0
 30
0
  0
VERTEX
  5
194C43
  8
0
 62
7
 10
129.96089819687981
 20
110.45591586066639
 70
0
  0
VERTEX
  5
194C44
  8
0
 62
7
 10
129.833774089611
 20
110.4140579229073
 70
0
  0
SEQEND
  5
194C45
  8
0
  0
POLYLINE
  5
15017D
  8
0
 62
7
 66
1
 70
0
 10
0
 20
0
 30
0
  0
VERTEX
  5
194C46
  8
0
 62
7
 10
132.500968773825
 20
110.28710607052641
 70
0
  0
VERTEX
  5
194C47
  8
0
 62
7
 10
132.500968773825
 20
110.28710607052641
 70
0
  0
SEQEND
  5
194C48
  8
0
  0
POLYLINE
  5
150181
  8
0
 62
7
 66
1
 70
0
 10
0
 20
0
 30
0
  0
VERTEX
  5
194C49
  8
0
 62
7
 10
133.389803995379
 20
111.6840932113799
 70
0
  0
VERTEX
  5
194C4A
  8
0
 62
7
 10
133.26302439788611
 20
111.6840932113799
 70
0
  0
VERTEX
  5
194C4B
  8
0
 62
7
 10
133.22030518568741
 20
111.6840932113799
 70
0
  0
VERTEX
  5
194C4C
  8
0
 62
7
 10
133.13590029061729
 20
111.72595114913911
 70
0
  0
VERTEX
  5
194C4D
  8
0
 62
7
 10
133.09352558819441
 20
111.72595114913911
 70
0
  0
VERTEX
  5
194C4E
  8
0
 62
7
 10
133.00877618334849
 20
111.7684981064499
 70
0
  0
VERTEX
  5
194C4F
  8
0
 62
7
 10
133.00877618334849
 20
111.8110450637608
 70
0
  0
VERTEX
  5
194C50
  8
0
 62
7
 10
132.96640148092561
 20
111.8110450637608
 70
0
  0
SEQEND
  5
194C51
  8
0
  0
POLYLINE
  5
15018B
  8
0
 62
7
 66
1
 70
0
 10
0
 20
0
 30
0
  0
VERTEX
  5
194C52
  8
0
 62
7
 10
130.25683209428871
 20
110.3715109655965
 70
0
  0
VERTEX
  5
194C53
  8
0
 62
7
 10
129.79139938718811
 20
110.3289640082856
 70
0
  0
SEQEND
  5
194C54
  8
0
  0
POLYLINE
  5
15018F
  8
0
 62
7
 66
1
 70
0
 10
0
 20
0
 30
0
  0
VERTEX
  5
194C55
  8
0
 62
7
 10
127.20895410782
 20
109.7789541512271
 70
0
  0
VERTEX
  5
194C56
  8
0
 62
7
 10
128.52153635360341
 20
109.9479361962551
 70
0
  0
SEQEND
  5
194C57
  8
0
  0
POLYLINE
  5
150193
  8
0
 62
7
 66
1
 70
0
 10
0
 20
0
 30
0
  0
VERTEX
  5
194C58
  8
0
 62
7
 10
129.5798703848493
 20
111.2179714847277
 70
0
  0
VERTEX
  5
194C59
  8
0
 62
7
 10
129.62190057749641
 20
111.2179714847277
 70
0
  0
SEQEND
  5
194C5A
  8
0
  0
POLYLINE
  5
150197
  8
0
 62
7
 66
1
 70
0
 10
0
 20
0
 30
0
  0
VERTEX
  5
194C5B
  8
0
 62
7
 10
130.0453030919499
 20
111.30306539934929
 70
0
  0
VERTEX
  5
194C5C
  8
0
 62
7
 10
130.72295382094089
 20
111.3449233371086
 70
0
  0
SEQEND
  5
194C5D
  8
0
  0
POLYLINE
  5
15019B
  8
0
 62
7
 66
1
 70
0
 10
0
 20
0
 30
0
  0
VERTEX
  5
194C5E
  8
0
 62
7
 10
130.72295382094089
 20
111.641546254069
 70
0
  0
VERTEX
  5
194C5F
  8
0
 62
7
 10
130.25683209428871
 20
111.59899929675819
 70
0
  0
VERTEX
  5
194C60
  8
0
 62
7
 10
129.32596668008739
 20
111.43001725173021
 70
0
  0
VERTEX
  5
194C61
  8
0
 62
7
 10
128.43678694875749
 20
111.0908473774589
 70
0
  0
VERTEX
  5
194C62
  8
0
 62
7
 10
127.63235662227351
 20
110.58286771304741
 70
0
  0
VERTEX
  5
194C63
  8
0
 62
7
 10
126.8703009982124
 20
109.9904831535659
 70
0
  0
VERTEX
  5
194C64
  8
0
 62
7
 10
126.23536948142
 20
109.2709744868156
 70
0
  0
VERTEX
  5
194C65
  8
0
 62
7
 10
125.6848428596977
 20
108.4239972030207
 70
0
  0
VERTEX
  5
194C66
  8
0
 62
7
 10
125.2617848550199
 20
107.4929595339316
 70
0
  0
VERTEX
  5
194C67
  8
0
 62
7
 10
124.9655064478353
 20
106.5188581428679
 70
0
  0
VERTEX
  5
194C68
  8
0
 62
7
 10
124.79600763814361
 20
105.46104087628579
 70
0
  0
VERTEX
  5
194C69
  8
0
 62
7
 10
124.7539774454965
 20
104.44508154746291
 70
0
  0
VERTEX
  5
194C6A
  8
0
 62
7
 10
124.8383823405666
 20
103.3438560491304
 70
0
  0
SEQEND
  5
194C6B
  8
0
  0
POLYLINE
  5
1501AA
  8
0
 62
7
 66
1
 70
0
 10
0
 20
0
 30
0
  0
VERTEX
  5
194C6C
  8
0
 62
7
 10
132.500968773825
 20
111.6840932113799
 70
0
  0
VERTEX
  5
194C6D
  8
0
 62
7
 10
130.72295382094089
 20
111.641546254069
 70
0
  0
SEQEND
  5
194C6E
  8
0
  0
POLYLINE
  5
1501AE
  8
0
 62
7
 66
1
 70
0
 10
0
 20
0
 30
0
  0
VERTEX
  5
194C6F
  8
0
 62
7
 10
147.95223221828309
 20
108.169921243371
 70
0
  0
VERTEX
  5
194C70
  8
0
 62
7
 10
147.95223221828309
 20
108.169921243371
 70
0
  0
SEQEND
  5
194C71
  8
0
  0
POLYLINE
  5
1501B2
  8
0
 62
7
 66
1
 70
0
 10
0
 20
0
 30
0
  0
VERTEX
  5
194C72
  8
0
 62
7
 10
134.87154054107839
 20
115.9169125716995
 70
0
  0
VERTEX
  5
194C73
  8
0
 62
7
 10
135.20984914091019
 20
115.70555582424851
 70
0
  0
SEQEND
  5
194C74
  8
0
  0
POLYLINE
  5
1501B6
  8
0
 62
7
 66
1
 70
0
 10
0
 20
0
 30
0
  0
VERTEX
  5
194C75
  8
0
 62
7
 10
135.9298745723242
 20
115.2401231171479
 70
0
  0
VERTEX
  5
194C76
  8
0
 62
7
 10
139.9513371851929
 20
112.86886233034291
 70
0
  0
SEQEND
  5
194C77
  8
0
  0
POLYLINE
  5
1501BA
  8
0
 62
7
 66
1
 70
0
 10
0
 20
0
 30
0
  0
VERTEX
  5
194C78
  8
0
 62
7
 10
141.55985332838509
 20
111.9379969161417
 70
0
  0
VERTEX
  5
194C79
  8
0
 62
7
 10
147.95223221828309
 20
108.169921243371
 70
0
  0
SEQEND
  5
194C7A
  8
0
  0
POLYLINE
  5
1501BE
  8
0
 62
7
 66
1
 70
0
 10
0
 20
0
 30
0
  0
VERTEX
  5
194C7B
  8
0
 62
7
 10
134.87154054107839
 20
115.9169125716995
 70
0
  0
VERTEX
  5
194C7C
  8
0
 62
7
 10
134.8288213288796
 20
115.9169125716995
 70
0
  0
VERTEX
  5
194C7D
  8
0
 62
7
 10
134.7867911362325
 20
115.9594595290103
 70
0
  0
SEQEND
  5
194C7E
  8
0
  0
POLYLINE
  5
1501C3
  8
0
 62
7
 66
1
 70
0
 10
0
 20
0
 30
0
  0
VERTEX
  5
194C7F
  8
0
 62
7
 10
144.94707344401311
 20
106.2649544381061
 70
0
  0
VERTEX
  5
194C80
  8
0
 62
7
 10
144.8199493367444
 20
106.2649544381061
 70
0
  0
SEQEND
  5
194C81
  8
0
  0
POLYLINE
  5
1501C7
  8
0
 62
7
 66
1
 70
0
 10
0
 20
0
 30
0
  0
VERTEX
  5
194C82
  8
0
 62
7
 10
136.2258084697331
 20
118.3298590413758
 70
0
  0
VERTEX
  5
194C83
  8
0
 62
7
 10
136.14140357466309
 20
118.4569831486447
 70
0
  0
VERTEX
  5
194C84
  8
0
 62
7
 10
136.01427946739429
 20
118.5839350010255
 70
0
  0
VERTEX
  5
194C85
  8
0
 62
7
 10
135.9298745723242
 20
118.71088685340639
 70
0
  0
SEQEND
  5
194C86
  8
0
  0
POLYLINE
  5
1501CD
  8
0
 62
7
 66
1
 70
0
 10
0
 20
0
 30
0
  0
VERTEX
  5
194C87
  8
0
 62
7
 10
142.5758126572081
 20
104.02150677812151
 70
0
  0
VERTEX
  5
194C88
  8
0
 62
7
 10
142.61853186940681
 20
103.724883861161
 70
0
  0
SEQEND
  5
194C89
  8
0
  0
POLYLINE
  5
1501D1
  8
0
 62
7
 66
1
 70
0
 10
0
 20
0
 30
0
  0
VERTEX
  5
194C8A
  8
0
 62
7
 10
143.5500863031597
 20
104.1059116731915
 70
0
  0
VERTEX
  5
194C8B
  8
0
 62
7
 10
143.591771986031
 20
103.9371018830514
 70
0
  0
SEQEND
  5
194C8C
  8
0
  0
POLYLINE
  5
1501D5
  8
0
 62
7
 66
1
 70
0
 10
0
 20
0
 30
0
  0
VERTEX
  5
194C8D
  8
0
 62
7
 10
136.9458339011471
 20
99.619016353222264
 70
0
  0
VERTEX
  5
194C8E
  8
0
 62
7
 10
137.5383907155165
 20
100.33852501997249
 70
0
  0
VERTEX
  5
194C8F
  8
0
 62
7
 10
138.04654263481589
 20
101.1429553464566
 70
0
  0
VERTEX
  5
194C90
  8
0
 62
7
 10
138.4272259370706
 20
102.03196282289861
 70
0
  0
VERTEX
  5
194C91
  8
0
 62
7
 10
138.7238488540311
 20
102.9630004919877
 70
0
  0
VERTEX
  5
194C92
  8
0
 62
7
 10
138.89300315394709
 20
103.89438267085271
 70
0
  0
SEQEND
  5
194C93
  8
0
  0
POLYLINE
  5
1501DD
  8
0
 62
7
 66
1
 70
0
 10
0
 20
0
 30
0
  0
VERTEX
  5
194C94
  8
0
 62
7
 10
139.5279346707394
 20
103.6404789660909
 70
0
  0
VERTEX
  5
194C95
  8
0
 62
7
 10
138.93537785637
 20
103.0899523443686
 70
0
  0
VERTEX
  5
194C96
  8
0
 62
7
 10
138.6814741516082
 20
102.7940184469597
 70
0
  0
SEQEND
  5
194C97
  8
0
  0
POLYLINE
  5
1501E2
  8
0
 62
7
 66
1
 70
0
 10
0
 20
0
 30
0
  0
VERTEX
  5
194C98
  8
0
 62
7
 10
134.32101391935609
 20
100.16885395539291
 70
0
  0
VERTEX
  5
194C99
  8
0
 62
7
 10
133.77083180740959
 20
99.703421248292372
 70
0
  0
SEQEND
  5
194C9A
  8
0
  0
POLYLINE
  5
1501E6
  8
0
 62
7
 66
1
 70
0
 10
0
 20
0
 30
0
  0
VERTEX
  5
194C9B
  8
0
 62
7
 10
133.6440522099166
 20
99.745968205603134
 70
0
  0
VERTEX
  5
194C9C
  8
0
 62
7
 10
134.23626451451031
 20
100.2114009127037
 70
0
  0
VERTEX
  5
194C9D
  8
0
 62
7
 10
134.70169722161091
 20
100.76209978931379
 70
0
  0
VERTEX
  5
194C9E
  8
0
 62
7
 10
135.12544424584021
 20
101.3970313061062
 70
0
  0
VERTEX
  5
194C9F
  8
0
 62
7
 10
135.42206716280069
 20
102.0739930155457
 70
0
  0
VERTEX
  5
194CA0
  8
0
 62
7
 10
135.6759708675624
 20
102.835876384719
 70
0
  0
VERTEX
  5
194CA1
  8
0
 62
7
 10
135.8030949748312
 20
103.59793200878011
 70
0
  0
VERTEX
  5
194CA2
  8
0
 62
7
 10
135.88749986990121
 20
104.3599876328412
 70
0
  0
VERTEX
  5
194CA3
  8
0
 62
7
 10
135.8030949748312
 20
105.16441795932521
 70
0
  0
SEQEND
  5
194CA4
  8
0
  0
POLYLINE
  5
1501F1
  8
0
 62
7
 66
1
 70
0
 10
0
 20
0
 30
0
  0
VERTEX
  5
194CA5
  8
0
 62
7
 10
133.72845710498669
 20
99.660874290981482
 70
0
  0
VERTEX
  5
194CA6
  8
0
 62
7
 10
134.278983726709
 20
100.16885395539291
 70
0
  0
VERTEX
  5
194CA7
  8
0
 62
7
 10
134.7867911362325
 20
100.7193805771152
 70
0
  0
VERTEX
  5
194CA8
  8
0
 62
7
 10
135.167818948263
 20
101.3970313061062
 70
0
  0
VERTEX
  5
194CA9
  8
0
 62
7
 10
135.5064720578707
 20
102.0739930155457
 70
0
  0
VERTEX
  5
194CAA
  8
0
 62
7
 10
135.76037576263249
 20
102.7940184469597
 70
0
  0
VERTEX
  5
194CAB
  8
0
 62
7
 10
135.88749986990121
 20
103.59793200878011
 70
0
  0
VERTEX
  5
194CAC
  8
0
 62
7
 10
135.97190476497141
 20
104.3599876328412
 70
0
  0
VERTEX
  5
194CAD
  8
0
 62
7
 10
135.9298745723242
 20
105.16441795932521
 70
0
  0
VERTEX
  5
194CAE
  8
0
 62
7
 10
135.8030949748312
 20
105.9690205406972
 70
0
  0
VERTEX
  5
194CAF
  8
0
 62
7
 10
135.54884676029371
 20
106.73107616475841
 70
0
  0
VERTEX
  5
194CB0
  8
0
 62
7
 10
135.25222384333321
 20
107.4078656193099
 70
0
  0
VERTEX
  5
194CB1
  8
0
 62
7
 10
134.8288213288796
 20
108.085516348301
 70
0
  0
VERTEX
  5
194CB2
  8
0
 62
7
 10
134.363388621779
 20
108.6779009077825
 70
0
  0
VERTEX
  5
194CB3
  8
0
 62
7
 10
133.8128620000567
 20
109.2284275295048
 70
0
  0
SEQEND
  5
194CB4
  8
0
  0
POLYLINE
  5
150202
  8
0
 62
7
 66
1
 70
0
 10
0
 20
0
 30
0
  0
VERTEX
  5
194CB5
  8
0
 62
7
 10
135.0827250336414
 20
99.5339224386006
 70
0
  0
VERTEX
  5
194CB6
  8
0
 62
7
 10
135.04103935077
 20
99.5339224386006
 70
0
  0
SEQEND
  5
194CB7
  8
0
  0
POLYLINE
  5
150206
  8
0
 62
7
 66
1
 70
0
 10
0
 20
0
 30
0
  0
VERTEX
  5
194CB8
  8
0
 62
7
 10
133.89795591467839
 20
101.0578614318348
 70
0
  0
VERTEX
  5
194CB9
  8
0
 62
7
 10
133.72845710498669
 20
100.930909579454
 70
0
  0
VERTEX
  5
194CBA
  8
0
 62
7
 10
133.60133299771789
 20
100.8039577270732
 70
0
  0
VERTEX
  5
194CBB
  8
0
 62
7
 10
133.43183418802619
 20
100.76209978931379
 70
0
  0
VERTEX
  5
194CBC
  8
0
 62
7
 10
133.26302439788611
 20
100.6349756820451
 70
0
  0
VERTEX
  5
194CBD
  8
0
 62
7
 10
133.09352558819441
 20
100.5498817674235
 70
0
  0
VERTEX
  5
194CBE
  8
0
 62
7
 10
132.96640148092561
 20
100.5080238296642
 70
0
  0
VERTEX
  5
194CBF
  8
0
 62
7
 10
132.7969026712338
 20
100.4229299150426
 70
0
  0
SEQEND
  5
194CC0
  8
0
  0
POLYLINE
  5
15021C
  8
0
 62
7
 66
1
 70
0
 10
0
 20
0
 30
0
  0
VERTEX
  5
194CC1
  8
0
 62
7
 10
133.22030518568741
 20
100.6349756820451
 70
0
  0
VERTEX
  5
194CC2
  8
0
 62
7
 10
133.72845710498669
 20
100.88905164169481
 70
0
  0
SEQEND
  5
194CC3
  8
0
  0
POLYLINE
  5
150248
  8
0
 62
7
 66
1
 70
0
 10
0
 20
0
 30
0
  0
VERTEX
  5
194CC4
  8
0
 62
7
 10
129.79139938718811
 20
110.2443868583277
 70
0
  0
VERTEX
  5
194CC5
  8
0
 62
7
 10
129.113748658197
 20
110.0748880486359
 70
0
  0
VERTEX
  5
194CC6
  8
0
 62
7
 10
128.4788171414047
 20
109.7789541512271
 70
0
  0
VERTEX
  5
194CC7
  8
0
 62
7
 10
127.8862603270353
 20
109.3979263391965
 70
0
  0
SEQEND
  5
194CC8
  8
0
  0
POLYLINE
  5
15024E
  8
0
 62
7
 66
1
 70
0
 10
0
 20
0
 30
0
  0
VERTEX
  5
194CC9
  8
0
 62
7
 10
129.79139938718811
 20
110.3289640082856
 70
0
  0
VERTEX
  5
194CCA
  8
0
 62
7
 10
129.113748658197
 20
110.1174350059468
 70
0
  0
VERTEX
  5
194CCB
  8
0
 62
7
 10
128.4788171414047
 20
109.8209843438742
 70
0
  0
VERTEX
  5
194CCC
  8
0
 62
7
 10
127.8862603270353
 20
109.43995653184361
 70
0
  0
SEQEND
  5
194CCD
  8
0
  0
POLYLINE
  5
150254
  8
0
 62
7
 66
1
 70
0
 10
0
 20
0
 30
0
  0
VERTEX
  5
194CCE
  8
0
 62
7
 10
134.87154054107839
 20
116.84846700545231
 70
0
  0
VERTEX
  5
194CCF
  8
0
 62
7
 10
134.95594543614851
 20
116.8059200481415
 70
0
  0
VERTEX
  5
194CD0
  8
0
 62
7
 10
135.0827250336414
 20
116.7640621103823
 70
0
  0
VERTEX
  5
194CD1
  8
0
 62
7
 10
135.25222384333321
 20
116.6789681957606
 70
0
  0
VERTEX
  5
194CD2
  8
0
 62
7
 10
135.3793479506019
 20
116.6789681957606
 70
0
  0
SEQEND
  5
194CD3
  8
0
  0
POLYLINE
  5
15025B
  8
0
 62
7
 66
1
 70
0
 10
0
 20
0
 30
0
  0
VERTEX
  5
194CD4
  8
0
 62
7
 10
135.04103935077
 20
116.6371102580014
 70
0
  0
VERTEX
  5
194CD5
  8
0
 62
7
 10
134.74441643380959
 20
116.8059200481415
 70
0
  0
SEQEND
  5
194CD6
  8
0
  0
POLYLINE
  5
15025F
  8
0
 62
7
 66
1
 70
0
 10
0
 20
0
 30
0
  0
VERTEX
  5
194CD7
  8
0
 62
7
 10
133.72845710498669
 20
118.6264819583364
 70
0
  0
VERTEX
  5
194CD8
  8
0
 62
7
 10
134.44779351684909
 20
118.1610492512357
 70
0
  0
SEQEND
  5
194CD9
  8
0
  0
POLYLINE
  5
150263
  8
0
 62
7
 66
1
 70
0
 10
0
 20
0
 30
0
  0
VERTEX
  5
194CDA
  8
0
 62
7
 10
134.74441643380959
 20
116.8059200481415
 70
0
  0
VERTEX
  5
194CDB
  8
0
 62
7
 10
134.363388621779
 20
117.017965815144
 70
0
  0
SEQEND
  5
194CDC
  8
0
  0
POLYLINE
  5
150267
  8
0
 62
7
 66
1
 70
0
 10
0
 20
0
 30
0
  0
VERTEX
  5
194CDD
  8
0
 62
7
 10
134.70169722161091
 20
117.2294948174829
 70
0
  0
VERTEX
  5
194CDE
  8
0
 62
7
 10
134.23626451451031
 20
117.5259454795555
 70
0
  0
SEQEND
  5
194CDF
  8
0
  0
POLYLINE
  5
15026B
  8
0
 62
7
 66
1
 70
0
 10
0
 20
0
 30
0
  0
VERTEX
  5
194CE0
  8
0
 62
7
 10
134.40610783397781
 20
118.28800110361659
 70
0
  0
VERTEX
  5
194CE1
  8
0
 62
7
 10
134.49051272904779
 20
118.2454541463058
 70
0
  0
SEQEND
  5
194CE2
  8
0
  0
POLYLINE
  5
15026F
  8
0
 62
7
 66
1
 70
0
 10
0
 20
0
 30
0
  0
VERTEX
  5
194CE3
  8
0
 62
7
 10
136.77633509145539
 20
117.5259454795555
 70
0
  0
VERTEX
  5
194CE4
  8
0
 62
7
 10
137.0729580084159
 20
117.27204177479371
 70
0
  0
SEQEND
  5
194CE5
  8
0
  0
POLYLINE
  5
150273
  8
0
 62
7
 66
1
 70
0
 10
0
 20
0
 30
0
  0
VERTEX
  5
194CE6
  8
0
 62
7
 10
135.3793479506019
 20
116.97541885783321
 70
0
  0
VERTEX
  5
194CE7
  8
0
 62
7
 10
135.3793479506019
 20
116.97541885783321
 70
0
  0
VERTEX
  5
194CE8
  8
0
 62
7
 10
135.336973248179
 20
117.017965815144
 70
0
  0
VERTEX
  5
194CE9
  8
0
 62
7
 10
135.336973248179
 20
117.0599960077912
 70
0
  0
SEQEND
  5
194CEA
  8
0
  0
POLYLINE
  5
150279
  8
0
 62
7
 66
1
 70
0
 10
0
 20
0
 30
0
  0
VERTEX
  5
194CEB
  8
0
 62
7
 10
136.3953072794248
 20
117.14508992241279
 70
0
  0
VERTEX
  5
194CEC
  8
0
 62
7
 10
136.43802649162359
 20
117.14508992241279
 70
0
  0
VERTEX
  5
194CED
  8
0
 62
7
 10
136.47971217449481
 20
117.0599960077912
 70
0
  0
SEQEND
  5
194CEE
  8
0
  0
POLYLINE
  5
15027E
  8
0
 62
7
 66
1
 70
0
 10
0
 20
0
 30
0
  0
VERTEX
  5
194CEF
  8
0
 62
7
 10
144.52332641978381
 20
108.2550151579927
 70
0
  0
VERTEX
  5
194CF0
  8
0
 62
7
 10
144.94707344401311
 20
106.2649544381061
 70
0
  0
SEQEND
  5
194CF1
  8
0
  0
POLYLINE
  5
150282
  8
0
 62
7
 66
1
 70
0
 10
0
 20
0
 30
0
  0
VERTEX
  5
194CF2
  8
0
 62
7
 10
144.94707344401311
 20
106.2649544381061
 70
0
  0
VERTEX
  5
194CF3
  8
0
 62
7
 10
144.94707344401311
 20
106.2649544381061
 70
0
  0
SEQEND
  5
194CF4
  8
0
  0
POLYLINE
  5
150286
  8
0
 62
7
 66
1
 70
0
 10
0
 20
0
 30
0
  0
VERTEX
  5
194CF5
  8
0
 62
7
 10
144.5660456319826
 20
104.19100558781319
 70
0
  0
VERTEX
  5
194CF6
  8
0
 62
7
 10
144.5660456319826
 20
104.1059116731915
 70
0
  0
SEQEND
  5
194CF7
  8
0
  0
POLYLINE
  5
15028A
  8
0
 62
7
 66
1
 70
0
 10
0
 20
0
 30
0
  0
VERTEX
  5
194CF8
  8
0
 62
7
 10
144.94707344401311
 20
104.2328635255724
 70
0
  0
VERTEX
  5
194CF9
  8
0
 62
7
 10
144.94707344401311
 20
104.2328635255724
 70
0
  0
VERTEX
  5
194CFA
  8
0
 62
7
 10
144.86197952939151
 20
104.19100558781319
 70
0
  0
VERTEX
  5
194CFB
  8
0
 62
7
 10
144.7772301245455
 20
104.19100558781319
 70
0
  0
VERTEX
  5
194CFC
  8
0
 62
7
 10
144.65045052705261
 20
104.1484586305023
 70
0
  0
SEQEND
  5
194CFD
  8
0
  0
POLYLINE
  5
150291
  8
0
 62
7
 66
1
 70
0
 10
0
 20
0
 30
0
  0
VERTEX
  5
194CFE
  8
0
 62
7
 10
134.74441643380959
 20
99.195441583880864
 70
0
  0
VERTEX
  5
194CFF
  8
0
 62
7
 10
133.98236080974851
 20
98.64491496215858
 70
0
  0
VERTEX
  5
194D00
  8
0
 62
7
 10
133.22030518568741
 20
98.2220292123688
 70
0
  0
VERTEX
  5
194D01
  8
0
 62
7
 10
132.3738446665561
 20
97.967953252719113
 70
0
  0
SEQEND
  5
194D02
  8
0
  0
POLYLINE
  5
150297
  8
0
 62
7
 66
1
 70
0
 10
0
 20
0
 30
0
  0
VERTEX
  5
194D03
  8
0
 62
7
 10
139.99405639739149
 20
103.9789598208106
 70
0
  0
VERTEX
  5
194D04
  8
0
 62
7
 10
139.5279346707394
 20
103.6404789660909
 70
0
  0
SEQEND
  5
194D05
  8
0
  0
POLYLINE
  5
15029B
  8
0
 62
7
 66
1
 70
0
 10
0
 20
0
 30
0
  0
VERTEX
  5
194D06
  8
0
 62
7
 10
133.77083180740959
 20
99.703421248292372
 70
0
  0
VERTEX
  5
194D07
  8
0
 62
7
 10
133.13590029061729
 20
99.280018733838844
 70
0
  0
SEQEND
  5
194D08
  8
0
  0
POLYLINE
  5
15029F
  8
0
 62
7
 66
1
 70
0
 10
0
 20
0
 30
0
  0
VERTEX
  5
194D09
  8
0
 62
7
 10
133.09352558819441
 20
99.3649403935726
 70
0
  0
VERTEX
  5
194D0A
  8
0
 62
7
 10
133.6440522099166
 20
99.745968205603134
 70
0
  0
SEQEND
  5
194D0B
  8
0
  0
POLYLINE
  5
1502A3
  8
0
 62
7
 66
1
 70
0
 10
0
 20
0
 30
0
  0
VERTEX
  5
194D0C
  8
0
 62
7
 10
133.13590029061729
 20
99.280018733838844
 70
0
  0
VERTEX
  5
194D0D
  8
0
 62
7
 10
133.72845710498669
 20
99.660874290981482
 70
0
  0
SEQEND
  5
194D0E
  8
0
  0
POLYLINE
  5
1502A7
  8
0
 62
7
 66
1
 70
0
 10
0
 20
0
 30
0
  0
VERTEX
  5
194D0F
  8
0
 62
7
 10
134.278983726709
 20
99.830545355561085
 70
0
  0
VERTEX
  5
194D10
  8
0
 62
7
 10
134.278983726709
 20
99.872920057984047
 70
0
  0
VERTEX
  5
194D11
  8
0
 62
7
 10
134.32101391935609
 20
99.872920057984047
 70
0
  0
SEQEND
  5
194D12
  8
0
  0
POLYLINE
  5
1502AC
  8
0
 62
7
 66
1
 70
0
 10
0
 20
0
 30
0
  0
VERTEX
  5
194D13
  8
0
 62
7
 10
132.71249777616379
 20
99.745968205603134
 70
0
  0
VERTEX
  5
194D14
  8
0
 62
7
 10
132.71249777616379
 20
99.745968205603134
 70
0
  0
SEQEND
  5
194D15
  8
0
  0
POLYLINE
  5
1502B0
  8
0
 62
7
 66
1
 70
0
 10
0
 20
0
 30
0
  0
VERTEX
  5
194D16
  8
0
 62
7
 10
132.500968773825
 20
100.0000441652528
 70
0
  0
VERTEX
  5
194D17
  8
0
 62
7
 10
132.500968773825
 20
100.0000441652528
 70
0
  0
VERTEX
  5
194D18
  8
0
 62
7
 10
132.45824956162619
 20
99.957497207942012
 70
0
  0
VERTEX
  5
194D19
  8
0
 62
7
 10
132.41587485920331
 20
99.914950250631165
 70
0
  0
VERTEX
  5
194D1A
  8
0
 62
7
 10
132.3738446665561
 20
99.872920057984047
 70
0
  0
VERTEX
  5
194D1B
  8
0
 62
7
 10
132.3738446665561
 20
99.830545355561085
 70
0
  0
VERTEX
  5
194D1C
  8
0
 62
7
 10
132.33146996413319
 20
99.745968205603134
 70
0
  0
VERTEX
  5
194D1D
  8
0
 62
7
 10
132.33146996413319
 20
99.619016353222264
 70
0
  0
SEQEND
  5
194D1E
  8
0
  0
POLYLINE
  5
1502CE
  8
0
 62
7
 66
1
 70
0
 10
0
 20
0
 30
0
  0
VERTEX
  5
194D1F
  8
0
 62
7
 10
132.71249777616379
 20
100.3810719772833
 70
0
  0
VERTEX
  5
194D20
  8
0
 62
7
 10
133.22030518568741
 20
100.6349756820451
 70
0
  0
SEQEND
  5
194D21
  8
0
  0
POLYLINE
  5
1502F2
  8
0
 62
7
 66
1
 70
0
 10
0
 20
0
 30
0
  0
VERTEX
  5
194D22
  8
0
 62
7
 10
137.0729580084159
 20
117.27204177479371
 70
0
  0
VERTEX
  5
194D23
  8
0
 62
7
 10
137.4112666082477
 20
117.102542965102
 70
0
  0
SEQEND
  5
194D24
  8
0
  0
POLYLINE
  5
1502F6
  8
0
 62
7
 66
1
 70
0
 10
0
 20
0
 30
0
  0
VERTEX
  5
194D25
  8
0
 62
7
 10
136.9458339011471
 20
117.27204177479371
 70
0
  0
VERTEX
  5
194D26
  8
0
 62
7
 10
136.86073998652549
 20
117.313899712553
 70
0
  0
VERTEX
  5
194D27
  8
0
 62
7
 10
136.73396038903249
 20
117.3564466698638
 70
0
  0
VERTEX
  5
194D28
  8
0
 62
7
 10
136.56480608911659
 20
117.39899362717461
 70
0
  0
VERTEX
  5
194D29
  8
0
 62
7
 10
136.43802649162359
 20
117.44085156493379
 70
0
  0
VERTEX
  5
194D2A
  8
0
 62
7
 10
135.3793479506019
 20
117.44085156493379
 70
0
  0
VERTEX
  5
194D2B
  8
0
 62
7
 10
135.25222384333321
 20
117.39899362717461
 70
0
  0
VERTEX
  5
194D2C
  8
0
 62
7
 10
135.0827250336414
 20
117.3564466698638
 70
0
  0
VERTEX
  5
194D2D
  8
0
 62
7
 10
134.95594543614851
 20
117.313899712553
 70
0
  0
VERTEX
  5
194D2E
  8
0
 62
7
 10
134.87154054107839
 20
117.27204177479371
 70
0
  0
VERTEX
  5
194D2F
  8
0
 62
7
 10
134.7867911362325
 20
117.1869478601721
 70
0
  0
VERTEX
  5
194D30
  8
0
 62
7
 10
134.74441643380959
 20
117.14508992241279
 70
0
  0
VERTEX
  5
194D31
  8
0
 62
7
 10
134.70169722161091
 20
117.0599960077912
 70
0
  0
SEQEND
  5
194D32
  8
0
  0
POLYLINE
  5
150305
  8
0
 62
7
 66
1
 70
0
 10
0
 20
0
 30
0
  0
VERTEX
  5
194D33
  8
0
 62
7
 10
136.5224313866936
 20
118.6690289156472
 70
0
  0
VERTEX
  5
194D34
  8
0
 62
7
 10
136.43802649162359
 20
118.71088685340639
 70
0
  0
SEQEND
  5
194D35
  8
0
  0
POLYLINE
  5
150309
  8
0
 62
7
 66
1
 70
0
 10
0
 20
0
 30
0
  0
VERTEX
  5
194D36
  8
0
 62
7
 10
133.09352558819441
 20
121.8858889471439
 70
0
  0
VERTEX
  5
194D37
  8
0
 62
7
 10
133.09352558819441
 20
121.9284359044547
 70
0
  0
SEQEND
  5
194D38
  8
0
  0
POLYLINE
  5
15030D
  8
0
 62
7
 66
1
 70
0
 10
0
 20
0
 30
0
  0
VERTEX
  5
194D39
  8
0
 62
7
 10
145.20097714877491
 20
104.2754104828832
 70
0
  0
VERTEX
  5
194D3A
  8
0
 62
7
 10
144.94707344401311
 20
106.2649544381061
 70
0
  0
SEQEND
  5
194D3B
  8
0
  0
POLYLINE
  5
150311
  8
0
 62
7
 66
1
 70
0
 10
0
 20
0
 30
0
  0
VERTEX
  5
194D3C
  8
0
 62
7
 10
133.89795591467839
 20
98.771866814539436
 70
0
  0
VERTEX
  5
194D3D
  8
0
 62
7
 10
133.89795591467839
 20
98.771866814539436
 70
0
  0
SEQEND
  5
194D3E
  8
0
  0
POLYLINE
  5
150315
  8
0
 62
7
 66
1
 70
0
 10
0
 20
0
 30
0
  0
VERTEX
  5
194D3F
  8
0
 62
7
 10
154.72598342998739
 20
109.4825034891544
 70
0
  0
VERTEX
  5
194D40
  8
0
 62
7
 10
154.72598342998739
 20
109.4825034891544
 70
0
  0
VERTEX
  5
194D41
  8
0
 62
7
 10
154.68326421778869
 20
109.43995653184361
 70
0
  0
SEQEND
  5
194D42
  8
0
  0
POLYLINE
  5
15031A
  8
0
 62
7
 66
1
 70
0
 10
0
 20
0
 30
0
  0
VERTEX
  5
194D43
  8
0
 62
7
 10
133.13590029061729
 20
99.280018733838844
 70
0
  0
VERTEX
  5
194D44
  8
0
 62
7
 10
132.500968773825
 20
98.984084836429943
 70
0
  0
VERTEX
  5
194D45
  8
0
 62
7
 10
131.82331804483391
 20
98.814413771850283
 70
0
  0
SEQEND
  5
194D46
  8
0
  0
POLYLINE
  5
15031F
  8
0
 62
7
 66
1
 70
0
 10
0
 20
0
 30
0
  0
VERTEX
  5
194D47
  8
0
 62
7
 10
132.45824956162619
 20
99.06848973149998
 70
0
  0
VERTEX
  5
194D48
  8
0
 62
7
 10
133.09352558819441
 20
99.3649403935726
 70
0
  0
SEQEND
  5
194D49
  8
0
  0
POLYLINE
  5
150323
  8
0
 62
7
 66
1
 70
0
 10
0
 20
0
 30
0
  0
VERTEX
  5
194D4A
  8
0
 62
7
 10
132.500968773825
 20
98.984084836429943
 70
0
  0
VERTEX
  5
194D4B
  8
0
 62
7
 10
133.13590029061729
 20
99.280018733838844
 70
0
  0
SEQEND
  5
194D4C
  8
0
  0
POLYLINE
  5
150327
  8
0
 62
7
 66
1
 70
0
 10
0
 20
0
 30
0
  0
VERTEX
  5
194D4D
  8
0
 62
7
 10
131.95044215210271
 20
97.882859338097461
 70
0
  0
VERTEX
  5
194D4E
  8
0
 62
7
 10
131.907722939904
 20
97.841001400338229
 70
0
  0
SEQEND
  5
194D4F
  8
0
  0
POLYLINE
  5
15032B
  8
0
 62
7
 66
1
 70
0
 10
0
 20
0
 30
0
  0
VERTEX
  5
194D50
  8
0
 62
7
 10
142.61853186940681
 20
104.02150677812151
 70
0
  0
VERTEX
  5
194D51
  8
0
 62
7
 10
141.47544843331511
 20
103.59793200878011
 70
0
  0
VERTEX
  5
194D52
  8
0
 62
7
 10
140.2479601021534
 20
102.9209702993406
 70
0
  0
VERTEX
  5
194D53
  8
0
 62
7
 10
139.1048766660617
 20
102.03196282289861
 70
0
  0
VERTEX
  5
194D54
  8
0
 62
7
 10
138.00382342261719
 20
100.930909579454
 70
0
  0
VERTEX
  5
194D55
  8
0
 62
7
 10
137.6655148227853
 20
100.5080238296642
 70
0
  0
SEQEND
  5
194D56
  8
0
  0
POLYLINE
  5
150333
  8
0
 62
7
 66
1
 70
0
 10
0
 20
0
 30
0
  0
VERTEX
  5
194D57
  8
0
 62
7
 10
132.7969026712338
 20
100.4229299150426
 70
0
  0
VERTEX
  5
194D58
  8
0
 62
7
 10
132.62809288109369
 20
100.3810719772833
 70
0
  0
VERTEX
  5
194D59
  8
0
 62
7
 10
132.45824956162619
 20
100.33852501997249
 70
0
  0
SEQEND
  5
194D5A
  8
0
  0
POLYLINE
  5
15033C
  8
0
 62
7
 66
1
 70
0
 10
0
 20
0
 30
0
  0
VERTEX
  5
194D5B
  8
0
 62
7
 10
136.183778277086
 20
116.6371102580014
 70
0
  0
VERTEX
  5
194D5C
  8
0
 62
7
 10
136.26852768193189
 20
116.6371102580014
 70
0
  0
VERTEX
  5
194D5D
  8
0
 62
7
 10
136.43802649162359
 20
116.6789681957606
 70
0
  0
VERTEX
  5
194D5E
  8
0
 62
7
 10
136.56480608911659
 20
116.6789681957606
 70
0
  0
VERTEX
  5
194D5F
  8
0
 62
7
 10
136.73396038903249
 20
116.7640621103823
 70
0
  0
VERTEX
  5
194D60
  8
0
 62
7
 10
136.86073998652549
 20
116.8059200481415
 70
0
  0
VERTEX
  5
194D61
  8
0
 62
7
 10
136.9458339011471
 20
116.84846700545231
 70
0
  0
VERTEX
  5
194D62
  8
0
 62
7
 10
137.03023879621719
 20
116.8910139627632
 70
0
  0
VERTEX
  5
194D63
  8
0
 62
7
 10
137.0729580084159
 20
116.9328719005224
 70
0
  0
VERTEX
  5
194D64
  8
0
 62
7
 10
137.114988201063
 20
117.017965815144
 70
0
  0
VERTEX
  5
194D65
  8
0
 62
7
 10
137.114988201063
 20
117.0599960077912
 70
0
  0
SEQEND
  5
194D66
  8
0
  0
POLYLINE
  5
150349
  8
0
 62
7
 66
1
 70
0
 10
0
 20
0
 30
0
  0
VERTEX
  5
194D67
  8
0
 62
7
 10
134.70169722161091
 20
118.54207706326631
 70
0
  0
VERTEX
  5
194D68
  8
0
 62
7
 10
134.61729232654079
 20
118.54207706326631
 70
0
  0
VERTEX
  5
194D69
  8
0
 62
7
 10
134.53288743147081
 20
118.54207706326631
 70
0
  0
SEQEND
  5
194D6A
  8
0
  0
POLYLINE
  5
15034E
  8
0
 62
7
 66
1
 70
0
 10
0
 20
0
 30
0
  0
VERTEX
  5
194D6B
  8
0
 62
7
 10
134.70169722161091
 20
118.54207706326631
 70
0
  0
VERTEX
  5
194D6C
  8
0
 62
7
 10
134.7867911362325
 20
118.4995301059555
 70
0
  0
SEQEND
  5
194D6D
  8
0
  0
POLYLINE
  5
150352
  8
0
 62
7
 66
1
 70
0
 10
0
 20
0
 30
0
  0
VERTEX
  5
194D6E
  8
0
 62
7
 10
134.87154054107839
 20
118.880557917986
 70
0
  0
VERTEX
  5
194D6F
  8
0
 62
7
 10
134.74441643380959
 20
118.9231048752968
 70
0
  0
SEQEND
  5
194D70
  8
0
  0
POLYLINE
  5
150356
  8
0
 62
7
 66
1
 70
0
 10
0
 20
0
 30
0
  0
VERTEX
  5
194D71
  8
0
 62
7
 10
135.04103935077
 20
119.0500567276777
 70
0
  0
VERTEX
  5
194D72
  8
0
 62
7
 10
135.167818948263
 20
118.9649628130561
 70
0
  0
SEQEND
  5
194D73
  8
0
  0
POLYLINE
  5
15035A
  8
0
 62
7
 66
1
 70
0
 10
0
 20
0
 30
0
  0
VERTEX
  5
194D74
  8
0
 62
7
 10
135.25222384333321
 20
119.13446162274781
 70
0
  0
VERTEX
  5
194D75
  8
0
 62
7
 10
135.167818948263
 20
119.1770085800586
 70
0
  0
SEQEND
  5
194D76
  8
0
  0
POLYLINE
  5
15035E
  8
0
 62
7
 66
1
 70
0
 10
0
 20
0
 30
0
  0
VERTEX
  5
194D77
  8
0
 62
7
 10
137.28448701075479
 20
118.54207706326631
 70
0
  0
VERTEX
  5
194D78
  8
0
 62
7
 10
137.20008211568469
 20
118.54207706326631
 70
0
  0
SEQEND
  5
194D79
  8
0
  0
POLYLINE
  5
150362
  8
0
 62
7
 66
1
 70
0
 10
0
 20
0
 30
0
  0
VERTEX
  5
194D7A
  8
0
 62
7
 10
135.25222384333321
 20
119.3459906250867
 70
0
  0
VERTEX
  5
194D7B
  8
0
 62
7
 10
135.167818948263
 20
119.3459906250867
 70
0
  0
SEQEND
  5
194D7C
  8
0
  0
POLYLINE
  5
150366
  8
0
 62
7
 66
1
 70
0
 10
0
 20
0
 30
0
  0
VERTEX
  5
194D7D
  8
0
 62
7
 10
136.43802649162359
 20
118.71088685340639
 70
0
  0
VERTEX
  5
194D7E
  8
0
 62
7
 10
136.3953072794248
 20
118.71088685340639
 70
0
  0
VERTEX
  5
194D7F
  8
0
 62
7
 10
136.31090238435479
 20
118.7534338107173
 70
0
  0
VERTEX
  5
194D80
  8
0
 62
7
 10
136.183778277086
 20
118.7959807680281
 70
0
  0
SEQEND
  5
194D81
  8
0
  0
POLYLINE
  5
15036C
  8
0
 62
7
 66
1
 70
0
 10
0
 20
0
 30
0
  0
VERTEX
  5
194D82
  8
0
 62
7
 10
136.8190543036541
 20
118.9649628130561
 70
0
  0
VERTEX
  5
194D83
  8
0
 62
7
 10
136.90345919872419
 20
118.9649628130561
 70
0
  0
SEQEND
  5
194D84
  8
0
  0
POLYLINE
  5
150370
  8
0
 62
7
 66
1
 70
0
 10
0
 20
0
 30
0
  0
VERTEX
  5
194D85
  8
0
 62
7
 10
136.43802649162359
 20
119.1770085800586
 70
0
  0
VERTEX
  5
194D86
  8
0
 62
7
 10
136.90345919872419
 20
118.9231048752968
 70
0
  0
SEQEND
  5
194D87
  8
0
  0
POLYLINE
  5
150374
  8
0
 62
7
 66
1
 70
0
 10
0
 20
0
 30
0
  0
VERTEX
  5
194D88
  8
0
 62
7
 10
133.26302439788611
 20
121.8014840520738
 70
0
  0
VERTEX
  5
194D89
  8
0
 62
7
 10
133.09352558819441
 20
121.8858889471439
 70
0
  0
SEQEND
  5
194D8A
  8
0
  0
POLYLINE
  5
150378
  8
0
 62
7
 66
1
 70
0
 10
0
 20
0
 30
0
  0
VERTEX
  5
194D8B
  8
0
 62
7
 10
136.90345919872419
 20
118.9231048752968
 70
0
  0
VERTEX
  5
194D8C
  8
0
 62
7
 10
137.03023879621719
 20
118.83783870578731
 70
0
  0
VERTEX
  5
194D8D
  8
0
 62
7
 10
137.0729580084159
 20
118.7959807680281
 70
0
  0
VERTEX
  5
194D8E
  8
0
 62
7
 10
137.114988201063
 20
118.7534338107173
 70
0
  0
SEQEND
  5
194D8F
  8
0
  0
POLYLINE
  5
15037E
  8
0
 62
7
 66
1
 70
0
 10
0
 20
0
 30
0
  0
VERTEX
  5
194D90
  8
0
 62
7
 10
132.45824956162619
 20
123.7908557524088
 70
0
  0
VERTEX
  5
194D91
  8
0
 62
7
 10
132.41587485920331
 20
123.83357496460761
 70
0
  0
VERTEX
  5
194D92
  8
0
 62
7
 10
132.41587485920331
 20
123.8759496670305
 70
0
  0
SEQEND
  5
194D93
  8
0
  0
POLYLINE
  5
150383
  8
0
 62
7
 66
1
 70
0
 10
0
 20
0
 30
0
  0
VERTEX
  5
194D94
  8
0
 62
7
 10
136.6919301963853
 20
125.69599481256159
 70
0
  0
VERTEX
  5
194D95
  8
0
 62
7
 10
136.6919301963853
 20
125.6539646199145
 70
0
  0
SEQEND
  5
194D96
  8
0
  0
POLYLINE
  5
150387
  8
0
 62
7
 66
1
 70
0
 10
0
 20
0
 30
0
  0
VERTEX
  5
194D97
  8
0
 62
7
 10
134.40610783397781
 20
98.984084836429943
 70
0
  0
VERTEX
  5
194D98
  8
0
 62
7
 10
133.89795591467839
 20
98.771866814539436
 70
0
  0
SEQEND
  5
194D99
  8
0
  0
POLYLINE
  5
15038B
  8
0
 62
7
 66
1
 70
0
 10
0
 20
0
 30
0
  0
VERTEX
  5
194D9A
  8
0
 62
7
 10
131.86603725703259
 20
116.00200648632121
 70
0
  0
VERTEX
  5
194D9B
  8
0
 62
7
 10
135.04103935077
 20
116.6371102580014
 70
0
  0
SEQEND
  5
194D9C
  8
0
  0
POLYLINE
  5
15038F
  8
0
 62
7
 66
1
 70
0
 10
0
 20
0
 30
0
  0
VERTEX
  5
194D9D
  8
0
 62
7
 10
137.4112666082477
 20
117.102542965102
 70
0
  0
VERTEX
  5
194D9E
  8
0
 62
7
 10
139.9513371851929
 20
117.6105226295135
 70
0
  0
SEQEND
  5
194D9F
  8
0
  0
POLYLINE
  5
150393
  8
0
 62
7
 66
1
 70
0
 10
0
 20
0
 30
0
  0
VERTEX
  5
194DA0
  8
0
 62
7
 10
139.9513371851929
 20
117.8218793769644
 70
0
  0
VERTEX
  5
194DA1
  8
0
 62
7
 10
137.0729580084159
 20
117.27204177479371
 70
0
  0
SEQEND
  5
194DA2
  8
0
  0
POLYLINE
  5
150397
  8
0
 62
7
 66
1
 70
0
 10
0
 20
0
 30
0
  0
VERTEX
  5
194DA3
  8
0
 62
7
 10
134.74441643380959
 20
116.8059200481415
 70
0
  0
VERTEX
  5
194DA4
  8
0
 62
7
 10
131.52669512787341
 20
116.1709885313491
 70
0
  0
SEQEND
  5
194DA5
  8
0
  0
POLYLINE
  5
15039B
  8
0
 62
7
 66
1
 70
0
 10
0
 20
0
 30
0
  0
VERTEX
  5
194DA6
  8
0
 62
7
 10
139.9513371851929
 20
118.1610492512357
 70
0
  0
VERTEX
  5
194DA7
  8
0
 62
7
 10
136.77633509145539
 20
117.5259454795555
 70
0
  0
SEQEND
  5
194DA8
  8
0
  0
POLYLINE
  5
15039F
  8
0
 62
7
 66
1
 70
0
 10
0
 20
0
 30
0
  0
VERTEX
  5
194DA9
  8
0
 62
7
 10
134.363388621779
 20
117.017965815144
 70
0
  0
VERTEX
  5
194DAA
  8
0
 62
7
 10
131.18838652804161
 20
116.3830342983517
 70
0
  0
SEQEND
  5
194DAB
  8
0
  0
POLYLINE
  5
1503A3
  8
0
 62
7
 66
1
 70
0
 10
0
 20
0
 30
0
  0
VERTEX
  5
194DAC
  8
0
 62
7
 10
134.23626451451031
 20
117.5259454795555
 70
0
  0
VERTEX
  5
194DAD
  8
0
 62
7
 10
134.8288213288796
 20
117.6530695868243
 70
0
  0
SEQEND
  5
194DAE
  8
0
  0
POLYLINE
  5
1503A7
  8
0
 62
7
 66
1
 70
0
 10
0
 20
0
 30
0
  0
VERTEX
  5
194DAF
  8
0
 62
7
 10
136.01427946739429
 20
117.86442633427519
 70
0
  0
VERTEX
  5
194DB0
  8
0
 62
7
 10
136.60683628176369
 20
117.991550441544
 70
0
  0
SEQEND
  5
194DB1
  8
0
  0
POLYLINE
  5
1503AB
  8
0
 62
7
 66
1
 70
0
 10
0
 20
0
 30
0
  0
VERTEX
  5
194DB2
  8
0
 62
7
 10
130.34192600891021
 20
117.0599960077912
 70
0
  0
VERTEX
  5
194DB3
  8
0
 62
7
 10
140.2899902948005
 20
119.0500567276777
 70
0
  0
SEQEND
  5
194DB4
  8
0
  0
POLYLINE
  5
1503AF
  8
0
 62
7
 66
1
 70
0
 10
0
 20
0
 30
0
  0
VERTEX
  5
194DB5
  8
0
 62
7
 10
130.25683209428871
 20
117.14508992241279
 70
0
  0
VERTEX
  5
194DB6
  8
0
 62
7
 10
134.363388621779
 20
117.9490034842332
 70
0
  0
SEQEND
  5
194DB7
  8
0
  0
POLYLINE
  5
1503B3
  8
0
 62
7
 66
1
 70
0
 10
0
 20
0
 30
0
  0
VERTEX
  5
194DB8
  8
0
 62
7
 10
136.2258084697331
 20
118.3298590413758
 70
0
  0
VERTEX
  5
194DB9
  8
0
 62
7
 10
140.33236499722349
 20
119.13446162274781
 70
0
  0
SEQEND
  5
194DBA
  8
0
  0
POLYLINE
  5
1503B7
  8
0
 62
7
 66
1
 70
0
 10
0
 20
0
 30
0
  0
VERTEX
  5
194DBB
  8
0
 62
7
 10
135.29494305553189
 20
117.8218793769644
 70
0
  0
VERTEX
  5
194DBC
  8
0
 62
7
 10
135.5064720578707
 20
117.86442633427519
 70
0
  0
VERTEX
  5
194DBD
  8
0
 62
7
 10
136.01427946739429
 20
117.86442633427519
 70
0
  0
SEQEND
  5
194DBE
  8
0
  0
POLYLINE
  5
1503BC
  8
0
 62
7
 66
1
 70
0
 10
0
 20
0
 30
0
  0
VERTEX
  5
194DBF
  8
0
 62
7
 10
135.29494305553189
 20
118.0759553366141
 70
0
  0
VERTEX
  5
194DC0
  8
0
 62
7
 10
135.463752845672
 20
118.0759553366141
 70
0
  0
VERTEX
  5
194DC1
  8
0
 62
7
 10
135.63325165536369
 20
118.0340973988549
 70
0
  0
VERTEX
  5
194DC2
  8
0
 62
7
 10
135.8030949748312
 20
117.991550441544
 70
0
  0
VERTEX
  5
194DC3
  8
0
 62
7
 10
136.01427946739429
 20
117.86442633427519
 70
0
  0
SEQEND
  5
194DC4
  8
0
  0
POLYLINE
  5
1503C3
  8
0
 62
7
 66
1
 70
0
 10
0
 20
0
 30
0
  0
VERTEX
  5
194DC5
  8
0
 62
7
 10
135.9298745723242
 20
118.71088685340639
 70
0
  0
VERTEX
  5
194DC6
  8
0
 62
7
 10
136.14140357466309
 20
118.71088685340639
 70
0
  0
VERTEX
  5
194DC7
  8
0
 62
7
 10
136.35293257700181
 20
118.6690289156472
 70
0
  0
VERTEX
  5
194DC8
  8
0
 62
7
 10
136.5224313866936
 20
118.6690289156472
 70
0
  0
SEQEND
  5
194DC9
  8
0
  0
POLYLINE
  5
1503C9
  8
0
 62
7
 66
1
 70
0
 10
0
 20
0
 30
0
  0
VERTEX
  5
194DCA
  8
0
 62
7
 10
136.183778277086
 20
118.7959807680281
 70
0
  0
VERTEX
  5
194DCB
  8
0
 62
7
 10
135.9298745723242
 20
118.7959807680281
 70
0
  0
SEQEND
  5
194DCC
  8
0
  0
POLYLINE
  5
1503CD
  8
0
 62
7
 66
1
 70
0
 10
0
 20
0
 30
0
  0
VERTEX
  5
194DCD
  8
0
 62
7
 10
136.183778277086
 20
119.2188665178179
 70
0
  0
VERTEX
  5
194DCE
  8
0
 62
7
 10
136.3953072794248
 20
119.2188665178179
 70
0
  0
VERTEX
  5
194DCF
  8
0
 62
7
 10
136.43802649162359
 20
119.1770085800586
 70
0
  0
SEQEND
  5
194DD0
  8
0
  0
POLYLINE
  5
1503D2
  8
0
 62
7
 66
1
 70
0
 10
0
 20
0
 30
0
  0
VERTEX
  5
194DD1
  8
0
 62
7
 10
136.90345919872419
 20
118.9231048752968
 70
0
  0
VERTEX
  5
194DD2
  8
0
 62
7
 10
136.86073998652549
 20
118.9231048752968
 70
0
  0
SEQEND
  5
194DD3
  8
0
  0
POLYLINE
  5
1503D6
  8
0
 62
7
 66
1
 70
0
 10
0
 20
0
 30
0
  0
VERTEX
  5
194DD4
  8
0
 62
7
 10
134.70169722161091
 20
118.9649628130561
 70
0
  0
VERTEX
  5
194DD5
  8
0
 62
7
 10
134.74441643380959
 20
118.9649628130561
 70
0
  0
SEQEND
  5
194DD6
  8
0
  0
POLYLINE
  5
1503DA
  8
0
 62
7
 66
1
 70
0
 10
0
 20
0
 30
0
  0
VERTEX
  5
194DD7
  8
0
 62
7
 10
135.167818948263
 20
119.3459906250867
 70
0
  0
VERTEX
  5
194DD8
  8
0
 62
7
 10
135.12544424584021
 20
119.3459906250867
 70
0
  0
SEQEND
  5
194DD9
  8
0
  0
POLYLINE
  5
1503DE
  8
0
 62
7
 66
1
 70
0
 10
0
 20
0
 30
0
  0
VERTEX
  5
194DDA
  8
0
 62
7
 10
141.6449472430069
 20
117.44085156493379
 70
0
  0
VERTEX
  5
194DDB
  8
0
 62
7
 10
141.60222803080811
 20
117.44085156493379
 70
0
  0
VERTEX
  5
194DDC
  8
0
 62
7
 10
141.55985332838509
 20
117.44085156493379
 70
0
  0
SEQEND
  5
194DDD
  8
0
  0
POLYLINE
  5
1503E3
  8
0
 62
7
 66
1
 70
0
 10
0
 20
0
 30
0
  0
VERTEX
  5
194DDE
  8
0
 62
7
 10
140.9672965140158
 20
118.7959807680281
 70
0
  0
VERTEX
  5
194DDF
  8
0
 62
7
 10
140.33236499722349
 20
119.13446162274781
 70
0
  0
SEQEND
  5
194DE0
  8
0
  0
POLYLINE
  5
1503E7
  8
0
 62
7
 66
1
 70
0
 10
0
 20
0
 30
0
  0
VERTEX
  5
194DE1
  8
0
 62
7
 10
132.45824956162619
 20
123.7908557524088
 70
0
  0
VERTEX
  5
194DE2
  8
0
 62
7
 10
133.00877618334849
 20
123.4950941098878
 70
0
  0
SEQEND
  5
194DE3
  8
0
  0
POLYLINE
  5
1503EB
  8
0
 62
7
 66
1
 70
0
 10
0
 20
0
 30
0
  0
VERTEX
  5
194DE4
  8
0
 62
7
 10
133.685737892788
 20
123.7908557524088
 70
0
  0
VERTEX
  5
194DE5
  8
0
 62
7
 10
133.389803995379
 20
124.0030737742993
 70
0
  0
SEQEND
  5
194DE6
  8
0
  0
POLYLINE
  5
1503EF
  8
0
 62
7
 66
1
 70
0
 10
0
 20
0
 30
0
  0
VERTEX
  5
194DE7
  8
0
 62
7
 10
141.55985332838509
 20
118.41512521088541
 70
0
  0
VERTEX
  5
194DE8
  8
0
 62
7
 10
140.9672965140158
 20
118.7959807680281
 70
0
  0
SEQEND
  5
194DE9
  8
0
  0
POLYLINE
  5
1503F3
  8
0
 62
7
 66
1
 70
0
 10
0
 20
0
 30
0
  0
VERTEX
  5
194DEA
  8
0
 62
7
 10
136.2258084697331
 20
126.1621165392138
 70
0
  0
VERTEX
  5
194DEB
  8
0
 62
7
 10
136.6919301963853
 20
125.69599481256159
 70
0
  0
SEQEND
  5
194DEC
  8
0
  0
POLYLINE
  5
1503F7
  8
0
 62
7
 66
1
 70
0
 10
0
 20
0
 30
0
  0
VERTEX
  5
194DED
  8
0
 62
7
 10
135.167818948263
 20
119.0500567276777
 70
0
  0
VERTEX
  5
194DEE
  8
0
 62
7
 10
135.29494305553189
 20
119.091914665437
 70
0
  0
SEQEND
  5
194DEF
  8
0
  0
POLYLINE
  5
1503FB
  8
0
 62
7
 66
1
 70
0
 10
0
 20
0
 30
0
  0
VERTEX
  5
194DF0
  8
0
 62
7
 10
134.53288743147081
 20
118.54207706326631
 70
0
  0
VERTEX
  5
194DF1
  8
0
 62
7
 10
134.53288743147081
 20
118.54207706326631
 70
0
  0
VERTEX
  5
194DF2
  8
0
 62
7
 10
134.49051272904779
 20
118.4995301059555
 70
0
  0
SEQEND
  5
194DF3
  8
0
  0
POLYLINE
  5
150400
  8
0
 62
7
 66
1
 70
0
 10
0
 20
0
 30
0
  0
VERTEX
  5
194DF4
  8
0
 62
7
 10
135.167818948263
 20
119.0500567276777
 70
0
  0
VERTEX
  5
194DF5
  8
0
 62
7
 10
135.29494305553189
 20
119.0500567276777
 70
0
  0
SEQEND
  5
194DF6
  8
0
  0
POLYLINE
  5
150404
  8
0
 62
7
 66
1
 70
0
 10
0
 20
0
 30
0
  0
VERTEX
  5
194DF7
  8
0
 62
7
 10
136.86073998652549
 20
118.9231048752968
 70
0
  0
VERTEX
  5
194DF8
  8
0
 62
7
 10
136.77633509145539
 20
118.9231048752968
 70
0
  0
VERTEX
  5
194DF9
  8
0
 62
7
 10
136.73396038903249
 20
118.880557917986
 70
0
  0
VERTEX
  5
194DFA
  8
0
 62
7
 10
136.6495554939624
 20
118.83783870578731
 70
0
  0
VERTEX
  5
194DFB
  8
0
 62
7
 10
136.60683628176369
 20
118.7534338107173
 70
0
  0
VERTEX
  5
194DFC
  8
0
 62
7
 10
136.5224313866936
 20
118.6690289156472
 70
0
  0
SEQEND
  5
194DFD
  8
0
  0
POLYLINE
  5
15040C
  8
0
 62
7
 66
1
 70
0
 10
0
 20
0
 30
0
  0
VERTEX
  5
194DFE
  8
0
 62
7
 10
134.6600115387395
 20
118.4569831486447
 70
0
  0
VERTEX
  5
194DFF
  8
0
 62
7
 10
135.9298745723242
 20
118.71088685340639
 70
0
  0
SEQEND
  5
194E00
  8
0
  0
POLYLINE
  5
150410
  8
0
 62
7
 66
1
 70
0
 10
0
 20
0
 30
0
  0
VERTEX
  5
194E01
  8
0
 62
7
 10
135.29494305553189
 20
119.091914665437
 70
0
  0
VERTEX
  5
194E02
  8
0
 62
7
 10
135.54884676029371
 20
119.091914665437
 70
0
  0
VERTEX
  5
194E03
  8
0
 62
7
 10
135.6759708675624
 20
119.13446162274781
 70
0
  0
VERTEX
  5
194E04
  8
0
 62
7
 10
135.76037576263249
 20
119.13446162274781
 70
0
  0
SEQEND
  5
194E05
  8
0
  0
POLYLINE
  5
150416
  8
0
 62
7
 66
1
 70
0
 10
0
 20
0
 30
0
  0
VERTEX
  5
194E06
  8
0
 62
7
 10
135.29494305553189
 20
119.3459906250867
 70
0
  0
VERTEX
  5
194E07
  8
0
 62
7
 10
135.42206716280069
 20
119.3459906250867
 70
0
  0
VERTEX
  5
194E08
  8
0
 62
7
 10
135.54884676029371
 20
119.3885375823975
 70
0
  0
VERTEX
  5
194E09
  8
0
 62
7
 10
135.6759708675624
 20
119.3885375823975
 70
0
  0
VERTEX
  5
194E0A
  8
0
 62
7
 10
135.84478065770259
 20
119.43108453970829
 70
0
  0
VERTEX
  5
194E0B
  8
0
 62
7
 10
136.01427946739429
 20
119.43108453970829
 70
0
  0
VERTEX
  5
194E0C
  8
0
 62
7
 10
136.14140357466309
 20
119.3885375823975
 70
0
  0
VERTEX
  5
194E0D
  8
0
 62
7
 10
136.31090238435479
 20
119.3885375823975
 70
0
  0
VERTEX
  5
194E0E
  8
0
 62
7
 10
136.43802649162359
 20
119.3459906250867
 70
0
  0
VERTEX
  5
194E0F
  8
0
 62
7
 10
136.47971217449481
 20
119.3459906250867
 70
0
  0
SEQEND
  5
194E10
  8
0
  0
POLYLINE
  5
150422
  8
0
 62
7
 66
1
 70
0
 10
0
 20
0
 30
0
  0
VERTEX
  5
194E11
  8
0
 62
7
 10
135.25222384333321
 20
119.3459906250867
 70
0
  0
VERTEX
  5
194E12
  8
0
 62
7
 10
135.42206716280069
 20
119.3459906250867
 70
0
  0
VERTEX
  5
194E13
  8
0
 62
7
 10
135.59087695294079
 20
119.3885375823975
 70
0
  0
VERTEX
  5
194E14
  8
0
 62
7
 10
136.31090238435479
 20
119.3885375823975
 70
0
  0
VERTEX
  5
194E15
  8
0
 62
7
 10
136.43802649162359
 20
119.3459906250867
 70
0
  0
VERTEX
  5
194E16
  8
0
 62
7
 10
136.6495554939624
 20
119.3039604324395
 70
0
  0
VERTEX
  5
194E17
  8
0
 62
7
 10
136.77633509145539
 20
119.3039604324395
 70
0
  0
VERTEX
  5
194E18
  8
0
 62
7
 10
136.90345919872419
 20
119.2188665178179
 70
0
  0
VERTEX
  5
194E19
  8
0
 62
7
 10
136.98786409379429
 20
119.1770085800586
 70
0
  0
VERTEX
  5
194E1A
  8
0
 62
7
 10
137.0729580084159
 20
119.13446162274781
 70
0
  0
VERTEX
  5
194E1B
  8
0
 62
7
 10
137.157362903486
 20
119.091914665437
 70
0
  0
VERTEX
  5
194E1C
  8
0
 62
7
 10
137.157362903486
 20
119.00750977036689
 70
0
  0
VERTEX
  5
194E1D
  8
0
 62
7
 10
137.20008211568469
 20
118.9649628130561
 70
0
  0
SEQEND
  5
194E1E
  8
0
  0
POLYLINE
  5
150431
  8
0
 62
7
 66
1
 70
0
 10
0
 20
0
 30
0
  0
VERTEX
  5
194E1F
  8
0
 62
7
 10
135.29494305553189
 20
119.0500567276777
 70
0
  0
VERTEX
  5
194E20
  8
0
 62
7
 10
135.463752845672
 20
119.091914665437
 70
0
  0
VERTEX
  5
194E21
  8
0
 62
7
 10
135.76037576263249
 20
119.091914665437
 70
0
  0
SEQEND
  5
194E22
  8
0
  0
POLYLINE
  5
150436
  8
0
 62
7
 66
1
 70
0
 10
0
 20
0
 30
0
  0
VERTEX
  5
194E23
  8
0
 62
7
 10
135.84478065770259
 20
119.2188665178179
 70
0
  0
VERTEX
  5
194E24
  8
0
 62
7
 10
135.88749986990121
 20
119.2188665178179
 70
0
  0
VERTEX
  5
194E25
  8
0
 62
7
 10
135.9298745723242
 20
119.2188665178179
 70
0
  0
SEQEND
  5
194E26
  8
0
  0
POLYLINE
  5
15043B
  8
0
 62
7
 66
1
 70
0
 10
0
 20
0
 30
0
  0
VERTEX
  5
194E27
  8
0
 62
7
 10
135.84478065770259
 20
118.7959807680281
 70
0
  0
VERTEX
  5
194E28
  8
0
 62
7
 10
135.88749986990121
 20
118.7959807680281
 70
0
  0
VERTEX
  5
194E29
  8
0
 62
7
 10
135.9298745723242
 20
118.7959807680281
 70
0
  0
SEQEND
  5
194E2A
  8
0
  0
POLYLINE
  5
150440
  8
0
 62
7
 66
1
 70
0
 10
0
 20
0
 30
0
  0
VERTEX
  5
194E2B
  8
0
 62
7
 10
134.53288743147081
 20
118.9649628130561
 70
0
  0
VERTEX
  5
194E2C
  8
0
 62
7
 10
134.61729232654079
 20
118.9649628130561
 70
0
  0
VERTEX
  5
194E2D
  8
0
 62
7
 10
134.70169722161091
 20
118.9649628130561
 70
0
  0
SEQEND
  5
194E2E
  8
0
  0
POLYLINE
  5
150445
  8
0
 62
7
 66
1
 70
0
 10
0
 20
0
 30
0
  0
VERTEX
  5
194E2F
  8
0
 62
7
 10
135.76037576263249
 20
119.1770085800586
 70
0
  0
VERTEX
  5
194E30
  8
0
 62
7
 10
135.42206716280069
 20
119.1770085800586
 70
0
  0
VERTEX
  5
194E31
  8
0
 62
7
 10
135.25222384333321
 20
119.13446162274781
 70
0
  0
SEQEND
  5
194E32
  8
0
  0
POLYLINE
  5
15044A
  8
0
 62
7
 66
1
 70
0
 10
0
 20
0
 30
0
  0
VERTEX
  5
194E33
  8
0
 62
7
 10
135.76037576263249
 20
119.1770085800586
 70
0
  0
VERTEX
  5
194E34
  8
0
 62
7
 10
135.76037576263249
 20
119.1770085800586
 70
0
  0
SEQEND
  5
194E35
  8
0
  0
POLYLINE
  5
15044E
  8
0
 62
7
 66
1
 70
0
 10
0
 20
0
 30
0
  0
VERTEX
  5
194E36
  8
0
 62
7
 10
135.9298745723242
 20
119.2188665178179
 70
0
  0
VERTEX
  5
194E37
  8
0
 62
7
 10
136.183778277086
 20
119.2188665178179
 70
0
  0
SEQEND
  5
194E38
  8
0
  0
POLYLINE
  5
150452
  8
0
 62
7
 66
1
 70
0
 10
0
 20
0
 30
0
  0
VERTEX
  5
194E39
  8
0
 62
7
 10
133.389803995379
 20
124.256977479061
 70
0
  0
VERTEX
  5
194E3A
  8
0
 62
7
 10
133.34742929295609
 20
124.256977479061
 70
0
  0
VERTEX
  5
194E3B
  8
0
 62
7
 10
133.30471008075739
 20
124.2990076717082
 70
0
  0
VERTEX
  5
194E3C
  8
0
 62
7
 10
133.00877618334849
 20
124.2990076717082
 70
0
  0
SEQEND
  5
194E3D
  8
0
  0
POLYLINE
  5
150458
  8
0
 62
7
 66
1
 70
0
 10
0
 20
0
 30
0
  0
VERTEX
  5
194E3E
  8
0
 62
7
 10
133.389803995379
 20
124.256977479061
 70
0
  0
VERTEX
  5
194E3F
  8
0
 62
7
 10
133.685737892788
 20
124.0449317120585
 70
0
  0
SEQEND
  5
194E40
  8
0
  0
POLYLINE
  5
15045C
  8
0
 62
7
 66
1
 70
0
 10
0
 20
0
 30
0
  0
VERTEX
  5
194E41
  8
0
 62
7
 10
134.91391524350129
 20
124.55291137646989
 70
0
  0
VERTEX
  5
194E42
  8
0
 62
7
 10
134.278983726709
 20
124.9339391885005
 70
0
  0
SEQEND
  5
194E43
  8
0
  0
POLYLINE
  5
150460
  8
0
 62
7
 66
1
 70
0
 10
0
 20
0
 30
0
  0
VERTEX
  5
194E44
  8
0
 62
7
 10
135.167818948263
 20
125.52701276753361
 70
0
  0
VERTEX
  5
194E45
  8
0
 62
7
 10
135.25222384333321
 20
125.441918852912
 70
0
  0
SEQEND
  5
194E46
  8
0
  0
POLYLINE
  5
150464
  8
0
 62
7
 66
1
 70
0
 10
0
 20
0
 30
0
  0
VERTEX
  5
194E47
  8
0
 62
7
 10
135.97190476497141
 20
125.1459849555031
 70
0
  0
VERTEX
  5
194E48
  8
0
 62
7
 10
136.183778277086
 20
125.0190331031222
 70
0
  0
SEQEND
  5
194E49
  8
0
  0
POLYLINE
  5
150468
  8
0
 62
7
 66
1
 70
0
 10
0
 20
0
 30
0
  0
VERTEX
  5
194E4A
  8
0
 62
7
 10
136.90345919872419
 20
124.9339391885005
 70
0
  0
VERTEX
  5
194E4B
  8
0
 62
7
 10
135.97190476497141
 20
125.4844658102228
 70
0
  0
SEQEND
  5
194E4C
  8
0
  0
POLYLINE
  5
15046C
  8
0
 62
7
 66
1
 70
0
 10
0
 20
0
 30
0
  0
VERTEX
  5
194E4D
  8
0
 62
7
 10
136.9458339011471
 20
124.9339391885005
 70
0
  0
VERTEX
  5
194E4E
  8
0
 62
7
 10
137.835013632477
 20
124.38410158632981
 70
0
  0
SEQEND
  5
194E4F
  8
0
  0
POLYLINE
  5
150470
  8
0
 62
7
 66
1
 70
0
 10
0
 20
0
 30
0
  0
VERTEX
  5
194E50
  8
0
 62
7
 10
138.2160414445076
 20
124.2144305217502
 70
0
  0
VERTEX
  5
194E51
  8
0
 62
7
 10
139.739808182854
 20
123.28287608799739
 70
0
  0
SEQEND
  5
194E52
  8
0
  0
POLYLINE
  5
150474
  8
0
 62
7
 66
1
 70
0
 10
0
 20
0
 30
0
  0
VERTEX
  5
194E53
  8
0
 62
7
 10
136.60683628176369
 20
125.7810887271833
 70
0
  0
VERTEX
  5
194E54
  8
0
 62
7
 10
136.6495554939624
 20
125.7385417698725
 70
0
  0
VERTEX
  5
194E55
  8
0
 62
7
 10
136.6919301963853
 20
125.69599481256159
 70
0
  0
SEQEND
  5
194E56
  8
0
  0
POLYLINE
  5
150479
  8
0
 62
7
 66
1
 70
0
 10
0
 20
0
 30
0
  0
VERTEX
  5
194E57
  8
0
 62
7
 10
136.6495554939624
 20
125.52701276753361
 70
0
  0
VERTEX
  5
194E58
  8
0
 62
7
 10
136.73396038903249
 20
125.4844658102228
 70
0
  0
VERTEX
  5
194E59
  8
0
 62
7
 10
136.77633509145539
 20
125.441918852912
 70
0
  0
VERTEX
  5
194E5A
  8
0
 62
7
 10
136.77633509145539
 20
125.40006091515281
 70
0
  0
SEQEND
  5
194E5B
  8
0
  0
POLYLINE
  5
15047F
  8
0
 62
7
 66
1
 70
0
 10
0
 20
0
 30
0
  0
VERTEX
  5
194E5C
  8
0
 62
7
 10
136.183778277086
 20
126.2039744769731
 70
0
  0
VERTEX
  5
194E5D
  8
0
 62
7
 10
136.2258084697331
 20
126.1621165392138
 70
0
  0
SEQEND
  5
194E5E
  8
0
  0
POLYLINE
  5
150483
  8
0
 62
7
 66
1
 70
0
 10
0
 20
0
 30
0
  0
VERTEX
  5
194E5F
  8
0
 62
7
 10
154.7680136226345
 20
109.5669083842245
 70
0
  0
VERTEX
  5
194E60
  8
0
 62
7
 10
154.7680136226345
 20
109.5250504464653
 70
0
  0
VERTEX
  5
194E61
  8
0
 62
7
 10
154.72598342998739
 20
109.4825034891544
 70
0
  0
SEQEND
  5
194E62
  8
0
  0
POLYLINE
  5
150488
  8
0
 62
7
 66
1
 70
0
 10
0
 20
0
 30
0
  0
VERTEX
  5
194E63
  8
0
 62
7
 10
133.22030518568741
 20
122.0128407995248
 70
0
  0
VERTEX
  5
194E64
  8
0
 62
7
 10
133.26302439788611
 20
122.0128407995248
 70
0
  0
SEQEND
  5
194E65
  8
0
  0
POLYLINE
  5
15048C
  8
0
 62
7
 66
1
 70
0
 10
0
 20
0
 30
0
  0
VERTEX
  5
194E66
  8
0
 62
7
 10
139.739808182854
 20
123.28287608799739
 70
0
  0
VERTEX
  5
194E67
  8
0
 62
7
 10
141.6449472430069
 20
123.1559242356165
 70
0
  0
SEQEND
  5
194E68
  8
0
  0
POLYLINE
  5
150490
  8
0
 62
7
 66
1
 70
0
 10
0
 20
0
 30
0
  0
VERTEX
  5
194E69
  8
0
 62
7
 10
137.58110992771529
 20
124.4685064813999
 70
0
  0
VERTEX
  5
194E6A
  8
0
 62
7
 10
137.919418527547
 20
124.38410158632981
 70
0
  0
VERTEX
  5
194E6B
  8
0
 62
7
 10
138.2160414445076
 20
124.2144305217502
 70
0
  0
SEQEND
  5
194E6C
  8
0
  0
POLYLINE
  5
150495
  8
0
 62
7
 66
1
 70
0
 10
0
 20
0
 30
0
  0
VERTEX
  5
194E6D
  8
0
 62
7
 10
141.72935213807691
 20
123.11406629785731
 70
0
  0
VERTEX
  5
194E6E
  8
0
 62
7
 10
141.686977435654
 20
123.11406629785731
 70
0
  0
VERTEX
  5
194E6F
  8
0
 62
7
 10
141.6449472430069
 20
123.1559242356165
 70
0
  0
SEQEND
  5
194E70
  8
0
  0
POLYLINE
  5
15049A
  8
0
 62
7
 66
1
 70
0
 10
0
 20
0
 30
0
  0
VERTEX
  5
194E71
  8
0
 62
7
 10
154.9375124323262
 20
115.28198105490721
 70
0
  0
VERTEX
  5
194E72
  8
0
 62
7
 10
141.72935213807691
 20
123.11406629785731
 70
0
  0
SEQEND
  5
194E73
  8
0
  0
POLYLINE
  5
15049E
  8
0
 62
7
 66
1
 70
0
 10
0
 20
0
 30
0
  0
VERTEX
  5
194E74
  8
0
 62
7
 10
154.9375124323262
 20
115.28198105490721
 70
0
  0
VERTEX
  5
194E75
  8
0
 62
7
 10
154.8103883250574
 20
109.5669083842245
 70
0
  0
SEQEND
  5
194E76
  8
0
  0
POLYLINE
  5
1504A2
  8
0
 62
7
 66
1
 70
0
 10
0
 20
0
 30
0
  0
VERTEX
  5
194E77
  8
0
 62
7
 10
154.8103883250574
 20
109.5669083842245
 70
0
  0
VERTEX
  5
194E78
  8
0
 62
7
 10
154.7680136226345
 20
109.5669083842245
 70
0
  0
SEQEND
  5
194E79
  8
0
  0
POLYLINE
  5
1504A6
  8
0
 62
7
 66
1
 70
0
 10
0
 20
0
 30
0
  0
VERTEX
  5
194E7A
  8
0
 62
7
 10
133.13590029061729
 20
123.6639039000279
 70
0
  0
VERTEX
  5
194E7B
  8
0
 62
7
 10
133.13590029061729
 20
123.6639039000279
 70
0
  0
VERTEX
  5
194E7C
  8
0
 62
7
 10
133.09352558819441
 20
123.6220459622687
 70
0
  0
VERTEX
  5
194E7D
  8
0
 62
7
 10
133.00877618334849
 20
123.6220459622687
 70
0
  0
VERTEX
  5
194E7E
  8
0
 62
7
 10
133.00877618334849
 20
123.5794990049579
 70
0
  0
SEQEND
  5
194E7F
  8
0
  0
POLYLINE
  5
1504AD
  8
0
 62
7
 66
1
 70
0
 10
0
 20
0
 30
0
  0
VERTEX
  5
194E80
  8
0
 62
7
 10
133.72845710498669
 20
123.7908557524088
 70
0
  0
VERTEX
  5
194E81
  8
0
 62
7
 10
133.13590029061729
 20
123.6639039000279
 70
0
  0
SEQEND
  5
194E82
  8
0
  0
POLYLINE
  5
1504B1
  8
0
 62
7
 66
1
 70
0
 10
0
 20
0
 30
0
  0
VERTEX
  5
194E83
  8
0
 62
7
 10
133.77083180740959
 20
123.83357496460761
 70
0
  0
VERTEX
  5
194E84
  8
0
 62
7
 10
133.685737892788
 20
123.7908557524088
 70
0
  0
SEQEND
  5
194E85
  8
0
  0
POLYLINE
  5
1504B5
  8
0
 62
7
 66
1
 70
0
 10
0
 20
0
 30
0
  0
VERTEX
  5
194E86
  8
0
 62
7
 10
135.336973248179
 20
124.67986322885081
 70
0
  0
VERTEX
  5
194E87
  8
0
 62
7
 10
136.31090238435479
 20
124.67986322885081
 70
0
  0
VERTEX
  5
194E88
  8
0
 62
7
 10
136.77633509145539
 20
124.6380052910916
 70
0
  0
VERTEX
  5
194E89
  8
0
 62
7
 10
137.20008211568469
 20
124.55291137646989
 70
0
  0
VERTEX
  5
194E8A
  8
0
 62
7
 10
137.58110992771529
 20
124.4685064813999
 70
0
  0
SEQEND
  5
194E8B
  8
0
  0
POLYLINE
  5
1504BC
  8
0
 62
7
 66
1
 70
0
 10
0
 20
0
 30
0
  0
VERTEX
  5
194E8C
  8
0
 62
7
 10
136.9458339011471
 20
124.67986322885081
 70
0
  0
VERTEX
  5
194E8D
  8
0
 62
7
 10
137.20008211568469
 20
124.6380052910916
 70
0
  0
VERTEX
  5
194E8E
  8
0
 62
7
 10
137.4112666082477
 20
124.55291137646989
 70
0
  0
VERTEX
  5
194E8F
  8
0
 62
7
 10
137.62279561058659
 20
124.5110534387107
 70
0
  0
VERTEX
  5
194E90
  8
0
 62
7
 10
137.74991971785539
 20
124.425959524089
 70
0
  0
SEQEND
  5
194E91
  8
0
  0
POLYLINE
  5
1504C3
  8
0
 62
7
 66
1
 70
0
 10
0
 20
0
 30
0
  0
VERTEX
  5
194E92
  8
0
 62
7
 10
154.8103883250574
 20
109.5669083842245
 70
0
  0
VERTEX
  5
194E93
  8
0
 62
7
 10
154.8103883250574
 20
109.6094553415353
 70
0
  0
VERTEX
  5
194E94
  8
0
 62
7
 10
154.7680136226345
 20
109.6094553415353
 70
0
  0
SEQEND
  5
194E95
  8
0
  0
POLYLINE
  5
1504C8
  8
0
 62
7
 66
1
 70
0
 10
0
 20
0
 30
0
  0
VERTEX
  5
194E96
  8
0
 62
7
 10
132.54299896647211
 20
124.1718835644394
 70
0
  0
VERTEX
  5
194E97
  8
0
 62
7
 10
132.45824956162619
 20
124.1718835644394
 70
0
  0
VERTEX
  5
194E98
  8
0
 62
7
 10
132.41587485920331
 20
124.13002562668019
 70
0
  0
SEQEND
  5
194E99
  8
0
  0
POLYLINE
  5
1504CD
  8
0
 62
7
 66
1
 70
0
 10
0
 20
0
 30
0
  0
VERTEX
  5
194E9A
  8
0
 62
7
 10
133.685737892788
 20
124.0449317120585
 70
0
  0
VERTEX
  5
194E9B
  8
0
 62
7
 10
134.10948491701731
 20
124.1718835644394
 70
0
  0
SEQEND
  5
194E9C
  8
0
  0
POLYLINE
  5
1504D1
  8
0
 62
7
 66
1
 70
0
 10
0
 20
0
 30
0
  0
VERTEX
  5
194E9D
  8
0
 62
7
 10
133.00877618334849
 20
124.0449317120585
 70
0
  0
VERTEX
  5
194E9E
  8
0
 62
7
 10
132.54299896647211
 20
123.9179798596776
 70
0
  0
SEQEND
  5
194E9F
  8
0
  0
POLYLINE
  5
1504D5
  8
0
 62
7
 66
1
 70
0
 10
0
 20
0
 30
0
  0
VERTEX
  5
194EA0
  8
0
 62
7
 10
132.54299896647211
 20
124.1718835644394
 70
0
  0
VERTEX
  5
194EA1
  8
0
 62
7
 10
133.00877618334849
 20
124.2990076717082
 70
0
  0
SEQEND
  5
194EA2
  8
0
  0
POLYLINE
  5
1504D9
  8
0
 62
7
 66
1
 70
0
 10
0
 20
0
 30
0
  0
VERTEX
  5
194EA3
  8
0
 62
7
 10
134.278983726709
 20
124.9339391885005
 70
0
  0
VERTEX
  5
194EA4
  8
0
 62
7
 10
135.25222384333321
 20
125.10343799819221
 70
0
  0
SEQEND
  5
194EA5
  8
0
  0
POLYLINE
  5
1504DD
  8
0
 62
7
 66
1
 70
0
 10
0
 20
0
 30
0
  0
VERTEX
  5
194EA6
  8
0
 62
7
 10
135.25222384333321
 20
125.441918852912
 70
0
  0
VERTEX
  5
194EA7
  8
0
 62
7
 10
134.278983726709
 20
125.27310906277189
 70
0
  0
SEQEND
  5
194EA8
  8
0
  0
POLYLINE
  5
1504E1
  8
0
 62
7
 66
1
 70
0
 10
0
 20
0
 30
0
  0
VERTEX
  5
194EA9
  8
0
 62
7
 10
134.7867911362325
 20
124.38410158632981
 70
0
  0
VERTEX
  5
194EAA
  8
0
 62
7
 10
135.12544424584021
 20
124.38410158632981
 70
0
  0
VERTEX
  5
194EAB
  8
0
 62
7
 10
135.20984914091019
 20
124.425959524089
 70
0
  0
SEQEND
  5
194EAC
  8
0
  0
POLYLINE
  5
1504E6
  8
0
 62
7
 66
1
 70
0
 10
0
 20
0
 30
0
  0
VERTEX
  5
194EAD
  8
0
 62
7
 10
134.87154054107839
 20
124.38410158632981
 70
0
  0
VERTEX
  5
194EAE
  8
0
 62
7
 10
135.12544424584021
 20
124.425959524089
 70
0
  0
VERTEX
  5
194EAF
  8
0
 62
7
 10
135.20984914091019
 20
124.425959524089
 70
0
  0
SEQEND
  5
194EB0
  8
0
  0
POLYLINE
  5
1504EB
  8
0
 62
7
 66
1
 70
0
 10
0
 20
0
 30
0
  0
VERTEX
  5
194EB1
  8
0
 62
7
 10
135.29494305553189
 20
124.6380052910916
 70
0
  0
VERTEX
  5
194EB2
  8
0
 62
7
 10
135.336973248179
 20
124.67986322885081
 70
0
  0
SEQEND
  5
194EB3
  8
0
  0
POLYLINE
  5
1504EF
  8
0
 62
7
 66
1
 70
0
 10
0
 20
0
 30
0
  0
VERTEX
  5
194EB4
  8
0
 62
7
 10
133.00877618334849
 20
124.0449317120585
 70
0
  0
VERTEX
  5
194EB5
  8
0
 62
7
 10
133.30471008075739
 20
124.0449317120585
 70
0
  0
VERTEX
  5
194EB6
  8
0
 62
7
 10
133.34742929295609
 20
124.0030737742993
 70
0
  0
VERTEX
  5
194EB7
  8
0
 62
7
 10
133.389803995379
 20
124.0030737742993
 70
0
  0
SEQEND
  5
194EB8
  8
0
  0
POLYLINE
  5
1504F5
  8
0
 62
7
 66
1
 70
0
 10
0
 20
0
 30
0
  0
VERTEX
  5
194EB9
  8
0
 62
7
 10
135.336973248179
 20
125.0190331031222
 70
0
  0
VERTEX
  5
194EBA
  8
0
 62
7
 10
136.43802649162359
 20
125.0190331031222
 70
0
  0
VERTEX
  5
194EBB
  8
0
 62
7
 10
136.6919301963853
 20
124.97648614581129
 70
0
  0
VERTEX
  5
194EBC
  8
0
 62
7
 10
136.9458339011471
 20
124.9339391885005
 70
0
  0
SEQEND
  5
194EBD
  8
0
  0
POLYLINE
  5
1504FB
  8
0
 62
7
 66
1
 70
0
 10
0
 20
0
 30
0
  0
VERTEX
  5
194EBE
  8
0
 62
7
 10
135.97190476497141
 20
125.1459849555031
 70
0
  0
VERTEX
  5
194EBF
  8
0
 62
7
 10
135.25222384333321
 20
125.10343799819221
 70
0
  0
SEQEND
  5
194EC0
  8
0
  0
POLYLINE
  5
1504FF
  8
0
 62
7
 66
1
 70
0
 10
0
 20
0
 30
0
  0
VERTEX
  5
194EC1
  8
0
 62
7
 10
135.25222384333321
 20
125.441918852912
 70
0
  0
VERTEX
  5
194EC2
  8
0
 62
7
 10
135.97190476497141
 20
125.4844658102228
 70
0
  0
SEQEND
  5
194EC3
  8
0
  0
POLYLINE
  5
150503
  8
0
 62
7
 66
1
 70
0
 10
0
 20
0
 30
0
  0
VERTEX
  5
194EC4
  8
0
 62
7
 10
135.88749986990121
 20
125.6539646199145
 70
0
  0
VERTEX
  5
194EC5
  8
0
 62
7
 10
135.54884676029371
 20
125.6539646199145
 70
0
  0
VERTEX
  5
194EC6
  8
0
 62
7
 10
135.42206716280069
 20
125.6115899174916
 70
0
  0
VERTEX
  5
194EC7
  8
0
 62
7
 10
135.336973248179
 20
125.5688707052928
 70
0
  0
VERTEX
  5
194EC8
  8
0
 62
7
 10
135.25222384333321
 20
125.52701276753361
 70
0
  0
VERTEX
  5
194EC9
  8
0
 62
7
 10
135.167818948263
 20
125.52701276753361
 70
0
  0
SEQEND
  5
194ECA
  8
0
  0
POLYLINE
  5
15050B
  8
0
 62
7
 66
1
 70
0
 10
0
 20
0
 30
0
  0
VERTEX
  5
194ECB
  8
0
 62
7
 10
135.88749986990121
 20
125.69599481256159
 70
0
  0
VERTEX
  5
194ECC
  8
0
 62
7
 10
136.056998679593
 20
125.6539646199145
 70
0
  0
VERTEX
  5
194ECD
  8
0
 62
7
 10
136.35293257700181
 20
125.6539646199145
 70
0
  0
VERTEX
  5
194ECE
  8
0
 62
7
 10
136.47971217449481
 20
125.6115899174916
 70
0
  0
VERTEX
  5
194ECF
  8
0
 62
7
 10
136.56480608911659
 20
125.5688707052928
 70
0
  0
VERTEX
  5
194ED0
  8
0
 62
7
 10
136.6495554939624
 20
125.52701276753361
 70
0
  0
SEQEND
  5
194ED1
  8
0
  0
POLYLINE
  5
150513
  8
0
 62
7
 66
1
 70
0
 10
0
 20
0
 30
0
  0
VERTEX
  5
194ED2
  8
0
 62
7
 10
154.9375124323262
 20
115.28198105490721
 70
0
  0
VERTEX
  5
194ED3
  8
0
 62
7
 10
154.9375124323262
 20
115.28198105490721
 70
0
  0
SEQEND
  5
194ED4
  8
0
  0
POLYLINE
  5
150534
  8
0
  6
CONTINUOUS
 66
1
 70
8
  0
VERTEX
  5
150566
  8
0
 10
130.77
 20
110.114
 30
0
 70
32
  0
VERTEX
  5
150567
  8
0
 10
130.534
 20
110.107
 30
0
 70
32
  0
VERTEX
  5
150568
  8
0
 10
130.297
 20
110.087
 30
0
 70
32
  0
VERTEX
  5
150569
  8
0
 10
130.062
 20
110.054
 30
0
 70
32
  0
VERTEX
  5
15056A
  8
0
 10
129.829
 20
110.007
 30
0
 70
32
  0
VERTEX
  5
15056B
  8
0
 10
129.598
 20
109.948
 30
0
 70
32
  0
VERTEX
  5
15056C
  8
0
 10
129.369
 20
109.875
 30
0
 70
32
  0
VERTEX
  5
15056D
  8
0
 10
129.145
 20
109.789
 30
0
 70
32
  0
VERTEX
  5
15056E
  8
0
 10
128.924
 20
109.691
 30
0
 70
32
  0
VERTEX
  5
15056F
  8
0
 10
128.707
 20
109.581
 30
0
 70
32
  0
VERTEX
  5
150570
  8
0
 10
128.495
 20
109.458
 30
0
 70
32
  0
VERTEX
  5
150571
  8
0
 10
128.289
 20
109.324
 30
0
 70
32
  0
VERTEX
  5
150572
  8
0
 10
128.089
 20
109.178
 30
0
 70
32
  0
VERTEX
  5
150573
  8
0
 10
127.896
 20
109.021
 30
0
 70
32
  0
VERTEX
  5
150574
  8
0
 10
127.709
 20
108.854
 30
0
 70
32
  0
VERTEX
  5
150575
  8
0
 10
127.53
 20
108.676
 30
0
 70
32
  0
VERTEX
  5
150576
  8
0
 10
127.358
 20
108.488
 30
0
 70
32
  0
VERTEX
  5
150577
  8
0
 10
127.195
 20
108.291
 30
0
 70
32
  0
VERTEX
  5
150578
  8
0
 10
127.04
 20
108.084
 30
0
 70
32
  0
VERTEX
  5
150579
  8
0
 10
126.894
 20
107.869
 30
0
 70
32
  0
VERTEX
  5
15057A
  8
0
 10
126.758
 20
107.647
 30
0
 70
32
  0
VERTEX
  5
15057B
  8
0
 10
126.631
 20
107.416
 30
0
 70
32
  0
VERTEX
  5
15057C
  8
0
 10
126.514
 20
107.179
 30
0
 70
32
  0
VERTEX
  5
15057D
  8
0
 10
126.408
 20
106.936
 30
0
 70
32
  0
VERTEX
  5
15057E
  8
0
 10
126.312
 20
106.687
 30
0
 70
32
  0
VERTEX
  5
15057F
  8
0
 10
126.227
 20
106.433
 30
0
 70
32
  0
VERTEX
  5
150580
  8
0
 10
126.152
 20
106.174
 30
0
 70
32
  0
VERTEX
  5
150581
  8
0
 10
126.089
 20
105.911
 30
0
 70
32
  0
VERTEX
  5
150582
  8
0
 10
126.037
 20
105.646
 30
0
 70
32
  0
VERTEX
  5
150583
  8
0
 10
125.997
 20
105.377
 30
0
 70
32
  0
VERTEX
  5
150584
  8
0
 10
125.968
 20
105.107
 30
0
 70
32
  0
VERTEX
  5
150585
  8
0
 10
125.95
 20
104.835
 30
0
 70
32
  0
VERTEX
  5
150586
  8
0
 10
125.945
 20
104.563
 30
0
 70
32
  0
VERTEX
  5
150587
  8
0
 10
125.95
 20
104.29
 30
0
 70
32
  0
VERTEX
  5
150588
  8
0
 10
125.968
 20
104.018
 30
0
 70
32
  0
VERTEX
  5
150589
  8
0
 10
125.997
 20
103.748
 30
0
 70
32
  0
VERTEX
  5
15058A
  8
0
 10
126.037
 20
103.48
 30
0
 70
32
  0
VERTEX
  5
15058B
  8
0
 10
126.089
 20
103.214
 30
0
 70
32
  0
VERTEX
  5
15058C
  8
0
 10
126.153
 20
102.951
 30
0
 70
32
  0
VERTEX
  5
15058D
  8
0
 10
126.227
 20
102.692
 30
0
 70
32
  0
VERTEX
  5
15058E
  8
0
 10
126.312
 20
102.438
 30
0
 70
32
  0
VERTEX
  5
15058F
  8
0
 10
126.408
 20
102.189
 30
0
 70
32
  0
VERTEX
  5
150590
  8
0
 10
126.515
 20
101.946
 30
0
 70
32
  0
VERTEX
  5
150591
  8
0
 10
126.631
 20
101.709
 30
0
 70
32
  0
VERTEX
  5
150592
  8
0
 10
126.758
 20
101.478
 30
0
 70
32
  0
VERTEX
  5
150593
  8
0
 10
126.894
 20
101.256
 30
0
 70
32
  0
VERTEX
  5
150594
  8
0
 10
127.04
 20
101.041
 30
0
 70
32
  0
VERTEX
  5
150595
  8
0
 10
127.195
 20
100.835
 30
0
 70
32
  0
VERTEX
  5
150596
  8
0
 10
127.358
 20
100.637
 30
0
 70
32
  0
VERTEX
  5
150597
  8
0
 10
127.53
 20
100.449
 30
0
 70
32
  0
VERTEX
  5
150598
  8
0
 10
127.709
 20
100.271
 30
0
 70
32
  0
VERTEX
  5
150599
  8
0
 10
127.896
 20
100.104
 30
0
 70
32
  0
VERTEX
  5
15059A
  8
0
 10
128.09
 20
99.947000000000017
 30
0
 70
32
  0
VERTEX
  5
15059B
  8
0
 10
128.29
 20
99.8012
 30
0
 70
32
  0
VERTEX
  5
15059C
  8
0
 10
128.496
 20
99.666899999999984
 30
0
 70
32
  0
VERTEX
  5
15059D
  8
0
 10
128.707
 20
99.5444
 30
0
 70
32
  0
VERTEX
  5
15059E
  8
0
 10
128.924
 20
99.434
 30
0
 70
32
  0
VERTEX
  5
15059F
  8
0
 10
129.145
 20
99.3359
 30
0
 70
32
  0
VERTEX
  5
1505A0
  8
0
 10
129.37
 20
99.2505
 30
0
 70
32
  0
VERTEX
  5
1505A1
  8
0
 10
129.598
 20
99.1778
 30
0
 70
32
  0
VERTEX
  5
1505A2
  8
0
 10
129.829
 20
99.1181
 30
0
 70
32
  0
VERTEX
  5
1505A3
  8
0
 10
130.063
 20
99.0716
 30
0
 70
32
  0
VERTEX
  5
1505A4
  8
0
 10
130.298
 20
99.0382
 30
0
 70
32
  0
VERTEX
  5
1505A5
  8
0
 10
130.534
 20
99.0182
 30
0
 70
32
  0
VERTEX
  5
1505A6
  8
0
 10
130.771
 20
99.011500000000012
 30
0
 70
32
  0
VERTEX
  5
1505A7
  8
0
 10
131.008
 20
99.0182
 30
0
 70
32
  0
VERTEX
  5
1505A8
  8
0
 10
131.244
 20
99.0383
 30
0
 70
32
  0
VERTEX
  5
1505A9
  8
0
 10
131.479
 20
99.0716
 30
0
 70
32
  0
VERTEX
  5
1505AA
  8
0
 10
131.712
 20
99.1182
 30
0
 70
32
  0
VERTEX
  5
1505AB
  8
0
 10
131.943
 20
99.1779
 30
0
 70
32
  0
VERTEX
  5
1505AC
  8
0
 10
132.172
 20
99.2506
 30
0
 70
32
  0
VERTEX
  5
1505AD
  8
0
 10
132.397
 20
99.336100000000016
 30
0
 70
32
  0
VERTEX
  5
1505AE
  8
0
 10
132.618
 20
99.4341
 30
0
 70
32
  0
VERTEX
  5
1505AF
  8
0
 10
132.834
 20
99.5446
 30
0
 70
32
  0
VERTEX
  5
1505B0
  8
0
 10
133.046
 20
99.6671
 30
0
 70
32
  0
VERTEX
  5
1505B1
  8
0
 10
133.252
 20
99.8014
 30
0
 70
32
  0
VERTEX
  5
1505B2
  8
0
 10
133.452
 20
99.9472
 30
0
 70
32
  0
VERTEX
  5
1505B3
  8
0
 10
133.645
 20
100.104
 30
0
 70
32
  0
VERTEX
  5
1505B4
  8
0
 10
133.832
 20
100.272
 30
0
 70
32
  0
VERTEX
  5
1505B5
  8
0
 10
134.012
 20
100.45
 30
0
 70
32
  0
VERTEX
  5
1505B6
  8
0
 10
134.183
 20
100.638
 30
0
 70
32
  0
VERTEX
  5
1505B7
  8
0
 10
134.346
 20
100.835
 30
0
 70
32
  0
VERTEX
  5
1505B8
  8
0
 10
134.501
 20
101.041
 30
0
 70
32
  0
VERTEX
  5
1505B9
  8
0
 10
134.647
 20
101.256
 30
0
 70
32
  0
VERTEX
  5
1505BA
  8
0
 10
134.783
 20
101.479
 30
0
 70
32
  0
VERTEX
  5
1505BB
  8
0
 10
134.91
 20
101.709
 30
0
 70
32
  0
VERTEX
  5
1505BC
  8
0
 10
135.027
 20
101.946
 30
0
 70
32
  0
VERTEX
  5
1505BD
  8
0
 10
135.133
 20
102.189
 30
0
 70
32
  0
VERTEX
  5
1505BE
  8
0
 10
135.2289999999999
 20
102.439
 30
0
 70
32
  0
VERTEX
  5
1505BF
  8
0
 10
135.314
 20
102.693
 30
0
 70
32
  0
VERTEX
  5
1505C0
  8
0
 10
135.389
 20
102.951
 30
0
 70
32
  0
VERTEX
  5
1505C1
  8
0
 10
135.452
 20
103.214
 30
0
 70
32
  0
VERTEX
  5
1505C2
  8
0
 10
135.504
 20
103.48
 30
0
 70
32
  0
VERTEX
  5
1505C3
  8
0
 10
135.5439999999999
 20
103.748
 30
0
 70
32
  0
VERTEX
  5
1505C4
  8
0
 10
135.573
 20
104.019
 30
0
 70
32
  0
VERTEX
  5
1505C5
  8
0
 10
135.591
 20
104.291
 30
0
 70
32
  0
VERTEX
  5
1505C6
  8
0
 10
135.596
 20
104.563
 30
0
 70
32
  0
VERTEX
  5
1505C7
  8
0
 10
135.591
 20
104.835
 30
0
 70
32
  0
VERTEX
  5
1505C8
  8
0
 10
135.573
 20
105.107
 30
0
 70
32
  0
VERTEX
  5
1505C9
  8
0
 10
135.5439999999999
 20
105.377
 30
0
 70
32
  0
VERTEX
  5
1505CA
  8
0
 10
135.504
 20
105.646
 30
0
 70
32
  0
VERTEX
  5
1505CB
  8
0
 10
135.452
 20
105.912
 30
0
 70
32
  0
VERTEX
  5
1505CC
  8
0
 10
135.389
 20
106.174
 30
0
 70
32
  0
VERTEX
  5
1505CD
  8
0
 10
135.314
 20
106.433
 30
0
 70
32
  0
VERTEX
  5
1505CE
  8
0
 10
135.2289999999999
 20
106.687
 30
0
 70
32
  0
VERTEX
  5
1505CF
  8
0
 10
135.133
 20
106.936
 30
0
 70
32
  0
VERTEX
  5
1505D0
  8
0
 10
135.027
 20
107.18
 30
0
 70
32
  0
VERTEX
  5
1505D1
  8
0
 10
134.91
 20
107.417
 30
0
 70
32
  0
VERTEX
  5
1505D2
  8
0
 10
134.783
 20
107.647
 30
0
 70
32
  0
VERTEX
  5
1505D3
  8
0
 10
134.647
 20
107.87
 30
0
 70
32
  0
VERTEX
  5
1505D4
  8
0
 10
134.501
 20
108.085
 30
0
 70
32
  0
VERTEX
  5
1505D5
  8
0
 10
134.346
 20
108.291
 30
0
 70
32
  0
VERTEX
  5
1505D6
  8
0
 10
134.183
 20
108.488
 30
0
 70
32
  0
VERTEX
  5
1505D7
  8
0
 10
134.011
 20
108.676
 30
0
 70
32
  0
VERTEX
  5
1505D8
  8
0
 10
133.832
 20
108.854
 30
0
 70
32
  0
VERTEX
  5
1505D9
  8
0
 10
133.645
 20
109.022
 30
0
 70
32
  0
VERTEX
  5
1505DA
  8
0
 10
133.452
 20
109.178
 30
0
 70
32
  0
VERTEX
  5
1505DB
  8
0
 10
133.251
 20
109.324
 30
0
 70
32
  0
VERTEX
  5
1505DC
  8
0
 10
133.045
 20
109.459
 30
0
 70
32
  0
VERTEX
  5
1505DD
  8
0
 10
132.834
 20
109.581
 30
0
 70
32
  0
VERTEX
  5
1505DE
  8
0
 10
132.617
 20
109.691
 30
0
 70
32
  0
VERTEX
  5
1505DF
  8
0
 10
132.396
 20
109.789
 30
0
 70
32
  0
VERTEX
  5
1505E0
  8
0
 10
132.171
 20
109.875
 30
0
 70
32
  0
VERTEX
  5
1505E1
  8
0
 10
131.943
 20
109.948
 30
0
 70
32
  0
VERTEX
  5
1505E2
  8
0
 10
131.712
 20
110.007
 30
0
 70
32
  0
VERTEX
  5
1505E3
  8
0
 10
131.478
 20
110.054
 30
0
 70
32
  0
VERTEX
  5
1505E4
  8
0
 10
131.243
 20
110.087
 30
0
 70
32
  0
VERTEX
  5
1505E5
  8
0
 10
131.007
 20
110.107
 30
0
 70
32
  0
VERTEX
  5
1505E6
  8
0
 10
130.77
 20
110.114
 30
0
 70
32
  0
SEQEND
  5
1505E7
  8
0
  0
POLYLINE
  5
15053C
  8
0
 62
7
 66
1
 70
0
 10
0
 20
0
 30
0
  0
VERTEX
  5
194ED5
  8
0
 62
7
 10
132.3738446665561
 20
99.619016353222264
 70
0
  0
VERTEX
  5
194ED6
  8
0
 62
7
 10
132.3738446665561
 20
99.5339224386006
 70
0
  0
VERTEX
  5
194ED7
  8
0
 62
7
 10
132.41587485920331
 20
99.5339224386006
 70
0
  0
VERTEX
  5
194ED8
  8
0
 62
7
 10
132.41587485920331
 20
99.492064500841352
 70
0
  0
VERTEX
  5
194ED9
  8
0
 62
7
 10
132.45824956162619
 20
99.492064500841352
 70
0
  0
VERTEX
  5
194EDA
  8
0
 62
7
 10
132.45824956162619
 20
99.449517543530561
 70
0
  0
VERTEX
  5
194EDB
  8
0
 62
7
 10
132.500968773825
 20
99.406970586219714
 70
0
  0
VERTEX
  5
194EDC
  8
0
 62
7
 10
132.55946178921769
 20
99.406970586219714
 70
0
  0
SEQEND
  5
194EDD
  8
0
  0
INSERT
  5
194EEE
  8
0
  2
SPECEL-S3002WKEL-X0035
 10
223.9574017399998
 20
79.526845000000023
 30
0
 41
1
 42
1
 43
1
 50
0
  0
ENDSEC
999
Created By CadLib version 4.0.36.7
999
CadLib website: www.woutware.com
  0
EOF
