  0
SECTION
  2
HEADER
  9
$ACADVER
  1
AC1009
  9
$DWGCODEPAGE
  3
dos932
  9
$INSBASE
 10
0
 20
0
 30
0
  9
$EXTMIN
 10
-3.0466332221965926
 20
-8.0953276713580884
 30
0
  9
$EXTMAX
 10
145.63917936341971
 20
83.047919064773751
 30
0
  9
$LIMMIN
 10
0
 20
0
  9
$LIMMAX
 10
105.125
 20
74.25
  9
$SNAPMODE
 70
0
  9
$SNAPUNIT
 10
1
 20
1
  9
$SNAPBASE
 10
0
 20
0
  9
$SNAPANG
 50
0
  9
$SNAPSTYLE
 70
0
  9
$SNAPISOPAIR
 70
0
  9
$ORTHOMODE
 70
0
  9
$REGENMODE
 70
1
  9
$FILLMODE
 70
1
  9
$QTEXTMODE
 70
0
  9
$MIRRTEXT
 70
0
  9
$LTSCALE
 40
0.125
  9
$OSMODE
 70
37
  9
$ATTMODE
 70
1
  9
$TEXTSIZE
 40
0.2
  9
$TRACEWID
 40
0.05
  9
$TEXTSTYLE
  7
STANDARD
  9
$CLAYER
  8
0
  9
$CELTYPE
  6
CONTINUOUS
  9
$CECOLOR
 62
256
  9
$DIMSCALE
 40
1
  9
$DIMASZ
 40
0.18
  9
$DIMEXO
 40
0.0625
  9
$DIMDLI
 40
0.38
  9
$DIMRND
 40
0
  9
$DIMDLE
 40
0
  9
$DIMEXE
 40
0.18
  9
$DIMTP
 40
0
  9
$DIMTM
 40
0
  9
$DIMTXT
 40
0.18
  9
$DIMCEN
 40
0.09
  9
$DIMTSZ
 40
0
  9
$DIMTOL
 70
0
  9
$DIMLIM
 70
0
  9
$DIMTIH
 70
1
  9
$DIMTOH
 70
1
  9
$DIMSE1
 70
0
  9
$DIMSE2
 70
0
  9
$DIMTAD
 70
0
  9
$DIMZIN
 70
0
  9
$DIMBLK
  1

  9
$DIMASO
 70
1
  9
$DIMSHO
 70
1
  9
$DIMPOST
  1

  9
$DIMAPOST
  1

  9
$DIMALT
 70
0
  9
$DIMALTD
 70
2
  9
$DIMALTF
 40
25.4
  9
$DIMLFAC
 40
1
  9
$DIMTOFL
 70
0
  9
$DIMTVP
 40
0
  9
$DIMTIX
 70
0
  9
$DIMSOXD
 70
0
  9
$DIMSAH
 70
0
  9
$DIMBLK1
  1

  9
$DIMBLK2
  1

  9
$DIMSTYLE
  2
STANDARD
  9
$DIMCLRD
 70
0
  9
$DIMCLRE
 70
0
  9
$DIMCLRT
 70
0
  9
$DIMTFAC
 40
1
  9
$DIMGAP
 40
0.09
  9
$LUNITS
 70
2
  9
$LUPREC
 70
4
  9
$SKETCHINC
 40
0.1
  9
$FILLETRAD
 40
0
  9
$AUNITS
 70
0
  9
$AUPREC
 70
0
  9
$MENU
  1
.
  9
$ELEVATION
 40
0
  9
$PELEVATION
 40
0
  9
$THICKNESS
 40
0
  9
$LIMCHECK
 70
0
  9
$CHAMFERA
 40
0
  9
$CHAMFERB
 40
0
  9
$SKPOLY
 70
0
  9
$TDCREATE
 40
2456622.5523805902
  9
$TDUPDATE
 40
2457973.3953162385
  9
$TDINDWG
 40
0.12335251157407408
  9
$TDUSRTIMER
 40
0.12335162037037037
  9
$USRTIMER
 70
1
  9
$ANGBASE
 50
0
  9
$ANGDIR
 70
0
  9
$PDMODE
 70
0
  9
$PDSIZE
 40
0
  9
$PLINEWID
 40
0
  9
$SPLFRAME
 70
0
  9
$SPLINETYPE
 70
6
  9
$SPLINESEGS
 70
8
  9
$HANDLING
 70
1
  9
$HANDSEED
  5
28F9C
  9
$SURFTAB1
 70
6
  9
$SURFTAB2
 70
6
  9
$SURFTYPE
 70
6
  9
$SURFU
 70
6
  9
$SURFV
 70
6
  9
$UCSORG
 10
0
 20
0
 30
0
  9
$UCSXDIR
 10
1
 20
0
 30
0
  9
$UCSYDIR
 10
0
 20
1
 30
0
  9
$PUCSORG
 10
0
 20
0
 30
0
  9
$PUCSXDIR
 10
1
 20
0
 30
0
  9
$PUCSYDIR
 10
0
 20
1
 30
0
  9
$USERI1
 70
0
  9
$USERI2
 70
0
  9
$USERI3
 70
0
  9
$USERI4
 70
0
  9
$USERI5
 70
0
  9
$USERR1
 40
0
  9
$USERR2
 40
0
  9
$USERR3
 40
0
  9
$USERR4
 40
0
  9
$USERR5
 40
0
  9
$WORLDVIEW
 70
1
  9
$SHADEDGE
 70
3
  9
$SHADEDIF
 70
70
  9
$TILEMODE
 70
1
  9
$MAXACTVP
 70
64
  9
$PINSBASE
 10
0
 20
0
 30
0
  9
$PLIMCHECK
 70
0
  9
$PEXTMIN
 10
1E+20
 20
1E+20
 30
1E+20
  9
$PEXTMAX
 10
-1E+20
 20
-1E+20
 30
-1E+20
  9
$PLIMMAX
 10
12
 20
9
  9
$PLIMMIN
 10
0
 20
0
  9
$UNITMODE
 70
0
  9
$VISRETAIN
 70
1
  9
$PLINEGEN
 70
0
  9
$PSLTSCALE
 70
1
  9
$TREEDEPTH
 70
3020
  9
$DRAGMODE
 70
     2
  9
$BLIPMODE
 70
     0
  9
$COORDS
 70
     1
  9
$ATTDIA
 70
     0
  9
$ATTREQ
 70
     1
  0
ENDSEC
  0
SECTION
  2
TABLES
  0
TABLE
  2
VPORT
  5
28F8E
 70
1
  0
VPORT
  5
28F62
  2
*ACTIVE
 70
0
 10
0
 20
0
 11
1
 21
1
 12
123.5419088721502
 22
14.29625234239378
 13
0
 23
0
 14
1
 24
1
 15
0
 25
0
 16
0
 26
0
 36
1
 17
0
 27
0
 37
0
 40
244.1219815874345
 41
1.585812356979404
 42
50
 43
0
 44
0
 50
0
 51
0
 71
0
 72
100
 73
1
 74
1
 75
0
 76
0
 77
0
 78
0
  0
ENDTAB
  0
TABLE
  2
LTYPE
  5
28F8F
 70
40
  0
LTYPE
  5
28F38
  2
CONTINUOUS
  3
実線
 70
0
 72
65
 73
0
 40
0
  0
LTYPE
  5
28F39
  2
DASHED1
  3
--  --  --  --  --  --  --  --  
 70
0
 72
65
 73
2
 40
2.5
 49
1.25
 49
-1.25
  0
LTYPE
  5
28F3A
  2
DASHED2
  3
----    ----    ----    ----    
 70
0
 72
65
 73
2
 40
5
 49
2.5
 49
-2.5
  0
LTYPE
  5
28F3B
  2
DASHED3
  3
------  ------  ------  ------  
 70
0
 72
65
 73
2
 40
5
 49
3.75
 49
-1.25
  0
LTYPE
  5
28F3C
  2
CENTER1
  3
----- - ----- - ----- - ----- - 
 70
0
 72
65
 73
4
 40
10
 49
6.25
 49
-1.25
 49
1.25
 49
-1.25
  0
LTYPE
  5
28F3D
  2
CENTER2
  3
----------  --  ----------  --  
 70
0
 72
65
 73
4
 40
20
 49
12.5
 49
-2.5
 49
2.5
 49
-2.5
  0
LTYPE
  5
28F3E
  2
PHANTOM1
  3
--- - - --- - - --- - - --- - - 
 70
0
 72
65
 73
6
 40
9.5
 49
3.25
 49
-1.25
 49
1.25
 49
-1.25
 49
1.25
 49
-1.25
  0
LTYPE
  5
28F3F
  2
PHANTOM2
  3
--------  -  -  --------  -  -  
 70
0
 72
65
 73
6
 40
20
 49
10
 49
-2.5
 49
1.25
 49
-2.5
 49
1.25
 49
-2.5
  0
LTYPE
  5
28F40
  2
DOT
  3
-   -   -   -   -   -   -   -   
 70
0
 72
65
 73
2
 40
2.5
 49
0.625
 49
-1.875
  0
LTYPE
  5
28F41
  2
DUMMY
  3
ダミー
 70
0
 72
65
 73
0
 40
0
  0
LTYPE
  5
28F42
  2
RAND1
  3
ランダム線1
 70
0
 72
65
 73
4
 40
10
 49
1
 49
-2
 49
3
 49
-4
  0
LTYPE
  5
28F43
  2
RAND2
  3
ランダム線2
 70
0
 72
65
 73
4
 40
14
 49
2
 49
-3
 49
4
 49
-5
  0
LTYPE
  5
28F44
  2
RAND3
  3
ランダム線3
 70
0
 72
65
 73
4
 40
18
 49
3
 49
-4
 49
5
 49
-6
  0
LTYPE
  5
28F45
  2
RAND4
  3
ランダム線4
 70
0
 72
65
 73
4
 40
22
 49
4
 49
-5
 49
6
 49
-7
  0
LTYPE
  5
28F46
  2
RAND5
  3
ランダム線5
 70
0
 72
65
 73
4
 40
26
 49
5
 49
-6
 49
7
 49
-8
  0
LTYPE
  5
28F47
  2
LONG1
  3
----------  --  ----------  --  
 70
0
 72
65
 73
4
 40
40
 49
32.5
 49
-2.5
 49
2.5
 49
-2.5
  0
LTYPE
  5
28F48
  2
LONG2
  3
--------  -  -  --------  -  -  
 70
0
 72
65
 73
6
 40
40
 49
30
 49
-2.5
 49
1.25
 49
-2.5
 49
1.25
 49
-2.5
  0
LTYPE
  5
28F49
  2
LONG3
  3
+++++++++++++++..+++++++++++++++
 70
0
 72
65
 73
2
 40
40
 49
37.5
 49
-2.5
  0
LTYPE
  5
28F4A
  2
LONG4
  3
+++++++++++++++..+++++++++++++++
 70
0
 72
65
 73
2
 40
80
 49
75
 49
-5
  0
LTYPE
  5
28F4B
  2
LONG5
  3
----------  --  ----------  --  
 70
0
 72
65
 73
4
 40
60
 49
37.5
 49
-7.5
 49
7.5
 49
-7.5
  0
LTYPE
  5
28F4C
  2
DASHED
  3
-------   -------------   ------
 70
0
 72
65
 73
2
 40
3.8
 49
3
 49
-0.8
  0
LTYPE
  5
28F4D
  2
DASHED_SPACED
  3
----        --------        ----
 70
0
 72
65
 73
2
 40
12
 49
6
 49
-6
  0
LTYPE
  5
28F4E
  2
LONG_DASHED_DOTTED
  3
------------- --- --------------
 70
0
 72
65
 73
4
 40
15.25
 49
12
 49
-1.5
 49
0.25
 49
-1.5
  0
LTYPE
  5
28F4F
  2
LONG_DASHED_DOUBLE-DOTTED
  3
----------- --- --- ------------
 70
0
 72
65
 73
6
 40
17
 49
12
 49
-1.5
 49
0.25
 49
-1.5
 49
0.25
 49
-1.5
  0
LTYPE
  5
28F50
  2
LONG_DASHED_TRIPLICATE-DOT
  3
--------- --- --- --- ----------
 70
0
 72
65
 73
8
 40
18.75
 49
12
 49
-1.5
 49
0.25
 49
-1.5
 49
0.25
 49
-1.5
 49
0.25
 49
-1.5
  0
LTYPE
  5
28F51
  2
DOTTED
  3
   -       -       -       -    
 70
0
 72
65
 73
2
 40
1.75
 49
0.25
 49
-1.5
  0
LTYPE
  5
28F52
  2
CHAIN
  3
-------------- -- --------------
 70
0
 72
65
 73
4
 40
18.5
 49
12
 49
-1.5
 49
3.5
 49
-1.5
  0
LTYPE
  5
28F53
  2
CHAIN_DOUBLE_DASH
  3
------------ -- -- -------------
 70
0
 72
65
 73
6
 40
23.5
 49
12
 49
-1.5
 49
3.5
 49
-1.5
 49
3.5
 49
-1.5
  0
LTYPE
  5
28F54
  2
DASHED_DOTTED
  3
-----------     -     ----------
 70
0
 72
65
 73
4
 40
9.25
 49
6
 49
-1.5
 49
0.25
 49
-1.5
  0
LTYPE
  5
28F55
  2
DOUBLE-DASHED_DOTTED
  3
------   -----------   -   -----
 70
0
 72
65
 73
6
 40
16.75
 49
6
 49
-1.5
 49
6
 49
-1.5
 49
0.25
 49
-1.5
  0
LTYPE
  5
28F56
  2
DASHED_DOUBLE-DOTTED
  3
---------    -    -    ---------
 70
0
 72
65
 73
6
 40
11
 49
6
 49
-1.5
 49
0.25
 49
-1.5
 49
0.25
 49
-1.5
  0
LTYPE
  5
28F57
  2
DOUBLE-DASHED_DOUBLE-DOTTE
  3
-----   ---------   -   -   ----
 70
0
 72
65
 73
8
 40
18.5
 49
6
 49
-1.5
 49
6
 49
-1.5
 49
0.25
 49
-1.5
 49
0.25
 49
-1.5
  0
LTYPE
  5
28F58
  2
DASHED_TRIPLICATE-DOTTED
  3
-------    -    -    -    ------
 70
0
 72
65
 73
8
 40
12.75
 49
6
 49
-1.5
 49
0.25
 49
-1.5
 49
0.25
 49
-1.5
 49
0.25
 49
-1.5
  0
LTYPE
  5
28F59
  2
DOUBLE-DASHED_TRIPLICATE-D
  3
-----  ---------  -  -  -  -----
 70
0
 72
65
 73
10
 40
20.25
 49
6
 49
-1.5
 49
6
 49
-1.5
 49
0.25
 49
-1.5
 49
0.25
 49
-1.5
 49
0.25
 49
-1.5
  0
LTYPE
  5
28F5A
  2
UNDEFINED
  3
--------------------------------
 70
0
 72
65
 73
0
 40
0
  0
LTYPE
  5
28F5B
  2
DOT_18
  3
----        --------        ----
 70
0
 72
65
 73
2
 40
2
 49
1
 49
-1
  0
LTYPE
  5
28F5C
  2
DASHDOT
  3
------------   --   ------------
 70
0
 72
65
 73
4
 40
25.6
 49
20
 49
-2
 49
1.6
 49
-2
  0
LTYPE
  5
28F5D
  2
DIVIDE
  3
-----------  --  --  -----------
 70
0
 72
65
 73
6
 40
31.199999999999996
 49
20
 49
-2.399999999999999
 49
2
 49
-2.399999999999999
 49
2
 49
-2.399999999999999
  0
LTYPE
  5
28F5E
  2
ByBlock
  3

 70
64
 72
65
 73
0
 40
0
  0
LTYPE
  5
28F5F
  2
ByLayer
  3

 70
64
 72
65
 73
0
 40
0
  0
ENDTAB
  0
TABLE
  2
LAYER
  5
28F90
 70
2
  0
LAYER
  5
28F22
 70
0
  2
0
 62
7
  6
CONTINUOUS
  0
LAYER
  5
28F23
 70
0
  2
SPEC
 62
7
  6
CONTINUOUS
  0
ENDTAB
  0
TABLE
  2
STYLE
  5
28F91
 70
3
  0
STYLE
  5
28F35
  2
STANDARD
 70
0
 40
0
 41
1
 50
0
 71
0
 42
0.2
  3
txt.shx
  4
extfont2.shx
  0
STYLE
  5
28F36
  2
ANNOTATIVE
 70
0
 40
0
 41
1
 50
0
 71
0
 42
0.2
  3
txt
  0
STYLE
  5
28F37
  2
TATEGAKI
 70
4
 40
0
 41
1
 50
0
 71
0
 42
1
  3
txt
  4
bigfont.shx
  0
ENDTAB
  0
TABLE
  2
APPID
  5
28F94
 70
4
  0
APPID
  5
28F95
  2
ACAD
 70
0
  0
APPID
  5
28F98
  2
ACADANNOTATIVE
 70
0
  0
APPID
  5
28F99
  2
ACAD_MLEADERVER
 70
0
  0
APPID
  5
28F9A
  2
ACAD_EXEMPT_FROM_CAD_STANDARDS
 70
0
  0
ENDTAB
  0
TABLE
  2
DIMSTYLE
  5
28F96
 70
2
  0
DIMSTYLE
105
28F60
  2
STANDARD
 70
0
  3

  4

  5

  6

  7

 40
1
 41
0.18
 42
0.0625
 43
0.38
 44
0.18
 45
0
 46
0
 47
0
 48
0
140
0.18
141
0.09
142
0
143
25.4
144
1
145
0
146
1
147
0.09
 71
0
 72
0
 73
1
 74
1
 75
0
 76
0
 77
0
 78
0
170
0
171
2
172
0
173
0
174
0
175
0
176
0
177
0
178
0
  0
DIMSTYLE
105
28F61
  2
ANNOTATIVE
 70
0
  3

  4

  5

  6

  7

 40
1
 41
0.18
 42
0.0625
 43
0.38
 44
0.18
 45
0
 46
0
 47
0
 48
0
140
0.18
141
0.09
142
0
143
25.4
144
1
145
0
146
1
147
0.09
 71
0
 72
0
 73
1
 74
1
 75
0
 76
0
 77
0
 78
0
170
0
171
2
172
0
173
0
174
0
175
0
176
0
177
0
178
0
  0
ENDTAB
  0
ENDSEC
  0
SECTION
  2
BLOCKS
  0
BLOCK
  5
28F25
  8
0
  2
$MODEL_SPACE
 70
0
 10
0
 20
0
 30
0
  3
$MODEL_SPACE
  0
ENDBLK
  5
2725C
  8
0
  0
BLOCK
  5
28F27
  8
0
 67
1
  2
$PAPER_SPACE
 70
0
 10
0
 20
0
 30
0
  3
$PAPER_SPACE
  0
ENDBLK
  5
27258
  8
0
  0
BLOCK
  5
28F29
  8
0
  2
SPECEL-SE2603CS
 70
64
 10
0
 20
0
 30
0
  3
SPECEL-SE2603CS
  0
TEXT
  5
28F2A
  8
SPEC
 10
0
 20
0
 30
0
 40
1.5
  1
LED 口金:E26
  7
STANDARD
  0
TEXT
  5
28F2B
  8
SPEC
 10
0
 20
-3
 30
0
 40
1.5
  1
本体:ｱﾙﾐﾀﾞｲｶｽﾄ ｼﾙﾊﾞｰ色仕上
  7
STANDARD
  0
ENDBLK
  5
28F2C
  8
0
  0
BLOCK
  5
28F2E
  8
0
  2
*MODEL_SPACE
 70
64
 10
0
 20
0
 30
0
  3
*MODEL_SPACE
  0
ENDBLK
  5
28F31
  8
0
  0
BLOCK
  5
28F33
  8
0
 67
1
  2
*PAPER_SPACE
 70
64
 10
0
 20
0
 30
0
  3
*PAPER_SPACE
  0
ENDBLK
  5
28F34
  8
0
  0
ENDSEC
  0
SECTION
  2
ENTITIES
  0
TEXT
  5
A3
  8
0
 62
7
 10
-3.5582294022784482
 20
-7.3750000000000142
 30
0
 40
5
  1
三菱 EL-SE2603C/S
  7
STANDARD
  0
TEXT
  5
A4
  8
0
 62
7
 10
-3.5582294022784482
 20
76.624999999999986
 30
0
 40
5
  1
LEDx1 ｽﾎﾟｯﾄﾗｲﾄWP
  7
STANDARD
  0
POLYLINE
  5
280FF
  8
0
 62
7
 66
1
 70
0
 10
0
 20
0
 30
0
  0
VERTEX
  5
28100
  8
0
 62
7
 10
57.044722286103386
 20
59.97628599011221
 70
0
  0
VERTEX
  5
28101
  8
0
 62
7
 10
57.25694016799477
 20
60.10323775874366
 70
0
  0
VERTEX
  5
28102
  8
0
 62
7
 10
57.510499195709173
 20
60.144578904566629
 70
0
  0
VERTEX
  5
28103
  8
0
 62
7
 10
57.76405822342354
 20
60.187298088583759
 70
0
  0
VERTEX
  5
28104
  8
0
 62
7
 10
58.103055619172117
 20
60.144578904566629
 70
0
  0
SEQEND
  5
28105
  8
0
  0
POLYLINE
  5
28106
  8
0
 62
7
 66
1
 70
0
 10
0
 20
0
 30
0
  0
VERTEX
  5
28107
  8
0
 62
7
 10
57.128782615943457
 20
59.806959547012177
 70
0
  0
VERTEX
  5
28108
  8
0
 62
7
 10
57.34100049783487
 20
59.891019876852283
 70
0
  0
VERTEX
  5
28109
  8
0
 62
7
 10
57.594559525549244
 20
59.97628599011221
 70
0
  0
SEQEND
  5
2810A
  8
0
  0
POLYLINE
  5
2810B
  8
0
 62
7
 66
1
 70
0
 10
0
 20
0
 30
0
  0
VERTEX
  5
2810C
  8
0
 62
7
 10
57.171501799960573
 20
59.848300692835153
 70
0
  0
VERTEX
  5
2810D
  8
0
 62
7
 10
57.383719681851971
 20
59.97628599011221
 70
0
  0
VERTEX
  5
2810E
  8
0
 62
7
 10
57.594559525549244
 20
60.017971645483719
 70
0
  0
SEQEND
  5
2810F
  8
0
  0
POLYLINE
  5
28110
  8
0
 62
7
 66
1
 70
0
 10
0
 20
0
 30
0
  0
VERTEX
  5
28111
  8
0
 62
7
 10
49.256050413050559
 20
49.1381878482905
 70
0
  0
VERTEX
  5
28112
  8
0
 62
7
 10
49.001113347142052
 20
49.011236079658993
 70
0
  0
VERTEX
  5
28113
  8
0
 62
7
 10
48.831614649267777
 20
48.88462882057609
 70
0
  0
VERTEX
  5
28114
  8
0
 62
7
 10
48.662115951393467
 20
48.715302377476057
 70
0
  0
VERTEX
  5
28115
  8
0
 62
7
 10
48.535336437536273
 20
48.461571094987391
 70
0
  0
VERTEX
  5
28116
  8
0
 62
7
 10
48.451276107696167
 20
48.206634029078941
 70
0
  0
VERTEX
  5
28117
  8
0
 62
7
 10
48.451276107696167
 20
47.910183562573188
 70
0
  0
SEQEND
  5
28118
  8
0
  0
POLYLINE
  5
28119
  8
0
 62
7
 66
1
 70
0
 10
0
 20
0
 30
0
  0
VERTEX
  5
2811A
  8
0
 62
7
 10
34.311226198036771
 20
42.365302379063557
 70
0
  0
VERTEX
  5
2811B
  8
0
 62
7
 10
34.100386354339463
 20
42.195631426414991
 70
0
  0
VERTEX
  5
2811C
  8
0
 62
7
 10
34.989220989533919
 20
41.306969045994812
 70
0
  0
SEQEND
  5
2811D
  8
0
  0
POLYLINE
  5
2811E
  8
0
 62
7
 66
1
 70
0
 10
0
 20
0
 30
0
  0
VERTEX
  5
2811F
  8
0
 62
7
 10
36.640110746065659
 20
42.618516897229419
 70
0
  0
VERTEX
  5
28120
  8
0
 62
7
 10
34.607504409768239
 20
40.587288599126111
 70
0
  0
SEQEND
  5
28121
  8
0
  0
POLYLINE
  5
28122
  8
0
 62
7
 66
1
 70
0
 10
0
 20
0
 30
0
  0
VERTEX
  5
28123
  8
0
 62
7
 10
36.979108141814237
 20
42.32223868549795
 70
0
  0
VERTEX
  5
28124
  8
0
 62
7
 10
34.903782621499722
 20
40.29135489694314
 70
0
  0
SEQEND
  5
28125
  8
0
  0
POLYLINE
  5
28126
  8
0
 62
7
 66
1
 70
0
 10
0
 20
0
 30
0
  0
VERTEX
  5
28127
  8
0
 62
7
 10
34.946501805516817
 20
40.248635712926053
 70
0
  0
VERTEX
  5
28128
  8
0
 62
7
 10
36.979108141814237
 20
42.32223868549795
 70
0
  0
SEQEND
  5
28129
  8
0
  0
POLYLINE
  5
2812A
  8
0
 62
7
 66
1
 70
0
 10
0
 20
0
 30
0
  0
VERTEX
  5
2812B
  8
0
 62
7
 10
36.470612048191363
 20
42.830907033895073
 70
0
  0
VERTEX
  5
2812C
  8
0
 62
7
 10
34.396664566070939
 20
40.714240367757583
 70
0
  0
SEQEND
  5
2812D
  8
0
  0
POLYLINE
  5
2812E
  8
0
 62
7
 66
1
 70
0
 10
0
 20
0
 30
0
  0
VERTEX
  5
2812F
  8
0
 62
7
 10
34.566163263945242
 20
40.544569415109009
 70
0
  0
VERTEX
  5
28130
  8
0
 62
7
 10
36.640110746065659
 20
42.618516897229419
 70
0
  0
SEQEND
  5
28131
  8
0
  0
POLYLINE
  5
28132
  8
0
 62
7
 66
1
 70
0
 10
0
 20
0
 30
0
  0
VERTEX
  5
28133
  8
0
 62
7
 10
34.989220989533919
 20
41.306969045994812
 70
0
  0
VERTEX
  5
28134
  8
0
 62
7
 10
35.20006083323122
 20
41.519014673111933
 70
0
  0
SEQEND
  5
28135
  8
0
  0
POLYLINE
  5
28136
  8
0
 62
7
 66
1
 70
0
 10
0
 20
0
 30
0
  0
VERTEX
  5
28137
  8
0
 62
7
 10
46.249171073524472
 20
48.968516895641933
 70
0
  0
VERTEX
  5
28138
  8
0
 62
7
 10
46.334609441558683
 20
49.05395526367613
 70
0
  0
VERTEX
  5
28139
  8
0
 62
7
 10
51.79577480477672
 20
52.991354893768168
 70
0
  0
VERTEX
  5
2813A
  8
0
 62
7
 10
53.023606835719761
 20
55.827185242451549
 70
0
  0
SEQEND
  5
2813B
  8
0
  0
POLYLINE
  5
2813C
  8
0
 62
7
 66
1
 70
0
 10
0
 20
0
 30
0
  0
VERTEX
  5
2813D
  8
0
 62
7
 10
57.467780011692071
 20
58.917952657043429
 70
0
  0
VERTEX
  5
2813E
  8
0
 62
7
 10
57.594559525549244
 20
59.086245571497891
 70
0
  0
VERTEX
  5
2813F
  8
0
 62
7
 10
57.128782615943457
 20
58.705907029926323
 70
0
  0
VERTEX
  5
28140
  8
0
 62
7
 10
56.960661956263287
 20
58.536236077277749
 70
0
  0
VERTEX
  5
28141
  8
0
 62
7
 10
56.832504404211988
 20
58.324190450160643
 70
0
  0
VERTEX
  5
28142
  8
0
 62
7
 10
56.748444074371889
 20
58.07063142244624
 70
0
  0
VERTEX
  5
28143
  8
0
 62
7
 10
56.70572489035478
 20
57.816900139957617
 70
0
  0
SEQEND
  5
28144
  8
0
  0
POLYLINE
  5
28145
  8
0
 62
7
 66
1
 70
0
 10
0
 20
0
 30
0
  0
VERTEX
  5
28146
  8
0
 62
7
 10
53.573444075165632
 20
57.394014669143189
 70
0
  0
VERTEX
  5
28147
  8
0
 62
7
 10
53.361226193274263
 20
57.224688226043163
 70
0
  0
SEQEND
  5
28148
  8
0
  0
POLYLINE
  5
28149
  8
0
 62
7
 66
1
 70
0
 10
0
 20
0
 30
0
  0
VERTEX
  5
2814A
  8
0
 62
7
 10
57.002003102086292
 20
59.97628599011221
 70
0
  0
VERTEX
  5
2814B
  8
0
 62
7
 10
53.573444075165632
 20
57.394014669143189
 70
0
  0
SEQEND
  5
2814C
  8
0
  0
POLYLINE
  5
2814D
  8
0
 62
7
 66
1
 70
0
 10
0
 20
0
 30
0
  0
VERTEX
  5
2814E
  8
0
 62
7
 10
55.606050411463059
 20
47.740857119473162
 70
0
  0
VERTEX
  5
2814F
  8
0
 62
7
 10
51.456777409028149
 20
44.694014672318183
 70
0
  0
SEQEND
  5
28150
  8
0
  0
POLYLINE
  5
28151
  8
0
 62
7
 66
1
 70
0
 10
0
 20
0
 30
0
  0
VERTEX
  5
28152
  8
0
 62
7
 10
63.903218378138753
 20
50.619578906947879
 70
0
  0
VERTEX
  5
28153
  8
0
 62
7
 10
63.691000496247369
 20
50.492971647864977
 70
0
  0
VERTEX
  5
28154
  8
0
 62
7
 10
63.43744146853296
 20
50.408566808476337
 70
0
  0
SEQEND
  5
28155
  8
0
  0
POLYLINE
  5
28156
  8
0
 62
7
 66
1
 70
0
 10
0
 20
0
 30
0
  0
VERTEX
  5
28157
  8
0
 62
7
 10
51.244559527136737
 20
39.402348006974449
 70
0
  0
VERTEX
  5
28158
  8
0
 62
7
 10
52.727328623988292
 20
39.9949044304374
 70
0
  0
SEQEND
  5
28159
  8
0
  0
POLYLINE
  5
2815A
  8
0
 62
7
 66
1
 70
0
 10
0
 20
0
 30
0
  0
VERTEX
  5
2815B
  8
0
 62
7
 10
52.768669769811282
 20
43.635681339249452
 70
0
  0
VERTEX
  5
2815C
  8
0
 62
7
 10
52.811388953828377
 20
43.635681339249452
 70
0
  0
SEQEND
  5
2815D
  8
0
  0
POLYLINE
  5
2815E
  8
0
 62
7
 66
1
 70
0
 10
0
 20
0
 30
0
  0
VERTEX
  5
2815F
  8
0
 62
7
 10
51.287278711153839
 20
39.95235750119457
 70
0
  0
VERTEX
  5
28160
  8
0
 62
7
 10
52.684609439971183
 20
40.460681340043173
 70
0
  0
SEQEND
  5
28161
  8
0
  0
POLYLINE
  5
28162
  8
0
 62
7
 66
1
 70
0
 10
0
 20
0
 30
0
  0
VERTEX
  5
28163
  8
0
 62
7
 10
34.735661961819552
 20
40.1644031283117
 70
0
  0
VERTEX
  5
28164
  8
0
 62
7
 10
34.819722291659652
 20
40.205572019360432
 70
0
  0
VERTEX
  5
28165
  8
0
 62
7
 10
34.946501805516817
 20
40.248635712926053
 70
0
  0
SEQEND
  5
28166
  8
0
  0
POLYLINE
  5
28167
  8
0
 62
7
 66
1
 70
0
 10
0
 20
0
 30
0
  0
VERTEX
  5
28168
  8
0
 62
7
 10
36.852328627957043
 20
42.70395526526363
 70
0
  0
VERTEX
  5
28169
  8
0
 62
7
 10
36.766890259922832
 20
42.70395526526363
 70
0
  0
VERTEX
  5
2816A
  8
0
 62
7
 10
36.640110746065659
 20
42.618516897229419
 70
0
  0
SEQEND
  5
2816B
  8
0
  0
POLYLINE
  5
2816C
  8
0
 62
7
 66
1
 70
0
 10
0
 20
0
 30
0
  0
VERTEX
  5
2816D
  8
0
 62
7
 10
53.361226193274263
 20
57.224688226043163
 70
0
  0
VERTEX
  5
2816E
  8
0
 62
7
 10
53.234446679417061
 20
57.012298089377509
 70
0
  0
SEQEND
  5
2816F
  8
0
  0
POLYLINE
  5
28170
  8
0
 62
7
 66
1
 70
0
 10
0
 20
0
 30
0
  0
VERTEX
  5
28171
  8
0
 62
7
 10
39.222554321808929
 20
38.724353215477258
 70
0
  0
VERTEX
  5
28172
  8
0
 62
7
 10
38.883556926060351
 20
38.385183564954417
 70
0
  0
SEQEND
  5
28173
  8
0
  0
POLYLINE
  5
28174
  8
0
 62
7
 66
1
 70
0
 10
0
 20
0
 30
0
  0
VERTEX
  5
28175
  8
0
 62
7
 10
38.968995294094519
 20
38.258576305871493
 70
0
  0
VERTEX
  5
28176
  8
0
 62
7
 10
39.306614651649028
 20
38.640292885637173
 70
0
  0
SEQEND
  5
28177
  8
0
  0
POLYLINE
  5
28178
  8
0
 62
7
 66
1
 70
0
 10
0
 20
0
 30
0
  0
VERTEX
  5
28179
  8
0
 62
7
 10
38.629997898345948
 20
38.597573701620057
 70
0
  0
VERTEX
  5
2817A
  8
0
 62
7
 10
38.29100050259737
 20
38.258576305871493
 70
0
  0
SEQEND
  5
2817B
  8
0
  0
POLYLINE
  5
2817C
  8
0
 62
7
 66
1
 70
0
 10
0
 20
0
 30
0
  0
VERTEX
  5
2817D
  8
0
 62
7
 10
38.756777412203149
 20
37.623300698391432
 70
0
  0
VERTEX
  5
2817E
  8
0
 62
7
 10
39.645612047397613
 20
38.513685626554228
 70
0
  0
SEQEND
  5
2817F
  8
0
  0
POLYLINE
  5
28180
  8
0
 62
7
 66
1
 70
0
 10
0
 20
0
 30
0
  0
VERTEX
  5
28181
  8
0
 62
7
 10
39.5188325335404
 20
38.640292885637173
 70
0
  0
VERTEX
  5
28182
  8
0
 62
7
 10
38.629997898345948
 20
37.751285995668439
 70
0
  0
SEQEND
  5
28183
  8
0
  0
POLYLINE
  5
28184
  8
0
 62
7
 66
1
 70
0
 10
0
 20
0
 30
0
  0
VERTEX
  5
28185
  8
0
 62
7
 10
38.37506083243747
 20
38.131969046788562
 70
0
  0
VERTEX
  5
28186
  8
0
 62
7
 10
38.756777412203149
 20
38.513685626554228
 70
0
  0
SEQEND
  5
28187
  8
0
  0
POLYLINE
  5
28188
  8
0
 62
7
 66
1
 70
0
 10
0
 20
0
 30
0
  0
VERTEX
  5
28189
  8
0
 62
7
 10
47.773281316199018
 20
39.316909638940253
 70
0
  0
VERTEX
  5
2818A
  8
0
 62
7
 10
47.519722288484637
 20
39.06335061122585
 70
0
  0
SEQEND
  5
2818B
  8
0
  0
POLYLINE
  5
2818C
  8
0
 62
7
 66
1
 70
0
 10
0
 20
0
 30
0
  0
VERTEX
  5
2818D
  8
0
 62
7
 10
53.064947981542751
 20
45.922018958035487
 70
0
  0
VERTEX
  5
2818E
  8
0
 62
7
 10
53.023606835719761
 20
45.878955264469873
 70
0
  0
SEQEND
  5
2818F
  8
0
  0
POLYLINE
  5
28190
  8
0
 62
7
 66
1
 70
0
 10
0
 20
0
 30
0
  0
VERTEX
  5
28191
  8
0
 62
7
 10
45.02271708077555
 20
26.659628826132352
 70
0
  0
VERTEX
  5
28192
  8
0
 62
7
 10
45.360336438330023
 20
26.913187853846718
 70
0
  0
VERTEX
  5
28193
  8
0
 62
7
 10
45.656614650061528
 20
27.25235750436957
 70
0
  0
VERTEX
  5
28194
  8
0
 62
7
 10
45.911551715970013
 20
27.591354900118152
 70
0
  0
SEQEND
  5
28195
  8
0
  0
POLYLINE
  5
28196
  8
0
 62
7
 66
1
 70
0
 10
0
 20
0
 30
0
  0
VERTEX
  5
28197
  8
0
 62
7
 10
60.43194016720102
 20
48.038685624173013
 70
0
  0
VERTEX
  5
28198
  8
0
 62
7
 10
63.903218378138753
 20
50.619578906947879
 70
0
  0
SEQEND
  5
28199
  8
0
  0
POLYLINE
  5
2819A
  8
0
 62
7
 66
1
 70
0
 10
0
 20
0
 30
0
  0
VERTEX
  5
2819B
  8
0
 62
7
 10
44.344722289278387
 20
27.3789647634525
 70
0
  0
VERTEX
  5
2819C
  8
0
 62
7
 10
44.04844407754689
 20
27.167952664980959
 70
0
  0
VERTEX
  5
2819D
  8
0
 62
7
 10
43.752165865815407
 20
26.998626221880929
 70
0
  0
SEQEND
  5
2819E
  8
0
  0
POLYLINE
  5
2819F
  8
0
 62
7
 66
1
 70
0
 10
0
 20
0
 30
0
  0
VERTEX
  5
281A0
  8
0
 62
7
 10
45.02271708077555
 20
28.267971653421231
 70
0
  0
VERTEX
  5
281A1
  8
0
 62
7
 10
44.853218382901247
 20
27.930352295866729
 70
0
  0
SEQEND
  5
281A2
  8
0
  0
POLYLINE
  5
281A3
  8
0
 62
7
 66
1
 70
0
 10
0
 20
0
 30
0
  0
VERTEX
  5
281A4
  8
0
 62
7
 10
47.266163260770227
 20
38.7669001447201
 70
0
  0
VERTEX
  5
281A5
  8
0
 62
7
 10
47.053945378878858
 20
38.427902748971519
 70
0
  0
SEQEND
  5
281A6
  8
0
  0
POLYLINE
  5
281A7
  8
0
 62
7
 66
1
 70
0
 10
0
 20
0
 30
0
  0
VERTEX
  5
281A8
  8
0
 62
7
 10
54.843995290125768
 20
36.77735750198832
 70
0
  0
VERTEX
  5
281A9
  8
0
 62
7
 10
54.843995290125768
 20
36.861245577054149
 70
0
  0
VERTEX
  5
281AA
  8
0
 62
7
 10
54.885336435948773
 20
36.903964761071251
 70
0
  0
SEQEND
  5
281AB
  8
0
  0
POLYLINE
  5
281AC
  8
0
 62
7
 66
1
 70
0
 10
0
 20
0
 30
0
  0
VERTEX
  5
281AD
  8
0
 62
7
 10
64.156777405853148
 20
51.127902745796511
 70
0
  0
VERTEX
  5
281AE
  8
0
 62
7
 10
64.029997891995933
 20
50.915857118679412
 70
0
  0
VERTEX
  5
281AF
  8
0
 62
7
 10
63.860499194121672
 20
50.747736458999213
 70
0
  0
VERTEX
  5
281B0
  8
0
 62
7
 10
63.648281312230267
 20
50.619578906947879
 70
0
  0
VERTEX
  5
281B1
  8
0
 62
7
 10
63.394722284515893
 20
50.53569083188205
 70
0
  0
SEQEND
  5
281B2
  8
0
  0
POLYLINE
  5
281B3
  8
0
 62
7
 66
1
 70
0
 10
0
 20
0
 30
0
  0
VERTEX
  5
281B4
  8
0
 62
7
 10
64.156777405853148
 20
51.085183561779452
 70
0
  0
VERTEX
  5
281B5
  8
0
 62
7
 10
63.987278707978838
 20
50.874688227630656
 70
0
  0
VERTEX
  5
281B6
  8
0
 62
7
 10
63.81778001010457
 20
50.747564204224943
 70
0
  0
VERTEX
  5
281B7
  8
0
 62
7
 10
63.60694016640727
 20
50.619578906947879
 70
0
  0
VERTEX
  5
281B8
  8
0
 62
7
 10
63.352003100498791
 20
50.53551857710783
 70
0
  0
SEQEND
  5
281B9
  8
0
  0
POLYLINE
  5
281BA
  8
0
 62
7
 66
1
 70
0
 10
0
 20
0
 30
0
  0
VERTEX
  5
281BB
  8
0
 62
7
 10
56.832504404211988
 20
59.4252429672465
 70
0
  0
VERTEX
  5
281BC
  8
0
 62
7
 10
56.960661956263287
 20
59.637288594363611
 70
0
  0
VERTEX
  5
281BD
  8
0
 62
7
 10
57.128782615943457
 20
59.806959547012177
 70
0
  0
SEQEND
  5
281BE
  8
0
  0
POLYLINE
  5
281BF
  8
0
 62
7
 66
1
 70
0
 10
0
 20
0
 30
0
  0
VERTEX
  5
281C0
  8
0
 62
7
 10
56.832504404211988
 20
59.467962151263578
 70
0
  0
VERTEX
  5
281C1
  8
0
 62
7
 10
56.960661956263287
 20
59.637288594363611
 70
0
  0
VERTEX
  5
281C2
  8
0
 62
7
 10
57.171501799960573
 20
59.848300692835153
 70
0
  0
SEQEND
  5
281C3
  8
0
  0
POLYLINE
  5
281C4
  8
0
 62
7
 66
1
 70
0
 10
0
 20
0
 30
0
  0
VERTEX
  5
281C5
  8
0
 62
7
 10
44.853218382901247
 20
27.930352295866729
 70
0
  0
VERTEX
  5
281C6
  8
0
 62
7
 10
44.598281316992768
 20
27.6325237911669
 70
0
  0
VERTEX
  5
281C7
  8
0
 62
7
 10
44.344722289278387
 20
27.3789647634525
 70
0
  0
SEQEND
  5
281C8
  8
0
  0
POLYLINE
  5
281C9
  8
0
 62
7
 66
1
 70
0
 10
0
 20
0
 30
0
  0
VERTEX
  5
281CA
  8
0
 62
7
 10
47.519722288484637
 20
39.06335061122585
 70
0
  0
VERTEX
  5
281CB
  8
0
 62
7
 10
47.266163260770227
 20
38.7669001447201
 70
0
  0
SEQEND
  5
281CC
  8
0
  0
POLYLINE
  5
281CD
  8
0
 62
7
 66
1
 70
0
 10
0
 20
0
 30
0
  0
VERTEX
  5
281CE
  8
0
 62
7
 10
48.324496593839
 20
37.919578910122908
 70
0
  0
VERTEX
  5
281CF
  8
0
 62
7
 10
48.535336437536273
 20
38.131969046788562
 70
0
  0
VERTEX
  5
281D0
  8
0
 62
7
 10
48.704835135410569
 20
38.301295489888588
 70
0
  0
VERTEX
  5
281D1
  8
0
 62
7
 10
48.917053017301953
 20
38.385183564954417
 70
0
  0
SEQEND
  5
281D2
  8
0
  0
POLYLINE
  5
281D3
  8
0
 62
7
 66
1
 70
0
 10
0
 20
0
 30
0
  0
VERTEX
  5
281D4
  8
0
 62
7
 10
54.16600049862862
 20
41.094578909329151
 70
0
  0
VERTEX
  5
281D5
  8
0
 62
7
 10
54.250060828468719
 20
41.222736461380457
 70
0
  0
VERTEX
  5
281D6
  8
0
 62
7
 10
54.292780012485821
 20
41.3496882300119
 70
0
  0
SEQEND
  5
281D7
  8
0
  0
POLYLINE
  5
281D8
  8
0
 62
7
 66
1
 70
0
 10
0
 20
0
 30
0
  0
VERTEX
  5
281D9
  8
0
 62
7
 10
53.234446679417061
 20
57.012298089377509
 70
0
  0
VERTEX
  5
281DA
  8
0
 62
7
 10
53.10766716555986
 20
56.758566806888837
 70
0
  0
VERTEX
  5
281DB
  8
0
 62
7
 10
53.064947981542751
 20
56.462288595157361
 70
0
  0
SEQEND
  5
281DC
  8
0
  0
POLYLINE
  5
281DD
  8
0
 62
7
 66
1
 70
0
 10
0
 20
0
 30
0
  0
VERTEX
  5
281DE
  8
0
 62
7
 10
47.053945378878858
 20
38.427902748971519
 70
0
  0
VERTEX
  5
281DF
  8
0
 62
7
 10
46.884446681004562
 20
38.047736462174221
 70
0
  0
SEQEND
  5
281E0
  8
0
  0
POLYLINE
  5
281E5
  8
0
 62
7
 66
1
 70
0
 10
0
 20
0
 30
0
  0
VERTEX
  5
281E6
  8
0
 62
7
 10
40.830724894323531
 20
32.290292887224673
 70
0
  0
VERTEX
  5
281E7
  8
0
 62
7
 10
40.916163262357742
 20
32.670631428796241
 70
0
  0
SEQEND
  5
281E8
  8
0
  0
POLYLINE
  5
281E9
  8
0
 62
7
 66
1
 70
0
 10
0
 20
0
 30
0
  0
VERTEX
  5
281EA
  8
0
 62
7
 10
56.536226192480513
 20
59.002357496432069
 70
0
  0
VERTEX
  5
281EB
  8
0
 62
7
 10
56.621664560514688
 20
59.341354892180682
 70
0
  0
VERTEX
  5
281EC
  8
0
 62
7
 10
56.70572489035478
 20
59.594569410346537
 70
0
  0
VERTEX
  5
281ED
  8
0
 62
7
 10
56.87522358822909
 20
59.764240362995046
 70
0
  0
VERTEX
  5
281EE
  8
0
 62
7
 10
57.044722286103386
 20
59.97628599011221
 70
0
  0
SEQEND
  5
281EF
  8
0
  0
POLYLINE
  5
281F0
  8
0
 62
7
 66
1
 70
0
 10
0
 20
0
 30
0
  0
VERTEX
  5
281F1
  8
0
 62
7
 10
56.494885046657508
 20
59.002357496432069
 70
0
  0
VERTEX
  5
281F2
  8
0
 62
7
 10
56.578945376497607
 20
59.298635708163552
 70
0
  0
VERTEX
  5
281F3
  8
0
 62
7
 10
56.70572489035478
 20
59.551850226329407
 70
0
  0
VERTEX
  5
281F4
  8
0
 62
7
 10
56.832504404211988
 20
59.764240362995046
 70
0
  0
VERTEX
  5
281F5
  8
0
 62
7
 10
57.002003102086292
 20
59.97628599011221
 70
0
  0
SEQEND
  5
281F6
  8
0
  0
POLYLINE
  5
281F7
  8
0
 62
7
 66
1
 70
0
 10
0
 20
0
 30
0
  0
VERTEX
  5
281F8
  8
0
 62
7
 10
54.292780012485821
 20
43.931959550980928
 70
0
  0
VERTEX
  5
281F9
  8
0
 62
7
 10
54.250060828468719
 20
43.805352291897968
 70
0
  0
VERTEX
  5
281FA
  8
0
 62
7
 10
54.16600049862862
 20
43.719569414315288
 70
0
  0
VERTEX
  5
281FB
  8
0
 62
7
 10
53.996501800754316
 20
43.635681339249452
 70
0
  0
SEQEND
  5
281FC
  8
0
  0
POLYLINE
  5
281FD
  8
0
 62
7
 66
1
 70
0
 10
0
 20
0
 30
0
  0
VERTEX
  5
281FE
  8
0
 62
7
 10
54.292780012485821
 20
43.253964759483779
 70
0
  0
VERTEX
  5
281FF
  8
0
 62
7
 10
54.250060828468719
 20
43.127357500400819
 70
0
  0
VERTEX
  5
28200
  8
0
 62
7
 10
54.16600049862862
 20
43.0002334769951
 70
0
  0
SEQEND
  5
28201
  8
0
  0
POLYLINE
  5
28202
  8
0
 62
7
 66
1
 70
0
 10
0
 20
0
 30
0
  0
VERTEX
  5
28203
  8
0
 62
7
 10
54.292780012485821
 20
44.016019880821027
 70
0
  0
VERTEX
  5
28204
  8
0
 62
7
 10
54.250060828468719
 20
43.8892403669638
 70
0
  0
VERTEX
  5
28205
  8
0
 62
7
 10
54.16600049862862
 20
43.762288598332347
 70
0
  0
VERTEX
  5
28206
  8
0
 62
7
 10
53.996501800754316
 20
43.635681339249452
 70
0
  0
SEQEND
  5
28207
  8
0
  0
POLYLINE
  5
28208
  8
0
 62
7
 66
1
 70
0
 10
0
 20
0
 30
0
  0
VERTEX
  5
28209
  8
0
 62
7
 10
54.16600049862862
 20
41.094578909329151
 70
0
  0
VERTEX
  5
2820A
  8
0
 62
7
 10
54.123281314611511
 20
41.010690834263329
 70
0
  0
VERTEX
  5
2820B
  8
0
 62
7
 10
54.039220984771418
 20
40.883566810857623
 70
0
  0
SEQEND
  5
2820C
  8
0
  0
POLYLINE
  5
2820D
  8
0
 62
7
 66
1
 70
0
 10
0
 20
0
 30
0
  0
VERTEX
  5
2820E
  8
0
 62
7
 10
48.451276107696167
 20
40.1216839442946
 70
0
  0
VERTEX
  5
2820F
  8
0
 62
7
 10
48.451276107696167
 20
40.544569415109009
 70
0
  0
SEQEND
  5
28210
  8
0
  0
POLYLINE
  5
28211
  8
0
 62
7
 66
1
 70
0
 10
0
 20
0
 30
0
  0
VERTEX
  5
28212
  8
0
 62
7
 10
51.753055620759618
 20
15.48356681720759
 70
0
  0
VERTEX
  5
28213
  8
0
 62
7
 10
51.753055620759618
 20
15.44101988796476
 70
0
  0
SEQEND
  5
28214
  8
0
  0
POLYLINE
  5
28215
  8
0
 62
7
 66
1
 70
0
 10
0
 20
0
 30
0
  0
VERTEX
  5
28216
  8
0
 62
7
 10
64.410336433567522
 20
51.5513049809337
 70
0
  0
VERTEX
  5
28217
  8
0
 62
7
 10
64.368995287744525
 20
51.254854514427961
 70
0
  0
VERTEX
  5
28218
  8
0
 62
7
 10
64.283556919710335
 20
51.001295486713609
 70
0
  0
VERTEX
  5
28219
  8
0
 62
7
 10
64.114058221836046
 20
50.788905350047912
 70
0
  0
VERTEX
  5
2821A
  8
0
 62
7
 10
63.94455952396175
 20
50.619578906947879
 70
0
  0
VERTEX
  5
2821B
  8
0
 62
7
 10
63.733719680264471
 20
50.492971647864977
 70
0
  0
VERTEX
  5
2821C
  8
0
 62
7
 10
63.478782614355957
 20
50.408566808476337
 70
0
  0
SEQEND
  5
2821D
  8
0
  0
POLYLINE
  5
2821E
  8
0
 62
7
 66
1
 70
0
 10
0
 20
0
 30
0
  0
VERTEX
  5
2821F
  8
0
 62
7
 10
48.154997895964691
 20
42.70395526526363
 70
0
  0
VERTEX
  5
28220
  8
0
 62
7
 10
48.154997895964691
 20
42.577348006180671
 70
0
  0
SEQEND
  5
28221
  8
0
  0
POLYLINE
  5
28222
  8
0
 62
7
 66
1
 70
0
 10
0
 20
0
 30
0
  0
VERTEX
  5
28223
  8
0
 62
7
 10
49.466890256747831
 20
30.469904432818652
 70
0
  0
VERTEX
  5
28224
  8
0
 62
7
 10
49.636388954622142
 20
28.394578912504159
 70
0
  0
SEQEND
  5
28225
  8
0
  0
POLYLINE
  5
28226
  8
0
 62
7
 66
1
 70
0
 10
0
 20
0
 30
0
  0
VERTEX
  5
28227
  8
0
 62
7
 10
49.424171072730722
 20
31.105352295073011
 70
0
  0
VERTEX
  5
28228
  8
0
 62
7
 10
49.424171072730722
 20
30.976850233473161
 70
0
  0
SEQEND
  5
28229
  8
0
  0
POLYLINE
  5
2822A
  8
0
 62
7
 66
1
 70
0
 10
0
 20
0
 30
0
  0
VERTEX
  5
2822B
  8
0
 62
7
 10
49.424171072730722
 20
31.146521186121731
 70
0
  0
VERTEX
  5
2822C
  8
0
 62
7
 10
49.424171072730722
 20
31.105352295073011
 70
0
  0
SEQEND
  5
2822D
  8
0
  0
POLYLINE
  5
2822E
  8
0
 62
7
 66
1
 70
0
 10
0
 20
0
 30
0
  0
VERTEX
  5
2822F
  8
0
 62
7
 10
50.271664562102188
 20
25.854854520777959
 70
0
  0
VERTEX
  5
28230
  8
0
 62
7
 10
50.059446680210812
 20
29.36902417050706
 70
0
  0
VERTEX
  5
28231
  8
0
 62
7
 10
49.975386350370712
 20
30.85024297439023
 70
0
  0
SEQEND
  5
28232
  8
0
  0
POLYLINE
  5
28233
  8
0
 62
7
 66
1
 70
0
 10
0
 20
0
 30
0
  0
VERTEX
  5
28234
  8
0
 62
7
 10
50.906940169582271
 20
17.3039552716136
 70
0
  0
VERTEX
  5
28235
  8
0
 62
7
 10
50.271664562102188
 20
25.854854520777959
 70
0
  0
SEQEND
  5
28236
  8
0
  0
POLYLINE
  5
28237
  8
0
 62
7
 66
1
 70
0
 10
0
 20
0
 30
0
  0
VERTEX
  5
28238
  8
0
 62
7
 10
51.033719683439472
 20
15.10185023744191
 70
0
  0
VERTEX
  5
28239
  8
0
 62
7
 10
49.93266716635361
 20
31.105352295073011
 70
0
  0
SEQEND
  5
2823A
  8
0
  0
POLYLINE
  5
2823B
  8
0
 62
7
 66
1
 70
0
 10
0
 20
0
 30
0
  0
VERTEX
  5
2823C
  8
0
 62
7
 10
51.58355692288535
 20
40.587288599126111
 70
0
  0
VERTEX
  5
2823D
  8
0
 62
7
 10
51.58355692288535
 20
40.460681340043173
 70
0
  0
SEQEND
  5
2823E
  8
0
  0
POLYLINE
  5
2823F
  8
0
 62
7
 66
1
 70
0
 10
0
 20
0
 30
0
  0
VERTEX
  5
28240
  8
0
 62
7
 10
49.975386350370712
 20
40.3325237879919
 70
0
  0
VERTEX
  5
28241
  8
0
 62
7
 10
49.975386350370712
 20
40.460681340043173
 70
0
  0
SEQEND
  5
28242
  8
0
  0
POLYLINE
  5
28243
  8
0
 62
7
 66
1
 70
0
 10
0
 20
0
 30
0
  0
VERTEX
  5
28244
  8
0
 62
7
 10
49.256050413050559
 20
40.544569415109009
 70
0
  0
VERTEX
  5
28245
  8
0
 62
7
 10
49.256050413050559
 20
40.630352292691747
 70
0
  0
SEQEND
  5
28246
  8
0
  0
POLYLINE
  5
28247
  8
0
 62
7
 66
1
 70
0
 10
0
 20
0
 30
0
  0
VERTEX
  5
28248
  8
0
 62
7
 10
50.610661957850787
 20
40.926285994874682
 70
0
  0
VERTEX
  5
28249
  8
0
 62
7
 10
50.610661957850787
 20
40.798300697597682
 70
0
  0
SEQEND
  5
2824A
  8
0
  0
POLYLINE
  5
2824B
  8
0
 62
7
 66
1
 70
0
 10
0
 20
0
 30
0
  0
VERTEX
  5
2824C
  8
0
 62
7
 10
51.160499197296673
 20
40.756959551774678
 70
0
  0
VERTEX
  5
2824D
  8
0
 62
7
 10
51.160499197296673
 20
40.671521183740481
 70
0
  0
SEQEND
  5
2824E
  8
0
  0
POLYLINE
  5
2824F
  8
0
 62
7
 66
1
 70
0
 10
0
 20
0
 30
0
  0
VERTEX
  5
28250
  8
0
 62
7
 10
49.975386350370712
 20
40.798300697597682
 70
0
  0
VERTEX
  5
28251
  8
0
 62
7
 10
49.93266716635361
 20
40.883566810857623
 70
0
  0
SEQEND
  5
28252
  8
0
  0
POLYLINE
  5
28253
  8
0
 62
7
 66
1
 70
0
 10
0
 20
0
 30
0
  0
VERTEX
  5
28254
  8
0
 62
7
 10
50.567942773833693
 20
40.1644031283117
 70
0
  0
VERTEX
  5
28255
  8
0
 62
7
 10
50.525223589816591
 20
40.29135489694314
 70
0
  0
VERTEX
  5
28256
  8
0
 62
7
 10
51.668995290919533
 20
40.3325237879919
 70
0
  0
VERTEX
  5
28257
  8
0
 62
7
 10
51.710336436742523
 20
40.248635712926053
 70
0
  0
VERTEX
  5
28258
  8
0
 62
7
 10
50.567942773833693
 20
40.1644031283117
 70
0
  0
SEQEND
  5
28259
  8
0
  0
POLYLINE
  5
2825A
  8
0
 62
7
 66
1
 70
0
 10
0
 20
0
 30
0
  0
VERTEX
  5
2825B
  8
0
 62
7
 10
50.525223589816591
 20
40.205572019360432
 70
0
  0
VERTEX
  5
2825C
  8
0
 62
7
 10
50.525223589816591
 20
40.205572019360432
 70
0
  0
SEQEND
  5
2825D
  8
0
  0
POLYLINE
  5
2825E
  8
0
 62
7
 66
1
 70
0
 10
0
 20
0
 30
0
  0
VERTEX
  5
2825F
  8
0
 62
7
 10
54.885336435948773
 20
36.903964761071251
 70
0
  0
VERTEX
  5
28260
  8
0
 62
7
 10
54.843995290125768
 20
40.926285994874682
 70
0
  0
SEQEND
  5
28261
  8
0
  0
POLYLINE
  5
28262
  8
0
 62
7
 66
1
 70
0
 10
0
 20
0
 30
0
  0
VERTEX
  5
28263
  8
0
 62
7
 10
51.117780013279571
 20
31.105352295073011
 70
0
  0
VERTEX
  5
28264
  8
0
 62
7
 10
51.244559527136737
 20
15.144569421459011
 70
0
  0
SEQEND
  5
28265
  8
0
  0
POLYLINE
  5
28266
  8
0
 62
7
 66
1
 70
0
 10
0
 20
0
 30
0
  0
VERTEX
  5
28267
  8
0
 62
7
 10
51.075060829262469
 20
36.480907035482581
 70
0
  0
VERTEX
  5
28268
  8
0
 62
7
 10
51.117780013279571
 20
31.528237765887411
 70
0
  0
SEQEND
  5
28269
  8
0
  0
POLYLINE
  5
2826A
  8
0
 62
7
 66
1
 70
0
 10
0
 20
0
 30
0
  0
VERTEX
  5
2826B
  8
0
 62
7
 10
51.456777409028149
 20
31.146521186121731
 70
0
  0
VERTEX
  5
2826C
  8
0
 62
7
 10
51.456777409028149
 20
31.35856681323887
 70
0
  0
VERTEX
  5
2826D
  8
0
 62
7
 10
50.228945378085108
 20
31.18924037013883
 70
0
  0
VERTEX
  5
2826E
  8
0
 62
7
 10
51.117780013279571
 20
31.485690836644579
 70
0
  0
VERTEX
  5
2826F
  8
0
 62
7
 10
51.456777409028149
 20
31.35856681323887
 70
0
  0
VERTEX
  5
28270
  8
0
 62
7
 10
50.228945378085108
 20
31.18924037013883
 70
0
  0
SEQEND
  5
28271
  8
0
  0
POLYLINE
  5
28272
  8
0
 62
7
 66
1
 70
0
 10
0
 20
0
 30
0
  0
VERTEX
  5
28273
  8
0
 62
7
 10
51.58355692288535
 20
15.780017283713359
 70
0
  0
VERTEX
  5
28274
  8
0
 62
7
 10
51.540837738868241
 20
19.294014678668191
 70
0
  0
VERTEX
  5
28275
  8
0
 62
7
 10
51.540837738868241
 20
36.353955266851131
 70
0
  0
SEQEND
  5
28276
  8
0
  0
POLYLINE
  5
28277
  8
0
 62
7
 66
1
 70
0
 10
0
 20
0
 30
0
  0
VERTEX
  5
28278
  8
0
 62
7
 10
49.975386350370712
 20
30.85024297439023
 70
0
  0
VERTEX
  5
28279
  8
0
 62
7
 10
49.975386350370712
 20
31.865857123441881
 70
0
  0
SEQEND
  5
2827A
  8
0
  0
POLYLINE
  5
2827B
  8
0
 62
7
 66
1
 70
0
 10
0
 20
0
 30
0
  0
VERTEX
  5
2827C
  8
0
 62
7
 10
50.228945378085108
 20
31.18924037013883
 70
0
  0
VERTEX
  5
2827D
  8
0
 62
7
 10
50.228945378085108
 20
30.976850233473161
 70
0
  0
SEQEND
  5
2827E
  8
0
  0
POLYLINE
  5
2827F
  8
0
 62
7
 66
1
 70
0
 10
0
 20
0
 30
0
  0
VERTEX
  5
28280
  8
0
 62
7
 10
50.31438374611929
 20
39.190302379857322
 70
0
  0
VERTEX
  5
28281
  8
0
 62
7
 10
50.31438374611929
 20
36.903964761071251
 70
0
  0
SEQEND
  5
28282
  8
0
  0
POLYLINE
  5
28283
  8
0
 62
7
 66
1
 70
0
 10
0
 20
0
 30
0
  0
VERTEX
  5
28284
  8
0
 62
7
 10
50.906940169582271
 20
41.984619327943442
 70
0
  0
VERTEX
  5
28285
  8
0
 62
7
 10
50.906940169582271
 20
41.3496882300119
 70
0
  0
VERTEX
  5
28286
  8
0
 62
7
 10
50.991000499422363
 20
41.222564206606187
 70
0
  0
VERTEX
  5
28287
  8
0
 62
7
 10
51.075060829262469
 20
41.094578909329151
 70
0
  0
SEQEND
  5
28288
  8
0
  0
POLYLINE
  5
28289
  8
0
 62
7
 66
1
 70
0
 10
0
 20
0
 30
0
  0
VERTEX
  5
2828A
  8
0
 62
7
 10
52.768669769811282
 20
43.719569414315288
 70
0
  0
VERTEX
  5
2828B
  8
0
 62
7
 10
52.768669769811282
 20
43.805352291897968
 70
0
  0
VERTEX
  5
2828C
  8
0
 62
7
 10
52.684609439971183
 20
43.805352291897968
 70
0
  0
VERTEX
  5
2828D
  8
0
 62
7
 10
52.684609439971183
 20
43.719569414315288
 70
0
  0
SEQEND
  5
2828E
  8
0
  0
POLYLINE
  5
2828F
  8
0
 62
7
 66
1
 70
0
 10
0
 20
0
 30
0
  0
VERTEX
  5
28290
  8
0
 62
7
 10
53.023606835719761
 20
44.185690833469543
 70
0
  0
VERTEX
  5
28291
  8
0
 62
7
 10
53.023606835719761
 20
44.52468822921815
 70
0
  0
SEQEND
  5
28292
  8
0
  0
POLYLINE
  5
28293
  8
0
 62
7
 66
1
 70
0
 10
0
 20
0
 30
0
  0
VERTEX
  5
28294
  8
0
 62
7
 10
54.292780012485821
 20
41.3496882300119
 70
0
  0
VERTEX
  5
28295
  8
0
 62
7
 10
54.292780012485821
 20
43.931959550980928
 70
0
  0
SEQEND
  5
28296
  8
0
  0
POLYLINE
  5
28297
  8
0
 62
7
 66
1
 70
0
 10
0
 20
0
 30
0
  0
VERTEX
  5
28298
  8
0
 62
7
 10
49.93266716635361
 20
31.105352295073011
 70
0
  0
VERTEX
  5
28299
  8
0
 62
7
 10
49.975386350370712
 20
39.105897540468668
 70
0
  0
SEQEND
  5
2829A
  8
0
  0
POLYLINE
  5
2829B
  8
0
 62
7
 66
1
 70
0
 10
0
 20
0
 30
0
  0
VERTEX
  5
2829C
  8
0
 62
7
 10
49.466890256747831
 20
39.06335061122585
 70
0
  0
VERTEX
  5
2829D
  8
0
 62
7
 10
49.424171072730722
 20
31.146521186121731
 70
0
  0
SEQEND
  5
2829E
  8
0
  0
POLYLINE
  5
2829F
  8
0
 62
7
 66
1
 70
0
 10
0
 20
0
 30
0
  0
VERTEX
  5
282A0
  8
0
 62
7
 10
51.244559527136737
 20
39.402348006974449
 70
0
  0
VERTEX
  5
282A1
  8
0
 62
7
 10
51.244559527136737
 20
36.438187851465472
 70
0
  0
SEQEND
  5
282A2
  8
0
  0
POLYLINE
  5
282A3
  8
0
 62
7
 66
1
 70
0
 10
0
 20
0
 30
0
  0
VERTEX
  5
282A4
  8
0
 62
7
 10
51.287278711153839
 20
39.95235750119457
 70
0
  0
VERTEX
  5
282A5
  8
0
 62
7
 10
51.244559527136737
 20
39.402348006974449
 70
0
  0
SEQEND
  5
282A6
  8
0
  0
POLYLINE
  5
282A7
  8
0
 62
7
 66
1
 70
0
 10
0
 20
0
 30
0
  0
VERTEX
  5
282A8
  8
0
 62
7
 10
52.3028928602055
 20
36.268516898816927
 70
0
  0
VERTEX
  5
282A9
  8
0
 62
7
 10
51.753055620759618
 20
15.48356681720759
 70
0
  0
SEQEND
  5
282AA
  8
0
  0
POLYLINE
  5
282AB
  8
0
 62
7
 66
1
 70
0
 10
0
 20
0
 30
0
  0
VERTEX
  5
282AC
  8
0
 62
7
 10
50.525223589816591
 20
42.195631426414991
 70
0
  0
VERTEX
  5
282AD
  8
0
 62
7
 10
50.525223589816591
 20
42.238350610432121
 70
0
  0
SEQEND
  5
282AE
  8
0
  0
POLYLINE
  5
282AF
  8
0
 62
7
 66
1
 70
0
 10
0
 20
0
 30
0
  0
VERTEX
  5
282B0
  8
0
 62
7
 10
50.821501801548067
 20
15.187288605476111
 70
0
  0
VERTEX
  5
282B1
  8
0
 62
7
 10
50.821501801548067
 20
15.187288605476111
 70
0
  0
VERTEX
  5
282B2
  8
0
 62
7
 10
50.864220985565169
 20
15.144569421459011
 70
0
  0
SEQEND
  5
282B3
  8
0
  0
POLYLINE
  5
282B4
  8
0
 62
7
 66
1
 70
0
 10
0
 20
0
 30
0
  0
VERTEX
  5
282B5
  8
0
 62
7
 10
50.31438374611929
 20
36.903964761071251
 70
0
  0
VERTEX
  5
282B6
  8
0
 62
7
 10
50.355724891942288
 20
36.861245577054149
 70
0
  0
SEQEND
  5
282B7
  8
0
  0
POLYLINE
  5
282B8
  8
0
 62
7
 66
1
 70
0
 10
0
 20
0
 30
0
  0
VERTEX
  5
282B9
  8
0
 62
7
 10
53.785661957057052
 20
46.005907033101323
 70
0
  0
VERTEX
  5
282BA
  8
0
 62
7
 10
53.742942773039942
 20
46.3862455746729
 70
0
  0
VERTEX
  5
282BB
  8
0
 62
7
 10
53.064947981542751
 20
45.922018958035487
 70
0
  0
SEQEND
  5
282BC
  8
0
  0
POLYLINE
  5
282BD
  8
0
 62
7
 66
1
 70
0
 10
0
 20
0
 30
0
  0
VERTEX
  5
282BE
  8
0
 62
7
 10
50.271664562102188
 20
41.053237763506161
 70
0
  0
VERTEX
  5
282BF
  8
0
 62
7
 10
50.31438374611929
 20
40.96797165024622
 70
0
  0
SEQEND
  5
282C0
  8
0
  0
POLYLINE
  5
282C1
  8
0
 62
7
 66
1
 70
0
 10
0
 20
0
 30
0
  0
VERTEX
  5
282C2
  8
0
 62
7
 10
52.049333832491122
 20
44.142971649452477
 70
0
  0
VERTEX
  5
282C3
  8
0
 62
7
 10
52.049333832491122
 20
44.185690833469543
 70
0
  0
SEQEND
  5
282C4
  8
0
  0
POLYLINE
  5
282C5
  8
0
 62
7
 66
1
 70
0
 10
0
 20
0
 30
0
  0
VERTEX
  5
282C6
  8
0
 62
7
 10
39.4333941655062
 20
38.554854517602962
 70
0
  0
VERTEX
  5
282C7
  8
0
 62
7
 10
39.306614651649028
 20
38.68163403146017
 70
0
  0
SEQEND
  5
282C8
  8
0
  0
POLYLINE
  5
282C9
  8
0
 62
7
 66
1
 70
0
 10
0
 20
0
 30
0
  0
VERTEX
  5
282CA
  8
0
 62
7
 10
39.26527350582603
 20
38.7669001447201
 70
0
  0
VERTEX
  5
282CB
  8
0
 62
7
 10
38.417780016454572
 20
39.655907034688823
 70
0
  0
SEQEND
  5
282CC
  8
0
  0
POLYLINE
  5
282CD
  8
0
 62
7
 66
1
 70
0
 10
0
 20
0
 30
0
  0
VERTEX
  5
282CE
  8
0
 62
7
 10
38.37506083243747
 20
39.782686548546017
 70
0
  0
VERTEX
  5
282CF
  8
0
 62
7
 10
38.037441474882968
 20
40.0789647602775
 70
0
  0
SEQEND
  5
282D0
  8
0
  0
POLYLINE
  5
282D1
  8
0
 62
7
 66
1
 70
0
 10
0
 20
0
 30
0
  0
VERTEX
  5
282D2
  8
0
 62
7
 10
38.333719686614472
 20
38.131969046788562
 70
0
  0
VERTEX
  5
282D3
  8
0
 62
7
 10
38.714058228186047
 20
37.792971651039977
 70
0
  0
SEQEND
  5
282D4
  8
0
  0
POLYLINE
  5
282D5
  8
0
 62
7
 66
1
 70
0
 10
0
 20
0
 30
0
  0
VERTEX
  5
282D6
  8
0
 62
7
 10
37.782504408974489
 20
38.640292885637173
 70
0
  0
VERTEX
  5
282D7
  8
0
 62
7
 10
38.248281318580268
 20
38.174688230805657
 70
0
  0
SEQEND
  5
282D8
  8
0
  0
POLYLINE
  5
282D9
  8
0
 62
7
 66
1
 70
0
 10
0
 20
0
 30
0
  0
VERTEX
  5
282DA
  8
0
 62
7
 10
37.571664565277189
 20
38.8096193287372
 70
0
  0
VERTEX
  5
282DB
  8
0
 62
7
 10
37.741163263151492
 20
38.68163403146017
 70
0
  0
SEQEND
  5
282DC
  8
0
  0
POLYLINE
  5
282DD
  8
0
 62
7
 66
1
 70
0
 10
0
 20
0
 30
0
  0
VERTEX
  5
282DE
  8
0
 62
7
 10
34.903782621499722
 20
40.29135489694314
 70
0
  0
VERTEX
  5
282DF
  8
0
 62
7
 10
34.946501805516817
 20
40.205572019360432
 70
0
  0
SEQEND
  5
282E0
  8
0
  0
POLYLINE
  5
282E1
  8
0
 62
7
 66
1
 70
0
 10
0
 20
0
 30
0
  0
VERTEX
  5
282E2
  8
0
 62
7
 10
39.645612047397613
 20
38.513685626554228
 70
0
  0
VERTEX
  5
282E3
  8
0
 62
7
 10
39.5188325335404
 20
38.640292885637173
 70
0
  0
SEQEND
  5
282E4
  8
0
  0
POLYLINE
  5
282E5
  8
0
 62
7
 66
1
 70
0
 10
0
 20
0
 30
0
  0
VERTEX
  5
282E6
  8
0
 62
7
 10
34.396664566070939
 20
40.714240367757583
 70
0
  0
VERTEX
  5
282E7
  8
0
 62
7
 10
34.566163263945242
 20
40.544569415109009
 70
0
  0
SEQEND
  5
282E8
  8
0
  0
POLYLINE
  5
282E9
  8
0
 62
7
 66
1
 70
0
 10
0
 20
0
 30
0
  0
VERTEX
  5
282EA
  8
0
 62
7
 10
37.486226197243013
 20
38.89402416812581
 70
0
  0
VERTEX
  5
282EB
  8
0
 62
7
 10
37.528945381260122
 20
38.7669001447201
 70
0
  0
VERTEX
  5
282EC
  8
0
 62
7
 10
38.460499200471638
 20
39.698626218705932
 70
0
  0
VERTEX
  5
282ED
  8
0
 62
7
 10
38.37506083243747
 20
39.782686548546017
 70
0
  0
VERTEX
  5
282EE
  8
0
 62
7
 10
37.486226197243013
 20
38.89402416812581
 70
0
  0
SEQEND
  5
282EF
  8
0
  0
POLYLINE
  5
282F0
  8
0
 62
7
 66
1
 70
0
 10
0
 20
0
 30
0
  0
VERTEX
  5
282F1
  8
0
 62
7
 10
37.486226197243013
 20
38.8096193287372
 70
0
  0
VERTEX
  5
282F2
  8
0
 62
7
 10
37.486226197243013
 20
38.8096193287372
 70
0
  0
SEQEND
  5
282F3
  8
0
  0
POLYLINE
  5
282F4
  8
0
 62
7
 66
1
 70
0
 10
0
 20
0
 30
0
  0
VERTEX
  5
282F5
  8
0
 62
7
 10
38.629997898345948
 20
37.751285995668439
 70
0
  0
VERTEX
  5
282F6
  8
0
 62
7
 10
38.756777412203149
 20
37.623300698391432
 70
0
  0
SEQEND
  5
282F7
  8
0
  0
POLYLINE
  5
282F8
  8
0
 62
7
 66
1
 70
0
 10
0
 20
0
 30
0
  0
VERTEX
  5
282F9
  8
0
 62
7
 10
35.20006083323122
 20
41.519014673111933
 70
0
  0
VERTEX
  5
282FA
  8
0
 62
7
 10
34.311226198036771
 20
42.365302379063557
 70
0
  0
SEQEND
  5
282FB
  8
0
  0
POLYLINE
  5
282FC
  8
0
 62
7
 66
1
 70
0
 10
0
 20
0
 30
0
  0
VERTEX
  5
282FD
  8
0
 62
7
 10
34.777003107642543
 20
42.87362621791214
 70
0
  0
VERTEX
  5
282FE
  8
0
 62
7
 10
35.665837742837
 20
41.984619327943442
 70
0
  0
VERTEX
  5
282FF
  8
0
 62
7
 10
35.878055624728368
 20
42.195631426414991
 70
0
  0
SEQEND
  5
28300
  8
0
  0
POLYLINE
  5
28301
  8
0
 62
7
 66
1
 70
0
 10
0
 20
0
 30
0
  0
VERTEX
  5
28302
  8
0
 62
7
 10
36.640110746065659
 20
42.618516897229419
 70
0
  0
VERTEX
  5
28303
  8
0
 62
7
 10
36.470612048191363
 20
42.830907033895073
 70
0
  0
SEQEND
  5
28304
  8
0
  0
POLYLINE
  5
28305
  8
0
 62
7
 66
1
 70
0
 10
0
 20
0
 30
0
  0
VERTEX
  5
28306
  8
0
 62
7
 10
35.878055624728368
 20
42.195631426414991
 70
0
  0
VERTEX
  5
28307
  8
0
 62
7
 10
34.989220989533919
 20
43.084638316383739
 70
0
  0
VERTEX
  5
28308
  8
0
 62
7
 10
34.777003107642543
 20
42.87362621791214
 70
0
  0
SEQEND
  5
28309
  8
0
  0
POLYLINE
  5
2830A
  8
0
 62
7
 66
1
 70
0
 10
0
 20
0
 30
0
  0
VERTEX
  5
2830B
  8
0
 62
7
 10
51.160499197296673
 20
40.883566810857623
 70
0
  0
VERTEX
  5
2830C
  8
0
 62
7
 10
51.117780013279571
 20
41.010690834263329
 70
0
  0
VERTEX
  5
2830D
  8
0
 62
7
 10
51.033719683439472
 20
41.094578909329151
 70
0
  0
SEQEND
  5
2830E
  8
0
  0
POLYLINE
  5
2830F
  8
0
 62
7
 66
1
 70
0
 10
0
 20
0
 30
0
  0
VERTEX
  5
28310
  8
0
 62
7
 10
50.991000499422363
 20
15.10185023744191
 70
0
  0
VERTEX
  5
28311
  8
0
 62
7
 10
51.033719683439472
 20
15.10185023744191
 70
0
  0
SEQEND
  5
28312
  8
0
  0
POLYLINE
  5
28313
  8
0
 62
7
 66
1
 70
0
 10
0
 20
0
 30
0
  0
VERTEX
  5
28314
  8
0
 62
7
 10
53.023606835719761
 20
44.185690833469543
 70
0
  0
VERTEX
  5
28315
  8
0
 62
7
 10
53.064947981542751
 20
44.185690833469543
 70
0
  0
VERTEX
  5
28316
  8
0
 62
7
 10
53.023606835719761
 20
44.142971649452477
 70
0
  0
SEQEND
  5
28317
  8
0
  0
POLYLINE
  5
28318
  8
0
 62
7
 66
1
 70
0
 10
0
 20
0
 30
0
  0
VERTEX
  5
28319
  8
0
 62
7
 10
38.206940172757271
 20
39.106069795242952
 70
0
  0
VERTEX
  5
2831A
  8
0
 62
7
 10
38.164220988740169
 20
39.147238686291672
 70
0
  0
VERTEX
  5
2831B
  8
0
 62
7
 10
38.121501804723067
 20
39.106069795242952
 70
0
  0
VERTEX
  5
2831C
  8
0
 62
7
 10
37.741163263151492
 20
38.7669001447201
 70
0
  0
SEQEND
  5
2831D
  8
0
  0
POLYLINE
  5
2831E
  8
0
 62
7
 66
1
 70
0
 10
0
 20
0
 30
0
  0
VERTEX
  5
2831F
  8
0
 62
7
 10
37.741163263151492
 20
38.640292885637173
 70
0
  0
VERTEX
  5
28320
  8
0
 62
7
 10
37.867942777008693
 20
38.640292885637173
 70
0
  0
VERTEX
  5
28321
  8
0
 62
7
 10
38.206940172757271
 20
39.020631427208741
 70
0
  0
SEQEND
  5
28322
  8
0
  0
POLYLINE
  5
28323
  8
0
 62
7
 66
1
 70
0
 10
0
 20
0
 30
0
  0
VERTEX
  5
28324
  8
0
 62
7
 10
38.756777412203149
 20
38.597573701620057
 70
0
  0
VERTEX
  5
28325
  8
0
 62
7
 10
38.67271708236305
 20
38.640292885637173
 70
0
  0
VERTEX
  5
28326
  8
0
 62
7
 10
38.629997898345948
 20
38.597573701620057
 70
0
  0
SEQEND
  5
28327
  8
0
  0
POLYLINE
  5
28328
  8
0
 62
7
 66
1
 70
0
 10
0
 20
0
 30
0
  0
VERTEX
  5
28329
  8
0
 62
7
 10
38.29100050259737
 20
38.131969046788562
 70
0
  0
VERTEX
  5
2832A
  8
0
 62
7
 10
38.37506083243747
 20
38.131969046788562
 70
0
  0
SEQEND
  5
2832B
  8
0
  0
POLYLINE
  5
2832C
  8
0
 62
7
 66
1
 70
0
 10
0
 20
0
 30
0
  0
VERTEX
  5
2832D
  8
0
 62
7
 10
50.821501801548067
 20
41.984619327943442
 70
0
  0
VERTEX
  5
2832E
  8
0
 62
7
 10
50.778782617530958
 20
41.984619327943442
 70
0
  0
SEQEND
  5
2832F
  8
0
  0
POLYLINE
  5
28330
  8
0
 62
7
 66
1
 70
0
 10
0
 20
0
 30
0
  0
VERTEX
  5
28331
  8
0
 62
7
 10
38.37506083243747
 20
38.7669001447201
 70
0
  0
VERTEX
  5
28332
  8
0
 62
7
 10
38.417780016454572
 20
38.724353215477258
 70
0
  0
VERTEX
  5
28333
  8
0
 62
7
 10
38.503218384488747
 20
38.7669001447201
 70
0
  0
VERTEX
  5
28334
  8
0
 62
7
 10
38.799496596220251
 20
39.106069795242952
 70
0
  0
SEQEND
  5
28335
  8
0
  0
POLYLINE
  5
28336
  8
0
 62
7
 66
1
 70
0
 10
0
 20
0
 30
0
  0
VERTEX
  5
28337
  8
0
 62
7
 10
38.799496596220251
 20
39.190302379857322
 70
0
  0
VERTEX
  5
28338
  8
0
 62
7
 10
38.714058228186047
 20
39.190302379857322
 70
0
  0
VERTEX
  5
28339
  8
0
 62
7
 10
38.37506083243747
 20
38.851304984108737
 70
0
  0
SEQEND
  5
2833A
  8
0
  0
POLYLINE
  5
2833B
  8
0
 62
7
 66
1
 70
0
 10
0
 20
0
 30
0
  0
VERTEX
  5
2833C
  8
0
 62
7
 10
38.883556926060351
 20
38.258576305871493
 70
0
  0
VERTEX
  5
2833D
  8
0
 62
7
 10
38.968995294094519
 20
38.258576305871493
 70
0
  0
SEQEND
  5
2833E
  8
0
  0
POLYLINE
  5
2833F
  8
0
 62
7
 66
1
 70
0
 10
0
 20
0
 30
0
  0
VERTEX
  5
28340
  8
0
 62
7
 10
39.306614651649028
 20
38.724353215477258
 70
0
  0
VERTEX
  5
28341
  8
0
 62
7
 10
39.26527350582603
 20
38.7669001447201
 70
0
  0
VERTEX
  5
28342
  8
0
 62
7
 10
39.222554321808929
 20
38.724353215477258
 70
0
  0
SEQEND
  5
28343
  8
0
  0
POLYLINE
  5
28344
  8
0
 62
7
 66
1
 70
0
 10
0
 20
0
 30
0
  0
VERTEX
  5
28345
  8
0
 62
7
 10
48.451276107696167
 20
40.1216839442946
 70
0
  0
VERTEX
  5
28346
  8
0
 62
7
 10
48.451276107696167
 20
40.1216839442946
 70
0
  0
SEQEND
  5
28347
  8
0
  0
POLYLINE
  5
28348
  8
0
 62
7
 66
1
 70
0
 10
0
 20
0
 30
0
  0
VERTEX
  5
28349
  8
0
 62
7
 10
37.148606839688512
 20
39.190302379857322
 70
0
  0
VERTEX
  5
2834A
  8
0
 62
7
 10
37.148606839688512
 20
39.190302379857322
 70
0
  0
VERTEX
  5
2834B
  8
0
 62
7
 10
37.486226197243013
 20
38.89402416812581
 70
0
  0
SEQEND
  5
2834C
  8
0
  0
POLYLINE
  5
2834D
  8
0
 62
7
 66
1
 70
0
 10
0
 20
0
 30
0
  0
VERTEX
  5
2834E
  8
0
 62
7
 10
48.2390582258048
 20
42.449190454129393
 70
0
  0
VERTEX
  5
2834F
  8
0
 62
7
 10
48.2817774098219
 20
42.449190454129393
 70
0
  0
SEQEND
  5
28350
  8
0
  0
POLYLINE
  5
28351
  8
0
 62
7
 66
1
 70
0
 10
0
 20
0
 30
0
  0
VERTEX
  5
28352
  8
0
 62
7
 10
53.023606835719761
 20
43.762288598332347
 70
0
  0
VERTEX
  5
28353
  8
0
 62
7
 10
53.10766716555986
 20
43.719569414315288
 70
0
  0
VERTEX
  5
28354
  8
0
 62
7
 10
53.150386349576962
 20
43.635681339249452
 70
0
  0
VERTEX
  5
28355
  8
0
 62
7
 10
53.10766716555986
 20
43.592962155232321
 70
0
  0
VERTEX
  5
28356
  8
0
 62
7
 10
53.023606835719761
 20
43.507523787198117
 70
0
  0
SEQEND
  5
28357
  8
0
  0
POLYLINE
  5
28358
  8
0
 62
7
 66
1
 70
0
 10
0
 20
0
 30
0
  0
VERTEX
  5
28359
  8
0
 62
7
 10
53.023606835719761
 20
43.805352291897968
 70
0
  0
VERTEX
  5
2835A
  8
0
 62
7
 10
53.10766716555986
 20
43.762288598332347
 70
0
  0
VERTEX
  5
2835B
  8
0
 62
7
 10
53.150386349576962
 20
43.676850230298157
 70
0
  0
VERTEX
  5
2835C
  8
0
 62
7
 10
53.10766716555986
 20
43.592962155232321
 70
0
  0
VERTEX
  5
2835D
  8
0
 62
7
 10
53.023606835719761
 20
43.550242971215248
 70
0
  0
SEQEND
  5
2835E
  8
0
  0
POLYLINE
  5
2835F
  8
0
 62
7
 66
1
 70
0
 10
0
 20
0
 30
0
  0
VERTEX
  5
28360
  8
0
 62
7
 10
52.472391558079813
 20
43.507523787198117
 70
0
  0
VERTEX
  5
28361
  8
0
 62
7
 10
52.388331228239707
 20
43.592962155232321
 70
0
  0
VERTEX
  5
28362
  8
0
 62
7
 10
52.388331228239707
 20
43.719569414315288
 70
0
  0
VERTEX
  5
28363
  8
0
 62
7
 10
52.472391558079813
 20
43.762288598332347
 70
0
  0
SEQEND
  5
28364
  8
0
  0
POLYLINE
  5
28365
  8
0
 62
7
 66
1
 70
0
 10
0
 20
0
 30
0
  0
VERTEX
  5
28366
  8
0
 62
7
 10
52.472391558079813
 20
43.550242971215248
 70
0
  0
VERTEX
  5
28367
  8
0
 62
7
 10
52.388331228239707
 20
43.592962155232321
 70
0
  0
VERTEX
  5
28368
  8
0
 62
7
 10
52.388331228239707
 20
43.762288598332347
 70
0
  0
VERTEX
  5
28369
  8
0
 62
7
 10
52.472391558079813
 20
43.805352291897968
 70
0
  0
SEQEND
  5
2836A
  8
0
  0
POLYLINE
  5
2836B
  8
0
 62
7
 66
1
 70
0
 10
0
 20
0
 30
0
  0
VERTEX
  5
2836C
  8
0
 62
7
 10
50.228945378085108
 20
30.976850233473161
 70
0
  0
VERTEX
  5
2836D
  8
0
 62
7
 10
51.456777409028149
 20
31.146521186121731
 70
0
  0
SEQEND
  5
2836E
  8
0
  0
POLYLINE
  5
2836F
  8
0
 62
7
 66
1
 70
0
 10
0
 20
0
 30
0
  0
VERTEX
  5
28370
  8
0
 62
7
 10
50.778782617530958
 20
39.825233477788863
 70
0
  0
VERTEX
  5
28371
  8
0
 62
7
 10
50.271664562102188
 20
39.909638317177468
 70
0
  0
SEQEND
  5
28372
  8
0
  0
POLYLINE
  5
28373
  8
0
 62
7
 66
1
 70
0
 10
0
 20
0
 30
0
  0
VERTEX
  5
28374
  8
0
 62
7
 10
48.2817774098219
 20
42.449190454129393
 70
0
  0
VERTEX
  5
28375
  8
0
 62
7
 10
50.821501801548067
 20
41.984619327943442
 70
0
  0
SEQEND
  5
28376
  8
0
  0
POLYLINE
  5
28377
  8
0
 62
7
 66
1
 70
0
 10
0
 20
0
 30
0
  0
VERTEX
  5
28378
  8
0
 62
7
 10
48.451276107696167
 20
40.544569415109009
 70
0
  0
VERTEX
  5
28379
  8
0
 62
7
 10
51.287278711153839
 20
39.95235750119457
 70
0
  0
SEQEND
  5
2837A
  8
0
  0
POLYLINE
  5
2837B
  8
0
 62
7
 66
1
 70
0
 10
0
 20
0
 30
0
  0
VERTEX
  5
2837C
  8
0
 62
7
 10
48.451276107696167
 20
40.544569415109009
 70
0
  0
VERTEX
  5
2837D
  8
0
 62
7
 10
51.287278711153839
 20
39.95235750119457
 70
0
  0
SEQEND
  5
2837E
  8
0
  0
POLYLINE
  5
2837F
  8
0
 62
7
 66
1
 70
0
 10
0
 20
0
 30
0
  0
VERTEX
  5
28380
  8
0
 62
7
 10
51.244559527136737
 20
39.402348006974449
 70
0
  0
VERTEX
  5
28381
  8
0
 62
7
 10
48.451276107696167
 20
40.1216839442946
 70
0
  0
SEQEND
  5
28382
  8
0
  0
POLYLINE
  5
28383
  8
0
 62
7
 66
1
 70
0
 10
0
 20
0
 30
0
  0
VERTEX
  5
28384
  8
0
 62
7
 10
52.811388953828377
 20
43.719569414315288
 70
0
  0
VERTEX
  5
28385
  8
0
 62
7
 10
52.768669769811282
 20
43.719569414315288
 70
0
  0
SEQEND
  5
28386
  8
0
  0
POLYLINE
  5
28387
  8
0
 62
7
 66
1
 70
0
 10
0
 20
0
 30
0
  0
VERTEX
  5
28388
  8
0
 62
7
 10
50.31438374611929
 20
40.96797165024622
 70
0
  0
VERTEX
  5
28389
  8
0
 62
7
 10
50.01672749619371
 20
40.883566810857623
 70
0
  0
SEQEND
  5
2838A
  8
0
  0
POLYLINE
  5
2838B
  8
0
 62
7
 66
1
 70
0
 10
0
 20
0
 30
0
  0
VERTEX
  5
2838C
  8
0
 62
7
 10
49.593669770605032
 20
47.3606908326758
 70
0
  0
VERTEX
  5
2838D
  8
0
 62
7
 10
49.720449284462227
 20
47.3606908326758
 70
0
  0
VERTEX
  5
2838E
  8
0
 62
7
 10
49.848606836513511
 20
47.444578907741629
 70
0
  0
VERTEX
  5
2838F
  8
0
 62
7
 10
49.93266716635361
 20
47.572564205018693
 70
0
  0
VERTEX
  5
28390
  8
0
 62
7
 10
49.975386350370712
 20
47.6996882284244
 70
0
  0
VERTEX
  5
28391
  8
0
 62
7
 10
49.93266716635361
 20
47.826295487507359
 70
0
  0
VERTEX
  5
28392
  8
0
 62
7
 10
49.848606836513511
 20
47.952902746590262
 70
0
  0
VERTEX
  5
28393
  8
0
 62
7
 10
49.720449284462227
 20
48.038685624173013
 70
0
  0
VERTEX
  5
28394
  8
0
 62
7
 10
49.593669770605032
 20
48.079854515221712
 70
0
  0
VERTEX
  5
28395
  8
0
 62
7
 10
49.466890256747831
 20
48.038685624173013
 70
0
  0
VERTEX
  5
28396
  8
0
 62
7
 10
49.340110742890658
 20
47.952902746590262
 70
0
  0
VERTEX
  5
28397
  8
0
 62
7
 10
49.256050413050559
 20
47.826295487507359
 70
0
  0
VERTEX
  5
28398
  8
0
 62
7
 10
49.256050413050559
 20
47.572564205018693
 70
0
  0
VERTEX
  5
28399
  8
0
 62
7
 10
49.340110742890658
 20
47.444578907741629
 70
0
  0
VERTEX
  5
2839A
  8
0
 62
7
 10
49.466890256747831
 20
47.3606908326758
 70
0
  0
VERTEX
  5
2839B
  8
0
 62
7
 10
49.593669770605032
 20
47.3606908326758
 70
0
  0
SEQEND
  5
2839C
  8
0
  0
POLYLINE
  5
2839D
  8
0
 62
7
 66
1
 70
0
 10
0
 20
0
 30
0
  0
VERTEX
  5
2839E
  8
0
 62
7
 10
49.679108138639229
 20
47.3606908326758
 70
0
  0
VERTEX
  5
2839F
  8
0
 62
7
 10
49.679108138639229
 20
47.3606908326758
 70
0
  0
SEQEND
  5
283A0
  8
0
  0
POLYLINE
  5
283A1
  8
0
 62
7
 66
1
 70
0
 10
0
 20
0
 30
0
  0
VERTEX
  5
283A2
  8
0
 62
7
 10
49.93266716635361
 20
40.841019881614748
 70
0
  0
VERTEX
  5
283A3
  8
0
 62
7
 10
48.451276107696167
 20
40.544569415109009
 70
0
  0
SEQEND
  5
283A4
  8
0
  0
POLYLINE
  5
283A5
  8
0
 62
7
 66
1
 70
0
 10
0
 20
0
 30
0
  0
VERTEX
  5
283A6
  8
0
 62
7
 10
48.917053017301953
 20
38.385183564954417
 70
0
  0
VERTEX
  5
283A7
  8
0
 62
7
 10
49.170612045016348
 20
38.427902748971519
 70
0
  0
VERTEX
  5
283A8
  8
0
 62
7
 10
49.466890256747831
 20
38.427902748971519
 70
0
  0
SEQEND
  5
283A9
  8
0
  0
POLYLINE
  5
283AA
  8
0
 62
7
 66
1
 70
0
 10
0
 20
0
 30
0
  0
VERTEX
  5
283AB
  8
0
 62
7
 10
63.478782614355957
 20
50.408566808476337
 70
0
  0
VERTEX
  5
283AC
  8
0
 62
7
 10
63.182504402624488
 20
50.366019879233527
 70
0
  0
SEQEND
  5
283AD
  8
0
  0
POLYLINE
  5
283AE
  8
0
 62
7
 66
1
 70
0
 10
0
 20
0
 30
0
  0
VERTEX
  5
283AF
  8
0
 62
7
 10
63.43744146853296
 20
50.408566808476337
 70
0
  0
VERTEX
  5
283B0
  8
0
 62
7
 10
63.182504402624488
 20
50.366019879233527
 70
0
  0
SEQEND
  5
283B1
  8
0
  0
POLYLINE
  5
283B2
  8
0
 62
7
 66
1
 70
0
 10
0
 20
0
 30
0
  0
VERTEX
  5
283B3
  8
0
 62
7
 10
58.652892858618
 20
48.038685624173013
 70
0
  0
VERTEX
  5
283B4
  8
0
 62
7
 10
55.606050411463059
 20
47.740857119473162
 70
0
  0
SEQEND
  5
283B5
  8
0
  0
POLYLINE
  5
283B6
  8
0
 62
7
 66
1
 70
0
 10
0
 20
0
 30
0
  0
VERTEX
  5
283B7
  8
0
 62
7
 10
62.802165861052913
 20
51.297573698445092
 70
0
  0
VERTEX
  5
283B8
  8
0
 62
7
 10
62.589947979161508
 20
51.297573698445092
 70
0
  0
SEQEND
  5
283B9
  8
0
  0
POLYLINE
  5
283BA
  8
0
 62
7
 66
1
 70
0
 10
0
 20
0
 30
0
  0
VERTEX
  5
283BB
  8
0
 62
7
 10
51.499496593045251
 20
40.036245576260391
 70
0
  0
VERTEX
  5
283BC
  8
0
 62
7
 10
51.075060829262469
 20
40.036245576260391
 70
0
  0
VERTEX
  5
283BD
  8
0
 62
7
 10
51.075060829262469
 20
40.1216839442946
 70
0
  0
VERTEX
  5
283BE
  8
0
 62
7
 10
51.499496593045251
 20
40.1644031283117
 70
0
  0
VERTEX
  5
283BF
  8
0
 62
7
 10
51.499496593045251
 20
40.036245576260391
 70
0
  0
SEQEND
  5
283C0
  8
0
  0
POLYLINE
  5
283C1
  8
0
 62
7
 66
1
 70
0
 10
0
 20
0
 30
0
  0
VERTEX
  5
283C2
  8
0
 62
7
 10
51.287278711153839
 20
40.036245576260391
 70
0
  0
VERTEX
  5
283C3
  8
0
 62
7
 10
51.287278711153839
 20
40.036245576260391
 70
0
  0
SEQEND
  5
283C4
  8
0
  0
POLYLINE
  5
283C5
  8
0
 62
7
 66
1
 70
0
 10
0
 20
0
 30
0
  0
VERTEX
  5
283C6
  8
0
 62
7
 10
51.58355692288535
 20
40.460681340043173
 70
0
  0
VERTEX
  5
283C7
  8
0
 62
7
 10
49.975386350370712
 20
40.3325237879919
 70
0
  0
SEQEND
  5
283C8
  8
0
  0
POLYLINE
  5
283C9
  8
0
 62
7
 66
1
 70
0
 10
0
 20
0
 30
0
  0
VERTEX
  5
283CA
  8
0
 62
7
 10
49.975386350370712
 20
40.460681340043173
 70
0
  0
VERTEX
  5
283CB
  8
0
 62
7
 10
51.58355692288535
 20
40.587288599126111
 70
0
  0
SEQEND
  5
283CC
  8
0
  0
POLYLINE
  5
283CD
  8
0
 62
7
 66
1
 70
0
 10
0
 20
0
 30
0
  0
VERTEX
  5
283CE
  8
0
 62
7
 10
51.160499197296673
 20
40.671521183740481
 70
0
  0
VERTEX
  5
283CF
  8
0
 62
7
 10
49.256050413050559
 20
40.544569415109009
 70
0
  0
SEQEND
  5
283D0
  8
0
  0
POLYLINE
  5
283D1
  8
0
 62
7
 66
1
 70
0
 10
0
 20
0
 30
0
  0
VERTEX
  5
283D2
  8
0
 62
7
 10
49.256050413050559
 20
40.630352292691747
 70
0
  0
VERTEX
  5
283D3
  8
0
 62
7
 10
51.160499197296673
 20
40.756959551774678
 70
0
  0
SEQEND
  5
283D4
  8
0
  0
POLYLINE
  5
283D5
  8
0
 62
7
 66
1
 70
0
 10
0
 20
0
 30
0
  0
VERTEX
  5
283D6
  8
0
 62
7
 10
50.610661957850787
 20
40.798300697597682
 70
0
  0
VERTEX
  5
283D7
  8
0
 62
7
 10
49.975386350370712
 20
40.798300697597682
 70
0
  0
SEQEND
  5
283D8
  8
0
  0
POLYLINE
  5
283D9
  8
0
 62
7
 66
1
 70
0
 10
0
 20
0
 30
0
  0
VERTEX
  5
283DA
  8
0
 62
7
 10
49.93266716635361
 20
40.883566810857623
 70
0
  0
VERTEX
  5
283DB
  8
0
 62
7
 10
50.610661957850787
 20
40.926285994874682
 70
0
  0
SEQEND
  5
283DC
  8
0
  0
POLYLINE
  5
283DD
  8
0
 62
7
 66
1
 70
0
 10
0
 20
0
 30
0
  0
VERTEX
  5
283DE
  8
0
 62
7
 10
50.271664562102188
 20
39.909638317177468
 70
0
  0
VERTEX
  5
283DF
  8
0
 62
7
 10
49.720449284462227
 20
39.867952661805958
 70
0
  0
VERTEX
  5
283E0
  8
0
 62
7
 10
50.271664562102188
 20
39.825233477788863
 70
0
  0
SEQEND
  5
283E1
  8
0
  0
POLYLINE
  5
283E2
  8
0
 62
7
 66
1
 70
0
 10
0
 20
0
 30
0
  0
VERTEX
  5
283E3
  8
0
 62
7
 10
52.599171071936979
 20
42.618516897229419
 70
0
  0
VERTEX
  5
283E4
  8
0
 62
7
 10
52.006614648474027
 20
42.618516897229419
 70
0
  0
VERTEX
  5
283E5
  8
0
 62
7
 10
51.203218381313739
 20
45.540302378269807
 70
0
  0
SEQEND
  5
283E6
  8
0
  0
POLYLINE
  5
283E7
  8
0
 62
7
 66
1
 70
0
 10
0
 20
0
 30
0
  0
VERTEX
  5
283E8
  8
0
 62
7
 10
49.12789286099926
 20
39.739967364528923
 70
0
  0
VERTEX
  5
283E9
  8
0
 62
7
 10
48.747554319427678
 20
39.739967364528923
 70
0
  0
VERTEX
  5
283EA
  8
0
 62
7
 10
48.365837739662
 20
39.655907034688823
 70
0
  0
VERTEX
  5
283EB
  8
0
 62
7
 10
48.0282183821075
 20
39.52895526605738
 70
0
  0
VERTEX
  5
283EC
  8
0
 62
7
 10
47.773281316199018
 20
39.316909638940253
 70
0
  0
SEQEND
  5
283ED
  8
0
  0
POLYLINE
  5
283EE
  8
0
 62
7
 66
1
 70
0
 10
0
 20
0
 30
0
  0
VERTEX
  5
283EF
  8
0
 62
7
 10
50.271664562102188
 20
39.825233477788863
 70
0
  0
VERTEX
  5
283F0
  8
0
 62
7
 10
50.778782617530958
 20
39.825233477788863
 70
0
  0
SEQEND
  5
283F1
  8
0
  0
POLYLINE
  5
283F2
  8
0
 62
7
 66
1
 70
0
 10
0
 20
0
 30
0
  0
VERTEX
  5
283F3
  8
0
 62
7
 10
52.811388953828377
 20
43.635681339249452
 70
0
  0
VERTEX
  5
283F4
  8
0
 62
7
 10
53.023606835719761
 20
43.635681339249452
 70
0
  0
VERTEX
  5
283F5
  8
0
 62
7
 10
53.023606835719761
 20
43.719569414315288
 70
0
  0
VERTEX
  5
283F6
  8
0
 62
7
 10
52.811388953828377
 20
43.719569414315288
 70
0
  0
SEQEND
  5
283F7
  8
0
  0
POLYLINE
  5
283F8
  8
0
 62
7
 66
1
 70
0
 10
0
 20
0
 30
0
  0
VERTEX
  5
283F9
  8
0
 62
7
 10
52.684609439971183
 20
43.719569414315288
 70
0
  0
VERTEX
  5
283FA
  8
0
 62
7
 10
52.515110742096908
 20
43.719569414315288
 70
0
  0
VERTEX
  5
283FB
  8
0
 62
7
 10
52.515110742096908
 20
43.635681339249452
 70
0
  0
VERTEX
  5
283FC
  8
0
 62
7
 10
52.684609439971183
 20
43.635681339249452
 70
0
  0
VERTEX
  5
283FD
  8
0
 62
7
 10
52.684609439971183
 20
43.550242971215248
 70
0
  0
VERTEX
  5
283FE
  8
0
 62
7
 10
52.768669769811282
 20
43.550242971215248
 70
0
  0
VERTEX
  5
283FF
  8
0
 62
7
 10
52.768669769811282
 20
43.635681339249452
 70
0
  0
SEQEND
  5
28400
  8
0
  0
POLYLINE
  5
28401
  8
0
 62
7
 66
1
 70
0
 10
0
 20
0
 30
0
  0
VERTEX
  5
28402
  8
0
 62
7
 10
63.182504402624488
 20
50.366019879233527
 70
0
  0
VERTEX
  5
28403
  8
0
 62
7
 10
62.844885045070022
 20
50.408566808476337
 70
0
  0
SEQEND
  5
28404
  8
0
  0
POLYLINE
  5
28405
  8
0
 62
7
 66
1
 70
0
 10
0
 20
0
 30
0
  0
VERTEX
  5
28406
  8
0
 62
7
 10
59.414947979955258
 20
47.826295487507359
 70
0
  0
VERTEX
  5
28407
  8
0
 62
7
 10
60.007504403418238
 20
47.826295487507359
 70
0
  0
VERTEX
  5
28408
  8
0
 62
7
 10
60.219722285309643
 20
47.910183562573188
 70
0
  0
VERTEX
  5
28409
  8
0
 62
7
 10
60.43194016720102
 20
48.038685624173013
 70
0
  0
SEQEND
  5
2840A
  8
0
  0
POLYLINE
  5
2840B
  8
0
 62
7
 66
1
 70
0
 10
0
 20
0
 30
0
  0
VERTEX
  5
2840C
  8
0
 62
7
 10
63.182504402624488
 20
50.366019879233527
 70
0
  0
VERTEX
  5
2840D
  8
0
 62
7
 10
62.886226190893012
 20
50.408566808476337
 70
0
  0
SEQEND
  5
2840E
  8
0
  0
POLYLINE
  5
2840F
  8
0
 62
7
 66
1
 70
0
 10
0
 20
0
 30
0
  0
VERTEX
  5
28410
  8
0
 62
7
 10
61.658394159949978
 20
50.958576302696478
 70
0
  0
VERTEX
  5
28411
  8
0
 62
7
 10
61.956050409875559
 20
50.915857118679412
 70
0
  0
VERTEX
  5
28412
  8
0
 62
7
 10
62.293669767430032
 20
50.915857118679412
 70
0
  0
VERTEX
  5
28413
  8
0
 62
7
 10
62.50588764932143
 20
50.958576302696478
 70
0
  0
VERTEX
  5
28414
  8
0
 62
7
 10
62.7167274930187
 20
51.085183561779452
 70
0
  0
VERTEX
  5
28415
  8
0
 62
7
 10
63.182504402624488
 20
51.466900141545118
 70
0
  0
SEQEND
  5
28416
  8
0
  0
POLYLINE
  5
28417
  8
0
 62
7
 66
1
 70
0
 10
0
 20
0
 30
0
  0
VERTEX
  5
28418
  8
0
 62
7
 10
35.242780017248322
 20
39.95235750119457
 70
0
  0
VERTEX
  5
28419
  8
0
 62
7
 10
34.946501805516817
 20
40.205572019360432
 70
0
  0
SEQEND
  5
2841A
  8
0
  0
POLYLINE
  5
2841B
  8
0
 62
7
 66
1
 70
0
 10
0
 20
0
 30
0
  0
VERTEX
  5
2841C
  8
0
 62
7
 10
35.242780017248322
 20
39.95235750119457
 70
0
  0
VERTEX
  5
2841D
  8
0
 62
7
 10
35.962115954568482
 20
39.233021563874424
 70
0
  0
SEQEND
  5
2841E
  8
0
  0
POLYLINE
  5
2841F
  8
0
 62
7
 66
1
 70
0
 10
0
 20
0
 30
0
  0
VERTEX
  5
28420
  8
0
 62
7
 10
51.033719683439472
 20
15.187288605476111
 70
0
  0
VERTEX
  5
28421
  8
0
 62
7
 10
50.906940169582271
 20
17.3039552716136
 70
0
  0
SEQEND
  5
28422
  8
0
  0
POLYLINE
  5
28423
  8
0
 62
7
 66
1
 70
0
 10
0
 20
0
 30
0
  0
VERTEX
  5
28424
  8
0
 62
7
 10
51.58355692288535
 20
15.780017283713359
 70
0
  0
VERTEX
  5
28425
  8
0
 62
7
 10
51.58355692288535
 20
15.52628600122469
 70
0
  0
SEQEND
  5
28426
  8
0
  0
POLYLINE
  5
28427
  8
0
 62
7
 66
1
 70
0
 10
0
 20
0
 30
0
  0
VERTEX
  5
28428
  8
0
 62
7
 10
45.8688325319529
 20
31.655017279744609
 70
0
  0
VERTEX
  5
28429
  8
0
 62
7
 10
46.165110743684409
 20
34.533566812445123
 70
0
  0
SEQEND
  5
2842A
  8
0
  0
POLYLINE
  5
2842B
  8
0
 62
7
 66
1
 70
0
 10
0
 20
0
 30
0
  0
VERTEX
  5
2842C
  8
0
 62
7
 10
45.699333834078629
 20
30.553964762658751
 70
0
  0
VERTEX
  5
2842D
  8
0
 62
7
 10
45.8688325319529
 20
31.655017279744609
 70
0
  0
SEQEND
  5
2842E
  8
0
  0
POLYLINE
  5
2842F
  8
0
 62
7
 66
1
 70
0
 10
0
 20
0
 30
0
  0
VERTEX
  5
28430
  8
0
 62
7
 10
51.203218381313739
 20
45.540302378269807
 70
0
  0
VERTEX
  5
28431
  8
0
 62
7
 10
51.075060829262469
 20
48.079854515221712
 70
0
  0
SEQEND
  5
28432
  8
0
  0
POLYLINE
  5
28433
  8
0
 62
7
 66
1
 70
0
 10
0
 20
0
 30
0
  0
VERTEX
  5
28434
  8
0
 62
7
 10
48.1977170799818
 20
43.253964759483779
 70
0
  0
VERTEX
  5
28435
  8
0
 62
7
 10
48.4085569236791
 20
47.613905350841662
 70
0
  0
SEQEND
  5
28436
  8
0
  0
POLYLINE
  5
28437
  8
0
 62
7
 66
1
 70
0
 10
0
 20
0
 30
0
  0
VERTEX
  5
28438
  8
0
 62
7
 10
48.4085569236791
 20
47.613905350841662
 70
0
  0
VERTEX
  5
28439
  8
0
 62
7
 10
48.451276107696167
 20
47.910183562573188
 70
0
  0
SEQEND
  5
2843A
  8
0
  0
POLYLINE
  5
2843B
  8
0
 62
7
 66
1
 70
0
 10
0
 20
0
 30
0
  0
VERTEX
  5
2843C
  8
0
 62
7
 10
47.392942774627443
 20
33.6449044320249
 70
0
  0
VERTEX
  5
2843D
  8
0
 62
7
 10
47.011226194861763
 20
30.892962158407329
 70
0
  0
SEQEND
  5
2843E
  8
0
  0
POLYLINE
  5
2843F
  8
0
 62
7
 66
1
 70
0
 10
0
 20
0
 30
0
  0
VERTEX
  5
28440
  8
0
 62
7
 10
40.916163262357742
 20
32.670631428796241
 70
0
  0
VERTEX
  5
28441
  8
0
 62
7
 10
41.127003106055042
 20
33.60235750278207
 70
0
  0
SEQEND
  5
28442
  8
0
  0
POLYLINE
  5
28443
  8
0
 62
7
 66
1
 70
0
 10
0
 20
0
 30
0
  0
VERTEX
  5
28444
  8
0
 62
7
 10
48.154997895964691
 20
42.70395526526363
 70
0
  0
VERTEX
  5
28445
  8
0
 62
7
 10
48.1977170799818
 20
43.253964759483779
 70
0
  0
SEQEND
  5
28446
  8
0
  0
POLYLINE
  5
28447
  8
0
 62
7
 66
1
 70
0
 10
0
 20
0
 30
0
  0
VERTEX
  5
28448
  8
0
 62
7
 10
50.821501801548067
 20
47.3606908326758
 70
0
  0
VERTEX
  5
28449
  8
0
 62
7
 10
50.864220985565169
 20
47.952902746590262
 70
0
  0
SEQEND
  5
2844A
  8
0
  0
POLYLINE
  5
2844B
  8
0
 62
7
 66
1
 70
0
 10
0
 20
0
 30
0
  0
VERTEX
  5
2844C
  8
0
 62
7
 10
51.244559527136737
 20
39.402348006974449
 70
0
  0
VERTEX
  5
2844D
  8
0
 62
7
 10
50.610661957850787
 20
39.274190454923144
 70
0
  0
SEQEND
  5
2844E
  8
0
  0
POLYLINE
  5
2844F
  8
0
 62
7
 66
1
 70
0
 10
0
 20
0
 30
0
  0
VERTEX
  5
28450
  8
0
 62
7
 10
50.271664562102188
 20
39.443516898023177
 70
0
  0
VERTEX
  5
28451
  8
0
 62
7
 10
51.244559527136737
 20
39.402348006974449
 70
0
  0
SEQEND
  5
28452
  8
0
  0
POLYLINE
  5
28453
  8
0
 62
7
 66
1
 70
0
 10
0
 20
0
 30
0
  0
VERTEX
  5
28454
  8
0
 62
7
 10
51.033719683439472
 20
15.187288605476111
 70
0
  0
VERTEX
  5
28455
  8
0
 62
7
 10
51.033719683439472
 20
15.10185023744191
 70
0
  0
SEQEND
  5
28456
  8
0
  0
POLYLINE
  5
28457
  8
0
 62
7
 66
1
 70
0
 10
0
 20
0
 30
0
  0
VERTEX
  5
28458
  8
0
 62
7
 10
50.821501801548067
 20
15.187288605476111
 70
0
  0
VERTEX
  5
28459
  8
0
 62
7
 10
50.778782617530958
 20
15.31424037410758
 70
0
  0
SEQEND
  5
2845A
  8
0
  0
POLYLINE
  5
2845B
  8
0
 62
7
 66
1
 70
0
 10
0
 20
0
 30
0
  0
VERTEX
  5
2845C
  8
0
 62
7
 10
50.864220985565169
 20
15.144569421459011
 70
0
  0
VERTEX
  5
2845D
  8
0
 62
7
 10
50.864220985565169
 20
15.144569421459011
 70
0
  0
VERTEX
  5
2845E
  8
0
 62
7
 10
50.906940169582271
 20
15.144569421459011
 70
0
  0
VERTEX
  5
2845F
  8
0
 62
7
 10
50.948281315405268
 20
15.144569421459011
 70
0
  0
VERTEX
  5
28460
  8
0
 62
7
 10
50.991000499422363
 20
15.10185023744191
 70
0
  0
SEQEND
  5
28461
  8
0
  0
POLYLINE
  5
28462
  8
0
 62
7
 66
1
 70
0
 10
0
 20
0
 30
0
  0
VERTEX
  5
28463
  8
0
 62
7
 10
51.540837738868241
 20
15.187288605476111
 70
0
  0
VERTEX
  5
28464
  8
0
 62
7
 10
51.540837738868241
 20
15.27152119009048
 70
0
  0
VERTEX
  5
28465
  8
0
 62
7
 10
51.540837738868241
 20
15.31424037410758
 70
0
  0
VERTEX
  5
28466
  8
0
 62
7
 10
51.58355692288535
 20
15.356959558124659
 70
0
  0
VERTEX
  5
28467
  8
0
 62
7
 10
51.58355692288535
 20
15.39830070394768
 70
0
  0
VERTEX
  5
28468
  8
0
 62
7
 10
51.58355692288535
 20
15.44101988796476
 70
0
  0
VERTEX
  5
28469
  8
0
 62
7
 10
51.58355692288535
 20
15.52628600122469
 70
0
  0
SEQEND
  5
2846A
  8
0
  0
POLYLINE
  5
2846B
  8
0
 62
7
 66
1
 70
0
 10
0
 20
0
 30
0
  0
VERTEX
  5
2846C
  8
0
 62
7
 10
51.456777409028149
 20
15.144569421459011
 70
0
  0
VERTEX
  5
2846D
  8
0
 62
7
 10
51.499496593045251
 20
15.144569421459011
 70
0
  0
VERTEX
  5
2846E
  8
0
 62
7
 10
51.540837738868241
 20
15.187288605476111
 70
0
  0
VERTEX
  5
2846F
  8
0
 62
7
 10
51.58355692288535
 20
15.187288605476111
 70
0
  0
VERTEX
  5
28470
  8
0
 62
7
 10
51.626276106902417
 20
15.230352299041719
 70
0
  0
VERTEX
  5
28471
  8
0
 62
7
 10
51.626276106902417
 20
15.27152119009048
 70
0
  0
VERTEX
  5
28472
  8
0
 62
7
 10
51.668995290919533
 20
15.31424037410758
 70
0
  0
VERTEX
  5
28473
  8
0
 62
7
 10
51.668995290919533
 20
15.356959558124659
 70
0
  0
VERTEX
  5
28474
  8
0
 62
7
 10
51.710336436742523
 20
15.39830070394768
 70
0
  0
VERTEX
  5
28475
  8
0
 62
7
 10
51.753055620759618
 20
15.44101988796476
 70
0
  0
SEQEND
  5
28476
  8
0
  0
POLYLINE
  5
28477
  8
0
 62
7
 66
1
 70
0
 10
0
 20
0
 30
0
  0
VERTEX
  5
28478
  8
0
 62
7
 10
51.117780013279571
 20
15.06068134639318
 70
0
  0
VERTEX
  5
28479
  8
0
 62
7
 10
51.117780013279571
 20
15.06068134639318
 70
0
  0
VERTEX
  5
2847A
  8
0
 62
7
 10
51.160499197296673
 20
15.06068134639318
 70
0
  0
VERTEX
  5
2847B
  8
0
 62
7
 10
51.203218381313739
 20
15.06068134639318
 70
0
  0
VERTEX
  5
2847C
  8
0
 62
7
 10
51.244559527136737
 20
15.10185023744191
 70
0
  0
VERTEX
  5
2847D
  8
0
 62
7
 10
51.287278711153839
 20
15.10185023744191
 70
0
  0
VERTEX
  5
2847E
  8
0
 62
7
 10
51.287278711153839
 20
15.06068134639318
 70
0
  0
VERTEX
  5
2847F
  8
0
 62
7
 10
51.329997895170948
 20
15.06068134639318
 70
0
  0
VERTEX
  5
28480
  8
0
 62
7
 10
51.37271707918805
 20
15.06068134639318
 70
0
  0
VERTEX
  5
28481
  8
0
 62
7
 10
51.37271707918805
 20
15.10185023744191
 70
0
  0
VERTEX
  5
28482
  8
0
 62
7
 10
51.414058225011047
 20
15.10185023744191
 70
0
  0
VERTEX
  5
28483
  8
0
 62
7
 10
51.456777409028149
 20
15.144569421459011
 70
0
  0
VERTEX
  5
28484
  8
0
 62
7
 10
51.499496593045251
 20
15.144569421459011
 70
0
  0
VERTEX
  5
28485
  8
0
 62
7
 10
51.499496593045251
 20
15.187288605476111
 70
0
  0
VERTEX
  5
28486
  8
0
 62
7
 10
51.540837738868241
 20
15.187288605476111
 70
0
  0
SEQEND
  5
28487
  8
0
  0
POLYLINE
  5
28488
  8
0
 62
7
 66
1
 70
0
 10
0
 20
0
 30
0
  0
VERTEX
  5
28489
  8
0
 62
7
 10
51.244559527136737
 20
15.10185023744191
 70
0
  0
VERTEX
  5
2848A
  8
0
 62
7
 10
51.244559527136737
 20
15.10185023744191
 70
0
  0
VERTEX
  5
2848B
  8
0
 62
7
 10
51.244559527136737
 20
15.144569421459011
 70
0
  0
SEQEND
  5
2848C
  8
0
  0
POLYLINE
  5
2848D
  8
0
 62
7
 66
1
 70
0
 10
0
 20
0
 30
0
  0
VERTEX
  5
2848E
  8
0
 62
7
 10
51.033719683439472
 20
15.10185023744191
 70
0
  0
VERTEX
  5
2848F
  8
0
 62
7
 10
51.033719683439472
 20
15.10185023744191
 70
0
  0
VERTEX
  5
28490
  8
0
 62
7
 10
51.033719683439472
 20
15.06068134639318
 70
0
  0
VERTEX
  5
28491
  8
0
 62
7
 10
51.075060829262469
 20
15.06068134639318
 70
0
  0
VERTEX
  5
28492
  8
0
 62
7
 10
51.117780013279571
 20
15.06068134639318
 70
0
  0
SEQEND
  5
28493
  8
0
  0
POLYLINE
  5
28494
  8
0
 62
7
 66
1
 70
0
 10
0
 20
0
 30
0
  0
VERTEX
  5
28495
  8
0
 62
7
 10
47.392942774627443
 20
33.6449044320249
 70
0
  0
VERTEX
  5
28496
  8
0
 62
7
 10
47.773281316199018
 20
36.141909639734
 70
0
  0
SEQEND
  5
28497
  8
0
  0
POLYLINE
  5
28498
  8
0
 62
7
 66
1
 70
0
 10
0
 20
0
 30
0
  0
VERTEX
  5
28499
  8
0
 62
7
 10
53.150386349576962
 20
44.777902747384019
 70
0
  0
VERTEX
  5
2849A
  8
0
 62
7
 10
53.530724891148537
 20
45.456069793655438
 70
0
  0
SEQEND
  5
2849B
  8
0
  0
POLYLINE
  5
2849C
  8
0
 62
7
 66
1
 70
0
 10
0
 20
0
 30
0
  0
VERTEX
  5
2849D
  8
0
 62
7
 10
46.377328625575778
 20
36.141909639734
 70
0
  0
VERTEX
  5
2849E
  8
0
 62
7
 10
46.165110743684409
 20
34.533566812445123
 70
0
  0
SEQEND
  5
2849F
  8
0
  0
POLYLINE
  5
284A0
  8
0
 62
7
 66
1
 70
0
 10
0
 20
0
 30
0
  0
VERTEX
  5
284A1
  8
0
 62
7
 10
46.630887653290159
 20
29.326304986489991
 70
0
  0
VERTEX
  5
284A2
  8
0
 62
7
 10
46.714947983130259
 20
29.581069797624188
 70
0
  0
VERTEX
  5
284A3
  8
0
 62
7
 10
46.800386351164462
 20
29.8346288253386
 70
0
  0
VERTEX
  5
284A4
  8
0
 62
7
 10
46.841727496987453
 20
30.088187853052968
 70
0
  0
VERTEX
  5
284A5
  8
0
 62
7
 10
46.927165865021657
 20
30.384638319558722
 70
0
  0
VERTEX
  5
284A6
  8
0
 62
7
 10
46.969885049038773
 20
30.639403130692951
 70
0
  0
VERTEX
  5
284A7
  8
0
 62
7
 10
47.011226194861763
 20
30.892962158407329
 70
0
  0
SEQEND
  5
284A8
  8
0
  0
POLYLINE
  5
284A9
  8
0
 62
7
 66
1
 70
0
 10
0
 20
0
 30
0
  0
VERTEX
  5
284AA
  8
0
 62
7
 10
46.377328625575778
 20
36.141909639734
 70
0
  0
VERTEX
  5
284AB
  8
0
 62
7
 10
46.630887653290159
 20
37.15752378878566
 70
0
  0
SEQEND
  5
284AC
  8
0
  0
POLYLINE
  5
284AD
  8
0
 62
7
 66
1
 70
0
 10
0
 20
0
 30
0
  0
VERTEX
  5
284AE
  8
0
 62
7
 10
45.360336438330023
 20
29.072573704001311
 70
0
  0
VERTEX
  5
284AF
  8
0
 62
7
 10
45.403055622347132
 20
29.326304986489991
 70
0
  0
VERTEX
  5
284B0
  8
0
 62
7
 10
45.487115952187217
 20
29.581069797624188
 70
0
  0
VERTEX
  5
284B1
  8
0
 62
7
 10
45.529835136204319
 20
29.8346288253386
 70
0
  0
VERTEX
  5
284B2
  8
0
 62
7
 10
45.61527350423853
 20
30.047018962004248
 70
0
  0
VERTEX
  5
284B3
  8
0
 62
7
 10
45.656614650061528
 20
30.30023348017011
 70
0
  0
VERTEX
  5
284B4
  8
0
 62
7
 10
45.699333834078629
 20
30.553964762658751
 70
0
  0
SEQEND
  5
284B5
  8
0
  0
POLYLINE
  5
284B6
  8
0
 62
7
 66
1
 70
0
 10
0
 20
0
 30
0
  0
VERTEX
  5
284B7
  8
0
 62
7
 10
47.942780014073321
 20
36.989403129105462
 70
0
  0
VERTEX
  5
284B8
  8
0
 62
7
 10
47.900060830056212
 20
36.819904431231151
 70
0
  0
VERTEX
  5
284B9
  8
0
 62
7
 10
47.858719684233222
 20
36.692952662599708
 70
0
  0
VERTEX
  5
284BA
  8
0
 62
7
 10
47.816000500216113
 20
36.564967365322673
 70
0
  0
VERTEX
  5
284BB
  8
0
 62
7
 10
47.816000500216113
 20
36.397018960416752
 70
0
  0
VERTEX
  5
284BC
  8
0
 62
7
 10
47.773281316199018
 20
36.268516898816927
 70
0
  0
VERTEX
  5
284BD
  8
0
 62
7
 10
47.773281316199018
 20
36.141909639734
 70
0
  0
SEQEND
  5
284BE
  8
0
  0
POLYLINE
  5
284BF
  8
0
 62
7
 66
1
 70
0
 10
0
 20
0
 30
0
  0
VERTEX
  5
284C0
  8
0
 62
7
 10
46.291890257541581
 20
28.394578912504159
 70
0
  0
VERTEX
  5
284C1
  8
0
 62
7
 10
46.377328625575778
 20
28.563905355604192
 70
0
  0
VERTEX
  5
284C2
  8
0
 62
7
 10
46.418669771398783
 20
28.690857124235642
 70
0
  0
VERTEX
  5
284C3
  8
0
 62
7
 10
46.504108139432979
 20
28.860183567335671
 70
0
  0
VERTEX
  5
284C4
  8
0
 62
7
 10
46.545449285255977
 20
29.029854519984209
 70
0
  0
VERTEX
  5
284C5
  8
0
 62
7
 10
46.588168469273079
 20
29.199353217858519
 70
0
  0
VERTEX
  5
284C6
  8
0
 62
7
 10
46.630887653290159
 20
29.326304986489991
 70
0
  0
SEQEND
  5
284C7
  8
0
  0
POLYLINE
  5
284C8
  8
0
 62
7
 66
1
 70
0
 10
0
 20
0
 30
0
  0
VERTEX
  5
284C9
  8
0
 62
7
 10
40.830724894323531
 20
32.290292887224673
 70
0
  0
VERTEX
  5
284CA
  8
0
 62
7
 10
40.789383748500541
 20
32.204854519190462
 70
0
  0
VERTEX
  5
284CB
  8
0
 62
7
 10
40.789383748500541
 20
32.077902750559019
 70
0
  0
VERTEX
  5
284CC
  8
0
 62
7
 10
40.789383748500541
 20
31.99401467549319
 70
0
  0
VERTEX
  5
284CD
  8
0
 62
7
 10
40.746664564483432
 20
31.865857123441881
 70
0
  0
VERTEX
  5
284CE
  8
0
 62
7
 10
40.703945380466358
 20
31.738905354810441
 70
0
  0
VERTEX
  5
284CF
  8
0
 62
7
 10
40.703945380466358
 20
31.61229809572751
 70
0
  0
SEQEND
  5
284D0
  8
0
  0
POLYLINE
  5
284D1
  8
0
 62
7
 66
1
 70
0
 10
0
 20
0
 30
0
  0
VERTEX
  5
284D2
  8
0
 62
7
 10
39.73105041543181
 20
32.163685628141742
 70
0
  0
VERTEX
  5
284D3
  8
0
 62
7
 10
39.688331231414708
 20
31.569578911710408
 70
0
  0
VERTEX
  5
284D4
  8
0
 62
7
 10
39.645612047397613
 20
30.976850233473161
 70
0
  0
VERTEX
  5
284D5
  8
0
 62
7
 10
39.688331231414708
 20
30.384638319558722
 70
0
  0
VERTEX
  5
284D6
  8
0
 62
7
 10
39.772391561254807
 20
29.8346288253386
 70
0
  0
VERTEX
  5
284D7
  8
0
 62
7
 10
39.89917107511198
 20
29.241900147101351
 70
0
  0
VERTEX
  5
284D8
  8
0
 62
7
 10
40.068669772986283
 20
28.690857124235642
 70
0
  0
SEQEND
  5
284D9
  8
0
  0
POLYLINE
  5
284DA
  8
0
 62
7
 66
1
 70
0
 10
0
 20
0
 30
0
  0
VERTEX
  5
284DB
  8
0
 62
7
 10
39.941890259129082
 20
33.222018961210487
 70
0
  0
VERTEX
  5
284DC
  8
0
 62
7
 10
39.89917107511198
 20
33.05234800856195
 70
0
  0
VERTEX
  5
284DD
  8
0
 62
7
 10
39.815110745271909
 20
32.883021565461917
 70
0
  0
VERTEX
  5
284DE
  8
0
 62
7
 10
39.815110745271909
 20
32.670631428796241
 70
0
  0
VERTEX
  5
284DF
  8
0
 62
7
 10
39.772391561254807
 20
32.501304985696237
 70
0
  0
VERTEX
  5
284E0
  8
0
 62
7
 10
39.772391561254807
 20
32.331634033047671
 70
0
  0
VERTEX
  5
284E1
  8
0
 62
7
 10
39.73105041543181
 20
32.163685628141742
 70
0
  0
SEQEND
  5
284E2
  8
0
  0
POLYLINE
  5
284E3
  8
0
 62
7
 66
1
 70
0
 10
0
 20
0
 30
0
  0
VERTEX
  5
284E4
  8
0
 62
7
 10
50.144885048245023
 20
39.190302379857322
 70
0
  0
VERTEX
  5
284E5
  8
0
 62
7
 10
50.610661957850787
 20
39.274190454923144
 70
0
  0
SEQEND
  5
284E6
  8
0
  0
POLYLINE
  5
284E7
  8
0
 62
7
 66
1
 70
0
 10
0
 20
0
 30
0
  0
VERTEX
  5
284E8
  8
0
 62
7
 10
46.884446681004562
 20
38.047736462174221
 70
0
  0
VERTEX
  5
284E9
  8
0
 62
7
 10
46.841727496987453
 20
37.919578910122908
 70
0
  0
VERTEX
  5
284EA
  8
0
 62
7
 10
46.800386351164462
 20
37.751285995668439
 70
0
  0
VERTEX
  5
284EB
  8
0
 62
7
 10
46.757667167147353
 20
37.623300698391432
 70
0
  0
VERTEX
  5
284EC
  8
0
 62
7
 10
46.673606837307261
 20
37.455352293485511
 70
0
  0
VERTEX
  5
284ED
  8
0
 62
7
 10
46.630887653290159
 20
37.285681340836931
 70
0
  0
VERTEX
  5
284EE
  8
0
 62
7
 10
46.630887653290159
 20
37.15752378878566
 70
0
  0
SEQEND
  5
284EF
  8
0
  0
POLYLINE
  5
284F0
  8
0
 62
7
 66
1
 70
0
 10
0
 20
0
 30
0
  0
VERTEX
  5
284F1
  8
0
 62
7
 10
40.703945380466358
 20
31.61229809572751
 70
0
  0
VERTEX
  5
284F2
  8
0
 62
7
 10
40.703945380466358
 20
31.35856681323887
 70
0
  0
VERTEX
  5
284F3
  8
0
 62
7
 10
40.703945380466358
 20
31.105352295073011
 70
0
  0
VERTEX
  5
284F4
  8
0
 62
7
 10
40.703945380466358
 20
30.80752379037316
 70
0
  0
VERTEX
  5
284F5
  8
0
 62
7
 10
40.703945380466358
 20
30.553964762658751
 70
0
  0
VERTEX
  5
284F6
  8
0
 62
7
 10
40.703945380466358
 20
30.257686550927279
 70
0
  0
VERTEX
  5
284F7
  8
0
 62
7
 10
40.746664564483432
 20
30.003955268438631
 70
0
  0
SEQEND
  5
284F8
  8
0
  0
POLYLINE
  5
284F9
  8
0
 62
7
 66
1
 70
0
 10
0
 20
0
 30
0
  0
VERTEX
  5
284FA
  8
0
 62
7
 10
48.535336437536273
 20
40.0789647602775
 70
0
  0
VERTEX
  5
284FB
  8
0
 62
7
 10
48.831614649267777
 20
39.909638317177468
 70
0
  0
SEQEND
  5
284FC
  8
0
  0
POLYLINE
  5
284FD
  8
0
 62
7
 66
1
 70
0
 10
0
 20
0
 30
0
  0
VERTEX
  5
284FE
  8
0
 62
7
 10
45.02271708077555
 20
28.267971653421231
 70
0
  0
VERTEX
  5
284FF
  8
0
 62
7
 10
45.106777410615649
 20
28.394578912504159
 70
0
  0
VERTEX
  5
28500
  8
0
 62
7
 10
45.149496594632751
 20
28.522736464555429
 70
0
  0
VERTEX
  5
28501
  8
0
 62
7
 10
45.190837740455748
 20
28.649688233186911
 70
0
  0
VERTEX
  5
28502
  8
0
 62
7
 10
45.276276108489917
 20
28.81901467628694
 70
0
  0
VERTEX
  5
28503
  8
0
 62
7
 10
45.276276108489917
 20
28.945621935369871
 70
0
  0
VERTEX
  5
28504
  8
0
 62
7
 10
45.360336438330023
 20
29.072573704001311
 70
0
  0
SEQEND
  5
28505
  8
0
  0
POLYLINE
  5
28506
  8
0
 62
7
 66
1
 70
0
 10
0
 20
0
 30
0
  0
VERTEX
  5
28507
  8
0
 62
7
 10
45.911551715970013
 20
27.591354900118152
 70
0
  0
VERTEX
  5
28508
  8
0
 62
7
 10
45.9956120458101
 20
27.717962159201079
 70
0
  0
VERTEX
  5
28509
  8
0
 62
7
 10
46.0383312298272
 20
27.84456941828401
 70
0
  0
VERTEX
  5
2850A
  8
0
 62
7
 10
46.1223915596673
 20
28.01424037093259
 70
0
  0
VERTEX
  5
2850B
  8
0
 62
7
 10
46.165110743684409
 20
28.14101988478976
 70
0
  0
VERTEX
  5
2850C
  8
0
 62
7
 10
46.249171073524472
 20
28.267971653421231
 70
0
  0
VERTEX
  5
2850D
  8
0
 62
7
 10
46.291890257541581
 20
28.394578912504159
 70
0
  0
SEQEND
  5
2850E
  8
0
  0
POLYLINE
  5
2850F
  8
0
 62
7
 66
1
 70
0
 10
0
 20
0
 30
0
  0
VERTEX
  5
28510
  8
0
 62
7
 10
41.042942776214943
 20
35.9310697960367
 70
0
  0
VERTEX
  5
28511
  8
0
 62
7
 10
40.916163262357742
 20
36.353955266851131
 70
0
  0
VERTEX
  5
28512
  8
0
 62
7
 10
40.703945380466358
 20
36.819904431231151
 70
0
  0
VERTEX
  5
28513
  8
0
 62
7
 10
40.450386352751963
 20
37.242962156819829
 70
0
  0
VERTEX
  5
28514
  8
0
 62
7
 10
40.195449286843477
 20
37.666019882408513
 70
0
  0
VERTEX
  5
28515
  8
0
 62
7
 10
39.89917107511198
 20
38.047736462174221
 70
0
  0
VERTEX
  5
28516
  8
0
 62
7
 10
39.5188325335404
 20
38.427902748971519
 70
0
  0
SEQEND
  5
28517
  8
0
  0
POLYLINE
  5
28518
  8
0
 62
7
 66
1
 70
0
 10
0
 20
0
 30
0
  0
VERTEX
  5
28519
  8
0
 62
7
 10
41.127003106055042
 20
33.60235750278207
 70
0
  0
VERTEX
  5
2851A
  8
0
 62
7
 10
41.169722290072137
 20
33.7716839458821
 70
0
  0
VERTEX
  5
2851B
  8
0
 62
7
 10
41.169722290072137
 20
33.941354898530648
 70
0
  0
VERTEX
  5
2851C
  8
0
 62
7
 10
41.212441474089218
 20
34.110681341630681
 70
0
  0
VERTEX
  5
2851D
  8
0
 62
7
 10
41.212441474089218
 20
34.280352294279247
 70
0
  0
VERTEX
  5
2851E
  8
0
 62
7
 10
41.212441474089218
 20
34.448300699185189
 70
0
  0
VERTEX
  5
2851F
  8
0
 62
7
 10
41.212441474089218
 20
34.57628599646219
 70
0
  0
SEQEND
  5
28520
  8
0
  0
POLYLINE
  5
28521
  8
0
 62
7
 66
1
 70
0
 10
0
 20
0
 30
0
  0
VERTEX
  5
28522
  8
0
 62
7
 10
40.068669772986283
 20
28.690857124235642
 70
0
  0
VERTEX
  5
28523
  8
0
 62
7
 10
40.195449286843477
 20
28.437298096521261
 70
0
  0
VERTEX
  5
28524
  8
0
 62
7
 10
40.280887654877652
 20
28.18356681403262
 70
0
  0
VERTEX
  5
28525
  8
0
 62
7
 10
40.407667168734861
 20
27.971521186915481
 70
0
  0
VERTEX
  5
28526
  8
0
 62
7
 10
40.534446682592062
 20
27.760681343218181
 70
0
  0
VERTEX
  5
28527
  8
0
 62
7
 10
40.703945380466358
 20
27.54863571610105
 70
0
  0
VERTEX
  5
28528
  8
0
 62
7
 10
40.830724894323531
 20
27.2949044336124
 70
0
  0
SEQEND
  5
28529
  8
0
  0
POLYLINE
  5
2852A
  8
0
 62
7
 66
1
 70
0
 10
0
 20
0
 30
0
  0
VERTEX
  5
2852B
  8
0
 62
7
 10
41.212441474089218
 20
34.57628599646219
 70
0
  0
VERTEX
  5
2852C
  8
0
 62
7
 10
41.212441474089218
 20
34.830017278950862
 70
0
  0
VERTEX
  5
2852D
  8
0
 62
7
 10
41.212441474089218
 20
35.040857122648141
 70
0
  0
VERTEX
  5
2852E
  8
0
 62
7
 10
41.169722290072137
 20
35.252902749765269
 70
0
  0
VERTEX
  5
2852F
  8
0
 62
7
 10
41.169722290072137
 20
35.465292886430923
 70
0
  0
VERTEX
  5
28530
  8
0
 62
7
 10
41.085661960232038
 20
35.718851914145318
 70
0
  0
VERTEX
  5
28531
  8
0
 62
7
 10
41.042942776214943
 20
35.930897541262432
 70
0
  0
SEQEND
  5
28532
  8
0
  0
POLYLINE
  5
28533
  8
0
 62
7
 66
1
 70
0
 10
0
 20
0
 30
0
  0
VERTEX
  5
28534
  8
0
 62
7
 10
40.746664564483432
 20
30.003955268438631
 70
0
  0
VERTEX
  5
28535
  8
0
 62
7
 10
40.789383748500541
 20
29.7919096413215
 70
0
  0
VERTEX
  5
28536
  8
0
 62
7
 10
40.830724894323531
 20
29.580897542849929
 70
0
  0
VERTEX
  5
28537
  8
0
 62
7
 10
40.916163262357742
 20
29.368851915732819
 70
0
  0
VERTEX
  5
28538
  8
0
 62
7
 10
40.957504408180739
 20
29.156634033841421
 70
0
  0
VERTEX
  5
28539
  8
0
 62
7
 10
41.042942776214943
 20
28.945621935369871
 70
0
  0
VERTEX
  5
2853A
  8
0
 62
7
 10
41.127003106055042
 20
28.73357630825274
 70
0
  0
SEQEND
  5
2853B
  8
0
  0
POLYLINE
  5
2853C
  8
0
 62
7
 66
1
 70
0
 10
0
 20
0
 30
0
  0
VERTEX
  5
2853D
  8
0
 62
7
 10
48.451276107696167
 20
40.1216839442946
 70
0
  0
VERTEX
  5
2853E
  8
0
 62
7
 10
48.535336437536273
 20
40.0789647602775
 70
0
  0
SEQEND
  5
2853F
  8
0
  0
POLYLINE
  5
28540
  8
0
 62
7
 66
1
 70
0
 10
0
 20
0
 30
0
  0
VERTEX
  5
28541
  8
0
 62
7
 10
40.027328627163278
 20
35.9310697960367
 70
0
  0
VERTEX
  5
28542
  8
0
 62
7
 10
39.89917107511198
 20
36.268516898816927
 70
0
  0
VERTEX
  5
28543
  8
0
 62
7
 10
39.73105041543181
 20
36.607686549339782
 70
0
  0
VERTEX
  5
28544
  8
0
 62
7
 10
39.561551717557514
 20
36.903964761071251
 70
0
  0
VERTEX
  5
28545
  8
0
 62
7
 10
39.34933383566613
 20
37.200242972802727
 70
0
  0
VERTEX
  5
28546
  8
0
 62
7
 10
39.137115953774732
 20
37.496521184534231
 70
0
  0
VERTEX
  5
28547
  8
0
 62
7
 10
38.883556926060351
 20
37.751285995668439
 70
0
  0
SEQEND
  5
28548
  8
0
  0
POLYLINE
  5
28549
  8
0
 62
7
 66
1
 70
0
 10
0
 20
0
 30
0
  0
VERTEX
  5
2854A
  8
0
 62
7
 10
41.127003106055042
 20
28.73357630825274
 70
0
  0
VERTEX
  5
2854B
  8
0
 62
7
 10
41.212441474089218
 20
28.563905355604192
 70
0
  0
VERTEX
  5
2854C
  8
0
 62
7
 10
41.29650180392931
 20
28.394578912504159
 70
0
  0
VERTEX
  5
2854D
  8
0
 62
7
 10
41.423281317786518
 20
28.22628599804969
 70
0
  0
VERTEX
  5
2854E
  8
0
 62
7
 10
41.508719685820722
 20
28.056959554949682
 70
0
  0
VERTEX
  5
2854F
  8
0
 62
7
 10
41.592780015660807
 20
27.930352295866729
 70
0
  0
VERTEX
  5
28550
  8
0
 62
7
 10
41.719559529517987
 20
27.760681343218181
 70
0
  0
SEQEND
  5
28551
  8
0
  0
POLYLINE
  5
28552
  8
0
 62
7
 66
1
 70
0
 10
0
 20
0
 30
0
  0
VERTEX
  5
28553
  8
0
 62
7
 10
48.324496593839
 20
37.919578910122908
 70
0
  0
VERTEX
  5
28554
  8
0
 62
7
 10
48.2817774098219
 20
37.751285995668439
 70
0
  0
VERTEX
  5
28555
  8
0
 62
7
 10
48.1977170799818
 20
37.623300698391432
 70
0
  0
VERTEX
  5
28556
  8
0
 62
7
 10
48.112278711947589
 20
37.455352293485511
 70
0
  0
VERTEX
  5
28557
  8
0
 62
7
 10
48.0695595279305
 20
37.285681340836931
 70
0
  0
VERTEX
  5
28558
  8
0
 62
7
 10
47.985499198090423
 20
37.1163548977369
 70
0
  0
VERTEX
  5
28559
  8
0
 62
7
 10
47.942780014073321
 20
36.989403129105462
 70
0
  0
SEQEND
  5
2855A
  8
0
  0
POLYLINE
  5
2855B
  8
0
 62
7
 66
1
 70
0
 10
0
 20
0
 30
0
  0
VERTEX
  5
2855C
  8
0
 62
7
 10
40.154108141020487
 20
34.025242973596477
 70
0
  0
VERTEX
  5
2855D
  8
0
 62
7
 10
40.195449286843477
 20
34.321521185327981
 70
0
  0
VERTEX
  5
2855E
  8
0
 62
7
 10
40.238168470860593
 20
34.660690835850829
 70
0
  0
VERTEX
  5
2855F
  8
0
 62
7
 10
40.195449286843477
 20
34.999688231599407
 70
0
  0
VERTEX
  5
28560
  8
0
 62
7
 10
40.195449286843477
 20
35.295621933782371
 70
0
  0
VERTEX
  5
28561
  8
0
 62
7
 10
40.111388957003378
 20
35.634619329530949
 70
0
  0
VERTEX
  5
28562
  8
0
 62
7
 10
40.027328627163278
 20
35.9310697960367
 70
0
  0
SEQEND
  5
28563
  8
0
  0
POLYLINE
  5
28564
  8
0
 62
7
 66
1
 70
0
 10
0
 20
0
 30
0
  0
VERTEX
  5
28565
  8
0
 62
7
 10
43.329108140226737
 20
26.1096193319122
 70
0
  0
VERTEX
  5
28566
  8
0
 62
7
 10
43.455887654083909
 20
26.1096193319122
 70
0
  0
VERTEX
  5
28567
  8
0
 62
7
 10
43.539947983924009
 20
26.1096193319122
 70
0
  0
VERTEX
  5
28568
  8
0
 62
7
 10
43.625386351958213
 20
26.1096193319122
 70
0
  0
VERTEX
  5
28569
  8
0
 62
7
 10
43.752165865815407
 20
26.151304987283741
 70
0
  0
VERTEX
  5
2856A
  8
0
 62
7
 10
43.878945379672622
 20
26.151304987283741
 70
0
  0
VERTEX
  5
2856B
  8
0
 62
7
 10
43.96438374770679
 20
26.193851916526569
 70
0
  0
SEQEND
  5
2856C
  8
0
  0
POLYLINE
  5
2856D
  8
0
 62
7
 66
1
 70
0
 10
0
 20
0
 30
0
  0
VERTEX
  5
2856E
  8
0
 62
7
 10
40.830724894323531
 20
27.2949044336124
 70
0
  0
VERTEX
  5
2856F
  8
0
 62
7
 10
41.000223592197841
 20
27.12523348096386
 70
0
  0
VERTEX
  5
28570
  8
0
 62
7
 10
41.169722290072137
 20
26.955907037863831
 70
0
  0
VERTEX
  5
28571
  8
0
 62
7
 10
41.339220987946412
 20
26.786236085215279
 70
0
  0
VERTEX
  5
28572
  8
0
 62
7
 10
41.508719685820722
 20
26.659628826132352
 70
0
  0
VERTEX
  5
28573
  8
0
 62
7
 10
41.719559529517987
 20
26.53302156704942
 70
0
  0
VERTEX
  5
28574
  8
0
 62
7
 10
41.9317774114094
 20
26.406069798417949
 70
0
  0
SEQEND
  5
28575
  8
0
  0
POLYLINE
  5
28576
  8
0
 62
7
 66
1
 70
0
 10
0
 20
0
 30
0
  0
VERTEX
  5
28577
  8
0
 62
7
 10
43.96438374770679
 20
26.194024171300811
 70
0
  0
VERTEX
  5
28578
  8
0
 62
7
 10
44.132504407386989
 20
26.236571100543671
 70
0
  0
VERTEX
  5
28579
  8
0
 62
7
 10
44.344722289278387
 20
26.277912246366672
 70
0
  0
VERTEX
  5
2857A
  8
0
 62
7
 10
44.514220987152669
 20
26.36335061440084
 70
0
  0
VERTEX
  5
2857B
  8
0
 62
7
 10
44.725060830849962
 20
26.447238689466669
 70
0
  0
VERTEX
  5
2857C
  8
0
 62
7
 10
44.894559528724237
 20
26.53302156704942
 70
0
  0
VERTEX
  5
2857D
  8
0
 62
7
 10
45.02271708077555
 20
26.659628826132352
 70
0
  0
SEQEND
  5
2857E
  8
0
  0
POLYLINE
  5
2857F
  8
0
 62
7
 66
1
 70
0
 10
0
 20
0
 30
0
  0
VERTEX
  5
28580
  8
0
 62
7
 10
41.9317774114094
 20
26.406069798417949
 70
0
  0
VERTEX
  5
28581
  8
0
 62
7
 10
42.143995293300769
 20
26.277912246366672
 70
0
  0
VERTEX
  5
28582
  8
0
 62
7
 10
42.354835136998069
 20
26.236571100543671
 70
0
  0
VERTEX
  5
28583
  8
0
 62
7
 10
42.608394164712443
 20
26.151304987283741
 70
0
  0
VERTEX
  5
28584
  8
0
 62
7
 10
42.86333123062095
 20
26.1096193319122
 70
0
  0
VERTEX
  5
28585
  8
0
 62
7
 10
43.07417107431823
 20
26.1096193319122
 70
0
  0
VERTEX
  5
28586
  8
0
 62
7
 10
43.329108140226737
 20
26.1096193319122
 70
0
  0
SEQEND
  5
28587
  8
0
  0
POLYLINE
  5
28588
  8
0
 62
7
 66
1
 70
0
 10
0
 20
0
 30
0
  0
VERTEX
  5
28589
  8
0
 62
7
 10
41.719559529517987
 20
27.760681343218181
 70
0
  0
VERTEX
  5
2858A
  8
0
 62
7
 10
41.8477170815693
 20
27.6325237911669
 70
0
  0
VERTEX
  5
2858B
  8
0
 62
7
 10
41.9744965954265
 20
27.54863571610105
 70
0
  0
VERTEX
  5
2858C
  8
0
 62
7
 10
42.101276109283667
 20
27.4216839474696
 70
0
  0
VERTEX
  5
2858D
  8
0
 62
7
 10
42.228055623140868
 20
27.3362455794354
 70
0
  0
VERTEX
  5
2858E
  8
0
 62
7
 10
42.354835136998069
 20
27.2521852495953
 70
0
  0
VERTEX
  5
2858F
  8
0
 62
7
 10
42.481614650855271
 20
27.167952664980959
 70
0
  0
VERTEX
  5
28590
  8
0
 62
7
 10
42.608394164712443
 20
27.12523348096386
 70
0
  0
VERTEX
  5
28591
  8
0
 62
7
 10
42.736551716763749
 20
27.03996736770392
 70
0
  0
VERTEX
  5
28592
  8
0
 62
7
 10
42.86333123062095
 20
26.998626221880929
 70
0
  0
VERTEX
  5
28593
  8
0
 62
7
 10
42.990110744478159
 20
26.998626221880929
 70
0
  0
VERTEX
  5
28594
  8
0
 62
7
 10
43.159609442352433
 20
26.955907037863831
 70
0
  0
VERTEX
  5
28595
  8
0
 62
7
 10
43.286388956209628
 20
26.913187853846718
 70
0
  0
VERTEX
  5
28596
  8
0
 62
7
 10
43.370449286049727
 20
26.913187853846718
 70
0
  0
VERTEX
  5
28597
  8
0
 62
7
 10
43.455887654083909
 20
26.955907037863831
 70
0
  0
VERTEX
  5
28598
  8
0
 62
7
 10
43.498606838101011
 20
26.955907037863831
 70
0
  0
VERTEX
  5
28599
  8
0
 62
7
 10
43.582667167941111
 20
26.955907037863831
 70
0
  0
VERTEX
  5
2859A
  8
0
 62
7
 10
43.6667274977812
 20
26.998626221880929
 70
0
  0
VERTEX
  5
2859B
  8
0
 62
7
 10
43.752165865815407
 20
26.998626221880929
 70
0
  0
SEQEND
  5
2859C
  8
0
  0
POLYLINE
  5
2859D
  8
0
 62
7
 66
1
 70
0
 10
0
 20
0
 30
0
  0
VERTEX
  5
2859E
  8
0
 62
7
 10
50.778782617530958
 20
15.31424037410758
 70
0
  0
VERTEX
  5
2859F
  8
0
 62
7
 10
50.652003103673792
 20
16.669024173682061
 70
0
  0
SEQEND
  5
285A0
  8
0
  0
POLYLINE
  5
285A1
  8
0
 62
7
 66
1
 70
0
 10
0
 20
0
 30
0
  0
VERTEX
  5
285A2
  8
0
 62
7
 10
39.941890259129082
 20
33.222018961210487
 70
0
  0
VERTEX
  5
285A3
  8
0
 62
7
 10
40.154108141020487
 20
34.025242973596477
 70
0
  0
SEQEND
  5
285A4
  8
0
  0
POLYLINE
  5
285A5
  8
0
 62
7
 66
1
 70
0
 10
0
 20
0
 30
0
  0
VERTEX
  5
285A6
  8
0
 62
7
 10
49.21333122903345
 20
39.698626218705932
 70
0
  0
VERTEX
  5
285A7
  8
0
 62
7
 10
49.170612045016348
 20
39.698626218705932
 70
0
  0
VERTEX
  5
285A8
  8
0
 62
7
 10
49.086551715176263
 20
39.782686548546017
 70
0
  0
VERTEX
  5
285A9
  8
0
 62
7
 10
49.043832531159147
 20
39.825233477788863
 70
0
  0
VERTEX
  5
285AA
  8
0
 62
7
 10
48.95839416312495
 20
39.825233477788863
 70
0
  0
VERTEX
  5
285AB
  8
0
 62
7
 10
48.917053017301953
 20
39.867952661805958
 70
0
  0
VERTEX
  5
285AC
  8
0
 62
7
 10
48.831614649267777
 20
39.909638317177468
 70
0
  0
SEQEND
  5
285AD
  8
0
  0
POLYLINE
  5
285AE
  8
0
 62
7
 66
1
 70
0
 10
0
 20
0
 30
0
  0
VERTEX
  5
285AF
  8
0
 62
7
 10
36.640110746065659
 20
39.06335061122585
 70
0
  0
VERTEX
  5
285B0
  8
0
 62
7
 10
36.682829930082733
 20
39.06335061122585
 70
0
  0
VERTEX
  5
285B1
  8
0
 62
7
 10
36.72417107590573
 20
39.06335061122585
 70
0
  0
VERTEX
  5
285B2
  8
0
 62
7
 10
36.766890259922832
 20
39.105897540468668
 70
0
  0
VERTEX
  5
285B3
  8
0
 62
7
 10
36.766890259922832
 20
39.147238686291672
 70
0
  0
VERTEX
  5
285B4
  8
0
 62
7
 10
36.852328627957043
 20
39.147238686291672
 70
0
  0
VERTEX
  5
285B5
  8
0
 62
7
 10
36.852328627957043
 20
39.190302379857322
 70
0
  0
SEQEND
  5
285B6
  8
0
  0
POLYLINE
  5
285B7
  8
0
 62
7
 66
1
 70
0
 10
0
 20
0
 30
0
  0
VERTEX
  5
285B8
  8
0
 62
7
 10
35.962115954568482
 20
39.233021563874424
 70
0
  0
VERTEX
  5
285B9
  8
0
 62
7
 10
36.004835138585577
 20
39.190302379857322
 70
0
  0
VERTEX
  5
285BA
  8
0
 62
7
 10
36.047554322602679
 20
39.190302379857322
 70
0
  0
VERTEX
  5
285BB
  8
0
 62
7
 10
36.047554322602679
 20
39.147238686291672
 70
0
  0
VERTEX
  5
285BC
  8
0
 62
7
 10
36.090273506619781
 20
39.147238686291672
 70
0
  0
SEQEND
  5
285BD
  8
0
  0
POLYLINE
  5
285BE
  8
0
 62
7
 66
1
 70
0
 10
0
 20
0
 30
0
  0
VERTEX
  5
285BF
  8
0
 62
7
 10
49.382829926907732
 20
39.572018959622987
 70
0
  0
VERTEX
  5
285C0
  8
0
 62
7
 10
49.340110742890658
 20
39.572018959622987
 70
0
  0
VERTEX
  5
285C1
  8
0
 62
7
 10
49.340110742890658
 20
39.613187850671721
 70
0
  0
VERTEX
  5
285C2
  8
0
 62
7
 10
49.297391558873557
 20
39.613187850671721
 70
0
  0
VERTEX
  5
285C3
  8
0
 62
7
 10
49.256050413050559
 20
39.655907034688823
 70
0
  0
VERTEX
  5
285C4
  8
0
 62
7
 10
49.21333122903345
 20
39.698626218705932
 70
0
  0
SEQEND
  5
285C5
  8
0
  0
POLYLINE
  5
285C6
  8
0
 62
7
 66
1
 70
0
 10
0
 20
0
 30
0
  0
VERTEX
  5
285C7
  8
0
 62
7
 10
36.090273506619781
 20
39.147238686291672
 70
0
  0
VERTEX
  5
285C8
  8
0
 62
7
 10
36.131614652442778
 20
39.106069795242952
 70
0
  0
VERTEX
  5
285C9
  8
0
 62
7
 10
36.17433383645988
 20
39.06335061122585
 70
0
  0
VERTEX
  5
285CA
  8
0
 62
7
 10
36.217053020476961
 20
39.06335061122585
 70
0
  0
VERTEX
  5
285CB
  8
0
 62
7
 10
36.258394166299951
 20
39.020631427208741
 70
0
  0
VERTEX
  5
285CC
  8
0
 62
7
 10
36.301113350317053
 20
39.020631427208741
 70
0
  0
VERTEX
  5
285CD
  8
0
 62
7
 10
36.343832534334162
 20
39.020631427208741
 70
0
  0
SEQEND
  5
285CE
  8
0
  0
POLYLINE
  5
285CF
  8
0
 62
7
 66
1
 70
0
 10
0
 20
0
 30
0
  0
VERTEX
  5
285D0
  8
0
 62
7
 10
38.121501804723067
 20
40.460681340043173
 70
0
  0
VERTEX
  5
285D1
  8
0
 62
7
 10
38.121501804723067
 20
40.460681340043173
 70
0
  0
VERTEX
  5
285D2
  8
0
 62
7
 10
38.078782620705972
 20
40.417962156026078
 70
0
  0
VERTEX
  5
285D3
  8
0
 62
7
 10
38.037441474882968
 20
40.375242972008976
 70
0
  0
VERTEX
  5
285D4
  8
0
 62
7
 10
38.037441474882968
 20
40.3325237879919
 70
0
  0
VERTEX
  5
285D5
  8
0
 62
7
 10
38.037441474882968
 20
40.29135489694314
 70
0
  0
SEQEND
  5
285D6
  8
0
  0
POLYLINE
  5
285D7
  8
0
 62
7
 66
1
 70
0
 10
0
 20
0
 30
0
  0
VERTEX
  5
285D8
  8
0
 62
7
 10
38.248281318580268
 20
40.883566810857623
 70
0
  0
VERTEX
  5
285D9
  8
0
 62
7
 10
38.206940172757271
 20
40.96797165024622
 70
0
  0
VERTEX
  5
285DA
  8
0
 62
7
 10
38.164220988740169
 20
41.010690834263329
 70
0
  0
VERTEX
  5
285DB
  8
0
 62
7
 10
38.164220988740169
 20
41.053237763506161
 70
0
  0
VERTEX
  5
285DC
  8
0
 62
7
 10
38.121501804723067
 20
41.094578909329151
 70
0
  0
VERTEX
  5
285DD
  8
0
 62
7
 10
38.078782620705972
 20
41.180017277363362
 70
0
  0
VERTEX
  5
285DE
  8
0
 62
7
 10
38.037441474882968
 20
41.222736461380457
 70
0
  0
SEQEND
  5
285DF
  8
0
  0
POLYLINE
  5
285E0
  8
0
 62
7
 66
1
 70
0
 10
0
 20
0
 30
0
  0
VERTEX
  5
285E1
  8
0
 62
7
 10
38.121501804723067
 20
40.460681340043173
 70
0
  0
VERTEX
  5
285E2
  8
0
 62
7
 10
38.164220988740169
 20
40.544569415109009
 70
0
  0
VERTEX
  5
285E3
  8
0
 62
7
 10
38.164220988740169
 20
40.587288599126111
 70
0
  0
VERTEX
  5
285E4
  8
0
 62
7
 10
38.206940172757271
 20
40.630352292691747
 70
0
  0
VERTEX
  5
285E5
  8
0
 62
7
 10
38.206940172757271
 20
40.671521183740481
 70
0
  0
VERTEX
  5
285E6
  8
0
 62
7
 10
38.248281318580268
 20
40.714240367757583
 70
0
  0
VERTEX
  5
285E7
  8
0
 62
7
 10
38.248281318580268
 20
40.798300697597682
 70
0
  0
VERTEX
  5
285E8
  8
0
 62
7
 10
38.248281318580268
 20
40.840847626840507
 70
0
  0
VERTEX
  5
285E9
  8
0
 62
7
 10
38.248281318580268
 20
40.883566810857623
 70
0
  0
SEQEND
  5
285EA
  8
0
  0
POLYLINE
  5
285EB
  8
0
 62
7
 66
1
 70
0
 10
0
 20
0
 30
0
  0
VERTEX
  5
285EC
  8
0
 62
7
 10
36.343832534334162
 20
39.020631427208741
 70
0
  0
VERTEX
  5
285ED
  8
0
 62
7
 10
36.386551718351257
 20
39.020631427208741
 70
0
  0
VERTEX
  5
285EE
  8
0
 62
7
 10
36.427892864174247
 20
39.020631427208741
 70
0
  0
VERTEX
  5
285EF
  8
0
 62
7
 10
36.470612048191363
 20
39.020631427208741
 70
0
  0
VERTEX
  5
285F0
  8
0
 62
7
 10
36.513331232208458
 20
39.020631427208741
 70
0
  0
VERTEX
  5
285F1
  8
0
 62
7
 10
36.55605041622556
 20
39.020631427208741
 70
0
  0
VERTEX
  5
285F2
  8
0
 62
7
 10
36.597391562048557
 20
39.020631427208741
 70
0
  0
VERTEX
  5
285F3
  8
0
 62
7
 10
36.640110746065659
 20
39.06335061122585
 70
0
  0
SEQEND
  5
285F4
  8
0
  0
POLYLINE
  5
285F5
  8
0
 62
7
 66
1
 70
0
 10
0
 20
0
 30
0
  0
VERTEX
  5
285F6
  8
0
 62
7
 10
37.148606839688512
 20
39.190302379857322
 70
0
  0
VERTEX
  5
285F7
  8
0
 62
7
 10
37.10588765567141
 20
39.190302379857322
 70
0
  0
VERTEX
  5
285F8
  8
0
 62
7
 10
37.063168471654343
 20
39.190302379857322
 70
0
  0
VERTEX
  5
285F9
  8
0
 62
7
 10
37.020449287637241
 20
39.190302379857322
 70
0
  0
SEQEND
  5
285FA
  8
0
  0
POLYLINE
  5
285FB
  8
0
 62
7
 66
1
 70
0
 10
0
 20
0
 30
0
  0
VERTEX
  5
285FC
  8
0
 62
7
 10
38.037441474882968
 20
40.1644031283117
 70
0
  0
VERTEX
  5
285FD
  8
0
 62
7
 10
38.037441474882968
 20
40.1644031283117
 70
0
  0
VERTEX
  5
285FE
  8
0
 62
7
 10
38.037441474882968
 20
40.1216839442946
 70
0
  0
VERTEX
  5
285FF
  8
0
 62
7
 10
38.037441474882968
 20
40.0789647602775
 70
0
  0
SEQEND
  5
28600
  8
0
  0
POLYLINE
  5
28601
  8
0
 62
7
 66
1
 70
0
 10
0
 20
0
 30
0
  0
VERTEX
  5
28602
  8
0
 62
7
 10
49.466890256747831
 20
39.402348006974449
 70
0
  0
VERTEX
  5
28603
  8
0
 62
7
 10
49.466890256747831
 20
39.402348006974449
 70
0
  0
VERTEX
  5
28604
  8
0
 62
7
 10
49.466890256747831
 20
39.443516898023177
 70
0
  0
VERTEX
  5
28605
  8
0
 62
7
 10
49.424171072730722
 20
39.443516898023177
 70
0
  0
VERTEX
  5
28606
  8
0
 62
7
 10
49.424171072730722
 20
39.486236082040278
 70
0
  0
VERTEX
  5
28607
  8
0
 62
7
 10
49.382829926907732
 20
39.52895526605738
 70
0
  0
VERTEX
  5
28608
  8
0
 62
7
 10
49.382829926907732
 20
39.572018959622987
 70
0
  0
SEQEND
  5
28609
  8
0
  0
POLYLINE
  5
2860A
  8
0
 62
7
 66
1
 70
0
 10
0
 20
0
 30
0
  0
VERTEX
  5
2860B
  8
0
 62
7
 10
34.607504409768239
 20
40.587288599126111
 70
0
  0
VERTEX
  5
2860C
  8
0
 62
7
 10
34.607504409768239
 20
40.544569415109009
 70
0
  0
VERTEX
  5
2860D
  8
0
 62
7
 10
34.566163263945242
 20
40.544569415109009
 70
0
  0
VERTEX
  5
2860E
  8
0
 62
7
 10
34.566163263945242
 20
40.5018502310919
 70
0
  0
VERTEX
  5
2860F
  8
0
 62
7
 10
34.566163263945242
 20
40.460681340043173
 70
0
  0
VERTEX
  5
28610
  8
0
 62
7
 10
34.52344407992814
 20
40.460681340043173
 70
0
  0
VERTEX
  5
28611
  8
0
 62
7
 10
34.52344407992814
 20
40.417962156026078
 70
0
  0
VERTEX
  5
28612
  8
0
 62
7
 10
34.52344407992814
 20
40.375242972008976
 70
0
  0
SEQEND
  5
28613
  8
0
  0
POLYLINE
  5
28614
  8
0
 62
7
 66
1
 70
0
 10
0
 20
0
 30
0
  0
VERTEX
  5
28615
  8
0
 62
7
 10
38.037441474882968
 20
40.29135489694314
 70
0
  0
VERTEX
  5
28616
  8
0
 62
7
 10
38.037441474882968
 20
40.248635712926053
 70
0
  0
VERTEX
  5
28617
  8
0
 62
7
 10
38.037441474882968
 20
40.205572019360432
 70
0
  0
VERTEX
  5
28618
  8
0
 62
7
 10
38.037441474882968
 20
40.164230873537427
 70
0
  0
SEQEND
  5
28619
  8
0
  0
POLYLINE
  5
2861A
  8
0
 62
7
 66
1
 70
0
 10
0
 20
0
 30
0
  0
VERTEX
  5
2861B
  8
0
 62
7
 10
37.020449287637241
 20
39.190302379857322
 70
0
  0
VERTEX
  5
2861C
  8
0
 62
7
 10
37.020449287637241
 20
39.233021563874424
 70
0
  0
VERTEX
  5
2861D
  8
0
 62
7
 10
36.979108141814237
 20
39.233021563874424
 70
0
  0
VERTEX
  5
2861E
  8
0
 62
7
 10
36.979108141814237
 20
39.190302379857322
 70
0
  0
VERTEX
  5
2861F
  8
0
 62
7
 10
36.936388957797128
 20
39.190302379857322
 70
0
  0
VERTEX
  5
28620
  8
0
 62
7
 10
36.89366977378004
 20
39.190302379857322
 70
0
  0
VERTEX
  5
28621
  8
0
 62
7
 10
36.852328627957043
 20
39.190302379857322
 70
0
  0
SEQEND
  5
28622
  8
0
  0
POLYLINE
  5
28623
  8
0
 62
7
 66
1
 70
0
 10
0
 20
0
 30
0
  0
VERTEX
  5
28624
  8
0
 62
7
 10
34.52344407992814
 20
40.375242972008976
 70
0
  0
VERTEX
  5
28625
  8
0
 62
7
 10
34.52344407992814
 20
40.375242972008976
 70
0
  0
VERTEX
  5
28626
  8
0
 62
7
 10
34.52344407992814
 20
40.3325237879919
 70
0
  0
VERTEX
  5
28627
  8
0
 62
7
 10
34.52344407992814
 20
40.29135489694314
 70
0
  0
VERTEX
  5
28628
  8
0
 62
7
 10
34.566163263945242
 20
40.29135489694314
 70
0
  0
VERTEX
  5
28629
  8
0
 62
7
 10
34.566163263945242
 20
40.248635712926053
 70
0
  0
VERTEX
  5
2862A
  8
0
 62
7
 10
34.566163263945242
 20
40.205572019360432
 70
0
  0
VERTEX
  5
2862B
  8
0
 62
7
 10
34.607504409768239
 20
40.205572019360432
 70
0
  0
VERTEX
  5
2862C
  8
0
 62
7
 10
34.607504409768239
 20
40.1644031283117
 70
0
  0
VERTEX
  5
2862D
  8
0
 62
7
 10
34.650223593785341
 20
40.1644031283117
 70
0
  0
VERTEX
  5
2862E
  8
0
 62
7
 10
34.69294277780245
 20
40.1644031283117
 70
0
  0
VERTEX
  5
2862F
  8
0
 62
7
 10
34.735661961819552
 20
40.1644031283117
 70
0
  0
SEQEND
  5
28630
  8
0
  0
POLYLINE
  5
28631
  8
0
 62
7
 66
1
 70
0
 10
0
 20
0
 30
0
  0
VERTEX
  5
28632
  8
0
 62
7
 10
38.206940172757271
 20
39.020631427208741
 70
0
  0
VERTEX
  5
28633
  8
0
 62
7
 10
38.206940172757271
 20
39.020631427208741
 70
0
  0
VERTEX
  5
28634
  8
0
 62
7
 10
38.248281318580268
 20
39.020631427208741
 70
0
  0
VERTEX
  5
28635
  8
0
 62
7
 10
38.248281318580268
 20
39.06335061122585
 70
0
  0
VERTEX
  5
28636
  8
0
 62
7
 10
38.206940172757271
 20
39.06335061122585
 70
0
  0
VERTEX
  5
28637
  8
0
 62
7
 10
38.206940172757271
 20
39.105897540468668
 70
0
  0
SEQEND
  5
28638
  8
0
  0
POLYLINE
  5
28639
  8
0
 62
7
 66
1
 70
0
 10
0
 20
0
 30
0
  0
VERTEX
  5
2863A
  8
0
 62
7
 10
38.756777412203149
 20
38.513685626554228
 70
0
  0
VERTEX
  5
2863B
  8
0
 62
7
 10
38.756777412203149
 20
38.513685626554228
 70
0
  0
VERTEX
  5
2863C
  8
0
 62
7
 10
38.756777412203149
 20
38.554854517602962
 70
0
  0
VERTEX
  5
2863D
  8
0
 62
7
 10
38.756777412203149
 20
38.597573701620057
 70
0
  0
SEQEND
  5
2863E
  8
0
  0
POLYLINE
  5
2863F
  8
0
 62
7
 66
1
 70
0
 10
0
 20
0
 30
0
  0
VERTEX
  5
28640
  8
0
 62
7
 10
37.741163263151492
 20
38.7669001447201
 70
0
  0
VERTEX
  5
28641
  8
0
 62
7
 10
37.741163263151492
 20
38.7669001447201
 70
0
  0
VERTEX
  5
28642
  8
0
 62
7
 10
37.741163263151492
 20
38.724353215477258
 70
0
  0
VERTEX
  5
28643
  8
0
 62
7
 10
37.741163263151492
 20
38.68163403146017
 70
0
  0
VERTEX
  5
28644
  8
0
 62
7
 10
37.741163263151492
 20
38.640292885637173
 70
0
  0
SEQEND
  5
28645
  8
0
  0
POLYLINE
  5
28646
  8
0
 62
7
 66
1
 70
0
 10
0
 20
0
 30
0
  0
VERTEX
  5
28647
  8
0
 62
7
 10
38.29100050259737
 20
38.258576305871493
 70
0
  0
VERTEX
  5
28648
  8
0
 62
7
 10
38.29100050259737
 20
38.258576305871493
 70
0
  0
VERTEX
  5
28649
  8
0
 62
7
 10
38.248281318580268
 20
38.215857121854377
 70
0
  0
VERTEX
  5
2864A
  8
0
 62
7
 10
38.248281318580268
 20
38.174688230805657
 70
0
  0
VERTEX
  5
2864B
  8
0
 62
7
 10
38.29100050259737
 20
38.174688230805657
 70
0
  0
VERTEX
  5
2864C
  8
0
 62
7
 10
38.29100050259737
 20
38.131969046788562
 70
0
  0
SEQEND
  5
2864D
  8
0
  0
POLYLINE
  5
2864E
  8
0
 62
7
 66
1
 70
0
 10
0
 20
0
 30
0
  0
VERTEX
  5
2864F
  8
0
 62
7
 10
38.37506083243747
 20
38.851304984108737
 70
0
  0
VERTEX
  5
28650
  8
0
 62
7
 10
38.37506083243747
 20
38.851304984108737
 70
0
  0
VERTEX
  5
28651
  8
0
 62
7
 10
38.37506083243747
 20
38.8096193287372
 70
0
  0
VERTEX
  5
28652
  8
0
 62
7
 10
38.37506083243747
 20
38.7669001447201
 70
0
  0
SEQEND
  5
28653
  8
0
  0
POLYLINE
  5
28654
  8
0
 62
7
 66
1
 70
0
 10
0
 20
0
 30
0
  0
VERTEX
  5
28655
  8
0
 62
7
 10
38.883556926060351
 20
38.385183564954417
 70
0
  0
VERTEX
  5
28656
  8
0
 62
7
 10
38.883556926060351
 20
38.385183564954417
 70
0
  0
VERTEX
  5
28657
  8
0
 62
7
 10
38.840837742043249
 20
38.385183564954417
 70
0
  0
VERTEX
  5
28658
  8
0
 62
7
 10
38.840837742043249
 20
38.34401467390569
 70
0
  0
VERTEX
  5
28659
  8
0
 62
7
 10
38.840837742043249
 20
38.301295489888588
 70
0
  0
VERTEX
  5
2865A
  8
0
 62
7
 10
38.883556926060351
 20
38.301295489888588
 70
0
  0
VERTEX
  5
2865B
  8
0
 62
7
 10
38.883556926060351
 20
38.258576305871493
 70
0
  0
SEQEND
  5
2865C
  8
0
  0
POLYLINE
  5
2865D
  8
0
 62
7
 66
1
 70
0
 10
0
 20
0
 30
0
  0
VERTEX
  5
2865E
  8
0
 62
7
 10
38.799496596220251
 20
39.106069795242952
 70
0
  0
VERTEX
  5
2865F
  8
0
 62
7
 10
38.840837742043249
 20
39.106069795242952
 70
0
  0
VERTEX
  5
28660
  8
0
 62
7
 10
38.840837742043249
 20
39.147238686291672
 70
0
  0
VERTEX
  5
28661
  8
0
 62
7
 10
38.840837742043249
 20
39.190302379857322
 70
0
  0
VERTEX
  5
28662
  8
0
 62
7
 10
38.799496596220251
 20
39.190302379857322
 70
0
  0
SEQEND
  5
28663
  8
0
  0
POLYLINE
  5
28664
  8
0
 62
7
 66
1
 70
0
 10
0
 20
0
 30
0
  0
VERTEX
  5
28665
  8
0
 62
7
 10
39.306614651649028
 20
38.640292885637173
 70
0
  0
VERTEX
  5
28666
  8
0
 62
7
 10
39.306614651649028
 20
38.640292885637173
 70
0
  0
VERTEX
  5
28667
  8
0
 62
7
 10
39.306614651649028
 20
38.68163403146017
 70
0
  0
VERTEX
  5
28668
  8
0
 62
7
 10
39.306614651649028
 20
38.724353215477258
 70
0
  0
SEQEND
  5
28669
  8
0
  0
POLYLINE
  5
2866A
  8
0
 62
7
 66
1
 70
0
 10
0
 20
0
 30
0
  0
VERTEX
  5
2866B
  8
0
 62
7
 10
36.979108141814237
 20
42.32223868549795
 70
0
  0
VERTEX
  5
2866C
  8
0
 62
7
 10
36.979108141814237
 20
42.32223868549795
 70
0
  0
VERTEX
  5
2866D
  8
0
 62
7
 10
37.020449287637241
 20
42.365302379063557
 70
0
  0
VERTEX
  5
2866E
  8
0
 62
7
 10
37.020449287637241
 20
42.408021563080631
 70
0
  0
VERTEX
  5
2866F
  8
0
 62
7
 10
37.063168471654343
 20
42.449190454129393
 70
0
  0
VERTEX
  5
28670
  8
0
 62
7
 10
37.063168471654343
 20
42.491909638146467
 70
0
  0
SEQEND
  5
28671
  8
0
  0
POLYLINE
  5
28672
  8
0
 62
7
 66
1
 70
0
 10
0
 20
0
 30
0
  0
VERTEX
  5
28673
  8
0
 62
7
 10
37.020449287637241
 20
42.6612360812465
 70
0
  0
VERTEX
  5
28674
  8
0
 62
7
 10
37.020449287637241
 20
42.70395526526363
 70
0
  0
VERTEX
  5
28675
  8
0
 62
7
 10
36.979108141814237
 20
42.70395526526363
 70
0
  0
VERTEX
  5
28676
  8
0
 62
7
 10
36.936388957797128
 20
42.70395526526363
 70
0
  0
VERTEX
  5
28677
  8
0
 62
7
 10
36.89366977378004
 20
42.70395526526363
 70
0
  0
VERTEX
  5
28678
  8
0
 62
7
 10
36.852328627957043
 20
42.70395526526363
 70
0
  0
SEQEND
  5
28679
  8
0
  0
POLYLINE
  5
2867A
  8
0
 62
7
 66
1
 70
0
 10
0
 20
0
 30
0
  0
VERTEX
  5
2867B
  8
0
 62
7
 10
37.063168471654343
 20
42.491909638146467
 70
0
  0
VERTEX
  5
2867C
  8
0
 62
7
 10
37.063168471654343
 20
42.491909638146467
 70
0
  0
VERTEX
  5
2867D
  8
0
 62
7
 10
37.063168471654343
 20
42.5346288221636
 70
0
  0
VERTEX
  5
2867E
  8
0
 62
7
 10
37.063168471654343
 20
42.577348006180671
 70
0
  0
VERTEX
  5
2867F
  8
0
 62
7
 10
37.063168471654343
 20
42.618516897229419
 70
0
  0
VERTEX
  5
28680
  8
0
 62
7
 10
37.020449287637241
 20
42.618516897229419
 70
0
  0
VERTEX
  5
28681
  8
0
 62
7
 10
37.020449287637241
 20
42.6612360812465
 70
0
  0
SEQEND
  5
28682
  8
0
  0
POLYLINE
  5
28683
  8
0
 62
7
 66
1
 70
0
 10
0
 20
0
 30
0
  0
VERTEX
  5
28684
  8
0
 62
7
 10
48.154997895964691
 20
42.577348006180671
 70
0
  0
VERTEX
  5
28685
  8
0
 62
7
 10
48.154997895964691
 20
42.577348006180671
 70
0
  0
VERTEX
  5
28686
  8
0
 62
7
 10
48.154997895964691
 20
42.5346288221636
 70
0
  0
VERTEX
  5
28687
  8
0
 62
7
 10
48.154997895964691
 20
42.491909638146467
 70
0
  0
VERTEX
  5
28688
  8
0
 62
7
 10
48.1977170799818
 20
42.491909638146467
 70
0
  0
VERTEX
  5
28689
  8
0
 62
7
 10
48.2390582258048
 20
42.449190454129393
 70
0
  0
SEQEND
  5
2868A
  8
0
  0
POLYLINE
  5
2868B
  8
0
 62
7
 66
1
 70
0
 10
0
 20
0
 30
0
  0
VERTEX
  5
2868C
  8
0
 62
7
 10
50.525223589816591
 20
42.238350610432121
 70
0
  0
VERTEX
  5
2868D
  8
0
 62
7
 10
50.525223589816591
 20
42.577348006180671
 70
0
  0
SEQEND
  5
2868E
  8
0
  0
POLYLINE
  5
2868F
  8
0
 62
7
 66
1
 70
0
 10
0
 20
0
 30
0
  0
VERTEX
  5
28690
  8
0
 62
7
 10
52.768669769811282
 20
45.583021562286881
 70
0
  0
VERTEX
  5
28691
  8
0
 62
7
 10
53.023606835719761
 20
45.878955264469873
 70
0
  0
SEQEND
  5
28692
  8
0
  0
POLYLINE
  5
28693
  8
0
 62
7
 66
1
 70
0
 10
0
 20
0
 30
0
  0
VERTEX
  5
28694
  8
0
 62
7
 10
49.466890256747831
 20
39.402348006974449
 70
0
  0
VERTEX
  5
28695
  8
0
 62
7
 10
49.466890256747831
 20
39.06335061122585
 70
0
  0
SEQEND
  5
28696
  8
0
  0
POLYLINE
  5
28697
  8
0
 62
7
 66
1
 70
0
 10
0
 20
0
 30
0
  0
VERTEX
  5
28698
  8
0
 62
7
 10
52.599171071936979
 20
36.268516898816927
 70
0
  0
VERTEX
  5
28699
  8
0
 62
7
 10
52.895449283668484
 20
36.268516898816927
 70
0
  0
VERTEX
  5
2869A
  8
0
 62
7
 10
53.150386349576962
 20
36.268516898816927
 70
0
  0
VERTEX
  5
2869B
  8
0
 62
7
 10
53.403945377291357
 20
36.311236082834029
 70
0
  0
VERTEX
  5
2869C
  8
0
 62
7
 10
53.700223589022841
 20
36.353955266851131
 70
0
  0
VERTEX
  5
2869D
  8
0
 62
7
 10
53.953782616737207
 20
36.397018960416752
 70
0
  0
VERTEX
  5
2869E
  8
0
 62
7
 10
54.208719682645722
 20
36.480907035482581
 70
0
  0
SEQEND
  5
2869F
  8
0
  0
POLYLINE
  5
286A0
  8
0
 62
7
 66
1
 70
0
 10
0
 20
0
 30
0
  0
VERTEX
  5
286A1
  8
0
 62
7
 10
50.864220985565169
 20
36.523626219499683
 70
0
  0
VERTEX
  5
286A2
  8
0
 62
7
 10
51.117780013279571
 20
36.438187851465472
 70
0
  0
VERTEX
  5
286A3
  8
0
 62
7
 10
51.414058225011047
 20
36.397018960416752
 70
0
  0
VERTEX
  5
286A4
  8
0
 62
7
 10
51.710336436742523
 20
36.353955266851131
 70
0
  0
VERTEX
  5
286A5
  8
0
 62
7
 10
52.006614648474027
 20
36.268516898816927
 70
0
  0
VERTEX
  5
286A6
  8
0
 62
7
 10
52.3028928602055
 20
36.268516898816927
 70
0
  0
VERTEX
  5
286A7
  8
0
 62
7
 10
52.599171071936979
 20
36.268516898816927
 70
0
  0
SEQEND
  5
286A8
  8
0
  0
POLYLINE
  5
286A9
  8
0
 62
7
 66
1
 70
0
 10
0
 20
0
 30
0
  0
VERTEX
  5
286AA
  8
0
 62
7
 10
52.1333941623312
 20
44.565857120266912
 70
0
  0
VERTEX
  5
286AB
  8
0
 62
7
 10
52.006614648474027
 20
44.565857120266912
 70
0
  0
VERTEX
  5
286AC
  8
0
 62
7
 10
51.922554318633928
 20
44.565857120266912
 70
0
  0
VERTEX
  5
286AD
  8
0
 62
7
 10
51.79577480477672
 20
44.52468822921815
 70
0
  0
VERTEX
  5
286AE
  8
0
 62
7
 10
51.710336436742523
 20
44.52468822921815
 70
0
  0
VERTEX
  5
286AF
  8
0
 62
7
 10
51.626276106902417
 20
44.481969045201083
 70
0
  0
VERTEX
  5
286B0
  8
0
 62
7
 10
51.499496593045251
 20
44.438905351635412
 70
0
  0
SEQEND
  5
286B1
  8
0
  0
POLYLINE
  5
286B2
  8
0
 62
7
 66
1
 70
0
 10
0
 20
0
 30
0
  0
VERTEX
  5
286B3
  8
0
 62
7
 10
53.912441470914217
 20
44.397736460586707
 70
0
  0
VERTEX
  5
286B4
  8
0
 62
7
 10
53.785661957057052
 20
44.438905351635412
 70
0
  0
VERTEX
  5
286B5
  8
0
 62
7
 10
53.657504405005739
 20
44.481969045201083
 70
0
  0
VERTEX
  5
286B6
  8
0
 62
7
 10
53.48938374532554
 20
44.52468822921815
 70
0
  0
VERTEX
  5
286B7
  8
0
 62
7
 10
53.319885047451258
 20
44.52468822921815
 70
0
  0
VERTEX
  5
286B8
  8
0
 62
7
 10
53.191727495399959
 20
44.565857120266912
 70
0
  0
VERTEX
  5
286B9
  8
0
 62
7
 10
53.023606835719761
 20
44.565857120266912
 70
0
  0
SEQEND
  5
286BA
  8
0
  0
POLYLINE
  5
286BB
  8
0
 62
7
 66
1
 70
0
 10
0
 20
0
 30
0
  0
VERTEX
  5
286BC
  8
0
 62
7
 10
54.208719682645722
 20
36.480907035482581
 70
0
  0
VERTEX
  5
286BD
  8
0
 62
7
 10
54.292780012485821
 20
36.523626219499683
 70
0
  0
VERTEX
  5
286BE
  8
0
 62
7
 10
54.378218380519989
 20
36.523626219499683
 70
0
  0
VERTEX
  5
286BF
  8
0
 62
7
 10
54.462278710360088
 20
36.564967365322673
 70
0
  0
VERTEX
  5
286C0
  8
0
 62
7
 10
54.5477170783943
 20
36.607686549339782
 70
0
  0
VERTEX
  5
286C1
  8
0
 62
7
 10
54.631777408234392
 20
36.650233478582606
 70
0
  0
VERTEX
  5
286C2
  8
0
 62
7
 10
54.715837738074491
 20
36.692952662599708
 70
0
  0
SEQEND
  5
286C3
  8
0
  0
POLYLINE
  5
286C4
  8
0
 62
7
 66
1
 70
0
 10
0
 20
0
 30
0
  0
VERTEX
  5
286C5
  8
0
 62
7
 10
50.906940169582271
 20
41.306969045994812
 70
0
  0
VERTEX
  5
286C6
  8
0
 62
7
 10
50.821501801548067
 20
41.306969045994812
 70
0
  0
VERTEX
  5
286C7
  8
0
 62
7
 10
50.73744147170796
 20
41.263905352429191
 70
0
  0
VERTEX
  5
286C8
  8
0
 62
7
 10
50.610661957850787
 20
41.222736461380457
 70
0
  0
VERTEX
  5
286C9
  8
0
 62
7
 10
50.525223589816591
 20
41.180017277363362
 70
0
  0
VERTEX
  5
286CA
  8
0
 62
7
 10
50.441163259976491
 20
41.180017277363362
 70
0
  0
VERTEX
  5
286CB
  8
0
 62
7
 10
50.355724891942288
 20
41.094578909329151
 70
0
  0
SEQEND
  5
286CC
  8
0
  0
POLYLINE
  5
286CD
  8
0
 62
7
 66
1
 70
0
 10
0
 20
0
 30
0
  0
VERTEX
  5
286CE
  8
0
 62
7
 10
54.6744965922515
 20
41.180017277363362
 70
0
  0
VERTEX
  5
286CF
  8
0
 62
7
 10
54.631777408234392
 20
41.222564206606187
 70
0
  0
VERTEX
  5
286D0
  8
0
 62
7
 10
54.5477170783943
 20
41.222564206606187
 70
0
  0
VERTEX
  5
286D1
  8
0
 62
7
 10
54.462278710360088
 20
41.263905352429191
 70
0
  0
VERTEX
  5
286D2
  8
0
 62
7
 10
54.419559526342987
 20
41.306969045994812
 70
0
  0
VERTEX
  5
286D3
  8
0
 62
7
 10
54.335499196502923
 20
41.306969045994812
 70
0
  0
VERTEX
  5
286D4
  8
0
 62
7
 10
54.292780012485821
 20
41.306969045994812
 70
0
  0
SEQEND
  5
286D5
  8
0
  0
POLYLINE
  5
286D6
  8
0
 62
7
 66
1
 70
0
 10
0
 20
0
 30
0
  0
VERTEX
  5
286D7
  8
0
 62
7
 10
54.250060828468719
 20
40.587288599126111
 70
0
  0
VERTEX
  5
286D8
  8
0
 62
7
 10
54.335499196502923
 20
40.630352292691747
 70
0
  0
VERTEX
  5
286D9
  8
0
 62
7
 10
54.419559526342987
 20
40.671521183740481
 70
0
  0
VERTEX
  5
286DA
  8
0
 62
7
 10
54.462278710360088
 20
40.671521183740481
 70
0
  0
VERTEX
  5
286DB
  8
0
 62
7
 10
54.5477170783943
 20
40.714240367757583
 70
0
  0
VERTEX
  5
286DC
  8
0
 62
7
 10
54.5890582242173
 20
40.756959551774678
 70
0
  0
VERTEX
  5
286DD
  8
0
 62
7
 10
54.6744965922515
 20
40.798300697597682
 70
0
  0
SEQEND
  5
286DE
  8
0
  0
POLYLINE
  5
286DF
  8
0
 62
7
 66
1
 70
0
 10
0
 20
0
 30
0
  0
VERTEX
  5
286E0
  8
0
 62
7
 10
50.441163259976491
 20
36.734638317971218
 70
0
  0
VERTEX
  5
286E1
  8
0
 62
7
 10
50.482504405799482
 20
36.692952662599708
 70
0
  0
VERTEX
  5
286E2
  8
0
 62
7
 10
50.567942773833693
 20
36.650233478582606
 70
0
  0
VERTEX
  5
286E3
  8
0
 62
7
 10
50.610661957850787
 20
36.607686549339782
 70
0
  0
VERTEX
  5
286E4
  8
0
 62
7
 10
50.6947222876909
 20
36.607686549339782
 70
0
  0
VERTEX
  5
286E5
  8
0
 62
7
 10
50.778782617530958
 20
36.564967365322673
 70
0
  0
VERTEX
  5
286E6
  8
0
 62
7
 10
50.864220985565169
 20
36.523626219499683
 70
0
  0
SEQEND
  5
286E7
  8
0
  0
POLYLINE
  5
286E8
  8
0
 62
7
 66
1
 70
0
 10
0
 20
0
 30
0
  0
VERTEX
  5
286E9
  8
0
 62
7
 10
51.075060829262469
 20
41.094578909329151
 70
0
  0
VERTEX
  5
286EA
  8
0
 62
7
 10
51.117780013279571
 20
41.053237763506161
 70
0
  0
VERTEX
  5
286EB
  8
0
 62
7
 10
51.160499197296673
 20
41.010690834263329
 70
0
  0
VERTEX
  5
286EC
  8
0
 62
7
 10
51.244559527136737
 20
40.96797165024622
 70
0
  0
VERTEX
  5
286ED
  8
0
 62
7
 10
51.287278711153839
 20
40.96797165024622
 70
0
  0
VERTEX
  5
286EE
  8
0
 62
7
 10
51.37271707918805
 20
40.926285994874682
 70
0
  0
VERTEX
  5
286EF
  8
0
 62
7
 10
51.414058225011047
 20
40.926285994874682
 70
0
  0
SEQEND
  5
286F0
  8
0
  0
POLYLINE
  5
286F1
  8
0
 62
7
 66
1
 70
0
 10
0
 20
0
 30
0
  0
VERTEX
  5
286F2
  8
0
 62
7
 10
53.785661957057052
 20
40.926285994874682
 70
0
  0
VERTEX
  5
286F3
  8
0
 62
7
 10
53.827003102880042
 20
40.926285994874682
 70
0
  0
VERTEX
  5
286F4
  8
0
 62
7
 10
53.912441470914217
 20
40.96797165024622
 70
0
  0
VERTEX
  5
286F5
  8
0
 62
7
 10
53.953782616737207
 20
40.96797165024622
 70
0
  0
VERTEX
  5
286F6
  8
0
 62
7
 10
54.039220984771418
 20
41.010518579489052
 70
0
  0
VERTEX
  5
286F7
  8
0
 62
7
 10
54.08194016878852
 20
41.053237763506161
 70
0
  0
VERTEX
  5
286F8
  8
0
 62
7
 10
54.16600049862862
 20
41.094578909329151
 70
0
  0
SEQEND
  5
286F9
  8
0
  0
POLYLINE
  5
286FA
  8
0
 62
7
 66
1
 70
0
 10
0
 20
0
 30
0
  0
VERTEX
  5
286FB
  8
0
 62
7
 10
53.700223589022841
 20
40.714240367757583
 70
0
  0
VERTEX
  5
286FC
  8
0
 62
7
 10
53.785661957057052
 20
40.714240367757583
 70
0
  0
VERTEX
  5
286FD
  8
0
 62
7
 10
53.827003102880042
 20
40.756959551774678
 70
0
  0
VERTEX
  5
286FE
  8
0
 62
7
 10
53.869722286897137
 20
40.798300697597682
 70
0
  0
VERTEX
  5
286FF
  8
0
 62
7
 10
53.912441470914217
 20
40.841019881614748
 70
0
  0
VERTEX
  5
28700
  8
0
 62
7
 10
53.996501800754316
 20
40.841019881614748
 70
0
  0
VERTEX
  5
28701
  8
0
 62
7
 10
54.039220984771418
 20
40.883566810857623
 70
0
  0
SEQEND
  5
28702
  8
0
  0
POLYLINE
  5
28703
  8
0
 62
7
 66
1
 70
0
 10
0
 20
0
 30
0
  0
VERTEX
  5
28704
  8
0
 62
7
 10
51.160499197296673
 20
40.883566810857623
 70
0
  0
VERTEX
  5
28705
  8
0
 62
7
 10
51.244559527136737
 20
40.841019881614748
 70
0
  0
VERTEX
  5
28706
  8
0
 62
7
 10
51.287278711153839
 20
40.841019881614748
 70
0
  0
VERTEX
  5
28707
  8
0
 62
7
 10
51.329997895170948
 20
40.798300697597682
 70
0
  0
VERTEX
  5
28708
  8
0
 62
7
 10
51.414058225011047
 20
40.756959551774678
 70
0
  0
VERTEX
  5
28709
  8
0
 62
7
 10
51.456777409028149
 20
40.714240367757583
 70
0
  0
VERTEX
  5
2870A
  8
0
 62
7
 10
51.499496593045251
 20
40.714240367757583
 70
0
  0
SEQEND
  5
2870B
  8
0
  0
POLYLINE
  5
2870C
  8
0
 62
7
 66
1
 70
0
 10
0
 20
0
 30
0
  0
VERTEX
  5
2870D
  8
0
 62
7
 10
50.271664562102188
 20
39.443516898023177
 70
0
  0
VERTEX
  5
2870E
  8
0
 62
7
 10
50.228945378085108
 20
39.443516898023177
 70
0
  0
VERTEX
  5
2870F
  8
0
 62
7
 10
50.186226194068013
 20
39.402348006974449
 70
0
  0
VERTEX
  5
28710
  8
0
 62
7
 10
50.144885048245023
 20
39.402348006974449
 70
0
  0
VERTEX
  5
28711
  8
0
 62
7
 10
50.102165864227914
 20
39.402348006974449
 70
0
  0
VERTEX
  5
28712
  8
0
 62
7
 10
50.059446680210812
 20
39.359628822957347
 70
0
  0
SEQEND
  5
28713
  8
0
  0
POLYLINE
  5
28714
  8
0
 62
7
 66
1
 70
0
 10
0
 20
0
 30
0
  0
VERTEX
  5
28715
  8
0
 62
7
 10
53.150386349576962
 20
40.0789647602775
 70
0
  0
VERTEX
  5
28716
  8
0
 62
7
 10
53.064947981542751
 20
40.0789647602775
 70
0
  0
VERTEX
  5
28717
  8
0
 62
7
 10
53.023606835719761
 20
40.036245576260391
 70
0
  0
VERTEX
  5
28718
  8
0
 62
7
 10
52.938168467685578
 20
40.036245576260391
 70
0
  0
VERTEX
  5
28719
  8
0
 62
7
 10
52.895449283668484
 20
40.036245576260391
 70
0
  0
VERTEX
  5
2871A
  8
0
 62
7
 10
52.811388953828377
 20
40.036245576260391
 70
0
  0
VERTEX
  5
2871B
  8
0
 62
7
 10
52.727328623988292
 20
39.9949044304374
 70
0
  0
SEQEND
  5
2871C
  8
0
  0
POLYLINE
  5
2871D
  8
0
 62
7
 66
1
 70
0
 10
0
 20
0
 30
0
  0
VERTEX
  5
2871E
  8
0
 62
7
 10
54.715837738074491
 20
36.692952662599708
 70
0
  0
VERTEX
  5
2871F
  8
0
 62
7
 10
54.715837738074491
 20
36.734638317971218
 70
0
  0
VERTEX
  5
28720
  8
0
 62
7
 10
54.7585569220916
 20
36.734638317971218
 70
0
  0
VERTEX
  5
28721
  8
0
 62
7
 10
54.801276106108681
 20
36.777185247214049
 70
0
  0
VERTEX
  5
28722
  8
0
 62
7
 10
54.843995290125768
 20
36.777185247214049
 70
0
  0
SEQEND
  5
28723
  8
0
  0
POLYLINE
  5
28724
  8
0
 62
7
 66
1
 70
0
 10
0
 20
0
 30
0
  0
VERTEX
  5
28725
  8
0
 62
7
 10
54.6744965922515
 20
40.798300697597682
 70
0
  0
VERTEX
  5
28726
  8
0
 62
7
 10
54.715837738074491
 20
40.798300697597682
 70
0
  0
VERTEX
  5
28727
  8
0
 62
7
 10
54.715837738074491
 20
40.841019881614748
 70
0
  0
VERTEX
  5
28728
  8
0
 62
7
 10
54.7585569220916
 20
40.841019881614748
 70
0
  0
VERTEX
  5
28729
  8
0
 62
7
 10
54.801276106108681
 20
40.841019881614748
 70
0
  0
VERTEX
  5
2872A
  8
0
 62
7
 10
54.801276106108681
 20
40.883566810857623
 70
0
  0
SEQEND
  5
2872B
  8
0
  0
POLYLINE
  5
2872C
  8
0
 62
7
 66
1
 70
0
 10
0
 20
0
 30
0
  0
VERTEX
  5
2872D
  8
0
 62
7
 10
50.144885048245023
 20
39.190302379857322
 70
0
  0
VERTEX
  5
2872E
  8
0
 62
7
 10
50.102165864227914
 20
39.190302379857322
 70
0
  0
VERTEX
  5
2872F
  8
0
 62
7
 10
50.102165864227914
 20
39.147238686291672
 70
0
  0
VERTEX
  5
28730
  8
0
 62
7
 10
50.01672749619371
 20
39.147238686291672
 70
0
  0
VERTEX
  5
28731
  8
0
 62
7
 10
49.975386350370712
 20
39.106069795242952
 70
0
  0
SEQEND
  5
28732
  8
0
  0
POLYLINE
  5
28733
  8
0
 62
7
 66
1
 70
0
 10
0
 20
0
 30
0
  0
VERTEX
  5
28734
  8
0
 62
7
 10
50.525223589816591
 20
42.195631426414991
 70
0
  0
VERTEX
  5
28735
  8
0
 62
7
 10
50.567942773833693
 20
42.15291224239791
 70
0
  0
VERTEX
  5
28736
  8
0
 62
7
 10
50.567942773833693
 20
42.111571096574892
 70
0
  0
VERTEX
  5
28737
  8
0
 62
7
 10
50.610661957850787
 20
42.111571096574892
 70
0
  0
VERTEX
  5
28738
  8
0
 62
7
 10
50.610661957850787
 20
42.069024167332088
 70
0
  0
VERTEX
  5
28739
  8
0
 62
7
 10
50.652003103673792
 20
42.069024167332088
 70
0
  0
SEQEND
  5
2873A
  8
0
  0
POLYLINE
  5
2873B
  8
0
 62
7
 66
1
 70
0
 10
0
 20
0
 30
0
  0
VERTEX
  5
2873C
  8
0
 62
7
 10
49.975386350370712
 20
39.316909638940253
 70
0
  0
VERTEX
  5
2873D
  8
0
 62
7
 10
49.975386350370712
 20
39.274190454923144
 70
0
  0
VERTEX
  5
2873E
  8
0
 62
7
 10
49.93266716635361
 20
39.190302379857322
 70
0
  0
VERTEX
  5
2873F
  8
0
 62
7
 10
49.93266716635361
 20
39.147238686291672
 70
0
  0
SEQEND
  5
28740
  8
0
  0
POLYLINE
  5
28741
  8
0
 62
7
 66
1
 70
0
 10
0
 20
0
 30
0
  0
VERTEX
  5
28742
  8
0
 62
7
 10
50.355724891942288
 20
36.861245577054149
 70
0
  0
VERTEX
  5
28743
  8
0
 62
7
 10
50.355724891942288
 20
36.861245577054149
 70
0
  0
VERTEX
  5
28744
  8
0
 62
7
 10
50.355724891942288
 20
36.819904431231151
 70
0
  0
VERTEX
  5
28745
  8
0
 62
7
 10
50.355724891942288
 20
36.77735750198832
 70
0
  0
VERTEX
  5
28746
  8
0
 62
7
 10
50.398444075959389
 20
36.77735750198832
 70
0
  0
VERTEX
  5
28747
  8
0
 62
7
 10
50.441163259976491
 20
36.734638317971218
 70
0
  0
SEQEND
  5
28748
  8
0
  0
POLYLINE
  5
28749
  8
0
 62
7
 66
1
 70
0
 10
0
 20
0
 30
0
  0
VERTEX
  5
2874A
  8
0
 62
7
 10
54.6744965922515
 20
40.798300697597682
 70
0
  0
VERTEX
  5
2874B
  8
0
 62
7
 10
54.715837738074491
 20
40.798300697597682
 70
0
  0
VERTEX
  5
2874C
  8
0
 62
7
 10
54.715837738074491
 20
40.841019881614748
 70
0
  0
VERTEX
  5
2874D
  8
0
 62
7
 10
54.7585569220916
 20
40.841019881614748
 70
0
  0
VERTEX
  5
2874E
  8
0
 62
7
 10
54.801276106108681
 20
40.841019881614748
 70
0
  0
VERTEX
  5
2874F
  8
0
 62
7
 10
54.801276106108681
 20
40.883566810857623
 70
0
  0
VERTEX
  5
28750
  8
0
 62
7
 10
54.801276106108681
 20
40.926285994874682
 70
0
  0
VERTEX
  5
28751
  8
0
 62
7
 10
54.843995290125768
 20
40.926285994874682
 70
0
  0
VERTEX
  5
28752
  8
0
 62
7
 10
54.843995290125768
 20
40.96797165024622
 70
0
  0
VERTEX
  5
28753
  8
0
 62
7
 10
54.843995290125768
 20
41.010690834263329
 70
0
  0
VERTEX
  5
28754
  8
0
 62
7
 10
54.843995290125768
 20
41.053237763506161
 70
0
  0
VERTEX
  5
28755
  8
0
 62
7
 10
54.801276106108681
 20
41.053237763506161
 70
0
  0
VERTEX
  5
28756
  8
0
 62
7
 10
54.801276106108681
 20
41.094578909329151
 70
0
  0
VERTEX
  5
28757
  8
0
 62
7
 10
54.7585569220916
 20
41.094578909329151
 70
0
  0
VERTEX
  5
28758
  8
0
 62
7
 10
54.7585569220916
 20
41.13729809334626
 70
0
  0
VERTEX
  5
28759
  8
0
 62
7
 10
54.715837738074491
 20
41.13729809334626
 70
0
  0
VERTEX
  5
2875A
  8
0
 62
7
 10
54.715837738074491
 20
41.180017277363362
 70
0
  0
VERTEX
  5
2875B
  8
0
 62
7
 10
54.6744965922515
 20
41.180017277363362
 70
0
  0
SEQEND
  5
2875C
  8
0
  0
POLYLINE
  5
2875D
  8
0
 62
7
 66
1
 70
0
 10
0
 20
0
 30
0
  0
VERTEX
  5
2875E
  8
0
 62
7
 10
50.059446680210812
 20
39.359628822957347
 70
0
  0
VERTEX
  5
2875F
  8
0
 62
7
 10
50.01672749619371
 20
39.359628822957347
 70
0
  0
VERTEX
  5
28760
  8
0
 62
7
 10
50.01672749619371
 20
39.316909638940253
 70
0
  0
VERTEX
  5
28761
  8
0
 62
7
 10
49.975386350370712
 20
39.316909638940253
 70
0
  0
SEQEND
  5
28762
  8
0
  0
POLYLINE
  5
28763
  8
0
 62
7
 66
1
 70
0
 10
0
 20
0
 30
0
  0
VERTEX
  5
28764
  8
0
 62
7
 10
54.801276106108681
 20
40.883566810857623
 70
0
  0
VERTEX
  5
28765
  8
0
 62
7
 10
54.801276106108681
 20
40.926285994874682
 70
0
  0
VERTEX
  5
28766
  8
0
 62
7
 10
54.843995290125768
 20
40.926285994874682
 70
0
  0
VERTEX
  5
28767
  8
0
 62
7
 10
54.843995290125768
 20
40.96797165024622
 70
0
  0
SEQEND
  5
28768
  8
0
  0
POLYLINE
  5
28769
  8
0
 62
7
 66
1
 70
0
 10
0
 20
0
 30
0
  0
VERTEX
  5
2876A
  8
0
 62
7
 10
50.355724891942288
 20
41.094578909329151
 70
0
  0
VERTEX
  5
2876B
  8
0
 62
7
 10
50.355724891942288
 20
41.094578909329151
 70
0
  0
VERTEX
  5
2876C
  8
0
 62
7
 10
50.31438374611929
 20
41.094578909329151
 70
0
  0
VERTEX
  5
2876D
  8
0
 62
7
 10
50.31438374611929
 20
41.053237763506161
 70
0
  0
VERTEX
  5
2876E
  8
0
 62
7
 10
50.271664562102188
 20
41.053237763506161
 70
0
  0
SEQEND
  5
2876F
  8
0
  0
POLYLINE
  5
28770
  8
0
 62
7
 66
1
 70
0
 10
0
 20
0
 30
0
  0
VERTEX
  5
28771
  8
0
 62
7
 10
52.599171071936979
 20
40.714240367757583
 70
0
  0
VERTEX
  5
28772
  8
0
 62
7
 10
52.811388953828377
 20
40.714240367757583
 70
0
  0
VERTEX
  5
28773
  8
0
 62
7
 10
53.023606835719761
 20
40.714240367757583
 70
0
  0
VERTEX
  5
28774
  8
0
 62
7
 10
53.191727495399959
 20
40.756959551774678
 70
0
  0
VERTEX
  5
28775
  8
0
 62
7
 10
53.403945377291357
 20
40.798300697597682
 70
0
  0
VERTEX
  5
28776
  8
0
 62
7
 10
53.573444075165632
 20
40.841019881614748
 70
0
  0
VERTEX
  5
28777
  8
0
 62
7
 10
53.785661957057052
 20
40.926285994874682
 70
0
  0
SEQEND
  5
28778
  8
0
  0
POLYLINE
  5
28779
  8
0
 62
7
 66
1
 70
0
 10
0
 20
0
 30
0
  0
VERTEX
  5
2877A
  8
0
 62
7
 10
51.414058225011047
 20
40.926285994874682
 70
0
  0
VERTEX
  5
2877B
  8
0
 62
7
 10
51.626276106902417
 20
40.841019881614748
 70
0
  0
VERTEX
  5
2877C
  8
0
 62
7
 10
51.79577480477672
 20
40.798300697597682
 70
0
  0
VERTEX
  5
2877D
  8
0
 62
7
 10
52.006614648474027
 20
40.756959551774678
 70
0
  0
VERTEX
  5
2877E
  8
0
 62
7
 10
52.218832530365411
 20
40.714240367757583
 70
0
  0
VERTEX
  5
2877F
  8
0
 62
7
 10
52.388331228239707
 20
40.714240367757583
 70
0
  0
VERTEX
  5
28780
  8
0
 62
7
 10
52.599171071936979
 20
40.714240367757583
 70
0
  0
SEQEND
  5
28781
  8
0
  0
POLYLINE
  5
28782
  8
0
 62
7
 66
1
 70
0
 10
0
 20
0
 30
0
  0
VERTEX
  5
28783
  8
0
 62
7
 10
52.599171071936979
 20
40.544569415109009
 70
0
  0
VERTEX
  5
28784
  8
0
 62
7
 10
52.811388953828377
 20
40.544569415109009
 70
0
  0
VERTEX
  5
28785
  8
0
 62
7
 10
52.980887651702687
 20
40.544569415109009
 70
0
  0
VERTEX
  5
28786
  8
0
 62
7
 10
53.150386349576962
 20
40.587288599126111
 70
0
  0
VERTEX
  5
28787
  8
0
 62
7
 10
53.319885047451258
 20
40.630352292691747
 70
0
  0
VERTEX
  5
28788
  8
0
 62
7
 10
53.530724891148537
 20
40.671521183740481
 70
0
  0
VERTEX
  5
28789
  8
0
 62
7
 10
53.700223589022841
 20
40.714240367757583
 70
0
  0
SEQEND
  5
2878A
  8
0
  0
POLYLINE
  5
2878B
  8
0
 62
7
 66
1
 70
0
 10
0
 20
0
 30
0
  0
VERTEX
  5
2878C
  8
0
 62
7
 10
51.499496593045251
 20
40.714240367757583
 70
0
  0
VERTEX
  5
2878D
  8
0
 62
7
 10
51.668995290919533
 20
40.671521183740481
 70
0
  0
VERTEX
  5
2878E
  8
0
 62
7
 10
51.879835134616819
 20
40.630352292691747
 70
0
  0
VERTEX
  5
2878F
  8
0
 62
7
 10
52.049333832491122
 20
40.587288599126111
 70
0
  0
VERTEX
  5
28790
  8
0
 62
7
 10
52.2615517143825
 20
40.544569415109009
 70
0
  0
VERTEX
  5
28791
  8
0
 62
7
 10
52.431050412256809
 20
40.544569415109009
 70
0
  0
VERTEX
  5
28792
  8
0
 62
7
 10
52.599171071936979
 20
40.544569415109009
 70
0
  0
SEQEND
  5
28793
  8
0
  0
POLYLINE
  5
28794
  8
0
 62
7
 66
1
 70
0
 10
0
 20
0
 30
0
  0
VERTEX
  5
28795
  8
0
 62
7
 10
50.652003103673792
 20
42.069024167332088
 70
0
  0
VERTEX
  5
28796
  8
0
 62
7
 10
50.6947222876909
 20
42.026304983314979
 70
0
  0
VERTEX
  5
28797
  8
0
 62
7
 10
50.73744147170796
 20
42.026304983314979
 70
0
  0
VERTEX
  5
28798
  8
0
 62
7
 10
50.73744147170796
 20
41.984619327943442
 70
0
  0
VERTEX
  5
28799
  8
0
 62
7
 10
50.778782617530958
 20
41.984619327943442
 70
0
  0
SEQEND
  5
2879A
  8
0
  0
POLYLINE
  5
2879B
  8
0
 62
7
 66
1
 70
0
 10
0
 20
0
 30
0
  0
VERTEX
  5
2879C
  8
0
 62
7
 10
52.0920530165082
 20
44.228237762712411
 70
0
  0
VERTEX
  5
2879D
  8
0
 62
7
 10
52.1761133463483
 20
44.185690833469543
 70
0
  0
VERTEX
  5
2879E
  8
0
 62
7
 10
52.2615517143825
 20
44.142971649452477
 70
0
  0
VERTEX
  5
2879F
  8
0
 62
7
 10
52.3456120442226
 20
44.142971649452477
 70
0
  0
VERTEX
  5
287A0
  8
0
 62
7
 10
52.431050412256809
 20
44.142971649452477
 70
0
  0
VERTEX
  5
287A1
  8
0
 62
7
 10
52.515110742096908
 20
44.142971649452477
 70
0
  0
VERTEX
  5
287A2
  8
0
 62
7
 10
52.641890255954081
 20
44.142971649452477
 70
0
  0
SEQEND
  5
287A3
  8
0
  0
POLYLINE
  5
287A4
  8
0
 62
7
 66
1
 70
0
 10
0
 20
0
 30
0
  0
VERTEX
  5
287A5
  8
0
 62
7
 10
52.768669769811282
 20
43.846521182946731
 70
0
  0
VERTEX
  5
287A6
  8
0
 62
7
 10
52.684609439971183
 20
43.846521182946731
 70
0
  0
VERTEX
  5
287A7
  8
0
 62
7
 10
52.641890255954081
 20
43.846521182946731
 70
0
  0
VERTEX
  5
287A8
  8
0
 62
7
 10
52.599171071936979
 20
43.805352291897968
 70
0
  0
VERTEX
  5
287A9
  8
0
 62
7
 10
52.557829926113982
 20
43.805352291897968
 70
0
  0
VERTEX
  5
287AA
  8
0
 62
7
 10
52.515110742096908
 20
43.805352291897968
 70
0
  0
VERTEX
  5
287AB
  8
0
 62
7
 10
52.431050412256809
 20
43.805352291897968
 70
0
  0
SEQEND
  5
287AC
  8
0
  0
POLYLINE
  5
287AD
  8
0
 62
7
 66
1
 70
0
 10
0
 20
0
 30
0
  0
VERTEX
  5
287AE
  8
0
 62
7
 10
52.431050412256809
 20
43.507523787198117
 70
0
  0
VERTEX
  5
287AF
  8
0
 62
7
 10
52.515110742096908
 20
43.507523787198117
 70
0
  0
VERTEX
  5
287B0
  8
0
 62
7
 10
52.557829926113982
 20
43.466354896149419
 70
0
  0
VERTEX
  5
287B1
  8
0
 62
7
 10
52.599171071936979
 20
43.466354896149419
 70
0
  0
VERTEX
  5
287B2
  8
0
 62
7
 10
52.641890255954081
 20
43.466354896149419
 70
0
  0
VERTEX
  5
287B3
  8
0
 62
7
 10
52.684609439971183
 20
43.466354896149419
 70
0
  0
VERTEX
  5
287B4
  8
0
 62
7
 10
52.768669769811282
 20
43.466354896149419
 70
0
  0
SEQEND
  5
287B5
  8
0
  0
POLYLINE
  5
287B6
  8
0
 62
7
 66
1
 70
0
 10
0
 20
0
 30
0
  0
VERTEX
  5
287B7
  8
0
 62
7
 10
52.768669769811282
 20
43.846521182946731
 70
0
  0
VERTEX
  5
287B8
  8
0
 62
7
 10
52.684609439971183
 20
43.846521182946731
 70
0
  0
VERTEX
  5
287B9
  8
0
 62
7
 10
52.641890255954081
 20
43.846521182946731
 70
0
  0
VERTEX
  5
287BA
  8
0
 62
7
 10
52.599171071936979
 20
43.805352291897968
 70
0
  0
VERTEX
  5
287BB
  8
0
 62
7
 10
52.557829926113982
 20
43.805352291897968
 70
0
  0
VERTEX
  5
287BC
  8
0
 62
7
 10
52.515110742096908
 20
43.805352291897968
 70
0
  0
VERTEX
  5
287BD
  8
0
 62
7
 10
52.472391558079813
 20
43.805352291897968
 70
0
  0
SEQEND
  5
287BE
  8
0
  0
POLYLINE
  5
287BF
  8
0
 62
7
 66
1
 70
0
 10
0
 20
0
 30
0
  0
VERTEX
  5
287C0
  8
0
 62
7
 10
52.768669769811282
 20
43.805352291897968
 70
0
  0
VERTEX
  5
287C1
  8
0
 62
7
 10
52.684609439971183
 20
43.805352291897968
 70
0
  0
VERTEX
  5
287C2
  8
0
 62
7
 10
52.641890255954081
 20
43.805352291897968
 70
0
  0
VERTEX
  5
287C3
  8
0
 62
7
 10
52.599171071936979
 20
43.805352291897968
 70
0
  0
VERTEX
  5
287C4
  8
0
 62
7
 10
52.557829926113982
 20
43.805352291897968
 70
0
  0
VERTEX
  5
287C5
  8
0
 62
7
 10
52.515110742096908
 20
43.805352291897968
 70
0
  0
VERTEX
  5
287C6
  8
0
 62
7
 10
52.472391558079813
 20
43.762288598332347
 70
0
  0
SEQEND
  5
287C7
  8
0
  0
POLYLINE
  5
287C8
  8
0
 62
7
 66
1
 70
0
 10
0
 20
0
 30
0
  0
VERTEX
  5
287C9
  8
0
 62
7
 10
52.472391558079813
 20
43.507523787198117
 70
0
  0
VERTEX
  5
287CA
  8
0
 62
7
 10
52.515110742096908
 20
43.507523787198117
 70
0
  0
VERTEX
  5
287CB
  8
0
 62
7
 10
52.557829926113982
 20
43.507523787198117
 70
0
  0
VERTEX
  5
287CC
  8
0
 62
7
 10
52.599171071936979
 20
43.507523787198117
 70
0
  0
VERTEX
  5
287CD
  8
0
 62
7
 10
52.641890255954081
 20
43.507523787198117
 70
0
  0
VERTEX
  5
287CE
  8
0
 62
7
 10
52.684609439971183
 20
43.466354896149419
 70
0
  0
VERTEX
  5
287CF
  8
0
 62
7
 10
52.768669769811282
 20
43.466354896149419
 70
0
  0
SEQEND
  5
287D0
  8
0
  0
POLYLINE
  5
287D1
  8
0
 62
7
 66
1
 70
0
 10
0
 20
0
 30
0
  0
VERTEX
  5
287D2
  8
0
 62
7
 10
52.472391558079813
 20
43.550242971215248
 70
0
  0
VERTEX
  5
287D3
  8
0
 62
7
 10
52.515110742096908
 20
43.550242971215248
 70
0
  0
VERTEX
  5
287D4
  8
0
 62
7
 10
52.557829926113982
 20
43.507523787198117
 70
0
  0
VERTEX
  5
287D5
  8
0
 62
7
 10
52.599171071936979
 20
43.507523787198117
 70
0
  0
VERTEX
  5
287D6
  8
0
 62
7
 10
52.641890255954081
 20
43.507523787198117
 70
0
  0
VERTEX
  5
287D7
  8
0
 62
7
 10
52.684609439971183
 20
43.507523787198117
 70
0
  0
VERTEX
  5
287D8
  8
0
 62
7
 10
52.768669769811282
 20
43.507523787198117
 70
0
  0
SEQEND
  5
287D9
  8
0
  0
POLYLINE
  5
287DA
  8
0
 62
7
 66
1
 70
0
 10
0
 20
0
 30
0
  0
VERTEX
  5
287DB
  8
0
 62
7
 10
52.0920530165082
 20
44.438905351635412
 70
0
  0
VERTEX
  5
287DC
  8
0
 62
7
 10
52.0920530165082
 20
44.397736460586707
 70
0
  0
VERTEX
  5
287DD
  8
0
 62
7
 10
52.0920530165082
 20
44.355017276569583
 70
0
  0
VERTEX
  5
287DE
  8
0
 62
7
 10
52.049333832491122
 20
44.31229809255251
 70
0
  0
VERTEX
  5
287DF
  8
0
 62
7
 10
52.049333832491122
 20
44.269578908535379
 70
0
  0
VERTEX
  5
287E0
  8
0
 62
7
 10
52.0920530165082
 20
44.228237762712411
 70
0
  0
SEQEND
  5
287E1
  8
0
  0
POLYLINE
  5
287E2
  8
0
 62
7
 66
1
 70
0
 10
0
 20
0
 30
0
  0
VERTEX
  5
287E3
  8
0
 62
7
 10
52.049333832491122
 20
44.142971649452477
 70
0
  0
VERTEX
  5
287E4
  8
0
 62
7
 10
52.049333832491122
 20
44.142971649452477
 70
0
  0
VERTEX
  5
287E5
  8
0
 62
7
 10
52.0920530165082
 20
44.142971649452477
 70
0
  0
VERTEX
  5
287E6
  8
0
 62
7
 10
52.1333941623312
 20
44.142971649452477
 70
0
  0
SEQEND
  5
287E7
  8
0
  0
POLYLINE
  5
287E8
  8
0
 62
7
 66
1
 70
0
 10
0
 20
0
 30
0
  0
VERTEX
  5
287E9
  8
0
 62
7
 10
52.431050412256809
 20
43.805352291897968
 70
0
  0
VERTEX
  5
287EA
  8
0
 62
7
 10
52.431050412256809
 20
43.762288598332347
 70
0
  0
VERTEX
  5
287EB
  8
0
 62
7
 10
52.388331228239707
 20
43.762288598332347
 70
0
  0
VERTEX
  5
287EC
  8
0
 62
7
 10
52.3456120442226
 20
43.762288598332347
 70
0
  0
VERTEX
  5
287ED
  8
0
 62
7
 10
52.3456120442226
 20
43.719569414315288
 70
0
  0
VERTEX
  5
287EE
  8
0
 62
7
 10
52.3028928602055
 20
43.719569414315288
 70
0
  0
VERTEX
  5
287EF
  8
0
 62
7
 10
52.3028928602055
 20
43.676850230298157
 70
0
  0
VERTEX
  5
287F0
  8
0
 62
7
 10
52.3028928602055
 20
43.635681339249452
 70
0
  0
VERTEX
  5
287F1
  8
0
 62
7
 10
52.3028928602055
 20
43.592962155232321
 70
0
  0
VERTEX
  5
287F2
  8
0
 62
7
 10
52.3456120442226
 20
43.550242971215248
 70
0
  0
VERTEX
  5
287F3
  8
0
 62
7
 10
52.388331228239707
 20
43.550242971215248
 70
0
  0
VERTEX
  5
287F4
  8
0
 62
7
 10
52.388331228239707
 20
43.507523787198117
 70
0
  0
VERTEX
  5
287F5
  8
0
 62
7
 10
52.431050412256809
 20
43.507523787198117
 70
0
  0
SEQEND
  5
287F6
  8
0
  0
POLYLINE
  5
287F7
  8
0
 62
7
 66
1
 70
0
 10
0
 20
0
 30
0
  0
VERTEX
  5
287F8
  8
0
 62
7
 10
52.049333832491122
 20
44.228237762712411
 70
0
  0
VERTEX
  5
287F9
  8
0
 62
7
 10
52.049333832491122
 20
44.228237762712411
 70
0
  0
VERTEX
  5
287FA
  8
0
 62
7
 10
52.049333832491122
 20
44.185690833469543
 70
0
  0
SEQEND
  5
287FB
  8
0
  0
POLYLINE
  5
287FC
  8
0
 62
7
 66
1
 70
0
 10
0
 20
0
 30
0
  0
VERTEX
  5
287FD
  8
0
 62
7
 10
51.79577480477672
 20
43.423635712132288
 70
0
  0
VERTEX
  5
287FE
  8
0
 62
7
 10
52.0920530165082
 20
43.380572018566681
 70
0
  0
VERTEX
  5
287FF
  8
0
 62
7
 10
52.388331228239707
 20
43.339403127517919
 70
0
  0
VERTEX
  5
28800
  8
0
 62
7
 10
52.684609439971183
 20
43.339403127517919
 70
0
  0
VERTEX
  5
28801
  8
0
 62
7
 10
52.938168467685578
 20
43.380572018566681
 70
0
  0
VERTEX
  5
28802
  8
0
 62
7
 10
53.27716586343417
 20
43.380572018566681
 70
0
  0
VERTEX
  5
28803
  8
0
 62
7
 10
53.530724891148537
 20
43.466354896149419
 70
0
  0
SEQEND
  5
28804
  8
0
  0
POLYLINE
  5
28805
  8
0
 62
7
 66
1
 70
0
 10
0
 20
0
 30
0
  0
VERTEX
  5
28806
  8
0
 62
7
 10
51.79577480477672
 20
43.466354896149419
 70
0
  0
VERTEX
  5
28807
  8
0
 62
7
 10
52.049333832491122
 20
43.423635712132288
 70
0
  0
VERTEX
  5
28808
  8
0
 62
7
 10
52.388331228239707
 20
43.380572018566681
 70
0
  0
VERTEX
  5
28809
  8
0
 62
7
 10
52.684609439971183
 20
43.380572018566681
 70
0
  0
VERTEX
  5
2880A
  8
0
 62
7
 10
52.938168467685578
 20
43.380572018566681
 70
0
  0
VERTEX
  5
2880B
  8
0
 62
7
 10
53.27716586343417
 20
43.466354896149419
 70
0
  0
VERTEX
  5
2880C
  8
0
 62
7
 10
53.530724891148537
 20
43.507523787198117
 70
0
  0
SEQEND
  5
2880D
  8
0
  0
POLYLINE
  5
2880E
  8
0
 62
7
 66
1
 70
0
 10
0
 20
0
 30
0
  0
VERTEX
  5
2880F
  8
0
 62
7
 10
52.599171071936979
 20
42.618516897229419
 70
0
  0
VERTEX
  5
28810
  8
0
 62
7
 10
52.811388953828377
 20
42.618516897229419
 70
0
  0
VERTEX
  5
28811
  8
0
 62
7
 10
53.023606835719761
 20
42.6612360812465
 70
0
  0
VERTEX
  5
28812
  8
0
 62
7
 10
53.191727495399959
 20
42.70395526526363
 70
0
  0
VERTEX
  5
28813
  8
0
 62
7
 10
53.403945377291357
 20
42.70395526526363
 70
0
  0
VERTEX
  5
28814
  8
0
 62
7
 10
53.573444075165632
 20
42.747018958829237
 70
0
  0
VERTEX
  5
28815
  8
0
 62
7
 10
53.785661957057052
 20
42.830907033895073
 70
0
  0
SEQEND
  5
28816
  8
0
  0
POLYLINE
  5
28817
  8
0
 62
7
 66
1
 70
0
 10
0
 20
0
 30
0
  0
VERTEX
  5
28818
  8
0
 62
7
 10
53.530724891148537
 20
45.456069793655438
 70
0
  0
VERTEX
  5
28819
  8
0
 62
7
 10
53.573444075165632
 20
45.540302378269807
 70
0
  0
VERTEX
  5
2881A
  8
0
 62
7
 10
53.616163259182741
 20
45.583021562286881
 70
0
  0
VERTEX
  5
2881B
  8
0
 62
7
 10
53.657504405005739
 20
45.624190453335643
 70
0
  0
VERTEX
  5
2881C
  8
0
 62
7
 10
53.657504405005739
 20
45.66690963735271
 70
0
  0
VERTEX
  5
2881D
  8
0
 62
7
 10
53.700223589022841
 20
45.70962882136984
 70
0
  0
VERTEX
  5
2881E
  8
0
 62
7
 10
53.700223589022841
 20
45.793516896435669
 70
0
  0
SEQEND
  5
2881F
  8
0
  0
POLYLINE
  5
28820
  8
0
 62
7
 66
1
 70
0
 10
0
 20
0
 30
0
  0
VERTEX
  5
28821
  8
0
 62
7
 10
50.059446680210812
 20
49.097018957241737
 70
0
  0
VERTEX
  5
28822
  8
0
 62
7
 10
49.93266716635361
 20
49.1381878482905
 70
0
  0
VERTEX
  5
28823
  8
0
 62
7
 10
49.763168468479329
 20
49.1381878482905
 70
0
  0
VERTEX
  5
28824
  8
0
 62
7
 10
49.636388954622142
 20
49.1381878482905
 70
0
  0
VERTEX
  5
28825
  8
0
 62
7
 10
49.509609440764933
 20
49.1381878482905
 70
0
  0
VERTEX
  5
28826
  8
0
 62
7
 10
49.382829926907732
 20
49.1381878482905
 70
0
  0
VERTEX
  5
28827
  8
0
 62
7
 10
49.256050413050559
 20
49.1381878482905
 70
0
  0
SEQEND
  5
28828
  8
0
  0
POLYLINE
  5
28829
  8
0
 62
7
 66
1
 70
0
 10
0
 20
0
 30
0
  0
VERTEX
  5
2882A
  8
0
 62
7
 10
52.431050412256809
 20
44.05856681006383
 70
0
  0
VERTEX
  5
2882B
  8
0
 62
7
 10
52.515110742096908
 20
44.05856681006383
 70
0
  0
VERTEX
  5
2882C
  8
0
 62
7
 10
52.641890255954081
 20
44.05856681006383
 70
0
  0
VERTEX
  5
2882D
  8
0
 62
7
 10
52.684609439971183
 20
44.05856681006383
 70
0
  0
VERTEX
  5
2882E
  8
0
 62
7
 10
52.768669769811282
 20
44.05856681006383
 70
0
  0
VERTEX
  5
2882F
  8
0
 62
7
 10
52.854108137845479
 20
44.101285994080961
 70
0
  0
VERTEX
  5
28830
  8
0
 62
7
 10
52.938168467685578
 20
44.142971649452477
 70
0
  0
SEQEND
  5
28831
  8
0
  0
POLYLINE
  5
28832
  8
0
 62
7
 66
1
 70
0
 10
0
 20
0
 30
0
  0
VERTEX
  5
28833
  8
0
 62
7
 10
50.73744147170796
 20
48.799190452541893
 70
0
  0
VERTEX
  5
28834
  8
0
 62
7
 10
50.652003103673792
 20
48.88462882057609
 70
0
  0
VERTEX
  5
28835
  8
0
 62
7
 10
50.525223589816591
 20
48.968516895641933
 70
0
  0
VERTEX
  5
28836
  8
0
 62
7
 10
50.441163259976491
 20
49.011236079658993
 70
0
  0
VERTEX
  5
28837
  8
0
 62
7
 10
50.355724891942288
 20
49.097018957241737
 70
0
  0
VERTEX
  5
28838
  8
0
 62
7
 10
50.228945378085108
 20
49.1381878482905
 70
0
  0
VERTEX
  5
28839
  8
0
 62
7
 10
50.102165864227914
 20
49.1381878482905
 70
0
  0
VERTEX
  5
2883A
  8
0
 62
7
 10
49.975386350370712
 20
49.180907032307573
 70
0
  0
VERTEX
  5
2883B
  8
0
 62
7
 10
49.848606836513511
 20
49.223626216324647
 70
0
  0
VERTEX
  5
2883C
  8
0
 62
7
 10
49.720449284462227
 20
49.223626216324647
 70
0
  0
VERTEX
  5
2883D
  8
0
 62
7
 10
49.593669770605032
 20
49.223626216324647
 70
0
  0
VERTEX
  5
2883E
  8
0
 62
7
 10
49.466890256747831
 20
49.180907032307573
 70
0
  0
VERTEX
  5
2883F
  8
0
 62
7
 10
49.340110742890658
 20
49.1381878482905
 70
0
  0
SEQEND
  5
28840
  8
0
  0
POLYLINE
  5
28841
  8
0
 62
7
 66
1
 70
0
 10
0
 20
0
 30
0
  0
VERTEX
  5
28842
  8
0
 62
7
 10
52.1333941623312
 20
44.142971649452477
 70
0
  0
VERTEX
  5
28843
  8
0
 62
7
 10
52.1761133463483
 20
44.101285994080961
 70
0
  0
VERTEX
  5
28844
  8
0
 62
7
 10
52.2615517143825
 20
44.101285994080961
 70
0
  0
VERTEX
  5
28845
  8
0
 62
7
 10
52.3028928602055
 20
44.05856681006383
 70
0
  0
VERTEX
  5
28846
  8
0
 62
7
 10
52.3456120442226
 20
44.05856681006383
 70
0
  0
VERTEX
  5
28847
  8
0
 62
7
 10
52.388331228239707
 20
44.05856681006383
 70
0
  0
VERTEX
  5
28848
  8
0
 62
7
 10
52.431050412256809
 20
44.05856681006383
 70
0
  0
SEQEND
  5
28849
  8
0
  0
POLYLINE
  5
2884A
  8
0
 62
7
 66
1
 70
0
 10
0
 20
0
 30
0
  0
VERTEX
  5
2884B
  8
0
 62
7
 10
49.593669770605032
 20
47.191019880027277
 70
0
  0
VERTEX
  5
2884C
  8
0
 62
7
 10
49.636388954622142
 20
47.191019880027277
 70
0
  0
VERTEX
  5
2884D
  8
0
 62
7
 10
49.720449284462227
 20
47.191019880027277
 70
0
  0
VERTEX
  5
2884E
  8
0
 62
7
 10
49.720449284462227
 20
47.23356680927008
 70
0
  0
VERTEX
  5
2884F
  8
0
 62
7
 10
49.763168468479329
 20
47.23356680927008
 70
0
  0
VERTEX
  5
28850
  8
0
 62
7
 10
49.805887652496438
 20
47.23356680927008
 70
0
  0
VERTEX
  5
28851
  8
0
 62
7
 10
49.848606836513511
 20
47.27628599328721
 70
0
  0
VERTEX
  5
28852
  8
0
 62
7
 10
49.889947982336508
 20
47.317971648658727
 70
0
  0
VERTEX
  5
28853
  8
0
 62
7
 10
49.93266716635361
 20
47.36051857790158
 70
0
  0
VERTEX
  5
28854
  8
0
 62
7
 10
49.975386350370712
 20
47.36051857790158
 70
0
  0
VERTEX
  5
28855
  8
0
 62
7
 10
49.975386350370712
 20
47.40323776191866
 70
0
  0
VERTEX
  5
28856
  8
0
 62
7
 10
50.01672749619371
 20
47.444578907741629
 70
0
  0
VERTEX
  5
28857
  8
0
 62
7
 10
50.01672749619371
 20
47.48729809175876
 70
0
  0
VERTEX
  5
28858
  8
0
 62
7
 10
50.01672749619371
 20
47.530017275775833
 70
0
  0
VERTEX
  5
28859
  8
0
 62
7
 10
50.059446680210812
 20
47.572564205018693
 70
0
  0
VERTEX
  5
2885A
  8
0
 62
7
 10
50.059446680210812
 20
47.613905350841662
 70
0
  0
VERTEX
  5
2885B
  8
0
 62
7
 10
50.059446680210812
 20
47.656969044407333
 70
0
  0
VERTEX
  5
2885C
  8
0
 62
7
 10
50.059446680210812
 20
47.6996882284244
 70
0
  0
SEQEND
  5
2885D
  8
0
  0
POLYLINE
  5
2885E
  8
0
 62
7
 66
1
 70
0
 10
0
 20
0
 30
0
  0
VERTEX
  5
2885F
  8
0
 62
7
 10
49.12789286099926
 20
47.6996882284244
 70
0
  0
VERTEX
  5
28860
  8
0
 62
7
 10
49.12789286099926
 20
47.656969044407333
 70
0
  0
VERTEX
  5
28861
  8
0
 62
7
 10
49.12789286099926
 20
47.613905350841662
 70
0
  0
VERTEX
  5
28862
  8
0
 62
7
 10
49.170612045016348
 20
47.572564205018693
 70
0
  0
VERTEX
  5
28863
  8
0
 62
7
 10
49.170612045016348
 20
47.530017275775833
 70
0
  0
VERTEX
  5
28864
  8
0
 62
7
 10
49.21333122903345
 20
47.48729809175876
 70
0
  0
VERTEX
  5
28865
  8
0
 62
7
 10
49.21333122903345
 20
47.444578907741629
 70
0
  0
VERTEX
  5
28866
  8
0
 62
7
 10
49.21333122903345
 20
47.40323776191866
 70
0
  0
VERTEX
  5
28867
  8
0
 62
7
 10
49.256050413050559
 20
47.36051857790158
 70
0
  0
VERTEX
  5
28868
  8
0
 62
7
 10
49.297391558873557
 20
47.36051857790158
 70
0
  0
VERTEX
  5
28869
  8
0
 62
7
 10
49.340110742890658
 20
47.317971648658727
 70
0
  0
VERTEX
  5
2886A
  8
0
 62
7
 10
49.340110742890658
 20
47.27628599328721
 70
0
  0
VERTEX
  5
2886B
  8
0
 62
7
 10
49.382829926907732
 20
47.23356680927008
 70
0
  0
VERTEX
  5
2886C
  8
0
 62
7
 10
49.424171072730722
 20
47.23356680927008
 70
0
  0
VERTEX
  5
2886D
  8
0
 62
7
 10
49.466890256747831
 20
47.23356680927008
 70
0
  0
VERTEX
  5
2886E
  8
0
 62
7
 10
49.509609440764933
 20
47.191019880027277
 70
0
  0
VERTEX
  5
2886F
  8
0
 62
7
 10
49.552328624782042
 20
47.191019880027277
 70
0
  0
VERTEX
  5
28870
  8
0
 62
7
 10
49.593669770605032
 20
47.191019880027277
 70
0
  0
SEQEND
  5
28871
  8
0
  0
POLYLINE
  5
28872
  8
0
 62
7
 66
1
 70
0
 10
0
 20
0
 30
0
  0
VERTEX
  5
28873
  8
0
 62
7
 10
50.059446680210812
 20
47.6996882284244
 70
0
  0
VERTEX
  5
28874
  8
0
 62
7
 10
50.059446680210812
 20
47.740857119473162
 70
0
  0
VERTEX
  5
28875
  8
0
 62
7
 10
50.059446680210812
 20
47.783576303490229
 70
0
  0
VERTEX
  5
28876
  8
0
 62
7
 10
50.059446680210812
 20
47.826295487507359
 70
0
  0
VERTEX
  5
28877
  8
0
 62
7
 10
50.01672749619371
 20
47.86901467152444
 70
0
  0
VERTEX
  5
28878
  8
0
 62
7
 10
50.01672749619371
 20
47.910183562573188
 70
0
  0
VERTEX
  5
28879
  8
0
 62
7
 10
50.01672749619371
 20
47.952902746590262
 70
0
  0
VERTEX
  5
2887A
  8
0
 62
7
 10
49.975386350370712
 20
47.995621930607342
 70
0
  0
VERTEX
  5
2887B
  8
0
 62
7
 10
49.975386350370712
 20
48.038685624173013
 70
0
  0
VERTEX
  5
2887C
  8
0
 62
7
 10
49.93266716635361
 20
48.079854515221712
 70
0
  0
VERTEX
  5
2887D
  8
0
 62
7
 10
49.889947982336508
 20
48.079854515221712
 70
0
  0
VERTEX
  5
2887E
  8
0
 62
7
 10
49.848606836513511
 20
48.122573699238842
 70
0
  0
VERTEX
  5
2887F
  8
0
 62
7
 10
49.80554314294789
 20
48.122573699238842
 70
0
  0
VERTEX
  5
28880
  8
0
 62
7
 10
49.763168468479329
 20
48.165292883255908
 70
0
  0
VERTEX
  5
28881
  8
0
 62
7
 10
49.720449284462227
 20
48.206634029078941
 70
0
  0
VERTEX
  5
28882
  8
0
 62
7
 10
49.636388954622142
 20
48.206634029078941
 70
0
  0
VERTEX
  5
28883
  8
0
 62
7
 10
49.593669770605032
 20
48.206634029078941
 70
0
  0
VERTEX
  5
28884
  8
0
 62
7
 10
49.552328624782042
 20
48.206634029078941
 70
0
  0
VERTEX
  5
28885
  8
0
 62
7
 10
49.509609440764933
 20
48.206634029078941
 70
0
  0
VERTEX
  5
28886
  8
0
 62
7
 10
49.466890256747831
 20
48.206634029078941
 70
0
  0
VERTEX
  5
28887
  8
0
 62
7
 10
49.424171072730722
 20
48.165292883255908
 70
0
  0
VERTEX
  5
28888
  8
0
 62
7
 10
49.382829926907732
 20
48.122573699238842
 70
0
  0
VERTEX
  5
28889
  8
0
 62
7
 10
49.340110742890658
 20
48.122573699238842
 70
0
  0
VERTEX
  5
2888A
  8
0
 62
7
 10
49.340110742890658
 20
48.079854515221712
 70
0
  0
VERTEX
  5
2888B
  8
0
 62
7
 10
49.297391558873557
 20
48.079854515221712
 70
0
  0
VERTEX
  5
2888C
  8
0
 62
7
 10
49.256050413050559
 20
48.038685624173013
 70
0
  0
VERTEX
  5
2888D
  8
0
 62
7
 10
49.21333122903345
 20
47.995621930607342
 70
0
  0
VERTEX
  5
2888E
  8
0
 62
7
 10
49.21333122903345
 20
47.952902746590262
 70
0
  0
VERTEX
  5
2888F
  8
0
 62
7
 10
49.21333122903345
 20
47.910183562573188
 70
0
  0
VERTEX
  5
28890
  8
0
 62
7
 10
49.170612045016348
 20
47.86901467152444
 70
0
  0
VERTEX
  5
28891
  8
0
 62
7
 10
49.170612045016348
 20
47.826295487507359
 70
0
  0
VERTEX
  5
28892
  8
0
 62
7
 10
49.12789286099926
 20
47.783576303490229
 70
0
  0
VERTEX
  5
28893
  8
0
 62
7
 10
49.12789286099926
 20
47.740857119473162
 70
0
  0
VERTEX
  5
28894
  8
0
 62
7
 10
49.12789286099926
 20
47.6996882284244
 70
0
  0
SEQEND
  5
28895
  8
0
  0
POLYLINE
  5
28896
  8
0
 62
7
 66
1
 70
0
 10
0
 20
0
 30
0
  0
VERTEX
  5
28897
  8
0
 62
7
 10
49.593669770605032
 20
48.165292883255908
 70
0
  0
VERTEX
  5
28898
  8
0
 62
7
 10
49.552328624782042
 20
48.165292883255908
 70
0
  0
VERTEX
  5
28899
  8
0
 62
7
 10
49.509609440764933
 20
48.122573699238842
 70
0
  0
VERTEX
  5
2889A
  8
0
 62
7
 10
49.466890256747831
 20
48.122573699238842
 70
0
  0
VERTEX
  5
2889B
  8
0
 62
7
 10
49.382829926907732
 20
48.122573699238842
 70
0
  0
VERTEX
  5
2889C
  8
0
 62
7
 10
49.382829926907732
 20
48.079854515221712
 70
0
  0
VERTEX
  5
2889D
  8
0
 62
7
 10
49.340110742890658
 20
48.079854515221712
 70
0
  0
VERTEX
  5
2889E
  8
0
 62
7
 10
49.340110742890658
 20
48.038685624173013
 70
0
  0
VERTEX
  5
2889F
  8
0
 62
7
 10
49.297391558873557
 20
47.995621930607342
 70
0
  0
VERTEX
  5
288A0
  8
0
 62
7
 10
49.256050413050559
 20
47.995621930607342
 70
0
  0
VERTEX
  5
288A1
  8
0
 62
7
 10
49.256050413050559
 20
47.952902746590262
 70
0
  0
VERTEX
  5
288A2
  8
0
 62
7
 10
49.21333122903345
 20
47.910183562573188
 70
0
  0
VERTEX
  5
288A3
  8
0
 62
7
 10
49.21333122903345
 20
47.86901467152444
 70
0
  0
VERTEX
  5
288A4
  8
0
 62
7
 10
49.21333122903345
 20
47.826295487507359
 70
0
  0
VERTEX
  5
288A5
  8
0
 62
7
 10
49.170612045016348
 20
47.826295487507359
 70
0
  0
VERTEX
  5
288A6
  8
0
 62
7
 10
49.170612045016348
 20
47.740857119473162
 70
0
  0
VERTEX
  5
288A7
  8
0
 62
7
 10
49.170612045016348
 20
47.6996882284244
 70
0
  0
VERTEX
  5
288A8
  8
0
 62
7
 10
49.170612045016348
 20
47.613905350841662
 70
0
  0
VERTEX
  5
288A9
  8
0
 62
7
 10
49.21333122903345
 20
47.572564205018693
 70
0
  0
VERTEX
  5
288AA
  8
0
 62
7
 10
49.21333122903345
 20
47.530017275775833
 70
0
  0
VERTEX
  5
288AB
  8
0
 62
7
 10
49.21333122903345
 20
47.48729809175876
 70
0
  0
VERTEX
  5
288AC
  8
0
 62
7
 10
49.256050413050559
 20
47.444578907741629
 70
0
  0
VERTEX
  5
288AD
  8
0
 62
7
 10
49.297391558873557
 20
47.40323776191866
 70
0
  0
VERTEX
  5
288AE
  8
0
 62
7
 10
49.340110742890658
 20
47.3606908326758
 70
0
  0
VERTEX
  5
288AF
  8
0
 62
7
 10
49.382829926907732
 20
47.317971648658727
 70
0
  0
VERTEX
  5
288B0
  8
0
 62
7
 10
49.466890256747831
 20
47.27628599328721
 70
0
  0
VERTEX
  5
288B1
  8
0
 62
7
 10
49.509609440764933
 20
47.23356680927008
 70
0
  0
VERTEX
  5
288B2
  8
0
 62
7
 10
49.552328624782042
 20
47.23356680927008
 70
0
  0
VERTEX
  5
288B3
  8
0
 62
7
 10
49.593669770605032
 20
47.23356680927008
 70
0
  0
VERTEX
  5
288B4
  8
0
 62
7
 10
49.636388954622142
 20
47.23356680927008
 70
0
  0
VERTEX
  5
288B5
  8
0
 62
7
 10
49.679108138639229
 20
47.23356680927008
 70
0
  0
VERTEX
  5
288B6
  8
0
 62
7
 10
49.720449284462227
 20
47.27628599328721
 70
0
  0
VERTEX
  5
288B7
  8
0
 62
7
 10
49.763168468479329
 20
47.27628599328721
 70
0
  0
VERTEX
  5
288B8
  8
0
 62
7
 10
49.805887652496438
 20
47.317971648658727
 70
0
  0
VERTEX
  5
288B9
  8
0
 62
7
 10
49.848606836513511
 20
47.317971648658727
 70
0
  0
VERTEX
  5
288BA
  8
0
 62
7
 10
49.848606836513511
 20
47.3606908326758
 70
0
  0
VERTEX
  5
288BB
  8
0
 62
7
 10
49.889947982336508
 20
47.3606908326758
 70
0
  0
VERTEX
  5
288BC
  8
0
 62
7
 10
49.93266716635361
 20
47.40323776191866
 70
0
  0
VERTEX
  5
288BD
  8
0
 62
7
 10
49.975386350370712
 20
47.444578907741629
 70
0
  0
VERTEX
  5
288BE
  8
0
 62
7
 10
49.975386350370712
 20
47.48729809175876
 70
0
  0
VERTEX
  5
288BF
  8
0
 62
7
 10
50.01672749619371
 20
47.530017275775833
 70
0
  0
VERTEX
  5
288C0
  8
0
 62
7
 10
50.01672749619371
 20
47.572564205018693
 70
0
  0
VERTEX
  5
288C1
  8
0
 62
7
 10
50.01672749619371
 20
47.613905350841662
 70
0
  0
VERTEX
  5
288C2
  8
0
 62
7
 10
50.01672749619371
 20
47.6996882284244
 70
0
  0
VERTEX
  5
288C3
  8
0
 62
7
 10
50.01672749619371
 20
47.740857119473162
 70
0
  0
VERTEX
  5
288C4
  8
0
 62
7
 10
50.01672749619371
 20
47.826295487507359
 70
0
  0
VERTEX
  5
288C5
  8
0
 62
7
 10
50.01672749619371
 20
47.86901467152444
 70
0
  0
VERTEX
  5
288C6
  8
0
 62
7
 10
49.975386350370712
 20
47.910183562573188
 70
0
  0
VERTEX
  5
288C7
  8
0
 62
7
 10
49.975386350370712
 20
47.952902746590262
 70
0
  0
VERTEX
  5
288C8
  8
0
 62
7
 10
49.975386350370712
 20
47.995621930607342
 70
0
  0
VERTEX
  5
288C9
  8
0
 62
7
 10
49.93266716635361
 20
47.995621930607342
 70
0
  0
VERTEX
  5
288CA
  8
0
 62
7
 10
49.889947982336508
 20
48.038685624173013
 70
0
  0
VERTEX
  5
288CB
  8
0
 62
7
 10
49.848606836513511
 20
48.079854515221712
 70
0
  0
VERTEX
  5
288CC
  8
0
 62
7
 10
49.805887652496438
 20
48.122573699238842
 70
0
  0
VERTEX
  5
288CD
  8
0
 62
7
 10
49.763168468479329
 20
48.122573699238842
 70
0
  0
VERTEX
  5
288CE
  8
0
 62
7
 10
49.720449284462227
 20
48.122573699238842
 70
0
  0
VERTEX
  5
288CF
  8
0
 62
7
 10
49.679108138639229
 20
48.122573699238842
 70
0
  0
VERTEX
  5
288D0
  8
0
 62
7
 10
49.636388954622142
 20
48.165292883255908
 70
0
  0
VERTEX
  5
288D1
  8
0
 62
7
 10
49.593669770605032
 20
48.165292883255908
 70
0
  0
SEQEND
  5
288D2
  8
0
  0
POLYLINE
  5
288D3
  8
0
 62
7
 66
1
 70
0
 10
0
 20
0
 30
0
  0
VERTEX
  5
288D4
  8
0
 62
7
 10
49.593669770605032
 20
47.910183562573188
 70
0
  0
VERTEX
  5
288D5
  8
0
 62
7
 10
49.593669770605032
 20
47.910183562573188
 70
0
  0
VERTEX
  5
288D6
  8
0
 62
7
 10
49.552328624782042
 20
47.910183562573188
 70
0
  0
VERTEX
  5
288D7
  8
0
 62
7
 10
49.509609440764933
 20
47.910183562573188
 70
0
  0
VERTEX
  5
288D8
  8
0
 62
7
 10
49.509609440764933
 20
47.86901467152444
 70
0
  0
VERTEX
  5
288D9
  8
0
 62
7
 10
49.466890256747831
 20
47.86901467152444
 70
0
  0
VERTEX
  5
288DA
  8
0
 62
7
 10
49.466890256747831
 20
47.826295487507359
 70
0
  0
VERTEX
  5
288DB
  8
0
 62
7
 10
49.424171072730722
 20
47.826295487507359
 70
0
  0
VERTEX
  5
288DC
  8
0
 62
7
 10
49.424171072730722
 20
47.783576303490229
 70
0
  0
VERTEX
  5
288DD
  8
0
 62
7
 10
49.382829926907732
 20
47.740857119473162
 70
0
  0
VERTEX
  5
288DE
  8
0
 62
7
 10
49.382829926907732
 20
47.6996882284244
 70
0
  0
VERTEX
  5
288DF
  8
0
 62
7
 10
49.382829926907732
 20
47.656969044407333
 70
0
  0
VERTEX
  5
288E0
  8
0
 62
7
 10
49.382829926907732
 20
47.613905350841662
 70
0
  0
VERTEX
  5
288E1
  8
0
 62
7
 10
49.424171072730722
 20
47.613905350841662
 70
0
  0
VERTEX
  5
288E2
  8
0
 62
7
 10
49.424171072730722
 20
47.572564205018693
 70
0
  0
VERTEX
  5
288E3
  8
0
 62
7
 10
49.466890256747831
 20
47.572564205018693
 70
0
  0
VERTEX
  5
288E4
  8
0
 62
7
 10
49.466890256747831
 20
47.530017275775833
 70
0
  0
VERTEX
  5
288E5
  8
0
 62
7
 10
49.509609440764933
 20
47.530017275775833
 70
0
  0
VERTEX
  5
288E6
  8
0
 62
7
 10
49.509609440764933
 20
47.48729809175876
 70
0
  0
VERTEX
  5
288E7
  8
0
 62
7
 10
49.552328624782042
 20
47.48729809175876
 70
0
  0
VERTEX
  5
288E8
  8
0
 62
7
 10
49.593669770605032
 20
47.48729809175876
 70
0
  0
VERTEX
  5
288E9
  8
0
 62
7
 10
49.636388954622142
 20
47.48729809175876
 70
0
  0
VERTEX
  5
288EA
  8
0
 62
7
 10
49.679108138639229
 20
47.48729809175876
 70
0
  0
VERTEX
  5
288EB
  8
0
 62
7
 10
49.720449284462227
 20
47.48729809175876
 70
0
  0
VERTEX
  5
288EC
  8
0
 62
7
 10
49.720449284462227
 20
47.530017275775833
 70
0
  0
VERTEX
  5
288ED
  8
0
 62
7
 10
49.720449284462227
 20
47.572564205018693
 70
0
  0
VERTEX
  5
288EE
  8
0
 62
7
 10
49.763168468479329
 20
47.572564205018693
 70
0
  0
VERTEX
  5
288EF
  8
0
 62
7
 10
49.763168468479329
 20
47.613905350841662
 70
0
  0
VERTEX
  5
288F0
  8
0
 62
7
 10
49.805887652496438
 20
47.613905350841662
 70
0
  0
VERTEX
  5
288F1
  8
0
 62
7
 10
49.805887652496438
 20
47.656969044407333
 70
0
  0
VERTEX
  5
288F2
  8
0
 62
7
 10
49.805887652496438
 20
47.6996882284244
 70
0
  0
VERTEX
  5
288F3
  8
0
 62
7
 10
49.805887652496438
 20
47.740857119473162
 70
0
  0
VERTEX
  5
288F4
  8
0
 62
7
 10
49.763168468479329
 20
47.783576303490229
 70
0
  0
VERTEX
  5
288F5
  8
0
 62
7
 10
49.763168468479329
 20
47.826295487507359
 70
0
  0
VERTEX
  5
288F6
  8
0
 62
7
 10
49.720449284462227
 20
47.86901467152444
 70
0
  0
VERTEX
  5
288F7
  8
0
 62
7
 10
49.679108138639229
 20
47.910183562573188
 70
0
  0
VERTEX
  5
288F8
  8
0
 62
7
 10
49.636388954622142
 20
47.910183562573188
 70
0
  0
VERTEX
  5
288F9
  8
0
 62
7
 10
49.593669770605032
 20
47.910183562573188
 70
0
  0
SEQEND
  5
288FA
  8
0
  0
POLYLINE
  5
288FB
  8
0
 62
7
 66
1
 70
0
 10
0
 20
0
 30
0
  0
VERTEX
  5
288FC
  8
0
 62
7
 10
52.768669769811282
 20
45.583021562286881
 70
0
  0
VERTEX
  5
288FD
  8
0
 62
7
 10
52.684609439971183
 20
45.540302378269807
 70
0
  0
VERTEX
  5
288FE
  8
0
 62
7
 10
52.641890255954081
 20
45.455897538881167
 70
0
  0
VERTEX
  5
288FF
  8
0
 62
7
 10
52.557829926113982
 20
45.370631425621241
 70
0
  0
VERTEX
  5
28900
  8
0
 62
7
 10
52.515110742096908
 20
45.286571095781142
 70
0
  0
VERTEX
  5
28901
  8
0
 62
7
 10
52.431050412256809
 20
45.201304982521208
 70
0
  0
VERTEX
  5
28902
  8
0
 62
7
 10
52.388331228239707
 20
45.1596193271497
 70
0
  0
SEQEND
  5
28903
  8
0
  0
POLYLINE
  5
28904
  8
0
 62
7
 66
1
 70
0
 10
0
 20
0
 30
0
  0
VERTEX
  5
28905
  8
0
 62
7
 10
52.1761133463483
 20
44.777902747384019
 70
0
  0
VERTEX
  5
28906
  8
0
 62
7
 10
52.1761133463483
 20
44.735183563366938
 70
0
  0
VERTEX
  5
28907
  8
0
 62
7
 10
52.1761133463483
 20
44.651295488301123
 70
0
  0
VERTEX
  5
28908
  8
0
 62
7
 10
52.1333941623312
 20
44.608576304283993
 70
0
  0
VERTEX
  5
28909
  8
0
 62
7
 10
52.1333941623312
 20
44.52468822921815
 70
0
  0
VERTEX
  5
2890A
  8
0
 62
7
 10
52.1333941623312
 20
44.481969045201083
 70
0
  0
VERTEX
  5
2890B
  8
0
 62
7
 10
52.0920530165082
 20
44.438905351635412
 70
0
  0
SEQEND
  5
2890C
  8
0
  0
POLYLINE
  5
2890D
  8
0
 62
7
 66
1
 70
0
 10
0
 20
0
 30
0
  0
VERTEX
  5
2890E
  8
0
 62
7
 10
54.208719682645722
 20
40.630352292691747
 70
0
  0
VERTEX
  5
2890F
  8
0
 62
7
 10
54.292780012485821
 20
40.671521183740481
 70
0
  0
VERTEX
  5
28910
  8
0
 62
7
 10
54.378218380519989
 20
40.671521183740481
 70
0
  0
VERTEX
  5
28911
  8
0
 62
7
 10
54.462278710360088
 20
40.714240367757583
 70
0
  0
VERTEX
  5
28912
  8
0
 62
7
 10
54.5477170783943
 20
40.714240367757583
 70
0
  0
VERTEX
  5
28913
  8
0
 62
7
 10
54.5890582242173
 20
40.756959551774678
 70
0
  0
VERTEX
  5
28914
  8
0
 62
7
 10
54.6744965922515
 20
40.798300697597682
 70
0
  0
SEQEND
  5
28915
  8
0
  0
POLYLINE
  5
28916
  8
0
 62
7
 66
1
 70
0
 10
0
 20
0
 30
0
  0
VERTEX
  5
28917
  8
0
 62
7
 10
52.388331228239707
 20
45.1596193271497
 70
0
  0
VERTEX
  5
28918
  8
0
 62
7
 10
52.3456120442226
 20
45.074353213889758
 70
0
  0
VERTEX
  5
28919
  8
0
 62
7
 10
52.3028928602055
 20
45.031634029872691
 70
0
  0
VERTEX
  5
2891A
  8
0
 62
7
 10
52.2615517143825
 20
44.990292884049659
 70
0
  0
VERTEX
  5
2891B
  8
0
 62
7
 10
52.2615517143825
 20
44.904854516015448
 70
0
  0
VERTEX
  5
2891C
  8
0
 62
7
 10
52.218832530365411
 20
44.863685624966763
 70
0
  0
VERTEX
  5
2891D
  8
0
 62
7
 10
52.1761133463483
 20
44.777902747384019
 70
0
  0
SEQEND
  5
2891E
  8
0
  0
POLYLINE
  5
2891F
  8
0
 62
7
 66
1
 70
0
 10
0
 20
0
 30
0
  0
VERTEX
  5
28920
  8
0
 62
7
 10
53.785661957057052
 20
42.830907033895073
 70
0
  0
VERTEX
  5
28921
  8
0
 62
7
 10
53.827003102880042
 20
42.830907033895073
 70
0
  0
VERTEX
  5
28922
  8
0
 62
7
 10
53.912441470914217
 20
42.87362621791214
 70
0
  0
VERTEX
  5
28923
  8
0
 62
7
 10
53.953782616737207
 20
42.87362621791214
 70
0
  0
VERTEX
  5
28924
  8
0
 62
7
 10
54.039220984771418
 20
42.957686547752239
 70
0
  0
VERTEX
  5
28925
  8
0
 62
7
 10
54.08194016878852
 20
42.957686547752239
 70
0
  0
VERTEX
  5
28926
  8
0
 62
7
 10
54.16600049862862
 20
43.0002334769951
 70
0
  0
SEQEND
  5
28927
  8
0
  0
POLYLINE
  5
28928
  8
0
 62
7
 66
1
 70
0
 10
0
 20
0
 30
0
  0
VERTEX
  5
28929
  8
0
 62
7
 10
53.150386349576962
 20
44.777902747384019
 70
0
  0
VERTEX
  5
2892A
  8
0
 62
7
 10
53.10766716555986
 20
44.777902747384019
 70
0
  0
VERTEX
  5
2892B
  8
0
 62
7
 10
53.064947981542751
 20
44.694014672318183
 70
0
  0
VERTEX
  5
2892C
  8
0
 62
7
 10
53.023606835719761
 20
44.651295488301123
 70
0
  0
VERTEX
  5
2892D
  8
0
 62
7
 10
53.023606835719761
 20
44.565857120266912
 70
0
  0
VERTEX
  5
2892E
  8
0
 62
7
 10
53.023606835719761
 20
44.52468822921815
 70
0
  0
SEQEND
  5
2892F
  8
0
  0
POLYLINE
  5
28930
  8
0
 62
7
 66
1
 70
0
 10
0
 20
0
 30
0
  0
VERTEX
  5
28931
  8
0
 62
7
 10
54.16600049862862
 20
44.185690833469543
 70
0
  0
VERTEX
  5
28932
  8
0
 62
7
 10
54.16600049862862
 20
44.228237762712411
 70
0
  0
VERTEX
  5
28933
  8
0
 62
7
 10
54.08194016878852
 20
44.269578908535379
 70
0
  0
VERTEX
  5
28934
  8
0
 62
7
 10
54.08194016878852
 20
44.31229809255251
 70
0
  0
VERTEX
  5
28935
  8
0
 62
7
 10
54.039220984771418
 20
44.31229809255251
 70
0
  0
VERTEX
  5
28936
  8
0
 62
7
 10
53.953782616737207
 20
44.355017276569583
 70
0
  0
VERTEX
  5
28937
  8
0
 62
7
 10
53.912441470914217
 20
44.397564205812436
 70
0
  0
SEQEND
  5
28938
  8
0
  0
POLYLINE
  5
28939
  8
0
 62
7
 66
1
 70
0
 10
0
 20
0
 30
0
  0
VERTEX
  5
2893A
  8
0
 62
7
 10
53.064947981542751
 20
43.805352291897968
 70
0
  0
VERTEX
  5
2893B
  8
0
 62
7
 10
53.023606835719761
 20
43.805352291897968
 70
0
  0
VERTEX
  5
2893C
  8
0
 62
7
 10
52.938168467685578
 20
43.805352291897968
 70
0
  0
VERTEX
  5
2893D
  8
0
 62
7
 10
52.895449283668484
 20
43.805352291897968
 70
0
  0
VERTEX
  5
2893E
  8
0
 62
7
 10
52.854108137845479
 20
43.846521182946731
 70
0
  0
VERTEX
  5
2893F
  8
0
 62
7
 10
52.811388953828377
 20
43.846521182946731
 70
0
  0
VERTEX
  5
28940
  8
0
 62
7
 10
52.768669769811282
 20
43.846521182946731
 70
0
  0
SEQEND
  5
28941
  8
0
  0
POLYLINE
  5
28942
  8
0
 62
7
 66
1
 70
0
 10
0
 20
0
 30
0
  0
VERTEX
  5
28943
  8
0
 62
7
 10
52.768669769811282
 20
43.466354896149419
 70
0
  0
VERTEX
  5
28944
  8
0
 62
7
 10
52.811388953828377
 20
43.466354896149419
 70
0
  0
VERTEX
  5
28945
  8
0
 62
7
 10
52.854108137845479
 20
43.466354896149419
 70
0
  0
VERTEX
  5
28946
  8
0
 62
7
 10
52.895449283668484
 20
43.466354896149419
 70
0
  0
VERTEX
  5
28947
  8
0
 62
7
 10
52.938168467685578
 20
43.466354896149419
 70
0
  0
VERTEX
  5
28948
  8
0
 62
7
 10
53.023606835719761
 20
43.507523787198117
 70
0
  0
VERTEX
  5
28949
  8
0
 62
7
 10
53.064947981542751
 20
43.507523787198117
 70
0
  0
SEQEND
  5
2894A
  8
0
  0
POLYLINE
  5
2894B
  8
0
 62
7
 66
1
 70
0
 10
0
 20
0
 30
0
  0
VERTEX
  5
2894C
  8
0
 62
7
 10
53.023606835719761
 20
43.805352291897968
 70
0
  0
VERTEX
  5
2894D
  8
0
 62
7
 10
52.980887651702687
 20
43.805352291897968
 70
0
  0
VERTEX
  5
2894E
  8
0
 62
7
 10
52.938168467685578
 20
43.805352291897968
 70
0
  0
VERTEX
  5
2894F
  8
0
 62
7
 10
52.895449283668484
 20
43.805352291897968
 70
0
  0
VERTEX
  5
28950
  8
0
 62
7
 10
52.811388953828377
 20
43.846521182946731
 70
0
  0
VERTEX
  5
28951
  8
0
 62
7
 10
52.768669769811282
 20
43.846521182946731
 70
0
  0
SEQEND
  5
28952
  8
0
  0
POLYLINE
  5
28953
  8
0
 62
7
 66
1
 70
0
 10
0
 20
0
 30
0
  0
VERTEX
  5
28954
  8
0
 62
7
 10
53.023606835719761
 20
43.762288598332347
 70
0
  0
VERTEX
  5
28955
  8
0
 62
7
 10
52.980887651702687
 20
43.805352291897968
 70
0
  0
VERTEX
  5
28956
  8
0
 62
7
 10
52.938168467685578
 20
43.805352291897968
 70
0
  0
VERTEX
  5
28957
  8
0
 62
7
 10
52.895449283668484
 20
43.805352291897968
 70
0
  0
VERTEX
  5
28958
  8
0
 62
7
 10
52.811388953828377
 20
43.805352291897968
 70
0
  0
VERTEX
  5
28959
  8
0
 62
7
 10
52.768669769811282
 20
43.805352291897968
 70
0
  0
SEQEND
  5
2895A
  8
0
  0
POLYLINE
  5
2895B
  8
0
 62
7
 66
1
 70
0
 10
0
 20
0
 30
0
  0
VERTEX
  5
2895C
  8
0
 62
7
 10
52.768669769811282
 20
43.466354896149419
 70
0
  0
VERTEX
  5
2895D
  8
0
 62
7
 10
52.811388953828377
 20
43.466354896149419
 70
0
  0
VERTEX
  5
2895E
  8
0
 62
7
 10
52.811388953828377
 20
43.507523787198117
 70
0
  0
VERTEX
  5
2895F
  8
0
 62
7
 10
52.895449283668484
 20
43.507523787198117
 70
0
  0
VERTEX
  5
28960
  8
0
 62
7
 10
52.938168467685578
 20
43.507523787198117
 70
0
  0
VERTEX
  5
28961
  8
0
 62
7
 10
52.980887651702687
 20
43.507523787198117
 70
0
  0
VERTEX
  5
28962
  8
0
 62
7
 10
53.023606835719761
 20
43.507523787198117
 70
0
  0
SEQEND
  5
28963
  8
0
  0
POLYLINE
  5
28964
  8
0
 62
7
 66
1
 70
0
 10
0
 20
0
 30
0
  0
VERTEX
  5
28965
  8
0
 62
7
 10
52.768669769811282
 20
43.507523787198117
 70
0
  0
VERTEX
  5
28966
  8
0
 62
7
 10
52.811388953828377
 20
43.507523787198117
 70
0
  0
VERTEX
  5
28967
  8
0
 62
7
 10
52.895449283668484
 20
43.507523787198117
 70
0
  0
VERTEX
  5
28968
  8
0
 62
7
 10
52.938168467685578
 20
43.507523787198117
 70
0
  0
VERTEX
  5
28969
  8
0
 62
7
 10
52.980887651702687
 20
43.550242971215248
 70
0
  0
VERTEX
  5
2896A
  8
0
 62
7
 10
53.023606835719761
 20
43.550242971215248
 70
0
  0
SEQEND
  5
2896B
  8
0
  0
POLYLINE
  5
2896C
  8
0
 62
7
 66
1
 70
0
 10
0
 20
0
 30
0
  0
VERTEX
  5
2896D
  8
0
 62
7
 10
54.292780012485821
 20
44.016019880821027
 70
0
  0
VERTEX
  5
2896E
  8
0
 62
7
 10
54.292780012485821
 20
44.016019880821027
 70
0
  0
VERTEX
  5
2896F
  8
0
 62
7
 10
54.292780012485821
 20
44.05856681006383
 70
0
  0
VERTEX
  5
28970
  8
0
 62
7
 10
54.250060828468719
 20
44.101285994080961
 70
0
  0
VERTEX
  5
28971
  8
0
 62
7
 10
54.250060828468719
 20
44.142971649452477
 70
0
  0
VERTEX
  5
28972
  8
0
 62
7
 10
54.208719682645722
 20
44.142971649452477
 70
0
  0
VERTEX
  5
28973
  8
0
 62
7
 10
54.208719682645722
 20
44.18551857869533
 70
0
  0
VERTEX
  5
28974
  8
0
 62
7
 10
54.16600049862862
 20
44.18551857869533
 70
0
  0
SEQEND
  5
28975
  8
0
  0
POLYLINE
  5
28976
  8
0
 62
7
 66
1
 70
0
 10
0
 20
0
 30
0
  0
VERTEX
  5
28977
  8
0
 62
7
 10
52.938168467685578
 20
44.142971649452477
 70
0
  0
VERTEX
  5
28978
  8
0
 62
7
 10
52.938168467685578
 20
44.142971649452477
 70
0
  0
VERTEX
  5
28979
  8
0
 62
7
 10
52.980887651702687
 20
44.142971649452477
 70
0
  0
VERTEX
  5
2897A
  8
0
 62
7
 10
53.023606835719761
 20
44.142971649452477
 70
0
  0
SEQEND
  5
2897B
  8
0
  0
POLYLINE
  5
2897C
  8
0
 62
7
 66
1
 70
0
 10
0
 20
0
 30
0
  0
VERTEX
  5
2897D
  8
0
 62
7
 10
53.191727495399959
 20
43.635681339249452
 70
0
  0
VERTEX
  5
2897E
  8
0
 62
7
 10
53.191727495399959
 20
43.676850230298157
 70
0
  0
VERTEX
  5
2897F
  8
0
 62
7
 10
53.150386349576962
 20
43.719569414315288
 70
0
  0
VERTEX
  5
28980
  8
0
 62
7
 10
53.150386349576962
 20
43.762288598332347
 70
0
  0
VERTEX
  5
28981
  8
0
 62
7
 10
53.10766716555986
 20
43.762288598332347
 70
0
  0
VERTEX
  5
28982
  8
0
 62
7
 10
53.064947981542751
 20
43.762288598332347
 70
0
  0
VERTEX
  5
28983
  8
0
 62
7
 10
53.064947981542751
 20
43.805352291897968
 70
0
  0
SEQEND
  5
28984
  8
0
  0
POLYLINE
  5
28985
  8
0
 62
7
 66
1
 70
0
 10
0
 20
0
 30
0
  0
VERTEX
  5
28986
  8
0
 62
7
 10
53.064947981542751
 20
43.507523787198117
 70
0
  0
VERTEX
  5
28987
  8
0
 62
7
 10
53.064947981542751
 20
43.507523787198117
 70
0
  0
VERTEX
  5
28988
  8
0
 62
7
 10
53.10766716555986
 20
43.507523787198117
 70
0
  0
VERTEX
  5
28989
  8
0
 62
7
 10
53.150386349576962
 20
43.550242971215248
 70
0
  0
VERTEX
  5
2898A
  8
0
 62
7
 10
53.150386349576962
 20
43.592962155232321
 70
0
  0
VERTEX
  5
2898B
  8
0
 62
7
 10
53.191727495399959
 20
43.592962155232321
 70
0
  0
VERTEX
  5
2898C
  8
0
 62
7
 10
53.191727495399959
 20
43.635681339249452
 70
0
  0
SEQEND
  5
2898D
  8
0
  0
POLYLINE
  5
2898E
  8
0
 62
7
 66
1
 70
0
 10
0
 20
0
 30
0
  0
VERTEX
  5
2898F
  8
0
 62
7
 10
52.684609439971183
 20
40.460681340043173
 70
0
  0
VERTEX
  5
28990
  8
0
 62
7
 10
52.938168467685578
 20
40.460681340043173
 70
0
  0
VERTEX
  5
28991
  8
0
 62
7
 10
53.234446679417061
 20
40.460681340043173
 70
0
  0
VERTEX
  5
28992
  8
0
 62
7
 10
53.48938374532554
 20
40.5018502310919
 70
0
  0
VERTEX
  5
28993
  8
0
 62
7
 10
53.742942773039942
 20
40.544569415109009
 70
0
  0
VERTEX
  5
28994
  8
0
 62
7
 10
53.996501800754316
 20
40.544569415109009
 70
0
  0
VERTEX
  5
28995
  8
0
 62
7
 10
54.250060828468719
 20
40.587288599126111
 70
0
  0
SEQEND
  5
28996
  8
0
  0
POLYLINE
  5
28997
  8
0
 62
7
 66
1
 70
0
 10
0
 20
0
 30
0
  0
VERTEX
  5
28998
  8
0
 62
7
 10
53.530724891148537
 20
43.466354896149419
 70
0
  0
VERTEX
  5
28999
  8
0
 62
7
 10
53.616163259182741
 20
43.466354896149419
 70
0
  0
VERTEX
  5
2899A
  8
0
 62
7
 10
53.700223589022841
 20
43.507523787198117
 70
0
  0
VERTEX
  5
2899B
  8
0
 62
7
 10
53.785661957057052
 20
43.507523787198117
 70
0
  0
VERTEX
  5
2899C
  8
0
 62
7
 10
53.827003102880042
 20
43.550242971215248
 70
0
  0
VERTEX
  5
2899D
  8
0
 62
7
 10
53.912441470914217
 20
43.550242971215248
 70
0
  0
VERTEX
  5
2899E
  8
0
 62
7
 10
53.996501800754316
 20
43.635681339249452
 70
0
  0
SEQEND
  5
2899F
  8
0
  0
POLYLINE
  5
289A0
  8
0
 62
7
 66
1
 70
0
 10
0
 20
0
 30
0
  0
VERTEX
  5
289A1
  8
0
 62
7
 10
53.530724891148537
 20
43.507523787198117
 70
0
  0
VERTEX
  5
289A2
  8
0
 62
7
 10
53.616163259182741
 20
43.507523787198117
 70
0
  0
VERTEX
  5
289A3
  8
0
 62
7
 10
53.700223589022841
 20
43.550242971215248
 70
0
  0
VERTEX
  5
289A4
  8
0
 62
7
 10
53.785661957057052
 20
43.550242971215248
 70
0
  0
VERTEX
  5
289A5
  8
0
 62
7
 10
53.827003102880042
 20
43.592962155232321
 70
0
  0
VERTEX
  5
289A6
  8
0
 62
7
 10
53.912441470914217
 20
43.635681339249452
 70
0
  0
VERTEX
  5
289A7
  8
0
 62
7
 10
53.996501800754316
 20
43.635681339249452
 70
0
  0
SEQEND
  5
289A8
  8
0
  0
POLYLINE
  5
289A9
  8
0
 62
7
 66
1
 70
0
 10
0
 20
0
 30
0
  0
VERTEX
  5
289AA
  8
0
 62
7
 10
53.700223589022841
 20
45.793516896435669
 70
0
  0
VERTEX
  5
289AB
  8
0
 62
7
 10
53.742942773039942
 20
45.793516896435669
 70
0
  0
VERTEX
  5
289AC
  8
0
 62
7
 10
53.742942773039942
 20
45.836236080452743
 70
0
  0
VERTEX
  5
289AD
  8
0
 62
7
 10
53.785661957057052
 20
45.878955264469873
 70
0
  0
VERTEX
  5
289AE
  8
0
 62
7
 10
53.785661957057052
 20
45.922018958035487
 70
0
  0
VERTEX
  5
289AF
  8
0
 62
7
 10
53.785661957057052
 20
45.96318784908425
 70
0
  0
VERTEX
  5
289B0
  8
0
 62
7
 10
53.785661957057052
 20
46.005907033101323
 70
0
  0
SEQEND
  5
289B1
  8
0
  0
POLYLINE
  5
289B2
  8
0
 62
7
 66
1
 70
0
 10
0
 20
0
 30
0
  0
VERTEX
  5
289B3
  8
0
 62
7
 10
62.463168465304328
 20
56.758566806888837
 70
0
  0
VERTEX
  5
289B4
  8
0
 62
7
 10
62.252328621607028
 20
57.055017273394583
 70
0
  0
VERTEX
  5
289B5
  8
0
 62
7
 10
62.040110739715658
 20
57.351295485126109
 70
0
  0
VERTEX
  5
289B6
  8
0
 62
7
 10
61.786551712001263
 20
57.647573696857592
 70
0
  0
VERTEX
  5
289B7
  8
0
 62
7
 10
61.531614646092777
 20
57.944024163363338
 70
0
  0
VERTEX
  5
289B8
  8
0
 62
7
 10
61.278055618378367
 20
58.197238681529193
 70
0
  0
VERTEX
  5
289B9
  8
0
 62
7
 10
60.9817774066469
 20
58.45234800221192
 70
0
  0
SEQEND
  5
289BA
  8
0
  0
POLYLINE
  5
289BB
  8
0
 62
7
 66
1
 70
0
 10
0
 20
0
 30
0
  0
VERTEX
  5
289BC
  8
0
 62
7
 10
63.691000496247369
 20
54.811571093399891
 70
0
  0
VERTEX
  5
289BD
  8
0
 62
7
 10
63.478782614355957
 20
55.149190450954393
 70
0
  0
VERTEX
  5
289BE
  8
0
 62
7
 10
63.310661954675787
 20
55.488187846703
 70
0
  0
VERTEX
  5
289BF
  8
0
 62
7
 10
63.098444072784389
 20
55.784638313208738
 70
0
  0
VERTEX
  5
289C0
  8
0
 62
7
 10
62.928945374910121
 20
56.1236357089573
 70
0
  0
VERTEX
  5
289C1
  8
0
 62
7
 10
62.7167274930187
 20
56.41956941114028
 70
0
  0
VERTEX
  5
289C2
  8
0
 62
7
 10
62.463168465304328
 20
56.758566806888837
 70
0
  0
SEQEND
  5
289C3
  8
0
  0
POLYLINE
  5
289C4
  8
0
 62
7
 66
1
 70
0
 10
0
 20
0
 30
0
  0
VERTEX
  5
289C5
  8
0
 62
7
 10
62.42044928128724
 20
56.6733006936289
 70
0
  0
VERTEX
  5
289C6
  8
0
 62
7
 10
62.166890253572831
 20
56.969578905360379
 70
0
  0
VERTEX
  5
289C7
  8
0
 62
7
 10
61.956050409875559
 20
57.265857117091912
 70
0
  0
VERTEX
  5
289C8
  8
0
 62
7
 10
61.701113343967052
 20
57.520621928226092
 70
0
  0
VERTEX
  5
289C9
  8
0
 62
7
 10
61.44720980670413
 20
57.816900139957617
 70
0
  0
VERTEX
  5
289CA
  8
0
 62
7
 10
61.193995288538268
 20
58.07063142244624
 70
0
  0
VERTEX
  5
289CB
  8
0
 62
7
 10
60.939058222629789
 20
58.324190450160643
 70
0
  0
SEQEND
  5
289CC
  8
0
  0
POLYLINE
  5
289CD
  8
0
 62
7
 66
1
 70
0
 10
0
 20
0
 30
0
  0
VERTEX
  5
289CE
  8
0
 62
7
 10
62.42044928128724
 20
56.6733006936289
 70
0
  0
VERTEX
  5
289CF
  8
0
 62
7
 10
62.209609437589933
 20
57.012298089377509
 70
0
  0
VERTEX
  5
289D0
  8
0
 62
7
 10
61.956050409875559
 20
57.265857117091912
 70
0
  0
VERTEX
  5
289D1
  8
0
 62
7
 10
61.743832527984146
 20
57.563685621791763
 70
0
  0
VERTEX
  5
289D2
  8
0
 62
7
 10
61.49027350026978
 20
57.816900139957617
 70
0
  0
VERTEX
  5
289D3
  8
0
 62
7
 10
61.235336434361272
 20
58.113350606463371
 70
0
  0
VERTEX
  5
289D4
  8
0
 62
7
 10
60.9817774066469
 20
58.366909634177723
 70
0
  0
SEQEND
  5
289D5
  8
0
  0
POLYLINE
  5
289D6
  8
0
 62
7
 66
1
 70
0
 10
0
 20
0
 30
0
  0
VERTEX
  5
289D7
  8
0
 62
7
 10
63.564220982390168
 20
54.769024164157081
 70
0
  0
VERTEX
  5
289D8
  8
0
 62
7
 10
63.394722284515893
 20
55.108021559905637
 70
0
  0
VERTEX
  5
289D9
  8
0
 62
7
 10
63.22522358664159
 20
55.447018955654237
 70
0
  0
VERTEX
  5
289DA
  8
0
 62
7
 10
63.01438374294429
 20
55.742952657837172
 70
0
  0
VERTEX
  5
289DB
  8
0
 62
7
 10
62.844885045070022
 20
56.080572015391681
 70
0
  0
VERTEX
  5
289DC
  8
0
 62
7
 10
62.63266716317861
 20
56.37685022712315
 70
0
  0
VERTEX
  5
289DD
  8
0
 62
7
 10
62.42044928128724
 20
56.6733006936289
 70
0
  0
SEQEND
  5
289DE
  8
0
  0
POLYLINE
  5
289DF
  8
0
 62
7
 66
1
 70
0
 10
0
 20
0
 30
0
  0
VERTEX
  5
289E0
  8
0
 62
7
 10
63.564220982390168
 20
54.811571093399891
 70
0
  0
VERTEX
  5
289E1
  8
0
 62
7
 10
63.43744146853296
 20
55.149190450954393
 70
0
  0
VERTEX
  5
289E2
  8
0
 62
7
 10
63.22522358664159
 20
55.488187846703
 70
0
  0
VERTEX
  5
289E3
  8
0
 62
7
 10
63.055724888767287
 20
55.784638313208738
 70
0
  0
VERTEX
  5
289E4
  8
0
 62
7
 10
62.844885045070022
 20
56.1236357089573
 70
0
  0
VERTEX
  5
289E5
  8
0
 62
7
 10
62.63266716317861
 20
56.41956941114028
 70
0
  0
VERTEX
  5
289E6
  8
0
 62
7
 10
62.42044928128724
 20
56.6733006936289
 70
0
  0
SEQEND
  5
289E7
  8
0
  0
POLYLINE
  5
289E8
  8
0
 62
7
 66
1
 70
0
 10
0
 20
0
 30
0
  0
VERTEX
  5
289E9
  8
0
 62
7
 10
62.971664558927209
 20
54.89563142323999
 70
0
  0
VERTEX
  5
289EA
  8
0
 62
7
 10
62.844885045070022
 20
55.149190450954393
 70
0
  0
VERTEX
  5
289EB
  8
0
 62
7
 10
62.7167274930187
 20
55.447018955654237
 70
0
  0
VERTEX
  5
289EC
  8
0
 62
7
 10
62.548606833338511
 20
55.700233473820113
 70
0
  0
VERTEX
  5
289ED
  8
0
 62
7
 10
62.379108135464243
 20
55.953964756308771
 70
0
  0
VERTEX
  5
289EE
  8
0
 62
7
 10
62.209609437589933
 20
56.207523784023117
 70
0
  0
VERTEX
  5
289EF
  8
0
 62
7
 10
62.040110739715658
 20
56.462288595157361
 70
0
  0
VERTEX
  5
289F0
  8
0
 62
7
 10
61.827892857824253
 20
56.716019877646033
 70
0
  0
VERTEX
  5
289F1
  8
0
 62
7
 10
61.658394159949978
 20
56.92823775953741
 70
0
  0
VERTEX
  5
289F2
  8
0
 62
7
 10
61.447554316252671
 20
57.181969042026083
 70
0
  0
VERTEX
  5
289F3
  8
0
 62
7
 10
61.235336434361272
 20
57.435183560191938
 70
0
  0
VERTEX
  5
289F4
  8
0
 62
7
 10
61.024496590664
 20
57.647573696857592
 70
0
  0
VERTEX
  5
289F5
  8
0
 62
7
 10
60.8122787087726
 20
57.859619323974691
 70
0
  0
SEQEND
  5
289F6
  8
0
  0
POLYLINE
  5
289F7
  8
0
 62
7
 66
1
 70
0
 10
0
 20
0
 30
0
  0
VERTEX
  5
289F8
  8
0
 62
7
 10
62.675386347195712
 20
54.981069791274187
 70
0
  0
VERTEX
  5
289F9
  8
0
 62
7
 10
62.548606833338511
 20
55.191909634971459
 70
0
  0
VERTEX
  5
289FA
  8
0
 62
7
 10
62.42044928128724
 20
55.447018955654237
 70
0
  0
VERTEX
  5
289FB
  8
0
 62
7
 10
62.252328621607028
 20
55.657686544577238
 70
0
  0
VERTEX
  5
289FC
  8
0
 62
7
 10
62.124171069555729
 20
55.911245572291641
 70
0
  0
VERTEX
  5
289FD
  8
0
 62
7
 10
61.956050409875559
 20
56.1236357089573
 70
0
  0
VERTEX
  5
289FE
  8
0
 62
7
 10
61.786551712001263
 20
56.37685022712315
 70
0
  0
VERTEX
  5
289FF
  8
0
 62
7
 10
61.658394159949978
 20
56.54652117977173
 70
0
  0
VERTEX
  5
28A00
  8
0
 62
7
 10
61.447554316252671
 20
56.801285990905967
 70
0
  0
VERTEX
  5
28A01
  8
0
 62
7
 10
61.278055618378367
 20
57.012298089377509
 70
0
  0
VERTEX
  5
28A02
  8
0
 62
7
 10
61.1085569205041
 20
57.181969042026083
 70
0
  0
VERTEX
  5
28A03
  8
0
 62
7
 10
60.8977170768068
 20
57.394014669143189
 70
0
  0
VERTEX
  5
28A04
  8
0
 62
7
 10
60.7282183789325
 20
57.604854512840461
 70
0
  0
SEQEND
  5
28A05
  8
0
  0
POLYLINE
  5
28A06
  8
0
 62
7
 66
1
 70
0
 10
0
 20
0
 30
0
  0
VERTEX
  5
28A07
  8
0
 62
7
 10
62.7167274930187
 20
54.981069791274187
 70
0
  0
VERTEX
  5
28A08
  8
0
 62
7
 10
62.589947979161508
 20
55.2346288189886
 70
0
  0
VERTEX
  5
28A09
  8
0
 62
7
 10
62.463168465304328
 20
55.488187846703
 70
0
  0
VERTEX
  5
28A0A
  8
0
 62
7
 10
62.336388951447127
 20
55.700233473820113
 70
0
  0
VERTEX
  5
28A0B
  8
0
 62
7
 10
62.166890253572831
 20
55.911245572291641
 70
0
  0
VERTEX
  5
28A0C
  8
0
 62
7
 10
62.040110739715658
 20
56.166354892974432
 70
0
  0
VERTEX
  5
28A0D
  8
0
 62
7
 10
61.870612041841362
 20
56.37685022712315
 70
0
  0
VERTEX
  5
28A0E
  8
0
 62
7
 10
61.701113343967052
 20
56.631959547805941
 70
0
  0
VERTEX
  5
28A0F
  8
0
 62
7
 10
61.531614646092777
 20
56.801285990905967
 70
0
  0
VERTEX
  5
28A10
  8
0
 62
7
 10
61.320774802395484
 20
57.012298089377509
 70
0
  0
VERTEX
  5
28A11
  8
0
 62
7
 10
61.1512761045212
 20
57.224688226043163
 70
0
  0
VERTEX
  5
28A12
  8
0
 62
7
 10
60.9817774066469
 20
57.435183560191938
 70
0
  0
VERTEX
  5
28A13
  8
0
 62
7
 10
60.769559524755493
 20
57.647573696857592
 70
0
  0
SEQEND
  5
28A14
  8
0
  0
POLYLINE
  5
28A15
  8
0
 62
7
 66
1
 70
0
 10
0
 20
0
 30
0
  0
VERTEX
  5
28A16
  8
0
 62
7
 10
60.9817774066469
 20
58.45234800221192
 70
0
  0
VERTEX
  5
28A17
  8
0
 62
7
 10
60.769559524755493
 20
58.663187845909249
 70
0
  0
VERTEX
  5
28A18
  8
0
 62
7
 10
60.516000497041119
 20
58.875233473026363
 70
0
  0
VERTEX
  5
28A19
  8
0
 62
7
 10
60.262441469326717
 20
59.086245571497891
 70
0
  0
VERTEX
  5
28A1A
  8
0
 62
7
 10
60.007504403418238
 20
59.255572014597931
 70
0
  0
VERTEX
  5
28A1B
  8
0
 62
7
 10
59.753945375703857
 20
59.467962151263578
 70
0
  0
VERTEX
  5
28A1C
  8
0
 62
7
 10
59.45766716397236
 20
59.637288594363611
 70
0
  0
SEQEND
  5
28A1D
  8
0
  0
POLYLINE
  5
28A1E
  8
0
 62
7
 66
1
 70
0
 10
0
 20
0
 30
0
  0
VERTEX
  5
28A1F
  8
0
 62
7
 10
64.326276103727452
 20
52.991354893768168
 70
0
  0
VERTEX
  5
28A20
  8
0
 62
7
 10
64.240837735693248
 20
53.330352289516718
 70
0
  0
VERTEX
  5
28A21
  8
0
 62
7
 10
64.156777405853148
 20
53.626285991699717
 70
0
  0
VERTEX
  5
28A22
  8
0
 62
7
 10
64.029997891995933
 20
53.9225642034312
 70
0
  0
VERTEX
  5
28A23
  8
0
 62
7
 10
63.94455952396175
 20
54.219014669936939
 70
0
  0
VERTEX
  5
28A24
  8
0
 62
7
 10
63.81778001010457
 20
54.515292881668422
 70
0
  0
VERTEX
  5
28A25
  8
0
 62
7
 10
63.691000496247369
 20
54.811571093399891
 70
0
  0
SEQEND
  5
28A26
  8
0
  0
POLYLINE
  5
28A27
  8
0
 62
7
 66
1
 70
0
 10
0
 20
0
 30
0
  0
VERTEX
  5
28A28
  8
0
 62
7
 10
60.9817774066469
 20
58.366909634177723
 70
0
  0
VERTEX
  5
28A29
  8
0
 62
7
 10
60.769559524755493
 20
58.57895526129488
 70
0
  0
VERTEX
  5
28A2A
  8
0
 62
7
 10
60.516000497041119
 20
58.748626213943389
 70
0
  0
VERTEX
  5
28A2B
  8
0
 62
7
 10
60.262441469326717
 20
58.959638312414988
 70
0
  0
VERTEX
  5
28A2C
  8
0
 62
7
 10
60.007504403418238
 20
59.128964755515021
 70
0
  0
VERTEX
  5
28A2D
  8
0
 62
7
 10
59.753945375703857
 20
59.341354892180682
 70
0
  0
VERTEX
  5
28A2E
  8
0
 62
7
 10
59.500386347989462
 20
59.510681335280708
 70
0
  0
SEQEND
  5
28A2F
  8
0
  0
POLYLINE
  5
28A30
  8
0
 62
7
 66
1
 70
0
 10
0
 20
0
 30
0
  0
VERTEX
  5
28A31
  8
0
 62
7
 10
60.939058222629789
 20
58.324190450160643
 70
0
  0
VERTEX
  5
28A32
  8
0
 62
7
 10
60.7282183789325
 20
58.536236077277749
 70
0
  0
VERTEX
  5
28A33
  8
0
 62
7
 10
60.516000497041119
 20
58.748626213943389
 70
0
  0
VERTEX
  5
28A34
  8
0
 62
7
 10
60.262441469326717
 20
58.959638312414988
 70
0
  0
VERTEX
  5
28A35
  8
0
 62
7
 10
60.007504403418238
 20
59.128964755515021
 70
0
  0
VERTEX
  5
28A36
  8
0
 62
7
 10
59.753945375703857
 20
59.298635708163552
 70
0
  0
VERTEX
  5
28A37
  8
0
 62
7
 10
59.500386347989462
 20
59.467962151263578
 70
0
  0
SEQEND
  5
28A38
  8
0
  0
POLYLINE
  5
28A39
  8
0
 62
7
 66
1
 70
0
 10
0
 20
0
 30
0
  0
VERTEX
  5
28A3A
  8
0
 62
7
 10
64.240837735693248
 20
53.075242968834
 70
0
  0
VERTEX
  5
28A3B
  8
0
 62
7
 10
64.156777405853148
 20
53.37152118056548
 70
0
  0
VERTEX
  5
28A3C
  8
0
 62
7
 10
64.029997891995933
 20
53.667971647071219
 70
0
  0
VERTEX
  5
28A3D
  8
0
 62
7
 10
63.94455952396175
 20
53.963905349254162
 70
0
  0
VERTEX
  5
28A3E
  8
0
 62
7
 10
63.860499194121672
 20
54.2601835609857
 70
0
  0
VERTEX
  5
28A3F
  8
0
 62
7
 10
63.733719680264471
 20
54.515292881668422
 70
0
  0
VERTEX
  5
28A40
  8
0
 62
7
 10
63.564220982390168
 20
54.811571093399891
 70
0
  0
SEQEND
  5
28A41
  8
0
  0
POLYLINE
  5
28A42
  8
0
 62
7
 66
1
 70
0
 10
0
 20
0
 30
0
  0
VERTEX
  5
28A43
  8
0
 62
7
 10
64.19949658987025
 20
53.032523784816867
 70
0
  0
VERTEX
  5
28A44
  8
0
 62
7
 10
64.114058221836046
 20
53.330352289516718
 70
0
  0
VERTEX
  5
28A45
  8
0
 62
7
 10
64.029997891995933
 20
53.626285991699717
 70
0
  0
VERTEX
  5
28A46
  8
0
 62
7
 10
63.903218378138753
 20
53.963905349254162
 70
0
  0
VERTEX
  5
28A47
  8
0
 62
7
 10
63.81778001010457
 20
54.219014669936939
 70
0
  0
VERTEX
  5
28A48
  8
0
 62
7
 10
63.691000496247369
 20
54.515292881668422
 70
0
  0
VERTEX
  5
28A49
  8
0
 62
7
 10
63.564220982390168
 20
54.769024164157081
 70
0
  0
SEQEND
  5
28A4A
  8
0
  0
POLYLINE
  5
28A4B
  8
0
 62
7
 66
1
 70
0
 10
0
 20
0
 30
0
  0
VERTEX
  5
28A4C
  8
0
 62
7
 10
53.150386349576962
 20
40.0789647602775
 70
0
  0
VERTEX
  5
28A4D
  8
0
 62
7
 10
53.27716586343417
 20
40.0789647602775
 70
0
  0
VERTEX
  5
28A4E
  8
0
 62
7
 10
53.446664561308438
 20
40.0789647602775
 70
0
  0
VERTEX
  5
28A4F
  8
0
 62
7
 10
53.573444075165632
 20
40.0789647602775
 70
0
  0
VERTEX
  5
28A50
  8
0
 62
7
 10
53.742942773039942
 20
40.0789647602775
 70
0
  0
VERTEX
  5
28A51
  8
0
 62
7
 10
53.912441470914217
 20
40.1216839442946
 70
0
  0
VERTEX
  5
28A52
  8
0
 62
7
 10
54.039220984771418
 20
40.164230873537427
 70
0
  0
SEQEND
  5
28A53
  8
0
  0
POLYLINE
  5
28A54
  8
0
 62
7
 66
1
 70
0
 10
0
 20
0
 30
0
  0
VERTEX
  5
28A55
  8
0
 62
7
 10
52.684609439971183
 20
40.460681340043173
 70
0
  0
VERTEX
  5
28A56
  8
0
 62
7
 10
52.938168467685578
 20
40.460681340043173
 70
0
  0
VERTEX
  5
28A57
  8
0
 62
7
 10
53.191727495399959
 20
40.460681340043173
 70
0
  0
VERTEX
  5
28A58
  8
0
 62
7
 10
53.446664561308438
 20
40.5018502310919
 70
0
  0
VERTEX
  5
28A59
  8
0
 62
7
 10
53.700223589022841
 20
40.544569415109009
 70
0
  0
VERTEX
  5
28A5A
  8
0
 62
7
 10
53.953782616737207
 20
40.587288599126111
 70
0
  0
VERTEX
  5
28A5B
  8
0
 62
7
 10
54.208719682645722
 20
40.630352292691747
 70
0
  0
SEQEND
  5
28A5C
  8
0
  0
POLYLINE
  5
28A5D
  8
0
 62
7
 66
1
 70
0
 10
0
 20
0
 30
0
  0
VERTEX
  5
28A5E
  8
0
 62
7
 10
47.011226194861763
 20
45.922018958035487
 70
0
  0
VERTEX
  5
28A5F
  8
0
 62
7
 10
47.180724892736038
 20
45.66690963735271
 70
0
  0
VERTEX
  5
28A60
  8
0
 62
7
 10
47.392942774627443
 20
45.413350609638371
 70
0
  0
VERTEX
  5
28A61
  8
0
 62
7
 10
47.603782618324708
 20
45.1596193271497
 70
0
  0
VERTEX
  5
28A62
  8
0
 62
7
 10
47.816000500216113
 20
44.904854516015448
 70
0
  0
VERTEX
  5
28A63
  8
0
 62
7
 10
48.0282183821075
 20
44.694014672318183
 70
0
  0
VERTEX
  5
28A64
  8
0
 62
7
 10
48.2817774098219
 20
44.481969045201083
 70
0
  0
SEQEND
  5
28A65
  8
0
  0
POLYLINE
  5
28A66
  8
0
 62
7
 66
1
 70
0
 10
0
 20
0
 30
0
  0
VERTEX
  5
28A67
  8
0
 62
7
 10
60.8122787087726
 20
57.859619323974691
 70
0
  0
VERTEX
  5
28A68
  8
0
 62
7
 10
60.642780010898321
 20
58.02791223842916
 70
0
  0
VERTEX
  5
28A69
  8
0
 62
7
 10
60.43194016720102
 20
58.197238681529193
 70
0
  0
VERTEX
  5
28A6A
  8
0
 62
7
 10
60.219722285309643
 20
58.366909634177723
 70
0
  0
VERTEX
  5
28A6B
  8
0
 62
7
 10
60.007504403418238
 20
58.536236077277749
 70
0
  0
VERTEX
  5
28A6C
  8
0
 62
7
 10
59.796664559720931
 20
58.663187845909249
 70
0
  0
VERTEX
  5
28A6D
  8
0
 62
7
 10
59.541727493812459
 20
58.832686543783488
 70
0
  0
SEQEND
  5
28A6E
  8
0
  0
POLYLINE
  5
28A6F
  8
0
 62
7
 66
1
 70
0
 10
0
 20
0
 30
0
  0
VERTEX
  5
28A70
  8
0
 62
7
 10
46.249171073524472
 20
47.48729809175876
 70
0
  0
VERTEX
  5
28A71
  8
0
 62
7
 10
46.334609441558683
 20
47.23356680927008
 70
0
  0
VERTEX
  5
28A72
  8
0
 62
7
 10
46.418669771398783
 20
46.937288597538611
 70
0
  0
VERTEX
  5
28A73
  8
0
 62
7
 10
46.545449285255977
 20
46.682523786404367
 70
0
  0
VERTEX
  5
28A74
  8
0
 62
7
 10
46.673606837307261
 20
46.428964758690029
 70
0
  0
VERTEX
  5
28A75
  8
0
 62
7
 10
46.841727496987453
 20
46.175233476201349
 70
0
  0
VERTEX
  5
28A76
  8
0
 62
7
 10
47.011226194861763
 20
45.922018958035487
 70
0
  0
SEQEND
  5
28A77
  8
0
  0
POLYLINE
  5
28A78
  8
0
 62
7
 66
1
 70
0
 10
0
 20
0
 30
0
  0
VERTEX
  5
28A79
  8
0
 62
7
 10
60.769559524755493
 20
57.647573696857592
 70
0
  0
VERTEX
  5
28A7A
  8
0
 62
7
 10
60.600060826881219
 20
57.774353210714757
 70
0
  0
VERTEX
  5
28A7B
  8
0
 62
7
 10
60.43194016720102
 20
57.944024163363338
 70
0
  0
VERTEX
  5
28A7C
  8
0
 62
7
 10
60.262441469326717
 20
58.07063142244624
 70
0
  0
VERTEX
  5
28A7D
  8
0
 62
7
 10
60.05022358743534
 20
58.197238681529193
 70
0
  0
VERTEX
  5
28A7E
  8
0
 62
7
 10
59.88072488956103
 20
58.324190450160643
 70
0
  0
VERTEX
  5
28A7F
  8
0
 62
7
 10
59.669885045863758
 20
58.45234800221192
 70
0
  0
SEQEND
  5
28A80
  8
0
  0
POLYLINE
  5
28A81
  8
0
 62
7
 66
1
 70
0
 10
0
 20
0
 30
0
  0
VERTEX
  5
28A82
  8
0
 62
7
 10
60.7282183789325
 20
57.604854512840461
 70
0
  0
VERTEX
  5
28A83
  8
0
 62
7
 10
60.558719681058221
 20
57.774353210714757
 70
0
  0
VERTEX
  5
28A84
  8
0
 62
7
 10
60.388876473635413
 20
57.901304979346207
 70
0
  0
VERTEX
  5
28A85
  8
0
 62
7
 10
60.177003101292541
 20
58.02791223842916
 70
0
  0
VERTEX
  5
28A86
  8
0
 62
7
 10
60.007504403418238
 20
58.197238681529193
 70
0
  0
VERTEX
  5
28A87
  8
0
 62
7
 10
59.796664559720931
 20
58.324190450160643
 70
0
  0
VERTEX
  5
28A88
  8
0
 62
7
 10
59.627165861846663
 20
58.45234800221192
 70
0
  0
SEQEND
  5
28A89
  8
0
  0
POLYLINE
  5
28A8A
  8
0
 62
7
 66
1
 70
0
 10
0
 20
0
 30
0
  0
VERTEX
  5
28A8B
  8
0
 62
7
 10
51.753055620759618
 20
52.6096383140025
 70
0
  0
VERTEX
  5
28A8C
  8
0
 62
7
 10
51.79577480477672
 20
52.482686545370989
 70
0
  0
VERTEX
  5
28A8D
  8
0
 62
7
 10
51.79577480477672
 20
52.355907031513823
 70
0
  0
VERTEX
  5
28A8E
  8
0
 62
7
 10
51.837115950599717
 20
52.22895526288238
 70
0
  0
VERTEX
  5
28A8F
  8
0
 62
7
 10
51.879835134616819
 20
52.143516894848183
 70
0
  0
VERTEX
  5
28A90
  8
0
 62
7
 10
51.922554318633928
 20
52.016909635765209
 70
0
  0
VERTEX
  5
28A91
  8
0
 62
7
 10
52.006614648474027
 20
51.933021560699387
 70
0
  0
SEQEND
  5
28A92
  8
0
  0
POLYLINE
  5
28A93
  8
0
 62
7
 66
1
 70
0
 10
0
 20
0
 30
0
  0
VERTEX
  5
28A94
  8
0
 62
7
 10
46.081050413844309
 20
48.545631424827491
 70
0
  0
VERTEX
  5
28A95
  8
0
 62
7
 10
46.081050413844309
 20
48.376304981727458
 70
0
  0
VERTEX
  5
28A96
  8
0
 62
7
 10
46.081050413844309
 20
48.206634029078941
 70
0
  0
VERTEX
  5
28A97
  8
0
 62
7
 10
46.1223915596673
 20
47.995621930607342
 70
0
  0
VERTEX
  5
28A98
  8
0
 62
7
 10
46.1223915596673
 20
47.826295487507359
 70
0
  0
VERTEX
  5
28A99
  8
0
 62
7
 10
46.165110743684409
 20
47.656969044407333
 70
0
  0
VERTEX
  5
28A9A
  8
0
 62
7
 10
46.249171073524472
 20
47.48729809175876
 70
0
  0
SEQEND
  5
28A9B
  8
0
  0
POLYLINE
  5
28A9C
  8
0
 62
7
 66
1
 70
0
 10
0
 20
0
 30
0
  0
VERTEX
  5
28A9D
  8
0
 62
7
 10
50.864220985565169
 20
47.952902746590262
 70
0
  0
VERTEX
  5
28A9E
  8
0
 62
7
 10
50.864220985565169
 20
48.038685624173013
 70
0
  0
VERTEX
  5
28A9F
  8
0
 62
7
 10
50.864220985565169
 20
48.079854515221712
 70
0
  0
VERTEX
  5
28AA0
  8
0
 62
7
 10
50.864220985565169
 20
48.165292883255908
 70
0
  0
VERTEX
  5
28AA1
  8
0
 62
7
 10
50.864220985565169
 20
48.249353213096022
 70
0
  0
VERTEX
  5
28AA2
  8
0
 62
7
 10
50.821501801548067
 20
48.334619326355948
 70
0
  0
VERTEX
  5
28AA3
  8
0
 62
7
 10
50.778782617530958
 20
48.376304981727458
 70
0
  0
SEQEND
  5
28AA4
  8
0
  0
POLYLINE
  5
28AA5
  8
0
 62
7
 66
1
 70
0
 10
0
 20
0
 30
0
  0
VERTEX
  5
28AA6
  8
0
 62
7
 10
51.075060829262469
 20
48.079854515221712
 70
0
  0
VERTEX
  5
28AA7
  8
0
 62
7
 10
51.033719683439472
 20
48.206634029078941
 70
0
  0
VERTEX
  5
28AA8
  8
0
 62
7
 10
51.033719683439472
 20
48.334619326355948
 70
0
  0
VERTEX
  5
28AA9
  8
0
 62
7
 10
50.991000499422363
 20
48.419024165744588
 70
0
  0
VERTEX
  5
28AAA
  8
0
 62
7
 10
50.906940169582271
 20
48.502912240810417
 70
0
  0
VERTEX
  5
28AAB
  8
0
 62
7
 10
50.864220985565169
 20
48.630897538087417
 70
0
  0
VERTEX
  5
28AAC
  8
0
 62
7
 10
50.821501801548067
 20
48.715302377476057
 70
0
  0
VERTEX
  5
28AAD
  8
0
 62
7
 10
50.73744147170796
 20
48.799190452541893
 70
0
  0
SEQEND
  5
28AAE
  8
0
  0
POLYLINE
  5
28AAF
  8
0
 62
7
 66
1
 70
0
 10
0
 20
0
 30
0
  0
VERTEX
  5
28AB0
  8
0
 62
7
 10
50.482504405799482
 20
48.88462882057609
 70
0
  0
VERTEX
  5
28AB1
  8
0
 62
7
 10
50.398444075959389
 20
48.927348004593171
 70
0
  0
VERTEX
  5
28AB2
  8
0
 62
7
 10
50.355724891942288
 20
48.968516895641933
 70
0
  0
VERTEX
  5
28AB3
  8
0
 62
7
 10
50.271664562102188
 20
49.011236079658993
 70
0
  0
VERTEX
  5
28AB4
  8
0
 62
7
 10
50.186226194068013
 20
49.011236079658993
 70
0
  0
VERTEX
  5
28AB5
  8
0
 62
7
 10
50.144885048245023
 20
49.097018957241737
 70
0
  0
VERTEX
  5
28AB6
  8
0
 62
7
 10
50.059446680210812
 20
49.097018957241737
 70
0
  0
SEQEND
  5
28AB7
  8
0
  0
POLYLINE
  5
28AB8
  8
0
 62
7
 66
1
 70
0
 10
0
 20
0
 30
0
  0
VERTEX
  5
28AB9
  8
0
 62
7
 10
50.778782617530958
 20
48.376304981727458
 70
0
  0
VERTEX
  5
28ABA
  8
0
 62
7
 10
50.778782617530958
 20
48.461571094987391
 70
0
  0
VERTEX
  5
28ABB
  8
0
 62
7
 10
50.73744147170796
 20
48.588350608844621
 70
0
  0
VERTEX
  5
28ABC
  8
0
 62
7
 10
50.652003103673792
 20
48.631069792861688
 70
0
  0
VERTEX
  5
28ABD
  8
0
 62
7
 10
50.610661957850787
 20
48.715302377476057
 70
0
  0
VERTEX
  5
28ABE
  8
0
 62
7
 10
50.525223589816591
 20
48.799190452541893
 70
0
  0
VERTEX
  5
28ABF
  8
0
 62
7
 10
50.482504405799482
 20
48.88462882057609
 70
0
  0
SEQEND
  5
28AC0
  8
0
  0
POLYLINE
  5
28AC1
  8
0
 62
7
 66
1
 70
0
 10
0
 20
0
 30
0
  0
VERTEX
  5
28AC2
  8
0
 62
7
 10
46.249171073524472
 20
48.968516895641933
 70
0
  0
VERTEX
  5
28AC3
  8
0
 62
7
 10
46.207829927701482
 20
48.88462882057609
 70
0
  0
VERTEX
  5
28AC4
  8
0
 62
7
 10
46.165110743684409
 20
48.84190963655896
 70
0
  0
VERTEX
  5
28AC5
  8
0
 62
7
 10
46.1223915596673
 20
48.758021561493138
 70
0
  0
VERTEX
  5
28AC6
  8
0
 62
7
 10
46.1223915596673
 20
48.715302377476057
 70
0
  0
VERTEX
  5
28AC7
  8
0
 62
7
 10
46.081050413844309
 20
48.630897538087417
 70
0
  0
VERTEX
  5
28AC8
  8
0
 62
7
 10
46.081050413844309
 20
48.545631424827491
 70
0
  0
SEQEND
  5
28AC9
  8
0
  0
POLYLINE
  5
28ACA
  8
0
 62
7
 66
1
 70
0
 10
0
 20
0
 30
0
  0
VERTEX
  5
28ACB
  8
0
 62
7
 10
51.753055620759618
 20
52.8216839411196
 70
0
  0
VERTEX
  5
28ACC
  8
0
 62
7
 10
51.753055620759618
 20
52.8216839411196
 70
0
  0
VERTEX
  5
28ACD
  8
0
 62
7
 10
51.753055620759618
 20
52.7362455730854
 70
0
  0
VERTEX
  5
28ACE
  8
0
 62
7
 10
51.753055620759618
 20
52.694904427262429
 70
0
  0
VERTEX
  5
28ACF
  8
0
 62
7
 10
51.753055620759618
 20
52.6521852432453
 70
0
  0
VERTEX
  5
28AD0
  8
0
 62
7
 10
51.753055620759618
 20
52.6096383140025
 70
0
  0
SEQEND
  5
28AD1
  8
0
  0
POLYLINE
  5
28AD2
  8
0
 62
7
 66
1
 70
0
 10
0
 20
0
 30
0
  0
VERTEX
  5
28AD3
  8
0
 62
7
 10
55.224333831697379
 20
47.826295487507359
 70
0
  0
VERTEX
  5
28AD4
  8
0
 62
7
 10
55.267053015714453
 20
47.783576303490229
 70
0
  0
VERTEX
  5
28AD5
  8
0
 62
7
 10
55.30839416153745
 20
47.783576303490229
 70
0
  0
VERTEX
  5
28AD6
  8
0
 62
7
 10
55.351113345554552
 20
47.740857119473162
 70
0
  0
VERTEX
  5
28AD7
  8
0
 62
7
 10
55.393832529571647
 20
47.740857119473162
 70
0
  0
VERTEX
  5
28AD8
  8
0
 62
7
 10
55.436551713588749
 20
47.740857119473162
 70
0
  0
VERTEX
  5
28AD9
  8
0
 62
7
 10
55.477892859411753
 20
47.740857119473162
 70
0
  0
SEQEND
  5
28ADA
  8
0
  0
POLYLINE
  5
28ADB
  8
0
 62
7
 66
1
 70
0
 10
0
 20
0
 30
0
  0
VERTEX
  5
28ADC
  8
0
 62
7
 10
51.79577480477672
 20
52.991354893768168
 70
0
  0
VERTEX
  5
28ADD
  8
0
 62
7
 10
51.79577480477672
 20
52.948635709751038
 70
0
  0
VERTEX
  5
28ADE
  8
0
 62
7
 10
51.753055620759618
 20
52.948635709751038
 70
0
  0
VERTEX
  5
28ADF
  8
0
 62
7
 10
51.753055620759618
 20
52.905572016185431
 70
0
  0
VERTEX
  5
28AE0
  8
0
 62
7
 10
51.753055620759618
 20
52.864230870362462
 70
0
  0
VERTEX
  5
28AE1
  8
0
 62
7
 10
51.753055620759618
 20
52.8216839411196
 70
0
  0
SEQEND
  5
28AE2
  8
0
  0
POLYLINE
  5
28AE3
  8
0
 62
7
 66
1
 70
0
 10
0
 20
0
 30
0
  0
VERTEX
  5
28AE4
  8
0
 62
7
 10
55.477892859411753
 20
47.740857119473162
 70
0
  0
VERTEX
  5
28AE5
  8
0
 62
7
 10
55.477892859411753
 20
47.740857119473162
 70
0
  0
VERTEX
  5
28AE6
  8
0
 62
7
 10
55.520612043428848
 20
47.740857119473162
 70
0
  0
VERTEX
  5
28AE7
  8
0
 62
7
 10
55.563331227445957
 20
47.740857119473162
 70
0
  0
VERTEX
  5
28AE8
  8
0
 62
7
 10
55.606050411463059
 20
47.740857119473162
 70
0
  0
SEQEND
  5
28AE9
  8
0
  0
POLYLINE
  5
28AEA
  8
0
 62
7
 66
1
 70
0
 10
0
 20
0
 30
0
  0
VERTEX
  5
28AEB
  8
0
 62
7
 10
52.641890255954081
 20
44.142971649452477
 70
0
  0
VERTEX
  5
28AEC
  8
0
 62
7
 10
53.023606835719761
 20
44.185690833469543
 70
0
  0
SEQEND
  5
28AED
  8
0
  0
POLYLINE
  5
28AEE
  8
0
 62
7
 66
1
 70
0
 10
0
 20
0
 30
0
  0
VERTEX
  5
28AEF
  8
0
 62
7
 10
53.064947981542751
 20
56.462288595157361
 70
0
  0
VERTEX
  5
28AF0
  8
0
 62
7
 10
53.023606835719761
 20
56.335681336074458
 70
0
  0
VERTEX
  5
28AF1
  8
0
 62
7
 10
53.023606835719761
 20
56.250242968040247
 70
0
  0
VERTEX
  5
28AF2
  8
0
 62
7
 10
53.023606835719761
 20
56.1236357089573
 70
0
  0
VERTEX
  5
28AF3
  8
0
 62
7
 10
53.023606835719761
 20
55.996683940325852
 70
0
  0
VERTEX
  5
28AF4
  8
0
 62
7
 10
53.023606835719761
 20
55.869904426468679
 70
0
  0
VERTEX
  5
28AF5
  8
0
 62
7
 10
53.023606835719761
 20
55.784638313208738
 70
0
  0
SEQEND
  5
28AF6
  8
0
  0
POLYLINE
  5
28AF7
  8
0
 62
7
 66
1
 70
0
 10
0
 20
0
 30
0
  0
VERTEX
  5
28AF8
  8
0
 62
7
 10
63.564220982390168
 20
53.456959548599677
 70
0
  0
VERTEX
  5
28AF9
  8
0
 62
7
 10
63.478782614355957
 20
53.667971647071219
 70
0
  0
VERTEX
  5
28AFA
  8
0
 62
7
 10
63.394722284515893
 20
53.9225642034312
 70
0
  0
VERTEX
  5
28AFB
  8
0
 62
7
 10
63.310661954675787
 20
54.176295485919859
 70
0
  0
VERTEX
  5
28AFC
  8
0
 62
7
 10
63.22522358664159
 20
54.429854513634211
 70
0
  0
VERTEX
  5
28AFD
  8
0
 62
7
 10
63.098444072784389
 20
54.641900140751368
 70
0
  0
VERTEX
  5
28AFE
  8
0
 62
7
 10
62.971664558927209
 20
54.89563142323999
 70
0
  0
SEQEND
  5
28AFF
  8
0
  0
POLYLINE
  5
28B00
  8
0
 62
7
 66
1
 70
0
 10
0
 20
0
 30
0
  0
VERTEX
  5
28B01
  8
0
 62
7
 10
63.182504402624488
 20
53.626285991699717
 70
0
  0
VERTEX
  5
28B02
  8
0
 62
7
 10
63.098444072784389
 20
53.880017274188333
 70
0
  0
VERTEX
  5
28B03
  8
0
 62
7
 10
63.01438374294429
 20
54.090857117885662
 70
0
  0
VERTEX
  5
28B04
  8
0
 62
7
 10
62.928945374910121
 20
54.302902745002768
 70
0
  0
VERTEX
  5
28B05
  8
0
 62
7
 10
62.844885045070022
 20
54.515292881668422
 70
0
  0
VERTEX
  5
28B06
  8
0
 62
7
 10
62.759446677035811
 20
54.72630498013995
 70
0
  0
VERTEX
  5
28B07
  8
0
 62
7
 10
62.675386347195712
 20
54.980897536499917
 70
0
  0
SEQEND
  5
28B08
  8
0
  0
POLYLINE
  5
28B09
  8
0
 62
7
 66
1
 70
0
 10
0
 20
0
 30
0
  0
VERTEX
  5
28B0A
  8
0
 62
7
 10
63.22522358664159
 20
53.667971647071219
 70
0
  0
VERTEX
  5
28B0B
  8
0
 62
7
 10
63.141163256801491
 20
53.880017274188333
 70
0
  0
VERTEX
  5
28B0C
  8
0
 62
7
 10
63.098444072784389
 20
54.133576301902728
 70
0
  0
VERTEX
  5
28B0D
  8
0
 62
7
 10
63.01438374294429
 20
54.345621929019842
 70
0
  0
VERTEX
  5
28B0E
  8
0
 62
7
 10
62.928945374910121
 20
54.556634027491441
 70
0
  0
VERTEX
  5
28B0F
  8
0
 62
7
 10
62.844885045070022
 20
54.769024164157081
 70
0
  0
VERTEX
  5
28B10
  8
0
 62
7
 10
62.7167274930187
 20
54.981069791274187
 70
0
  0
SEQEND
  5
28B11
  8
0
  0
POLYLINE
  5
28B12
  8
0
 62
7
 66
1
 70
0
 10
0
 20
0
 30
0
  0
VERTEX
  5
28B13
  8
0
 62
7
 10
64.453055617584624
 20
52.22895526288238
 70
0
  0
VERTEX
  5
28B14
  8
0
 62
7
 10
64.453055617584624
 20
52.355907031513823
 70
0
  0
VERTEX
  5
28B15
  8
0
 62
7
 10
64.410336433567522
 20
52.482686545370989
 70
0
  0
VERTEX
  5
28B16
  8
0
 62
7
 10
64.410336433567522
 20
52.6096383140025
 70
0
  0
VERTEX
  5
28B17
  8
0
 62
7
 10
64.410336433567522
 20
52.7362455730854
 70
0
  0
VERTEX
  5
28B18
  8
0
 62
7
 10
64.368995287744525
 20
52.864230870362462
 70
0
  0
VERTEX
  5
28B19
  8
0
 62
7
 10
64.326276103727452
 20
52.991354893768168
 70
0
  0
SEQEND
  5
28B1A
  8
0
  0
POLYLINE
  5
28B1B
  8
0
 62
7
 66
1
 70
0
 10
0
 20
0
 30
0
  0
VERTEX
  5
28B1C
  8
0
 62
7
 10
58.018995289332018
 20
48.376304981727458
 70
0
  0
VERTEX
  5
28B1D
  8
0
 62
7
 10
58.145774803189227
 20
48.291900142338868
 70
0
  0
VERTEX
  5
28B1E
  8
0
 62
7
 10
58.272554317046421
 20
48.249353213096022
 70
0
  0
VERTEX
  5
28B1F
  8
0
 62
7
 10
58.399333830903629
 20
48.165292883255908
 70
0
  0
VERTEX
  5
28B20
  8
0
 62
7
 10
58.4833941607437
 20
48.122573699238842
 70
0
  0
VERTEX
  5
28B21
  8
0
 62
7
 10
58.611551712795
 20
48.079854515221712
 70
0
  0
VERTEX
  5
28B22
  8
0
 62
7
 10
58.738331226652207
 20
47.995621930607342
 70
0
  0
SEQEND
  5
28B23
  8
0
  0
POLYLINE
  5
28B24
  8
0
 62
7
 66
1
 70
0
 10
0
 20
0
 30
0
  0
VERTEX
  5
28B25
  8
0
 62
7
 10
64.368995287744525
 20
52.313187847496742
 70
0
  0
VERTEX
  5
28B26
  8
0
 62
7
 10
64.326276103727452
 20
52.439967361353922
 70
0
  0
VERTEX
  5
28B27
  8
0
 62
7
 10
64.326276103727452
 20
52.567952658630929
 70
0
  0
VERTEX
  5
28B28
  8
0
 62
7
 10
64.283556919710335
 20
52.694904427262429
 70
0
  0
VERTEX
  5
28B29
  8
0
 62
7
 10
64.283556919710335
 20
52.8216839411196
 70
0
  0
VERTEX
  5
28B2A
  8
0
 62
7
 10
64.240837735693248
 20
52.948635709751038
 70
0
  0
VERTEX
  5
28B2B
  8
0
 62
7
 10
64.240837735693248
 20
53.075242968834
 70
0
  0
SEQEND
  5
28B2C
  8
0
  0
POLYLINE
  5
28B2D
  8
0
 62
7
 66
1
 70
0
 10
0
 20
0
 30
0
  0
VERTEX
  5
28B2E
  8
0
 62
7
 10
64.326276103727452
 20
52.272018956448
 70
0
  0
VERTEX
  5
28B2F
  8
0
 62
7
 10
64.326276103727452
 20
52.3986262155309
 70
0
  0
VERTEX
  5
28B30
  8
0
 62
7
 10
64.283556919710335
 20
52.525233474613849
 70
0
  0
VERTEX
  5
28B31
  8
0
 62
7
 10
64.283556919710335
 20
52.6521852432453
 70
0
  0
VERTEX
  5
28B32
  8
0
 62
7
 10
64.240837735693248
 20
52.778964757102528
 70
0
  0
VERTEX
  5
28B33
  8
0
 62
7
 10
64.240837735693248
 20
52.905572016185431
 70
0
  0
VERTEX
  5
28B34
  8
0
 62
7
 10
64.19949658987025
 20
53.032523784816867
 70
0
  0
SEQEND
  5
28B35
  8
0
  0
POLYLINE
  5
28B36
  8
0
 62
7
 66
1
 70
0
 10
0
 20
0
 30
0
  0
VERTEX
  5
28B37
  8
0
 62
7
 10
63.648281312230267
 20
52.778964757102528
 70
0
  0
VERTEX
  5
28B38
  8
0
 62
7
 10
63.60694016640727
 20
52.905572016185431
 70
0
  0
VERTEX
  5
28B39
  8
0
 62
7
 10
63.60694016640727
 20
52.991354893768168
 70
0
  0
VERTEX
  5
28B3A
  8
0
 62
7
 10
63.60694016640727
 20
53.117962152851078
 70
0
  0
VERTEX
  5
28B3B
  8
0
 62
7
 10
63.564220982390168
 20
53.2018502279169
 70
0
  0
VERTEX
  5
28B3C
  8
0
 62
7
 10
63.564220982390168
 20
53.330352289516718
 70
0
  0
VERTEX
  5
28B3D
  8
0
 62
7
 10
63.564220982390168
 20
53.456959548599677
 70
0
  0
SEQEND
  5
28B3E
  8
0
  0
POLYLINE
  5
28B3F
  8
0
 62
7
 66
1
 70
0
 10
0
 20
0
 30
0
  0
VERTEX
  5
28B40
  8
0
 62
7
 10
64.410336433567522
 20
51.5513049809337
 70
0
  0
VERTEX
  5
28B41
  8
0
 62
7
 10
64.453055617584624
 20
51.677912240016667
 70
0
  0
VERTEX
  5
28B42
  8
0
 62
7
 10
64.453055617584624
 20
51.763350608050871
 70
0
  0
VERTEX
  5
28B43
  8
0
 62
7
 10
64.495774801601726
 20
51.890302376682307
 70
0
  0
VERTEX
  5
28B44
  8
0
 62
7
 10
64.495774801601726
 20
51.97419045174815
 70
0
  0
VERTEX
  5
28B45
  8
0
 62
7
 10
64.495774801601726
 20
52.10234800379942
 70
0
  0
VERTEX
  5
28B46
  8
0
 62
7
 10
64.453055617584624
 20
52.22895526288238
 70
0
  0
SEQEND
  5
28B47
  8
0
  0
POLYLINE
  5
28B48
  8
0
 62
7
 66
1
 70
0
 10
0
 20
0
 30
0
  0
VERTEX
  5
28B49
  8
0
 62
7
 10
58.738331226652207
 20
47.995621930607342
 70
0
  0
VERTEX
  5
28B4A
  8
0
 62
7
 10
58.8651107405094
 20
47.952902746590262
 70
0
  0
VERTEX
  5
28B4B
  8
0
 62
7
 10
58.949171070349479
 20
47.952902746590262
 70
0
  0
VERTEX
  5
28B4C
  8
0
 62
7
 10
59.077328622400778
 20
47.910183562573188
 70
0
  0
VERTEX
  5
28B4D
  8
0
 62
7
 10
59.161388952240877
 20
47.86901467152444
 70
0
  0
VERTEX
  5
28B4E
  8
0
 62
7
 10
59.288168466098092
 20
47.86901467152444
 70
0
  0
VERTEX
  5
28B4F
  8
0
 62
7
 10
59.414947979955258
 20
47.826295487507359
 70
0
  0
SEQEND
  5
28B50
  8
0
  0
POLYLINE
  5
28B51
  8
0
 62
7
 66
1
 70
0
 10
0
 20
0
 30
0
  0
VERTEX
  5
28B52
  8
0
 62
7
 10
64.326276103727452
 20
51.636571094193641
 70
0
  0
VERTEX
  5
28B53
  8
0
 62
7
 10
64.368995287744525
 20
51.763350608050871
 70
0
  0
VERTEX
  5
28B54
  8
0
 62
7
 10
64.368995287744525
 20
51.8472386831167
 70
0
  0
VERTEX
  5
28B55
  8
0
 62
7
 10
64.368995287744525
 20
51.97419045174815
 70
0
  0
VERTEX
  5
28B56
  8
0
 62
7
 10
64.368995287744525
 20
52.10234800379942
 70
0
  0
VERTEX
  5
28B57
  8
0
 62
7
 10
64.368995287744525
 20
52.18623607886525
 70
0
  0
VERTEX
  5
28B58
  8
0
 62
7
 10
64.368995287744525
 20
52.313187847496742
 70
0
  0
SEQEND
  5
28B59
  8
0
  0
POLYLINE
  5
28B5A
  8
0
 62
7
 66
1
 70
0
 10
0
 20
0
 30
0
  0
VERTEX
  5
28B5B
  8
0
 62
7
 10
64.283556919710335
 20
51.594024164950831
 70
0
  0
VERTEX
  5
28B5C
  8
0
 62
7
 10
64.326276103727452
 20
51.720631424033741
 70
0
  0
VERTEX
  5
28B5D
  8
0
 62
7
 10
64.326276103727452
 20
51.8472386831167
 70
0
  0
VERTEX
  5
28B5E
  8
0
 62
7
 10
64.326276103727452
 20
51.933021560699387
 70
0
  0
VERTEX
  5
28B5F
  8
0
 62
7
 10
64.326276103727452
 20
52.05962881978234
 70
0
  0
VERTEX
  5
28B60
  8
0
 62
7
 10
64.326276103727452
 20
52.18623607886525
 70
0
  0
VERTEX
  5
28B61
  8
0
 62
7
 10
64.326276103727452
 20
52.272018956448
 70
0
  0
SEQEND
  5
28B62
  8
0
  0
POLYLINE
  5
28B63
  8
0
 62
7
 66
1
 70
0
 10
0
 20
0
 30
0
  0
VERTEX
  5
28B64
  8
0
 62
7
 10
63.22522358664159
 20
52.567952658630929
 70
0
  0
VERTEX
  5
28B65
  8
0
 62
7
 10
63.267942770658692
 20
52.7362455730854
 70
0
  0
VERTEX
  5
28B66
  8
0
 62
7
 10
63.267942770658692
 20
52.948635709751038
 70
0
  0
VERTEX
  5
28B67
  8
0
 62
7
 10
63.22522358664159
 20
53.117962152851078
 70
0
  0
VERTEX
  5
28B68
  8
0
 62
7
 10
63.22522358664159
 20
53.330352289516718
 70
0
  0
VERTEX
  5
28B69
  8
0
 62
7
 10
63.182504402624488
 20
53.456959548599677
 70
0
  0
VERTEX
  5
28B6A
  8
0
 62
7
 10
63.182504402624488
 20
53.626285991699717
 70
0
  0
SEQEND
  5
28B6B
  8
0
  0
POLYLINE
  5
28B6C
  8
0
 62
7
 66
1
 70
0
 10
0
 20
0
 30
0
  0
VERTEX
  5
28B6D
  8
0
 62
7
 10
63.310661954675787
 20
52.6096383140025
 70
0
  0
VERTEX
  5
28B6E
  8
0
 62
7
 10
63.310661954675787
 20
52.8216839411196
 70
0
  0
VERTEX
  5
28B6F
  8
0
 62
7
 10
63.310661954675787
 20
52.991354893768168
 70
0
  0
VERTEX
  5
28B70
  8
0
 62
7
 10
63.310661954675787
 20
53.160681336868208
 70
0
  0
VERTEX
  5
28B71
  8
0
 62
7
 10
63.310661954675787
 20
53.330352289516718
 70
0
  0
VERTEX
  5
28B72
  8
0
 62
7
 10
63.22522358664159
 20
53.49830069442266
 70
0
  0
VERTEX
  5
28B73
  8
0
 62
7
 10
63.22522358664159
 20
53.667971647071219
 70
0
  0
SEQEND
  5
28B74
  8
0
  0
POLYLINE
  5
28B75
  8
0
 62
7
 66
1
 70
0
 10
0
 20
0
 30
0
  0
VERTEX
  5
28B76
  8
0
 62
7
 10
54.6744965922515
 20
48.249353213096022
 70
0
  0
VERTEX
  5
28B77
  8
0
 62
7
 10
54.7585569220916
 20
48.165292883255908
 70
0
  0
VERTEX
  5
28B78
  8
0
 62
7
 10
54.843995290125768
 20
48.079854515221712
 70
0
  0
VERTEX
  5
28B79
  8
0
 62
7
 10
54.928055619965868
 20
47.995621930607342
 70
0
  0
VERTEX
  5
28B7A
  8
0
 62
7
 10
55.054835133823083
 20
47.952902746590262
 70
0
  0
VERTEX
  5
28B7B
  8
0
 62
7
 10
55.140273501857273
 20
47.86901467152444
 70
0
  0
VERTEX
  5
28B7C
  8
0
 62
7
 10
55.224333831697379
 20
47.826295487507359
 70
0
  0
SEQEND
  5
28B7D
  8
0
  0
POLYLINE
  5
28B7E
  8
0
 62
7
 66
1
 70
0
 10
0
 20
0
 30
0
  0
VERTEX
  5
28B7F
  8
0
 62
7
 10
63.60694016640727
 20
52.22895526288238
 70
0
  0
VERTEX
  5
28B80
  8
0
 62
7
 10
63.648281312230267
 20
52.313187847496742
 70
0
  0
VERTEX
  5
28B81
  8
0
 62
7
 10
63.648281312230267
 20
52.439967361353922
 70
0
  0
VERTEX
  5
28B82
  8
0
 62
7
 10
63.648281312230267
 20
52.482686545370989
 70
0
  0
VERTEX
  5
28B83
  8
0
 62
7
 10
63.648281312230267
 20
52.6096383140025
 70
0
  0
VERTEX
  5
28B84
  8
0
 62
7
 10
63.648281312230267
 20
52.694904427262429
 70
0
  0
VERTEX
  5
28B85
  8
0
 62
7
 10
63.648281312230267
 20
52.778964757102528
 70
0
  0
SEQEND
  5
28B86
  8
0
  0
POLYLINE
  5
28B87
  8
0
 62
7
 66
1
 70
0
 10
0
 20
0
 30
0
  0
VERTEX
  5
28B88
  8
0
 62
7
 10
62.082829923732731
 20
51.340292882462172
 70
0
  0
VERTEX
  5
28B89
  8
0
 62
7
 10
62.166890253572831
 20
51.340292882462172
 70
0
  0
VERTEX
  5
28B8A
  8
0
 62
7
 10
62.252328621607028
 20
51.297573698445092
 70
0
  0
VERTEX
  5
28B8B
  8
0
 62
7
 10
62.336388951447127
 20
51.297573698445092
 70
0
  0
VERTEX
  5
28B8C
  8
0
 62
7
 10
62.42044928128724
 20
51.297573698445092
 70
0
  0
VERTEX
  5
28B8D
  8
0
 62
7
 10
62.50588764932143
 20
51.297573698445092
 70
0
  0
VERTEX
  5
28B8E
  8
0
 62
7
 10
62.589947979161508
 20
51.297573698445092
 70
0
  0
SEQEND
  5
28B8F
  8
0
  0
POLYLINE
  5
28B90
  8
0
 62
7
 66
1
 70
0
 10
0
 20
0
 30
0
  0
VERTEX
  5
28B91
  8
0
 62
7
 10
62.844885045070022
 20
50.53569083188205
 70
0
  0
VERTEX
  5
28B92
  8
0
 62
7
 10
62.928945374910121
 20
50.53569083188205
 70
0
  0
VERTEX
  5
28B93
  8
0
 62
7
 10
63.055724888767287
 20
50.53569083188205
 70
0
  0
VERTEX
  5
28B94
  8
0
 62
7
 10
63.098444072784389
 20
50.53569083188205
 70
0
  0
VERTEX
  5
28B95
  8
0
 62
7
 10
63.22522358664159
 20
50.53569083188205
 70
0
  0
VERTEX
  5
28B96
  8
0
 62
7
 10
63.310661954675787
 20
50.53569083188205
 70
0
  0
VERTEX
  5
28B97
  8
0
 62
7
 10
63.394722284515893
 20
50.53569083188205
 70
0
  0
SEQEND
  5
28B98
  8
0
  0
POLYLINE
  5
28B99
  8
0
 62
7
 66
1
 70
0
 10
0
 20
0
 30
0
  0
VERTEX
  5
28B9A
  8
0
 62
7
 10
64.156777405853148
 20
51.127902745796511
 70
0
  0
VERTEX
  5
28B9B
  8
0
 62
7
 10
64.19949658987025
 20
51.213685623379263
 70
0
  0
VERTEX
  5
28B9C
  8
0
 62
7
 10
64.240837735693248
 20
51.297573698445092
 70
0
  0
VERTEX
  5
28B9D
  8
0
 62
7
 10
64.283556919710335
 20
51.381634028285191
 70
0
  0
VERTEX
  5
28B9E
  8
0
 62
7
 10
64.283556919710335
 20
51.466900141545118
 70
0
  0
VERTEX
  5
28B9F
  8
0
 62
7
 10
64.326276103727452
 20
51.5513049809337
 70
0
  0
VERTEX
  5
28BA0
  8
0
 62
7
 10
64.326276103727452
 20
51.636571094193641
 70
0
  0
SEQEND
  5
28BA1
  8
0
  0
POLYLINE
  5
28BA2
  8
0
 62
7
 66
1
 70
0
 10
0
 20
0
 30
0
  0
VERTEX
  5
28BA3
  8
0
 62
7
 10
62.802165861052913
 20
50.53569083188205
 70
0
  0
VERTEX
  5
28BA4
  8
0
 62
7
 10
62.928945374910121
 20
50.492971647864977
 70
0
  0
VERTEX
  5
28BA5
  8
0
 62
7
 10
63.01438374294429
 20
50.492971647864977
 70
0
  0
VERTEX
  5
28BA6
  8
0
 62
7
 10
63.098444072784389
 20
50.492971647864977
 70
0
  0
VERTEX
  5
28BA7
  8
0
 62
7
 10
63.182504402624488
 20
50.492971647864977
 70
0
  0
VERTEX
  5
28BA8
  8
0
 62
7
 10
63.310661954675787
 20
50.492971647864977
 70
0
  0
VERTEX
  5
28BA9
  8
0
 62
7
 10
63.352003100498791
 20
50.53569083188205
 70
0
  0
SEQEND
  5
28BAA
  8
0
  0
POLYLINE
  5
28BAB
  8
0
 62
7
 66
1
 70
0
 10
0
 20
0
 30
0
  0
VERTEX
  5
28BAC
  8
0
 62
7
 10
64.156777405853148
 20
51.085183561779452
 70
0
  0
VERTEX
  5
28BAD
  8
0
 62
7
 10
64.156777405853148
 20
51.170621929813592
 70
0
  0
VERTEX
  5
28BAE
  8
0
 62
7
 10
64.240837735693248
 20
51.254854514427961
 70
0
  0
VERTEX
  5
28BAF
  8
0
 62
7
 10
64.240837735693248
 20
51.340292882462172
 70
0
  0
VERTEX
  5
28BB0
  8
0
 62
7
 10
64.283556919710335
 20
51.424353212302272
 70
0
  0
VERTEX
  5
28BB1
  8
0
 62
7
 10
64.283556919710335
 20
51.5513049809337
 70
0
  0
VERTEX
  5
28BB2
  8
0
 62
7
 10
64.283556919710335
 20
51.593851910176568
 70
0
  0
SEQEND
  5
28BB3
  8
0
  0
POLYLINE
  5
28BB4
  8
0
 62
7
 66
1
 70
0
 10
0
 20
0
 30
0
  0
VERTEX
  5
28BB5
  8
0
 62
7
 10
62.379108135464243
 20
51.297573698445092
 70
0
  0
VERTEX
  5
28BB6
  8
0
 62
7
 10
62.463168465304328
 20
51.297573698445092
 70
0
  0
VERTEX
  5
28BB7
  8
0
 62
7
 10
62.548606833338511
 20
51.297573698445092
 70
0
  0
VERTEX
  5
28BB8
  8
0
 62
7
 10
62.589947979161508
 20
51.297573698445092
 70
0
  0
VERTEX
  5
28BB9
  8
0
 62
7
 10
62.675386347195712
 20
51.297573698445092
 70
0
  0
VERTEX
  5
28BBA
  8
0
 62
7
 10
62.759446677035811
 20
51.297573698445092
 70
0
  0
VERTEX
  5
28BBB
  8
0
 62
7
 10
62.844885045070022
 20
51.297573698445092
 70
0
  0
SEQEND
  5
28BBC
  8
0
  0
POLYLINE
  5
28BBD
  8
0
 62
7
 66
1
 70
0
 10
0
 20
0
 30
0
  0
VERTEX
  5
28BBE
  8
0
 62
7
 10
63.478782614355957
 20
51.806069792067937
 70
0
  0
VERTEX
  5
28BBF
  8
0
 62
7
 10
63.521501798373059
 20
51.8472386831167
 70
0
  0
VERTEX
  5
28BC0
  8
0
 62
7
 10
63.563876472841649
 20
51.933021560699387
 70
0
  0
VERTEX
  5
28BC1
  8
0
 62
7
 10
63.563876472841649
 20
52.016909635765209
 70
0
  0
VERTEX
  5
28BC2
  8
0
 62
7
 10
63.60694016640727
 20
52.10234800379942
 70
0
  0
VERTEX
  5
28BC3
  8
0
 62
7
 10
63.60694016640727
 20
52.18623607886525
 70
0
  0
VERTEX
  5
28BC4
  8
0
 62
7
 10
63.60694016640727
 20
52.22895526288238
 70
0
  0
SEQEND
  5
28BC5
  8
0
  0
POLYLINE
  5
28BC6
  8
0
 62
7
 66
1
 70
0
 10
0
 20
0
 30
0
  0
VERTEX
  5
28BC7
  8
0
 62
7
 10
62.166890253572831
 20
51.806069792067937
 70
0
  0
VERTEX
  5
28BC8
  8
0
 62
7
 10
62.252328621607028
 20
51.806069792067937
 70
0
  0
VERTEX
  5
28BC9
  8
0
 62
7
 10
62.293669767430032
 20
51.806069792067937
 70
0
  0
VERTEX
  5
28BCA
  8
0
 62
7
 10
62.379108135464243
 20
51.806069792067937
 70
0
  0
VERTEX
  5
28BCB
  8
0
 62
7
 10
62.463168465304328
 20
51.806069792067937
 70
0
  0
VERTEX
  5
28BCC
  8
0
 62
7
 10
62.548606833338511
 20
51.806069792067937
 70
0
  0
VERTEX
  5
28BCD
  8
0
 62
7
 10
62.589947979161508
 20
51.806069792067937
 70
0
  0
SEQEND
  5
28BCE
  8
0
  0
POLYLINE
  5
28BCF
  8
0
 62
7
 66
1
 70
0
 10
0
 20
0
 30
0
  0
VERTEX
  5
28BD0
  8
0
 62
7
 10
63.182504402624488
 20
52.22895526288238
 70
0
  0
VERTEX
  5
28BD1
  8
0
 62
7
 10
63.182504402624488
 20
52.272018956448
 70
0
  0
VERTEX
  5
28BD2
  8
0
 62
7
 10
63.22522358664159
 20
52.355907031513823
 70
0
  0
VERTEX
  5
28BD3
  8
0
 62
7
 10
63.22522358664159
 20
52.439967361353922
 70
0
  0
VERTEX
  5
28BD4
  8
0
 62
7
 10
63.267942770658692
 20
52.482686545370989
 70
0
  0
VERTEX
  5
28BD5
  8
0
 62
7
 10
63.267942770658692
 20
52.567952658630929
 70
0
  0
VERTEX
  5
28BD6
  8
0
 62
7
 10
63.310661954675787
 20
52.6096383140025
 70
0
  0
SEQEND
  5
28BD7
  8
0
  0
POLYLINE
  5
28BD8
  8
0
 62
7
 66
1
 70
0
 10
0
 20
0
 30
0
  0
VERTEX
  5
28BD9
  8
0
 62
7
 10
63.098444072784389
 20
52.18623607886525
 70
0
  0
VERTEX
  5
28BDA
  8
0
 62
7
 10
63.141163256801491
 20
52.22895526288238
 70
0
  0
VERTEX
  5
28BDB
  8
0
 62
7
 10
63.182504402624488
 20
52.313187847496742
 70
0
  0
VERTEX
  5
28BDC
  8
0
 62
7
 10
63.182504402624488
 20
52.355907031513823
 70
0
  0
VERTEX
  5
28BDD
  8
0
 62
7
 10
63.22522358664159
 20
52.439967361353922
 70
0
  0
VERTEX
  5
28BDE
  8
0
 62
7
 10
63.22522358664159
 20
52.525233474613849
 70
0
  0
VERTEX
  5
28BDF
  8
0
 62
7
 10
63.22522358664159
 20
52.567952658630929
 70
0
  0
SEQEND
  5
28BE0
  8
0
  0
POLYLINE
  5
28BE1
  8
0
 62
7
 66
1
 70
0
 10
0
 20
0
 30
0
  0
VERTEX
  5
28BE2
  8
0
 62
7
 10
62.844885045070022
 20
51.297573698445092
 70
0
  0
VERTEX
  5
28BE3
  8
0
 62
7
 10
62.928945374910121
 20
51.340292882462172
 70
0
  0
VERTEX
  5
28BE4
  8
0
 62
7
 10
62.971664558927209
 20
51.340292882462172
 70
0
  0
VERTEX
  5
28BE5
  8
0
 62
7
 10
63.055724888767287
 20
51.381634028285191
 70
0
  0
VERTEX
  5
28BE6
  8
0
 62
7
 10
63.098444072784389
 20
51.424353212302272
 70
0
  0
VERTEX
  5
28BE7
  8
0
 62
7
 10
63.182504402624488
 20
51.424353212302272
 70
0
  0
VERTEX
  5
28BE8
  8
0
 62
7
 10
63.22522358664159
 20
51.466900141545118
 70
0
  0
SEQEND
  5
28BE9
  8
0
  0
POLYLINE
  5
28BEA
  8
0
 62
7
 66
1
 70
0
 10
0
 20
0
 30
0
  0
VERTEX
  5
28BEB
  8
0
 62
7
 10
62.802165861052913
 20
51.297573698445092
 70
0
  0
VERTEX
  5
28BEC
  8
0
 62
7
 10
62.886226190893012
 20
51.297573698445092
 70
0
  0
VERTEX
  5
28BED
  8
0
 62
7
 10
62.971664558927209
 20
51.340292882462172
 70
0
  0
VERTEX
  5
28BEE
  8
0
 62
7
 10
63.01438374294429
 20
51.340292882462172
 70
0
  0
VERTEX
  5
28BEF
  8
0
 62
7
 10
63.098444072784389
 20
51.381634028285191
 70
0
  0
VERTEX
  5
28BF0
  8
0
 62
7
 10
63.141163256801491
 20
51.424353212302272
 70
0
  0
VERTEX
  5
28BF1
  8
0
 62
7
 10
63.182504402624488
 20
51.466900141545118
 70
0
  0
SEQEND
  5
28BF2
  8
0
  0
POLYLINE
  5
28BF3
  8
0
 62
7
 66
1
 70
0
 10
0
 20
0
 30
0
  0
VERTEX
  5
28BF4
  8
0
 62
7
 10
63.22522358664159
 20
51.466900141545118
 70
0
  0
VERTEX
  5
28BF5
  8
0
 62
7
 10
63.267942770658692
 20
51.5096193255622
 70
0
  0
VERTEX
  5
28BF6
  8
0
 62
7
 10
63.310661954675787
 20
51.5513049809337
 70
0
  0
VERTEX
  5
28BF7
  8
0
 62
7
 10
63.352003100498791
 20
51.594024164950831
 70
0
  0
VERTEX
  5
28BF8
  8
0
 62
7
 10
63.43744146853296
 20
51.677912240016667
 70
0
  0
VERTEX
  5
28BF9
  8
0
 62
7
 10
63.43744146853296
 20
51.720631424033741
 70
0
  0
VERTEX
  5
28BFA
  8
0
 62
7
 10
63.478782614355957
 20
51.806069792067937
 70
0
  0
SEQEND
  5
28BFB
  8
0
  0
POLYLINE
  5
28BFC
  8
0
 62
7
 66
1
 70
0
 10
0
 20
0
 30
0
  0
VERTEX
  5
28BFD
  8
0
 62
7
 10
62.589947979161508
 20
51.806069792067937
 70
0
  0
VERTEX
  5
28BFE
  8
0
 62
7
 10
62.675386347195712
 20
51.806069792067937
 70
0
  0
VERTEX
  5
28BFF
  8
0
 62
7
 10
62.7167274930187
 20
51.806069792067937
 70
0
  0
VERTEX
  5
28C00
  8
0
 62
7
 10
62.759446677035811
 20
51.8472386831167
 70
0
  0
VERTEX
  5
28C01
  8
0
 62
7
 10
62.802165861052913
 20
51.8472386831167
 70
0
  0
VERTEX
  5
28C02
  8
0
 62
7
 10
62.886226190893012
 20
51.933021560699387
 70
0
  0
VERTEX
  5
28C03
  8
0
 62
7
 10
62.928945374910121
 20
51.933021560699387
 70
0
  0
VERTEX
  5
28C04
  8
0
 62
7
 10
62.971664558927209
 20
51.97419045174815
 70
0
  0
VERTEX
  5
28C05
  8
0
 62
7
 10
63.01438374294429
 20
52.016909635765209
 70
0
  0
VERTEX
  5
28C06
  8
0
 62
7
 10
63.055724888767287
 20
52.05962881978234
 70
0
  0
VERTEX
  5
28C07
  8
0
 62
7
 10
63.098444072784389
 20
52.10234800379942
 70
0
  0
VERTEX
  5
28C08
  8
0
 62
7
 10
63.141163256801491
 20
52.18623607886525
 70
0
  0
VERTEX
  5
28C09
  8
0
 62
7
 10
63.182504402624488
 20
52.22895526288238
 70
0
  0
SEQEND
  5
28C0A
  8
0
  0
POLYLINE
  5
28C0B
  8
0
 62
7
 66
1
 70
0
 10
0
 20
0
 30
0
  0
VERTEX
  5
28C0C
  8
0
 62
7
 10
62.886226190893012
 20
51.933021560699387
 70
0
  0
VERTEX
  5
28C0D
  8
0
 62
7
 10
62.928945374910121
 20
51.933021560699387
 70
0
  0
VERTEX
  5
28C0E
  8
0
 62
7
 10
62.971664558927209
 20
51.97419045174815
 70
0
  0
VERTEX
  5
28C0F
  8
0
 62
7
 10
63.01438374294429
 20
52.05962881978234
 70
0
  0
VERTEX
  5
28C10
  8
0
 62
7
 10
63.055724888767287
 20
52.10234800379942
 70
0
  0
VERTEX
  5
28C11
  8
0
 62
7
 10
63.098444072784389
 20
52.143516894848183
 70
0
  0
VERTEX
  5
28C12
  8
0
 62
7
 10
63.098444072784389
 20
52.18623607886525
 70
0
  0
SEQEND
  5
28C13
  8
0
  0
POLYLINE
  5
28C14
  8
0
 62
7
 66
1
 70
0
 10
0
 20
0
 30
0
  0
VERTEX
  5
28C15
  8
0
 62
7
 10
59.45766716397236
 20
59.637288594363611
 70
0
  0
VERTEX
  5
28C16
  8
0
 62
7
 10
59.373606834132261
 20
59.72152117897798
 70
0
  0
VERTEX
  5
28C17
  8
0
 62
7
 10
59.245449282080983
 20
59.764240362995046
 70
0
  0
VERTEX
  5
28C18
  8
0
 62
7
 10
59.118669768223782
 20
59.848300692835153
 70
0
  0
VERTEX
  5
28C19
  8
0
 62
7
 10
58.991890254366581
 20
59.891019876852283
 70
0
  0
VERTEX
  5
28C1A
  8
0
 62
7
 10
58.8651107405094
 20
59.933566806095079
 70
0
  0
VERTEX
  5
28C1B
  8
0
 62
7
 10
58.738331226652207
 20
59.97628599011221
 70
0
  0
SEQEND
  5
28C1C
  8
0
  0
POLYLINE
  5
28C1D
  8
0
 62
7
 66
1
 70
0
 10
0
 20
0
 30
0
  0
VERTEX
  5
28C1E
  8
0
 62
7
 10
59.500386347989462
 20
59.510681335280708
 70
0
  0
VERTEX
  5
28C1F
  8
0
 62
7
 10
59.373606834132261
 20
59.551850226329407
 70
0
  0
VERTEX
  5
28C20
  8
0
 62
7
 10
59.288168466098092
 20
59.637288594363611
 70
0
  0
VERTEX
  5
28C21
  8
0
 62
7
 10
59.161388952240877
 20
59.680352287929217
 70
0
  0
VERTEX
  5
28C22
  8
0
 62
7
 10
59.034609438383683
 20
59.72152117897798
 70
0
  0
VERTEX
  5
28C23
  8
0
 62
7
 10
58.907829924526482
 20
59.764240362995046
 70
0
  0
VERTEX
  5
28C24
  8
0
 62
7
 10
58.7810504106693
 20
59.848300692835153
 70
0
  0
SEQEND
  5
28C25
  8
0
  0
POLYLINE
  5
28C26
  8
0
 62
7
 66
1
 70
0
 10
0
 20
0
 30
0
  0
VERTEX
  5
28C27
  8
0
 62
7
 10
59.500386347989462
 20
59.467962151263578
 70
0
  0
VERTEX
  5
28C28
  8
0
 62
7
 10
59.373606834132261
 20
59.510681335280708
 70
0
  0
VERTEX
  5
28C29
  8
0
 62
7
 10
59.245449282080983
 20
59.594569410346537
 70
0
  0
VERTEX
  5
28C2A
  8
0
 62
7
 10
59.118669768223782
 20
59.637288594363611
 70
0
  0
VERTEX
  5
28C2B
  8
0
 62
7
 10
59.034609438383683
 20
59.72152117897798
 70
0
  0
VERTEX
  5
28C2C
  8
0
 62
7
 10
58.907829924526482
 20
59.764240362995046
 70
0
  0
VERTEX
  5
28C2D
  8
0
 62
7
 10
58.7810504106693
 20
59.806959547012177
 70
0
  0
SEQEND
  5
28C2E
  8
0
  0
POLYLINE
  5
28C2F
  8
0
 62
7
 66
1
 70
0
 10
0
 20
0
 30
0
  0
VERTEX
  5
28C30
  8
0
 62
7
 10
59.541727493812459
 20
58.832686543783488
 70
0
  0
VERTEX
  5
28C31
  8
0
 62
7
 10
59.500386347989462
 20
58.875233473026363
 70
0
  0
VERTEX
  5
28C32
  8
0
 62
7
 10
59.373606834132261
 20
58.917952657043429
 70
0
  0
VERTEX
  5
28C33
  8
0
 62
7
 10
59.288168466098092
 20
58.959638312414988
 70
0
  0
VERTEX
  5
28C34
  8
0
 62
7
 10
59.161388952240877
 20
59.002185241657791
 70
0
  0
VERTEX
  5
28C35
  8
0
 62
7
 10
59.118669768223782
 20
59.044904425674922
 70
0
  0
VERTEX
  5
28C36
  8
0
 62
7
 10
58.991890254366581
 20
59.086245571497891
 70
0
  0
SEQEND
  5
28C37
  8
0
  0
POLYLINE
  5
28C38
  8
0
 62
7
 66
1
 70
0
 10
0
 20
0
 30
0
  0
VERTEX
  5
28C39
  8
0
 62
7
 10
59.669885045863758
 20
58.45234800221192
 70
0
  0
VERTEX
  5
28C3A
  8
0
 62
7
 10
59.541727493812459
 20
58.57895526129488
 70
0
  0
VERTEX
  5
28C3B
  8
0
 62
7
 10
59.373606834132261
 20
58.663187845909249
 70
0
  0
VERTEX
  5
28C3C
  8
0
 62
7
 10
59.204108136257993
 20
58.705907029926323
 70
0
  0
VERTEX
  5
28C3D
  8
0
 62
7
 10
59.034609438383683
 20
58.748626213943389
 70
0
  0
VERTEX
  5
28C3E
  8
0
 62
7
 10
58.8651107405094
 20
58.832514289009282
 70
0
  0
VERTEX
  5
28C3F
  8
0
 62
7
 10
58.695612042635112
 20
58.875233473026363
 70
0
  0
SEQEND
  5
28C40
  8
0
  0
POLYLINE
  5
28C41
  8
0
 62
7
 66
1
 70
0
 10
0
 20
0
 30
0
  0
VERTEX
  5
28C42
  8
0
 62
7
 10
59.627165861846663
 20
58.45234800221192
 70
0
  0
VERTEX
  5
28C43
  8
0
 62
7
 10
59.500386347989462
 20
58.536236077277749
 70
0
  0
VERTEX
  5
28C44
  8
0
 62
7
 10
59.33088765011518
 20
58.622018954860494
 70
0
  0
VERTEX
  5
28C45
  8
0
 62
7
 10
59.161388952240877
 20
58.705907029926323
 70
0
  0
VERTEX
  5
28C46
  8
0
 62
7
 10
58.991890254366581
 20
58.748626213943389
 70
0
  0
VERTEX
  5
28C47
  8
0
 62
7
 10
58.8223915564923
 20
58.789967359766422
 70
0
  0
VERTEX
  5
28C48
  8
0
 62
7
 10
58.652892858618
 20
58.832514289009282
 70
0
  0
SEQEND
  5
28C49
  8
0
  0
POLYLINE
  5
28C4A
  8
0
 62
7
 66
1
 70
0
 10
0
 20
0
 30
0
  0
VERTEX
  5
28C4B
  8
0
 62
7
 10
53.023606835719761
 20
55.784638313208738
 70
0
  0
VERTEX
  5
28C4C
  8
0
 62
7
 10
53.023606835719761
 20
55.657686544577238
 70
0
  0
VERTEX
  5
28C4D
  8
0
 62
7
 10
53.064947981542751
 20
55.488187846703
 70
0
  0
VERTEX
  5
28C4E
  8
0
 62
7
 10
53.064947981542751
 20
55.3612360780715
 70
0
  0
VERTEX
  5
28C4F
  8
0
 62
7
 10
53.10766716555986
 20
55.2346288189886
 70
0
  0
VERTEX
  5
28C50
  8
0
 62
7
 10
53.150386349576962
 20
55.108021559905637
 70
0
  0
VERTEX
  5
28C51
  8
0
 62
7
 10
53.150386349576962
 20
54.981069791274187
 70
0
  0
SEQEND
  5
28C52
  8
0
  0
POLYLINE
  5
28C53
  8
0
 62
7
 66
1
 70
0
 10
0
 20
0
 30
0
  0
VERTEX
  5
28C54
  8
0
 62
7
 10
57.214220983977661
 20
57.774353210714757
 70
0
  0
VERTEX
  5
28C55
  8
0
 62
7
 10
57.214220983977661
 20
57.690292880874658
 70
0
  0
VERTEX
  5
28C56
  8
0
 62
7
 10
57.214220983977661
 20
57.563685621791763
 70
0
  0
VERTEX
  5
28C57
  8
0
 62
7
 10
57.214220983977661
 20
57.435183560191938
 70
0
  0
VERTEX
  5
28C58
  8
0
 62
7
 10
57.25694016799477
 20
57.351295485126109
 70
0
  0
VERTEX
  5
28C59
  8
0
 62
7
 10
57.25694016799477
 20
57.265857117091912
 70
0
  0
VERTEX
  5
28C5A
  8
0
 62
7
 10
57.29828131381776
 20
57.138905348460412
 70
0
  0
SEQEND
  5
28C5B
  8
0
  0
POLYLINE
  5
28C5C
  8
0
 62
7
 66
1
 70
0
 10
0
 20
0
 30
0
  0
VERTEX
  5
28C5D
  8
0
 62
7
 10
56.494885046657508
 20
59.002357496432069
 70
0
  0
VERTEX
  5
28C5E
  8
0
 62
7
 10
56.494885046657508
 20
58.875233473026363
 70
0
  0
VERTEX
  5
28C5F
  8
0
 62
7
 10
56.494885046657508
 20
58.789967359766422
 70
0
  0
VERTEX
  5
28C60
  8
0
 62
7
 10
56.494885046657508
 20
58.663187845909249
 70
0
  0
VERTEX
  5
28C61
  8
0
 62
7
 10
56.494885046657508
 20
58.57895526129488
 70
0
  0
VERTEX
  5
28C62
  8
0
 62
7
 10
56.494885046657508
 20
58.45234800221192
 70
0
  0
VERTEX
  5
28C63
  8
0
 62
7
 10
56.494885046657508
 20
58.324190450160643
 70
0
  0
SEQEND
  5
28C64
  8
0
  0
POLYLINE
  5
28C65
  8
0
 62
7
 66
1
 70
0
 10
0
 20
0
 30
0
  0
VERTEX
  5
28C66
  8
0
 62
7
 10
58.738331226652207
 20
59.97628599011221
 70
0
  0
VERTEX
  5
28C67
  8
0
 62
7
 10
58.652892858618
 20
60.017971645483719
 70
0
  0
VERTEX
  5
28C68
  8
0
 62
7
 10
58.5261133447608
 20
60.060518574726594
 70
0
  0
VERTEX
  5
28C69
  8
0
 62
7
 10
58.399333830903629
 20
60.10323775874366
 70
0
  0
VERTEX
  5
28C6A
  8
0
 62
7
 10
58.31527350106353
 20
60.10323775874366
 70
0
  0
VERTEX
  5
28C6B
  8
0
 62
7
 10
58.229835133029333
 20
60.144578904566629
 70
0
  0
VERTEX
  5
28C6C
  8
0
 62
7
 10
58.103055619172117
 20
60.144578904566629
 70
0
  0
SEQEND
  5
28C6D
  8
0
  0
POLYLINE
  5
28C6E
  8
0
 62
7
 66
1
 70
0
 10
0
 20
0
 30
0
  0
VERTEX
  5
28C6F
  8
0
 62
7
 10
56.536226192480513
 20
59.002357496432069
 70
0
  0
VERTEX
  5
28C70
  8
0
 62
7
 10
56.494885046657508
 20
58.917952657043429
 70
0
  0
VERTEX
  5
28C71
  8
0
 62
7
 10
56.494885046657508
 20
58.789967359766422
 70
0
  0
VERTEX
  5
28C72
  8
0
 62
7
 10
56.494885046657508
 20
58.705907029926323
 70
0
  0
VERTEX
  5
28C73
  8
0
 62
7
 10
56.494885046657508
 20
58.57895526129488
 70
0
  0
VERTEX
  5
28C74
  8
0
 62
7
 10
56.494885046657508
 20
58.45234800221192
 70
0
  0
VERTEX
  5
28C75
  8
0
 62
7
 10
56.494885046657508
 20
58.324190450160643
 70
0
  0
SEQEND
  5
28C76
  8
0
  0
POLYLINE
  5
28C77
  8
0
 62
7
 66
1
 70
0
 10
0
 20
0
 30
0
  0
VERTEX
  5
28C78
  8
0
 62
7
 10
58.7810504106693
 20
59.848300692835153
 70
0
  0
VERTEX
  5
28C79
  8
0
 62
7
 10
58.695612042635112
 20
59.891019876852283
 70
0
  0
VERTEX
  5
28C7A
  8
0
 62
7
 10
58.611551712795
 20
59.891019876852283
 70
0
  0
VERTEX
  5
28C7B
  8
0
 62
7
 10
58.4833941607437
 20
59.97628599011221
 70
0
  0
VERTEX
  5
28C7C
  8
0
 62
7
 10
58.399333830903629
 20
59.97628599011221
 70
0
  0
VERTEX
  5
28C7D
  8
0
 62
7
 10
58.272554317046421
 20
60.017971645483719
 70
0
  0
VERTEX
  5
28C7E
  8
0
 62
7
 10
58.145774803189227
 20
60.017971645483719
 70
0
  0
SEQEND
  5
28C7F
  8
0
  0
POLYLINE
  5
28C80
  8
0
 62
7
 66
1
 70
0
 10
0
 20
0
 30
0
  0
VERTEX
  5
28C81
  8
0
 62
7
 10
58.7810504106693
 20
59.806959547012177
 70
0
  0
VERTEX
  5
28C82
  8
0
 62
7
 10
58.652892858618
 20
59.848300692835153
 70
0
  0
VERTEX
  5
28C83
  8
0
 62
7
 10
58.5688325287779
 20
59.891019876852283
 70
0
  0
VERTEX
  5
28C84
  8
0
 62
7
 10
58.4833941607437
 20
59.933566806095079
 70
0
  0
VERTEX
  5
28C85
  8
0
 62
7
 10
58.35661464688652
 20
59.97628599011221
 70
0
  0
VERTEX
  5
28C86
  8
0
 62
7
 10
58.272554317046421
 20
59.97628599011221
 70
0
  0
VERTEX
  5
28C87
  8
0
 62
7
 10
58.145774803189227
 20
59.97628599011221
 70
0
  0
SEQEND
  5
28C88
  8
0
  0
POLYLINE
  5
28C89
  8
0
 62
7
 66
1
 70
0
 10
0
 20
0
 30
0
  0
VERTEX
  5
28C8A
  8
0
 62
7
 10
56.664383744531783
 20
58.917952657043429
 70
0
  0
VERTEX
  5
28C8B
  8
0
 62
7
 10
56.664383744531783
 20
58.832686543783488
 70
0
  0
VERTEX
  5
28C8C
  8
0
 62
7
 10
56.664383744531783
 20
58.705907029926323
 70
0
  0
VERTEX
  5
28C8D
  8
0
 62
7
 10
56.621664560514688
 20
58.57895526129488
 70
0
  0
VERTEX
  5
28C8E
  8
0
 62
7
 10
56.621664560514688
 20
58.493516893260669
 70
0
  0
VERTEX
  5
28C8F
  8
0
 62
7
 10
56.621664560514688
 20
58.366909634177723
 70
0
  0
VERTEX
  5
28C90
  8
0
 62
7
 10
56.664383744531783
 20
58.28302155911188
 70
0
  0
SEQEND
  5
28C91
  8
0
  0
POLYLINE
  5
28C92
  8
0
 62
7
 66
1
 70
0
 10
0
 20
0
 30
0
  0
VERTEX
  5
28C93
  8
0
 62
7
 10
56.621664560514688
 20
58.875233473026363
 70
0
  0
VERTEX
  5
28C94
  8
0
 62
7
 10
56.621664560514688
 20
58.789967359766422
 70
0
  0
VERTEX
  5
28C95
  8
0
 62
7
 10
56.621664560514688
 20
58.663187845909249
 70
0
  0
VERTEX
  5
28C96
  8
0
 62
7
 10
56.621664560514688
 20
58.57895526129488
 70
0
  0
VERTEX
  5
28C97
  8
0
 62
7
 10
56.621664560514688
 20
58.45234800221192
 70
0
  0
VERTEX
  5
28C98
  8
0
 62
7
 10
56.621664560514688
 20
58.324190450160643
 70
0
  0
VERTEX
  5
28C99
  8
0
 62
7
 10
56.621664560514688
 20
58.240302375094807
 70
0
  0
SEQEND
  5
28C9A
  8
0
  0
POLYLINE
  5
28C9B
  8
0
 62
7
 66
1
 70
0
 10
0
 20
0
 30
0
  0
VERTEX
  5
28C9C
  8
0
 62
7
 10
57.594559525549244
 20
58.02791223842916
 70
0
  0
VERTEX
  5
28C9D
  8
0
 62
7
 10
57.553218379726239
 20
57.859619323974691
 70
0
  0
VERTEX
  5
28C9E
  8
0
 62
7
 10
57.553218379726239
 20
57.690292880874658
 70
0
  0
VERTEX
  5
28C9F
  8
0
 62
7
 10
57.553218379726239
 20
57.520621928226092
 70
0
  0
VERTEX
  5
28CA0
  8
0
 62
7
 10
57.594559525549244
 20
57.308576301108978
 70
0
  0
VERTEX
  5
28CA1
  8
0
 62
7
 10
57.594559525549244
 20
57.138905348460412
 70
0
  0
VERTEX
  5
28CA2
  8
0
 62
7
 10
57.637278709566353
 20
56.969578905360379
 70
0
  0
SEQEND
  5
28CA3
  8
0
  0
POLYLINE
  5
28CA4
  8
0
 62
7
 66
1
 70
0
 10
0
 20
0
 30
0
  0
VERTEX
  5
28CA5
  8
0
 62
7
 10
57.214220983977661
 20
58.324190450160643
 70
0
  0
VERTEX
  5
28CA6
  8
0
 62
7
 10
57.171501799960573
 20
58.197238681529193
 70
0
  0
VERTEX
  5
28CA7
  8
0
 62
7
 10
57.171501799960573
 20
58.155897535706167
 70
0
  0
VERTEX
  5
28CA8
  8
0
 62
7
 10
57.171501799960573
 20
58.02791223842916
 70
0
  0
VERTEX
  5
28CA9
  8
0
 62
7
 10
57.171501799960573
 20
57.944024163363338
 70
0
  0
VERTEX
  5
28CAA
  8
0
 62
7
 10
57.171501799960573
 20
57.859619323974691
 70
0
  0
VERTEX
  5
28CAB
  8
0
 62
7
 10
57.171501799960573
 20
57.774353210714757
 70
0
  0
SEQEND
  5
28CAC
  8
0
  0
POLYLINE
  5
28CAD
  8
0
 62
7
 66
1
 70
0
 10
0
 20
0
 30
0
  0
VERTEX
  5
28CAE
  8
0
 62
7
 10
58.991890254366581
 20
59.086245571497891
 70
0
  0
VERTEX
  5
28CAF
  8
0
 62
7
 10
58.907829924526482
 20
59.128964755515021
 70
0
  0
VERTEX
  5
28CB0
  8
0
 62
7
 10
58.8223915564923
 20
59.1716839395321
 70
0
  0
VERTEX
  5
28CB1
  8
0
 62
7
 10
58.738331226652207
 20
59.214403123549168
 70
0
  0
VERTEX
  5
28CB2
  8
0
 62
7
 10
58.652892858618
 20
59.214403123549168
 70
0
  0
VERTEX
  5
28CB3
  8
0
 62
7
 10
58.5261133447608
 20
59.214403123549168
 70
0
  0
VERTEX
  5
28CB4
  8
0
 62
7
 10
58.4833941607437
 20
59.255572014597931
 70
0
  0
SEQEND
  5
28CB5
  8
0
  0
POLYLINE
  5
28CB6
  8
0
 62
7
 66
1
 70
0
 10
0
 20
0
 30
0
  0
VERTEX
  5
28CB7
  8
0
 62
7
 10
57.214220983977661
 20
58.324190450160643
 70
0
  0
VERTEX
  5
28CB8
  8
0
 62
7
 10
57.214220983977661
 20
58.240302375094807
 70
0
  0
VERTEX
  5
28CB9
  8
0
 62
7
 10
57.214220983977661
 20
58.155897535706167
 70
0
  0
VERTEX
  5
28CBA
  8
0
 62
7
 10
57.171501799960573
 20
58.07063142244624
 70
0
  0
VERTEX
  5
28CBB
  8
0
 62
7
 10
57.171501799960573
 20
57.944024163363338
 70
0
  0
VERTEX
  5
28CBC
  8
0
 62
7
 10
57.171501799960573
 20
57.859619323974691
 70
0
  0
VERTEX
  5
28CBD
  8
0
 62
7
 10
57.214220983977661
 20
57.774353210714757
 70
0
  0
SEQEND
  5
28CBE
  8
0
  0
POLYLINE
  5
28CBF
  8
0
 62
7
 66
1
 70
0
 10
0
 20
0
 30
0
  0
VERTEX
  5
28CC0
  8
0
 62
7
 10
58.145774803189227
 20
60.017971645483719
 70
0
  0
VERTEX
  5
28CC1
  8
0
 62
7
 10
58.103055619172117
 20
60.017971645483719
 70
0
  0
VERTEX
  5
28CC2
  8
0
 62
7
 10
57.976276105314952
 20
60.017971645483719
 70
0
  0
VERTEX
  5
28CC3
  8
0
 62
7
 10
57.890837737280748
 20
60.017971645483719
 70
0
  0
VERTEX
  5
28CC4
  8
0
 62
7
 10
57.806777407440649
 20
60.017971645483719
 70
0
  0
VERTEX
  5
28CC5
  8
0
 62
7
 10
57.722717077600542
 20
60.017971645483719
 70
0
  0
VERTEX
  5
28CC6
  8
0
 62
7
 10
57.594559525549244
 20
60.017971645483719
 70
0
  0
SEQEND
  5
28CC7
  8
0
  0
POLYLINE
  5
28CC8
  8
0
 62
7
 66
1
 70
0
 10
0
 20
0
 30
0
  0
VERTEX
  5
28CC9
  8
0
 62
7
 10
56.832504404211988
 20
59.4252429672465
 70
0
  0
VERTEX
  5
28CCA
  8
0
 62
7
 10
56.748444074371889
 20
59.341354892180682
 70
0
  0
VERTEX
  5
28CCB
  8
0
 62
7
 10
56.748444074371889
 20
59.255572014597931
 70
0
  0
VERTEX
  5
28CCC
  8
0
 62
7
 10
56.70572489035478
 20
59.1716839395321
 70
0
  0
VERTEX
  5
28CCD
  8
0
 62
7
 10
56.70572489035478
 20
59.086245571497891
 70
0
  0
VERTEX
  5
28CCE
  8
0
 62
7
 10
56.664383744531783
 20
59.002357496432069
 70
0
  0
VERTEX
  5
28CCF
  8
0
 62
7
 10
56.621664560514688
 20
58.875233473026363
 70
0
  0
SEQEND
  5
28CD0
  8
0
  0
POLYLINE
  5
28CD1
  8
0
 62
7
 66
1
 70
0
 10
0
 20
0
 30
0
  0
VERTEX
  5
28CD2
  8
0
 62
7
 10
56.832504404211988
 20
59.467962151263578
 70
0
  0
VERTEX
  5
28CD3
  8
0
 62
7
 10
56.791163258388991
 20
59.382523783229367
 70
0
  0
VERTEX
  5
28CD4
  8
0
 62
7
 10
56.748444074371889
 20
59.255572014597931
 70
0
  0
VERTEX
  5
28CD5
  8
0
 62
7
 10
56.748444074371889
 20
59.214230868774962
 70
0
  0
VERTEX
  5
28CD6
  8
0
 62
7
 10
56.70572489035478
 20
59.086245571497891
 70
0
  0
VERTEX
  5
28CD7
  8
0
 62
7
 10
56.70572489035478
 20
59.002357496432069
 70
0
  0
VERTEX
  5
28CD8
  8
0
 62
7
 10
56.664383744531783
 20
58.917952657043429
 70
0
  0
SEQEND
  5
28CD9
  8
0
  0
POLYLINE
  5
28CDA
  8
0
 62
7
 66
1
 70
0
 10
0
 20
0
 30
0
  0
VERTEX
  5
28CDB
  8
0
 62
7
 10
58.145774803189227
 20
59.97628599011221
 70
0
  0
VERTEX
  5
28CDC
  8
0
 62
7
 10
58.060336435155023
 20
60.017971645483719
 70
0
  0
VERTEX
  5
28CDD
  8
0
 62
7
 10
57.976276105314952
 20
60.017971645483719
 70
0
  0
VERTEX
  5
28CDE
  8
0
 62
7
 10
57.849496591457751
 20
60.017971645483719
 70
0
  0
VERTEX
  5
28CDF
  8
0
 62
7
 10
57.76405822342354
 20
60.017971645483719
 70
0
  0
VERTEX
  5
28CE0
  8
0
 62
7
 10
57.679997893583447
 20
60.017971645483719
 70
0
  0
VERTEX
  5
28CE1
  8
0
 62
7
 10
57.594559525549244
 20
59.97628599011221
 70
0
  0
SEQEND
  5
28CE2
  8
0
  0
POLYLINE
  5
28CE3
  8
0
 62
7
 66
1
 70
0
 10
0
 20
0
 30
0
  0
VERTEX
  5
28CE4
  8
0
 62
7
 10
57.34100049783487
 20
58.748626213943389
 70
0
  0
VERTEX
  5
28CE5
  8
0
 62
7
 10
57.29828131381776
 20
58.705907029926323
 70
0
  0
VERTEX
  5
28CE6
  8
0
 62
7
 10
57.25694016799477
 20
58.663187845909249
 70
0
  0
VERTEX
  5
28CE7
  8
0
 62
7
 10
57.25694016799477
 20
58.57895526129488
 70
0
  0
VERTEX
  5
28CE8
  8
0
 62
7
 10
57.214220983977661
 20
58.493516893260669
 70
0
  0
VERTEX
  5
28CE9
  8
0
 62
7
 10
57.214220983977661
 20
58.409628818194847
 70
0
  0
VERTEX
  5
28CEA
  8
0
 62
7
 10
57.214220983977661
 20
58.324190450160643
 70
0
  0
SEQEND
  5
28CEB
  8
0
  0
POLYLINE
  5
28CEC
  8
0
 62
7
 66
1
 70
0
 10
0
 20
0
 30
0
  0
VERTEX
  5
28CED
  8
0
 62
7
 10
58.4833941607437
 20
59.255572014597931
 70
0
  0
VERTEX
  5
28CEE
  8
0
 62
7
 10
58.399333830903629
 20
59.255572014597931
 70
0
  0
VERTEX
  5
28CEF
  8
0
 62
7
 10
58.31527350106353
 20
59.255572014597931
 70
0
  0
VERTEX
  5
28CF0
  8
0
 62
7
 10
58.229835133029333
 20
59.255572014597931
 70
0
  0
VERTEX
  5
28CF1
  8
0
 62
7
 10
58.145774803189227
 20
59.255572014597931
 70
0
  0
VERTEX
  5
28CF2
  8
0
 62
7
 10
58.060336435155023
 20
59.255572014597931
 70
0
  0
VERTEX
  5
28CF3
  8
0
 62
7
 10
57.976276105314952
 20
59.255572014597931
 70
0
  0
SEQEND
  5
28CF4
  8
0
  0
POLYLINE
  5
28CF5
  8
0
 62
7
 66
1
 70
0
 10
0
 20
0
 30
0
  0
VERTEX
  5
28CF6
  8
0
 62
7
 10
57.467780011692071
 20
58.917952657043429
 70
0
  0
VERTEX
  5
28CF7
  8
0
 62
7
 10
57.383719681851971
 20
58.832686543783488
 70
0
  0
VERTEX
  5
28CF8
  8
0
 62
7
 10
57.34100049783487
 20
58.748626213943389
 70
0
  0
VERTEX
  5
28CF9
  8
0
 62
7
 10
57.25694016799477
 20
58.663187845909249
 70
0
  0
VERTEX
  5
28CFA
  8
0
 62
7
 10
57.213876474429163
 20
58.536236077277749
 70
0
  0
VERTEX
  5
28CFB
  8
0
 62
7
 10
57.213876474429163
 20
58.409628818194847
 70
0
  0
VERTEX
  5
28CFC
  8
0
 62
7
 10
57.213876474429163
 20
58.324190450160643
 70
0
  0
SEQEND
  5
28CFD
  8
0
  0
POLYLINE
  5
28CFE
  8
0
 62
7
 66
1
 70
0
 10
0
 20
0
 30
0
  0
VERTEX
  5
28CFF
  8
0
 62
7
 10
58.695612042635112
 20
58.875233473026363
 70
0
  0
VERTEX
  5
28D00
  8
0
 62
7
 10
58.611551712795
 20
58.875233473026363
 70
0
  0
VERTEX
  5
28D01
  8
0
 62
7
 10
58.5261133447608
 20
58.875233473026363
 70
0
  0
VERTEX
  5
28D02
  8
0
 62
7
 10
58.4833941607437
 20
58.875233473026363
 70
0
  0
VERTEX
  5
28D03
  8
0
 62
7
 10
58.399333830903629
 20
58.875233473026363
 70
0
  0
VERTEX
  5
28D04
  8
0
 62
7
 10
58.35661464688652
 20
58.875233473026363
 70
0
  0
VERTEX
  5
28D05
  8
0
 62
7
 10
58.272554317046421
 20
58.875233473026363
 70
0
  0
SEQEND
  5
28D06
  8
0
  0
POLYLINE
  5
28D07
  8
0
 62
7
 66
1
 70
0
 10
0
 20
0
 30
0
  0
VERTEX
  5
28D08
  8
0
 62
7
 10
57.722717077600542
 20
58.45234800221192
 70
0
  0
VERTEX
  5
28D09
  8
0
 62
7
 10
57.679997893583447
 20
58.366909634177723
 70
0
  0
VERTEX
  5
28D0A
  8
0
 62
7
 10
57.637278709566353
 20
58.324190450160643
 70
0
  0
VERTEX
  5
28D0B
  8
0
 62
7
 10
57.637278709566353
 20
58.240302375094807
 70
0
  0
VERTEX
  5
28D0C
  8
0
 62
7
 10
57.594559525549244
 20
58.197238681529193
 70
0
  0
VERTEX
  5
28D0D
  8
0
 62
7
 10
57.594559525549244
 20
58.113350606463371
 70
0
  0
VERTEX
  5
28D0E
  8
0
 62
7
 10
57.594559525549244
 20
58.02791223842916
 70
0
  0
SEQEND
  5
28D0F
  8
0
  0
POLYLINE
  5
28D10
  8
0
 62
7
 66
1
 70
0
 10
0
 20
0
 30
0
  0
VERTEX
  5
28D11
  8
0
 62
7
 10
58.652892858618
 20
58.832686543783488
 70
0
  0
VERTEX
  5
28D12
  8
0
 62
7
 10
58.611551712795
 20
58.832686543783488
 70
0
  0
VERTEX
  5
28D13
  8
0
 62
7
 10
58.5261133447608
 20
58.832686543783488
 70
0
  0
VERTEX
  5
28D14
  8
0
 62
7
 10
58.4420530149207
 20
58.832686543783488
 70
0
  0
VERTEX
  5
28D15
  8
0
 62
7
 10
58.35661464688652
 20
58.832686543783488
 70
0
  0
VERTEX
  5
28D16
  8
0
 62
7
 10
58.31527350106353
 20
58.832686543783488
 70
0
  0
VERTEX
  5
28D17
  8
0
 62
7
 10
58.229835133029333
 20
58.832686543783488
 70
0
  0
SEQEND
  5
28D18
  8
0
  0
POLYLINE
  5
28D19
  8
0
 62
7
 66
1
 70
0
 10
0
 20
0
 30
0
  0
VERTEX
  5
28D1A
  8
0
 62
7
 10
57.594559525549244
 20
59.086245571497891
 70
0
  0
VERTEX
  5
28D1B
  8
0
 62
7
 10
57.553218379726239
 20
59.044904425674922
 70
0
  0
VERTEX
  5
28D1C
  8
0
 62
7
 10
57.510499195709173
 20
59.002357496432069
 70
0
  0
VERTEX
  5
28D1D
  8
0
 62
7
 10
57.467780011692071
 20
58.959638312414988
 70
0
  0
VERTEX
  5
28D1E
  8
0
 62
7
 10
57.425060827674969
 20
58.875233473026363
 70
0
  0
VERTEX
  5
28D1F
  8
0
 62
7
 10
57.383719681851971
 20
58.832686543783488
 70
0
  0
VERTEX
  5
28D20
  8
0
 62
7
 10
57.34100049783487
 20
58.748626213943389
 70
0
  0
SEQEND
  5
28D21
  8
0
  0
POLYLINE
  5
28D22
  8
0
 62
7
 66
1
 70
0
 10
0
 20
0
 30
0
  0
VERTEX
  5
28D23
  8
0
 62
7
 10
57.976276105314952
 20
59.255572014597931
 70
0
  0
VERTEX
  5
28D24
  8
0
 62
7
 10
57.93355692129785
 20
59.214403123549168
 70
0
  0
VERTEX
  5
28D25
  8
0
 62
7
 10
57.849496591457751
 20
59.214403123549168
 70
0
  0
VERTEX
  5
28D26
  8
0
 62
7
 10
57.76405822342354
 20
59.214403123549168
 70
0
  0
VERTEX
  5
28D27
  8
0
 62
7
 10
57.722717077600542
 20
59.128964755515021
 70
0
  0
VERTEX
  5
28D28
  8
0
 62
7
 10
57.679997893583447
 20
59.128964755515021
 70
0
  0
VERTEX
  5
28D29
  8
0
 62
7
 10
57.594559525549244
 20
59.086245571497891
 70
0
  0
SEQEND
  5
28D2A
  8
0
  0
POLYLINE
  5
28D2B
  8
0
 62
7
 66
1
 70
0
 10
0
 20
0
 30
0
  0
VERTEX
  5
28D2C
  8
0
 62
7
 10
57.93355692129785
 20
58.705907029926323
 70
0
  0
VERTEX
  5
28D2D
  8
0
 62
7
 10
57.890837737280748
 20
58.663187845909249
 70
0
  0
VERTEX
  5
28D2E
  8
0
 62
7
 10
57.849496591457751
 20
58.663187845909249
 70
0
  0
VERTEX
  5
28D2F
  8
0
 62
7
 10
57.806777407440649
 20
58.57895526129488
 70
0
  0
VERTEX
  5
28D30
  8
0
 62
7
 10
57.76405822342354
 20
58.536236077277749
 70
0
  0
VERTEX
  5
28D31
  8
0
 62
7
 10
57.722717077600542
 20
58.493516893260669
 70
0
  0
VERTEX
  5
28D32
  8
0
 62
7
 10
57.722717077600542
 20
58.45234800221192
 70
0
  0
SEQEND
  5
28D33
  8
0
  0
POLYLINE
  5
28D34
  8
0
 62
7
 66
1
 70
0
 10
0
 20
0
 30
0
  0
VERTEX
  5
28D35
  8
0
 62
7
 10
58.272554317046421
 20
58.875233473026363
 70
0
  0
VERTEX
  5
28D36
  8
0
 62
7
 10
58.229835133029333
 20
58.832686543783488
 70
0
  0
VERTEX
  5
28D37
  8
0
 62
7
 10
58.145774803189227
 20
58.832686543783488
 70
0
  0
VERTEX
  5
28D38
  8
0
 62
7
 10
58.103055619172117
 20
58.789967359766422
 70
0
  0
VERTEX
  5
28D39
  8
0
 62
7
 10
58.018995289332018
 20
58.748626213943389
 70
0
  0
VERTEX
  5
28D3A
  8
0
 62
7
 10
57.976276105314952
 20
58.748626213943389
 70
0
  0
VERTEX
  5
28D3B
  8
0
 62
7
 10
57.93355692129785
 20
58.705907029926323
 70
0
  0
SEQEND
  5
28D3C
  8
0
  0
POLYLINE
  5
28D3D
  8
0
 62
7
 66
1
 70
0
 10
0
 20
0
 30
0
  0
VERTEX
  5
28D3E
  8
0
 62
7
 10
58.229835133029333
 20
58.832686543783488
 70
0
  0
VERTEX
  5
28D3F
  8
0
 62
7
 10
58.187115949012217
 20
58.832686543783488
 70
0
  0
VERTEX
  5
28D40
  8
0
 62
7
 10
58.103055619172117
 20
58.789967359766422
 70
0
  0
VERTEX
  5
28D41
  8
0
 62
7
 10
58.060336435155023
 20
58.748626213943389
 70
0
  0
VERTEX
  5
28D42
  8
0
 62
7
 10
58.018995289332018
 20
58.748626213943389
 70
0
  0
VERTEX
  5
28D43
  8
0
 62
7
 10
57.976276105314952
 20
58.705907029926323
 70
0
  0
VERTEX
  5
28D44
  8
0
 62
7
 10
57.890837737280748
 20
58.705907029926323
 70
0
  0
SEQEND
  5
28D45
  8
0
  0
POLYLINE
  5
28D46
  8
0
 62
7
 66
1
 70
0
 10
0
 20
0
 30
0
  0
VERTEX
  5
28D47
  8
0
 62
7
 10
56.494885046657508
 20
49.519904428056179
 70
0
  0
VERTEX
  5
28D48
  8
0
 62
7
 10
56.748444074371889
 20
49.307686546164753
 70
0
  0
VERTEX
  5
28D49
  8
0
 62
7
 10
57.002003102086292
 20
49.097018957241737
 70
0
  0
VERTEX
  5
28D4A
  8
0
 62
7
 10
57.213876474429163
 20
48.88462882057609
 70
0
  0
VERTEX
  5
28D4B
  8
0
 62
7
 10
57.510499195709173
 20
48.715302377476057
 70
0
  0
VERTEX
  5
28D4C
  8
0
 62
7
 10
57.76405822342354
 20
48.545631424827491
 70
0
  0
VERTEX
  5
28D4D
  8
0
 62
7
 10
58.018995289332018
 20
48.376304981727458
 70
0
  0
SEQEND
  5
28D4E
  8
0
  0
POLYLINE
  5
28D4F
  8
0
 62
7
 66
1
 70
0
 10
0
 20
0
 30
0
  0
VERTEX
  5
28D50
  8
0
 62
7
 10
61.49027350026978
 20
50.915857118679412
 70
0
  0
VERTEX
  5
28D51
  8
0
 62
7
 10
61.617053014126952
 20
50.874688227630656
 70
0
  0
VERTEX
  5
28D52
  8
0
 62
7
 10
61.701113343967052
 20
50.788905350047912
 70
0
  0
VERTEX
  5
28D53
  8
0
 62
7
 10
61.827892857824253
 20
50.747564204224943
 70
0
  0
VERTEX
  5
28D54
  8
0
 62
7
 10
61.956050409875559
 20
50.66229809096501
 70
0
  0
VERTEX
  5
28D55
  8
0
 62
7
 10
62.082829923732731
 20
50.619578906947879
 70
0
  0
VERTEX
  5
28D56
  8
0
 62
7
 10
62.209609437589933
 20
50.57823776112491
 70
0
  0
SEQEND
  5
28D57
  8
0
  0
POLYLINE
  5
28D58
  8
0
 62
7
 66
1
 70
0
 10
0
 20
0
 30
0
  0
VERTEX
  5
28D59
  8
0
 62
7
 10
61.531614646092777
 20
50.915857118679412
 70
0
  0
VERTEX
  5
28D5A
  8
0
 62
7
 10
61.658394159949978
 20
50.874688227630656
 70
0
  0
VERTEX
  5
28D5B
  8
0
 62
7
 10
61.743832527984146
 20
50.788905350047912
 70
0
  0
VERTEX
  5
28D5C
  8
0
 62
7
 10
61.870612041841362
 20
50.747564204224943
 70
0
  0
VERTEX
  5
28D5D
  8
0
 62
7
 10
61.997391555698549
 20
50.705017274982083
 70
0
  0
VERTEX
  5
28D5E
  8
0
 62
7
 10
62.124171069555729
 20
50.619578906947879
 70
0
  0
VERTEX
  5
28D5F
  8
0
 62
7
 10
62.209609437589933
 20
50.57823776112491
 70
0
  0
SEQEND
  5
28D60
  8
0
  0
POLYLINE
  5
28D61
  8
0
 62
7
 66
1
 70
0
 10
0
 20
0
 30
0
  0
VERTEX
  5
28D62
  8
0
 62
7
 10
61.49027350026978
 20
51.044014670730689
 70
0
  0
VERTEX
  5
28D63
  8
0
 62
7
 10
61.574333830109879
 20
51.001295486713609
 70
0
  0
VERTEX
  5
28D64
  8
0
 62
7
 10
61.701113343967052
 20
50.915857118679412
 70
0
  0
VERTEX
  5
28D65
  8
0
 62
7
 10
61.827892857824253
 20
50.874688227630656
 70
0
  0
VERTEX
  5
28D66
  8
0
 62
7
 10
61.956050409875559
 20
50.788905350047912
 70
0
  0
VERTEX
  5
28D67
  8
0
 62
7
 10
62.082829923732731
 20
50.747564204224943
 70
0
  0
VERTEX
  5
28D68
  8
0
 62
7
 10
62.166890253572831
 20
50.705017274982083
 70
0
  0
SEQEND
  5
28D69
  8
0
  0
POLYLINE
  5
28D6A
  8
0
 62
7
 66
1
 70
0
 10
0
 20
0
 30
0
  0
VERTEX
  5
28D6B
  8
0
 62
7
 10
61.531614646092777
 20
51.085183561779452
 70
0
  0
VERTEX
  5
28D6C
  8
0
 62
7
 10
61.617053014126952
 20
51.001295486713609
 70
0
  0
VERTEX
  5
28D6D
  8
0
 62
7
 10
61.743832527984146
 20
50.958576302696478
 70
0
  0
VERTEX
  5
28D6E
  8
0
 62
7
 10
61.827892857824253
 20
50.874688227630656
 70
0
  0
VERTEX
  5
28D6F
  8
0
 62
7
 10
61.956050409875559
 20
50.831969043613583
 70
0
  0
VERTEX
  5
28D70
  8
0
 62
7
 10
62.082829923732731
 20
50.788905350047912
 70
0
  0
VERTEX
  5
28D71
  8
0
 62
7
 10
62.209609437589933
 20
50.747564204224943
 70
0
  0
SEQEND
  5
28D72
  8
0
  0
POLYLINE
  5
28D73
  8
0
 62
7
 66
1
 70
0
 10
0
 20
0
 30
0
  0
VERTEX
  5
28D74
  8
0
 62
7
 10
61.278055618378367
 20
51.763350608050871
 70
0
  0
VERTEX
  5
28D75
  8
0
 62
7
 10
61.362115948218481
 20
51.677912240016667
 70
0
  0
VERTEX
  5
28D76
  8
0
 62
7
 10
61.447554316252671
 20
51.636571094193641
 70
0
  0
VERTEX
  5
28D77
  8
0
 62
7
 10
61.531614646092777
 20
51.593851910176568
 70
0
  0
VERTEX
  5
28D78
  8
0
 62
7
 10
61.658394159949978
 20
51.5513049809337
 70
0
  0
VERTEX
  5
28D79
  8
0
 62
7
 10
61.743832527984146
 20
51.5096193255622
 70
0
  0
VERTEX
  5
28D7A
  8
0
 62
7
 10
61.827892857824253
 20
51.466900141545118
 70
0
  0
SEQEND
  5
28D7B
  8
0
  0
POLYLINE
  5
28D7C
  8
0
 62
7
 66
1
 70
0
 10
0
 20
0
 30
0
  0
VERTEX
  5
28D7D
  8
0
 62
7
 10
61.531614646092777
 20
51.594024164950831
 70
0
  0
VERTEX
  5
28D7E
  8
0
 62
7
 10
61.617053014126952
 20
51.5513049809337
 70
0
  0
VERTEX
  5
28D7F
  8
0
 62
7
 10
61.701113343967052
 20
51.466900141545118
 70
0
  0
VERTEX
  5
28D80
  8
0
 62
7
 10
61.786551712001263
 20
51.466900141545118
 70
0
  0
VERTEX
  5
28D81
  8
0
 62
7
 10
61.91333122585845
 20
51.424353212302272
 70
0
  0
VERTEX
  5
28D82
  8
0
 62
7
 10
61.997391555698549
 20
51.381634028285191
 70
0
  0
VERTEX
  5
28D83
  8
0
 62
7
 10
62.082829923732731
 20
51.340292882462172
 70
0
  0
SEQEND
  5
28D84
  8
0
  0
POLYLINE
  5
28D85
  8
0
 62
7
 66
1
 70
0
 10
0
 20
0
 30
0
  0
VERTEX
  5
28D86
  8
0
 62
7
 10
62.209609437589933
 20
50.57823776112491
 70
0
  0
VERTEX
  5
28D87
  8
0
 62
7
 10
62.336388951447127
 20
50.53569083188205
 70
0
  0
VERTEX
  5
28D88
  8
0
 62
7
 10
62.42044928128724
 20
50.492971647864977
 70
0
  0
VERTEX
  5
28D89
  8
0
 62
7
 10
62.548606833338511
 20
50.492971647864977
 70
0
  0
VERTEX
  5
28D8A
  8
0
 62
7
 10
62.675386347195712
 20
50.408566808476337
 70
0
  0
VERTEX
  5
28D8B
  8
0
 62
7
 10
62.759446677035811
 20
50.408566808476337
 70
0
  0
VERTEX
  5
28D8C
  8
0
 62
7
 10
62.844885045070022
 20
50.408566808476337
 70
0
  0
SEQEND
  5
28D8D
  8
0
  0
POLYLINE
  5
28D8E
  8
0
 62
7
 66
1
 70
0
 10
0
 20
0
 30
0
  0
VERTEX
  5
28D8F
  8
0
 62
7
 10
62.209609437589933
 20
50.57823776112491
 70
0
  0
VERTEX
  5
28D90
  8
0
 62
7
 10
62.336388951447127
 20
50.53569083188205
 70
0
  0
VERTEX
  5
28D91
  8
0
 62
7
 10
62.463168465304328
 20
50.492971647864977
 70
0
  0
VERTEX
  5
28D92
  8
0
 62
7
 10
62.548606833338511
 20
50.492971647864977
 70
0
  0
VERTEX
  5
28D93
  8
0
 62
7
 10
62.675386347195712
 20
50.451285992493467
 70
0
  0
VERTEX
  5
28D94
  8
0
 62
7
 10
62.802165861052913
 20
50.408566808476337
 70
0
  0
VERTEX
  5
28D95
  8
0
 62
7
 10
62.886226190893012
 20
50.408566808476337
 70
0
  0
SEQEND
  5
28D96
  8
0
  0
POLYLINE
  5
28D97
  8
0
 62
7
 66
1
 70
0
 10
0
 20
0
 30
0
  0
VERTEX
  5
28D98
  8
0
 62
7
 10
62.166890253572831
 20
50.705017274982083
 70
0
  0
VERTEX
  5
28D99
  8
0
 62
7
 10
62.293669767430032
 20
50.66229809096501
 70
0
  0
VERTEX
  5
28D9A
  8
0
 62
7
 10
62.42044928128724
 20
50.619578906947879
 70
0
  0
VERTEX
  5
28D9B
  8
0
 62
7
 10
62.50588764932143
 20
50.619578906947879
 70
0
  0
VERTEX
  5
28D9C
  8
0
 62
7
 10
62.589947979161508
 20
50.57823776112491
 70
0
  0
VERTEX
  5
28D9D
  8
0
 62
7
 10
62.7167274930187
 20
50.53551857710783
 70
0
  0
VERTEX
  5
28D9E
  8
0
 62
7
 10
62.802165861052913
 20
50.53551857710783
 70
0
  0
SEQEND
  5
28D9F
  8
0
  0
POLYLINE
  5
28DA0
  8
0
 62
7
 66
1
 70
0
 10
0
 20
0
 30
0
  0
VERTEX
  5
28DA1
  8
0
 62
7
 10
62.209609437589933
 20
50.747736458999213
 70
0
  0
VERTEX
  5
28DA2
  8
0
 62
7
 10
62.293669767430032
 20
50.705017274982083
 70
0
  0
VERTEX
  5
28DA3
  8
0
 62
7
 10
62.42044928128724
 20
50.66229809096501
 70
0
  0
VERTEX
  5
28DA4
  8
0
 62
7
 10
62.548606833338511
 20
50.619578906947879
 70
0
  0
VERTEX
  5
28DA5
  8
0
 62
7
 10
62.63266716317861
 20
50.619578906947879
 70
0
  0
VERTEX
  5
28DA6
  8
0
 62
7
 10
62.7167274930187
 20
50.57823776112491
 70
0
  0
VERTEX
  5
28DA7
  8
0
 62
7
 10
62.844885045070022
 20
50.53569083188205
 70
0
  0
SEQEND
  5
28DA8
  8
0
  0
POLYLINE
  5
28DA9
  8
0
 62
7
 66
1
 70
0
 10
0
 20
0
 30
0
  0
VERTEX
  5
28DAA
  8
0
 62
7
 10
61.193995288538268
 20
52.18623607886525
 70
0
  0
VERTEX
  5
28DAB
  8
0
 62
7
 10
61.320774802395484
 20
52.10234800379942
 70
0
  0
VERTEX
  5
28DAC
  8
0
 62
7
 10
61.49027350026978
 20
52.016909635765209
 70
0
  0
VERTEX
  5
28DAD
  8
0
 62
7
 10
61.658394159949978
 20
51.933021560699387
 70
0
  0
VERTEX
  5
28DAE
  8
0
 62
7
 10
61.827892857824253
 20
51.890302376682307
 70
0
  0
VERTEX
  5
28DAF
  8
0
 62
7
 10
61.997391555698549
 20
51.8472386831167
 70
0
  0
VERTEX
  5
28DB0
  8
0
 62
7
 10
62.166890253572831
 20
51.806069792067937
 70
0
  0
SEQEND
  5
28DB1
  8
0
  0
POLYLINE
  5
28DB2
  8
0
 62
7
 66
1
 70
0
 10
0
 20
0
 30
0
  0
VERTEX
  5
28DB3
  8
0
 62
7
 10
61.827892857824253
 20
51.466900141545118
 70
0
  0
VERTEX
  5
28DB4
  8
0
 62
7
 10
61.91333122585845
 20
51.424353212302272
 70
0
  0
VERTEX
  5
28DB5
  8
0
 62
7
 10
62.040110739715658
 20
51.424353212302272
 70
0
  0
VERTEX
  5
28DB6
  8
0
 62
7
 10
62.082829923732731
 20
51.381634028285191
 70
0
  0
VERTEX
  5
28DB7
  8
0
 62
7
 10
62.209609437589933
 20
51.340292882462172
 70
0
  0
VERTEX
  5
28DB8
  8
0
 62
7
 10
62.293669767430032
 20
51.340292882462172
 70
0
  0
VERTEX
  5
28DB9
  8
0
 62
7
 10
62.379108135464243
 20
51.297573698445092
 70
0
  0
SEQEND
  5
28DBA
  8
0
  0
POLYLINE
  5
28DBB
  8
0
 62
7
 66
1
 70
0
 10
0
 20
0
 30
0
  0
VERTEX
  5
28DBC
  8
0
 62
7
 10
53.191727495399959
 20
49.985681337661958
 70
0
  0
VERTEX
  5
28DBD
  8
0
 62
7
 10
53.446664561308438
 20
49.646683941913352
 70
0
  0
VERTEX
  5
28DBE
  8
0
 62
7
 10
53.657504405005739
 20
49.3502334754076
 70
0
  0
VERTEX
  5
28DBF
  8
0
 62
7
 10
53.912441470914217
 20
49.097018957241737
 70
0
  0
VERTEX
  5
28DC0
  8
0
 62
7
 10
54.16600049862862
 20
48.799190452541893
 70
0
  0
VERTEX
  5
28DC1
  8
0
 62
7
 10
54.419559526342987
 20
48.502912240810417
 70
0
  0
VERTEX
  5
28DC2
  8
0
 62
7
 10
54.6744965922515
 20
48.249180958321737
 70
0
  0
SEQEND
  5
28DC3
  8
0
  0
POLYLINE
  5
28DC4
  8
0
 62
7
 66
1
 70
0
 10
0
 20
0
 30
0
  0
VERTEX
  5
28DC5
  8
0
 62
7
 10
55.012115949805967
 20
51.213685623379263
 70
0
  0
VERTEX
  5
28DC6
  8
0
 62
7
 10
55.224333831697379
 20
50.915857118679412
 70
0
  0
VERTEX
  5
28DC7
  8
0
 62
7
 10
55.477892859411753
 20
50.66229809096501
 70
0
  0
VERTEX
  5
28DC8
  8
0
 62
7
 10
55.732829925320232
 20
50.366019879233527
 70
0
  0
VERTEX
  5
28DC9
  8
0
 62
7
 10
55.986388953034627
 20
50.069569412727787
 70
0
  0
VERTEX
  5
28DCA
  8
0
 62
7
 10
56.239947980749
 20
49.816354894561918
 70
0
  0
VERTEX
  5
28DCB
  8
0
 62
7
 10
56.494885046657508
 20
49.519904428056179
 70
0
  0
SEQEND
  5
28DCC
  8
0
  0
POLYLINE
  5
28DCD
  8
0
 62
7
 66
1
 70
0
 10
0
 20
0
 30
0
  0
VERTEX
  5
28DCE
  8
0
 62
7
 10
52.006614648474027
 20
51.933021560699387
 70
0
  0
VERTEX
  5
28DCF
  8
0
 62
7
 10
52.1761133463483
 20
51.593851910176568
 70
0
  0
VERTEX
  5
28DD0
  8
0
 62
7
 10
52.3456120442226
 20
51.254854514427961
 70
0
  0
VERTEX
  5
28DD1
  8
0
 62
7
 10
52.557829926113982
 20
50.915857118679412
 70
0
  0
VERTEX
  5
28DD2
  8
0
 62
7
 10
52.768669769811282
 20
50.619578906947879
 70
0
  0
VERTEX
  5
28DD3
  8
0
 62
7
 10
52.980887651702687
 20
50.281959549393427
 70
0
  0
VERTEX
  5
28DD4
  8
0
 62
7
 10
53.191727495399959
 20
49.985681337661958
 70
0
  0
SEQEND
  5
28DD5
  8
0
  0
POLYLINE
  5
28DD6
  8
0
 62
7
 66
1
 70
0
 10
0
 20
0
 30
0
  0
VERTEX
  5
28DD7
  8
0
 62
7
 10
59.966163257595241
 20
52.10234800379942
 70
0
  0
VERTEX
  5
28DD8
  8
0
 62
7
 10
60.177003101292541
 20
51.8472386831167
 70
0
  0
VERTEX
  5
28DD9
  8
0
 62
7
 10
60.43194016720102
 20
51.677912240016667
 70
0
  0
VERTEX
  5
28DDA
  8
0
 62
7
 10
60.685499194915423
 20
51.466900141545118
 70
0
  0
VERTEX
  5
28DDB
  8
0
 62
7
 10
60.939058222629789
 20
51.297573698445092
 70
0
  0
VERTEX
  5
28DDC
  8
0
 62
7
 10
61.193995288538268
 20
51.127902745796511
 70
0
  0
VERTEX
  5
28DDD
  8
0
 62
7
 10
61.49027350026978
 20
50.915857118679412
 70
0
  0
SEQEND
  5
28DDE
  8
0
  0
POLYLINE
  5
28DDF
  8
0
 62
7
 66
1
 70
0
 10
0
 20
0
 30
0
  0
VERTEX
  5
28DE0
  8
0
 62
7
 10
53.150386349576962
 20
54.981069791274187
 70
0
  0
VERTEX
  5
28DE1
  8
0
 62
7
 10
53.234446679417061
 20
54.684619324768448
 70
0
  0
VERTEX
  5
28DE2
  8
0
 62
7
 10
53.319885047451258
 20
54.345621929019842
 70
0
  0
VERTEX
  5
28DE3
  8
0
 62
7
 10
53.446664561308438
 20
54.049688226836913
 70
0
  0
VERTEX
  5
28DE4
  8
0
 62
7
 10
53.573444075165632
 20
53.75323776033116
 70
0
  0
VERTEX
  5
28DE5
  8
0
 62
7
 10
53.700223589022841
 20
53.456959548599677
 70
0
  0
VERTEX
  5
28DE6
  8
0
 62
7
 10
53.827003102880042
 20
53.2018502279169
 70
0
  0
SEQEND
  5
28DE7
  8
0
  0
POLYLINE
  5
28DE8
  8
0
 62
7
 66
1
 70
0
 10
0
 20
0
 30
0
  0
VERTEX
  5
28DE9
  8
0
 62
7
 10
60.007504403418238
 20
52.10234800379942
 70
0
  0
VERTEX
  5
28DEA
  8
0
 62
7
 10
60.219722285309643
 20
51.890302376682307
 70
0
  0
VERTEX
  5
28DEB
  8
0
 62
7
 10
60.473281313024017
 20
51.677912240016667
 70
0
  0
VERTEX
  5
28DEC
  8
0
 62
7
 10
60.7282183789325
 20
51.466900141545118
 70
0
  0
VERTEX
  5
28DED
  8
0
 62
7
 10
60.9817774066469
 20
51.297573698445092
 70
0
  0
VERTEX
  5
28DEE
  8
0
 62
7
 10
61.235336434361272
 20
51.127902745796511
 70
0
  0
VERTEX
  5
28DEF
  8
0
 62
7
 10
61.531614646092777
 20
50.915857118679412
 70
0
  0
SEQEND
  5
28DF0
  8
0
  0
POLYLINE
  5
28DF1
  8
0
 62
7
 66
1
 70
0
 10
0
 20
0
 30
0
  0
VERTEX
  5
28DF2
  8
0
 62
7
 10
60.007504403418238
 20
52.18623607886525
 70
0
  0
VERTEX
  5
28DF3
  8
0
 62
7
 10
60.262441469326717
 20
51.97419045174815
 70
0
  0
VERTEX
  5
28DF4
  8
0
 62
7
 10
60.473281313024017
 20
51.763350608050871
 70
0
  0
VERTEX
  5
28DF5
  8
0
 62
7
 10
60.7282183789325
 20
51.594024164950831
 70
0
  0
VERTEX
  5
28DF6
  8
0
 62
7
 10
60.9817774066469
 20
51.381634028285191
 70
0
  0
VERTEX
  5
28DF7
  8
0
 62
7
 10
61.235336434361272
 20
51.213685623379263
 70
0
  0
VERTEX
  5
28DF8
  8
0
 62
7
 10
61.49027350026978
 20
51.044014670730689
 70
0
  0
SEQEND
  5
28DF9
  8
0
  0
POLYLINE
  5
28DFA
  8
0
 62
7
 66
1
 70
0
 10
0
 20
0
 30
0
  0
VERTEX
  5
28DFB
  8
0
 62
7
 10
60.05022358743534
 20
52.22895526288238
 70
0
  0
VERTEX
  5
28DFC
  8
0
 62
7
 10
60.262441469326717
 20
51.97419045174815
 70
0
  0
VERTEX
  5
28DFD
  8
0
 62
7
 10
60.516000497041119
 20
51.805897537293681
 70
0
  0
VERTEX
  5
28DFE
  8
0
 62
7
 10
60.769559524755493
 20
51.593851910176568
 70
0
  0
VERTEX
  5
28DFF
  8
0
 62
7
 10
61.024496590664
 20
51.424353212302272
 70
0
  0
VERTEX
  5
28E00
  8
0
 62
7
 10
61.278055618378367
 20
51.213685623379263
 70
0
  0
VERTEX
  5
28E01
  8
0
 62
7
 10
61.531614646092777
 20
51.085183561779452
 70
0
  0
SEQEND
  5
28E02
  8
0
  0
POLYLINE
  5
28E03
  8
0
 62
7
 66
1
 70
0
 10
0
 20
0
 30
0
  0
VERTEX
  5
28E04
  8
0
 62
7
 10
60.007504403418238
 20
52.694904427262429
 70
0
  0
VERTEX
  5
28E05
  8
0
 62
7
 10
60.219722285309643
 20
52.525233474613849
 70
0
  0
VERTEX
  5
28E06
  8
0
 62
7
 10
60.43194016720102
 20
52.355907031513823
 70
0
  0
VERTEX
  5
28E07
  8
0
 62
7
 10
60.642780010898321
 20
52.18623607886525
 70
0
  0
VERTEX
  5
28E08
  8
0
 62
7
 10
60.8122787087726
 20
52.05962881978234
 70
0
  0
VERTEX
  5
28E09
  8
0
 62
7
 10
61.024496590664
 20
51.890302376682307
 70
0
  0
VERTEX
  5
28E0A
  8
0
 62
7
 10
61.278055618378367
 20
51.763350608050871
 70
0
  0
SEQEND
  5
28E0B
  8
0
  0
POLYLINE
  5
28E0C
  8
0
 62
7
 66
1
 70
0
 10
0
 20
0
 30
0
  0
VERTEX
  5
28E0D
  8
0
 62
7
 10
60.092942771452442
 20
53.032523784816867
 70
0
  0
VERTEX
  5
28E0E
  8
0
 62
7
 10
60.262441469326717
 20
52.864230870362462
 70
0
  0
VERTEX
  5
28E0F
  8
0
 62
7
 10
60.43194016720102
 20
52.7362455730854
 70
0
  0
VERTEX
  5
28E10
  8
0
 62
7
 10
60.600060826881219
 20
52.567952658630929
 70
0
  0
VERTEX
  5
28E11
  8
0
 62
7
 10
60.8122787087726
 20
52.439967361353922
 70
0
  0
VERTEX
  5
28E12
  8
0
 62
7
 10
60.9817774066469
 20
52.313187847496742
 70
0
  0
VERTEX
  5
28E13
  8
0
 62
7
 10
61.193995288538268
 20
52.18623607886525
 70
0
  0
SEQEND
  5
28E14
  8
0
  0
POLYLINE
  5
28E15
  8
0
 62
7
 66
1
 70
0
 10
0
 20
0
 30
0
  0
VERTEX
  5
28E16
  8
0
 62
7
 10
57.637278709566353
 20
56.969578905360379
 70
0
  0
VERTEX
  5
28E17
  8
0
 62
7
 10
57.722717077600542
 20
56.758566806888837
 70
0
  0
VERTEX
  5
28E18
  8
0
 62
7
 10
57.76405822342354
 20
56.54652117977173
 70
0
  0
VERTEX
  5
28E19
  8
0
 62
7
 10
57.849496591457751
 20
56.292962152057328
 70
0
  0
VERTEX
  5
28E1A
  8
0
 62
7
 10
57.93355692129785
 20
56.1236357089573
 70
0
  0
VERTEX
  5
28E1B
  8
0
 62
7
 10
58.018995289332018
 20
55.869904426468679
 70
0
  0
VERTEX
  5
28E1C
  8
0
 62
7
 10
58.145774803189227
 20
55.657686544577238
 70
0
  0
SEQEND
  5
28E1D
  8
0
  0
POLYLINE
  5
28E1E
  8
0
 62
7
 66
1
 70
0
 10
0
 20
0
 30
0
  0
VERTEX
  5
28E1F
  8
0
 62
7
 10
57.171501799960573
 20
57.774353210714757
 70
0
  0
VERTEX
  5
28E20
  8
0
 62
7
 10
57.214220983977661
 20
57.477902744209018
 70
0
  0
VERTEX
  5
28E21
  8
0
 62
7
 10
57.25694016799477
 20
57.181969042026083
 70
0
  0
VERTEX
  5
28E22
  8
0
 62
7
 10
57.34100049783487
 20
56.885518575520337
 70
0
  0
VERTEX
  5
28E23
  8
0
 62
7
 10
57.425060827674969
 20
56.589240363788811
 70
0
  0
VERTEX
  5
28E24
  8
0
 62
7
 10
57.510499195709173
 20
56.292962152057328
 70
0
  0
VERTEX
  5
28E25
  8
0
 62
7
 10
57.637278709566353
 20
56.039230869568712
 70
0
  0
SEQEND
  5
28E26
  8
0
  0
POLYLINE
  5
28E27
  8
0
 62
7
 66
1
 70
0
 10
0
 20
0
 30
0
  0
VERTEX
  5
28E28
  8
0
 62
7
 10
60.642780010898321
 20
52.143516894848183
 70
0
  0
VERTEX
  5
28E29
  8
0
 62
7
 10
60.769559524755493
 20
52.05962881978234
 70
0
  0
VERTEX
  5
28E2A
  8
0
 62
7
 10
60.8977170768068
 20
51.933021560699387
 70
0
  0
VERTEX
  5
28E2B
  8
0
 62
7
 10
61.065837736487
 20
51.8472386831167
 70
0
  0
VERTEX
  5
28E2C
  8
0
 62
7
 10
61.193995288538268
 20
51.720631424033741
 70
0
  0
VERTEX
  5
28E2D
  8
0
 62
7
 10
61.362115948218481
 20
51.677912240016667
 70
0
  0
VERTEX
  5
28E2E
  8
0
 62
7
 10
61.531614646092777
 20
51.593851910176568
 70
0
  0
SEQEND
  5
28E2F
  8
0
  0
POLYLINE
  5
28E30
  8
0
 62
7
 66
1
 70
0
 10
0
 20
0
 30
0
  0
VERTEX
  5
28E31
  8
0
 62
7
 10
56.494885046657508
 20
58.324190450160643
 70
0
  0
VERTEX
  5
28E32
  8
0
 62
7
 10
56.536226192480513
 20
58.197238681529193
 70
0
  0
VERTEX
  5
28E33
  8
0
 62
7
 10
56.536226192480513
 20
58.07063142244624
 70
0
  0
VERTEX
  5
28E34
  8
0
 62
7
 10
56.578945376497607
 20
57.944024163363338
 70
0
  0
VERTEX
  5
28E35
  8
0
 62
7
 10
56.578945376497607
 20
57.816900139957617
 70
0
  0
VERTEX
  5
28E36
  8
0
 62
7
 10
56.621664560514688
 20
57.690292880874658
 70
0
  0
VERTEX
  5
28E37
  8
0
 62
7
 10
56.621664560514688
 20
57.563685621791763
 70
0
  0
SEQEND
  5
28E38
  8
0
  0
POLYLINE
  5
28E39
  8
0
 62
7
 66
1
 70
0
 10
0
 20
0
 30
0
  0
VERTEX
  5
28E3A
  8
0
 62
7
 10
56.494885046657508
 20
58.324190450160643
 70
0
  0
VERTEX
  5
28E3B
  8
0
 62
7
 10
56.494885046657508
 20
58.197238681529193
 70
0
  0
VERTEX
  5
28E3C
  8
0
 62
7
 10
56.494885046657508
 20
58.07063142244624
 70
0
  0
VERTEX
  5
28E3D
  8
0
 62
7
 10
56.536226192480513
 20
57.944024163363338
 70
0
  0
VERTEX
  5
28E3E
  8
0
 62
7
 10
56.578945376497607
 20
57.816900139957617
 70
0
  0
VERTEX
  5
28E3F
  8
0
 62
7
 10
56.578945376497607
 20
57.690292880874658
 70
0
  0
VERTEX
  5
28E40
  8
0
 62
7
 10
56.621664560514688
 20
57.563685621791763
 70
0
  0
SEQEND
  5
28E41
  8
0
  0
POLYLINE
  5
28E42
  8
0
 62
7
 66
1
 70
0
 10
0
 20
0
 30
0
  0
VERTEX
  5
28E43
  8
0
 62
7
 10
56.664383744531783
 20
58.28302155911188
 70
0
  0
VERTEX
  5
28E44
  8
0
 62
7
 10
56.664383744531783
 20
58.155897535706167
 70
0
  0
VERTEX
  5
28E45
  8
0
 62
7
 10
56.70572489035478
 20
58.02791223842916
 70
0
  0
VERTEX
  5
28E46
  8
0
 62
7
 10
56.70572489035478
 20
57.901304979346207
 70
0
  0
VERTEX
  5
28E47
  8
0
 62
7
 10
56.70572489035478
 20
57.774353210714757
 70
0
  0
VERTEX
  5
28E48
  8
0
 62
7
 10
56.748444074371889
 20
57.647573696857592
 70
0
  0
VERTEX
  5
28E49
  8
0
 62
7
 10
56.791163258388991
 20
57.520621928226092
 70
0
  0
SEQEND
  5
28E4A
  8
0
  0
POLYLINE
  5
28E4B
  8
0
 62
7
 66
1
 70
0
 10
0
 20
0
 30
0
  0
VERTEX
  5
28E4C
  8
0
 62
7
 10
56.621664560514688
 20
58.240302375094807
 70
0
  0
VERTEX
  5
28E4D
  8
0
 62
7
 10
56.621664560514688
 20
58.113350606463371
 70
0
  0
VERTEX
  5
28E4E
  8
0
 62
7
 10
56.664383744531783
 20
57.986571092606141
 70
0
  0
VERTEX
  5
28E4F
  8
0
 62
7
 10
56.70572489035478
 20
57.859619323974691
 70
0
  0
VERTEX
  5
28E50
  8
0
 62
7
 10
56.70572489035478
 20
57.731634026697691
 70
0
  0
VERTEX
  5
28E51
  8
0
 62
7
 10
56.748444074371889
 20
57.604854512840461
 70
0
  0
VERTEX
  5
28E52
  8
0
 62
7
 10
56.748444074371889
 20
57.477902744209018
 70
0
  0
SEQEND
  5
28E53
  8
0
  0
POLYLINE
  5
28E54
  8
0
 62
7
 66
1
 70
0
 10
0
 20
0
 30
0
  0
VERTEX
  5
28E55
  8
0
 62
7
 10
50.525223589816591
 20
42.577348006180671
 70
0
  0
VERTEX
  5
28E56
  8
0
 62
7
 10
50.610661957850787
 20
44.142971649452477
 70
0
  0
SEQEND
  5
28E57
  8
0
  0
POLYLINE
  5
28E58
  8
0
 62
7
 66
1
 70
0
 10
0
 20
0
 30
0
  0
VERTEX
  5
28E59
  8
0
 62
7
 10
50.821501801548067
 20
41.984619327943442
 70
0
  0
VERTEX
  5
28E5A
  8
0
 62
7
 10
52.599171071936979
 20
42.238350610432121
 70
0
  0
SEQEND
  5
28E5B
  8
0
  0
POLYLINE
  5
28E5C
  8
0
 62
7
 66
1
 70
0
 10
0
 20
0
 30
0
  0
VERTEX
  5
28E5D
  8
0
 62
7
 10
57.29828131381776
 20
55.742952657837172
 70
0
  0
VERTEX
  5
28E5E
  8
0
 62
7
 10
57.467780011692071
 20
55.40395526208863
 70
0
  0
VERTEX
  5
28E5F
  8
0
 62
7
 10
57.637278709566353
 20
55.108021559905637
 70
0
  0
VERTEX
  5
28E60
  8
0
 62
7
 10
57.849496591457751
 20
54.768851909382818
 70
0
  0
VERTEX
  5
28E61
  8
0
 62
7
 10
58.060336435155023
 20
54.429854513634211
 70
0
  0
VERTEX
  5
28E62
  8
0
 62
7
 10
58.272554317046421
 20
54.133576301902728
 70
0
  0
VERTEX
  5
28E63
  8
0
 62
7
 10
58.4833941607437
 20
53.837298090171252
 70
0
  0
SEQEND
  5
28E64
  8
0
  0
POLYLINE
  5
28E65
  8
0
 62
7
 66
1
 70
0
 10
0
 20
0
 30
0
  0
VERTEX
  5
28E66
  8
0
 62
7
 10
53.827003102880042
 20
53.2018502279169
 70
0
  0
VERTEX
  5
28E67
  8
0
 62
7
 10
53.996501800754316
 20
52.8216839411196
 70
0
  0
VERTEX
  5
28E68
  8
0
 62
7
 10
54.16600049862862
 20
52.482686545370989
 70
0
  0
VERTEX
  5
28E69
  8
0
 62
7
 10
54.378218380519989
 20
52.18623607886525
 70
0
  0
VERTEX
  5
28E6A
  8
0
 62
7
 10
54.5890582242173
 20
51.8472386831167
 70
0
  0
VERTEX
  5
28E6B
  8
0
 62
7
 10
54.801276106108681
 20
51.5513049809337
 70
0
  0
VERTEX
  5
28E6C
  8
0
 62
7
 10
55.012115949805967
 20
51.213685623379263
 70
0
  0
SEQEND
  5
28E6D
  8
0
  0
POLYLINE
  5
28E6E
  8
0
 62
7
 66
1
 70
0
 10
0
 20
0
 30
0
  0
VERTEX
  5
28E6F
  8
0
 62
7
 10
58.4833941607437
 20
53.837298090171252
 70
0
  0
VERTEX
  5
28E70
  8
0
 62
7
 10
58.738331226652207
 20
53.49830069442266
 70
0
  0
VERTEX
  5
28E71
  8
0
 62
7
 10
58.949171070349479
 20
53.2018502279169
 70
0
  0
VERTEX
  5
28E72
  8
0
 62
7
 10
59.204108136257993
 20
52.948635709751038
 70
0
  0
VERTEX
  5
28E73
  8
0
 62
7
 10
59.45766716397236
 20
52.652357498019569
 70
0
  0
VERTEX
  5
28E74
  8
0
 62
7
 10
59.711226191686762
 20
52.355907031513823
 70
0
  0
VERTEX
  5
28E75
  8
0
 62
7
 10
60.007504403418238
 20
52.10234800379942
 70
0
  0
SEQEND
  5
28E76
  8
0
  0
POLYLINE
  5
28E77
  8
0
 62
7
 66
1
 70
0
 10
0
 20
0
 30
0
  0
VERTEX
  5
28E78
  8
0
 62
7
 10
58.4833941607437
 20
53.794578906154122
 70
0
  0
VERTEX
  5
28E79
  8
0
 62
7
 10
58.695612042635112
 20
53.49830069442266
 70
0
  0
VERTEX
  5
28E7A
  8
0
 62
7
 10
58.907829924526482
 20
53.2018502279169
 70
0
  0
VERTEX
  5
28E7B
  8
0
 62
7
 10
59.161388952240877
 20
52.905572016185431
 70
0
  0
VERTEX
  5
28E7C
  8
0
 62
7
 10
59.414947979955258
 20
52.6096383140025
 70
0
  0
VERTEX
  5
28E7D
  8
0
 62
7
 10
59.669885045863758
 20
52.355907031513823
 70
0
  0
VERTEX
  5
28E7E
  8
0
 62
7
 10
59.966163257595241
 20
52.10234800379942
 70
0
  0
SEQEND
  5
28E7F
  8
0
  0
POLYLINE
  5
28E80
  8
0
 62
7
 66
1
 70
0
 10
0
 20
0
 30
0
  0
VERTEX
  5
28E81
  8
0
 62
7
 10
57.25694016799477
 20
55.742952657837172
 70
0
  0
VERTEX
  5
28E82
  8
0
 62
7
 10
57.467780011692071
 20
55.40395526208863
 70
0
  0
VERTEX
  5
28E83
  8
0
 62
7
 10
57.637278709566353
 20
55.065302375888557
 70
0
  0
VERTEX
  5
28E84
  8
0
 62
7
 10
57.849496591457751
 20
54.72630498013995
 70
0
  0
VERTEX
  5
28E85
  8
0
 62
7
 10
58.018995289332018
 20
54.429854513634211
 70
0
  0
VERTEX
  5
28E86
  8
0
 62
7
 10
58.229835133029333
 20
54.090857117885662
 70
0
  0
VERTEX
  5
28E87
  8
0
 62
7
 10
58.4833941607437
 20
53.794578906154122
 70
0
  0
SEQEND
  5
28E88
  8
0
  0
POLYLINE
  5
28E89
  8
0
 62
7
 66
1
 70
0
 10
0
 20
0
 30
0
  0
VERTEX
  5
28E8A
  8
0
 62
7
 10
58.5688325287779
 20
53.837298090171252
 70
0
  0
VERTEX
  5
28E8B
  8
0
 62
7
 10
58.7810504106693
 20
53.541019878439791
 70
0
  0
VERTEX
  5
28E8C
  8
0
 62
7
 10
58.991890254366581
 20
53.24456941193403
 70
0
  0
VERTEX
  5
28E8D
  8
0
 62
7
 10
59.245449282080983
 20
52.991354893768168
 70
0
  0
VERTEX
  5
28E8E
  8
0
 62
7
 10
59.500386347989462
 20
52.694904427262429
 70
0
  0
VERTEX
  5
28E8F
  8
0
 62
7
 10
59.753945375703857
 20
52.439967361353922
 70
0
  0
VERTEX
  5
28E90
  8
0
 62
7
 10
60.007504403418238
 20
52.18623607886525
 70
0
  0
SEQEND
  5
28E91
  8
0
  0
POLYLINE
  5
28E92
  8
0
 62
7
 66
1
 70
0
 10
0
 20
0
 30
0
  0
VERTEX
  5
28E93
  8
0
 62
7
 10
57.383719681851971
 20
55.742952657837172
 70
0
  0
VERTEX
  5
28E94
  8
0
 62
7
 10
57.594559525549244
 20
55.40395526208863
 70
0
  0
VERTEX
  5
28E95
  8
0
 62
7
 10
57.76405822342354
 20
55.065302375888557
 70
0
  0
VERTEX
  5
28E96
  8
0
 62
7
 10
57.93355692129785
 20
54.768851909382818
 70
0
  0
VERTEX
  5
28E97
  8
0
 62
7
 10
58.145774803189227
 20
54.472573697651342
 70
0
  0
VERTEX
  5
28E98
  8
0
 62
7
 10
58.35661464688652
 20
54.133576301902728
 70
0
  0
VERTEX
  5
28E99
  8
0
 62
7
 10
58.5688325287779
 20
53.837298090171252
 70
0
  0
SEQEND
  5
28E9A
  8
0
  0
POLYLINE
  5
28E9B
  8
0
 62
7
 66
1
 70
0
 10
0
 20
0
 30
0
  0
VERTEX
  5
28E9C
  8
0
 62
7
 10
57.425060827674969
 20
55.742952657837172
 70
0
  0
VERTEX
  5
28E9D
  8
0
 62
7
 10
57.594559525549244
 20
55.40395526208863
 70
0
  0
VERTEX
  5
28E9E
  8
0
 62
7
 10
57.76405822342354
 20
55.108021559905637
 70
0
  0
VERTEX
  5
28E9F
  8
0
 62
7
 10
57.976276105314952
 20
54.768851909382818
 70
0
  0
VERTEX
  5
28EA0
  8
0
 62
7
 10
58.145774803189227
 20
54.472573697651342
 70
0
  0
VERTEX
  5
28EA1
  8
0
 62
7
 10
58.35661464688652
 20
54.176295485919859
 70
0
  0
VERTEX
  5
28EA2
  8
0
 62
7
 10
58.611551712795
 20
53.880017274188333
 70
0
  0
VERTEX
  5
28EA3
  8
0
 62
7
 10
58.7810504106693
 20
53.583566807682587
 70
0
  0
VERTEX
  5
28EA4
  8
0
 62
7
 10
59.034609438383683
 20
53.287288595951111
 70
0
  0
VERTEX
  5
28EA5
  8
0
 62
7
 10
59.288168466098092
 20
52.991354893768168
 70
0
  0
VERTEX
  5
28EA6
  8
0
 62
7
 10
59.541727493812459
 20
52.7362455730854
 70
0
  0
VERTEX
  5
28EA7
  8
0
 62
7
 10
59.796664559720931
 20
52.482686545370989
 70
0
  0
VERTEX
  5
28EA8
  8
0
 62
7
 10
60.05022358743534
 20
52.22895526288238
 70
0
  0
SEQEND
  5
28EA9
  8
0
  0
POLYLINE
  5
28EAA
  8
0
 62
7
 66
1
 70
0
 10
0
 20
0
 30
0
  0
VERTEX
  5
28EAB
  8
0
 62
7
 10
58.7810504106693
 20
54.090857117885662
 70
0
  0
VERTEX
  5
28EAC
  8
0
 62
7
 10
58.991890254366581
 20
53.837298090171252
 70
0
  0
VERTEX
  5
28EAD
  8
0
 62
7
 10
59.161388952240877
 20
53.626285991699717
 70
0
  0
VERTEX
  5
28EAE
  8
0
 62
7
 10
59.373606834132261
 20
53.37152118056548
 70
0
  0
VERTEX
  5
28EAF
  8
0
 62
7
 10
59.584446677829561
 20
53.117962152851078
 70
0
  0
VERTEX
  5
28EB0
  8
0
 62
7
 10
59.796664559720931
 20
52.948635709751038
 70
0
  0
VERTEX
  5
28EB1
  8
0
 62
7
 10
60.007504403418238
 20
52.694904427262429
 70
0
  0
SEQEND
  5
28EB2
  8
0
  0
POLYLINE
  5
28EB3
  8
0
 62
7
 66
1
 70
0
 10
0
 20
0
 30
0
  0
VERTEX
  5
28EB4
  8
0
 62
7
 10
57.849496591457751
 20
55.657686544577238
 70
0
  0
VERTEX
  5
28EB5
  8
0
 62
7
 10
57.976276105314952
 20
55.40395526208863
 70
0
  0
VERTEX
  5
28EB6
  8
0
 62
7
 10
58.145774803189227
 20
55.149190450954393
 70
0
  0
VERTEX
  5
28EB7
  8
0
 62
7
 10
58.272554317046421
 20
54.852912239222917
 70
0
  0
VERTEX
  5
28EB8
  8
0
 62
7
 10
58.4420530149207
 20
54.599353211508507
 70
0
  0
VERTEX
  5
28EB9
  8
0
 62
7
 10
58.611551712795
 20
54.345621929019842
 70
0
  0
VERTEX
  5
28EBA
  8
0
 62
7
 10
58.7810504106693
 20
54.090857117885662
 70
0
  0
SEQEND
  5
28EBB
  8
0
  0
POLYLINE
  5
28EBC
  8
0
 62
7
 66
1
 70
0
 10
0
 20
0
 30
0
  0
VERTEX
  5
28EBD
  8
0
 62
7
 10
57.637278709566353
 20
56.039403124342932
 70
0
  0
VERTEX
  5
28EBE
  8
0
 62
7
 10
57.76405822342354
 20
55.700233473820113
 70
0
  0
VERTEX
  5
28EBF
  8
0
 62
7
 10
57.976276105314952
 20
55.3612360780715
 70
0
  0
VERTEX
  5
28EC0
  8
0
 62
7
 10
58.145774803189227
 20
55.02223868232295
 70
0
  0
VERTEX
  5
28EC1
  8
0
 62
7
 10
58.35661464688652
 20
54.72630498013995
 70
0
  0
VERTEX
  5
28EC2
  8
0
 62
7
 10
58.5261133447608
 20
54.388685622585513
 70
0
  0
VERTEX
  5
28EC3
  8
0
 62
7
 10
58.7810504106693
 20
54.090857117885662
 70
0
  0
VERTEX
  5
28EC4
  8
0
 62
7
 10
59.034609438383683
 20
53.7106908310883
 70
0
  0
VERTEX
  5
28EC5
  8
0
 62
7
 10
59.33088765011518
 20
53.37152118056548
 70
0
  0
VERTEX
  5
28EC6
  8
0
 62
7
 10
59.627165861846663
 20
53.075242968834
 70
0
  0
VERTEX
  5
28EC7
  8
0
 62
7
 10
59.923444073578139
 20
52.7362455730854
 70
0
  0
VERTEX
  5
28EC8
  8
0
 62
7
 10
60.262441469326717
 20
52.439967361353922
 70
0
  0
VERTEX
  5
28EC9
  8
0
 62
7
 10
60.642780010898321
 20
52.143516894848183
 70
0
  0
SEQEND
  5
28ECA
  8
0
  0
POLYLINE
  5
28ECB
  8
0
 62
7
 66
1
 70
0
 10
0
 20
0
 30
0
  0
VERTEX
  5
28ECC
  8
0
 62
7
 10
58.991890254366581
 20
54.2601835609857
 70
0
  0
VERTEX
  5
28ECD
  8
0
 62
7
 10
59.161388952240877
 20
54.049688226836913
 70
0
  0
VERTEX
  5
28ECE
  8
0
 62
7
 10
59.33088765011518
 20
53.837298090171252
 70
0
  0
VERTEX
  5
28ECF
  8
0
 62
7
 10
59.500386347989462
 20
53.626285991699717
 70
0
  0
VERTEX
  5
28ED0
  8
0
 62
7
 10
59.669885045863758
 20
53.456959548599677
 70
0
  0
VERTEX
  5
28ED1
  8
0
 62
7
 10
59.88072488956103
 20
53.24456941193403
 70
0
  0
VERTEX
  5
28ED2
  8
0
 62
7
 10
60.092942771452442
 20
53.032523784816867
 70
0
  0
SEQEND
  5
28ED3
  8
0
  0
POLYLINE
  5
28ED4
  8
0
 62
7
 66
1
 70
0
 10
0
 20
0
 30
0
  0
VERTEX
  5
28ED5
  8
0
 62
7
 10
58.145774803189227
 20
55.657686544577238
 70
0
  0
VERTEX
  5
28ED6
  8
0
 62
7
 10
58.272209807497887
 20
55.40395526208863
 70
0
  0
VERTEX
  5
28ED7
  8
0
 62
7
 10
58.399333830903629
 20
55.191909634971459
 70
0
  0
VERTEX
  5
28ED8
  8
0
 62
7
 10
58.5261133447608
 20
54.980897536499917
 70
0
  0
VERTEX
  5
28ED9
  8
0
 62
7
 10
58.695612042635112
 20
54.72630498013995
 70
0
  0
VERTEX
  5
28EDA
  8
0
 62
7
 10
58.8651107405094
 20
54.515292881668422
 70
0
  0
VERTEX
  5
28EDB
  8
0
 62
7
 10
58.991890254366581
 20
54.2601835609857
 70
0
  0
SEQEND
  5
28EDC
  8
0
  0
POLYLINE
  5
28EDD
  8
0
 62
7
 66
1
 70
0
 10
0
 20
0
 30
0
  0
VERTEX
  5
28EDE
  8
0
 62
7
 10
56.621664560514688
 20
57.563685621791763
 70
0
  0
VERTEX
  5
28EDF
  8
0
 62
7
 10
56.70572489035478
 20
57.265857117091912
 70
0
  0
VERTEX
  5
28EE0
  8
0
 62
7
 10
56.832504404211988
 20
56.92823775953741
 70
0
  0
VERTEX
  5
28EE1
  8
0
 62
7
 10
56.917942772246192
 20
56.631959547805941
 70
0
  0
VERTEX
  5
28EE2
  8
0
 62
7
 10
57.044722286103386
 20
56.335681336074458
 70
0
  0
VERTEX
  5
28EE3
  8
0
 62
7
 10
57.171501799960573
 20
56.039230869568712
 70
0
  0
VERTEX
  5
28EE4
  8
0
 62
7
 10
57.29828131381776
 20
55.742952657837172
 70
0
  0
SEQEND
  5
28EE5
  8
0
  0
POLYLINE
  5
28EE6
  8
0
 62
7
 66
1
 70
0
 10
0
 20
0
 30
0
  0
VERTEX
  5
28EE7
  8
0
 62
7
 10
56.621664560514688
 20
57.563685621791763
 70
0
  0
VERTEX
  5
28EE8
  8
0
 62
7
 10
56.70572489035478
 20
57.224688226043163
 70
0
  0
VERTEX
  5
28EE9
  8
0
 62
7
 10
56.791163258388991
 20
56.92823775953741
 70
0
  0
VERTEX
  5
28EEA
  8
0
 62
7
 10
56.87522358822909
 20
56.631959547805941
 70
0
  0
VERTEX
  5
28EEB
  8
0
 62
7
 10
57.002003102086292
 20
56.335681336074458
 70
0
  0
VERTEX
  5
28EEC
  8
0
 62
7
 10
57.128782615943457
 20
56.039230869568712
 70
0
  0
VERTEX
  5
28EED
  8
0
 62
7
 10
57.25694016799477
 20
55.742952657837172
 70
0
  0
SEQEND
  5
28EEE
  8
0
  0
POLYLINE
  5
28EEF
  8
0
 62
7
 66
1
 70
0
 10
0
 20
0
 30
0
  0
VERTEX
  5
28EF0
  8
0
 62
7
 10
56.791163258388991
 20
57.520621928226092
 70
0
  0
VERTEX
  5
28EF1
  8
0
 62
7
 10
56.87522358822909
 20
57.181969042026083
 70
0
  0
VERTEX
  5
28EF2
  8
0
 62
7
 10
56.960661956263287
 20
56.885518575520337
 70
0
  0
VERTEX
  5
28EF3
  8
0
 62
7
 10
57.087441470120467
 20
56.631959547805941
 70
0
  0
VERTEX
  5
28EF4
  8
0
 62
7
 10
57.171501799960573
 20
56.292962152057328
 70
0
  0
VERTEX
  5
28EF5
  8
0
 62
7
 10
57.29828131381776
 20
56.039230869568712
 70
0
  0
VERTEX
  5
28EF6
  8
0
 62
7
 10
57.425060827674969
 20
55.742952657837172
 70
0
  0
SEQEND
  5
28EF7
  8
0
  0
POLYLINE
  5
28EF8
  8
0
 62
7
 66
1
 70
0
 10
0
 20
0
 30
0
  0
VERTEX
  5
28EF9
  8
0
 62
7
 10
56.748444074371889
 20
57.477902744209018
 70
0
  0
VERTEX
  5
28EFA
  8
0
 62
7
 10
56.832504404211988
 20
57.181969042026083
 70
0
  0
VERTEX
  5
28EFB
  8
0
 62
7
 10
56.960661956263287
 20
56.88569083029455
 70
0
  0
VERTEX
  5
28EFC
  8
0
 62
7
 10
57.044722286103386
 20
56.589240363788811
 70
0
  0
VERTEX
  5
28EFD
  8
0
 62
7
 10
57.128782615943457
 20
56.292962152057328
 70
0
  0
VERTEX
  5
28EFE
  8
0
 62
7
 10
57.25694016799477
 20
55.996683940325852
 70
0
  0
VERTEX
  5
28EFF
  8
0
 62
7
 10
57.383719681851971
 20
55.742952657837172
 70
0
  0
SEQEND
  5
28F00
  8
0
  0
POLYLINE
  5
28F01
  8
0
 62
7
 66
1
 70
0
 10
0
 20
0
 30
0
  0
VERTEX
  5
28F02
  8
0
 62
7
 10
57.29828131381776
 20
57.138905348460412
 70
0
  0
VERTEX
  5
28F03
  8
0
 62
7
 10
57.383719681851971
 20
56.88569083029455
 70
0
  0
VERTEX
  5
28F04
  8
0
 62
7
 10
57.467780011692071
 20
56.631959547805941
 70
0
  0
VERTEX
  5
28F05
  8
0
 62
7
 10
57.510499195709173
 20
56.37685022712315
 70
0
  0
VERTEX
  5
28F06
  8
0
 62
7
 10
57.637278709566353
 20
56.166354892974432
 70
0
  0
VERTEX
  5
28F07
  8
0
 62
7
 10
57.722717077600542
 20
55.911245572291641
 70
0
  0
VERTEX
  5
28F08
  8
0
 62
7
 10
57.849496591457751
 20
55.657686544577238
 70
0
  0
SEQEND
  5
28F09
  8
0
  0
POLYLINE
  5
28F0A
  8
0
 62
7
 66
1
 70
0
 10
0
 20
0
 30
0
  0
VERTEX
  5
28F0B
  8
0
 62
7
 10
50.610661957850787
 20
44.142971649452477
 70
0
  0
VERTEX
  5
28F0C
  8
0
 62
7
 10
50.821501801548067
 20
47.3606908326758
 70
0
  0
SEQEND
  5
28F0D
  8
0
  0
POLYLINE
  5
28F0E
  8
0
 62
7
 66
1
 70
0
 10
0
 20
0
 30
0
  0
VERTEX
  5
28F0F
  8
0
 62
7
 10
49.93266716635361
 20
39.147238686291672
 70
0
  0
VERTEX
  5
28F10
  8
0
 62
7
 10
49.975386350370712
 20
31.865857123441881
 70
0
  0
SEQEND
  5
28F11
  8
0
  0
POLYLINE
  5
28F12
  8
0
 62
7
 66
1
 70
0
 10
0
 20
0
 30
0
  0
VERTEX
  5
28F13
  8
0
 62
7
 10
50.186226194068013
 20
22.087298098108761
 70
0
  0
VERTEX
  5
28F14
  8
0
 62
7
 10
50.652003103673792
 20
16.669024173682061
 70
0
  0
SEQEND
  5
28F15
  8
0
  0
POLYLINE
  5
28F16
  8
0
 62
7
 66
1
 70
0
 10
0
 20
0
 30
0
  0
VERTEX
  5
28F17
  8
0
 62
7
 10
38.037441474882968
 20
41.222736461380457
 70
0
  0
VERTEX
  5
28F18
  8
0
 62
7
 10
36.979108141814237
 20
42.32223868549795
 70
0
  0
SEQEND
  5
28F19
  8
0
  0
POLYLINE
  5
28F1A
  8
0
 62
7
 66
1
 70
0
 10
0
 20
0
 30
0
  0
VERTEX
  5
28F1B
  8
0
 62
7
 10
49.636388954622142
 20
28.394578912504159
 70
0
  0
VERTEX
  5
28F1C
  8
0
 62
7
 10
50.186226194068013
 20
22.087298098108761
 70
0
  0
SEQEND
  5
28F1D
  8
0
  0
POLYLINE
  5
28F1E
  8
0
 62
7
 66
1
 70
0
 10
0
 20
0
 30
0
  0
VERTEX
  5
28F1F
  8
0
 62
7
 10
49.466890256747831
 20
30.469904432818652
 70
0
  0
VERTEX
  5
28F20
  8
0
 62
7
 10
49.424171072730722
 20
30.976850233473161
 70
0
  0
SEQEND
  5
28F21
  8
0
  0
INSERT
  5
28F2F
  8
0
  2
SPECEL-SE2603CS
 10
115.852822283497
 20
-1.3750000000000124
 30
0
 41
1
 42
1
 43
1
 50
0
  0
ENDSEC
999
Created By CadLib version 4.0.36.7
999
CadLib website: www.woutware.com
  0
EOF
