  0
SECTION
  2
HEADER
  9
$ACADVER
  1
AC1009
  9
$INSBASE
 10
0
 20
0
 30
0
  9
$EXTMIN
 10
0
 20
0
  9
$EXTMAX
 10
105.125
 20
74.25
  9
$LIMMIN
 10
0
 20
0
  9
$LIMMAX
 10
105.125
 20
74.25
  9
$LTSCALE
 40
0.125
  0
ENDSEC
  0
SECTION
  2
TABLES
  0
TABLE
  2
LTYPE
 70
     9
  0
LTYPE
  2
CONTINUOUS
 70
    64
  3
実線
 72
    65
 73
     0
 40
0.0
  0
LTYPE
  2
DASHED1
 70
    64
  3
--  --  --  --  --  --  --  --  
 72
    65
 73
     2
 40
2.5
 49
1.25
 49
-1.25
  0
LTYPE
  2
DASHED2
 70
    64
  3
----    ----    ----    ----    
 72
    65
 73
     2
 40
5.0
 49
2.5
 49
-2.5
  0
LTYPE
  2
DASHED3
 70
    64
  3
------  ------  ------  ------  
 72
    65
 73
     2
 40
5.0
 49
3.75
 49
-1.25
  0
LTYPE
  2
CENTER1
 70
    64
  3
----- - ----- - ----- - ----- - 
 72
    65
 73
     4
 40
10.0
 49
6.25
 49
-1.25
 49
1.25
 49
-1.25
  0
LTYPE
  2
CENTER2
 70
    64
  3
----------  --  ----------  --  
 72
    65
 73
     4
 40
20.0
 49
12.5
 49
-2.5
 49
2.5
 49
-2.5
  0
LTYPE
  2
PHANTOM1
 70
    64
  3
--- - - --- - - --- - - --- - - 
 72
    65
 73
     6
 40
10.0
 49
3.25
 49
-1.25
 49
1.25
 49
-1.25
 49
1.25
 49
-1.25
  0
LTYPE
  2
PHANTOM2
 70
    64
  3
--------  -  -  --------  -  -  
 72
    65
 73
     6
 40
20.0
 49
10.0
 49
-2.5
 49
1.25
 49
-2.5
 49
1.25
 49
-2.5
  0
LTYPE
  2
DOT
 70
    64
  3
-   -   -   -   -   -   -   -   
 72
    65
 73
     2
 40
2.5
 49
0.625
 49
-1.875
  0
LTYPE
  2
DUMMY
 70
    64
  3
ダミー
 72
    65
 73
     0
 40
0.0
  0
LTYPE
  2
RAND1
 70
    64
  3
ランダム線1
 72
    65
 73
     4
 40
10.0
 49
1.0
 49
-2.0
 49
3.0
 49
-4.0
  0
LTYPE
  2
RAND2
 70
    64
  3
ランダム線2
 72
    65
 73
     4
 40
14.0
 49
2.0
 49
-3.0
 49
4.0
 49
-5.0
  0
LTYPE
  2
RAND3
 70
    64
  3
ランダム線3
 72
    65
 73
     4
 40
18.0
 49
3.0
 49
-4.0
 49
5.0
 49
-6.0
  0
LTYPE
  2
RAND4
 70
    64
  3
ランダム線4
 72
    65
 73
     4
 40
22.0
 49
4.0
 49
-5.0
 49
6.0
 49
-7.0
  0
LTYPE
  2
RAND5
 70
    64
  3
ランダム線5
 72
    65
 73
     4
 40
26.0
 49
5.0
 49
-6.0
 49
7.0
 49
-8.0
  0
LTYPE
  2
LONG1
 70
    64
  3
----------  --  ----------  --  
 72
    65
 73
     4
 40
40.0
 49
32.5
 49
-2.5
 49
2.5
 49
-2.5
  0
LTYPE
  2
LONG2
 70
    64
  3
--------  -  -  --------  -  -  
 72
    65
 73
     6
 40
40.0
 49
30.0
 49
-2.5
 49
1.25
 49
-2.5
 49
1.25
 49
-2.5
  0
LTYPE
  2
LONG3
 70
    64
  3
+++++++++++++++..+++++++++++++++
 72
    65
 73
     2
 40
40.0
 49
37.5
 49
-2.5
  0
LTYPE
  2
LONG4
 70
    64
  3
+++++++++++++++..+++++++++++++++
 72
    65
 73
     2
 40
80.0
 49
75.0
 49
-5.0
  0
LTYPE
  2
LONG5
 70
    64
  3
----------  --  ----------  --  
 72
    65
 73
     4
 40
60.0
 49
37.5
 49
-7.5
 49
7.5
 49
-7.5
  0
LTYPE
  2
dashed
 70
   64
  3
-------   -------------   ------
 72
   65
 73
    2
 40
7.5
 49
6
 49
-1.5
  0
LTYPE
  2
dashed_spaced
 70
   64
  3
----        --------        ----
 72
   65
 73
    2
 40
12
 49
6
 49
-6
  0
LTYPE
  2
long_dashed_dotted
 70
   64
  3
------------- --- --------------
 72
   65
 73
    4
 40
15.25
 49
12
 49
-1.5
 49
0.25
 49
-1.5
  0
LTYPE
  2
long_dashed_double-dotted
 70
   64
  3
----------- --- --- ------------
 72
   65
 73
    6
 40
17
 49
12
 49
-1.5
 49
0.25
 49
-1.5
 49
0.25
 49
-1.5
  0
LTYPE
  2
long_dashed_triplicate-dotted
 70
   64
  3
--------- --- --- --- ----------
 72
   65
 73
    8
 40
18.75
 49
12
 49
-1.5
 49
0.25
 49
-1.5
 49
0.25
 49
-1.5
 49
0.25
 49
-1.5
  0
LTYPE
  2
dotted
 70
   64
  3
   -       -       -       -    
 72
   65
 73
    2
 40
1.75
 49
0.25
 49
-1.5
  0
LTYPE
  2
chain
 70
   64
  3
-------------- -- --------------
 72
   65
 73
    4
 40
18.5
 49
12
 49
-1.5
 49
3.5
 49
-1.5
  0
LTYPE
  2
chain_double_dash
 70
   64
  3
------------ -- -- -------------
 72
   65
 73
    6
 40
23.5
 49
12
 49
-1.5
 49
3.5
 49
-1.5
 49
3.5
 49
-1.5
  0
LTYPE
  2
dashed_dotted
 70
   64
  3
-----------     -     ----------
 72
   65
 73
    4
 40
9.25
 49
6
 49
-1.5
 49
0.25
 49
-1.5
  0
LTYPE
  2
double-dashed_dotted
 70
   64
  3
------   -----------   -   -----
 72
   65
 73
    6
 40
16.75
 49
6
 49
-1.5
 49
6
 49
-1.5
 49
0.25
 49
-1.5
  0
LTYPE
  2
dashed_double-dotted
 70
   64
  3
---------    -    -    ---------
 72
   65
 73
    6
 40
11
 49
6
 49
-1.5
 49
0.25
 49
-1.5
 49
0.25
 49
-1.5
  0
LTYPE
  2
double-dashed_double-dotted
 70
   64
  3
-----   ---------   -   -   ----
 72
   65
 73
    8
 40
18.5
 49
6
 49
-1.5
 49
6
 49
-1.5
 49
0.25
 49
-1.5
 49
0.25
 49
-1.5
  0
LTYPE
  2
dashed_triplicate-dotted
 70
   64
  3
-------    -    -    -    ------
 72
   65
 73
    8
 40
12.75
 49
6
 49
-1.5
 49
0.25
 49
-1.5
 49
0.25
 49
-1.5
 49
0.25
 49
-1.5
  0
LTYPE
  2
double-dashed_triplicate-dotted
 70
   64
  3
-----  ---------  -  -  -  -----
 72
   65
 73
   10
 40
20.25
 49
6
 49
-1.5
 49
6
 49
-1.5
 49
0.25
 49
-1.5
 49
0.25
 49
-1.5
 49
0.25
 49
-1.5
  0
LTYPE
  2
undefined
 70
   64
  3
--------------------------------
 72
   65
 73
    0
 40
0
  0
LTYPE
  2
_
 70
   64
  3
                                
 72
   65
 73
    0
 40
0
  0
LTYPE
  2
__18
 70
   64
  3
                                
 72
   65
 73
    0
 40
0
  0
LTYPE
  2
__19
 70
   64
  3
                                
 72
   65
 73
    0
 40
0
  0
LTYPE
  2
__20
 70
   64
  3
                                
 72
   65
 73
    0
 40
0
  0
LTYPE
  2
__21
 70
   64
  3
                                
 72
   65
 73
    0
 40
0
  0
LTYPE
  2
__22
 70
   64
  3
                                
 72
   65
 73
    0
 40
0
  0
LTYPE
  2
__23
 70
   64
  3
                                
 72
   65
 73
    0
 40
0
  0
LTYPE
  2
__24
 70
   64
  3
                                
 72
   65
 73
    0
 40
0
  0
LTYPE
  2
__25
 70
   64
  3
                                
 72
   65
 73
    0
 40
0
  0
LTYPE
  2
__26
 70
   64
  3
                                
 72
   65
 73
    0
 40
0
  0
LTYPE
  2
__27
 70
   64
  3
                                
 72
   65
 73
    0
 40
0
  0
LTYPE
  2
__28
 70
   64
  3
                                
 72
   65
 73
    0
 40
0
  0
LTYPE
  2
__29
 70
   64
  3
                                
 72
   65
 73
    0
 40
0
  0
LTYPE
  2
__30
 70
   64
  3
                                
 72
   65
 73
    0
 40
0
  0
LTYPE
  2
__31
 70
   64
  3
                                
 72
   65
 73
    0
 40
0
  0
LTYPE
  2
__32
 70
   64
  3
                                
 72
   65
 73
    0
 40
0
  0
ENDTAB
  0
TABLE
  2
STYLE
  5
3
100
AcDbSymbolTable
 70
     1
  0
STYLE
  5
10
100
AcDbSymbolTableRecord
100
AcDbTextStyleTableRecord
  2
STANDARD
 70
     0
 40
0.0
 41
1.0
 50
0.0
 71
     0
 42
0.2
  3
txt
  4
bigfont.shx
  0
STYLE
  5
26
100
AcDbSymbolTableRecord
100
AcDbTextStyleTableRecord
  2
TATEGAKI
 70
    68
 40
0.0
 41
1.0
 50
0.0
 71
     0
 42
1.0
  3
txt
  4
bigfont.shx
  0
ENDTAB
  0
TABLE
  2
LAYER
 70
    3
  0
LAYER
  2
_0-0_0
 70
   64
 62
    7
  6
CONTINUOUS
  0
LAYER
  2
_0-1_EL-SL200SAIMEI
 70
   64
 62
    7
  6
CONTINUOUS
  0
LAYER
  2
ADD_LINE
 70
   64
 62
    7
  6
CONTINUOUS
  0
ENDTAB
  0
ENDSEC
  0
SECTION
  2
BLOCKS
  0
BLOCK
  2
-002-SPECEL-SL20023WK
 70
   64
 10
0
 20
0
 30
0
  0
TEXT
  8
_0-2_SPEC
 62
    7
 10
0
 20
0
 40
1.5
 41
1
 50
0
  1
ｽﾎﾟｯﾄﾗｲﾄ 白色(4000K) Ra95
  0
TEXT
  8
_0-2_SPEC
 62
    7
 10
0
 20
-3
 40
1.5
 41
1
 50
0
  1
本体:ｱﾙﾐﾀﾞｲｶｽﾄ 黒色塗装仕上
  0
TEXT
  8
_0-2_SPEC
 62
    7
 10
0
 20
-6
 40
1.5
 41
1
 50
0
  1
光源寿命:40,000時間
  0
TEXT
  8
_0-2_SPEC
 62
    7
 10
0
 20
-9
 40
1.5
 41
1
 50
0
  1
光束:2140lm 消費電力:21.2W 消費効率:100.9lm/W
  0
ENDBLK
  0
ENDSEC
  0
SECTION
  2
ENTITIES
  0
LINE
  8
_0-1_EL-SL200SAIMEI
  6
CONTINUOUS
 62
    7
 10
37.454625739993993
 20
56.438251032644068
 11
37.538686069834093
 21
56.438251032644068
  0
LINE
  8
_0-1_EL-SL200SAIMEI
  6
CONTINUOUS
 62
    7
 10
37.454625739993993
 20
57.030979710881283
 11
37.834964281565604
 21
57.241475045030079
  0
LINE
  8
_0-1_EL-SL200SAIMEI
  6
CONTINUOUS
 62
    7
 10
40.417407857308895
 20
47.293589576596894
 11
40.840465582897494
 21
47.632586972345493
  0
LINE
  8
_0-1_EL-SL200SAIMEI
  6
CONTINUOUS
 62
    7
 10
48.164738584538675
 20
25.154027950187405
 11
48.461016796270179
 21
26.592527570053385
  0
LINE
  8
_0-1_EL-SL200SAIMEI
  6
CONTINUOUS
 62
    7
 10
47.7844000429671
 20
24.095694617118586
 11
48.164738584538675
 21
25.154027950187405
  0
LINE
  8
_0-1_EL-SL200SAIMEI
  6
CONTINUOUS
 62
    7
 10
47.149124435486989
 20
22.867862586175587
 11
47.7844000429671
 21
24.095694617118586
  0
LINE
  8
_0-1_EL-SL200SAIMEI
  6
CONTINUOUS
 62
    7
 10
46.344350130132689
 20
21.766982323864006
 11
47.149124435486989
 21
22.867862586175587
  0
LINE
  8
_0-1_EL-SL200SAIMEI
  6
CONTINUOUS
 62
    7
 10
45.371455165098084
 20
20.877975433895337
 11
46.344350130132689
 21
21.766982323864006
  0
LINE
  8
_0-1_EL-SL200SAIMEI
  6
CONTINUOUS
 62
    7
 10
44.100903950138004
 20
20.115920312557986
 11
45.371455165098084
 21
20.877975433895337
  0
LINE
  8
_0-1_EL-SL200SAIMEI
  6
CONTINUOUS
 62
    7
 10
43.169350130926382
 20
19.776922916809404
 11
44.100903950138004
 21
20.115920312557986
  0
LINE
  8
_0-1_EL-SL200SAIMEI
  6
CONTINUOUS
 62
    7
 10
42.450014193606279
 20
19.607596473709396
 11
43.169350130926382
 21
19.776922916809404
  0
LINE
  8
_0-1_EL-SL200SAIMEI
  6
CONTINUOUS
 62
    7
 10
42.02695646801758
 20
19.607596473709396
 11
42.450014193606279
 21
19.607596473709396
  0
LINE
  8
_0-1_EL-SL200SAIMEI
  6
CONTINUOUS
 62
    7
 10
26.659074527415083
 20
18.549263140640587
 11
42.02695646801758
 21
19.607596473709396
  0
LINE
  8
_0-1_EL-SL200SAIMEI
  6
CONTINUOUS
 62
    7
 10
27.251630950878091
 20
19.184194238572186
 11
27.633347530643793
 21
19.184194238572186
  0
LINE
  8
_0-1_EL-SL200SAIMEI
  6
CONTINUOUS
 62
    7
 10
26.151956471986271
 20
20.242527571640895
 11
26.23601680182637
 21
20.242527571640895
  0
LINE
  8
_0-1_EL-SL200SAIMEI
  6
CONTINUOUS
 62
    7
 10
26.362796315683571
 20
28.751913420208005
 11
26.362796315683571
 21
28.709194236190907
  0
LINE
  8
_0-1_EL-SL200SAIMEI
  6
CONTINUOUS
 62
    7
 10
35.211179559999273
 20
54.914313044743778
 11
35.168460375982207
 21
54.617862578238082
  0
LINE
  8
_0-1_EL-SL200SAIMEI
  6
CONTINUOUS
 62
    7
 10
27.676066714660902
 20
37.768589578978087
 11
27.717407860483892
 21
37.725870394961099
  0
LINE
  8
_0-1_EL-SL200SAIMEI
  6
CONTINUOUS
 62
    7
 10
27.8441873743411
 20
37.684529249138109
 11
27.802846228518103
 21
37.725870394961099
  0
LINE
  8
_0-1_EL-SL200SAIMEI
  6
CONTINUOUS
 62
    7
 10
34.872182164250688
 20
49.326195912894285
 11
35.803735983462282
 21
56.141972820912592
  0
LINE
  8
_0-1_EL-SL200SAIMEI
  6
CONTINUOUS
 62
    7
 10
34.956242494090787
 20
48.817527564497183
 11
34.914901348267804
 21
48.437361277699885
  0
LINE
  8
_0-1_EL-SL200SAIMEI
  6
CONTINUOUS
 62
    7
 10
36.226793709050867
 20
56.013815268861315
 11
35.464738587713668
 21
50.468589575803087
  0
LINE
  8
_0-1_EL-SL200SAIMEI
  6
CONTINUOUS
 62
    7
 10
36.439011590942286
 20
56.564858291726978
 11
36.269512893067969
 21
55.379917699575273
  0
LINE
  8
_0-1_EL-SL200SAIMEI
  6
CONTINUOUS
 62
    7
 10
36.607132250622485
 20
56.564858291726978
 11
36.692570618656681
 21
56.988260526864217
  0
LINE
  8
_0-1_EL-SL200SAIMEI
  6
CONTINUOUS
 62
    7
 10
37.242407858102595
 20
57.537925511535768
 11
37.242407858102595
 21
57.623191624795815
  0
LINE
  8
_0-1_EL-SL200SAIMEI
  6
CONTINUOUS
 62
    7
 10
36.184074525033878
 20
48.521593862314198
 11
36.100014195193779
 21
48.098191627177009
  0
LINE
  8
_0-1_EL-SL200SAIMEI
  6
CONTINUOUS
 62
    7
 10
36.226793709050867
 20
48.478530168748584
 11
36.184074525033878
 21
48.098191627177009
  0
LINE
  8
_0-1_EL-SL200SAIMEI
  6
CONTINUOUS
 62
    7
 10
36.353573222908068
 20
48.478530168748584
 11
36.310854038890973
 21
48.098191627177009
  0
LINE
  8
_0-1_EL-SL200SAIMEI
  6
CONTINUOUS
 62
    7
 10
37.834964281565604
 20
57.241475045030079
 11
37.877683465582706
 21
57.623191624795815
  0
LINE
  8
_0-1_EL-SL200SAIMEI
  6
CONTINUOUS
 62
    7
 10
38.259400045348379
 20
57.114867785947112
 11
38.300741191171369
 21
57.496584365712792
  0
LINE
  8
_0-1_EL-SL200SAIMEI
  6
CONTINUOUS
 62
    7
 10
38.470239889045679
 20
57.537925511535768
 11
38.470239889045679
 21
57.623191624795815
  0
LINE
  8
_0-1_EL-SL200SAIMEI
  6
CONTINUOUS
 62
    7
 10
38.343460375188485
 20
56.225860895978428
 11
38.173961677314175
 21
55.040920303826674
  0
LINE
  8
_0-1_EL-SL200SAIMEI
  6
CONTINUOUS
 62
    7
 10
38.512959073062689
 20
55.590929798046872
 11
37.750903951725505
 21
50.045531850214495
  0
LINE
  8
_0-1_EL-SL200SAIMEI
  6
CONTINUOUS
 62
    7
 10
39.021455166685584
 20
56.225860895978428
 11
38.936016798651373
 21
55.590929798046872
  0
LINE
  8
_0-1_EL-SL200SAIMEI
  6
CONTINUOUS
 62
    7
 10
39.614011590148579
 20
57.284194229047209
 11
39.528573222114382
 21
56.904027942249904
  0
LINE
  8
_0-1_EL-SL200SAIMEI
  6
CONTINUOUS
 62
    7
 10
39.48585403809728
 20
56.013815268861315
 11
39.401793708257181
 21
55.549244142675363
  0
LINE
  8
_0-1_EL-SL200SAIMEI
  6
CONTINUOUS
 62
    7
 10
39.994350131720189
 20
57.030979710881283
 11
39.994350131720189
 21
57.284194229047209
  0
LINE
  8
_0-1_EL-SL200SAIMEI
  6
CONTINUOUS
 62
    7
 10
40.290628343451694
 20
56.861308758232774
 11
40.290628343451694
 21
56.988260526864217
  0
LINE
  8
_0-1_EL-SL200SAIMEI
  6
CONTINUOUS
 62
    7
 10
40.163848829594492
 20
55.506524958658183
 11
40.206568013611594
 21
55.845694609181116
  0
LINE
  8
_0-1_EL-SL200SAIMEI
  6
CONTINUOUS
 62
    7
 10
40.376066711485905
 20
56.352812664609928
 11
40.333347527468788
 21
55.845522354406903
  0
LINE
  8
_0-1_EL-SL200SAIMEI
  6
CONTINUOUS
 62
    7
 10
40.544187371166089
 20
57.241475045030079
 11
40.544187371166089
 21
57.114867785947112
  0
LINE
  8
_0-1_EL-SL200SAIMEI
  6
CONTINUOUS
 62
    7
 10
40.586906555183198
 20
57.284194229047209
 11
40.544187371166089
 21
57.114867785947112
  0
LINE
  8
_0-1_EL-SL200SAIMEI
  6
CONTINUOUS
 62
    7
 10
40.544187371166089
 20
56.945196833298603
 11
40.544187371166089
 21
56.861308758232774
  0
LINE
  8
_0-1_EL-SL200SAIMEI
  6
CONTINUOUS
 62
    7
 10
40.460127041326004
 20
55.845694609181116
 11
40.417407857308895
 21
55.549244142675363
  0
LINE
  8
_0-1_EL-SL200SAIMEI
  6
CONTINUOUS
 62
    7
 10
40.6296257392003
 20
56.904027942249904
 11
40.6296257392003
 21
57.030979710881283
  0
LINE
  8
_0-1_EL-SL200SAIMEI
  6
CONTINUOUS
 62
    7
 10
40.376066711485905
 20
54.914313044743778
 11
40.417407857308895
 21
55.379917699575273
  0
LINE
  8
_0-1_EL-SL200SAIMEI
  6
CONTINUOUS
 62
    7
 10
40.968623134948793
 20
56.904027942249904
 11
40.968623134948793
 21
57.030979710881283
  0
LINE
  8
_0-1_EL-SL200SAIMEI
  6
CONTINUOUS
 62
    7
 10
41.052683464788892
 20
56.904027942249904
 11
41.052683464788892
 21
57.030979710881283
  0
LINE
  8
_0-1_EL-SL200SAIMEI
  6
CONTINUOUS
 62
    7
 10
40.799124437074489
 20
54.828530167161084
 11
40.6296257392003
 21
53.643589575009393
  0
LINE
  8
_0-1_EL-SL200SAIMEI
  6
CONTINUOUS
 62
    7
 10
41.052683464788892
 20
55.802975425163986
 11
41.138121832823089
 21
56.268580079995495
  0
LINE
  8
_0-1_EL-SL200SAIMEI
  6
CONTINUOUS
 62
    7
 10
41.264901346680304
 20
54.828530167161084
 11
41.306242492503294
 21
55.337198515558207
  0
LINE
  8
_0-1_EL-SL200SAIMEI
  6
CONTINUOUS
 62
    7
 10
41.179462978646093
 20
53.855979711674983
 11
41.179462978646093
 21
53.559529245169294
  0
LINE
  8
_0-1_EL-SL200SAIMEI
  6
CONTINUOUS
 62
    7
 10
41.561179558411801
 20
56.311643773561222
 11
41.518460374394699
 21
55.845522354406903
  0
LINE
  8
_0-1_EL-SL200SAIMEI
  6
CONTINUOUS
 62
    7
 10
40.713686069040399
 20
48.394642093682783
 11
41.391680860537498
 21
53.516810061152228
  0
LINE
  8
_0-1_EL-SL200SAIMEI
  6
CONTINUOUS
 62
    7
 10
41.772019402109073
 20
54.871593860726698
 11
41.814738586126168
 21
55.337198515558207
  0
LINE
  8
_0-1_EL-SL200SAIMEI
  6
CONTINUOUS
 62
    7
 10
40.883184766914589
 20
48.055644697934206
 11
40.840465582897494
 21
47.632586972345493
  0
LINE
  8
_0-1_EL-SL200SAIMEI
  6
CONTINUOUS
 62
    7
 10
41.898798915966275
 20
53.516982315926498
 11
41.941518099983384
 21
53.813260527658024
  0
LINE
  8
_0-1_EL-SL200SAIMEI
  6
CONTINUOUS
 62
    7
 10
41.264901346680304
 20
48.437361277699885
 11
41.941518099983384
 21
53.516982315926498
  0
LINE
  8
_0-1_EL-SL200SAIMEI
  6
CONTINUOUS
 62
    7
 10
42.068297613840585
 20
54.321584366506606
 11
42.153735981874782
 21
54.828530167161084
  0
LINE
  8
_0-1_EL-SL200SAIMEI
  6
CONTINUOUS
 62
    7
 10
42.450014193606279
 20
53.813260527658024
 11
42.407295009589184
 21
53.516982315926498
  0
LINE
  8
_0-1_EL-SL200SAIMEI
  6
CONTINUOUS
 62
    7
 10
28.564901349855301
 20
37.472311367246697
 11
28.734400047729601
 21
37.472311367246697
  0
LINE
  8
_0-1_EL-SL200SAIMEI
  6
CONTINUOUS
 62
    7
 10
28.056405256232392
 20
37.557577480506609
 11
28.438121835998093
 21
37.557577480506609
  0
LINE
  8
_0-1_EL-SL200SAIMEI
  6
CONTINUOUS
 62
    7
 10
27.717407860483892
 20
37.725870394961099
 11
27.8441873743411
 21
37.684529249138109
  0
LINE
  8
_0-1_EL-SL200SAIMEI
  6
CONTINUOUS
 62
    7
 10
34.406405254644895
 20
37.175860900740894
 11
29.453735985049782
 21
37.938260531626689
  0
LINE
  8
_0-1_EL-SL200SAIMEI
  6
CONTINUOUS
 62
    7
 10
34.2796257407878
 20
37.175860900740894
 11
27.547909162609592
 21
38.234194233809689
  0
LINE
  8
_0-1_EL-SL200SAIMEI
  6
CONTINUOUS
 62
    7
 10
27.676066714660902
 20
38.234194233809689
 11
27.547909162609592
 21
38.234194233809689
  0
LINE
  8
_0-1_EL-SL200SAIMEI
  6
CONTINUOUS
 62
    7
 10
29.453735985049782
 20
37.938260531626689
 11
29.326956471192581
 21
37.938260531626689
  0
LINE
  8
_0-1_EL-SL200SAIMEI
  6
CONTINUOUS
 62
    7
 10
34.406405254644895
 20
37.175860900740894
 11
34.2796257407878
 21
37.175860900740894
  0
LINE
  8
_0-1_EL-SL200SAIMEI
  6
CONTINUOUS
 62
    7
 10
39.401793708257181
 20
36.033639492606305
 11
36.396292406925184
 21
36.540929802809408
  0
LINE
  8
_0-1_EL-SL200SAIMEI
  6
CONTINUOUS
 62
    7
 10
44.862959071475188
 20
35.016475050586308
 11
39.401793708257181
 21
36.033639492606305
  0
LINE
  8
_0-1_EL-SL200SAIMEI
  6
CONTINUOUS
 62
    7
 10
36.396292406925184
 20
36.540929802809408
 11
35.76101679944518
 21
36.795694613943589
  0
LINE
  8
_0-1_EL-SL200SAIMEI
  6
CONTINUOUS
 62
    7
 10
35.76101679944518
 20
36.795694613943589
 11
34.406405254644895
 21
37.175860900740894
  0
LINE
  8
_0-1_EL-SL200SAIMEI
  6
CONTINUOUS
 62
    7
 10
39.91028980188009
 20
57.369977106629896
 11
39.91028980188009
 21
57.284194229047209
  0
LINE
  8
_0-1_EL-SL200SAIMEI
  6
CONTINUOUS
 62
    7
 10
45.286016797063901
 20
34.805979716437598
 11
44.862959071475188
 21
35.016475050586308
  0
LINE
  8
_0-1_EL-SL200SAIMEI
  6
CONTINUOUS
 62
    7
 10
35.252520705822306
 20
48.012925513917104
 11
34.914901348267804
 21
48.437189022925587
  0
LINE
  8
_0-1_EL-SL200SAIMEI
  6
CONTINUOUS
 62
    7
 10
36.310854038890973
 20
47.716475047411308
 11
36.100014195193779
 21
48.098191627177009
  0
LINE
  8
_0-1_EL-SL200SAIMEI
  6
CONTINUOUS
 62
    7
 10
36.184074525033878
 20
48.098191627177009
 11
36.353573222908068
 21
47.675306156362602
  0
LINE
  8
_0-1_EL-SL200SAIMEI
  6
CONTINUOUS
 62
    7
 10
36.439011590942286
 20
47.675306156362602
 11
36.310854038890973
 21
48.098191627177009
  0
LINE
  8
_0-1_EL-SL200SAIMEI
  6
CONTINUOUS
 62
    7
 10
45.878573220526881
 20
34.382577481300409
 11
45.286016797063901
 21
34.805979716437598
  0
LINE
  8
_0-1_EL-SL200SAIMEI
  6
CONTINUOUS
 62
    7
 10
46.597909157847091
 20
33.620694614737289
 11
45.878573220526881
 21
34.382577481300409
  0
LINE
  8
_0-1_EL-SL200SAIMEI
  6
CONTINUOUS
 62
    7
 10
47.488121831235588
 20
32.307596470534392
 11
46.597909157847091
 21
33.620694614737289
  0
LINE
  8
_0-1_EL-SL200SAIMEI
  6
CONTINUOUS
 62
    7
 10
47.825741188790104
 20
31.588260533214186
 11
47.488121831235588
 21
32.307596470534392
  0
LINE
  8
_0-1_EL-SL200SAIMEI
  6
CONTINUOUS
 62
    7
 10
48.334237282412978
 20
29.979917705925306
 11
47.825741188790104
 21
31.588260533214186
  0
LINE
  8
_0-1_EL-SL200SAIMEI
  6
CONTINUOUS
 62
    7
 10
48.503735980287281
 20
28.878865188839505
 11
48.334237282412978
 21
29.979917705925306
  0
LINE
  8
_0-1_EL-SL200SAIMEI
  6
CONTINUOUS
 62
    7
 10
48.546455164304383
 20
27.397646384956285
 11
48.503735980287281
 21
28.878865188839505
  0
LINE
  8
_0-1_EL-SL200SAIMEI
  6
CONTINUOUS
 62
    7
 10
48.461016796270179
 20
26.592527570053385
 11
48.546455164304383
 21
27.397646384956285
  0
LINE
  8
_0-1_EL-SL200SAIMEI
  6
CONTINUOUS
 62
    7
 10
36.439011590942286
 20
47.675306156362602
 11
36.353573222908068
 21
47.675306156362602
  0
LINE
  8
_0-1_EL-SL200SAIMEI
  6
CONTINUOUS
 62
    7
 10
36.310854038890973
 20
48.098191627177009
 11
36.184074525033878
 21
48.098191627177009
  0
LINE
  8
_0-1_EL-SL200SAIMEI
  6
CONTINUOUS
 62
    7
 10
36.226793709050867
 20
48.478530168748584
 11
36.353573222908068
 21
48.478530168748584
  0
LINE
  8
_0-1_EL-SL200SAIMEI
  6
CONTINUOUS
 62
    7
 10
36.184074525033878
 20
48.098191627177009
 11
36.100014195193779
 21
48.098191627177009
  0
LINE
  8
_0-1_EL-SL200SAIMEI
  6
CONTINUOUS
 62
    7
 10
36.184074525033878
 20
48.521593862314198
 11
36.226793709050867
 21
48.478530168748584
  0
LINE
  8
_0-1_EL-SL200SAIMEI
  6
CONTINUOUS
 62
    7
 10
36.310854038890973
 20
47.716475047411308
 11
36.353573222908068
 21
47.675306156362602
  0
LINE
  8
_0-1_EL-SL200SAIMEI
  6
CONTINUOUS
 62
    7
 10
38.047182163456974
 20
56.522311362484167
 11
37.708184767708389
 21
56.479592178467094
  0
LINE
  8
_0-1_EL-SL200SAIMEI
  6
CONTINUOUS
 62
    7
 10
35.718297615428085
 20
51.442862579031804
 11
35.803735983462282
 21
51.315910810400382
  0
LINE
  8
_0-1_EL-SL200SAIMEI
  6
CONTINUOUS
 62
    7
 10
35.846455167479377
 20
51.526922908871903
 11
35.718297615428085
 21
51.442862579031804
  0
LINE
  8
_0-1_EL-SL200SAIMEI
  6
CONTINUOUS
 62
    7
 10
35.803735983462282
 20
52.035246747720485
 11
35.887796313302381
 21
51.908639488637583
  0
LINE
  8
_0-1_EL-SL200SAIMEI
  6
CONTINUOUS
 62
    7
 10
35.930515497319483
 20
52.119479332334883
 11
35.803735983462282
 21
52.035246747720485
  0
LINE
  8
_0-1_EL-SL200SAIMEI
  6
CONTINUOUS
 62
    7
 10
35.846455167479377
 20
52.119479332334883
 11
35.930515497319483
 21
52.119479332334883
  0
LINE
  8
_0-1_EL-SL200SAIMEI
  6
CONTINUOUS
 62
    7
 10
35.846455167479377
 20
52.288978030209186
 11
35.846455167479377
 21
52.119479332334883
  0
LINE
  8
_0-1_EL-SL200SAIMEI
  6
CONTINUOUS
 62
    7
 10
35.973234681336578
 20
52.288978030209186
 11
35.846455167479377
 21
52.288978030209186
  0
LINE
  8
_0-1_EL-SL200SAIMEI
  6
CONTINUOUS
 62
    7
 10
35.930515497319483
 20
52.754927194589207
 11
36.014575827159582
 21
52.711863501023593
  0
LINE
  8
_0-1_EL-SL200SAIMEI
  6
CONTINUOUS
 62
    7
 10
35.930515497319483
 20
52.881534453672089
 11
35.930515497319483
 21
52.754927194589207
  0
LINE
  8
_0-1_EL-SL200SAIMEI
  6
CONTINUOUS
 62
    7
 10
36.057295011176677
 20
52.924253637689183
 11
35.930515497319483
 21
52.881534453672089
  0
LINE
  8
_0-1_EL-SL200SAIMEI
  6
CONTINUOUS
 62
    7
 10
36.057295011176677
 20
53.686308759026524
 11
36.100014195193779
 21
53.516810061152228
  0
LINE
  8
_0-1_EL-SL200SAIMEI
  6
CONTINUOUS
 62
    7
 10
36.142733379210895
 20
53.686308759026524
 11
36.057295011176677
 21
53.686308759026524
  0
LINE
  8
_0-1_EL-SL200SAIMEI
  6
CONTINUOUS
 62
    7
 10
37.454625739993993
 20
51.019977108217397
 11
37.497344924011088
 21
51.019977108217397
  0
LINE
  8
_0-1_EL-SL200SAIMEI
  6
CONTINUOUS
 62
    7
 10
37.538686069834093
 20
51.612361276906107
 11
37.581405253851187
 21
51.612361276906107
  0
LINE
  8
_0-1_EL-SL200SAIMEI
  6
CONTINUOUS
 62
    7
 10
37.665465583691287
 20
52.415929798840608
 11
37.708184767708389
 21
52.415929798840608
  0
LINE
  8
_0-1_EL-SL200SAIMEI
  6
CONTINUOUS
 62
    7
 10
37.750903951725505
 20
53.220531849420688
 11
37.793623135742607
 21
53.220531849420688
  0
LINE
  8
_0-1_EL-SL200SAIMEI
  6
CONTINUOUS
 62
    7
 10
37.581405253851187
 20
56.479592178467094
 11
37.411906555976891
 21
56.479592178467094
  0
LINE
  8
_0-1_EL-SL200SAIMEI
  6
CONTINUOUS
 62
    7
 10
37.750903951725505
 20
56.438251032644068
 11
38.047182163456974
 21
56.479592178467094
  0
LINE
  8
_0-1_EL-SL200SAIMEI
  6
CONTINUOUS
 62
    7
 10
37.538686069834093
 20
56.438251032644068
 11
37.581405253851187
 21
56.438251032644068
  0
LINE
  8
_0-1_EL-SL200SAIMEI
  6
CONTINUOUS
 62
    7
 10
37.708184767708389
 20
56.438251032644068
 11
37.750903951725505
 21
56.438251032644068
  0
LINE
  8
_0-1_EL-SL200SAIMEI
  6
CONTINUOUS
 62
    7
 10
37.708184767708389
 20
56.479592178467094
 11
37.581405253851187
 21
56.479592178467094
  0
LINE
  8
_0-1_EL-SL200SAIMEI
  6
CONTINUOUS
 62
    7
 10
37.581405253851187
 20
56.438251032644068
 11
37.708184767708389
 21
56.438251032644068
  0
LINE
  8
_0-1_EL-SL200SAIMEI
  6
CONTINUOUS
 62
    7
 10
41.264901346680304
 20
54.828530167161084
 11
40.376066711485905
 21
54.914313044743778
  0
LINE
  8
_0-1_EL-SL200SAIMEI
  6
CONTINUOUS
 62
    7
 10
38.427520705028584
 20
54.998201119809714
 11
38.173961677314175
 21
55.040920303826674
  0
LINE
  8
_0-1_EL-SL200SAIMEI
  6
CONTINUOUS
 62
    7
 10
41.306242492503294
 20
55.337198515558207
 11
40.417407857308895
 21
55.379917699575273
  0
LINE
  8
_0-1_EL-SL200SAIMEI
  6
CONTINUOUS
 62
    7
 10
40.163848829594492
 20
55.506524958658183
 11
39.401793708257181
 21
55.549244142675363
  0
LINE
  8
_0-1_EL-SL200SAIMEI
  6
CONTINUOUS
 62
    7
 10
38.512959073062689
 20
55.590929798046872
 11
38.723798916759989
 21
55.590929798046872
  0
LINE
  8
_0-1_EL-SL200SAIMEI
  6
CONTINUOUS
 62
    7
 10
38.259400045348379
 20
55.633648982064003
 11
38.936016798651373
 21
55.590929798046872
  0
LINE
  8
_0-1_EL-SL200SAIMEI
  6
CONTINUOUS
 62
    7
 10
36.353573222908068
 20
56.013815268861315
 11
36.226793709050867
 21
56.013815268861315
  0
LINE
  8
_0-1_EL-SL200SAIMEI
  6
CONTINUOUS
 62
    7
 10
41.052683464788892
 20
55.802975425163986
 11
40.333347527468788
 21
55.845522354406903
  0
LINE
  8
_0-1_EL-SL200SAIMEI
  6
CONTINUOUS
 62
    7
 10
38.343460375188485
 20
56.225860895978428
 11
39.021455166685584
 21
56.225860895978428
  0
LINE
  8
_0-1_EL-SL200SAIMEI
  6
CONTINUOUS
 62
    7
 10
41.138121832823089
 20
56.268580079995495
 11
40.376066711485905
 21
56.352812664609928
  0
LINE
  8
_0-1_EL-SL200SAIMEI
  6
CONTINUOUS
 62
    7
 10
37.115628344245394
 20
56.522311362484167
 11
36.439011590942286
 21
56.564858291726978
  0
LINE
  8
_0-1_EL-SL200SAIMEI
  6
CONTINUOUS
 62
    7
 10
41.052683464788892
 20
56.438251032644068
 11
40.290628343451694
 21
56.479592178467094
  0
LINE
  8
_0-1_EL-SL200SAIMEI
  6
CONTINUOUS
 62
    7
 10
40.544187371166089
 20
56.522311362484167
 11
39.782132249828784
 21
56.522311362484167
  0
LINE
  8
_0-1_EL-SL200SAIMEI
  6
CONTINUOUS
 62
    7
 10
40.290628343451694
 20
56.861308758232774
 11
39.528573222114382
 21
56.903855687475577
  0
LINE
  8
_0-1_EL-SL200SAIMEI
  6
CONTINUOUS
 62
    7
 10
37.581405253851187
 20
57.114867785947112
 11
37.242407858102595
 21
57.114867785947112
  0
LINE
  8
_0-1_EL-SL200SAIMEI
  6
CONTINUOUS
 62
    7
 10
40.037069315737291
 20
57.030979710881283
 11
39.994350131720189
 21
57.030979710881283
  0
LINE
  8
_0-1_EL-SL200SAIMEI
  6
CONTINUOUS
 62
    7
 10
40.6296257392003
 20
57.030979710881283
 11
40.968623134948793
 21
57.030979710881283
  0
LINE
  8
_0-1_EL-SL200SAIMEI
  6
CONTINUOUS
 62
    7
 10
39.994350131720189
 20
57.284194229047209
 11
39.614011590148579
 21
57.284194229047209
  0
LINE
  8
_0-1_EL-SL200SAIMEI
  6
CONTINUOUS
 62
    7
 10
39.91028980188009
 20
57.369977106629896
 11
39.232295010382884
 21
57.411145997678709
  0
LINE
  8
_0-1_EL-SL200SAIMEI
  6
CONTINUOUS
 62
    7
 10
39.275014194399979
 20
57.496584365712792
 11
38.597019402902788
 21
57.537925511535768
  0
LINE
  8
_0-1_EL-SL200SAIMEI
  6
CONTINUOUS
 62
    7
 10
37.242407858102595
 20
57.623191624795815
 11
37.581405253851187
 21
57.623191624795815
  0
LINE
  8
_0-1_EL-SL200SAIMEI
  6
CONTINUOUS
 62
    7
 10
38.893297614634299
 20
57.623191624795815
 11
38.470239889045679
 21
57.623191624795815
  0
LINE
  8
_0-1_EL-SL200SAIMEI
  6
CONTINUOUS
 62
    7
 10
35.168460375982207
 20
54.617862578238082
 11
35.591518101570884
 21
54.532596464978205
  0
LINE
  8
_0-1_EL-SL200SAIMEI
  6
CONTINUOUS
 62
    7
 10
40.6296257392003
 20
53.643589575009393
 11
41.179462978646093
 21
53.559529245169294
  0
LINE
  8
_0-1_EL-SL200SAIMEI
  6
CONTINUOUS
 62
    7
 10
41.561179558411801
 20
54.787361276112279
 11
41.264901346680304
 21
54.828530167161084
  0
LINE
  8
_0-1_EL-SL200SAIMEI
  6
CONTINUOUS
 62
    7
 10
38.723798916759989
 20
55.590929798046872
 11
38.512959073062689
 21
55.633648982064003
  0
LINE
  8
_0-1_EL-SL200SAIMEI
  6
CONTINUOUS
 62
    7
 10
38.936016798651373
 20
55.633648982064003
 11
39.401793708257181
 21
55.549244142675363
  0
LINE
  8
_0-1_EL-SL200SAIMEI
  6
CONTINUOUS
 62
    7
 10
36.353573222908068
 20
56.225860895978428
 11
36.396292406925184
 21
56.225860895978428
  0
LINE
  8
_0-1_EL-SL200SAIMEI
  6
CONTINUOUS
 62
    7
 10
40.163848829594492
 20
55.506524958658183
 11
41.306242492503294
 21
55.337198515558207
  0
LINE
  8
_0-1_EL-SL200SAIMEI
  6
CONTINUOUS
 62
    7
 10
40.417407857308895
 20
55.717537057129789
 11
40.6296257392003
 21
55.633648982064003
  0
LINE
  8
_0-1_EL-SL200SAIMEI
  6
CONTINUOUS
 62
    7
 10
40.333347527468788
 20
55.845694609181116
 11
39.48585403809728
 21
56.013815268861315
  0
LINE
  8
_0-1_EL-SL200SAIMEI
  6
CONTINUOUS
 62
    7
 10
39.021455166685584
 20
56.225860895978428
 11
37.750903951725505
 21
56.438251032644068
  0
LINE
  8
_0-1_EL-SL200SAIMEI
  6
CONTINUOUS
 62
    7
 10
37.454625739993993
 20
56.479592178467094
 11
37.115628344245394
 21
56.522311362484167
  0
LINE
  8
_0-1_EL-SL200SAIMEI
  6
CONTINUOUS
 62
    7
 10
37.497344924011088
 20
56.988260526864217
 11
36.819350132513883
 21
57.072148601930103
  0
LINE
  8
_0-1_EL-SL200SAIMEI
  6
CONTINUOUS
 62
    7
 10
39.782132249828784
 20
56.522311362484167
 11
40.290628343451694
 21
56.479592178467094
  0
LINE
  8
_0-1_EL-SL200SAIMEI
  6
CONTINUOUS
 62
    7
 10
41.052683464788892
 20
56.438251032644068
 11
40.544187371166089
 21
56.522311362484167
  0
LINE
  8
_0-1_EL-SL200SAIMEI
  6
CONTINUOUS
 62
    7
 10
37.497344924011088
 20
57.030979710881283
 11
37.242407858102595
 21
57.114867785947112
  0
LINE
  8
_0-1_EL-SL200SAIMEI
  6
CONTINUOUS
 62
    7
 10
40.840465582897494
 20
56.564858291726978
 11
41.475741190377605
 21
56.479592178467094
  0
LINE
  8
_0-1_EL-SL200SAIMEI
  6
CONTINUOUS
 62
    7
 10
37.877683465582706
 20
57.537925511535768
 11
37.242407858102595
 21
57.623191624795815
  0
LINE
  8
_0-1_EL-SL200SAIMEI
  6
CONTINUOUS
 62
    7
 10
39.994350131720189
 20
57.157586969964306
 11
40.6296257392003
 21
57.030979710881283
  0
LINE
  8
_0-1_EL-SL200SAIMEI
  6
CONTINUOUS
 62
    7
 10
39.614011590148579
 20
57.284194229047209
 11
38.300741191171369
 21
57.496584365712792
  0
LINE
  8
_0-1_EL-SL200SAIMEI
  6
CONTINUOUS
 62
    7
 10
40.883184766914589
 20
57.072148601930103
 11
40.290628343451694
 21
57.157586969964306
  0
LINE
  8
_0-1_EL-SL200SAIMEI
  6
CONTINUOUS
 62
    7
 10
40.544187371166089
 20
56.861308758232774
 11
40.883184766914589
 21
56.522139107709897
  0
LINE
  8
_0-1_EL-SL200SAIMEI
  6
CONTINUOUS
 62
    7
 10
39.528573222114382
 20
56.904027942249904
 11
39.782132249828784
 21
56.522311362484167
  0
LINE
  8
_0-1_EL-SL200SAIMEI
  6
CONTINUOUS
 62
    7
 10
40.544187371166089
 20
56.522311362484167
 11
40.290628343451694
 21
56.861308758232774
  0
LINE
  8
_0-1_EL-SL200SAIMEI
  6
CONTINUOUS
 62
    7
 10
39.994350131720189
 20
57.284194229047209
 11
39.232295010382884
 21
57.411145997678709
  0
LINE
  8
_0-1_EL-SL200SAIMEI
  6
CONTINUOUS
 62
    7
 10
38.597019402902788
 20
57.537925511535768
 11
37.920402649599801
 21
57.623191624795815
  0
LINE
  8
_0-1_EL-SL200SAIMEI
  6
CONTINUOUS
 62
    7
 10
38.470239889045679
 20
57.623191624795815
 11
40.544187371166089
 21
57.241475045030079
  0
LINE
  8
_0-1_EL-SL200SAIMEI
  6
CONTINUOUS
 62
    7
 10
38.893297614634299
 20
57.623191624795815
 11
40.163848829594492
 21
57.369977106629896
  0
LINE
  8
_0-1_EL-SL200SAIMEI
  6
CONTINUOUS
 62
    7
 10
36.439011590942286
 20
36.540929802809408
 11
44.862959071475188
 21
35.016475050586308
  0
LINE
  8
_0-1_EL-SL200SAIMEI
  6
CONTINUOUS
 62
    7
 10
25.855678260254802
 20
18.549263140640587
 11
26.659074527415083
 21
18.549263140640587
  0
LINE
  8
_0-1_EL-SL200SAIMEI
  6
CONTINUOUS
 62
    7
 10
25.008184770883393
 20
18.675870399723486
 11
25.855678260254802
 21
18.549263140640587
  0
LINE
  8
_0-1_EL-SL200SAIMEI
  6
CONTINUOUS
 62
    7
 10
28.395402651980991
 20
37.599263135878083
 11
27.8441873743411
 21
37.684529249138109
  0
LINE
  8
_0-1_EL-SL200SAIMEI
  6
CONTINUOUS
 62
    7
 10
29.41101680103268
 20
37.218580084757996
 11
28.395402651980991
 21
37.599263135878083
  0
LINE
  8
_0-1_EL-SL200SAIMEI
  6
CONTINUOUS
 62
    7
 10
25.134964284740601
 20
18.972148611455104
 11
25.855678260254802
 21
18.845196842823604
  0
LINE
  8
_0-1_EL-SL200SAIMEI
  6
CONTINUOUS
 62
    7
 10
27.590628346626691
 20
37.938260531626689
 11
26.744512895449283
 21
38.022148606692603
  0
LINE
  8
_0-1_EL-SL200SAIMEI
  6
CONTINUOUS
 62
    7
 10
25.008184770883393
 20
18.972148611455104
 11
25.855678260254802
 21
18.845196842823604
  0
LINE
  8
_0-1_EL-SL200SAIMEI
  6
CONTINUOUS
 62
    7
 10
26.744512895449283
 20
38.022148606692603
 11
26.78585404127228
 21
38.022148606692603
  0
LINE
  8
_0-1_EL-SL200SAIMEI
  6
CONTINUOUS
 62
    7
 10
25.855678260254802
 20
18.845196842823604
 11
25.897019406077792
 21
18.845196842823604
  0
LINE
  8
_0-1_EL-SL200SAIMEI
  6
CONTINUOUS
 62
    7
 10
35.295239889839401
 20
36.963815273623787
 11
35.718297615428085
 21
36.795522359169404
  0
LINE
  8
_0-1_EL-SL200SAIMEI
  6
CONTINUOUS
 62
    7
 10
25.516680864506281
 20
19.396584375237804
 11
26.023798919935
 21
19.311146007203597
  0
LINE
  8
_0-1_EL-SL200SAIMEI
  6
CONTINUOUS
 62
    7
 10
24.585127045294691
 20
19.734203732792306
 11
25.516680864506281
 21
19.396584375237804
  0
LINE
  8
_0-1_EL-SL200SAIMEI
  6
CONTINUOUS
 62
    7
 10
35.252520705822306
 20
36.963815273623787
 11
35.295239889839401
 21
36.963815273623787
  0
LINE
  8
_0-1_EL-SL200SAIMEI
  6
CONTINUOUS
 62
    7
 10
27.337069318912292
 20
37.768589578978087
 11
27.29435013489519
 21
37.768589578978087
  0
LINE
  8
_0-1_EL-SL200SAIMEI
  6
CONTINUOUS
 62
    7
 10
27.29435013489519
 20
37.768589578978087
 11
27.717407860483892
 21
37.725870394961099
  0
LINE
  8
_0-1_EL-SL200SAIMEI
  6
CONTINUOUS
 62
    7
 10
35.0844000461421
 20
37.006534457640889
 11
35.252520705822306
 21
36.963815273623787
  0
LINE
  8
_0-1_EL-SL200SAIMEI
  6
CONTINUOUS
 62
    7
 10
26.659074527415083
 20
19.057586979489304
 11
26.489575829540772
 21
19.057586979489304
  0
LINE
  8
_0-1_EL-SL200SAIMEI
  6
CONTINUOUS
 62
    7
 10
26.448234683717782
 20
19.057586979489304
 11
26.151956471986271
 21
19.057586979489304
  0
LINE
  8
_0-1_EL-SL200SAIMEI
  6
CONTINUOUS
 62
    7
 10
25.600741194346373
 20
19.100306163506296
 11
26.151956471986271
 21
19.057586979489304
  0
LINE
  8
_0-1_EL-SL200SAIMEI
  6
CONTINUOUS
 62
    7
 10
34.956242494090787
 20
37.049253641657998
 11
35.0844000461421
 21
37.006534457640889
  0
LINE
  8
_0-1_EL-SL200SAIMEI
  6
CONTINUOUS
 62
    7
 10
28.945239891426901
 20
37.388251037406597
 11
28.47946298182109
 21
37.472311367246697
  0
LINE
  8
_0-1_EL-SL200SAIMEI
  6
CONTINUOUS
 62
    7
 10
34.829462980233586
 20
37.049253641657998
 11
34.956242494090787
 21
37.049253641657998
  0
LINE
  8
_0-1_EL-SL200SAIMEI
  6
CONTINUOUS
 62
    7
 10
25.600741194346373
 20
19.100306163506296
 11
26.448234683717782
 21
19.057586979489304
  0
LINE
  8
_0-1_EL-SL200SAIMEI
  6
CONTINUOUS
 62
    7
 10
34.702683466376392
 20
37.091972825675093
 11
34.829462980233586
 21
37.049253641657998
  0
LINE
  8
_0-1_EL-SL200SAIMEI
  6
CONTINUOUS
 62
    7
 10
34.702683466376392
 20
37.091972825675093
 11
34.406405254644895
 21
37.175860900740894
  0
LINE
  8
_0-1_EL-SL200SAIMEI
  6
CONTINUOUS
 62
    7
 10
26.95535273914658
 20
19.184194238572186
 11
27.886906558358202
 21
19.226913422589284
  0
LINE
  8
_0-1_EL-SL200SAIMEI
  6
CONTINUOUS
 62
    7
 10
26.023798919935
 20
19.311146007203597
 11
26.95535273914658
 21
19.184194238572186
  0
LINE
  8
_0-1_EL-SL200SAIMEI
  6
CONTINUOUS
 62
    7
 10
28.438121835998093
 20
37.557577480506609
 11
28.564901349855301
 21
37.514858296489493
  0
LINE
  8
_0-1_EL-SL200SAIMEI
  6
CONTINUOUS
 62
    7
 10
26.321455169860581
 20
36.540929802809408
 11
27.251630950878091
 21
36.626195916069285
  0
LINE
  8
_0-1_EL-SL200SAIMEI
  6
CONTINUOUS
 62
    7
 10
36.396292406925184
 20
36.540929802809408
 11
36.439011590942286
 21
36.540929802809408
  0
LINE
  8
_0-1_EL-SL200SAIMEI
  6
CONTINUOUS
 62
    7
 10
35.548798917553768
 20
50.425870391786098
 11
35.464738587713668
 21
50.468589575803087
  0
LINE
  8
_0-1_EL-SL200SAIMEI
  6
CONTINUOUS
 62
    7
 10
37.581405253851187
 20
51.780481936586305
 11
37.581405253851187
 21
51.823201120603407
  0
LINE
  8
_0-1_EL-SL200SAIMEI
  6
CONTINUOUS
 62
    7
 10
36.014575827159582
 20
52.924253637689183
 11
36.057295011176677
 21
52.924253637689183
  0
LINE
  8
_0-1_EL-SL200SAIMEI
  6
CONTINUOUS
 62
    7
 10
36.014575827159582
 20
52.711863501023593
 11
35.973234681336578
 21
52.711863501023593
  0
LINE
  8
_0-1_EL-SL200SAIMEI
  6
CONTINUOUS
 62
    7
 10
37.581405253851187
 20
50.088251034231597
 11
37.750903951725505
 21
50.045531850214495
  0
LINE
  8
_0-1_EL-SL200SAIMEI
  6
CONTINUOUS
 62
    7
 10
38.259400045348379
 20
55.633648982064003
 11
38.512959073062689
 21
55.590929798046872
  0
LINE
  8
_0-1_EL-SL200SAIMEI
  6
CONTINUOUS
 62
    7
 10
37.665465583691287
 20
52.415929798840608
 11
37.454625739993993
 21
52.415929798840608
  0
LINE
  8
_0-1_EL-SL200SAIMEI
  6
CONTINUOUS
 62
    7
 10
40.376066711485905
 20
54.914313044743778
 11
40.799124437074489
 21
54.828530167161084
  0
LINE
  8
_0-1_EL-SL200SAIMEI
  6
CONTINUOUS
 62
    7
 10
36.269512893067969
 20
55.379917699575273
 11
36.142733379210895
 21
55.379917699575273
  0
LINE
  8
_0-1_EL-SL200SAIMEI
  6
CONTINUOUS
 62
    7
 10
36.226793709050867
 20
56.013815268861315
 11
36.353573222908068
 21
55.972646377812616
  0
LINE
  8
_0-1_EL-SL200SAIMEI
  6
CONTINUOUS
 62
    7
 10
39.867570617862988
 20
47.293589576596894
 11
38.470239889045679
 21
43.102975428338986
  0
LINE
  8
_0-1_EL-SL200SAIMEI
  6
CONTINUOUS
 62
    7
 10
35.930515497319483
 20
47.801913415445505
 11
33.771129647164891
 21
37.261643778323602
  0
LINE
  8
_0-1_EL-SL200SAIMEI
  6
CONTINUOUS
 62
    7
 10
35.041680862125006
 20
37.006534457640889
 11
37.454625739993993
 21
47.547148604311296
  0
LINE
  8
_0-1_EL-SL200SAIMEI
  6
CONTINUOUS
 62
    7
 10
37.072909160228278
 20
47.589867788328398
 11
34.490465584484994
 21
37.175860900740894
  0
LINE
  8
_0-1_EL-SL200SAIMEI
  6
CONTINUOUS
 62
    7
 10
34.702683466376392
 20
37.091972825675093
 11
37.242407858102595
 21
47.589867788328398
  0
LINE
  8
_0-1_EL-SL200SAIMEI
  6
CONTINUOUS
 62
    7
 10
37.201066712279591
 20
47.589867788328398
 11
34.702683466376392
 21
37.091972825675093
  0
LINE
  8
_0-1_EL-SL200SAIMEI
  6
CONTINUOUS
 62
    7
 10
34.745402650393487
 20
37.091972825675093
 11
37.242407858102595
 21
47.547148604311296
  0
LINE
  8
_0-1_EL-SL200SAIMEI
  6
CONTINUOUS
 62
    7
 10
39.614011590148579
 20
47.336308760613996
 11
36.649851434639587
 21
36.540929802809408
  0
LINE
  8
_0-1_EL-SL200SAIMEI
  6
CONTINUOUS
 62
    7
 10
36.692570618656681
 20
36.499244147437786
 11
39.655352735971583
 21
47.293589576596894
  0
LINE
  8
_0-1_EL-SL200SAIMEI
  6
CONTINUOUS
 62
    7
 10
40.6296257392003
 20
56.904027942249904
 11
40.968623134948793
 21
56.904027942249904
  0
LINE
  8
_0-1_EL-SL200SAIMEI
  6
CONTINUOUS
 62
    7
 10
37.877683465582706
 20
57.411145997678709
 11
37.242407858102595
 21
57.537925511535768
  0
LINE
  8
_0-1_EL-SL200SAIMEI
  6
CONTINUOUS
 62
    7
 10
39.994350131720189
 20
57.030979710881283
 11
40.6296257392003
 21
56.903855687475577
  0
LINE
  8
_0-1_EL-SL200SAIMEI
  6
CONTINUOUS
 62
    7
 10
38.089901347474068
 20
56.479592178467094
 11
38.047182163456974
 21
56.479592178467094
  0
LINE
  8
_0-1_EL-SL200SAIMEI
  6
CONTINUOUS
 62
    7
 10
38.047182163456974
 20
56.522311362484167
 11
38.089901347474068
 21
56.479592178467094
  0
LINE
  8
_0-1_EL-SL200SAIMEI
  6
CONTINUOUS
 62
    7
 10
38.597019402902788
 20
48.182596466565599
 11
40.206568013611594
 21
48.055644697934206
  0
LINE
  8
_0-1_EL-SL200SAIMEI
  6
CONTINUOUS
 62
    7
 10
36.523071920782385
 20
48.478530168748584
 11
38.597019402902788
 21
48.182596466565599
  0
LINE
  8
_0-1_EL-SL200SAIMEI
  6
CONTINUOUS
 62
    7
 10
35.464738587713668
 20
48.733639489431305
 11
36.523071920782385
 21
48.478530168748584
  0
LINE
  8
_0-1_EL-SL200SAIMEI
  6
CONTINUOUS
 62
    7
 10
35.464738587713668
 20
50.468589575803087
 11
37.750903951725505
 21
50.045531850214495
  0
LINE
  8
_0-1_EL-SL200SAIMEI
  6
CONTINUOUS
 62
    7
 10
37.454625739993993
 20
51.019977108217397
 11
35.803735983462282
 21
51.315910810400382
  0
LINE
  8
_0-1_EL-SL200SAIMEI
  6
CONTINUOUS
 62
    7
 10
36.819350132513883
 20
51.908639488637583
 11
35.930515497319483
 21
52.119479332334883
  0
LINE
  8
_0-1_EL-SL200SAIMEI
  6
CONTINUOUS
 62
    7
 10
37.581405253851187
 20
51.823201120603407
 11
36.819350132513883
 21
51.908639488637583
  0
LINE
  8
_0-1_EL-SL200SAIMEI
  6
CONTINUOUS
 62
    7
 10
36.692570618656681
 20
52.754927194589207
 11
36.057295011176677
 21
52.924253637689183
  0
LINE
  8
_0-1_EL-SL200SAIMEI
  6
CONTINUOUS
 62
    7
 10
37.708184767708389
 20
52.627975425957793
 11
36.692570618656681
 21
52.754927194589207
  0
LINE
  8
_0-1_EL-SL200SAIMEI
  6
CONTINUOUS
 62
    7
 10
37.497344924011088
 20
51.230644697140399
 11
37.454625739993993
 21
51.019977108217397
  0
LINE
  8
_0-1_EL-SL200SAIMEI
  6
CONTINUOUS
 62
    7
 10
37.624124437868289
 20
51.992527563703383
 11
37.581405253851187
 21
51.823201120603407
  0
LINE
  8
_0-1_EL-SL200SAIMEI
  6
CONTINUOUS
 62
    7
 10
37.708184767708389
 20
52.797646378606302
 11
37.708184767708389
 21
52.627975425957793
  0
LINE
  8
_0-1_EL-SL200SAIMEI
  6
CONTINUOUS
 62
    7
 10
37.581405253851187
 20
51.019977108217397
 11
37.497344924011088
 21
51.019977108217397
  0
LINE
  8
_0-1_EL-SL200SAIMEI
  6
CONTINUOUS
 62
    7
 10
37.581405253851187
 20
51.187925513123297
 11
37.581405253851187
 21
51.019977108217397
  0
LINE
  8
_0-1_EL-SL200SAIMEI
  6
CONTINUOUS
 62
    7
 10
37.497344924011088
 20
51.230644697140399
 11
37.581405253851187
 21
51.187925513123297
  0
LINE
  8
_0-1_EL-SL200SAIMEI
  6
CONTINUOUS
 62
    7
 10
37.708184767708389
 20
51.865920304620502
 11
37.581405253851187
 21
51.823201120603407
  0
LINE
  8
_0-1_EL-SL200SAIMEI
  6
CONTINUOUS
 62
    7
 10
37.624124437868289
 20
51.992527563703383
 11
37.708184767708389
 21
51.865920304620502
  0
LINE
  8
_0-1_EL-SL200SAIMEI
  6
CONTINUOUS
 62
    7
 10
37.793623135742607
 20
52.754927194589207
 11
37.708184767708389
 21
52.627975425957793
  0
LINE
  8
_0-1_EL-SL200SAIMEI
  6
CONTINUOUS
 62
    7
 10
37.708184767708389
 20
52.797646378606302
 11
37.793623135742607
 21
52.754927194589207
  0
LINE
  8
_0-1_EL-SL200SAIMEI
  6
CONTINUOUS
 62
    7
 10
36.353573222908068
 20
55.972646377812616
 11
38.259400045348379
 21
55.633476727289683
  0
LINE
  8
_0-1_EL-SL200SAIMEI
  6
CONTINUOUS
 62
    7
 10
35.76101679944518
 20
51.484203724854808
 11
35.846455167479377
 21
51.526922908871903
  0
LINE
  8
_0-1_EL-SL200SAIMEI
  6
CONTINUOUS
 62
    7
 10
35.803735983462282
 20
51.315910810400382
 11
35.76101679944518
 21
51.484203724854808
  0
LINE
  8
_0-1_EL-SL200SAIMEI
  6
CONTINUOUS
 62
    7
 10
35.846455167479377
 20
52.246258846192084
 11
35.973234681336578
 21
52.288978030209186
  0
LINE
  8
_0-1_EL-SL200SAIMEI
  6
CONTINUOUS
 62
    7
 10
35.930515497319483
 20
52.119479332334883
 11
35.846455167479377
 21
52.246258846192084
  0
LINE
  8
_0-1_EL-SL200SAIMEI
  6
CONTINUOUS
 62
    7
 10
35.973234681336578
 20
53.050860896772193
 11
36.057295011176677
 21
53.093580080789309
  0
LINE
  8
_0-1_EL-SL200SAIMEI
  6
CONTINUOUS
 62
    7
 10
36.014575827159582
 20
52.924253637689183
 11
35.973234681336578
 21
53.050860896772193
  0
LINE
  8
_0-1_EL-SL200SAIMEI
  6
CONTINUOUS
 62
    7
 10
36.226793709050867
 20
51.400315649788993
 11
37.497344924011088
 21
51.230644697140399
  0
LINE
  8
_0-1_EL-SL200SAIMEI
  6
CONTINUOUS
 62
    7
 10
35.846455167479377
 20
51.526922908871903
 11
36.226793709050867
 21
51.400315649788993
  0
LINE
  8
_0-1_EL-SL200SAIMEI
  6
CONTINUOUS
 62
    7
 10
35.973234681336578
 20
52.288978030209186
 11
37.624124437868289
 21
51.992527563703383
  0
LINE
  8
_0-1_EL-SL200SAIMEI
  6
CONTINUOUS
 62
    7
 10
36.057295011176677
 20
53.093580080789309
 11
37.708184767708389
 21
52.797646378606302
  0
LINE
  8
_0-1_EL-SL200SAIMEI
  6
CONTINUOUS
 62
    7
 10
35.548798917553768
 20
51.061145999266095
 11
37.834964281565604
 21
50.638260528451688
  0
LINE
  8
_0-1_EL-SL200SAIMEI
  6
CONTINUOUS
 62
    7
 10
37.538686069834093
 20
51.612361276906107
 11
35.887796313302381
 21
51.908639488637583
  0
LINE
  8
_0-1_EL-SL200SAIMEI
  6
CONTINUOUS
 62
    7
 10
37.454625739993993
 20
52.415929798840608
 11
36.014575827159582
 21
52.711863501023593
  0
LINE
  8
_0-1_EL-SL200SAIMEI
  6
CONTINUOUS
 62
    7
 10
36.862069316530977
 20
53.389858292520806
 11
36.100014195193779
 21
53.516982315926498
  0
LINE
  8
_0-1_EL-SL200SAIMEI
  6
CONTINUOUS
 62
    7
 10
36.988848830388179
 20
53.304592179260787
 11
36.862069316530977
 21
53.389858292520806
  0
LINE
  8
_0-1_EL-SL200SAIMEI
  6
CONTINUOUS
 62
    7
 10
37.750903951725505
 20
53.220531849420688
 11
36.988848830388179
 21
53.304592179260787
  0
LINE
  8
_0-1_EL-SL200SAIMEI
  6
CONTINUOUS
 62
    7
 10
37.581405253851187
 20
51.823201120603407
 11
37.538686069834093
 21
51.612361276906107
  0
LINE
  8
_0-1_EL-SL200SAIMEI
  6
CONTINUOUS
 62
    7
 10
37.624124437868289
 20
52.542537057923589
 11
37.665465583691287
 21
52.415929798840608
  0
LINE
  8
_0-1_EL-SL200SAIMEI
  6
CONTINUOUS
 62
    7
 10
37.708184767708389
 20
52.627975425957793
 11
37.624124437868289
 21
52.542537057923589
  0
LINE
  8
_0-1_EL-SL200SAIMEI
  6
CONTINUOUS
 62
    7
 10
37.793623135742607
 20
53.389858292520806
 11
37.750903951725505
 21
53.220531849420688
  0
LINE
  8
_0-1_EL-SL200SAIMEI
  6
CONTINUOUS
 62
    7
 10
37.665465583691287
 20
51.739313045537607
 11
37.581405253851187
 21
51.612189022131808
  0
LINE
  8
_0-1_EL-SL200SAIMEI
  6
CONTINUOUS
 62
    7
 10
37.581405253851187
 20
51.780481936586305
 11
37.665465583691287
 21
51.739313045537607
  0
LINE
  8
_0-1_EL-SL200SAIMEI
  6
CONTINUOUS
 62
    7
 10
37.708184767708389
 20
52.627975425957793
 11
37.708184767708389
 21
52.415929798840608
  0
LINE
  8
_0-1_EL-SL200SAIMEI
  6
CONTINUOUS
 62
    7
 10
37.877683465582706
 20
53.263251033437783
 11
37.793623135742607
 21
53.220531849420688
  0
LINE
  8
_0-1_EL-SL200SAIMEI
  6
CONTINUOUS
 62
    7
 10
37.877683465582706
 20
53.389858292520806
 11
37.877683465582706
 21
53.263251033437783
  0
LINE
  8
_0-1_EL-SL200SAIMEI
  6
CONTINUOUS
 62
    7
 10
37.793623135742607
 20
53.389858292520806
 11
37.877683465582706
 21
53.389858292520806
  0
LINE
  8
_0-1_EL-SL200SAIMEI
  6
CONTINUOUS
 62
    7
 10
36.439011590942286
 20
56.564858291726978
 11
38.343460375188485
 21
56.225860895978428
  0
LINE
  8
_0-1_EL-SL200SAIMEI
  6
CONTINUOUS
 62
    7
 10
35.846455167479377
 20
52.078310441286185
 11
35.930515497319483
 21
52.119479332334883
  0
LINE
  8
_0-1_EL-SL200SAIMEI
  6
CONTINUOUS
 62
    7
 10
35.887796313302381
 20
51.908639488637583
 11
35.846455167479377
 21
52.078310441286185
  0
LINE
  8
_0-1_EL-SL200SAIMEI
  6
CONTINUOUS
 62
    7
 10
35.930515497319483
 20
52.838815269655008
 11
36.014575827159582
 21
52.924253637689183
  0
LINE
  8
_0-1_EL-SL200SAIMEI
  6
CONTINUOUS
 62
    7
 10
35.973234681336578
 20
52.711863501023593
 11
35.930515497319483
 21
52.838815269655008
  0
LINE
  8
_0-1_EL-SL200SAIMEI
  6
CONTINUOUS
 62
    7
 10
36.269512893067969
 20
53.686308759026524
 11
37.793623135742607
 21
53.389858292520806
  0
LINE
  8
_0-1_EL-SL200SAIMEI
  6
CONTINUOUS
 62
    7
 10
36.057295011176677
 20
53.686308759026524
 11
36.269512893067969
 21
53.686308759026524
  0
LINE
  8
_0-1_EL-SL200SAIMEI
  6
CONTINUOUS
 62
    7
 10
36.100014195193779
 20
53.516982315926498
 11
36.057295011176677
 21
53.686308759026524
  0
LINE
  8
_0-1_EL-SL200SAIMEI
  6
CONTINUOUS
 62
    7
 10
41.052683464788892
 20
57.030979710881283
 11
40.883184766914589
 21
57.072148601930103
  0
LINE
  8
_0-1_EL-SL200SAIMEI
  6
CONTINUOUS
 62
    7
 10
40.968623134948793
 20
57.030979710881283
 11
41.052683464788892
 21
57.030979710881283
  0
LINE
  8
_0-1_EL-SL200SAIMEI
  6
CONTINUOUS
 62
    7
 10
37.581405253851187
 20
57.623191624795815
 11
37.877683465582706
 21
57.623191624795815
  0
LINE
  8
_0-1_EL-SL200SAIMEI
  6
CONTINUOUS
 62
    7
 10
41.179462978646093
 20
48.182596466565599
 11
41.264901346680304
 21
48.437189022925587
  0
LINE
  8
_0-1_EL-SL200SAIMEI
  6
CONTINUOUS
 62
    7
 10
40.968623134948793
 20
48.055644697934206
 11
41.179462978646093
 21
48.182596466565599
  0
LINE
  8
_0-1_EL-SL200SAIMEI
  6
CONTINUOUS
 62
    7
 10
40.376066711485905
 20
48.055644697934206
 11
40.968623134948793
 21
48.055644697934206
  0
LINE
  8
_0-1_EL-SL200SAIMEI
  6
CONTINUOUS
 62
    7
 10
42.407295009589184
 20
53.516982315926498
 11
41.898798915966275
 21
53.516982315926498
  0
LINE
  8
_0-1_EL-SL200SAIMEI
  6
CONTINUOUS
 62
    7
 10
42.323234679749085
 20
53.855979711674983
 11
42.450014193606279
 21
53.813260527658024
  0
LINE
  8
_0-1_EL-SL200SAIMEI
  6
CONTINUOUS
 62
    7
 10
42.068297613840585
 20
54.236145998472402
 11
42.323234679749085
 21
53.855979711674983
  0
LINE
  8
_0-1_EL-SL200SAIMEI
  6
CONTINUOUS
 62
    7
 10
42.02695646801758
 20
54.787361276112279
 11
42.068297613840585
 21
54.236145998472402
  0
LINE
  8
_0-1_EL-SL200SAIMEI
  6
CONTINUOUS
 62
    7
 10
41.561179558411801
 20
56.311643773561222
 11
41.475741190377605
 21
56.479592178467094
  0
LINE
  8
_0-1_EL-SL200SAIMEI
  6
CONTINUOUS
 62
    7
 10
41.138121832823089
 20
55.590929798046872
 11
40.6296257392003
 21
55.633648982064003
  0
LINE
  8
_0-1_EL-SL200SAIMEI
  6
CONTINUOUS
 62
    7
 10
41.645239888251901
 20
55.463978029415372
 11
41.138121832823089
 21
55.590929798046872
  0
LINE
  8
_0-1_EL-SL200SAIMEI
  6
CONTINUOUS
 62
    7
 10
41.814738586126168
 20
55.337198515558207
 11
41.645239888251901
 21
55.463978029415372
  0
LINE
  8
_0-1_EL-SL200SAIMEI
  6
CONTINUOUS
 62
    7
 10
41.518460374394699
 20
55.845694609181116
 11
41.052683464788892
 21
55.802975425163986
  0
LINE
  8
_0-1_EL-SL200SAIMEI
  6
CONTINUOUS
 62
    7
 10
42.068297613840585
 20
54.914313044743778
 11
41.772019402109073
 21
54.955481935792463
  0
LINE
  8
_0-1_EL-SL200SAIMEI
  6
CONTINUOUS
 62
    7
 10
42.153735981874782
 20
54.828530167161084
 11
42.068297613840585
 21
54.914313044743778
  0
LINE
  8
_0-1_EL-SL200SAIMEI
  6
CONTINUOUS
 62
    7
 10
40.163848829594492
 20
57.369977106629896
 11
40.586906555183198
 21
57.284194229047209
  0
LINE
  8
_0-1_EL-SL200SAIMEI
  6
CONTINUOUS
 62
    7
 10
40.544187371166089
 20
56.861308758232774
 11
40.290628343451694
 21
56.861308758232774
  0
LINE
  8
_0-1_EL-SL200SAIMEI
  6
CONTINUOUS
 62
    7
 10
40.883184766914589
 20
56.522311362484167
 11
40.544187371166089
 21
56.522311362484167
  0
LINE
  8
_0-1_EL-SL200SAIMEI
  6
CONTINUOUS
 62
    7
 10
41.772019402109073
 20
54.871593860726698
 11
41.264901346680304
 21
54.828530167161084
  0
LINE
  8
_0-1_EL-SL200SAIMEI
  6
CONTINUOUS
 62
    7
 10
42.450014193606279
 20
53.813260527658024
 11
41.941518099983384
 21
53.813260527658024
  0
LINE
  8
_0-1_EL-SL200SAIMEI
  6
CONTINUOUS
 62
    7
 10
41.306242492503294
 20
56.395531848626995
 11
41.052683464788892
 21
56.438251032644068
  0
LINE
  8
_0-1_EL-SL200SAIMEI
  6
CONTINUOUS
 62
    7
 10
41.475741190377605
 20
56.479592178467094
 11
41.306242492503294
 21
56.395531848626995
  0
LINE
  8
_0-1_EL-SL200SAIMEI
  6
CONTINUOUS
 62
    7
 10
40.713686069040399
 20
48.394642093682783
 11
41.264901346680304
 21
48.437189022925587
  0
LINE
  8
_0-1_EL-SL200SAIMEI
  6
CONTINUOUS
 62
    7
 10
40.163848829594492
 20
55.506524958658183
 11
40.417407857308895
 21
55.549244142675363
  0
LINE
  8
_0-1_EL-SL200SAIMEI
  6
CONTINUOUS
 62
    7
 10
41.306242492503294
 20
55.337198515558207
 11
41.814738586126168
 21
55.337198515558207
  0
LINE
  8
_0-1_EL-SL200SAIMEI
  6
CONTINUOUS
 62
    7
 10
40.586906555183198
 20
57.284194229047209
 11
40.544187371166089
 21
57.241475045030079
  0
LINE
  8
_0-1_EL-SL200SAIMEI
  6
CONTINUOUS
 62
    7
 10
42.02695646801758
 20
54.787361276112279
 11
42.153735981874782
 21
54.828530167161084
  0
LINE
  8
_0-1_EL-SL200SAIMEI
  6
CONTINUOUS
 62
    7
 10
41.561179558411801
 20
54.787361276112279
 11
42.02695646801758
 21
54.787361276112279
  0
LINE
  8
_0-1_EL-SL200SAIMEI
  6
CONTINUOUS
 62
    7
 10
41.561179558411801
 20
56.311643773561222
 11
41.138121832823089
 21
56.268580079995495
  0
LINE
  8
_0-1_EL-SL200SAIMEI
  6
CONTINUOUS
 62
    7
 10
38.38617955920558
 20
48.225315650582694
 11
40.376066711485905
 21
48.055644697934206
  0
LINE
  8
_0-1_EL-SL200SAIMEI
  6
CONTINUOUS
 62
    7
 10
35.380678257873569
 20
48.733639489431305
 11
38.38617955920558
 21
48.225315650582694
  0
LINE
  8
_0-1_EL-SL200SAIMEI
  6
CONTINUOUS
 62
    7
 10
34.956242494090787
 20
48.944479333128605
 11
35.380678257873569
 21
48.733639489431305
  0
LINE
  8
_0-1_EL-SL200SAIMEI
  6
CONTINUOUS
 62
    7
 10
34.872182164250688
 20
49.326195912894285
 11
34.956242494090787
 21
48.944479333128605
  0
LINE
  8
_0-1_EL-SL200SAIMEI
  6
CONTINUOUS
 62
    7
 10
36.692570618656681
 20
57.030979710881283
 11
36.692570618656681
 21
56.988260526864217
  0
LINE
  8
_0-1_EL-SL200SAIMEI
  6
CONTINUOUS
 62
    7
 10
36.776630948496781
 20
57.114867785947112
 11
36.692570618656681
 21
57.030979710881283
  0
LINE
  8
_0-1_EL-SL200SAIMEI
  6
CONTINUOUS
 62
    7
 10
37.242407858102595
 20
57.114867785947112
 11
36.776630948496781
 21
57.114867785947112
  0
LINE
  8
_0-1_EL-SL200SAIMEI
  6
CONTINUOUS
 62
    7
 10
35.930515497319483
 20
56.225860895978428
 11
35.803735983462282
 21
56.141972820912592
  0
LINE
  8
_0-1_EL-SL200SAIMEI
  6
CONTINUOUS
 62
    7
 10
36.353573222908068
 20
56.225860895978428
 11
35.930515497319483
 21
56.225860895978428
  0
LINE
  8
_0-1_EL-SL200SAIMEI
  6
CONTINUOUS
 62
    7
 10
41.898798915966275
 20
53.516982315926498
 11
41.179462978646093
 21
53.559529245169294
  0
LINE
  8
_0-1_EL-SL200SAIMEI
  6
CONTINUOUS
 62
    7
 10
41.645239888251901
 20
54.151913413857976
 11
41.941518099983384
 21
53.813260527658024
  0
LINE
  8
_0-1_EL-SL200SAIMEI
  6
CONTINUOUS
 62
    7
 10
41.561179558411801
 20
54.405644696346705
 11
41.645239888251901
 21
54.151913413857976
  0
LINE
  8
_0-1_EL-SL200SAIMEI
  6
CONTINUOUS
 62
    7
 10
41.561179558411801
 20
54.787361276112279
 11
41.561179558411801
 21
54.405644696346705
  0
LINE
  8
_0-1_EL-SL200SAIMEI
  6
CONTINUOUS
 62
    7
 10
35.548798917553768
 20
55.083639487843918
 11
35.676956469605081
 21
55.253310440492378
  0
LINE
  8
_0-1_EL-SL200SAIMEI
  6
CONTINUOUS
 62
    7
 10
35.211179559999273
 20
54.914313044743778
 11
35.548798917553768
 21
55.083639487843918
  0
LINE
  8
_0-1_EL-SL200SAIMEI
  6
CONTINUOUS
 62
    7
 10
41.138121832823089
 20
56.395531848626995
 11
41.052683464788892
 21
56.438251032644068
  0
LINE
  8
_0-1_EL-SL200SAIMEI
  6
CONTINUOUS
 62
    7
 10
41.138121832823089
 20
56.268580079995495
 11
41.138121832823089
 21
56.395531848626995
  0
LINE
  8
_0-1_EL-SL200SAIMEI
  6
CONTINUOUS
 62
    7
 10
37.920402649599801
 20
57.623191624795815
 11
37.877683465582706
 21
57.623191624795815
  0
LINE
  8
_0-1_EL-SL200SAIMEI
  6
CONTINUOUS
 62
    7
 10
40.502846225343099
 20
48.055472443159907
 11
40.376066711485905
 21
48.055472443159907
  0
LINE
  8
_0-1_EL-SL200SAIMEI
  6
CONTINUOUS
 62
    7
 10
40.672344923217373
 20
48.225143395808509
 11
40.502846225343099
 21
48.055472443159907
  0
LINE
  8
_0-1_EL-SL200SAIMEI
  6
CONTINUOUS
 62
    7
 10
40.713686069040399
 20
48.394642093682783
 11
40.672344923217373
 21
48.225143395808509
  0
LINE
  8
_0-1_EL-SL200SAIMEI
  6
CONTINUOUS
 62
    7
 10
37.877683465582706
 20
57.623191624795815
 11
38.300741191171369
 21
57.496584365712792
  0
LINE
  8
_0-1_EL-SL200SAIMEI
  6
CONTINUOUS
 62
    7
 10
37.920402649599801
 20
57.114867785947112
 11
38.259400045348379
 21
57.114867785947112
  0
LINE
  8
_0-1_EL-SL200SAIMEI
  6
CONTINUOUS
 62
    7
 10
37.497344924011088
 20
56.988260526864217
 11
37.920402649599801
 21
57.114867785947112
  0
LINE
  8
_0-1_EL-SL200SAIMEI
  6
CONTINUOUS
 62
    7
 10
40.290628343451694
 20
56.479592178467094
 11
40.376066711485905
 21
56.352812664609928
  0
LINE
  8
_0-1_EL-SL200SAIMEI
  6
CONTINUOUS
 62
    7
 10
36.819350132513883
 20
57.072148601930103
 11
36.692570618656681
 21
57.030979710881283
  0
LINE
  8
_0-1_EL-SL200SAIMEI
  6
CONTINUOUS
 62
    7
 10
37.242407858102595
 20
57.114867785947112
 11
36.819350132513883
 21
57.072148601930103
  0
LINE
  8
_0-1_EL-SL200SAIMEI
  6
CONTINUOUS
 62
    7
 10
41.941518099983384
 20
53.813260527658024
 11
41.179462978646093
 21
53.855979711674983
  0
LINE
  8
_0-1_EL-SL200SAIMEI
  6
CONTINUOUS
 62
    7
 10
35.803735983462282
 20
56.141972820912592
 11
36.226793709050867
 21
56.013815268861315
  0
LINE
  8
_0-1_EL-SL200SAIMEI
  6
CONTINUOUS
 62
    7
 10
39.148234680542778
 20
48.521593862314198
 11
40.713686069040399
 21
48.394642093682783
  0
LINE
  8
_0-1_EL-SL200SAIMEI
  6
CONTINUOUS
 62
    7
 10
36.649851434639587
 20
48.860246748514292
 11
39.148234680542778
 21
48.521593862314198
  0
LINE
  8
_0-1_EL-SL200SAIMEI
  6
CONTINUOUS
 62
    7
 10
35.337959073856467
 20
49.113978031002908
 11
36.649851434639587
 21
48.860246748514292
  0
LINE
  8
_0-1_EL-SL200SAIMEI
  6
CONTINUOUS
 62
    7
 10
34.914901348267804
 20
49.240929799634408
 11
35.337959073856467
 21
49.113978031002908
  0
LINE
  8
_0-1_EL-SL200SAIMEI
  6
CONTINUOUS
 62
    7
 10
34.872182164250688
 20
49.326195912894285
 11
34.914901348267804
 21
49.240929799634408
  0
LINE
  8
_0-1_EL-SL200SAIMEI
  6
CONTINUOUS
 62
    7
 10
37.834964281565604
 20
57.241475045030079
 11
38.259400045348379
 21
57.114867785947112
  0
LINE
  8
_0-1_EL-SL200SAIMEI
  6
CONTINUOUS
 62
    7
 10
37.454625739993993
 20
57.030979710881283
 11
37.497344924011088
 21
56.988260526864217
  0
LINE
  8
_0-1_EL-SL200SAIMEI
  6
CONTINUOUS
 62
    7
 10
40.799124437074489
 20
54.828530167161084
 11
41.561179558411801
 21
54.787189021338115
  0
LINE
  8
_0-1_EL-SL200SAIMEI
  6
CONTINUOUS
 62
    7
 10
40.799124437074489
 20
54.448191625589509
 11
40.799124437074489
 21
54.828530167161084
  0
LINE
  8
_0-1_EL-SL200SAIMEI
  6
CONTINUOUS
 62
    7
 10
40.925903950931691
 20
54.151913413857976
 11
40.799124437074489
 21
54.448191625589509
  0
LINE
  8
_0-1_EL-SL200SAIMEI
  6
CONTINUOUS
 62
    7
 10
41.179462978646093
 20
53.855979711674983
 11
40.925903950931691
 21
54.151913413857976
  0
LINE
  8
_0-1_EL-SL200SAIMEI
  6
CONTINUOUS
 62
    7
 10
38.512959073062689
 20
55.590929798046872
 11
40.417407857308895
 21
55.379917699575273
  0
LINE
  8
_0-1_EL-SL200SAIMEI
  6
CONTINUOUS
 62
    7
 10
35.634237285587986
 20
47.844977109011204
 11
36.310854038890973
 21
47.716475047411308
  0
LINE
  8
_0-1_EL-SL200SAIMEI
  6
CONTINUOUS
 62
    7
 10
35.252520705822306
 20
48.012925513917104
 11
35.634237285587986
 21
47.844977109011204
  0
LINE
  8
_0-1_EL-SL200SAIMEI
  6
CONTINUOUS
 62
    7
 10
34.956242494090787
 20
48.817527564497183
 11
35.0844000461421
 21
48.860246748514292
  0
LINE
  8
_0-1_EL-SL200SAIMEI
  6
CONTINUOUS
 62
    7
 10
38.38617955920558
 20
47.420196835679796
 11
40.417407857308895
 21
47.293589576596894
  0
LINE
  8
_0-1_EL-SL200SAIMEI
  6
CONTINUOUS
 62
    7
 10
36.439011590942286
 20
47.675306156362602
 11
38.38617955920558
 21
47.420196835679796
  0
LINE
  8
_0-1_EL-SL200SAIMEI
  6
CONTINUOUS
 62
    7
 10
37.708184767708389
 20
47.844977109011204
 11
36.310854038890973
 21
48.098191627177009
  0
LINE
  8
_0-1_EL-SL200SAIMEI
  6
CONTINUOUS
 62
    7
 10
39.232295010382884
 20
47.675306156362602
 11
37.708184767708389
 21
47.844977109011204
  0
LINE
  8
_0-1_EL-SL200SAIMEI
  6
CONTINUOUS
 62
    7
 10
40.12112964557739
 20
47.589867788328398
 11
39.232295010382884
 21
47.675306156362602
  0
LINE
  8
_0-1_EL-SL200SAIMEI
  6
CONTINUOUS
 62
    7
 10
40.840465582897494
 20
47.632586972345493
 11
40.12112964557739
 21
47.589867788328398
  0
LINE
  8
_0-1_EL-SL200SAIMEI
  6
CONTINUOUS
 62
    7
 10
39.359074524240079
 20
48.055644697934206
 11
36.353573222908068
 21
48.478530168748584
  0
LINE
  8
_0-1_EL-SL200SAIMEI
  6
CONTINUOUS
 62
    7
 10
40.799124437074489
 20
47.971584368094106
 11
39.359074524240079
 21
48.055644697934206
  0
LINE
  8
_0-1_EL-SL200SAIMEI
  6
CONTINUOUS
 62
    7
 10
40.883184766914589
 20
48.055644697934206
 11
40.799124437074489
 21
47.971584368094106
  0
LINE
  8
_0-1_EL-SL200SAIMEI
  6
CONTINUOUS
 62
    7
 10
35.0844000461421
 20
48.733639489431305
 11
34.956242494090787
 21
48.817527564497183
  0
LINE
  8
_0-1_EL-SL200SAIMEI
  6
CONTINUOUS
 62
    7
 10
36.184074525033878
 20
48.521593862314198
 11
35.0844000461421
 21
48.733639489431305
  0
LINE
  8
_0-1_EL-SL200SAIMEI
  6
CONTINUOUS
 62
    7
 10
34.998961678107889
 20
48.351922909665689
 11
34.914901348267804
 21
48.437361277699885
  0
LINE
  8
_0-1_EL-SL200SAIMEI
  6
CONTINUOUS
 62
    7
 10
36.100014195193779
 20
48.098191627177009
 11
34.998961678107889
 21
48.351922909665689
  0
LINE
  8
_0-1_EL-SL200SAIMEI
  6
CONTINUOUS
 62
    7
 10
24.838686073009093
 20
36.033639492606305
 11
26.321455169860581
 21
36.540929802809408
  0
LINE
  8
_0-1_EL-SL200SAIMEI
  6
CONTINUOUS
 62
    7
 10
23.653573226083072
 20
35.271584371269107
 11
24.838686073009093
 21
36.033639492606305
  0
LINE
  8
_0-1_EL-SL200SAIMEI
  6
CONTINUOUS
 62
    7
 10
22.68067826104858
 20
34.339858297283307
 11
23.653573226083072
 21
35.271584371269107
  0
LINE
  8
_0-1_EL-SL200SAIMEI
  6
CONTINUOUS
 62
    7
 10
22.045402653568491
 20
33.492537062686083
 11
22.68067826104858
 21
34.339858297283307
  0
LINE
  8
_0-1_EL-SL200SAIMEI
  6
CONTINUOUS
 62
    7
 10
21.326066716248402
 20
32.223191631145781
 11
22.045402653568491
 21
33.492537062686083
  0
LINE
  8
_0-1_EL-SL200SAIMEI
  6
CONTINUOUS
 62
    7
 10
20.817570622625492
 20
30.783141718311295
 11
21.326066716248402
 21
32.223191631145781
  0
LINE
  8
_0-1_EL-SL200SAIMEI
  6
CONTINUOUS
 62
    7
 10
20.564011594911079
 20
29.259203730411105
 11
20.817570622625492
 21
30.783141718311295
  0
LINE
  8
_0-1_EL-SL200SAIMEI
  6
CONTINUOUS
 62
    7
 10
20.521292410893977
 20
27.736643780704885
 11
20.564011594911079
 21
29.259203730411105
  0
LINE
  8
_0-1_EL-SL200SAIMEI
  6
CONTINUOUS
 62
    7
 10
20.648071924751182
 20
26.592527570053385
 11
20.521292410893977
 21
27.736643780704885
  0
LINE
  8
_0-1_EL-SL200SAIMEI
  6
CONTINUOUS
 62
    7
 10
20.817570622625492
 20
25.830644703490396
 11
20.648071924751182
 21
26.592527570053385
  0
LINE
  8
_0-1_EL-SL200SAIMEI
  6
CONTINUOUS
 62
    7
 10
21.283347532231289
 20
24.433141719898796
 11
20.817570622625492
 21
25.830644703490396
  0
LINE
  8
_0-1_EL-SL200SAIMEI
  6
CONTINUOUS
 62
    7
 10
21.959964285534291
 20
23.164313052681305
 11
21.283347532231289
 21
24.433141719898796
  0
LINE
  8
_0-1_EL-SL200SAIMEI
  6
CONTINUOUS
 62
    7
 10
22.384400049317101
 20
22.612925520267105
 11
21.959964285534291
 21
23.164313052681305
  0
LINE
  8
_0-1_EL-SL200SAIMEI
  6
CONTINUOUS
 62
    7
 10
23.357295014351681
 20
21.597311371215415
 11
22.384400049317101
 21
22.612925520267105
  0
LINE
  8
_0-1_EL-SL200SAIMEI
  6
CONTINUOUS
 62
    7
 10
24.162069319705981
 20
21.004927202526755
 11
23.357295014351681
 21
21.597311371215415
  0
LINE
  8
_0-1_EL-SL200SAIMEI
  6
CONTINUOUS
 62
    7
 10
25.347182166631971
 20
20.454917708306617
 11
24.162069319705981
 21
21.004927202526755
  0
LINE
  8
_0-1_EL-SL200SAIMEI
  6
CONTINUOUS
 62
    7
 10
26.23601680182637
 20
20.242527571640895
 11
25.347182166631971
 21
20.454917708306617
  0
LINE
  8
_0-1_EL-SL200SAIMEI
  6
CONTINUOUS
 62
    7
 10
24.246129649546081
 20
36.795694613943589
 11
25.389901350649072
 21
37.302812669372393
  0
LINE
  8
_0-1_EL-SL200SAIMEI
  6
CONTINUOUS
 62
    7
 10
23.40001419836879
 20
36.287198520320707
 11
24.246129649546081
 21
36.795694613943589
  0
LINE
  8
_0-1_EL-SL200SAIMEI
  6
CONTINUOUS
 62
    7
 10
22.637959077031471
 20
35.651922912840682
 11
23.40001419836879
 21
36.287198520320707
  0
LINE
  8
_0-1_EL-SL200SAIMEI
  6
CONTINUOUS
 62
    7
 10
21.706405257819892
 20
34.636308763788996
 11
22.637959077031471
 21
35.651922912840682
  0
LINE
  8
_0-1_EL-SL200SAIMEI
  6
CONTINUOUS
 62
    7
 10
20.94435013648269
 20
33.492537062686083
 11
21.706405257819892
 21
34.636308763788996
  0
LINE
  8
_0-1_EL-SL200SAIMEI
  6
CONTINUOUS
 62
    7
 10
20.22501419916248
 20
31.841475051380105
 11
20.94435013648269
 21
33.492537062686083
  0
LINE
  8
_0-1_EL-SL200SAIMEI
  6
CONTINUOUS
 62
    7
 10
19.8432976193968
 20
30.445694615531085
 11
20.22501419916248
 21
31.841475051380105
  0
LINE
  8
_0-1_EL-SL200SAIMEI
  6
CONTINUOUS
 62
    7
 10
19.6324577756995
 20
28.751913420208005
 11
19.8432976193968
 21
30.445694615531085
  0
LINE
  8
_0-1_EL-SL200SAIMEI
  6
CONTINUOUS
 62
    7
 10
19.673798921522504
 20
27.015929805190606
 11
19.6324577756995
 21
28.751913420208005
  0
LINE
  8
_0-1_EL-SL200SAIMEI
  6
CONTINUOUS
 62
    7
 10
19.928735987430969
 20
25.619977114567394
 11
19.673798921522504
 21
27.015929805190606
  0
LINE
  8
_0-1_EL-SL200SAIMEI
  6
CONTINUOUS
 62
    7
 10
20.690791108768291
 20
23.544479339478606
 11
19.928735987430969
 21
25.619977114567394
  0
LINE
  8
_0-1_EL-SL200SAIMEI
  6
CONTINUOUS
 62
    7
 10
21.197909164197092
 20
22.655644704284207
 11
20.690791108768291
 21
23.544479339478606
  0
LINE
  8
_0-1_EL-SL200SAIMEI
  6
CONTINUOUS
 62
    7
 10
21.790465587659991
 20
21.850870398929807
 11
21.197909164197092
 21
22.655644704284207
  0
LINE
  8
_0-1_EL-SL200SAIMEI
  6
CONTINUOUS
 62
    7
 10
22.722019406871571
 20
20.877975433895337
 11
21.790465587659991
 21
21.850870398929807
  0
LINE
  8
_0-1_EL-SL200SAIMEI
  6
CONTINUOUS
 62
    7
 10
23.739011594117283
 20
20.158639496575095
 11
22.722019406871571
 21
20.877975433895337
  0
LINE
  8
_0-1_EL-SL200SAIMEI
  6
CONTINUOUS
 62
    7
 10
24.585127045294691
 20
19.734203732792306
 11
23.739011594117283
 21
20.158639496575095
  0
LINE
  8
_0-1_EL-SL200SAIMEI
  6
CONTINUOUS
 62
    7
 10
26.95535273914658
 20
36.626195916069285
 11
28.30996428394679
 21
36.540929802809408
  0
LINE
  8
_0-1_EL-SL200SAIMEI
  6
CONTINUOUS
 62
    7
 10
25.727520708203581
 20
36.413978034177909
 11
26.95535273914658
 21
36.626195916069285
  0
LINE
  8
_0-1_EL-SL200SAIMEI
  6
CONTINUOUS
 62
    7
 10
24.458347531437493
 20
35.905481940555084
 11
25.727520708203581
 21
36.413978034177909
  0
LINE
  8
_0-1_EL-SL200SAIMEI
  6
CONTINUOUS
 62
    7
 10
23.23051550049448
 20
35.016475050586308
 11
24.458347531437493
 21
35.905481940555084
  0
LINE
  8
_0-1_EL-SL200SAIMEI
  6
CONTINUOUS
 62
    7
 10
22.256242497265792
 20
34.000860901534708
 11
23.23051550049448
 21
35.016475050586308
  0
LINE
  8
_0-1_EL-SL200SAIMEI
  6
CONTINUOUS
 62
    7
 10
21.410127046088501
 20
32.603530172717306
 11
22.256242497265792
 21
34.000860901534708
  0
LINE
  8
_0-1_EL-SL200SAIMEI
  6
CONTINUOUS
 62
    7
 10
20.817570622625492
 20
31.207577482094106
 11
21.410127046088501
 21
32.603530172717306
  0
LINE
  8
_0-1_EL-SL200SAIMEI
  6
CONTINUOUS
 62
    7
 10
20.478573226876883
 20
29.598201126159605
 11
20.817570622625492
 21
31.207577482094106
  0
LINE
  8
_0-1_EL-SL200SAIMEI
  6
CONTINUOUS
 62
    7
 10
20.394512897036783
 20
28.836146004822407
 11
20.478573226876883
 21
29.598201126159605
  0
LINE
  8
_0-1_EL-SL200SAIMEI
  6
CONTINUOUS
 62
    7
 10
20.394512897036783
 20
27.566972828056286
 11
20.394512897036783
 21
28.836146004822407
  0
LINE
  8
_0-1_EL-SL200SAIMEI
  6
CONTINUOUS
 62
    7
 10
20.564011594911079
 20
26.253530174304807
 11
20.394512897036783
 21
27.566972828056286
  0
LINE
  8
_0-1_EL-SL200SAIMEI
  6
CONTINUOUS
 62
    7
 10
21.029788504516894
 20
24.729592186404595
 11
20.564011594911079
 21
26.253530174304807
  0
LINE
  8
_0-1_EL-SL200SAIMEI
  6
CONTINUOUS
 62
    7
 10
21.875903955694191
 20
23.121593868664196
 11
21.029788504516894
 21
24.729592186404595
  0
LINE
  8
_0-1_EL-SL200SAIMEI
  6
CONTINUOUS
 62
    7
 10
22.552520708997303
 20
22.275306162712607
 11
21.875903955694191
 21
23.121593868664196
  0
LINE
  8
_0-1_EL-SL200SAIMEI
  6
CONTINUOUS
 62
    7
 10
23.696292410100181
 20
21.258141720692656
 11
22.552520708997303
 21
22.275306162712607
  0
LINE
  8
_0-1_EL-SL200SAIMEI
  6
CONTINUOUS
 62
    7
 10
24.797344927186092
 20
20.624244151406625
 11
23.696292410100181
 21
21.258141720692656
  0
LINE
  8
_0-1_EL-SL200SAIMEI
  6
CONTINUOUS
 62
    7
 10
26.109237287969201
 20
20.242527571640895
 11
24.797344927186092
 21
20.624244151406625
  0
LINE
  8
_0-1_EL-SL200SAIMEI
  6
CONTINUOUS
 62
    7
 10
26.914011593323583
 20
37.599263135878083
 11
25.389901350649072
 21
37.302812669372393
  0
LINE
  8
_0-1_EL-SL200SAIMEI
  6
CONTINUOUS
 62
    7
 10
27.802846228518103
 20
37.599263135878083
 11
26.914011593323583
 21
37.599263135878083
  0
LINE
  8
_0-1_EL-SL200SAIMEI
  6
CONTINUOUS
 62
    7
 10
28.47946298182109
 20
37.472311367246697
 11
27.802846228518103
 21
37.599263135878083
  0
LINE
  8
_0-1_EL-SL200SAIMEI
  6
CONTINUOUS
 62
    7
 10
27.886906558358202
 20
36.710256245909385
 11
28.268623138123793
 21
36.626195916069285
  0
LINE
  8
_0-1_EL-SL200SAIMEI
  6
CONTINUOUS
 62
    7
 10
26.914011593323583
 20
36.710256245909385
 11
27.886906558358202
 21
36.710256245909385
  0
LINE
  8
_0-1_EL-SL200SAIMEI
  6
CONTINUOUS
 62
    7
 10
26.362796315683571
 20
36.667537061892283
 11
26.914011593323583
 21
36.710256245909385
  0
LINE
  8
_0-1_EL-SL200SAIMEI
  6
CONTINUOUS
 62
    7
 10
25.68617956238058
 20
36.499244147437786
 11
26.362796315683571
 21
36.667537061892283
  0
LINE
  8
_0-1_EL-SL200SAIMEI
  6
CONTINUOUS
 62
    7
 10
25.008184770883393
 20
36.287198520320707
 11
25.68617956238058
 21
36.499244147437786
  0
LINE
  8
_0-1_EL-SL200SAIMEI
  6
CONTINUOUS
 62
    7
 10
24.03528980584878
 20
35.778530171923585
 11
25.008184770883393
 21
36.287198520320707
  0
LINE
  8
_0-1_EL-SL200SAIMEI
  6
CONTINUOUS
 62
    7
 10
23.187796316477382
 20
35.144977112186204
 11
24.03528980584878
 21
35.778530171923585
  0
LINE
  8
_0-1_EL-SL200SAIMEI
  6
CONTINUOUS
 62
    7
 10
22.12946298340859
 20
34.000860901534708
 11
23.187796316477382
 21
35.144977112186204
  0
LINE
  8
_0-1_EL-SL200SAIMEI
  6
CONTINUOUS
 62
    7
 10
21.326066716248402
 20
32.730481941348806
 11
22.12946298340859
 21
34.000860901534708
  0
LINE
  8
_0-1_EL-SL200SAIMEI
  6
CONTINUOUS
 62
    7
 10
20.690791108768291
 20
31.207577482094106
 11
21.326066716248402
 21
32.730481941348806
  0
LINE
  8
_0-1_EL-SL200SAIMEI
  6
CONTINUOUS
 62
    7
 10
20.309074529002579
 20
29.217862584588087
 11
20.690791108768291
 21
31.207577482094106
  0
LINE
  8
_0-1_EL-SL200SAIMEI
  6
CONTINUOUS
 62
    7
 10
20.267733383179582
 20
27.904592185610785
 11
20.309074529002579
 21
29.217862584588087
  0
LINE
  8
_0-1_EL-SL200SAIMEI
  6
CONTINUOUS
 62
    7
 10
20.435854042859781
 20
26.380481942936306
 11
20.267733383179582
 21
27.904592185610785
  0
LINE
  8
_0-1_EL-SL200SAIMEI
  6
CONTINUOUS
 62
    7
 10
20.94435013648269
 20
24.688251040581594
 11
20.435854042859781
 21
26.380481942936306
  0
LINE
  8
_0-1_EL-SL200SAIMEI
  6
CONTINUOUS
 62
    7
 10
21.579625743962801
 20
23.374808386830086
 11
20.94435013648269
 21
24.688251040581594
  0
LINE
  8
_0-1_EL-SL200SAIMEI
  6
CONTINUOUS
 62
    7
 10
21.959964285534291
 20
22.782596472915596
 11
21.579625743962801
 21
23.374808386830086
  0
LINE
  8
_0-1_EL-SL200SAIMEI
  6
CONTINUOUS
 62
    7
 10
22.51117956317427
 20
22.147148610661297
 11
21.959964285534291
 21
22.782596472915596
  0
LINE
  8
_0-1_EL-SL200SAIMEI
  6
CONTINUOUS
 62
    7
 10
23.865791107974591
 20
21.004927202526755
 11
22.51117956317427
 21
22.147148610661297
  0
LINE
  8
_0-1_EL-SL200SAIMEI
  6
CONTINUOUS
 62
    7
 10
24.838686073009093
 20
20.496258854129614
 11
23.865791107974591
 21
21.004927202526755
  0
LINE
  8
_0-1_EL-SL200SAIMEI
  6
CONTINUOUS
 62
    7
 10
26.023798919935
 20
20.158639496575095
 11
24.838686073009093
 21
20.496258854129614
  0
LINE
  8
_0-1_EL-SL200SAIMEI
  6
CONTINUOUS
 62
    7
 10
24.627846229311793
 20
19.862189030069306
 11
25.939738590094901
 21
19.480644705077896
  0
LINE
  8
_0-1_EL-SL200SAIMEI
  6
CONTINUOUS
 62
    7
 10
23.865791107974591
 20
20.242527571640895
 11
24.627846229311793
 21
19.862189030069306
  0
LINE
  8
_0-1_EL-SL200SAIMEI
  6
CONTINUOUS
 62
    7
 10
23.23051550049448
 20
20.665929806778134
 11
23.865791107974591
 21
20.242527571640895
  0
LINE
  8
_0-1_EL-SL200SAIMEI
  6
CONTINUOUS
 62
    7
 10
22.12946298340859
 20
21.639858300458336
 11
23.23051550049448
 21
20.665929806778134
  0
LINE
  8
_0-1_EL-SL200SAIMEI
  6
CONTINUOUS
 62
    7
 10
21.326066716248402
 20
22.655644704284207
 11
22.12946298340859
 21
21.639858300458336
  0
LINE
  8
_0-1_EL-SL200SAIMEI
  6
CONTINUOUS
 62
    7
 10
20.564011594911079
 20
24.052975433101487
 11
21.326066716248402
 21
22.655644704284207
  0
LINE
  8
_0-1_EL-SL200SAIMEI
  6
CONTINUOUS
 62
    7
 10
19.928735987430969
 20
26.084203731204806
 11
20.564011594911079
 21
24.052975433101487
  0
LINE
  8
_0-1_EL-SL200SAIMEI
  6
CONTINUOUS
 62
    7
 10
19.716518105539599
 20
27.904592185610785
 11
19.928735987430969
 21
26.084203731204806
  0
LINE
  8
_0-1_EL-SL200SAIMEI
  6
CONTINUOUS
 62
    7
 10
19.801956473573767
 20
29.810246753276797
 11
19.716518105539599
 21
27.904592185610785
  0
LINE
  8
_0-1_EL-SL200SAIMEI
  6
CONTINUOUS
 62
    7
 10
20.182295015145385
 20
31.461308764582807
 11
19.801956473573767
 21
29.810246753276797
  0
LINE
  8
_0-1_EL-SL200SAIMEI
  6
CONTINUOUS
 62
    7
 10
20.817570622625492
 20
33.028310446048593
 11
20.182295015145385
 21
31.461308764582807
  0
LINE
  8
_0-1_EL-SL200SAIMEI
  6
CONTINUOUS
 62
    7
 10
21.706405257819892
 20
34.424263136671883
 11
20.817570622625492
 21
33.028310446048593
  0
LINE
  8
_0-1_EL-SL200SAIMEI
  6
CONTINUOUS
 62
    7
 10
22.552520708997303
 20
35.398191630352002
 11
21.706405257819892
 21
34.424263136671883
  0
LINE
  8
_0-1_EL-SL200SAIMEI
  6
CONTINUOUS
 62
    7
 10
23.78035273994028
 20
36.371258850160807
 11
22.552520708997303
 21
35.398191630352002
  0
LINE
  8
_0-1_EL-SL200SAIMEI
  6
CONTINUOUS
 62
    7
 10
25.134964284740601
 20
37.049253641657998
 11
23.78035273994028
 21
36.371258850160807
  0
LINE
  8
_0-1_EL-SL200SAIMEI
  6
CONTINUOUS
 62
    7
 10
26.151956471986271
 20
37.302812669372393
 11
25.134964284740601
 21
37.049253641657998
  0
LINE
  8
_0-1_EL-SL200SAIMEI
  6
CONTINUOUS
 62
    7
 10
27.29435013489519
 20
37.429592183229595
 11
26.151956471986271
 21
37.302812669372393
  0
LINE
  8
_0-1_EL-SL200SAIMEI
  6
CONTINUOUS
 62
    7
 10
28.352683467963892
 20
37.302812669372393
 11
27.29435013489519
 21
37.429592183229595
  0
LINE
  8
_0-1_EL-SL200SAIMEI
  6
CONTINUOUS
 62
    7
 10
23.94985143781458
 20
21.131534461609636
 11
25.347182166631971
 21
20.454917708306617
  0
LINE
  8
_0-1_EL-SL200SAIMEI
  6
CONTINUOUS
 62
    7
 10
22.976956472780081
 20
21.936308766964014
 11
23.94985143781458
 21
21.131534461609636
  0
LINE
  8
_0-1_EL-SL200SAIMEI
  6
CONTINUOUS
 62
    7
 10
21.918623139711293
 20
23.248201127747105
 11
22.976956472780081
 21
21.936308766964014
  0
LINE
  8
_0-1_EL-SL200SAIMEI
  6
CONTINUOUS
 62
    7
 10
21.410127046088501
 20
24.136863508167284
 11
21.918623139711293
 21
23.248201127747105
  0
LINE
  8
_0-1_EL-SL200SAIMEI
  6
CONTINUOUS
 62
    7
 10
20.901630952465592
 20
25.450306161918796
 11
21.410127046088501
 21
24.136863508167284
  0
LINE
  8
_0-1_EL-SL200SAIMEI
  6
CONTINUOUS
 62
    7
 10
20.605352740734084
 20
26.846258852542086
 11
20.901630952465592
 21
25.450306161918796
  0
LINE
  8
_0-1_EL-SL200SAIMEI
  6
CONTINUOUS
 62
    7
 10
20.521292410893977
 20
28.666475052173805
 11
20.605352740734084
 21
26.846258852542086
  0
LINE
  8
_0-1_EL-SL200SAIMEI
  6
CONTINUOUS
 62
    7
 10
20.564011594911079
 20
29.387361282462386
 11
20.521292410893977
 21
28.666475052173805
  0
LINE
  8
_0-1_EL-SL200SAIMEI
  6
CONTINUOUS
 62
    7
 10
20.94435013648269
 20
31.164858298076997
 11
20.564011594911079
 21
29.387361282462386
  0
LINE
  8
_0-1_EL-SL200SAIMEI
  6
CONTINUOUS
 62
    7
 10
21.4528462301056
 20
32.476922913634404
 11
20.94435013648269
 21
31.164858298076997
  0
LINE
  8
_0-1_EL-SL200SAIMEI
  6
CONTINUOUS
 62
    7
 10
22.595239893014373
 20
34.254592184023288
 11
21.4528462301056
 21
32.476922913634404
  0
LINE
  8
_0-1_EL-SL200SAIMEI
  6
CONTINUOUS
 62
    7
 10
23.569512896242973
 20
35.186146003234903
 11
22.595239893014373
 21
34.254592184023288
  0
LINE
  8
_0-1_EL-SL200SAIMEI
  6
CONTINUOUS
 62
    7
 10
24.585127045294691
 20
35.905481940555084
 11
23.569512896242973
 21
35.186146003234903
  0
LINE
  8
_0-1_EL-SL200SAIMEI
  6
CONTINUOUS
 62
    7
 10
25.473961680489172
 20
36.287198520320707
 11
24.585127045294691
 21
35.905481940555084
  0
LINE
  8
_0-1_EL-SL200SAIMEI
  6
CONTINUOUS
 62
    7
 10
26.321455169860581
 20
36.540929802809408
 11
25.473961680489172
 21
36.287198520320707
  0
LINE
  8
_0-1_EL-SL200SAIMEI
  6
CONTINUOUS
 62
    7
 10
27.082132253003781
 20
20.158639496575095
 11
26.109237287969201
 21
20.242527571640895
  0
LINE
  8
_0-1_EL-SL200SAIMEI
  6
CONTINUOUS
 62
    7
 10
27.760127044501001
 20
20.199808387623797
 11
27.082132253003781
 21
20.158639496575095
  0
LINE
  8
_0-1_EL-SL200SAIMEI
  6
CONTINUOUS
 62
    7
 10
28.734400047729601
 20
20.412198524289504
 11
27.760127044501001
 21
20.199808387623797
  0
LINE
  8
_0-1_EL-SL200SAIMEI
  6
CONTINUOUS
 62
    7
 10
30.046292408512681
 20
20.961863508961134
 11
28.734400047729601
 21
20.412198524289504
  0
LINE
  8
_0-1_EL-SL200SAIMEI
  6
CONTINUOUS
 62
    7
 10
31.231405255438691
 20
21.850870398929807
 11
30.046292408512681
 21
20.961863508961134
  0
LINE
  8
_0-1_EL-SL200SAIMEI
  6
CONTINUOUS
 62
    7
 10
32.628735984255968
 20
33.451195916863092
 11
31.781242494884573
 21
34.550870395754792
  0
LINE
  8
_0-1_EL-SL200SAIMEI
  6
CONTINUOUS
 62
    7
 10
33.390791105593294
 20
31.884194235397185
 11
32.628735984255968
 21
33.451195916863092
  0
LINE
  8
_0-1_EL-SL200SAIMEI
  6
CONTINUOUS
 62
    7
 10
33.813848831181993
 20
30.445694615531085
 11
33.390791105593294
 21
31.884194235397185
  0
LINE
  8
_0-1_EL-SL200SAIMEI
  6
CONTINUOUS
 62
    7
 10
33.940628345039187
 20
29.598201126159605
 11
33.813848831181993
 21
30.445694615531085
  0
LINE
  8
_0-1_EL-SL200SAIMEI
  6
CONTINUOUS
 62
    7
 10
33.983347529056289
 20
28.286308765376496
 11
33.940628345039187
 21
29.598201126159605
  0
LINE
  8
_0-1_EL-SL200SAIMEI
  6
CONTINUOUS
 62
    7
 10
33.856568015199088
 20
26.931524965801994
 11
33.983347529056289
 21
28.286308765376496
  0
LINE
  8
_0-1_EL-SL200SAIMEI
  6
CONTINUOUS
 62
    7
 10
33.687069317324791
 20
26.084203731204806
 11
33.856568015199088
 21
26.931524965801994
  0
LINE
  8
_0-1_EL-SL200SAIMEI
  6
CONTINUOUS
 62
    7
 10
33.178573223701882
 20
24.602812672547394
 11
33.687069317324791
 21
26.084203731204806
  0
LINE
  8
_0-1_EL-SL200SAIMEI
  6
CONTINUOUS
 62
    7
 10
32.332457772524506
 20
23.121593868664196
 11
33.178573223701882
 21
24.602812672547394
  0
LINE
  8
_0-1_EL-SL200SAIMEI
  6
CONTINUOUS
 62
    7
 10
31.823961678901671
 20
22.444977115361205
 11
32.332457772524506
 21
23.121593868664196
  0
LINE
  8
_0-1_EL-SL200SAIMEI
  6
CONTINUOUS
 62
    7
 10
31.231405255438691
 20
21.850870398929807
 11
31.823961678901671
 21
22.444977115361205
  0
LINE
  8
_0-1_EL-SL200SAIMEI
  6
CONTINUOUS
 62
    7
 10
31.358184769295892
 20
35.016475050586308
 11
31.781242494884573
 21
34.550870395754792
  0
LINE
  8
_0-1_EL-SL200SAIMEI
  6
CONTINUOUS
 62
    7
 10
30.55478850213559
 20
35.651922912840682
 11
31.358184769295892
 21
35.016475050586308
  0
LINE
  8
_0-1_EL-SL200SAIMEI
  6
CONTINUOUS
 62
    7
 10
29.496455169066881
 20
36.203310445254907
 11
30.55478850213559
 21
35.651922912840682
  0
LINE
  8
_0-1_EL-SL200SAIMEI
  6
CONTINUOUS
 62
    7
 10
28.30996428394679
 20
36.540929802809408
 11
29.496455169066881
 21
36.203310445254907
  0
LINE
  8
_0-1_EL-SL200SAIMEI
  6
CONTINUOUS
 62
    7
 10
28.945239891426901
 20
19.692862586969305
 11
29.876793710638371
 21
20.073201128540905
  0
LINE
  8
_0-1_EL-SL200SAIMEI
  6
CONTINUOUS
 62
    7
 10
28.056405256232392
 20
19.480644705077896
 11
28.945239891426901
 21
19.692862586969305
  0
LINE
  8
_0-1_EL-SL200SAIMEI
  6
CONTINUOUS
 62
    7
 10
26.78585404127228
 20
19.396584375237804
 11
28.056405256232392
 21
19.480644705077896
  0
LINE
  8
_0-1_EL-SL200SAIMEI
  6
CONTINUOUS
 62
    7
 10
25.939738590094901
 20
19.480644705077896
 11
26.78585404127228
 21
19.396584375237804
  0
LINE
  8
_0-1_EL-SL200SAIMEI
  6
CONTINUOUS
 62
    7
 10
29.03067825946108
 20
37.175860900740894
 11
28.352683467963892
 21
37.302812669372393
  0
LINE
  8
_0-1_EL-SL200SAIMEI
  6
CONTINUOUS
 62
    7
 10
29.58051549890698
 20
36.963815273623787
 11
29.03067825946108
 21
37.175860900740894
  0
LINE
  8
_0-1_EL-SL200SAIMEI
  6
CONTINUOUS
 62
    7
 10
30.851066713867091
 20
36.287198520320707
 11
29.58051549890698
 21
36.963815273623787
  0
LINE
  8
_0-1_EL-SL200SAIMEI
  6
CONTINUOUS
 62
    7
 10
27.37978850292939
 20
20.073201128540905
 11
26.023798919935
 21
20.158639496575095
  0
LINE
  8
_0-1_EL-SL200SAIMEI
  6
CONTINUOUS
 62
    7
 10
28.056405256232392
 20
20.158639496575095
 11
27.37978850292939
 21
20.073201128540905
  0
LINE
  8
_0-1_EL-SL200SAIMEI
  6
CONTINUOUS
 62
    7
 10
29.03067825946108
 20
20.412198524289504
 11
28.056405256232392
 21
20.158639496575095
  0
LINE
  8
_0-1_EL-SL200SAIMEI
  6
CONTINUOUS
 62
    7
 10
30.003573224495572
 20
20.877975433895337
 11
29.03067825946108
 21
20.412198524289504
  0
LINE
  8
_0-1_EL-SL200SAIMEI
  6
CONTINUOUS
 62
    7
 10
31.10462574158149
 20
21.639858300458336
 11
30.003573224495572
 21
20.877975433895337
  0
LINE
  8
_0-1_EL-SL200SAIMEI
  6
CONTINUOUS
 62
    7
 10
31.909400046935883
 20
22.486146006409907
 11
31.10462574158149
 21
21.639858300458336
  0
LINE
  8
_0-1_EL-SL200SAIMEI
  6
CONTINUOUS
 62
    7
 10
32.628735984255968
 20
23.460246754864297
 11
31.909400046935883
 21
22.486146006409907
  0
LINE
  8
_0-1_EL-SL200SAIMEI
  6
CONTINUOUS
 62
    7
 10
32.967733380004582
 20
24.052975433101487
 11
32.628735984255968
 21
23.460246754864297
  0
LINE
  8
_0-1_EL-SL200SAIMEI
  6
CONTINUOUS
 62
    7
 10
33.687069317324791
 20
25.957596472121896
 11
32.967733380004582
 21
24.052975433101487
  0
LINE
  8
_0-1_EL-SL200SAIMEI
  6
CONTINUOUS
 62
    7
 10
33.940628345039187
 20
27.185256248290695
 11
33.687069317324791
 21
25.957596472121896
  0
LINE
  8
_0-1_EL-SL200SAIMEI
  6
CONTINUOUS
 62
    7
 10
34.026066713073405
 20
28.878865188839505
 11
33.940628345039187
 21
27.185256248290695
  0
LINE
  8
_0-1_EL-SL200SAIMEI
  6
CONTINUOUS
 62
    7
 10
33.813848831181993
 20
30.572646384162585
 11
34.026066713073405
 21
28.878865188839505
  0
LINE
  8
_0-1_EL-SL200SAIMEI
  6
CONTINUOUS
 62
    7
 10
33.644350133307697
 20
31.291982321482685
 11
33.813848831181993
 21
30.572646384162585
  0
LINE
  8
_0-1_EL-SL200SAIMEI
  6
CONTINUOUS
 62
    7
 10
33.221292407718977
 20
32.434203729617309
 11
33.644350133307697
 21
31.291982321482685
  0
LINE
  8
_0-1_EL-SL200SAIMEI
  6
CONTINUOUS
 62
    7
 10
32.755515498113169
 20
33.365929803603109
 11
33.221292407718977
 21
32.434203729617309
  0
LINE
  8
_0-1_EL-SL200SAIMEI
  6
CONTINUOUS
 62
    7
 10
32.332457772524506
 20
34.000860901534708
 11
32.755515498113169
 21
33.365929803603109
  0
LINE
  8
_0-1_EL-SL200SAIMEI
  6
CONTINUOUS
 62
    7
 10
31.570402651187301
 20
34.889867791503399
 11
32.332457772524506
 21
34.000860901534708
  0
LINE
  8
_0-1_EL-SL200SAIMEI
  6
CONTINUOUS
 62
    7
 10
30.722909161815782
 20
35.609203728823609
 11
31.570402651187301
 21
34.889867791503399
  0
LINE
  8
_0-1_EL-SL200SAIMEI
  6
CONTINUOUS
 62
    7
 10
29.198798919141272
 20
36.413978034177909
 11
30.722909161815782
 21
35.609203728823609
  0
LINE
  8
_0-1_EL-SL200SAIMEI
  6
CONTINUOUS
 62
    7
 10
28.268623138123793
 20
36.626195916069285
 11
29.198798919141272
 21
36.413978034177909
  0
LINE
  8
_0-1_EL-SL200SAIMEI
  6
CONTINUOUS
 62
    7
 10
27.97234492639237
 20
31.164858298076997
 11
27.676066714660902
 21
31.207577482094106
  0
LINE
  8
_0-1_EL-SL200SAIMEI
  6
CONTINUOUS
 62
    7
 10
28.691680863712502
 20
30.783141718311295
 11
27.97234492639237
 21
31.164858298076997
  0
LINE
  8
_0-1_EL-SL200SAIMEI
  6
CONTINUOUS
 62
    7
 10
29.157457773318281
 20
30.276195917656786
 11
28.691680863712502
 21
30.783141718311295
  0
LINE
  8
_0-1_EL-SL200SAIMEI
  6
CONTINUOUS
 62
    7
 10
29.537796314889881
 20
29.514313051093804
 11
29.157457773318281
 21
30.276195917656786
  0
LINE
  8
_0-1_EL-SL200SAIMEI
  6
CONTINUOUS
 62
    7
 10
29.664575828747083
 20
29.005644702696706
 11
29.537796314889881
 21
29.514313051093804
  0
LINE
  8
_0-1_EL-SL200SAIMEI
  6
CONTINUOUS
 62
    7
 10
29.664575828747083
 20
27.989858298870807
 11
29.664575828747083
 21
29.005644702696706
  0
LINE
  8
_0-1_EL-SL200SAIMEI
  6
CONTINUOUS
 62
    7
 10
29.41101680103268
 20
27.058476734433494
 11
29.664575828747083
 21
27.989858298870807
  0
LINE
  8
_0-1_EL-SL200SAIMEI
  6
CONTINUOUS
 62
    7
 10
28.945239891426901
 20
26.339313051887604
 11
29.41101680103268
 21
27.058476734433494
  0
LINE
  8
_0-1_EL-SL200SAIMEI
  6
CONTINUOUS
 62
    7
 10
28.522182165838192
 20
25.957596472121896
 11
28.945239891426901
 21
26.339313051887604
  0
LINE
  8
_0-1_EL-SL200SAIMEI
  6
CONTINUOUS
 62
    7
 10
28.09912444024949
 20
25.703865189633195
 11
28.522182165838192
 21
25.957596472121896
  0
LINE
  8
_0-1_EL-SL200SAIMEI
  6
CONTINUOUS
 62
    7
 10
27.421129648752391
 20
25.576913421001784
 11
28.09912444024949
 21
25.703865189633195
  0
LINE
  8
_0-1_EL-SL200SAIMEI
  6
CONTINUOUS
 62
    7
 10
26.362796315683571
 20
27.777812671753587
 11
26.362796315683571
 21
28.709194236190907
  0
LINE
  8
_0-1_EL-SL200SAIMEI
  6
CONTINUOUS
 62
    7
 10
26.532295013557881
 20
27.142537064273586
 11
26.362796315683571
 21
27.777812671753587
  0
LINE
  8
_0-1_EL-SL200SAIMEI
  6
CONTINUOUS
 62
    7
 10
26.78585404127228
 20
26.635246754070486
 11
26.532295013557881
 21
27.142537064273586
  0
LINE
  8
_0-1_EL-SL200SAIMEI
  6
CONTINUOUS
 62
    7
 10
27.167570621037992
 20
26.212189028481806
 11
26.78585404127228
 21
26.635246754070486
  0
LINE
  8
_0-1_EL-SL200SAIMEI
  6
CONTINUOUS
 62
    7
 10
27.676066714660902
 20
25.873191632733285
 11
27.167570621037992
 21
26.212189028481806
  0
LINE
  8
_0-1_EL-SL200SAIMEI
  6
CONTINUOUS
 62
    7
 10
28.140465586072491
 20
25.746584373650297
 11
27.676066714660902
 21
25.873191632733285
  0
LINE
  8
_0-1_EL-SL200SAIMEI
  6
CONTINUOUS
 62
    7
 10
26.998071923163682
 20
25.576913421001784
 11
27.421129648752391
 21
25.576913421001784
  0
LINE
  8
_0-1_EL-SL200SAIMEI
  6
CONTINUOUS
 62
    7
 10
26.448234683717782
 20
25.746584373650297
 11
26.998071923163682
 21
25.576913421001784
  0
LINE
  8
_0-1_EL-SL200SAIMEI
  6
CONTINUOUS
 62
    7
 10
25.643460378363482
 20
26.380481942936306
 11
26.448234683717782
 21
25.746584373650297
  0
LINE
  8
_0-1_EL-SL200SAIMEI
  6
CONTINUOUS
 62
    7
 10
25.304462982614901
 20
26.974244149819096
 11
25.643460378363482
 21
26.380481942936306
  0
LINE
  8
_0-1_EL-SL200SAIMEI
  6
CONTINUOUS
 62
    7
 10
25.0936231389176
 20
27.566972828056286
 11
25.304462982614901
 21
26.974244149819096
  0
LINE
  8
_0-1_EL-SL200SAIMEI
  6
CONTINUOUS
 62
    7
 10
25.008184770883393
 20
28.074263138259386
 11
25.0936231389176
 21
27.566972828056286
  0
LINE
  8
_0-1_EL-SL200SAIMEI
  6
CONTINUOUS
 62
    7
 10
25.050903954900502
 20
28.794977113773705
 11
25.008184770883393
 21
28.074263138259386
  0
LINE
  8
_0-1_EL-SL200SAIMEI
  6
CONTINUOUS
 62
    7
 10
27.421129648752391
 20
30.783141718311295
 11
28.183184770089593
 21
31.038251038994094
  0
LINE
  8
_0-1_EL-SL200SAIMEI
  6
CONTINUOUS
 62
    7
 10
26.914011593323583
 20
30.317537063479786
 11
27.421129648752391
 21
30.783141718311295
  0
LINE
  8
_0-1_EL-SL200SAIMEI
  6
CONTINUOUS
 62
    7
 10
26.40551549970068
 20
29.514313051093804
 11
26.914011593323583
 21
30.317537063479786
  0
LINE
  8
_0-1_EL-SL200SAIMEI
  6
CONTINUOUS
 62
    7
 10
26.23601680182637
 20
28.751913420208005
 11
26.40551549970068
 21
29.514313051093804
  0
LINE
  8
_0-1_EL-SL200SAIMEI
  6
CONTINUOUS
 62
    7
 10
25.134964284740601
 20
29.301922914428186
 11
25.050903954900502
 21
28.794977113773705
  0
LINE
  8
_0-1_EL-SL200SAIMEI
  6
CONTINUOUS
 62
    7
 10
25.347182166631971
 20
29.810246753276797
 11
25.134964284740601
 21
29.301922914428186
  0
LINE
  8
_0-1_EL-SL200SAIMEI
  6
CONTINUOUS
 62
    7
 10
25.727520708203581
 20
30.402975431513987
 11
25.347182166631971
 21
29.810246753276797
  0
LINE
  8
_0-1_EL-SL200SAIMEI
  6
CONTINUOUS
 62
    7
 10
26.023798919935
 20
30.699253643245495
 11
25.727520708203581
 21
30.402975431513987
  0
LINE
  8
_0-1_EL-SL200SAIMEI
  6
CONTINUOUS
 62
    7
 10
26.532295013557881
 20
31.038251038994094
 11
26.023798919935
 21
30.699253643245495
  0
LINE
  8
_0-1_EL-SL200SAIMEI
  6
CONTINUOUS
 62
    7
 10
26.871292409306481
 20
31.164858298076997
 11
26.532295013557881
 21
31.038251038994094
  0
LINE
  8
_0-1_EL-SL200SAIMEI
  6
CONTINUOUS
 62
    7
 10
27.676066714660902
 20
31.207577482094106
 11
26.871292409306481
 21
31.164858298076997
  0
LINE
  8
_0-1_EL-SL200SAIMEI
  6
CONTINUOUS
 62
    7
 10
26.23601680182637
 20
27.736643780704885
 11
26.23601680182637
 21
28.751913420208005
  0
LINE
  8
_0-1_EL-SL200SAIMEI
  6
CONTINUOUS
 62
    7
 10
26.40551549970068
 20
27.101195918450596
 11
26.23601680182637
 21
27.736643780704885
  0
LINE
  8
_0-1_EL-SL200SAIMEI
  6
CONTINUOUS
 62
    7
 10
26.617733381592082
 20
26.678310447636097
 11
26.40551549970068
 21
27.101195918450596
  0
LINE
  8
_0-1_EL-SL200SAIMEI
  6
CONTINUOUS
 62
    7
 10
26.871292409306481
 20
26.339313051887604
 11
26.617733381592082
 21
26.678310447636097
  0
LINE
  8
_0-1_EL-SL200SAIMEI
  6
CONTINUOUS
 62
    7
 10
27.421129648752391
 20
25.873191632733285
 11
26.871292409306481
 21
26.339313051887604
  0
LINE
  8
_0-1_EL-SL200SAIMEI
  6
CONTINUOUS
 62
    7
 10
27.9296257423753
 20
25.703865189633195
 11
27.421129648752391
 21
25.873191632733285
  0
LINE
  8
_0-1_EL-SL200SAIMEI
  6
CONTINUOUS
 62
    7
 10
27.802846228518103
 20
30.825860902328394
 11
28.395402651980991
 21
30.952812670959897
  0
LINE
  8
_0-1_EL-SL200SAIMEI
  6
CONTINUOUS
 62
    7
 10
27.29435013489519
 20
30.529927200145487
 11
27.802846228518103
 21
30.825860902328394
  0
LINE
  8
_0-1_EL-SL200SAIMEI
  6
CONTINUOUS
 62
    7
 10
27.040791107180791
 20
30.276195917656786
 11
27.29435013489519
 21
30.529927200145487
  0
LINE
  8
_0-1_EL-SL200SAIMEI
  6
CONTINUOUS
 62
    7
 10
26.659074527415083
 20
29.767527569259695
 11
27.040791107180791
 21
30.276195917656786
  0
LINE
  8
_0-1_EL-SL200SAIMEI
  6
CONTINUOUS
 62
    7
 10
26.40551549970068
 20
29.090910815956587
 11
26.659074527415083
 21
29.767527569259695
  0
LINE
  8
_0-1_EL-SL200SAIMEI
  6
CONTINUOUS
 62
    7
 10
26.362796315683571
 20
28.751913420208005
 11
26.40551549970068
 21
29.090910815956587
  0
LINE
  8
_0-1_EL-SL200SAIMEI
  6
CONTINUOUS
 62
    7
 10
23.484074528208883
 20
19.100306163506296
 11
25.008184770883393
 21
18.675870399723486
  0
LINE
  8
_0-1_EL-SL200SAIMEI
  6
CONTINUOUS
 62
    7
 10
22.12946298340859
 20
19.862361284843605
 11
23.484074528208883
 21
19.100306163506296
  0
LINE
  8
_0-1_EL-SL200SAIMEI
  6
CONTINUOUS
 62
    7
 10
20.774851438608394
 20
21.088815277592566
 11
22.12946298340859
 21
19.862361284843605
  0
LINE
  8
_0-1_EL-SL200SAIMEI
  6
CONTINUOUS
 62
    7
 10
19.759237289556701
 20
22.444977115361205
 11
20.774851438608394
 21
21.088815277592566
  0
LINE
  8
_0-1_EL-SL200SAIMEI
  6
CONTINUOUS
 62
    7
 10
18.913121838379368
 20
24.136863508167284
 11
19.759237289556701
 21
22.444977115361205
  0
LINE
  8
_0-1_EL-SL200SAIMEI
  6
CONTINUOUS
 62
    7
 10
18.404625744756494
 20
25.830644703490396
 11
18.913121838379368
 21
24.136863508167284
  0
LINE
  8
_0-1_EL-SL200SAIMEI
  6
CONTINUOUS
 62
    7
 10
18.151066717042092
 20
28.329027949393595
 11
18.404625744756494
 21
25.830644703490396
  0
LINE
  8
_0-1_EL-SL200SAIMEI
  6
CONTINUOUS
 62
    7
 10
18.277846230899293
 20
29.853310446842407
 11
18.151066717042092
 21
28.329027949393595
  0
LINE
  8
_0-1_EL-SL200SAIMEI
  6
CONTINUOUS
 62
    7
 10
18.404625744756494
 20
30.741972827262597
 11
18.277846230899293
 21
29.853310446842407
  0
LINE
  8
_0-1_EL-SL200SAIMEI
  6
CONTINUOUS
 62
    7
 10
18.658184772470889
 20
31.714867792297206
 11
18.404625744756494
 21
30.741972827262597
  0
LINE
  8
_0-1_EL-SL200SAIMEI
  6
CONTINUOUS
 62
    7
 10
19.377520709791085
 20
33.492537062686083
 11
18.658184772470889
 21
31.714867792297206
  0
LINE
  8
_0-1_EL-SL200SAIMEI
  6
CONTINUOUS
 62
    7
 10
20.055515501288184
 20
34.636308763788996
 11
19.377520709791085
 21
33.492537062686083
  0
LINE
  8
_0-1_EL-SL200SAIMEI
  6
CONTINUOUS
 62
    7
 10
21.197909164197092
 20
36.033639492606305
 11
20.055515501288184
 21
34.636308763788996
  0
LINE
  8
_0-1_EL-SL200SAIMEI
  6
CONTINUOUS
 62
    7
 10
22.214901351442801
 20
36.879927198557986
 11
21.197909164197092
 21
36.033639492606305
  0
LINE
  8
_0-1_EL-SL200SAIMEI
  6
CONTINUOUS
 62
    7
 10
22.848798920728772
 20
37.302812669372393
 11
22.214901351442801
 21
36.879927198557986
  0
LINE
  8
_0-1_EL-SL200SAIMEI
  6
CONTINUOUS
 62
    7
 10
24.458347531437493
 20
38.022148606692603
 11
22.848798920728772
 21
37.302812669372393
  0
LINE
  8
_0-1_EL-SL200SAIMEI
  6
CONTINUOUS
 62
    7
 10
25.939738590094901
 20
38.319977111392397
 11
24.458347531437493
 21
38.022148606692603
  0
LINE
  8
_0-1_EL-SL200SAIMEI
  6
CONTINUOUS
 62
    7
 10
27.082132253003781
 20
38.319977111392397
 11
25.939738590094901
 21
38.319977111392397
  0
LINE
  8
_0-1_EL-SL200SAIMEI
  6
CONTINUOUS
 62
    7
 10
27.547909162609592
 20
38.234194233809689
 11
27.082132253003781
 21
38.319977111392397
  0
LINE
  8
_0-1_EL-SL200SAIMEI
  6
CONTINUOUS
 62
    7
 10
26.448234683717782
 20
19.057586979489304
 11
26.489575829540772
 21
19.057586979489304
  0
LINE
  8
_0-1_EL-SL200SAIMEI
  6
CONTINUOUS
 62
    7
 10
31.739901349061572
 20
21.639858300458336
 11
32.4592372863817
 21
22.612925520267105
  0
LINE
  8
_0-1_EL-SL200SAIMEI
  6
CONTINUOUS
 62
    7
 10
30.93512704370719
 20
20.835256249878235
 11
31.739901349061572
 21
21.639858300458336
  0
LINE
  8
_0-1_EL-SL200SAIMEI
  6
CONTINUOUS
 62
    7
 10
29.876793710638371
 20
20.073201128540905
 11
30.93512704370719
 21
20.835256249878235
  0
LINE
  8
_0-1_EL-SL200SAIMEI
  6
CONTINUOUS
 62
    7
 10
29.284237287175483
 20
19.734203732792306
 11
29.876793710638371
 21
20.073201128540905
  0
LINE
  8
_0-1_EL-SL200SAIMEI
  6
CONTINUOUS
 62
    7
 10
29.07201940528407
 20
19.692862586969305
 11
29.284237287175483
 21
19.734203732792306
  0
LINE
  8
_0-1_EL-SL200SAIMEI
  6
CONTINUOUS
 62
    7
 10
29.03067825946108
 20
19.607596473709396
 11
29.07201940528407
 21
19.692862586969305
  0
LINE
  8
_0-1_EL-SL200SAIMEI
  6
CONTINUOUS
 62
    7
 10
28.30996428394679
 20
19.353865191220695
 11
29.03067825946108
 21
19.607596473709396
  0
LINE
  8
_0-1_EL-SL200SAIMEI
  6
CONTINUOUS
 62
    7
 10
27.210289805055091
 20
19.100306163506296
 11
28.30996428394679
 21
19.353865191220695
  0
LINE
  8
_0-1_EL-SL200SAIMEI
  6
CONTINUOUS
 62
    7
 10
26.659074527415083
 20
19.057586979489304
 11
27.210289805055091
 21
19.100306163506296
  0
LINE
  8
_0-1_EL-SL200SAIMEI
  6
CONTINUOUS
 62
    7
 10
24.838686073009093
 20
19.226913422589284
 11
25.600741194346373
 21
19.100306163506296
  0
LINE
  8
_0-1_EL-SL200SAIMEI
  6
CONTINUOUS
 62
    7
 10
23.823071923957382
 20
19.565910818337887
 11
24.838686073009093
 21
19.226913422589284
  0
LINE
  8
_0-1_EL-SL200SAIMEI
  6
CONTINUOUS
 62
    7
 10
22.722019406871571
 20
20.158639496575095
 11
23.823071923957382
 21
19.565910818337887
  0
LINE
  8
_0-1_EL-SL200SAIMEI
  6
CONTINUOUS
 62
    7
 10
21.833184771677089
 20
20.835256249878235
 11
22.722019406871571
 21
20.158639496575095
  0
LINE
  8
_0-1_EL-SL200SAIMEI
  6
CONTINUOUS
 62
    7
 10
20.732132254591281
 20
22.063260535595496
 11
21.833184771677089
 21
20.835256249878235
  0
LINE
  8
_0-1_EL-SL200SAIMEI
  6
CONTINUOUS
 62
    7
 10
19.716518105539599
 20
23.799244150612786
 11
20.732132254591281
 21
22.063260535595496
  0
LINE
  8
_0-1_EL-SL200SAIMEI
  6
CONTINUOUS
 62
    7
 10
19.123961682076668
 20
25.491475052967605
 11
19.716518105539599
 21
23.799244150612786
  0
LINE
  8
_0-1_EL-SL200SAIMEI
  6
CONTINUOUS
 62
    7
 10
18.913121838379368
 20
26.465920310970485
 11
19.123961682076668
 21
25.491475052967605
  0
LINE
  8
_0-1_EL-SL200SAIMEI
  6
CONTINUOUS
 62
    7
 10
18.784964286328105
 20
27.863251039787794
 11
18.913121838379368
 21
26.465920310970485
  0
LINE
  8
_0-1_EL-SL200SAIMEI
  6
CONTINUOUS
 62
    7
 10
18.784964286328105
 20
28.794977113773705
 11
18.784964286328105
 21
27.863251039787794
  0
LINE
  8
_0-1_EL-SL200SAIMEI
  6
CONTINUOUS
 62
    7
 10
18.870402654362273
 20
29.724808385242586
 11
18.784964286328105
 21
28.794977113773705
  0
LINE
  8
_0-1_EL-SL200SAIMEI
  6
CONTINUOUS
 62
    7
 10
19.123961682076668
 20
31.038251038994094
 11
18.870402654362273
 21
29.724808385242586
  0
LINE
  8
_0-1_EL-SL200SAIMEI
  6
CONTINUOUS
 62
    7
 10
19.547019407665289
 20
32.350315654551508
 11
19.123961682076668
 21
31.038251038994094
  0
LINE
  8
_0-1_EL-SL200SAIMEI
  6
CONTINUOUS
 62
    7
 10
20.139575831128269
 20
33.577975430720294
 11
19.547019407665289
 21
32.350315654551508
  0
LINE
  8
_0-1_EL-SL200SAIMEI
  6
CONTINUOUS
 62
    7
 10
20.564011594911079
 20
34.254592184023288
 11
20.139575831128269
 21
33.577975430720294
  0
LINE
  8
_0-1_EL-SL200SAIMEI
  6
CONTINUOUS
 62
    7
 10
21.706405257819892
 20
35.651922912840682
 11
20.564011594911079
 21
34.254592184023288
  0
LINE
  8
_0-1_EL-SL200SAIMEI
  6
CONTINUOUS
 62
    7
 10
22.976956472780081
 20
36.667537061892283
 11
21.706405257819892
 21
35.651922912840682
  0
LINE
  8
_0-1_EL-SL200SAIMEI
  6
CONTINUOUS
 62
    7
 10
24.288848833563183
 20
37.345531853389495
 11
22.976956472780081
 21
36.667537061892283
  0
LINE
  8
_0-1_EL-SL200SAIMEI
  6
CONTINUOUS
 62
    7
 10
25.473961680489172
 20
37.684529249138109
 11
24.288848833563183
 21
37.345531853389495
  0
LINE
  8
_0-1_EL-SL200SAIMEI
  6
CONTINUOUS
 62
    7
 10
26.532295013557881
 20
37.811308762995303
 11
25.473961680489172
 21
37.684529249138109
  0
LINE
  8
_0-1_EL-SL200SAIMEI
  6
CONTINUOUS
 62
    7
 10
27.29435013489519
 20
37.768589578978087
 11
26.532295013557881
 21
37.811308762995303
  0
LINE
  8
_0-1_EL-SL200SAIMEI
  6
CONTINUOUS
 62
    7
 10
18.997182168219467
 20
29.090910815956587
 11
19.081242498059574
 21
29.767527569259695
  0
LINE
  8
_0-1_EL-SL200SAIMEI
  6
CONTINUOUS
 62
    7
 10
18.997182168219467
 20
27.481534460022086
 11
18.997182168219467
 21
29.090910815956587
  0
LINE
  8
_0-1_EL-SL200SAIMEI
  6
CONTINUOUS
 62
    7
 10
19.039901352236569
 20
26.762198522701986
 11
18.997182168219467
 21
27.481534460022086
  0
LINE
  8
_0-1_EL-SL200SAIMEI
  6
CONTINUOUS
 62
    7
 10
19.293460379950986
 20
25.491475052967605
 11
19.039901352236569
 21
26.762198522701986
  0
LINE
  8
_0-1_EL-SL200SAIMEI
  6
CONTINUOUS
 62
    7
 10
19.8432976193968
 20
23.926195919244286
 11
19.293460379950986
 21
25.491475052967605
  0
LINE
  8
_0-1_EL-SL200SAIMEI
  6
CONTINUOUS
 62
    7
 10
20.564011594911079
 20
22.528865190427005
 11
19.8432976193968
 21
23.926195919244286
  0
LINE
  8
_0-1_EL-SL200SAIMEI
  6
CONTINUOUS
 62
    7
 10
21.959964285534291
 20
20.877975433895337
 11
20.564011594911079
 21
22.528865190427005
  0
LINE
  8
_0-1_EL-SL200SAIMEI
  6
CONTINUOUS
 62
    7
 10
22.595239893014373
 20
20.369479340272395
 11
21.959964285534291
 21
20.877975433895337
  0
LINE
  8
_0-1_EL-SL200SAIMEI
  6
CONTINUOUS
 62
    7
 10
23.61085404206597
 20
19.734203732792306
 11
22.595239893014373
 21
20.369479340272395
  0
LINE
  8
_0-1_EL-SL200SAIMEI
  6
CONTINUOUS
 62
    7
 10
24.965465586866291
 20
19.226913422589284
 11
23.61085404206597
 21
19.734203732792306
  0
LINE
  8
_0-1_EL-SL200SAIMEI
  6
CONTINUOUS
 62
    7
 10
26.023798919935
 20
19.057586979489304
 11
24.965465586866291
 21
19.226913422589284
  0
LINE
  8
_0-1_EL-SL200SAIMEI
  6
CONTINUOUS
 62
    7
 10
26.532295013557881
 20
19.057586979489304
 11
26.023798919935
 21
19.057586979489304
  0
LINE
  8
_0-1_EL-SL200SAIMEI
  6
CONTINUOUS
 62
    7
 10
26.617733381592082
 20
18.845196842823604
 11
25.855678260254802
 21
18.845196842823604
  0
LINE
  8
_0-1_EL-SL200SAIMEI
  6
CONTINUOUS
 62
    7
 10
27.37978850292939
 20
18.972148611455104
 11
26.617733381592082
 21
18.845196842823604
  0
LINE
  8
_0-1_EL-SL200SAIMEI
  6
CONTINUOUS
 62
    7
 10
28.734400047729601
 20
19.353865191220695
 11
27.37978850292939
 21
18.972148611455104
  0
LINE
  8
_0-1_EL-SL200SAIMEI
  6
CONTINUOUS
 62
    7
 10
29.537796314889881
 20
19.734203732792306
 11
28.734400047729601
 21
19.353865191220695
  0
LINE
  8
_0-1_EL-SL200SAIMEI
  6
CONTINUOUS
 62
    7
 10
30.130352738352773
 20
20.115920312557986
 11
29.537796314889881
 21
19.734203732792306
  0
LINE
  8
_0-1_EL-SL200SAIMEI
  6
CONTINUOUS
 62
    7
 10
31.69718216504447
 20
21.513251041375334
 11
30.130352738352773
 21
20.115920312557986
  0
LINE
  8
_0-1_EL-SL200SAIMEI
  6
CONTINUOUS
 62
    7
 10
32.671455168273084
 20
22.909203731998605
 11
31.69718216504447
 21
21.513251041375334
  0
LINE
  8
_0-1_EL-SL200SAIMEI
  6
CONTINUOUS
 62
    7
 10
33.264011591736079
 20
24.010256249084385
 11
32.671455168273084
 21
22.909203731998605
  0
LINE
  8
_0-1_EL-SL200SAIMEI
  6
CONTINUOUS
 62
    7
 10
33.856568015199088
 20
25.746584373650297
 11
33.264011591736079
 21
24.010256249084385
  0
LINE
  8
_0-1_EL-SL200SAIMEI
  6
CONTINUOUS
 62
    7
 10
34.152846226930606
 20
27.524253644039185
 11
33.856568015199088
 21
25.746584373650297
  0
LINE
  8
_0-1_EL-SL200SAIMEI
  6
CONTINUOUS
 62
    7
 10
34.194187372753589
 20
29.387361282462386
 11
34.152846226930606
 21
27.524253644039185
  0
LINE
  8
_0-1_EL-SL200SAIMEI
  6
CONTINUOUS
 62
    7
 10
34.026066713073405
 20
30.741972827262597
 11
34.194187372753589
 21
29.387361282462386
  0
LINE
  8
_0-1_EL-SL200SAIMEI
  6
CONTINUOUS
 62
    7
 10
33.687069317324791
 20
32.053865188045691
 11
34.026066713073405
 21
30.741972827262597
  0
LINE
  8
_0-1_EL-SL200SAIMEI
  6
CONTINUOUS
 62
    7
 10
33.390791105593294
 20
32.858639493400084
 11
33.687069317324791
 21
32.053865188045691
  0
LINE
  8
_0-1_EL-SL200SAIMEI
  6
CONTINUOUS
 62
    7
 10
32.586016800238873
 20
34.424263136671883
 11
33.390791105593294
 21
32.858639493400084
  0
LINE
  8
_0-1_EL-SL200SAIMEI
  6
CONTINUOUS
 62
    7
 10
31.570402651187301
 20
35.694642096857784
 11
32.586016800238873
 21
34.424263136671883
  0
LINE
  8
_0-1_EL-SL200SAIMEI
  6
CONTINUOUS
 62
    7
 10
30.681568015992791
 20
36.540929802809408
 11
31.570402651187301
 21
35.694642096857784
  0
LINE
  8
_0-1_EL-SL200SAIMEI
  6
CONTINUOUS
 62
    7
 10
29.707295012764181
 20
37.175860900740894
 11
30.681568015992791
 21
36.540929802809408
  0
LINE
  8
_0-1_EL-SL200SAIMEI
  6
CONTINUOUS
 62
    7
 10
28.6489616796954
 20
37.641982319895185
 11
29.707295012764181
 21
37.175860900740894
  0
LINE
  8
_0-1_EL-SL200SAIMEI
  6
CONTINUOUS
 62
    7
 10
27.590628346626691
 20
37.938260531626689
 11
28.6489616796954
 21
37.641982319895185
  0
LINE
  8
_0-1_EL-SL200SAIMEI
  6
CONTINUOUS
 62
    7
 10
33.644350133307697
 20
24.984529252312985
 11
33.897909161022092
 21
25.957596472121896
  0
LINE
  8
_0-1_EL-SL200SAIMEI
  6
CONTINUOUS
 62
    7
 10
33.390791105593294
 20
24.349253644832995
 11
33.644350133307697
 21
24.984529252312985
  0
LINE
  8
_0-1_EL-SL200SAIMEI
  6
CONTINUOUS
 62
    7
 10
32.839575827953269
 20
23.205481943730085
 11
33.390791105593294
 21
24.349253644832995
  0
LINE
  8
_0-1_EL-SL200SAIMEI
  6
CONTINUOUS
 62
    7
 10
32.4592372863817
 20
22.612925520267105
 11
32.839575827953269
 21
23.205481943730085
  0
LINE
  8
_0-1_EL-SL200SAIMEI
  6
CONTINUOUS
 62
    7
 10
28.438121835998093
 20
37.599263135878083
 11
27.676066714660902
 21
37.768589578978087
  0
LINE
  8
_0-1_EL-SL200SAIMEI
  6
CONTINUOUS
 62
    7
 10
30.003573224495572
 20
36.922646382575088
 11
28.438121835998093
 21
37.599263135878083
  0
LINE
  8
_0-1_EL-SL200SAIMEI
  6
CONTINUOUS
 62
    7
 10
31.570402651187301
 20
35.651922912840682
 11
30.003573224495572
 21
36.922646382575088
  0
LINE
  8
_0-1_EL-SL200SAIMEI
  6
CONTINUOUS
 62
    7
 10
32.543297616221807
 20
34.424263136671883
 11
31.570402651187301
 21
35.651922912840682
  0
LINE
  8
_0-1_EL-SL200SAIMEI
  6
CONTINUOUS
 62
    7
 10
33.264011591736079
 20
33.112198521114486
 11
32.543297616221807
 21
34.424263136671883
  0
LINE
  8
_0-1_EL-SL200SAIMEI
  6
CONTINUOUS
 62
    7
 10
33.813848831181993
 20
31.630979717231295
 11
33.264011591736079
 21
33.112198521114486
  0
LINE
  8
_0-1_EL-SL200SAIMEI
  6
CONTINUOUS
 62
    7
 10
33.897909161022092
 20
31.164858298076997
 11
33.813848831181993
 21
31.630979717231295
  0
LINE
  8
_0-1_EL-SL200SAIMEI
  6
CONTINUOUS
 62
    7
 10
25.939738590094901
 20
37.725870394961099
 11
27.37978850292939
 21
37.768589578978087
  0
LINE
  8
_0-1_EL-SL200SAIMEI
  6
CONTINUOUS
 62
    7
 10
24.501066715454591
 20
37.345531853389495
 11
25.939738590094901
 21
37.725870394961099
  0
LINE
  8
_0-1_EL-SL200SAIMEI
  6
CONTINUOUS
 62
    7
 10
22.976956472780081
 20
36.540929802809408
 11
24.501066715454591
 21
37.345531853389495
  0
LINE
  8
_0-1_EL-SL200SAIMEI
  6
CONTINUOUS
 62
    7
 10
21.959964285534291
 20
35.694642096857784
 11
22.976956472780081
 21
36.540929802809408
  0
LINE
  8
_0-1_EL-SL200SAIMEI
  6
CONTINUOUS
 62
    7
 10
20.901630952465592
 20
34.509529249931795
 11
21.959964285534291
 21
35.694642096857784
  0
LINE
  8
_0-1_EL-SL200SAIMEI
  6
CONTINUOUS
 62
    7
 10
20.267733383179582
 20
33.492537062686083
 11
20.901630952465592
 21
34.509529249931795
  0
LINE
  8
_0-1_EL-SL200SAIMEI
  6
CONTINUOUS
 62
    7
 10
19.673798921522504
 20
32.223191631145781
 11
20.267733383179582
 21
33.492537062686083
  0
LINE
  8
_0-1_EL-SL200SAIMEI
  6
CONTINUOUS
 62
    7
 10
19.42023989380818
 20
31.461308764582807
 11
19.673798921522504
 21
32.223191631145781
  0
LINE
  8
_0-1_EL-SL200SAIMEI
  6
CONTINUOUS
 62
    7
 10
19.081242498059574
 20
29.767527569259695
 11
19.42023989380818
 21
31.461308764582807
  0
LINE
  8
_0-1_EL-SL200SAIMEI
  6
CONTINUOUS
 62
    7
 10
23.94985143781458
 20
19.226913422589284
 11
25.008184770883393
 21
18.972148611455104
  0
LINE
  8
_0-1_EL-SL200SAIMEI
  6
CONTINUOUS
 62
    7
 10
23.23051550049448
 20
19.523191634320785
 11
23.94985143781458
 21
19.226913422589284
  0
LINE
  8
_0-1_EL-SL200SAIMEI
  6
CONTINUOUS
 62
    7
 10
22.214901351442801
 20
20.158639496575095
 11
23.23051550049448
 21
19.523191634320785
  0
LINE
  8
_0-1_EL-SL200SAIMEI
  6
CONTINUOUS
 62
    7
 10
21.579625743962801
 20
20.624244151406625
 11
22.214901351442801
 21
20.158639496575095
  0
LINE
  8
_0-1_EL-SL200SAIMEI
  6
CONTINUOUS
 62
    7
 10
21.071129650339891
 20
21.131534461609636
 11
21.579625743962801
 21
20.624244151406625
  0
LINE
  8
_0-1_EL-SL200SAIMEI
  6
CONTINUOUS
 62
    7
 10
20.012796317271068
 20
22.486146006409907
 11
21.071129650339891
 21
21.131534461609636
  0
LINE
  8
_0-1_EL-SL200SAIMEI
  6
CONTINUOUS
 62
    7
 10
19.250741195933884
 20
23.926195919244286
 11
20.012796317271068
 21
22.486146006409907
  0
LINE
  8
_0-1_EL-SL200SAIMEI
  6
CONTINUOUS
 62
    7
 10
18.658184772470889
 20
25.703865189633195
 11
19.250741195933884
 21
23.926195919244286
  0
LINE
  8
_0-1_EL-SL200SAIMEI
  6
CONTINUOUS
 62
    7
 10
18.404625744756494
 20
27.438815276005005
 11
18.658184772470889
 21
25.703865189633195
  0
LINE
  8
_0-1_EL-SL200SAIMEI
  6
CONTINUOUS
 62
    7
 10
18.404625744756494
 20
29.344642098445284
 11
18.404625744756494
 21
27.438815276005005
  0
LINE
  8
_0-1_EL-SL200SAIMEI
  6
CONTINUOUS
 62
    7
 10
18.615465588453787
 20
30.656534459228386
 11
18.404625744756494
 21
29.344642098445284
  0
LINE
  8
_0-1_EL-SL200SAIMEI
  6
CONTINUOUS
 62
    7
 10
19.123961682076668
 20
32.392862583794304
 11
18.615465588453787
 21
30.656534459228386
  0
LINE
  8
_0-1_EL-SL200SAIMEI
  6
CONTINUOUS
 62
    7
 10
19.505678261842306
 20
33.238978034971687
 11
19.123961682076668
 21
32.392862583794304
  0
LINE
  8
_0-1_EL-SL200SAIMEI
  6
CONTINUOUS
 62
    7
 10
20.182295015145385
 20
34.424263136671883
 11
19.505678261842306
 21
33.238978034971687
  0
LINE
  8
_0-1_EL-SL200SAIMEI
  6
CONTINUOUS
 62
    7
 10
21.156568018374092
 20
35.651922912840682
 11
20.182295015145385
 21
34.424263136671883
  0
LINE
  8
_0-1_EL-SL200SAIMEI
  6
CONTINUOUS
 62
    7
 10
22.4684603791572
 20
36.752975429926487
 11
21.156568018374092
 21
35.651922912840682
  0
LINE
  8
_0-1_EL-SL200SAIMEI
  6
CONTINUOUS
 62
    7
 10
23.739011594117283
 20
37.472311367246697
 11
22.4684603791572
 21
36.752975429926487
  0
LINE
  8
_0-1_EL-SL200SAIMEI
  6
CONTINUOUS
 62
    7
 10
25.220402652774801
 20
37.938260531626689
 11
23.739011594117283
 21
37.472311367246697
  0
LINE
  8
_0-1_EL-SL200SAIMEI
  6
CONTINUOUS
 62
    7
 10
26.744512895449283
 20
38.022148606692603
 11
25.220402652774801
 21
37.938260531626689
  0
LINE
  8
_0-1_EL-SL200SAIMEI
  6
CONTINUOUS
 62
    7
 10
24.372909163403282
 20
19.100306163506296
 11
25.134964284740601
 21
18.972148611455104
  0
LINE
  8
_0-1_EL-SL200SAIMEI
  6
CONTINUOUS
 62
    7
 10
23.696292410100181
 20
19.353865191220695
 11
24.372909163403282
 21
19.100306163506296
  0
LINE
  8
_0-1_EL-SL200SAIMEI
  6
CONTINUOUS
 62
    7
 10
22.341680865300003
 20
20.115920312557986
 11
23.696292410100181
 21
19.353865191220695
  0
LINE
  8
_0-1_EL-SL200SAIMEI
  6
CONTINUOUS
 62
    7
 10
21.156568018374092
 20
21.174253645626745
 11
22.341680865300003
 21
20.115920312557986
  0
LINE
  8
_0-1_EL-SL200SAIMEI
  6
CONTINUOUS
 62
    7
 10
20.139575831128269
 20
22.401913421795506
 11
21.156568018374092
 21
21.174253645626745
  0
LINE
  8
_0-1_EL-SL200SAIMEI
  6
CONTINUOUS
 62
    7
 10
19.377520709791085
 20
23.883648990001486
 11
20.139575831128269
 21
22.401913421795506
  0
LINE
  8
_0-1_EL-SL200SAIMEI
  6
CONTINUOUS
 62
    7
 10
18.784964286328105
 20
25.576913421001784
 11
19.377520709791085
 21
23.883648990001486
  0
LINE
  8
_0-1_EL-SL200SAIMEI
  6
CONTINUOUS
 62
    7
 10
18.531405258613688
 20
27.354927200939205
 11
18.784964286328105
 21
25.576913421001784
  0
LINE
  8
_0-1_EL-SL200SAIMEI
  6
CONTINUOUS
 62
    7
 10
18.488686074596593
 20
28.794977113773705
 11
18.531405258613688
 21
27.354927200939205
  0
LINE
  8
_0-1_EL-SL200SAIMEI
  6
CONTINUOUS
 62
    7
 10
18.8276834703452
 20
31.038251038994094
 11
18.488686074596593
 21
28.794977113773705
  0
LINE
  8
_0-1_EL-SL200SAIMEI
  6
CONTINUOUS
 62
    7
 10
19.377520709791085
 20
32.689313050300107
 11
18.8276834703452
 21
31.038251038994094
  0
LINE
  8
_0-1_EL-SL200SAIMEI
  6
CONTINUOUS
 62
    7
 10
20.182295015145385
 20
34.254592184023288
 11
19.377520709791085
 21
32.689313050300107
  0
LINE
  8
_0-1_EL-SL200SAIMEI
  6
CONTINUOUS
 62
    7
 10
21.197909164197092
 20
35.567862583000583
 11
20.182295015145385
 21
34.254592184023288
  0
LINE
  8
_0-1_EL-SL200SAIMEI
  6
CONTINUOUS
 62
    7
 10
21.790465587659991
 20
36.160246751689293
 11
21.197909164197092
 21
35.567862583000583
  0
LINE
  8
_0-1_EL-SL200SAIMEI
  6
CONTINUOUS
 62
    7
 10
22.4684603791572
 20
36.667537061892283
 11
21.790465587659991
 21
36.160246751689293
  0
LINE
  8
_0-1_EL-SL200SAIMEI
  6
CONTINUOUS
 62
    7
 10
23.865791107974591
 20
37.472311367246697
 11
22.4684603791572
 21
36.667537061892283
  0
LINE
  8
_0-1_EL-SL200SAIMEI
  6
CONTINUOUS
 62
    7
 10
25.220402652774801
 20
37.895196838061104
 11
23.865791107974591
 21
37.472311367246697
  0
LINE
  8
_0-1_EL-SL200SAIMEI
  6
CONTINUOUS
 62
    7
 10
26.744512895449283
 20
38.022148606692603
 11
25.220402652774801
 21
37.895196838061104
  0
LINE
  8
_0-1_EL-SL200SAIMEI
  6
CONTINUOUS
 62
    7
 10
19.250741195933884
 20
31.757586976314304
 11
18.8276834703452
 21
29.810246753276797
  0
LINE
  8
_0-1_EL-SL200SAIMEI
  6
CONTINUOUS
 62
    7
 10
19.801956473573767
 20
33.112198521114486
 11
19.250741195933884
 21
31.757586976314304
  0
LINE
  8
_0-1_EL-SL200SAIMEI
  6
CONTINUOUS
 62
    7
 10
20.817570622625492
 20
34.763260532420496
 11
19.801956473573767
 21
33.112198521114486
  0
LINE
  8
_0-1_EL-SL200SAIMEI
  6
CONTINUOUS
 62
    7
 10
22.172182167425692
 20
36.160246751689293
 11
20.817570622625492
 21
34.763260532420496
  0
LINE
  8
_0-1_EL-SL200SAIMEI
  6
CONTINUOUS
 62
    7
 10
23.442733382385892
 20
37.006534457640889
 11
22.172182167425692
 21
36.160246751689293
  0
LINE
  8
_0-1_EL-SL200SAIMEI
  6
CONTINUOUS
 62
    7
 10
24.372909163403282
 20
37.429592183229595
 11
23.442733382385892
 21
37.006534457640889
  0
LINE
  8
_0-1_EL-SL200SAIMEI
  6
CONTINUOUS
 62
    7
 10
26.066518103952102
 20
37.811308762995303
 11
24.372909163403282
 21
37.429592183229595
  0
LINE
  8
_0-1_EL-SL200SAIMEI
  6
CONTINUOUS
 62
    7
 10
27.29435013489519
 20
37.768589578978087
 11
26.066518103952102
 21
37.811308762995303
  0
LINE
  8
_0-1_EL-SL200SAIMEI
  6
CONTINUOUS
 62
    7
 10
19.547019407665289
 20
31.841475051380105
 11
19.081242498059574
 21
29.767527569259695
  0
LINE
  8
_0-1_EL-SL200SAIMEI
  6
CONTINUOUS
 62
    7
 10
20.098234685305279
 20
33.112198521114486
 11
19.547019407665289
 21
31.841475051380105
  0
LINE
  8
_0-1_EL-SL200SAIMEI
  6
CONTINUOUS
 62
    7
 10
20.690791108768291
 20
34.170531854183189
 11
20.098234685305279
 21
33.112198521114486
  0
LINE
  8
_0-1_EL-SL200SAIMEI
  6
CONTINUOUS
 62
    7
 10
21.6636860738029
 20
35.398191630352002
 11
20.690791108768291
 21
34.170531854183189
  0
LINE
  8
_0-1_EL-SL200SAIMEI
  6
CONTINUOUS
 62
    7
 10
22.214901351442801
 20
35.948201124572108
 11
21.6636860738029
 21
35.398191630352002
  0
LINE
  8
_0-1_EL-SL200SAIMEI
  6
CONTINUOUS
 62
    7
 10
23.23051550049448
 20
36.710256245909385
 11
22.214901351442801
 21
35.948201124572108
  0
LINE
  8
_0-1_EL-SL200SAIMEI
  6
CONTINUOUS
 62
    7
 10
24.119350135688883
 20
37.175860900740894
 11
23.23051550049448
 21
36.710256245909385
  0
LINE
  8
_0-1_EL-SL200SAIMEI
  6
CONTINUOUS
 62
    7
 10
25.008184770883393
 20
37.514858296489493
 11
24.119350135688883
 21
37.175860900740894
  0
LINE
  8
_0-1_EL-SL200SAIMEI
  6
CONTINUOUS
 62
    7
 10
25.939738590094901
 20
37.725870394961099
 11
25.008184770883393
 21
37.514858296489493
  0
LINE
  8
_0-1_EL-SL200SAIMEI
  6
CONTINUOUS
 62
    7
 10
27.167570621037992
 20
37.768589578978087
 11
25.939738590094901
 21
37.725870394961099
  0
LINE
  8
_0-1_EL-SL200SAIMEI
  6
CONTINUOUS
 62
    7
 10
19.377520709791085
 20
30.529927200145487
 11
19.250741195933884
 21
29.767527569259695
  0
LINE
  8
_0-1_EL-SL200SAIMEI
  6
CONTINUOUS
 62
    7
 10
19.759237289556701
 20
31.884194235397185
 11
19.377520709791085
 21
30.529927200145487
  0
LINE
  8
_0-1_EL-SL200SAIMEI
  6
CONTINUOUS
 62
    7
 10
20.435854042859781
 20
33.451195916863092
 11
19.759237289556701
 21
31.884194235397185
  0
LINE
  8
_0-1_EL-SL200SAIMEI
  6
CONTINUOUS
 62
    7
 10
21.536906559945702
 20
35.059194234603403
 11
20.435854042859781
 21
33.451195916863092
  0
LINE
  8
_0-1_EL-SL200SAIMEI
  6
CONTINUOUS
 62
    7
 10
22.51117956317427
 20
36.033639492606305
 11
21.536906559945702
 21
35.059194234603403
  0
LINE
  8
_0-1_EL-SL200SAIMEI
  6
CONTINUOUS
 62
    7
 10
23.739011594117283
 20
36.879927198557986
 11
22.51117956317427
 21
36.033639492606305
  0
LINE
  8
_0-1_EL-SL200SAIMEI
  6
CONTINUOUS
 62
    7
 10
25.347182166631971
 20
37.557577480506609
 11
23.739011594117283
 21
36.879927198557986
  0
LINE
  8
_0-1_EL-SL200SAIMEI
  6
CONTINUOUS
 62
    7
 10
26.78585404127228
 20
37.768589578978087
 11
25.347182166631971
 21
37.557577480506609
  0
LINE
  8
_0-1_EL-SL200SAIMEI
  6
CONTINUOUS
 62
    7
 10
27.506568016786591
 20
37.725870394961099
 11
26.78585404127228
 21
37.768589578978087
  0
LINE
  8
_0-1_EL-SL200SAIMEI
  6
CONTINUOUS
 62
    7
 10
35.76101679944518
 20
36.795694613943589
 11
35.718297615428085
 21
36.795694613943589
  0
LINE
  8
_0-1_EL-SL200SAIMEI
  6
CONTINUOUS
 62
    7
 10
35.718297615428085
 20
36.795694613943589
 11
36.396292406925184
 21
36.540929802809408
  0
LINE
  8
_0-1_EL-SL200SAIMEI
  6
CONTINUOUS
 62
    7
 10
43.042570617069181
 20
19.734203732792306
 11
42.450014193606279
 21
19.607596473709396
  0
LINE
  8
_0-1_EL-SL200SAIMEI
  6
CONTINUOUS
 62
    7
 10
44.313121832029374
 20
20.199808387623797
 11
43.042570617069181
 21
19.734203732792306
  0
LINE
  8
_0-1_EL-SL200SAIMEI
  6
CONTINUOUS
 62
    7
 10
45.201956467223773
 20
20.751195920038136
 11
44.313121832029374
 21
20.199808387623797
  0
LINE
  8
_0-1_EL-SL200SAIMEI
  6
CONTINUOUS
 62
    7
 10
46.26028980029259
 20
21.724263139846915
 11
45.201956467223773
 21
20.751195920038136
  0
LINE
  8
_0-1_EL-SL200SAIMEI
  6
CONTINUOUS
 62
    7
 10
46.9796257376128
 20
22.612925520267105
 11
46.26028980029259
 21
21.724263139846915
  0
LINE
  8
_0-1_EL-SL200SAIMEI
  6
CONTINUOUS
 62
    7
 10
47.698961674932889
 20
23.926195919244286
 11
46.9796257376128
 21
22.612925520267105
  0
LINE
  8
_0-1_EL-SL200SAIMEI
  6
CONTINUOUS
 62
    7
 10
48.164738584538675
 20
25.195196841236104
 11
47.698961674932889
 21
23.926195919244286
  0
LINE
  8
_0-1_EL-SL200SAIMEI
  6
CONTINUOUS
 62
    7
 10
48.418297612253085
 20
26.253530174304807
 11
48.164738584538675
 21
25.195196841236104
  0
LINE
  8
_0-1_EL-SL200SAIMEI
  6
CONTINUOUS
 62
    7
 10
48.546455164304383
 20
27.524253644039185
 11
48.418297612253085
 21
26.253530174304807
  0
LINE
  8
_0-1_EL-SL200SAIMEI
  6
CONTINUOUS
 62
    7
 10
48.503735980287281
 20
28.751913420208005
 11
48.546455164304383
 21
27.524253644039185
  0
LINE
  8
_0-1_EL-SL200SAIMEI
  6
CONTINUOUS
 62
    7
 10
48.334237282412978
 20
29.937198521908204
 11
48.503735980287281
 21
28.751913420208005
  0
LINE
  8
_0-1_EL-SL200SAIMEI
  6
CONTINUOUS
 62
    7
 10
47.868460372807199
 20
31.461308764582807
 11
48.334237282412978
 21
29.937198521908204
  0
LINE
  8
_0-1_EL-SL200SAIMEI
  6
CONTINUOUS
 62
    7
 10
47.35996427918429
 20
32.519642097651506
 11
47.868460372807199
 21
31.461308764582807
  0
LINE
  8
_0-1_EL-SL200SAIMEI
  6
CONTINUOUS
 62
    7
 10
46.726066709898404
 20
33.451195916863092
 11
47.35996427918429
 21
32.519642097651506
  0
LINE
  8
_0-1_EL-SL200SAIMEI
  6
CONTINUOUS
 62
    7
 10
45.794512890686782
 20
34.424263136671883
 11
46.726066709898404
 21
33.451195916863092
  0
LINE
  8
_0-1_EL-SL200SAIMEI
  6
CONTINUOUS
 62
    7
 10
45.201956467223773
 20
34.889867791503399
 11
45.794512890686782
 21
34.424263136671883
  0
LINE
  8
_0-1_EL-SL200SAIMEI
  6
CONTINUOUS
 62
    7
 10
44.862959071475188
 20
35.016475050586308
 11
45.201956467223773
 21
34.889867791503399
  0
LINE
  8
_0-1_EL-SL200SAIMEI
  6
CONTINUOUS
 62
    7
 10
29.157457773318281
 20
37.811308762995303
 11
27.676066714660902
 21
38.234194233809689
  0
LINE
  8
_0-1_EL-SL200SAIMEI
  6
CONTINUOUS
 62
    7
 10
30.130352738352773
 20
37.302812669372393
 11
29.157457773318281
 21
37.811308762995303
  0
LINE
  8
_0-1_EL-SL200SAIMEI
  6
CONTINUOUS
 62
    7
 10
30.808347529849993
 20
36.836863504992287
 11
30.130352738352773
 21
37.302812669372393
  0
LINE
  8
_0-1_EL-SL200SAIMEI
  6
CONTINUOUS
 62
    7
 10
31.69718216504447
 20
36.033639492606305
 11
30.808347529849993
 21
36.836863504992287
  0
LINE
  8
_0-1_EL-SL200SAIMEI
  6
CONTINUOUS
 62
    7
 10
32.755515498113169
 20
34.720196838854797
 11
31.69718216504447
 21
36.033639492606305
  0
LINE
  8
_0-1_EL-SL200SAIMEI
  6
CONTINUOUS
 62
    7
 10
33.56028980346759
 20
33.238978034971687
 11
32.755515498113169
 21
34.720196838854797
  0
LINE
  8
_0-1_EL-SL200SAIMEI
  6
CONTINUOUS
 62
    7
 10
34.026066713073405
 20
32.053865188045691
 11
33.56028980346759
 21
33.238978034971687
  0
LINE
  8
_0-1_EL-SL200SAIMEI
  6
CONTINUOUS
 62
    7
 10
34.406405254644895
 20
30.276195917656786
 11
34.026066713073405
 21
32.053865188045691
  0
LINE
  8
_0-1_EL-SL200SAIMEI
  6
CONTINUOUS
 62
    7
 10
34.533184768502096
 20
28.455979718025095
 11
34.406405254644895
 21
30.276195917656786
  0
LINE
  8
_0-1_EL-SL200SAIMEI
  6
CONTINUOUS
 62
    7
 10
34.2796257407878
 20
26.126922915221904
 11
34.533184768502096
 21
28.455979718025095
  0
LINE
  8
_0-1_EL-SL200SAIMEI
  6
CONTINUOUS
 62
    7
 10
33.771129647164891
 20
24.433141719898796
 11
34.2796257407878
 21
26.126922915221904
  0
LINE
  8
_0-1_EL-SL200SAIMEI
  6
CONTINUOUS
 62
    7
 10
33.009074525827586
 20
22.825315656932695
 11
33.771129647164891
 21
24.433141719898796
  0
LINE
  8
_0-1_EL-SL200SAIMEI
  6
CONTINUOUS
 62
    7
 10
32.077520706616085
 20
21.470531857358235
 11
33.009074525827586
 21
22.825315656932695
  0
LINE
  8
_0-1_EL-SL200SAIMEI
  6
CONTINUOUS
 62
    7
 10
30.851066713867091
 20
20.285246755658005
 11
32.077520706616085
 21
21.470531857358235
  0
LINE
  8
_0-1_EL-SL200SAIMEI
  6
CONTINUOUS
 62
    7
 10
30.257132252209981
 20
19.819642100826506
 11
30.851066713867091
 21
20.285246755658005
  0
LINE
  8
_0-1_EL-SL200SAIMEI
  6
CONTINUOUS
 62
    7
 10
29.537796314889881
 20
19.396584375237804
 11
30.257132252209981
 21
19.819642100826506
  0
LINE
  8
_0-1_EL-SL200SAIMEI
  6
CONTINUOUS
 62
    7
 10
28.056405256232392
 20
18.804027951774906
 11
29.537796314889881
 21
19.396584375237804
  0
LINE
  8
_0-1_EL-SL200SAIMEI
  6
CONTINUOUS
 62
    7
 10
26.659074527415083
 20
18.549263140640587
 11
28.056405256232392
 21
18.804027951774906
  0
LINE
  8
_0-1_EL-SL200SAIMEI
  6
CONTINUOUS
 62
    7
 10
45.286016797063901
 20
34.805979716437598
 11
45.243297613046799
 21
34.805979716437598
  0
LINE
  8
_0-1_EL-SL200SAIMEI
  6
CONTINUOUS
 62
    7
 10
48.461016796270179
 20
26.592527570053385
 11
48.418297612253085
 21
26.592527570053385
  0
LINE
  8
_0-1_EL-SL200SAIMEI
  6
CONTINUOUS
 62
    7
 10
30.638848831975682
 20
20.538978038146716
 11
31.823961678901671
 21
21.724263139846915
  0
LINE
  8
_0-1_EL-SL200SAIMEI
  6
CONTINUOUS
 62
    7
 10
29.284237287175483
 20
19.650315657726505
 11
30.638848831975682
 21
20.538978038146716
  0
LINE
  8
_0-1_EL-SL200SAIMEI
  6
CONTINUOUS
 62
    7
 10
28.691680863712502
 20
19.396584375237804
 11
29.284237287175483
 21
19.650315657726505
  0
LINE
  8
_0-1_EL-SL200SAIMEI
  6
CONTINUOUS
 62
    7
 10
27.506568016786591
 20
19.057586979489304
 11
28.691680863712502
 21
19.396584375237804
  0
LINE
  8
_0-1_EL-SL200SAIMEI
  6
CONTINUOUS
 62
    7
 10
26.871292409306481
 20
18.972148611455104
 11
27.506568016786591
 21
19.057586979489304
  0
LINE
  8
_0-1_EL-SL200SAIMEI
  6
CONTINUOUS
 62
    7
 10
25.643460378363482
 20
18.972148611455104
 11
26.871292409306481
 21
18.972148611455104
  0
LINE
  8
_0-1_EL-SL200SAIMEI
  6
CONTINUOUS
 62
    7
 10
25.050903954900502
 20
19.057586979489304
 11
25.643460378363482
 21
18.972148611455104
  0
LINE
  8
_0-1_EL-SL200SAIMEI
  6
CONTINUOUS
 62
    7
 10
23.865791107974591
 20
19.396584375237804
 11
25.050903954900502
 21
19.057586979489304
  0
LINE
  8
_0-1_EL-SL200SAIMEI
  6
CONTINUOUS
 62
    7
 10
22.4684603791572
 20
20.115920312557986
 11
23.865791107974591
 21
19.396584375237804
  0
LINE
  8
_0-1_EL-SL200SAIMEI
  6
CONTINUOUS
 62
    7
 10
21.240628348214191
 20
21.216972829643847
 11
22.4684603791572
 21
20.115920312557986
  0
LINE
  8
_0-1_EL-SL200SAIMEI
  6
CONTINUOUS
 62
    7
 10
20.394512897036783
 20
22.232586978695505
 11
21.240628348214191
 21
21.216972829643847
  0
LINE
  8
_0-1_EL-SL200SAIMEI
  6
CONTINUOUS
 62
    7
 10
19.377520709791085
 20
24.052975433101487
 11
20.394512897036783
 21
22.232586978695505
  0
LINE
  8
_0-1_EL-SL200SAIMEI
  6
CONTINUOUS
 62
    7
 10
18.913121838379368
 20
25.450306161918796
 11
19.377520709791085
 21
24.052975433101487
  0
LINE
  8
_0-1_EL-SL200SAIMEI
  6
CONTINUOUS
 62
    7
 10
18.615465588453787
 20
27.270694616324786
 11
18.913121838379368
 21
25.450306161918796
  0
LINE
  8
_0-1_EL-SL200SAIMEI
  6
CONTINUOUS
 62
    7
 10
18.574124442630804
 20
28.329027949393595
 11
18.615465588453787
 21
27.270694616324786
  0
LINE
  8
_0-1_EL-SL200SAIMEI
  6
CONTINUOUS
 62
    7
 10
18.658184772470889
 20
29.810246753276797
 11
18.574124442630804
 21
28.329027949393595
  0
LINE
  8
_0-1_EL-SL200SAIMEI
  6
CONTINUOUS
 62
    7
 10
18.997182168219467
 20
31.375870396548596
 11
18.658184772470889
 21
29.810246753276797
  0
LINE
  8
_0-1_EL-SL200SAIMEI
  6
CONTINUOUS
 62
    7
 10
19.42023989380818
 20
32.603530172717306
 11
18.997182168219467
 21
31.375870396548596
  0
LINE
  8
_0-1_EL-SL200SAIMEI
  6
CONTINUOUS
 62
    7
 10
19.971455171448085
 20
33.704927199351708
 11
19.42023989380818
 21
32.603530172717306
  0
LINE
  8
_0-1_EL-SL200SAIMEI
  6
CONTINUOUS
 62
    7
 10
20.817570622625492
 20
34.975306159537602
 11
19.971455171448085
 21
33.704927199351708
  0
LINE
  8
_0-1_EL-SL200SAIMEI
  6
CONTINUOUS
 62
    7
 10
21.410127046088501
 20
35.651922912840682
 11
20.817570622625492
 21
34.975306159537602
  0
LINE
  8
_0-1_EL-SL200SAIMEI
  6
CONTINUOUS
 62
    7
 10
22.298961681282901
 20
36.413978034177909
 11
21.410127046088501
 21
35.651922912840682
  0
LINE
  8
_0-1_EL-SL200SAIMEI
  6
CONTINUOUS
 62
    7
 10
23.018297618603082
 20
36.922646382575088
 11
22.298961681282901
 21
36.413978034177909
  0
LINE
  8
_0-1_EL-SL200SAIMEI
  6
CONTINUOUS
 62
    7
 10
23.992570621831682
 20
37.429592183229595
 11
23.018297618603082
 21
36.922646382575088
  0
LINE
  8
_0-1_EL-SL200SAIMEI
  6
CONTINUOUS
 62
    7
 10
24.75462574316899
 20
37.684529249138109
 11
23.992570621831682
 21
37.429592183229595
  0
LINE
  8
_0-1_EL-SL200SAIMEI
  6
CONTINUOUS
 62
    7
 10
26.362796315683571
 20
37.938260531626689
 11
24.75462574316899
 21
37.684529249138109
  0
LINE
  8
_0-1_EL-SL200SAIMEI
  6
CONTINUOUS
 62
    7
 10
27.167570621037992
 20
37.895196838061104
 11
26.362796315683571
 21
37.938260531626689
  0
LINE
  8
_0-1_EL-SL200SAIMEI
  6
CONTINUOUS
 62
    7
 10
28.225903954106691
 20
37.684529249138109
 11
27.167570621037992
 21
37.895196838061104
  0
LINE
  8
_0-1_EL-SL200SAIMEI
  6
CONTINUOUS
 62
    7
 10
24.331568017580292
 20
19.353865191220695
 11
25.600741194346373
 21
19.100306163506296
  0
LINE
  8
_0-1_EL-SL200SAIMEI
  6
CONTINUOUS
 62
    7
 10
22.637959077031471
 20
20.199808387623797
 11
24.331568017580292
 21
19.353865191220695
  0
LINE
  8
_0-1_EL-SL200SAIMEI
  6
CONTINUOUS
 62
    7
 10
21.326066716248402
 20
21.258141720692656
 11
22.637959077031471
 21
20.199808387623797
  0
LINE
  8
_0-1_EL-SL200SAIMEI
  6
CONTINUOUS
 62
    7
 10
20.267733383179582
 20
22.655644704284207
 11
21.326066716248402
 21
21.258141720692656
  0
LINE
  8
_0-1_EL-SL200SAIMEI
  6
CONTINUOUS
 62
    7
 10
19.462959077825204
 20
24.263815276798784
 11
20.267733383179582
 21
22.655644704284207
  0
LINE
  8
_0-1_EL-SL200SAIMEI
  6
CONTINUOUS
 62
    7
 10
18.870402654362273
 20
26.339313051887604
 11
19.462959077825204
 21
24.263815276798784
  0
LINE
  8
_0-1_EL-SL200SAIMEI
  6
CONTINUOUS
 62
    7
 10
18.7436231405051
 20
27.354927200939205
 11
18.870402654362273
 21
26.339313051887604
  0
LINE
  8
_0-1_EL-SL200SAIMEI
  6
CONTINUOUS
 62
    7
 10
18.7436231405051
 20
29.132596471328096
 11
18.7436231405051
 21
27.354927200939205
  0
LINE
  8
_0-1_EL-SL200SAIMEI
  6
CONTINUOUS
 62
    7
 10
18.8276834703452
 20
29.810246753276797
 11
18.7436231405051
 21
29.132596471328096
  0
LINE
  8
_0-1_EL-SL200SAIMEI
  6
CONTINUOUS
 62
    7
 10
25.812959076237693
 20
19.100306163506296
 11
26.617733381592082
 21
19.057586979489304
  0
LINE
  8
_0-1_EL-SL200SAIMEI
  6
CONTINUOUS
 62
    7
 10
25.050903954900502
 20
19.269977116154895
 11
25.812959076237693
 21
19.100306163506296
  0
LINE
  8
_0-1_EL-SL200SAIMEI
  6
CONTINUOUS
 62
    7
 10
24.501066715454591
 20
19.437925521060794
 11
25.050903954900502
 21
19.269977116154895
  0
LINE
  8
_0-1_EL-SL200SAIMEI
  6
CONTINUOUS
 62
    7
 10
23.484074528208883
 20
19.903530175892307
 11
24.501066715454591
 21
19.437925521060794
  0
LINE
  8
_0-1_EL-SL200SAIMEI
  6
CONTINUOUS
 62
    7
 10
22.298961681282901
 20
20.751195920038136
 11
23.484074528208883
 21
19.903530175892307
  0
LINE
  8
_0-1_EL-SL200SAIMEI
  6
CONTINUOUS
 62
    7
 10
21.071129650339891
 20
22.063260535595496
 11
22.298961681282901
 21
20.751195920038136
  0
LINE
  8
_0-1_EL-SL200SAIMEI
  6
CONTINUOUS
 62
    7
 10
20.139575831128269
 20
23.671258853335807
 11
21.071129650339891
 21
22.063260535595496
  0
LINE
  8
_0-1_EL-SL200SAIMEI
  6
CONTINUOUS
 62
    7
 10
19.547019407665289
 20
25.195196841236104
 11
20.139575831128269
 21
23.671258853335807
  0
LINE
  8
_0-1_EL-SL200SAIMEI
  6
CONTINUOUS
 62
    7
 10
19.336179563968081
 20
26.126922915221904
 11
19.547019407665289
 21
25.195196841236104
  0
LINE
  8
_0-1_EL-SL200SAIMEI
  6
CONTINUOUS
 62
    7
 10
19.166680866093785
 20
27.481534460022086
 11
19.336179563968081
 21
26.126922915221904
  0
LINE
  8
_0-1_EL-SL200SAIMEI
  6
CONTINUOUS
 62
    7
 10
19.166680866093785
 20
29.090910815956587
 11
19.166680866093785
 21
27.481534460022086
  0
LINE
  8
_0-1_EL-SL200SAIMEI
  6
CONTINUOUS
 62
    7
 10
19.250741195933884
 20
29.767527569259695
 11
19.166680866093785
 21
29.090910815956587
  0
LINE
  8
_0-1_EL-SL200SAIMEI
  6
CONTINUOUS
 62
    7
 10
27.9296257423753
 20
38.064867790709705
 11
27.633347530643793
 21
38.107586974726807
  0
LINE
  8
_0-1_EL-SL200SAIMEI
  6
CONTINUOUS
 62
    7
 10
29.453735985049782
 20
37.514858296489493
 11
27.9296257423753
 21
38.064867790709705
  0
LINE
  8
_0-1_EL-SL200SAIMEI
  6
CONTINUOUS
 62
    7
 10
30.469350134101383
 20
36.922646382575088
 11
29.453735985049782
 21
37.514858296489493
  0
LINE
  8
_0-1_EL-SL200SAIMEI
  6
CONTINUOUS
 62
    7
 10
31.823961678901671
 20
35.694642096857784
 11
30.469350134101383
 21
36.922646382575088
  0
LINE
  8
_0-1_EL-SL200SAIMEI
  6
CONTINUOUS
 62
    7
 10
32.332457772524506
 20
35.101913418620505
 11
31.823961678901671
 21
35.694642096857784
  0
LINE
  8
_0-1_EL-SL200SAIMEI
  6
CONTINUOUS
 62
    7
 10
32.839575827953269
 20
34.339858297283307
 11
32.332457772524506
 21
35.101913418620505
  0
LINE
  8
_0-1_EL-SL200SAIMEI
  6
CONTINUOUS
 62
    7
 10
33.644350133307697
 20
32.646593866283006
 11
32.839575827953269
 21
34.339858297283307
  0
LINE
  8
_0-1_EL-SL200SAIMEI
  6
CONTINUOUS
 62
    7
 10
34.152846226930606
 20
30.952812670959897
 11
33.644350133307697
 21
32.646593866283006
  0
LINE
  8
_0-1_EL-SL200SAIMEI
  6
CONTINUOUS
 62
    7
 10
34.363686070627907
 20
29.005644702696706
 11
34.152846226930606
 21
30.952812670959897
  0
LINE
  8
_0-1_EL-SL200SAIMEI
  6
CONTINUOUS
 62
    7
 10
34.2796257407878
 20
27.015929805190606
 11
34.363686070627907
 21
29.005644702696706
  0
LINE
  8
_0-1_EL-SL200SAIMEI
  6
CONTINUOUS
 62
    7
 10
33.983347529056289
 20
25.576913421001784
 11
34.2796257407878
 21
27.015929805190606
  0
LINE
  8
_0-1_EL-SL200SAIMEI
  6
CONTINUOUS
 62
    7
 10
33.348071921576178
 20
23.799244150612786
 11
33.983347529056289
 21
25.576913421001784
  0
LINE
  8
_0-1_EL-SL200SAIMEI
  6
CONTINUOUS
 62
    7
 10
32.671455168273084
 20
22.528865190427005
 11
33.348071921576178
 21
23.799244150612786
  0
LINE
  8
_0-1_EL-SL200SAIMEI
  6
CONTINUOUS
 62
    7
 10
31.31546558527879
 20
20.835256249878235
 11
32.671455168273084
 21
22.528865190427005
  0
LINE
  8
_0-1_EL-SL200SAIMEI
  6
CONTINUOUS
 62
    7
 10
29.664575828747083
 20
19.607596473709396
 11
31.31546558527879
 21
20.835256249878235
  0
LINE
  8
_0-1_EL-SL200SAIMEI
  6
CONTINUOUS
 62
    7
 10
28.47946298182109
 20
19.057586979489304
 11
29.664575828747083
 21
19.607596473709396
  0
LINE
  8
_0-1_EL-SL200SAIMEI
  6
CONTINUOUS
 62
    7
 10
27.251630950878091
 20
18.718589583740584
 11
28.47946298182109
 21
19.057586979489304
  0
LINE
  8
_0-1_EL-SL200SAIMEI
  6
CONTINUOUS
 62
    7
 10
25.0936231389176
 20
18.718589583740584
 11
27.251630950878091
 21
18.718589583740584
  0
LINE
  8
_0-1_EL-SL200SAIMEI
  6
CONTINUOUS
 62
    7
 10
24.204788503723091
 20
18.930979720406295
 11
25.0936231389176
 21
18.718589583740584
  0
LINE
  8
_0-1_EL-SL200SAIMEI
  6
CONTINUOUS
 62
    7
 10
23.146455170654381
 20
19.353865191220695
 11
24.204788503723091
 21
18.930979720406295
  0
LINE
  8
_0-1_EL-SL200SAIMEI
  6
CONTINUOUS
 62
    7
 10
22.045402653568491
 20
20.030481944523807
 11
23.146455170654381
 21
19.353865191220695
  0
LINE
  8
_0-1_EL-SL200SAIMEI
  6
CONTINUOUS
 62
    7
 10
20.817570622625492
 20
21.088815277592566
 11
22.045402653568491
 21
20.030481944523807
  0
LINE
  8
_0-1_EL-SL200SAIMEI
  6
CONTINUOUS
 62
    7
 10
19.759237289556701
 20
22.528865190427005
 11
20.817570622625492
 21
21.088815277592566
  0
LINE
  8
_0-1_EL-SL200SAIMEI
  6
CONTINUOUS
 62
    7
 10
18.913121838379368
 20
24.263815276798784
 11
19.759237289556701
 21
22.528865190427005
  0
LINE
  8
_0-1_EL-SL200SAIMEI
  6
CONTINUOUS
 62
    7
 10
18.404625744756494
 20
26.042862585381805
 11
18.913121838379368
 21
24.263815276798784
  0
LINE
  8
_0-1_EL-SL200SAIMEI
  6
CONTINUOUS
 62
    7
 10
18.235127046882191
 20
27.438815276005005
 11
18.404625744756494
 21
26.042862585381805
  0
LINE
  8
_0-1_EL-SL200SAIMEI
  6
CONTINUOUS
 62
    7
 10
18.235127046882191
 20
28.962925518679604
 11
18.235127046882191
 21
27.438815276005005
  0
LINE
  8
_0-1_EL-SL200SAIMEI
  6
CONTINUOUS
 62
    7
 10
18.31918737672229
 20
29.853310446842407
 11
18.235127046882191
 21
28.962925518679604
  0
LINE
  8
_0-1_EL-SL200SAIMEI
  6
CONTINUOUS
 62
    7
 10
18.488686074596593
 20
30.868580086345496
 11
18.31918737672229
 21
29.853310446842407
  0
LINE
  8
_0-1_EL-SL200SAIMEI
  6
CONTINUOUS
 62
    7
 10
18.7436231405051
 20
31.800306160331296
 11
18.488686074596593
 21
30.868580086345496
  0
LINE
  8
_0-1_EL-SL200SAIMEI
  6
CONTINUOUS
 62
    7
 10
19.42023989380818
 20
33.451195916863092
 11
18.7436231405051
 21
31.800306160331296
  0
LINE
  8
_0-1_EL-SL200SAIMEI
  6
CONTINUOUS
 62
    7
 10
20.139575831128269
 20
34.678855693031792
 11
19.42023989380818
 21
33.451195916863092
  0
LINE
  8
_0-1_EL-SL200SAIMEI
  6
CONTINUOUS
 62
    7
 10
21.283347532231289
 20
36.033639492606305
 11
20.139575831128269
 21
34.678855693031792
  0
LINE
  8
_0-1_EL-SL200SAIMEI
  6
CONTINUOUS
 62
    7
 10
22.256242497265792
 20
36.836863504992287
 11
21.283347532231289
 21
36.033639492606305
  0
LINE
  8
_0-1_EL-SL200SAIMEI
  6
CONTINUOUS
 62
    7
 10
22.976956472780081
 20
37.302812669372393
 11
22.256242497265792
 21
36.836863504992287
  0
LINE
  8
_0-1_EL-SL200SAIMEI
  6
CONTINUOUS
 62
    7
 10
24.458347531437493
 20
37.938260531626689
 11
22.976956472780081
 21
37.302812669372393
  0
LINE
  8
_0-1_EL-SL200SAIMEI
  6
CONTINUOUS
 62
    7
 10
24.881405257026191
 20
38.064867790709705
 11
24.458347531437493
 21
37.938260531626689
  0
LINE
  8
_0-1_EL-SL200SAIMEI
  6
CONTINUOUS
 62
    7
 10
26.151956471986271
 20
38.234194233809689
 11
24.881405257026191
 21
38.064867790709705
  0
LINE
  8
_0-1_EL-SL200SAIMEI
  6
CONTINUOUS
 62
    7
 10
27.633347530643793
 20
38.107586974726807
 11
26.151956471986271
 21
38.234194233809689
  0
LINE
  8
_0-1_EL-SL200SAIMEI
  6
CONTINUOUS
 62
    7
 10
28.945239891426901
 20
37.472311367246697
 11
28.225903954106691
 21
37.684529249138109
  0
LINE
  8
_0-1_EL-SL200SAIMEI
  6
CONTINUOUS
 62
    7
 10
29.834074526621382
 20
37.049253641657998
 11
28.945239891426901
 21
37.472311367246697
  0
LINE
  8
_0-1_EL-SL200SAIMEI
  6
CONTINUOUS
 62
    7
 10
30.59612964795858
 20
36.540929802809408
 11
29.834074526621382
 21
37.049253641657998
  0
LINE
  8
_0-1_EL-SL200SAIMEI
  6
CONTINUOUS
 62
    7
 10
31.4436231373301
 20
35.821593865489199
 11
30.59612964795858
 21
36.540929802809408
  0
LINE
  8
_0-1_EL-SL200SAIMEI
  6
CONTINUOUS
 62
    7
 10
32.332457772524506
 20
34.763260532420496
 11
31.4436231373301
 21
35.821593865489199
  0
LINE
  8
_0-1_EL-SL200SAIMEI
  6
CONTINUOUS
 62
    7
 10
40.968623134948793
 20
56.904027942249904
 11
41.052683464788892
 21
56.904027942249904
  0
TEXT
  8
_0-1_EL-SL200SAIMEI
 62
    7
 10
0.123152354097165
 20
77.14038223275989
 40
4.5
 41
1
 50
0
  1
LEDｸﾗｽ200 ｽﾎﾟｯﾄﾗｲﾄ
  0
TEXT
  8
_0-1_EL-SL200SAIMEI
 62
    7
 10
0.123152354097165
 20
-6.8596127672400442
 40
4.5
 41
1
 50
0
  1
三菱　EL-SL20023W/K
  0
INSERT
  2
-002-SPECEL-SL20023WK
  8
_0-0_0
 10
55.817809446721391
 20
4.3196238739813211
 41
1
 42
1
 50
0
  0
ENDSEC
  0
EOF
