  0
SECTION
  2
HEADER
  9
$ACADVER
  1
AC1009
  9
$INSBASE
 10
0
 20
0
 30
0
  9
$EXTMIN
 10
0
 20
0
  9
$EXTMAX
 10
105.125
 20
74.25
  9
$LIMMIN
 10
0
 20
0
  9
$LIMMAX
 10
105.125
 20
74.25
  9
$LTSCALE
 40
0.125
  0
ENDSEC
  0
SECTION
  2
TABLES
  0
TABLE
  2
LTYPE
 70
     9
  0
LTYPE
  2
CONTINUOUS
 70
    64
  3
実線
 72
    65
 73
     0
 40
0.0
  0
LTYPE
  2
DASHED1
 70
    64
  3
--  --  --  --  --  --  --  --  
 72
    65
 73
     2
 40
2.5
 49
1.25
 49
-1.25
  0
LTYPE
  2
DASHED2
 70
    64
  3
----    ----    ----    ----    
 72
    65
 73
     2
 40
5.0
 49
2.5
 49
-2.5
  0
LTYPE
  2
DASHED3
 70
    64
  3
------  ------  ------  ------  
 72
    65
 73
     2
 40
5.0
 49
3.75
 49
-1.25
  0
LTYPE
  2
CENTER1
 70
    64
  3
----- - ----- - ----- - ----- - 
 72
    65
 73
     4
 40
10.0
 49
6.25
 49
-1.25
 49
1.25
 49
-1.25
  0
LTYPE
  2
CENTER2
 70
    64
  3
----------  --  ----------  --  
 72
    65
 73
     4
 40
20.0
 49
12.5
 49
-2.5
 49
2.5
 49
-2.5
  0
LTYPE
  2
PHANTOM1
 70
    64
  3
--- - - --- - - --- - - --- - - 
 72
    65
 73
     6
 40
10.0
 49
3.25
 49
-1.25
 49
1.25
 49
-1.25
 49
1.25
 49
-1.25
  0
LTYPE
  2
PHANTOM2
 70
    64
  3
--------  -  -  --------  -  -  
 72
    65
 73
     6
 40
20.0
 49
10.0
 49
-2.5
 49
1.25
 49
-2.5
 49
1.25
 49
-2.5
  0
LTYPE
  2
DOT
 70
    64
  3
-   -   -   -   -   -   -   -   
 72
    65
 73
     2
 40
2.5
 49
0.625
 49
-1.875
  0
LTYPE
  2
DUMMY
 70
    64
  3
ダミー
 72
    65
 73
     0
 40
0.0
  0
LTYPE
  2
RAND1
 70
    64
  3
ランダム線1
 72
    65
 73
     4
 40
10.0
 49
1.0
 49
-2.0
 49
3.0
 49
-4.0
  0
LTYPE
  2
RAND2
 70
    64
  3
ランダム線2
 72
    65
 73
     4
 40
14.0
 49
2.0
 49
-3.0
 49
4.0
 49
-5.0
  0
LTYPE
  2
RAND3
 70
    64
  3
ランダム線3
 72
    65
 73
     4
 40
18.0
 49
3.0
 49
-4.0
 49
5.0
 49
-6.0
  0
LTYPE
  2
RAND4
 70
    64
  3
ランダム線4
 72
    65
 73
     4
 40
22.0
 49
4.0
 49
-5.0
 49
6.0
 49
-7.0
  0
LTYPE
  2
RAND5
 70
    64
  3
ランダム線5
 72
    65
 73
     4
 40
26.0
 49
5.0
 49
-6.0
 49
7.0
 49
-8.0
  0
LTYPE
  2
LONG1
 70
    64
  3
----------  --  ----------  --  
 72
    65
 73
     4
 40
40.0
 49
32.5
 49
-2.5
 49
2.5
 49
-2.5
  0
LTYPE
  2
LONG2
 70
    64
  3
--------  -  -  --------  -  -  
 72
    65
 73
     6
 40
40.0
 49
30.0
 49
-2.5
 49
1.25
 49
-2.5
 49
1.25
 49
-2.5
  0
LTYPE
  2
LONG3
 70
    64
  3
+++++++++++++++..+++++++++++++++
 72
    65
 73
     2
 40
40.0
 49
37.5
 49
-2.5
  0
LTYPE
  2
LONG4
 70
    64
  3
+++++++++++++++..+++++++++++++++
 72
    65
 73
     2
 40
80.0
 49
75.0
 49
-5.0
  0
LTYPE
  2
LONG5
 70
    64
  3
----------  --  ----------  --  
 72
    65
 73
     4
 40
60.0
 49
37.5
 49
-7.5
 49
7.5
 49
-7.5
  0
LTYPE
  2
dashed
 70
   64
  3
-------   -------------   ------
 72
   65
 73
    2
 40
7.5
 49
6
 49
-1.5
  0
LTYPE
  2
dashed_spaced
 70
   64
  3
----        --------        ----
 72
   65
 73
    2
 40
12
 49
6
 49
-6
  0
LTYPE
  2
long_dashed_dotted
 70
   64
  3
------------- --- --------------
 72
   65
 73
    4
 40
15.25
 49
12
 49
-1.5
 49
0.25
 49
-1.5
  0
LTYPE
  2
long_dashed_double-dotted
 70
   64
  3
----------- --- --- ------------
 72
   65
 73
    6
 40
17
 49
12
 49
-1.5
 49
0.25
 49
-1.5
 49
0.25
 49
-1.5
  0
LTYPE
  2
long_dashed_triplicate-dotted
 70
   64
  3
--------- --- --- --- ----------
 72
   65
 73
    8
 40
18.75
 49
12
 49
-1.5
 49
0.25
 49
-1.5
 49
0.25
 49
-1.5
 49
0.25
 49
-1.5
  0
LTYPE
  2
dotted
 70
   64
  3
   -       -       -       -    
 72
   65
 73
    2
 40
1.75
 49
0.25
 49
-1.5
  0
LTYPE
  2
chain
 70
   64
  3
-------------- -- --------------
 72
   65
 73
    4
 40
18.5
 49
12
 49
-1.5
 49
3.5
 49
-1.5
  0
LTYPE
  2
chain_double_dash
 70
   64
  3
------------ -- -- -------------
 72
   65
 73
    6
 40
23.5
 49
12
 49
-1.5
 49
3.5
 49
-1.5
 49
3.5
 49
-1.5
  0
LTYPE
  2
dashed_dotted
 70
   64
  3
-----------     -     ----------
 72
   65
 73
    4
 40
9.25
 49
6
 49
-1.5
 49
0.25
 49
-1.5
  0
LTYPE
  2
double-dashed_dotted
 70
   64
  3
------   -----------   -   -----
 72
   65
 73
    6
 40
16.75
 49
6
 49
-1.5
 49
6
 49
-1.5
 49
0.25
 49
-1.5
  0
LTYPE
  2
dashed_double-dotted
 70
   64
  3
---------    -    -    ---------
 72
   65
 73
    6
 40
11
 49
6
 49
-1.5
 49
0.25
 49
-1.5
 49
0.25
 49
-1.5
  0
LTYPE
  2
double-dashed_double-dotted
 70
   64
  3
-----   ---------   -   -   ----
 72
   65
 73
    8
 40
18.5
 49
6
 49
-1.5
 49
6
 49
-1.5
 49
0.25
 49
-1.5
 49
0.25
 49
-1.5
  0
LTYPE
  2
dashed_triplicate-dotted
 70
   64
  3
-------    -    -    -    ------
 72
   65
 73
    8
 40
12.75
 49
6
 49
-1.5
 49
0.25
 49
-1.5
 49
0.25
 49
-1.5
 49
0.25
 49
-1.5
  0
LTYPE
  2
double-dashed_triplicate-dotted
 70
   64
  3
-----  ---------  -  -  -  -----
 72
   65
 73
   10
 40
20.25
 49
6
 49
-1.5
 49
6
 49
-1.5
 49
0.25
 49
-1.5
 49
0.25
 49
-1.5
 49
0.25
 49
-1.5
  0
LTYPE
  2
undefined
 70
   64
  3
--------------------------------
 72
   65
 73
    0
 40
0
  0
LTYPE
  2
_
 70
   64
  3
                                
 72
   65
 73
    0
 40
0
  0
LTYPE
  2
__18
 70
   64
  3
                                
 72
   65
 73
    0
 40
0
  0
LTYPE
  2
__19
 70
   64
  3
                                
 72
   65
 73
    0
 40
0
  0
LTYPE
  2
__20
 70
   64
  3
                                
 72
   65
 73
    0
 40
0
  0
LTYPE
  2
__21
 70
   64
  3
                                
 72
   65
 73
    0
 40
0
  0
LTYPE
  2
__22
 70
   64
  3
                                
 72
   65
 73
    0
 40
0
  0
LTYPE
  2
__23
 70
   64
  3
                                
 72
   65
 73
    0
 40
0
  0
LTYPE
  2
__24
 70
   64
  3
                                
 72
   65
 73
    0
 40
0
  0
LTYPE
  2
__25
 70
   64
  3
                                
 72
   65
 73
    0
 40
0
  0
LTYPE
  2
__26
 70
   64
  3
                                
 72
   65
 73
    0
 40
0
  0
LTYPE
  2
__27
 70
   64
  3
                                
 72
   65
 73
    0
 40
0
  0
LTYPE
  2
__28
 70
   64
  3
                                
 72
   65
 73
    0
 40
0
  0
LTYPE
  2
__29
 70
   64
  3
                                
 72
   65
 73
    0
 40
0
  0
LTYPE
  2
__30
 70
   64
  3
                                
 72
   65
 73
    0
 40
0
  0
LTYPE
  2
__31
 70
   64
  3
                                
 72
   65
 73
    0
 40
0
  0
LTYPE
  2
__32
 70
   64
  3
                                
 72
   65
 73
    0
 40
0
  0
ENDTAB
  0
TABLE
  2
STYLE
  5
3
100
AcDbSymbolTable
 70
     1
  0
STYLE
  5
10
100
AcDbSymbolTableRecord
100
AcDbTextStyleTableRecord
  2
STANDARD
 70
     0
 40
0.0
 41
1.0
 50
0.0
 71
     0
 42
0.2
  3
txt
  4
bigfont.shx
  0
STYLE
  5
26
100
AcDbSymbolTableRecord
100
AcDbTextStyleTableRecord
  2
TATEGAKI
 70
    68
 40
0.0
 41
1.0
 50
0.0
 71
     0
 42
1.0
  3
txt
  4
bigfont.shx
  0
ENDTAB
  0
TABLE
  2
LAYER
 70
    3
  0
LAYER
  2
_0-0_0
 70
   64
 62
    7
  6
CONTINUOUS
  0
LAYER
  2
_0-1_EL-SL200SAIMEI
 70
   64
 62
    7
  6
CONTINUOUS
  0
LAYER
  2
ADD_LINE
 70
   64
 62
    7
  6
CONTINUOUS
  0
ENDTAB
  0
ENDSEC
  0
SECTION
  2
BLOCKS
  0
BLOCK
  2
-002-SPECEL-SL20024WWW
 70
   64
 10
0
 20
0
 30
0
  0
TEXT
  8
_0-2_SPEC
 62
    7
 10
0
 20
0
 40
1.5
 41
1
 50
0
  1
ｽﾎﾟｯﾄﾗｲﾄ 温白色(3500K) Ra95
  0
TEXT
  8
_0-2_SPEC
 62
    7
 10
0
 20
-3
 40
1.5
 41
1
 50
0
  1
本体:ｱﾙﾐﾀﾞｲｶｽﾄ 白色塗装仕上
  0
TEXT
  8
_0-2_SPEC
 62
    7
 10
0
 20
-6
 40
1.5
 41
1
 50
0
  1
光源寿命:40,000時間
  0
TEXT
  8
_0-2_SPEC
 62
    7
 10
0
 20
-9
 40
1.5
 41
1
 50
0
  1
光束:2200lm 消費電力:21.2W 消費効率:103.8lm/W
  0
ENDBLK
  0
ENDSEC
  0
SECTION
  2
ENTITIES
  0
LINE
  8
_0-1_EL-SL200SAIMEI
  6
CONTINUOUS
 62
    7
 10
35.98897715244923
 20
56.438251032644068
 11
36.07303748228933
 21
56.438251032644068
  0
LINE
  8
_0-1_EL-SL200SAIMEI
  6
CONTINUOUS
 62
    7
 10
35.98897715244923
 20
57.030979710881283
 11
36.369315694020841
 21
57.241475045030079
  0
LINE
  8
_0-1_EL-SL200SAIMEI
  6
CONTINUOUS
 62
    7
 10
38.951759269764132
 20
47.293589576596894
 11
39.374816995352731
 21
47.632586972345493
  0
LINE
  8
_0-1_EL-SL200SAIMEI
  6
CONTINUOUS
 62
    7
 10
46.699089996993912
 20
25.154027950187405
 11
46.995368208725417
 21
26.592527570053385
  0
LINE
  8
_0-1_EL-SL200SAIMEI
  6
CONTINUOUS
 62
    7
 10
46.318751455422337
 20
24.095694617118586
 11
46.699089996993912
 21
25.154027950187405
  0
LINE
  8
_0-1_EL-SL200SAIMEI
  6
CONTINUOUS
 62
    7
 10
45.683475847942226
 20
22.867862586175587
 11
46.318751455422337
 21
24.095694617118586
  0
LINE
  8
_0-1_EL-SL200SAIMEI
  6
CONTINUOUS
 62
    7
 10
44.878701542587926
 20
21.766982323864006
 11
45.683475847942226
 21
22.867862586175587
  0
LINE
  8
_0-1_EL-SL200SAIMEI
  6
CONTINUOUS
 62
    7
 10
43.905806577553321
 20
20.877975433895337
 11
44.878701542587926
 21
21.766982323864006
  0
LINE
  8
_0-1_EL-SL200SAIMEI
  6
CONTINUOUS
 62
    7
 10
42.635255362593242
 20
20.115920312557986
 11
43.905806577553321
 21
20.877975433895337
  0
LINE
  8
_0-1_EL-SL200SAIMEI
  6
CONTINUOUS
 62
    7
 10
41.703701543381619
 20
19.776922916809404
 11
42.635255362593242
 21
20.115920312557986
  0
LINE
  8
_0-1_EL-SL200SAIMEI
  6
CONTINUOUS
 62
    7
 10
40.984365606061516
 20
19.607596473709396
 11
41.703701543381619
 21
19.776922916809404
  0
LINE
  8
_0-1_EL-SL200SAIMEI
  6
CONTINUOUS
 62
    7
 10
40.561307880472818
 20
19.607596473709396
 11
40.984365606061516
 21
19.607596473709396
  0
LINE
  8
_0-1_EL-SL200SAIMEI
  6
CONTINUOUS
 62
    7
 10
25.19342593987032
 20
18.549263140640587
 11
40.561307880472818
 21
19.607596473709396
  0
LINE
  8
_0-1_EL-SL200SAIMEI
  6
CONTINUOUS
 62
    7
 10
25.785982363333328
 20
19.184194238572186
 11
26.16769894309903
 21
19.184194238572186
  0
LINE
  8
_0-1_EL-SL200SAIMEI
  6
CONTINUOUS
 62
    7
 10
24.686307884441508
 20
20.242527571640895
 11
24.770368214281607
 21
20.242527571640895
  0
LINE
  8
_0-1_EL-SL200SAIMEI
  6
CONTINUOUS
 62
    7
 10
24.897147728138808
 20
28.751913420208005
 11
24.897147728138808
 21
28.709194236190907
  0
LINE
  8
_0-1_EL-SL200SAIMEI
  6
CONTINUOUS
 62
    7
 10
33.74553097245451
 20
54.914313044743778
 11
33.702811788437444
 21
54.617862578238082
  0
LINE
  8
_0-1_EL-SL200SAIMEI
  6
CONTINUOUS
 62
    7
 10
26.210418127116139
 20
37.768589578978087
 11
26.251759272939129
 21
37.725870394961099
  0
LINE
  8
_0-1_EL-SL200SAIMEI
  6
CONTINUOUS
 62
    7
 10
26.378538786796337
 20
37.684529249138109
 11
26.33719764097334
 21
37.725870394961099
  0
LINE
  8
_0-1_EL-SL200SAIMEI
  6
CONTINUOUS
 62
    7
 10
33.406533576705925
 20
49.326195912894285
 11
34.338087395917519
 21
56.141972820912592
  0
LINE
  8
_0-1_EL-SL200SAIMEI
  6
CONTINUOUS
 62
    7
 10
33.490593906546025
 20
48.817527564497183
 11
33.449252760723041
 21
48.437361277699885
  0
LINE
  8
_0-1_EL-SL200SAIMEI
  6
CONTINUOUS
 62
    7
 10
34.761145121506104
 20
56.013815268861315
 11
33.999090000168906
 21
50.468589575803087
  0
LINE
  8
_0-1_EL-SL200SAIMEI
  6
CONTINUOUS
 62
    7
 10
34.973363003397523
 20
56.564858291726978
 11
34.803864305523206
 21
55.379917699575273
  0
LINE
  8
_0-1_EL-SL200SAIMEI
  6
CONTINUOUS
 62
    7
 10
35.141483663077722
 20
56.564858291726978
 11
35.226922031111918
 21
56.988260526864217
  0
LINE
  8
_0-1_EL-SL200SAIMEI
  6
CONTINUOUS
 62
    7
 10
35.776759270557832
 20
57.537925511535768
 11
35.776759270557832
 21
57.623191624795815
  0
LINE
  8
_0-1_EL-SL200SAIMEI
  6
CONTINUOUS
 62
    7
 10
34.718425937489116
 20
48.521593862314198
 11
34.634365607649016
 21
48.098191627177009
  0
LINE
  8
_0-1_EL-SL200SAIMEI
  6
CONTINUOUS
 62
    7
 10
34.761145121506104
 20
48.478530168748584
 11
34.718425937489116
 21
48.098191627177009
  0
LINE
  8
_0-1_EL-SL200SAIMEI
  6
CONTINUOUS
 62
    7
 10
34.887924635363305
 20
48.478530168748584
 11
34.84520545134621
 21
48.098191627177009
  0
LINE
  8
_0-1_EL-SL200SAIMEI
  6
CONTINUOUS
 62
    7
 10
36.369315694020841
 20
57.241475045030079
 11
36.412034878037943
 21
57.623191624795815
  0
LINE
  8
_0-1_EL-SL200SAIMEI
  6
CONTINUOUS
 62
    7
 10
36.793751457803616
 20
57.114867785947112
 11
36.835092603626606
 21
57.496584365712792
  0
LINE
  8
_0-1_EL-SL200SAIMEI
  6
CONTINUOUS
 62
    7
 10
37.004591301500916
 20
57.537925511535768
 11
37.004591301500916
 21
57.623191624795815
  0
LINE
  8
_0-1_EL-SL200SAIMEI
  6
CONTINUOUS
 62
    7
 10
36.877811787643722
 20
56.225860895978428
 11
36.708313089769412
 21
55.040920303826674
  0
LINE
  8
_0-1_EL-SL200SAIMEI
  6
CONTINUOUS
 62
    7
 10
37.047310485517926
 20
55.590929798046872
 11
36.285255364180742
 21
50.045531850214495
  0
LINE
  8
_0-1_EL-SL200SAIMEI
  6
CONTINUOUS
 62
    7
 10
37.555806579140821
 20
56.225860895978428
 11
37.47036821110661
 21
55.590929798046872
  0
LINE
  8
_0-1_EL-SL200SAIMEI
  6
CONTINUOUS
 62
    7
 10
38.148363002603816
 20
57.284194229047209
 11
38.062924634569619
 21
56.904027942249904
  0
LINE
  8
_0-1_EL-SL200SAIMEI
  6
CONTINUOUS
 62
    7
 10
38.020205450552517
 20
56.013815268861315
 11
37.936145120712418
 21
55.549244142675363
  0
LINE
  8
_0-1_EL-SL200SAIMEI
  6
CONTINUOUS
 62
    7
 10
38.528701544175426
 20
57.030979710881283
 11
38.528701544175426
 21
57.284194229047209
  0
LINE
  8
_0-1_EL-SL200SAIMEI
  6
CONTINUOUS
 62
    7
 10
38.824979755906931
 20
56.861308758232774
 11
38.824979755906931
 21
56.988260526864217
  0
LINE
  8
_0-1_EL-SL200SAIMEI
  6
CONTINUOUS
 62
    7
 10
38.69820024204973
 20
55.506524958658183
 11
38.740919426066831
 21
55.845694609181116
  0
LINE
  8
_0-1_EL-SL200SAIMEI
  6
CONTINUOUS
 62
    7
 10
38.910418123941142
 20
56.352812664609928
 11
38.867698939924026
 21
55.845522354406903
  0
LINE
  8
_0-1_EL-SL200SAIMEI
  6
CONTINUOUS
 62
    7
 10
39.078538783621326
 20
57.241475045030079
 11
39.078538783621326
 21
57.114867785947112
  0
LINE
  8
_0-1_EL-SL200SAIMEI
  6
CONTINUOUS
 62
    7
 10
39.121257967638435
 20
57.284194229047209
 11
39.078538783621326
 21
57.114867785947112
  0
LINE
  8
_0-1_EL-SL200SAIMEI
  6
CONTINUOUS
 62
    7
 10
39.078538783621326
 20
56.945196833298603
 11
39.078538783621326
 21
56.861308758232774
  0
LINE
  8
_0-1_EL-SL200SAIMEI
  6
CONTINUOUS
 62
    7
 10
38.994478453781241
 20
55.845694609181116
 11
38.951759269764132
 21
55.549244142675363
  0
LINE
  8
_0-1_EL-SL200SAIMEI
  6
CONTINUOUS
 62
    7
 10
39.163977151655537
 20
56.904027942249904
 11
39.163977151655537
 21
57.030979710881283
  0
LINE
  8
_0-1_EL-SL200SAIMEI
  6
CONTINUOUS
 62
    7
 10
38.910418123941142
 20
54.914313044743778
 11
38.951759269764132
 21
55.379917699575273
  0
LINE
  8
_0-1_EL-SL200SAIMEI
  6
CONTINUOUS
 62
    7
 10
39.50297454740403
 20
56.904027942249904
 11
39.50297454740403
 21
57.030979710881283
  0
LINE
  8
_0-1_EL-SL200SAIMEI
  6
CONTINUOUS
 62
    7
 10
39.587034877244129
 20
56.904027942249904
 11
39.587034877244129
 21
57.030979710881283
  0
LINE
  8
_0-1_EL-SL200SAIMEI
  6
CONTINUOUS
 62
    7
 10
39.333475849529727
 20
54.828530167161084
 11
39.163977151655537
 21
53.643589575009393
  0
LINE
  8
_0-1_EL-SL200SAIMEI
  6
CONTINUOUS
 62
    7
 10
39.587034877244129
 20
55.802975425163986
 11
39.672473245278326
 21
56.268580079995495
  0
LINE
  8
_0-1_EL-SL200SAIMEI
  6
CONTINUOUS
 62
    7
 10
39.799252759135541
 20
54.828530167161084
 11
39.840593904958531
 21
55.337198515558207
  0
LINE
  8
_0-1_EL-SL200SAIMEI
  6
CONTINUOUS
 62
    7
 10
39.71381439110133
 20
53.855979711674983
 11
39.71381439110133
 21
53.559529245169294
  0
LINE
  8
_0-1_EL-SL200SAIMEI
  6
CONTINUOUS
 62
    7
 10
40.095530970867038
 20
56.311643773561222
 11
40.052811786849936
 21
55.845522354406903
  0
LINE
  8
_0-1_EL-SL200SAIMEI
  6
CONTINUOUS
 62
    7
 10
39.248037481495636
 20
48.394642093682783
 11
39.926032272992735
 21
53.516810061152228
  0
LINE
  8
_0-1_EL-SL200SAIMEI
  6
CONTINUOUS
 62
    7
 10
40.30637081456431
 20
54.871593860726698
 11
40.349089998581405
 21
55.337198515558207
  0
LINE
  8
_0-1_EL-SL200SAIMEI
  6
CONTINUOUS
 62
    7
 10
39.417536179369826
 20
48.055644697934206
 11
39.374816995352731
 21
47.632586972345493
  0
LINE
  8
_0-1_EL-SL200SAIMEI
  6
CONTINUOUS
 62
    7
 10
40.433150328421512
 20
53.516982315926498
 11
40.475869512438621
 21
53.813260527658024
  0
LINE
  8
_0-1_EL-SL200SAIMEI
  6
CONTINUOUS
 62
    7
 10
39.799252759135541
 20
48.437361277699885
 11
40.475869512438621
 21
53.516982315926498
  0
LINE
  8
_0-1_EL-SL200SAIMEI
  6
CONTINUOUS
 62
    7
 10
40.602649026295822
 20
54.321584366506606
 11
40.688087394330019
 21
54.828530167161084
  0
LINE
  8
_0-1_EL-SL200SAIMEI
  6
CONTINUOUS
 62
    7
 10
40.984365606061516
 20
53.813260527658024
 11
40.941646422044421
 21
53.516982315926498
  0
LINE
  8
_0-1_EL-SL200SAIMEI
  6
CONTINUOUS
 62
    7
 10
27.099252762310538
 20
37.472311367246697
 11
27.268751460184838
 21
37.472311367246697
  0
LINE
  8
_0-1_EL-SL200SAIMEI
  6
CONTINUOUS
 62
    7
 10
26.590756668687629
 20
37.557577480506609
 11
26.97247324845333
 21
37.557577480506609
  0
LINE
  8
_0-1_EL-SL200SAIMEI
  6
CONTINUOUS
 62
    7
 10
26.251759272939129
 20
37.725870394961099
 11
26.378538786796337
 21
37.684529249138109
  0
LINE
  8
_0-1_EL-SL200SAIMEI
  6
CONTINUOUS
 62
    7
 10
32.940756667100132
 20
37.175860900740894
 11
27.988087397505019
 21
37.938260531626689
  0
LINE
  8
_0-1_EL-SL200SAIMEI
  6
CONTINUOUS
 62
    7
 10
32.813977153243037
 20
37.175860900740894
 11
26.082260575064829
 21
38.234194233809689
  0
LINE
  8
_0-1_EL-SL200SAIMEI
  6
CONTINUOUS
 62
    7
 10
26.210418127116139
 20
38.234194233809689
 11
26.082260575064829
 21
38.234194233809689
  0
LINE
  8
_0-1_EL-SL200SAIMEI
  6
CONTINUOUS
 62
    7
 10
27.988087397505019
 20
37.938260531626689
 11
27.861307883647818
 21
37.938260531626689
  0
LINE
  8
_0-1_EL-SL200SAIMEI
  6
CONTINUOUS
 62
    7
 10
32.940756667100132
 20
37.175860900740894
 11
32.813977153243037
 21
37.175860900740894
  0
LINE
  8
_0-1_EL-SL200SAIMEI
  6
CONTINUOUS
 62
    7
 10
37.936145120712418
 20
36.033639492606305
 11
34.930643819380421
 21
36.540929802809408
  0
LINE
  8
_0-1_EL-SL200SAIMEI
  6
CONTINUOUS
 62
    7
 10
43.397310483930426
 20
35.016475050586308
 11
37.936145120712418
 21
36.033639492606305
  0
LINE
  8
_0-1_EL-SL200SAIMEI
  6
CONTINUOUS
 62
    7
 10
34.930643819380421
 20
36.540929802809408
 11
34.295368211900417
 21
36.795694613943589
  0
LINE
  8
_0-1_EL-SL200SAIMEI
  6
CONTINUOUS
 62
    7
 10
34.295368211900417
 20
36.795694613943589
 11
32.940756667100132
 21
37.175860900740894
  0
LINE
  8
_0-1_EL-SL200SAIMEI
  6
CONTINUOUS
 62
    7
 10
38.444641214335327
 20
57.369977106629896
 11
38.444641214335327
 21
57.284194229047209
  0
LINE
  8
_0-1_EL-SL200SAIMEI
  6
CONTINUOUS
 62
    7
 10
43.820368209519138
 20
34.805979716437598
 11
43.397310483930426
 21
35.016475050586308
  0
LINE
  8
_0-1_EL-SL200SAIMEI
  6
CONTINUOUS
 62
    7
 10
33.786872118277543
 20
48.012925513917104
 11
33.449252760723041
 21
48.437189022925587
  0
LINE
  8
_0-1_EL-SL200SAIMEI
  6
CONTINUOUS
 62
    7
 10
34.84520545134621
 20
47.716475047411308
 11
34.634365607649016
 21
48.098191627177009
  0
LINE
  8
_0-1_EL-SL200SAIMEI
  6
CONTINUOUS
 62
    7
 10
34.718425937489116
 20
48.098191627177009
 11
34.887924635363305
 21
47.675306156362602
  0
LINE
  8
_0-1_EL-SL200SAIMEI
  6
CONTINUOUS
 62
    7
 10
34.973363003397523
 20
47.675306156362602
 11
34.84520545134621
 21
48.098191627177009
  0
LINE
  8
_0-1_EL-SL200SAIMEI
  6
CONTINUOUS
 62
    7
 10
44.412924632982119
 20
34.382577481300409
 11
43.820368209519138
 21
34.805979716437598
  0
LINE
  8
_0-1_EL-SL200SAIMEI
  6
CONTINUOUS
 62
    7
 10
45.132260570302329
 20
33.620694614737289
 11
44.412924632982119
 21
34.382577481300409
  0
LINE
  8
_0-1_EL-SL200SAIMEI
  6
CONTINUOUS
 62
    7
 10
46.022473243690825
 20
32.307596470534392
 11
45.132260570302329
 21
33.620694614737289
  0
LINE
  8
_0-1_EL-SL200SAIMEI
  6
CONTINUOUS
 62
    7
 10
46.360092601245341
 20
31.588260533214186
 11
46.022473243690825
 21
32.307596470534392
  0
LINE
  8
_0-1_EL-SL200SAIMEI
  6
CONTINUOUS
 62
    7
 10
46.868588694868215
 20
29.979917705925306
 11
46.360092601245341
 21
31.588260533214186
  0
LINE
  8
_0-1_EL-SL200SAIMEI
  6
CONTINUOUS
 62
    7
 10
47.038087392742518
 20
28.878865188839505
 11
46.868588694868215
 21
29.979917705925306
  0
LINE
  8
_0-1_EL-SL200SAIMEI
  6
CONTINUOUS
 62
    7
 10
47.08080657675962
 20
27.397646384956285
 11
47.038087392742518
 21
28.878865188839505
  0
LINE
  8
_0-1_EL-SL200SAIMEI
  6
CONTINUOUS
 62
    7
 10
46.995368208725417
 20
26.592527570053385
 11
47.08080657675962
 21
27.397646384956285
  0
LINE
  8
_0-1_EL-SL200SAIMEI
  6
CONTINUOUS
 62
    7
 10
34.973363003397523
 20
47.675306156362602
 11
34.887924635363305
 21
47.675306156362602
  0
LINE
  8
_0-1_EL-SL200SAIMEI
  6
CONTINUOUS
 62
    7
 10
34.84520545134621
 20
48.098191627177009
 11
34.718425937489116
 21
48.098191627177009
  0
LINE
  8
_0-1_EL-SL200SAIMEI
  6
CONTINUOUS
 62
    7
 10
34.761145121506104
 20
48.478530168748584
 11
34.887924635363305
 21
48.478530168748584
  0
LINE
  8
_0-1_EL-SL200SAIMEI
  6
CONTINUOUS
 62
    7
 10
34.718425937489116
 20
48.098191627177009
 11
34.634365607649016
 21
48.098191627177009
  0
LINE
  8
_0-1_EL-SL200SAIMEI
  6
CONTINUOUS
 62
    7
 10
34.718425937489116
 20
48.521593862314198
 11
34.761145121506104
 21
48.478530168748584
  0
LINE
  8
_0-1_EL-SL200SAIMEI
  6
CONTINUOUS
 62
    7
 10
34.84520545134621
 20
47.716475047411308
 11
34.887924635363305
 21
47.675306156362602
  0
LINE
  8
_0-1_EL-SL200SAIMEI
  6
CONTINUOUS
 62
    7
 10
36.581533575912211
 20
56.522311362484167
 11
36.242536180163626
 21
56.479592178467094
  0
LINE
  8
_0-1_EL-SL200SAIMEI
  6
CONTINUOUS
 62
    7
 10
34.252649027883322
 20
51.442862579031804
 11
34.338087395917519
 21
51.315910810400382
  0
LINE
  8
_0-1_EL-SL200SAIMEI
  6
CONTINUOUS
 62
    7
 10
34.380806579934614
 20
51.526922908871903
 11
34.252649027883322
 21
51.442862579031804
  0
LINE
  8
_0-1_EL-SL200SAIMEI
  6
CONTINUOUS
 62
    7
 10
34.338087395917519
 20
52.035246747720485
 11
34.422147725757618
 21
51.908639488637583
  0
LINE
  8
_0-1_EL-SL200SAIMEI
  6
CONTINUOUS
 62
    7
 10
34.46486690977472
 20
52.119479332334883
 11
34.338087395917519
 21
52.035246747720485
  0
LINE
  8
_0-1_EL-SL200SAIMEI
  6
CONTINUOUS
 62
    7
 10
34.380806579934614
 20
52.119479332334883
 11
34.46486690977472
 21
52.119479332334883
  0
LINE
  8
_0-1_EL-SL200SAIMEI
  6
CONTINUOUS
 62
    7
 10
34.380806579934614
 20
52.288978030209186
 11
34.380806579934614
 21
52.119479332334883
  0
LINE
  8
_0-1_EL-SL200SAIMEI
  6
CONTINUOUS
 62
    7
 10
34.507586093791815
 20
52.288978030209186
 11
34.380806579934614
 21
52.288978030209186
  0
LINE
  8
_0-1_EL-SL200SAIMEI
  6
CONTINUOUS
 62
    7
 10
34.46486690977472
 20
52.754927194589207
 11
34.548927239614819
 21
52.711863501023593
  0
LINE
  8
_0-1_EL-SL200SAIMEI
  6
CONTINUOUS
 62
    7
 10
34.46486690977472
 20
52.881534453672089
 11
34.46486690977472
 21
52.754927194589207
  0
LINE
  8
_0-1_EL-SL200SAIMEI
  6
CONTINUOUS
 62
    7
 10
34.591646423631914
 20
52.924253637689183
 11
34.46486690977472
 21
52.881534453672089
  0
LINE
  8
_0-1_EL-SL200SAIMEI
  6
CONTINUOUS
 62
    7
 10
34.591646423631914
 20
53.686308759026524
 11
34.634365607649016
 21
53.516810061152228
  0
LINE
  8
_0-1_EL-SL200SAIMEI
  6
CONTINUOUS
 62
    7
 10
34.677084791666132
 20
53.686308759026524
 11
34.591646423631914
 21
53.686308759026524
  0
LINE
  8
_0-1_EL-SL200SAIMEI
  6
CONTINUOUS
 62
    7
 10
35.98897715244923
 20
51.019977108217397
 11
36.031696336466325
 21
51.019977108217397
  0
LINE
  8
_0-1_EL-SL200SAIMEI
  6
CONTINUOUS
 62
    7
 10
36.07303748228933
 20
51.612361276906107
 11
36.115756666306424
 21
51.612361276906107
  0
LINE
  8
_0-1_EL-SL200SAIMEI
  6
CONTINUOUS
 62
    7
 10
36.199816996146524
 20
52.415929798840608
 11
36.242536180163626
 21
52.415929798840608
  0
LINE
  8
_0-1_EL-SL200SAIMEI
  6
CONTINUOUS
 62
    7
 10
36.285255364180742
 20
53.220531849420688
 11
36.327974548197844
 21
53.220531849420688
  0
LINE
  8
_0-1_EL-SL200SAIMEI
  6
CONTINUOUS
 62
    7
 10
36.115756666306424
 20
56.479592178467094
 11
35.946257968432128
 21
56.479592178467094
  0
LINE
  8
_0-1_EL-SL200SAIMEI
  6
CONTINUOUS
 62
    7
 10
36.285255364180742
 20
56.438251032644068
 11
36.581533575912211
 21
56.479592178467094
  0
LINE
  8
_0-1_EL-SL200SAIMEI
  6
CONTINUOUS
 62
    7
 10
36.07303748228933
 20
56.438251032644068
 11
36.115756666306424
 21
56.438251032644068
  0
LINE
  8
_0-1_EL-SL200SAIMEI
  6
CONTINUOUS
 62
    7
 10
36.242536180163626
 20
56.438251032644068
 11
36.285255364180742
 21
56.438251032644068
  0
LINE
  8
_0-1_EL-SL200SAIMEI
  6
CONTINUOUS
 62
    7
 10
36.242536180163626
 20
56.479592178467094
 11
36.115756666306424
 21
56.479592178467094
  0
LINE
  8
_0-1_EL-SL200SAIMEI
  6
CONTINUOUS
 62
    7
 10
36.115756666306424
 20
56.438251032644068
 11
36.242536180163626
 21
56.438251032644068
  0
LINE
  8
_0-1_EL-SL200SAIMEI
  6
CONTINUOUS
 62
    7
 10
39.799252759135541
 20
54.828530167161084
 11
38.910418123941142
 21
54.914313044743778
  0
LINE
  8
_0-1_EL-SL200SAIMEI
  6
CONTINUOUS
 62
    7
 10
36.961872117483821
 20
54.998201119809714
 11
36.708313089769412
 21
55.040920303826674
  0
LINE
  8
_0-1_EL-SL200SAIMEI
  6
CONTINUOUS
 62
    7
 10
39.840593904958531
 20
55.337198515558207
 11
38.951759269764132
 21
55.379917699575273
  0
LINE
  8
_0-1_EL-SL200SAIMEI
  6
CONTINUOUS
 62
    7
 10
38.69820024204973
 20
55.506524958658183
 11
37.936145120712418
 21
55.549244142675363
  0
LINE
  8
_0-1_EL-SL200SAIMEI
  6
CONTINUOUS
 62
    7
 10
37.047310485517926
 20
55.590929798046872
 11
37.258150329215226
 21
55.590929798046872
  0
LINE
  8
_0-1_EL-SL200SAIMEI
  6
CONTINUOUS
 62
    7
 10
36.793751457803616
 20
55.633648982064003
 11
37.47036821110661
 21
55.590929798046872
  0
LINE
  8
_0-1_EL-SL200SAIMEI
  6
CONTINUOUS
 62
    7
 10
34.887924635363305
 20
56.013815268861315
 11
34.761145121506104
 21
56.013815268861315
  0
LINE
  8
_0-1_EL-SL200SAIMEI
  6
CONTINUOUS
 62
    7
 10
39.587034877244129
 20
55.802975425163986
 11
38.867698939924026
 21
55.845522354406903
  0
LINE
  8
_0-1_EL-SL200SAIMEI
  6
CONTINUOUS
 62
    7
 10
36.877811787643722
 20
56.225860895978428
 11
37.555806579140821
 21
56.225860895978428
  0
LINE
  8
_0-1_EL-SL200SAIMEI
  6
CONTINUOUS
 62
    7
 10
39.672473245278326
 20
56.268580079995495
 11
38.910418123941142
 21
56.352812664609928
  0
LINE
  8
_0-1_EL-SL200SAIMEI
  6
CONTINUOUS
 62
    7
 10
35.649979756700631
 20
56.522311362484167
 11
34.973363003397523
 21
56.564858291726978
  0
LINE
  8
_0-1_EL-SL200SAIMEI
  6
CONTINUOUS
 62
    7
 10
39.587034877244129
 20
56.438251032644068
 11
38.824979755906931
 21
56.479592178467094
  0
LINE
  8
_0-1_EL-SL200SAIMEI
  6
CONTINUOUS
 62
    7
 10
39.078538783621326
 20
56.522311362484167
 11
38.316483662284021
 21
56.522311362484167
  0
LINE
  8
_0-1_EL-SL200SAIMEI
  6
CONTINUOUS
 62
    7
 10
38.824979755906931
 20
56.861308758232774
 11
38.062924634569619
 21
56.903855687475577
  0
LINE
  8
_0-1_EL-SL200SAIMEI
  6
CONTINUOUS
 62
    7
 10
36.115756666306424
 20
57.114867785947112
 11
35.776759270557832
 21
57.114867785947112
  0
LINE
  8
_0-1_EL-SL200SAIMEI
  6
CONTINUOUS
 62
    7
 10
38.571420728192528
 20
57.030979710881283
 11
38.528701544175426
 21
57.030979710881283
  0
LINE
  8
_0-1_EL-SL200SAIMEI
  6
CONTINUOUS
 62
    7
 10
39.163977151655537
 20
57.030979710881283
 11
39.50297454740403
 21
57.030979710881283
  0
LINE
  8
_0-1_EL-SL200SAIMEI
  6
CONTINUOUS
 62
    7
 10
38.528701544175426
 20
57.284194229047209
 11
38.148363002603816
 21
57.284194229047209
  0
LINE
  8
_0-1_EL-SL200SAIMEI
  6
CONTINUOUS
 62
    7
 10
38.444641214335327
 20
57.369977106629896
 11
37.766646422838122
 21
57.411145997678709
  0
LINE
  8
_0-1_EL-SL200SAIMEI
  6
CONTINUOUS
 62
    7
 10
37.809365606855216
 20
57.496584365712792
 11
37.131370815358025
 21
57.537925511535768
  0
LINE
  8
_0-1_EL-SL200SAIMEI
  6
CONTINUOUS
 62
    7
 10
35.776759270557832
 20
57.623191624795815
 11
36.115756666306424
 21
57.623191624795815
  0
LINE
  8
_0-1_EL-SL200SAIMEI
  6
CONTINUOUS
 62
    7
 10
37.427649027089537
 20
57.623191624795815
 11
37.004591301500916
 21
57.623191624795815
  0
LINE
  8
_0-1_EL-SL200SAIMEI
  6
CONTINUOUS
 62
    7
 10
33.702811788437444
 20
54.617862578238082
 11
34.125869514026121
 21
54.532596464978205
  0
LINE
  8
_0-1_EL-SL200SAIMEI
  6
CONTINUOUS
 62
    7
 10
39.163977151655537
 20
53.643589575009393
 11
39.71381439110133
 21
53.559529245169294
  0
LINE
  8
_0-1_EL-SL200SAIMEI
  6
CONTINUOUS
 62
    7
 10
40.095530970867038
 20
54.787361276112279
 11
39.799252759135541
 21
54.828530167161084
  0
LINE
  8
_0-1_EL-SL200SAIMEI
  6
CONTINUOUS
 62
    7
 10
37.258150329215226
 20
55.590929798046872
 11
37.047310485517926
 21
55.633648982064003
  0
LINE
  8
_0-1_EL-SL200SAIMEI
  6
CONTINUOUS
 62
    7
 10
37.47036821110661
 20
55.633648982064003
 11
37.936145120712418
 21
55.549244142675363
  0
LINE
  8
_0-1_EL-SL200SAIMEI
  6
CONTINUOUS
 62
    7
 10
34.887924635363305
 20
56.225860895978428
 11
34.930643819380421
 21
56.225860895978428
  0
LINE
  8
_0-1_EL-SL200SAIMEI
  6
CONTINUOUS
 62
    7
 10
38.69820024204973
 20
55.506524958658183
 11
39.840593904958531
 21
55.337198515558207
  0
LINE
  8
_0-1_EL-SL200SAIMEI
  6
CONTINUOUS
 62
    7
 10
38.951759269764132
 20
55.717537057129789
 11
39.163977151655537
 21
55.633648982064003
  0
LINE
  8
_0-1_EL-SL200SAIMEI
  6
CONTINUOUS
 62
    7
 10
38.867698939924026
 20
55.845694609181116
 11
38.020205450552517
 21
56.013815268861315
  0
LINE
  8
_0-1_EL-SL200SAIMEI
  6
CONTINUOUS
 62
    7
 10
37.555806579140821
 20
56.225860895978428
 11
36.285255364180742
 21
56.438251032644068
  0
LINE
  8
_0-1_EL-SL200SAIMEI
  6
CONTINUOUS
 62
    7
 10
35.98897715244923
 20
56.479592178467094
 11
35.649979756700631
 21
56.522311362484167
  0
LINE
  8
_0-1_EL-SL200SAIMEI
  6
CONTINUOUS
 62
    7
 10
36.031696336466325
 20
56.988260526864217
 11
35.35370154496912
 21
57.072148601930103
  0
LINE
  8
_0-1_EL-SL200SAIMEI
  6
CONTINUOUS
 62
    7
 10
38.316483662284021
 20
56.522311362484167
 11
38.824979755906931
 21
56.479592178467094
  0
LINE
  8
_0-1_EL-SL200SAIMEI
  6
CONTINUOUS
 62
    7
 10
39.587034877244129
 20
56.438251032644068
 11
39.078538783621326
 21
56.522311362484167
  0
LINE
  8
_0-1_EL-SL200SAIMEI
  6
CONTINUOUS
 62
    7
 10
36.031696336466325
 20
57.030979710881283
 11
35.776759270557832
 21
57.114867785947112
  0
LINE
  8
_0-1_EL-SL200SAIMEI
  6
CONTINUOUS
 62
    7
 10
39.374816995352731
 20
56.564858291726978
 11
40.010092602832842
 21
56.479592178467094
  0
LINE
  8
_0-1_EL-SL200SAIMEI
  6
CONTINUOUS
 62
    7
 10
36.412034878037943
 20
57.537925511535768
 11
35.776759270557832
 21
57.623191624795815
  0
LINE
  8
_0-1_EL-SL200SAIMEI
  6
CONTINUOUS
 62
    7
 10
38.528701544175426
 20
57.157586969964306
 11
39.163977151655537
 21
57.030979710881283
  0
LINE
  8
_0-1_EL-SL200SAIMEI
  6
CONTINUOUS
 62
    7
 10
38.148363002603816
 20
57.284194229047209
 11
36.835092603626606
 21
57.496584365712792
  0
LINE
  8
_0-1_EL-SL200SAIMEI
  6
CONTINUOUS
 62
    7
 10
39.417536179369826
 20
57.072148601930103
 11
38.824979755906931
 21
57.157586969964306
  0
LINE
  8
_0-1_EL-SL200SAIMEI
  6
CONTINUOUS
 62
    7
 10
39.078538783621326
 20
56.861308758232774
 11
39.417536179369826
 21
56.522139107709897
  0
LINE
  8
_0-1_EL-SL200SAIMEI
  6
CONTINUOUS
 62
    7
 10
38.062924634569619
 20
56.904027942249904
 11
38.316483662284021
 21
56.522311362484167
  0
LINE
  8
_0-1_EL-SL200SAIMEI
  6
CONTINUOUS
 62
    7
 10
39.078538783621326
 20
56.522311362484167
 11
38.824979755906931
 21
56.861308758232774
  0
LINE
  8
_0-1_EL-SL200SAIMEI
  6
CONTINUOUS
 62
    7
 10
38.528701544175426
 20
57.284194229047209
 11
37.766646422838122
 21
57.411145997678709
  0
LINE
  8
_0-1_EL-SL200SAIMEI
  6
CONTINUOUS
 62
    7
 10
37.131370815358025
 20
57.537925511535768
 11
36.454754062055038
 21
57.623191624795815
  0
LINE
  8
_0-1_EL-SL200SAIMEI
  6
CONTINUOUS
 62
    7
 10
37.004591301500916
 20
57.623191624795815
 11
39.078538783621326
 21
57.241475045030079
  0
LINE
  8
_0-1_EL-SL200SAIMEI
  6
CONTINUOUS
 62
    7
 10
37.427649027089537
 20
57.623191624795815
 11
38.69820024204973
 21
57.369977106629896
  0
LINE
  8
_0-1_EL-SL200SAIMEI
  6
CONTINUOUS
 62
    7
 10
34.973363003397523
 20
36.540929802809408
 11
43.397310483930426
 21
35.016475050586308
  0
LINE
  8
_0-1_EL-SL200SAIMEI
  6
CONTINUOUS
 62
    7
 10
24.390029672710039
 20
18.549263140640587
 11
25.19342593987032
 21
18.549263140640587
  0
LINE
  8
_0-1_EL-SL200SAIMEI
  6
CONTINUOUS
 62
    7
 10
23.54253618333863
 20
18.675870399723486
 11
24.390029672710039
 21
18.549263140640587
  0
LINE
  8
_0-1_EL-SL200SAIMEI
  6
CONTINUOUS
 62
    7
 10
26.929754064436228
 20
37.599263135878083
 11
26.378538786796337
 21
37.684529249138109
  0
LINE
  8
_0-1_EL-SL200SAIMEI
  6
CONTINUOUS
 62
    7
 10
27.945368213487917
 20
37.218580084757996
 11
26.929754064436228
 21
37.599263135878083
  0
LINE
  8
_0-1_EL-SL200SAIMEI
  6
CONTINUOUS
 62
    7
 10
23.669315697195838
 20
18.972148611455104
 11
24.390029672710039
 21
18.845196842823604
  0
LINE
  8
_0-1_EL-SL200SAIMEI
  6
CONTINUOUS
 62
    7
 10
26.124979759081928
 20
37.938260531626689
 11
25.27886430790452
 21
38.022148606692603
  0
LINE
  8
_0-1_EL-SL200SAIMEI
  6
CONTINUOUS
 62
    7
 10
23.54253618333863
 20
18.972148611455104
 11
24.390029672710039
 21
18.845196842823604
  0
LINE
  8
_0-1_EL-SL200SAIMEI
  6
CONTINUOUS
 62
    7
 10
25.27886430790452
 20
38.022148606692603
 11
25.320205453727517
 21
38.022148606692603
  0
LINE
  8
_0-1_EL-SL200SAIMEI
  6
CONTINUOUS
 62
    7
 10
24.390029672710039
 20
18.845196842823604
 11
24.431370818533029
 21
18.845196842823604
  0
LINE
  8
_0-1_EL-SL200SAIMEI
  6
CONTINUOUS
 62
    7
 10
33.829591302294638
 20
36.963815273623787
 11
34.252649027883322
 21
36.795522359169404
  0
LINE
  8
_0-1_EL-SL200SAIMEI
  6
CONTINUOUS
 62
    7
 10
24.051032276961518
 20
19.396584375237804
 11
24.558150332390237
 21
19.311146007203597
  0
LINE
  8
_0-1_EL-SL200SAIMEI
  6
CONTINUOUS
 62
    7
 10
23.119478457749928
 20
19.734203732792306
 11
24.051032276961518
 21
19.396584375237804
  0
LINE
  8
_0-1_EL-SL200SAIMEI
  6
CONTINUOUS
 62
    7
 10
33.786872118277543
 20
36.963815273623787
 11
33.829591302294638
 21
36.963815273623787
  0
LINE
  8
_0-1_EL-SL200SAIMEI
  6
CONTINUOUS
 62
    7
 10
25.871420731367529
 20
37.768589578978087
 11
25.828701547350427
 21
37.768589578978087
  0
LINE
  8
_0-1_EL-SL200SAIMEI
  6
CONTINUOUS
 62
    7
 10
25.828701547350427
 20
37.768589578978087
 11
26.251759272939129
 21
37.725870394961099
  0
LINE
  8
_0-1_EL-SL200SAIMEI
  6
CONTINUOUS
 62
    7
 10
33.618751458597337
 20
37.006534457640889
 11
33.786872118277543
 21
36.963815273623787
  0
LINE
  8
_0-1_EL-SL200SAIMEI
  6
CONTINUOUS
 62
    7
 10
25.19342593987032
 20
19.057586979489304
 11
25.023927241996009
 21
19.057586979489304
  0
LINE
  8
_0-1_EL-SL200SAIMEI
  6
CONTINUOUS
 62
    7
 10
24.982586096173019
 20
19.057586979489304
 11
24.686307884441508
 21
19.057586979489304
  0
LINE
  8
_0-1_EL-SL200SAIMEI
  6
CONTINUOUS
 62
    7
 10
24.13509260680161
 20
19.100306163506296
 11
24.686307884441508
 21
19.057586979489304
  0
LINE
  8
_0-1_EL-SL200SAIMEI
  6
CONTINUOUS
 62
    7
 10
33.490593906546025
 20
37.049253641657998
 11
33.618751458597337
 21
37.006534457640889
  0
LINE
  8
_0-1_EL-SL200SAIMEI
  6
CONTINUOUS
 62
    7
 10
27.479591303882138
 20
37.388251037406597
 11
27.013814394276327
 21
37.472311367246697
  0
LINE
  8
_0-1_EL-SL200SAIMEI
  6
CONTINUOUS
 62
    7
 10
33.363814392688823
 20
37.049253641657998
 11
33.490593906546025
 21
37.049253641657998
  0
LINE
  8
_0-1_EL-SL200SAIMEI
  6
CONTINUOUS
 62
    7
 10
24.13509260680161
 20
19.100306163506296
 11
24.982586096173019
 21
19.057586979489304
  0
LINE
  8
_0-1_EL-SL200SAIMEI
  6
CONTINUOUS
 62
    7
 10
33.237034878831629
 20
37.091972825675093
 11
33.363814392688823
 21
37.049253641657998
  0
LINE
  8
_0-1_EL-SL200SAIMEI
  6
CONTINUOUS
 62
    7
 10
33.237034878831629
 20
37.091972825675093
 11
32.940756667100132
 21
37.175860900740894
  0
LINE
  8
_0-1_EL-SL200SAIMEI
  6
CONTINUOUS
 62
    7
 10
25.489704151601817
 20
19.184194238572186
 11
26.421257970813439
 21
19.226913422589284
  0
LINE
  8
_0-1_EL-SL200SAIMEI
  6
CONTINUOUS
 62
    7
 10
24.558150332390237
 20
19.311146007203597
 11
25.489704151601817
 21
19.184194238572186
  0
LINE
  8
_0-1_EL-SL200SAIMEI
  6
CONTINUOUS
 62
    7
 10
26.97247324845333
 20
37.557577480506609
 11
27.099252762310538
 21
37.514858296489493
  0
LINE
  8
_0-1_EL-SL200SAIMEI
  6
CONTINUOUS
 62
    7
 10
24.855806582315818
 20
36.540929802809408
 11
25.785982363333328
 21
36.626195916069285
  0
LINE
  8
_0-1_EL-SL200SAIMEI
  6
CONTINUOUS
 62
    7
 10
34.930643819380421
 20
36.540929802809408
 11
34.973363003397523
 21
36.540929802809408
  0
LINE
  8
_0-1_EL-SL200SAIMEI
  6
CONTINUOUS
 62
    7
 10
34.083150330009005
 20
50.425870391786098
 11
33.999090000168906
 21
50.468589575803087
  0
LINE
  8
_0-1_EL-SL200SAIMEI
  6
CONTINUOUS
 62
    7
 10
36.115756666306424
 20
51.780481936586305
 11
36.115756666306424
 21
51.823201120603407
  0
LINE
  8
_0-1_EL-SL200SAIMEI
  6
CONTINUOUS
 62
    7
 10
34.548927239614819
 20
52.924253637689183
 11
34.591646423631914
 21
52.924253637689183
  0
LINE
  8
_0-1_EL-SL200SAIMEI
  6
CONTINUOUS
 62
    7
 10
34.548927239614819
 20
52.711863501023593
 11
34.507586093791815
 21
52.711863501023593
  0
LINE
  8
_0-1_EL-SL200SAIMEI
  6
CONTINUOUS
 62
    7
 10
36.115756666306424
 20
50.088251034231597
 11
36.285255364180742
 21
50.045531850214495
  0
LINE
  8
_0-1_EL-SL200SAIMEI
  6
CONTINUOUS
 62
    7
 10
36.793751457803616
 20
55.633648982064003
 11
37.047310485517926
 21
55.590929798046872
  0
LINE
  8
_0-1_EL-SL200SAIMEI
  6
CONTINUOUS
 62
    7
 10
36.199816996146524
 20
52.415929798840608
 11
35.98897715244923
 21
52.415929798840608
  0
LINE
  8
_0-1_EL-SL200SAIMEI
  6
CONTINUOUS
 62
    7
 10
38.910418123941142
 20
54.914313044743778
 11
39.333475849529727
 21
54.828530167161084
  0
LINE
  8
_0-1_EL-SL200SAIMEI
  6
CONTINUOUS
 62
    7
 10
34.803864305523206
 20
55.379917699575273
 11
34.677084791666132
 21
55.379917699575273
  0
LINE
  8
_0-1_EL-SL200SAIMEI
  6
CONTINUOUS
 62
    7
 10
34.761145121506104
 20
56.013815268861315
 11
34.887924635363305
 21
55.972646377812616
  0
LINE
  8
_0-1_EL-SL200SAIMEI
  6
CONTINUOUS
 62
    7
 10
38.401922030318225
 20
47.293589576596894
 11
37.004591301500916
 21
43.102975428338986
  0
LINE
  8
_0-1_EL-SL200SAIMEI
  6
CONTINUOUS
 62
    7
 10
34.46486690977472
 20
47.801913415445505
 11
32.305481059620128
 21
37.261643778323602
  0
LINE
  8
_0-1_EL-SL200SAIMEI
  6
CONTINUOUS
 62
    7
 10
33.576032274580243
 20
37.006534457640889
 11
35.98897715244923
 21
47.547148604311296
  0
LINE
  8
_0-1_EL-SL200SAIMEI
  6
CONTINUOUS
 62
    7
 10
35.607260572683515
 20
47.589867788328398
 11
33.024816996940231
 21
37.175860900740894
  0
LINE
  8
_0-1_EL-SL200SAIMEI
  6
CONTINUOUS
 62
    7
 10
33.237034878831629
 20
37.091972825675093
 11
35.776759270557832
 21
47.589867788328398
  0
LINE
  8
_0-1_EL-SL200SAIMEI
  6
CONTINUOUS
 62
    7
 10
35.735418124734828
 20
47.589867788328398
 11
33.237034878831629
 21
37.091972825675093
  0
LINE
  8
_0-1_EL-SL200SAIMEI
  6
CONTINUOUS
 62
    7
 10
33.279754062848724
 20
37.091972825675093
 11
35.776759270557832
 21
47.547148604311296
  0
LINE
  8
_0-1_EL-SL200SAIMEI
  6
CONTINUOUS
 62
    7
 10
38.148363002603816
 20
47.336308760613996
 11
35.184202847094824
 21
36.540929802809408
  0
LINE
  8
_0-1_EL-SL200SAIMEI
  6
CONTINUOUS
 62
    7
 10
35.226922031111918
 20
36.499244147437786
 11
38.18970414842682
 21
47.293589576596894
  0
LINE
  8
_0-1_EL-SL200SAIMEI
  6
CONTINUOUS
 62
    7
 10
39.163977151655537
 20
56.904027942249904
 11
39.50297454740403
 21
56.904027942249904
  0
LINE
  8
_0-1_EL-SL200SAIMEI
  6
CONTINUOUS
 62
    7
 10
36.412034878037943
 20
57.411145997678709
 11
35.776759270557832
 21
57.537925511535768
  0
LINE
  8
_0-1_EL-SL200SAIMEI
  6
CONTINUOUS
 62
    7
 10
38.528701544175426
 20
57.030979710881283
 11
39.163977151655537
 21
56.903855687475577
  0
LINE
  8
_0-1_EL-SL200SAIMEI
  6
CONTINUOUS
 62
    7
 10
36.624252759929306
 20
56.479592178467094
 11
36.581533575912211
 21
56.479592178467094
  0
LINE
  8
_0-1_EL-SL200SAIMEI
  6
CONTINUOUS
 62
    7
 10
36.581533575912211
 20
56.522311362484167
 11
36.624252759929306
 21
56.479592178467094
  0
LINE
  8
_0-1_EL-SL200SAIMEI
  6
CONTINUOUS
 62
    7
 10
37.131370815358025
 20
48.182596466565599
 11
38.740919426066831
 21
48.055644697934206
  0
LINE
  8
_0-1_EL-SL200SAIMEI
  6
CONTINUOUS
 62
    7
 10
35.057423333237622
 20
48.478530168748584
 11
37.131370815358025
 21
48.182596466565599
  0
LINE
  8
_0-1_EL-SL200SAIMEI
  6
CONTINUOUS
 62
    7
 10
33.999090000168906
 20
48.733639489431305
 11
35.057423333237622
 21
48.478530168748584
  0
LINE
  8
_0-1_EL-SL200SAIMEI
  6
CONTINUOUS
 62
    7
 10
33.999090000168906
 20
50.468589575803087
 11
36.285255364180742
 21
50.045531850214495
  0
LINE
  8
_0-1_EL-SL200SAIMEI
  6
CONTINUOUS
 62
    7
 10
35.98897715244923
 20
51.019977108217397
 11
34.338087395917519
 21
51.315910810400382
  0
LINE
  8
_0-1_EL-SL200SAIMEI
  6
CONTINUOUS
 62
    7
 10
35.35370154496912
 20
51.908639488637583
 11
34.46486690977472
 21
52.119479332334883
  0
LINE
  8
_0-1_EL-SL200SAIMEI
  6
CONTINUOUS
 62
    7
 10
36.115756666306424
 20
51.823201120603407
 11
35.35370154496912
 21
51.908639488637583
  0
LINE
  8
_0-1_EL-SL200SAIMEI
  6
CONTINUOUS
 62
    7
 10
35.226922031111918
 20
52.754927194589207
 11
34.591646423631914
 21
52.924253637689183
  0
LINE
  8
_0-1_EL-SL200SAIMEI
  6
CONTINUOUS
 62
    7
 10
36.242536180163626
 20
52.627975425957793
 11
35.226922031111918
 21
52.754927194589207
  0
LINE
  8
_0-1_EL-SL200SAIMEI
  6
CONTINUOUS
 62
    7
 10
36.031696336466325
 20
51.230644697140399
 11
35.98897715244923
 21
51.019977108217397
  0
LINE
  8
_0-1_EL-SL200SAIMEI
  6
CONTINUOUS
 62
    7
 10
36.158475850323526
 20
51.992527563703383
 11
36.115756666306424
 21
51.823201120603407
  0
LINE
  8
_0-1_EL-SL200SAIMEI
  6
CONTINUOUS
 62
    7
 10
36.242536180163626
 20
52.797646378606302
 11
36.242536180163626
 21
52.627975425957793
  0
LINE
  8
_0-1_EL-SL200SAIMEI
  6
CONTINUOUS
 62
    7
 10
36.115756666306424
 20
51.019977108217397
 11
36.031696336466325
 21
51.019977108217397
  0
LINE
  8
_0-1_EL-SL200SAIMEI
  6
CONTINUOUS
 62
    7
 10
36.115756666306424
 20
51.187925513123297
 11
36.115756666306424
 21
51.019977108217397
  0
LINE
  8
_0-1_EL-SL200SAIMEI
  6
CONTINUOUS
 62
    7
 10
36.031696336466325
 20
51.230644697140399
 11
36.115756666306424
 21
51.187925513123297
  0
LINE
  8
_0-1_EL-SL200SAIMEI
  6
CONTINUOUS
 62
    7
 10
36.242536180163626
 20
51.865920304620502
 11
36.115756666306424
 21
51.823201120603407
  0
LINE
  8
_0-1_EL-SL200SAIMEI
  6
CONTINUOUS
 62
    7
 10
36.158475850323526
 20
51.992527563703383
 11
36.242536180163626
 21
51.865920304620502
  0
LINE
  8
_0-1_EL-SL200SAIMEI
  6
CONTINUOUS
 62
    7
 10
36.327974548197844
 20
52.754927194589207
 11
36.242536180163626
 21
52.627975425957793
  0
LINE
  8
_0-1_EL-SL200SAIMEI
  6
CONTINUOUS
 62
    7
 10
36.242536180163626
 20
52.797646378606302
 11
36.327974548197844
 21
52.754927194589207
  0
LINE
  8
_0-1_EL-SL200SAIMEI
  6
CONTINUOUS
 62
    7
 10
34.887924635363305
 20
55.972646377812616
 11
36.793751457803616
 21
55.633476727289683
  0
LINE
  8
_0-1_EL-SL200SAIMEI
  6
CONTINUOUS
 62
    7
 10
34.295368211900417
 20
51.484203724854808
 11
34.380806579934614
 21
51.526922908871903
  0
LINE
  8
_0-1_EL-SL200SAIMEI
  6
CONTINUOUS
 62
    7
 10
34.338087395917519
 20
51.315910810400382
 11
34.295368211900417
 21
51.484203724854808
  0
LINE
  8
_0-1_EL-SL200SAIMEI
  6
CONTINUOUS
 62
    7
 10
34.380806579934614
 20
52.246258846192084
 11
34.507586093791815
 21
52.288978030209186
  0
LINE
  8
_0-1_EL-SL200SAIMEI
  6
CONTINUOUS
 62
    7
 10
34.46486690977472
 20
52.119479332334883
 11
34.380806579934614
 21
52.246258846192084
  0
LINE
  8
_0-1_EL-SL200SAIMEI
  6
CONTINUOUS
 62
    7
 10
34.507586093791815
 20
53.050860896772193
 11
34.591646423631914
 21
53.093580080789309
  0
LINE
  8
_0-1_EL-SL200SAIMEI
  6
CONTINUOUS
 62
    7
 10
34.548927239614819
 20
52.924253637689183
 11
34.507586093791815
 21
53.050860896772193
  0
LINE
  8
_0-1_EL-SL200SAIMEI
  6
CONTINUOUS
 62
    7
 10
34.761145121506104
 20
51.400315649788993
 11
36.031696336466325
 21
51.230644697140399
  0
LINE
  8
_0-1_EL-SL200SAIMEI
  6
CONTINUOUS
 62
    7
 10
34.380806579934614
 20
51.526922908871903
 11
34.761145121506104
 21
51.400315649788993
  0
LINE
  8
_0-1_EL-SL200SAIMEI
  6
CONTINUOUS
 62
    7
 10
34.507586093791815
 20
52.288978030209186
 11
36.158475850323526
 21
51.992527563703383
  0
LINE
  8
_0-1_EL-SL200SAIMEI
  6
CONTINUOUS
 62
    7
 10
34.591646423631914
 20
53.093580080789309
 11
36.242536180163626
 21
52.797646378606302
  0
LINE
  8
_0-1_EL-SL200SAIMEI
  6
CONTINUOUS
 62
    7
 10
34.083150330009005
 20
51.061145999266095
 11
36.369315694020841
 21
50.638260528451688
  0
LINE
  8
_0-1_EL-SL200SAIMEI
  6
CONTINUOUS
 62
    7
 10
36.07303748228933
 20
51.612361276906107
 11
34.422147725757618
 21
51.908639488637583
  0
LINE
  8
_0-1_EL-SL200SAIMEI
  6
CONTINUOUS
 62
    7
 10
35.98897715244923
 20
52.415929798840608
 11
34.548927239614819
 21
52.711863501023593
  0
LINE
  8
_0-1_EL-SL200SAIMEI
  6
CONTINUOUS
 62
    7
 10
35.396420728986214
 20
53.389858292520806
 11
34.634365607649016
 21
53.516982315926498
  0
LINE
  8
_0-1_EL-SL200SAIMEI
  6
CONTINUOUS
 62
    7
 10
35.523200242843416
 20
53.304592179260787
 11
35.396420728986214
 21
53.389858292520806
  0
LINE
  8
_0-1_EL-SL200SAIMEI
  6
CONTINUOUS
 62
    7
 10
36.285255364180742
 20
53.220531849420688
 11
35.523200242843416
 21
53.304592179260787
  0
LINE
  8
_0-1_EL-SL200SAIMEI
  6
CONTINUOUS
 62
    7
 10
36.115756666306424
 20
51.823201120603407
 11
36.07303748228933
 21
51.612361276906107
  0
LINE
  8
_0-1_EL-SL200SAIMEI
  6
CONTINUOUS
 62
    7
 10
36.158475850323526
 20
52.542537057923589
 11
36.199816996146524
 21
52.415929798840608
  0
LINE
  8
_0-1_EL-SL200SAIMEI
  6
CONTINUOUS
 62
    7
 10
36.242536180163626
 20
52.627975425957793
 11
36.158475850323526
 21
52.542537057923589
  0
LINE
  8
_0-1_EL-SL200SAIMEI
  6
CONTINUOUS
 62
    7
 10
36.327974548197844
 20
53.389858292520806
 11
36.285255364180742
 21
53.220531849420688
  0
LINE
  8
_0-1_EL-SL200SAIMEI
  6
CONTINUOUS
 62
    7
 10
36.199816996146524
 20
51.739313045537607
 11
36.115756666306424
 21
51.612189022131808
  0
LINE
  8
_0-1_EL-SL200SAIMEI
  6
CONTINUOUS
 62
    7
 10
36.115756666306424
 20
51.780481936586305
 11
36.199816996146524
 21
51.739313045537607
  0
LINE
  8
_0-1_EL-SL200SAIMEI
  6
CONTINUOUS
 62
    7
 10
36.242536180163626
 20
52.627975425957793
 11
36.242536180163626
 21
52.415929798840608
  0
LINE
  8
_0-1_EL-SL200SAIMEI
  6
CONTINUOUS
 62
    7
 10
36.412034878037943
 20
53.263251033437783
 11
36.327974548197844
 21
53.220531849420688
  0
LINE
  8
_0-1_EL-SL200SAIMEI
  6
CONTINUOUS
 62
    7
 10
36.412034878037943
 20
53.389858292520806
 11
36.412034878037943
 21
53.263251033437783
  0
LINE
  8
_0-1_EL-SL200SAIMEI
  6
CONTINUOUS
 62
    7
 10
36.327974548197844
 20
53.389858292520806
 11
36.412034878037943
 21
53.389858292520806
  0
LINE
  8
_0-1_EL-SL200SAIMEI
  6
CONTINUOUS
 62
    7
 10
34.973363003397523
 20
56.564858291726978
 11
36.877811787643722
 21
56.225860895978428
  0
LINE
  8
_0-1_EL-SL200SAIMEI
  6
CONTINUOUS
 62
    7
 10
34.380806579934614
 20
52.078310441286185
 11
34.46486690977472
 21
52.119479332334883
  0
LINE
  8
_0-1_EL-SL200SAIMEI
  6
CONTINUOUS
 62
    7
 10
34.422147725757618
 20
51.908639488637583
 11
34.380806579934614
 21
52.078310441286185
  0
LINE
  8
_0-1_EL-SL200SAIMEI
  6
CONTINUOUS
 62
    7
 10
34.46486690977472
 20
52.838815269655008
 11
34.548927239614819
 21
52.924253637689183
  0
LINE
  8
_0-1_EL-SL200SAIMEI
  6
CONTINUOUS
 62
    7
 10
34.507586093791815
 20
52.711863501023593
 11
34.46486690977472
 21
52.838815269655008
  0
LINE
  8
_0-1_EL-SL200SAIMEI
  6
CONTINUOUS
 62
    7
 10
34.803864305523206
 20
53.686308759026524
 11
36.327974548197844
 21
53.389858292520806
  0
LINE
  8
_0-1_EL-SL200SAIMEI
  6
CONTINUOUS
 62
    7
 10
34.591646423631914
 20
53.686308759026524
 11
34.803864305523206
 21
53.686308759026524
  0
LINE
  8
_0-1_EL-SL200SAIMEI
  6
CONTINUOUS
 62
    7
 10
34.634365607649016
 20
53.516982315926498
 11
34.591646423631914
 21
53.686308759026524
  0
LINE
  8
_0-1_EL-SL200SAIMEI
  6
CONTINUOUS
 62
    7
 10
39.587034877244129
 20
57.030979710881283
 11
39.417536179369826
 21
57.072148601930103
  0
LINE
  8
_0-1_EL-SL200SAIMEI
  6
CONTINUOUS
 62
    7
 10
39.50297454740403
 20
57.030979710881283
 11
39.587034877244129
 21
57.030979710881283
  0
LINE
  8
_0-1_EL-SL200SAIMEI
  6
CONTINUOUS
 62
    7
 10
36.115756666306424
 20
57.623191624795815
 11
36.412034878037943
 21
57.623191624795815
  0
LINE
  8
_0-1_EL-SL200SAIMEI
  6
CONTINUOUS
 62
    7
 10
39.71381439110133
 20
48.182596466565599
 11
39.799252759135541
 21
48.437189022925587
  0
LINE
  8
_0-1_EL-SL200SAIMEI
  6
CONTINUOUS
 62
    7
 10
39.50297454740403
 20
48.055644697934206
 11
39.71381439110133
 21
48.182596466565599
  0
LINE
  8
_0-1_EL-SL200SAIMEI
  6
CONTINUOUS
 62
    7
 10
38.910418123941142
 20
48.055644697934206
 11
39.50297454740403
 21
48.055644697934206
  0
LINE
  8
_0-1_EL-SL200SAIMEI
  6
CONTINUOUS
 62
    7
 10
40.941646422044421
 20
53.516982315926498
 11
40.433150328421512
 21
53.516982315926498
  0
LINE
  8
_0-1_EL-SL200SAIMEI
  6
CONTINUOUS
 62
    7
 10
40.857586092204322
 20
53.855979711674983
 11
40.984365606061516
 21
53.813260527658024
  0
LINE
  8
_0-1_EL-SL200SAIMEI
  6
CONTINUOUS
 62
    7
 10
40.602649026295822
 20
54.236145998472402
 11
40.857586092204322
 21
53.855979711674983
  0
LINE
  8
_0-1_EL-SL200SAIMEI
  6
CONTINUOUS
 62
    7
 10
40.561307880472818
 20
54.787361276112279
 11
40.602649026295822
 21
54.236145998472402
  0
LINE
  8
_0-1_EL-SL200SAIMEI
  6
CONTINUOUS
 62
    7
 10
40.095530970867038
 20
56.311643773561222
 11
40.010092602832842
 21
56.479592178467094
  0
LINE
  8
_0-1_EL-SL200SAIMEI
  6
CONTINUOUS
 62
    7
 10
39.672473245278326
 20
55.590929798046872
 11
39.163977151655537
 21
55.633648982064003
  0
LINE
  8
_0-1_EL-SL200SAIMEI
  6
CONTINUOUS
 62
    7
 10
40.179591300707138
 20
55.463978029415372
 11
39.672473245278326
 21
55.590929798046872
  0
LINE
  8
_0-1_EL-SL200SAIMEI
  6
CONTINUOUS
 62
    7
 10
40.349089998581405
 20
55.337198515558207
 11
40.179591300707138
 21
55.463978029415372
  0
LINE
  8
_0-1_EL-SL200SAIMEI
  6
CONTINUOUS
 62
    7
 10
40.052811786849936
 20
55.845694609181116
 11
39.587034877244129
 21
55.802975425163986
  0
LINE
  8
_0-1_EL-SL200SAIMEI
  6
CONTINUOUS
 62
    7
 10
40.602649026295822
 20
54.914313044743778
 11
40.30637081456431
 21
54.955481935792463
  0
LINE
  8
_0-1_EL-SL200SAIMEI
  6
CONTINUOUS
 62
    7
 10
40.688087394330019
 20
54.828530167161084
 11
40.602649026295822
 21
54.914313044743778
  0
LINE
  8
_0-1_EL-SL200SAIMEI
  6
CONTINUOUS
 62
    7
 10
38.69820024204973
 20
57.369977106629896
 11
39.121257967638435
 21
57.284194229047209
  0
LINE
  8
_0-1_EL-SL200SAIMEI
  6
CONTINUOUS
 62
    7
 10
39.078538783621326
 20
56.861308758232774
 11
38.824979755906931
 21
56.861308758232774
  0
LINE
  8
_0-1_EL-SL200SAIMEI
  6
CONTINUOUS
 62
    7
 10
39.417536179369826
 20
56.522311362484167
 11
39.078538783621326
 21
56.522311362484167
  0
LINE
  8
_0-1_EL-SL200SAIMEI
  6
CONTINUOUS
 62
    7
 10
40.30637081456431
 20
54.871593860726698
 11
39.799252759135541
 21
54.828530167161084
  0
LINE
  8
_0-1_EL-SL200SAIMEI
  6
CONTINUOUS
 62
    7
 10
40.984365606061516
 20
53.813260527658024
 11
40.475869512438621
 21
53.813260527658024
  0
LINE
  8
_0-1_EL-SL200SAIMEI
  6
CONTINUOUS
 62
    7
 10
39.840593904958531
 20
56.395531848626995
 11
39.587034877244129
 21
56.438251032644068
  0
LINE
  8
_0-1_EL-SL200SAIMEI
  6
CONTINUOUS
 62
    7
 10
40.010092602832842
 20
56.479592178467094
 11
39.840593904958531
 21
56.395531848626995
  0
LINE
  8
_0-1_EL-SL200SAIMEI
  6
CONTINUOUS
 62
    7
 10
39.248037481495636
 20
48.394642093682783
 11
39.799252759135541
 21
48.437189022925587
  0
LINE
  8
_0-1_EL-SL200SAIMEI
  6
CONTINUOUS
 62
    7
 10
38.69820024204973
 20
55.506524958658183
 11
38.951759269764132
 21
55.549244142675363
  0
LINE
  8
_0-1_EL-SL200SAIMEI
  6
CONTINUOUS
 62
    7
 10
39.840593904958531
 20
55.337198515558207
 11
40.349089998581405
 21
55.337198515558207
  0
LINE
  8
_0-1_EL-SL200SAIMEI
  6
CONTINUOUS
 62
    7
 10
39.121257967638435
 20
57.284194229047209
 11
39.078538783621326
 21
57.241475045030079
  0
LINE
  8
_0-1_EL-SL200SAIMEI
  6
CONTINUOUS
 62
    7
 10
40.561307880472818
 20
54.787361276112279
 11
40.688087394330019
 21
54.828530167161084
  0
LINE
  8
_0-1_EL-SL200SAIMEI
  6
CONTINUOUS
 62
    7
 10
40.095530970867038
 20
54.787361276112279
 11
40.561307880472818
 21
54.787361276112279
  0
LINE
  8
_0-1_EL-SL200SAIMEI
  6
CONTINUOUS
 62
    7
 10
40.095530970867038
 20
56.311643773561222
 11
39.672473245278326
 21
56.268580079995495
  0
LINE
  8
_0-1_EL-SL200SAIMEI
  6
CONTINUOUS
 62
    7
 10
36.920530971660817
 20
48.225315650582694
 11
38.910418123941142
 21
48.055644697934206
  0
LINE
  8
_0-1_EL-SL200SAIMEI
  6
CONTINUOUS
 62
    7
 10
33.915029670328806
 20
48.733639489431305
 11
36.920530971660817
 21
48.225315650582694
  0
LINE
  8
_0-1_EL-SL200SAIMEI
  6
CONTINUOUS
 62
    7
 10
33.490593906546025
 20
48.944479333128605
 11
33.915029670328806
 21
48.733639489431305
  0
LINE
  8
_0-1_EL-SL200SAIMEI
  6
CONTINUOUS
 62
    7
 10
33.406533576705925
 20
49.326195912894285
 11
33.490593906546025
 21
48.944479333128605
  0
LINE
  8
_0-1_EL-SL200SAIMEI
  6
CONTINUOUS
 62
    7
 10
35.226922031111918
 20
57.030979710881283
 11
35.226922031111918
 21
56.988260526864217
  0
LINE
  8
_0-1_EL-SL200SAIMEI
  6
CONTINUOUS
 62
    7
 10
35.310982360952018
 20
57.114867785947112
 11
35.226922031111918
 21
57.030979710881283
  0
LINE
  8
_0-1_EL-SL200SAIMEI
  6
CONTINUOUS
 62
    7
 10
35.776759270557832
 20
57.114867785947112
 11
35.310982360952018
 21
57.114867785947112
  0
LINE
  8
_0-1_EL-SL200SAIMEI
  6
CONTINUOUS
 62
    7
 10
34.46486690977472
 20
56.225860895978428
 11
34.338087395917519
 21
56.141972820912592
  0
LINE
  8
_0-1_EL-SL200SAIMEI
  6
CONTINUOUS
 62
    7
 10
34.887924635363305
 20
56.225860895978428
 11
34.46486690977472
 21
56.225860895978428
  0
LINE
  8
_0-1_EL-SL200SAIMEI
  6
CONTINUOUS
 62
    7
 10
40.433150328421512
 20
53.516982315926498
 11
39.71381439110133
 21
53.559529245169294
  0
LINE
  8
_0-1_EL-SL200SAIMEI
  6
CONTINUOUS
 62
    7
 10
40.179591300707138
 20
54.151913413857976
 11
40.475869512438621
 21
53.813260527658024
  0
LINE
  8
_0-1_EL-SL200SAIMEI
  6
CONTINUOUS
 62
    7
 10
40.095530970867038
 20
54.405644696346705
 11
40.179591300707138
 21
54.151913413857976
  0
LINE
  8
_0-1_EL-SL200SAIMEI
  6
CONTINUOUS
 62
    7
 10
40.095530970867038
 20
54.787361276112279
 11
40.095530970867038
 21
54.405644696346705
  0
LINE
  8
_0-1_EL-SL200SAIMEI
  6
CONTINUOUS
 62
    7
 10
34.083150330009005
 20
55.083639487843918
 11
34.211307882060318
 21
55.253310440492378
  0
LINE
  8
_0-1_EL-SL200SAIMEI
  6
CONTINUOUS
 62
    7
 10
33.74553097245451
 20
54.914313044743778
 11
34.083150330009005
 21
55.083639487843918
  0
LINE
  8
_0-1_EL-SL200SAIMEI
  6
CONTINUOUS
 62
    7
 10
39.672473245278326
 20
56.395531848626995
 11
39.587034877244129
 21
56.438251032644068
  0
LINE
  8
_0-1_EL-SL200SAIMEI
  6
CONTINUOUS
 62
    7
 10
39.672473245278326
 20
56.268580079995495
 11
39.672473245278326
 21
56.395531848626995
  0
LINE
  8
_0-1_EL-SL200SAIMEI
  6
CONTINUOUS
 62
    7
 10
36.454754062055038
 20
57.623191624795815
 11
36.412034878037943
 21
57.623191624795815
  0
LINE
  8
_0-1_EL-SL200SAIMEI
  6
CONTINUOUS
 62
    7
 10
39.037197637798336
 20
48.055472443159907
 11
38.910418123941142
 21
48.055472443159907
  0
LINE
  8
_0-1_EL-SL200SAIMEI
  6
CONTINUOUS
 62
    7
 10
39.206696335672611
 20
48.225143395808509
 11
39.037197637798336
 21
48.055472443159907
  0
LINE
  8
_0-1_EL-SL200SAIMEI
  6
CONTINUOUS
 62
    7
 10
39.248037481495636
 20
48.394642093682783
 11
39.206696335672611
 21
48.225143395808509
  0
LINE
  8
_0-1_EL-SL200SAIMEI
  6
CONTINUOUS
 62
    7
 10
36.412034878037943
 20
57.623191624795815
 11
36.835092603626606
 21
57.496584365712792
  0
LINE
  8
_0-1_EL-SL200SAIMEI
  6
CONTINUOUS
 62
    7
 10
36.454754062055038
 20
57.114867785947112
 11
36.793751457803616
 21
57.114867785947112
  0
LINE
  8
_0-1_EL-SL200SAIMEI
  6
CONTINUOUS
 62
    7
 10
36.031696336466325
 20
56.988260526864217
 11
36.454754062055038
 21
57.114867785947112
  0
LINE
  8
_0-1_EL-SL200SAIMEI
  6
CONTINUOUS
 62
    7
 10
38.824979755906931
 20
56.479592178467094
 11
38.910418123941142
 21
56.352812664609928
  0
LINE
  8
_0-1_EL-SL200SAIMEI
  6
CONTINUOUS
 62
    7
 10
35.35370154496912
 20
57.072148601930103
 11
35.226922031111918
 21
57.030979710881283
  0
LINE
  8
_0-1_EL-SL200SAIMEI
  6
CONTINUOUS
 62
    7
 10
35.776759270557832
 20
57.114867785947112
 11
35.35370154496912
 21
57.072148601930103
  0
LINE
  8
_0-1_EL-SL200SAIMEI
  6
CONTINUOUS
 62
    7
 10
40.475869512438621
 20
53.813260527658024
 11
39.71381439110133
 21
53.855979711674983
  0
LINE
  8
_0-1_EL-SL200SAIMEI
  6
CONTINUOUS
 62
    7
 10
34.338087395917519
 20
56.141972820912592
 11
34.761145121506104
 21
56.013815268861315
  0
LINE
  8
_0-1_EL-SL200SAIMEI
  6
CONTINUOUS
 62
    7
 10
37.682586092998015
 20
48.521593862314198
 11
39.248037481495636
 21
48.394642093682783
  0
LINE
  8
_0-1_EL-SL200SAIMEI
  6
CONTINUOUS
 62
    7
 10
35.184202847094824
 20
48.860246748514292
 11
37.682586092998015
 21
48.521593862314198
  0
LINE
  8
_0-1_EL-SL200SAIMEI
  6
CONTINUOUS
 62
    7
 10
33.872310486311704
 20
49.113978031002908
 11
35.184202847094824
 21
48.860246748514292
  0
LINE
  8
_0-1_EL-SL200SAIMEI
  6
CONTINUOUS
 62
    7
 10
33.449252760723041
 20
49.240929799634408
 11
33.872310486311704
 21
49.113978031002908
  0
LINE
  8
_0-1_EL-SL200SAIMEI
  6
CONTINUOUS
 62
    7
 10
33.406533576705925
 20
49.326195912894285
 11
33.449252760723041
 21
49.240929799634408
  0
LINE
  8
_0-1_EL-SL200SAIMEI
  6
CONTINUOUS
 62
    7
 10
36.369315694020841
 20
57.241475045030079
 11
36.793751457803616
 21
57.114867785947112
  0
LINE
  8
_0-1_EL-SL200SAIMEI
  6
CONTINUOUS
 62
    7
 10
35.98897715244923
 20
57.030979710881283
 11
36.031696336466325
 21
56.988260526864217
  0
LINE
  8
_0-1_EL-SL200SAIMEI
  6
CONTINUOUS
 62
    7
 10
39.333475849529727
 20
54.828530167161084
 11
40.095530970867038
 21
54.787189021338115
  0
LINE
  8
_0-1_EL-SL200SAIMEI
  6
CONTINUOUS
 62
    7
 10
39.333475849529727
 20
54.448191625589509
 11
39.333475849529727
 21
54.828530167161084
  0
LINE
  8
_0-1_EL-SL200SAIMEI
  6
CONTINUOUS
 62
    7
 10
39.460255363386928
 20
54.151913413857976
 11
39.333475849529727
 21
54.448191625589509
  0
LINE
  8
_0-1_EL-SL200SAIMEI
  6
CONTINUOUS
 62
    7
 10
39.71381439110133
 20
53.855979711674983
 11
39.460255363386928
 21
54.151913413857976
  0
LINE
  8
_0-1_EL-SL200SAIMEI
  6
CONTINUOUS
 62
    7
 10
37.047310485517926
 20
55.590929798046872
 11
38.951759269764132
 21
55.379917699575273
  0
LINE
  8
_0-1_EL-SL200SAIMEI
  6
CONTINUOUS
 62
    7
 10
34.168588698043223
 20
47.844977109011204
 11
34.84520545134621
 21
47.716475047411308
  0
LINE
  8
_0-1_EL-SL200SAIMEI
  6
CONTINUOUS
 62
    7
 10
33.786872118277543
 20
48.012925513917104
 11
34.168588698043223
 21
47.844977109011204
  0
LINE
  8
_0-1_EL-SL200SAIMEI
  6
CONTINUOUS
 62
    7
 10
33.490593906546025
 20
48.817527564497183
 11
33.618751458597337
 21
48.860246748514292
  0
LINE
  8
_0-1_EL-SL200SAIMEI
  6
CONTINUOUS
 62
    7
 10
36.920530971660817
 20
47.420196835679796
 11
38.951759269764132
 21
47.293589576596894
  0
LINE
  8
_0-1_EL-SL200SAIMEI
  6
CONTINUOUS
 62
    7
 10
34.973363003397523
 20
47.675306156362602
 11
36.920530971660817
 21
47.420196835679796
  0
LINE
  8
_0-1_EL-SL200SAIMEI
  6
CONTINUOUS
 62
    7
 10
36.242536180163626
 20
47.844977109011204
 11
34.84520545134621
 21
48.098191627177009
  0
LINE
  8
_0-1_EL-SL200SAIMEI
  6
CONTINUOUS
 62
    7
 10
37.766646422838122
 20
47.675306156362602
 11
36.242536180163626
 21
47.844977109011204
  0
LINE
  8
_0-1_EL-SL200SAIMEI
  6
CONTINUOUS
 62
    7
 10
38.655481058032628
 20
47.589867788328398
 11
37.766646422838122
 21
47.675306156362602
  0
LINE
  8
_0-1_EL-SL200SAIMEI
  6
CONTINUOUS
 62
    7
 10
39.374816995352731
 20
47.632586972345493
 11
38.655481058032628
 21
47.589867788328398
  0
LINE
  8
_0-1_EL-SL200SAIMEI
  6
CONTINUOUS
 62
    7
 10
37.893425936695316
 20
48.055644697934206
 11
34.887924635363305
 21
48.478530168748584
  0
LINE
  8
_0-1_EL-SL200SAIMEI
  6
CONTINUOUS
 62
    7
 10
39.333475849529727
 20
47.971584368094106
 11
37.893425936695316
 21
48.055644697934206
  0
LINE
  8
_0-1_EL-SL200SAIMEI
  6
CONTINUOUS
 62
    7
 10
39.417536179369826
 20
48.055644697934206
 11
39.333475849529727
 21
47.971584368094106
  0
LINE
  8
_0-1_EL-SL200SAIMEI
  6
CONTINUOUS
 62
    7
 10
33.618751458597337
 20
48.733639489431305
 11
33.490593906546025
 21
48.817527564497183
  0
LINE
  8
_0-1_EL-SL200SAIMEI
  6
CONTINUOUS
 62
    7
 10
34.718425937489116
 20
48.521593862314198
 11
33.618751458597337
 21
48.733639489431305
  0
LINE
  8
_0-1_EL-SL200SAIMEI
  6
CONTINUOUS
 62
    7
 10
33.533313090563126
 20
48.351922909665689
 11
33.449252760723041
 21
48.437361277699885
  0
LINE
  8
_0-1_EL-SL200SAIMEI
  6
CONTINUOUS
 62
    7
 10
34.634365607649016
 20
48.098191627177009
 11
33.533313090563126
 21
48.351922909665689
  0
LINE
  8
_0-1_EL-SL200SAIMEI
  6
CONTINUOUS
 62
    7
 10
23.37303748546433
 20
36.033639492606305
 11
24.855806582315818
 21
36.540929802809408
  0
LINE
  8
_0-1_EL-SL200SAIMEI
  6
CONTINUOUS
 62
    7
 10
22.187924638538309
 20
35.271584371269107
 11
23.37303748546433
 21
36.033639492606305
  0
LINE
  8
_0-1_EL-SL200SAIMEI
  6
CONTINUOUS
 62
    7
 10
21.215029673503818
 20
34.339858297283307
 11
22.187924638538309
 21
35.271584371269107
  0
LINE
  8
_0-1_EL-SL200SAIMEI
  6
CONTINUOUS
 62
    7
 10
20.579754066023728
 20
33.492537062686083
 11
21.215029673503818
 21
34.339858297283307
  0
LINE
  8
_0-1_EL-SL200SAIMEI
  6
CONTINUOUS
 62
    7
 10
19.860418128703643
 20
32.223191631145781
 11
20.579754066023728
 21
33.492537062686083
  0
LINE
  8
_0-1_EL-SL200SAIMEI
  6
CONTINUOUS
 62
    7
 10
19.351922035080733
 20
30.783141718311295
 11
19.860418128703643
 21
32.223191631145781
  0
LINE
  8
_0-1_EL-SL200SAIMEI
  6
CONTINUOUS
 62
    7
 10
19.098363007366316
 20
29.259203730411105
 11
19.351922035080733
 21
30.783141718311295
  0
LINE
  8
_0-1_EL-SL200SAIMEI
  6
CONTINUOUS
 62
    7
 10
19.055643823349214
 20
27.736643780704885
 11
19.098363007366316
 21
29.259203730411105
  0
LINE
  8
_0-1_EL-SL200SAIMEI
  6
CONTINUOUS
 62
    7
 10
19.182423337206416
 20
26.592527570053385
 11
19.055643823349214
 21
27.736643780704885
  0
LINE
  8
_0-1_EL-SL200SAIMEI
  6
CONTINUOUS
 62
    7
 10
19.351922035080733
 20
25.830644703490396
 11
19.182423337206416
 21
26.592527570053385
  0
LINE
  8
_0-1_EL-SL200SAIMEI
  6
CONTINUOUS
 62
    7
 10
19.817698944686526
 20
24.433141719898796
 11
19.351922035080733
 21
25.830644703490396
  0
LINE
  8
_0-1_EL-SL200SAIMEI
  6
CONTINUOUS
 62
    7
 10
20.494315697989528
 20
23.164313052681305
 11
19.817698944686526
 21
24.433141719898796
  0
LINE
  8
_0-1_EL-SL200SAIMEI
  6
CONTINUOUS
 62
    7
 10
20.918751461772338
 20
22.612925520267105
 11
20.494315697989528
 21
23.164313052681305
  0
LINE
  8
_0-1_EL-SL200SAIMEI
  6
CONTINUOUS
 62
    7
 10
21.891646426806918
 20
21.597311371215415
 11
20.918751461772338
 21
22.612925520267105
  0
LINE
  8
_0-1_EL-SL200SAIMEI
  6
CONTINUOUS
 62
    7
 10
22.696420732161219
 20
21.004927202526755
 11
21.891646426806918
 21
21.597311371215415
  0
LINE
  8
_0-1_EL-SL200SAIMEI
  6
CONTINUOUS
 62
    7
 10
23.881533579087208
 20
20.454917708306617
 11
22.696420732161219
 21
21.004927202526755
  0
LINE
  8
_0-1_EL-SL200SAIMEI
  6
CONTINUOUS
 62
    7
 10
24.770368214281607
 20
20.242527571640895
 11
23.881533579087208
 21
20.454917708306617
  0
LINE
  8
_0-1_EL-SL200SAIMEI
  6
CONTINUOUS
 62
    7
 10
22.780481062001318
 20
36.795694613943589
 11
23.92425276310431
 21
37.302812669372393
  0
LINE
  8
_0-1_EL-SL200SAIMEI
  6
CONTINUOUS
 62
    7
 10
21.934365610824027
 20
36.287198520320707
 11
22.780481062001318
 21
36.795694613943589
  0
LINE
  8
_0-1_EL-SL200SAIMEI
  6
CONTINUOUS
 62
    7
 10
21.172310489486708
 20
35.651922912840682
 11
21.934365610824027
 21
36.287198520320707
  0
LINE
  8
_0-1_EL-SL200SAIMEI
  6
CONTINUOUS
 62
    7
 10
20.240756670275132
 20
34.636308763788996
 11
21.172310489486708
 21
35.651922912840682
  0
LINE
  8
_0-1_EL-SL200SAIMEI
  6
CONTINUOUS
 62
    7
 10
19.478701548937927
 20
33.492537062686083
 11
20.240756670275132
 21
34.636308763788996
  0
LINE
  8
_0-1_EL-SL200SAIMEI
  6
CONTINUOUS
 62
    7
 10
18.759365611617717
 20
31.841475051380105
 11
19.478701548937927
 21
33.492537062686083
  0
LINE
  8
_0-1_EL-SL200SAIMEI
  6
CONTINUOUS
 62
    7
 10
18.377649031852037
 20
30.445694615531085
 11
18.759365611617717
 21
31.841475051380105
  0
LINE
  8
_0-1_EL-SL200SAIMEI
  6
CONTINUOUS
 62
    7
 10
18.166809188154737
 20
28.751913420208005
 11
18.377649031852037
 21
30.445694615531085
  0
LINE
  8
_0-1_EL-SL200SAIMEI
  6
CONTINUOUS
 62
    7
 10
18.208150333977741
 20
27.015929805190606
 11
18.166809188154737
 21
28.751913420208005
  0
LINE
  8
_0-1_EL-SL200SAIMEI
  6
CONTINUOUS
 62
    7
 10
18.463087399886206
 20
25.619977114567394
 11
18.208150333977741
 21
27.015929805190606
  0
LINE
  8
_0-1_EL-SL200SAIMEI
  6
CONTINUOUS
 62
    7
 10
19.225142521223532
 20
23.544479339478606
 11
18.463087399886206
 21
25.619977114567394
  0
LINE
  8
_0-1_EL-SL200SAIMEI
  6
CONTINUOUS
 62
    7
 10
19.73226057665233
 20
22.655644704284207
 11
19.225142521223532
 21
23.544479339478606
  0
LINE
  8
_0-1_EL-SL200SAIMEI
  6
CONTINUOUS
 62
    7
 10
20.324817000115232
 20
21.850870398929807
 11
19.73226057665233
 21
22.655644704284207
  0
LINE
  8
_0-1_EL-SL200SAIMEI
  6
CONTINUOUS
 62
    7
 10
21.256370819326808
 20
20.877975433895337
 11
20.324817000115232
 21
21.850870398929807
  0
LINE
  8
_0-1_EL-SL200SAIMEI
  6
CONTINUOUS
 62
    7
 10
22.27336300657252
 20
20.158639496575095
 11
21.256370819326808
 21
20.877975433895337
  0
LINE
  8
_0-1_EL-SL200SAIMEI
  6
CONTINUOUS
 62
    7
 10
23.119478457749928
 20
19.734203732792306
 11
22.27336300657252
 21
20.158639496575095
  0
LINE
  8
_0-1_EL-SL200SAIMEI
  6
CONTINUOUS
 62
    7
 10
25.489704151601817
 20
36.626195916069285
 11
26.844315696402028
 21
36.540929802809408
  0
LINE
  8
_0-1_EL-SL200SAIMEI
  6
CONTINUOUS
 62
    7
 10
24.261872120658818
 20
36.413978034177909
 11
25.489704151601817
 21
36.626195916069285
  0
LINE
  8
_0-1_EL-SL200SAIMEI
  6
CONTINUOUS
 62
    7
 10
22.99269894389273
 20
35.905481940555084
 11
24.261872120658818
 21
36.413978034177909
  0
LINE
  8
_0-1_EL-SL200SAIMEI
  6
CONTINUOUS
 62
    7
 10
21.764866912949717
 20
35.016475050586308
 11
22.99269894389273
 21
35.905481940555084
  0
LINE
  8
_0-1_EL-SL200SAIMEI
  6
CONTINUOUS
 62
    7
 10
20.790593909721029
 20
34.000860901534708
 11
21.764866912949717
 21
35.016475050586308
  0
LINE
  8
_0-1_EL-SL200SAIMEI
  6
CONTINUOUS
 62
    7
 10
19.944478458543742
 20
32.603530172717306
 11
20.790593909721029
 21
34.000860901534708
  0
LINE
  8
_0-1_EL-SL200SAIMEI
  6
CONTINUOUS
 62
    7
 10
19.351922035080733
 20
31.207577482094106
 11
19.944478458543742
 21
32.603530172717306
  0
LINE
  8
_0-1_EL-SL200SAIMEI
  6
CONTINUOUS
 62
    7
 10
19.01292463933212
 20
29.598201126159605
 11
19.351922035080733
 21
31.207577482094106
  0
LINE
  8
_0-1_EL-SL200SAIMEI
  6
CONTINUOUS
 62
    7
 10
18.92886430949202
 20
28.836146004822407
 11
19.01292463933212
 21
29.598201126159605
  0
LINE
  8
_0-1_EL-SL200SAIMEI
  6
CONTINUOUS
 62
    7
 10
18.92886430949202
 20
27.566972828056286
 11
18.92886430949202
 21
28.836146004822407
  0
LINE
  8
_0-1_EL-SL200SAIMEI
  6
CONTINUOUS
 62
    7
 10
19.098363007366316
 20
26.253530174304807
 11
18.92886430949202
 21
27.566972828056286
  0
LINE
  8
_0-1_EL-SL200SAIMEI
  6
CONTINUOUS
 62
    7
 10
19.564139916972131
 20
24.729592186404595
 11
19.098363007366316
 21
26.253530174304807
  0
LINE
  8
_0-1_EL-SL200SAIMEI
  6
CONTINUOUS
 62
    7
 10
20.410255368149429
 20
23.121593868664196
 11
19.564139916972131
 21
24.729592186404595
  0
LINE
  8
_0-1_EL-SL200SAIMEI
  6
CONTINUOUS
 62
    7
 10
21.08687212145254
 20
22.275306162712607
 11
20.410255368149429
 21
23.121593868664196
  0
LINE
  8
_0-1_EL-SL200SAIMEI
  6
CONTINUOUS
 62
    7
 10
22.230643822555418
 20
21.258141720692656
 11
21.08687212145254
 21
22.275306162712607
  0
LINE
  8
_0-1_EL-SL200SAIMEI
  6
CONTINUOUS
 62
    7
 10
23.331696339641329
 20
20.624244151406625
 11
22.230643822555418
 21
21.258141720692656
  0
LINE
  8
_0-1_EL-SL200SAIMEI
  6
CONTINUOUS
 62
    7
 10
24.643588700424438
 20
20.242527571640895
 11
23.331696339641329
 21
20.624244151406625
  0
LINE
  8
_0-1_EL-SL200SAIMEI
  6
CONTINUOUS
 62
    7
 10
25.44836300577882
 20
37.599263135878083
 11
23.92425276310431
 21
37.302812669372393
  0
LINE
  8
_0-1_EL-SL200SAIMEI
  6
CONTINUOUS
 62
    7
 10
26.33719764097334
 20
37.599263135878083
 11
25.44836300577882
 21
37.599263135878083
  0
LINE
  8
_0-1_EL-SL200SAIMEI
  6
CONTINUOUS
 62
    7
 10
27.013814394276327
 20
37.472311367246697
 11
26.33719764097334
 21
37.599263135878083
  0
LINE
  8
_0-1_EL-SL200SAIMEI
  6
CONTINUOUS
 62
    7
 10
26.421257970813439
 20
36.710256245909385
 11
26.80297455057903
 21
36.626195916069285
  0
LINE
  8
_0-1_EL-SL200SAIMEI
  6
CONTINUOUS
 62
    7
 10
25.44836300577882
 20
36.710256245909385
 11
26.421257970813439
 21
36.710256245909385
  0
LINE
  8
_0-1_EL-SL200SAIMEI
  6
CONTINUOUS
 62
    7
 10
24.897147728138808
 20
36.667537061892283
 11
25.44836300577882
 21
36.710256245909385
  0
LINE
  8
_0-1_EL-SL200SAIMEI
  6
CONTINUOUS
 62
    7
 10
24.220530974835818
 20
36.499244147437786
 11
24.897147728138808
 21
36.667537061892283
  0
LINE
  8
_0-1_EL-SL200SAIMEI
  6
CONTINUOUS
 62
    7
 10
23.54253618333863
 20
36.287198520320707
 11
24.220530974835818
 21
36.499244147437786
  0
LINE
  8
_0-1_EL-SL200SAIMEI
  6
CONTINUOUS
 62
    7
 10
22.569641218304017
 20
35.778530171923585
 11
23.54253618333863
 21
36.287198520320707
  0
LINE
  8
_0-1_EL-SL200SAIMEI
  6
CONTINUOUS
 62
    7
 10
21.722147728932619
 20
35.144977112186204
 11
22.569641218304017
 21
35.778530171923585
  0
LINE
  8
_0-1_EL-SL200SAIMEI
  6
CONTINUOUS
 62
    7
 10
20.663814395863827
 20
34.000860901534708
 11
21.722147728932619
 21
35.144977112186204
  0
LINE
  8
_0-1_EL-SL200SAIMEI
  6
CONTINUOUS
 62
    7
 10
19.860418128703643
 20
32.730481941348806
 11
20.663814395863827
 21
34.000860901534708
  0
LINE
  8
_0-1_EL-SL200SAIMEI
  6
CONTINUOUS
 62
    7
 10
19.225142521223532
 20
31.207577482094106
 11
19.860418128703643
 21
32.730481941348806
  0
LINE
  8
_0-1_EL-SL200SAIMEI
  6
CONTINUOUS
 62
    7
 10
18.843425941457816
 20
29.217862584588087
 11
19.225142521223532
 21
31.207577482094106
  0
LINE
  8
_0-1_EL-SL200SAIMEI
  6
CONTINUOUS
 62
    7
 10
18.802084795634819
 20
27.904592185610785
 11
18.843425941457816
 21
29.217862584588087
  0
LINE
  8
_0-1_EL-SL200SAIMEI
  6
CONTINUOUS
 62
    7
 10
18.970205455315018
 20
26.380481942936306
 11
18.802084795634819
 21
27.904592185610785
  0
LINE
  8
_0-1_EL-SL200SAIMEI
  6
CONTINUOUS
 62
    7
 10
19.478701548937927
 20
24.688251040581594
 11
18.970205455315018
 21
26.380481942936306
  0
LINE
  8
_0-1_EL-SL200SAIMEI
  6
CONTINUOUS
 62
    7
 10
20.113977156418038
 20
23.374808386830086
 11
19.478701548937927
 21
24.688251040581594
  0
LINE
  8
_0-1_EL-SL200SAIMEI
  6
CONTINUOUS
 62
    7
 10
20.494315697989528
 20
22.782596472915596
 11
20.113977156418038
 21
23.374808386830086
  0
LINE
  8
_0-1_EL-SL200SAIMEI
  6
CONTINUOUS
 62
    7
 10
21.045530975629507
 20
22.147148610661297
 11
20.494315697989528
 21
22.782596472915596
  0
LINE
  8
_0-1_EL-SL200SAIMEI
  6
CONTINUOUS
 62
    7
 10
22.400142520429828
 20
21.004927202526755
 11
21.045530975629507
 21
22.147148610661297
  0
LINE
  8
_0-1_EL-SL200SAIMEI
  6
CONTINUOUS
 62
    7
 10
23.37303748546433
 20
20.496258854129614
 11
22.400142520429828
 21
21.004927202526755
  0
LINE
  8
_0-1_EL-SL200SAIMEI
  6
CONTINUOUS
 62
    7
 10
24.558150332390237
 20
20.158639496575095
 11
23.37303748546433
 21
20.496258854129614
  0
LINE
  8
_0-1_EL-SL200SAIMEI
  6
CONTINUOUS
 62
    7
 10
23.16219764176703
 20
19.862189030069306
 11
24.474090002550138
 21
19.480644705077896
  0
LINE
  8
_0-1_EL-SL200SAIMEI
  6
CONTINUOUS
 62
    7
 10
22.400142520429828
 20
20.242527571640895
 11
23.16219764176703
 21
19.862189030069306
  0
LINE
  8
_0-1_EL-SL200SAIMEI
  6
CONTINUOUS
 62
    7
 10
21.764866912949717
 20
20.665929806778134
 11
22.400142520429828
 21
20.242527571640895
  0
LINE
  8
_0-1_EL-SL200SAIMEI
  6
CONTINUOUS
 62
    7
 10
20.663814395863827
 20
21.639858300458336
 11
21.764866912949717
 21
20.665929806778134
  0
LINE
  8
_0-1_EL-SL200SAIMEI
  6
CONTINUOUS
 62
    7
 10
19.860418128703643
 20
22.655644704284207
 11
20.663814395863827
 21
21.639858300458336
  0
LINE
  8
_0-1_EL-SL200SAIMEI
  6
CONTINUOUS
 62
    7
 10
19.098363007366316
 20
24.052975433101487
 11
19.860418128703643
 21
22.655644704284207
  0
LINE
  8
_0-1_EL-SL200SAIMEI
  6
CONTINUOUS
 62
    7
 10
18.463087399886206
 20
26.084203731204806
 11
19.098363007366316
 21
24.052975433101487
  0
LINE
  8
_0-1_EL-SL200SAIMEI
  6
CONTINUOUS
 62
    7
 10
18.250869517994836
 20
27.904592185610785
 11
18.463087399886206
 21
26.084203731204806
  0
LINE
  8
_0-1_EL-SL200SAIMEI
  6
CONTINUOUS
 62
    7
 10
18.336307886029005
 20
29.810246753276797
 11
18.250869517994836
 21
27.904592185610785
  0
LINE
  8
_0-1_EL-SL200SAIMEI
  6
CONTINUOUS
 62
    7
 10
18.716646427600622
 20
31.461308764582807
 11
18.336307886029005
 21
29.810246753276797
  0
LINE
  8
_0-1_EL-SL200SAIMEI
  6
CONTINUOUS
 62
    7
 10
19.351922035080733
 20
33.028310446048593
 11
18.716646427600622
 21
31.461308764582807
  0
LINE
  8
_0-1_EL-SL200SAIMEI
  6
CONTINUOUS
 62
    7
 10
20.240756670275132
 20
34.424263136671883
 11
19.351922035080733
 21
33.028310446048593
  0
LINE
  8
_0-1_EL-SL200SAIMEI
  6
CONTINUOUS
 62
    7
 10
21.08687212145254
 20
35.398191630352002
 11
20.240756670275132
 21
34.424263136671883
  0
LINE
  8
_0-1_EL-SL200SAIMEI
  6
CONTINUOUS
 62
    7
 10
22.314704152395517
 20
36.371258850160807
 11
21.08687212145254
 21
35.398191630352002
  0
LINE
  8
_0-1_EL-SL200SAIMEI
  6
CONTINUOUS
 62
    7
 10
23.669315697195838
 20
37.049253641657998
 11
22.314704152395517
 21
36.371258850160807
  0
LINE
  8
_0-1_EL-SL200SAIMEI
  6
CONTINUOUS
 62
    7
 10
24.686307884441508
 20
37.302812669372393
 11
23.669315697195838
 21
37.049253641657998
  0
LINE
  8
_0-1_EL-SL200SAIMEI
  6
CONTINUOUS
 62
    7
 10
25.828701547350427
 20
37.429592183229595
 11
24.686307884441508
 21
37.302812669372393
  0
LINE
  8
_0-1_EL-SL200SAIMEI
  6
CONTINUOUS
 62
    7
 10
26.887034880419129
 20
37.302812669372393
 11
25.828701547350427
 21
37.429592183229595
  0
LINE
  8
_0-1_EL-SL200SAIMEI
  6
CONTINUOUS
 62
    7
 10
22.484202850269817
 20
21.131534461609636
 11
23.881533579087208
 21
20.454917708306617
  0
LINE
  8
_0-1_EL-SL200SAIMEI
  6
CONTINUOUS
 62
    7
 10
21.511307885235318
 20
21.936308766964014
 11
22.484202850269817
 21
21.131534461609636
  0
LINE
  8
_0-1_EL-SL200SAIMEI
  6
CONTINUOUS
 62
    7
 10
20.45297455216653
 20
23.248201127747105
 11
21.511307885235318
 21
21.936308766964014
  0
LINE
  8
_0-1_EL-SL200SAIMEI
  6
CONTINUOUS
 62
    7
 10
19.944478458543742
 20
24.136863508167284
 11
20.45297455216653
 21
23.248201127747105
  0
LINE
  8
_0-1_EL-SL200SAIMEI
  6
CONTINUOUS
 62
    7
 10
19.435982364920832
 20
25.450306161918796
 11
19.944478458543742
 21
24.136863508167284
  0
LINE
  8
_0-1_EL-SL200SAIMEI
  6
CONTINUOUS
 62
    7
 10
19.139704153189321
 20
26.846258852542086
 11
19.435982364920832
 21
25.450306161918796
  0
LINE
  8
_0-1_EL-SL200SAIMEI
  6
CONTINUOUS
 62
    7
 10
19.055643823349214
 20
28.666475052173805
 11
19.139704153189321
 21
26.846258852542086
  0
LINE
  8
_0-1_EL-SL200SAIMEI
  6
CONTINUOUS
 62
    7
 10
19.098363007366316
 20
29.387361282462386
 11
19.055643823349214
 21
28.666475052173805
  0
LINE
  8
_0-1_EL-SL200SAIMEI
  6
CONTINUOUS
 62
    7
 10
19.478701548937927
 20
31.164858298076997
 11
19.098363007366316
 21
29.387361282462386
  0
LINE
  8
_0-1_EL-SL200SAIMEI
  6
CONTINUOUS
 62
    7
 10
19.987197642560837
 20
32.476922913634404
 11
19.478701548937927
 21
31.164858298076997
  0
LINE
  8
_0-1_EL-SL200SAIMEI
  6
CONTINUOUS
 62
    7
 10
21.12959130546961
 20
34.254592184023288
 11
19.987197642560837
 21
32.476922913634404
  0
LINE
  8
_0-1_EL-SL200SAIMEI
  6
CONTINUOUS
 62
    7
 10
22.10386430869821
 20
35.186146003234903
 11
21.12959130546961
 21
34.254592184023288
  0
LINE
  8
_0-1_EL-SL200SAIMEI
  6
CONTINUOUS
 62
    7
 10
23.119478457749928
 20
35.905481940555084
 11
22.10386430869821
 21
35.186146003234903
  0
LINE
  8
_0-1_EL-SL200SAIMEI
  6
CONTINUOUS
 62
    7
 10
24.008313092944409
 20
36.287198520320707
 11
23.119478457749928
 21
35.905481940555084
  0
LINE
  8
_0-1_EL-SL200SAIMEI
  6
CONTINUOUS
 62
    7
 10
24.855806582315818
 20
36.540929802809408
 11
24.008313092944409
 21
36.287198520320707
  0
LINE
  8
_0-1_EL-SL200SAIMEI
  6
CONTINUOUS
 62
    7
 10
25.616483665459018
 20
20.158639496575095
 11
24.643588700424438
 21
20.242527571640895
  0
LINE
  8
_0-1_EL-SL200SAIMEI
  6
CONTINUOUS
 62
    7
 10
26.294478456956238
 20
20.199808387623797
 11
25.616483665459018
 21
20.158639496575095
  0
LINE
  8
_0-1_EL-SL200SAIMEI
  6
CONTINUOUS
 62
    7
 10
27.268751460184838
 20
20.412198524289504
 11
26.294478456956238
 21
20.199808387623797
  0
LINE
  8
_0-1_EL-SL200SAIMEI
  6
CONTINUOUS
 62
    7
 10
28.580643820967918
 20
20.961863508961134
 11
27.268751460184838
 21
20.412198524289504
  0
LINE
  8
_0-1_EL-SL200SAIMEI
  6
CONTINUOUS
 62
    7
 10
29.765756667893928
 20
21.850870398929807
 11
28.580643820967918
 21
20.961863508961134
  0
LINE
  8
_0-1_EL-SL200SAIMEI
  6
CONTINUOUS
 62
    7
 10
31.163087396711209
 20
33.451195916863092
 11
30.31559390733981
 21
34.550870395754792
  0
LINE
  8
_0-1_EL-SL200SAIMEI
  6
CONTINUOUS
 62
    7
 10
31.925142518048528
 20
31.884194235397185
 11
31.163087396711209
 21
33.451195916863092
  0
LINE
  8
_0-1_EL-SL200SAIMEI
  6
CONTINUOUS
 62
    7
 10
32.34820024363723
 20
30.445694615531085
 11
31.925142518048528
 21
31.884194235397185
  0
LINE
  8
_0-1_EL-SL200SAIMEI
  6
CONTINUOUS
 62
    7
 10
32.474979757494424
 20
29.598201126159605
 11
32.34820024363723
 21
30.445694615531085
  0
LINE
  8
_0-1_EL-SL200SAIMEI
  6
CONTINUOUS
 62
    7
 10
32.517698941511526
 20
28.286308765376496
 11
32.474979757494424
 21
29.598201126159605
  0
LINE
  8
_0-1_EL-SL200SAIMEI
  6
CONTINUOUS
 62
    7
 10
32.390919427654325
 20
26.931524965801994
 11
32.517698941511526
 21
28.286308765376496
  0
LINE
  8
_0-1_EL-SL200SAIMEI
  6
CONTINUOUS
 62
    7
 10
32.221420729780029
 20
26.084203731204806
 11
32.390919427654325
 21
26.931524965801994
  0
LINE
  8
_0-1_EL-SL200SAIMEI
  6
CONTINUOUS
 62
    7
 10
31.712924636157119
 20
24.602812672547394
 11
32.221420729780029
 21
26.084203731204806
  0
LINE
  8
_0-1_EL-SL200SAIMEI
  6
CONTINUOUS
 62
    7
 10
30.86680918497974
 20
23.121593868664196
 11
31.712924636157119
 21
24.602812672547394
  0
LINE
  8
_0-1_EL-SL200SAIMEI
  6
CONTINUOUS
 62
    7
 10
30.358313091356909
 20
22.444977115361205
 11
30.86680918497974
 21
23.121593868664196
  0
LINE
  8
_0-1_EL-SL200SAIMEI
  6
CONTINUOUS
 62
    7
 10
29.765756667893928
 20
21.850870398929807
 11
30.358313091356909
 21
22.444977115361205
  0
LINE
  8
_0-1_EL-SL200SAIMEI
  6
CONTINUOUS
 62
    7
 10
29.892536181751129
 20
35.016475050586308
 11
30.31559390733981
 21
34.550870395754792
  0
LINE
  8
_0-1_EL-SL200SAIMEI
  6
CONTINUOUS
 62
    7
 10
29.089139914590827
 20
35.651922912840682
 11
29.892536181751129
 21
35.016475050586308
  0
LINE
  8
_0-1_EL-SL200SAIMEI
  6
CONTINUOUS
 62
    7
 10
28.030806581522118
 20
36.203310445254907
 11
29.089139914590827
 21
35.651922912840682
  0
LINE
  8
_0-1_EL-SL200SAIMEI
  6
CONTINUOUS
 62
    7
 10
26.844315696402028
 20
36.540929802809408
 11
28.030806581522118
 21
36.203310445254907
  0
LINE
  8
_0-1_EL-SL200SAIMEI
  6
CONTINUOUS
 62
    7
 10
27.479591303882138
 20
19.692862586969305
 11
28.411145123093608
 21
20.073201128540905
  0
LINE
  8
_0-1_EL-SL200SAIMEI
  6
CONTINUOUS
 62
    7
 10
26.590756668687629
 20
19.480644705077896
 11
27.479591303882138
 21
19.692862586969305
  0
LINE
  8
_0-1_EL-SL200SAIMEI
  6
CONTINUOUS
 62
    7
 10
25.320205453727517
 20
19.396584375237804
 11
26.590756668687629
 21
19.480644705077896
  0
LINE
  8
_0-1_EL-SL200SAIMEI
  6
CONTINUOUS
 62
    7
 10
24.474090002550138
 20
19.480644705077896
 11
25.320205453727517
 21
19.396584375237804
  0
LINE
  8
_0-1_EL-SL200SAIMEI
  6
CONTINUOUS
 62
    7
 10
27.565029671916317
 20
37.175860900740894
 11
26.887034880419129
 21
37.302812669372393
  0
LINE
  8
_0-1_EL-SL200SAIMEI
  6
CONTINUOUS
 62
    7
 10
28.114866911362217
 20
36.963815273623787
 11
27.565029671916317
 21
37.175860900740894
  0
LINE
  8
_0-1_EL-SL200SAIMEI
  6
CONTINUOUS
 62
    7
 10
29.385418126322328
 20
36.287198520320707
 11
28.114866911362217
 21
36.963815273623787
  0
LINE
  8
_0-1_EL-SL200SAIMEI
  6
CONTINUOUS
 62
    7
 10
25.914139915384627
 20
20.073201128540905
 11
24.558150332390237
 21
20.158639496575095
  0
LINE
  8
_0-1_EL-SL200SAIMEI
  6
CONTINUOUS
 62
    7
 10
26.590756668687629
 20
20.158639496575095
 11
25.914139915384627
 21
20.073201128540905
  0
LINE
  8
_0-1_EL-SL200SAIMEI
  6
CONTINUOUS
 62
    7
 10
27.565029671916317
 20
20.412198524289504
 11
26.590756668687629
 21
20.158639496575095
  0
LINE
  8
_0-1_EL-SL200SAIMEI
  6
CONTINUOUS
 62
    7
 10
28.537924636950809
 20
20.877975433895337
 11
27.565029671916317
 21
20.412198524289504
  0
LINE
  8
_0-1_EL-SL200SAIMEI
  6
CONTINUOUS
 62
    7
 10
29.638977154036727
 20
21.639858300458336
 11
28.537924636950809
 21
20.877975433895337
  0
LINE
  8
_0-1_EL-SL200SAIMEI
  6
CONTINUOUS
 62
    7
 10
30.44375145939112
 20
22.486146006409907
 11
29.638977154036727
 21
21.639858300458336
  0
LINE
  8
_0-1_EL-SL200SAIMEI
  6
CONTINUOUS
 62
    7
 10
31.163087396711209
 20
23.460246754864297
 11
30.44375145939112
 21
22.486146006409907
  0
LINE
  8
_0-1_EL-SL200SAIMEI
  6
CONTINUOUS
 62
    7
 10
31.502084792459819
 20
24.052975433101487
 11
31.163087396711209
 21
23.460246754864297
  0
LINE
  8
_0-1_EL-SL200SAIMEI
  6
CONTINUOUS
 62
    7
 10
32.221420729780029
 20
25.957596472121896
 11
31.502084792459819
 21
24.052975433101487
  0
LINE
  8
_0-1_EL-SL200SAIMEI
  6
CONTINUOUS
 62
    7
 10
32.474979757494424
 20
27.185256248290695
 11
32.221420729780029
 21
25.957596472121896
  0
LINE
  8
_0-1_EL-SL200SAIMEI
  6
CONTINUOUS
 62
    7
 10
32.560418125528642
 20
28.878865188839505
 11
32.474979757494424
 21
27.185256248290695
  0
LINE
  8
_0-1_EL-SL200SAIMEI
  6
CONTINUOUS
 62
    7
 10
32.34820024363723
 20
30.572646384162585
 11
32.560418125528642
 21
28.878865188839505
  0
LINE
  8
_0-1_EL-SL200SAIMEI
  6
CONTINUOUS
 62
    7
 10
32.178701545762934
 20
31.291982321482685
 11
32.34820024363723
 21
30.572646384162585
  0
LINE
  8
_0-1_EL-SL200SAIMEI
  6
CONTINUOUS
 62
    7
 10
31.755643820174217
 20
32.434203729617309
 11
32.178701545762934
 21
31.291982321482685
  0
LINE
  8
_0-1_EL-SL200SAIMEI
  6
CONTINUOUS
 62
    7
 10
31.28986691056841
 20
33.365929803603109
 11
31.755643820174217
 21
32.434203729617309
  0
LINE
  8
_0-1_EL-SL200SAIMEI
  6
CONTINUOUS
 62
    7
 10
30.86680918497974
 20
34.000860901534708
 11
31.28986691056841
 21
33.365929803603109
  0
LINE
  8
_0-1_EL-SL200SAIMEI
  6
CONTINUOUS
 62
    7
 10
30.104754063642538
 20
34.889867791503399
 11
30.86680918497974
 21
34.000860901534708
  0
LINE
  8
_0-1_EL-SL200SAIMEI
  6
CONTINUOUS
 62
    7
 10
29.257260574271019
 20
35.609203728823609
 11
30.104754063642538
 21
34.889867791503399
  0
LINE
  8
_0-1_EL-SL200SAIMEI
  6
CONTINUOUS
 62
    7
 10
27.733150331596509
 20
36.413978034177909
 11
29.257260574271019
 21
35.609203728823609
  0
LINE
  8
_0-1_EL-SL200SAIMEI
  6
CONTINUOUS
 62
    7
 10
26.80297455057903
 20
36.626195916069285
 11
27.733150331596509
 21
36.413978034177909
  0
LINE
  8
_0-1_EL-SL200SAIMEI
  6
CONTINUOUS
 62
    7
 10
26.506696338847608
 20
31.164858298076997
 11
26.210418127116139
 21
31.207577482094106
  0
LINE
  8
_0-1_EL-SL200SAIMEI
  6
CONTINUOUS
 62
    7
 10
27.226032276167739
 20
30.783141718311295
 11
26.506696338847608
 21
31.164858298076997
  0
LINE
  8
_0-1_EL-SL200SAIMEI
  6
CONTINUOUS
 62
    7
 10
27.691809185773518
 20
30.276195917656786
 11
27.226032276167739
 21
30.783141718311295
  0
LINE
  8
_0-1_EL-SL200SAIMEI
  6
CONTINUOUS
 62
    7
 10
28.072147727345119
 20
29.514313051093804
 11
27.691809185773518
 21
30.276195917656786
  0
LINE
  8
_0-1_EL-SL200SAIMEI
  6
CONTINUOUS
 62
    7
 10
28.19892724120232
 20
29.005644702696706
 11
28.072147727345119
 21
29.514313051093804
  0
LINE
  8
_0-1_EL-SL200SAIMEI
  6
CONTINUOUS
 62
    7
 10
28.19892724120232
 20
27.989858298870807
 11
28.19892724120232
 21
29.005644702696706
  0
LINE
  8
_0-1_EL-SL200SAIMEI
  6
CONTINUOUS
 62
    7
 10
27.945368213487917
 20
27.058476734433494
 11
28.19892724120232
 21
27.989858298870807
  0
LINE
  8
_0-1_EL-SL200SAIMEI
  6
CONTINUOUS
 62
    7
 10
27.479591303882138
 20
26.339313051887604
 11
27.945368213487917
 21
27.058476734433494
  0
LINE
  8
_0-1_EL-SL200SAIMEI
  6
CONTINUOUS
 62
    7
 10
27.056533578293429
 20
25.957596472121896
 11
27.479591303882138
 21
26.339313051887604
  0
LINE
  8
_0-1_EL-SL200SAIMEI
  6
CONTINUOUS
 62
    7
 10
26.633475852704727
 20
25.703865189633195
 11
27.056533578293429
 21
25.957596472121896
  0
LINE
  8
_0-1_EL-SL200SAIMEI
  6
CONTINUOUS
 62
    7
 10
25.955481061207628
 20
25.576913421001784
 11
26.633475852704727
 21
25.703865189633195
  0
LINE
  8
_0-1_EL-SL200SAIMEI
  6
CONTINUOUS
 62
    7
 10
24.897147728138808
 20
27.777812671753587
 11
24.897147728138808
 21
28.709194236190907
  0
LINE
  8
_0-1_EL-SL200SAIMEI
  6
CONTINUOUS
 62
    7
 10
25.066646426013119
 20
27.142537064273586
 11
24.897147728138808
 21
27.777812671753587
  0
LINE
  8
_0-1_EL-SL200SAIMEI
  6
CONTINUOUS
 62
    7
 10
25.320205453727517
 20
26.635246754070486
 11
25.066646426013119
 21
27.142537064273586
  0
LINE
  8
_0-1_EL-SL200SAIMEI
  6
CONTINUOUS
 62
    7
 10
25.701922033493229
 20
26.212189028481806
 11
25.320205453727517
 21
26.635246754070486
  0
LINE
  8
_0-1_EL-SL200SAIMEI
  6
CONTINUOUS
 62
    7
 10
26.210418127116139
 20
25.873191632733285
 11
25.701922033493229
 21
26.212189028481806
  0
LINE
  8
_0-1_EL-SL200SAIMEI
  6
CONTINUOUS
 62
    7
 10
26.674816998527728
 20
25.746584373650297
 11
26.210418127116139
 21
25.873191632733285
  0
LINE
  8
_0-1_EL-SL200SAIMEI
  6
CONTINUOUS
 62
    7
 10
25.532423335618919
 20
25.576913421001784
 11
25.955481061207628
 21
25.576913421001784
  0
LINE
  8
_0-1_EL-SL200SAIMEI
  6
CONTINUOUS
 62
    7
 10
24.982586096173019
 20
25.746584373650297
 11
25.532423335618919
 21
25.576913421001784
  0
LINE
  8
_0-1_EL-SL200SAIMEI
  6
CONTINUOUS
 62
    7
 10
24.177811790818719
 20
26.380481942936306
 11
24.982586096173019
 21
25.746584373650297
  0
LINE
  8
_0-1_EL-SL200SAIMEI
  6
CONTINUOUS
 62
    7
 10
23.838814395070138
 20
26.974244149819096
 11
24.177811790818719
 21
26.380481942936306
  0
LINE
  8
_0-1_EL-SL200SAIMEI
  6
CONTINUOUS
 62
    7
 10
23.627974551372837
 20
27.566972828056286
 11
23.838814395070138
 21
26.974244149819096
  0
LINE
  8
_0-1_EL-SL200SAIMEI
  6
CONTINUOUS
 62
    7
 10
23.54253618333863
 20
28.074263138259386
 11
23.627974551372837
 21
27.566972828056286
  0
LINE
  8
_0-1_EL-SL200SAIMEI
  6
CONTINUOUS
 62
    7
 10
23.585255367355739
 20
28.794977113773705
 11
23.54253618333863
 21
28.074263138259386
  0
LINE
  8
_0-1_EL-SL200SAIMEI
  6
CONTINUOUS
 62
    7
 10
25.955481061207628
 20
30.783141718311295
 11
26.71753618254483
 21
31.038251038994094
  0
LINE
  8
_0-1_EL-SL200SAIMEI
  6
CONTINUOUS
 62
    7
 10
25.44836300577882
 20
30.317537063479786
 11
25.955481061207628
 21
30.783141718311295
  0
LINE
  8
_0-1_EL-SL200SAIMEI
  6
CONTINUOUS
 62
    7
 10
24.939866912155917
 20
29.514313051093804
 11
25.44836300577882
 21
30.317537063479786
  0
LINE
  8
_0-1_EL-SL200SAIMEI
  6
CONTINUOUS
 62
    7
 10
24.770368214281607
 20
28.751913420208005
 11
24.939866912155917
 21
29.514313051093804
  0
LINE
  8
_0-1_EL-SL200SAIMEI
  6
CONTINUOUS
 62
    7
 10
23.669315697195838
 20
29.301922914428186
 11
23.585255367355739
 21
28.794977113773705
  0
LINE
  8
_0-1_EL-SL200SAIMEI
  6
CONTINUOUS
 62
    7
 10
23.881533579087208
 20
29.810246753276797
 11
23.669315697195838
 21
29.301922914428186
  0
LINE
  8
_0-1_EL-SL200SAIMEI
  6
CONTINUOUS
 62
    7
 10
24.261872120658818
 20
30.402975431513987
 11
23.881533579087208
 21
29.810246753276797
  0
LINE
  8
_0-1_EL-SL200SAIMEI
  6
CONTINUOUS
 62
    7
 10
24.558150332390237
 20
30.699253643245495
 11
24.261872120658818
 21
30.402975431513987
  0
LINE
  8
_0-1_EL-SL200SAIMEI
  6
CONTINUOUS
 62
    7
 10
25.066646426013119
 20
31.038251038994094
 11
24.558150332390237
 21
30.699253643245495
  0
LINE
  8
_0-1_EL-SL200SAIMEI
  6
CONTINUOUS
 62
    7
 10
25.405643821761718
 20
31.164858298076997
 11
25.066646426013119
 21
31.038251038994094
  0
LINE
  8
_0-1_EL-SL200SAIMEI
  6
CONTINUOUS
 62
    7
 10
26.210418127116139
 20
31.207577482094106
 11
25.405643821761718
 21
31.164858298076997
  0
LINE
  8
_0-1_EL-SL200SAIMEI
  6
CONTINUOUS
 62
    7
 10
24.770368214281607
 20
27.736643780704885
 11
24.770368214281607
 21
28.751913420208005
  0
LINE
  8
_0-1_EL-SL200SAIMEI
  6
CONTINUOUS
 62
    7
 10
24.939866912155917
 20
27.101195918450596
 11
24.770368214281607
 21
27.736643780704885
  0
LINE
  8
_0-1_EL-SL200SAIMEI
  6
CONTINUOUS
 62
    7
 10
25.152084794047319
 20
26.678310447636097
 11
24.939866912155917
 21
27.101195918450596
  0
LINE
  8
_0-1_EL-SL200SAIMEI
  6
CONTINUOUS
 62
    7
 10
25.405643821761718
 20
26.339313051887604
 11
25.152084794047319
 21
26.678310447636097
  0
LINE
  8
_0-1_EL-SL200SAIMEI
  6
CONTINUOUS
 62
    7
 10
25.955481061207628
 20
25.873191632733285
 11
25.405643821761718
 21
26.339313051887604
  0
LINE
  8
_0-1_EL-SL200SAIMEI
  6
CONTINUOUS
 62
    7
 10
26.463977154830538
 20
25.703865189633195
 11
25.955481061207628
 21
25.873191632733285
  0
LINE
  8
_0-1_EL-SL200SAIMEI
  6
CONTINUOUS
 62
    7
 10
26.33719764097334
 20
30.825860902328394
 11
26.929754064436228
 21
30.952812670959897
  0
LINE
  8
_0-1_EL-SL200SAIMEI
  6
CONTINUOUS
 62
    7
 10
25.828701547350427
 20
30.529927200145487
 11
26.33719764097334
 21
30.825860902328394
  0
LINE
  8
_0-1_EL-SL200SAIMEI
  6
CONTINUOUS
 62
    7
 10
25.575142519636028
 20
30.276195917656786
 11
25.828701547350427
 21
30.529927200145487
  0
LINE
  8
_0-1_EL-SL200SAIMEI
  6
CONTINUOUS
 62
    7
 10
25.19342593987032
 20
29.767527569259695
 11
25.575142519636028
 21
30.276195917656786
  0
LINE
  8
_0-1_EL-SL200SAIMEI
  6
CONTINUOUS
 62
    7
 10
24.939866912155917
 20
29.090910815956587
 11
25.19342593987032
 21
29.767527569259695
  0
LINE
  8
_0-1_EL-SL200SAIMEI
  6
CONTINUOUS
 62
    7
 10
24.897147728138808
 20
28.751913420208005
 11
24.939866912155917
 21
29.090910815956587
  0
LINE
  8
_0-1_EL-SL200SAIMEI
  6
CONTINUOUS
 62
    7
 10
22.01842594066412
 20
19.100306163506296
 11
23.54253618333863
 21
18.675870399723486
  0
LINE
  8
_0-1_EL-SL200SAIMEI
  6
CONTINUOUS
 62
    7
 10
20.663814395863827
 20
19.862361284843605
 11
22.01842594066412
 21
19.100306163506296
  0
LINE
  8
_0-1_EL-SL200SAIMEI
  6
CONTINUOUS
 62
    7
 10
19.309202851063631
 20
21.088815277592566
 11
20.663814395863827
 21
19.862361284843605
  0
LINE
  8
_0-1_EL-SL200SAIMEI
  6
CONTINUOUS
 62
    7
 10
18.293588702011938
 20
22.444977115361205
 11
19.309202851063631
 21
21.088815277592566
  0
LINE
  8
_0-1_EL-SL200SAIMEI
  6
CONTINUOUS
 62
    7
 10
17.447473250834605
 20
24.136863508167284
 11
18.293588702011938
 21
22.444977115361205
  0
LINE
  8
_0-1_EL-SL200SAIMEI
  6
CONTINUOUS
 62
    7
 10
16.938977157211731
 20
25.830644703490396
 11
17.447473250834605
 21
24.136863508167284
  0
LINE
  8
_0-1_EL-SL200SAIMEI
  6
CONTINUOUS
 62
    7
 10
16.685418129497329
 20
28.329027949393595
 11
16.938977157211731
 21
25.830644703490396
  0
LINE
  8
_0-1_EL-SL200SAIMEI
  6
CONTINUOUS
 62
    7
 10
16.81219764335453
 20
29.853310446842407
 11
16.685418129497329
 21
28.329027949393595
  0
LINE
  8
_0-1_EL-SL200SAIMEI
  6
CONTINUOUS
 62
    7
 10
16.938977157211731
 20
30.741972827262597
 11
16.81219764335453
 21
29.853310446842407
  0
LINE
  8
_0-1_EL-SL200SAIMEI
  6
CONTINUOUS
 62
    7
 10
17.192536184926126
 20
31.714867792297206
 11
16.938977157211731
 21
30.741972827262597
  0
LINE
  8
_0-1_EL-SL200SAIMEI
  6
CONTINUOUS
 62
    7
 10
17.911872122246322
 20
33.492537062686083
 11
17.192536184926126
 21
31.714867792297206
  0
LINE
  8
_0-1_EL-SL200SAIMEI
  6
CONTINUOUS
 62
    7
 10
18.589866913743421
 20
34.636308763788996
 11
17.911872122246322
 21
33.492537062686083
  0
LINE
  8
_0-1_EL-SL200SAIMEI
  6
CONTINUOUS
 62
    7
 10
19.73226057665233
 20
36.033639492606305
 11
18.589866913743421
 21
34.636308763788996
  0
LINE
  8
_0-1_EL-SL200SAIMEI
  6
CONTINUOUS
 62
    7
 10
20.749252763898038
 20
36.879927198557986
 11
19.73226057665233
 21
36.033639492606305
  0
LINE
  8
_0-1_EL-SL200SAIMEI
  6
CONTINUOUS
 62
    7
 10
21.383150333184009
 20
37.302812669372393
 11
20.749252763898038
 21
36.879927198557986
  0
LINE
  8
_0-1_EL-SL200SAIMEI
  6
CONTINUOUS
 62
    7
 10
22.99269894389273
 20
38.022148606692603
 11
21.383150333184009
 21
37.302812669372393
  0
LINE
  8
_0-1_EL-SL200SAIMEI
  6
CONTINUOUS
 62
    7
 10
24.474090002550138
 20
38.319977111392397
 11
22.99269894389273
 21
38.022148606692603
  0
LINE
  8
_0-1_EL-SL200SAIMEI
  6
CONTINUOUS
 62
    7
 10
25.616483665459018
 20
38.319977111392397
 11
24.474090002550138
 21
38.319977111392397
  0
LINE
  8
_0-1_EL-SL200SAIMEI
  6
CONTINUOUS
 62
    7
 10
26.082260575064829
 20
38.234194233809689
 11
25.616483665459018
 21
38.319977111392397
  0
LINE
  8
_0-1_EL-SL200SAIMEI
  6
CONTINUOUS
 62
    7
 10
24.982586096173019
 20
19.057586979489304
 11
25.023927241996009
 21
19.057586979489304
  0
LINE
  8
_0-1_EL-SL200SAIMEI
  6
CONTINUOUS
 62
    7
 10
30.274252761516809
 20
21.639858300458336
 11
30.993588698836938
 21
22.612925520267105
  0
LINE
  8
_0-1_EL-SL200SAIMEI
  6
CONTINUOUS
 62
    7
 10
29.469478456162427
 20
20.835256249878235
 11
30.274252761516809
 21
21.639858300458336
  0
LINE
  8
_0-1_EL-SL200SAIMEI
  6
CONTINUOUS
 62
    7
 10
28.411145123093608
 20
20.073201128540905
 11
29.469478456162427
 21
20.835256249878235
  0
LINE
  8
_0-1_EL-SL200SAIMEI
  6
CONTINUOUS
 62
    7
 10
27.81858869963072
 20
19.734203732792306
 11
28.411145123093608
 21
20.073201128540905
  0
LINE
  8
_0-1_EL-SL200SAIMEI
  6
CONTINUOUS
 62
    7
 10
27.606370817739307
 20
19.692862586969305
 11
27.81858869963072
 21
19.734203732792306
  0
LINE
  8
_0-1_EL-SL200SAIMEI
  6
CONTINUOUS
 62
    7
 10
27.565029671916317
 20
19.607596473709396
 11
27.606370817739307
 21
19.692862586969305
  0
LINE
  8
_0-1_EL-SL200SAIMEI
  6
CONTINUOUS
 62
    7
 10
26.844315696402028
 20
19.353865191220695
 11
27.565029671916317
 21
19.607596473709396
  0
LINE
  8
_0-1_EL-SL200SAIMEI
  6
CONTINUOUS
 62
    7
 10
25.744641217510328
 20
19.100306163506296
 11
26.844315696402028
 21
19.353865191220695
  0
LINE
  8
_0-1_EL-SL200SAIMEI
  6
CONTINUOUS
 62
    7
 10
25.19342593987032
 20
19.057586979489304
 11
25.744641217510328
 21
19.100306163506296
  0
LINE
  8
_0-1_EL-SL200SAIMEI
  6
CONTINUOUS
 62
    7
 10
23.37303748546433
 20
19.226913422589284
 11
24.13509260680161
 21
19.100306163506296
  0
LINE
  8
_0-1_EL-SL200SAIMEI
  6
CONTINUOUS
 62
    7
 10
22.357423336412619
 20
19.565910818337887
 11
23.37303748546433
 21
19.226913422589284
  0
LINE
  8
_0-1_EL-SL200SAIMEI
  6
CONTINUOUS
 62
    7
 10
21.256370819326808
 20
20.158639496575095
 11
22.357423336412619
 21
19.565910818337887
  0
LINE
  8
_0-1_EL-SL200SAIMEI
  6
CONTINUOUS
 62
    7
 10
20.367536184132327
 20
20.835256249878235
 11
21.256370819326808
 21
20.158639496575095
  0
LINE
  8
_0-1_EL-SL200SAIMEI
  6
CONTINUOUS
 62
    7
 10
19.266483667046515
 20
22.063260535595496
 11
20.367536184132327
 21
20.835256249878235
  0
LINE
  8
_0-1_EL-SL200SAIMEI
  6
CONTINUOUS
 62
    7
 10
18.250869517994836
 20
23.799244150612786
 11
19.266483667046515
 21
22.063260535595496
  0
LINE
  8
_0-1_EL-SL200SAIMEI
  6
CONTINUOUS
 62
    7
 10
17.658313094531906
 20
25.491475052967605
 11
18.250869517994836
 21
23.799244150612786
  0
LINE
  8
_0-1_EL-SL200SAIMEI
  6
CONTINUOUS
 62
    7
 10
17.447473250834605
 20
26.465920310970485
 11
17.658313094531906
 21
25.491475052967605
  0
LINE
  8
_0-1_EL-SL200SAIMEI
  6
CONTINUOUS
 62
    7
 10
17.319315698783342
 20
27.863251039787794
 11
17.447473250834605
 21
26.465920310970485
  0
LINE
  8
_0-1_EL-SL200SAIMEI
  6
CONTINUOUS
 62
    7
 10
17.319315698783342
 20
28.794977113773705
 11
17.319315698783342
 21
27.863251039787794
  0
LINE
  8
_0-1_EL-SL200SAIMEI
  6
CONTINUOUS
 62
    7
 10
17.40475406681751
 20
29.724808385242586
 11
17.319315698783342
 21
28.794977113773705
  0
LINE
  8
_0-1_EL-SL200SAIMEI
  6
CONTINUOUS
 62
    7
 10
17.658313094531906
 20
31.038251038994094
 11
17.40475406681751
 21
29.724808385242586
  0
LINE
  8
_0-1_EL-SL200SAIMEI
  6
CONTINUOUS
 62
    7
 10
18.081370820120526
 20
32.350315654551508
 11
17.658313094531906
 21
31.038251038994094
  0
LINE
  8
_0-1_EL-SL200SAIMEI
  6
CONTINUOUS
 62
    7
 10
18.673927243583506
 20
33.577975430720294
 11
18.081370820120526
 21
32.350315654551508
  0
LINE
  8
_0-1_EL-SL200SAIMEI
  6
CONTINUOUS
 62
    7
 10
19.098363007366316
 20
34.254592184023288
 11
18.673927243583506
 21
33.577975430720294
  0
LINE
  8
_0-1_EL-SL200SAIMEI
  6
CONTINUOUS
 62
    7
 10
20.240756670275132
 20
35.651922912840682
 11
19.098363007366316
 21
34.254592184023288
  0
LINE
  8
_0-1_EL-SL200SAIMEI
  6
CONTINUOUS
 62
    7
 10
21.511307885235318
 20
36.667537061892283
 11
20.240756670275132
 21
35.651922912840682
  0
LINE
  8
_0-1_EL-SL200SAIMEI
  6
CONTINUOUS
 62
    7
 10
22.82320024601842
 20
37.345531853389495
 11
21.511307885235318
 21
36.667537061892283
  0
LINE
  8
_0-1_EL-SL200SAIMEI
  6
CONTINUOUS
 62
    7
 10
24.008313092944409
 20
37.684529249138109
 11
22.82320024601842
 21
37.345531853389495
  0
LINE
  8
_0-1_EL-SL200SAIMEI
  6
CONTINUOUS
 62
    7
 10
25.066646426013119
 20
37.811308762995303
 11
24.008313092944409
 21
37.684529249138109
  0
LINE
  8
_0-1_EL-SL200SAIMEI
  6
CONTINUOUS
 62
    7
 10
25.828701547350427
 20
37.768589578978087
 11
25.066646426013119
 21
37.811308762995303
  0
LINE
  8
_0-1_EL-SL200SAIMEI
  6
CONTINUOUS
 62
    7
 10
17.531533580674704
 20
29.090910815956587
 11
17.615593910514811
 21
29.767527569259695
  0
LINE
  8
_0-1_EL-SL200SAIMEI
  6
CONTINUOUS
 62
    7
 10
17.531533580674704
 20
27.481534460022086
 11
17.531533580674704
 21
29.090910815956587
  0
LINE
  8
_0-1_EL-SL200SAIMEI
  6
CONTINUOUS
 62
    7
 10
17.574252764691806
 20
26.762198522701986
 11
17.531533580674704
 21
27.481534460022086
  0
LINE
  8
_0-1_EL-SL200SAIMEI
  6
CONTINUOUS
 62
    7
 10
17.827811792406223
 20
25.491475052967605
 11
17.574252764691806
 21
26.762198522701986
  0
LINE
  8
_0-1_EL-SL200SAIMEI
  6
CONTINUOUS
 62
    7
 10
18.377649031852037
 20
23.926195919244286
 11
17.827811792406223
 21
25.491475052967605
  0
LINE
  8
_0-1_EL-SL200SAIMEI
  6
CONTINUOUS
 62
    7
 10
19.098363007366316
 20
22.528865190427005
 11
18.377649031852037
 21
23.926195919244286
  0
LINE
  8
_0-1_EL-SL200SAIMEI
  6
CONTINUOUS
 62
    7
 10
20.494315697989528
 20
20.877975433895337
 11
19.098363007366316
 21
22.528865190427005
  0
LINE
  8
_0-1_EL-SL200SAIMEI
  6
CONTINUOUS
 62
    7
 10
21.12959130546961
 20
20.369479340272395
 11
20.494315697989528
 21
20.877975433895337
  0
LINE
  8
_0-1_EL-SL200SAIMEI
  6
CONTINUOUS
 62
    7
 10
22.145205454521207
 20
19.734203732792306
 11
21.12959130546961
 21
20.369479340272395
  0
LINE
  8
_0-1_EL-SL200SAIMEI
  6
CONTINUOUS
 62
    7
 10
23.499816999321528
 20
19.226913422589284
 11
22.145205454521207
 21
19.734203732792306
  0
LINE
  8
_0-1_EL-SL200SAIMEI
  6
CONTINUOUS
 62
    7
 10
24.558150332390237
 20
19.057586979489304
 11
23.499816999321528
 21
19.226913422589284
  0
LINE
  8
_0-1_EL-SL200SAIMEI
  6
CONTINUOUS
 62
    7
 10
25.066646426013119
 20
19.057586979489304
 11
24.558150332390237
 21
19.057586979489304
  0
LINE
  8
_0-1_EL-SL200SAIMEI
  6
CONTINUOUS
 62
    7
 10
25.152084794047319
 20
18.845196842823604
 11
24.390029672710039
 21
18.845196842823604
  0
LINE
  8
_0-1_EL-SL200SAIMEI
  6
CONTINUOUS
 62
    7
 10
25.914139915384627
 20
18.972148611455104
 11
25.152084794047319
 21
18.845196842823604
  0
LINE
  8
_0-1_EL-SL200SAIMEI
  6
CONTINUOUS
 62
    7
 10
27.268751460184838
 20
19.353865191220695
 11
25.914139915384627
 21
18.972148611455104
  0
LINE
  8
_0-1_EL-SL200SAIMEI
  6
CONTINUOUS
 62
    7
 10
28.072147727345119
 20
19.734203732792306
 11
27.268751460184838
 21
19.353865191220695
  0
LINE
  8
_0-1_EL-SL200SAIMEI
  6
CONTINUOUS
 62
    7
 10
28.66470415080801
 20
20.115920312557986
 11
28.072147727345119
 21
19.734203732792306
  0
LINE
  8
_0-1_EL-SL200SAIMEI
  6
CONTINUOUS
 62
    7
 10
30.231533577499707
 20
21.513251041375334
 11
28.66470415080801
 21
20.115920312557986
  0
LINE
  8
_0-1_EL-SL200SAIMEI
  6
CONTINUOUS
 62
    7
 10
31.205806580728318
 20
22.909203731998605
 11
30.231533577499707
 21
21.513251041375334
  0
LINE
  8
_0-1_EL-SL200SAIMEI
  6
CONTINUOUS
 62
    7
 10
31.798363004191319
 20
24.010256249084385
 11
31.205806580728318
 21
22.909203731998605
  0
LINE
  8
_0-1_EL-SL200SAIMEI
  6
CONTINUOUS
 62
    7
 10
32.390919427654325
 20
25.746584373650297
 11
31.798363004191319
 21
24.010256249084385
  0
LINE
  8
_0-1_EL-SL200SAIMEI
  6
CONTINUOUS
 62
    7
 10
32.687197639385843
 20
27.524253644039185
 11
32.390919427654325
 21
25.746584373650297
  0
LINE
  8
_0-1_EL-SL200SAIMEI
  6
CONTINUOUS
 62
    7
 10
32.728538785208826
 20
29.387361282462386
 11
32.687197639385843
 21
27.524253644039185
  0
LINE
  8
_0-1_EL-SL200SAIMEI
  6
CONTINUOUS
 62
    7
 10
32.560418125528642
 20
30.741972827262597
 11
32.728538785208826
 21
29.387361282462386
  0
LINE
  8
_0-1_EL-SL200SAIMEI
  6
CONTINUOUS
 62
    7
 10
32.221420729780029
 20
32.053865188045691
 11
32.560418125528642
 21
30.741972827262597
  0
LINE
  8
_0-1_EL-SL200SAIMEI
  6
CONTINUOUS
 62
    7
 10
31.925142518048528
 20
32.858639493400084
 11
32.221420729780029
 21
32.053865188045691
  0
LINE
  8
_0-1_EL-SL200SAIMEI
  6
CONTINUOUS
 62
    7
 10
31.12036821269411
 20
34.424263136671883
 11
31.925142518048528
 21
32.858639493400084
  0
LINE
  8
_0-1_EL-SL200SAIMEI
  6
CONTINUOUS
 62
    7
 10
30.104754063642538
 20
35.694642096857784
 11
31.12036821269411
 21
34.424263136671883
  0
LINE
  8
_0-1_EL-SL200SAIMEI
  6
CONTINUOUS
 62
    7
 10
29.215919428448029
 20
36.540929802809408
 11
30.104754063642538
 21
35.694642096857784
  0
LINE
  8
_0-1_EL-SL200SAIMEI
  6
CONTINUOUS
 62
    7
 10
28.241646425219418
 20
37.175860900740894
 11
29.215919428448029
 21
36.540929802809408
  0
LINE
  8
_0-1_EL-SL200SAIMEI
  6
CONTINUOUS
 62
    7
 10
27.183313092150637
 20
37.641982319895185
 11
28.241646425219418
 21
37.175860900740894
  0
LINE
  8
_0-1_EL-SL200SAIMEI
  6
CONTINUOUS
 62
    7
 10
26.124979759081928
 20
37.938260531626689
 11
27.183313092150637
 21
37.641982319895185
  0
LINE
  8
_0-1_EL-SL200SAIMEI
  6
CONTINUOUS
 62
    7
 10
32.178701545762934
 20
24.984529252312985
 11
32.432260573477329
 21
25.957596472121896
  0
LINE
  8
_0-1_EL-SL200SAIMEI
  6
CONTINUOUS
 62
    7
 10
31.925142518048528
 20
24.349253644832995
 11
32.178701545762934
 21
24.984529252312985
  0
LINE
  8
_0-1_EL-SL200SAIMEI
  6
CONTINUOUS
 62
    7
 10
31.373927240408509
 20
23.205481943730085
 11
31.925142518048528
 21
24.349253644832995
  0
LINE
  8
_0-1_EL-SL200SAIMEI
  6
CONTINUOUS
 62
    7
 10
30.993588698836938
 20
22.612925520267105
 11
31.373927240408509
 21
23.205481943730085
  0
LINE
  8
_0-1_EL-SL200SAIMEI
  6
CONTINUOUS
 62
    7
 10
26.97247324845333
 20
37.599263135878083
 11
26.210418127116139
 21
37.768589578978087
  0
LINE
  8
_0-1_EL-SL200SAIMEI
  6
CONTINUOUS
 62
    7
 10
28.537924636950809
 20
36.922646382575088
 11
26.97247324845333
 21
37.599263135878083
  0
LINE
  8
_0-1_EL-SL200SAIMEI
  6
CONTINUOUS
 62
    7
 10
30.104754063642538
 20
35.651922912840682
 11
28.537924636950809
 21
36.922646382575088
  0
LINE
  8
_0-1_EL-SL200SAIMEI
  6
CONTINUOUS
 62
    7
 10
31.07764902867704
 20
34.424263136671883
 11
30.104754063642538
 21
35.651922912840682
  0
LINE
  8
_0-1_EL-SL200SAIMEI
  6
CONTINUOUS
 62
    7
 10
31.798363004191319
 20
33.112198521114486
 11
31.07764902867704
 21
34.424263136671883
  0
LINE
  8
_0-1_EL-SL200SAIMEI
  6
CONTINUOUS
 62
    7
 10
32.34820024363723
 20
31.630979717231295
 11
31.798363004191319
 21
33.112198521114486
  0
LINE
  8
_0-1_EL-SL200SAIMEI
  6
CONTINUOUS
 62
    7
 10
32.432260573477329
 20
31.164858298076997
 11
32.34820024363723
 21
31.630979717231295
  0
LINE
  8
_0-1_EL-SL200SAIMEI
  6
CONTINUOUS
 62
    7
 10
24.474090002550138
 20
37.725870394961099
 11
25.914139915384627
 21
37.768589578978087
  0
LINE
  8
_0-1_EL-SL200SAIMEI
  6
CONTINUOUS
 62
    7
 10
23.035418127909828
 20
37.345531853389495
 11
24.474090002550138
 21
37.725870394961099
  0
LINE
  8
_0-1_EL-SL200SAIMEI
  6
CONTINUOUS
 62
    7
 10
21.511307885235318
 20
36.540929802809408
 11
23.035418127909828
 21
37.345531853389495
  0
LINE
  8
_0-1_EL-SL200SAIMEI
  6
CONTINUOUS
 62
    7
 10
20.494315697989528
 20
35.694642096857784
 11
21.511307885235318
 21
36.540929802809408
  0
LINE
  8
_0-1_EL-SL200SAIMEI
  6
CONTINUOUS
 62
    7
 10
19.435982364920832
 20
34.509529249931795
 11
20.494315697989528
 21
35.694642096857784
  0
LINE
  8
_0-1_EL-SL200SAIMEI
  6
CONTINUOUS
 62
    7
 10
18.802084795634819
 20
33.492537062686083
 11
19.435982364920832
 21
34.509529249931795
  0
LINE
  8
_0-1_EL-SL200SAIMEI
  6
CONTINUOUS
 62
    7
 10
18.208150333977741
 20
32.223191631145781
 11
18.802084795634819
 21
33.492537062686083
  0
LINE
  8
_0-1_EL-SL200SAIMEI
  6
CONTINUOUS
 62
    7
 10
17.954591306263417
 20
31.461308764582807
 11
18.208150333977741
 21
32.223191631145781
  0
LINE
  8
_0-1_EL-SL200SAIMEI
  6
CONTINUOUS
 62
    7
 10
17.615593910514811
 20
29.767527569259695
 11
17.954591306263417
 21
31.461308764582807
  0
LINE
  8
_0-1_EL-SL200SAIMEI
  6
CONTINUOUS
 62
    7
 10
22.484202850269817
 20
19.226913422589284
 11
23.54253618333863
 21
18.972148611455104
  0
LINE
  8
_0-1_EL-SL200SAIMEI
  6
CONTINUOUS
 62
    7
 10
21.764866912949717
 20
19.523191634320785
 11
22.484202850269817
 21
19.226913422589284
  0
LINE
  8
_0-1_EL-SL200SAIMEI
  6
CONTINUOUS
 62
    7
 10
20.749252763898038
 20
20.158639496575095
 11
21.764866912949717
 21
19.523191634320785
  0
LINE
  8
_0-1_EL-SL200SAIMEI
  6
CONTINUOUS
 62
    7
 10
20.113977156418038
 20
20.624244151406625
 11
20.749252763898038
 21
20.158639496575095
  0
LINE
  8
_0-1_EL-SL200SAIMEI
  6
CONTINUOUS
 62
    7
 10
19.605481062795128
 20
21.131534461609636
 11
20.113977156418038
 21
20.624244151406625
  0
LINE
  8
_0-1_EL-SL200SAIMEI
  6
CONTINUOUS
 62
    7
 10
18.547147729726305
 20
22.486146006409907
 11
19.605481062795128
 21
21.131534461609636
  0
LINE
  8
_0-1_EL-SL200SAIMEI
  6
CONTINUOUS
 62
    7
 10
17.785092608389121
 20
23.926195919244286
 11
18.547147729726305
 21
22.486146006409907
  0
LINE
  8
_0-1_EL-SL200SAIMEI
  6
CONTINUOUS
 62
    7
 10
17.192536184926126
 20
25.703865189633195
 11
17.785092608389121
 21
23.926195919244286
  0
LINE
  8
_0-1_EL-SL200SAIMEI
  6
CONTINUOUS
 62
    7
 10
16.938977157211731
 20
27.438815276005005
 11
17.192536184926126
 21
25.703865189633195
  0
LINE
  8
_0-1_EL-SL200SAIMEI
  6
CONTINUOUS
 62
    7
 10
16.938977157211731
 20
29.344642098445284
 11
16.938977157211731
 21
27.438815276005005
  0
LINE
  8
_0-1_EL-SL200SAIMEI
  6
CONTINUOUS
 62
    7
 10
17.149817000909025
 20
30.656534459228386
 11
16.938977157211731
 21
29.344642098445284
  0
LINE
  8
_0-1_EL-SL200SAIMEI
  6
CONTINUOUS
 62
    7
 10
17.658313094531906
 20
32.392862583794304
 11
17.149817000909025
 21
30.656534459228386
  0
LINE
  8
_0-1_EL-SL200SAIMEI
  6
CONTINUOUS
 62
    7
 10
18.040029674297543
 20
33.238978034971687
 11
17.658313094531906
 21
32.392862583794304
  0
LINE
  8
_0-1_EL-SL200SAIMEI
  6
CONTINUOUS
 62
    7
 10
18.716646427600622
 20
34.424263136671883
 11
18.040029674297543
 21
33.238978034971687
  0
LINE
  8
_0-1_EL-SL200SAIMEI
  6
CONTINUOUS
 62
    7
 10
19.690919430829325
 20
35.651922912840682
 11
18.716646427600622
 21
34.424263136671883
  0
LINE
  8
_0-1_EL-SL200SAIMEI
  6
CONTINUOUS
 62
    7
 10
21.002811791612437
 20
36.752975429926487
 11
19.690919430829325
 21
35.651922912840682
  0
LINE
  8
_0-1_EL-SL200SAIMEI
  6
CONTINUOUS
 62
    7
 10
22.27336300657252
 20
37.472311367246697
 11
21.002811791612437
 21
36.752975429926487
  0
LINE
  8
_0-1_EL-SL200SAIMEI
  6
CONTINUOUS
 62
    7
 10
23.754754065230038
 20
37.938260531626689
 11
22.27336300657252
 21
37.472311367246697
  0
LINE
  8
_0-1_EL-SL200SAIMEI
  6
CONTINUOUS
 62
    7
 10
25.27886430790452
 20
38.022148606692603
 11
23.754754065230038
 21
37.938260531626689
  0
LINE
  8
_0-1_EL-SL200SAIMEI
  6
CONTINUOUS
 62
    7
 10
22.907260575858519
 20
19.100306163506296
 11
23.669315697195838
 21
18.972148611455104
  0
LINE
  8
_0-1_EL-SL200SAIMEI
  6
CONTINUOUS
 62
    7
 10
22.230643822555418
 20
19.353865191220695
 11
22.907260575858519
 21
19.100306163506296
  0
LINE
  8
_0-1_EL-SL200SAIMEI
  6
CONTINUOUS
 62
    7
 10
20.87603227775524
 20
20.115920312557986
 11
22.230643822555418
 21
19.353865191220695
  0
LINE
  8
_0-1_EL-SL200SAIMEI
  6
CONTINUOUS
 62
    7
 10
19.690919430829325
 20
21.174253645626745
 11
20.87603227775524
 21
20.115920312557986
  0
LINE
  8
_0-1_EL-SL200SAIMEI
  6
CONTINUOUS
 62
    7
 10
18.673927243583506
 20
22.401913421795506
 11
19.690919430829325
 21
21.174253645626745
  0
LINE
  8
_0-1_EL-SL200SAIMEI
  6
CONTINUOUS
 62
    7
 10
17.911872122246322
 20
23.883648990001486
 11
18.673927243583506
 21
22.401913421795506
  0
LINE
  8
_0-1_EL-SL200SAIMEI
  6
CONTINUOUS
 62
    7
 10
17.319315698783342
 20
25.576913421001784
 11
17.911872122246322
 21
23.883648990001486
  0
LINE
  8
_0-1_EL-SL200SAIMEI
  6
CONTINUOUS
 62
    7
 10
17.065756671068925
 20
27.354927200939205
 11
17.319315698783342
 21
25.576913421001784
  0
LINE
  8
_0-1_EL-SL200SAIMEI
  6
CONTINUOUS
 62
    7
 10
17.02303748705183
 20
28.794977113773705
 11
17.065756671068925
 21
27.354927200939205
  0
LINE
  8
_0-1_EL-SL200SAIMEI
  6
CONTINUOUS
 62
    7
 10
17.362034882800437
 20
31.038251038994094
 11
17.02303748705183
 21
28.794977113773705
  0
LINE
  8
_0-1_EL-SL200SAIMEI
  6
CONTINUOUS
 62
    7
 10
17.911872122246322
 20
32.689313050300107
 11
17.362034882800437
 21
31.038251038994094
  0
LINE
  8
_0-1_EL-SL200SAIMEI
  6
CONTINUOUS
 62
    7
 10
18.716646427600622
 20
34.254592184023288
 11
17.911872122246322
 21
32.689313050300107
  0
LINE
  8
_0-1_EL-SL200SAIMEI
  6
CONTINUOUS
 62
    7
 10
19.73226057665233
 20
35.567862583000583
 11
18.716646427600622
 21
34.254592184023288
  0
LINE
  8
_0-1_EL-SL200SAIMEI
  6
CONTINUOUS
 62
    7
 10
20.324817000115232
 20
36.160246751689293
 11
19.73226057665233
 21
35.567862583000583
  0
LINE
  8
_0-1_EL-SL200SAIMEI
  6
CONTINUOUS
 62
    7
 10
21.002811791612437
 20
36.667537061892283
 11
20.324817000115232
 21
36.160246751689293
  0
LINE
  8
_0-1_EL-SL200SAIMEI
  6
CONTINUOUS
 62
    7
 10
22.400142520429828
 20
37.472311367246697
 11
21.002811791612437
 21
36.667537061892283
  0
LINE
  8
_0-1_EL-SL200SAIMEI
  6
CONTINUOUS
 62
    7
 10
23.754754065230038
 20
37.895196838061104
 11
22.400142520429828
 21
37.472311367246697
  0
LINE
  8
_0-1_EL-SL200SAIMEI
  6
CONTINUOUS
 62
    7
 10
25.27886430790452
 20
38.022148606692603
 11
23.754754065230038
 21
37.895196838061104
  0
LINE
  8
_0-1_EL-SL200SAIMEI
  6
CONTINUOUS
 62
    7
 10
17.785092608389121
 20
31.757586976314304
 11
17.362034882800437
 21
29.810246753276797
  0
LINE
  8
_0-1_EL-SL200SAIMEI
  6
CONTINUOUS
 62
    7
 10
18.336307886029005
 20
33.112198521114486
 11
17.785092608389121
 21
31.757586976314304
  0
LINE
  8
_0-1_EL-SL200SAIMEI
  6
CONTINUOUS
 62
    7
 10
19.351922035080733
 20
34.763260532420496
 11
18.336307886029005
 21
33.112198521114486
  0
LINE
  8
_0-1_EL-SL200SAIMEI
  6
CONTINUOUS
 62
    7
 10
20.706533579880929
 20
36.160246751689293
 11
19.351922035080733
 21
34.763260532420496
  0
LINE
  8
_0-1_EL-SL200SAIMEI
  6
CONTINUOUS
 62
    7
 10
21.977084794841129
 20
37.006534457640889
 11
20.706533579880929
 21
36.160246751689293
  0
LINE
  8
_0-1_EL-SL200SAIMEI
  6
CONTINUOUS
 62
    7
 10
22.907260575858519
 20
37.429592183229595
 11
21.977084794841129
 21
37.006534457640889
  0
LINE
  8
_0-1_EL-SL200SAIMEI
  6
CONTINUOUS
 62
    7
 10
24.600869516407339
 20
37.811308762995303
 11
22.907260575858519
 21
37.429592183229595
  0
LINE
  8
_0-1_EL-SL200SAIMEI
  6
CONTINUOUS
 62
    7
 10
25.828701547350427
 20
37.768589578978087
 11
24.600869516407339
 21
37.811308762995303
  0
LINE
  8
_0-1_EL-SL200SAIMEI
  6
CONTINUOUS
 62
    7
 10
18.081370820120526
 20
31.841475051380105
 11
17.615593910514811
 21
29.767527569259695
  0
LINE
  8
_0-1_EL-SL200SAIMEI
  6
CONTINUOUS
 62
    7
 10
18.632586097760516
 20
33.112198521114486
 11
18.081370820120526
 21
31.841475051380105
  0
LINE
  8
_0-1_EL-SL200SAIMEI
  6
CONTINUOUS
 62
    7
 10
19.225142521223532
 20
34.170531854183189
 11
18.632586097760516
 21
33.112198521114486
  0
LINE
  8
_0-1_EL-SL200SAIMEI
  6
CONTINUOUS
 62
    7
 10
20.198037486258137
 20
35.398191630352002
 11
19.225142521223532
 21
34.170531854183189
  0
LINE
  8
_0-1_EL-SL200SAIMEI
  6
CONTINUOUS
 62
    7
 10
20.749252763898038
 20
35.948201124572108
 11
20.198037486258137
 21
35.398191630352002
  0
LINE
  8
_0-1_EL-SL200SAIMEI
  6
CONTINUOUS
 62
    7
 10
21.764866912949717
 20
36.710256245909385
 11
20.749252763898038
 21
35.948201124572108
  0
LINE
  8
_0-1_EL-SL200SAIMEI
  6
CONTINUOUS
 62
    7
 10
22.65370154814412
 20
37.175860900740894
 11
21.764866912949717
 21
36.710256245909385
  0
LINE
  8
_0-1_EL-SL200SAIMEI
  6
CONTINUOUS
 62
    7
 10
23.54253618333863
 20
37.514858296489493
 11
22.65370154814412
 21
37.175860900740894
  0
LINE
  8
_0-1_EL-SL200SAIMEI
  6
CONTINUOUS
 62
    7
 10
24.474090002550138
 20
37.725870394961099
 11
23.54253618333863
 21
37.514858296489493
  0
LINE
  8
_0-1_EL-SL200SAIMEI
  6
CONTINUOUS
 62
    7
 10
25.701922033493229
 20
37.768589578978087
 11
24.474090002550138
 21
37.725870394961099
  0
LINE
  8
_0-1_EL-SL200SAIMEI
  6
CONTINUOUS
 62
    7
 10
17.911872122246322
 20
30.529927200145487
 11
17.785092608389121
 21
29.767527569259695
  0
LINE
  8
_0-1_EL-SL200SAIMEI
  6
CONTINUOUS
 62
    7
 10
18.293588702011938
 20
31.884194235397185
 11
17.911872122246322
 21
30.529927200145487
  0
LINE
  8
_0-1_EL-SL200SAIMEI
  6
CONTINUOUS
 62
    7
 10
18.970205455315018
 20
33.451195916863092
 11
18.293588702011938
 21
31.884194235397185
  0
LINE
  8
_0-1_EL-SL200SAIMEI
  6
CONTINUOUS
 62
    7
 10
20.071257972400943
 20
35.059194234603403
 11
18.970205455315018
 21
33.451195916863092
  0
LINE
  8
_0-1_EL-SL200SAIMEI
  6
CONTINUOUS
 62
    7
 10
21.045530975629507
 20
36.033639492606305
 11
20.071257972400943
 21
35.059194234603403
  0
LINE
  8
_0-1_EL-SL200SAIMEI
  6
CONTINUOUS
 62
    7
 10
22.27336300657252
 20
36.879927198557986
 11
21.045530975629507
 21
36.033639492606305
  0
LINE
  8
_0-1_EL-SL200SAIMEI
  6
CONTINUOUS
 62
    7
 10
23.881533579087208
 20
37.557577480506609
 11
22.27336300657252
 21
36.879927198557986
  0
LINE
  8
_0-1_EL-SL200SAIMEI
  6
CONTINUOUS
 62
    7
 10
25.320205453727517
 20
37.768589578978087
 11
23.881533579087208
 21
37.557577480506609
  0
LINE
  8
_0-1_EL-SL200SAIMEI
  6
CONTINUOUS
 62
    7
 10
26.040919429241828
 20
37.725870394961099
 11
25.320205453727517
 21
37.768589578978087
  0
LINE
  8
_0-1_EL-SL200SAIMEI
  6
CONTINUOUS
 62
    7
 10
34.295368211900417
 20
36.795694613943589
 11
34.252649027883322
 21
36.795694613943589
  0
LINE
  8
_0-1_EL-SL200SAIMEI
  6
CONTINUOUS
 62
    7
 10
34.252649027883322
 20
36.795694613943589
 11
34.930643819380421
 21
36.540929802809408
  0
LINE
  8
_0-1_EL-SL200SAIMEI
  6
CONTINUOUS
 62
    7
 10
41.576922029524418
 20
19.734203732792306
 11
40.984365606061516
 21
19.607596473709396
  0
LINE
  8
_0-1_EL-SL200SAIMEI
  6
CONTINUOUS
 62
    7
 10
42.847473244484611
 20
20.199808387623797
 11
41.576922029524418
 21
19.734203732792306
  0
LINE
  8
_0-1_EL-SL200SAIMEI
  6
CONTINUOUS
 62
    7
 10
43.736307879679011
 20
20.751195920038136
 11
42.847473244484611
 21
20.199808387623797
  0
LINE
  8
_0-1_EL-SL200SAIMEI
  6
CONTINUOUS
 62
    7
 10
44.794641212747827
 20
21.724263139846915
 11
43.736307879679011
 21
20.751195920038136
  0
LINE
  8
_0-1_EL-SL200SAIMEI
  6
CONTINUOUS
 62
    7
 10
45.513977150068037
 20
22.612925520267105
 11
44.794641212747827
 21
21.724263139846915
  0
LINE
  8
_0-1_EL-SL200SAIMEI
  6
CONTINUOUS
 62
    7
 10
46.233313087388126
 20
23.926195919244286
 11
45.513977150068037
 21
22.612925520267105
  0
LINE
  8
_0-1_EL-SL200SAIMEI
  6
CONTINUOUS
 62
    7
 10
46.699089996993912
 20
25.195196841236104
 11
46.233313087388126
 21
23.926195919244286
  0
LINE
  8
_0-1_EL-SL200SAIMEI
  6
CONTINUOUS
 62
    7
 10
46.952649024708322
 20
26.253530174304807
 11
46.699089996993912
 21
25.195196841236104
  0
LINE
  8
_0-1_EL-SL200SAIMEI
  6
CONTINUOUS
 62
    7
 10
47.08080657675962
 20
27.524253644039185
 11
46.952649024708322
 21
26.253530174304807
  0
LINE
  8
_0-1_EL-SL200SAIMEI
  6
CONTINUOUS
 62
    7
 10
47.038087392742518
 20
28.751913420208005
 11
47.08080657675962
 21
27.524253644039185
  0
LINE
  8
_0-1_EL-SL200SAIMEI
  6
CONTINUOUS
 62
    7
 10
46.868588694868215
 20
29.937198521908204
 11
47.038087392742518
 21
28.751913420208005
  0
LINE
  8
_0-1_EL-SL200SAIMEI
  6
CONTINUOUS
 62
    7
 10
46.402811785262436
 20
31.461308764582807
 11
46.868588694868215
 21
29.937198521908204
  0
LINE
  8
_0-1_EL-SL200SAIMEI
  6
CONTINUOUS
 62
    7
 10
45.894315691639527
 20
32.519642097651506
 11
46.402811785262436
 21
31.461308764582807
  0
LINE
  8
_0-1_EL-SL200SAIMEI
  6
CONTINUOUS
 62
    7
 10
45.260418122353641
 20
33.451195916863092
 11
45.894315691639527
 21
32.519642097651506
  0
LINE
  8
_0-1_EL-SL200SAIMEI
  6
CONTINUOUS
 62
    7
 10
44.328864303142019
 20
34.424263136671883
 11
45.260418122353641
 21
33.451195916863092
  0
LINE
  8
_0-1_EL-SL200SAIMEI
  6
CONTINUOUS
 62
    7
 10
43.736307879679011
 20
34.889867791503399
 11
44.328864303142019
 21
34.424263136671883
  0
LINE
  8
_0-1_EL-SL200SAIMEI
  6
CONTINUOUS
 62
    7
 10
43.397310483930426
 20
35.016475050586308
 11
43.736307879679011
 21
34.889867791503399
  0
LINE
  8
_0-1_EL-SL200SAIMEI
  6
CONTINUOUS
 62
    7
 10
27.691809185773518
 20
37.811308762995303
 11
26.210418127116139
 21
38.234194233809689
  0
LINE
  8
_0-1_EL-SL200SAIMEI
  6
CONTINUOUS
 62
    7
 10
28.66470415080801
 20
37.302812669372393
 11
27.691809185773518
 21
37.811308762995303
  0
LINE
  8
_0-1_EL-SL200SAIMEI
  6
CONTINUOUS
 62
    7
 10
29.34269894230523
 20
36.836863504992287
 11
28.66470415080801
 21
37.302812669372393
  0
LINE
  8
_0-1_EL-SL200SAIMEI
  6
CONTINUOUS
 62
    7
 10
30.231533577499707
 20
36.033639492606305
 11
29.34269894230523
 21
36.836863504992287
  0
LINE
  8
_0-1_EL-SL200SAIMEI
  6
CONTINUOUS
 62
    7
 10
31.28986691056841
 20
34.720196838854797
 11
30.231533577499707
 21
36.033639492606305
  0
LINE
  8
_0-1_EL-SL200SAIMEI
  6
CONTINUOUS
 62
    7
 10
32.094641215922827
 20
33.238978034971687
 11
31.28986691056841
 21
34.720196838854797
  0
LINE
  8
_0-1_EL-SL200SAIMEI
  6
CONTINUOUS
 62
    7
 10
32.560418125528642
 20
32.053865188045691
 11
32.094641215922827
 21
33.238978034971687
  0
LINE
  8
_0-1_EL-SL200SAIMEI
  6
CONTINUOUS
 62
    7
 10
32.940756667100132
 20
30.276195917656786
 11
32.560418125528642
 21
32.053865188045691
  0
LINE
  8
_0-1_EL-SL200SAIMEI
  6
CONTINUOUS
 62
    7
 10
33.067536180957333
 20
28.455979718025095
 11
32.940756667100132
 21
30.276195917656786
  0
LINE
  8
_0-1_EL-SL200SAIMEI
  6
CONTINUOUS
 62
    7
 10
32.813977153243037
 20
26.126922915221904
 11
33.067536180957333
 21
28.455979718025095
  0
LINE
  8
_0-1_EL-SL200SAIMEI
  6
CONTINUOUS
 62
    7
 10
32.305481059620128
 20
24.433141719898796
 11
32.813977153243037
 21
26.126922915221904
  0
LINE
  8
_0-1_EL-SL200SAIMEI
  6
CONTINUOUS
 62
    7
 10
31.543425938282819
 20
22.825315656932695
 11
32.305481059620128
 21
24.433141719898796
  0
LINE
  8
_0-1_EL-SL200SAIMEI
  6
CONTINUOUS
 62
    7
 10
30.611872119071318
 20
21.470531857358235
 11
31.543425938282819
 21
22.825315656932695
  0
LINE
  8
_0-1_EL-SL200SAIMEI
  6
CONTINUOUS
 62
    7
 10
29.385418126322328
 20
20.285246755658005
 11
30.611872119071318
 21
21.470531857358235
  0
LINE
  8
_0-1_EL-SL200SAIMEI
  6
CONTINUOUS
 62
    7
 10
28.791483664665218
 20
19.819642100826506
 11
29.385418126322328
 21
20.285246755658005
  0
LINE
  8
_0-1_EL-SL200SAIMEI
  6
CONTINUOUS
 62
    7
 10
28.072147727345119
 20
19.396584375237804
 11
28.791483664665218
 21
19.819642100826506
  0
LINE
  8
_0-1_EL-SL200SAIMEI
  6
CONTINUOUS
 62
    7
 10
26.590756668687629
 20
18.804027951774906
 11
28.072147727345119
 21
19.396584375237804
  0
LINE
  8
_0-1_EL-SL200SAIMEI
  6
CONTINUOUS
 62
    7
 10
25.19342593987032
 20
18.549263140640587
 11
26.590756668687629
 21
18.804027951774906
  0
LINE
  8
_0-1_EL-SL200SAIMEI
  6
CONTINUOUS
 62
    7
 10
43.820368209519138
 20
34.805979716437598
 11
43.777649025502036
 21
34.805979716437598
  0
LINE
  8
_0-1_EL-SL200SAIMEI
  6
CONTINUOUS
 62
    7
 10
46.995368208725417
 20
26.592527570053385
 11
46.952649024708322
 21
26.592527570053385
  0
LINE
  8
_0-1_EL-SL200SAIMEI
  6
CONTINUOUS
 62
    7
 10
29.17320024443092
 20
20.538978038146716
 11
30.358313091356909
 21
21.724263139846915
  0
LINE
  8
_0-1_EL-SL200SAIMEI
  6
CONTINUOUS
 62
    7
 10
27.81858869963072
 20
19.650315657726505
 11
29.17320024443092
 21
20.538978038146716
  0
LINE
  8
_0-1_EL-SL200SAIMEI
  6
CONTINUOUS
 62
    7
 10
27.226032276167739
 20
19.396584375237804
 11
27.81858869963072
 21
19.650315657726505
  0
LINE
  8
_0-1_EL-SL200SAIMEI
  6
CONTINUOUS
 62
    7
 10
26.040919429241828
 20
19.057586979489304
 11
27.226032276167739
 21
19.396584375237804
  0
LINE
  8
_0-1_EL-SL200SAIMEI
  6
CONTINUOUS
 62
    7
 10
25.405643821761718
 20
18.972148611455104
 11
26.040919429241828
 21
19.057586979489304
  0
LINE
  8
_0-1_EL-SL200SAIMEI
  6
CONTINUOUS
 62
    7
 10
24.177811790818719
 20
18.972148611455104
 11
25.405643821761718
 21
18.972148611455104
  0
LINE
  8
_0-1_EL-SL200SAIMEI
  6
CONTINUOUS
 62
    7
 10
23.585255367355739
 20
19.057586979489304
 11
24.177811790818719
 21
18.972148611455104
  0
LINE
  8
_0-1_EL-SL200SAIMEI
  6
CONTINUOUS
 62
    7
 10
22.400142520429828
 20
19.396584375237804
 11
23.585255367355739
 21
19.057586979489304
  0
LINE
  8
_0-1_EL-SL200SAIMEI
  6
CONTINUOUS
 62
    7
 10
21.002811791612437
 20
20.115920312557986
 11
22.400142520429828
 21
19.396584375237804
  0
LINE
  8
_0-1_EL-SL200SAIMEI
  6
CONTINUOUS
 62
    7
 10
19.774979760669424
 20
21.216972829643847
 11
21.002811791612437
 21
20.115920312557986
  0
LINE
  8
_0-1_EL-SL200SAIMEI
  6
CONTINUOUS
 62
    7
 10
18.92886430949202
 20
22.232586978695505
 11
19.774979760669424
 21
21.216972829643847
  0
LINE
  8
_0-1_EL-SL200SAIMEI
  6
CONTINUOUS
 62
    7
 10
17.911872122246322
 20
24.052975433101487
 11
18.92886430949202
 21
22.232586978695505
  0
LINE
  8
_0-1_EL-SL200SAIMEI
  6
CONTINUOUS
 62
    7
 10
17.447473250834605
 20
25.450306161918796
 11
17.911872122246322
 21
24.052975433101487
  0
LINE
  8
_0-1_EL-SL200SAIMEI
  6
CONTINUOUS
 62
    7
 10
17.149817000909025
 20
27.270694616324786
 11
17.447473250834605
 21
25.450306161918796
  0
LINE
  8
_0-1_EL-SL200SAIMEI
  6
CONTINUOUS
 62
    7
 10
17.108475855086041
 20
28.329027949393595
 11
17.149817000909025
 21
27.270694616324786
  0
LINE
  8
_0-1_EL-SL200SAIMEI
  6
CONTINUOUS
 62
    7
 10
17.192536184926126
 20
29.810246753276797
 11
17.108475855086041
 21
28.329027949393595
  0
LINE
  8
_0-1_EL-SL200SAIMEI
  6
CONTINUOUS
 62
    7
 10
17.531533580674704
 20
31.375870396548596
 11
17.192536184926126
 21
29.810246753276797
  0
LINE
  8
_0-1_EL-SL200SAIMEI
  6
CONTINUOUS
 62
    7
 10
17.954591306263417
 20
32.603530172717306
 11
17.531533580674704
 21
31.375870396548596
  0
LINE
  8
_0-1_EL-SL200SAIMEI
  6
CONTINUOUS
 62
    7
 10
18.505806583903322
 20
33.704927199351708
 11
17.954591306263417
 21
32.603530172717306
  0
LINE
  8
_0-1_EL-SL200SAIMEI
  6
CONTINUOUS
 62
    7
 10
19.351922035080733
 20
34.975306159537602
 11
18.505806583903322
 21
33.704927199351708
  0
LINE
  8
_0-1_EL-SL200SAIMEI
  6
CONTINUOUS
 62
    7
 10
19.944478458543742
 20
35.651922912840682
 11
19.351922035080733
 21
34.975306159537602
  0
LINE
  8
_0-1_EL-SL200SAIMEI
  6
CONTINUOUS
 62
    7
 10
20.833313093738138
 20
36.413978034177909
 11
19.944478458543742
 21
35.651922912840682
  0
LINE
  8
_0-1_EL-SL200SAIMEI
  6
CONTINUOUS
 62
    7
 10
21.552649031058319
 20
36.922646382575088
 11
20.833313093738138
 21
36.413978034177909
  0
LINE
  8
_0-1_EL-SL200SAIMEI
  6
CONTINUOUS
 62
    7
 10
22.526922034286919
 20
37.429592183229595
 11
21.552649031058319
 21
36.922646382575088
  0
LINE
  8
_0-1_EL-SL200SAIMEI
  6
CONTINUOUS
 62
    7
 10
23.288977155624227
 20
37.684529249138109
 11
22.526922034286919
 21
37.429592183229595
  0
LINE
  8
_0-1_EL-SL200SAIMEI
  6
CONTINUOUS
 62
    7
 10
24.897147728138808
 20
37.938260531626689
 11
23.288977155624227
 21
37.684529249138109
  0
LINE
  8
_0-1_EL-SL200SAIMEI
  6
CONTINUOUS
 62
    7
 10
25.701922033493229
 20
37.895196838061104
 11
24.897147728138808
 21
37.938260531626689
  0
LINE
  8
_0-1_EL-SL200SAIMEI
  6
CONTINUOUS
 62
    7
 10
26.760255366561928
 20
37.684529249138109
 11
25.701922033493229
 21
37.895196838061104
  0
LINE
  8
_0-1_EL-SL200SAIMEI
  6
CONTINUOUS
 62
    7
 10
22.865919430035529
 20
19.353865191220695
 11
24.13509260680161
 21
19.100306163506296
  0
LINE
  8
_0-1_EL-SL200SAIMEI
  6
CONTINUOUS
 62
    7
 10
21.172310489486708
 20
20.199808387623797
 11
22.865919430035529
 21
19.353865191220695
  0
LINE
  8
_0-1_EL-SL200SAIMEI
  6
CONTINUOUS
 62
    7
 10
19.860418128703643
 20
21.258141720692656
 11
21.172310489486708
 21
20.199808387623797
  0
LINE
  8
_0-1_EL-SL200SAIMEI
  6
CONTINUOUS
 62
    7
 10
18.802084795634819
 20
22.655644704284207
 11
19.860418128703643
 21
21.258141720692656
  0
LINE
  8
_0-1_EL-SL200SAIMEI
  6
CONTINUOUS
 62
    7
 10
17.997310490280441
 20
24.263815276798784
 11
18.802084795634819
 21
22.655644704284207
  0
LINE
  8
_0-1_EL-SL200SAIMEI
  6
CONTINUOUS
 62
    7
 10
17.40475406681751
 20
26.339313051887604
 11
17.997310490280441
 21
24.263815276798784
  0
LINE
  8
_0-1_EL-SL200SAIMEI
  6
CONTINUOUS
 62
    7
 10
17.277974552960337
 20
27.354927200939205
 11
17.40475406681751
 21
26.339313051887604
  0
LINE
  8
_0-1_EL-SL200SAIMEI
  6
CONTINUOUS
 62
    7
 10
17.277974552960337
 20
29.132596471328096
 11
17.277974552960337
 21
27.354927200939205
  0
LINE
  8
_0-1_EL-SL200SAIMEI
  6
CONTINUOUS
 62
    7
 10
17.362034882800437
 20
29.810246753276797
 11
17.277974552960337
 21
29.132596471328096
  0
LINE
  8
_0-1_EL-SL200SAIMEI
  6
CONTINUOUS
 62
    7
 10
24.34731048869293
 20
19.100306163506296
 11
25.152084794047319
 21
19.057586979489304
  0
LINE
  8
_0-1_EL-SL200SAIMEI
  6
CONTINUOUS
 62
    7
 10
23.585255367355739
 20
19.269977116154895
 11
24.34731048869293
 21
19.100306163506296
  0
LINE
  8
_0-1_EL-SL200SAIMEI
  6
CONTINUOUS
 62
    7
 10
23.035418127909828
 20
19.437925521060794
 11
23.585255367355739
 21
19.269977116154895
  0
LINE
  8
_0-1_EL-SL200SAIMEI
  6
CONTINUOUS
 62
    7
 10
22.01842594066412
 20
19.903530175892307
 11
23.035418127909828
 21
19.437925521060794
  0
LINE
  8
_0-1_EL-SL200SAIMEI
  6
CONTINUOUS
 62
    7
 10
20.833313093738138
 20
20.751195920038136
 11
22.01842594066412
 21
19.903530175892307
  0
LINE
  8
_0-1_EL-SL200SAIMEI
  6
CONTINUOUS
 62
    7
 10
19.605481062795128
 20
22.063260535595496
 11
20.833313093738138
 21
20.751195920038136
  0
LINE
  8
_0-1_EL-SL200SAIMEI
  6
CONTINUOUS
 62
    7
 10
18.673927243583506
 20
23.671258853335807
 11
19.605481062795128
 21
22.063260535595496
  0
LINE
  8
_0-1_EL-SL200SAIMEI
  6
CONTINUOUS
 62
    7
 10
18.081370820120526
 20
25.195196841236104
 11
18.673927243583506
 21
23.671258853335807
  0
LINE
  8
_0-1_EL-SL200SAIMEI
  6
CONTINUOUS
 62
    7
 10
17.870530976423318
 20
26.126922915221904
 11
18.081370820120526
 21
25.195196841236104
  0
LINE
  8
_0-1_EL-SL200SAIMEI
  6
CONTINUOUS
 62
    7
 10
17.701032278549022
 20
27.481534460022086
 11
17.870530976423318
 21
26.126922915221904
  0
LINE
  8
_0-1_EL-SL200SAIMEI
  6
CONTINUOUS
 62
    7
 10
17.701032278549022
 20
29.090910815956587
 11
17.701032278549022
 21
27.481534460022086
  0
LINE
  8
_0-1_EL-SL200SAIMEI
  6
CONTINUOUS
 62
    7
 10
17.785092608389121
 20
29.767527569259695
 11
17.701032278549022
 21
29.090910815956587
  0
LINE
  8
_0-1_EL-SL200SAIMEI
  6
CONTINUOUS
 62
    7
 10
26.463977154830538
 20
38.064867790709705
 11
26.16769894309903
 21
38.107586974726807
  0
LINE
  8
_0-1_EL-SL200SAIMEI
  6
CONTINUOUS
 62
    7
 10
27.988087397505019
 20
37.514858296489493
 11
26.463977154830538
 21
38.064867790709705
  0
LINE
  8
_0-1_EL-SL200SAIMEI
  6
CONTINUOUS
 62
    7
 10
29.00370154655662
 20
36.922646382575088
 11
27.988087397505019
 21
37.514858296489493
  0
LINE
  8
_0-1_EL-SL200SAIMEI
  6
CONTINUOUS
 62
    7
 10
30.358313091356909
 20
35.694642096857784
 11
29.00370154655662
 21
36.922646382575088
  0
LINE
  8
_0-1_EL-SL200SAIMEI
  6
CONTINUOUS
 62
    7
 10
30.86680918497974
 20
35.101913418620505
 11
30.358313091356909
 21
35.694642096857784
  0
LINE
  8
_0-1_EL-SL200SAIMEI
  6
CONTINUOUS
 62
    7
 10
31.373927240408509
 20
34.339858297283307
 11
30.86680918497974
 21
35.101913418620505
  0
LINE
  8
_0-1_EL-SL200SAIMEI
  6
CONTINUOUS
 62
    7
 10
32.178701545762934
 20
32.646593866283006
 11
31.373927240408509
 21
34.339858297283307
  0
LINE
  8
_0-1_EL-SL200SAIMEI
  6
CONTINUOUS
 62
    7
 10
32.687197639385843
 20
30.952812670959897
 11
32.178701545762934
 21
32.646593866283006
  0
LINE
  8
_0-1_EL-SL200SAIMEI
  6
CONTINUOUS
 62
    7
 10
32.898037483083144
 20
29.005644702696706
 11
32.687197639385843
 21
30.952812670959897
  0
LINE
  8
_0-1_EL-SL200SAIMEI
  6
CONTINUOUS
 62
    7
 10
32.813977153243037
 20
27.015929805190606
 11
32.898037483083144
 21
29.005644702696706
  0
LINE
  8
_0-1_EL-SL200SAIMEI
  6
CONTINUOUS
 62
    7
 10
32.517698941511526
 20
25.576913421001784
 11
32.813977153243037
 21
27.015929805190606
  0
LINE
  8
_0-1_EL-SL200SAIMEI
  6
CONTINUOUS
 62
    7
 10
31.882423334031419
 20
23.799244150612786
 11
32.517698941511526
 21
25.576913421001784
  0
LINE
  8
_0-1_EL-SL200SAIMEI
  6
CONTINUOUS
 62
    7
 10
31.205806580728318
 20
22.528865190427005
 11
31.882423334031419
 21
23.799244150612786
  0
LINE
  8
_0-1_EL-SL200SAIMEI
  6
CONTINUOUS
 62
    7
 10
29.849816997734028
 20
20.835256249878235
 11
31.205806580728318
 21
22.528865190427005
  0
LINE
  8
_0-1_EL-SL200SAIMEI
  6
CONTINUOUS
 62
    7
 10
28.19892724120232
 20
19.607596473709396
 11
29.849816997734028
 21
20.835256249878235
  0
LINE
  8
_0-1_EL-SL200SAIMEI
  6
CONTINUOUS
 62
    7
 10
27.013814394276327
 20
19.057586979489304
 11
28.19892724120232
 21
19.607596473709396
  0
LINE
  8
_0-1_EL-SL200SAIMEI
  6
CONTINUOUS
 62
    7
 10
25.785982363333328
 20
18.718589583740584
 11
27.013814394276327
 21
19.057586979489304
  0
LINE
  8
_0-1_EL-SL200SAIMEI
  6
CONTINUOUS
 62
    7
 10
23.627974551372837
 20
18.718589583740584
 11
25.785982363333328
 21
18.718589583740584
  0
LINE
  8
_0-1_EL-SL200SAIMEI
  6
CONTINUOUS
 62
    7
 10
22.739139916178328
 20
18.930979720406295
 11
23.627974551372837
 21
18.718589583740584
  0
LINE
  8
_0-1_EL-SL200SAIMEI
  6
CONTINUOUS
 62
    7
 10
21.680806583109618
 20
19.353865191220695
 11
22.739139916178328
 21
18.930979720406295
  0
LINE
  8
_0-1_EL-SL200SAIMEI
  6
CONTINUOUS
 62
    7
 10
20.579754066023728
 20
20.030481944523807
 11
21.680806583109618
 21
19.353865191220695
  0
LINE
  8
_0-1_EL-SL200SAIMEI
  6
CONTINUOUS
 62
    7
 10
19.351922035080733
 20
21.088815277592566
 11
20.579754066023728
 21
20.030481944523807
  0
LINE
  8
_0-1_EL-SL200SAIMEI
  6
CONTINUOUS
 62
    7
 10
18.293588702011938
 20
22.528865190427005
 11
19.351922035080733
 21
21.088815277592566
  0
LINE
  8
_0-1_EL-SL200SAIMEI
  6
CONTINUOUS
 62
    7
 10
17.447473250834605
 20
24.263815276798784
 11
18.293588702011938
 21
22.528865190427005
  0
LINE
  8
_0-1_EL-SL200SAIMEI
  6
CONTINUOUS
 62
    7
 10
16.938977157211731
 20
26.042862585381805
 11
17.447473250834605
 21
24.263815276798784
  0
LINE
  8
_0-1_EL-SL200SAIMEI
  6
CONTINUOUS
 62
    7
 10
16.769478459337428
 20
27.438815276005005
 11
16.938977157211731
 21
26.042862585381805
  0
LINE
  8
_0-1_EL-SL200SAIMEI
  6
CONTINUOUS
 62
    7
 10
16.769478459337428
 20
28.962925518679604
 11
16.769478459337428
 21
27.438815276005005
  0
LINE
  8
_0-1_EL-SL200SAIMEI
  6
CONTINUOUS
 62
    7
 10
16.853538789177527
 20
29.853310446842407
 11
16.769478459337428
 21
28.962925518679604
  0
LINE
  8
_0-1_EL-SL200SAIMEI
  6
CONTINUOUS
 62
    7
 10
17.02303748705183
 20
30.868580086345496
 11
16.853538789177527
 21
29.853310446842407
  0
LINE
  8
_0-1_EL-SL200SAIMEI
  6
CONTINUOUS
 62
    7
 10
17.277974552960337
 20
31.800306160331296
 11
17.02303748705183
 21
30.868580086345496
  0
LINE
  8
_0-1_EL-SL200SAIMEI
  6
CONTINUOUS
 62
    7
 10
17.954591306263417
 20
33.451195916863092
 11
17.277974552960337
 21
31.800306160331296
  0
LINE
  8
_0-1_EL-SL200SAIMEI
  6
CONTINUOUS
 62
    7
 10
18.673927243583506
 20
34.678855693031792
 11
17.954591306263417
 21
33.451195916863092
  0
LINE
  8
_0-1_EL-SL200SAIMEI
  6
CONTINUOUS
 62
    7
 10
19.817698944686526
 20
36.033639492606305
 11
18.673927243583506
 21
34.678855693031792
  0
LINE
  8
_0-1_EL-SL200SAIMEI
  6
CONTINUOUS
 62
    7
 10
20.790593909721029
 20
36.836863504992287
 11
19.817698944686526
 21
36.033639492606305
  0
LINE
  8
_0-1_EL-SL200SAIMEI
  6
CONTINUOUS
 62
    7
 10
21.511307885235318
 20
37.302812669372393
 11
20.790593909721029
 21
36.836863504992287
  0
LINE
  8
_0-1_EL-SL200SAIMEI
  6
CONTINUOUS
 62
    7
 10
22.99269894389273
 20
37.938260531626689
 11
21.511307885235318
 21
37.302812669372393
  0
LINE
  8
_0-1_EL-SL200SAIMEI
  6
CONTINUOUS
 62
    7
 10
23.415756669481429
 20
38.064867790709705
 11
22.99269894389273
 21
37.938260531626689
  0
LINE
  8
_0-1_EL-SL200SAIMEI
  6
CONTINUOUS
 62
    7
 10
24.686307884441508
 20
38.234194233809689
 11
23.415756669481429
 21
38.064867790709705
  0
LINE
  8
_0-1_EL-SL200SAIMEI
  6
CONTINUOUS
 62
    7
 10
26.16769894309903
 20
38.107586974726807
 11
24.686307884441508
 21
38.234194233809689
  0
LINE
  8
_0-1_EL-SL200SAIMEI
  6
CONTINUOUS
 62
    7
 10
27.479591303882138
 20
37.472311367246697
 11
26.760255366561928
 21
37.684529249138109
  0
LINE
  8
_0-1_EL-SL200SAIMEI
  6
CONTINUOUS
 62
    7
 10
28.368425939076619
 20
37.049253641657998
 11
27.479591303882138
 21
37.472311367246697
  0
LINE
  8
_0-1_EL-SL200SAIMEI
  6
CONTINUOUS
 62
    7
 10
29.130481060413818
 20
36.540929802809408
 11
28.368425939076619
 21
37.049253641657998
  0
LINE
  8
_0-1_EL-SL200SAIMEI
  6
CONTINUOUS
 62
    7
 10
29.977974549785337
 20
35.821593865489199
 11
29.130481060413818
 21
36.540929802809408
  0
LINE
  8
_0-1_EL-SL200SAIMEI
  6
CONTINUOUS
 62
    7
 10
30.86680918497974
 20
34.763260532420496
 11
29.977974549785337
 21
35.821593865489199
  0
LINE
  8
_0-1_EL-SL200SAIMEI
  6
CONTINUOUS
 62
    7
 10
39.50297454740403
 20
56.904027942249904
 11
39.587034877244129
 21
56.904027942249904
  0
TEXT
  8
_0-1_EL-SL200SAIMEI
 62
    7
 10
-1.3424962334475978
 20
77.14038223275989
 40
4.5
 41
1
 50
0
  1
LEDｸﾗｽ200 ｽﾎﾟｯﾄﾗｲﾄ
  0
TEXT
  8
_0-1_EL-SL200SAIMEI
 62
    7
 10
-1.3424962334475978
 20
-6.8596127672400442
 40
4.5
 41
1
 50
0
  1
三菱　EL-SL20024WW/W
  0
INSERT
  2
-002-SPECEL-SL20024WWW
  8
_0-0_0
 10
57.283458034266161
 20
4.3196238739813211
 41
1
 42
1
 50
0
  0
ENDSEC
  0
EOF
