  0
SECTION
  2
HEADER
  9
$ACADVER
  1
AC1009
  9
$INSBASE
 10
0
 20
0
 30
0
  9
$EXTMIN
 10
0
 20
0
  9
$EXTMAX
 10
105.125
 20
74.25
  9
$LIMMIN
 10
0
 20
0
  9
$LIMMAX
 10
105.125
 20
74.25
  9
$LTSCALE
 40
0.125
  0
ENDSEC
  0
SECTION
  2
TABLES
  0
TABLE
  2
LTYPE
 70
     9
  0
LTYPE
  2
CONTINUOUS
 70
    64
  3
実線
 72
    65
 73
     0
 40
0.0
  0
LTYPE
  2
DASHED1
 70
    64
  3
--  --  --  --  --  --  --  --  
 72
    65
 73
     2
 40
2.5
 49
1.25
 49
-1.25
  0
LTYPE
  2
DASHED2
 70
    64
  3
----    ----    ----    ----    
 72
    65
 73
     2
 40
5.0
 49
2.5
 49
-2.5
  0
LTYPE
  2
DASHED3
 70
    64
  3
------  ------  ------  ------  
 72
    65
 73
     2
 40
5.0
 49
3.75
 49
-1.25
  0
LTYPE
  2
CENTER1
 70
    64
  3
----- - ----- - ----- - ----- - 
 72
    65
 73
     4
 40
10.0
 49
6.25
 49
-1.25
 49
1.25
 49
-1.25
  0
LTYPE
  2
CENTER2
 70
    64
  3
----------  --  ----------  --  
 72
    65
 73
     4
 40
20.0
 49
12.5
 49
-2.5
 49
2.5
 49
-2.5
  0
LTYPE
  2
PHANTOM1
 70
    64
  3
--- - - --- - - --- - - --- - - 
 72
    65
 73
     6
 40
10.0
 49
3.25
 49
-1.25
 49
1.25
 49
-1.25
 49
1.25
 49
-1.25
  0
LTYPE
  2
PHANTOM2
 70
    64
  3
--------  -  -  --------  -  -  
 72
    65
 73
     6
 40
20.0
 49
10.0
 49
-2.5
 49
1.25
 49
-2.5
 49
1.25
 49
-2.5
  0
LTYPE
  2
DOT
 70
    64
  3
-   -   -   -   -   -   -   -   
 72
    65
 73
     2
 40
2.5
 49
0.625
 49
-1.875
  0
LTYPE
  2
DUMMY
 70
    64
  3
ダミー
 72
    65
 73
     0
 40
0.0
  0
LTYPE
  2
RAND1
 70
    64
  3
ランダム線1
 72
    65
 73
     4
 40
10.0
 49
1.0
 49
-2.0
 49
3.0
 49
-4.0
  0
LTYPE
  2
RAND2
 70
    64
  3
ランダム線2
 72
    65
 73
     4
 40
14.0
 49
2.0
 49
-3.0
 49
4.0
 49
-5.0
  0
LTYPE
  2
RAND3
 70
    64
  3
ランダム線3
 72
    65
 73
     4
 40
18.0
 49
3.0
 49
-4.0
 49
5.0
 49
-6.0
  0
LTYPE
  2
RAND4
 70
    64
  3
ランダム線4
 72
    65
 73
     4
 40
22.0
 49
4.0
 49
-5.0
 49
6.0
 49
-7.0
  0
LTYPE
  2
RAND5
 70
    64
  3
ランダム線5
 72
    65
 73
     4
 40
26.0
 49
5.0
 49
-6.0
 49
7.0
 49
-8.0
  0
LTYPE
  2
LONG1
 70
    64
  3
----------  --  ----------  --  
 72
    65
 73
     4
 40
40.0
 49
32.5
 49
-2.5
 49
2.5
 49
-2.5
  0
LTYPE
  2
LONG2
 70
    64
  3
--------  -  -  --------  -  -  
 72
    65
 73
     6
 40
40.0
 49
30.0
 49
-2.5
 49
1.25
 49
-2.5
 49
1.25
 49
-2.5
  0
LTYPE
  2
LONG3
 70
    64
  3
+++++++++++++++..+++++++++++++++
 72
    65
 73
     2
 40
40.0
 49
37.5
 49
-2.5
  0
LTYPE
  2
LONG4
 70
    64
  3
+++++++++++++++..+++++++++++++++
 72
    65
 73
     2
 40
80.0
 49
75.0
 49
-5.0
  0
LTYPE
  2
LONG5
 70
    64
  3
----------  --  ----------  --  
 72
    65
 73
     4
 40
60.0
 49
37.5
 49
-7.5
 49
7.5
 49
-7.5
  0
LTYPE
  2
dashed
 70
   64
  3
-------   -------------   ------
 72
   65
 73
    2
 40
7.5
 49
6
 49
-1.5
  0
LTYPE
  2
dashed_spaced
 70
   64
  3
----        --------        ----
 72
   65
 73
    2
 40
12
 49
6
 49
-6
  0
LTYPE
  2
long_dashed_dotted
 70
   64
  3
------------- --- --------------
 72
   65
 73
    4
 40
15.25
 49
12
 49
-1.5
 49
0.25
 49
-1.5
  0
LTYPE
  2
long_dashed_double-dotted
 70
   64
  3
----------- --- --- ------------
 72
   65
 73
    6
 40
17
 49
12
 49
-1.5
 49
0.25
 49
-1.5
 49
0.25
 49
-1.5
  0
LTYPE
  2
long_dashed_triplicate-dotted
 70
   64
  3
--------- --- --- --- ----------
 72
   65
 73
    8
 40
18.75
 49
12
 49
-1.5
 49
0.25
 49
-1.5
 49
0.25
 49
-1.5
 49
0.25
 49
-1.5
  0
LTYPE
  2
dotted
 70
   64
  3
   -       -       -       -    
 72
   65
 73
    2
 40
1.75
 49
0.25
 49
-1.5
  0
LTYPE
  2
chain
 70
   64
  3
-------------- -- --------------
 72
   65
 73
    4
 40
18.5
 49
12
 49
-1.5
 49
3.5
 49
-1.5
  0
LTYPE
  2
chain_double_dash
 70
   64
  3
------------ -- -- -------------
 72
   65
 73
    6
 40
23.5
 49
12
 49
-1.5
 49
3.5
 49
-1.5
 49
3.5
 49
-1.5
  0
LTYPE
  2
dashed_dotted
 70
   64
  3
-----------     -     ----------
 72
   65
 73
    4
 40
9.25
 49
6
 49
-1.5
 49
0.25
 49
-1.5
  0
LTYPE
  2
double-dashed_dotted
 70
   64
  3
------   -----------   -   -----
 72
   65
 73
    6
 40
16.75
 49
6
 49
-1.5
 49
6
 49
-1.5
 49
0.25
 49
-1.5
  0
LTYPE
  2
dashed_double-dotted
 70
   64
  3
---------    -    -    ---------
 72
   65
 73
    6
 40
11
 49
6
 49
-1.5
 49
0.25
 49
-1.5
 49
0.25
 49
-1.5
  0
LTYPE
  2
double-dashed_double-dotted
 70
   64
  3
-----   ---------   -   -   ----
 72
   65
 73
    8
 40
18.5
 49
6
 49
-1.5
 49
6
 49
-1.5
 49
0.25
 49
-1.5
 49
0.25
 49
-1.5
  0
LTYPE
  2
dashed_triplicate-dotted
 70
   64
  3
-------    -    -    -    ------
 72
   65
 73
    8
 40
12.75
 49
6
 49
-1.5
 49
0.25
 49
-1.5
 49
0.25
 49
-1.5
 49
0.25
 49
-1.5
  0
LTYPE
  2
double-dashed_triplicate-dotted
 70
   64
  3
-----  ---------  -  -  -  -----
 72
   65
 73
   10
 40
20.25
 49
6
 49
-1.5
 49
6
 49
-1.5
 49
0.25
 49
-1.5
 49
0.25
 49
-1.5
 49
0.25
 49
-1.5
  0
LTYPE
  2
undefined
 70
   64
  3
--------------------------------
 72
   65
 73
    0
 40
0
  0
LTYPE
  2
_
 70
   64
  3
                                
 72
   65
 73
    0
 40
0
  0
LTYPE
  2
__18
 70
   64
  3
                                
 72
   65
 73
    0
 40
0
  0
LTYPE
  2
__19
 70
   64
  3
                                
 72
   65
 73
    0
 40
0
  0
LTYPE
  2
__20
 70
   64
  3
                                
 72
   65
 73
    0
 40
0
  0
LTYPE
  2
__21
 70
   64
  3
                                
 72
   65
 73
    0
 40
0
  0
LTYPE
  2
__22
 70
   64
  3
                                
 72
   65
 73
    0
 40
0
  0
LTYPE
  2
__23
 70
   64
  3
                                
 72
   65
 73
    0
 40
0
  0
LTYPE
  2
__24
 70
   64
  3
                                
 72
   65
 73
    0
 40
0
  0
LTYPE
  2
__25
 70
   64
  3
                                
 72
   65
 73
    0
 40
0
  0
LTYPE
  2
__26
 70
   64
  3
                                
 72
   65
 73
    0
 40
0
  0
LTYPE
  2
__27
 70
   64
  3
                                
 72
   65
 73
    0
 40
0
  0
LTYPE
  2
__28
 70
   64
  3
                                
 72
   65
 73
    0
 40
0
  0
LTYPE
  2
__29
 70
   64
  3
                                
 72
   65
 73
    0
 40
0
  0
LTYPE
  2
__30
 70
   64
  3
                                
 72
   65
 73
    0
 40
0
  0
LTYPE
  2
__31
 70
   64
  3
                                
 72
   65
 73
    0
 40
0
  0
LTYPE
  2
__32
 70
   64
  3
                                
 72
   65
 73
    0
 40
0
  0
ENDTAB
  0
TABLE
  2
STYLE
  5
3
100
AcDbSymbolTable
 70
     1
  0
STYLE
  5
10
100
AcDbSymbolTableRecord
100
AcDbTextStyleTableRecord
  2
STANDARD
 70
     0
 40
0.0
 41
1.0
 50
0.0
 71
     0
 42
0.2
  3
txt
  4
bigfont.shx
  0
STYLE
  5
26
100
AcDbSymbolTableRecord
100
AcDbTextStyleTableRecord
  2
TATEGAKI
 70
    68
 40
0.0
 41
1.0
 50
0.0
 71
     0
 42
1.0
  3
txt
  4
bigfont.shx
  0
ENDTAB
  0
TABLE
  2
LAYER
 70
    3
  0
LAYER
  2
_0-0_0
 70
   64
 62
    7
  6
CONTINUOUS
  0
LAYER
  2
_0-1_EL-SL300SAIMEI
 70
   64
 62
    7
  6
CONTINUOUS
  0
LAYER
  2
ADD_LINE
 70
   64
 62
    7
  6
CONTINUOUS
  0
ENDTAB
  0
ENDSEC
  0
SECTION
  2
BLOCKS
  0
BLOCK
  2
-002-SPECEL-SL30023LW
 70
   64
 10
0
 20
0
 30
0
  0
TEXT
  8
_0-2_SPEC
 62
    7
 10
0
 20
0
 40
1.5
 41
1
 50
0
  1
ｽﾎﾟｯﾄﾗｲﾄ 電球色(3000K) Ra95
  0
TEXT
  8
_0-2_SPEC
 62
    7
 10
0
 20
-3
 40
1.5
 41
1
 50
0
  1
本体:ｱﾙﾐﾀﾞｲｶｽﾄ 白色塗装仕上
  0
TEXT
  8
_0-2_SPEC
 62
    7
 10
0
 20
-6
 40
1.5
 41
1
 50
0
  1
光源寿命:40,000時間
  0
TEXT
  8
_0-2_SPEC
 62
    7
 10
0
 20
-9
 40
1.5
 41
1
 50
0
  1
光束:2810lm 消費電力:32.3W 消費効率:87lm/W
  0
ENDBLK
  0
ENDSEC
  0
SECTION
  2
ENTITIES
  0
LINE
  8
_0-1_EL-SL300SAIMEI
  6
CONTINUOUS
 62
    7
 10
42.092023639927397
 20
56.441369876940662
 11
42.854078761264709
 21
56.737648088672188
  0
LINE
  8
_0-1_EL-SL300SAIMEI
  6
CONTINUOUS
 62
    7
 10
43.107637788979112
 20
56.567977136023558
 11
43.023577459139013
 21
56.567977136023558
  0
LINE
  8
_0-1_EL-SL300SAIMEI
  6
CONTINUOUS
 62
    7
 10
43.193076157013323
 20
56.567977136023558
 11
43.107637788979112
 21
56.526808244974752
  0
LINE
  8
_0-1_EL-SL300SAIMEI
  6
CONTINUOUS
 62
    7
 10
43.150356972996214
 20
56.567977136023558
 11
43.150356972996214
 21
56.526808244974752
  0
LINE
  8
_0-1_EL-SL300SAIMEI
  6
CONTINUOUS
 62
    7
 10
43.193076157013323
 20
56.526808244974752
 11
43.234417302836313
 21
56.526808244974752
  0
LINE
  8
_0-1_EL-SL300SAIMEI
  6
CONTINUOUS
 62
    7
 10
43.362574854887619
 20
56.526808244974752
 11
43.319855670870517
 21
56.526808244974752
  0
LINE
  8
_0-1_EL-SL300SAIMEI
  6
CONTINUOUS
 62
    7
 10
43.362574854887619
 20
56.526808244974752
 11
43.403916000710623
 21
56.526808244974752
  0
LINE
  8
_0-1_EL-SL300SAIMEI
  6
CONTINUOUS
 62
    7
 10
35.9955826692293
 20
59.405357777675263
 11
35.192186402069098
 21
58.600755727095247
  0
LINE
  8
_0-1_EL-SL300SAIMEI
  6
CONTINUOUS
 62
    7
 10
45.309742823150813
 20
25.369364676375259
 11
45.520582666848114
 21
26.46903915526708
  0
LINE
  8
_0-1_EL-SL300SAIMEI
  6
CONTINUOUS
 62
    7
 10
44.843965913544999
 20
24.01475313157508
 11
45.309742823150813
 21
25.369364676375259
  0
LINE
  8
_0-1_EL-SL300SAIMEI
  6
CONTINUOUS
 62
    7
 10
44.335469819922118
 20
22.99758868955508
 11
44.843965913544999
 21
24.01475313157508
  0
LINE
  8
_0-1_EL-SL300SAIMEI
  6
CONTINUOUS
 62
    7
 10
43.742913396459187
 20
22.108926309134869
 11
44.335469819922118
 21
22.99758868955508
  0
LINE
  8
_0-1_EL-SL300SAIMEI
  6
CONTINUOUS
 62
    7
 10
43.023577459139013
 20
21.305357787200371
 11
43.742913396459187
 21
22.108926309134869
  0
LINE
  8
_0-1_EL-SL300SAIMEI
  6
CONTINUOUS
 62
    7
 10
42.049304455910303
 20
20.500755736620281
 11
43.023577459139013
 21
21.305357787200371
  0
LINE
  8
_0-1_EL-SL300SAIMEI
  6
CONTINUOUS
 62
    7
 10
40.906910793001494
 20
19.908027058382981
 11
42.049304455910303
 21
20.500755736620281
  0
LINE
  8
_0-1_EL-SL300SAIMEI
  6
CONTINUOUS
 62
    7
 10
39.763139091898623
 20
19.569374172182972
 11
40.906910793001494
 21
19.908027058382981
  0
LINE
  8
_0-1_EL-SL300SAIMEI
  6
CONTINUOUS
 62
    7
 10
39.12924152261261
 20
19.526310478617269
 11
39.763139091898623
 21
19.569374172182972
  0
LINE
  8
_0-1_EL-SL300SAIMEI
  6
CONTINUOUS
 62
    7
 10
23.720018436187111
 20
18.467977145548591
 11
39.12924152261261
 21
19.526310478617269
  0
LINE
  8
_0-1_EL-SL300SAIMEI
  6
CONTINUOUS
 62
    7
 10
24.353916005473121
 20
19.10342500780289
 11
24.650194217204621
 21
19.10342500780289
  0
LINE
  8
_0-1_EL-SL300SAIMEI
  6
CONTINUOUS
 62
    7
 10
23.2542415265813
 20
20.161758340871682
 11
23.295582672404301
 21
20.161758340871682
  0
LINE
  8
_0-1_EL-SL300SAIMEI
  6
CONTINUOUS
 62
    7
 10
37.478351766080898
 20
47.212648091053389
 11
37.901409491669519
 21
47.551645486801974
  0
LINE
  8
_0-1_EL-SL300SAIMEI
  6
CONTINUOUS
 62
    7
 10
54.622524938878094
 20
54.663700606551657
 11
54.538464609037987
 21
54.578262238517489
  0
LINE
  8
_0-1_EL-SL300SAIMEI
  6
CONTINUOUS
 62
    7
 10
30.958853069794099
 20
57.119364668437761
 11
30.91613388577699
 21
56.737648088672188
  0
LINE
  8
_0-1_EL-SL300SAIMEI
  6
CONTINUOUS
 62
    7
 10
31.169692913491399
 20
57.076645484420688
 11
31.128351767668399
 21
56.694928904654951
  0
LINE
  8
_0-1_EL-SL300SAIMEI
  6
CONTINUOUS
 62
    7
 10
31.67818900711422
 20
56.949693715789302
 11
31.635469823097122
 21
56.567977136023558
  0
LINE
  8
_0-1_EL-SL300SAIMEI
  6
CONTINUOUS
 62
    7
 10
31.635469823097122
 20
54.155376767703082
 11
31.93174803482859
 21
56.526808244974752
  0
LINE
  8
_0-1_EL-SL300SAIMEI
  6
CONTINUOUS
 62
    7
 10
31.804968520971421
 20
54.113691112331573
 11
32.143965916719999
 21
56.526635990200603
  0
LINE
  8
_0-1_EL-SL300SAIMEI
  6
CONTINUOUS
 62
    7
 10
32.397524944434402
 20
56.864255347755098
 11
32.313464614594295
 21
56.526635990200603
  0
LINE
  8
_0-1_EL-SL300SAIMEI
  6
CONTINUOUS
 62
    7
 10
24.778351769255899
 20
37.687648093434582
 11
24.778351769255899
 21
37.644928909417558
  0
LINE
  8
_0-1_EL-SL300SAIMEI
  6
CONTINUOUS
 62
    7
 10
24.9051312831131
 20
37.603760018368781
 11
24.862412099096002
 21
37.644928909417558
  0
LINE
  8
_0-1_EL-SL300SAIMEI
  6
CONTINUOUS
 62
    7
 10
32.101246732702904
 20
53.944364669231568
 11
32.101246732702904
 21
53.774693716582973
  0
LINE
  8
_0-1_EL-SL300SAIMEI
  6
CONTINUOUS
 62
    7
 10
32.143965916719999
 20
53.944364669231568
 11
32.143965916719999
 21
53.774693716582973
  0
LINE
  8
_0-1_EL-SL300SAIMEI
  6
CONTINUOUS
 62
    7
 10
31.042913399634191
 20
49.033036545459368
 11
31.551409493257019
 21
53.731974532565857
  0
LINE
  8
_0-1_EL-SL300SAIMEI
  6
CONTINUOUS
 62
    7
 10
32.397524944434402
 20
53.519928905448793
 11
32.693803156165913
 21
56.061031335369094
  0
LINE
  8
_0-1_EL-SL300SAIMEI
  6
CONTINUOUS
 62
    7
 10
32.77924152420011
 20
56.102372481192063
 11
32.863301854040209
 21
56.864255347755098
  0
LINE
  8
_0-1_EL-SL300SAIMEI
  6
CONTINUOUS
 62
    7
 10
32.77924152420011
 20
56.102372481192063
 11
32.77924152420011
 21
56.061031335369094
  0
LINE
  8
_0-1_EL-SL300SAIMEI
  6
CONTINUOUS
 62
    7
 10
32.017186402862805
 20
48.652698003887771
 11
32.017186402862805
 21
48.356419792156274
  0
LINE
  8
_0-1_EL-SL300SAIMEI
  6
CONTINUOUS
 62
    7
 10
33.116860881754612
 20
55.934424076286177
 11
33.116860881754612
 21
55.975592967334883
  0
LINE
  8
_0-1_EL-SL300SAIMEI
  6
CONTINUOUS
 62
    7
 10
33.668076159394509
 20
57.119364668437761
 11
33.709417305217514
 21
57.626310469092303
  0
LINE
  8
_0-1_EL-SL300SAIMEI
  6
CONTINUOUS
 62
    7
 10
33.964354371126007
 20
56.864255347755098
 11
33.964354371126007
 21
56.780367272689148
  0
LINE
  8
_0-1_EL-SL300SAIMEI
  6
CONTINUOUS
 62
    7
 10
34.091133884983208
 20
55.805922014686253
 11
34.091133884983208
 21
55.764753123637547
  0
LINE
  8
_0-1_EL-SL300SAIMEI
  6
CONTINUOUS
 62
    7
 10
34.091133884983208
 20
55.848641198703383
 11
34.217913398840423
 21
56.611040829589179
  0
LINE
  8
_0-1_EL-SL300SAIMEI
  6
CONTINUOUS
 62
    7
 10
33.202299249788823
 20
48.397588683205079
 11
33.159580065771706
 21
48.017422396407774
  0
LINE
  8
_0-1_EL-SL300SAIMEI
  6
CONTINUOUS
 62
    7
 10
33.329078763646024
 20
48.397588683205079
 11
33.286359579628908
 21
48.017422396407774
  0
LINE
  8
_0-1_EL-SL300SAIMEI
  6
CONTINUOUS
 62
    7
 10
34.640971124429122
 20
57.965307864840902
 11
34.640971124429122
 21
58.051090742423703
  0
LINE
  8
_0-1_EL-SL300SAIMEI
  6
CONTINUOUS
 62
    7
 10
33.413139093486123
 20
48.397588683205079
 11
33.329078763646024
 21
48.017422396407774
  0
LINE
  8
_0-1_EL-SL300SAIMEI
  6
CONTINUOUS
 62
    7
 10
34.810469822303403
 20
56.526808244974752
 11
34.810469822303403
 21
56.864255347755098
  0
LINE
  8
_0-1_EL-SL300SAIMEI
  6
CONTINUOUS
 62
    7
 10
34.937249336160605
 20
57.585141578043597
 11
34.9799685201777
 21
57.881419789775073
  0
LINE
  8
_0-1_EL-SL300SAIMEI
  6
CONTINUOUS
 62
    7
 10
34.9799685201777
 20
58.051090742423703
 11
34.9799685201777
 21
58.219039147329568
  0
LINE
  8
_0-1_EL-SL300SAIMEI
  6
CONTINUOUS
 62
    7
 10
35.192186402069098
 20
58.600755727095247
 11
35.106748034034901
 21
58.177698001506549
  0
LINE
  8
_0-1_EL-SL300SAIMEI
  6
CONTINUOUS
 62
    7
 10
35.149467218052003
 20
58.008027048857983
 11
35.149467218052003
 21
58.134978817489468
  0
LINE
  8
_0-1_EL-SL300SAIMEI
  6
CONTINUOUS
 62
    7
 10
35.233527547892102
 20
57.965307864840902
 11
35.192186402069098
 21
57.838700605758
  0
LINE
  8
_0-1_EL-SL300SAIMEI
  6
CONTINUOUS
 62
    7
 10
35.106748034034901
 20
56.823086456706399
 11
35.192186402069098
 21
57.372923696152164
  0
LINE
  8
_0-1_EL-SL300SAIMEI
  6
CONTINUOUS
 62
    7
 10
34.9799685201777
 20
55.595426680537457
 11
34.9799685201777
 21
55.552707496520497
  0
LINE
  8
_0-1_EL-SL300SAIMEI
  6
CONTINUOUS
 62
    7
 10
35.106748034034901
 20
55.509643802954891
 11
35.233527547892102
 21
56.357309547100563
  0
LINE
  8
_0-1_EL-SL300SAIMEI
  6
CONTINUOUS
 62
    7
 10
35.784742825532
 20
57.881419789775073
 11
35.742023641514898
 21
57.795981421740869
  0
LINE
  8
_0-1_EL-SL300SAIMEI
  6
CONTINUOUS
 62
    7
 10
35.826083971354997
 20
58.008027048857983
 11
35.826083971354997
 21
57.965307864840902
  0
LINE
  8
_0-1_EL-SL300SAIMEI
  6
CONTINUOUS
 62
    7
 10
36.334580064977914
 20
59.362638593658303
 11
36.42001843301211
 21
59.998086455912592
  0
LINE
  8
_0-1_EL-SL300SAIMEI
  6
CONTINUOUS
 62
    7
 10
35.954241523406303
 20
56.694928904654951
 11
36.038301853246402
 21
57.245971927520664
  0
LINE
  8
_0-1_EL-SL300SAIMEI
  6
CONTINUOUS
 62
    7
 10
36.123740221280613
 20
57.753262237723803
 11
36.123740221280613
 21
57.965307864840902
  0
LINE
  8
_0-1_EL-SL300SAIMEI
  6
CONTINUOUS
 62
    7
 10
36.630858276709411
 20
59.320091664415379
 11
36.716296644743608
 21
59.955367271895462
  0
LINE
  8
_0-1_EL-SL300SAIMEI
  6
CONTINUOUS
 62
    7
 10
35.529805759623521
 20
58.092259633472402
 11
35.488464613800502
 21
58.008027048857983
  0
LINE
  8
_0-1_EL-SL300SAIMEI
  6
CONTINUOUS
 62
    7
 10
35.826083971354997
 20
58.008027048857983
 11
35.784742825532
 21
57.965307864840902
  0
LINE
  8
_0-1_EL-SL300SAIMEI
  6
CONTINUOUS
 62
    7
 10
36.123740221280613
 20
57.965307864840902
 11
36.123740221280613
 21
57.881419789775073
  0
LINE
  8
_0-1_EL-SL300SAIMEI
  6
CONTINUOUS
 62
    7
 10
37.562412095920998
 20
58.261758331346648
 11
37.519692911903903
 21
57.881419789775073
  0
LINE
  8
_0-1_EL-SL300SAIMEI
  6
CONTINUOUS
 62
    7
 10
37.392913398046687
 20
56.18763859445199
 11
37.435632582063803
 21
56.653760013606252
  0
LINE
  8
_0-1_EL-SL300SAIMEI
  6
CONTINUOUS
 62
    7
 10
37.519692911903903
 20
57.20342499827786
 11
37.605131279938099
 21
57.838700605758
  0
LINE
  8
_0-1_EL-SL300SAIMEI
  6
CONTINUOUS
 62
    7
 10
37.350194214029621
 20
55.67931475560335
 11
37.392913398046687
 21
56.061031335369094
  0
LINE
  8
_0-1_EL-SL300SAIMEI
  6
CONTINUOUS
 62
    7
 10
37.942750637492523
 20
57.712093346675104
 11
37.942750637492523
 21
57.795981421740869
  0
LINE
  8
_0-1_EL-SL300SAIMEI
  6
CONTINUOUS
 62
    7
 10
37.858690307652424
 20
56.357309547100563
 11
37.901409491669519
 21
56.653760013606252
  0
LINE
  8
_0-1_EL-SL300SAIMEI
  6
CONTINUOUS
 62
    7
 10
38.663464613006802
 20
56.611040829589179
 11
38.747524942846901
 21
57.119364668437761
  0
LINE
  8
_0-1_EL-SL300SAIMEI
  6
CONTINUOUS
 62
    7
 10
38.704805758829799
 20
55.129305261383287
 11
38.747524942846901
 21
55.552707496520497
  0
LINE
  8
_0-1_EL-SL300SAIMEI
  6
CONTINUOUS
 62
    7
 10
38.874304456704103
 20
56.102372481192063
 11
38.874304456704103
 21
56.145091665209193
  0
LINE
  8
_0-1_EL-SL300SAIMEI
  6
CONTINUOUS
 62
    7
 10
38.874304456704103
 20
56.102372481192063
 11
38.874304456704103
 21
56.061031335369094
  0
LINE
  8
_0-1_EL-SL300SAIMEI
  6
CONTINUOUS
 62
    7
 10
38.917023640721197
 20
56.18763859445199
 11
39.001083970561304
 21
56.653760013606252
  0
LINE
  8
_0-1_EL-SL300SAIMEI
  6
CONTINUOUS
 62
    7
 10
37.942750637492523
 20
47.848095953307677
 11
37.901409491669519
 21
47.551645486801974
  0
LINE
  8
_0-1_EL-SL300SAIMEI
  6
CONTINUOUS
 62
    7
 10
39.256021036469811
 20
56.061031335369094
 11
39.213301852452709
 21
56.061031335369094
  0
LINE
  8
_0-1_EL-SL300SAIMEI
  6
CONTINUOUS
 62
    7
 10
39.298740220486913
 20
56.061031335369094
 11
39.298740220486913
 21
56.018312151351964
  0
LINE
  8
_0-1_EL-SL300SAIMEI
  6
CONTINUOUS
 62
    7
 10
39.636359578041407
 20
56.018312151351964
 11
39.636359578041407
 21
55.975592967334883
  0
LINE
  8
_0-1_EL-SL300SAIMEI
  6
CONTINUOUS
 62
    7
 10
38.917023640721197
 20
47.890642882550573
 11
39.932637789772919
 21
54.917259634266074
  0
LINE
  8
_0-1_EL-SL300SAIMEI
  6
CONTINUOUS
 62
    7
 10
39.043803154578413
 20
47.848095953307677
 11
40.059417303630013
 21
54.917259634266074
  0
LINE
  8
_0-1_EL-SL300SAIMEI
  6
CONTINUOUS
 62
    7
 10
38.704805758829799
 20
55.129305261383287
 11
38.663464613006802
 21
55.044039148123268
  0
LINE
  8
_0-1_EL-SL300SAIMEI
  6
CONTINUOUS
 62
    7
 10
38.281748033241094
 20
47.890642882550573
 11
39.425519734344107
 21
54.959978818283169
  0
LINE
  8
_0-1_EL-SL300SAIMEI
  6
CONTINUOUS
 62
    7
 10
25.6244672204332
 20
37.391369881703163
 11
25.793965918307499
 21
37.391369881703163
  0
LINE
  8
_0-1_EL-SL300SAIMEI
  6
CONTINUOUS
 62
    7
 10
25.115971126810312
 20
37.476808249737374
 11
25.497687706575991
 21
37.434089065720258
  0
LINE
  8
_0-1_EL-SL300SAIMEI
  6
CONTINUOUS
 62
    7
 10
24.778351769255899
 20
37.644928909417558
 11
24.9051312831131
 21
37.603760018368781
  0
LINE
  8
_0-1_EL-SL300SAIMEI
  6
CONTINUOUS
 62
    7
 10
31.50869030923992
 20
37.052372485954578
 11
26.556021039644811
 21
37.856974536534672
  0
LINE
  8
_0-1_EL-SL300SAIMEI
  6
CONTINUOUS
 62
    7
 10
31.339191611365699
 20
37.095091669971687
 11
24.608853071381599
 21
38.15342500304039
  0
LINE
  8
_0-1_EL-SL300SAIMEI
  6
CONTINUOUS
 62
    7
 10
24.7356325852388
 20
38.15342500304039
 11
24.608853071381599
 21
38.15342500304039
  0
LINE
  8
_0-1_EL-SL300SAIMEI
  6
CONTINUOUS
 62
    7
 10
26.556021039644811
 20
37.856974536534672
 11
26.386522341770512
 21
37.856974536534672
  0
LINE
  8
_0-1_EL-SL300SAIMEI
  6
CONTINUOUS
 62
    7
 10
31.50869030923992
 20
37.052372485954578
 11
31.339191611365699
 21
37.095091669971687
  0
LINE
  8
_0-1_EL-SL300SAIMEI
  6
CONTINUOUS
 62
    7
 10
36.461359578835108
 20
35.90997882304567
 11
33.455858277503225
 21
36.459643807717278
  0
LINE
  8
_0-1_EL-SL300SAIMEI
  6
CONTINUOUS
 62
    7
 10
41.922524942053087
 20
34.935705819817073
 11
36.461359578835108
 21
35.90997882304567
  0
LINE
  8
_0-1_EL-SL300SAIMEI
  6
CONTINUOUS
 62
    7
 10
33.455858277503225
 20
36.459643807717278
 11
32.820582670023114
 21
36.672033944382981
  0
LINE
  8
_0-1_EL-SL300SAIMEI
  6
CONTINUOUS
 62
    7
 10
41.965244126070203
 20
34.894364673994069
 11
41.922524942053087
 21
34.935705819817073
  0
LINE
  8
_0-1_EL-SL300SAIMEI
  6
CONTINUOUS
 62
    7
 10
32.143965916719999
 20
36.925592972097384
 11
31.50869030923992
 21
37.052372485954578
  0
LINE
  8
_0-1_EL-SL300SAIMEI
  6
CONTINUOUS
 62
    7
 10
32.820582670023114
 20
36.672033944382981
 11
32.143965916719999
 21
36.925592972097384
  0
LINE
  8
_0-1_EL-SL300SAIMEI
  6
CONTINUOUS
 62
    7
 10
42.218803153784599
 20
55.67931475560335
 11
42.557800549533198
 21
55.636595571586284
  0
LINE
  8
_0-1_EL-SL300SAIMEI
  6
CONTINUOUS
 62
    7
 10
42.049304455910303
 20
55.805922014686253
 11
42.218803153784599
 21
55.67931475560335
  0
LINE
  8
_0-1_EL-SL300SAIMEI
  6
CONTINUOUS
 62
    7
 10
42.049304455910303
 20
55.934424076286177
 11
42.049304455910303
 21
55.805922014686253
  0
LINE
  8
_0-1_EL-SL300SAIMEI
  6
CONTINUOUS
 62
    7
 10
43.319855670870517
 20
56.526808244974752
 11
43.319855670870517
 21
56.567977136023558
  0
LINE
  8
_0-1_EL-SL300SAIMEI
  6
CONTINUOUS
 62
    7
 10
42.092023639927397
 20
56.441369876940662
 11
42.049304455910303
 21
55.934424076286177
  0
LINE
  8
_0-1_EL-SL300SAIMEI
  6
CONTINUOUS
 62
    7
 10
42.515081365516103
 20
56.314762617857703
 11
42.473740219693113
 21
55.848641198703383
  0
LINE
  8
_0-1_EL-SL300SAIMEI
  6
CONTINUOUS
 62
    7
 10
41.583527546304602
 20
54.790307865634681
 11
41.583527546304602
 21
55.002698002300271
  0
LINE
  8
_0-1_EL-SL300SAIMEI
  6
CONTINUOUS
 62
    7
 10
40.398414699378613
 20
56.102372481192063
 11
40.441133883395707
 21
56.611040829589179
  0
LINE
  8
_0-1_EL-SL300SAIMEI
  6
CONTINUOUS
 62
    7
 10
40.821472424967318
 20
55.172024445400389
 11
40.821472424967318
 21
55.21371010077187
  0
LINE
  8
_0-1_EL-SL300SAIMEI
  6
CONTINUOUS
 62
    7
 10
40.906910793001494
 20
55.172024445400389
 11
40.906910793001494
 21
55.21371010077187
  0
LINE
  8
_0-1_EL-SL300SAIMEI
  6
CONTINUOUS
 62
    7
 10
41.583527546304602
 20
55.468474911906078
 11
41.668965914338813
 21
55.891360382720464
  0
LINE
  8
_0-1_EL-SL300SAIMEI
  6
CONTINUOUS
 62
    7
 10
41.965244126070203
 20
54.959978818283169
 11
42.007963310087298
 21
55.425755727888998
  0
LINE
  8
_0-1_EL-SL300SAIMEI
  6
CONTINUOUS
 62
    7
 10
43.616133882602021
 20
55.21371010077187
 11
43.616133882602021
 21
55.256429284788972
  0
LINE
  8
_0-1_EL-SL300SAIMEI
  6
CONTINUOUS
 62
    7
 10
40.737412095127219
 20
54.790307865634681
 11
39.679078762058523
 21
47.339255350136263
  0
LINE
  8
_0-1_EL-SL300SAIMEI
  6
CONTINUOUS
 62
    7
 10
40.906910793001494
 20
54.790307865634681
 11
39.805858275915718
 21
47.339255350136263
  0
LINE
  8
_0-1_EL-SL300SAIMEI
  6
CONTINUOUS
 62
    7
 10
42.938139091104809
 20
57.288691111537851
 11
42.811359577247607
 21
56.694928904654951
  0
LINE
  8
_0-1_EL-SL300SAIMEI
  6
CONTINUOUS
 62
    7
 10
42.980858275121911
 20
57.288691111537851
 11
42.854078761264709
 21
56.694928904654951
  0
LINE
  8
_0-1_EL-SL300SAIMEI
  6
CONTINUOUS
 62
    7
 10
43.446635184727718
 20
56.526808244974752
 11
43.403916000710623
 21
56.18763859445199
  0
LINE
  8
_0-1_EL-SL300SAIMEI
  6
CONTINUOUS
 62
    7
 10
41.965244126070203
 20
54.959978818283169
 11
41.922524942053087
 21
54.790307865634681
  0
LINE
  8
_0-1_EL-SL300SAIMEI
  6
CONTINUOUS
 62
    7
 10
44.0819107922078
 20
57.20342499827786
 11
44.208690306064923
 21
57.965307864840902
  0
LINE
  8
_0-1_EL-SL300SAIMEI
  6
CONTINUOUS
 62
    7
 10
43.277136486853408
 20
56.526808244974752
 11
43.277136486853408
 21
56.567977136023558
  0
LINE
  8
_0-1_EL-SL300SAIMEI
  6
CONTINUOUS
 62
    7
 10
42.3455826676418
 20
34.724693721345467
 11
41.965244126070203
 21
34.894364673994069
  0
LINE
  8
_0-1_EL-SL300SAIMEI
  6
CONTINUOUS
 62
    7
 10
33.286359579628908
 20
48.017422396407774
 11
33.413139093486123
 21
47.635705816642073
  0
LINE
  8
_0-1_EL-SL300SAIMEI
  6
CONTINUOUS
 62
    7
 10
33.49857746152032
 20
47.594364670819068
 11
33.329078763646024
 21
48.017422396407774
  0
LINE
  8
_0-1_EL-SL300SAIMEI
  6
CONTINUOUS
 62
    7
 10
46.664354367951013
 20
56.864255347755098
 11
46.707073551968108
 21
57.584969323269384
  0
LINE
  8
_0-1_EL-SL300SAIMEI
  6
CONTINUOUS
 62
    7
 10
43.828351764493398
 20
55.340317359854801
 11
43.869692910316402
 21
55.383036543871867
  0
LINE
  8
_0-1_EL-SL300SAIMEI
  6
CONTINUOUS
 62
    7
 10
44.504968517796421
 20
56.357309547100563
 11
44.420908187956321
 21
55.509643802954891
  0
LINE
  8
_0-1_EL-SL300SAIMEI
  6
CONTINUOUS
 62
    7
 10
44.039191608190698
 20
56.441369876940662
 11
44.165971122047807
 21
57.076645484420688
  0
LINE
  8
_0-1_EL-SL300SAIMEI
  6
CONTINUOUS
 62
    7
 10
44.124629976224817
 20
56.398650692923589
 11
44.208690306064923
 21
57.076645484420688
  0
LINE
  8
_0-1_EL-SL300SAIMEI
  6
CONTINUOUS
 62
    7
 10
45.393803152990913
 20
57.965307864840902
 11
45.393803152990913
 21
57.922588680823878
  0
LINE
  8
_0-1_EL-SL300SAIMEI
  6
CONTINUOUS
 62
    7
 10
45.436522337008007
 20
57.965307864840902
 11
45.436522337008007
 21
57.922588680823878
  0
LINE
  8
_0-1_EL-SL300SAIMEI
  6
CONTINUOUS
 62
    7
 10
45.182963309293598
 20
56.314762617857703
 11
45.267023639133697
 21
56.906974531772171
  0
LINE
  8
_0-1_EL-SL300SAIMEI
  6
CONTINUOUS
 62
    7
 10
45.267023639133697
 20
56.314762617857703
 11
45.351083968973803
 21
56.906974531772171
  0
LINE
  8
_0-1_EL-SL300SAIMEI
  6
CONTINUOUS
 62
    7
 10
46.368076156219509
 20
55.002698002300271
 11
46.578915999916809
 21
56.272043433840693
  0
LINE
  8
_0-1_EL-SL300SAIMEI
  6
CONTINUOUS
 62
    7
 10
47.679968517002699
 20
56.18763859445199
 11
47.8067480308599
 21
56.823086456706399
  0
LINE
  8
_0-1_EL-SL300SAIMEI
  6
CONTINUOUS
 62
    7
 10
47.722687701019801
 20
56.18763859445199
 11
47.8067480308599
 21
56.823086456706399
  0
LINE
  8
_0-1_EL-SL300SAIMEI
  6
CONTINUOUS
 62
    7
 10
56.865971118872807
 20
46.493312153733179
 11
39.721797946075618
 21
47.255367275070491
  0
LINE
  8
_0-1_EL-SL300SAIMEI
  6
CONTINUOUS
 62
    7
 10
56.951409486907018
 20
46.577372483573278
 11
39.805858275915718
 21
47.339255350136263
  0
LINE
  8
_0-1_EL-SL300SAIMEI
  6
CONTINUOUS
 62
    7
 10
38.832963310881098
 20
47.805376769290582
 11
38.154968519383921
 21
47.848095953307677
  0
LINE
  8
_0-1_EL-SL300SAIMEI
  6
CONTINUOUS
 62
    7
 10
38.281748033241094
 20
47.890642882550573
 11
38.917023640721197
 21
47.890642882550573
  0
LINE
  8
_0-1_EL-SL300SAIMEI
  6
CONTINUOUS
 62
    7
 10
38.832963310881098
 20
47.805376769290582
 11
39.001083970561304
 21
47.763691113919073
  0
LINE
  8
_0-1_EL-SL300SAIMEI
  6
CONTINUOUS
 62
    7
 10
32.313464614594295
 20
47.93198402837357
 11
32.017186402862805
 21
48.356419792156274
  0
LINE
  8
_0-1_EL-SL300SAIMEI
  6
CONTINUOUS
 62
    7
 10
33.371797947663119
 20
47.635705816642073
 11
33.159580065771706
 21
48.017422396407774
  0
LINE
  8
_0-1_EL-SL300SAIMEI
  6
CONTINUOUS
 62
    7
 10
43.48935436874482
 20
33.709424081842378
 11
42.3455826676418
 21
34.724693721345467
  0
LINE
  8
_0-1_EL-SL300SAIMEI
  6
CONTINUOUS
 62
    7
 10
44.124629976224817
 20
32.904305266939481
 11
43.48935436874482
 21
33.709424081842378
  0
LINE
  8
_0-1_EL-SL300SAIMEI
  6
CONTINUOUS
 62
    7
 10
44.886685097562101
 20
31.506974538122172
 11
44.124629976224817
 21
32.904305266939481
  0
LINE
  8
_0-1_EL-SL300SAIMEI
  6
CONTINUOUS
 62
    7
 10
45.393803152990913
 20
29.89897622038178
 11
44.886685097562101
 21
31.506974538122172
  0
LINE
  8
_0-1_EL-SL300SAIMEI
  6
CONTINUOUS
 62
    7
 10
45.563301850865209
 20
28.755376774053079
 11
45.393803152990913
 21
29.89897622038178
  0
LINE
  8
_0-1_EL-SL300SAIMEI
  6
CONTINUOUS
 62
    7
 10
45.606021034882311
 20
27.612638601595769
 11
45.563301850865209
 21
28.755376774053079
  0
LINE
  8
_0-1_EL-SL300SAIMEI
  6
CONTINUOUS
 62
    7
 10
45.520582666848114
 20
26.46903915526708
 11
45.606021034882311
 21
27.612638601595769
  0
LINE
  8
_0-1_EL-SL300SAIMEI
  6
CONTINUOUS
 62
    7
 10
49.627136485265908
 20
55.256429284788972
 11
49.669855669283024
 21
55.383036543871867
  0
LINE
  8
_0-1_EL-SL300SAIMEI
  6
CONTINUOUS
 62
    7
 10
50.135632578888803
 20
55.636595571586284
 11
50.135632578888803
 21
55.67931475560335
  0
LINE
  8
_0-1_EL-SL300SAIMEI
  6
CONTINUOUS
 62
    7
 10
50.262412092745997
 20
55.636595571586284
 11
50.262412092745997
 21
55.67931475560335
  0
LINE
  8
_0-1_EL-SL300SAIMEI
  6
CONTINUOUS
 62
    7
 10
50.770908186368821
 20
55.129305261383287
 11
50.770908186368821
 21
55.256429284788972
  0
LINE
  8
_0-1_EL-SL300SAIMEI
  6
CONTINUOUS
 62
    7
 10
39.001083970561304
 20
47.763691113919073
 11
39.043803154578413
 21
47.763691113919073
  0
LINE
  8
_0-1_EL-SL300SAIMEI
  6
CONTINUOUS
 62
    7
 10
33.49857746152032
 20
47.594364670819068
 11
33.413139093486123
 21
47.635705816642073
  0
LINE
  8
_0-1_EL-SL300SAIMEI
  6
CONTINUOUS
 62
    7
 10
33.329078763646024
 20
48.017422396407774
 11
33.286359579628908
 21
48.017422396407774
  0
LINE
  8
_0-1_EL-SL300SAIMEI
  6
CONTINUOUS
 62
    7
 10
39.679078762058523
 20
47.339255350136263
 11
39.636359578041407
 21
47.339255350136263
  0
LINE
  8
_0-1_EL-SL300SAIMEI
  6
CONTINUOUS
 62
    7
 10
33.286359579628908
 20
48.017422396407774
 11
33.159580065771706
 21
48.017422396407774
  0
LINE
  8
_0-1_EL-SL300SAIMEI
  6
CONTINUOUS
 62
    7
 10
33.371797947663119
 20
47.635705816642073
 11
33.413139093486123
 21
47.635705816642073
  0
LINE
  8
_0-1_EL-SL300SAIMEI
  6
CONTINUOUS
 62
    7
 10
53.267913394077908
 20
54.790307865634681
 11
53.267913394077908
 21
54.663700606551657
  0
LINE
  8
_0-1_EL-SL300SAIMEI
  6
CONTINUOUS
 62
    7
 10
53.48013127596932
 20
54.790307865634681
 11
53.437412091952218
 21
54.663700606551657
  0
LINE
  8
_0-1_EL-SL300SAIMEI
  6
CONTINUOUS
 62
    7
 10
54.538464609037987
 20
54.578262238517489
 11
54.495745425021013
 21
54.494374163451688
  0
LINE
  8
_0-1_EL-SL300SAIMEI
  6
CONTINUOUS
 62
    7
 10
43.193076157013323
 20
56.567977136023558
 11
43.150356972996214
 21
56.567977136023558
  0
LINE
  8
_0-1_EL-SL300SAIMEI
  6
CONTINUOUS
 62
    7
 10
47.340971121254121
 20
56.18763859445199
 11
47.679968517002699
 21
56.18763859445199
  0
LINE
  8
_0-1_EL-SL300SAIMEI
  6
CONTINUOUS
 62
    7
 10
44.928026243385098
 20
56.314762617857703
 11
45.182963309293598
 21
56.314762617857703
  0
LINE
  8
_0-1_EL-SL300SAIMEI
  6
CONTINUOUS
 62
    7
 10
45.520582666848114
 20
56.314762617857703
 11
45.182963309293598
 21
56.314762617857703
  0
LINE
  8
_0-1_EL-SL300SAIMEI
  6
CONTINUOUS
 62
    7
 10
33.964354371126007
 20
53.182309547894278
 11
33.921635187108912
 21
53.182309547894278
  0
LINE
  8
_0-1_EL-SL300SAIMEI
  6
CONTINUOUS
 62
    7
 10
32.2707454305772
 20
53.774693716582973
 11
32.397524944434402
 21
53.774693716582973
  0
LINE
  8
_0-1_EL-SL300SAIMEI
  6
CONTINUOUS
 62
    7
 10
58.30602103170731
 20
54.028424999071667
 11
40.906910793001494
 21
54.790307865634681
  0
LINE
  8
_0-1_EL-SL300SAIMEI
  6
CONTINUOUS
 62
    7
 10
40.780131279144321
 20
54.833027049651783
 11
57.882963306118597
 21
54.070971928314471
  0
LINE
  8
_0-1_EL-SL300SAIMEI
  6
CONTINUOUS
 62
    7
 10
39.425519734344107
 20
54.959978818283169
 11
39.932637789772919
 21
54.917259634266074
  0
LINE
  8
_0-1_EL-SL300SAIMEI
  6
CONTINUOUS
 62
    7
 10
39.12924152261261
 20
55.002698002300271
 11
39.636359578041407
 21
55.002698002300271
  0
LINE
  8
_0-1_EL-SL300SAIMEI
  6
CONTINUOUS
 62
    7
 10
38.704805758829799
 20
55.129305261383287
 11
40.357073553555622
 21
55.044039148123268
  0
LINE
  8
_0-1_EL-SL300SAIMEI
  6
CONTINUOUS
 62
    7
 10
41.415406886624403
 20
55.002698002300271
 11
41.965244126070203
 21
54.959978818283169
  0
LINE
  8
_0-1_EL-SL300SAIMEI
  6
CONTINUOUS
 62
    7
 10
34.471472426554826
 20
55.552707496520497
 11
34.683690308446188
 21
55.509643802954891
  0
LINE
  8
_0-1_EL-SL300SAIMEI
  6
CONTINUOUS
 62
    7
 10
54.834742820769499
 20
54.663700606551657
 11
54.622524938878094
 21
54.663700606551657
  0
LINE
  8
_0-1_EL-SL300SAIMEI
  6
CONTINUOUS
 62
    7
 10
34.937249336160605
 20
55.552707496520497
 11
35.106748034034901
 21
55.552707496520497
  0
LINE
  8
_0-1_EL-SL300SAIMEI
  6
CONTINUOUS
 62
    7
 10
34.9799685201777
 20
55.595426680537457
 11
34.683690308446188
 21
55.636595571586284
  0
LINE
  8
_0-1_EL-SL300SAIMEI
  6
CONTINUOUS
 62
    7
 10
53.267913394077908
 20
54.790307865634681
 11
53.48013127596932
 21
54.790307865634681
  0
LINE
  8
_0-1_EL-SL300SAIMEI
  6
CONTINUOUS
 62
    7
 10
38.747524942846901
 20
55.552707496520497
 11
42.007963310087298
 21
55.425755727888998
  0
LINE
  8
_0-1_EL-SL300SAIMEI
  6
CONTINUOUS
 62
    7
 10
53.183853064237823
 20
54.917259634266074
 11
53.394692907935124
 21
54.917259634266074
  0
LINE
  8
_0-1_EL-SL300SAIMEI
  6
CONTINUOUS
 62
    7
 10
41.583527546304602
 20
55.468474911906078
 11
37.350194214029621
 21
55.67931475560335
  0
LINE
  8
_0-1_EL-SL300SAIMEI
  6
CONTINUOUS
 62
    7
 10
32.440244128451496
 20
53.901645485214473
 11
31.847687704988491
 21
53.985705815054558
  0
LINE
  8
_0-1_EL-SL300SAIMEI
  6
CONTINUOUS
 62
    7
 10
32.440244128451496
 20
53.985705815054558
 11
31.804968520971421
 21
54.113691112331573
  0
LINE
  8
_0-1_EL-SL300SAIMEI
  6
CONTINUOUS
 62
    7
 10
39.595018432218417
 20
47.298086459087564
 11
39.679078762058523
 21
47.255367275070491
  0
LINE
  8
_0-1_EL-SL300SAIMEI
  6
CONTINUOUS
 62
    7
 10
39.043803154578413
 20
47.763691113919073
 11
39.595018432218417
 21
47.298086459087564
  0
LINE
  8
_0-1_EL-SL300SAIMEI
  6
CONTINUOUS
 62
    7
 10
36.969855672458017
 20
59.277372480398249
 11
37.562412095920998
 21
58.261758331346648
  0
LINE
  8
_0-1_EL-SL300SAIMEI
  6
CONTINUOUS
 62
    7
 10
56.062574851712618
 20
54.155376767703082
 11
56.062574851712618
 21
54.240642880963073
  0
LINE
  8
_0-1_EL-SL300SAIMEI
  6
CONTINUOUS
 62
    7
 10
56.569692907141388
 20
54.494374163451688
 11
56.569692907141388
 21
54.53709334746879
  0
LINE
  8
_0-1_EL-SL300SAIMEI
  6
CONTINUOUS
 62
    7
 10
56.655131275175599
 20
54.494374163451688
 11
56.655131275175599
 21
54.53709334746879
  0
LINE
  8
_0-1_EL-SL300SAIMEI
  6
CONTINUOUS
 62
    7
 10
56.951409486907018
 20
46.577372483573278
 11
58.30602103170731
 21
54.028424999071667
  0
LINE
  8
_0-1_EL-SL300SAIMEI
  6
CONTINUOUS
 62
    7
 10
58.348740215724412
 20
54.028424999071667
 11
56.992750632730008
 21
46.577372483573278
  0
LINE
  8
_0-1_EL-SL300SAIMEI
  6
CONTINUOUS
 62
    7
 10
49.712574853300119
 20
55.509643802954891
 11
46.452136486059608
 21
55.636595571586284
  0
LINE
  8
_0-1_EL-SL300SAIMEI
  6
CONTINUOUS
 62
    7
 10
42.049304455910303
 20
55.848641198703383
 11
41.668965914338813
 21
55.891360382720464
  0
LINE
  8
_0-1_EL-SL300SAIMEI
  6
CONTINUOUS
 62
    7
 10
37.392913398046687
 20
56.061031335369094
 11
41.668965914338813
 21
55.891360382720464
  0
LINE
  8
_0-1_EL-SL300SAIMEI
  6
CONTINUOUS
 62
    7
 10
49.753915999123123
 20
55.552707496520497
 11
46.452136486059608
 21
55.67931475560335
  0
LINE
  8
_0-1_EL-SL300SAIMEI
  6
CONTINUOUS
 62
    7
 10
42.049304455910303
 20
55.891360382720464
 11
41.4567480324474
 21
55.934424076286177
  0
LINE
  8
_0-1_EL-SL300SAIMEI
  6
CONTINUOUS
 62
    7
 10
39.298740220486913
 20
56.018312151351964
 11
39.382800550327012
 21
56.018312151351964
  0
LINE
  8
_0-1_EL-SL300SAIMEI
  6
CONTINUOUS
 62
    7
 10
38.917023640721197
 20
56.061031335369094
 11
38.959742824738314
 21
56.061031335369094
  0
LINE
  8
_0-1_EL-SL300SAIMEI
  6
CONTINUOUS
 62
    7
 10
39.256021036469811
 20
56.061031335369094
 11
39.298740220486913
 21
56.061031335369094
  0
LINE
  8
_0-1_EL-SL300SAIMEI
  6
CONTINUOUS
 62
    7
 10
39.170582668435607
 20
56.061031335369094
 11
39.12924152261261
 21
56.061031335369094
  0
LINE
  8
_0-1_EL-SL300SAIMEI
  6
CONTINUOUS
 62
    7
 10
38.832963310881098
 20
56.102372481192063
 11
38.790244126864003
 21
56.102372481192063
  0
LINE
  8
_0-1_EL-SL300SAIMEI
  6
CONTINUOUS
 62
    7
 10
38.790244126864003
 20
56.145091665209193
 11
38.747524942846901
 21
56.145091665209193
  0
LINE
  8
_0-1_EL-SL300SAIMEI
  6
CONTINUOUS
 62
    7
 10
40.398414699378613
 20
56.102372481192063
 11
38.917023640721197
 21
56.18763859445199
  0
LINE
  8
_0-1_EL-SL300SAIMEI
  6
CONTINUOUS
 62
    7
 10
35.233527547892102
 20
56.357309547100563
 11
36.038301853246402
 21
56.314762617857703
  0
LINE
  8
_0-1_EL-SL300SAIMEI
  6
CONTINUOUS
 62
    7
 10
32.313464614594295
 20
56.526808244974752
 11
32.820582670023114
 21
56.484089060957793
  0
LINE
  8
_0-1_EL-SL300SAIMEI
  6
CONTINUOUS
 62
    7
 10
47.467750635111287
 20
56.18763859445199
 11
47.299629975431102
 21
56.18763859445199
  0
LINE
  8
_0-1_EL-SL300SAIMEI
  6
CONTINUOUS
 62
    7
 10
45.140244125276503
 20
56.314762617857703
 11
44.886685097562101
 21
56.314762617857703
  0
LINE
  8
_0-1_EL-SL300SAIMEI
  6
CONTINUOUS
 62
    7
 10
47.553189003145498
 20
56.18763859445199
 11
47.340971121254121
 21
56.18763859445199
  0
LINE
  8
_0-1_EL-SL300SAIMEI
  6
CONTINUOUS
 62
    7
 10
35.954241523406303
 20
56.694928904654951
 11
38.663464613006802
 21
56.611040829589179
  0
LINE
  8
_0-1_EL-SL300SAIMEI
  6
CONTINUOUS
 62
    7
 10
32.397524944434402
 20
56.864255347755098
 11
32.863301854040209
 21
56.864255347755098
  0
LINE
  8
_0-1_EL-SL300SAIMEI
  6
CONTINUOUS
 62
    7
 10
33.837574857268805
 20
56.823086456706399
 11
33.964354371126007
 21
56.823086456706399
  0
LINE
  8
_0-1_EL-SL300SAIMEI
  6
CONTINUOUS
 62
    7
 10
45.520582666848114
 20
56.314762617857703
 11
45.267023639133697
 21
56.314762617857703
  0
LINE
  8
_0-1_EL-SL300SAIMEI
  6
CONTINUOUS
 62
    7
 10
47.553189003145498
 20
56.18763859445199
 11
47.679968517002699
 21
56.18763859445199
  0
LINE
  8
_0-1_EL-SL300SAIMEI
  6
CONTINUOUS
 62
    7
 10
47.553189003145498
 20
56.18763859445199
 11
45.520582666848114
 21
56.314762617857703
  0
LINE
  8
_0-1_EL-SL300SAIMEI
  6
CONTINUOUS
 62
    7
 10
39.001083970561304
 20
56.653760013606252
 11
40.441133883395707
 21
56.611040829589179
  0
LINE
  8
_0-1_EL-SL300SAIMEI
  6
CONTINUOUS
 62
    7
 10
34.810469822303403
 20
56.864255347755098
 11
33.964354371126007
 21
56.864255347755098
  0
LINE
  8
_0-1_EL-SL300SAIMEI
  6
CONTINUOUS
 62
    7
 10
32.99008136789741
 20
57.033926300403557
 11
31.042913399634191
 21
57.119364668437761
  0
LINE
  8
_0-1_EL-SL300SAIMEI
  6
CONTINUOUS
 62
    7
 10
36.038301853246402
 20
57.245971927520664
 11
38.747524942846901
 21
57.119364668437761
  0
LINE
  8
_0-1_EL-SL300SAIMEI
  6
CONTINUOUS
 62
    7
 10
47.8067480308599
 20
56.823086456706399
 11
45.351083968973803
 21
56.906974531772171
  0
LINE
  8
_0-1_EL-SL300SAIMEI
  6
CONTINUOUS
 62
    7
 10
34.937249336160605
 20
57.585141578043597
 11
33.709417305217514
 21
57.626310469092303
  0
LINE
  8
_0-1_EL-SL300SAIMEI
  6
CONTINUOUS
 62
    7
 10
42.938139091104809
 20
57.288691111537851
 11
44.081566282659203
 21
57.245971927520664
  0
LINE
  8
_0-1_EL-SL300SAIMEI
  6
CONTINUOUS
 62
    7
 10
36.123740221280613
 20
57.753262237723803
 11
35.742023641514898
 21
57.795981421740869
  0
LINE
  8
_0-1_EL-SL300SAIMEI
  6
CONTINUOUS
 62
    7
 10
37.605131279938099
 20
57.712093346675104
 11
37.942750637492523
 21
57.712093346675104
  0
LINE
  8
_0-1_EL-SL300SAIMEI
  6
CONTINUOUS
 62
    7
 10
37.942750637492523
 20
57.795981421740869
 11
37.605131279938099
 21
57.795981421740869
  0
LINE
  8
_0-1_EL-SL300SAIMEI
  6
CONTINUOUS
 62
    7
 10
35.784742825532
 20
57.881419789775073
 11
36.123740221280613
 21
57.881419789775073
  0
LINE
  8
_0-1_EL-SL300SAIMEI
  6
CONTINUOUS
 62
    7
 10
36.207800551120698
 20
57.965307864840902
 11
36.123740221280613
 21
57.965307864840902
  0
LINE
  8
_0-1_EL-SL300SAIMEI
  6
CONTINUOUS
 62
    7
 10
34.640971124429122
 20
58.051090742423703
 11
35.318965915926313
 21
58.008027048857983
  0
LINE
  8
_0-1_EL-SL300SAIMEI
  6
CONTINUOUS
 62
    7
 10
35.149467218052003
 20
58.134978817489468
 11
35.233527547892102
 21
58.134978817489468
  0
LINE
  8
_0-1_EL-SL300SAIMEI
  6
CONTINUOUS
 62
    7
 10
43.277136486853408
 20
56.526808244974752
 11
43.319855670870517
 21
56.526808244974752
  0
LINE
  8
_0-1_EL-SL300SAIMEI
  6
CONTINUOUS
 62
    7
 10
43.234417302836313
 20
56.526808244974752
 11
43.319855670870517
 21
56.526808244974752
  0
LINE
  8
_0-1_EL-SL300SAIMEI
  6
CONTINUOUS
 62
    7
 10
43.234417302836313
 20
56.567977136023558
 11
43.193076157013323
 21
56.567977136023558
  0
LINE
  8
_0-1_EL-SL300SAIMEI
  6
CONTINUOUS
 62
    7
 10
43.234417302836313
 20
56.526808244974752
 11
43.234417302836313
 21
56.567977136023558
  0
LINE
  8
_0-1_EL-SL300SAIMEI
  6
CONTINUOUS
 62
    7
 10
34.091133884983208
 20
55.805922014686253
 11
33.752136489234609
 21
55.891360382720464
  0
LINE
  8
_0-1_EL-SL300SAIMEI
  6
CONTINUOUS
 62
    7
 10
44.758527545510788
 20
56.314762617857703
 11
44.124629976224817
 21
56.398650692923589
  0
LINE
  8
_0-1_EL-SL300SAIMEI
  6
CONTINUOUS
 62
    7
 10
45.267023639133697
 20
56.906974531772171
 11
44.208690306064923
 21
57.076645484420688
  0
LINE
  8
_0-1_EL-SL300SAIMEI
  6
CONTINUOUS
 62
    7
 10
43.107637788979112
 20
56.526808244974752
 11
43.446635184727718
 21
56.484089060957793
  0
LINE
  8
_0-1_EL-SL300SAIMEI
  6
CONTINUOUS
 62
    7
 10
43.150356972996214
 20
56.526808244974752
 11
43.362574854887619
 21
56.526808244974752
  0
LINE
  8
_0-1_EL-SL300SAIMEI
  6
CONTINUOUS
 62
    7
 10
43.319855670870517
 20
56.526808244974752
 11
43.193076157013323
 21
56.526808244974752
  0
LINE
  8
_0-1_EL-SL300SAIMEI
  6
CONTINUOUS
 62
    7
 10
43.362574854887619
 20
56.526808244974752
 11
43.277136486853408
 21
56.567977136023558
  0
LINE
  8
_0-1_EL-SL300SAIMEI
  6
CONTINUOUS
 62
    7
 10
32.77924152420011
 20
56.102372481192063
 11
34.091133884983208
 21
55.848641198703383
  0
LINE
  8
_0-1_EL-SL300SAIMEI
  6
CONTINUOUS
 62
    7
 10
40.737412095127219
 20
54.790307865634681
 11
40.059417303630013
 21
54.917259634266074
  0
LINE
  8
_0-1_EL-SL300SAIMEI
  6
CONTINUOUS
 62
    7
 10
40.271635185521411
 20
54.917259634266074
 11
40.65335176528712
 21
54.876090743217368
  0
LINE
  8
_0-1_EL-SL300SAIMEI
  6
CONTINUOUS
 62
    7
 10
31.128351767668399
 20
56.694928904654951
 11
31.635469823097122
 21
56.567977136023558
  0
LINE
  8
_0-1_EL-SL300SAIMEI
  6
CONTINUOUS
 62
    7
 10
31.169692913491399
 20
57.076645484420688
 11
31.67818900711422
 21
56.949693715789302
  0
LINE
  8
_0-1_EL-SL300SAIMEI
  6
CONTINUOUS
 62
    7
 10
32.863301854040209
 20
56.864255347755098
 11
34.217913398840423
 21
56.611040829589179
  0
LINE
  8
_0-1_EL-SL300SAIMEI
  6
CONTINUOUS
 62
    7
 10
34.810469822303403
 20
56.653760013606252
 11
33.837574857268805
 21
56.823086456706399
  0
LINE
  8
_0-1_EL-SL300SAIMEI
  6
CONTINUOUS
 62
    7
 10
42.007963310087298
 20
55.425755727888998
 11
41.583527546304602
 21
55.468302657131751
  0
LINE
  8
_0-1_EL-SL300SAIMEI
  6
CONTINUOUS
 62
    7
 10
33.964354371126007
 20
56.864255347755098
 11
34.810469822303403
 21
56.737648088672188
  0
LINE
  8
_0-1_EL-SL300SAIMEI
  6
CONTINUOUS
 62
    7
 10
34.048414700966106
 20
56.864255347755098
 11
33.709417305217514
 21
56.949693715789302
  0
LINE
  8
_0-1_EL-SL300SAIMEI
  6
CONTINUOUS
 62
    7
 10
38.790244126864003
 20
56.102372481192063
 11
38.917023640721197
 21
56.061031335369094
  0
LINE
  8
_0-1_EL-SL300SAIMEI
  6
CONTINUOUS
 62
    7
 10
39.256021036469811
 20
56.061031335369094
 11
39.298740220486913
 21
56.018312151351964
  0
LINE
  8
_0-1_EL-SL300SAIMEI
  6
CONTINUOUS
 62
    7
 10
39.382800550327012
 20
56.018312151351964
 11
39.298740220486913
 21
56.061031335369094
  0
LINE
  8
_0-1_EL-SL300SAIMEI
  6
CONTINUOUS
 62
    7
 10
38.874304456704103
 20
56.145091665209193
 11
38.790244126864003
 21
56.145091665209193
  0
LINE
  8
_0-1_EL-SL300SAIMEI
  6
CONTINUOUS
 62
    7
 10
39.298740220486913
 20
56.061031335369094
 11
39.170582668435607
 21
56.061031335369094
  0
LINE
  8
_0-1_EL-SL300SAIMEI
  6
CONTINUOUS
 62
    7
 10
37.858690307652424
 20
56.357309547100563
 11
38.917023640721197
 21
56.18763859445199
  0
LINE
  8
_0-1_EL-SL300SAIMEI
  6
CONTINUOUS
 62
    7
 10
33.668076159394509
 20
57.119364668437761
 11
35.106748034034901
 21
56.823086456706399
  0
LINE
  8
_0-1_EL-SL300SAIMEI
  6
CONTINUOUS
 62
    7
 10
43.955131278350599
 20
55.383036543871867
 11
42.557800549533198
 21
55.636595571586284
  0
LINE
  8
_0-1_EL-SL300SAIMEI
  6
CONTINUOUS
 62
    7
 10
41.668965914338813
 20
55.891360382720464
 11
40.398414699378613
 21
56.102372481192063
  0
LINE
  8
_0-1_EL-SL300SAIMEI
  6
CONTINUOUS
 62
    7
 10
44.420908187956321
 20
55.509643802954891
 11
42.473740219693113
 21
55.848641198703383
  0
LINE
  8
_0-1_EL-SL300SAIMEI
  6
CONTINUOUS
 62
    7
 10
38.663464613006802
 20
56.694928904654951
 11
39.001083970561304
 21
56.653760013606252
  0
LINE
  8
_0-1_EL-SL300SAIMEI
  6
CONTINUOUS
 62
    7
 10
33.709417305217514
 20
57.626310469092303
 11
35.192186402069098
 21
57.373095950926491
  0
LINE
  8
_0-1_EL-SL300SAIMEI
  6
CONTINUOUS
 62
    7
 10
40.441133883395707
 20
56.611040829589179
 11
38.663464613006802
 21
56.906974531772171
  0
LINE
  8
_0-1_EL-SL300SAIMEI
  6
CONTINUOUS
 62
    7
 10
43.403916000710623
 20
56.18763859445199
 11
42.515081365516103
 21
56.314762617857703
  0
LINE
  8
_0-1_EL-SL300SAIMEI
  6
CONTINUOUS
 62
    7
 10
38.747524942846901
 20
57.119364668437761
 11
37.519692911903903
 21
57.33037676690936
  0
LINE
  8
_0-1_EL-SL300SAIMEI
  6
CONTINUOUS
 62
    7
 10
35.192186402069098
 20
57.838700605758
 11
34.640971124429122
 21
57.965307864840902
  0
LINE
  8
_0-1_EL-SL300SAIMEI
  6
CONTINUOUS
 62
    7
 10
35.233527547892102
 20
57.965307864840902
 11
34.640971124429122
 21
58.051090742423703
  0
LINE
  8
_0-1_EL-SL300SAIMEI
  6
CONTINUOUS
 62
    7
 10
43.150356972996214
 20
56.567977136023558
 11
44.039191608190698
 21
56.441369876940662
  0
LINE
  8
_0-1_EL-SL300SAIMEI
  6
CONTINUOUS
 62
    7
 10
36.123740221280613
 20
57.881419789775073
 11
35.318965915926313
 21
58.008027048857983
  0
LINE
  8
_0-1_EL-SL300SAIMEI
  6
CONTINUOUS
 62
    7
 10
57.882963306118597
 20
54.070971928314471
 11
57.20496851462142
 21
54.198095951720184
  0
LINE
  8
_0-1_EL-SL300SAIMEI
  6
CONTINUOUS
 62
    7
 10
56.146635181552718
 20
54.410141578837383
 11
54.622524938878094
 21
54.663700606551657
  0
LINE
  8
_0-1_EL-SL300SAIMEI
  6
CONTINUOUS
 62
    7
 10
53.183853064237823
 20
54.917259634266074
 11
50.770908186368821
 21
55.340317359854801
  0
LINE
  8
_0-1_EL-SL300SAIMEI
  6
CONTINUOUS
 62
    7
 10
58.30602103170731
 20
54.028424999071667
 11
57.162249330604318
 21
54.240642880963073
  0
LINE
  8
_0-1_EL-SL300SAIMEI
  6
CONTINUOUS
 62
    7
 10
56.18935436556982
 20
54.410141578837383
 11
54.834742820769499
 21
54.663700606551657
  0
LINE
  8
_0-1_EL-SL300SAIMEI
  6
CONTINUOUS
 62
    7
 10
53.394692907935124
 20
54.917259634266074
 11
50.770908186368821
 21
55.383036543871867
  0
LINE
  8
_0-1_EL-SL300SAIMEI
  6
CONTINUOUS
 62
    7
 10
37.605131279938099
 20
57.838700605758
 11
37.942750637492523
 21
57.795981421740869
  0
LINE
  8
_0-1_EL-SL300SAIMEI
  6
CONTINUOUS
 62
    7
 10
47.171472423379818
 20
56.18763859445199
 11
47.087412093539719
 21
56.230357778469063
  0
LINE
  8
_0-1_EL-SL300SAIMEI
  6
CONTINUOUS
 62
    7
 10
42.980858275121911
 20
57.288691111537851
 11
44.165971122047807
 21
57.076645484420688
  0
LINE
  8
_0-1_EL-SL300SAIMEI
  6
CONTINUOUS
 62
    7
 10
43.234417302836313
 20
56.567977136023558
 11
43.277136486853408
 21
56.567977136023558
  0
LINE
  8
_0-1_EL-SL300SAIMEI
  6
CONTINUOUS
 62
    7
 10
47.765406885036903
 20
56.823086456706399
 11
46.664354367951013
 21
56.992757409354859
  0
LINE
  8
_0-1_EL-SL300SAIMEI
  6
CONTINUOUS
 62
    7
 10
43.403916000710623
 20
56.484089060957793
 11
43.362574854887619
 21
56.526635990200603
  0
LINE
  8
_0-1_EL-SL300SAIMEI
  6
CONTINUOUS
 62
    7
 10
42.854078761264709
 20
56.694928904654951
 11
42.980858275121911
 21
56.653760013606252
  0
LINE
  8
_0-1_EL-SL300SAIMEI
  6
CONTINUOUS
 62
    7
 10
53.267913394077908
 20
54.790307865634681
 11
53.183853064237823
 21
54.917259634266074
  0
LINE
  8
_0-1_EL-SL300SAIMEI
  6
CONTINUOUS
 62
    7
 10
53.394692907935124
 20
54.917259634266074
 11
53.48013127596932
 21
54.790307865634681
  0
LINE
  8
_0-1_EL-SL300SAIMEI
  6
CONTINUOUS
 62
    7
 10
41.922524942053087
 20
34.894364673994069
 11
33.455858277503225
 21
36.459643807717278
  0
LINE
  8
_0-1_EL-SL300SAIMEI
  6
CONTINUOUS
 62
    7
 10
39.595018432218417
 20
47.381974534153358
 11
39.086522338595508
 21
47.848095953307677
  0
LINE
  8
_0-1_EL-SL300SAIMEI
  6
CONTINUOUS
 62
    7
 10
32.017186402862805
 20
48.652698003887771
 11
31.762249336954319
 21
48.652698003887771
  0
LINE
  8
_0-1_EL-SL300SAIMEI
  6
CONTINUOUS
 62
    7
 10
22.915244130832701
 20
18.467977145548591
 11
23.720018436187111
 21
18.467977145548591
  0
LINE
  8
_0-1_EL-SL300SAIMEI
  6
CONTINUOUS
 62
    7
 10
22.067750641461291
 20
18.594928914180091
 11
22.915244130832701
 21
18.467977145548591
  0
LINE
  8
_0-1_EL-SL300SAIMEI
  6
CONTINUOUS
 62
    7
 10
25.41224933854182
 20
37.517977140786073
 11
24.9051312831131
 21
37.603760018368781
  0
LINE
  8
_0-1_EL-SL300SAIMEI
  6
CONTINUOUS
 62
    7
 10
26.470582671610611
 20
37.13763859921449
 11
25.41224933854182
 21
37.517977140786073
  0
LINE
  8
_0-1_EL-SL300SAIMEI
  6
CONTINUOUS
 62
    7
 10
22.195908193512601
 20
18.892757418879921
 11
22.957963314849799
 21
18.764255357280099
  0
LINE
  8
_0-1_EL-SL300SAIMEI
  6
CONTINUOUS
 62
    7
 10
24.650194217204621
 20
37.81425535251757
 11
23.761359582010112
 21
37.942757414117388
  0
LINE
  8
_0-1_EL-SL300SAIMEI
  6
CONTINUOUS
 62
    7
 10
22.067750641461291
 20
18.892757418879921
 11
22.957963314849799
 21
18.764255357280099
  0
LINE
  8
_0-1_EL-SL300SAIMEI
  6
CONTINUOUS
 62
    7
 10
23.761359582010112
 20
37.942757414117388
 11
23.846797950044309
 21
37.942757414117388
  0
LINE
  8
_0-1_EL-SL300SAIMEI
  6
CONTINUOUS
 62
    7
 10
32.3548057604173
 20
36.884424081048678
 11
32.820582670023114
 21
36.672033944382981
  0
LINE
  8
_0-1_EL-SL300SAIMEI
  6
CONTINUOUS
 62
    7
 10
22.1104698254784
 20
19.442422403551472
 11
23.084742828707
 21
19.188691121062771
  0
LINE
  8
_0-1_EL-SL300SAIMEI
  6
CONTINUOUS
 62
    7
 10
21.68741209988972
 20
19.653262247248769
 11
22.1104698254784
 21
19.442422403551472
  0
LINE
  8
_0-1_EL-SL300SAIMEI
  6
CONTINUOUS
 62
    7
 10
32.313464614594295
 20
36.884424081048678
 11
32.3548057604173
 21
36.884424081048678
  0
LINE
  8
_0-1_EL-SL300SAIMEI
  6
CONTINUOUS
 62
    7
 10
24.396635189490219
 20
37.687648093434582
 11
24.353916005473121
 21
37.687648093434582
  0
LINE
  8
_0-1_EL-SL300SAIMEI
  6
CONTINUOUS
 62
    7
 10
24.353916005473121
 20
37.687648093434582
 11
24.778351769255899
 21
37.644928909417558
  0
LINE
  8
_0-1_EL-SL300SAIMEI
  6
CONTINUOUS
 62
    7
 10
32.143965916719999
 20
36.925592972097384
 11
32.313464614594295
 21
36.884424081048678
  0
LINE
  8
_0-1_EL-SL300SAIMEI
  6
CONTINUOUS
 62
    7
 10
23.720018436187111
 20
18.976645493945721
 11
23.2542415265813
 21
18.976645493945721
  0
LINE
  8
_0-1_EL-SL300SAIMEI
  6
CONTINUOUS
 62
    7
 10
22.61896591910131
 20
19.019364677962791
 11
23.2542415265813
 21
18.976645493945721
  0
LINE
  8
_0-1_EL-SL300SAIMEI
  6
CONTINUOUS
 62
    7
 10
32.058527548685788
 20
36.925592972097384
 11
32.143965916719999
 21
36.925592972097384
  0
LINE
  8
_0-1_EL-SL300SAIMEI
  6
CONTINUOUS
 62
    7
 10
26.047524946021902
 20
37.307309551863064
 11
25.540406890593101
 21
37.391369881703163
  0
LINE
  8
_0-1_EL-SL300SAIMEI
  6
CONTINUOUS
 62
    7
 10
31.93174803482859
 20
36.968312156114493
 11
32.058527548685788
 21
36.925592972097384
  0
LINE
  8
_0-1_EL-SL300SAIMEI
  6
CONTINUOUS
 62
    7
 10
22.61896591910131
 20
19.019364677962791
 11
23.507800554295709
 21
18.976645493945721
  0
LINE
  8
_0-1_EL-SL300SAIMEI
  6
CONTINUOUS
 62
    7
 10
31.762249336954319
 20
37.011031340131588
 11
31.93174803482859
 21
36.968312156114493
  0
LINE
  8
_0-1_EL-SL300SAIMEI
  6
CONTINUOUS
 62
    7
 10
31.762249336954319
 20
37.011031340131588
 11
31.50869030923992
 21
37.052372485954578
  0
LINE
  8
_0-1_EL-SL300SAIMEI
  6
CONTINUOUS
 62
    7
 10
24.016296647918619
 20
19.10342500780289
 11
24.989191612953199
 21
19.145971937045662
  0
LINE
  8
_0-1_EL-SL300SAIMEI
  6
CONTINUOUS
 62
    7
 10
23.084742828707
 20
19.188691121062771
 11
24.016296647918619
 21
19.10342500780289
  0
LINE
  8
_0-1_EL-SL300SAIMEI
  6
CONTINUOUS
 62
    7
 10
25.497687706575991
 20
37.434089065720258
 11
25.6244672204332
 21
37.434089065720258
  0
LINE
  8
_0-1_EL-SL300SAIMEI
  6
CONTINUOUS
 62
    7
 10
24.7356325852388
 20
19.10342500780289
 11
24.650194217204621
 21
19.10342500780289
  0
LINE
  8
_0-1_EL-SL300SAIMEI
  6
CONTINUOUS
 62
    7
 10
31.339191611365699
 20
37.095091669971687
 11
31.465971125222811
 21
37.052372485954578
  0
LINE
  8
_0-1_EL-SL300SAIMEI
  6
CONTINUOUS
 62
    7
 10
23.381021040438501
 20
36.418474916668579
 11
24.269855675633021
 21
36.545426685300079
  0
LINE
  8
_0-1_EL-SL300SAIMEI
  6
CONTINUOUS
 62
    7
 10
37.392913398046687
 20
56.441369876940662
 11
37.858690307652424
 21
56.357309547100563
  0
LINE
  8
_0-1_EL-SL300SAIMEI
  6
CONTINUOUS
 62
    7
 10
39.086522338595508
 20
47.848095953307677
 11
39.043803154578413
 21
47.848095953307677
  0
LINE
  8
_0-1_EL-SL300SAIMEI
  6
CONTINUOUS
 62
    7
 10
31.67818900711422
 20
48.73675833372787
 11
31.762249336954319
 21
48.652698003887771
  0
LINE
  8
_0-1_EL-SL300SAIMEI
  6
CONTINUOUS
 62
    7
 10
39.382800550327012
 20
56.061031335369094
 11
39.425519734344107
 21
56.061031335369094
  0
LINE
  8
_0-1_EL-SL300SAIMEI
  6
CONTINUOUS
 62
    7
 10
36.757637790566612
 20
59.320091664415379
 11
36.630858276709411
 21
59.362638593658303
  0
LINE
  8
_0-1_EL-SL300SAIMEI
  6
CONTINUOUS
 62
    7
 10
34.599629978606103
 20
55.764753123637547
 11
34.556910794588987
 21
55.764753123637547
  0
LINE
  8
_0-1_EL-SL300SAIMEI
  6
CONTINUOUS
 62
    7
 10
36.461359578835108
 20
60.124693714995487
 11
36.42001843301211
 21
59.998086455912592
  0
LINE
  8
_0-1_EL-SL300SAIMEI
  6
CONTINUOUS
 62
    7
 10
36.673577460726513
 20
60.124693714995487
 11
36.461359578835108
 21
60.124693714995487
  0
LINE
  8
_0-1_EL-SL300SAIMEI
  6
CONTINUOUS
 62
    7
 10
36.716296644743608
 20
59.955367271895462
 11
36.673577460726513
 21
60.124693714995487
  0
LINE
  8
_0-1_EL-SL300SAIMEI
  6
CONTINUOUS
 62
    7
 10
35.529805759623521
 20
43.022033942795481
 11
36.927136488440908
 21
47.212648091053389
  0
LINE
  8
_0-1_EL-SL300SAIMEI
  6
CONTINUOUS
 62
    7
 10
45.9863595764538
 20
57.753262237723803
 11
46.155858274328217
 21
57.753262237723803
  0
LINE
  8
_0-1_EL-SL300SAIMEI
  6
CONTINUOUS
 62
    7
 10
38.704805758829799
 20
55.129305261383287
 11
38.578026244972598
 21
55.129305261383287
  0
LINE
  8
_0-1_EL-SL300SAIMEI
  6
CONTINUOUS
 62
    7
 10
46.029078760471023
 20
57.753262237723803
 11
46.071797944488118
 21
57.753262237723803
  0
LINE
  8
_0-1_EL-SL300SAIMEI
  6
CONTINUOUS
 62
    7
 10
40.906910793001494
 20
54.833027049651783
 11
40.780131279144321
 21
54.876090743217368
  0
LINE
  8
_0-1_EL-SL300SAIMEI
  6
CONTINUOUS
 62
    7
 10
38.704805758829799
 20
56.102372481192063
 11
38.663464613006802
 21
56.102372481192063
  0
LINE
  8
_0-1_EL-SL300SAIMEI
  6
CONTINUOUS
 62
    7
 10
44.758527545510788
 20
56.314762617857703
 11
44.886685097562101
 21
56.314762617857703
  0
LINE
  8
_0-1_EL-SL300SAIMEI
  6
CONTINUOUS
 62
    7
 10
45.140244125276503
 20
56.314762617857703
 11
45.182963309293598
 21
56.314762617857703
  0
LINE
  8
_0-1_EL-SL300SAIMEI
  6
CONTINUOUS
 62
    7
 10
44.928026243385098
 20
56.314762617857703
 11
44.886685097562101
 21
56.314762617857703
  0
LINE
  8
_0-1_EL-SL300SAIMEI
  6
CONTINUOUS
 62
    7
 10
45.224304455116602
 20
57.965307864840902
 11
44.801246729527904
 21
57.838700605758
  0
LINE
  8
_0-1_EL-SL300SAIMEI
  6
CONTINUOUS
 62
    7
 10
46.113139090311122
 20
57.669374162657974
 11
45.648740218899412
 21
57.922588680823878
  0
LINE
  8
_0-1_EL-SL300SAIMEI
  6
CONTINUOUS
 62
    7
 10
45.224304455116602
 20
57.881419789775073
 11
45.267023639133697
 21
57.881419789775073
  0
LINE
  8
_0-1_EL-SL300SAIMEI
  6
CONTINUOUS
 62
    7
 10
41.287249334573097
 20
55.129305261383287
 11
41.076409490875797
 21
55.172024445400389
  0
LINE
  8
_0-1_EL-SL300SAIMEI
  6
CONTINUOUS
 62
    7
 10
45.140244125276503
 20
57.881419789775073
 11
45.224304455116602
 21
57.881419789775073
  0
LINE
  8
_0-1_EL-SL300SAIMEI
  6
CONTINUOUS
 62
    7
 10
40.694692911110117
 20
55.21371010077187
 11
40.567913397252923
 21
55.21371010077187
  0
LINE
  8
_0-1_EL-SL300SAIMEI
  6
CONTINUOUS
 62
    7
 10
40.780131279144321
 20
55.172024445400389
 11
40.821472424967318
 21
55.172024445400389
  0
LINE
  8
_0-1_EL-SL300SAIMEI
  6
CONTINUOUS
 62
    7
 10
45.393803152990913
 20
57.965307864840902
 11
45.224304455116602
 21
57.965307864840902
  0
LINE
  8
_0-1_EL-SL300SAIMEI
  6
CONTINUOUS
 62
    7
 10
45.436522337008007
 20
57.965307864840902
 11
45.393803152990913
 21
57.965307864840902
  0
LINE
  8
_0-1_EL-SL300SAIMEI
  6
CONTINUOUS
 62
    7
 10
45.351083968973803
 20
57.965307864840902
 11
45.393803152990913
 21
57.965307864840902
  0
LINE
  8
_0-1_EL-SL300SAIMEI
  6
CONTINUOUS
 62
    7
 10
40.780131279144321
 20
55.172024445400389
 11
40.694692911110117
 21
55.172024445400389
  0
LINE
  8
_0-1_EL-SL300SAIMEI
  6
CONTINUOUS
 62
    7
 10
42.980858275121911
 20
56.653760013606252
 11
43.150356972996214
 21
56.567977136023558
  0
LINE
  8
_0-1_EL-SL300SAIMEI
  6
CONTINUOUS
 62
    7
 10
47.467750635111287
 20
56.18763859445199
 11
47.553189003145498
 21
56.18763859445199
  0
LINE
  8
_0-1_EL-SL300SAIMEI
  6
CONTINUOUS
 62
    7
 10
47.171472423379818
 20
56.18763859445199
 11
47.299629975431102
 21
56.18763859445199
  0
LINE
  8
_0-1_EL-SL300SAIMEI
  6
CONTINUOUS
 62
    7
 10
40.821472424967318
 20
55.21371010077187
 11
40.694692911110117
 21
55.21371010077187
  0
LINE
  8
_0-1_EL-SL300SAIMEI
  6
CONTINUOUS
 62
    7
 10
40.906910793001494
 20
55.21371010077187
 11
40.821472424967318
 21
55.21371010077187
  0
LINE
  8
_0-1_EL-SL300SAIMEI
  6
CONTINUOUS
 62
    7
 10
47.299629975431102
 20
56.18763859445199
 11
47.340971121254121
 21
56.18763859445199
  0
LINE
  8
_0-1_EL-SL300SAIMEI
  6
CONTINUOUS
 62
    7
 10
45.648740218899412
 20
57.922588680823878
 11
45.563301850865209
 21
57.922588680823878
  0
LINE
  8
_0-1_EL-SL300SAIMEI
  6
CONTINUOUS
 62
    7
 10
41.033690306858688
 20
55.172024445400389
 11
41.076409490875797
 21
55.172024445400389
  0
LINE
  8
_0-1_EL-SL300SAIMEI
  6
CONTINUOUS
 62
    7
 10
44.801246729527904
 20
57.838700605758
 11
44.717186399687797
 21
57.838700605758
  0
LINE
  8
_0-1_EL-SL300SAIMEI
  6
CONTINUOUS
 62
    7
 10
46.155858274328217
 20
57.626310469092303
 11
46.113139090311122
 21
57.669374162657974
  0
LINE
  8
_0-1_EL-SL300SAIMEI
  6
CONTINUOUS
 62
    7
 10
39.679078762058523
 20
47.255367275070491
 11
39.721797946075618
 21
47.255367275070491
  0
LINE
  8
_0-1_EL-SL300SAIMEI
  6
CONTINUOUS
 62
    7
 10
37.392913398046687
 20
56.061031335369094
 11
35.233527547892102
 21
56.357309547100563
  0
LINE
  8
_0-1_EL-SL300SAIMEI
  6
CONTINUOUS
 62
    7
 10
35.106748034034901
 20
56.823086456706399
 11
35.954241523406303
 21
56.694928904654951
  0
LINE
  8
_0-1_EL-SL300SAIMEI
  6
CONTINUOUS
 62
    7
 10
36.038301853246402
 20
57.245971927520664
 11
35.192186402069098
 21
57.373095950926491
  0
LINE
  8
_0-1_EL-SL300SAIMEI
  6
CONTINUOUS
 62
    7
 10
34.810469822303403
 20
55.636595571586284
 11
34.9799685201777
 21
55.595426680537457
  0
LINE
  8
_0-1_EL-SL300SAIMEI
  6
CONTINUOUS
 62
    7
 10
36.081021037263497
 20
57.753262237723803
 11
36.123740221280613
 21
57.753262237723803
  0
LINE
  8
_0-1_EL-SL300SAIMEI
  6
CONTINUOUS
 62
    7
 10
56.528351761318397
 20
54.155376767703082
 11
56.655131275175599
 21
54.113691112331573
  0
LINE
  8
_0-1_EL-SL300SAIMEI
  6
CONTINUOUS
 62
    7
 10
50.601409488494518
 20
55.552707496520497
 11
50.389191606603198
 21
55.636595571586284
  0
LINE
  8
_0-1_EL-SL300SAIMEI
  6
CONTINUOUS
 62
    7
 10
57.035469816747117
 20
54.410141578837383
 11
56.824629973049824
 21
54.494374163451688
  0
LINE
  8
_0-1_EL-SL300SAIMEI
  6
CONTINUOUS
 62
    7
 10
50.008853065031587
 20
55.67931475560335
 11
49.882073551174393
 21
55.636595571586284
  0
LINE
  8
_0-1_EL-SL300SAIMEI
  6
CONTINUOUS
 62
    7
 10
56.442913393284194
 20
54.53709334746879
 11
56.316133879427021
 21
54.494374163451688
  0
LINE
  8
_0-1_EL-SL300SAIMEI
  6
CONTINUOUS
 62
    7
 10
50.092913394871694
 20
55.636595571586284
 11
50.135632578888803
 21
55.636595571586284
  0
LINE
  8
_0-1_EL-SL300SAIMEI
  6
CONTINUOUS
 62
    7
 10
56.485632577301303
 20
54.494374163451688
 11
56.569692907141388
 21
54.494374163451688
  0
LINE
  8
_0-1_EL-SL300SAIMEI
  6
CONTINUOUS
 62
    7
 10
50.092913394871694
 20
55.636595571586284
 11
50.008853065031587
 21
55.636595571586284
  0
LINE
  8
_0-1_EL-SL300SAIMEI
  6
CONTINUOUS
 62
    7
 10
56.442913393284194
 20
54.494374163451688
 11
56.485632577301303
 21
54.494374163451688
  0
LINE
  8
_0-1_EL-SL300SAIMEI
  6
CONTINUOUS
 62
    7
 10
50.135632578888803
 20
55.67931475560335
 11
50.008853065031587
 21
55.67931475560335
  0
LINE
  8
_0-1_EL-SL300SAIMEI
  6
CONTINUOUS
 62
    7
 10
56.569692907141388
 20
54.53709334746879
 11
56.442913393284194
 21
54.53709334746879
  0
LINE
  8
_0-1_EL-SL300SAIMEI
  6
CONTINUOUS
 62
    7
 10
50.262412092745997
 20
55.67931475560335
 11
50.135632578888803
 21
55.67931475560335
  0
LINE
  8
_0-1_EL-SL300SAIMEI
  6
CONTINUOUS
 62
    7
 10
56.655131275175599
 20
54.53709334746879
 11
56.569692907141388
 21
54.53709334746879
  0
LINE
  8
_0-1_EL-SL300SAIMEI
  6
CONTINUOUS
 62
    7
 10
56.7819107890328
 20
54.494374163451688
 11
56.824629973049824
 21
54.494374163451688
  0
LINE
  8
_0-1_EL-SL300SAIMEI
  6
CONTINUOUS
 62
    7
 10
56.865971118872807
 20
46.493312153733179
 11
56.992750632730008
 21
46.577372483573278
  0
LINE
  8
_0-1_EL-SL300SAIMEI
  6
CONTINUOUS
 62
    7
 10
30.789354371919821
 20
37.180357783231564
 11
32.99008136789741
 21
47.720971929901971
  0
LINE
  8
_0-1_EL-SL300SAIMEI
  6
CONTINUOUS
 62
    7
 10
34.556910794588987
 20
47.467757411736173
 11
32.143965916719999
 21
36.925592972097384
  0
LINE
  8
_0-1_EL-SL300SAIMEI
  6
CONTINUOUS
 62
    7
 10
31.551409493257019
 20
37.052372485954578
 11
34.091133884983208
 21
47.508926302784857
  0
LINE
  8
_0-1_EL-SL300SAIMEI
  6
CONTINUOUS
 62
    7
 10
34.30335176687462
 20
47.508926302784857
 11
31.804968520971421
 21
37.011031340131588
  0
LINE
  8
_0-1_EL-SL300SAIMEI
  6
CONTINUOUS
 62
    7
 10
31.762249336954319
 20
37.011031340131588
 11
34.30335176687462
 21
47.508926302784857
  0
LINE
  8
_0-1_EL-SL300SAIMEI
  6
CONTINUOUS
 62
    7
 10
34.30335176687462
 20
47.467757411736173
 11
31.804968520971421
 21
37.011031340131588
  0
LINE
  8
_0-1_EL-SL300SAIMEI
  6
CONTINUOUS
 62
    7
 10
33.709417305217514
 20
36.418474916668579
 11
36.630858276709411
 21
47.255367275070491
  0
LINE
  8
_0-1_EL-SL300SAIMEI
  6
CONTINUOUS
 62
    7
 10
36.716296644743608
 20
47.255367275070491
 11
33.752136489234609
 21
36.41830266189428
  0
LINE
  8
_0-1_EL-SL300SAIMEI
  6
CONTINUOUS
 62
    7
 10
51.024467214083188
 20
55.08675833214037
 11
56.062574851712618
 21
54.197923696945971
  0
LINE
  8
_0-1_EL-SL300SAIMEI
  6
CONTINUOUS
 62
    7
 10
48.950519731962814
 20
54.494374163451688
 11
48.907800547945698
 21
54.53709334746879
  0
LINE
  8
_0-1_EL-SL300SAIMEI
  6
CONTINUOUS
 62
    7
 10
43.107637788979112
 20
55.08675833214037
 11
42.896797945281811
 21
55.129305261383287
  0
LINE
  8
_0-1_EL-SL300SAIMEI
  6
CONTINUOUS
 62
    7
 10
50.346472422586103
 20
55.636595571586284
 11
50.262412092745997
 21
55.67931475560335
  0
LINE
  8
_0-1_EL-SL300SAIMEI
  6
CONTINUOUS
 62
    7
 10
50.262412092745997
 20
55.636595571586284
 11
50.558690304477423
 21
55.552707496520497
  0
LINE
  8
_0-1_EL-SL300SAIMEI
  6
CONTINUOUS
 62
    7
 10
50.262412092745997
 20
55.636595571586284
 11
50.135632578888803
 21
55.636595571586284
  0
LINE
  8
_0-1_EL-SL300SAIMEI
  6
CONTINUOUS
 62
    7
 10
49.627136485265908
 20
55.256429284788972
 11
49.882073551174393
 21
55.172024445400389
  0
LINE
  8
_0-1_EL-SL300SAIMEI
  6
CONTINUOUS
 62
    7
 10
50.770908186368821
 20
55.129305261383287
 11
49.882073551174393
 21
55.172024445400389
  0
LINE
  8
_0-1_EL-SL300SAIMEI
  6
CONTINUOUS
 62
    7
 10
50.728189002351719
 20
55.468302657131751
 11
50.601409488494518
 21
55.552707496520497
  0
LINE
  8
_0-1_EL-SL300SAIMEI
  6
CONTINUOUS
 62
    7
 10
50.770908186368821
 20
55.256429284788972
 11
50.728189002351719
 21
55.468302657131751
  0
LINE
  8
_0-1_EL-SL300SAIMEI
  6
CONTINUOUS
 62
    7
 10
49.712574853300119
 20
55.552707496520497
 11
49.669855669283024
 21
55.383036543871867
  0
LINE
  8
_0-1_EL-SL300SAIMEI
  6
CONTINUOUS
 62
    7
 10
49.882073551174393
 20
55.636595571586284
 11
49.712574853300119
 21
55.552707496520497
  0
LINE
  8
_0-1_EL-SL300SAIMEI
  6
CONTINUOUS
 62
    7
 10
50.05019421085462
 20
55.595426680537457
 11
50.601409488494518
 21
55.552707496520497
  0
LINE
  8
_0-1_EL-SL300SAIMEI
  6
CONTINUOUS
 62
    7
 10
50.135632578888803
 20
55.67931475560335
 11
50.008853065031587
 21
55.636595571586284
  0
LINE
  8
_0-1_EL-SL300SAIMEI
  6
CONTINUOUS
 62
    7
 10
49.882073551174393
 20
55.340317359854801
 11
50.770908186368821
 21
55.256429284788972
  0
LINE
  8
_0-1_EL-SL300SAIMEI
  6
CONTINUOUS
 62
    7
 10
49.882073551174393
 20
55.636595571586284
 11
50.05019421085462
 21
55.595426680537457
  0
LINE
  8
_0-1_EL-SL300SAIMEI
  6
CONTINUOUS
 62
    7
 10
50.389191606603198
 20
55.636595571586284
 11
50.558690304477423
 21
55.552707496520497
  0
LINE
  8
_0-1_EL-SL300SAIMEI
  6
CONTINUOUS
 62
    7
 10
49.669855669283024
 20
55.383036543871867
 11
49.882073551174393
 21
55.340317359854801
  0
LINE
  8
_0-1_EL-SL300SAIMEI
  6
CONTINUOUS
 62
    7
 10
56.7819107890328
 20
54.494374163451688
 11
56.655131275175599
 21
54.53709334746879
  0
LINE
  8
_0-1_EL-SL300SAIMEI
  6
CONTINUOUS
 62
    7
 10
56.696472420998603
 20
54.494374163451688
 11
56.951409486907018
 21
54.410141578837383
  0
LINE
  8
_0-1_EL-SL300SAIMEI
  6
CONTINUOUS
 62
    7
 10
56.696472420998603
 20
54.494374163451688
 11
56.569692907141388
 21
54.494374163451688
  0
LINE
  8
_0-1_EL-SL300SAIMEI
  6
CONTINUOUS
 62
    7
 10
57.20496851462142
 20
54.240642880963073
 11
57.035469816747117
 21
54.409969324063077
  0
LINE
  8
_0-1_EL-SL300SAIMEI
  6
CONTINUOUS
 62
    7
 10
57.20496851462142
 20
54.113691112331573
 11
57.20496851462142
 21
54.240642880963073
  0
LINE
  8
_0-1_EL-SL300SAIMEI
  6
CONTINUOUS
 62
    7
 10
56.103915997535623
 20
54.367422394820274
 11
56.062574851712618
 21
54.240642880963073
  0
LINE
  8
_0-1_EL-SL300SAIMEI
  6
CONTINUOUS
 62
    7
 10
56.316133879427021
 20
54.494374163451688
 11
56.103915997535623
 21
54.367422394820274
  0
LINE
  8
_0-1_EL-SL300SAIMEI
  6
CONTINUOUS
 62
    7
 10
56.485632577301303
 20
54.451310469886067
 11
57.035469816747117
 21
54.410141578837383
  0
LINE
  8
_0-1_EL-SL300SAIMEI
  6
CONTINUOUS
 62
    7
 10
56.569692907141388
 20
54.53709334746879
 11
56.442913393284194
 21
54.494374163451688
  0
LINE
  8
_0-1_EL-SL300SAIMEI
  6
CONTINUOUS
 62
    7
 10
56.316133879427021
 20
54.198095951720184
 11
56.528351761318397
 21
54.155376767703082
  0
LINE
  8
_0-1_EL-SL300SAIMEI
  6
CONTINUOUS
 62
    7
 10
56.316133879427021
 20
54.494374163451688
 11
56.485632577301303
 21
54.451310469886067
  0
LINE
  8
_0-1_EL-SL300SAIMEI
  6
CONTINUOUS
 62
    7
 10
56.7819107890328
 20
54.494374163451688
 11
56.951409486907018
 21
54.410141578837383
  0
LINE
  8
_0-1_EL-SL300SAIMEI
  6
CONTINUOUS
 62
    7
 10
56.062574851712618
 20
54.240642880963073
 11
56.316133879427021
 21
54.198095951720184
  0
LINE
  8
_0-1_EL-SL300SAIMEI
  6
CONTINUOUS
 62
    7
 10
36.42001843301211
 20
59.998086455912592
 11
36.716296644743608
 21
59.955367271895462
  0
LINE
  8
_0-1_EL-SL300SAIMEI
  6
CONTINUOUS
 62
    7
 10
41.033690306858688
 20
55.172024445400389
 11
40.906910793001494
 21
55.21371010077187
  0
LINE
  8
_0-1_EL-SL300SAIMEI
  6
CONTINUOUS
 62
    7
 10
40.949629977018603
 20
55.172024445400389
 11
41.203189004732998
 21
55.129305261383287
  0
LINE
  8
_0-1_EL-SL300SAIMEI
  6
CONTINUOUS
 62
    7
 10
40.949629977018603
 20
55.172024445400389
 11
40.821472424967318
 21
55.172024445400389
  0
LINE
  8
_0-1_EL-SL300SAIMEI
  6
CONTINUOUS
 62
    7
 10
41.415406886624403
 20
55.002698002300271
 11
41.287249334573097
 21
55.129305261383287
  0
LINE
  8
_0-1_EL-SL300SAIMEI
  6
CONTINUOUS
 62
    7
 10
41.4567480324474
 20
54.790307865634681
 11
41.415406886624403
 21
55.002698002300271
  0
LINE
  8
_0-1_EL-SL300SAIMEI
  6
CONTINUOUS
 62
    7
 10
40.398414699378613
 20
55.129305261383287
 11
40.314354369538513
 21
54.917259634266074
  0
LINE
  8
_0-1_EL-SL300SAIMEI
  6
CONTINUOUS
 62
    7
 10
40.567913397252923
 20
55.21371010077187
 11
40.398414699378613
 21
55.129305261383287
  0
LINE
  8
_0-1_EL-SL300SAIMEI
  6
CONTINUOUS
 62
    7
 10
40.694692911110117
 20
55.172024445400389
 11
41.287249334573097
 21
55.129305261383287
  0
LINE
  8
_0-1_EL-SL300SAIMEI
  6
CONTINUOUS
 62
    7
 10
40.821472424967318
 20
55.21371010077187
 11
40.694692911110117
 21
55.172024445400389
  0
LINE
  8
_0-1_EL-SL300SAIMEI
  6
CONTINUOUS
 62
    7
 10
40.567913397252923
 20
54.876090743217368
 11
40.780131279144321
 21
54.876090743217368
  0
LINE
  8
_0-1_EL-SL300SAIMEI
  6
CONTINUOUS
 62
    7
 10
40.567913397252923
 20
55.21371010077187
 11
40.694692911110117
 21
55.172024445400389
  0
LINE
  8
_0-1_EL-SL300SAIMEI
  6
CONTINUOUS
 62
    7
 10
41.033690306858688
 20
55.172024445400389
 11
41.203189004732998
 21
55.129305261383287
  0
LINE
  8
_0-1_EL-SL300SAIMEI
  6
CONTINUOUS
 62
    7
 10
40.314354369538513
 20
54.917259634266074
 11
40.567913397252923
 21
54.876090743217368
  0
LINE
  8
_0-1_EL-SL300SAIMEI
  6
CONTINUOUS
 62
    7
 10
38.578026244972598
 20
56.18763859445199
 11
38.451246731115397
 21
56.145091665209193
  0
LINE
  8
_0-1_EL-SL300SAIMEI
  6
CONTINUOUS
 62
    7
 10
39.382800550327012
 20
56.061031335369094
 11
38.578026244972598
 21
56.18763859445199
  0
LINE
  8
_0-1_EL-SL300SAIMEI
  6
CONTINUOUS
 62
    7
 10
39.382800550327012
 20
56.061031335369094
 11
39.636359578041407
 21
56.018312151351964
  0
LINE
  8
_0-1_EL-SL300SAIMEI
  6
CONTINUOUS
 62
    7
 10
39.256021036469811
 20
56.061031335369094
 11
38.959742824738314
 21
56.061031335369094
  0
LINE
  8
_0-1_EL-SL300SAIMEI
  6
CONTINUOUS
 62
    7
 10
38.874304456704103
 20
56.102372481192063
 11
38.790244126864003
 21
56.145091665209193
  0
LINE
  8
_0-1_EL-SL300SAIMEI
  6
CONTINUOUS
 62
    7
 10
38.832963310881098
 20
56.102372481192063
 11
38.874304456704103
 21
56.102372481192063
  0
LINE
  8
_0-1_EL-SL300SAIMEI
  6
CONTINUOUS
 62
    7
 10
39.636359578041407
 20
56.018312151351964
 11
38.704805758829799
 21
56.102372481192063
  0
LINE
  8
_0-1_EL-SL300SAIMEI
  6
CONTINUOUS
 62
    7
 10
38.874304456704103
 20
56.145091665209193
 11
39.12924152261261
 21
56.061031335369094
  0
LINE
  8
_0-1_EL-SL300SAIMEI
  6
CONTINUOUS
 62
    7
 10
38.451246731115397
 20
56.145091665209193
 11
38.663464613006802
 21
56.102372481192063
  0
LINE
  8
_0-1_EL-SL300SAIMEI
  6
CONTINUOUS
 62
    7
 10
45.563301850865209
 20
57.922588680823878
 11
45.436522337008007
 21
57.965307864840902
  0
LINE
  8
_0-1_EL-SL300SAIMEI
  6
CONTINUOUS
 62
    7
 10
45.520582666848114
 20
57.922588680823878
 11
45.267023639133697
 21
57.881419789775073
  0
LINE
  8
_0-1_EL-SL300SAIMEI
  6
CONTINUOUS
 62
    7
 10
45.775519732756614
 20
57.795981421740869
 11
45.520582666848114
 21
57.922588680823878
  0
LINE
  8
_0-1_EL-SL300SAIMEI
  6
CONTINUOUS
 62
    7
 10
45.859580062596713
 20
57.838700605758
 11
45.563301850865209
 21
57.922588680823878
  0
LINE
  8
_0-1_EL-SL300SAIMEI
  6
CONTINUOUS
 62
    7
 10
45.775519732756614
 20
57.795981421740869
 11
45.859580062596713
 21
57.838700605758
  0
LINE
  8
_0-1_EL-SL300SAIMEI
  6
CONTINUOUS
 62
    7
 10
45.393803152990913
 20
57.965307864840902
 11
45.139899615728019
 21
57.881419789775073
  0
LINE
  8
_0-1_EL-SL300SAIMEI
  6
CONTINUOUS
 62
    7
 10
35.742023641514898
 20
57.795981421740869
 11
35.192186402069098
 21
57.838700605758
  0
LINE
  8
_0-1_EL-SL300SAIMEI
  6
CONTINUOUS
 62
    7
 10
35.233527547892102
 20
57.965307864840902
 11
35.784742825532
 21
57.881419789775073
  0
LINE
  8
_0-1_EL-SL300SAIMEI
  6
CONTINUOUS
 62
    7
 10
36.673577460726513
 20
59.320091664415379
 11
36.377299248995008
 21
59.362638593658303
  0
LINE
  8
_0-1_EL-SL300SAIMEI
  6
CONTINUOUS
 62
    7
 10
36.969855672458017
 20
59.277372480398249
 11
36.757637790566612
 21
59.320091664415379
  0
LINE
  8
_0-1_EL-SL300SAIMEI
  6
CONTINUOUS
 62
    7
 10
35.9955826692293
 20
59.405357777675263
 11
36.334580064977914
 21
59.405357777675263
  0
LINE
  8
_0-1_EL-SL300SAIMEI
  6
CONTINUOUS
 62
    7
 10
35.615244127657704
 20
58.051090742423703
 11
35.106748034034901
 21
58.177698001506549
  0
LINE
  8
_0-1_EL-SL300SAIMEI
  6
CONTINUOUS
 62
    7
 10
36.377299248995008
 20
59.362638593658303
 11
36.291860880960797
 21
59.362638593658303
  0
LINE
  8
_0-1_EL-SL300SAIMEI
  6
CONTINUOUS
 62
    7
 10
37.096635186315218
 20
57.838700605758
 11
37.519692911903903
 21
57.881419789775073
  0
LINE
  8
_0-1_EL-SL300SAIMEI
  6
CONTINUOUS
 62
    7
 10
35.615244127657704
 20
58.051090742423703
 11
37.096635186315218
 21
57.838700605758
  0
LINE
  8
_0-1_EL-SL300SAIMEI
  6
CONTINUOUS
 62
    7
 10
36.291860880960797
 20
59.362638593658303
 11
36.334580064977914
 21
59.362638593658303
  0
LINE
  8
_0-1_EL-SL300SAIMEI
  6
CONTINUOUS
 62
    7
 10
36.884417304423813
 20
58.261758331346648
 11
37.562412095920998
 21
58.261758331346648
  0
LINE
  8
_0-1_EL-SL300SAIMEI
  6
CONTINUOUS
 62
    7
 10
35.699304457497803
 20
58.473976213237968
 11
36.884417304423813
 21
58.261758331346648
  0
LINE
  8
_0-1_EL-SL300SAIMEI
  6
CONTINUOUS
 62
    7
 10
35.276246731909197
 20
58.515317359061051
 11
35.192186402069098
 21
58.600755727095247
  0
LINE
  8
_0-1_EL-SL300SAIMEI
  6
CONTINUOUS
 62
    7
 10
35.699304457497803
 20
58.473976213237968
 11
35.276246731909197
 21
58.515317359061051
  0
LINE
  8
_0-1_EL-SL300SAIMEI
  6
CONTINUOUS
 62
    7
 10
36.50407876285221
 20
59.277372480398249
 11
36.969855672458017
 21
59.277372480398249
  0
LINE
  8
_0-1_EL-SL300SAIMEI
  6
CONTINUOUS
 62
    7
 10
36.207800551120698
 20
59.362638593658303
 11
36.50407876285221
 21
59.277372480398249
  0
LINE
  8
_0-1_EL-SL300SAIMEI
  6
CONTINUOUS
 62
    7
 10
36.207800551120698
 20
59.362638593658303
 11
35.9955826692293
 21
59.405357777675263
  0
LINE
  8
_0-1_EL-SL300SAIMEI
  6
CONTINUOUS
 62
    7
 10
36.630858276709411
 20
59.320091664415379
 11
36.673577460726513
 21
59.320091664415379
  0
LINE
  8
_0-1_EL-SL300SAIMEI
  6
CONTINUOUS
 62
    7
 10
45.351083968973803
 20
55.044039148123268
 11
46.368076156219509
 21
55.002698002300271
  0
LINE
  8
_0-1_EL-SL300SAIMEI
  6
CONTINUOUS
 62
    7
 10
44.37818900393922
 20
55.21371010077187
 11
45.351083968973803
 21
55.044039148123268
  0
LINE
  8
_0-1_EL-SL300SAIMEI
  6
CONTINUOUS
 62
    7
 10
44.928026243385098
 20
57.881419789775073
 11
44.208690306064923
 21
57.965307864840902
  0
LINE
  8
_0-1_EL-SL300SAIMEI
  6
CONTINUOUS
 62
    7
 10
45.945018430630917
 20
57.626310469092303
 11
46.537574854093812
 21
57.626310469092303
  0
LINE
  8
_0-1_EL-SL300SAIMEI
  6
CONTINUOUS
 62
    7
 10
44.843965913544999
 20
57.795981421740869
 11
45.945018430630917
 21
57.626310469092303
  0
LINE
  8
_0-1_EL-SL300SAIMEI
  6
CONTINUOUS
 62
    7
 10
44.124629976224817
 20
56.398650692923589
 11
44.039191608190698
 21
56.441369876940662
  0
LINE
  8
_0-1_EL-SL300SAIMEI
  6
CONTINUOUS
 62
    7
 10
47.679968517002699
 20
56.18763859445199
 11
47.722687701019801
 21
56.18763859445199
  0
LINE
  8
_0-1_EL-SL300SAIMEI
  6
CONTINUOUS
 62
    7
 10
42.854078761264709
 20
56.694928904654951
 11
42.811359577247607
 21
56.694928904654951
  0
LINE
  8
_0-1_EL-SL300SAIMEI
  6
CONTINUOUS
 62
    7
 10
47.8067480308599
 20
56.823086456706399
 11
47.765406885036903
 21
56.823086456706399
  0
LINE
  8
_0-1_EL-SL300SAIMEI
  6
CONTINUOUS
 62
    7
 10
44.37818900393922
 20
57.922588680823878
 11
44.843965913544999
 21
57.795981421740869
  0
LINE
  8
_0-1_EL-SL300SAIMEI
  6
CONTINUOUS
 62
    7
 10
46.707073551968108
 20
57.585141578043597
 11
46.155858274328217
 21
57.753262237723803
  0
LINE
  8
_0-1_EL-SL300SAIMEI
  6
CONTINUOUS
 62
    7
 10
43.828351764493398
 20
55.340317359854801
 11
44.37818900393922
 21
55.21371010077187
  0
LINE
  8
_0-1_EL-SL300SAIMEI
  6
CONTINUOUS
 62
    7
 10
43.107637788979112
 20
56.526808244974752
 11
43.023577459139013
 21
56.567977136023558
  0
LINE
  8
_0-1_EL-SL300SAIMEI
  6
CONTINUOUS
 62
    7
 10
42.473740219693113
 20
55.848641198703383
 11
42.049304455910303
 21
55.934424076286177
  0
LINE
  8
_0-1_EL-SL300SAIMEI
  6
CONTINUOUS
 62
    7
 10
46.537574854093812
 20
57.626310469092303
 11
46.071797944488118
 21
57.753262237723803
  0
LINE
  8
_0-1_EL-SL300SAIMEI
  6
CONTINUOUS
 62
    7
 10
44.420908187956321
 20
55.509643802954891
 11
43.955131278350599
 21
55.383036543871867
  0
LINE
  8
_0-1_EL-SL300SAIMEI
  6
CONTINUOUS
 62
    7
 10
45.267023639133697
 20
56.906974531772171
 11
45.351083968973803
 21
56.906974531772171
  0
LINE
  8
_0-1_EL-SL300SAIMEI
  6
CONTINUOUS
 62
    7
 10
44.251409490082018
 20
57.881419789775073
 11
44.758527545510788
 21
57.795981421740869
  0
LINE
  8
_0-1_EL-SL300SAIMEI
  6
CONTINUOUS
 62
    7
 10
44.208690306064923
 20
57.965307864840902
 11
44.251409490082018
 21
57.881419789775073
  0
LINE
  8
_0-1_EL-SL300SAIMEI
  6
CONTINUOUS
 62
    7
 10
44.0819107922078
 20
57.20342499827786
 11
44.631748031653594
 21
57.076645484420688
  0
LINE
  8
_0-1_EL-SL300SAIMEI
  6
CONTINUOUS
 62
    7
 10
42.473740219693113
 20
55.636595571586284
 11
42.473740219693113
 21
55.848641198703383
  0
LINE
  8
_0-1_EL-SL300SAIMEI
  6
CONTINUOUS
 62
    7
 10
42.557800549533198
 20
55.636595571586284
 11
42.473740219693113
 21
55.636595571586284
  0
LINE
  8
_0-1_EL-SL300SAIMEI
  6
CONTINUOUS
 62
    7
 10
42.092023639927397
 20
56.441369876940662
 11
42.515081365516103
 21
56.314762617857703
  0
LINE
  8
_0-1_EL-SL300SAIMEI
  6
CONTINUOUS
 62
    7
 10
46.071797944488118
 20
56.864255347755098
 11
46.664354367951013
 21
56.864255347755098
  0
LINE
  8
_0-1_EL-SL300SAIMEI
  6
CONTINUOUS
 62
    7
 10
44.631748031653594
 20
57.076645484420688
 11
46.071797944488118
 21
56.864255347755098
  0
LINE
  8
_0-1_EL-SL300SAIMEI
  6
CONTINUOUS
 62
    7
 10
45.267023639133697
 20
56.314762617857703
 11
45.182963309293598
 21
56.314762617857703
  0
LINE
  8
_0-1_EL-SL300SAIMEI
  6
CONTINUOUS
 62
    7
 10
42.938139091104809
 20
57.288691111537851
 11
42.980858275121911
 21
57.288691111537851
  0
LINE
  8
_0-1_EL-SL300SAIMEI
  6
CONTINUOUS
 62
    7
 10
45.69008136472241
 20
57.626310469092303
 11
46.707073551968108
 21
57.585141578043597
  0
LINE
  8
_0-1_EL-SL300SAIMEI
  6
CONTINUOUS
 62
    7
 10
44.758527545510788
 20
57.795981421740869
 11
45.69008136472241
 21
57.626310469092303
  0
LINE
  8
_0-1_EL-SL300SAIMEI
  6
CONTINUOUS
 62
    7
 10
44.886685097562101
 20
57.881419789775073
 11
44.37818900393922
 21
57.922588680823878
  0
LINE
  8
_0-1_EL-SL300SAIMEI
  6
CONTINUOUS
 62
    7
 10
44.165971122047807
 20
57.076645484420688
 11
44.208690306064923
 21
57.076645484420688
  0
LINE
  8
_0-1_EL-SL300SAIMEI
  6
CONTINUOUS
 62
    7
 10
34.810469822303403
 20
55.636595571586284
 11
34.599629978606103
 21
55.764753123637547
  0
LINE
  8
_0-1_EL-SL300SAIMEI
  6
CONTINUOUS
 62
    7
 10
34.30335176687462
 20
55.764753123637547
 11
34.217913398840423
 21
55.67931475560335
  0
LINE
  8
_0-1_EL-SL300SAIMEI
  6
CONTINUOUS
 62
    7
 10
34.556910794588987
 20
55.764753123637547
 11
34.30335176687462
 21
55.764753123637547
  0
LINE
  8
_0-1_EL-SL300SAIMEI
  6
CONTINUOUS
 62
    7
 10
37.562412095920998
 20
55.172024445400389
 11
38.704805758829799
 21
55.129305261383287
  0
LINE
  8
_0-1_EL-SL300SAIMEI
  6
CONTINUOUS
 62
    7
 10
35.106748034034901
 20
55.509643802954891
 11
37.562412095920998
 21
55.172024445400389
  0
LINE
  8
_0-1_EL-SL300SAIMEI
  6
CONTINUOUS
 62
    7
 10
38.747524942846901
 20
56.061031335369094
 11
38.408527547098288
 21
56.18763859445199
  0
LINE
  8
_0-1_EL-SL300SAIMEI
  6
CONTINUOUS
 62
    7
 10
39.679078762058523
 20
56.018312151351964
 11
38.747524942846901
 21
56.061031335369094
  0
LINE
  8
_0-1_EL-SL300SAIMEI
  6
CONTINUOUS
 62
    7
 10
37.478351766080898
 20
56.145091665209193
 11
38.112249335366819
 21
56.145091665209193
  0
LINE
  8
_0-1_EL-SL300SAIMEI
  6
CONTINUOUS
 62
    7
 10
36.038301853246402
 20
56.314762617857703
 11
37.478351766080898
 21
56.145091665209193
  0
LINE
  8
_0-1_EL-SL300SAIMEI
  6
CONTINUOUS
 62
    7
 10
33.837574857268805
 20
55.805922014686253
 11
34.30335176687462
 21
55.722033939620481
  0
LINE
  8
_0-1_EL-SL300SAIMEI
  6
CONTINUOUS
 62
    7
 10
33.752136489234609
 20
55.891360382720464
 11
33.837574857268805
 21
55.805922014686253
  0
LINE
  8
_0-1_EL-SL300SAIMEI
  6
CONTINUOUS
 62
    7
 10
33.245018433805924
 20
56.018312151351964
 11
33.116860881754612
 21
55.975592967334883
  0
LINE
  8
_0-1_EL-SL300SAIMEI
  6
CONTINUOUS
 62
    7
 10
34.217913398840423
 20
55.67931475560335
 11
34.344692912697624
 21
55.67931475560335
  0
LINE
  8
_0-1_EL-SL300SAIMEI
  6
CONTINUOUS
 62
    7
 10
34.091133884983208
 20
55.805922014686253
 11
34.344692912697624
 21
55.764753123637547
  0
LINE
  8
_0-1_EL-SL300SAIMEI
  6
CONTINUOUS
 62
    7
 10
39.425519734344107
 20
56.061031335369094
 11
39.679078762058523
 21
56.018312151351964
  0
LINE
  8
_0-1_EL-SL300SAIMEI
  6
CONTINUOUS
 62
    7
 10
34.344692912697624
 20
55.67931475560335
 11
34.810469822303403
 21
55.636595571586284
  0
LINE
  8
_0-1_EL-SL300SAIMEI
  6
CONTINUOUS
 62
    7
 10
37.350194214029621
 20
55.67931475560335
 11
38.747524942846901
 21
55.552707496520497
  0
LINE
  8
_0-1_EL-SL300SAIMEI
  6
CONTINUOUS
 62
    7
 10
33.709417305217514
 20
55.764753123637547
 11
34.683690308446188
 21
55.636595571586284
  0
LINE
  8
_0-1_EL-SL300SAIMEI
  6
CONTINUOUS
 62
    7
 10
33.116860881754612
 20
55.975592967334883
 11
33.709417305217514
 21
55.764753123637547
  0
LINE
  8
_0-1_EL-SL300SAIMEI
  6
CONTINUOUS
 62
    7
 10
37.901409491669519
 20
56.272043433840693
 11
37.392913398046687
 21
56.357309547100563
  0
LINE
  8
_0-1_EL-SL300SAIMEI
  6
CONTINUOUS
 62
    7
 10
38.112249335366819
 20
56.145091665209193
 11
37.901409491669519
 21
56.272043433840693
  0
LINE
  8
_0-1_EL-SL300SAIMEI
  6
CONTINUOUS
 62
    7
 10
38.408527547098288
 20
56.18763859445199
 11
39.382800550327012
 21
56.061031335369094
  0
LINE
  8
_0-1_EL-SL300SAIMEI
  6
CONTINUOUS
 62
    7
 10
31.635469823097122
 20
54.028424999071667
 11
31.847687704988491
 21
53.985705815054558
  0
LINE
  8
_0-1_EL-SL300SAIMEI
  6
CONTINUOUS
 62
    7
 10
31.635469823097122
 20
54.155376767703082
 11
31.635469823097122
 21
54.028424999071667
  0
LINE
  8
_0-1_EL-SL300SAIMEI
  6
CONTINUOUS
 62
    7
 10
33.032800551914505
 20
56.864255347755098
 11
33.075519735931607
 21
56.864255347755098
  0
LINE
  8
_0-1_EL-SL300SAIMEI
  6
CONTINUOUS
 62
    7
 10
31.042913399634191
 20
57.119364668437761
 11
30.958853069794099
 21
57.119364668437761
  0
LINE
  8
_0-1_EL-SL300SAIMEI
  6
CONTINUOUS
 62
    7
 10
33.709417305217514
 20
56.949693715789302
 11
32.99008136789741
 21
57.033926300403557
  0
LINE
  8
_0-1_EL-SL300SAIMEI
  6
CONTINUOUS
 62
    7
 10
32.482963312468613
 20
56.992757409354859
 11
33.032800551914505
 21
56.864255347755098
  0
LINE
  8
_0-1_EL-SL300SAIMEI
  6
CONTINUOUS
 62
    7
 10
35.106748034034901
 20
58.219039147329568
 11
34.9799685201777
 21
58.219039147329568
  0
LINE
  8
_0-1_EL-SL300SAIMEI
  6
CONTINUOUS
 62
    7
 10
37.605131279938099
 20
57.838700605758
 11
37.519692911903903
 21
57.881419789775073
  0
LINE
  8
_0-1_EL-SL300SAIMEI
  6
CONTINUOUS
 62
    7
 10
37.901409491669519
 20
56.145091665209193
 11
37.392913398046687
 21
56.272043433840693
  0
LINE
  8
_0-1_EL-SL300SAIMEI
  6
CONTINUOUS
 62
    7
 10
34.091133884983208
 20
55.848641198703383
 11
34.344692912697624
 21
55.764753123637547
  0
LINE
  8
_0-1_EL-SL300SAIMEI
  6
CONTINUOUS
 62
    7
 10
32.313464614594295
 20
56.526808244974752
 11
31.635469823097122
 21
56.567977136023558
  0
LINE
  8
_0-1_EL-SL300SAIMEI
  6
CONTINUOUS
 62
    7
 10
31.128351767668399
 20
56.694928904654951
 11
30.91613388577699
 21
56.737648088672188
  0
LINE
  8
_0-1_EL-SL300SAIMEI
  6
CONTINUOUS
 62
    7
 10
37.266133884189522
 20
57.20342499827786
 11
37.519692911903903
 21
57.20342499827786
  0
LINE
  8
_0-1_EL-SL300SAIMEI
  6
CONTINUOUS
 62
    7
 10
37.350194214029621
 20
56.145091665209193
 11
37.392913398046687
 21
56.18763859445199
  0
LINE
  8
_0-1_EL-SL300SAIMEI
  6
CONTINUOUS
 62
    7
 10
31.635469823097122
 20
54.155376767703082
 11
31.804968520971421
 21
54.113691112331573
  0
LINE
  8
_0-1_EL-SL300SAIMEI
  6
CONTINUOUS
 62
    7
 10
32.948740222074406
 20
56.949693715789302
 11
32.482963312468613
 21
56.992757409354859
  0
LINE
  8
_0-1_EL-SL300SAIMEI
  6
CONTINUOUS
 62
    7
 10
33.075519735931607
 20
56.864255347755098
 11
32.948740222074406
 21
56.949693715789302
  0
LINE
  8
_0-1_EL-SL300SAIMEI
  6
CONTINUOUS
 62
    7
 10
34.9799685201777
 20
58.219039147329568
 11
35.149467218052003
 21
58.134978817489468
  0
LINE
  8
_0-1_EL-SL300SAIMEI
  6
CONTINUOUS
 62
    7
 10
35.615244127657704
 20
57.373095950926491
 11
37.266133884189522
 21
57.20342499827786
  0
LINE
  8
_0-1_EL-SL300SAIMEI
  6
CONTINUOUS
 62
    7
 10
34.9799685201777
 20
57.499703210009393
 11
35.615244127657704
 21
57.373095950926491
  0
LINE
  8
_0-1_EL-SL300SAIMEI
  6
CONTINUOUS
 62
    7
 10
34.937249336160605
 20
57.585141578043597
 11
34.9799685201777
 21
57.499703210009393
  0
LINE
  8
_0-1_EL-SL300SAIMEI
  6
CONTINUOUS
 62
    7
 10
30.958853069794099
 20
57.119364668437761
 11
31.169692913491399
 21
57.076645484420688
  0
LINE
  8
_0-1_EL-SL300SAIMEI
  6
CONTINUOUS
 62
    7
 10
34.810469822303403
 20
56.526808244974752
 11
35.699304457497803
 21
56.314762617857703
  0
LINE
  8
_0-1_EL-SL300SAIMEI
  6
CONTINUOUS
 62
    7
 10
31.67818900711422
 20
56.949693715789302
 11
32.397524944434402
 21
56.864255347755098
  0
LINE
  8
_0-1_EL-SL300SAIMEI
  6
CONTINUOUS
 62
    7
 10
34.683690308446188
 20
56.441369876940662
 11
35.361685099943408
 21
56.357309547100563
  0
LINE
  8
_0-1_EL-SL300SAIMEI
  6
CONTINUOUS
 62
    7
 10
34.217913398840423
 20
56.611040829589179
 11
34.683690308446188
 21
56.441369876940662
  0
LINE
  8
_0-1_EL-SL300SAIMEI
  6
CONTINUOUS
 62
    7
 10
37.392913398046687
 20
57.838700605758
 11
37.605131279938099
 21
57.838700605758
  0
LINE
  8
_0-1_EL-SL300SAIMEI
  6
CONTINUOUS
 62
    7
 10
31.804968520971421
 20
54.113691112331573
 11
31.847687704988491
 21
53.985705815054558
  0
LINE
  8
_0-1_EL-SL300SAIMEI
  6
CONTINUOUS
 62
    7
 10
36.123740221280613
 20
57.965307864840902
 11
37.392913398046687
 21
57.838700605758
  0
LINE
  8
_0-1_EL-SL300SAIMEI
  6
CONTINUOUS
 62
    7
 10
32.863301854040209
 20
56.061031335369094
 11
32.693803156165913
 21
56.061031335369094
  0
LINE
  8
_0-1_EL-SL300SAIMEI
  6
CONTINUOUS
 62
    7
 10
33.541296645537386
 20
55.805922014686253
 11
34.937249336160605
 21
55.552707496520497
  0
LINE
  8
_0-1_EL-SL300SAIMEI
  6
CONTINUOUS
 62
    7
 10
33.075519735931607
 20
55.975592967334883
 11
33.541296645537386
 21
55.805922014686253
  0
LINE
  8
_0-1_EL-SL300SAIMEI
  6
CONTINUOUS
 62
    7
 10
33.202299249788823
 20
56.018312151351964
 11
33.075519735931607
 21
55.975592967334883
  0
LINE
  8
_0-1_EL-SL300SAIMEI
  6
CONTINUOUS
 62
    7
 10
37.605131279938099
 20
55.172024445400389
 11
38.578026244972598
 21
55.129305261383287
  0
LINE
  8
_0-1_EL-SL300SAIMEI
  6
CONTINUOUS
 62
    7
 10
35.361685099943408
 20
55.468302657131751
 11
37.605131279938099
 21
55.172024445400389
  0
LINE
  8
_0-1_EL-SL300SAIMEI
  6
CONTINUOUS
 62
    7
 10
33.329078763646024
 20
55.805922014686253
 11
35.361685099943408
 21
55.468302657131751
  0
LINE
  8
_0-1_EL-SL300SAIMEI
  6
CONTINUOUS
 62
    7
 10
32.820582670023114
 20
55.934424076286177
 11
33.329078763646024
 21
55.805922014686253
  0
LINE
  8
_0-1_EL-SL300SAIMEI
  6
CONTINUOUS
 62
    7
 10
32.693803156165913
 20
56.061031335369094
 11
32.820582670023114
 21
55.934424076286177
  0
LINE
  8
_0-1_EL-SL300SAIMEI
  6
CONTINUOUS
 62
    7
 10
32.693803156165913
 20
47.763691113919073
 11
33.371797947663119
 21
47.635705816642073
  0
LINE
  8
_0-1_EL-SL300SAIMEI
  6
CONTINUOUS
 62
    7
 10
32.313464614594295
 20
47.93198402837357
 11
32.693803156165913
 21
47.763691113919073
  0
LINE
  8
_0-1_EL-SL300SAIMEI
  6
CONTINUOUS
 62
    7
 10
35.445745429783507
 20
47.339255350136263
 11
37.478351766080898
 21
47.212648091053389
  0
LINE
  8
_0-1_EL-SL300SAIMEI
  6
CONTINUOUS
 62
    7
 10
33.49857746152032
 20
47.594364670819068
 11
35.445745429783507
 21
47.339255350136263
  0
LINE
  8
_0-1_EL-SL300SAIMEI
  6
CONTINUOUS
 62
    7
 10
36.250519735137807
 20
47.594364670819068
 11
33.329078763646024
 21
48.017422396407774
  0
LINE
  8
_0-1_EL-SL300SAIMEI
  6
CONTINUOUS
 62
    7
 10
37.182073554349387
 20
47.508926302784857
 11
36.250519735137807
 21
47.594364670819068
  0
LINE
  8
_0-1_EL-SL300SAIMEI
  6
CONTINUOUS
 62
    7
 10
37.901409491669519
 20
47.551645486801974
 11
37.182073554349387
 21
47.508926302784857
  0
LINE
  8
_0-1_EL-SL300SAIMEI
  6
CONTINUOUS
 62
    7
 10
32.058527548685788
 20
48.270981424122063
 11
32.017186402862805
 21
48.356419792156274
  0
LINE
  8
_0-1_EL-SL300SAIMEI
  6
CONTINUOUS
 62
    7
 10
33.159580065771706
 20
48.017422396407774
 11
32.058527548685788
 21
48.270981424122063
  0
LINE
  8
_0-1_EL-SL300SAIMEI
  6
CONTINUOUS
 62
    7
 10
23.042023644689902
 20
36.375755732651477
 11
24.269855675633021
 21
36.545426685300079
  0
LINE
  8
_0-1_EL-SL300SAIMEI
  6
CONTINUOUS
 62
    7
 10
21.856910797763991
 20
35.90997882304567
 11
23.042023644689902
 21
36.375755732651477
  0
LINE
  8
_0-1_EL-SL300SAIMEI
  6
CONTINUOUS
 62
    7
 10
21.30707355831812
 20
35.613700611314158
 11
21.856910797763991
 21
35.90997882304567
  0
LINE
  8
_0-1_EL-SL300SAIMEI
  6
CONTINUOUS
 62
    7
 10
20.459580068946707
 20
34.978425003834168
 11
21.30707355831812
 21
35.613700611314158
  0
LINE
  8
_0-1_EL-SL300SAIMEI
  6
CONTINUOUS
 62
    7
 10
19.740244131626497
 20
34.216369882496878
 11
20.459580068946707
 21
34.978425003834168
  0
LINE
  8
_0-1_EL-SL300SAIMEI
  6
CONTINUOUS
 62
    7
 10
18.892750642255024
 20
33.073976219588083
 11
19.740244131626497
 21
34.216369882496878
  0
LINE
  8
_0-1_EL-SL300SAIMEI
  6
CONTINUOUS
 62
    7
 10
18.258853072969103
 20
31.80342500462789
 11
18.892750642255024
 21
33.073976219588083
  0
LINE
  8
_0-1_EL-SL300SAIMEI
  6
CONTINUOUS
 62
    7
 10
17.793076163363324
 20
30.27931476195338
 11
18.258853072969103
 21
31.80342500462789
  0
LINE
  8
_0-1_EL-SL300SAIMEI
  6
CONTINUOUS
 62
    7
 10
17.623577465489006
 20
29.17826224486749
 11
17.793076163363324
 21
30.27931476195338
  0
LINE
  8
_0-1_EL-SL300SAIMEI
  6
CONTINUOUS
 62
    7
 10
17.580858281471912
 20
27.992977143167291
 11
17.623577465489006
 21
29.17826224486749
  0
LINE
  8
_0-1_EL-SL300SAIMEI
  6
CONTINUOUS
 62
    7
 10
17.793076163363324
 20
26.131419797712571
 11
17.580858281471912
 21
27.992977143167291
  0
LINE
  8
_0-1_EL-SL300SAIMEI
  6
CONTINUOUS
 62
    7
 10
18.216133888951987
 20
24.69136988487816
 11
17.793076163363324
 21
26.131419797712571
  0
LINE
  8
_0-1_EL-SL300SAIMEI
  6
CONTINUOUS
 62
    7
 10
18.681910798557723
 20
23.675755735826481
 11
18.216133888951987
 21
24.69136988487816
  0
LINE
  8
_0-1_EL-SL300SAIMEI
  6
CONTINUOUS
 62
    7
 10
19.443965919895
 20
22.531984034723571
 11
18.681910798557723
 21
23.675755735826481
  0
LINE
  8
_0-1_EL-SL300SAIMEI
  6
CONTINUOUS
 62
    7
 10
19.909742829500814
 20
21.981974540503369
 11
19.443965919895
 21
22.531984034723571
  0
LINE
  8
_0-1_EL-SL300SAIMEI
  6
CONTINUOUS
 62
    7
 10
20.671797950838119
 20
21.305357787200371
 11
19.909742829500814
 21
21.981974540503369
  0
LINE
  8
_0-1_EL-SL300SAIMEI
  6
CONTINUOUS
 62
    7
 10
22.1104698254784
 20
20.458036552603069
 11
20.671797950838119
 21
21.305357787200371
  0
LINE
  8
_0-1_EL-SL300SAIMEI
  6
CONTINUOUS
 62
    7
 10
23.2542415265813
 20
20.161758340871682
 11
22.1104698254784
 21
20.458036552603069
  0
LINE
  8
_0-1_EL-SL300SAIMEI
  6
CONTINUOUS
 62
    7
 10
21.560632586032519
 20
36.841360387482993
 11
22.449467221227
 21
37.180357783231564
  0
LINE
  8
_0-1_EL-SL300SAIMEI
  6
CONTINUOUS
 62
    7
 10
20.206021041232312
 20
35.994039152885769
 11
21.560632586032519
 21
36.841360387482993
  0
LINE
  8
_0-1_EL-SL300SAIMEI
  6
CONTINUOUS
 62
    7
 10
19.274467222020704
 20
35.105376772465583
 11
20.206021041232312
 21
35.994039152885769
  0
LINE
  8
_0-1_EL-SL300SAIMEI
  6
CONTINUOUS
 62
    7
 10
18.5551312847006
 20
34.259089066513994
 11
19.274467222020704
 21
35.105376772465583
  0
LINE
  8
_0-1_EL-SL300SAIMEI
  6
CONTINUOUS
 62
    7
 10
17.750356979346208
 20
32.819039153679583
 11
18.5551312847006
 21
34.259089066513994
  0
LINE
  8
_0-1_EL-SL300SAIMEI
  6
CONTINUOUS
 62
    7
 10
17.200519739900308
 20
31.506974538122172
 11
17.750356979346208
 21
32.819039153679583
  0
LINE
  8
_0-1_EL-SL300SAIMEI
  6
CONTINUOUS
 62
    7
 10
16.776083976117498
 20
29.686758338490371
 11
17.200519739900308
 21
31.506974538122172
  0
LINE
  8
_0-1_EL-SL300SAIMEI
  6
CONTINUOUS
 62
    7
 10
16.692023646277399
 20
28.628425005421672
 11
16.776083976117498
 21
29.686758338490371
  0
LINE
  8
_0-1_EL-SL300SAIMEI
  6
CONTINUOUS
 62
    7
 10
16.692023646277399
 20
27.612638601595769
 11
16.692023646277399
 21
28.628425005421672
  0
LINE
  8
_0-1_EL-SL300SAIMEI
  6
CONTINUOUS
 62
    7
 10
16.945582673991801
 20
25.792422401963972
 11
16.692023646277399
 21
27.612638601595769
  0
LINE
  8
_0-1_EL-SL300SAIMEI
  6
CONTINUOUS
 62
    7
 10
17.45407876761471
 20
24.14136039065799
 11
16.945582673991801
 21
25.792422401963972
  0
LINE
  8
_0-1_EL-SL300SAIMEI
  6
CONTINUOUS
 62
    7
 10
17.919855677220518
 20
23.126090751154869
 11
17.45407876761471
 21
24.14136039065799
  0
LINE
  8
_0-1_EL-SL300SAIMEI
  6
CONTINUOUS
 62
    7
 10
18.851409496432019
 20
21.769928913386291
 11
17.919855677220518
 21
23.126090751154869
  0
LINE
  8
_0-1_EL-SL300SAIMEI
  6
CONTINUOUS
 62
    7
 10
19.782963315643613
 20
20.797033948351789
 11
18.851409496432019
 21
21.769928913386291
  0
LINE
  8
_0-1_EL-SL300SAIMEI
  6
CONTINUOUS
 62
    7
 10
20.545018436980925
 20
20.204305270114482
 11
19.782963315643613
 21
20.797033948351789
  0
LINE
  8
_0-1_EL-SL300SAIMEI
  6
CONTINUOUS
 62
    7
 10
21.68741209988972
 20
19.653262247248769
 11
20.545018436980925
 21
20.204305270114482
  0
LINE
  8
_0-1_EL-SL300SAIMEI
  6
CONTINUOUS
 62
    7
 10
24.016296647918619
 20
36.545426685300079
 11
25.37090819271879
 21
36.459643807717278
  0
LINE
  8
_0-1_EL-SL300SAIMEI
  6
CONTINUOUS
 62
    7
 10
22.703026248941409
 20
36.290317364617273
 11
24.016296647918619
 21
36.545426685300079
  0
LINE
  8
_0-1_EL-SL300SAIMEI
  6
CONTINUOUS
 62
    7
 10
22.153189009495499
 20
36.12202445016289
 11
22.703026248941409
 21
36.290317364617273
  0
LINE
  8
_0-1_EL-SL300SAIMEI
  6
CONTINUOUS
 62
    7
 10
21.17891600626681
 20
35.613700611314158
 11
22.153189009495499
 21
36.12202445016289
  0
LINE
  8
_0-1_EL-SL300SAIMEI
  6
CONTINUOUS
 62
    7
 10
20.332800555089506
 20
34.978425003834168
 11
21.17891600626681
 21
35.613700611314158
  0
LINE
  8
_0-1_EL-SL300SAIMEI
  6
CONTINUOUS
 62
    7
 10
19.317186406037806
 20
33.92009167076538
 11
20.332800555089506
 21
34.978425003834168
  0
LINE
  8
_0-1_EL-SL300SAIMEI
  6
CONTINUOUS
 62
    7
 10
18.469692916666403
 20
32.522588687173773
 11
19.317186406037806
 21
33.92009167076538
  0
LINE
  8
_0-1_EL-SL300SAIMEI
  6
CONTINUOUS
 62
    7
 10
18.003916007060624
 20
31.506974538122172
 11
18.469692916666403
 21
32.522588687173773
  0
LINE
  8
_0-1_EL-SL300SAIMEI
  6
CONTINUOUS
 62
    7
 10
17.666296649506123
 20
30.36475312998758
 11
18.003916007060624
 21
31.506974538122172
  0
LINE
  8
_0-1_EL-SL300SAIMEI
  6
CONTINUOUS
 62
    7
 10
17.53813909745481
 20
29.602698008650272
 11
17.666296649506123
 21
30.36475312998758
  0
LINE
  8
_0-1_EL-SL300SAIMEI
  6
CONTINUOUS
 62
    7
 10
17.45407876761471
 20
27.823650700067279
 11
17.53813909745481
 21
29.602698008650272
  0
LINE
  8
_0-1_EL-SL300SAIMEI
  6
CONTINUOUS
 62
    7
 10
17.53813909745481
 20
26.681257037158481
 11
17.45407876761471
 21
27.823650700067279
  0
LINE
  8
_0-1_EL-SL300SAIMEI
  6
CONTINUOUS
 62
    7
 10
17.919855677220518
 20
25.114255355692571
 11
17.53813909745481
 21
26.681257037158481
  0
LINE
  8
_0-1_EL-SL300SAIMEI
  6
CONTINUOUS
 62
    7
 10
18.724629982574818
 20
23.379305269320792
 11
17.919855677220518
 21
25.114255355692571
  0
LINE
  8
_0-1_EL-SL300SAIMEI
  6
CONTINUOUS
 62
    7
 10
19.613464617769296
 20
22.194364677169069
 11
18.724629982574818
 21
23.379305269320792
  0
LINE
  8
_0-1_EL-SL300SAIMEI
  6
CONTINUOUS
 62
    7
 10
20.71313909666112
 20
21.177372489923279
 11
19.613464617769296
 21
22.194364677169069
  0
LINE
  8
_0-1_EL-SL300SAIMEI
  6
CONTINUOUS
 62
    7
 10
21.856910797763991
 20
20.543302665863092
 11
20.71313909666112
 21
21.177372489923279
  0
LINE
  8
_0-1_EL-SL300SAIMEI
  6
CONTINUOUS
 62
    7
 10
23.126083974530001
 20
20.161758340871682
 11
21.856910797763991
 21
20.543302665863092
  0
LINE
  8
_0-1_EL-SL300SAIMEI
  6
CONTINUOUS
 62
    7
 10
23.338301856421399
 20
37.434089065720258
 11
22.449467221227
 21
37.180357783231564
  0
LINE
  8
_0-1_EL-SL300SAIMEI
  6
CONTINUOUS
 62
    7
 10
23.97357746390151
 20
37.517977140786073
 11
23.338301856421399
 21
37.434089065720258
  0
LINE
  8
_0-1_EL-SL300SAIMEI
  6
CONTINUOUS
 62
    7
 10
24.9051312831131
 20
37.517977140786073
 11
23.97357746390151
 21
37.517977140786073
  0
LINE
  8
_0-1_EL-SL300SAIMEI
  6
CONTINUOUS
 62
    7
 10
25.540406890593101
 20
37.391369881703163
 11
24.9051312831131
 21
37.517977140786073
  0
LINE
  8
_0-1_EL-SL300SAIMEI
  6
CONTINUOUS
 62
    7
 10
24.946472428936101
 20
36.62931476036588
 11
25.32818900870172
 21
36.545426685300079
  0
LINE
  8
_0-1_EL-SL300SAIMEI
  6
CONTINUOUS
 62
    7
 10
23.720018436187111
 20
36.62931476036588
 11
24.946472428936101
 21
36.62931476036588
  0
LINE
  8
_0-1_EL-SL300SAIMEI
  6
CONTINUOUS
 62
    7
 10
22.9993044606728
 20
36.502707501282984
 11
23.720018436187111
 21
36.62931476036588
  0
LINE
  8
_0-1_EL-SL300SAIMEI
  6
CONTINUOUS
 62
    7
 10
21.983690311621199
 20
36.163710105534371
 11
22.9993044606728
 21
36.502707501282984
  0
LINE
  8
_0-1_EL-SL300SAIMEI
  6
CONTINUOUS
 62
    7
 10
21.34841470414111
 20
35.826090747979869
 11
21.983690311621199
 21
36.163710105534371
  0
LINE
  8
_0-1_EL-SL300SAIMEI
  6
CONTINUOUS
 62
    7
 10
19.951083975323797
 20
34.767757414911081
 11
21.34841470414111
 21
35.826090747979869
  0
LINE
  8
_0-1_EL-SL300SAIMEI
  6
CONTINUOUS
 62
    7
 10
19.190406892180604
 20
33.92009167076538
 11
19.951083975323797
 21
34.767757414911081
  0
LINE
  8
_0-1_EL-SL300SAIMEI
  6
CONTINUOUS
 62
    7
 10
18.385632586826304
 20
32.651090748773591
 11
19.190406892180604
 21
33.92009167076538
  0
LINE
  8
_0-1_EL-SL300SAIMEI
  6
CONTINUOUS
 62
    7
 10
17.793076163363324
 20
31.167977142373569
 11
18.385632586826304
 21
32.651090748773591
  0
LINE
  8
_0-1_EL-SL300SAIMEI
  6
CONTINUOUS
 62
    7
 10
17.411359583597608
 20
29.517259640616071
 11
17.793076163363324
 21
31.167977142373569
  0
LINE
  8
_0-1_EL-SL300SAIMEI
  6
CONTINUOUS
 62
    7
 10
17.327299253757509
 20
28.248086463850061
 11
17.411359583597608
 21
29.517259640616071
  0
LINE
  8
_0-1_EL-SL300SAIMEI
  6
CONTINUOUS
 62
    7
 10
17.45407876761471
 20
26.638710107915561
 11
17.327299253757509
 21
28.248086463850061
  0
LINE
  8
_0-1_EL-SL300SAIMEI
  6
CONTINUOUS
 62
    7
 10
17.834417309186307
 20
25.114255355692571
 11
17.45407876761471
 21
26.638710107915561
  0
LINE
  8
_0-1_EL-SL300SAIMEI
  6
CONTINUOUS
 62
    7
 10
18.428351770843399
 20
23.633036551809379
 11
17.834417309186307
 21
25.114255355692571
  0
LINE
  8
_0-1_EL-SL300SAIMEI
  6
CONTINUOUS
 62
    7
 10
19.317186406037806
 20
22.36369112026907
 11
18.428351770843399
 21
23.633036551809379
  0
LINE
  8
_0-1_EL-SL300SAIMEI
  6
CONTINUOUS
 62
    7
 10
20.332800555089506
 20
21.347043442571881
 11
19.317186406037806
 21
22.36369112026907
  0
LINE
  8
_0-1_EL-SL300SAIMEI
  6
CONTINUOUS
 62
    7
 10
21.51791340201542
 20
20.584643811686082
 11
20.332800555089506
 21
21.347043442571881
  0
LINE
  8
_0-1_EL-SL300SAIMEI
  6
CONTINUOUS
 62
    7
 10
23.084742828707
 20
20.077698011031579
 11
21.51791340201542
 21
20.584643811686082
  0
LINE
  8
_0-1_EL-SL300SAIMEI
  6
CONTINUOUS
 62
    7
 10
21.68741209988972
 20
19.781419799300071
 11
22.9993044606728
 21
19.39970321953437
  0
LINE
  8
_0-1_EL-SL300SAIMEI
  6
CONTINUOUS
 62
    7
 10
20.925356978552522
 20
20.161758340871682
 11
21.68741209988972
 21
19.781419799300071
  0
LINE
  8
_0-1_EL-SL300SAIMEI
  6
CONTINUOUS
 62
    7
 10
20.290081371072411
 20
20.584643811686082
 11
20.925356978552522
 21
20.161758340871682
  0
LINE
  8
_0-1_EL-SL300SAIMEI
  6
CONTINUOUS
 62
    7
 10
19.190406892180604
 20
21.559089069688991
 11
20.290081371072411
 21
20.584643811686082
  0
LINE
  8
_0-1_EL-SL300SAIMEI
  6
CONTINUOUS
 62
    7
 10
18.216133888951987
 20
22.87098143047206
 11
19.190406892180604
 21
21.559089069688991
  0
LINE
  8
_0-1_EL-SL300SAIMEI
  6
CONTINUOUS
 62
    7
 10
17.793076163363324
 20
23.59031736779227
 11
18.216133888951987
 21
22.87098143047206
  0
LINE
  8
_0-1_EL-SL300SAIMEI
  6
CONTINUOUS
 62
    7
 10
17.284580069740414
 20
24.81797714396107
 11
17.793076163363324
 21
23.59031736779227
  0
LINE
  8
_0-1_EL-SL300SAIMEI
  6
CONTINUOUS
 62
    7
 10
16.988301858008903
 20
26.003262245661272
 11
17.284580069740414
 21
24.81797714396107
  0
LINE
  8
_0-1_EL-SL300SAIMEI
  6
CONTINUOUS
 62
    7
 10
16.776083976117498
 20
27.400592974478581
 11
16.988301858008903
 21
26.003262245661272
  0
LINE
  8
_0-1_EL-SL300SAIMEI
  6
CONTINUOUS
 62
    7
 10
16.776083976117498
 20
28.798095958070181
 11
16.776083976117498
 21
27.400592974478581
  0
LINE
  8
_0-1_EL-SL300SAIMEI
  6
CONTINUOUS
 62
    7
 10
16.861522344151702
 20
29.602698008650272
 11
16.776083976117498
 21
28.798095958070181
  0
LINE
  8
_0-1_EL-SL300SAIMEI
  6
CONTINUOUS
 62
    7
 10
17.241860885723312
 20
31.337648095022079
 11
16.861522344151702
 21
29.602698008650272
  0
LINE
  8
_0-1_EL-SL300SAIMEI
  6
CONTINUOUS
 62
    7
 10
17.877136493203423
 20
32.947024450956583
 11
17.241860885723312
 21
31.337648095022079
  0
LINE
  8
_0-1_EL-SL300SAIMEI
  6
CONTINUOUS
 62
    7
 10
19.06224934012932
 20
34.724693721345467
 11
17.877136493203423
 21
32.947024450956583
  0
LINE
  8
_0-1_EL-SL300SAIMEI
  6
CONTINUOUS
 62
    7
 10
19.951083975323797
 20
35.613700611314158
 11
19.06224934012932
 21
34.724693721345467
  0
LINE
  8
_0-1_EL-SL300SAIMEI
  6
CONTINUOUS
 62
    7
 10
20.84129664871239
 20
36.290317364617273
 11
19.951083975323797
 21
35.613700611314158
  0
LINE
  8
_0-1_EL-SL300SAIMEI
  6
CONTINUOUS
 62
    7
 10
21.814191613746921
 20
36.798641203465884
 11
20.84129664871239
 21
36.290317364617273
  0
LINE
  8
_0-1_EL-SL300SAIMEI
  6
CONTINUOUS
 62
    7
 10
22.492186405244102
 20
37.052372485954578
 11
21.814191613746921
 21
36.798641203465884
  0
LINE
  8
_0-1_EL-SL300SAIMEI
  6
CONTINUOUS
 62
    7
 10
23.97357746390151
 20
37.307309551863064
 11
22.492186405244102
 21
37.052372485954578
  0
LINE
  8
_0-1_EL-SL300SAIMEI
  6
CONTINUOUS
 62
    7
 10
25.41224933854182
 20
37.222043438603073
 11
23.97357746390151
 21
37.307309551863064
  0
LINE
  8
_0-1_EL-SL300SAIMEI
  6
CONTINUOUS
 62
    7
 10
22.153189009495499
 20
20.458036552603069
 11
23.2542415265813
 21
20.161758340871682
  0
LINE
  8
_0-1_EL-SL300SAIMEI
  6
CONTINUOUS
 62
    7
 10
21.052136492409609
 20
21.050592976066081
 11
22.153189009495499
 21
20.458036552603069
  0
LINE
  8
_0-1_EL-SL300SAIMEI
  6
CONTINUOUS
 62
    7
 10
20.036522343358016
 20
21.85536728142046
 11
21.052136492409609
 21
21.050592976066081
  0
LINE
  8
_0-1_EL-SL300SAIMEI
  6
CONTINUOUS
 62
    7
 10
19.190406892180604
 20
22.87098143047206
 11
20.036522343358016
 21
21.85536728142046
  0
LINE
  8
_0-1_EL-SL300SAIMEI
  6
CONTINUOUS
 62
    7
 10
18.342913402809188
 20
24.395091673146691
 11
19.190406892180604
 21
22.87098143047206
  0
LINE
  8
_0-1_EL-SL300SAIMEI
  6
CONTINUOUS
 62
    7
 10
17.793076163363324
 20
26.04598142967837
 11
18.342913402809188
 21
24.395091673146691
  0
LINE
  8
_0-1_EL-SL300SAIMEI
  6
CONTINUOUS
 62
    7
 10
17.623577465489006
 20
27.147033946764292
 11
17.793076163363324
 21
26.04598142967837
  0
LINE
  8
_0-1_EL-SL300SAIMEI
  6
CONTINUOUS
 62
    7
 10
17.580858281471912
 20
28.58570582140457
 11
17.623577465489006
 21
27.147033946764292
  0
LINE
  8
_0-1_EL-SL300SAIMEI
  6
CONTINUOUS
 62
    7
 10
17.666296649506123
 20
29.686758338490371
 11
17.580858281471912
 21
28.58570582140457
  0
LINE
  8
_0-1_EL-SL300SAIMEI
  6
CONTINUOUS
 62
    7
 10
18.003916007060624
 20
31.084089067307762
 11
17.666296649506123
 21
29.686758338490371
  0
LINE
  8
_0-1_EL-SL300SAIMEI
  6
CONTINUOUS
 62
    7
 10
18.681910798557723
 20
32.734978823839484
 11
18.003916007060624
 21
31.084089067307762
  0
LINE
  8
_0-1_EL-SL300SAIMEI
  6
CONTINUOUS
 62
    7
 10
19.443965919895
 20
33.92009167076538
 11
18.681910798557723
 21
32.734978823839484
  0
LINE
  8
_0-1_EL-SL300SAIMEI
  6
CONTINUOUS
 62
    7
 10
20.332800555089506
 20
34.851645489976974
 11
19.443965919895
 21
33.92009167076538
  0
LINE
  8
_0-1_EL-SL300SAIMEI
  6
CONTINUOUS
 62
    7
 10
21.094855676426711
 20
35.487093352231263
 11
20.332800555089506
 21
34.851645489976974
  0
LINE
  8
_0-1_EL-SL300SAIMEI
  6
CONTINUOUS
 62
    7
 10
22.237249339335602
 20
36.079305266145788
 11
21.094855676426711
 21
35.487093352231263
  0
LINE
  8
_0-1_EL-SL300SAIMEI
  6
CONTINUOUS
 62
    7
 10
23.381021040438501
 20
36.418474916668579
 11
22.237249339335602
 21
36.079305266145788
  0
LINE
  8
_0-1_EL-SL300SAIMEI
  6
CONTINUOUS
 62
    7
 10
37.13935437033232
 20
55.172024445400389
 11
39.12924152261261
 21
55.002698002300271
  0
LINE
  8
_0-1_EL-SL300SAIMEI
  6
CONTINUOUS
 62
    7
 10
34.683690308446188
 20
55.509643802954891
 11
37.13935437033232
 21
55.172024445400389
  0
LINE
  8
_0-1_EL-SL300SAIMEI
  6
CONTINUOUS
 62
    7
 10
40.271635185521411
 20
54.917259634266074
 11
39.636359578041407
 21
55.002698002300271
  0
LINE
  8
_0-1_EL-SL300SAIMEI
  6
CONTINUOUS
 62
    7
 10
32.2707454305772
 20
53.774693716582973
 11
31.551409493257019
 21
53.731974532565857
  0
LINE
  8
_0-1_EL-SL300SAIMEI
  6
CONTINUOUS
 62
    7
 10
34.133853069000324
 20
53.266369877734384
 11
33.964354371126007
 21
53.182309547894278
  0
LINE
  8
_0-1_EL-SL300SAIMEI
  6
CONTINUOUS
 62
    7
 10
34.471472426554826
 20
55.552707496520497
 11
34.133853069000324
 21
53.266369877734384
  0
LINE
  8
_0-1_EL-SL300SAIMEI
  6
CONTINUOUS
 62
    7
 10
40.780131279144321
 20
54.833027049651783
 11
40.65335176528712
 21
54.876090743217368
  0
LINE
  8
_0-1_EL-SL300SAIMEI
  6
CONTINUOUS
 62
    7
 10
32.77924152420011
 20
53.392977136817294
 11
34.048414700966106
 21
53.182309547894278
  0
LINE
  8
_0-1_EL-SL300SAIMEI
  6
CONTINUOUS
 62
    7
 10
31.8904068890056
 20
53.689255348548762
 11
32.77924152420011
 21
53.392977136817294
  0
LINE
  8
_0-1_EL-SL300SAIMEI
  6
CONTINUOUS
 62
    7
 10
35.699304457497803
 20
48.059969325650577
 11
38.154968519383921
 21
47.848095953307677
  0
LINE
  8
_0-1_EL-SL300SAIMEI
  6
CONTINUOUS
 62
    7
 10
32.482963312468613
 20
48.526090744804868
 11
35.699304457497803
 21
48.059969325650577
  0
LINE
  8
_0-1_EL-SL300SAIMEI
  6
CONTINUOUS
 62
    7
 10
31.169692913491399
 20
48.86371010235937
 11
32.482963312468613
 21
48.526090744804868
  0
LINE
  8
_0-1_EL-SL300SAIMEI
  6
CONTINUOUS
 62
    7
 10
31.042913399634191
 20
49.033036545459368
 11
31.169692913491399
 21
48.86371010235937
  0
LINE
  8
_0-1_EL-SL300SAIMEI
  6
CONTINUOUS
 62
    7
 10
39.298740220486913
 20
47.594364670819068
 11
37.985469821509618
 21
47.848095953307677
  0
LINE
  8
_0-1_EL-SL300SAIMEI
  6
CONTINUOUS
 62
    7
 10
40.737412095127219
 20
54.790307865634681
 11
40.906910793001494
 21
54.790307865634681
  0
LINE
  8
_0-1_EL-SL300SAIMEI
  6
CONTINUOUS
 62
    7
 10
38.070908189543793
 20
55.044039148123268
 11
39.425519734344107
 21
54.959978818283169
  0
LINE
  8
_0-1_EL-SL300SAIMEI
  6
CONTINUOUS
 62
    7
 10
34.471472426554826
 20
55.552707496520497
 11
38.070908189543793
 21
55.044039148123268
  0
LINE
  8
_0-1_EL-SL300SAIMEI
  6
CONTINUOUS
 62
    7
 10
31.847687704988491
 20
48.694039149710768
 11
31.847687704988491
 21
48.652698003887771
  0
LINE
  8
_0-1_EL-SL300SAIMEI
  6
CONTINUOUS
 62
    7
 10
31.762249336954319
 20
48.652698003887771
 11
31.72090819113129
 21
48.73675833372787
  0
LINE
  8
_0-1_EL-SL300SAIMEI
  6
CONTINUOUS
 62
    7
 10
39.043803154578413
 20
47.848095953307677
 11
38.917023640721197
 21
47.890642882550573
  0
LINE
  8
_0-1_EL-SL300SAIMEI
  6
CONTINUOUS
 62
    7
 10
38.154968519383921
 20
47.848095953307677
 11
38.281748033241094
 21
47.890642882550573
  0
LINE
  8
_0-1_EL-SL300SAIMEI
  6
CONTINUOUS
 62
    7
 10
39.932637789772919
 20
54.917259634266074
 11
40.059417303630013
 21
54.917259634266074
  0
LINE
  8
_0-1_EL-SL300SAIMEI
  6
CONTINUOUS
 62
    7
 10
38.832963310881098
 20
47.805376769290582
 11
38.917023640721197
 21
47.890642882550573
  0
LINE
  8
_0-1_EL-SL300SAIMEI
  6
CONTINUOUS
 62
    7
 10
39.805858275915718
 20
47.339255350136263
 11
39.679078762058523
 21
47.339255350136263
  0
LINE
  8
_0-1_EL-SL300SAIMEI
  6
CONTINUOUS
 62
    7
 10
39.001083970561304
 20
47.763691113919073
 11
39.001083970561304
 21
47.890642882550573
  0
LINE
  8
_0-1_EL-SL300SAIMEI
  6
CONTINUOUS
 62
    7
 10
39.043803154578413
 20
47.763691113919073
 11
39.043803154578413
 21
47.847923698533471
  0
LINE
  8
_0-1_EL-SL300SAIMEI
  6
CONTINUOUS
 62
    7
 10
39.595018432218417
 20
47.298086459087564
 11
39.595018432218417
 21
47.381974534153358
  0
LINE
  8
_0-1_EL-SL300SAIMEI
  6
CONTINUOUS
 62
    7
 10
39.043803154578413
 20
47.763691113919073
 11
39.086522338595508
 21
47.847923698533471
  0
LINE
  8
_0-1_EL-SL300SAIMEI
  6
CONTINUOUS
 62
    7
 10
39.679078762058523
 20
47.255367275070491
 11
39.636359578041407
 21
47.339255350136263
  0
LINE
  8
_0-1_EL-SL300SAIMEI
  6
CONTINUOUS
 62
    7
 10
39.679078762058523
 20
47.255367275070491
 11
39.679078762058523
 21
47.339255350136263
  0
LINE
  8
_0-1_EL-SL300SAIMEI
  6
CONTINUOUS
 62
    7
 10
39.721797946075618
 20
47.255367275070491
 11
39.805858275915718
 21
47.339255350136263
  0
LINE
  8
_0-1_EL-SL300SAIMEI
  6
CONTINUOUS
 62
    7
 10
56.951409486907018
 20
46.493312153733179
 11
56.951409486907018
 21
46.577372483573278
  0
LINE
  8
_0-1_EL-SL300SAIMEI
  6
CONTINUOUS
 62
    7
 10
56.865971118872807
 20
46.493312153733179
 11
56.951409486907018
 21
46.493312153733179
  0
LINE
  8
_0-1_EL-SL300SAIMEI
  6
CONTINUOUS
 62
    7
 10
56.992750632730008
 20
46.577372483573278
 11
56.951409486907018
 21
46.577372483573278
  0
LINE
  8
_0-1_EL-SL300SAIMEI
  6
CONTINUOUS
 62
    7
 10
39.256021036469811
 20
47.594364670819068
 11
38.112249335366819
 21
47.848095953307677
  0
LINE
  8
_0-1_EL-SL300SAIMEI
  6
CONTINUOUS
 62
    7
 10
31.8904068890056
 20
48.652698003887771
 11
31.847687704988491
 21
48.652698003887771
  0
LINE
  8
_0-1_EL-SL300SAIMEI
  6
CONTINUOUS
 62
    7
 10
32.313464614594295
 20
53.478760014400088
 11
33.921635187108912
 21
53.182309547894278
  0
LINE
  8
_0-1_EL-SL300SAIMEI
  6
CONTINUOUS
 62
    7
 10
31.635469823097122
 20
53.648086457500064
 11
32.313464614594295
 21
53.478760014400088
  0
LINE
  8
_0-1_EL-SL300SAIMEI
  6
CONTINUOUS
 62
    7
 10
31.551409493257019
 20
53.731974532565857
 11
31.635469823097122
 21
53.648086457500064
  0
LINE
  8
_0-1_EL-SL300SAIMEI
  6
CONTINUOUS
 62
    7
 10
31.847687704988491
 20
48.652698003887771
 11
31.762249336954319
 21
48.652698003887771
  0
LINE
  8
_0-1_EL-SL300SAIMEI
  6
CONTINUOUS
 62
    7
 10
31.2551312815256
 20
48.906429286376472
 11
31.042913399634191
 21
49.033036545459368
  0
LINE
  8
_0-1_EL-SL300SAIMEI
  6
CONTINUOUS
 62
    7
 10
31.804968520971421
 20
48.779305262970787
 11
31.2551312815256
 21
48.906429286376472
  0
LINE
  8
_0-1_EL-SL300SAIMEI
  6
CONTINUOUS
 62
    7
 10
33.837574857268805
 20
48.397588683205079
 11
31.804968520971421
 21
48.779305262970787
  0
LINE
  8
_0-1_EL-SL300SAIMEI
  6
CONTINUOUS
 62
    7
 10
38.281748033241094
 20
47.890642882550573
 11
33.837574857268805
 21
48.397588683205079
  0
LINE
  8
_0-1_EL-SL300SAIMEI
  6
CONTINUOUS
 62
    7
 10
31.847687704988491
 20
48.652698003887771
 11
31.804968520971421
 21
48.694039149710768
  0
LINE
  8
_0-1_EL-SL300SAIMEI
  6
CONTINUOUS
 62
    7
 10
32.397524944434402
 20
53.731974532565857
 11
31.8904068890056
 21
53.689255348548762
  0
LINE
  8
_0-1_EL-SL300SAIMEI
  6
CONTINUOUS
 62
    7
 10
39.636359578041407
 20
47.339255350136263
 11
39.595018432218417
 21
47.381974534153358
  0
LINE
  8
_0-1_EL-SL300SAIMEI
  6
CONTINUOUS
 62
    7
 10
23.677299252170009
 20
20.077698011031579
 11
23.126083974530001
 21
20.161758340871682
  0
LINE
  8
_0-1_EL-SL300SAIMEI
  6
CONTINUOUS
 62
    7
 10
24.650194217204621
 20
20.077698011031579
 11
23.677299252170009
 21
20.077698011031579
  0
LINE
  8
_0-1_EL-SL300SAIMEI
  6
CONTINUOUS
 62
    7
 10
25.836685102324601
 20
20.33142929352017
 11
24.650194217204621
 21
20.077698011031579
  0
LINE
  8
_0-1_EL-SL300SAIMEI
  6
CONTINUOUS
 62
    7
 10
26.80958006735921
 20
20.711595580317582
 11
25.836685102324601
 21
20.33142929352017
  0
LINE
  8
_0-1_EL-SL300SAIMEI
  6
CONTINUOUS
 62
    7
 10
27.994692914285121
 20
21.516369885671882
 11
26.80958006735921
 21
20.711595580317582
  0
LINE
  8
_0-1_EL-SL300SAIMEI
  6
CONTINUOUS
 62
    7
 10
28.2496299801936
 20
21.769928913386291
 11
27.994692914285121
 21
21.516369885671882
  0
LINE
  8
_0-1_EL-SL300SAIMEI
  6
CONTINUOUS
 62
    7
 10
29.688301854833899
 20
33.370426686093772
 11
28.842186403656601
 21
34.469928910211287
  0
LINE
  8
_0-1_EL-SL300SAIMEI
  6
CONTINUOUS
 62
    7
 10
30.450356976171211
 20
31.80342500462789
 11
29.688301854833899
 21
33.370426686093772
  0
LINE
  8
_0-1_EL-SL300SAIMEI
  6
CONTINUOUS
 62
    7
 10
30.87341470175992
 20
30.36475312998758
 11
30.450356976171211
 21
31.80342500462789
  0
LINE
  8
_0-1_EL-SL300SAIMEI
  6
CONTINUOUS
 62
    7
 10
31.000194215617121
 20
29.517259640616071
 11
30.87341470175992
 21
30.36475312998758
  0
LINE
  8
_0-1_EL-SL300SAIMEI
  6
CONTINUOUS
 62
    7
 10
31.042913399634191
 20
27.992977143167291
 11
31.000194215617121
 21
29.517259640616071
  0
LINE
  8
_0-1_EL-SL300SAIMEI
  6
CONTINUOUS
 62
    7
 10
30.746635187902719
 20
26.003262245661272
 11
31.042913399634191
 21
27.992977143167291
  0
LINE
  8
_0-1_EL-SL300SAIMEI
  6
CONTINUOUS
 62
    7
 10
30.238139094279809
 20
24.52204344177807
 11
30.746635187902719
 21
26.003262245661272
  0
LINE
  8
_0-1_EL-SL300SAIMEI
  6
CONTINUOUS
 62
    7
 10
29.392023643102402
 20
22.99758868955508
 11
30.238139094279809
 21
24.52204344177807
  0
LINE
  8
_0-1_EL-SL300SAIMEI
  6
CONTINUOUS
 62
    7
 10
28.2496299801936
 20
21.769928913386291
 11
29.392023643102402
 21
22.99758868955508
  0
LINE
  8
_0-1_EL-SL300SAIMEI
  6
CONTINUOUS
 62
    7
 10
28.206910796176491
 20
35.105376772465583
 11
28.842186403656601
 21
34.469928910211287
  0
LINE
  8
_0-1_EL-SL300SAIMEI
  6
CONTINUOUS
 62
    7
 10
27.232637792947919
 20
35.783027054414283
 11
28.206910796176491
 21
35.105376772465583
  0
LINE
  8
_0-1_EL-SL300SAIMEI
  6
CONTINUOUS
 62
    7
 10
26.217023643896201
 20
36.248976218794283
 11
27.232637792947919
 21
35.783027054414283
  0
LINE
  8
_0-1_EL-SL300SAIMEI
  6
CONTINUOUS
 62
    7
 10
25.37090819271879
 20
36.459643807717278
 11
26.217023643896201
 21
36.248976218794283
  0
LINE
  8
_0-1_EL-SL300SAIMEI
  6
CONTINUOUS
 62
    7
 10
26.0048057620048
 20
19.61209335620007
 11
26.936359581216411
 21
19.992259642997372
  0
LINE
  8
_0-1_EL-SL300SAIMEI
  6
CONTINUOUS
 62
    7
 10
24.692913401221691
 20
19.315642889694271
 11
26.0048057620048
 21
19.61209335620007
  0
LINE
  8
_0-1_EL-SL300SAIMEI
  6
CONTINUOUS
 62
    7
 10
23.4650813702786
 20
19.315642889694271
 11
24.692913401221691
 21
19.315642889694271
  0
LINE
  8
_0-1_EL-SL300SAIMEI
  6
CONTINUOUS
 62
    7
 10
22.9993044606728
 20
19.39970321953437
 11
23.4650813702786
 21
19.315642889694271
  0
LINE
  8
_0-1_EL-SL300SAIMEI
  6
CONTINUOUS
 62
    7
 10
26.640081369484911
 20
36.884424081048678
 11
25.41224933854182
 21
37.222043438603073
  0
LINE
  8
_0-1_EL-SL300SAIMEI
  6
CONTINUOUS
 62
    7
 10
27.444855674839211
 20
36.502707501282984
 11
26.640081369484911
 21
36.884424081048678
  0
LINE
  8
_0-1_EL-SL300SAIMEI
  6
CONTINUOUS
 62
    7
 10
27.910632584445022
 20
36.163710105534371
 11
27.444855674839211
 21
36.502707501282984
  0
LINE
  8
_0-1_EL-SL300SAIMEI
  6
CONTINUOUS
 62
    7
 10
24.439354373507321
 20
19.992259642997372
 11
23.084742828707
 21
20.077698011031579
  0
LINE
  8
_0-1_EL-SL300SAIMEI
  6
CONTINUOUS
 62
    7
 10
25.667186404450302
 20
20.204305270114482
 11
24.439354373507321
 21
19.992259642997372
  0
LINE
  8
_0-1_EL-SL300SAIMEI
  6
CONTINUOUS
 62
    7
 10
26.682800553502009
 20
20.584643811686082
 11
25.667186404450302
 21
20.204305270114482
  0
LINE
  8
_0-1_EL-SL300SAIMEI
  6
CONTINUOUS
 62
    7
 10
27.910632584445022
 20
21.347043442571881
 11
26.682800553502009
 21
20.584643811686082
  0
LINE
  8
_0-1_EL-SL300SAIMEI
  6
CONTINUOUS
 62
    7
 10
28.96896591751381
 20
22.40537677564058
 11
27.910632584445022
 21
21.347043442571881
  0
LINE
  8
_0-1_EL-SL300SAIMEI
  6
CONTINUOUS
 62
    7
 10
29.4347428271195
 20
22.99758868955508
 11
28.96896591751381
 21
22.40537677564058
  0
LINE
  8
_0-1_EL-SL300SAIMEI
  6
CONTINUOUS
 62
    7
 10
30.027299250582509
 20
23.972033947557982
 11
29.4347428271195
 21
22.99758868955508
  0
LINE
  8
_0-1_EL-SL300SAIMEI
  6
CONTINUOUS
 62
    7
 10
30.662574858062619
 20
25.538691119475271
 11
30.027299250582509
 21
23.972033947557982
  0
LINE
  8
_0-1_EL-SL300SAIMEI
  6
CONTINUOUS
 62
    7
 10
31.000194215617121
 20
26.97770750366417
 11
30.662574858062619
 21
25.538691119475271
  0
LINE
  8
_0-1_EL-SL300SAIMEI
  6
CONTINUOUS
 62
    7
 10
31.0856325836513
 20
28.755376774053079
 11
31.000194215617121
 21
26.97770750366417
  0
LINE
  8
_0-1_EL-SL300SAIMEI
  6
CONTINUOUS
 62
    7
 10
30.91613388577699
 20
30.36475312998758
 11
31.0856325836513
 21
28.755376774053079
  0
LINE
  8
_0-1_EL-SL300SAIMEI
  6
CONTINUOUS
 62
    7
 10
30.49307616018832
 20
31.88869111788777
 11
30.91613388577699
 21
30.36475312998758
  0
LINE
  8
_0-1_EL-SL300SAIMEI
  6
CONTINUOUS
 62
    7
 10
29.98458006656541
 20
32.988710106328064
 11
30.49307616018832
 21
31.88869111788777
  0
LINE
  8
_0-1_EL-SL300SAIMEI
  6
CONTINUOUS
 62
    7
 10
29.138464615387999
 20
34.216369882496878
 11
29.98458006656541
 21
32.988710106328064
  0
LINE
  8
_0-1_EL-SL300SAIMEI
  6
CONTINUOUS
 62
    7
 10
27.783853070587821
 20
35.52826224327999
 11
29.138464615387999
 21
34.216369882496878
  0
LINE
  8
_0-1_EL-SL300SAIMEI
  6
CONTINUOUS
 62
    7
 10
26.640081369484911
 20
36.163710105534371
 11
27.783853070587821
 21
35.52826224327999
  0
LINE
  8
_0-1_EL-SL300SAIMEI
  6
CONTINUOUS
 62
    7
 10
25.32818900870172
 20
36.545426685300079
 11
26.640081369484911
 21
36.163710105534371
  0
LINE
  8
_0-1_EL-SL300SAIMEI
  6
CONTINUOUS
 62
    7
 10
25.115971126810312
 20
31.04136988329066
 11
24.7356325852388
 21
31.126635996550572
  0
LINE
  8
_0-1_EL-SL300SAIMEI
  6
CONTINUOUS
 62
    7
 10
25.6244672204332
 20
30.787638600801991
 11
25.115971126810312
 21
31.04136988329066
  0
LINE
  8
_0-1_EL-SL300SAIMEI
  6
CONTINUOUS
 62
    7
 10
26.25974282791331
 20
30.109643809304782
 11
25.6244672204332
 21
30.787638600801991
  0
LINE
  8
_0-1_EL-SL300SAIMEI
  6
CONTINUOUS
 62
    7
 10
26.640081369484911
 20
29.263700612901662
 11
26.25974282791331
 21
30.109643809304782
  0
LINE
  8
_0-1_EL-SL300SAIMEI
  6
CONTINUOUS
 62
    7
 10
26.766860883342112
 20
28.628425005421672
 11
26.640081369484911
 21
29.263700612901662
  0
LINE
  8
_0-1_EL-SL300SAIMEI
  6
CONTINUOUS
 62
    7
 10
26.725519737519111
 20
27.866369884084381
 11
26.766860883342112
 21
28.628425005421672
  0
LINE
  8
_0-1_EL-SL300SAIMEI
  6
CONTINUOUS
 62
    7
 10
26.513301855627709
 20
27.061595578730081
 11
26.725519737519111
 21
27.866369884084381
  0
LINE
  8
_0-1_EL-SL300SAIMEI
  6
CONTINUOUS
 62
    7
 10
26.132963314056109
 20
26.38497882542698
 11
26.513301855627709
 21
27.061595578730081
  0
LINE
  8
_0-1_EL-SL300SAIMEI
  6
CONTINUOUS
 62
    7
 10
25.41224933854182
 20
25.74970321794687
 11
26.132963314056109
 21
26.38497882542698
  0
LINE
  8
_0-1_EL-SL300SAIMEI
  6
CONTINUOUS
 62
    7
 10
25.031910796970219
 20
25.58037677484689
 11
25.41224933854182
 21
25.74970321794687
  0
LINE
  8
_0-1_EL-SL300SAIMEI
  6
CONTINUOUS
 62
    7
 10
24.482073557524391
 20
25.495971935458162
 11
25.031910796970219
 21
25.58037677484689
  0
LINE
  8
_0-1_EL-SL300SAIMEI
  6
CONTINUOUS
 62
    7
 10
23.381021040438501
 20
27.992977143167291
 11
23.42374022445561
 21
28.628425005421672
  0
LINE
  8
_0-1_EL-SL300SAIMEI
  6
CONTINUOUS
 62
    7
 10
23.4650813702786
 20
27.486031342512781
 11
23.381021040438501
 21
27.992977143167291
  0
LINE
  8
_0-1_EL-SL300SAIMEI
  6
CONTINUOUS
 62
    7
 10
23.80407876602721
 20
26.68142929193267
 11
23.4650813702786
 21
27.486031342512781
  0
LINE
  8
_0-1_EL-SL300SAIMEI
  6
CONTINUOUS
 62
    7
 10
24.396635189490219
 20
26.003262245661272
 11
23.80407876602721
 21
26.68142929193267
  0
LINE
  8
_0-1_EL-SL300SAIMEI
  6
CONTINUOUS
 62
    7
 10
24.7356325852388
 20
25.792422401963972
 11
24.396635189490219
 21
26.003262245661272
  0
LINE
  8
_0-1_EL-SL300SAIMEI
  6
CONTINUOUS
 62
    7
 10
25.24275064066752
 20
25.66564288810677
 11
24.7356325852388
 21
25.792422401963972
  0
LINE
  8
_0-1_EL-SL300SAIMEI
  6
CONTINUOUS
 62
    7
 10
24.016296647918619
 20
25.495971935458162
 11
24.482073557524391
 21
25.495971935458162
  0
LINE
  8
_0-1_EL-SL300SAIMEI
  6
CONTINUOUS
 62
    7
 10
23.507800554295709
 20
25.66564288810677
 11
24.016296647918619
 21
25.495971935458162
  0
LINE
  8
_0-1_EL-SL300SAIMEI
  6
CONTINUOUS
 62
    7
 10
22.957963314849799
 20
26.04598142967837
 11
23.507800554295709
 21
25.66564288810677
  0
LINE
  8
_0-1_EL-SL300SAIMEI
  6
CONTINUOUS
 62
    7
 10
22.661685103118412
 20
26.38497882542698
 11
22.957963314849799
 21
26.04598142967837
  0
LINE
  8
_0-1_EL-SL300SAIMEI
  6
CONTINUOUS
 62
    7
 10
22.322687707369802
 20
26.97770750366417
 11
22.661685103118412
 21
26.38497882542698
  0
LINE
  8
_0-1_EL-SL300SAIMEI
  6
CONTINUOUS
 62
    7
 10
22.1104698254784
 20
27.69704344098438
 11
22.322687707369802
 21
26.97770750366417
  0
LINE
  8
_0-1_EL-SL300SAIMEI
  6
CONTINUOUS
 62
    7
 10
22.1104698254784
 20
28.71369111868157
 11
22.1104698254784
 21
27.69704344098438
  0
LINE
  8
_0-1_EL-SL300SAIMEI
  6
CONTINUOUS
 62
    7
 10
24.52341470334742
 20
30.702372487542082
 11
25.24275064066752
 21
30.95730955345056
  0
LINE
  8
_0-1_EL-SL300SAIMEI
  6
CONTINUOUS
 62
    7
 10
23.888139095867309
 20
30.152707502870481
 11
24.52341470334742
 21
30.702372487542082
  0
LINE
  8
_0-1_EL-SL300SAIMEI
  6
CONTINUOUS
 62
    7
 10
23.507800554295709
 20
29.517259640616071
 11
23.888139095867309
 21
30.152707502870481
  0
LINE
  8
_0-1_EL-SL300SAIMEI
  6
CONTINUOUS
 62
    7
 10
23.295582672404301
 20
28.628425005421672
 11
23.507800554295709
 21
29.517259640616071
  0
LINE
  8
_0-1_EL-SL300SAIMEI
  6
CONTINUOUS
 62
    7
 10
22.3654068913869
 20
29.644039154473269
 11
22.1104698254784
 21
28.71369111868157
  0
LINE
  8
_0-1_EL-SL300SAIMEI
  6
CONTINUOUS
 62
    7
 10
22.61896591910131
 20
30.109643809304782
 11
22.3654068913869
 21
29.644039154473269
  0
LINE
  8
_0-1_EL-SL300SAIMEI
  6
CONTINUOUS
 62
    7
 10
23.126083974530001
 20
30.661031341719092
 11
22.61896591910131
 21
30.109643809304782
  0
LINE
  8
_0-1_EL-SL300SAIMEI
  6
CONTINUOUS
 62
    7
 10
23.846797950044309
 20
31.04136988329066
 11
23.126083974530001
 21
30.661031341719092
  0
LINE
  8
_0-1_EL-SL300SAIMEI
  6
CONTINUOUS
 62
    7
 10
24.14307616177582
 20
31.126808251324871
 11
23.846797950044309
 21
31.04136988329066
  0
LINE
  8
_0-1_EL-SL300SAIMEI
  6
CONTINUOUS
 62
    7
 10
24.7356325852388
 20
31.126808251324871
 11
24.14307616177582
 21
31.126808251324871
  0
LINE
  8
_0-1_EL-SL300SAIMEI
  6
CONTINUOUS
 62
    7
 10
23.2542415265813
 20
27.823650700067279
 11
23.295582672404301
 21
28.628425005421672
  0
LINE
  8
_0-1_EL-SL300SAIMEI
  6
CONTINUOUS
 62
    7
 10
23.381021040438501
 20
27.273641205847159
 11
23.2542415265813
 21
27.823650700067279
  0
LINE
  8
_0-1_EL-SL300SAIMEI
  6
CONTINUOUS
 62
    7
 10
23.634580068152911
 20
26.68142929193267
 11
23.381021040438501
 21
27.273641205847159
  0
LINE
  8
_0-1_EL-SL300SAIMEI
  6
CONTINUOUS
 62
    7
 10
24.057637793741609
 20
26.131419797712571
 11
23.634580068152911
 21
26.68142929193267
  0
LINE
  8
_0-1_EL-SL300SAIMEI
  6
CONTINUOUS
 62
    7
 10
24.482073557524391
 20
25.792422401963972
 11
24.057637793741609
 21
26.131419797712571
  0
LINE
  8
_0-1_EL-SL300SAIMEI
  6
CONTINUOUS
 62
    7
 10
25.031910796970219
 20
25.62309595886396
 11
24.482073557524391
 21
25.792422401963972
  0
LINE
  8
_0-1_EL-SL300SAIMEI
  6
CONTINUOUS
 62
    7
 10
24.862412099096002
 20
30.745091671559191
 11
25.41224933854182
 21
30.87204344019057
  0
LINE
  8
_0-1_EL-SL300SAIMEI
  6
CONTINUOUS
 62
    7
 10
24.14307616177582
 20
30.236595577936281
 11
24.862412099096002
 21
30.745091671559191
  0
LINE
  8
_0-1_EL-SL300SAIMEI
  6
CONTINUOUS
 62
    7
 10
23.634580068152911
 20
29.476090749567369
 11
24.14307616177582
 21
30.236595577936281
  0
LINE
  8
_0-1_EL-SL300SAIMEI
  6
CONTINUOUS
 62
    7
 10
23.42374022445561
 20
28.628425005421672
 11
23.634580068152911
 21
29.476090749567369
  0
LINE
  8
_0-1_EL-SL300SAIMEI
  6
CONTINUOUS
 62
    7
 10
20.545018436980925
 20
19.019364677962791
 11
22.067750641461291
 21
18.594928914180091
  0
LINE
  8
_0-1_EL-SL300SAIMEI
  6
CONTINUOUS
 62
    7
 10
19.190406892180604
 20
19.781419799300071
 11
20.545018436980925
 21
19.019364677962791
  0
LINE
  8
_0-1_EL-SL300SAIMEI
  6
CONTINUOUS
 62
    7
 10
17.834417309186307
 20
21.009424085017379
 11
19.190406892180604
 21
19.781419799300071
  0
LINE
  8
_0-1_EL-SL300SAIMEI
  6
CONTINUOUS
 62
    7
 10
17.031021042025998
 20
21.981974540503369
 11
17.834417309186307
 21
21.009424085017379
  0
LINE
  8
_0-1_EL-SL300SAIMEI
  6
CONTINUOUS
 62
    7
 10
16.015406892974397
 20
23.92931476354088
 11
17.031021042025998
 21
21.981974540503369
  0
LINE
  8
_0-1_EL-SL300SAIMEI
  6
CONTINUOUS
 62
    7
 10
15.464191615334421
 20
25.876310477029772
 11
16.015406892974397
 21
23.92931476354088
  0
LINE
  8
_0-1_EL-SL300SAIMEI
  6
CONTINUOUS
 62
    7
 10
15.253351771637121
 20
27.189753130781281
 11
15.464191615334421
 21
25.876310477029772
  0
LINE
  8
_0-1_EL-SL300SAIMEI
  6
CONTINUOUS
 62
    7
 10
15.253351771637121
 20
28.797923703295972
 11
15.253351771637121
 21
27.189753130781281
  0
LINE
  8
_0-1_EL-SL300SAIMEI
  6
CONTINUOUS
 62
    7
 10
15.380131285494286
 20
30.195426686887579
 11
15.253351771637121
 21
28.797923703295972
  0
LINE
  8
_0-1_EL-SL300SAIMEI
  6
CONTINUOUS
 62
    7
 10
15.590971129191587
 20
31.126635996550572
 11
15.380131285494286
 21
30.195426686887579
  0
LINE
  8
_0-1_EL-SL300SAIMEI
  6
CONTINUOUS
 62
    7
 10
16.015406892974397
 20
32.438700612107972
 11
15.590971129191587
 21
31.126635996550572
  0
LINE
  8
_0-1_EL-SL300SAIMEI
  6
CONTINUOUS
 62
    7
 10
16.649304462260304
 20
33.793312156908179
 11
16.015406892974397
 21
32.438700612107972
  0
LINE
  8
_0-1_EL-SL300SAIMEI
  6
CONTINUOUS
 62
    7
 10
17.370018437774611
 20
34.894364673994069
 11
16.649304462260304
 21
33.793312156908179
  0
LINE
  8
_0-1_EL-SL300SAIMEI
  6
CONTINUOUS
 62
    7
 10
17.919855677220518
 20
35.570981427297063
 11
17.370018437774611
 21
34.894364673994069
  0
LINE
  8
_0-1_EL-SL300SAIMEI
  6
CONTINUOUS
 62
    7
 10
19.190406892180604
 20
36.755922019448782
 11
17.919855677220518
 21
35.570981427297063
  0
LINE
  8
_0-1_EL-SL300SAIMEI
  6
CONTINUOUS
 62
    7
 10
19.909742829500814
 20
37.222043438603073
 11
19.190406892180604
 21
36.755922019448782
  0
LINE
  8
_0-1_EL-SL300SAIMEI
  6
CONTINUOUS
 62
    7
 10
20.755858280678222
 20
37.644928909417558
 11
19.909742829500814
 21
37.222043438603073
  0
LINE
  8
_0-1_EL-SL300SAIMEI
  6
CONTINUOUS
 62
    7
 10
21.856910797763991
 20
38.026645489183188
 11
20.755858280678222
 21
37.644928909417558
  0
LINE
  8
_0-1_EL-SL300SAIMEI
  6
CONTINUOUS
 62
    7
 10
23.4650813702786
 20
38.238691116300274
 11
21.856910797763991
 21
38.026645489183188
  0
LINE
  8
_0-1_EL-SL300SAIMEI
  6
CONTINUOUS
 62
    7
 10
24.608853071381599
 20
38.15342500304039
 11
23.4650813702786
 21
38.238691116300274
  0
LINE
  8
_0-1_EL-SL300SAIMEI
  6
CONTINUOUS
 62
    7
 10
28.503189007907999
 20
21.220091673940381
 11
29.518803156959599
 21
22.531984034723571
  0
LINE
  8
_0-1_EL-SL300SAIMEI
  6
CONTINUOUS
 62
    7
 10
27.105858279090722
 20
20.077698011031579
 11
28.503189007907999
 21
21.220091673940381
  0
LINE
  8
_0-1_EL-SL300SAIMEI
  6
CONTINUOUS
 62
    7
 10
25.920745432164701
 20
19.442422403551472
 11
27.105858279090722
 21
20.077698011031579
  0
LINE
  8
_0-1_EL-SL300SAIMEI
  6
CONTINUOUS
 62
    7
 10
25.540406890593101
 20
19.315642889694271
 11
25.920745432164701
 21
19.442422403551472
  0
LINE
  8
_0-1_EL-SL300SAIMEI
  6
CONTINUOUS
 62
    7
 10
24.52341470334742
 20
19.060705823785792
 11
25.540406890593101
 21
19.315642889694271
  0
LINE
  8
_0-1_EL-SL300SAIMEI
  6
CONTINUOUS
 62
    7
 10
23.720018436187111
 20
18.976645493945721
 11
24.52341470334742
 21
19.060705823785792
  0
LINE
  8
_0-1_EL-SL300SAIMEI
  6
CONTINUOUS
 62
    7
 10
21.8996299817811
 20
19.145971937045662
 11
22.61896591910131
 21
19.019364677962791
  0
LINE
  8
_0-1_EL-SL300SAIMEI
  6
CONTINUOUS
 62
    7
 10
20.88263779453542
 20
19.48514158756857
 11
21.8996299817811
 21
19.145971937045662
  0
LINE
  8
_0-1_EL-SL300SAIMEI
  6
CONTINUOUS
 62
    7
 10
20.16330185721521
 20
19.82258869034877
 11
20.88263779453542
 21
19.48514158756857
  0
LINE
  8
_0-1_EL-SL300SAIMEI
  6
CONTINUOUS
 62
    7
 10
19.274467222020704
 20
20.458036552603069
 11
20.16330185721521
 21
19.82258869034877
  0
LINE
  8
_0-1_EL-SL300SAIMEI
  6
CONTINUOUS
 62
    7
 10
18.300194218792122
 20
21.347043442571881
 11
19.274467222020704
 21
20.458036552603069
  0
LINE
  8
_0-1_EL-SL300SAIMEI
  6
CONTINUOUS
 62
    7
 10
17.115081371866097
 20
22.99758868955508
 11
18.300194218792122
 21
21.347043442571881
  0
LINE
  8
_0-1_EL-SL300SAIMEI
  6
CONTINUOUS
 62
    7
 10
16.395745434545887
 20
24.64865070086109
 11
17.115081371866097
 21
22.99758868955508
  0
LINE
  8
_0-1_EL-SL300SAIMEI
  6
CONTINUOUS
 62
    7
 10
16.056748038797402
 20
25.96209335461257
 11
16.395745434545887
 21
24.64865070086109
  0
LINE
  8
_0-1_EL-SL300SAIMEI
  6
CONTINUOUS
 62
    7
 10
15.845908195100101
 20
27.739762625001479
 11
16.056748038797402
 21
25.96209335461257
  0
LINE
  8
_0-1_EL-SL300SAIMEI
  6
CONTINUOUS
 62
    7
 10
15.887249340923098
 20
29.22098142888456
 11
15.845908195100101
 21
27.739762625001479
  0
LINE
  8
_0-1_EL-SL300SAIMEI
  6
CONTINUOUS
 62
    7
 10
16.099467222814496
 20
30.534424082636182
 11
15.887249340923098
 21
29.22098142888456
  0
LINE
  8
_0-1_EL-SL300SAIMEI
  6
CONTINUOUS
 62
    7
 10
16.479805764385986
 20
31.88869111788777
 11
16.099467222814496
 21
30.534424082636182
  0
LINE
  8
_0-1_EL-SL300SAIMEI
  6
CONTINUOUS
 62
    7
 10
16.776083976117498
 20
32.651090748773591
 11
16.479805764385986
 21
31.88869111788777
  0
LINE
  8
_0-1_EL-SL300SAIMEI
  6
CONTINUOUS
 62
    7
 10
17.411359583597608
 20
33.836031340925281
 11
16.776083976117498
 21
32.651090748773591
  0
LINE
  8
_0-1_EL-SL300SAIMEI
  6
CONTINUOUS
 62
    7
 10
18.681910798557723
 20
35.487093352231263
 11
17.411359583597608
 21
33.836031340925281
  0
LINE
  8
_0-1_EL-SL300SAIMEI
  6
CONTINUOUS
 62
    7
 10
19.951083975323797
 20
36.502707501282984
 11
18.681910798557723
 21
35.487093352231263
  0
LINE
  8
_0-1_EL-SL300SAIMEI
  6
CONTINUOUS
 62
    7
 10
21.34841470414111
 20
37.264762622620168
 11
19.951083975323797
 21
36.502707501282984
  0
LINE
  8
_0-1_EL-SL300SAIMEI
  6
CONTINUOUS
 62
    7
 10
22.829805762798522
 20
37.644928909417558
 11
21.34841470414111
 21
37.264762622620168
  0
LINE
  8
_0-1_EL-SL300SAIMEI
  6
CONTINUOUS
 62
    7
 10
24.353916005473121
 20
37.687648093434582
 11
22.829805762798522
 21
37.644928909417558
  0
LINE
  8
_0-1_EL-SL300SAIMEI
  6
CONTINUOUS
 62
    7
 10
16.015406892974397
 20
27.69704344098438
 11
16.142186406831613
 21
29.686758338490371
  0
LINE
  8
_0-1_EL-SL300SAIMEI
  6
CONTINUOUS
 62
    7
 10
16.353026250528913
 20
25.410705822198292
 11
16.015406892974397
 21
27.69704344098438
  0
LINE
  8
_0-1_EL-SL300SAIMEI
  6
CONTINUOUS
 62
    7
 10
17.157800555883213
 20
23.252698010237772
 11
16.353026250528913
 21
25.410705822198292
  0
LINE
  8
_0-1_EL-SL300SAIMEI
  6
CONTINUOUS
 62
    7
 10
17.793076163363324
 20
22.194364677169069
 11
17.157800555883213
 21
23.252698010237772
  0
LINE
  8
_0-1_EL-SL300SAIMEI
  6
CONTINUOUS
 62
    7
 10
19.020908194306287
 20
20.797033948351789
 11
17.793076163363324
 21
22.194364677169069
  0
LINE
  8
_0-1_EL-SL300SAIMEI
  6
CONTINUOUS
 62
    7
 10
19.697524947609395
 20
20.24702445413158
 11
19.020908194306287
 21
20.797033948351789
  0
LINE
  8
_0-1_EL-SL300SAIMEI
  6
CONTINUOUS
 62
    7
 10
20.671797950838119
 20
19.653262247248769
 11
19.697524947609395
 21
20.24702445413158
  0
LINE
  8
_0-1_EL-SL300SAIMEI
  6
CONTINUOUS
 62
    7
 10
22.026409495638301
 20
19.145971937045662
 11
20.671797950838119
 21
19.653262247248769
  0
LINE
  8
_0-1_EL-SL300SAIMEI
  6
CONTINUOUS
 62
    7
 10
23.084742828707
 20
18.976645493945721
 11
22.026409495638301
 21
19.145971937045662
  0
LINE
  8
_0-1_EL-SL300SAIMEI
  6
CONTINUOUS
 62
    7
 10
23.591860884135802
 20
18.976645493945721
 11
23.084742828707
 21
18.976645493945721
  0
LINE
  8
_0-1_EL-SL300SAIMEI
  6
CONTINUOUS
 62
    7
 10
24.016296647918619
 20
18.806974541297201
 11
22.957963314849799
 21
18.764255357280099
  0
LINE
  8
_0-1_EL-SL300SAIMEI
  6
CONTINUOUS
 62
    7
 10
25.497687706575991
 20
19.145971937045662
 11
24.016296647918619
 21
18.806974541297201
  0
LINE
  8
_0-1_EL-SL300SAIMEI
  6
CONTINUOUS
 62
    7
 10
26.895018435393421
 20
19.82258869034877
 11
25.497687706575991
 21
19.145971937045662
  0
LINE
  8
_0-1_EL-SL300SAIMEI
  6
CONTINUOUS
 62
    7
 10
27.910632584445022
 20
20.584643811686082
 11
26.895018435393421
 21
19.82258869034877
  0
LINE
  8
_0-1_EL-SL300SAIMEI
  6
CONTINUOUS
 62
    7
 10
28.417750639873791
 20
21.09331216008318
 11
27.910632584445022
 21
20.584643811686082
  0
LINE
  8
_0-1_EL-SL300SAIMEI
  6
CONTINUOUS
 62
    7
 10
29.476083972942501
 20
22.36369112026907
 11
28.417750639873791
 21
21.09331216008318
  0
LINE
  8
_0-1_EL-SL300SAIMEI
  6
CONTINUOUS
 62
    7
 10
30.366296646331111
 20
24.01475313157508
 11
29.476083972942501
 21
22.36369112026907
  0
LINE
  8
_0-1_EL-SL300SAIMEI
  6
CONTINUOUS
 62
    7
 10
30.91613388577699
 20
25.66564288810677
 11
30.366296646331111
 21
24.01475313157508
  0
LINE
  8
_0-1_EL-SL300SAIMEI
  6
CONTINUOUS
 62
    7
 10
31.128351767668399
 20
26.59702445254408
 11
30.91613388577699
 21
25.66564288810677
  0
LINE
  8
_0-1_EL-SL300SAIMEI
  6
CONTINUOUS
 62
    7
 10
31.2551312815256
 20
27.90908906810149
 11
31.128351767668399
 21
26.59702445254408
  0
LINE
  8
_0-1_EL-SL300SAIMEI
  6
CONTINUOUS
 62
    7
 10
31.2551312815256
 20
29.34758868796758
 11
31.2551312815256
 21
27.90908906810149
  0
LINE
  8
_0-1_EL-SL300SAIMEI
  6
CONTINUOUS
 62
    7
 10
31.000194215617121
 20
31.084089067307762
 11
31.2551312815256
 21
29.34758868796758
  0
LINE
  8
_0-1_EL-SL300SAIMEI
  6
CONTINUOUS
 62
    7
 10
30.619855674045521
 20
32.39598142809087
 11
31.000194215617121
 21
31.084089067307762
  0
LINE
  8
_0-1_EL-SL300SAIMEI
  6
CONTINUOUS
 62
    7
 10
30.238139094279809
 20
33.243302662688087
 11
30.619855674045521
 21
32.39598142809087
  0
LINE
  8
_0-1_EL-SL300SAIMEI
  6
CONTINUOUS
 62
    7
 10
29.6042415249938
 20
34.342977141579787
 11
30.238139094279809
 21
33.243302662688087
  0
LINE
  8
_0-1_EL-SL300SAIMEI
  6
CONTINUOUS
 62
    7
 10
28.6299685217652
 20
35.613700611314158
 11
29.6042415249938
 21
34.342977141579787
  0
LINE
  8
_0-1_EL-SL300SAIMEI
  6
CONTINUOUS
 62
    7
 10
28.080131282319321
 20
36.163710105534371
 11
28.6299685217652
 21
35.613700611314158
  0
LINE
  8
_0-1_EL-SL300SAIMEI
  6
CONTINUOUS
 62
    7
 10
27.444855674839211
 20
36.62931476036588
 11
28.080131282319321
 21
36.163710105534371
  0
LINE
  8
_0-1_EL-SL300SAIMEI
  6
CONTINUOUS
 62
    7
 10
26.0048057620048
 20
37.434089065720258
 11
27.444855674839211
 21
36.62931476036588
  0
LINE
  8
_0-1_EL-SL300SAIMEI
  6
CONTINUOUS
 62
    7
 10
24.989191612953199
 20
37.773086461468793
 11
26.0048057620048
 21
37.434089065720258
  0
LINE
  8
_0-1_EL-SL300SAIMEI
  6
CONTINUOUS
 62
    7
 10
24.650194217204621
 20
37.81425535251757
 11
24.989191612953199
 21
37.773086461468793
  0
LINE
  8
_0-1_EL-SL300SAIMEI
  6
CONTINUOUS
 62
    7
 10
30.280858278296911
 20
23.845426688475079
 11
30.958853069794099
 21
25.876310477029772
  0
LINE
  8
_0-1_EL-SL300SAIMEI
  6
CONTINUOUS
 62
    7
 10
29.518803156959599
 20
22.531984034723571
 11
30.280858278296911
 21
23.845426688475079
  0
LINE
  8
_0-1_EL-SL300SAIMEI
  6
CONTINUOUS
 62
    7
 10
25.751246734290401
 20
37.434089065720258
 11
24.778351769255899
 21
37.687648093434582
  0
LINE
  8
_0-1_EL-SL300SAIMEI
  6
CONTINUOUS
 62
    7
 10
26.852299251376319
 20
36.925592972097384
 11
25.751246734290401
 21
37.434089065720258
  0
LINE
  8
_0-1_EL-SL300SAIMEI
  6
CONTINUOUS
 62
    7
 10
27.825194216410811
 20
36.290317364617273
 11
26.852299251376319
 21
36.925592972097384
  0
LINE
  8
_0-1_EL-SL300SAIMEI
  6
CONTINUOUS
 62
    7
 10
28.672687705782302
 20
35.487093352231263
 11
27.825194216410811
 21
36.290317364617273
  0
LINE
  8
_0-1_EL-SL300SAIMEI
  6
CONTINUOUS
 62
    7
 10
29.6042415249938
 20
34.342977141579787
 11
28.672687705782302
 21
35.487093352231263
  0
LINE
  8
_0-1_EL-SL300SAIMEI
  6
CONTINUOUS
 62
    7
 10
30.619855674045521
 20
32.31209335302507
 11
30.238139094279809
 21
33.243302662688087
  0
LINE
  8
_0-1_EL-SL300SAIMEI
  6
CONTINUOUS
 62
    7
 10
31.000194215617121
 20
31.04136988329066
 11
30.619855674045521
 21
32.31209335302507
  0
LINE
  8
_0-1_EL-SL300SAIMEI
  6
CONTINUOUS
 62
    7
 10
22.9993044606728
 20
37.644928909417558
 11
24.439354373507321
 21
37.687648093434582
  0
LINE
  8
_0-1_EL-SL300SAIMEI
  6
CONTINUOUS
 62
    7
 10
21.34841470414111
 20
37.180357783231564
 11
22.9993044606728
 21
37.644928909417558
  0
LINE
  8
_0-1_EL-SL300SAIMEI
  6
CONTINUOUS
 62
    7
 10
20.671797950838119
 20
36.841360387482993
 11
21.34841470414111
 21
37.180357783231564
  0
LINE
  8
_0-1_EL-SL300SAIMEI
  6
CONTINUOUS
 62
    7
 10
19.190406892180604
 20
35.783027054414283
 11
20.671797950838119
 21
36.841360387482993
  0
LINE
  8
_0-1_EL-SL300SAIMEI
  6
CONTINUOUS
 62
    7
 10
18.089354375094821
 20
34.555367278245463
 11
19.190406892180604
 21
35.783027054414283
  0
LINE
  8
_0-1_EL-SL300SAIMEI
  6
CONTINUOUS
 62
    7
 10
17.115081371866097
 20
32.947024450956583
 11
18.089354375094821
 21
34.555367278245463
  0
LINE
  8
_0-1_EL-SL300SAIMEI
  6
CONTINUOUS
 62
    7
 10
16.395745434545887
 20
31.084089067307762
 11
17.115081371866097
 21
32.947024450956583
  0
LINE
  8
_0-1_EL-SL300SAIMEI
  6
CONTINUOUS
 62
    7
 10
16.142186406831613
 20
29.686758338490371
 11
16.395745434545887
 21
31.084089067307762
  0
LINE
  8
_0-1_EL-SL300SAIMEI
  6
CONTINUOUS
 62
    7
 10
21.730131283906822
 20
18.933926309928619
 11
22.067750641461291
 21
18.892757418879921
  0
LINE
  8
_0-1_EL-SL300SAIMEI
  6
CONTINUOUS
 62
    7
 10
20.71313909666112
 20
19.272923705677162
 11
21.730131283906822
 21
18.933926309928619
  0
LINE
  8
_0-1_EL-SL300SAIMEI
  6
CONTINUOUS
 62
    7
 10
20.036522343358016
 20
19.569374172182972
 11
20.71313909666112
 21
19.272923705677162
  0
LINE
  8
_0-1_EL-SL300SAIMEI
  6
CONTINUOUS
 62
    7
 10
19.317186406037806
 20
20.034978827014481
 11
20.036522343358016
 21
19.569374172182972
  0
LINE
  8
_0-1_EL-SL300SAIMEI
  6
CONTINUOUS
 62
    7
 10
18.046635191077719
 20
21.09331216008318
 11
19.317186406037806
 21
20.034978827014481
  0
LINE
  8
_0-1_EL-SL300SAIMEI
  6
CONTINUOUS
 62
    7
 10
17.031021042025998
 20
22.447923704883472
 11
18.046635191077719
 21
21.09331216008318
  0
LINE
  8
_0-1_EL-SL300SAIMEI
  6
CONTINUOUS
 62
    7
 10
16.099467222814496
 20
24.352372489129589
 11
17.031021042025998
 21
22.447923704883472
  0
LINE
  8
_0-1_EL-SL300SAIMEI
  6
CONTINUOUS
 62
    7
 10
15.717750643048788
 20
25.622923704089661
 11
16.099467222814496
 21
24.352372489129589
  0
LINE
  8
_0-1_EL-SL300SAIMEI
  6
CONTINUOUS
 62
    7
 10
15.464191615334421
 20
27.359424083429882
 11
15.717750643048788
 21
25.622923704089661
  0
LINE
  8
_0-1_EL-SL300SAIMEI
  6
CONTINUOUS
 62
    7
 10
15.506910799351488
 20
29.263700612901662
 11
15.464191615334421
 21
27.359424083429882
  0
LINE
  8
_0-1_EL-SL300SAIMEI
  6
CONTINUOUS
 62
    7
 10
15.590971129191587
 20
30.152707502870481
 11
15.506910799351488
 21
29.263700612901662
  0
LINE
  8
_0-1_EL-SL300SAIMEI
  6
CONTINUOUS
 62
    7
 10
15.887249340923098
 20
31.46425535410507
 11
15.590971129191587
 21
30.152707502870481
  0
LINE
  8
_0-1_EL-SL300SAIMEI
  6
CONTINUOUS
 62
    7
 10
16.353026250528913
 20
32.692259639822367
 11
15.887249340923098
 21
31.46425535410507
  0
LINE
  8
_0-1_EL-SL300SAIMEI
  6
CONTINUOUS
 62
    7
 10
17.241860885723312
 20
34.342977141579787
 11
16.353026250528913
 21
32.692259639822367
  0
LINE
  8
_0-1_EL-SL300SAIMEI
  6
CONTINUOUS
 62
    7
 10
17.96257486123762
 20
35.274703215565673
 11
17.241860885723312
 21
34.342977141579787
  0
LINE
  8
_0-1_EL-SL300SAIMEI
  6
CONTINUOUS
 62
    7
 10
18.808690312414925
 20
36.12202445016289
 11
17.96257486123762
 21
35.274703215565673
  0
LINE
  8
_0-1_EL-SL300SAIMEI
  6
CONTINUOUS
 62
    7
 10
19.443965919895
 20
36.62931476036588
 11
18.808690312414925
 21
36.12202445016289
  0
LINE
  8
_0-1_EL-SL300SAIMEI
  6
CONTINUOUS
 62
    7
 10
20.84129664871239
 20
37.391369881703163
 11
19.443965919895
 21
36.62931476036588
  0
LINE
  8
_0-1_EL-SL300SAIMEI
  6
CONTINUOUS
 62
    7
 10
21.94097112760409
 20
37.773086461468793
 11
20.84129664871239
 21
37.391369881703163
  0
LINE
  8
_0-1_EL-SL300SAIMEI
  6
CONTINUOUS
 62
    7
 10
23.126083974530001
 20
37.942757414117388
 11
21.94097112760409
 21
37.773086461468793
  0
LINE
  8
_0-1_EL-SL300SAIMEI
  6
CONTINUOUS
 62
    7
 10
23.761359582010112
 20
37.942757414117388
 11
23.126083974530001
 21
37.942757414117388
  0
LINE
  8
_0-1_EL-SL300SAIMEI
  6
CONTINUOUS
 62
    7
 10
21.475194217998311
 20
19.019364677962791
 11
22.195908193512601
 21
18.892757418879921
  0
LINE
  8
_0-1_EL-SL300SAIMEI
  6
CONTINUOUS
 62
    7
 10
20.755858280678222
 20
19.272923705677162
 11
21.475194217998311
 21
19.019364677962791
  0
LINE
  8
_0-1_EL-SL300SAIMEI
  6
CONTINUOUS
 62
    7
 10
19.443965919895
 20
19.992259642997372
 11
20.755858280678222
 21
19.272923705677162
  0
LINE
  8
_0-1_EL-SL300SAIMEI
  6
CONTINUOUS
 62
    7
 10
18.17341470493492
 20
21.09331216008318
 11
19.443965919895
 21
19.992259642997372
  0
LINE
  8
_0-1_EL-SL300SAIMEI
  6
CONTINUOUS
 62
    7
 10
17.157800555883213
 20
22.40537677564058
 11
18.17341470493492
 21
21.09331216008318
  0
LINE
  8
_0-1_EL-SL300SAIMEI
  6
CONTINUOUS
 62
    7
 10
16.226246736671698
 20
24.26831215928949
 11
17.157800555883213
 21
22.40537677564058
  0
LINE
  8
_0-1_EL-SL300SAIMEI
  6
CONTINUOUS
 62
    7
 10
15.845908195100101
 20
25.58037677484689
 11
16.226246736671698
 21
24.26831215928949
  0
LINE
  8
_0-1_EL-SL300SAIMEI
  6
CONTINUOUS
 62
    7
 10
15.590971129191587
 20
27.273641205847159
 11
15.845908195100101
 21
25.58037677484689
  0
LINE
  8
_0-1_EL-SL300SAIMEI
  6
CONTINUOUS
 62
    7
 10
15.590971129191587
 20
29.17826224486749
 11
15.590971129191587
 21
27.273641205847159
  0
LINE
  8
_0-1_EL-SL300SAIMEI
  6
CONTINUOUS
 62
    7
 10
15.887249340923098
 20
30.95730955345056
 11
15.590971129191587
 21
29.17826224486749
  0
LINE
  8
_0-1_EL-SL300SAIMEI
  6
CONTINUOUS
 62
    7
 10
16.268965920688814
 20
32.226310475442268
 11
15.887249340923098
 21
30.95730955345056
  0
LINE
  8
_0-1_EL-SL300SAIMEI
  6
CONTINUOUS
 62
    7
 10
17.031021042025998
 20
33.793312156908179
 11
16.268965920688814
 21
32.226310475442268
  0
LINE
  8
_0-1_EL-SL300SAIMEI
  6
CONTINUOUS
 62
    7
 10
18.300194218792122
 20
35.52826224327999
 11
17.031021042025998
 21
33.793312156908179
  0
LINE
  8
_0-1_EL-SL300SAIMEI
  6
CONTINUOUS
 62
    7
 10
19.824304461466596
 20
36.798641203465884
 11
18.300194218792122
 21
35.52826224327999
  0
LINE
  8
_0-1_EL-SL300SAIMEI
  6
CONTINUOUS
 62
    7
 10
20.925356978552522
 20
37.391369881703163
 11
19.824304461466596
 21
36.798641203465884
  0
LINE
  8
_0-1_EL-SL300SAIMEI
  6
CONTINUOUS
 62
    7
 10
22.322687707369802
 20
37.81425535251757
 11
20.925356978552522
 21
37.391369881703163
  0
LINE
  8
_0-1_EL-SL300SAIMEI
  6
CONTINUOUS
 62
    7
 10
23.761359582010112
 20
37.942757414117388
 11
22.322687707369802
 21
37.81425535251757
  0
LINE
  8
_0-1_EL-SL300SAIMEI
  6
CONTINUOUS
 62
    7
 10
16.142186406831613
 20
31.126808251324871
 11
15.887249340923098
 21
29.729305267733292
  0
LINE
  8
_0-1_EL-SL300SAIMEI
  6
CONTINUOUS
 62
    7
 10
16.522524948403102
 20
32.269374169007968
 11
16.142186406831613
 21
31.126808251324871
  0
LINE
  8
_0-1_EL-SL300SAIMEI
  6
CONTINUOUS
 62
    7
 10
17.411359583597608
 20
34.005357784025371
 11
16.522524948403102
 21
32.269374169007968
  0
LINE
  8
_0-1_EL-SL300SAIMEI
  6
CONTINUOUS
 62
    7
 10
18.808690312414925
 20
35.69758868638008
 11
17.411359583597608
 21
34.005357784025371
  0
LINE
  8
_0-1_EL-SL300SAIMEI
  6
CONTINUOUS
 62
    7
 10
20.07924152737511
 20
36.672033944382981
 11
18.808690312414925
 21
35.69758868638008
  0
LINE
  8
_0-1_EL-SL300SAIMEI
  6
CONTINUOUS
 62
    7
 10
21.221635190283909
 20
37.264762622620168
 11
20.07924152737511
 21
36.672033944382981
  0
LINE
  8
_0-1_EL-SL300SAIMEI
  6
CONTINUOUS
 62
    7
 10
22.153189009495499
 20
37.56104083435168
 11
21.221635190283909
 21
37.264762622620168
  0
LINE
  8
_0-1_EL-SL300SAIMEI
  6
CONTINUOUS
 62
    7
 10
22.872524946815592
 20
37.687648093434582
 11
22.153189009495499
 21
37.56104083435168
  0
LINE
  8
_0-1_EL-SL300SAIMEI
  6
CONTINUOUS
 62
    7
 10
24.353916005473121
 20
37.687648093434582
 11
22.872524946815592
 21
37.687648093434582
  0
LINE
  8
_0-1_EL-SL300SAIMEI
  6
CONTINUOUS
 62
    7
 10
16.479805764385986
 20
31.380367279039181
 11
16.142186406831613
 21
29.686758338490371
  0
LINE
  8
_0-1_EL-SL300SAIMEI
  6
CONTINUOUS
 62
    7
 10
17.157800555883213
 20
33.031429290345173
 11
16.479805764385986
 21
31.380367279039181
  0
LINE
  8
_0-1_EL-SL300SAIMEI
  6
CONTINUOUS
 62
    7
 10
17.750356979346208
 20
34.089762623413982
 11
17.157800555883213
 21
33.031429290345173
  0
LINE
  8
_0-1_EL-SL300SAIMEI
  6
CONTINUOUS
 62
    7
 10
18.935469826272119
 20
35.52826224327999
 11
17.750356979346208
 21
34.089762623413982
  0
LINE
  8
_0-1_EL-SL300SAIMEI
  6
CONTINUOUS
 62
    7
 10
20.290081371072411
 20
36.62931476036588
 11
18.935469826272119
 21
35.52826224327999
  0
LINE
  8
_0-1_EL-SL300SAIMEI
  6
CONTINUOUS
 62
    7
 10
21.17891600626681
 20
37.095091669971687
 11
20.290081371072411
 21
36.62931476036588
  0
LINE
  8
_0-1_EL-SL300SAIMEI
  6
CONTINUOUS
 62
    7
 10
22.1104698254784
 20
37.434089065720258
 11
21.17891600626681
 21
37.095091669971687
  0
LINE
  8
_0-1_EL-SL300SAIMEI
  6
CONTINUOUS
 62
    7
 10
22.9993044606728
 20
37.644928909417558
 11
22.1104698254784
 21
37.434089065720258
  0
LINE
  8
_0-1_EL-SL300SAIMEI
  6
CONTINUOUS
 62
    7
 10
24.227136491615919
 20
37.687648093434582
 11
22.9993044606728
 21
37.644928909417558
  0
LINE
  8
_0-1_EL-SL300SAIMEI
  6
CONTINUOUS
 62
    7
 10
16.8188031601346
 20
31.80342500462789
 11
16.311685104705909
 21
29.686758338490371
  0
LINE
  8
_0-1_EL-SL300SAIMEI
  6
CONTINUOUS
 62
    7
 10
17.496797951631812
 20
33.370426686093772
 11
16.8188031601346
 21
31.80342500462789
  0
LINE
  8
_0-1_EL-SL300SAIMEI
  6
CONTINUOUS
 62
    7
 10
18.258853072969103
 20
34.512648094228389
 11
17.496797951631812
 21
33.370426686093772
  0
LINE
  8
_0-1_EL-SL300SAIMEI
  6
CONTINUOUS
 62
    7
 10
19.358527551860803
 20
35.740307870397181
 11
18.258853072969103
 21
34.512648094228389
  0
LINE
  8
_0-1_EL-SL300SAIMEI
  6
CONTINUOUS
 62
    7
 10
20.586359582803912
 20
36.672033944382981
 11
19.358527551860803
 21
35.740307870397181
  0
LINE
  8
_0-1_EL-SL300SAIMEI
  6
CONTINUOUS
 62
    7
 10
21.475194217998311
 20
37.13763859921449
 11
20.586359582803912
 21
36.672033944382981
  0
LINE
  8
_0-1_EL-SL300SAIMEI
  6
CONTINUOUS
 62
    7
 10
23.126083974530001
 20
37.603760018368781
 11
21.475194217998311
 21
37.13763859921449
  0
LINE
  8
_0-1_EL-SL300SAIMEI
  6
CONTINUOUS
 62
    7
 10
23.846797950044309
 20
37.687648093434582
 11
23.126083974530001
 21
37.603760018368781
  0
LINE
  8
_0-1_EL-SL300SAIMEI
  6
CONTINUOUS
 62
    7
 10
24.56613388736449
 20
37.644928909417558
 11
23.846797950044309
 21
37.687648093434582
  0
LINE
  8
_0-1_EL-SL300SAIMEI
  6
CONTINUOUS
 62
    7
 10
41.922524942053087
 20
34.935705819817073
 11
41.922524942053087
 21
34.894364673994069
  0
LINE
  8
_0-1_EL-SL300SAIMEI
  6
CONTINUOUS
 62
    7
 10
39.509580064184213
 20
19.526310478617269
 11
39.12924152261261
 21
19.526310478617269
  0
LINE
  8
_0-1_EL-SL300SAIMEI
  6
CONTINUOUS
 62
    7
 10
40.271635185521411
 20
19.695981431265871
 11
39.509580064184213
 21
19.526310478617269
  0
LINE
  8
_0-1_EL-SL300SAIMEI
  6
CONTINUOUS
 62
    7
 10
41.542186400481597
 20
20.204305270114482
 11
40.271635185521411
 21
19.695981431265871
  0
LINE
  8
_0-1_EL-SL300SAIMEI
  6
CONTINUOUS
 62
    7
 10
42.727299247407508
 20
21.050592976066081
 11
41.542186400481597
 21
20.204305270114482
  0
LINE
  8
_0-1_EL-SL300SAIMEI
  6
CONTINUOUS
 62
    7
 10
43.48935436874482
 20
21.81264809740339
 11
42.727299247407508
 21
21.050592976066081
  0
LINE
  8
_0-1_EL-SL300SAIMEI
  6
CONTINUOUS
 62
    7
 10
44.124629976224817
 20
22.659969332000582
 11
43.48935436874482
 21
21.81264809740339
  0
LINE
  8
_0-1_EL-SL300SAIMEI
  6
CONTINUOUS
 62
    7
 10
44.631748031653594
 20
23.54897622196928
 11
44.124629976224817
 21
22.659969332000582
  0
LINE
  8
_0-1_EL-SL300SAIMEI
  6
CONTINUOUS
 62
    7
 10
45.224304455116602
 20
25.114255355692571
 11
44.631748031653594
 21
23.54897622196928
  0
LINE
  8
_0-1_EL-SL300SAIMEI
  6
CONTINUOUS
 62
    7
 10
45.520582666848114
 20
26.427698009444082
 11
45.224304455116602
 21
25.114255355692571
  0
LINE
  8
_0-1_EL-SL300SAIMEI
  6
CONTINUOUS
 62
    7
 10
45.520582666848114
 20
29.051310476236072
 11
45.520582666848114
 21
26.427698009444082
  0
LINE
  8
_0-1_EL-SL300SAIMEI
  6
CONTINUOUS
 62
    7
 10
45.393803152990913
 20
29.856429291138969
 11
45.520582666848114
 21
29.051310476236072
  0
LINE
  8
_0-1_EL-SL300SAIMEI
  6
CONTINUOUS
 62
    7
 10
44.801246729527904
 20
31.63392630675359
 11
45.393803152990913
 21
29.856429291138969
  0
LINE
  8
_0-1_EL-SL300SAIMEI
  6
CONTINUOUS
 62
    7
 10
44.504968517796421
 20
32.269374169007968
 11
44.801246729527904
 21
31.63392630675359
  0
LINE
  8
_0-1_EL-SL300SAIMEI
  6
CONTINUOUS
 62
    7
 10
43.616133882602021
 20
33.539753129193784
 11
44.504968517796421
 21
32.269374169007968
  0
LINE
  8
_0-1_EL-SL300SAIMEI
  6
CONTINUOUS
 62
    7
 10
42.854078761264709
 20
34.342977141579787
 11
43.616133882602021
 21
33.539753129193784
  0
LINE
  8
_0-1_EL-SL300SAIMEI
  6
CONTINUOUS
 62
    7
 10
42.176083969767497
 20
34.851645489976974
 11
42.854078761264709
 21
34.342977141579787
  0
LINE
  8
_0-1_EL-SL300SAIMEI
  6
CONTINUOUS
 62
    7
 10
41.922524942053087
 20
34.894364673994069
 11
42.176083969767497
 21
34.851645489976974
  0
LINE
  8
_0-1_EL-SL300SAIMEI
  6
CONTINUOUS
 62
    7
 10
26.132963314056109
 20
37.730367277451684
 11
24.7356325852388
 21
38.15342500304039
  0
LINE
  8
_0-1_EL-SL300SAIMEI
  6
CONTINUOUS
 62
    7
 10
26.895018435393421
 20
37.391369881703163
 11
26.132963314056109
 21
37.730367277451684
  0
LINE
  8
_0-1_EL-SL300SAIMEI
  6
CONTINUOUS
 62
    7
 10
27.487574858856309
 20
37.011031340131588
 11
26.895018435393421
 21
37.391369881703163
  0
LINE
  8
_0-1_EL-SL300SAIMEI
  6
CONTINUOUS
 62
    7
 10
28.4604698238909
 20
36.248976218794283
 11
27.487574858856309
 21
37.011031340131588
  0
LINE
  8
_0-1_EL-SL300SAIMEI
  6
CONTINUOUS
 62
    7
 10
29.307963313262299
 20
35.317422399582767
 11
28.4604698238909
 21
36.248976218794283
  0
LINE
  8
_0-1_EL-SL300SAIMEI
  6
CONTINUOUS
 62
    7
 10
30.027299250582509
 20
34.301808250531089
 11
29.307963313262299
 21
35.317422399582767
  0
LINE
  8
_0-1_EL-SL300SAIMEI
  6
CONTINUOUS
 62
    7
 10
30.789354371919821
 20
32.777698007856578
 11
30.027299250582509
 21
34.301808250531089
  0
LINE
  8
_0-1_EL-SL300SAIMEI
  6
CONTINUOUS
 62
    7
 10
31.296472427348601
 20
31.04136988329066
 11
30.789354371919821
 21
32.777698007856578
  0
LINE
  8
_0-1_EL-SL300SAIMEI
  6
CONTINUOUS
 62
    7
 10
31.551409493257019
 20
29.263700612901662
 11
31.296472427348601
 21
31.04136988329066
  0
LINE
  8
_0-1_EL-SL300SAIMEI
  6
CONTINUOUS
 62
    7
 10
31.551409493257019
 20
27.866369884084381
 11
31.551409493257019
 21
29.263700612901662
  0
LINE
  8
_0-1_EL-SL300SAIMEI
  6
CONTINUOUS
 62
    7
 10
31.424629979399821
 20
26.554305268526981
 11
31.551409493257019
 21
27.866369884084381
  0
LINE
  8
_0-1_EL-SL300SAIMEI
  6
CONTINUOUS
 62
    7
 10
31.000194215617121
 20
24.776808252912371
 11
31.424629979399821
 21
26.554305268526981
  0
LINE
  8
_0-1_EL-SL300SAIMEI
  6
CONTINUOUS
 62
    7
 10
30.49307616018832
 20
23.54897622196928
 11
31.000194215617121
 21
24.776808252912371
  0
LINE
  8
_0-1_EL-SL300SAIMEI
  6
CONTINUOUS
 62
    7
 10
29.6042415249938
 20
22.024693724520471
 11
30.49307616018832
 21
23.54897622196928
  0
LINE
  8
_0-1_EL-SL300SAIMEI
  6
CONTINUOUS
 62
    7
 10
29.095745431371011
 20
21.347043442571881
 11
29.6042415249938
 21
22.024693724520471
  0
LINE
  8
_0-1_EL-SL300SAIMEI
  6
CONTINUOUS
 62
    7
 10
27.95335176846212
 20
20.204305270114482
 11
29.095745431371011
 21
21.347043442571881
  0
LINE
  8
_0-1_EL-SL300SAIMEI
  6
CONTINUOUS
 62
    7
 10
26.640081369484911
 20
19.315642889694271
 11
27.95335176846212
 21
20.204305270114482
  0
LINE
  8
_0-1_EL-SL300SAIMEI
  6
CONTINUOUS
 62
    7
 10
25.158690310827421
 20
18.723086466231312
 11
26.640081369484911
 21
19.315642889694271
  0
LINE
  8
_0-1_EL-SL300SAIMEI
  6
CONTINUOUS
 62
    7
 10
23.720018436187111
 20
18.467977145548591
 11
25.158690310827421
 21
18.723086466231312
  0
LINE
  8
_0-1_EL-SL300SAIMEI
  6
CONTINUOUS
 62
    7
 10
31.465971125222811
 20
37.052372485954578
 11
31.50869030923992
 21
37.052372485954578
  0
LINE
  8
_0-1_EL-SL300SAIMEI
  6
CONTINUOUS
 62
    7
 10
28.206910796176491
 20
20.88092202341759
 11
28.883527549479599
 21
21.601635998931791
  0
LINE
  8
_0-1_EL-SL300SAIMEI
  6
CONTINUOUS
 62
    7
 10
27.444855674839211
 20
20.24702445413158
 11
28.206910796176491
 21
20.88092202341759
  0
LINE
  8
_0-1_EL-SL300SAIMEI
  6
CONTINUOUS
 62
    7
 10
26.59874022366191
 20
19.695981431265871
 11
27.444855674839211
 21
20.24702445413158
  0
LINE
  8
_0-1_EL-SL300SAIMEI
  6
CONTINUOUS
 62
    7
 10
25.454968522558922
 20
19.188691121062771
 11
26.59874022366191
 21
19.695981431265871
  0
LINE
  8
_0-1_EL-SL300SAIMEI
  6
CONTINUOUS
 62
    7
 10
23.97357746390151
 20
18.892757418879921
 11
25.454968522558922
 21
19.188691121062771
  0
LINE
  8
_0-1_EL-SL300SAIMEI
  6
CONTINUOUS
 62
    7
 10
22.74574543295839
 20
18.892757418879921
 11
23.97357746390151
 21
18.892757418879921
  0
LINE
  8
_0-1_EL-SL300SAIMEI
  6
CONTINUOUS
 62
    7
 10
21.221635190283909
 20
19.188691121062771
 11
22.74574543295839
 21
18.892757418879921
  0
LINE
  8
_0-1_EL-SL300SAIMEI
  6
CONTINUOUS
 62
    7
 10
20.07924152737511
 20
19.695981431265871
 11
21.221635190283909
 21
19.188691121062771
  0
LINE
  8
_0-1_EL-SL300SAIMEI
  6
CONTINUOUS
 62
    7
 10
19.274467222020704
 20
20.24702445413158
 11
20.07924152737511
 21
19.695981431265871
  0
LINE
  8
_0-1_EL-SL300SAIMEI
  6
CONTINUOUS
 62
    7
 10
18.300194218792122
 20
21.09331216008318
 11
19.274467222020704
 21
20.24702445413158
  0
LINE
  8
_0-1_EL-SL300SAIMEI
  6
CONTINUOUS
 62
    7
 10
17.666296649506123
 20
21.85536728142046
 11
18.300194218792122
 21
21.09331216008318
  0
LINE
  8
_0-1_EL-SL300SAIMEI
  6
CONTINUOUS
 62
    7
 10
17.241860885723312
 20
22.448095959657682
 11
17.666296649506123
 21
21.85536728142046
  0
LINE
  8
_0-1_EL-SL300SAIMEI
  6
CONTINUOUS
 62
    7
 10
16.7347428302945
 20
23.379305269320792
 11
17.241860885723312
 21
22.448095959657682
  0
LINE
  8
_0-1_EL-SL300SAIMEI
  6
CONTINUOUS
 62
    7
 10
16.311685104705909
 20
24.352372489129589
 11
16.7347428302945
 21
23.379305269320792
  0
LINE
  8
_0-1_EL-SL300SAIMEI
  6
CONTINUOUS
 62
    7
 10
15.887249340923098
 20
25.706984033929761
 11
16.311685104705909
 21
24.352372489129589
  0
LINE
  8
_0-1_EL-SL300SAIMEI
  6
CONTINUOUS
 62
    7
 10
15.633690313208703
 20
27.570091672352881
 11
15.887249340923098
 21
25.706984033929761
  0
LINE
  8
_0-1_EL-SL300SAIMEI
  6
CONTINUOUS
 62
    7
 10
15.633690313208703
 20
28.628425005421672
 11
15.633690313208703
 21
27.570091672352881
  0
LINE
  8
_0-1_EL-SL300SAIMEI
  6
CONTINUOUS
 62
    7
 10
15.887249340923098
 20
30.661031341719092
 11
15.633690313208703
 21
28.628425005421672
  0
LINE
  8
_0-1_EL-SL300SAIMEI
  6
CONTINUOUS
 62
    7
 10
16.142186406831613
 20
31.63392630675359
 11
15.887249340923098
 21
30.661031341719092
  0
LINE
  8
_0-1_EL-SL300SAIMEI
  6
CONTINUOUS
 62
    7
 10
16.7347428302945
 20
33.073976219588083
 11
16.142186406831613
 21
31.63392630675359
  0
LINE
  8
_0-1_EL-SL300SAIMEI
  6
CONTINUOUS
 62
    7
 10
17.877136493203423
 20
34.894364673994069
 11
16.7347428302945
 21
33.073976219588083
  0
LINE
  8
_0-1_EL-SL300SAIMEI
  6
CONTINUOUS
 62
    7
 10
18.681910798557723
 20
35.783027054414283
 11
17.877136493203423
 21
34.894364673994069
  0
LINE
  8
_0-1_EL-SL300SAIMEI
  6
CONTINUOUS
 62
    7
 10
19.570745433752201
 20
36.502707501282984
 11
18.681910798557723
 21
35.783027054414283
  0
LINE
  8
_0-1_EL-SL300SAIMEI
  6
CONTINUOUS
 62
    7
 10
20.586359582803912
 20
37.095091669971687
 11
19.570745433752201
 21
36.502707501282984
  0
LINE
  8
_0-1_EL-SL300SAIMEI
  6
CONTINUOUS
 62
    7
 10
21.34841470414111
 20
37.434089065720258
 11
20.586359582803912
 21
37.095091669971687
  0
LINE
  8
_0-1_EL-SL300SAIMEI
  6
CONTINUOUS
 62
    7
 10
22.61896591910131
 20
37.773086461468793
 11
21.34841470414111
 21
37.434089065720258
  0
LINE
  8
_0-1_EL-SL300SAIMEI
  6
CONTINUOUS
 62
    7
 10
23.168803158547099
 20
37.81425535251757
 11
22.61896591910131
 21
37.773086461468793
  0
LINE
  8
_0-1_EL-SL300SAIMEI
  6
CONTINUOUS
 62
    7
 10
24.227136491615919
 20
37.81425535251757
 11
23.168803158547099
 21
37.81425535251757
  0
LINE
  8
_0-1_EL-SL300SAIMEI
  6
CONTINUOUS
 62
    7
 10
25.285469824684622
 20
37.603760018368781
 11
24.227136491615919
 21
37.81425535251757
  0
LINE
  8
_0-1_EL-SL300SAIMEI
  6
CONTINUOUS
 62
    7
 10
21.60335177004962
 20
19.188691121062771
 11
22.61896591910131
 21
19.019364677962791
  0
LINE
  8
_0-1_EL-SL300SAIMEI
  6
CONTINUOUS
 62
    7
 10
20.629078766821021
 20
19.569374172182972
 11
21.60335177004962
 21
19.188691121062771
  0
LINE
  8
_0-1_EL-SL300SAIMEI
  6
CONTINUOUS
 62
    7
 10
19.909742829500814
 20
19.951090751948559
 11
20.629078766821021
 21
19.569374172182972
  0
LINE
  8
_0-1_EL-SL300SAIMEI
  6
CONTINUOUS
 62
    7
 10
18.808690312414925
 20
20.797033948351789
 11
19.909742829500814
 21
19.951090751948559
  0
LINE
  8
_0-1_EL-SL300SAIMEI
  6
CONTINUOUS
 62
    7
 10
17.496797951631812
 20
22.320971936251972
 11
18.808690312414925
 21
20.797033948351789
  0
LINE
  8
_0-1_EL-SL300SAIMEI
  6
CONTINUOUS
 62
    7
 10
17.031021042025998
 20
23.08302705758928
 11
17.496797951631812
 21
22.320971936251972
  0
LINE
  8
_0-1_EL-SL300SAIMEI
  6
CONTINUOUS
 62
    7
 10
16.395745434545887
 20
24.480357786406561
 11
17.031021042025998
 21
23.08302705758928
  0
LINE
  8
_0-1_EL-SL300SAIMEI
  6
CONTINUOUS
 62
    7
 10
16.015406892974397
 20
25.919374170595471
 11
16.395745434545887
 21
24.480357786406561
  0
LINE
  8
_0-1_EL-SL300SAIMEI
  6
CONTINUOUS
 62
    7
 10
15.760469827065904
 20
27.823650700067279
 11
16.015406892974397
 21
25.919374170595471
  0
LINE
  8
_0-1_EL-SL300SAIMEI
  6
CONTINUOUS
 62
    7
 10
15.887249340923098
 20
29.729305267733292
 11
15.760469827065904
 21
27.823650700067279
  0
LINE
  8
_0-1_EL-SL300SAIMEI
  6
CONTINUOUS
 62
    7
 10
22.872524946815592
 20
19.019364677962791
 11
23.720018436187111
 21
18.976645493945721
  0
LINE
  8
_0-1_EL-SL300SAIMEI
  6
CONTINUOUS
 62
    7
 10
22.067750641461291
 20
19.188691121062771
 11
22.872524946815592
 21
19.019364677962791
  0
LINE
  8
_0-1_EL-SL300SAIMEI
  6
CONTINUOUS
 62
    7
 10
20.545018436980925
 20
19.82258869034877
 11
22.067750641461291
 21
19.188691121062771
  0
LINE
  8
_0-1_EL-SL300SAIMEI
  6
CONTINUOUS
 62
    7
 10
19.570745433752201
 20
20.458036552603069
 11
20.545018436980925
 21
19.82258869034877
  0
LINE
  8
_0-1_EL-SL300SAIMEI
  6
CONTINUOUS
 62
    7
 10
18.132073559111888
 20
21.981974540503369
 11
19.570745433752201
 21
20.458036552603069
  0
LINE
  8
_0-1_EL-SL300SAIMEI
  6
CONTINUOUS
 62
    7
 10
17.623577465489006
 20
22.74437417138919
 11
18.132073559111888
 21
21.981974540503369
  0
LINE
  8
_0-1_EL-SL300SAIMEI
  6
CONTINUOUS
 62
    7
 10
17.200519739900308
 20
23.59031736779227
 11
17.623577465489006
 21
22.74437417138919
  0
LINE
  8
_0-1_EL-SL300SAIMEI
  6
CONTINUOUS
 62
    7
 10
16.8188031601346
 20
24.480357786406561
 11
17.200519739900308
 21
23.59031736779227
  0
LINE
  8
_0-1_EL-SL300SAIMEI
  6
CONTINUOUS
 62
    7
 10
16.522524948403102
 20
25.45342500621539
 11
16.8188031601346
 21
24.480357786406561
  0
LINE
  8
_0-1_EL-SL300SAIMEI
  6
CONTINUOUS
 62
    7
 10
16.226246736671698
 20
27.359424083429882
 11
16.522524948403102
 21
25.45342500621539
  0
LINE
  8
_0-1_EL-SL300SAIMEI
  6
CONTINUOUS
 62
    7
 10
16.226246736671698
 20
29.009969330413082
 11
16.226246736671698
 21
27.359424083429882
  0
LINE
  8
_0-1_EL-SL300SAIMEI
  6
CONTINUOUS
 62
    7
 10
16.311685104705909
 20
29.686758338490371
 11
16.226246736671698
 21
29.009969330413082
  0
LINE
  8
_0-1_EL-SL300SAIMEI
  6
CONTINUOUS
 62
    7
 10
24.989191612953199
 20
37.942757414117388
 11
24.650194217204621
 21
38.026645489183188
  0
LINE
  8
_0-1_EL-SL300SAIMEI
  6
CONTINUOUS
 62
    7
 10
25.32818900870172
 20
37.899693720551774
 11
24.989191612953199
 21
37.942757414117388
  0
LINE
  8
_0-1_EL-SL300SAIMEI
  6
CONTINUOUS
 62
    7
 10
26.513301855627709
 20
37.434089065720258
 11
25.32818900870172
 21
37.899693720551774
  0
LINE
  8
_0-1_EL-SL300SAIMEI
  6
CONTINUOUS
 62
    7
 10
27.910632584445022
 20
36.545426685300079
 11
26.513301855627709
 21
37.434089065720258
  0
LINE
  8
_0-1_EL-SL300SAIMEI
  6
CONTINUOUS
 62
    7
 10
29.138464615387999
 20
35.317422399582767
 11
27.910632584445022
 21
36.545426685300079
  0
LINE
  8
_0-1_EL-SL300SAIMEI
  6
CONTINUOUS
 62
    7
 10
30.111359580422612
 20
33.836031340925281
 11
29.138464615387999
 21
35.317422399582767
  0
LINE
  8
_0-1_EL-SL300SAIMEI
  6
CONTINUOUS
 62
    7
 10
30.87341470175992
 20
32.142422400376475
 11
30.111359580422612
 21
33.836031340925281
  0
LINE
  8
_0-1_EL-SL300SAIMEI
  6
CONTINUOUS
 62
    7
 10
31.381910795382719
 20
29.856429291138969
 11
30.87341470175992
 21
32.142422400376475
  0
LINE
  8
_0-1_EL-SL300SAIMEI
  6
CONTINUOUS
 62
    7
 10
31.424629979399821
 20
27.823650700067279
 11
31.381910795382719
 21
29.856429291138969
  0
LINE
  8
_0-1_EL-SL300SAIMEI
  6
CONTINUOUS
 62
    7
 10
31.2551312815256
 20
26.342259641409871
 11
31.424629979399821
 21
27.823650700067279
  0
LINE
  8
_0-1_EL-SL300SAIMEI
  6
CONTINUOUS
 62
    7
 10
30.619855674045521
 20
24.184424084223689
 11
31.2551312815256
 21
26.342259641409871
  0
LINE
  8
_0-1_EL-SL300SAIMEI
  6
CONTINUOUS
 62
    7
 10
29.731021038851001
 20
22.448095959657682
 11
30.619855674045521
 21
24.184424084223689
  0
LINE
  8
_0-1_EL-SL300SAIMEI
  6
CONTINUOUS
 62
    7
 10
28.672687705782302
 20
21.09331216008318
 11
29.731021038851001
 21
22.448095959657682
  0
LINE
  8
_0-1_EL-SL300SAIMEI
  6
CONTINUOUS
 62
    7
 10
27.402136490822109
 20
19.951090751948559
 11
28.672687705782302
 21
21.09331216008318
  0
LINE
  8
_0-1_EL-SL300SAIMEI
  6
CONTINUOUS
 62
    7
 10
26.59874022366191
 20
19.442422403551472
 11
27.402136490822109
 21
19.951090751948559
  0
LINE
  8
_0-1_EL-SL300SAIMEI
  6
CONTINUOUS
 62
    7
 10
25.878026248147599
 20
19.10342500780289
 11
26.59874022366191
 21
19.442422403551472
  0
LINE
  8
_0-1_EL-SL300SAIMEI
  6
CONTINUOUS
 62
    7
 10
25.115971126810312
 20
18.806974541297201
 11
25.878026248147599
 21
19.10342500780289
  0
LINE
  8
_0-1_EL-SL300SAIMEI
  6
CONTINUOUS
 62
    7
 10
24.31257485965012
 20
18.637648098197111
 11
25.115971126810312
 21
18.806974541297201
  0
LINE
  8
_0-1_EL-SL300SAIMEI
  6
CONTINUOUS
 62
    7
 10
22.829805762798522
 20
18.594928914180091
 11
24.31257485965012
 21
18.637648098197111
  0
LINE
  8
_0-1_EL-SL300SAIMEI
  6
CONTINUOUS
 62
    7
 10
22.153189009495499
 20
18.637648098197111
 11
22.829805762798522
 21
18.594928914180091
  0
LINE
  8
_0-1_EL-SL300SAIMEI
  6
CONTINUOUS
 62
    7
 10
21.391133888158219
 20
18.806974541297201
 11
22.153189009495499
 21
18.637648098197111
  0
LINE
  8
_0-1_EL-SL300SAIMEI
  6
CONTINUOUS
 62
    7
 10
20.206021041232312
 20
19.27309596045146
 11
21.391133888158219
 21
18.806974541297201
  0
LINE
  8
_0-1_EL-SL300SAIMEI
  6
CONTINUOUS
 62
    7
 10
18.428351770843399
 20
20.458036552603069
 11
20.206021041232312
 21
19.27309596045146
  0
LINE
  8
_0-1_EL-SL300SAIMEI
  6
CONTINUOUS
 62
    7
 10
17.580858281471912
 20
21.389762626588979
 11
18.428351770843399
 21
20.458036552603069
  0
LINE
  8
_0-1_EL-SL300SAIMEI
  6
CONTINUOUS
 62
    7
 10
16.776083976117498
 20
22.49064288890057
 11
17.580858281471912
 21
21.389762626588979
  0
LINE
  8
_0-1_EL-SL300SAIMEI
  6
CONTINUOUS
 62
    7
 10
15.845908195100101
 20
24.564762625795179
 11
16.776083976117498
 21
22.49064288890057
  0
LINE
  8
_0-1_EL-SL300SAIMEI
  6
CONTINUOUS
 62
    7
 10
15.506910799351488
 20
25.83514158598107
 11
15.845908195100101
 21
24.564762625795179
  0
LINE
  8
_0-1_EL-SL300SAIMEI
  6
CONTINUOUS
 62
    7
 10
15.33741210147722
 20
26.850755735032781
 11
15.506910799351488
 21
25.83514158598107
  0
LINE
  8
_0-1_EL-SL300SAIMEI
  6
CONTINUOUS
 62
    7
 10
15.253351771637121
 20
28.331974538915862
 11
15.33741210147722
 21
26.850755735032781
  0
LINE
  8
_0-1_EL-SL300SAIMEI
  6
CONTINUOUS
 62
    7
 10
15.380131285494286
 20
29.89897622038178
 11
15.253351771637121
 21
28.331974538915862
  0
LINE
  8
_0-1_EL-SL300SAIMEI
  6
CONTINUOUS
 62
    7
 10
15.803189011082999
 20
31.676645490770692
 11
15.380131285494286
 21
29.89897622038178
  0
LINE
  8
_0-1_EL-SL300SAIMEI
  6
CONTINUOUS
 62
    7
 10
16.522524948403102
 20
33.454314761159694
 11
15.803189011082999
 21
31.676645490770692
  0
LINE
  8
_0-1_EL-SL300SAIMEI
  6
CONTINUOUS
 62
    7
 10
17.496797951631812
 20
34.978425003834168
 11
16.522524948403102
 21
33.454314761159694
  0
LINE
  8
_0-1_EL-SL300SAIMEI
  6
CONTINUOUS
 62
    7
 10
18.6391916145407
 20
36.206429289551473
 11
17.496797951631812
 21
34.978425003834168
  0
LINE
  8
_0-1_EL-SL300SAIMEI
  6
CONTINUOUS
 62
    7
 10
19.697524947609395
 20
37.011031340131588
 11
18.6391916145407
 21
36.206429289551473
  0
LINE
  8
_0-1_EL-SL300SAIMEI
  6
CONTINUOUS
 62
    7
 10
21.17891600626681
 20
37.730367277451684
 11
19.697524947609395
 21
37.011031340131588
  0
LINE
  8
_0-1_EL-SL300SAIMEI
  6
CONTINUOUS
 62
    7
 10
22.322687707369802
 20
38.026645489183188
 11
21.17891600626681
 21
37.730367277451684
  0
LINE
  8
_0-1_EL-SL300SAIMEI
  6
CONTINUOUS
 62
    7
 10
23.211522342564201
 20
38.15342500304039
 11
22.322687707369802
 21
38.026645489183188
  0
LINE
  8
_0-1_EL-SL300SAIMEI
  6
CONTINUOUS
 62
    7
 10
24.650194217204621
 20
38.026645489183188
 11
23.211522342564201
 21
38.15342500304039
  0
LINE
  8
_0-1_EL-SL300SAIMEI
  6
CONTINUOUS
 62
    7
 10
26.0048057620048
 20
37.391369881703163
 11
25.285469824684622
 21
37.603760018368781
  0
LINE
  8
_0-1_EL-SL300SAIMEI
  6
CONTINUOUS
 62
    7
 10
27.444855674839211
 20
36.62931476036588
 11
26.0048057620048
 21
37.391369881703163
  0
LINE
  8
_0-1_EL-SL300SAIMEI
  6
CONTINUOUS
 62
    7
 10
27.95335176846212
 20
36.248976218794283
 11
27.444855674839211
 21
36.62931476036588
  0
LINE
  8
_0-1_EL-SL300SAIMEI
  6
CONTINUOUS
 62
    7
 10
29.392023643102402
 20
34.681974537328358
 11
27.95335176846212
 21
36.248976218794283
  0
LINE
  8
_0-1_EL-SL300SAIMEI
  6
CONTINUOUS
 62
    7
 10
51.024467214083188
 20
55.08675833214037
 11
50.770908186368821
 21
55.129305261383287
  0
LINE
  8
_0-1_EL-SL300SAIMEI
  6
CONTINUOUS
 62
    7
 10
43.277136486853408
 20
55.256429284788972
 11
43.742913396459187
 21
55.21371010077187
  0
LINE
  8
_0-1_EL-SL300SAIMEI
  6
CONTINUOUS
 62
    7
 10
42.557800549533198
 20
55.636595571586284
 11
42.980858275121911
 21
55.552707496520497
  0
LINE
  8
_0-1_EL-SL300SAIMEI
  6
CONTINUOUS
 62
    7
 10
42.431021035676004
 20
55.636595571586284
 11
42.557800549533198
 21
55.636595571586284
  0
LINE
  8
_0-1_EL-SL300SAIMEI
  6
CONTINUOUS
 62
    7
 10
43.150356972996214
 20
55.298976214031768
 11
43.277136486853408
 21
55.256429284788972
  0
LINE
  8
_0-1_EL-SL300SAIMEI
  6
CONTINUOUS
 62
    7
 10
42.304241521818803
 20
55.67931475560335
 11
41.626246730321704
 21
55.67931475560335
  0
LINE
  8
_0-1_EL-SL300SAIMEI
  6
CONTINUOUS
 62
    7
 10
48.526083968180004
 20
54.790307865634681
 11
47.087412093539719
 21
55.08675833214037
  0
LINE
  8
_0-1_EL-SL300SAIMEI
  6
CONTINUOUS
 62
    7
 10
48.907800547945698
 20
54.53709334746879
 11
48.526083968180004
 21
54.790307865634681
  0
LINE
  8
_0-1_EL-SL300SAIMEI
  6
CONTINUOUS
 62
    7
 10
43.742913396459187
 20
54.917259634266074
 11
46.113139090311122
 21
54.620981422534562
  0
LINE
  8
_0-1_EL-SL300SAIMEI
  6
CONTINUOUS
 62
    7
 10
41.965244126070203
 20
55.256429284788972
 11
43.742913396459187
 21
54.917259634266074
  0
LINE
  8
_0-1_EL-SL300SAIMEI
  6
CONTINUOUS
 62
    7
 10
48.991860877785797
 20
54.494374163451688
 11
48.950519731962814
 21
54.494374163451688
  0
LINE
  8
_0-1_EL-SL300SAIMEI
  6
CONTINUOUS
 62
    7
 10
42.896797945281811
 20
55.129305261383287
 11
41.964899616521713
 21
55.298976214031768
  0
LINE
  8
_0-1_EL-SL300SAIMEI
  6
CONTINUOUS
 62
    7
 10
48.061685096768407
 20
54.917259634266074
 11
47.087412093539719
 21
55.08675833214037
  0
LINE
  8
_0-1_EL-SL300SAIMEI
  6
CONTINUOUS
 62
    7
 10
48.568803152197098
 20
54.747588681617579
 11
48.061685096768407
 21
54.917259634266074
  0
LINE
  8
_0-1_EL-SL300SAIMEI
  6
CONTINUOUS
 62
    7
 10
48.568803152197098
 20
54.663700606551657
 11
48.568803152197098
 21
54.747588681617579
  0
LINE
  8
_0-1_EL-SL300SAIMEI
  6
CONTINUOUS
 62
    7
 10
47.722687701019801
 20
54.663700606551657
 11
48.568803152197098
 21
54.663700606551657
  0
LINE
  8
_0-1_EL-SL300SAIMEI
  6
CONTINUOUS
 62
    7
 10
45.224304455116602
 20
54.917259634266074
 11
47.722687701019801
 21
54.663700606551657
  0
LINE
  8
_0-1_EL-SL300SAIMEI
  6
CONTINUOUS
 62
    7
 10
43.107637788979112
 20
55.256429284788972
 11
45.224304455116602
 21
54.917259634266074
  0
LINE
  8
_0-1_EL-SL300SAIMEI
  6
CONTINUOUS
 62
    7
 10
41.668965914338813
 20
55.595426680537457
 11
43.107637788979112
 21
55.256429284788972
  0
LINE
  8
_0-1_EL-SL300SAIMEI
  6
CONTINUOUS
 62
    7
 10
41.626246730321704
 20
55.67931475560335
 11
41.668965914338813
 21
55.595426680537457
  0
LINE
  8
_0-1_EL-SL300SAIMEI
  6
CONTINUOUS
 62
    7
 10
43.107637788979112
 20
55.08675833214037
 11
47.087412093539719
 21
54.53709334746879
  0
LINE
  8
_0-1_EL-SL300SAIMEI
  6
CONTINUOUS
 62
    7
 10
48.865081363928603
 20
54.494374163451688
 11
48.907800547945698
 21
54.53709334746879
  0
LINE
  8
_0-1_EL-SL300SAIMEI
  6
CONTINUOUS
 62
    7
 10
43.742913396459187
 20
55.21371010077187
 11
43.616133882602021
 21
55.256429284788972
  0
LINE
  8
_0-1_EL-SL300SAIMEI
  6
CONTINUOUS
 62
    7
 10
44.717186399687797
 20
54.790307865634681
 11
42.896797945281811
 21
55.129305261383287
  0
LINE
  8
_0-1_EL-SL300SAIMEI
  6
CONTINUOUS
 62
    7
 10
46.621635183933911
 20
54.578262238517489
 11
44.717186399687797
 21
54.790307865634681
  0
LINE
  8
_0-1_EL-SL300SAIMEI
  6
CONTINUOUS
 62
    7
 10
41.965244126070203
 20
55.298976214031768
 11
42.896797945281811
 21
55.129305261383287
  0
LINE
  8
_0-1_EL-SL300SAIMEI
  6
CONTINUOUS
 62
    7
 10
43.616133882602021
 20
55.256429284788972
 11
43.150356972996214
 21
55.298976214031768
  0
TEXT
  8
_0-1_EL-SL300SAIMEI
 62
    7
 10
-2.8172817753249362
 20
77.059613001990641
 40
4.5
 41
1
 50
0
  1
LEDｸﾗｽ300/250 ｽﾎﾟｯﾄﾗｲﾄ
  0
TEXT
  8
_0-1_EL-SL300SAIMEI
 62
    7
 10
-2.8172817753249362
 20
-6.9403819980092791
 40
4.5
 41
1
 50
0
  1
三菱　EL-SL30023L/W
  0
INSERT
  2
-002-SPECEL-SL30023LW
  8
_0-0_0
 10
61.671272225529563
 20
4.2388546432120862
 41
1
 42
1
 50
0
  0
ENDSEC
  0
EOF
