  0
SECTION
  2
HEADER
  9
$ACADVER
  1
AC1009
  9
$INSBASE
 10
0
 20
0
 30
0
  9
$EXTMIN
 10
0
 20
0
  9
$EXTMAX
 10
105.125
 20
74.25
  9
$LIMMIN
 10
0
 20
0
  9
$LIMMAX
 10
105.125
 20
74.25
  9
$LTSCALE
 40
0.125
  0
ENDSEC
  0
SECTION
  2
TABLES
  0
TABLE
  2
LTYPE
 70
     9
  0
LTYPE
  2
CONTINUOUS
 70
    64
  3
実線
 72
    65
 73
     0
 40
0.0
  0
LTYPE
  2
DASHED1
 70
    64
  3
--  --  --  --  --  --  --  --  
 72
    65
 73
     2
 40
2.5
 49
1.25
 49
-1.25
  0
LTYPE
  2
DASHED2
 70
    64
  3
----    ----    ----    ----    
 72
    65
 73
     2
 40
5.0
 49
2.5
 49
-2.5
  0
LTYPE
  2
DASHED3
 70
    64
  3
------  ------  ------  ------  
 72
    65
 73
     2
 40
5.0
 49
3.75
 49
-1.25
  0
LTYPE
  2
CENTER1
 70
    64
  3
----- - ----- - ----- - ----- - 
 72
    65
 73
     4
 40
10.0
 49
6.25
 49
-1.25
 49
1.25
 49
-1.25
  0
LTYPE
  2
CENTER2
 70
    64
  3
----------  --  ----------  --  
 72
    65
 73
     4
 40
20.0
 49
12.5
 49
-2.5
 49
2.5
 49
-2.5
  0
LTYPE
  2
PHANTOM1
 70
    64
  3
--- - - --- - - --- - - --- - - 
 72
    65
 73
     6
 40
10.0
 49
3.25
 49
-1.25
 49
1.25
 49
-1.25
 49
1.25
 49
-1.25
  0
LTYPE
  2
PHANTOM2
 70
    64
  3
--------  -  -  --------  -  -  
 72
    65
 73
     6
 40
20.0
 49
10.0
 49
-2.5
 49
1.25
 49
-2.5
 49
1.25
 49
-2.5
  0
LTYPE
  2
DOT
 70
    64
  3
-   -   -   -   -   -   -   -   
 72
    65
 73
     2
 40
2.5
 49
0.625
 49
-1.875
  0
LTYPE
  2
DUMMY
 70
    64
  3
ダミー
 72
    65
 73
     0
 40
0.0
  0
LTYPE
  2
RAND1
 70
    64
  3
ランダム線1
 72
    65
 73
     4
 40
10.0
 49
1.0
 49
-2.0
 49
3.0
 49
-4.0
  0
LTYPE
  2
RAND2
 70
    64
  3
ランダム線2
 72
    65
 73
     4
 40
14.0
 49
2.0
 49
-3.0
 49
4.0
 49
-5.0
  0
LTYPE
  2
RAND3
 70
    64
  3
ランダム線3
 72
    65
 73
     4
 40
18.0
 49
3.0
 49
-4.0
 49
5.0
 49
-6.0
  0
LTYPE
  2
RAND4
 70
    64
  3
ランダム線4
 72
    65
 73
     4
 40
22.0
 49
4.0
 49
-5.0
 49
6.0
 49
-7.0
  0
LTYPE
  2
RAND5
 70
    64
  3
ランダム線5
 72
    65
 73
     4
 40
26.0
 49
5.0
 49
-6.0
 49
7.0
 49
-8.0
  0
LTYPE
  2
LONG1
 70
    64
  3
----------  --  ----------  --  
 72
    65
 73
     4
 40
40.0
 49
32.5
 49
-2.5
 49
2.5
 49
-2.5
  0
LTYPE
  2
LONG2
 70
    64
  3
--------  -  -  --------  -  -  
 72
    65
 73
     6
 40
40.0
 49
30.0
 49
-2.5
 49
1.25
 49
-2.5
 49
1.25
 49
-2.5
  0
LTYPE
  2
LONG3
 70
    64
  3
+++++++++++++++..+++++++++++++++
 72
    65
 73
     2
 40
40.0
 49
37.5
 49
-2.5
  0
LTYPE
  2
LONG4
 70
    64
  3
+++++++++++++++..+++++++++++++++
 72
    65
 73
     2
 40
80.0
 49
75.0
 49
-5.0
  0
LTYPE
  2
LONG5
 70
    64
  3
----------  --  ----------  --  
 72
    65
 73
     4
 40
60.0
 49
37.5
 49
-7.5
 49
7.5
 49
-7.5
  0
LTYPE
  2
dashed
 70
   64
  3
-------   -------------   ------
 72
   65
 73
    2
 40
7.5
 49
6
 49
-1.5
  0
LTYPE
  2
dashed_spaced
 70
   64
  3
----        --------        ----
 72
   65
 73
    2
 40
12
 49
6
 49
-6
  0
LTYPE
  2
long_dashed_dotted
 70
   64
  3
------------- --- --------------
 72
   65
 73
    4
 40
15.25
 49
12
 49
-1.5
 49
0.25
 49
-1.5
  0
LTYPE
  2
long_dashed_double-dotted
 70
   64
  3
----------- --- --- ------------
 72
   65
 73
    6
 40
17
 49
12
 49
-1.5
 49
0.25
 49
-1.5
 49
0.25
 49
-1.5
  0
LTYPE
  2
long_dashed_triplicate-dotted
 70
   64
  3
--------- --- --- --- ----------
 72
   65
 73
    8
 40
18.75
 49
12
 49
-1.5
 49
0.25
 49
-1.5
 49
0.25
 49
-1.5
 49
0.25
 49
-1.5
  0
LTYPE
  2
dotted
 70
   64
  3
   -       -       -       -    
 72
   65
 73
    2
 40
1.75
 49
0.25
 49
-1.5
  0
LTYPE
  2
chain
 70
   64
  3
-------------- -- --------------
 72
   65
 73
    4
 40
18.5
 49
12
 49
-1.5
 49
3.5
 49
-1.5
  0
LTYPE
  2
chain_double_dash
 70
   64
  3
------------ -- -- -------------
 72
   65
 73
    6
 40
23.5
 49
12
 49
-1.5
 49
3.5
 49
-1.5
 49
3.5
 49
-1.5
  0
LTYPE
  2
dashed_dotted
 70
   64
  3
-----------     -     ----------
 72
   65
 73
    4
 40
9.25
 49
6
 49
-1.5
 49
0.25
 49
-1.5
  0
LTYPE
  2
double-dashed_dotted
 70
   64
  3
------   -----------   -   -----
 72
   65
 73
    6
 40
16.75
 49
6
 49
-1.5
 49
6
 49
-1.5
 49
0.25
 49
-1.5
  0
LTYPE
  2
dashed_double-dotted
 70
   64
  3
---------    -    -    ---------
 72
   65
 73
    6
 40
11
 49
6
 49
-1.5
 49
0.25
 49
-1.5
 49
0.25
 49
-1.5
  0
LTYPE
  2
double-dashed_double-dotted
 70
   64
  3
-----   ---------   -   -   ----
 72
   65
 73
    8
 40
18.5
 49
6
 49
-1.5
 49
6
 49
-1.5
 49
0.25
 49
-1.5
 49
0.25
 49
-1.5
  0
LTYPE
  2
dashed_triplicate-dotted
 70
   64
  3
-------    -    -    -    ------
 72
   65
 73
    8
 40
12.75
 49
6
 49
-1.5
 49
0.25
 49
-1.5
 49
0.25
 49
-1.5
 49
0.25
 49
-1.5
  0
LTYPE
  2
double-dashed_triplicate-dotted
 70
   64
  3
-----  ---------  -  -  -  -----
 72
   65
 73
   10
 40
20.25
 49
6
 49
-1.5
 49
6
 49
-1.5
 49
0.25
 49
-1.5
 49
0.25
 49
-1.5
 49
0.25
 49
-1.5
  0
LTYPE
  2
undefined
 70
   64
  3
--------------------------------
 72
   65
 73
    0
 40
0
  0
LTYPE
  2
_
 70
   64
  3
                                
 72
   65
 73
    0
 40
0
  0
LTYPE
  2
__18
 70
   64
  3
                                
 72
   65
 73
    0
 40
0
  0
LTYPE
  2
__19
 70
   64
  3
                                
 72
   65
 73
    0
 40
0
  0
LTYPE
  2
__20
 70
   64
  3
                                
 72
   65
 73
    0
 40
0
  0
LTYPE
  2
__21
 70
   64
  3
                                
 72
   65
 73
    0
 40
0
  0
LTYPE
  2
__22
 70
   64
  3
                                
 72
   65
 73
    0
 40
0
  0
LTYPE
  2
__23
 70
   64
  3
                                
 72
   65
 73
    0
 40
0
  0
LTYPE
  2
__24
 70
   64
  3
                                
 72
   65
 73
    0
 40
0
  0
LTYPE
  2
__25
 70
   64
  3
                                
 72
   65
 73
    0
 40
0
  0
LTYPE
  2
__26
 70
   64
  3
                                
 72
   65
 73
    0
 40
0
  0
LTYPE
  2
__27
 70
   64
  3
                                
 72
   65
 73
    0
 40
0
  0
LTYPE
  2
__28
 70
   64
  3
                                
 72
   65
 73
    0
 40
0
  0
LTYPE
  2
__29
 70
   64
  3
                                
 72
   65
 73
    0
 40
0
  0
LTYPE
  2
__30
 70
   64
  3
                                
 72
   65
 73
    0
 40
0
  0
LTYPE
  2
__31
 70
   64
  3
                                
 72
   65
 73
    0
 40
0
  0
LTYPE
  2
__32
 70
   64
  3
                                
 72
   65
 73
    0
 40
0
  0
ENDTAB
  0
TABLE
  2
STYLE
  5
3
100
AcDbSymbolTable
 70
     1
  0
STYLE
  5
10
100
AcDbSymbolTableRecord
100
AcDbTextStyleTableRecord
  2
STANDARD
 70
     0
 40
0.0
 41
1.0
 50
0.0
 71
     0
 42
0.2
  3
txt
  4
bigfont.shx
  0
STYLE
  5
26
100
AcDbSymbolTableRecord
100
AcDbTextStyleTableRecord
  2
TATEGAKI
 70
    68
 40
0.0
 41
1.0
 50
0.0
 71
     0
 42
1.0
  3
txt
  4
bigfont.shx
  0
ENDTAB
  0
TABLE
  2
LAYER
 70
    3
  0
LAYER
  2
_0-0_0
 70
   64
 62
    7
  6
CONTINUOUS
  0
LAYER
  2
_0-1_EL-SL300SAIMEI
 70
   64
 62
    7
  6
CONTINUOUS
  0
LAYER
  2
ADD_LINE
 70
   64
 62
    7
  6
CONTINUOUS
  0
ENDTAB
  0
ENDSEC
  0
SECTION
  2
BLOCKS
  0
BLOCK
  2
-002-SPECEL-SL30023WWW
 70
   64
 10
0
 20
0
 30
0
  0
TEXT
  8
_0-2_SPEC
 62
    7
 10
0
 20
0
 40
1.5
 41
1
 50
0
  1
ｽﾎﾟｯﾄﾗｲﾄ 温白色(3500K) Ra95
  0
TEXT
  8
_0-2_SPEC
 62
    7
 10
0
 20
-3
 40
1.5
 41
1
 50
0
  1
本体:ｱﾙﾐﾀﾞｲｶｽﾄ 白色塗装仕上
  0
TEXT
  8
_0-2_SPEC
 62
    7
 10
0
 20
-6
 40
1.5
 41
1
 50
0
  1
光源寿命:40,000時間
  0
TEXT
  8
_0-2_SPEC
 62
    7
 10
0
 20
-9
 40
1.5
 41
1
 50
0
  1
光束:2890lm 消費電力:32.3W 消費効率:89.5lm/W
  0
ENDBLK
  0
ENDSEC
  0
SECTION
  2
ENTITIES
  0
LINE
  8
_0-1_EL-SL300SAIMEI
  6
CONTINUOUS
 62
    7
 10
41.218217364347595
 20
56.441369876940662
 11
41.980272485684907
 21
56.737648088672188
  0
LINE
  8
_0-1_EL-SL300SAIMEI
  6
CONTINUOUS
 62
    7
 10
42.233831513399309
 20
56.567977136023558
 11
42.14977118355921
 21
56.567977136023558
  0
LINE
  8
_0-1_EL-SL300SAIMEI
  6
CONTINUOUS
 62
    7
 10
42.31926988143352
 20
56.567977136023558
 11
42.233831513399309
 21
56.526808244974752
  0
LINE
  8
_0-1_EL-SL300SAIMEI
  6
CONTINUOUS
 62
    7
 10
42.276550697416411
 20
56.567977136023558
 11
42.276550697416411
 21
56.526808244974752
  0
LINE
  8
_0-1_EL-SL300SAIMEI
  6
CONTINUOUS
 62
    7
 10
42.31926988143352
 20
56.526808244974752
 11
42.36061102725651
 21
56.526808244974752
  0
LINE
  8
_0-1_EL-SL300SAIMEI
  6
CONTINUOUS
 62
    7
 10
42.488768579307816
 20
56.526808244974752
 11
42.446049395290714
 21
56.526808244974752
  0
LINE
  8
_0-1_EL-SL300SAIMEI
  6
CONTINUOUS
 62
    7
 10
42.488768579307816
 20
56.526808244974752
 11
42.530109725130821
 21
56.526808244974752
  0
LINE
  8
_0-1_EL-SL300SAIMEI
  6
CONTINUOUS
 62
    7
 10
35.121776393649498
 20
59.405357777675263
 11
34.318380126489295
 21
58.600755727095247
  0
LINE
  8
_0-1_EL-SL300SAIMEI
  6
CONTINUOUS
 62
    7
 10
44.435936547571011
 20
25.369364676375259
 11
44.646776391268311
 21
26.46903915526708
  0
LINE
  8
_0-1_EL-SL300SAIMEI
  6
CONTINUOUS
 62
    7
 10
43.970159637965196
 20
24.01475313157508
 11
44.435936547571011
 21
25.369364676375259
  0
LINE
  8
_0-1_EL-SL300SAIMEI
  6
CONTINUOUS
 62
    7
 10
43.461663544342315
 20
22.99758868955508
 11
43.970159637965196
 21
24.01475313157508
  0
LINE
  8
_0-1_EL-SL300SAIMEI
  6
CONTINUOUS
 62
    7
 10
42.869107120879384
 20
22.108926309134869
 11
43.461663544342315
 21
22.99758868955508
  0
LINE
  8
_0-1_EL-SL300SAIMEI
  6
CONTINUOUS
 62
    7
 10
42.14977118355921
 20
21.305357787200371
 11
42.869107120879384
 21
22.108926309134869
  0
LINE
  8
_0-1_EL-SL300SAIMEI
  6
CONTINUOUS
 62
    7
 10
41.1754981803305
 20
20.500755736620281
 11
42.14977118355921
 21
21.305357787200371
  0
LINE
  8
_0-1_EL-SL300SAIMEI
  6
CONTINUOUS
 62
    7
 10
40.033104517421691
 20
19.908027058382981
 11
41.1754981803305
 21
20.500755736620281
  0
LINE
  8
_0-1_EL-SL300SAIMEI
  6
CONTINUOUS
 62
    7
 10
38.88933281631882
 20
19.569374172182972
 11
40.033104517421691
 21
19.908027058382981
  0
LINE
  8
_0-1_EL-SL300SAIMEI
  6
CONTINUOUS
 62
    7
 10
38.255435247032807
 20
19.526310478617269
 11
38.88933281631882
 21
19.569374172182972
  0
LINE
  8
_0-1_EL-SL300SAIMEI
  6
CONTINUOUS
 62
    7
 10
22.846212160607308
 20
18.467977145548591
 11
38.255435247032807
 21
19.526310478617269
  0
LINE
  8
_0-1_EL-SL300SAIMEI
  6
CONTINUOUS
 62
    7
 10
23.480109729893318
 20
19.10342500780289
 11
23.776387941624819
 21
19.10342500780289
  0
LINE
  8
_0-1_EL-SL300SAIMEI
  6
CONTINUOUS
 62
    7
 10
22.380435251001497
 20
20.161758340871682
 11
22.421776396824498
 21
20.161758340871682
  0
LINE
  8
_0-1_EL-SL300SAIMEI
  6
CONTINUOUS
 62
    7
 10
36.604545490501096
 20
47.212648091053389
 11
37.027603216089716
 21
47.551645486801974
  0
LINE
  8
_0-1_EL-SL300SAIMEI
  6
CONTINUOUS
 62
    7
 10
53.748718663298291
 20
54.663700606551657
 11
53.664658333458185
 21
54.578262238517489
  0
LINE
  8
_0-1_EL-SL300SAIMEI
  6
CONTINUOUS
 62
    7
 10
30.085046794214296
 20
57.119364668437761
 11
30.042327610197187
 21
56.737648088672188
  0
LINE
  8
_0-1_EL-SL300SAIMEI
  6
CONTINUOUS
 62
    7
 10
30.295886637911597
 20
57.076645484420688
 11
30.254545492088596
 21
56.694928904654951
  0
LINE
  8
_0-1_EL-SL300SAIMEI
  6
CONTINUOUS
 62
    7
 10
30.804382731534417
 20
56.949693715789302
 11
30.761663547517319
 21
56.567977136023558
  0
LINE
  8
_0-1_EL-SL300SAIMEI
  6
CONTINUOUS
 62
    7
 10
30.761663547517319
 20
54.155376767703082
 11
31.057941759248788
 21
56.526808244974752
  0
LINE
  8
_0-1_EL-SL300SAIMEI
  6
CONTINUOUS
 62
    7
 10
30.931162245391619
 20
54.113691112331573
 11
31.270159641140197
 21
56.526635990200603
  0
LINE
  8
_0-1_EL-SL300SAIMEI
  6
CONTINUOUS
 62
    7
 10
31.523718668854599
 20
56.864255347755098
 11
31.439658339014496
 21
56.526635990200603
  0
LINE
  8
_0-1_EL-SL300SAIMEI
  6
CONTINUOUS
 62
    7
 10
23.904545493676096
 20
37.687648093434582
 11
23.904545493676096
 21
37.644928909417558
  0
LINE
  8
_0-1_EL-SL300SAIMEI
  6
CONTINUOUS
 62
    7
 10
24.031325007533297
 20
37.603760018368781
 11
23.988605823516199
 21
37.644928909417558
  0
LINE
  8
_0-1_EL-SL300SAIMEI
  6
CONTINUOUS
 62
    7
 10
31.227440457123098
 20
53.944364669231568
 11
31.227440457123098
 21
53.774693716582973
  0
LINE
  8
_0-1_EL-SL300SAIMEI
  6
CONTINUOUS
 62
    7
 10
31.270159641140197
 20
53.944364669231568
 11
31.270159641140197
 21
53.774693716582973
  0
LINE
  8
_0-1_EL-SL300SAIMEI
  6
CONTINUOUS
 62
    7
 10
30.169107124054388
 20
49.033036545459368
 11
30.677603217677216
 21
53.731974532565857
  0
LINE
  8
_0-1_EL-SL300SAIMEI
  6
CONTINUOUS
 62
    7
 10
31.523718668854599
 20
53.519928905448793
 11
31.819996880586107
 21
56.061031335369094
  0
LINE
  8
_0-1_EL-SL300SAIMEI
  6
CONTINUOUS
 62
    7
 10
31.905435248620307
 20
56.102372481192063
 11
31.989495578460406
 21
56.864255347755098
  0
LINE
  8
_0-1_EL-SL300SAIMEI
  6
CONTINUOUS
 62
    7
 10
31.905435248620307
 20
56.102372481192063
 11
31.905435248620307
 21
56.061031335369094
  0
LINE
  8
_0-1_EL-SL300SAIMEI
  6
CONTINUOUS
 62
    7
 10
31.143380127282999
 20
48.652698003887771
 11
31.143380127282999
 21
48.356419792156274
  0
LINE
  8
_0-1_EL-SL300SAIMEI
  6
CONTINUOUS
 62
    7
 10
32.243054606174809
 20
55.934424076286177
 11
32.243054606174809
 21
55.975592967334883
  0
LINE
  8
_0-1_EL-SL300SAIMEI
  6
CONTINUOUS
 62
    7
 10
32.794269883814707
 20
57.119364668437761
 11
32.835611029637704
 21
57.626310469092303
  0
LINE
  8
_0-1_EL-SL300SAIMEI
  6
CONTINUOUS
 62
    7
 10
33.090548095546211
 20
56.864255347755098
 11
33.090548095546211
 21
56.780367272689148
  0
LINE
  8
_0-1_EL-SL300SAIMEI
  6
CONTINUOUS
 62
    7
 10
33.217327609403412
 20
55.805922014686253
 11
33.217327609403412
 21
55.764753123637547
  0
LINE
  8
_0-1_EL-SL300SAIMEI
  6
CONTINUOUS
 62
    7
 10
33.217327609403412
 20
55.848641198703383
 11
33.344107123260613
 21
56.611040829589179
  0
LINE
  8
_0-1_EL-SL300SAIMEI
  6
CONTINUOUS
 62
    7
 10
32.328492974209013
 20
48.397588683205079
 11
32.285773790191911
 21
48.017422396407774
  0
LINE
  8
_0-1_EL-SL300SAIMEI
  6
CONTINUOUS
 62
    7
 10
32.455272488066214
 20
48.397588683205079
 11
32.412553304049112
 21
48.017422396407774
  0
LINE
  8
_0-1_EL-SL300SAIMEI
  6
CONTINUOUS
 62
    7
 10
33.767164848849319
 20
57.965307864840902
 11
33.767164848849319
 21
58.051090742423703
  0
LINE
  8
_0-1_EL-SL300SAIMEI
  6
CONTINUOUS
 62
    7
 10
32.539332817906313
 20
48.397588683205079
 11
32.455272488066214
 21
48.017422396407774
  0
LINE
  8
_0-1_EL-SL300SAIMEI
  6
CONTINUOUS
 62
    7
 10
33.936663546723594
 20
56.526808244974752
 11
33.936663546723594
 21
56.864255347755098
  0
LINE
  8
_0-1_EL-SL300SAIMEI
  6
CONTINUOUS
 62
    7
 10
34.063443060580795
 20
57.585141578043597
 11
34.106162244597897
 21
57.881419789775073
  0
LINE
  8
_0-1_EL-SL300SAIMEI
  6
CONTINUOUS
 62
    7
 10
34.106162244597897
 20
58.051090742423703
 11
34.106162244597897
 21
58.219039147329568
  0
LINE
  8
_0-1_EL-SL300SAIMEI
  6
CONTINUOUS
 62
    7
 10
34.318380126489295
 20
58.600755727095247
 11
34.232941758455098
 21
58.177698001506549
  0
LINE
  8
_0-1_EL-SL300SAIMEI
  6
CONTINUOUS
 62
    7
 10
34.2756609424722
 20
58.008027048857983
 11
34.2756609424722
 21
58.134978817489468
  0
LINE
  8
_0-1_EL-SL300SAIMEI
  6
CONTINUOUS
 62
    7
 10
34.359721272312299
 20
57.965307864840902
 11
34.318380126489295
 21
57.838700605758
  0
LINE
  8
_0-1_EL-SL300SAIMEI
  6
CONTINUOUS
 62
    7
 10
34.232941758455098
 20
56.823086456706399
 11
34.318380126489295
 21
57.372923696152164
  0
LINE
  8
_0-1_EL-SL300SAIMEI
  6
CONTINUOUS
 62
    7
 10
34.106162244597897
 20
55.595426680537457
 11
34.106162244597897
 21
55.552707496520497
  0
LINE
  8
_0-1_EL-SL300SAIMEI
  6
CONTINUOUS
 62
    7
 10
34.232941758455098
 20
55.509643802954891
 11
34.359721272312299
 21
56.357309547100563
  0
LINE
  8
_0-1_EL-SL300SAIMEI
  6
CONTINUOUS
 62
    7
 10
34.910936549952197
 20
57.881419789775073
 11
34.868217365935095
 21
57.795981421740869
  0
LINE
  8
_0-1_EL-SL300SAIMEI
  6
CONTINUOUS
 62
    7
 10
34.952277695775194
 20
58.008027048857983
 11
34.952277695775194
 21
57.965307864840902
  0
LINE
  8
_0-1_EL-SL300SAIMEI
  6
CONTINUOUS
 62
    7
 10
35.460773789398111
 20
59.362638593658303
 11
35.546212157432308
 21
59.998086455912592
  0
LINE
  8
_0-1_EL-SL300SAIMEI
  6
CONTINUOUS
 62
    7
 10
35.0804352478265
 20
56.694928904654951
 11
35.1644955776666
 21
57.245971927520664
  0
LINE
  8
_0-1_EL-SL300SAIMEI
  6
CONTINUOUS
 62
    7
 10
35.249933945700811
 20
57.753262237723803
 11
35.249933945700811
 21
57.965307864840902
  0
LINE
  8
_0-1_EL-SL300SAIMEI
  6
CONTINUOUS
 62
    7
 10
35.757052001129608
 20
59.320091664415379
 11
35.842490369163805
 21
59.955367271895462
  0
LINE
  8
_0-1_EL-SL300SAIMEI
  6
CONTINUOUS
 62
    7
 10
34.655999484043718
 20
58.092259633472402
 11
34.6146583382207
 21
58.008027048857983
  0
LINE
  8
_0-1_EL-SL300SAIMEI
  6
CONTINUOUS
 62
    7
 10
34.952277695775194
 20
58.008027048857983
 11
34.910936549952197
 21
57.965307864840902
  0
LINE
  8
_0-1_EL-SL300SAIMEI
  6
CONTINUOUS
 62
    7
 10
35.249933945700811
 20
57.965307864840902
 11
35.249933945700811
 21
57.881419789775073
  0
LINE
  8
_0-1_EL-SL300SAIMEI
  6
CONTINUOUS
 62
    7
 10
36.688605820341195
 20
58.261758331346648
 11
36.6458866363241
 21
57.881419789775073
  0
LINE
  8
_0-1_EL-SL300SAIMEI
  6
CONTINUOUS
 62
    7
 10
36.519107122466885
 20
56.18763859445199
 11
36.561826306484001
 21
56.653760013606252
  0
LINE
  8
_0-1_EL-SL300SAIMEI
  6
CONTINUOUS
 62
    7
 10
36.6458866363241
 20
57.20342499827786
 11
36.731325004358297
 21
57.838700605758
  0
LINE
  8
_0-1_EL-SL300SAIMEI
  6
CONTINUOUS
 62
    7
 10
36.476387938449818
 20
55.67931475560335
 11
36.519107122466885
 21
56.061031335369094
  0
LINE
  8
_0-1_EL-SL300SAIMEI
  6
CONTINUOUS
 62
    7
 10
37.06894436191272
 20
57.712093346675104
 11
37.06894436191272
 21
57.795981421740869
  0
LINE
  8
_0-1_EL-SL300SAIMEI
  6
CONTINUOUS
 62
    7
 10
36.984884032072621
 20
56.357309547100563
 11
37.027603216089716
 21
56.653760013606252
  0
LINE
  8
_0-1_EL-SL300SAIMEI
  6
CONTINUOUS
 62
    7
 10
37.789658337426999
 20
56.611040829589179
 11
37.873718667267099
 21
57.119364668437761
  0
LINE
  8
_0-1_EL-SL300SAIMEI
  6
CONTINUOUS
 62
    7
 10
37.830999483249997
 20
55.129305261383287
 11
37.873718667267099
 21
55.552707496520497
  0
LINE
  8
_0-1_EL-SL300SAIMEI
  6
CONTINUOUS
 62
    7
 10
38.0004981811243
 20
56.102372481192063
 11
38.0004981811243
 21
56.145091665209193
  0
LINE
  8
_0-1_EL-SL300SAIMEI
  6
CONTINUOUS
 62
    7
 10
38.0004981811243
 20
56.102372481192063
 11
38.0004981811243
 21
56.061031335369094
  0
LINE
  8
_0-1_EL-SL300SAIMEI
  6
CONTINUOUS
 62
    7
 10
38.043217365141395
 20
56.18763859445199
 11
38.127277694981501
 21
56.653760013606252
  0
LINE
  8
_0-1_EL-SL300SAIMEI
  6
CONTINUOUS
 62
    7
 10
37.06894436191272
 20
47.848095953307677
 11
37.027603216089716
 21
47.551645486801974
  0
LINE
  8
_0-1_EL-SL300SAIMEI
  6
CONTINUOUS
 62
    7
 10
38.382214760890008
 20
56.061031335369094
 11
38.339495576872906
 21
56.061031335369094
  0
LINE
  8
_0-1_EL-SL300SAIMEI
  6
CONTINUOUS
 62
    7
 10
38.42493394490711
 20
56.061031335369094
 11
38.42493394490711
 21
56.018312151351964
  0
LINE
  8
_0-1_EL-SL300SAIMEI
  6
CONTINUOUS
 62
    7
 10
38.762553302461605
 20
56.018312151351964
 11
38.762553302461605
 21
55.975592967334883
  0
LINE
  8
_0-1_EL-SL300SAIMEI
  6
CONTINUOUS
 62
    7
 10
38.043217365141395
 20
47.890642882550573
 11
39.058831514193116
 21
54.917259634266074
  0
LINE
  8
_0-1_EL-SL300SAIMEI
  6
CONTINUOUS
 62
    7
 10
38.16999687899861
 20
47.848095953307677
 11
39.185611028050211
 21
54.917259634266074
  0
LINE
  8
_0-1_EL-SL300SAIMEI
  6
CONTINUOUS
 62
    7
 10
37.830999483249997
 20
55.129305261383287
 11
37.789658337426999
 21
55.044039148123268
  0
LINE
  8
_0-1_EL-SL300SAIMEI
  6
CONTINUOUS
 62
    7
 10
37.407941757661291
 20
47.890642882550573
 11
38.551713458764304
 21
54.959978818283169
  0
LINE
  8
_0-1_EL-SL300SAIMEI
  6
CONTINUOUS
 62
    7
 10
24.750660944853397
 20
37.391369881703163
 11
24.920159642727697
 21
37.391369881703163
  0
LINE
  8
_0-1_EL-SL300SAIMEI
  6
CONTINUOUS
 62
    7
 10
24.242164851230509
 20
37.476808249737374
 11
24.623881430996189
 21
37.434089065720258
  0
LINE
  8
_0-1_EL-SL300SAIMEI
  6
CONTINUOUS
 62
    7
 10
23.904545493676096
 20
37.644928909417558
 11
24.031325007533297
 21
37.603760018368781
  0
LINE
  8
_0-1_EL-SL300SAIMEI
  6
CONTINUOUS
 62
    7
 10
30.634884033660118
 20
37.052372485954578
 11
25.682214764065009
 21
37.856974536534672
  0
LINE
  8
_0-1_EL-SL300SAIMEI
  6
CONTINUOUS
 62
    7
 10
30.465385335785896
 20
37.095091669971687
 11
23.735046795801797
 21
38.15342500304039
  0
LINE
  8
_0-1_EL-SL300SAIMEI
  6
CONTINUOUS
 62
    7
 10
23.861826309658998
 20
38.15342500304039
 11
23.735046795801797
 21
38.15342500304039
  0
LINE
  8
_0-1_EL-SL300SAIMEI
  6
CONTINUOUS
 62
    7
 10
25.682214764065009
 20
37.856974536534672
 11
25.512716066190709
 21
37.856974536534672
  0
LINE
  8
_0-1_EL-SL300SAIMEI
  6
CONTINUOUS
 62
    7
 10
30.634884033660118
 20
37.052372485954578
 11
30.465385335785896
 21
37.095091669971687
  0
LINE
  8
_0-1_EL-SL300SAIMEI
  6
CONTINUOUS
 62
    7
 10
35.587553303255305
 20
35.90997882304567
 11
32.582052001923415
 21
36.459643807717278
  0
LINE
  8
_0-1_EL-SL300SAIMEI
  6
CONTINUOUS
 62
    7
 10
41.048718666473285
 20
34.935705819817073
 11
35.587553303255305
 21
35.90997882304567
  0
LINE
  8
_0-1_EL-SL300SAIMEI
  6
CONTINUOUS
 62
    7
 10
32.582052001923415
 20
36.459643807717278
 11
31.946776394443308
 21
36.672033944382981
  0
LINE
  8
_0-1_EL-SL300SAIMEI
  6
CONTINUOUS
 62
    7
 10
41.091437850490401
 20
34.894364673994069
 11
41.048718666473285
 21
34.935705819817073
  0
LINE
  8
_0-1_EL-SL300SAIMEI
  6
CONTINUOUS
 62
    7
 10
31.270159641140197
 20
36.925592972097384
 11
30.634884033660118
 21
37.052372485954578
  0
LINE
  8
_0-1_EL-SL300SAIMEI
  6
CONTINUOUS
 62
    7
 10
31.946776394443308
 20
36.672033944382981
 11
31.270159641140197
 21
36.925592972097384
  0
LINE
  8
_0-1_EL-SL300SAIMEI
  6
CONTINUOUS
 62
    7
 10
41.344996878204796
 20
55.67931475560335
 11
41.683994273953395
 21
55.636595571586284
  0
LINE
  8
_0-1_EL-SL300SAIMEI
  6
CONTINUOUS
 62
    7
 10
41.1754981803305
 20
55.805922014686253
 11
41.344996878204796
 21
55.67931475560335
  0
LINE
  8
_0-1_EL-SL300SAIMEI
  6
CONTINUOUS
 62
    7
 10
41.1754981803305
 20
55.934424076286177
 11
41.1754981803305
 21
55.805922014686253
  0
LINE
  8
_0-1_EL-SL300SAIMEI
  6
CONTINUOUS
 62
    7
 10
42.446049395290714
 20
56.526808244974752
 11
42.446049395290714
 21
56.567977136023558
  0
LINE
  8
_0-1_EL-SL300SAIMEI
  6
CONTINUOUS
 62
    7
 10
41.218217364347595
 20
56.441369876940662
 11
41.1754981803305
 21
55.934424076286177
  0
LINE
  8
_0-1_EL-SL300SAIMEI
  6
CONTINUOUS
 62
    7
 10
41.6412750899363
 20
56.314762617857703
 11
41.59993394411331
 21
55.848641198703383
  0
LINE
  8
_0-1_EL-SL300SAIMEI
  6
CONTINUOUS
 62
    7
 10
40.709721270724799
 20
54.790307865634681
 11
40.709721270724799
 21
55.002698002300271
  0
LINE
  8
_0-1_EL-SL300SAIMEI
  6
CONTINUOUS
 62
    7
 10
39.52460842379881
 20
56.102372481192063
 11
39.567327607815905
 21
56.611040829589179
  0
LINE
  8
_0-1_EL-SL300SAIMEI
  6
CONTINUOUS
 62
    7
 10
39.947666149387516
 20
55.172024445400389
 11
39.947666149387516
 21
55.21371010077187
  0
LINE
  8
_0-1_EL-SL300SAIMEI
  6
CONTINUOUS
 62
    7
 10
40.033104517421691
 20
55.172024445400389
 11
40.033104517421691
 21
55.21371010077187
  0
LINE
  8
_0-1_EL-SL300SAIMEI
  6
CONTINUOUS
 62
    7
 10
40.709721270724799
 20
55.468474911906078
 11
40.79515963875901
 21
55.891360382720464
  0
LINE
  8
_0-1_EL-SL300SAIMEI
  6
CONTINUOUS
 62
    7
 10
41.091437850490401
 20
54.959978818283169
 11
41.134157034507496
 21
55.425755727888998
  0
LINE
  8
_0-1_EL-SL300SAIMEI
  6
CONTINUOUS
 62
    7
 10
42.742327607022219
 20
55.21371010077187
 11
42.742327607022219
 21
55.256429284788972
  0
LINE
  8
_0-1_EL-SL300SAIMEI
  6
CONTINUOUS
 62
    7
 10
39.863605819547416
 20
54.790307865634681
 11
38.805272486478721
 21
47.339255350136263
  0
LINE
  8
_0-1_EL-SL300SAIMEI
  6
CONTINUOUS
 62
    7
 10
40.033104517421691
 20
54.790307865634681
 11
38.932052000335915
 21
47.339255350136263
  0
LINE
  8
_0-1_EL-SL300SAIMEI
  6
CONTINUOUS
 62
    7
 10
42.064332815525006
 20
57.288691111537851
 11
41.937553301667805
 21
56.694928904654951
  0
LINE
  8
_0-1_EL-SL300SAIMEI
  6
CONTINUOUS
 62
    7
 10
42.107051999542108
 20
57.288691111537851
 11
41.980272485684907
 21
56.694928904654951
  0
LINE
  8
_0-1_EL-SL300SAIMEI
  6
CONTINUOUS
 62
    7
 10
42.572828909147916
 20
56.526808244974752
 11
42.530109725130821
 21
56.18763859445199
  0
LINE
  8
_0-1_EL-SL300SAIMEI
  6
CONTINUOUS
 62
    7
 10
41.091437850490401
 20
54.959978818283169
 11
41.048718666473285
 21
54.790307865634681
  0
LINE
  8
_0-1_EL-SL300SAIMEI
  6
CONTINUOUS
 62
    7
 10
43.208104516627998
 20
57.20342499827786
 11
43.334884030485121
 21
57.965307864840902
  0
LINE
  8
_0-1_EL-SL300SAIMEI
  6
CONTINUOUS
 62
    7
 10
42.403330211273605
 20
56.526808244974752
 11
42.403330211273605
 21
56.567977136023558
  0
LINE
  8
_0-1_EL-SL300SAIMEI
  6
CONTINUOUS
 62
    7
 10
41.471776392061997
 20
34.724693721345467
 11
41.091437850490401
 21
34.894364673994069
  0
LINE
  8
_0-1_EL-SL300SAIMEI
  6
CONTINUOUS
 62
    7
 10
32.412553304049112
 20
48.017422396407774
 11
32.539332817906313
 21
47.635705816642073
  0
LINE
  8
_0-1_EL-SL300SAIMEI
  6
CONTINUOUS
 62
    7
 10
32.624771185940517
 20
47.594364670819068
 11
32.455272488066214
 21
48.017422396407774
  0
LINE
  8
_0-1_EL-SL300SAIMEI
  6
CONTINUOUS
 62
    7
 10
45.79054809237121
 20
56.864255347755098
 11
45.833267276388305
 21
57.584969323269384
  0
LINE
  8
_0-1_EL-SL300SAIMEI
  6
CONTINUOUS
 62
    7
 10
42.954545488913595
 20
55.340317359854801
 11
42.9958866347366
 21
55.383036543871867
  0
LINE
  8
_0-1_EL-SL300SAIMEI
  6
CONTINUOUS
 62
    7
 10
43.631162242216618
 20
56.357309547100563
 11
43.547101912376519
 21
55.509643802954891
  0
LINE
  8
_0-1_EL-SL300SAIMEI
  6
CONTINUOUS
 62
    7
 10
43.165385332610896
 20
56.441369876940662
 11
43.292164846468005
 21
57.076645484420688
  0
LINE
  8
_0-1_EL-SL300SAIMEI
  6
CONTINUOUS
 62
    7
 10
43.250823700645014
 20
56.398650692923589
 11
43.334884030485121
 21
57.076645484420688
  0
LINE
  8
_0-1_EL-SL300SAIMEI
  6
CONTINUOUS
 62
    7
 10
44.51999687741111
 20
57.965307864840902
 11
44.51999687741111
 21
57.922588680823878
  0
LINE
  8
_0-1_EL-SL300SAIMEI
  6
CONTINUOUS
 62
    7
 10
44.562716061428205
 20
57.965307864840902
 11
44.562716061428205
 21
57.922588680823878
  0
LINE
  8
_0-1_EL-SL300SAIMEI
  6
CONTINUOUS
 62
    7
 10
44.309157033713795
 20
56.314762617857703
 11
44.393217363553894
 21
56.906974531772171
  0
LINE
  8
_0-1_EL-SL300SAIMEI
  6
CONTINUOUS
 62
    7
 10
44.393217363553894
 20
56.314762617857703
 11
44.477277693394001
 21
56.906974531772171
  0
LINE
  8
_0-1_EL-SL300SAIMEI
  6
CONTINUOUS
 62
    7
 10
45.494269880639706
 20
55.002698002300271
 11
45.705109724337007
 21
56.272043433840693
  0
LINE
  8
_0-1_EL-SL300SAIMEI
  6
CONTINUOUS
 62
    7
 10
46.806162241422896
 20
56.18763859445199
 11
46.932941755280098
 21
56.823086456706399
  0
LINE
  8
_0-1_EL-SL300SAIMEI
  6
CONTINUOUS
 62
    7
 10
46.848881425439998
 20
56.18763859445199
 11
46.932941755280098
 21
56.823086456706399
  0
LINE
  8
_0-1_EL-SL300SAIMEI
  6
CONTINUOUS
 62
    7
 10
55.992164843293004
 20
46.493312153733179
 11
38.847991670495816
 21
47.255367275070491
  0
LINE
  8
_0-1_EL-SL300SAIMEI
  6
CONTINUOUS
 62
    7
 10
56.077603211327215
 20
46.577372483573278
 11
38.932052000335915
 21
47.339255350136263
  0
LINE
  8
_0-1_EL-SL300SAIMEI
  6
CONTINUOUS
 62
    7
 10
37.959157035301295
 20
47.805376769290582
 11
37.281162243804118
 21
47.848095953307677
  0
LINE
  8
_0-1_EL-SL300SAIMEI
  6
CONTINUOUS
 62
    7
 10
37.407941757661291
 20
47.890642882550573
 11
38.043217365141395
 21
47.890642882550573
  0
LINE
  8
_0-1_EL-SL300SAIMEI
  6
CONTINUOUS
 62
    7
 10
37.959157035301295
 20
47.805376769290582
 11
38.127277694981501
 21
47.763691113919073
  0
LINE
  8
_0-1_EL-SL300SAIMEI
  6
CONTINUOUS
 62
    7
 10
31.439658339014496
 20
47.93198402837357
 11
31.143380127282999
 21
48.356419792156274
  0
LINE
  8
_0-1_EL-SL300SAIMEI
  6
CONTINUOUS
 62
    7
 10
32.497991672083316
 20
47.635705816642073
 11
32.285773790191911
 21
48.017422396407774
  0
LINE
  8
_0-1_EL-SL300SAIMEI
  6
CONTINUOUS
 62
    7
 10
42.615548093165017
 20
33.709424081842378
 11
41.471776392061997
 21
34.724693721345467
  0
LINE
  8
_0-1_EL-SL300SAIMEI
  6
CONTINUOUS
 62
    7
 10
43.250823700645014
 20
32.904305266939481
 11
42.615548093165017
 21
33.709424081842378
  0
LINE
  8
_0-1_EL-SL300SAIMEI
  6
CONTINUOUS
 62
    7
 10
44.012878821982298
 20
31.506974538122172
 11
43.250823700645014
 21
32.904305266939481
  0
LINE
  8
_0-1_EL-SL300SAIMEI
  6
CONTINUOUS
 62
    7
 10
44.51999687741111
 20
29.89897622038178
 11
44.012878821982298
 21
31.506974538122172
  0
LINE
  8
_0-1_EL-SL300SAIMEI
  6
CONTINUOUS
 62
    7
 10
44.689495575285406
 20
28.755376774053079
 11
44.51999687741111
 21
29.89897622038178
  0
LINE
  8
_0-1_EL-SL300SAIMEI
  6
CONTINUOUS
 62
    7
 10
44.732214759302508
 20
27.612638601595769
 11
44.689495575285406
 21
28.755376774053079
  0
LINE
  8
_0-1_EL-SL300SAIMEI
  6
CONTINUOUS
 62
    7
 10
44.646776391268311
 20
26.46903915526708
 11
44.732214759302508
 21
27.612638601595769
  0
LINE
  8
_0-1_EL-SL300SAIMEI
  6
CONTINUOUS
 62
    7
 10
48.753330209686105
 20
55.256429284788972
 11
48.796049393703221
 21
55.383036543871867
  0
LINE
  8
_0-1_EL-SL300SAIMEI
  6
CONTINUOUS
 62
    7
 10
49.261826303309
 20
55.636595571586284
 11
49.261826303309
 21
55.67931475560335
  0
LINE
  8
_0-1_EL-SL300SAIMEI
  6
CONTINUOUS
 62
    7
 10
49.388605817166194
 20
55.636595571586284
 11
49.388605817166194
 21
55.67931475560335
  0
LINE
  8
_0-1_EL-SL300SAIMEI
  6
CONTINUOUS
 62
    7
 10
49.897101910789019
 20
55.129305261383287
 11
49.897101910789019
 21
55.256429284788972
  0
LINE
  8
_0-1_EL-SL300SAIMEI
  6
CONTINUOUS
 62
    7
 10
38.127277694981501
 20
47.763691113919073
 11
38.16999687899861
 21
47.763691113919073
  0
LINE
  8
_0-1_EL-SL300SAIMEI
  6
CONTINUOUS
 62
    7
 10
32.624771185940517
 20
47.594364670819068
 11
32.539332817906313
 21
47.635705816642073
  0
LINE
  8
_0-1_EL-SL300SAIMEI
  6
CONTINUOUS
 62
    7
 10
32.455272488066214
 20
48.017422396407774
 11
32.412553304049112
 21
48.017422396407774
  0
LINE
  8
_0-1_EL-SL300SAIMEI
  6
CONTINUOUS
 62
    7
 10
38.805272486478721
 20
47.339255350136263
 11
38.762553302461605
 21
47.339255350136263
  0
LINE
  8
_0-1_EL-SL300SAIMEI
  6
CONTINUOUS
 62
    7
 10
32.412553304049112
 20
48.017422396407774
 11
32.285773790191911
 21
48.017422396407774
  0
LINE
  8
_0-1_EL-SL300SAIMEI
  6
CONTINUOUS
 62
    7
 10
32.497991672083316
 20
47.635705816642073
 11
32.539332817906313
 21
47.635705816642073
  0
LINE
  8
_0-1_EL-SL300SAIMEI
  6
CONTINUOUS
 62
    7
 10
52.394107118498106
 20
54.790307865634681
 11
52.394107118498106
 21
54.663700606551657
  0
LINE
  8
_0-1_EL-SL300SAIMEI
  6
CONTINUOUS
 62
    7
 10
52.606325000389518
 20
54.790307865634681
 11
52.563605816372416
 21
54.663700606551657
  0
LINE
  8
_0-1_EL-SL300SAIMEI
  6
CONTINUOUS
 62
    7
 10
53.664658333458185
 20
54.578262238517489
 11
53.621939149441211
 21
54.494374163451688
  0
LINE
  8
_0-1_EL-SL300SAIMEI
  6
CONTINUOUS
 62
    7
 10
42.31926988143352
 20
56.567977136023558
 11
42.276550697416411
 21
56.567977136023558
  0
LINE
  8
_0-1_EL-SL300SAIMEI
  6
CONTINUOUS
 62
    7
 10
46.467164845674318
 20
56.18763859445199
 11
46.806162241422896
 21
56.18763859445199
  0
LINE
  8
_0-1_EL-SL300SAIMEI
  6
CONTINUOUS
 62
    7
 10
44.054219967805295
 20
56.314762617857703
 11
44.309157033713795
 21
56.314762617857703
  0
LINE
  8
_0-1_EL-SL300SAIMEI
  6
CONTINUOUS
 62
    7
 10
44.646776391268311
 20
56.314762617857703
 11
44.309157033713795
 21
56.314762617857703
  0
LINE
  8
_0-1_EL-SL300SAIMEI
  6
CONTINUOUS
 62
    7
 10
33.090548095546211
 20
53.182309547894278
 11
33.047828911529109
 21
53.182309547894278
  0
LINE
  8
_0-1_EL-SL300SAIMEI
  6
CONTINUOUS
 62
    7
 10
31.396939154997398
 20
53.774693716582973
 11
31.523718668854599
 21
53.774693716582973
  0
LINE
  8
_0-1_EL-SL300SAIMEI
  6
CONTINUOUS
 62
    7
 10
57.432214756127507
 20
54.028424999071667
 11
40.033104517421691
 21
54.790307865634681
  0
LINE
  8
_0-1_EL-SL300SAIMEI
  6
CONTINUOUS
 62
    7
 10
39.906325003564518
 20
54.833027049651783
 11
57.009157030538795
 21
54.070971928314471
  0
LINE
  8
_0-1_EL-SL300SAIMEI
  6
CONTINUOUS
 62
    7
 10
38.551713458764304
 20
54.959978818283169
 11
39.058831514193116
 21
54.917259634266074
  0
LINE
  8
_0-1_EL-SL300SAIMEI
  6
CONTINUOUS
 62
    7
 10
38.255435247032807
 20
55.002698002300271
 11
38.762553302461605
 21
55.002698002300271
  0
LINE
  8
_0-1_EL-SL300SAIMEI
  6
CONTINUOUS
 62
    7
 10
37.830999483249997
 20
55.129305261383287
 11
39.48326727797582
 21
55.044039148123268
  0
LINE
  8
_0-1_EL-SL300SAIMEI
  6
CONTINUOUS
 62
    7
 10
40.541600611044601
 20
55.002698002300271
 11
41.091437850490401
 21
54.959978818283169
  0
LINE
  8
_0-1_EL-SL300SAIMEI
  6
CONTINUOUS
 62
    7
 10
33.597666150975016
 20
55.552707496520497
 11
33.809884032866393
 21
55.509643802954891
  0
LINE
  8
_0-1_EL-SL300SAIMEI
  6
CONTINUOUS
 62
    7
 10
53.960936545189696
 20
54.663700606551657
 11
53.748718663298291
 21
54.663700606551657
  0
LINE
  8
_0-1_EL-SL300SAIMEI
  6
CONTINUOUS
 62
    7
 10
34.063443060580795
 20
55.552707496520497
 11
34.232941758455098
 21
55.552707496520497
  0
LINE
  8
_0-1_EL-SL300SAIMEI
  6
CONTINUOUS
 62
    7
 10
34.106162244597897
 20
55.595426680537457
 11
33.809884032866393
 21
55.636595571586284
  0
LINE
  8
_0-1_EL-SL300SAIMEI
  6
CONTINUOUS
 62
    7
 10
52.394107118498106
 20
54.790307865634681
 11
52.606325000389518
 21
54.790307865634681
  0
LINE
  8
_0-1_EL-SL300SAIMEI
  6
CONTINUOUS
 62
    7
 10
37.873718667267099
 20
55.552707496520497
 11
41.134157034507496
 21
55.425755727888998
  0
LINE
  8
_0-1_EL-SL300SAIMEI
  6
CONTINUOUS
 62
    7
 10
52.31004678865802
 20
54.917259634266074
 11
52.520886632355321
 21
54.917259634266074
  0
LINE
  8
_0-1_EL-SL300SAIMEI
  6
CONTINUOUS
 62
    7
 10
40.709721270724799
 20
55.468474911906078
 11
36.476387938449818
 21
55.67931475560335
  0
LINE
  8
_0-1_EL-SL300SAIMEI
  6
CONTINUOUS
 62
    7
 10
31.566437852871697
 20
53.901645485214473
 11
30.973881429408689
 21
53.985705815054558
  0
LINE
  8
_0-1_EL-SL300SAIMEI
  6
CONTINUOUS
 62
    7
 10
31.566437852871697
 20
53.985705815054558
 11
30.931162245391619
 21
54.113691112331573
  0
LINE
  8
_0-1_EL-SL300SAIMEI
  6
CONTINUOUS
 62
    7
 10
38.721212156638614
 20
47.298086459087564
 11
38.805272486478721
 21
47.255367275070491
  0
LINE
  8
_0-1_EL-SL300SAIMEI
  6
CONTINUOUS
 62
    7
 10
38.16999687899861
 20
47.763691113919073
 11
38.721212156638614
 21
47.298086459087564
  0
LINE
  8
_0-1_EL-SL300SAIMEI
  6
CONTINUOUS
 62
    7
 10
36.096049396878215
 20
59.277372480398249
 11
36.688605820341195
 21
58.261758331346648
  0
LINE
  8
_0-1_EL-SL300SAIMEI
  6
CONTINUOUS
 62
    7
 10
55.188768576132816
 20
54.155376767703082
 11
55.188768576132816
 21
54.240642880963073
  0
LINE
  8
_0-1_EL-SL300SAIMEI
  6
CONTINUOUS
 62
    7
 10
55.695886631561585
 20
54.494374163451688
 11
55.695886631561585
 21
54.53709334746879
  0
LINE
  8
_0-1_EL-SL300SAIMEI
  6
CONTINUOUS
 62
    7
 10
55.781324999595796
 20
54.494374163451688
 11
55.781324999595796
 21
54.53709334746879
  0
LINE
  8
_0-1_EL-SL300SAIMEI
  6
CONTINUOUS
 62
    7
 10
56.077603211327215
 20
46.577372483573278
 11
57.432214756127507
 21
54.028424999071667
  0
LINE
  8
_0-1_EL-SL300SAIMEI
  6
CONTINUOUS
 62
    7
 10
57.474933940144609
 20
54.028424999071667
 11
56.118944357150205
 21
46.577372483573278
  0
LINE
  8
_0-1_EL-SL300SAIMEI
  6
CONTINUOUS
 62
    7
 10
48.838768577720316
 20
55.509643802954891
 11
45.578330210479805
 21
55.636595571586284
  0
LINE
  8
_0-1_EL-SL300SAIMEI
  6
CONTINUOUS
 62
    7
 10
41.1754981803305
 20
55.848641198703383
 11
40.79515963875901
 21
55.891360382720464
  0
LINE
  8
_0-1_EL-SL300SAIMEI
  6
CONTINUOUS
 62
    7
 10
36.519107122466885
 20
56.061031335369094
 11
40.79515963875901
 21
55.891360382720464
  0
LINE
  8
_0-1_EL-SL300SAIMEI
  6
CONTINUOUS
 62
    7
 10
48.88010972354332
 20
55.552707496520497
 11
45.578330210479805
 21
55.67931475560335
  0
LINE
  8
_0-1_EL-SL300SAIMEI
  6
CONTINUOUS
 62
    7
 10
41.1754981803305
 20
55.891360382720464
 11
40.582941756867598
 21
55.934424076286177
  0
LINE
  8
_0-1_EL-SL300SAIMEI
  6
CONTINUOUS
 62
    7
 10
38.42493394490711
 20
56.018312151351964
 11
38.508994274747209
 21
56.018312151351964
  0
LINE
  8
_0-1_EL-SL300SAIMEI
  6
CONTINUOUS
 62
    7
 10
38.043217365141395
 20
56.061031335369094
 11
38.085936549158511
 21
56.061031335369094
  0
LINE
  8
_0-1_EL-SL300SAIMEI
  6
CONTINUOUS
 62
    7
 10
38.382214760890008
 20
56.061031335369094
 11
38.42493394490711
 21
56.061031335369094
  0
LINE
  8
_0-1_EL-SL300SAIMEI
  6
CONTINUOUS
 62
    7
 10
38.296776392855804
 20
56.061031335369094
 11
38.255435247032807
 21
56.061031335369094
  0
LINE
  8
_0-1_EL-SL300SAIMEI
  6
CONTINUOUS
 62
    7
 10
37.959157035301295
 20
56.102372481192063
 11
37.916437851284201
 21
56.102372481192063
  0
LINE
  8
_0-1_EL-SL300SAIMEI
  6
CONTINUOUS
 62
    7
 10
37.916437851284201
 20
56.145091665209193
 11
37.873718667267099
 21
56.145091665209193
  0
LINE
  8
_0-1_EL-SL300SAIMEI
  6
CONTINUOUS
 62
    7
 10
39.52460842379881
 20
56.102372481192063
 11
38.043217365141395
 21
56.18763859445199
  0
LINE
  8
_0-1_EL-SL300SAIMEI
  6
CONTINUOUS
 62
    7
 10
34.359721272312299
 20
56.357309547100563
 11
35.1644955776666
 21
56.314762617857703
  0
LINE
  8
_0-1_EL-SL300SAIMEI
  6
CONTINUOUS
 62
    7
 10
31.439658339014496
 20
56.526808244974752
 11
31.946776394443308
 21
56.484089060957793
  0
LINE
  8
_0-1_EL-SL300SAIMEI
  6
CONTINUOUS
 62
    7
 10
46.593944359531484
 20
56.18763859445199
 11
46.4258236998513
 21
56.18763859445199
  0
LINE
  8
_0-1_EL-SL300SAIMEI
  6
CONTINUOUS
 62
    7
 10
44.2664378496967
 20
56.314762617857703
 11
44.012878821982298
 21
56.314762617857703
  0
LINE
  8
_0-1_EL-SL300SAIMEI
  6
CONTINUOUS
 62
    7
 10
46.679382727565695
 20
56.18763859445199
 11
46.467164845674318
 21
56.18763859445199
  0
LINE
  8
_0-1_EL-SL300SAIMEI
  6
CONTINUOUS
 62
    7
 10
35.0804352478265
 20
56.694928904654951
 11
37.789658337426999
 21
56.611040829589179
  0
LINE
  8
_0-1_EL-SL300SAIMEI
  6
CONTINUOUS
 62
    7
 10
31.523718668854599
 20
56.864255347755098
 11
31.989495578460406
 21
56.864255347755098
  0
LINE
  8
_0-1_EL-SL300SAIMEI
  6
CONTINUOUS
 62
    7
 10
32.96376858168901
 20
56.823086456706399
 11
33.090548095546211
 21
56.823086456706399
  0
LINE
  8
_0-1_EL-SL300SAIMEI
  6
CONTINUOUS
 62
    7
 10
44.646776391268311
 20
56.314762617857703
 11
44.393217363553894
 21
56.314762617857703
  0
LINE
  8
_0-1_EL-SL300SAIMEI
  6
CONTINUOUS
 62
    7
 10
46.679382727565695
 20
56.18763859445199
 11
46.806162241422896
 21
56.18763859445199
  0
LINE
  8
_0-1_EL-SL300SAIMEI
  6
CONTINUOUS
 62
    7
 10
46.679382727565695
 20
56.18763859445199
 11
44.646776391268311
 21
56.314762617857703
  0
LINE
  8
_0-1_EL-SL300SAIMEI
  6
CONTINUOUS
 62
    7
 10
38.127277694981501
 20
56.653760013606252
 11
39.567327607815905
 21
56.611040829589179
  0
LINE
  8
_0-1_EL-SL300SAIMEI
  6
CONTINUOUS
 62
    7
 10
33.936663546723594
 20
56.864255347755098
 11
33.090548095546211
 21
56.864255347755098
  0
LINE
  8
_0-1_EL-SL300SAIMEI
  6
CONTINUOUS
 62
    7
 10
32.116275092317608
 20
57.033926300403557
 11
30.169107124054388
 21
57.119364668437761
  0
LINE
  8
_0-1_EL-SL300SAIMEI
  6
CONTINUOUS
 62
    7
 10
35.1644955776666
 20
57.245971927520664
 11
37.873718667267099
 21
57.119364668437761
  0
LINE
  8
_0-1_EL-SL300SAIMEI
  6
CONTINUOUS
 62
    7
 10
46.932941755280098
 20
56.823086456706399
 11
44.477277693394001
 21
56.906974531772171
  0
LINE
  8
_0-1_EL-SL300SAIMEI
  6
CONTINUOUS
 62
    7
 10
34.063443060580795
 20
57.585141578043597
 11
32.835611029637704
 21
57.626310469092303
  0
LINE
  8
_0-1_EL-SL300SAIMEI
  6
CONTINUOUS
 62
    7
 10
42.064332815525006
 20
57.288691111537851
 11
43.207760007079401
 21
57.245971927520664
  0
LINE
  8
_0-1_EL-SL300SAIMEI
  6
CONTINUOUS
 62
    7
 10
35.249933945700811
 20
57.753262237723803
 11
34.868217365935095
 21
57.795981421740869
  0
LINE
  8
_0-1_EL-SL300SAIMEI
  6
CONTINUOUS
 62
    7
 10
36.731325004358297
 20
57.712093346675104
 11
37.06894436191272
 21
57.712093346675104
  0
LINE
  8
_0-1_EL-SL300SAIMEI
  6
CONTINUOUS
 62
    7
 10
37.06894436191272
 20
57.795981421740869
 11
36.731325004358297
 21
57.795981421740869
  0
LINE
  8
_0-1_EL-SL300SAIMEI
  6
CONTINUOUS
 62
    7
 10
34.910936549952197
 20
57.881419789775073
 11
35.249933945700811
 21
57.881419789775073
  0
LINE
  8
_0-1_EL-SL300SAIMEI
  6
CONTINUOUS
 62
    7
 10
35.333994275540896
 20
57.965307864840902
 11
35.249933945700811
 21
57.965307864840902
  0
LINE
  8
_0-1_EL-SL300SAIMEI
  6
CONTINUOUS
 62
    7
 10
33.767164848849319
 20
58.051090742423703
 11
34.44515964034651
 21
58.008027048857983
  0
LINE
  8
_0-1_EL-SL300SAIMEI
  6
CONTINUOUS
 62
    7
 10
34.2756609424722
 20
58.134978817489468
 11
34.359721272312299
 21
58.134978817489468
  0
LINE
  8
_0-1_EL-SL300SAIMEI
  6
CONTINUOUS
 62
    7
 10
42.403330211273605
 20
56.526808244974752
 11
42.446049395290714
 21
56.526808244974752
  0
LINE
  8
_0-1_EL-SL300SAIMEI
  6
CONTINUOUS
 62
    7
 10
42.36061102725651
 20
56.526808244974752
 11
42.446049395290714
 21
56.526808244974752
  0
LINE
  8
_0-1_EL-SL300SAIMEI
  6
CONTINUOUS
 62
    7
 10
42.36061102725651
 20
56.567977136023558
 11
42.31926988143352
 21
56.567977136023558
  0
LINE
  8
_0-1_EL-SL300SAIMEI
  6
CONTINUOUS
 62
    7
 10
42.36061102725651
 20
56.526808244974752
 11
42.36061102725651
 21
56.567977136023558
  0
LINE
  8
_0-1_EL-SL300SAIMEI
  6
CONTINUOUS
 62
    7
 10
33.217327609403412
 20
55.805922014686253
 11
32.878330213654806
 21
55.891360382720464
  0
LINE
  8
_0-1_EL-SL300SAIMEI
  6
CONTINUOUS
 62
    7
 10
43.884721269930985
 20
56.314762617857703
 11
43.250823700645014
 21
56.398650692923589
  0
LINE
  8
_0-1_EL-SL300SAIMEI
  6
CONTINUOUS
 62
    7
 10
44.393217363553894
 20
56.906974531772171
 11
43.334884030485121
 21
57.076645484420688
  0
LINE
  8
_0-1_EL-SL300SAIMEI
  6
CONTINUOUS
 62
    7
 10
42.233831513399309
 20
56.526808244974752
 11
42.572828909147916
 21
56.484089060957793
  0
LINE
  8
_0-1_EL-SL300SAIMEI
  6
CONTINUOUS
 62
    7
 10
42.276550697416411
 20
56.526808244974752
 11
42.488768579307816
 21
56.526808244974752
  0
LINE
  8
_0-1_EL-SL300SAIMEI
  6
CONTINUOUS
 62
    7
 10
42.446049395290714
 20
56.526808244974752
 11
42.31926988143352
 21
56.526808244974752
  0
LINE
  8
_0-1_EL-SL300SAIMEI
  6
CONTINUOUS
 62
    7
 10
42.488768579307816
 20
56.526808244974752
 11
42.403330211273605
 21
56.567977136023558
  0
LINE
  8
_0-1_EL-SL300SAIMEI
  6
CONTINUOUS
 62
    7
 10
31.905435248620307
 20
56.102372481192063
 11
33.217327609403412
 21
55.848641198703383
  0
LINE
  8
_0-1_EL-SL300SAIMEI
  6
CONTINUOUS
 62
    7
 10
39.863605819547416
 20
54.790307865634681
 11
39.185611028050211
 21
54.917259634266074
  0
LINE
  8
_0-1_EL-SL300SAIMEI
  6
CONTINUOUS
 62
    7
 10
39.397828909941609
 20
54.917259634266074
 11
39.779545489707317
 21
54.876090743217368
  0
LINE
  8
_0-1_EL-SL300SAIMEI
  6
CONTINUOUS
 62
    7
 10
30.254545492088596
 20
56.694928904654951
 11
30.761663547517319
 21
56.567977136023558
  0
LINE
  8
_0-1_EL-SL300SAIMEI
  6
CONTINUOUS
 62
    7
 10
30.295886637911597
 20
57.076645484420688
 11
30.804382731534417
 21
56.949693715789302
  0
LINE
  8
_0-1_EL-SL300SAIMEI
  6
CONTINUOUS
 62
    7
 10
31.989495578460406
 20
56.864255347755098
 11
33.344107123260613
 21
56.611040829589179
  0
LINE
  8
_0-1_EL-SL300SAIMEI
  6
CONTINUOUS
 62
    7
 10
33.936663546723594
 20
56.653760013606252
 11
32.96376858168901
 21
56.823086456706399
  0
LINE
  8
_0-1_EL-SL300SAIMEI
  6
CONTINUOUS
 62
    7
 10
41.134157034507496
 20
55.425755727888998
 11
40.709721270724799
 21
55.468302657131751
  0
LINE
  8
_0-1_EL-SL300SAIMEI
  6
CONTINUOUS
 62
    7
 10
33.090548095546211
 20
56.864255347755098
 11
33.936663546723594
 21
56.737648088672188
  0
LINE
  8
_0-1_EL-SL300SAIMEI
  6
CONTINUOUS
 62
    7
 10
33.17460842538631
 20
56.864255347755098
 11
32.835611029637704
 21
56.949693715789302
  0
LINE
  8
_0-1_EL-SL300SAIMEI
  6
CONTINUOUS
 62
    7
 10
37.916437851284201
 20
56.102372481192063
 11
38.043217365141395
 21
56.061031335369094
  0
LINE
  8
_0-1_EL-SL300SAIMEI
  6
CONTINUOUS
 62
    7
 10
38.382214760890008
 20
56.061031335369094
 11
38.42493394490711
 21
56.018312151351964
  0
LINE
  8
_0-1_EL-SL300SAIMEI
  6
CONTINUOUS
 62
    7
 10
38.508994274747209
 20
56.018312151351964
 11
38.42493394490711
 21
56.061031335369094
  0
LINE
  8
_0-1_EL-SL300SAIMEI
  6
CONTINUOUS
 62
    7
 10
38.0004981811243
 20
56.145091665209193
 11
37.916437851284201
 21
56.145091665209193
  0
LINE
  8
_0-1_EL-SL300SAIMEI
  6
CONTINUOUS
 62
    7
 10
38.42493394490711
 20
56.061031335369094
 11
38.296776392855804
 21
56.061031335369094
  0
LINE
  8
_0-1_EL-SL300SAIMEI
  6
CONTINUOUS
 62
    7
 10
36.984884032072621
 20
56.357309547100563
 11
38.043217365141395
 21
56.18763859445199
  0
LINE
  8
_0-1_EL-SL300SAIMEI
  6
CONTINUOUS
 62
    7
 10
32.794269883814707
 20
57.119364668437761
 11
34.232941758455098
 21
56.823086456706399
  0
LINE
  8
_0-1_EL-SL300SAIMEI
  6
CONTINUOUS
 62
    7
 10
43.081325002770797
 20
55.383036543871867
 11
41.683994273953395
 21
55.636595571586284
  0
LINE
  8
_0-1_EL-SL300SAIMEI
  6
CONTINUOUS
 62
    7
 10
40.79515963875901
 20
55.891360382720464
 11
39.52460842379881
 21
56.102372481192063
  0
LINE
  8
_0-1_EL-SL300SAIMEI
  6
CONTINUOUS
 62
    7
 10
43.547101912376519
 20
55.509643802954891
 11
41.59993394411331
 21
55.848641198703383
  0
LINE
  8
_0-1_EL-SL300SAIMEI
  6
CONTINUOUS
 62
    7
 10
37.789658337426999
 20
56.694928904654951
 11
38.127277694981501
 21
56.653760013606252
  0
LINE
  8
_0-1_EL-SL300SAIMEI
  6
CONTINUOUS
 62
    7
 10
32.835611029637704
 20
57.626310469092303
 11
34.318380126489295
 21
57.373095950926491
  0
LINE
  8
_0-1_EL-SL300SAIMEI
  6
CONTINUOUS
 62
    7
 10
39.567327607815905
 20
56.611040829589179
 11
37.789658337426999
 21
56.906974531772171
  0
LINE
  8
_0-1_EL-SL300SAIMEI
  6
CONTINUOUS
 62
    7
 10
42.530109725130821
 20
56.18763859445199
 11
41.6412750899363
 21
56.314762617857703
  0
LINE
  8
_0-1_EL-SL300SAIMEI
  6
CONTINUOUS
 62
    7
 10
37.873718667267099
 20
57.119364668437761
 11
36.6458866363241
 21
57.33037676690936
  0
LINE
  8
_0-1_EL-SL300SAIMEI
  6
CONTINUOUS
 62
    7
 10
34.318380126489295
 20
57.838700605758
 11
33.767164848849319
 21
57.965307864840902
  0
LINE
  8
_0-1_EL-SL300SAIMEI
  6
CONTINUOUS
 62
    7
 10
34.359721272312299
 20
57.965307864840902
 11
33.767164848849319
 21
58.051090742423703
  0
LINE
  8
_0-1_EL-SL300SAIMEI
  6
CONTINUOUS
 62
    7
 10
42.276550697416411
 20
56.567977136023558
 11
43.165385332610896
 21
56.441369876940662
  0
LINE
  8
_0-1_EL-SL300SAIMEI
  6
CONTINUOUS
 62
    7
 10
35.249933945700811
 20
57.881419789775073
 11
34.44515964034651
 21
58.008027048857983
  0
LINE
  8
_0-1_EL-SL300SAIMEI
  6
CONTINUOUS
 62
    7
 10
57.009157030538795
 20
54.070971928314471
 11
56.331162239041618
 21
54.198095951720184
  0
LINE
  8
_0-1_EL-SL300SAIMEI
  6
CONTINUOUS
 62
    7
 10
55.272828905972915
 20
54.410141578837383
 11
53.748718663298291
 21
54.663700606551657
  0
LINE
  8
_0-1_EL-SL300SAIMEI
  6
CONTINUOUS
 62
    7
 10
52.31004678865802
 20
54.917259634266074
 11
49.897101910789019
 21
55.340317359854801
  0
LINE
  8
_0-1_EL-SL300SAIMEI
  6
CONTINUOUS
 62
    7
 10
57.432214756127507
 20
54.028424999071667
 11
56.288443055024516
 21
54.240642880963073
  0
LINE
  8
_0-1_EL-SL300SAIMEI
  6
CONTINUOUS
 62
    7
 10
55.315548089990017
 20
54.410141578837383
 11
53.960936545189696
 21
54.663700606551657
  0
LINE
  8
_0-1_EL-SL300SAIMEI
  6
CONTINUOUS
 62
    7
 10
52.520886632355321
 20
54.917259634266074
 11
49.897101910789019
 21
55.383036543871867
  0
LINE
  8
_0-1_EL-SL300SAIMEI
  6
CONTINUOUS
 62
    7
 10
36.731325004358297
 20
57.838700605758
 11
37.06894436191272
 21
57.795981421740869
  0
LINE
  8
_0-1_EL-SL300SAIMEI
  6
CONTINUOUS
 62
    7
 10
46.297666147800015
 20
56.18763859445199
 11
46.213605817959916
 21
56.230357778469063
  0
LINE
  8
_0-1_EL-SL300SAIMEI
  6
CONTINUOUS
 62
    7
 10
42.107051999542108
 20
57.288691111537851
 11
43.292164846468005
 21
57.076645484420688
  0
LINE
  8
_0-1_EL-SL300SAIMEI
  6
CONTINUOUS
 62
    7
 10
42.36061102725651
 20
56.567977136023558
 11
42.403330211273605
 21
56.567977136023558
  0
LINE
  8
_0-1_EL-SL300SAIMEI
  6
CONTINUOUS
 62
    7
 10
46.8916006094571
 20
56.823086456706399
 11
45.79054809237121
 21
56.992757409354859
  0
LINE
  8
_0-1_EL-SL300SAIMEI
  6
CONTINUOUS
 62
    7
 10
42.530109725130821
 20
56.484089060957793
 11
42.488768579307816
 21
56.526635990200603
  0
LINE
  8
_0-1_EL-SL300SAIMEI
  6
CONTINUOUS
 62
    7
 10
41.980272485684907
 20
56.694928904654951
 11
42.107051999542108
 21
56.653760013606252
  0
LINE
  8
_0-1_EL-SL300SAIMEI
  6
CONTINUOUS
 62
    7
 10
52.394107118498106
 20
54.790307865634681
 11
52.31004678865802
 21
54.917259634266074
  0
LINE
  8
_0-1_EL-SL300SAIMEI
  6
CONTINUOUS
 62
    7
 10
52.520886632355321
 20
54.917259634266074
 11
52.606325000389518
 21
54.790307865634681
  0
LINE
  8
_0-1_EL-SL300SAIMEI
  6
CONTINUOUS
 62
    7
 10
41.048718666473285
 20
34.894364673994069
 11
32.582052001923415
 21
36.459643807717278
  0
LINE
  8
_0-1_EL-SL300SAIMEI
  6
CONTINUOUS
 62
    7
 10
38.721212156638614
 20
47.381974534153358
 11
38.212716063015705
 21
47.848095953307677
  0
LINE
  8
_0-1_EL-SL300SAIMEI
  6
CONTINUOUS
 62
    7
 10
31.143380127282999
 20
48.652698003887771
 11
30.888443061374517
 21
48.652698003887771
  0
LINE
  8
_0-1_EL-SL300SAIMEI
  6
CONTINUOUS
 62
    7
 10
22.041437855252898
 20
18.467977145548591
 11
22.846212160607308
 21
18.467977145548591
  0
LINE
  8
_0-1_EL-SL300SAIMEI
  6
CONTINUOUS
 62
    7
 10
21.193944365881489
 20
18.594928914180091
 11
22.041437855252898
 21
18.467977145548591
  0
LINE
  8
_0-1_EL-SL300SAIMEI
  6
CONTINUOUS
 62
    7
 10
24.538443062962017
 20
37.517977140786073
 11
24.031325007533297
 21
37.603760018368781
  0
LINE
  8
_0-1_EL-SL300SAIMEI
  6
CONTINUOUS
 62
    7
 10
25.596776396030808
 20
37.13763859921449
 11
24.538443062962017
 21
37.517977140786073
  0
LINE
  8
_0-1_EL-SL300SAIMEI
  6
CONTINUOUS
 62
    7
 10
21.322101917932798
 20
18.892757418879921
 11
22.084157039269996
 21
18.764255357280099
  0
LINE
  8
_0-1_EL-SL300SAIMEI
  6
CONTINUOUS
 62
    7
 10
23.776387941624819
 20
37.81425535251757
 11
22.887553306430309
 21
37.942757414117388
  0
LINE
  8
_0-1_EL-SL300SAIMEI
  6
CONTINUOUS
 62
    7
 10
21.193944365881489
 20
18.892757418879921
 11
22.084157039269996
 21
18.764255357280099
  0
LINE
  8
_0-1_EL-SL300SAIMEI
  6
CONTINUOUS
 62
    7
 10
22.887553306430309
 20
37.942757414117388
 11
22.972991674464506
 21
37.942757414117388
  0
LINE
  8
_0-1_EL-SL300SAIMEI
  6
CONTINUOUS
 62
    7
 10
31.480999484837497
 20
36.884424081048678
 11
31.946776394443308
 21
36.672033944382981
  0
LINE
  8
_0-1_EL-SL300SAIMEI
  6
CONTINUOUS
 62
    7
 10
21.236663549898598
 20
19.442422403551472
 11
22.210936553127198
 21
19.188691121062771
  0
LINE
  8
_0-1_EL-SL300SAIMEI
  6
CONTINUOUS
 62
    7
 10
20.813605824309917
 20
19.653262247248769
 11
21.236663549898598
 21
19.442422403551472
  0
LINE
  8
_0-1_EL-SL300SAIMEI
  6
CONTINUOUS
 62
    7
 10
31.439658339014496
 20
36.884424081048678
 11
31.480999484837497
 21
36.884424081048678
  0
LINE
  8
_0-1_EL-SL300SAIMEI
  6
CONTINUOUS
 62
    7
 10
23.522828913910416
 20
37.687648093434582
 11
23.480109729893318
 21
37.687648093434582
  0
LINE
  8
_0-1_EL-SL300SAIMEI
  6
CONTINUOUS
 62
    7
 10
23.480109729893318
 20
37.687648093434582
 11
23.904545493676096
 21
37.644928909417558
  0
LINE
  8
_0-1_EL-SL300SAIMEI
  6
CONTINUOUS
 62
    7
 10
31.270159641140197
 20
36.925592972097384
 11
31.439658339014496
 21
36.884424081048678
  0
LINE
  8
_0-1_EL-SL300SAIMEI
  6
CONTINUOUS
 62
    7
 10
22.846212160607308
 20
18.976645493945721
 11
22.380435251001497
 21
18.976645493945721
  0
LINE
  8
_0-1_EL-SL300SAIMEI
  6
CONTINUOUS
 62
    7
 10
21.745159643521507
 20
19.019364677962791
 11
22.380435251001497
 21
18.976645493945721
  0
LINE
  8
_0-1_EL-SL300SAIMEI
  6
CONTINUOUS
 62
    7
 10
31.184721273105989
 20
36.925592972097384
 11
31.270159641140197
 21
36.925592972097384
  0
LINE
  8
_0-1_EL-SL300SAIMEI
  6
CONTINUOUS
 62
    7
 10
25.173718670442099
 20
37.307309551863064
 11
24.666600615013298
 21
37.391369881703163
  0
LINE
  8
_0-1_EL-SL300SAIMEI
  6
CONTINUOUS
 62
    7
 10
31.057941759248788
 20
36.968312156114493
 11
31.184721273105989
 21
36.925592972097384
  0
LINE
  8
_0-1_EL-SL300SAIMEI
  6
CONTINUOUS
 62
    7
 10
21.745159643521507
 20
19.019364677962791
 11
22.633994278715907
 21
18.976645493945721
  0
LINE
  8
_0-1_EL-SL300SAIMEI
  6
CONTINUOUS
 62
    7
 10
30.888443061374517
 20
37.011031340131588
 11
31.057941759248788
 21
36.968312156114493
  0
LINE
  8
_0-1_EL-SL300SAIMEI
  6
CONTINUOUS
 62
    7
 10
30.888443061374517
 20
37.011031340131588
 11
30.634884033660118
 21
37.052372485954578
  0
LINE
  8
_0-1_EL-SL300SAIMEI
  6
CONTINUOUS
 62
    7
 10
23.142490372338816
 20
19.10342500780289
 11
24.115385337373397
 21
19.145971937045662
  0
LINE
  8
_0-1_EL-SL300SAIMEI
  6
CONTINUOUS
 62
    7
 10
22.210936553127198
 20
19.188691121062771
 11
23.142490372338816
 21
19.10342500780289
  0
LINE
  8
_0-1_EL-SL300SAIMEI
  6
CONTINUOUS
 62
    7
 10
24.623881430996189
 20
37.434089065720258
 11
24.750660944853397
 21
37.434089065720258
  0
LINE
  8
_0-1_EL-SL300SAIMEI
  6
CONTINUOUS
 62
    7
 10
23.861826309658998
 20
19.10342500780289
 11
23.776387941624819
 21
19.10342500780289
  0
LINE
  8
_0-1_EL-SL300SAIMEI
  6
CONTINUOUS
 62
    7
 10
30.465385335785896
 20
37.095091669971687
 11
30.592164849643009
 21
37.052372485954578
  0
LINE
  8
_0-1_EL-SL300SAIMEI
  6
CONTINUOUS
 62
    7
 10
22.507214764858698
 20
36.418474916668579
 11
23.396049400053219
 21
36.545426685300079
  0
LINE
  8
_0-1_EL-SL300SAIMEI
  6
CONTINUOUS
 62
    7
 10
36.519107122466885
 20
56.441369876940662
 11
36.984884032072621
 21
56.357309547100563
  0
LINE
  8
_0-1_EL-SL300SAIMEI
  6
CONTINUOUS
 62
    7
 10
38.212716063015705
 20
47.848095953307677
 11
38.16999687899861
 21
47.848095953307677
  0
LINE
  8
_0-1_EL-SL300SAIMEI
  6
CONTINUOUS
 62
    7
 10
30.804382731534417
 20
48.73675833372787
 11
30.888443061374517
 21
48.652698003887771
  0
LINE
  8
_0-1_EL-SL300SAIMEI
  6
CONTINUOUS
 62
    7
 10
38.508994274747209
 20
56.061031335369094
 11
38.551713458764304
 21
56.061031335369094
  0
LINE
  8
_0-1_EL-SL300SAIMEI
  6
CONTINUOUS
 62
    7
 10
35.883831514986809
 20
59.320091664415379
 11
35.757052001129608
 21
59.362638593658303
  0
LINE
  8
_0-1_EL-SL300SAIMEI
  6
CONTINUOUS
 62
    7
 10
33.725823703026293
 20
55.764753123637547
 11
33.683104519009191
 21
55.764753123637547
  0
LINE
  8
_0-1_EL-SL300SAIMEI
  6
CONTINUOUS
 62
    7
 10
35.587553303255305
 20
60.124693714995487
 11
35.546212157432308
 21
59.998086455912592
  0
LINE
  8
_0-1_EL-SL300SAIMEI
  6
CONTINUOUS
 62
    7
 10
35.79977118514671
 20
60.124693714995487
 11
35.587553303255305
 21
60.124693714995487
  0
LINE
  8
_0-1_EL-SL300SAIMEI
  6
CONTINUOUS
 62
    7
 10
35.842490369163805
 20
59.955367271895462
 11
35.79977118514671
 21
60.124693714995487
  0
LINE
  8
_0-1_EL-SL300SAIMEI
  6
CONTINUOUS
 62
    7
 10
34.655999484043718
 20
43.022033942795481
 11
36.053330212861106
 21
47.212648091053389
  0
LINE
  8
_0-1_EL-SL300SAIMEI
  6
CONTINUOUS
 62
    7
 10
45.112553300873998
 20
57.753262237723803
 11
45.282051998748415
 21
57.753262237723803
  0
LINE
  8
_0-1_EL-SL300SAIMEI
  6
CONTINUOUS
 62
    7
 10
37.830999483249997
 20
55.129305261383287
 11
37.704219969392796
 21
55.129305261383287
  0
LINE
  8
_0-1_EL-SL300SAIMEI
  6
CONTINUOUS
 62
    7
 10
45.155272484891221
 20
57.753262237723803
 11
45.197991668908315
 21
57.753262237723803
  0
LINE
  8
_0-1_EL-SL300SAIMEI
  6
CONTINUOUS
 62
    7
 10
40.033104517421691
 20
54.833027049651783
 11
39.906325003564518
 21
54.876090743217368
  0
LINE
  8
_0-1_EL-SL300SAIMEI
  6
CONTINUOUS
 62
    7
 10
37.830999483249997
 20
56.102372481192063
 11
37.789658337426999
 21
56.102372481192063
  0
LINE
  8
_0-1_EL-SL300SAIMEI
  6
CONTINUOUS
 62
    7
 10
43.884721269930985
 20
56.314762617857703
 11
44.012878821982298
 21
56.314762617857703
  0
LINE
  8
_0-1_EL-SL300SAIMEI
  6
CONTINUOUS
 62
    7
 10
44.2664378496967
 20
56.314762617857703
 11
44.309157033713795
 21
56.314762617857703
  0
LINE
  8
_0-1_EL-SL300SAIMEI
  6
CONTINUOUS
 62
    7
 10
44.054219967805295
 20
56.314762617857703
 11
44.012878821982298
 21
56.314762617857703
  0
LINE
  8
_0-1_EL-SL300SAIMEI
  6
CONTINUOUS
 62
    7
 10
44.3504981795368
 20
57.965307864840902
 11
43.927440453948101
 21
57.838700605758
  0
LINE
  8
_0-1_EL-SL300SAIMEI
  6
CONTINUOUS
 62
    7
 10
45.23933281473132
 20
57.669374162657974
 11
44.77493394331961
 21
57.922588680823878
  0
LINE
  8
_0-1_EL-SL300SAIMEI
  6
CONTINUOUS
 62
    7
 10
44.3504981795368
 20
57.881419789775073
 11
44.393217363553894
 21
57.881419789775073
  0
LINE
  8
_0-1_EL-SL300SAIMEI
  6
CONTINUOUS
 62
    7
 10
40.413443058993295
 20
55.129305261383287
 11
40.202603215295994
 21
55.172024445400389
  0
LINE
  8
_0-1_EL-SL300SAIMEI
  6
CONTINUOUS
 62
    7
 10
44.2664378496967
 20
57.881419789775073
 11
44.3504981795368
 21
57.881419789775073
  0
LINE
  8
_0-1_EL-SL300SAIMEI
  6
CONTINUOUS
 62
    7
 10
39.820886635530314
 20
55.21371010077187
 11
39.69410712167312
 21
55.21371010077187
  0
LINE
  8
_0-1_EL-SL300SAIMEI
  6
CONTINUOUS
 62
    7
 10
39.906325003564518
 20
55.172024445400389
 11
39.947666149387516
 21
55.172024445400389
  0
LINE
  8
_0-1_EL-SL300SAIMEI
  6
CONTINUOUS
 62
    7
 10
44.51999687741111
 20
57.965307864840902
 11
44.3504981795368
 21
57.965307864840902
  0
LINE
  8
_0-1_EL-SL300SAIMEI
  6
CONTINUOUS
 62
    7
 10
44.562716061428205
 20
57.965307864840902
 11
44.51999687741111
 21
57.965307864840902
  0
LINE
  8
_0-1_EL-SL300SAIMEI
  6
CONTINUOUS
 62
    7
 10
44.477277693394001
 20
57.965307864840902
 11
44.51999687741111
 21
57.965307864840902
  0
LINE
  8
_0-1_EL-SL300SAIMEI
  6
CONTINUOUS
 62
    7
 10
39.906325003564518
 20
55.172024445400389
 11
39.820886635530314
 21
55.172024445400389
  0
LINE
  8
_0-1_EL-SL300SAIMEI
  6
CONTINUOUS
 62
    7
 10
42.107051999542108
 20
56.653760013606252
 11
42.276550697416411
 21
56.567977136023558
  0
LINE
  8
_0-1_EL-SL300SAIMEI
  6
CONTINUOUS
 62
    7
 10
46.593944359531484
 20
56.18763859445199
 11
46.679382727565695
 21
56.18763859445199
  0
LINE
  8
_0-1_EL-SL300SAIMEI
  6
CONTINUOUS
 62
    7
 10
46.297666147800015
 20
56.18763859445199
 11
46.4258236998513
 21
56.18763859445199
  0
LINE
  8
_0-1_EL-SL300SAIMEI
  6
CONTINUOUS
 62
    7
 10
39.947666149387516
 20
55.21371010077187
 11
39.820886635530314
 21
55.21371010077187
  0
LINE
  8
_0-1_EL-SL300SAIMEI
  6
CONTINUOUS
 62
    7
 10
40.033104517421691
 20
55.21371010077187
 11
39.947666149387516
 21
55.21371010077187
  0
LINE
  8
_0-1_EL-SL300SAIMEI
  6
CONTINUOUS
 62
    7
 10
46.4258236998513
 20
56.18763859445199
 11
46.467164845674318
 21
56.18763859445199
  0
LINE
  8
_0-1_EL-SL300SAIMEI
  6
CONTINUOUS
 62
    7
 10
44.77493394331961
 20
57.922588680823878
 11
44.689495575285406
 21
57.922588680823878
  0
LINE
  8
_0-1_EL-SL300SAIMEI
  6
CONTINUOUS
 62
    7
 10
40.159884031278885
 20
55.172024445400389
 11
40.202603215295994
 21
55.172024445400389
  0
LINE
  8
_0-1_EL-SL300SAIMEI
  6
CONTINUOUS
 62
    7
 10
43.927440453948101
 20
57.838700605758
 11
43.843380124107995
 21
57.838700605758
  0
LINE
  8
_0-1_EL-SL300SAIMEI
  6
CONTINUOUS
 62
    7
 10
45.282051998748415
 20
57.626310469092303
 11
45.23933281473132
 21
57.669374162657974
  0
LINE
  8
_0-1_EL-SL300SAIMEI
  6
CONTINUOUS
 62
    7
 10
38.805272486478721
 20
47.255367275070491
 11
38.847991670495816
 21
47.255367275070491
  0
LINE
  8
_0-1_EL-SL300SAIMEI
  6
CONTINUOUS
 62
    7
 10
36.519107122466885
 20
56.061031335369094
 11
34.359721272312299
 21
56.357309547100563
  0
LINE
  8
_0-1_EL-SL300SAIMEI
  6
CONTINUOUS
 62
    7
 10
34.232941758455098
 20
56.823086456706399
 11
35.0804352478265
 21
56.694928904654951
  0
LINE
  8
_0-1_EL-SL300SAIMEI
  6
CONTINUOUS
 62
    7
 10
35.1644955776666
 20
57.245971927520664
 11
34.318380126489295
 21
57.373095950926491
  0
LINE
  8
_0-1_EL-SL300SAIMEI
  6
CONTINUOUS
 62
    7
 10
33.936663546723594
 20
55.636595571586284
 11
34.106162244597897
 21
55.595426680537457
  0
LINE
  8
_0-1_EL-SL300SAIMEI
  6
CONTINUOUS
 62
    7
 10
35.207214761683694
 20
57.753262237723803
 11
35.249933945700811
 21
57.753262237723803
  0
LINE
  8
_0-1_EL-SL300SAIMEI
  6
CONTINUOUS
 62
    7
 10
55.654545485738595
 20
54.155376767703082
 11
55.781324999595796
 21
54.113691112331573
  0
LINE
  8
_0-1_EL-SL300SAIMEI
  6
CONTINUOUS
 62
    7
 10
49.727603212914715
 20
55.552707496520497
 11
49.515385331023396
 21
55.636595571586284
  0
LINE
  8
_0-1_EL-SL300SAIMEI
  6
CONTINUOUS
 62
    7
 10
56.161663541167314
 20
54.410141578837383
 11
55.950823697470021
 21
54.494374163451688
  0
LINE
  8
_0-1_EL-SL300SAIMEI
  6
CONTINUOUS
 62
    7
 10
49.135046789451785
 20
55.67931475560335
 11
49.008267275594591
 21
55.636595571586284
  0
LINE
  8
_0-1_EL-SL300SAIMEI
  6
CONTINUOUS
 62
    7
 10
55.569107117704391
 20
54.53709334746879
 11
55.442327603847218
 21
54.494374163451688
  0
LINE
  8
_0-1_EL-SL300SAIMEI
  6
CONTINUOUS
 62
    7
 10
49.219107119291891
 20
55.636595571586284
 11
49.261826303309
 21
55.636595571586284
  0
LINE
  8
_0-1_EL-SL300SAIMEI
  6
CONTINUOUS
 62
    7
 10
55.6118263017215
 20
54.494374163451688
 11
55.695886631561585
 21
54.494374163451688
  0
LINE
  8
_0-1_EL-SL300SAIMEI
  6
CONTINUOUS
 62
    7
 10
49.219107119291891
 20
55.636595571586284
 11
49.135046789451785
 21
55.636595571586284
  0
LINE
  8
_0-1_EL-SL300SAIMEI
  6
CONTINUOUS
 62
    7
 10
55.569107117704391
 20
54.494374163451688
 11
55.6118263017215
 21
54.494374163451688
  0
LINE
  8
_0-1_EL-SL300SAIMEI
  6
CONTINUOUS
 62
    7
 10
49.261826303309
 20
55.67931475560335
 11
49.135046789451785
 21
55.67931475560335
  0
LINE
  8
_0-1_EL-SL300SAIMEI
  6
CONTINUOUS
 62
    7
 10
55.695886631561585
 20
54.53709334746879
 11
55.569107117704391
 21
54.53709334746879
  0
LINE
  8
_0-1_EL-SL300SAIMEI
  6
CONTINUOUS
 62
    7
 10
49.388605817166194
 20
55.67931475560335
 11
49.261826303309
 21
55.67931475560335
  0
LINE
  8
_0-1_EL-SL300SAIMEI
  6
CONTINUOUS
 62
    7
 10
55.781324999595796
 20
54.53709334746879
 11
55.695886631561585
 21
54.53709334746879
  0
LINE
  8
_0-1_EL-SL300SAIMEI
  6
CONTINUOUS
 62
    7
 10
55.908104513452997
 20
54.494374163451688
 11
55.950823697470021
 21
54.494374163451688
  0
LINE
  8
_0-1_EL-SL300SAIMEI
  6
CONTINUOUS
 62
    7
 10
55.992164843293004
 20
46.493312153733179
 11
56.118944357150205
 21
46.577372483573278
  0
LINE
  8
_0-1_EL-SL300SAIMEI
  6
CONTINUOUS
 62
    7
 10
29.915548096340018
 20
37.180357783231564
 11
32.116275092317608
 21
47.720971929901971
  0
LINE
  8
_0-1_EL-SL300SAIMEI
  6
CONTINUOUS
 62
    7
 10
33.683104519009191
 20
47.467757411736173
 11
31.270159641140197
 21
36.925592972097384
  0
LINE
  8
_0-1_EL-SL300SAIMEI
  6
CONTINUOUS
 62
    7
 10
30.677603217677216
 20
37.052372485954578
 11
33.217327609403412
 21
47.508926302784857
  0
LINE
  8
_0-1_EL-SL300SAIMEI
  6
CONTINUOUS
 62
    7
 10
33.429545491294817
 20
47.508926302784857
 11
30.931162245391619
 21
37.011031340131588
  0
LINE
  8
_0-1_EL-SL300SAIMEI
  6
CONTINUOUS
 62
    7
 10
30.888443061374517
 20
37.011031340131588
 11
33.429545491294817
 21
47.508926302784857
  0
LINE
  8
_0-1_EL-SL300SAIMEI
  6
CONTINUOUS
 62
    7
 10
33.429545491294817
 20
47.467757411736173
 11
30.931162245391619
 21
37.011031340131588
  0
LINE
  8
_0-1_EL-SL300SAIMEI
  6
CONTINUOUS
 62
    7
 10
32.835611029637704
 20
36.418474916668579
 11
35.757052001129608
 21
47.255367275070491
  0
LINE
  8
_0-1_EL-SL300SAIMEI
  6
CONTINUOUS
 62
    7
 10
35.842490369163805
 20
47.255367275070491
 11
32.878330213654806
 21
36.41830266189428
  0
LINE
  8
_0-1_EL-SL300SAIMEI
  6
CONTINUOUS
 62
    7
 10
50.150660938503385
 20
55.08675833214037
 11
55.188768576132816
 21
54.197923696945971
  0
LINE
  8
_0-1_EL-SL300SAIMEI
  6
CONTINUOUS
 62
    7
 10
48.076713456383011
 20
54.494374163451688
 11
48.033994272365895
 21
54.53709334746879
  0
LINE
  8
_0-1_EL-SL300SAIMEI
  6
CONTINUOUS
 62
    7
 10
42.233831513399309
 20
55.08675833214037
 11
42.022991669702009
 21
55.129305261383287
  0
LINE
  8
_0-1_EL-SL300SAIMEI
  6
CONTINUOUS
 62
    7
 10
49.472666147006301
 20
55.636595571586284
 11
49.388605817166194
 21
55.67931475560335
  0
LINE
  8
_0-1_EL-SL300SAIMEI
  6
CONTINUOUS
 62
    7
 10
49.388605817166194
 20
55.636595571586284
 11
49.684884028897621
 21
55.552707496520497
  0
LINE
  8
_0-1_EL-SL300SAIMEI
  6
CONTINUOUS
 62
    7
 10
49.388605817166194
 20
55.636595571586284
 11
49.261826303309
 21
55.636595571586284
  0
LINE
  8
_0-1_EL-SL300SAIMEI
  6
CONTINUOUS
 62
    7
 10
48.753330209686105
 20
55.256429284788972
 11
49.008267275594591
 21
55.172024445400389
  0
LINE
  8
_0-1_EL-SL300SAIMEI
  6
CONTINUOUS
 62
    7
 10
49.897101910789019
 20
55.129305261383287
 11
49.008267275594591
 21
55.172024445400389
  0
LINE
  8
_0-1_EL-SL300SAIMEI
  6
CONTINUOUS
 62
    7
 10
49.854382726771917
 20
55.468302657131751
 11
49.727603212914715
 21
55.552707496520497
  0
LINE
  8
_0-1_EL-SL300SAIMEI
  6
CONTINUOUS
 62
    7
 10
49.897101910789019
 20
55.256429284788972
 11
49.854382726771917
 21
55.468302657131751
  0
LINE
  8
_0-1_EL-SL300SAIMEI
  6
CONTINUOUS
 62
    7
 10
48.838768577720316
 20
55.552707496520497
 11
48.796049393703221
 21
55.383036543871867
  0
LINE
  8
_0-1_EL-SL300SAIMEI
  6
CONTINUOUS
 62
    7
 10
49.008267275594591
 20
55.636595571586284
 11
48.838768577720316
 21
55.552707496520497
  0
LINE
  8
_0-1_EL-SL300SAIMEI
  6
CONTINUOUS
 62
    7
 10
49.176387935274818
 20
55.595426680537457
 11
49.727603212914715
 21
55.552707496520497
  0
LINE
  8
_0-1_EL-SL300SAIMEI
  6
CONTINUOUS
 62
    7
 10
49.261826303309
 20
55.67931475560335
 11
49.135046789451785
 21
55.636595571586284
  0
LINE
  8
_0-1_EL-SL300SAIMEI
  6
CONTINUOUS
 62
    7
 10
49.008267275594591
 20
55.340317359854801
 11
49.897101910789019
 21
55.256429284788972
  0
LINE
  8
_0-1_EL-SL300SAIMEI
  6
CONTINUOUS
 62
    7
 10
49.008267275594591
 20
55.636595571586284
 11
49.176387935274818
 21
55.595426680537457
  0
LINE
  8
_0-1_EL-SL300SAIMEI
  6
CONTINUOUS
 62
    7
 10
49.515385331023396
 20
55.636595571586284
 11
49.684884028897621
 21
55.552707496520497
  0
LINE
  8
_0-1_EL-SL300SAIMEI
  6
CONTINUOUS
 62
    7
 10
48.796049393703221
 20
55.383036543871867
 11
49.008267275594591
 21
55.340317359854801
  0
LINE
  8
_0-1_EL-SL300SAIMEI
  6
CONTINUOUS
 62
    7
 10
55.908104513452997
 20
54.494374163451688
 11
55.781324999595796
 21
54.53709334746879
  0
LINE
  8
_0-1_EL-SL300SAIMEI
  6
CONTINUOUS
 62
    7
 10
55.8226661454188
 20
54.494374163451688
 11
56.077603211327215
 21
54.410141578837383
  0
LINE
  8
_0-1_EL-SL300SAIMEI
  6
CONTINUOUS
 62
    7
 10
55.8226661454188
 20
54.494374163451688
 11
55.695886631561585
 21
54.494374163451688
  0
LINE
  8
_0-1_EL-SL300SAIMEI
  6
CONTINUOUS
 62
    7
 10
56.331162239041618
 20
54.240642880963073
 11
56.161663541167314
 21
54.409969324063077
  0
LINE
  8
_0-1_EL-SL300SAIMEI
  6
CONTINUOUS
 62
    7
 10
56.331162239041618
 20
54.113691112331573
 11
56.331162239041618
 21
54.240642880963073
  0
LINE
  8
_0-1_EL-SL300SAIMEI
  6
CONTINUOUS
 62
    7
 10
55.23010972195582
 20
54.367422394820274
 11
55.188768576132816
 21
54.240642880963073
  0
LINE
  8
_0-1_EL-SL300SAIMEI
  6
CONTINUOUS
 62
    7
 10
55.442327603847218
 20
54.494374163451688
 11
55.23010972195582
 21
54.367422394820274
  0
LINE
  8
_0-1_EL-SL300SAIMEI
  6
CONTINUOUS
 62
    7
 10
55.6118263017215
 20
54.451310469886067
 11
56.161663541167314
 21
54.410141578837383
  0
LINE
  8
_0-1_EL-SL300SAIMEI
  6
CONTINUOUS
 62
    7
 10
55.695886631561585
 20
54.53709334746879
 11
55.569107117704391
 21
54.494374163451688
  0
LINE
  8
_0-1_EL-SL300SAIMEI
  6
CONTINUOUS
 62
    7
 10
55.442327603847218
 20
54.198095951720184
 11
55.654545485738595
 21
54.155376767703082
  0
LINE
  8
_0-1_EL-SL300SAIMEI
  6
CONTINUOUS
 62
    7
 10
55.442327603847218
 20
54.494374163451688
 11
55.6118263017215
 21
54.451310469886067
  0
LINE
  8
_0-1_EL-SL300SAIMEI
  6
CONTINUOUS
 62
    7
 10
55.908104513452997
 20
54.494374163451688
 11
56.077603211327215
 21
54.410141578837383
  0
LINE
  8
_0-1_EL-SL300SAIMEI
  6
CONTINUOUS
 62
    7
 10
55.188768576132816
 20
54.240642880963073
 11
55.442327603847218
 21
54.198095951720184
  0
LINE
  8
_0-1_EL-SL300SAIMEI
  6
CONTINUOUS
 62
    7
 10
35.546212157432308
 20
59.998086455912592
 11
35.842490369163805
 21
59.955367271895462
  0
LINE
  8
_0-1_EL-SL300SAIMEI
  6
CONTINUOUS
 62
    7
 10
40.159884031278885
 20
55.172024445400389
 11
40.033104517421691
 21
55.21371010077187
  0
LINE
  8
_0-1_EL-SL300SAIMEI
  6
CONTINUOUS
 62
    7
 10
40.0758237014388
 20
55.172024445400389
 11
40.329382729153195
 21
55.129305261383287
  0
LINE
  8
_0-1_EL-SL300SAIMEI
  6
CONTINUOUS
 62
    7
 10
40.0758237014388
 20
55.172024445400389
 11
39.947666149387516
 21
55.172024445400389
  0
LINE
  8
_0-1_EL-SL300SAIMEI
  6
CONTINUOUS
 62
    7
 10
40.541600611044601
 20
55.002698002300271
 11
40.413443058993295
 21
55.129305261383287
  0
LINE
  8
_0-1_EL-SL300SAIMEI
  6
CONTINUOUS
 62
    7
 10
40.582941756867598
 20
54.790307865634681
 11
40.541600611044601
 21
55.002698002300271
  0
LINE
  8
_0-1_EL-SL300SAIMEI
  6
CONTINUOUS
 62
    7
 10
39.52460842379881
 20
55.129305261383287
 11
39.440548093958711
 21
54.917259634266074
  0
LINE
  8
_0-1_EL-SL300SAIMEI
  6
CONTINUOUS
 62
    7
 10
39.69410712167312
 20
55.21371010077187
 11
39.52460842379881
 21
55.129305261383287
  0
LINE
  8
_0-1_EL-SL300SAIMEI
  6
CONTINUOUS
 62
    7
 10
39.820886635530314
 20
55.172024445400389
 11
40.413443058993295
 21
55.129305261383287
  0
LINE
  8
_0-1_EL-SL300SAIMEI
  6
CONTINUOUS
 62
    7
 10
39.947666149387516
 20
55.21371010077187
 11
39.820886635530314
 21
55.172024445400389
  0
LINE
  8
_0-1_EL-SL300SAIMEI
  6
CONTINUOUS
 62
    7
 10
39.69410712167312
 20
54.876090743217368
 11
39.906325003564518
 21
54.876090743217368
  0
LINE
  8
_0-1_EL-SL300SAIMEI
  6
CONTINUOUS
 62
    7
 10
39.69410712167312
 20
55.21371010077187
 11
39.820886635530314
 21
55.172024445400389
  0
LINE
  8
_0-1_EL-SL300SAIMEI
  6
CONTINUOUS
 62
    7
 10
40.159884031278885
 20
55.172024445400389
 11
40.329382729153195
 21
55.129305261383287
  0
LINE
  8
_0-1_EL-SL300SAIMEI
  6
CONTINUOUS
 62
    7
 10
39.440548093958711
 20
54.917259634266074
 11
39.69410712167312
 21
54.876090743217368
  0
LINE
  8
_0-1_EL-SL300SAIMEI
  6
CONTINUOUS
 62
    7
 10
37.704219969392796
 20
56.18763859445199
 11
37.577440455535594
 21
56.145091665209193
  0
LINE
  8
_0-1_EL-SL300SAIMEI
  6
CONTINUOUS
 62
    7
 10
38.508994274747209
 20
56.061031335369094
 11
37.704219969392796
 21
56.18763859445199
  0
LINE
  8
_0-1_EL-SL300SAIMEI
  6
CONTINUOUS
 62
    7
 10
38.508994274747209
 20
56.061031335369094
 11
38.762553302461605
 21
56.018312151351964
  0
LINE
  8
_0-1_EL-SL300SAIMEI
  6
CONTINUOUS
 62
    7
 10
38.382214760890008
 20
56.061031335369094
 11
38.085936549158511
 21
56.061031335369094
  0
LINE
  8
_0-1_EL-SL300SAIMEI
  6
CONTINUOUS
 62
    7
 10
38.0004981811243
 20
56.102372481192063
 11
37.916437851284201
 21
56.145091665209193
  0
LINE
  8
_0-1_EL-SL300SAIMEI
  6
CONTINUOUS
 62
    7
 10
37.959157035301295
 20
56.102372481192063
 11
38.0004981811243
 21
56.102372481192063
  0
LINE
  8
_0-1_EL-SL300SAIMEI
  6
CONTINUOUS
 62
    7
 10
38.762553302461605
 20
56.018312151351964
 11
37.830999483249997
 21
56.102372481192063
  0
LINE
  8
_0-1_EL-SL300SAIMEI
  6
CONTINUOUS
 62
    7
 10
38.0004981811243
 20
56.145091665209193
 11
38.255435247032807
 21
56.061031335369094
  0
LINE
  8
_0-1_EL-SL300SAIMEI
  6
CONTINUOUS
 62
    7
 10
37.577440455535594
 20
56.145091665209193
 11
37.789658337426999
 21
56.102372481192063
  0
LINE
  8
_0-1_EL-SL300SAIMEI
  6
CONTINUOUS
 62
    7
 10
44.689495575285406
 20
57.922588680823878
 11
44.562716061428205
 21
57.965307864840902
  0
LINE
  8
_0-1_EL-SL300SAIMEI
  6
CONTINUOUS
 62
    7
 10
44.646776391268311
 20
57.922588680823878
 11
44.393217363553894
 21
57.881419789775073
  0
LINE
  8
_0-1_EL-SL300SAIMEI
  6
CONTINUOUS
 62
    7
 10
44.901713457176811
 20
57.795981421740869
 11
44.646776391268311
 21
57.922588680823878
  0
LINE
  8
_0-1_EL-SL300SAIMEI
  6
CONTINUOUS
 62
    7
 10
44.98577378701691
 20
57.838700605758
 11
44.689495575285406
 21
57.922588680823878
  0
LINE
  8
_0-1_EL-SL300SAIMEI
  6
CONTINUOUS
 62
    7
 10
44.901713457176811
 20
57.795981421740869
 11
44.98577378701691
 21
57.838700605758
  0
LINE
  8
_0-1_EL-SL300SAIMEI
  6
CONTINUOUS
 62
    7
 10
44.51999687741111
 20
57.965307864840902
 11
44.266093340148217
 21
57.881419789775073
  0
LINE
  8
_0-1_EL-SL300SAIMEI
  6
CONTINUOUS
 62
    7
 10
34.868217365935095
 20
57.795981421740869
 11
34.318380126489295
 21
57.838700605758
  0
LINE
  8
_0-1_EL-SL300SAIMEI
  6
CONTINUOUS
 62
    7
 10
34.359721272312299
 20
57.965307864840902
 11
34.910936549952197
 21
57.881419789775073
  0
LINE
  8
_0-1_EL-SL300SAIMEI
  6
CONTINUOUS
 62
    7
 10
35.79977118514671
 20
59.320091664415379
 11
35.503492973415206
 21
59.362638593658303
  0
LINE
  8
_0-1_EL-SL300SAIMEI
  6
CONTINUOUS
 62
    7
 10
36.096049396878215
 20
59.277372480398249
 11
35.883831514986809
 21
59.320091664415379
  0
LINE
  8
_0-1_EL-SL300SAIMEI
  6
CONTINUOUS
 62
    7
 10
35.121776393649498
 20
59.405357777675263
 11
35.460773789398111
 21
59.405357777675263
  0
LINE
  8
_0-1_EL-SL300SAIMEI
  6
CONTINUOUS
 62
    7
 10
34.741437852077901
 20
58.051090742423703
 11
34.232941758455098
 21
58.177698001506549
  0
LINE
  8
_0-1_EL-SL300SAIMEI
  6
CONTINUOUS
 62
    7
 10
35.503492973415206
 20
59.362638593658303
 11
35.418054605380995
 21
59.362638593658303
  0
LINE
  8
_0-1_EL-SL300SAIMEI
  6
CONTINUOUS
 62
    7
 10
36.222828910735416
 20
57.838700605758
 11
36.6458866363241
 21
57.881419789775073
  0
LINE
  8
_0-1_EL-SL300SAIMEI
  6
CONTINUOUS
 62
    7
 10
34.741437852077901
 20
58.051090742423703
 11
36.222828910735416
 21
57.838700605758
  0
LINE
  8
_0-1_EL-SL300SAIMEI
  6
CONTINUOUS
 62
    7
 10
35.418054605380995
 20
59.362638593658303
 11
35.460773789398111
 21
59.362638593658303
  0
LINE
  8
_0-1_EL-SL300SAIMEI
  6
CONTINUOUS
 62
    7
 10
36.010611028844011
 20
58.261758331346648
 11
36.688605820341195
 21
58.261758331346648
  0
LINE
  8
_0-1_EL-SL300SAIMEI
  6
CONTINUOUS
 62
    7
 10
34.825498181918
 20
58.473976213237968
 11
36.010611028844011
 21
58.261758331346648
  0
LINE
  8
_0-1_EL-SL300SAIMEI
  6
CONTINUOUS
 62
    7
 10
34.402440456329394
 20
58.515317359061051
 11
34.318380126489295
 21
58.600755727095247
  0
LINE
  8
_0-1_EL-SL300SAIMEI
  6
CONTINUOUS
 62
    7
 10
34.825498181918
 20
58.473976213237968
 11
34.402440456329394
 21
58.515317359061051
  0
LINE
  8
_0-1_EL-SL300SAIMEI
  6
CONTINUOUS
 62
    7
 10
35.630272487272407
 20
59.277372480398249
 11
36.096049396878215
 21
59.277372480398249
  0
LINE
  8
_0-1_EL-SL300SAIMEI
  6
CONTINUOUS
 62
    7
 10
35.333994275540896
 20
59.362638593658303
 11
35.630272487272407
 21
59.277372480398249
  0
LINE
  8
_0-1_EL-SL300SAIMEI
  6
CONTINUOUS
 62
    7
 10
35.333994275540896
 20
59.362638593658303
 11
35.121776393649498
 21
59.405357777675263
  0
LINE
  8
_0-1_EL-SL300SAIMEI
  6
CONTINUOUS
 62
    7
 10
35.757052001129608
 20
59.320091664415379
 11
35.79977118514671
 21
59.320091664415379
  0
LINE
  8
_0-1_EL-SL300SAIMEI
  6
CONTINUOUS
 62
    7
 10
44.477277693394001
 20
55.044039148123268
 11
45.494269880639706
 21
55.002698002300271
  0
LINE
  8
_0-1_EL-SL300SAIMEI
  6
CONTINUOUS
 62
    7
 10
43.504382728359417
 20
55.21371010077187
 11
44.477277693394001
 21
55.044039148123268
  0
LINE
  8
_0-1_EL-SL300SAIMEI
  6
CONTINUOUS
 62
    7
 10
44.054219967805295
 20
57.881419789775073
 11
43.334884030485121
 21
57.965307864840902
  0
LINE
  8
_0-1_EL-SL300SAIMEI
  6
CONTINUOUS
 62
    7
 10
45.071212155051114
 20
57.626310469092303
 11
45.663768578514009
 21
57.626310469092303
  0
LINE
  8
_0-1_EL-SL300SAIMEI
  6
CONTINUOUS
 62
    7
 10
43.970159637965196
 20
57.795981421740869
 11
45.071212155051114
 21
57.626310469092303
  0
LINE
  8
_0-1_EL-SL300SAIMEI
  6
CONTINUOUS
 62
    7
 10
43.250823700645014
 20
56.398650692923589
 11
43.165385332610896
 21
56.441369876940662
  0
LINE
  8
_0-1_EL-SL300SAIMEI
  6
CONTINUOUS
 62
    7
 10
46.806162241422896
 20
56.18763859445199
 11
46.848881425439998
 21
56.18763859445199
  0
LINE
  8
_0-1_EL-SL300SAIMEI
  6
CONTINUOUS
 62
    7
 10
41.980272485684907
 20
56.694928904654951
 11
41.937553301667805
 21
56.694928904654951
  0
LINE
  8
_0-1_EL-SL300SAIMEI
  6
CONTINUOUS
 62
    7
 10
46.932941755280098
 20
56.823086456706399
 11
46.8916006094571
 21
56.823086456706399
  0
LINE
  8
_0-1_EL-SL300SAIMEI
  6
CONTINUOUS
 62
    7
 10
43.504382728359417
 20
57.922588680823878
 11
43.970159637965196
 21
57.795981421740869
  0
LINE
  8
_0-1_EL-SL300SAIMEI
  6
CONTINUOUS
 62
    7
 10
45.833267276388305
 20
57.585141578043597
 11
45.282051998748415
 21
57.753262237723803
  0
LINE
  8
_0-1_EL-SL300SAIMEI
  6
CONTINUOUS
 62
    7
 10
42.954545488913595
 20
55.340317359854801
 11
43.504382728359417
 21
55.21371010077187
  0
LINE
  8
_0-1_EL-SL300SAIMEI
  6
CONTINUOUS
 62
    7
 10
42.233831513399309
 20
56.526808244974752
 11
42.14977118355921
 21
56.567977136023558
  0
LINE
  8
_0-1_EL-SL300SAIMEI
  6
CONTINUOUS
 62
    7
 10
41.59993394411331
 20
55.848641198703383
 11
41.1754981803305
 21
55.934424076286177
  0
LINE
  8
_0-1_EL-SL300SAIMEI
  6
CONTINUOUS
 62
    7
 10
45.663768578514009
 20
57.626310469092303
 11
45.197991668908315
 21
57.753262237723803
  0
LINE
  8
_0-1_EL-SL300SAIMEI
  6
CONTINUOUS
 62
    7
 10
43.547101912376519
 20
55.509643802954891
 11
43.081325002770797
 21
55.383036543871867
  0
LINE
  8
_0-1_EL-SL300SAIMEI
  6
CONTINUOUS
 62
    7
 10
44.393217363553894
 20
56.906974531772171
 11
44.477277693394001
 21
56.906974531772171
  0
LINE
  8
_0-1_EL-SL300SAIMEI
  6
CONTINUOUS
 62
    7
 10
43.377603214502216
 20
57.881419789775073
 11
43.884721269930985
 21
57.795981421740869
  0
LINE
  8
_0-1_EL-SL300SAIMEI
  6
CONTINUOUS
 62
    7
 10
43.334884030485121
 20
57.965307864840902
 11
43.377603214502216
 21
57.881419789775073
  0
LINE
  8
_0-1_EL-SL300SAIMEI
  6
CONTINUOUS
 62
    7
 10
43.208104516627998
 20
57.20342499827786
 11
43.757941756073791
 21
57.076645484420688
  0
LINE
  8
_0-1_EL-SL300SAIMEI
  6
CONTINUOUS
 62
    7
 10
41.59993394411331
 20
55.636595571586284
 11
41.59993394411331
 21
55.848641198703383
  0
LINE
  8
_0-1_EL-SL300SAIMEI
  6
CONTINUOUS
 62
    7
 10
41.683994273953395
 20
55.636595571586284
 11
41.59993394411331
 21
55.636595571586284
  0
LINE
  8
_0-1_EL-SL300SAIMEI
  6
CONTINUOUS
 62
    7
 10
41.218217364347595
 20
56.441369876940662
 11
41.6412750899363
 21
56.314762617857703
  0
LINE
  8
_0-1_EL-SL300SAIMEI
  6
CONTINUOUS
 62
    7
 10
45.197991668908315
 20
56.864255347755098
 11
45.79054809237121
 21
56.864255347755098
  0
LINE
  8
_0-1_EL-SL300SAIMEI
  6
CONTINUOUS
 62
    7
 10
43.757941756073791
 20
57.076645484420688
 11
45.197991668908315
 21
56.864255347755098
  0
LINE
  8
_0-1_EL-SL300SAIMEI
  6
CONTINUOUS
 62
    7
 10
44.393217363553894
 20
56.314762617857703
 11
44.309157033713795
 21
56.314762617857703
  0
LINE
  8
_0-1_EL-SL300SAIMEI
  6
CONTINUOUS
 62
    7
 10
42.064332815525006
 20
57.288691111537851
 11
42.107051999542108
 21
57.288691111537851
  0
LINE
  8
_0-1_EL-SL300SAIMEI
  6
CONTINUOUS
 62
    7
 10
44.816275089142607
 20
57.626310469092303
 11
45.833267276388305
 21
57.585141578043597
  0
LINE
  8
_0-1_EL-SL300SAIMEI
  6
CONTINUOUS
 62
    7
 10
43.884721269930985
 20
57.795981421740869
 11
44.816275089142607
 21
57.626310469092303
  0
LINE
  8
_0-1_EL-SL300SAIMEI
  6
CONTINUOUS
 62
    7
 10
44.012878821982298
 20
57.881419789775073
 11
43.504382728359417
 21
57.922588680823878
  0
LINE
  8
_0-1_EL-SL300SAIMEI
  6
CONTINUOUS
 62
    7
 10
43.292164846468005
 20
57.076645484420688
 11
43.334884030485121
 21
57.076645484420688
  0
LINE
  8
_0-1_EL-SL300SAIMEI
  6
CONTINUOUS
 62
    7
 10
33.936663546723594
 20
55.636595571586284
 11
33.725823703026293
 21
55.764753123637547
  0
LINE
  8
_0-1_EL-SL300SAIMEI
  6
CONTINUOUS
 62
    7
 10
33.429545491294817
 20
55.764753123637547
 11
33.344107123260613
 21
55.67931475560335
  0
LINE
  8
_0-1_EL-SL300SAIMEI
  6
CONTINUOUS
 62
    7
 10
33.683104519009191
 20
55.764753123637547
 11
33.429545491294817
 21
55.764753123637547
  0
LINE
  8
_0-1_EL-SL300SAIMEI
  6
CONTINUOUS
 62
    7
 10
36.688605820341195
 20
55.172024445400389
 11
37.830999483249997
 21
55.129305261383287
  0
LINE
  8
_0-1_EL-SL300SAIMEI
  6
CONTINUOUS
 62
    7
 10
34.232941758455098
 20
55.509643802954891
 11
36.688605820341195
 21
55.172024445400389
  0
LINE
  8
_0-1_EL-SL300SAIMEI
  6
CONTINUOUS
 62
    7
 10
37.873718667267099
 20
56.061031335369094
 11
37.534721271518485
 21
56.18763859445199
  0
LINE
  8
_0-1_EL-SL300SAIMEI
  6
CONTINUOUS
 62
    7
 10
38.805272486478721
 20
56.018312151351964
 11
37.873718667267099
 21
56.061031335369094
  0
LINE
  8
_0-1_EL-SL300SAIMEI
  6
CONTINUOUS
 62
    7
 10
36.604545490501096
 20
56.145091665209193
 11
37.238443059787016
 21
56.145091665209193
  0
LINE
  8
_0-1_EL-SL300SAIMEI
  6
CONTINUOUS
 62
    7
 10
35.1644955776666
 20
56.314762617857703
 11
36.604545490501096
 21
56.145091665209193
  0
LINE
  8
_0-1_EL-SL300SAIMEI
  6
CONTINUOUS
 62
    7
 10
32.96376858168901
 20
55.805922014686253
 11
33.429545491294817
 21
55.722033939620481
  0
LINE
  8
_0-1_EL-SL300SAIMEI
  6
CONTINUOUS
 62
    7
 10
32.878330213654806
 20
55.891360382720464
 11
32.96376858168901
 21
55.805922014686253
  0
LINE
  8
_0-1_EL-SL300SAIMEI
  6
CONTINUOUS
 62
    7
 10
32.371212158226115
 20
56.018312151351964
 11
32.243054606174809
 21
55.975592967334883
  0
LINE
  8
_0-1_EL-SL300SAIMEI
  6
CONTINUOUS
 62
    7
 10
33.344107123260613
 20
55.67931475560335
 11
33.470886637117815
 21
55.67931475560335
  0
LINE
  8
_0-1_EL-SL300SAIMEI
  6
CONTINUOUS
 62
    7
 10
33.217327609403412
 20
55.805922014686253
 11
33.470886637117815
 21
55.764753123637547
  0
LINE
  8
_0-1_EL-SL300SAIMEI
  6
CONTINUOUS
 62
    7
 10
38.551713458764304
 20
56.061031335369094
 11
38.805272486478721
 21
56.018312151351964
  0
LINE
  8
_0-1_EL-SL300SAIMEI
  6
CONTINUOUS
 62
    7
 10
33.470886637117815
 20
55.67931475560335
 11
33.936663546723594
 21
55.636595571586284
  0
LINE
  8
_0-1_EL-SL300SAIMEI
  6
CONTINUOUS
 62
    7
 10
36.476387938449818
 20
55.67931475560335
 11
37.873718667267099
 21
55.552707496520497
  0
LINE
  8
_0-1_EL-SL300SAIMEI
  6
CONTINUOUS
 62
    7
 10
32.835611029637704
 20
55.764753123637547
 11
33.809884032866393
 21
55.636595571586284
  0
LINE
  8
_0-1_EL-SL300SAIMEI
  6
CONTINUOUS
 62
    7
 10
32.243054606174809
 20
55.975592967334883
 11
32.835611029637704
 21
55.764753123637547
  0
LINE
  8
_0-1_EL-SL300SAIMEI
  6
CONTINUOUS
 62
    7
 10
37.027603216089716
 20
56.272043433840693
 11
36.519107122466885
 21
56.357309547100563
  0
LINE
  8
_0-1_EL-SL300SAIMEI
  6
CONTINUOUS
 62
    7
 10
37.238443059787016
 20
56.145091665209193
 11
37.027603216089716
 21
56.272043433840693
  0
LINE
  8
_0-1_EL-SL300SAIMEI
  6
CONTINUOUS
 62
    7
 10
37.534721271518485
 20
56.18763859445199
 11
38.508994274747209
 21
56.061031335369094
  0
LINE
  8
_0-1_EL-SL300SAIMEI
  6
CONTINUOUS
 62
    7
 10
30.761663547517319
 20
54.028424999071667
 11
30.973881429408689
 21
53.985705815054558
  0
LINE
  8
_0-1_EL-SL300SAIMEI
  6
CONTINUOUS
 62
    7
 10
30.761663547517319
 20
54.155376767703082
 11
30.761663547517319
 21
54.028424999071667
  0
LINE
  8
_0-1_EL-SL300SAIMEI
  6
CONTINUOUS
 62
    7
 10
32.15899427633471
 20
56.864255347755098
 11
32.201713460351812
 21
56.864255347755098
  0
LINE
  8
_0-1_EL-SL300SAIMEI
  6
CONTINUOUS
 62
    7
 10
30.169107124054388
 20
57.119364668437761
 11
30.085046794214296
 21
57.119364668437761
  0
LINE
  8
_0-1_EL-SL300SAIMEI
  6
CONTINUOUS
 62
    7
 10
32.835611029637704
 20
56.949693715789302
 11
32.116275092317608
 21
57.033926300403557
  0
LINE
  8
_0-1_EL-SL300SAIMEI
  6
CONTINUOUS
 62
    7
 10
31.609157036888806
 20
56.992757409354859
 11
32.15899427633471
 21
56.864255347755098
  0
LINE
  8
_0-1_EL-SL300SAIMEI
  6
CONTINUOUS
 62
    7
 10
34.232941758455098
 20
58.219039147329568
 11
34.106162244597897
 21
58.219039147329568
  0
LINE
  8
_0-1_EL-SL300SAIMEI
  6
CONTINUOUS
 62
    7
 10
36.731325004358297
 20
57.838700605758
 11
36.6458866363241
 21
57.881419789775073
  0
LINE
  8
_0-1_EL-SL300SAIMEI
  6
CONTINUOUS
 62
    7
 10
37.027603216089716
 20
56.145091665209193
 11
36.519107122466885
 21
56.272043433840693
  0
LINE
  8
_0-1_EL-SL300SAIMEI
  6
CONTINUOUS
 62
    7
 10
33.217327609403412
 20
55.848641198703383
 11
33.470886637117815
 21
55.764753123637547
  0
LINE
  8
_0-1_EL-SL300SAIMEI
  6
CONTINUOUS
 62
    7
 10
31.439658339014496
 20
56.526808244974752
 11
30.761663547517319
 21
56.567977136023558
  0
LINE
  8
_0-1_EL-SL300SAIMEI
  6
CONTINUOUS
 62
    7
 10
30.254545492088596
 20
56.694928904654951
 11
30.042327610197187
 21
56.737648088672188
  0
LINE
  8
_0-1_EL-SL300SAIMEI
  6
CONTINUOUS
 62
    7
 10
36.392327608609719
 20
57.20342499827786
 11
36.6458866363241
 21
57.20342499827786
  0
LINE
  8
_0-1_EL-SL300SAIMEI
  6
CONTINUOUS
 62
    7
 10
36.476387938449818
 20
56.145091665209193
 11
36.519107122466885
 21
56.18763859445199
  0
LINE
  8
_0-1_EL-SL300SAIMEI
  6
CONTINUOUS
 62
    7
 10
30.761663547517319
 20
54.155376767703082
 11
30.931162245391619
 21
54.113691112331573
  0
LINE
  8
_0-1_EL-SL300SAIMEI
  6
CONTINUOUS
 62
    7
 10
32.07493394649461
 20
56.949693715789302
 11
31.609157036888806
 21
56.992757409354859
  0
LINE
  8
_0-1_EL-SL300SAIMEI
  6
CONTINUOUS
 62
    7
 10
32.201713460351812
 20
56.864255347755098
 11
32.07493394649461
 21
56.949693715789302
  0
LINE
  8
_0-1_EL-SL300SAIMEI
  6
CONTINUOUS
 62
    7
 10
34.106162244597897
 20
58.219039147329568
 11
34.2756609424722
 21
58.134978817489468
  0
LINE
  8
_0-1_EL-SL300SAIMEI
  6
CONTINUOUS
 62
    7
 10
34.741437852077901
 20
57.373095950926491
 11
36.392327608609719
 21
57.20342499827786
  0
LINE
  8
_0-1_EL-SL300SAIMEI
  6
CONTINUOUS
 62
    7
 10
34.106162244597897
 20
57.499703210009393
 11
34.741437852077901
 21
57.373095950926491
  0
LINE
  8
_0-1_EL-SL300SAIMEI
  6
CONTINUOUS
 62
    7
 10
34.063443060580795
 20
57.585141578043597
 11
34.106162244597897
 21
57.499703210009393
  0
LINE
  8
_0-1_EL-SL300SAIMEI
  6
CONTINUOUS
 62
    7
 10
30.085046794214296
 20
57.119364668437761
 11
30.295886637911597
 21
57.076645484420688
  0
LINE
  8
_0-1_EL-SL300SAIMEI
  6
CONTINUOUS
 62
    7
 10
33.936663546723594
 20
56.526808244974752
 11
34.825498181918
 21
56.314762617857703
  0
LINE
  8
_0-1_EL-SL300SAIMEI
  6
CONTINUOUS
 62
    7
 10
30.804382731534417
 20
56.949693715789302
 11
31.523718668854599
 21
56.864255347755098
  0
LINE
  8
_0-1_EL-SL300SAIMEI
  6
CONTINUOUS
 62
    7
 10
33.809884032866393
 20
56.441369876940662
 11
34.487878824363605
 21
56.357309547100563
  0
LINE
  8
_0-1_EL-SL300SAIMEI
  6
CONTINUOUS
 62
    7
 10
33.344107123260613
 20
56.611040829589179
 11
33.809884032866393
 21
56.441369876940662
  0
LINE
  8
_0-1_EL-SL300SAIMEI
  6
CONTINUOUS
 62
    7
 10
36.519107122466885
 20
57.838700605758
 11
36.731325004358297
 21
57.838700605758
  0
LINE
  8
_0-1_EL-SL300SAIMEI
  6
CONTINUOUS
 62
    7
 10
30.931162245391619
 20
54.113691112331573
 11
30.973881429408689
 21
53.985705815054558
  0
LINE
  8
_0-1_EL-SL300SAIMEI
  6
CONTINUOUS
 62
    7
 10
35.249933945700811
 20
57.965307864840902
 11
36.519107122466885
 21
57.838700605758
  0
LINE
  8
_0-1_EL-SL300SAIMEI
  6
CONTINUOUS
 62
    7
 10
31.989495578460406
 20
56.061031335369094
 11
31.819996880586107
 21
56.061031335369094
  0
LINE
  8
_0-1_EL-SL300SAIMEI
  6
CONTINUOUS
 62
    7
 10
32.667490369957591
 20
55.805922014686253
 11
34.063443060580795
 21
55.552707496520497
  0
LINE
  8
_0-1_EL-SL300SAIMEI
  6
CONTINUOUS
 62
    7
 10
32.201713460351812
 20
55.975592967334883
 11
32.667490369957591
 21
55.805922014686253
  0
LINE
  8
_0-1_EL-SL300SAIMEI
  6
CONTINUOUS
 62
    7
 10
32.328492974209013
 20
56.018312151351964
 11
32.201713460351812
 21
55.975592967334883
  0
LINE
  8
_0-1_EL-SL300SAIMEI
  6
CONTINUOUS
 62
    7
 10
36.731325004358297
 20
55.172024445400389
 11
37.704219969392796
 21
55.129305261383287
  0
LINE
  8
_0-1_EL-SL300SAIMEI
  6
CONTINUOUS
 62
    7
 10
34.487878824363605
 20
55.468302657131751
 11
36.731325004358297
 21
55.172024445400389
  0
LINE
  8
_0-1_EL-SL300SAIMEI
  6
CONTINUOUS
 62
    7
 10
32.455272488066214
 20
55.805922014686253
 11
34.487878824363605
 21
55.468302657131751
  0
LINE
  8
_0-1_EL-SL300SAIMEI
  6
CONTINUOUS
 62
    7
 10
31.946776394443308
 20
55.934424076286177
 11
32.455272488066214
 21
55.805922014686253
  0
LINE
  8
_0-1_EL-SL300SAIMEI
  6
CONTINUOUS
 62
    7
 10
31.819996880586107
 20
56.061031335369094
 11
31.946776394443308
 21
55.934424076286177
  0
LINE
  8
_0-1_EL-SL300SAIMEI
  6
CONTINUOUS
 62
    7
 10
31.819996880586107
 20
47.763691113919073
 11
32.497991672083316
 21
47.635705816642073
  0
LINE
  8
_0-1_EL-SL300SAIMEI
  6
CONTINUOUS
 62
    7
 10
31.439658339014496
 20
47.93198402837357
 11
31.819996880586107
 21
47.763691113919073
  0
LINE
  8
_0-1_EL-SL300SAIMEI
  6
CONTINUOUS
 62
    7
 10
34.571939154203704
 20
47.339255350136263
 11
36.604545490501096
 21
47.212648091053389
  0
LINE
  8
_0-1_EL-SL300SAIMEI
  6
CONTINUOUS
 62
    7
 10
32.624771185940517
 20
47.594364670819068
 11
34.571939154203704
 21
47.339255350136263
  0
LINE
  8
_0-1_EL-SL300SAIMEI
  6
CONTINUOUS
 62
    7
 10
35.376713459558005
 20
47.594364670819068
 11
32.455272488066214
 21
48.017422396407774
  0
LINE
  8
_0-1_EL-SL300SAIMEI
  6
CONTINUOUS
 62
    7
 10
36.308267278769584
 20
47.508926302784857
 11
35.376713459558005
 21
47.594364670819068
  0
LINE
  8
_0-1_EL-SL300SAIMEI
  6
CONTINUOUS
 62
    7
 10
37.027603216089716
 20
47.551645486801974
 11
36.308267278769584
 21
47.508926302784857
  0
LINE
  8
_0-1_EL-SL300SAIMEI
  6
CONTINUOUS
 62
    7
 10
31.184721273105989
 20
48.270981424122063
 11
31.143380127282999
 21
48.356419792156274
  0
LINE
  8
_0-1_EL-SL300SAIMEI
  6
CONTINUOUS
 62
    7
 10
32.285773790191911
 20
48.017422396407774
 11
31.184721273105989
 21
48.270981424122063
  0
LINE
  8
_0-1_EL-SL300SAIMEI
  6
CONTINUOUS
 62
    7
 10
22.168217369110099
 20
36.375755732651477
 11
23.396049400053219
 21
36.545426685300079
  0
LINE
  8
_0-1_EL-SL300SAIMEI
  6
CONTINUOUS
 62
    7
 10
20.983104522184188
 20
35.90997882304567
 11
22.168217369110099
 21
36.375755732651477
  0
LINE
  8
_0-1_EL-SL300SAIMEI
  6
CONTINUOUS
 62
    7
 10
20.433267282738313
 20
35.613700611314158
 11
20.983104522184188
 21
35.90997882304567
  0
LINE
  8
_0-1_EL-SL300SAIMEI
  6
CONTINUOUS
 62
    7
 10
19.585773793366911
 20
34.978425003834168
 11
20.433267282738313
 21
35.613700611314158
  0
LINE
  8
_0-1_EL-SL300SAIMEI
  6
CONTINUOUS
 62
    7
 10
18.866437856046701
 20
34.216369882496878
 11
19.585773793366911
 21
34.978425003834168
  0
LINE
  8
_0-1_EL-SL300SAIMEI
  6
CONTINUOUS
 62
    7
 10
18.018944366675214
 20
33.073976219588083
 11
18.866437856046701
 21
34.216369882496878
  0
LINE
  8
_0-1_EL-SL300SAIMEI
  6
CONTINUOUS
 62
    7
 10
17.385046797389293
 20
31.80342500462789
 11
18.018944366675214
 21
33.073976219588083
  0
LINE
  8
_0-1_EL-SL300SAIMEI
  6
CONTINUOUS
 62
    7
 10
16.919269887783514
 20
30.27931476195338
 11
17.385046797389293
 21
31.80342500462789
  0
LINE
  8
_0-1_EL-SL300SAIMEI
  6
CONTINUOUS
 62
    7
 10
16.749771189909211
 20
29.17826224486749
 11
16.919269887783514
 21
30.27931476195338
  0
LINE
  8
_0-1_EL-SL300SAIMEI
  6
CONTINUOUS
 62
    7
 10
16.707052005892109
 20
27.992977143167291
 11
16.749771189909211
 21
29.17826224486749
  0
LINE
  8
_0-1_EL-SL300SAIMEI
  6
CONTINUOUS
 62
    7
 10
16.919269887783514
 20
26.131419797712571
 11
16.707052005892109
 21
27.992977143167291
  0
LINE
  8
_0-1_EL-SL300SAIMEI
  6
CONTINUOUS
 62
    7
 10
17.342327613372191
 20
24.69136988487816
 11
16.919269887783514
 21
26.131419797712571
  0
LINE
  8
_0-1_EL-SL300SAIMEI
  6
CONTINUOUS
 62
    7
 10
17.808104522977914
 20
23.675755735826481
 11
17.342327613372191
 21
24.69136988487816
  0
LINE
  8
_0-1_EL-SL300SAIMEI
  6
CONTINUOUS
 62
    7
 10
18.570159644315197
 20
22.531984034723571
 11
17.808104522977914
 21
23.675755735826481
  0
LINE
  8
_0-1_EL-SL300SAIMEI
  6
CONTINUOUS
 62
    7
 10
19.035936553921005
 20
21.981974540503369
 11
18.570159644315197
 21
22.531984034723571
  0
LINE
  8
_0-1_EL-SL300SAIMEI
  6
CONTINUOUS
 62
    7
 10
19.797991675258316
 20
21.305357787200371
 11
19.035936553921005
 21
21.981974540503369
  0
LINE
  8
_0-1_EL-SL300SAIMEI
  6
CONTINUOUS
 62
    7
 10
21.236663549898598
 20
20.458036552603069
 11
19.797991675258316
 21
21.305357787200371
  0
LINE
  8
_0-1_EL-SL300SAIMEI
  6
CONTINUOUS
 62
    7
 10
22.380435251001497
 20
20.161758340871682
 11
21.236663549898598
 21
20.458036552603069
  0
LINE
  8
_0-1_EL-SL300SAIMEI
  6
CONTINUOUS
 62
    7
 10
20.686826310452716
 20
36.841360387482993
 11
21.575660945647197
 21
37.180357783231564
  0
LINE
  8
_0-1_EL-SL300SAIMEI
  6
CONTINUOUS
 62
    7
 10
19.332214765652509
 20
35.994039152885769
 11
20.686826310452716
 21
36.841360387482993
  0
LINE
  8
_0-1_EL-SL300SAIMEI
  6
CONTINUOUS
 62
    7
 10
18.400660946440894
 20
35.105376772465583
 11
19.332214765652509
 21
35.994039152885769
  0
LINE
  8
_0-1_EL-SL300SAIMEI
  6
CONTINUOUS
 62
    7
 10
17.681325009120798
 20
34.259089066513994
 11
18.400660946440894
 21
35.105376772465583
  0
LINE
  8
_0-1_EL-SL300SAIMEI
  6
CONTINUOUS
 62
    7
 10
16.876550703766405
 20
32.819039153679583
 11
17.681325009120798
 21
34.259089066513994
  0
LINE
  8
_0-1_EL-SL300SAIMEI
  6
CONTINUOUS
 62
    7
 10
16.326713464320505
 20
31.506974538122172
 11
16.876550703766405
 21
32.819039153679583
  0
LINE
  8
_0-1_EL-SL300SAIMEI
  6
CONTINUOUS
 62
    7
 10
15.902277700537695
 20
29.686758338490371
 11
16.326713464320505
 21
31.506974538122172
  0
LINE
  8
_0-1_EL-SL300SAIMEI
  6
CONTINUOUS
 62
    7
 10
15.818217370697596
 20
28.628425005421672
 11
15.902277700537695
 21
29.686758338490371
  0
LINE
  8
_0-1_EL-SL300SAIMEI
  6
CONTINUOUS
 62
    7
 10
15.818217370697596
 20
27.612638601595769
 11
15.818217370697596
 21
28.628425005421672
  0
LINE
  8
_0-1_EL-SL300SAIMEI
  6
CONTINUOUS
 62
    7
 10
16.071776398411998
 20
25.792422401963972
 11
15.818217370697596
 21
27.612638601595769
  0
LINE
  8
_0-1_EL-SL300SAIMEI
  6
CONTINUOUS
 62
    7
 10
16.580272492034908
 20
24.14136039065799
 11
16.071776398411998
 21
25.792422401963972
  0
LINE
  8
_0-1_EL-SL300SAIMEI
  6
CONTINUOUS
 62
    7
 10
17.046049401640715
 20
23.126090751154869
 11
16.580272492034908
 21
24.14136039065799
  0
LINE
  8
_0-1_EL-SL300SAIMEI
  6
CONTINUOUS
 62
    7
 10
17.977603220852217
 20
21.769928913386291
 11
17.046049401640715
 21
23.126090751154869
  0
LINE
  8
_0-1_EL-SL300SAIMEI
  6
CONTINUOUS
 62
    7
 10
18.909157040063803
 20
20.797033948351789
 11
17.977603220852217
 21
21.769928913386291
  0
LINE
  8
_0-1_EL-SL300SAIMEI
  6
CONTINUOUS
 62
    7
 10
19.671212161401115
 20
20.204305270114482
 11
18.909157040063803
 21
20.797033948351789
  0
LINE
  8
_0-1_EL-SL300SAIMEI
  6
CONTINUOUS
 62
    7
 10
20.813605824309917
 20
19.653262247248769
 11
19.671212161401115
 21
20.204305270114482
  0
LINE
  8
_0-1_EL-SL300SAIMEI
  6
CONTINUOUS
 62
    7
 10
23.142490372338816
 20
36.545426685300079
 11
24.497101917138988
 21
36.459643807717278
  0
LINE
  8
_0-1_EL-SL300SAIMEI
  6
CONTINUOUS
 62
    7
 10
21.829219973361607
 20
36.290317364617273
 11
23.142490372338816
 21
36.545426685300079
  0
LINE
  8
_0-1_EL-SL300SAIMEI
  6
CONTINUOUS
 62
    7
 10
21.279382733915696
 20
36.12202445016289
 11
21.829219973361607
 21
36.290317364617273
  0
LINE
  8
_0-1_EL-SL300SAIMEI
  6
CONTINUOUS
 62
    7
 10
20.305109730687008
 20
35.613700611314158
 11
21.279382733915696
 21
36.12202445016289
  0
LINE
  8
_0-1_EL-SL300SAIMEI
  6
CONTINUOUS
 62
    7
 10
19.45899427950971
 20
34.978425003834168
 11
20.305109730687008
 21
35.613700611314158
  0
LINE
  8
_0-1_EL-SL300SAIMEI
  6
CONTINUOUS
 62
    7
 10
18.443380130457996
 20
33.92009167076538
 11
19.45899427950971
 21
34.978425003834168
  0
LINE
  8
_0-1_EL-SL300SAIMEI
  6
CONTINUOUS
 62
    7
 10
17.595886641086594
 20
32.522588687173773
 11
18.443380130457996
 21
33.92009167076538
  0
LINE
  8
_0-1_EL-SL300SAIMEI
  6
CONTINUOUS
 62
    7
 10
17.130109731480815
 20
31.506974538122172
 11
17.595886641086594
 21
32.522588687173773
  0
LINE
  8
_0-1_EL-SL300SAIMEI
  6
CONTINUOUS
 62
    7
 10
16.79249037392632
 20
30.36475312998758
 11
17.130109731480815
 21
31.506974538122172
  0
LINE
  8
_0-1_EL-SL300SAIMEI
  6
CONTINUOUS
 62
    7
 10
16.664332821875007
 20
29.602698008650272
 11
16.79249037392632
 21
30.36475312998758
  0
LINE
  8
_0-1_EL-SL300SAIMEI
  6
CONTINUOUS
 62
    7
 10
16.580272492034908
 20
27.823650700067279
 11
16.664332821875007
 21
29.602698008650272
  0
LINE
  8
_0-1_EL-SL300SAIMEI
  6
CONTINUOUS
 62
    7
 10
16.664332821875007
 20
26.681257037158481
 11
16.580272492034908
 21
27.823650700067279
  0
LINE
  8
_0-1_EL-SL300SAIMEI
  6
CONTINUOUS
 62
    7
 10
17.046049401640715
 20
25.114255355692571
 11
16.664332821875007
 21
26.681257037158481
  0
LINE
  8
_0-1_EL-SL300SAIMEI
  6
CONTINUOUS
 62
    7
 10
17.850823706995016
 20
23.379305269320792
 11
17.046049401640715
 21
25.114255355692571
  0
LINE
  8
_0-1_EL-SL300SAIMEI
  6
CONTINUOUS
 62
    7
 10
18.7396583421895
 20
22.194364677169069
 11
17.850823706995016
 21
23.379305269320792
  0
LINE
  8
_0-1_EL-SL300SAIMEI
  6
CONTINUOUS
 62
    7
 10
19.839332821081314
 20
21.177372489923279
 11
18.7396583421895
 21
22.194364677169069
  0
LINE
  8
_0-1_EL-SL300SAIMEI
  6
CONTINUOUS
 62
    7
 10
20.983104522184188
 20
20.543302665863092
 11
19.839332821081314
 21
21.177372489923279
  0
LINE
  8
_0-1_EL-SL300SAIMEI
  6
CONTINUOUS
 62
    7
 10
22.252277698950198
 20
20.161758340871682
 11
20.983104522184188
 21
20.543302665863092
  0
LINE
  8
_0-1_EL-SL300SAIMEI
  6
CONTINUOUS
 62
    7
 10
22.464495580841596
 20
37.434089065720258
 11
21.575660945647197
 21
37.180357783231564
  0
LINE
  8
_0-1_EL-SL300SAIMEI
  6
CONTINUOUS
 62
    7
 10
23.099771188321707
 20
37.517977140786073
 11
22.464495580841596
 21
37.434089065720258
  0
LINE
  8
_0-1_EL-SL300SAIMEI
  6
CONTINUOUS
 62
    7
 10
24.031325007533297
 20
37.517977140786073
 11
23.099771188321707
 21
37.517977140786073
  0
LINE
  8
_0-1_EL-SL300SAIMEI
  6
CONTINUOUS
 62
    7
 10
24.666600615013298
 20
37.391369881703163
 11
24.031325007533297
 21
37.517977140786073
  0
LINE
  8
_0-1_EL-SL300SAIMEI
  6
CONTINUOUS
 62
    7
 10
24.072666153356298
 20
36.62931476036588
 11
24.454382733121918
 21
36.545426685300079
  0
LINE
  8
_0-1_EL-SL300SAIMEI
  6
CONTINUOUS
 62
    7
 10
22.846212160607308
 20
36.62931476036588
 11
24.072666153356298
 21
36.62931476036588
  0
LINE
  8
_0-1_EL-SL300SAIMEI
  6
CONTINUOUS
 62
    7
 10
22.125498185092997
 20
36.502707501282984
 11
22.846212160607308
 21
36.62931476036588
  0
LINE
  8
_0-1_EL-SL300SAIMEI
  6
CONTINUOUS
 62
    7
 10
21.109884036041397
 20
36.163710105534371
 11
22.125498185092997
 21
36.502707501282984
  0
LINE
  8
_0-1_EL-SL300SAIMEI
  6
CONTINUOUS
 62
    7
 10
20.474608428561311
 20
35.826090747979869
 11
21.109884036041397
 21
36.163710105534371
  0
LINE
  8
_0-1_EL-SL300SAIMEI
  6
CONTINUOUS
 62
    7
 10
19.077277699744002
 20
34.767757414911081
 11
20.474608428561311
 21
35.826090747979869
  0
LINE
  8
_0-1_EL-SL300SAIMEI
  6
CONTINUOUS
 62
    7
 10
18.316600616600795
 20
33.92009167076538
 11
19.077277699744002
 21
34.767757414911081
  0
LINE
  8
_0-1_EL-SL300SAIMEI
  6
CONTINUOUS
 62
    7
 10
17.511826311246494
 20
32.651090748773591
 11
18.316600616600795
 21
33.92009167076538
  0
LINE
  8
_0-1_EL-SL300SAIMEI
  6
CONTINUOUS
 62
    7
 10
16.919269887783514
 20
31.167977142373569
 11
17.511826311246494
 21
32.651090748773591
  0
LINE
  8
_0-1_EL-SL300SAIMEI
  6
CONTINUOUS
 62
    7
 10
16.537553308017806
 20
29.517259640616071
 11
16.919269887783514
 21
31.167977142373569
  0
LINE
  8
_0-1_EL-SL300SAIMEI
  6
CONTINUOUS
 62
    7
 10
16.453492978177707
 20
28.248086463850061
 11
16.537553308017806
 21
29.517259640616071
  0
LINE
  8
_0-1_EL-SL300SAIMEI
  6
CONTINUOUS
 62
    7
 10
16.580272492034908
 20
26.638710107915561
 11
16.453492978177707
 21
28.248086463850061
  0
LINE
  8
_0-1_EL-SL300SAIMEI
  6
CONTINUOUS
 62
    7
 10
16.960611033606511
 20
25.114255355692571
 11
16.580272492034908
 21
26.638710107915561
  0
LINE
  8
_0-1_EL-SL300SAIMEI
  6
CONTINUOUS
 62
    7
 10
17.554545495263596
 20
23.633036551809379
 11
16.960611033606511
 21
25.114255355692571
  0
LINE
  8
_0-1_EL-SL300SAIMEI
  6
CONTINUOUS
 62
    7
 10
18.443380130457996
 20
22.36369112026907
 11
17.554545495263596
 21
23.633036551809379
  0
LINE
  8
_0-1_EL-SL300SAIMEI
  6
CONTINUOUS
 62
    7
 10
19.45899427950971
 20
21.347043442571881
 11
18.443380130457996
 21
22.36369112026907
  0
LINE
  8
_0-1_EL-SL300SAIMEI
  6
CONTINUOUS
 62
    7
 10
20.644107126435618
 20
20.584643811686082
 11
19.45899427950971
 21
21.347043442571881
  0
LINE
  8
_0-1_EL-SL300SAIMEI
  6
CONTINUOUS
 62
    7
 10
22.210936553127198
 20
20.077698011031579
 11
20.644107126435618
 21
20.584643811686082
  0
LINE
  8
_0-1_EL-SL300SAIMEI
  6
CONTINUOUS
 62
    7
 10
20.813605824309917
 20
19.781419799300071
 11
22.125498185092997
 21
19.39970321953437
  0
LINE
  8
_0-1_EL-SL300SAIMEI
  6
CONTINUOUS
 62
    7
 10
20.051550702972719
 20
20.161758340871682
 11
20.813605824309917
 21
19.781419799300071
  0
LINE
  8
_0-1_EL-SL300SAIMEI
  6
CONTINUOUS
 62
    7
 10
19.416275095492608
 20
20.584643811686082
 11
20.051550702972719
 21
20.161758340871682
  0
LINE
  8
_0-1_EL-SL300SAIMEI
  6
CONTINUOUS
 62
    7
 10
18.316600616600795
 20
21.559089069688991
 11
19.416275095492608
 21
20.584643811686082
  0
LINE
  8
_0-1_EL-SL300SAIMEI
  6
CONTINUOUS
 62
    7
 10
17.342327613372191
 20
22.87098143047206
 11
18.316600616600795
 21
21.559089069688991
  0
LINE
  8
_0-1_EL-SL300SAIMEI
  6
CONTINUOUS
 62
    7
 10
16.919269887783514
 20
23.59031736779227
 11
17.342327613372191
 21
22.87098143047206
  0
LINE
  8
_0-1_EL-SL300SAIMEI
  6
CONTINUOUS
 62
    7
 10
16.410773794160605
 20
24.81797714396107
 11
16.919269887783514
 21
23.59031736779227
  0
LINE
  8
_0-1_EL-SL300SAIMEI
  6
CONTINUOUS
 62
    7
 10
16.1144955824291
 20
26.003262245661272
 11
16.410773794160605
 21
24.81797714396107
  0
LINE
  8
_0-1_EL-SL300SAIMEI
  6
CONTINUOUS
 62
    7
 10
15.902277700537695
 20
27.400592974478581
 11
16.1144955824291
 21
26.003262245661272
  0
LINE
  8
_0-1_EL-SL300SAIMEI
  6
CONTINUOUS
 62
    7
 10
15.902277700537695
 20
28.798095958070181
 11
15.902277700537695
 21
27.400592974478581
  0
LINE
  8
_0-1_EL-SL300SAIMEI
  6
CONTINUOUS
 62
    7
 10
15.987716068571899
 20
29.602698008650272
 11
15.902277700537695
 21
28.798095958070181
  0
LINE
  8
_0-1_EL-SL300SAIMEI
  6
CONTINUOUS
 62
    7
 10
16.36805461014351
 20
31.337648095022079
 11
15.987716068571899
 21
29.602698008650272
  0
LINE
  8
_0-1_EL-SL300SAIMEI
  6
CONTINUOUS
 62
    7
 10
17.003330217623613
 20
32.947024450956583
 11
16.36805461014351
 21
31.337648095022079
  0
LINE
  8
_0-1_EL-SL300SAIMEI
  6
CONTINUOUS
 62
    7
 10
18.188443064549517
 20
34.724693721345467
 11
17.003330217623613
 21
32.947024450956583
  0
LINE
  8
_0-1_EL-SL300SAIMEI
  6
CONTINUOUS
 62
    7
 10
19.077277699744002
 20
35.613700611314158
 11
18.188443064549517
 21
34.724693721345467
  0
LINE
  8
_0-1_EL-SL300SAIMEI
  6
CONTINUOUS
 62
    7
 10
19.967490373132591
 20
36.290317364617273
 11
19.077277699744002
 21
35.613700611314158
  0
LINE
  8
_0-1_EL-SL300SAIMEI
  6
CONTINUOUS
 62
    7
 10
20.940385338167118
 20
36.798641203465884
 11
19.967490373132591
 21
36.290317364617273
  0
LINE
  8
_0-1_EL-SL300SAIMEI
  6
CONTINUOUS
 62
    7
 10
21.618380129664299
 20
37.052372485954578
 11
20.940385338167118
 21
36.798641203465884
  0
LINE
  8
_0-1_EL-SL300SAIMEI
  6
CONTINUOUS
 62
    7
 10
23.099771188321707
 20
37.307309551863064
 11
21.618380129664299
 21
37.052372485954578
  0
LINE
  8
_0-1_EL-SL300SAIMEI
  6
CONTINUOUS
 62
    7
 10
24.538443062962017
 20
37.222043438603073
 11
23.099771188321707
 21
37.307309551863064
  0
LINE
  8
_0-1_EL-SL300SAIMEI
  6
CONTINUOUS
 62
    7
 10
21.279382733915696
 20
20.458036552603069
 11
22.380435251001497
 21
20.161758340871682
  0
LINE
  8
_0-1_EL-SL300SAIMEI
  6
CONTINUOUS
 62
    7
 10
20.178330216829806
 20
21.050592976066081
 11
21.279382733915696
 21
20.458036552603069
  0
LINE
  8
_0-1_EL-SL300SAIMEI
  6
CONTINUOUS
 62
    7
 10
19.162716067778206
 20
21.85536728142046
 11
20.178330216829806
 21
21.050592976066081
  0
LINE
  8
_0-1_EL-SL300SAIMEI
  6
CONTINUOUS
 62
    7
 10
18.316600616600795
 20
22.87098143047206
 11
19.162716067778206
 21
21.85536728142046
  0
LINE
  8
_0-1_EL-SL300SAIMEI
  6
CONTINUOUS
 62
    7
 10
17.469107127229385
 20
24.395091673146691
 11
18.316600616600795
 21
22.87098143047206
  0
LINE
  8
_0-1_EL-SL300SAIMEI
  6
CONTINUOUS
 62
    7
 10
16.919269887783514
 20
26.04598142967837
 11
17.469107127229385
 21
24.395091673146691
  0
LINE
  8
_0-1_EL-SL300SAIMEI
  6
CONTINUOUS
 62
    7
 10
16.749771189909211
 20
27.147033946764292
 11
16.919269887783514
 21
26.04598142967837
  0
LINE
  8
_0-1_EL-SL300SAIMEI
  6
CONTINUOUS
 62
    7
 10
16.707052005892109
 20
28.58570582140457
 11
16.749771189909211
 21
27.147033946764292
  0
LINE
  8
_0-1_EL-SL300SAIMEI
  6
CONTINUOUS
 62
    7
 10
16.79249037392632
 20
29.686758338490371
 11
16.707052005892109
 21
28.58570582140457
  0
LINE
  8
_0-1_EL-SL300SAIMEI
  6
CONTINUOUS
 62
    7
 10
17.130109731480815
 20
31.084089067307762
 11
16.79249037392632
 21
29.686758338490371
  0
LINE
  8
_0-1_EL-SL300SAIMEI
  6
CONTINUOUS
 62
    7
 10
17.808104522977914
 20
32.734978823839484
 11
17.130109731480815
 21
31.084089067307762
  0
LINE
  8
_0-1_EL-SL300SAIMEI
  6
CONTINUOUS
 62
    7
 10
18.570159644315197
 20
33.92009167076538
 11
17.808104522977914
 21
32.734978823839484
  0
LINE
  8
_0-1_EL-SL300SAIMEI
  6
CONTINUOUS
 62
    7
 10
19.45899427950971
 20
34.851645489976974
 11
18.570159644315197
 21
33.92009167076538
  0
LINE
  8
_0-1_EL-SL300SAIMEI
  6
CONTINUOUS
 62
    7
 10
20.221049400846908
 20
35.487093352231263
 11
19.45899427950971
 21
34.851645489976974
  0
LINE
  8
_0-1_EL-SL300SAIMEI
  6
CONTINUOUS
 62
    7
 10
21.363443063755799
 20
36.079305266145788
 11
20.221049400846908
 21
35.487093352231263
  0
LINE
  8
_0-1_EL-SL300SAIMEI
  6
CONTINUOUS
 62
    7
 10
22.507214764858698
 20
36.418474916668579
 11
21.363443063755799
 21
36.079305266145788
  0
LINE
  8
_0-1_EL-SL300SAIMEI
  6
CONTINUOUS
 62
    7
 10
36.265548094752518
 20
55.172024445400389
 11
38.255435247032807
 21
55.002698002300271
  0
LINE
  8
_0-1_EL-SL300SAIMEI
  6
CONTINUOUS
 62
    7
 10
33.809884032866393
 20
55.509643802954891
 11
36.265548094752518
 21
55.172024445400389
  0
LINE
  8
_0-1_EL-SL300SAIMEI
  6
CONTINUOUS
 62
    7
 10
39.397828909941609
 20
54.917259634266074
 11
38.762553302461605
 21
55.002698002300271
  0
LINE
  8
_0-1_EL-SL300SAIMEI
  6
CONTINUOUS
 62
    7
 10
31.396939154997398
 20
53.774693716582973
 11
30.677603217677216
 21
53.731974532565857
  0
LINE
  8
_0-1_EL-SL300SAIMEI
  6
CONTINUOUS
 62
    7
 10
33.260046793420514
 20
53.266369877734384
 11
33.090548095546211
 21
53.182309547894278
  0
LINE
  8
_0-1_EL-SL300SAIMEI
  6
CONTINUOUS
 62
    7
 10
33.597666150975016
 20
55.552707496520497
 11
33.260046793420514
 21
53.266369877734384
  0
LINE
  8
_0-1_EL-SL300SAIMEI
  6
CONTINUOUS
 62
    7
 10
39.906325003564518
 20
54.833027049651783
 11
39.779545489707317
 21
54.876090743217368
  0
LINE
  8
_0-1_EL-SL300SAIMEI
  6
CONTINUOUS
 62
    7
 10
31.905435248620307
 20
53.392977136817294
 11
33.17460842538631
 21
53.182309547894278
  0
LINE
  8
_0-1_EL-SL300SAIMEI
  6
CONTINUOUS
 62
    7
 10
31.016600613425798
 20
53.689255348548762
 11
31.905435248620307
 21
53.392977136817294
  0
LINE
  8
_0-1_EL-SL300SAIMEI
  6
CONTINUOUS
 62
    7
 10
34.825498181918
 20
48.059969325650577
 11
37.281162243804118
 21
47.848095953307677
  0
LINE
  8
_0-1_EL-SL300SAIMEI
  6
CONTINUOUS
 62
    7
 10
31.609157036888806
 20
48.526090744804868
 11
34.825498181918
 21
48.059969325650577
  0
LINE
  8
_0-1_EL-SL300SAIMEI
  6
CONTINUOUS
 62
    7
 10
30.295886637911597
 20
48.86371010235937
 11
31.609157036888806
 21
48.526090744804868
  0
LINE
  8
_0-1_EL-SL300SAIMEI
  6
CONTINUOUS
 62
    7
 10
30.169107124054388
 20
49.033036545459368
 11
30.295886637911597
 21
48.86371010235937
  0
LINE
  8
_0-1_EL-SL300SAIMEI
  6
CONTINUOUS
 62
    7
 10
38.42493394490711
 20
47.594364670819068
 11
37.111663545929815
 21
47.848095953307677
  0
LINE
  8
_0-1_EL-SL300SAIMEI
  6
CONTINUOUS
 62
    7
 10
39.863605819547416
 20
54.790307865634681
 11
40.033104517421691
 21
54.790307865634681
  0
LINE
  8
_0-1_EL-SL300SAIMEI
  6
CONTINUOUS
 62
    7
 10
37.197101913963991
 20
55.044039148123268
 11
38.551713458764304
 21
54.959978818283169
  0
LINE
  8
_0-1_EL-SL300SAIMEI
  6
CONTINUOUS
 62
    7
 10
33.597666150975016
 20
55.552707496520497
 11
37.197101913963991
 21
55.044039148123268
  0
LINE
  8
_0-1_EL-SL300SAIMEI
  6
CONTINUOUS
 62
    7
 10
30.973881429408689
 20
48.694039149710768
 11
30.973881429408689
 21
48.652698003887771
  0
LINE
  8
_0-1_EL-SL300SAIMEI
  6
CONTINUOUS
 62
    7
 10
30.888443061374517
 20
48.652698003887771
 11
30.847101915551487
 21
48.73675833372787
  0
LINE
  8
_0-1_EL-SL300SAIMEI
  6
CONTINUOUS
 62
    7
 10
38.16999687899861
 20
47.848095953307677
 11
38.043217365141395
 21
47.890642882550573
  0
LINE
  8
_0-1_EL-SL300SAIMEI
  6
CONTINUOUS
 62
    7
 10
37.281162243804118
 20
47.848095953307677
 11
37.407941757661291
 21
47.890642882550573
  0
LINE
  8
_0-1_EL-SL300SAIMEI
  6
CONTINUOUS
 62
    7
 10
39.058831514193116
 20
54.917259634266074
 11
39.185611028050211
 21
54.917259634266074
  0
LINE
  8
_0-1_EL-SL300SAIMEI
  6
CONTINUOUS
 62
    7
 10
37.959157035301295
 20
47.805376769290582
 11
38.043217365141395
 21
47.890642882550573
  0
LINE
  8
_0-1_EL-SL300SAIMEI
  6
CONTINUOUS
 62
    7
 10
38.932052000335915
 20
47.339255350136263
 11
38.805272486478721
 21
47.339255350136263
  0
LINE
  8
_0-1_EL-SL300SAIMEI
  6
CONTINUOUS
 62
    7
 10
38.127277694981501
 20
47.763691113919073
 11
38.127277694981501
 21
47.890642882550573
  0
LINE
  8
_0-1_EL-SL300SAIMEI
  6
CONTINUOUS
 62
    7
 10
38.16999687899861
 20
47.763691113919073
 11
38.16999687899861
 21
47.847923698533471
  0
LINE
  8
_0-1_EL-SL300SAIMEI
  6
CONTINUOUS
 62
    7
 10
38.721212156638614
 20
47.298086459087564
 11
38.721212156638614
 21
47.381974534153358
  0
LINE
  8
_0-1_EL-SL300SAIMEI
  6
CONTINUOUS
 62
    7
 10
38.16999687899861
 20
47.763691113919073
 11
38.212716063015705
 21
47.847923698533471
  0
LINE
  8
_0-1_EL-SL300SAIMEI
  6
CONTINUOUS
 62
    7
 10
38.805272486478721
 20
47.255367275070491
 11
38.762553302461605
 21
47.339255350136263
  0
LINE
  8
_0-1_EL-SL300SAIMEI
  6
CONTINUOUS
 62
    7
 10
38.805272486478721
 20
47.255367275070491
 11
38.805272486478721
 21
47.339255350136263
  0
LINE
  8
_0-1_EL-SL300SAIMEI
  6
CONTINUOUS
 62
    7
 10
38.847991670495816
 20
47.255367275070491
 11
38.932052000335915
 21
47.339255350136263
  0
LINE
  8
_0-1_EL-SL300SAIMEI
  6
CONTINUOUS
 62
    7
 10
56.077603211327215
 20
46.493312153733179
 11
56.077603211327215
 21
46.577372483573278
  0
LINE
  8
_0-1_EL-SL300SAIMEI
  6
CONTINUOUS
 62
    7
 10
55.992164843293004
 20
46.493312153733179
 11
56.077603211327215
 21
46.493312153733179
  0
LINE
  8
_0-1_EL-SL300SAIMEI
  6
CONTINUOUS
 62
    7
 10
56.118944357150205
 20
46.577372483573278
 11
56.077603211327215
 21
46.577372483573278
  0
LINE
  8
_0-1_EL-SL300SAIMEI
  6
CONTINUOUS
 62
    7
 10
38.382214760890008
 20
47.594364670819068
 11
37.238443059787016
 21
47.848095953307677
  0
LINE
  8
_0-1_EL-SL300SAIMEI
  6
CONTINUOUS
 62
    7
 10
31.016600613425798
 20
48.652698003887771
 11
30.973881429408689
 21
48.652698003887771
  0
LINE
  8
_0-1_EL-SL300SAIMEI
  6
CONTINUOUS
 62
    7
 10
31.439658339014496
 20
53.478760014400088
 11
33.047828911529109
 21
53.182309547894278
  0
LINE
  8
_0-1_EL-SL300SAIMEI
  6
CONTINUOUS
 62
    7
 10
30.761663547517319
 20
53.648086457500064
 11
31.439658339014496
 21
53.478760014400088
  0
LINE
  8
_0-1_EL-SL300SAIMEI
  6
CONTINUOUS
 62
    7
 10
30.677603217677216
 20
53.731974532565857
 11
30.761663547517319
 21
53.648086457500064
  0
LINE
  8
_0-1_EL-SL300SAIMEI
  6
CONTINUOUS
 62
    7
 10
30.973881429408689
 20
48.652698003887771
 11
30.888443061374517
 21
48.652698003887771
  0
LINE
  8
_0-1_EL-SL300SAIMEI
  6
CONTINUOUS
 62
    7
 10
30.381325005945797
 20
48.906429286376472
 11
30.169107124054388
 21
49.033036545459368
  0
LINE
  8
_0-1_EL-SL300SAIMEI
  6
CONTINUOUS
 62
    7
 10
30.931162245391619
 20
48.779305262970787
 11
30.381325005945797
 21
48.906429286376472
  0
LINE
  8
_0-1_EL-SL300SAIMEI
  6
CONTINUOUS
 62
    7
 10
32.96376858168901
 20
48.397588683205079
 11
30.931162245391619
 21
48.779305262970787
  0
LINE
  8
_0-1_EL-SL300SAIMEI
  6
CONTINUOUS
 62
    7
 10
37.407941757661291
 20
47.890642882550573
 11
32.96376858168901
 21
48.397588683205079
  0
LINE
  8
_0-1_EL-SL300SAIMEI
  6
CONTINUOUS
 62
    7
 10
30.973881429408689
 20
48.652698003887771
 11
30.931162245391619
 21
48.694039149710768
  0
LINE
  8
_0-1_EL-SL300SAIMEI
  6
CONTINUOUS
 62
    7
 10
31.523718668854599
 20
53.731974532565857
 11
31.016600613425798
 21
53.689255348548762
  0
LINE
  8
_0-1_EL-SL300SAIMEI
  6
CONTINUOUS
 62
    7
 10
38.762553302461605
 20
47.339255350136263
 11
38.721212156638614
 21
47.381974534153358
  0
LINE
  8
_0-1_EL-SL300SAIMEI
  6
CONTINUOUS
 62
    7
 10
22.803492976590206
 20
20.077698011031579
 11
22.252277698950198
 21
20.161758340871682
  0
LINE
  8
_0-1_EL-SL300SAIMEI
  6
CONTINUOUS
 62
    7
 10
23.776387941624819
 20
20.077698011031579
 11
22.803492976590206
 21
20.077698011031579
  0
LINE
  8
_0-1_EL-SL300SAIMEI
  6
CONTINUOUS
 62
    7
 10
24.962878826744799
 20
20.33142929352017
 11
23.776387941624819
 21
20.077698011031579
  0
LINE
  8
_0-1_EL-SL300SAIMEI
  6
CONTINUOUS
 62
    7
 10
25.935773791779408
 20
20.711595580317582
 11
24.962878826744799
 21
20.33142929352017
  0
LINE
  8
_0-1_EL-SL300SAIMEI
  6
CONTINUOUS
 62
    7
 10
27.120886638705318
 20
21.516369885671882
 11
25.935773791779408
 21
20.711595580317582
  0
LINE
  8
_0-1_EL-SL300SAIMEI
  6
CONTINUOUS
 62
    7
 10
27.375823704613797
 20
21.769928913386291
 11
27.120886638705318
 21
21.516369885671882
  0
LINE
  8
_0-1_EL-SL300SAIMEI
  6
CONTINUOUS
 62
    7
 10
28.814495579254096
 20
33.370426686093772
 11
27.968380128076799
 21
34.469928910211287
  0
LINE
  8
_0-1_EL-SL300SAIMEI
  6
CONTINUOUS
 62
    7
 10
29.576550700591408
 20
31.80342500462789
 11
28.814495579254096
 21
33.370426686093772
  0
LINE
  8
_0-1_EL-SL300SAIMEI
  6
CONTINUOUS
 62
    7
 10
29.999608426180117
 20
30.36475312998758
 11
29.576550700591408
 21
31.80342500462789
  0
LINE
  8
_0-1_EL-SL300SAIMEI
  6
CONTINUOUS
 62
    7
 10
30.126387940037318
 20
29.517259640616071
 11
29.999608426180117
 21
30.36475312998758
  0
LINE
  8
_0-1_EL-SL300SAIMEI
  6
CONTINUOUS
 62
    7
 10
30.169107124054388
 20
27.992977143167291
 11
30.126387940037318
 21
29.517259640616071
  0
LINE
  8
_0-1_EL-SL300SAIMEI
  6
CONTINUOUS
 62
    7
 10
29.872828912322916
 20
26.003262245661272
 11
30.169107124054388
 21
27.992977143167291
  0
LINE
  8
_0-1_EL-SL300SAIMEI
  6
CONTINUOUS
 62
    7
 10
29.364332818700007
 20
24.52204344177807
 11
29.872828912322916
 21
26.003262245661272
  0
LINE
  8
_0-1_EL-SL300SAIMEI
  6
CONTINUOUS
 62
    7
 10
28.518217367522599
 20
22.99758868955508
 11
29.364332818700007
 21
24.52204344177807
  0
LINE
  8
_0-1_EL-SL300SAIMEI
  6
CONTINUOUS
 62
    7
 10
27.375823704613797
 20
21.769928913386291
 11
28.518217367522599
 21
22.99758868955508
  0
LINE
  8
_0-1_EL-SL300SAIMEI
  6
CONTINUOUS
 62
    7
 10
27.333104520596688
 20
35.105376772465583
 11
27.968380128076799
 21
34.469928910211287
  0
LINE
  8
_0-1_EL-SL300SAIMEI
  6
CONTINUOUS
 62
    7
 10
26.358831517368117
 20
35.783027054414283
 11
27.333104520596688
 21
35.105376772465583
  0
LINE
  8
_0-1_EL-SL300SAIMEI
  6
CONTINUOUS
 62
    7
 10
25.343217368316399
 20
36.248976218794283
 11
26.358831517368117
 21
35.783027054414283
  0
LINE
  8
_0-1_EL-SL300SAIMEI
  6
CONTINUOUS
 62
    7
 10
24.497101917138988
 20
36.459643807717278
 11
25.343217368316399
 21
36.248976218794283
  0
LINE
  8
_0-1_EL-SL300SAIMEI
  6
CONTINUOUS
 62
    7
 10
25.130999486424997
 20
19.61209335620007
 11
26.062553305636609
 21
19.992259642997372
  0
LINE
  8
_0-1_EL-SL300SAIMEI
  6
CONTINUOUS
 62
    7
 10
23.819107125641889
 20
19.315642889694271
 11
25.130999486424997
 21
19.61209335620007
  0
LINE
  8
_0-1_EL-SL300SAIMEI
  6
CONTINUOUS
 62
    7
 10
22.591275094698798
 20
19.315642889694271
 11
23.819107125641889
 21
19.315642889694271
  0
LINE
  8
_0-1_EL-SL300SAIMEI
  6
CONTINUOUS
 62
    7
 10
22.125498185092997
 20
19.39970321953437
 11
22.591275094698798
 21
19.315642889694271
  0
LINE
  8
_0-1_EL-SL300SAIMEI
  6
CONTINUOUS
 62
    7
 10
25.766275093905108
 20
36.884424081048678
 11
24.538443062962017
 21
37.222043438603073
  0
LINE
  8
_0-1_EL-SL300SAIMEI
  6
CONTINUOUS
 62
    7
 10
26.571049399259408
 20
36.502707501282984
 11
25.766275093905108
 21
36.884424081048678
  0
LINE
  8
_0-1_EL-SL300SAIMEI
  6
CONTINUOUS
 62
    7
 10
27.036826308865219
 20
36.163710105534371
 11
26.571049399259408
 21
36.502707501282984
  0
LINE
  8
_0-1_EL-SL300SAIMEI
  6
CONTINUOUS
 62
    7
 10
23.565548097927518
 20
19.992259642997372
 11
22.210936553127198
 21
20.077698011031579
  0
LINE
  8
_0-1_EL-SL300SAIMEI
  6
CONTINUOUS
 62
    7
 10
24.793380128870499
 20
20.204305270114482
 11
23.565548097927518
 21
19.992259642997372
  0
LINE
  8
_0-1_EL-SL300SAIMEI
  6
CONTINUOUS
 62
    7
 10
25.808994277922206
 20
20.584643811686082
 11
24.793380128870499
 21
20.204305270114482
  0
LINE
  8
_0-1_EL-SL300SAIMEI
  6
CONTINUOUS
 62
    7
 10
27.036826308865219
 20
21.347043442571881
 11
25.808994277922206
 21
20.584643811686082
  0
LINE
  8
_0-1_EL-SL300SAIMEI
  6
CONTINUOUS
 62
    7
 10
28.095159641934007
 20
22.40537677564058
 11
27.036826308865219
 21
21.347043442571881
  0
LINE
  8
_0-1_EL-SL300SAIMEI
  6
CONTINUOUS
 62
    7
 10
28.560936551539697
 20
22.99758868955508
 11
28.095159641934007
 21
22.40537677564058
  0
LINE
  8
_0-1_EL-SL300SAIMEI
  6
CONTINUOUS
 62
    7
 10
29.153492975002706
 20
23.972033947557982
 11
28.560936551539697
 21
22.99758868955508
  0
LINE
  8
_0-1_EL-SL300SAIMEI
  6
CONTINUOUS
 62
    7
 10
29.788768582482817
 20
25.538691119475271
 11
29.153492975002706
 21
23.972033947557982
  0
LINE
  8
_0-1_EL-SL300SAIMEI
  6
CONTINUOUS
 62
    7
 10
30.126387940037318
 20
26.97770750366417
 11
29.788768582482817
 21
25.538691119475271
  0
LINE
  8
_0-1_EL-SL300SAIMEI
  6
CONTINUOUS
 62
    7
 10
30.211826308071497
 20
28.755376774053079
 11
30.126387940037318
 21
26.97770750366417
  0
LINE
  8
_0-1_EL-SL300SAIMEI
  6
CONTINUOUS
 62
    7
 10
30.042327610197187
 20
30.36475312998758
 11
30.211826308071497
 21
28.755376774053079
  0
LINE
  8
_0-1_EL-SL300SAIMEI
  6
CONTINUOUS
 62
    7
 10
29.619269884608517
 20
31.88869111788777
 11
30.042327610197187
 21
30.36475312998758
  0
LINE
  8
_0-1_EL-SL300SAIMEI
  6
CONTINUOUS
 62
    7
 10
29.110773790985608
 20
32.988710106328064
 11
29.619269884608517
 21
31.88869111788777
  0
LINE
  8
_0-1_EL-SL300SAIMEI
  6
CONTINUOUS
 62
    7
 10
28.264658339808197
 20
34.216369882496878
 11
29.110773790985608
 21
32.988710106328064
  0
LINE
  8
_0-1_EL-SL300SAIMEI
  6
CONTINUOUS
 62
    7
 10
26.910046795008018
 20
35.52826224327999
 11
28.264658339808197
 21
34.216369882496878
  0
LINE
  8
_0-1_EL-SL300SAIMEI
  6
CONTINUOUS
 62
    7
 10
25.766275093905108
 20
36.163710105534371
 11
26.910046795008018
 21
35.52826224327999
  0
LINE
  8
_0-1_EL-SL300SAIMEI
  6
CONTINUOUS
 62
    7
 10
24.454382733121918
 20
36.545426685300079
 11
25.766275093905108
 21
36.163710105534371
  0
LINE
  8
_0-1_EL-SL300SAIMEI
  6
CONTINUOUS
 62
    7
 10
24.242164851230509
 20
31.04136988329066
 11
23.861826309658998
 21
31.126635996550572
  0
LINE
  8
_0-1_EL-SL300SAIMEI
  6
CONTINUOUS
 62
    7
 10
24.750660944853397
 20
30.787638600801991
 11
24.242164851230509
 21
31.04136988329066
  0
LINE
  8
_0-1_EL-SL300SAIMEI
  6
CONTINUOUS
 62
    7
 10
25.385936552333508
 20
30.109643809304782
 11
24.750660944853397
 21
30.787638600801991
  0
LINE
  8
_0-1_EL-SL300SAIMEI
  6
CONTINUOUS
 62
    7
 10
25.766275093905108
 20
29.263700612901662
 11
25.385936552333508
 21
30.109643809304782
  0
LINE
  8
_0-1_EL-SL300SAIMEI
  6
CONTINUOUS
 62
    7
 10
25.893054607762309
 20
28.628425005421672
 11
25.766275093905108
 21
29.263700612901662
  0
LINE
  8
_0-1_EL-SL300SAIMEI
  6
CONTINUOUS
 62
    7
 10
25.851713461939308
 20
27.866369884084381
 11
25.893054607762309
 21
28.628425005421672
  0
LINE
  8
_0-1_EL-SL300SAIMEI
  6
CONTINUOUS
 62
    7
 10
25.639495580047907
 20
27.061595578730081
 11
25.851713461939308
 21
27.866369884084381
  0
LINE
  8
_0-1_EL-SL300SAIMEI
  6
CONTINUOUS
 62
    7
 10
25.259157038476307
 20
26.38497882542698
 11
25.639495580047907
 21
27.061595578730081
  0
LINE
  8
_0-1_EL-SL300SAIMEI
  6
CONTINUOUS
 62
    7
 10
24.538443062962017
 20
25.74970321794687
 11
25.259157038476307
 21
26.38497882542698
  0
LINE
  8
_0-1_EL-SL300SAIMEI
  6
CONTINUOUS
 62
    7
 10
24.158104521390417
 20
25.58037677484689
 11
24.538443062962017
 21
25.74970321794687
  0
LINE
  8
_0-1_EL-SL300SAIMEI
  6
CONTINUOUS
 62
    7
 10
23.608267281944588
 20
25.495971935458162
 11
24.158104521390417
 21
25.58037677484689
  0
LINE
  8
_0-1_EL-SL300SAIMEI
  6
CONTINUOUS
 62
    7
 10
22.507214764858698
 20
27.992977143167291
 11
22.549933948875807
 21
28.628425005421672
  0
LINE
  8
_0-1_EL-SL300SAIMEI
  6
CONTINUOUS
 62
    7
 10
22.591275094698798
 20
27.486031342512781
 11
22.507214764858698
 21
27.992977143167291
  0
LINE
  8
_0-1_EL-SL300SAIMEI
  6
CONTINUOUS
 62
    7
 10
22.930272490447408
 20
26.68142929193267
 11
22.591275094698798
 21
27.486031342512781
  0
LINE
  8
_0-1_EL-SL300SAIMEI
  6
CONTINUOUS
 62
    7
 10
23.522828913910416
 20
26.003262245661272
 11
22.930272490447408
 21
26.68142929193267
  0
LINE
  8
_0-1_EL-SL300SAIMEI
  6
CONTINUOUS
 62
    7
 10
23.861826309658998
 20
25.792422401963972
 11
23.522828913910416
 21
26.003262245661272
  0
LINE
  8
_0-1_EL-SL300SAIMEI
  6
CONTINUOUS
 62
    7
 10
24.368944365087717
 20
25.66564288810677
 11
23.861826309658998
 21
25.792422401963972
  0
LINE
  8
_0-1_EL-SL300SAIMEI
  6
CONTINUOUS
 62
    7
 10
23.142490372338816
 20
25.495971935458162
 11
23.608267281944588
 21
25.495971935458162
  0
LINE
  8
_0-1_EL-SL300SAIMEI
  6
CONTINUOUS
 62
    7
 10
22.633994278715907
 20
25.66564288810677
 11
23.142490372338816
 21
25.495971935458162
  0
LINE
  8
_0-1_EL-SL300SAIMEI
  6
CONTINUOUS
 62
    7
 10
22.084157039269996
 20
26.04598142967837
 11
22.633994278715907
 21
25.66564288810677
  0
LINE
  8
_0-1_EL-SL300SAIMEI
  6
CONTINUOUS
 62
    7
 10
21.787878827538609
 20
26.38497882542698
 11
22.084157039269996
 21
26.04598142967837
  0
LINE
  8
_0-1_EL-SL300SAIMEI
  6
CONTINUOUS
 62
    7
 10
21.448881431789999
 20
26.97770750366417
 11
21.787878827538609
 21
26.38497882542698
  0
LINE
  8
_0-1_EL-SL300SAIMEI
  6
CONTINUOUS
 62
    7
 10
21.236663549898598
 20
27.69704344098438
 11
21.448881431789999
 21
26.97770750366417
  0
LINE
  8
_0-1_EL-SL300SAIMEI
  6
CONTINUOUS
 62
    7
 10
21.236663549898598
 20
28.71369111868157
 11
21.236663549898598
 21
27.69704344098438
  0
LINE
  8
_0-1_EL-SL300SAIMEI
  6
CONTINUOUS
 62
    7
 10
23.649608427767618
 20
30.702372487542082
 11
24.368944365087717
 21
30.95730955345056
  0
LINE
  8
_0-1_EL-SL300SAIMEI
  6
CONTINUOUS
 62
    7
 10
23.014332820287507
 20
30.152707502870481
 11
23.649608427767618
 21
30.702372487542082
  0
LINE
  8
_0-1_EL-SL300SAIMEI
  6
CONTINUOUS
 62
    7
 10
22.633994278715907
 20
29.517259640616071
 11
23.014332820287507
 21
30.152707502870481
  0
LINE
  8
_0-1_EL-SL300SAIMEI
  6
CONTINUOUS
 62
    7
 10
22.421776396824498
 20
28.628425005421672
 11
22.633994278715907
 21
29.517259640616071
  0
LINE
  8
_0-1_EL-SL300SAIMEI
  6
CONTINUOUS
 62
    7
 10
21.491600615807098
 20
29.644039154473269
 11
21.236663549898598
 21
28.71369111868157
  0
LINE
  8
_0-1_EL-SL300SAIMEI
  6
CONTINUOUS
 62
    7
 10
21.745159643521507
 20
30.109643809304782
 11
21.491600615807098
 21
29.644039154473269
  0
LINE
  8
_0-1_EL-SL300SAIMEI
  6
CONTINUOUS
 62
    7
 10
22.252277698950198
 20
30.661031341719092
 11
21.745159643521507
 21
30.109643809304782
  0
LINE
  8
_0-1_EL-SL300SAIMEI
  6
CONTINUOUS
 62
    7
 10
22.972991674464506
 20
31.04136988329066
 11
22.252277698950198
 21
30.661031341719092
  0
LINE
  8
_0-1_EL-SL300SAIMEI
  6
CONTINUOUS
 62
    7
 10
23.269269886196017
 20
31.126808251324871
 11
22.972991674464506
 21
31.04136988329066
  0
LINE
  8
_0-1_EL-SL300SAIMEI
  6
CONTINUOUS
 62
    7
 10
23.861826309658998
 20
31.126808251324871
 11
23.269269886196017
 21
31.126808251324871
  0
LINE
  8
_0-1_EL-SL300SAIMEI
  6
CONTINUOUS
 62
    7
 10
22.380435251001497
 20
27.823650700067279
 11
22.421776396824498
 21
28.628425005421672
  0
LINE
  8
_0-1_EL-SL300SAIMEI
  6
CONTINUOUS
 62
    7
 10
22.507214764858698
 20
27.273641205847159
 11
22.380435251001497
 21
27.823650700067279
  0
LINE
  8
_0-1_EL-SL300SAIMEI
  6
CONTINUOUS
 62
    7
 10
22.760773792573108
 20
26.68142929193267
 11
22.507214764858698
 21
27.273641205847159
  0
LINE
  8
_0-1_EL-SL300SAIMEI
  6
CONTINUOUS
 62
    7
 10
23.183831518161806
 20
26.131419797712571
 11
22.760773792573108
 21
26.68142929193267
  0
LINE
  8
_0-1_EL-SL300SAIMEI
  6
CONTINUOUS
 62
    7
 10
23.608267281944588
 20
25.792422401963972
 11
23.183831518161806
 21
26.131419797712571
  0
LINE
  8
_0-1_EL-SL300SAIMEI
  6
CONTINUOUS
 62
    7
 10
24.158104521390417
 20
25.62309595886396
 11
23.608267281944588
 21
25.792422401963972
  0
LINE
  8
_0-1_EL-SL300SAIMEI
  6
CONTINUOUS
 62
    7
 10
23.988605823516199
 20
30.745091671559191
 11
24.538443062962017
 21
30.87204344019057
  0
LINE
  8
_0-1_EL-SL300SAIMEI
  6
CONTINUOUS
 62
    7
 10
23.269269886196017
 20
30.236595577936281
 11
23.988605823516199
 21
30.745091671559191
  0
LINE
  8
_0-1_EL-SL300SAIMEI
  6
CONTINUOUS
 62
    7
 10
22.760773792573108
 20
29.476090749567369
 11
23.269269886196017
 21
30.236595577936281
  0
LINE
  8
_0-1_EL-SL300SAIMEI
  6
CONTINUOUS
 62
    7
 10
22.549933948875807
 20
28.628425005421672
 11
22.760773792573108
 21
29.476090749567369
  0
LINE
  8
_0-1_EL-SL300SAIMEI
  6
CONTINUOUS
 62
    7
 10
19.671212161401115
 20
19.019364677962791
 11
21.193944365881489
 21
18.594928914180091
  0
LINE
  8
_0-1_EL-SL300SAIMEI
  6
CONTINUOUS
 62
    7
 10
18.316600616600795
 20
19.781419799300071
 11
19.671212161401115
 21
19.019364677962791
  0
LINE
  8
_0-1_EL-SL300SAIMEI
  6
CONTINUOUS
 62
    7
 10
16.960611033606511
 20
21.009424085017379
 11
18.316600616600795
 21
19.781419799300071
  0
LINE
  8
_0-1_EL-SL300SAIMEI
  6
CONTINUOUS
 62
    7
 10
16.157214766446195
 20
21.981974540503369
 11
16.960611033606511
 21
21.009424085017379
  0
LINE
  8
_0-1_EL-SL300SAIMEI
  6
CONTINUOUS
 62
    7
 10
15.141600617394602
 20
23.92931476354088
 11
16.157214766446195
 21
21.981974540503369
  0
LINE
  8
_0-1_EL-SL300SAIMEI
  6
CONTINUOUS
 62
    7
 10
14.590385339754619
 20
25.876310477029772
 11
15.141600617394602
 21
23.92931476354088
  0
LINE
  8
_0-1_EL-SL300SAIMEI
  6
CONTINUOUS
 62
    7
 10
14.379545496057318
 20
27.189753130781281
 11
14.590385339754619
 21
25.876310477029772
  0
LINE
  8
_0-1_EL-SL300SAIMEI
  6
CONTINUOUS
 62
    7
 10
14.379545496057318
 20
28.797923703295972
 11
14.379545496057318
 21
27.189753130781281
  0
LINE
  8
_0-1_EL-SL300SAIMEI
  6
CONTINUOUS
 62
    7
 10
14.506325009914491
 20
30.195426686887579
 11
14.379545496057318
 21
28.797923703295972
  0
LINE
  8
_0-1_EL-SL300SAIMEI
  6
CONTINUOUS
 62
    7
 10
14.717164853611791
 20
31.126635996550572
 11
14.506325009914491
 21
30.195426686887579
  0
LINE
  8
_0-1_EL-SL300SAIMEI
  6
CONTINUOUS
 62
    7
 10
15.141600617394602
 20
32.438700612107972
 11
14.717164853611791
 21
31.126635996550572
  0
LINE
  8
_0-1_EL-SL300SAIMEI
  6
CONTINUOUS
 62
    7
 10
15.775498186680494
 20
33.793312156908179
 11
15.141600617394602
 21
32.438700612107972
  0
LINE
  8
_0-1_EL-SL300SAIMEI
  6
CONTINUOUS
 62
    7
 10
16.496212162194809
 20
34.894364673994069
 11
15.775498186680494
 21
33.793312156908179
  0
LINE
  8
_0-1_EL-SL300SAIMEI
  6
CONTINUOUS
 62
    7
 10
17.046049401640715
 20
35.570981427297063
 11
16.496212162194809
 21
34.894364673994069
  0
LINE
  8
_0-1_EL-SL300SAIMEI
  6
CONTINUOUS
 62
    7
 10
18.316600616600795
 20
36.755922019448782
 11
17.046049401640715
 21
35.570981427297063
  0
LINE
  8
_0-1_EL-SL300SAIMEI
  6
CONTINUOUS
 62
    7
 10
19.035936553921005
 20
37.222043438603073
 11
18.316600616600795
 21
36.755922019448782
  0
LINE
  8
_0-1_EL-SL300SAIMEI
  6
CONTINUOUS
 62
    7
 10
19.882052005098416
 20
37.644928909417558
 11
19.035936553921005
 21
37.222043438603073
  0
LINE
  8
_0-1_EL-SL300SAIMEI
  6
CONTINUOUS
 62
    7
 10
20.983104522184188
 20
38.026645489183188
 11
19.882052005098416
 21
37.644928909417558
  0
LINE
  8
_0-1_EL-SL300SAIMEI
  6
CONTINUOUS
 62
    7
 10
22.591275094698798
 20
38.238691116300274
 11
20.983104522184188
 21
38.026645489183188
  0
LINE
  8
_0-1_EL-SL300SAIMEI
  6
CONTINUOUS
 62
    7
 10
23.735046795801797
 20
38.15342500304039
 11
22.591275094698798
 21
38.238691116300274
  0
LINE
  8
_0-1_EL-SL300SAIMEI
  6
CONTINUOUS
 62
    7
 10
27.629382732328196
 20
21.220091673940381
 11
28.644996881379797
 21
22.531984034723571
  0
LINE
  8
_0-1_EL-SL300SAIMEI
  6
CONTINUOUS
 62
    7
 10
26.232052003510919
 20
20.077698011031579
 11
27.629382732328196
 21
21.220091673940381
  0
LINE
  8
_0-1_EL-SL300SAIMEI
  6
CONTINUOUS
 62
    7
 10
25.046939156584898
 20
19.442422403551472
 11
26.232052003510919
 21
20.077698011031579
  0
LINE
  8
_0-1_EL-SL300SAIMEI
  6
CONTINUOUS
 62
    7
 10
24.666600615013298
 20
19.315642889694271
 11
25.046939156584898
 21
19.442422403551472
  0
LINE
  8
_0-1_EL-SL300SAIMEI
  6
CONTINUOUS
 62
    7
 10
23.649608427767618
 20
19.060705823785792
 11
24.666600615013298
 21
19.315642889694271
  0
LINE
  8
_0-1_EL-SL300SAIMEI
  6
CONTINUOUS
 62
    7
 10
22.846212160607308
 20
18.976645493945721
 11
23.649608427767618
 21
19.060705823785792
  0
LINE
  8
_0-1_EL-SL300SAIMEI
  6
CONTINUOUS
 62
    7
 10
21.025823706201297
 20
19.145971937045662
 11
21.745159643521507
 21
19.019364677962791
  0
LINE
  8
_0-1_EL-SL300SAIMEI
  6
CONTINUOUS
 62
    7
 10
20.008831518955617
 20
19.48514158756857
 11
21.025823706201297
 21
19.145971937045662
  0
LINE
  8
_0-1_EL-SL300SAIMEI
  6
CONTINUOUS
 62
    7
 10
19.289495581635407
 20
19.82258869034877
 11
20.008831518955617
 21
19.48514158756857
  0
LINE
  8
_0-1_EL-SL300SAIMEI
  6
CONTINUOUS
 62
    7
 10
18.400660946440894
 20
20.458036552603069
 11
19.289495581635407
 21
19.82258869034877
  0
LINE
  8
_0-1_EL-SL300SAIMEI
  6
CONTINUOUS
 62
    7
 10
17.426387943212319
 20
21.347043442571881
 11
18.400660946440894
 21
20.458036552603069
  0
LINE
  8
_0-1_EL-SL300SAIMEI
  6
CONTINUOUS
 62
    7
 10
16.241275096286302
 20
22.99758868955508
 11
17.426387943212319
 21
21.347043442571881
  0
LINE
  8
_0-1_EL-SL300SAIMEI
  6
CONTINUOUS
 62
    7
 10
15.521939158966092
 20
24.64865070086109
 11
16.241275096286302
 21
22.99758868955508
  0
LINE
  8
_0-1_EL-SL300SAIMEI
  6
CONTINUOUS
 62
    7
 10
15.182941763217599
 20
25.96209335461257
 11
15.521939158966092
 21
24.64865070086109
  0
LINE
  8
_0-1_EL-SL300SAIMEI
  6
CONTINUOUS
 62
    7
 10
14.972101919520298
 20
27.739762625001479
 11
15.182941763217599
 21
25.96209335461257
  0
LINE
  8
_0-1_EL-SL300SAIMEI
  6
CONTINUOUS
 62
    7
 10
15.013443065343296
 20
29.22098142888456
 11
14.972101919520298
 21
27.739762625001479
  0
LINE
  8
_0-1_EL-SL300SAIMEI
  6
CONTINUOUS
 62
    7
 10
15.225660947234701
 20
30.534424082636182
 11
15.013443065343296
 21
29.22098142888456
  0
LINE
  8
_0-1_EL-SL300SAIMEI
  6
CONTINUOUS
 62
    7
 10
15.605999488806191
 20
31.88869111788777
 11
15.225660947234701
 21
30.534424082636182
  0
LINE
  8
_0-1_EL-SL300SAIMEI
  6
CONTINUOUS
 62
    7
 10
15.902277700537695
 20
32.651090748773591
 11
15.605999488806191
 21
31.88869111788777
  0
LINE
  8
_0-1_EL-SL300SAIMEI
  6
CONTINUOUS
 62
    7
 10
16.537553308017806
 20
33.836031340925281
 11
15.902277700537695
 21
32.651090748773591
  0
LINE
  8
_0-1_EL-SL300SAIMEI
  6
CONTINUOUS
 62
    7
 10
17.808104522977914
 20
35.487093352231263
 11
16.537553308017806
 21
33.836031340925281
  0
LINE
  8
_0-1_EL-SL300SAIMEI
  6
CONTINUOUS
 62
    7
 10
19.077277699744002
 20
36.502707501282984
 11
17.808104522977914
 21
35.487093352231263
  0
LINE
  8
_0-1_EL-SL300SAIMEI
  6
CONTINUOUS
 62
    7
 10
20.474608428561311
 20
37.264762622620168
 11
19.077277699744002
 21
36.502707501282984
  0
LINE
  8
_0-1_EL-SL300SAIMEI
  6
CONTINUOUS
 62
    7
 10
21.955999487218719
 20
37.644928909417558
 11
20.474608428561311
 21
37.264762622620168
  0
LINE
  8
_0-1_EL-SL300SAIMEI
  6
CONTINUOUS
 62
    7
 10
23.480109729893318
 20
37.687648093434582
 11
21.955999487218719
 21
37.644928909417558
  0
LINE
  8
_0-1_EL-SL300SAIMEI
  6
CONTINUOUS
 62
    7
 10
15.141600617394602
 20
27.69704344098438
 11
15.26838013125181
 21
29.686758338490371
  0
LINE
  8
_0-1_EL-SL300SAIMEI
  6
CONTINUOUS
 62
    7
 10
15.479219974949103
 20
25.410705822198292
 11
15.141600617394602
 21
27.69704344098438
  0
LINE
  8
_0-1_EL-SL300SAIMEI
  6
CONTINUOUS
 62
    7
 10
16.283994280303403
 20
23.252698010237772
 11
15.479219974949103
 21
25.410705822198292
  0
LINE
  8
_0-1_EL-SL300SAIMEI
  6
CONTINUOUS
 62
    7
 10
16.919269887783514
 20
22.194364677169069
 11
16.283994280303403
 21
23.252698010237772
  0
LINE
  8
_0-1_EL-SL300SAIMEI
  6
CONTINUOUS
 62
    7
 10
18.147101918726491
 20
20.797033948351789
 11
16.919269887783514
 21
22.194364677169069
  0
LINE
  8
_0-1_EL-SL300SAIMEI
  6
CONTINUOUS
 62
    7
 10
18.823718672029599
 20
20.24702445413158
 11
18.147101918726491
 21
20.797033948351789
  0
LINE
  8
_0-1_EL-SL300SAIMEI
  6
CONTINUOUS
 62
    7
 10
19.797991675258316
 20
19.653262247248769
 11
18.823718672029599
 21
20.24702445413158
  0
LINE
  8
_0-1_EL-SL300SAIMEI
  6
CONTINUOUS
 62
    7
 10
21.152603220058499
 20
19.145971937045662
 11
19.797991675258316
 21
19.653262247248769
  0
LINE
  8
_0-1_EL-SL300SAIMEI
  6
CONTINUOUS
 62
    7
 10
22.210936553127198
 20
18.976645493945721
 11
21.152603220058499
 21
19.145971937045662
  0
LINE
  8
_0-1_EL-SL300SAIMEI
  6
CONTINUOUS
 62
    7
 10
22.718054608555999
 20
18.976645493945721
 11
22.210936553127198
 21
18.976645493945721
  0
LINE
  8
_0-1_EL-SL300SAIMEI
  6
CONTINUOUS
 62
    7
 10
23.142490372338816
 20
18.806974541297201
 11
22.084157039269996
 21
18.764255357280099
  0
LINE
  8
_0-1_EL-SL300SAIMEI
  6
CONTINUOUS
 62
    7
 10
24.623881430996189
 20
19.145971937045662
 11
23.142490372338816
 21
18.806974541297201
  0
LINE
  8
_0-1_EL-SL300SAIMEI
  6
CONTINUOUS
 62
    7
 10
26.021212159813619
 20
19.82258869034877
 11
24.623881430996189
 21
19.145971937045662
  0
LINE
  8
_0-1_EL-SL300SAIMEI
  6
CONTINUOUS
 62
    7
 10
27.036826308865219
 20
20.584643811686082
 11
26.021212159813619
 21
19.82258869034877
  0
LINE
  8
_0-1_EL-SL300SAIMEI
  6
CONTINUOUS
 62
    7
 10
27.543944364293989
 20
21.09331216008318
 11
27.036826308865219
 21
20.584643811686082
  0
LINE
  8
_0-1_EL-SL300SAIMEI
  6
CONTINUOUS
 62
    7
 10
28.602277697362698
 20
22.36369112026907
 11
27.543944364293989
 21
21.09331216008318
  0
LINE
  8
_0-1_EL-SL300SAIMEI
  6
CONTINUOUS
 62
    7
 10
29.492490370751309
 20
24.01475313157508
 11
28.602277697362698
 21
22.36369112026907
  0
LINE
  8
_0-1_EL-SL300SAIMEI
  6
CONTINUOUS
 62
    7
 10
30.042327610197187
 20
25.66564288810677
 11
29.492490370751309
 21
24.01475313157508
  0
LINE
  8
_0-1_EL-SL300SAIMEI
  6
CONTINUOUS
 62
    7
 10
30.254545492088596
 20
26.59702445254408
 11
30.042327610197187
 21
25.66564288810677
  0
LINE
  8
_0-1_EL-SL300SAIMEI
  6
CONTINUOUS
 62
    7
 10
30.381325005945797
 20
27.90908906810149
 11
30.254545492088596
 21
26.59702445254408
  0
LINE
  8
_0-1_EL-SL300SAIMEI
  6
CONTINUOUS
 62
    7
 10
30.381325005945797
 20
29.34758868796758
 11
30.381325005945797
 21
27.90908906810149
  0
LINE
  8
_0-1_EL-SL300SAIMEI
  6
CONTINUOUS
 62
    7
 10
30.126387940037318
 20
31.084089067307762
 11
30.381325005945797
 21
29.34758868796758
  0
LINE
  8
_0-1_EL-SL300SAIMEI
  6
CONTINUOUS
 62
    7
 10
29.746049398465718
 20
32.39598142809087
 11
30.126387940037318
 21
31.084089067307762
  0
LINE
  8
_0-1_EL-SL300SAIMEI
  6
CONTINUOUS
 62
    7
 10
29.364332818700007
 20
33.243302662688087
 11
29.746049398465718
 21
32.39598142809087
  0
LINE
  8
_0-1_EL-SL300SAIMEI
  6
CONTINUOUS
 62
    7
 10
28.730435249413997
 20
34.342977141579787
 11
29.364332818700007
 21
33.243302662688087
  0
LINE
  8
_0-1_EL-SL300SAIMEI
  6
CONTINUOUS
 62
    7
 10
27.756162246185397
 20
35.613700611314158
 11
28.730435249413997
 21
34.342977141579787
  0
LINE
  8
_0-1_EL-SL300SAIMEI
  6
CONTINUOUS
 62
    7
 10
27.206325006739519
 20
36.163710105534371
 11
27.756162246185397
 21
35.613700611314158
  0
LINE
  8
_0-1_EL-SL300SAIMEI
  6
CONTINUOUS
 62
    7
 10
26.571049399259408
 20
36.62931476036588
 11
27.206325006739519
 21
36.163710105534371
  0
LINE
  8
_0-1_EL-SL300SAIMEI
  6
CONTINUOUS
 62
    7
 10
25.130999486424997
 20
37.434089065720258
 11
26.571049399259408
 21
36.62931476036588
  0
LINE
  8
_0-1_EL-SL300SAIMEI
  6
CONTINUOUS
 62
    7
 10
24.115385337373397
 20
37.773086461468793
 11
25.130999486424997
 21
37.434089065720258
  0
LINE
  8
_0-1_EL-SL300SAIMEI
  6
CONTINUOUS
 62
    7
 10
23.776387941624819
 20
37.81425535251757
 11
24.115385337373397
 21
37.773086461468793
  0
LINE
  8
_0-1_EL-SL300SAIMEI
  6
CONTINUOUS
 62
    7
 10
29.407052002717109
 20
23.845426688475079
 11
30.085046794214296
 21
25.876310477029772
  0
LINE
  8
_0-1_EL-SL300SAIMEI
  6
CONTINUOUS
 62
    7
 10
28.644996881379797
 20
22.531984034723571
 11
29.407052002717109
 21
23.845426688475079
  0
LINE
  8
_0-1_EL-SL300SAIMEI
  6
CONTINUOUS
 62
    7
 10
24.877440458710598
 20
37.434089065720258
 11
23.904545493676096
 21
37.687648093434582
  0
LINE
  8
_0-1_EL-SL300SAIMEI
  6
CONTINUOUS
 62
    7
 10
25.978492975796517
 20
36.925592972097384
 11
24.877440458710598
 21
37.434089065720258
  0
LINE
  8
_0-1_EL-SL300SAIMEI
  6
CONTINUOUS
 62
    7
 10
26.951387940831008
 20
36.290317364617273
 11
25.978492975796517
 21
36.925592972097384
  0
LINE
  8
_0-1_EL-SL300SAIMEI
  6
CONTINUOUS
 62
    7
 10
27.798881430202499
 20
35.487093352231263
 11
26.951387940831008
 21
36.290317364617273
  0
LINE
  8
_0-1_EL-SL300SAIMEI
  6
CONTINUOUS
 62
    7
 10
28.730435249413997
 20
34.342977141579787
 11
27.798881430202499
 21
35.487093352231263
  0
LINE
  8
_0-1_EL-SL300SAIMEI
  6
CONTINUOUS
 62
    7
 10
29.746049398465718
 20
32.31209335302507
 11
29.364332818700007
 21
33.243302662688087
  0
LINE
  8
_0-1_EL-SL300SAIMEI
  6
CONTINUOUS
 62
    7
 10
30.126387940037318
 20
31.04136988329066
 11
29.746049398465718
 21
32.31209335302507
  0
LINE
  8
_0-1_EL-SL300SAIMEI
  6
CONTINUOUS
 62
    7
 10
22.125498185092997
 20
37.644928909417558
 11
23.565548097927518
 21
37.687648093434582
  0
LINE
  8
_0-1_EL-SL300SAIMEI
  6
CONTINUOUS
 62
    7
 10
20.474608428561311
 20
37.180357783231564
 11
22.125498185092997
 21
37.644928909417558
  0
LINE
  8
_0-1_EL-SL300SAIMEI
  6
CONTINUOUS
 62
    7
 10
19.797991675258316
 20
36.841360387482993
 11
20.474608428561311
 21
37.180357783231564
  0
LINE
  8
_0-1_EL-SL300SAIMEI
  6
CONTINUOUS
 62
    7
 10
18.316600616600795
 20
35.783027054414283
 11
19.797991675258316
 21
36.841360387482993
  0
LINE
  8
_0-1_EL-SL300SAIMEI
  6
CONTINUOUS
 62
    7
 10
17.215548099515019
 20
34.555367278245463
 11
18.316600616600795
 21
35.783027054414283
  0
LINE
  8
_0-1_EL-SL300SAIMEI
  6
CONTINUOUS
 62
    7
 10
16.241275096286302
 20
32.947024450956583
 11
17.215548099515019
 21
34.555367278245463
  0
LINE
  8
_0-1_EL-SL300SAIMEI
  6
CONTINUOUS
 62
    7
 10
15.521939158966092
 20
31.084089067307762
 11
16.241275096286302
 21
32.947024450956583
  0
LINE
  8
_0-1_EL-SL300SAIMEI
  6
CONTINUOUS
 62
    7
 10
15.26838013125181
 20
29.686758338490371
 11
15.521939158966092
 21
31.084089067307762
  0
LINE
  8
_0-1_EL-SL300SAIMEI
  6
CONTINUOUS
 62
    7
 10
20.856325008327019
 20
18.933926309928619
 11
21.193944365881489
 21
18.892757418879921
  0
LINE
  8
_0-1_EL-SL300SAIMEI
  6
CONTINUOUS
 62
    7
 10
19.839332821081314
 20
19.272923705677162
 11
20.856325008327019
 21
18.933926309928619
  0
LINE
  8
_0-1_EL-SL300SAIMEI
  6
CONTINUOUS
 62
    7
 10
19.162716067778206
 20
19.569374172182972
 11
19.839332821081314
 21
19.272923705677162
  0
LINE
  8
_0-1_EL-SL300SAIMEI
  6
CONTINUOUS
 62
    7
 10
18.443380130457996
 20
20.034978827014481
 11
19.162716067778206
 21
19.569374172182972
  0
LINE
  8
_0-1_EL-SL300SAIMEI
  6
CONTINUOUS
 62
    7
 10
17.172828915497917
 20
21.09331216008318
 11
18.443380130457996
 21
20.034978827014481
  0
LINE
  8
_0-1_EL-SL300SAIMEI
  6
CONTINUOUS
 62
    7
 10
16.157214766446195
 20
22.447923704883472
 11
17.172828915497917
 21
21.09331216008318
  0
LINE
  8
_0-1_EL-SL300SAIMEI
  6
CONTINUOUS
 62
    7
 10
15.225660947234701
 20
24.352372489129589
 11
16.157214766446195
 21
22.447923704883472
  0
LINE
  8
_0-1_EL-SL300SAIMEI
  6
CONTINUOUS
 62
    7
 10
14.843944367468985
 20
25.622923704089661
 11
15.225660947234701
 21
24.352372489129589
  0
LINE
  8
_0-1_EL-SL300SAIMEI
  6
CONTINUOUS
 62
    7
 10
14.590385339754619
 20
27.359424083429882
 11
14.843944367468985
 21
25.622923704089661
  0
LINE
  8
_0-1_EL-SL300SAIMEI
  6
CONTINUOUS
 62
    7
 10
14.633104523771685
 20
29.263700612901662
 11
14.590385339754619
 21
27.359424083429882
  0
LINE
  8
_0-1_EL-SL300SAIMEI
  6
CONTINUOUS
 62
    7
 10
14.717164853611791
 20
30.152707502870481
 11
14.633104523771685
 21
29.263700612901662
  0
LINE
  8
_0-1_EL-SL300SAIMEI
  6
CONTINUOUS
 62
    7
 10
15.013443065343296
 20
31.46425535410507
 11
14.717164853611791
 21
30.152707502870481
  0
LINE
  8
_0-1_EL-SL300SAIMEI
  6
CONTINUOUS
 62
    7
 10
15.479219974949103
 20
32.692259639822367
 11
15.013443065343296
 21
31.46425535410507
  0
LINE
  8
_0-1_EL-SL300SAIMEI
  6
CONTINUOUS
 62
    7
 10
16.36805461014351
 20
34.342977141579787
 11
15.479219974949103
 21
32.692259639822367
  0
LINE
  8
_0-1_EL-SL300SAIMEI
  6
CONTINUOUS
 62
    7
 10
17.088768585657817
 20
35.274703215565673
 11
16.36805461014351
 21
34.342977141579787
  0
LINE
  8
_0-1_EL-SL300SAIMEI
  6
CONTINUOUS
 62
    7
 10
17.934884036835115
 20
36.12202445016289
 11
17.088768585657817
 21
35.274703215565673
  0
LINE
  8
_0-1_EL-SL300SAIMEI
  6
CONTINUOUS
 62
    7
 10
18.570159644315197
 20
36.62931476036588
 11
17.934884036835115
 21
36.12202445016289
  0
LINE
  8
_0-1_EL-SL300SAIMEI
  6
CONTINUOUS
 62
    7
 10
19.967490373132591
 20
37.391369881703163
 11
18.570159644315197
 21
36.62931476036588
  0
LINE
  8
_0-1_EL-SL300SAIMEI
  6
CONTINUOUS
 62
    7
 10
21.067164852024288
 20
37.773086461468793
 11
19.967490373132591
 21
37.391369881703163
  0
LINE
  8
_0-1_EL-SL300SAIMEI
  6
CONTINUOUS
 62
    7
 10
22.252277698950198
 20
37.942757414117388
 11
21.067164852024288
 21
37.773086461468793
  0
LINE
  8
_0-1_EL-SL300SAIMEI
  6
CONTINUOUS
 62
    7
 10
22.887553306430309
 20
37.942757414117388
 11
22.252277698950198
 21
37.942757414117388
  0
LINE
  8
_0-1_EL-SL300SAIMEI
  6
CONTINUOUS
 62
    7
 10
20.601387942418508
 20
19.019364677962791
 11
21.322101917932798
 21
18.892757418879921
  0
LINE
  8
_0-1_EL-SL300SAIMEI
  6
CONTINUOUS
 62
    7
 10
19.882052005098416
 20
19.272923705677162
 11
20.601387942418508
 21
19.019364677962791
  0
LINE
  8
_0-1_EL-SL300SAIMEI
  6
CONTINUOUS
 62
    7
 10
18.570159644315197
 20
19.992259642997372
 11
19.882052005098416
 21
19.272923705677162
  0
LINE
  8
_0-1_EL-SL300SAIMEI
  6
CONTINUOUS
 62
    7
 10
17.299608429355118
 20
21.09331216008318
 11
18.570159644315197
 21
19.992259642997372
  0
LINE
  8
_0-1_EL-SL300SAIMEI
  6
CONTINUOUS
 62
    7
 10
16.283994280303403
 20
22.40537677564058
 11
17.299608429355118
 21
21.09331216008318
  0
LINE
  8
_0-1_EL-SL300SAIMEI
  6
CONTINUOUS
 62
    7
 10
15.352440461091902
 20
24.26831215928949
 11
16.283994280303403
 21
22.40537677564058
  0
LINE
  8
_0-1_EL-SL300SAIMEI
  6
CONTINUOUS
 62
    7
 10
14.972101919520298
 20
25.58037677484689
 11
15.352440461091902
 21
24.26831215928949
  0
LINE
  8
_0-1_EL-SL300SAIMEI
  6
CONTINUOUS
 62
    7
 10
14.717164853611791
 20
27.273641205847159
 11
14.972101919520298
 21
25.58037677484689
  0
LINE
  8
_0-1_EL-SL300SAIMEI
  6
CONTINUOUS
 62
    7
 10
14.717164853611791
 20
29.17826224486749
 11
14.717164853611791
 21
27.273641205847159
  0
LINE
  8
_0-1_EL-SL300SAIMEI
  6
CONTINUOUS
 62
    7
 10
15.013443065343296
 20
30.95730955345056
 11
14.717164853611791
 21
29.17826224486749
  0
LINE
  8
_0-1_EL-SL300SAIMEI
  6
CONTINUOUS
 62
    7
 10
15.395159645109004
 20
32.226310475442268
 11
15.013443065343296
 21
30.95730955345056
  0
LINE
  8
_0-1_EL-SL300SAIMEI
  6
CONTINUOUS
 62
    7
 10
16.157214766446195
 20
33.793312156908179
 11
15.395159645109004
 21
32.226310475442268
  0
LINE
  8
_0-1_EL-SL300SAIMEI
  6
CONTINUOUS
 62
    7
 10
17.426387943212319
 20
35.52826224327999
 11
16.157214766446195
 21
33.793312156908179
  0
LINE
  8
_0-1_EL-SL300SAIMEI
  6
CONTINUOUS
 62
    7
 10
18.950498185886801
 20
36.798641203465884
 11
17.426387943212319
 21
35.52826224327999
  0
LINE
  8
_0-1_EL-SL300SAIMEI
  6
CONTINUOUS
 62
    7
 10
20.051550702972719
 20
37.391369881703163
 11
18.950498185886801
 21
36.798641203465884
  0
LINE
  8
_0-1_EL-SL300SAIMEI
  6
CONTINUOUS
 62
    7
 10
21.448881431789999
 20
37.81425535251757
 11
20.051550702972719
 21
37.391369881703163
  0
LINE
  8
_0-1_EL-SL300SAIMEI
  6
CONTINUOUS
 62
    7
 10
22.887553306430309
 20
37.942757414117388
 11
21.448881431789999
 21
37.81425535251757
  0
LINE
  8
_0-1_EL-SL300SAIMEI
  6
CONTINUOUS
 62
    7
 10
15.26838013125181
 20
31.126808251324871
 11
15.013443065343296
 21
29.729305267733292
  0
LINE
  8
_0-1_EL-SL300SAIMEI
  6
CONTINUOUS
 62
    7
 10
15.6487186728233
 20
32.269374169007968
 11
15.26838013125181
 21
31.126808251324871
  0
LINE
  8
_0-1_EL-SL300SAIMEI
  6
CONTINUOUS
 62
    7
 10
16.537553308017806
 20
34.005357784025371
 11
15.6487186728233
 21
32.269374169007968
  0
LINE
  8
_0-1_EL-SL300SAIMEI
  6
CONTINUOUS
 62
    7
 10
17.934884036835115
 20
35.69758868638008
 11
16.537553308017806
 21
34.005357784025371
  0
LINE
  8
_0-1_EL-SL300SAIMEI
  6
CONTINUOUS
 62
    7
 10
19.205435251795308
 20
36.672033944382981
 11
17.934884036835115
 21
35.69758868638008
  0
LINE
  8
_0-1_EL-SL300SAIMEI
  6
CONTINUOUS
 62
    7
 10
20.34782891470411
 20
37.264762622620168
 11
19.205435251795308
 21
36.672033944382981
  0
LINE
  8
_0-1_EL-SL300SAIMEI
  6
CONTINUOUS
 62
    7
 10
21.279382733915696
 20
37.56104083435168
 11
20.34782891470411
 21
37.264762622620168
  0
LINE
  8
_0-1_EL-SL300SAIMEI
  6
CONTINUOUS
 62
    7
 10
21.998718671235789
 20
37.687648093434582
 11
21.279382733915696
 21
37.56104083435168
  0
LINE
  8
_0-1_EL-SL300SAIMEI
  6
CONTINUOUS
 62
    7
 10
23.480109729893318
 20
37.687648093434582
 11
21.998718671235789
 21
37.687648093434582
  0
LINE
  8
_0-1_EL-SL300SAIMEI
  6
CONTINUOUS
 62
    7
 10
15.605999488806191
 20
31.380367279039181
 11
15.26838013125181
 21
29.686758338490371
  0
LINE
  8
_0-1_EL-SL300SAIMEI
  6
CONTINUOUS
 62
    7
 10
16.283994280303403
 20
33.031429290345173
 11
15.605999488806191
 21
31.380367279039181
  0
LINE
  8
_0-1_EL-SL300SAIMEI
  6
CONTINUOUS
 62
    7
 10
16.876550703766405
 20
34.089762623413982
 11
16.283994280303403
 21
33.031429290345173
  0
LINE
  8
_0-1_EL-SL300SAIMEI
  6
CONTINUOUS
 62
    7
 10
18.061663550692316
 20
35.52826224327999
 11
16.876550703766405
 21
34.089762623413982
  0
LINE
  8
_0-1_EL-SL300SAIMEI
  6
CONTINUOUS
 62
    7
 10
19.416275095492608
 20
36.62931476036588
 11
18.061663550692316
 21
35.52826224327999
  0
LINE
  8
_0-1_EL-SL300SAIMEI
  6
CONTINUOUS
 62
    7
 10
20.305109730687008
 20
37.095091669971687
 11
19.416275095492608
 21
36.62931476036588
  0
LINE
  8
_0-1_EL-SL300SAIMEI
  6
CONTINUOUS
 62
    7
 10
21.236663549898598
 20
37.434089065720258
 11
20.305109730687008
 21
37.095091669971687
  0
LINE
  8
_0-1_EL-SL300SAIMEI
  6
CONTINUOUS
 62
    7
 10
22.125498185092997
 20
37.644928909417558
 11
21.236663549898598
 21
37.434089065720258
  0
LINE
  8
_0-1_EL-SL300SAIMEI
  6
CONTINUOUS
 62
    7
 10
23.353330216036117
 20
37.687648093434582
 11
22.125498185092997
 21
37.644928909417558
  0
LINE
  8
_0-1_EL-SL300SAIMEI
  6
CONTINUOUS
 62
    7
 10
15.944996884554797
 20
31.80342500462789
 11
15.437878829126106
 21
29.686758338490371
  0
LINE
  8
_0-1_EL-SL300SAIMEI
  6
CONTINUOUS
 62
    7
 10
16.62299167605201
 20
33.370426686093772
 11
15.944996884554797
 21
31.80342500462789
  0
LINE
  8
_0-1_EL-SL300SAIMEI
  6
CONTINUOUS
 62
    7
 10
17.385046797389293
 20
34.512648094228389
 11
16.62299167605201
 21
33.370426686093772
  0
LINE
  8
_0-1_EL-SL300SAIMEI
  6
CONTINUOUS
 62
    7
 10
18.484721276280993
 20
35.740307870397181
 11
17.385046797389293
 21
34.512648094228389
  0
LINE
  8
_0-1_EL-SL300SAIMEI
  6
CONTINUOUS
 62
    7
 10
19.712553307224113
 20
36.672033944382981
 11
18.484721276280993
 21
35.740307870397181
  0
LINE
  8
_0-1_EL-SL300SAIMEI
  6
CONTINUOUS
 62
    7
 10
20.601387942418508
 20
37.13763859921449
 11
19.712553307224113
 21
36.672033944382981
  0
LINE
  8
_0-1_EL-SL300SAIMEI
  6
CONTINUOUS
 62
    7
 10
22.252277698950198
 20
37.603760018368781
 11
20.601387942418508
 21
37.13763859921449
  0
LINE
  8
_0-1_EL-SL300SAIMEI
  6
CONTINUOUS
 62
    7
 10
22.972991674464506
 20
37.687648093434582
 11
22.252277698950198
 21
37.603760018368781
  0
LINE
  8
_0-1_EL-SL300SAIMEI
  6
CONTINUOUS
 62
    7
 10
23.692327611784687
 20
37.644928909417558
 11
22.972991674464506
 21
37.687648093434582
  0
LINE
  8
_0-1_EL-SL300SAIMEI
  6
CONTINUOUS
 62
    7
 10
41.048718666473285
 20
34.935705819817073
 11
41.048718666473285
 21
34.894364673994069
  0
LINE
  8
_0-1_EL-SL300SAIMEI
  6
CONTINUOUS
 62
    7
 10
38.635773788604411
 20
19.526310478617269
 11
38.255435247032807
 21
19.526310478617269
  0
LINE
  8
_0-1_EL-SL300SAIMEI
  6
CONTINUOUS
 62
    7
 10
39.397828909941609
 20
19.695981431265871
 11
38.635773788604411
 21
19.526310478617269
  0
LINE
  8
_0-1_EL-SL300SAIMEI
  6
CONTINUOUS
 62
    7
 10
40.668380124901795
 20
20.204305270114482
 11
39.397828909941609
 21
19.695981431265871
  0
LINE
  8
_0-1_EL-SL300SAIMEI
  6
CONTINUOUS
 62
    7
 10
41.853492971827706
 20
21.050592976066081
 11
40.668380124901795
 21
20.204305270114482
  0
LINE
  8
_0-1_EL-SL300SAIMEI
  6
CONTINUOUS
 62
    7
 10
42.615548093165017
 20
21.81264809740339
 11
41.853492971827706
 21
21.050592976066081
  0
LINE
  8
_0-1_EL-SL300SAIMEI
  6
CONTINUOUS
 62
    7
 10
43.250823700645014
 20
22.659969332000582
 11
42.615548093165017
 21
21.81264809740339
  0
LINE
  8
_0-1_EL-SL300SAIMEI
  6
CONTINUOUS
 62
    7
 10
43.757941756073791
 20
23.54897622196928
 11
43.250823700645014
 21
22.659969332000582
  0
LINE
  8
_0-1_EL-SL300SAIMEI
  6
CONTINUOUS
 62
    7
 10
44.3504981795368
 20
25.114255355692571
 11
43.757941756073791
 21
23.54897622196928
  0
LINE
  8
_0-1_EL-SL300SAIMEI
  6
CONTINUOUS
 62
    7
 10
44.646776391268311
 20
26.427698009444082
 11
44.3504981795368
 21
25.114255355692571
  0
LINE
  8
_0-1_EL-SL300SAIMEI
  6
CONTINUOUS
 62
    7
 10
44.646776391268311
 20
29.051310476236072
 11
44.646776391268311
 21
26.427698009444082
  0
LINE
  8
_0-1_EL-SL300SAIMEI
  6
CONTINUOUS
 62
    7
 10
44.51999687741111
 20
29.856429291138969
 11
44.646776391268311
 21
29.051310476236072
  0
LINE
  8
_0-1_EL-SL300SAIMEI
  6
CONTINUOUS
 62
    7
 10
43.927440453948101
 20
31.63392630675359
 11
44.51999687741111
 21
29.856429291138969
  0
LINE
  8
_0-1_EL-SL300SAIMEI
  6
CONTINUOUS
 62
    7
 10
43.631162242216618
 20
32.269374169007968
 11
43.927440453948101
 21
31.63392630675359
  0
LINE
  8
_0-1_EL-SL300SAIMEI
  6
CONTINUOUS
 62
    7
 10
42.742327607022219
 20
33.539753129193784
 11
43.631162242216618
 21
32.269374169007968
  0
LINE
  8
_0-1_EL-SL300SAIMEI
  6
CONTINUOUS
 62
    7
 10
41.980272485684907
 20
34.342977141579787
 11
42.742327607022219
 21
33.539753129193784
  0
LINE
  8
_0-1_EL-SL300SAIMEI
  6
CONTINUOUS
 62
    7
 10
41.302277694187694
 20
34.851645489976974
 11
41.980272485684907
 21
34.342977141579787
  0
LINE
  8
_0-1_EL-SL300SAIMEI
  6
CONTINUOUS
 62
    7
 10
41.048718666473285
 20
34.894364673994069
 11
41.302277694187694
 21
34.851645489976974
  0
LINE
  8
_0-1_EL-SL300SAIMEI
  6
CONTINUOUS
 62
    7
 10
25.259157038476307
 20
37.730367277451684
 11
23.861826309658998
 21
38.15342500304039
  0
LINE
  8
_0-1_EL-SL300SAIMEI
  6
CONTINUOUS
 62
    7
 10
26.021212159813619
 20
37.391369881703163
 11
25.259157038476307
 21
37.730367277451684
  0
LINE
  8
_0-1_EL-SL300SAIMEI
  6
CONTINUOUS
 62
    7
 10
26.613768583276507
 20
37.011031340131588
 11
26.021212159813619
 21
37.391369881703163
  0
LINE
  8
_0-1_EL-SL300SAIMEI
  6
CONTINUOUS
 62
    7
 10
27.586663548311098
 20
36.248976218794283
 11
26.613768583276507
 21
37.011031340131588
  0
LINE
  8
_0-1_EL-SL300SAIMEI
  6
CONTINUOUS
 62
    7
 10
28.434157037682496
 20
35.317422399582767
 11
27.586663548311098
 21
36.248976218794283
  0
LINE
  8
_0-1_EL-SL300SAIMEI
  6
CONTINUOUS
 62
    7
 10
29.153492975002706
 20
34.301808250531089
 11
28.434157037682496
 21
35.317422399582767
  0
LINE
  8
_0-1_EL-SL300SAIMEI
  6
CONTINUOUS
 62
    7
 10
29.915548096340018
 20
32.777698007856578
 11
29.153492975002706
 21
34.301808250531089
  0
LINE
  8
_0-1_EL-SL300SAIMEI
  6
CONTINUOUS
 62
    7
 10
30.422666151768798
 20
31.04136988329066
 11
29.915548096340018
 21
32.777698007856578
  0
LINE
  8
_0-1_EL-SL300SAIMEI
  6
CONTINUOUS
 62
    7
 10
30.677603217677216
 20
29.263700612901662
 11
30.422666151768798
 21
31.04136988329066
  0
LINE
  8
_0-1_EL-SL300SAIMEI
  6
CONTINUOUS
 62
    7
 10
30.677603217677216
 20
27.866369884084381
 11
30.677603217677216
 21
29.263700612901662
  0
LINE
  8
_0-1_EL-SL300SAIMEI
  6
CONTINUOUS
 62
    7
 10
30.550823703820019
 20
26.554305268526981
 11
30.677603217677216
 21
27.866369884084381
  0
LINE
  8
_0-1_EL-SL300SAIMEI
  6
CONTINUOUS
 62
    7
 10
30.126387940037318
 20
24.776808252912371
 11
30.550823703820019
 21
26.554305268526981
  0
LINE
  8
_0-1_EL-SL300SAIMEI
  6
CONTINUOUS
 62
    7
 10
29.619269884608517
 20
23.54897622196928
 11
30.126387940037318
 21
24.776808252912371
  0
LINE
  8
_0-1_EL-SL300SAIMEI
  6
CONTINUOUS
 62
    7
 10
28.730435249413997
 20
22.024693724520471
 11
29.619269884608517
 21
23.54897622196928
  0
LINE
  8
_0-1_EL-SL300SAIMEI
  6
CONTINUOUS
 62
    7
 10
28.221939155791208
 20
21.347043442571881
 11
28.730435249413997
 21
22.024693724520471
  0
LINE
  8
_0-1_EL-SL300SAIMEI
  6
CONTINUOUS
 62
    7
 10
27.079545492882318
 20
20.204305270114482
 11
28.221939155791208
 21
21.347043442571881
  0
LINE
  8
_0-1_EL-SL300SAIMEI
  6
CONTINUOUS
 62
    7
 10
25.766275093905108
 20
19.315642889694271
 11
27.079545492882318
 21
20.204305270114482
  0
LINE
  8
_0-1_EL-SL300SAIMEI
  6
CONTINUOUS
 62
    7
 10
24.284884035247618
 20
18.723086466231312
 11
25.766275093905108
 21
19.315642889694271
  0
LINE
  8
_0-1_EL-SL300SAIMEI
  6
CONTINUOUS
 62
    7
 10
22.846212160607308
 20
18.467977145548591
 11
24.284884035247618
 21
18.723086466231312
  0
LINE
  8
_0-1_EL-SL300SAIMEI
  6
CONTINUOUS
 62
    7
 10
30.592164849643009
 20
37.052372485954578
 11
30.634884033660118
 21
37.052372485954578
  0
LINE
  8
_0-1_EL-SL300SAIMEI
  6
CONTINUOUS
 62
    7
 10
27.333104520596688
 20
20.88092202341759
 11
28.009721273899796
 21
21.601635998931791
  0
LINE
  8
_0-1_EL-SL300SAIMEI
  6
CONTINUOUS
 62
    7
 10
26.571049399259408
 20
20.24702445413158
 11
27.333104520596688
 21
20.88092202341759
  0
LINE
  8
_0-1_EL-SL300SAIMEI
  6
CONTINUOUS
 62
    7
 10
25.724933948082107
 20
19.695981431265871
 11
26.571049399259408
 21
20.24702445413158
  0
LINE
  8
_0-1_EL-SL300SAIMEI
  6
CONTINUOUS
 62
    7
 10
24.581162246979119
 20
19.188691121062771
 11
25.724933948082107
 21
19.695981431265871
  0
LINE
  8
_0-1_EL-SL300SAIMEI
  6
CONTINUOUS
 62
    7
 10
23.099771188321707
 20
18.892757418879921
 11
24.581162246979119
 21
19.188691121062771
  0
LINE
  8
_0-1_EL-SL300SAIMEI
  6
CONTINUOUS
 62
    7
 10
21.871939157378588
 20
18.892757418879921
 11
23.099771188321707
 21
18.892757418879921
  0
LINE
  8
_0-1_EL-SL300SAIMEI
  6
CONTINUOUS
 62
    7
 10
20.34782891470411
 20
19.188691121062771
 11
21.871939157378588
 21
18.892757418879921
  0
LINE
  8
_0-1_EL-SL300SAIMEI
  6
CONTINUOUS
 62
    7
 10
19.205435251795308
 20
19.695981431265871
 11
20.34782891470411
 21
19.188691121062771
  0
LINE
  8
_0-1_EL-SL300SAIMEI
  6
CONTINUOUS
 62
    7
 10
18.400660946440894
 20
20.24702445413158
 11
19.205435251795308
 21
19.695981431265871
  0
LINE
  8
_0-1_EL-SL300SAIMEI
  6
CONTINUOUS
 62
    7
 10
17.426387943212319
 20
21.09331216008318
 11
18.400660946440894
 21
20.24702445413158
  0
LINE
  8
_0-1_EL-SL300SAIMEI
  6
CONTINUOUS
 62
    7
 10
16.79249037392632
 20
21.85536728142046
 11
17.426387943212319
 21
21.09331216008318
  0
LINE
  8
_0-1_EL-SL300SAIMEI
  6
CONTINUOUS
 62
    7
 10
16.36805461014351
 20
22.448095959657682
 11
16.79249037392632
 21
21.85536728142046
  0
LINE
  8
_0-1_EL-SL300SAIMEI
  6
CONTINUOUS
 62
    7
 10
15.860936554714698
 20
23.379305269320792
 11
16.36805461014351
 21
22.448095959657682
  0
LINE
  8
_0-1_EL-SL300SAIMEI
  6
CONTINUOUS
 62
    7
 10
15.437878829126106
 20
24.352372489129589
 11
15.860936554714698
 21
23.379305269320792
  0
LINE
  8
_0-1_EL-SL300SAIMEI
  6
CONTINUOUS
 62
    7
 10
15.013443065343296
 20
25.706984033929761
 11
15.437878829126106
 21
24.352372489129589
  0
LINE
  8
_0-1_EL-SL300SAIMEI
  6
CONTINUOUS
 62
    7
 10
14.759884037628893
 20
27.570091672352881
 11
15.013443065343296
 21
25.706984033929761
  0
LINE
  8
_0-1_EL-SL300SAIMEI
  6
CONTINUOUS
 62
    7
 10
14.759884037628893
 20
28.628425005421672
 11
14.759884037628893
 21
27.570091672352881
  0
LINE
  8
_0-1_EL-SL300SAIMEI
  6
CONTINUOUS
 62
    7
 10
15.013443065343296
 20
30.661031341719092
 11
14.759884037628893
 21
28.628425005421672
  0
LINE
  8
_0-1_EL-SL300SAIMEI
  6
CONTINUOUS
 62
    7
 10
15.26838013125181
 20
31.63392630675359
 11
15.013443065343296
 21
30.661031341719092
  0
LINE
  8
_0-1_EL-SL300SAIMEI
  6
CONTINUOUS
 62
    7
 10
15.860936554714698
 20
33.073976219588083
 11
15.26838013125181
 21
31.63392630675359
  0
LINE
  8
_0-1_EL-SL300SAIMEI
  6
CONTINUOUS
 62
    7
 10
17.003330217623613
 20
34.894364673994069
 11
15.860936554714698
 21
33.073976219588083
  0
LINE
  8
_0-1_EL-SL300SAIMEI
  6
CONTINUOUS
 62
    7
 10
17.808104522977914
 20
35.783027054414283
 11
17.003330217623613
 21
34.894364673994069
  0
LINE
  8
_0-1_EL-SL300SAIMEI
  6
CONTINUOUS
 62
    7
 10
18.696939158172398
 20
36.502707501282984
 11
17.808104522977914
 21
35.783027054414283
  0
LINE
  8
_0-1_EL-SL300SAIMEI
  6
CONTINUOUS
 62
    7
 10
19.712553307224113
 20
37.095091669971687
 11
18.696939158172398
 21
36.502707501282984
  0
LINE
  8
_0-1_EL-SL300SAIMEI
  6
CONTINUOUS
 62
    7
 10
20.474608428561311
 20
37.434089065720258
 11
19.712553307224113
 21
37.095091669971687
  0
LINE
  8
_0-1_EL-SL300SAIMEI
  6
CONTINUOUS
 62
    7
 10
21.745159643521507
 20
37.773086461468793
 11
20.474608428561311
 21
37.434089065720258
  0
LINE
  8
_0-1_EL-SL300SAIMEI
  6
CONTINUOUS
 62
    7
 10
22.294996882967297
 20
37.81425535251757
 11
21.745159643521507
 21
37.773086461468793
  0
LINE
  8
_0-1_EL-SL300SAIMEI
  6
CONTINUOUS
 62
    7
 10
23.353330216036117
 20
37.81425535251757
 11
22.294996882967297
 21
37.81425535251757
  0
LINE
  8
_0-1_EL-SL300SAIMEI
  6
CONTINUOUS
 62
    7
 10
24.411663549104819
 20
37.603760018368781
 11
23.353330216036117
 21
37.81425535251757
  0
LINE
  8
_0-1_EL-SL300SAIMEI
  6
CONTINUOUS
 62
    7
 10
20.729545494469818
 20
19.188691121062771
 11
21.745159643521507
 21
19.019364677962791
  0
LINE
  8
_0-1_EL-SL300SAIMEI
  6
CONTINUOUS
 62
    7
 10
19.755272491241215
 20
19.569374172182972
 11
20.729545494469818
 21
19.188691121062771
  0
LINE
  8
_0-1_EL-SL300SAIMEI
  6
CONTINUOUS
 62
    7
 10
19.035936553921005
 20
19.951090751948559
 11
19.755272491241215
 21
19.569374172182972
  0
LINE
  8
_0-1_EL-SL300SAIMEI
  6
CONTINUOUS
 62
    7
 10
17.934884036835115
 20
20.797033948351789
 11
19.035936553921005
 21
19.951090751948559
  0
LINE
  8
_0-1_EL-SL300SAIMEI
  6
CONTINUOUS
 62
    7
 10
16.62299167605201
 20
22.320971936251972
 11
17.934884036835115
 21
20.797033948351789
  0
LINE
  8
_0-1_EL-SL300SAIMEI
  6
CONTINUOUS
 62
    7
 10
16.157214766446195
 20
23.08302705758928
 11
16.62299167605201
 21
22.320971936251972
  0
LINE
  8
_0-1_EL-SL300SAIMEI
  6
CONTINUOUS
 62
    7
 10
15.521939158966092
 20
24.480357786406561
 11
16.157214766446195
 21
23.08302705758928
  0
LINE
  8
_0-1_EL-SL300SAIMEI
  6
CONTINUOUS
 62
    7
 10
15.141600617394602
 20
25.919374170595471
 11
15.521939158966092
 21
24.480357786406561
  0
LINE
  8
_0-1_EL-SL300SAIMEI
  6
CONTINUOUS
 62
    7
 10
14.886663551486095
 20
27.823650700067279
 11
15.141600617394602
 21
25.919374170595471
  0
LINE
  8
_0-1_EL-SL300SAIMEI
  6
CONTINUOUS
 62
    7
 10
15.013443065343296
 20
29.729305267733292
 11
14.886663551486095
 21
27.823650700067279
  0
LINE
  8
_0-1_EL-SL300SAIMEI
  6
CONTINUOUS
 62
    7
 10
21.998718671235789
 20
19.019364677962791
 11
22.846212160607308
 21
18.976645493945721
  0
LINE
  8
_0-1_EL-SL300SAIMEI
  6
CONTINUOUS
 62
    7
 10
21.193944365881489
 20
19.188691121062771
 11
21.998718671235789
 21
19.019364677962791
  0
LINE
  8
_0-1_EL-SL300SAIMEI
  6
CONTINUOUS
 62
    7
 10
19.671212161401115
 20
19.82258869034877
 11
21.193944365881489
 21
19.188691121062771
  0
LINE
  8
_0-1_EL-SL300SAIMEI
  6
CONTINUOUS
 62
    7
 10
18.696939158172398
 20
20.458036552603069
 11
19.671212161401115
 21
19.82258869034877
  0
LINE
  8
_0-1_EL-SL300SAIMEI
  6
CONTINUOUS
 62
    7
 10
17.258267283532092
 20
21.981974540503369
 11
18.696939158172398
 21
20.458036552603069
  0
LINE
  8
_0-1_EL-SL300SAIMEI
  6
CONTINUOUS
 62
    7
 10
16.749771189909211
 20
22.74437417138919
 11
17.258267283532092
 21
21.981974540503369
  0
LINE
  8
_0-1_EL-SL300SAIMEI
  6
CONTINUOUS
 62
    7
 10
16.326713464320505
 20
23.59031736779227
 11
16.749771189909211
 21
22.74437417138919
  0
LINE
  8
_0-1_EL-SL300SAIMEI
  6
CONTINUOUS
 62
    7
 10
15.944996884554797
 20
24.480357786406561
 11
16.326713464320505
 21
23.59031736779227
  0
LINE
  8
_0-1_EL-SL300SAIMEI
  6
CONTINUOUS
 62
    7
 10
15.6487186728233
 20
25.45342500621539
 11
15.944996884554797
 21
24.480357786406561
  0
LINE
  8
_0-1_EL-SL300SAIMEI
  6
CONTINUOUS
 62
    7
 10
15.352440461091902
 20
27.359424083429882
 11
15.6487186728233
 21
25.45342500621539
  0
LINE
  8
_0-1_EL-SL300SAIMEI
  6
CONTINUOUS
 62
    7
 10
15.352440461091902
 20
29.009969330413082
 11
15.352440461091902
 21
27.359424083429882
  0
LINE
  8
_0-1_EL-SL300SAIMEI
  6
CONTINUOUS
 62
    7
 10
15.437878829126106
 20
29.686758338490371
 11
15.352440461091902
 21
29.009969330413082
  0
LINE
  8
_0-1_EL-SL300SAIMEI
  6
CONTINUOUS
 62
    7
 10
24.115385337373397
 20
37.942757414117388
 11
23.776387941624819
 21
38.026645489183188
  0
LINE
  8
_0-1_EL-SL300SAIMEI
  6
CONTINUOUS
 62
    7
 10
24.454382733121918
 20
37.899693720551774
 11
24.115385337373397
 21
37.942757414117388
  0
LINE
  8
_0-1_EL-SL300SAIMEI
  6
CONTINUOUS
 62
    7
 10
25.639495580047907
 20
37.434089065720258
 11
24.454382733121918
 21
37.899693720551774
  0
LINE
  8
_0-1_EL-SL300SAIMEI
  6
CONTINUOUS
 62
    7
 10
27.036826308865219
 20
36.545426685300079
 11
25.639495580047907
 21
37.434089065720258
  0
LINE
  8
_0-1_EL-SL300SAIMEI
  6
CONTINUOUS
 62
    7
 10
28.264658339808197
 20
35.317422399582767
 11
27.036826308865219
 21
36.545426685300079
  0
LINE
  8
_0-1_EL-SL300SAIMEI
  6
CONTINUOUS
 62
    7
 10
29.237553304842809
 20
33.836031340925281
 11
28.264658339808197
 21
35.317422399582767
  0
LINE
  8
_0-1_EL-SL300SAIMEI
  6
CONTINUOUS
 62
    7
 10
29.999608426180117
 20
32.142422400376475
 11
29.237553304842809
 21
33.836031340925281
  0
LINE
  8
_0-1_EL-SL300SAIMEI
  6
CONTINUOUS
 62
    7
 10
30.508104519802917
 20
29.856429291138969
 11
29.999608426180117
 21
32.142422400376475
  0
LINE
  8
_0-1_EL-SL300SAIMEI
  6
CONTINUOUS
 62
    7
 10
30.550823703820019
 20
27.823650700067279
 11
30.508104519802917
 21
29.856429291138969
  0
LINE
  8
_0-1_EL-SL300SAIMEI
  6
CONTINUOUS
 62
    7
 10
30.381325005945797
 20
26.342259641409871
 11
30.550823703820019
 21
27.823650700067279
  0
LINE
  8
_0-1_EL-SL300SAIMEI
  6
CONTINUOUS
 62
    7
 10
29.746049398465718
 20
24.184424084223689
 11
30.381325005945797
 21
26.342259641409871
  0
LINE
  8
_0-1_EL-SL300SAIMEI
  6
CONTINUOUS
 62
    7
 10
28.857214763271198
 20
22.448095959657682
 11
29.746049398465718
 21
24.184424084223689
  0
LINE
  8
_0-1_EL-SL300SAIMEI
  6
CONTINUOUS
 62
    7
 10
27.798881430202499
 20
21.09331216008318
 11
28.857214763271198
 21
22.448095959657682
  0
LINE
  8
_0-1_EL-SL300SAIMEI
  6
CONTINUOUS
 62
    7
 10
26.528330215242306
 20
19.951090751948559
 11
27.798881430202499
 21
21.09331216008318
  0
LINE
  8
_0-1_EL-SL300SAIMEI
  6
CONTINUOUS
 62
    7
 10
25.724933948082107
 20
19.442422403551472
 11
26.528330215242306
 21
19.951090751948559
  0
LINE
  8
_0-1_EL-SL300SAIMEI
  6
CONTINUOUS
 62
    7
 10
25.004219972567796
 20
19.10342500780289
 11
25.724933948082107
 21
19.442422403551472
  0
LINE
  8
_0-1_EL-SL300SAIMEI
  6
CONTINUOUS
 62
    7
 10
24.242164851230509
 20
18.806974541297201
 11
25.004219972567796
 21
19.10342500780289
  0
LINE
  8
_0-1_EL-SL300SAIMEI
  6
CONTINUOUS
 62
    7
 10
23.438768584070317
 20
18.637648098197111
 11
24.242164851230509
 21
18.806974541297201
  0
LINE
  8
_0-1_EL-SL300SAIMEI
  6
CONTINUOUS
 62
    7
 10
21.955999487218719
 20
18.594928914180091
 11
23.438768584070317
 21
18.637648098197111
  0
LINE
  8
_0-1_EL-SL300SAIMEI
  6
CONTINUOUS
 62
    7
 10
21.279382733915696
 20
18.637648098197111
 11
21.955999487218719
 21
18.594928914180091
  0
LINE
  8
_0-1_EL-SL300SAIMEI
  6
CONTINUOUS
 62
    7
 10
20.517327612578413
 20
18.806974541297201
 11
21.279382733915696
 21
18.637648098197111
  0
LINE
  8
_0-1_EL-SL300SAIMEI
  6
CONTINUOUS
 62
    7
 10
19.332214765652509
 20
19.27309596045146
 11
20.517327612578413
 21
18.806974541297201
  0
LINE
  8
_0-1_EL-SL300SAIMEI
  6
CONTINUOUS
 62
    7
 10
17.554545495263596
 20
20.458036552603069
 11
19.332214765652509
 21
19.27309596045146
  0
LINE
  8
_0-1_EL-SL300SAIMEI
  6
CONTINUOUS
 62
    7
 10
16.707052005892109
 20
21.389762626588979
 11
17.554545495263596
 21
20.458036552603069
  0
LINE
  8
_0-1_EL-SL300SAIMEI
  6
CONTINUOUS
 62
    7
 10
15.902277700537695
 20
22.49064288890057
 11
16.707052005892109
 21
21.389762626588979
  0
LINE
  8
_0-1_EL-SL300SAIMEI
  6
CONTINUOUS
 62
    7
 10
14.972101919520298
 20
24.564762625795179
 11
15.902277700537695
 21
22.49064288890057
  0
LINE
  8
_0-1_EL-SL300SAIMEI
  6
CONTINUOUS
 62
    7
 10
14.633104523771685
 20
25.83514158598107
 11
14.972101919520298
 21
24.564762625795179
  0
LINE
  8
_0-1_EL-SL300SAIMEI
  6
CONTINUOUS
 62
    7
 10
14.463605825897417
 20
26.850755735032781
 11
14.633104523771685
 21
25.83514158598107
  0
LINE
  8
_0-1_EL-SL300SAIMEI
  6
CONTINUOUS
 62
    7
 10
14.379545496057318
 20
28.331974538915862
 11
14.463605825897417
 21
26.850755735032781
  0
LINE
  8
_0-1_EL-SL300SAIMEI
  6
CONTINUOUS
 62
    7
 10
14.506325009914491
 20
29.89897622038178
 11
14.379545496057318
 21
28.331974538915862
  0
LINE
  8
_0-1_EL-SL300SAIMEI
  6
CONTINUOUS
 62
    7
 10
14.929382735503196
 20
31.676645490770692
 11
14.506325009914491
 21
29.89897622038178
  0
LINE
  8
_0-1_EL-SL300SAIMEI
  6
CONTINUOUS
 62
    7
 10
15.6487186728233
 20
33.454314761159694
 11
14.929382735503196
 21
31.676645490770692
  0
LINE
  8
_0-1_EL-SL300SAIMEI
  6
CONTINUOUS
 62
    7
 10
16.62299167605201
 20
34.978425003834168
 11
15.6487186728233
 21
33.454314761159694
  0
LINE
  8
_0-1_EL-SL300SAIMEI
  6
CONTINUOUS
 62
    7
 10
17.765385338960897
 20
36.206429289551473
 11
16.62299167605201
 21
34.978425003834168
  0
LINE
  8
_0-1_EL-SL300SAIMEI
  6
CONTINUOUS
 62
    7
 10
18.823718672029599
 20
37.011031340131588
 11
17.765385338960897
 21
36.206429289551473
  0
LINE
  8
_0-1_EL-SL300SAIMEI
  6
CONTINUOUS
 62
    7
 10
20.305109730687008
 20
37.730367277451684
 11
18.823718672029599
 21
37.011031340131588
  0
LINE
  8
_0-1_EL-SL300SAIMEI
  6
CONTINUOUS
 62
    7
 10
21.448881431789999
 20
38.026645489183188
 11
20.305109730687008
 21
37.730367277451684
  0
LINE
  8
_0-1_EL-SL300SAIMEI
  6
CONTINUOUS
 62
    7
 10
22.337716066984399
 20
38.15342500304039
 11
21.448881431789999
 21
38.026645489183188
  0
LINE
  8
_0-1_EL-SL300SAIMEI
  6
CONTINUOUS
 62
    7
 10
23.776387941624819
 20
38.026645489183188
 11
22.337716066984399
 21
38.15342500304039
  0
LINE
  8
_0-1_EL-SL300SAIMEI
  6
CONTINUOUS
 62
    7
 10
25.130999486424997
 20
37.391369881703163
 11
24.411663549104819
 21
37.603760018368781
  0
LINE
  8
_0-1_EL-SL300SAIMEI
  6
CONTINUOUS
 62
    7
 10
26.571049399259408
 20
36.62931476036588
 11
25.130999486424997
 21
37.391369881703163
  0
LINE
  8
_0-1_EL-SL300SAIMEI
  6
CONTINUOUS
 62
    7
 10
27.079545492882318
 20
36.248976218794283
 11
26.571049399259408
 21
36.62931476036588
  0
LINE
  8
_0-1_EL-SL300SAIMEI
  6
CONTINUOUS
 62
    7
 10
28.518217367522599
 20
34.681974537328358
 11
27.079545492882318
 21
36.248976218794283
  0
LINE
  8
_0-1_EL-SL300SAIMEI
  6
CONTINUOUS
 62
    7
 10
50.150660938503385
 20
55.08675833214037
 11
49.897101910789019
 21
55.129305261383287
  0
LINE
  8
_0-1_EL-SL300SAIMEI
  6
CONTINUOUS
 62
    7
 10
42.403330211273605
 20
55.256429284788972
 11
42.869107120879384
 21
55.21371010077187
  0
LINE
  8
_0-1_EL-SL300SAIMEI
  6
CONTINUOUS
 62
    7
 10
41.683994273953395
 20
55.636595571586284
 11
42.107051999542108
 21
55.552707496520497
  0
LINE
  8
_0-1_EL-SL300SAIMEI
  6
CONTINUOUS
 62
    7
 10
41.557214760096201
 20
55.636595571586284
 11
41.683994273953395
 21
55.636595571586284
  0
LINE
  8
_0-1_EL-SL300SAIMEI
  6
CONTINUOUS
 62
    7
 10
42.276550697416411
 20
55.298976214031768
 11
42.403330211273605
 21
55.256429284788972
  0
LINE
  8
_0-1_EL-SL300SAIMEI
  6
CONTINUOUS
 62
    7
 10
41.430435246239
 20
55.67931475560335
 11
40.752440454741901
 21
55.67931475560335
  0
LINE
  8
_0-1_EL-SL300SAIMEI
  6
CONTINUOUS
 62
    7
 10
47.652277692600201
 20
54.790307865634681
 11
46.213605817959916
 21
55.08675833214037
  0
LINE
  8
_0-1_EL-SL300SAIMEI
  6
CONTINUOUS
 62
    7
 10
48.033994272365895
 20
54.53709334746879
 11
47.652277692600201
 21
54.790307865634681
  0
LINE
  8
_0-1_EL-SL300SAIMEI
  6
CONTINUOUS
 62
    7
 10
42.869107120879384
 20
54.917259634266074
 11
45.23933281473132
 21
54.620981422534562
  0
LINE
  8
_0-1_EL-SL300SAIMEI
  6
CONTINUOUS
 62
    7
 10
41.091437850490401
 20
55.256429284788972
 11
42.869107120879384
 21
54.917259634266074
  0
LINE
  8
_0-1_EL-SL300SAIMEI
  6
CONTINUOUS
 62
    7
 10
48.118054602205994
 20
54.494374163451688
 11
48.076713456383011
 21
54.494374163451688
  0
LINE
  8
_0-1_EL-SL300SAIMEI
  6
CONTINUOUS
 62
    7
 10
42.022991669702009
 20
55.129305261383287
 11
41.09109334094191
 21
55.298976214031768
  0
LINE
  8
_0-1_EL-SL300SAIMEI
  6
CONTINUOUS
 62
    7
 10
47.187878821188605
 20
54.917259634266074
 11
46.213605817959916
 21
55.08675833214037
  0
LINE
  8
_0-1_EL-SL300SAIMEI
  6
CONTINUOUS
 62
    7
 10
47.694996876617296
 20
54.747588681617579
 11
47.187878821188605
 21
54.917259634266074
  0
LINE
  8
_0-1_EL-SL300SAIMEI
  6
CONTINUOUS
 62
    7
 10
47.694996876617296
 20
54.663700606551657
 11
47.694996876617296
 21
54.747588681617579
  0
LINE
  8
_0-1_EL-SL300SAIMEI
  6
CONTINUOUS
 62
    7
 10
46.848881425439998
 20
54.663700606551657
 11
47.694996876617296
 21
54.663700606551657
  0
LINE
  8
_0-1_EL-SL300SAIMEI
  6
CONTINUOUS
 62
    7
 10
44.3504981795368
 20
54.917259634266074
 11
46.848881425439998
 21
54.663700606551657
  0
LINE
  8
_0-1_EL-SL300SAIMEI
  6
CONTINUOUS
 62
    7
 10
42.233831513399309
 20
55.256429284788972
 11
44.3504981795368
 21
54.917259634266074
  0
LINE
  8
_0-1_EL-SL300SAIMEI
  6
CONTINUOUS
 62
    7
 10
40.79515963875901
 20
55.595426680537457
 11
42.233831513399309
 21
55.256429284788972
  0
LINE
  8
_0-1_EL-SL300SAIMEI
  6
CONTINUOUS
 62
    7
 10
40.752440454741901
 20
55.67931475560335
 11
40.79515963875901
 21
55.595426680537457
  0
LINE
  8
_0-1_EL-SL300SAIMEI
  6
CONTINUOUS
 62
    7
 10
42.233831513399309
 20
55.08675833214037
 11
46.213605817959916
 21
54.53709334746879
  0
LINE
  8
_0-1_EL-SL300SAIMEI
  6
CONTINUOUS
 62
    7
 10
47.9912750883488
 20
54.494374163451688
 11
48.033994272365895
 21
54.53709334746879
  0
LINE
  8
_0-1_EL-SL300SAIMEI
  6
CONTINUOUS
 62
    7
 10
42.869107120879384
 20
55.21371010077187
 11
42.742327607022219
 21
55.256429284788972
  0
LINE
  8
_0-1_EL-SL300SAIMEI
  6
CONTINUOUS
 62
    7
 10
43.843380124107995
 20
54.790307865634681
 11
42.022991669702009
 21
55.129305261383287
  0
LINE
  8
_0-1_EL-SL300SAIMEI
  6
CONTINUOUS
 62
    7
 10
45.747828908354109
 20
54.578262238517489
 11
43.843380124107995
 21
54.790307865634681
  0
LINE
  8
_0-1_EL-SL300SAIMEI
  6
CONTINUOUS
 62
    7
 10
41.091437850490401
 20
55.298976214031768
 11
42.022991669702009
 21
55.129305261383287
  0
LINE
  8
_0-1_EL-SL300SAIMEI
  6
CONTINUOUS
 62
    7
 10
42.742327607022219
 20
55.256429284788972
 11
42.276550697416411
 21
55.298976214031768
  0
TEXT
  8
_0-1_EL-SL300SAIMEI
 62
    7
 10
-3.6910880509047388
 20
77.059613001990641
 40
4.5
 41
1
 50
0
  1
LEDｸﾗｽ300/250 ｽﾎﾟｯﾄﾗｲﾄ
  0
TEXT
  8
_0-1_EL-SL300SAIMEI
 62
    7
 10
-3.6910880509047388
 20
-6.9403819980092791
 40
4.5
 41
1
 50
0
  1
三菱　EL-SL30023WW/W
  0
INSERT
  2
-002-SPECEL-SL30023WWW
  8
_0-0_0
 10
60.79746594994976
 20
4.2388546432120862
 41
1
 42
1
 50
0
  0
ENDSEC
  0
EOF
