  0
SECTION
  2
HEADER
  9
$ACADVER
  1
AC1009
  9
$DWGCODEPAGE
  3
dos932
  9
$INSBASE
 10
0
 20
0
 30
0
  9
$EXTMIN
 10
66.013232081762041
 20
39.201707595777862
 30
0
  9
$EXTMAX
 10
226.97154910505856
 20
129.60361264644442
 30
0
  9
$LIMMIN
 10
0
 20
0
  9
$LIMMAX
 10
237.8
 20
168.2
  9
$SNAPMODE
 70
0
  9
$SNAPUNIT
 10
1
 20
1
  9
$SNAPBASE
 10
0
 20
0
  9
$SNAPANG
 50
0
  9
$SNAPSTYLE
 70
0
  9
$SNAPISOPAIR
 70
0
  9
$ORTHOMODE
 70
0
  9
$REGENMODE
 70
1
  9
$FILLMODE
 70
1
  9
$QTEXTMODE
 70
0
  9
$MIRRTEXT
 70
0
  9
$LTSCALE
 40
0.1
  9
$OSMODE
 70
37
  9
$ATTMODE
 70
1
  9
$TEXTSIZE
 40
0.2
  9
$TRACEWID
 40
0.05
  9
$TEXTSTYLE
  7
STANDARD
  9
$CLAYER
  8
0
  9
$CELTYPE
  6
CONTINUOUS
  9
$CECOLOR
 62
256
  9
$DIMSCALE
 40
1
  9
$DIMASZ
 40
0.18
  9
$DIMEXO
 40
0.0625
  9
$DIMDLI
 40
0.38
  9
$DIMRND
 40
0
  9
$DIMDLE
 40
0
  9
$DIMEXE
 40
0.18
  9
$DIMTP
 40
0
  9
$DIMTM
 40
0
  9
$DIMTXT
 40
0.18
  9
$DIMCEN
 40
0.09
  9
$DIMTSZ
 40
0
  9
$DIMTOL
 70
0
  9
$DIMLIM
 70
0
  9
$DIMTIH
 70
1
  9
$DIMTOH
 70
1
  9
$DIMSE1
 70
0
  9
$DIMSE2
 70
0
  9
$DIMTAD
 70
0
  9
$DIMZIN
 70
0
  9
$DIMBLK
  1

  9
$DIMASO
 70
1
  9
$DIMSHO
 70
1
  9
$DIMPOST
  1

  9
$DIMAPOST
  1

  9
$DIMALT
 70
0
  9
$DIMALTD
 70
2
  9
$DIMALTF
 40
25.4
  9
$DIMLFAC
 40
1
  9
$DIMTOFL
 70
0
  9
$DIMTVP
 40
0
  9
$DIMTIX
 70
0
  9
$DIMSOXD
 70
0
  9
$DIMSAH
 70
0
  9
$DIMBLK1
  1

  9
$DIMBLK2
  1

  9
$DIMSTYLE
  2
STANDARD
  9
$DIMCLRD
 70
0
  9
$DIMCLRE
 70
0
  9
$DIMCLRT
 70
0
  9
$DIMTFAC
 40
1
  9
$DIMGAP
 40
0.09
  9
$LUNITS
 70
2
  9
$LUPREC
 70
4
  9
$SKETCHINC
 40
0.1
  9
$FILLETRAD
 40
0
  9
$AUNITS
 70
0
  9
$AUPREC
 70
0
  9
$MENU
  1
.
  9
$ELEVATION
 40
0
  9
$PELEVATION
 40
0
  9
$THICKNESS
 40
0
  9
$LIMCHECK
 70
0
  9
$CHAMFERA
 40
0
  9
$CHAMFERB
 40
0
  9
$SKPOLY
 70
0
  9
$TDCREATE
 40
2457057.4658058332
  9
$TDUPDATE
 40
2457624.426642986
  9
$TDINDWG
 40
0.00453380787037037
  9
$TDUSRTIMER
 40
0.00453380787037037
  9
$USRTIMER
 70
1
  9
$ANGBASE
 50
0
  9
$ANGDIR
 70
0
  9
$PDMODE
 70
0
  9
$PDSIZE
 40
0
  9
$PLINEWID
 40
0
  9
$SPLFRAME
 70
0
  9
$SPLINETYPE
 70
6
  9
$SPLINESEGS
 70
8
  9
$HANDLING
 70
1
  9
$HANDSEED
  5
25FE
  9
$SURFTAB1
 70
6
  9
$SURFTAB2
 70
6
  9
$SURFTYPE
 70
6
  9
$SURFU
 70
6
  9
$SURFV
 70
6
  9
$UCSORG
 10
0
 20
0
 30
0
  9
$UCSXDIR
 10
1
 20
0
 30
0
  9
$UCSYDIR
 10
0
 20
1
 30
0
  9
$PUCSORG
 10
0
 20
0
 30
0
  9
$PUCSXDIR
 10
1
 20
0
 30
0
  9
$PUCSYDIR
 10
0
 20
1
 30
0
  9
$USERI1
 70
0
  9
$USERI2
 70
0
  9
$USERI3
 70
0
  9
$USERI4
 70
0
  9
$USERI5
 70
0
  9
$USERR1
 40
0
  9
$USERR2
 40
0
  9
$USERR3
 40
0
  9
$USERR4
 40
0
  9
$USERR5
 40
0
  9
$WORLDVIEW
 70
1
  9
$SHADEDGE
 70
3
  9
$SHADEDIF
 70
70
  9
$TILEMODE
 70
1
  9
$MAXACTVP
 70
64
  9
$PINSBASE
 10
0
 20
0
 30
0
  9
$PLIMCHECK
 70
0
  9
$PEXTMIN
 10
1E+20
 20
1E+20
 30
1E+20
  9
$PEXTMAX
 10
-1E+20
 20
-1E+20
 30
-1E+20
  9
$PLIMMAX
 10
12
 20
9
  9
$PLIMMIN
 10
0
 20
0
  9
$UNITMODE
 70
0
  9
$VISRETAIN
 70
1
  9
$PLINEGEN
 70
0
  9
$PSLTSCALE
 70
1
  9
$TREEDEPTH
 70
3020
  9
$DRAGMODE
 70
     2
  9
$BLIPMODE
 70
     0
  9
$COORDS
 70
     1
  9
$ATTDIA
 70
     0
  9
$ATTREQ
 70
     1
  0
ENDSEC
  0
SECTION
  2
TABLES
  0
TABLE
  2
VPORT
  5
25F0
 70
1
  0
VPORT
  5
25C4
  2
*ACTIVE
 70
0
 10
0
 20
0
 11
1
 21
1
 12
122.765763369398
 22
89.8115383423485
 13
0
 23
0
 14
1
 24
1
 15
0
 25
0
 16
0
 26
0
 36
1
 17
0
 27
0
 37
0
 40
194.3150606867994
 41
1.19546027742749
 42
50
 43
0
 44
0
 50
0
 51
0
 71
0
 72
100
 73
1
 74
1
 75
0
 76
0
 77
0
 78
0
  0
ENDTAB
  0
TABLE
  2
LTYPE
  5
25F1
 70
39
  0
LTYPE
  5
259B
  2
CONTINUOUS
  3
実線
 70
0
 72
65
 73
0
 40
0
  0
LTYPE
  5
259C
  2
DASHED1
  3
--  --  --  --  --  --  --  --  
 70
0
 72
65
 73
2
 40
2.5
 49
1.25
 49
-1.25
  0
LTYPE
  5
259D
  2
DASHED2
  3
----    ----    ----    ----    
 70
0
 72
65
 73
2
 40
5
 49
2.5
 49
-2.5
  0
LTYPE
  5
259E
  2
DASHED3
  3
------  ------  ------  ------  
 70
0
 72
65
 73
2
 40
5
 49
3.75
 49
-1.25
  0
LTYPE
  5
259F
  2
CENTER1
  3
----- - ----- - ----- - ----- - 
 70
0
 72
65
 73
4
 40
10
 49
6.25
 49
-1.25
 49
1.25
 49
-1.25
  0
LTYPE
  5
25A0
  2
CENTER2
  3
----------  --  ----------  --  
 70
0
 72
65
 73
4
 40
20
 49
12.5
 49
-2.5
 49
2.5
 49
-2.5
  0
LTYPE
  5
25A1
  2
PHANTOM1
  3
--- - - --- - - --- - - --- - - 
 70
0
 72
65
 73
6
 40
9.5
 49
3.25
 49
-1.25
 49
1.25
 49
-1.25
 49
1.25
 49
-1.25
  0
LTYPE
  5
25A2
  2
PHANTOM2
  3
--------  -  -  --------  -  -  
 70
0
 72
65
 73
6
 40
20
 49
10
 49
-2.5
 49
1.25
 49
-2.5
 49
1.25
 49
-2.5
  0
LTYPE
  5
25A3
  2
DOT
  3
-   -   -   -   -   -   -   -   
 70
0
 72
65
 73
2
 40
2.5
 49
0.625
 49
-1.875
  0
LTYPE
  5
25A4
  2
DUMMY
  3
ダミー
 70
0
 72
65
 73
0
 40
0
  0
LTYPE
  5
25A5
  2
RAND1
  3
ランダム線1
 70
0
 72
65
 73
4
 40
10
 49
1
 49
-2
 49
3
 49
-4
  0
LTYPE
  5
25A6
  2
RAND2
  3
ランダム線2
 70
0
 72
65
 73
4
 40
14
 49
2
 49
-3
 49
4
 49
-5
  0
LTYPE
  5
25A7
  2
RAND3
  3
ランダム線3
 70
0
 72
65
 73
4
 40
18
 49
3
 49
-4
 49
5
 49
-6
  0
LTYPE
  5
25A8
  2
RAND4
  3
ランダム線4
 70
0
 72
65
 73
4
 40
22
 49
4
 49
-5
 49
6
 49
-7
  0
LTYPE
  5
25A9
  2
RAND5
  3
ランダム線5
 70
0
 72
65
 73
4
 40
26
 49
5
 49
-6
 49
7
 49
-8
  0
LTYPE
  5
25AA
  2
LONG1
  3
----------  --  ----------  --  
 70
0
 72
65
 73
4
 40
40
 49
32.5
 49
-2.5
 49
2.5
 49
-2.5
  0
LTYPE
  5
25AB
  2
LONG2
  3
--------  -  -  --------  -  -  
 70
0
 72
65
 73
6
 40
40
 49
30
 49
-2.5
 49
1.25
 49
-2.5
 49
1.25
 49
-2.5
  0
LTYPE
  5
25AC
  2
LONG3
  3
+++++++++++++++..+++++++++++++++
 70
0
 72
65
 73
2
 40
40
 49
37.5
 49
-2.5
  0
LTYPE
  5
25AD
  2
LONG4
  3
+++++++++++++++..+++++++++++++++
 70
0
 72
65
 73
2
 40
80
 49
75
 49
-5
  0
LTYPE
  5
25AE
  2
LONG5
  3
----------  --  ----------  --  
 70
0
 72
65
 73
4
 40
60
 49
37.5
 49
-7.5
 49
7.5
 49
-7.5
  0
LTYPE
  5
25AF
  2
DASHED
  3
-------   -------------   ------
 70
0
 72
65
 73
2
 40
7.5
 49
6
 49
-1.5
  0
LTYPE
  5
25B0
  2
DASHED_SPACED
  3
----        --------        ----
 70
0
 72
65
 73
2
 40
12
 49
6
 49
-6
  0
LTYPE
  5
25B1
  2
LONG_DASHED_DOTTED
  3
------------- --- --------------
 70
0
 72
65
 73
4
 40
15.25
 49
12
 49
-1.5
 49
0.25
 49
-1.5
  0
LTYPE
  5
25B2
  2
LONG_DASHED_DOUBLE-DOTTED
  3
----------- --- --- ------------
 70
0
 72
65
 73
6
 40
17
 49
12
 49
-1.5
 49
0.25
 49
-1.5
 49
0.25
 49
-1.5
  0
LTYPE
  5
25B3
  2
LONG_DASHED_TRIPLICATE-DOT
  3
--------- --- --- --- ----------
 70
0
 72
65
 73
8
 40
18.75
 49
12
 49
-1.5
 49
0.25
 49
-1.5
 49
0.25
 49
-1.5
 49
0.25
 49
-1.5
  0
LTYPE
  5
25B4
  2
DOTTED
  3
   -       -       -       -    
 70
0
 72
65
 73
2
 40
1.75
 49
0.25
 49
-1.5
  0
LTYPE
  5
25B5
  2
CHAIN
  3
-------------- -- --------------
 70
0
 72
65
 73
4
 40
18.5
 49
12
 49
-1.5
 49
3.5
 49
-1.5
  0
LTYPE
  5
25B6
  2
CHAIN_DOUBLE_DASH
  3
------------ -- -- -------------
 70
0
 72
65
 73
6
 40
23.5
 49
12
 49
-1.5
 49
3.5
 49
-1.5
 49
3.5
 49
-1.5
  0
LTYPE
  5
25B7
  2
DASHED_DOTTED
  3
-----------     -     ----------
 70
0
 72
65
 73
4
 40
9.25
 49
6
 49
-1.5
 49
0.25
 49
-1.5
  0
LTYPE
  5
25B8
  2
DOUBLE-DASHED_DOTTED
  3
------   -----------   -   -----
 70
0
 72
65
 73
6
 40
16.75
 49
6
 49
-1.5
 49
6
 49
-1.5
 49
0.25
 49
-1.5
  0
LTYPE
  5
25B9
  2
DASHED_DOUBLE-DOTTED
  3
---------    -    -    ---------
 70
0
 72
65
 73
6
 40
11
 49
6
 49
-1.5
 49
0.25
 49
-1.5
 49
0.25
 49
-1.5
  0
LTYPE
  5
25BA
  2
DOUBLE-DASHED_DOUBLE-DOTTE
  3
-----   ---------   -   -   ----
 70
0
 72
65
 73
8
 40
18.5
 49
6
 49
-1.5
 49
6
 49
-1.5
 49
0.25
 49
-1.5
 49
0.25
 49
-1.5
  0
LTYPE
  5
25BB
  2
DASHED_TRIPLICATE-DOTTED
  3
-------    -    -    -    ------
 70
0
 72
65
 73
8
 40
12.75
 49
6
 49
-1.5
 49
0.25
 49
-1.5
 49
0.25
 49
-1.5
 49
0.25
 49
-1.5
  0
LTYPE
  5
25BC
  2
DOUBLE-DASHED_TRIPLICATE-D
  3
-----  ---------  -  -  -  -----
 70
0
 72
65
 73
10
 40
20.25
 49
6
 49
-1.5
 49
6
 49
-1.5
 49
0.25
 49
-1.5
 49
0.25
 49
-1.5
 49
0.25
 49
-1.5
  0
LTYPE
  5
25BD
  2
UNDEFINED
  3
--------------------------------
 70
0
 72
65
 73
0
 40
0
  0
LTYPE
  5
25BE
  2
CENTER
  3
----------    ----    ----------
 70
0
 72
65
 73
4
 40
0.59999999999999964
 49
0.375
 49
-0.0749999999999999
 49
0.0749999999999999
 49
-0.0749999999999999
  0
LTYPE
  5
25BF
  2
DASHDOT
  3
--------        -        -------
 70
0
 72
65
 73
4
 40
1.01
 49
0.5
 49
-0.25
 49
0.01
 49
-0.25
  0
LTYPE
  5
25C0
  2
ByBlock
  3

 70
64
 72
65
 73
0
 40
0
  0
LTYPE
  5
25C1
  2
ByLayer
  3

 70
64
 72
65
 73
0
 40
0
  0
ENDTAB
  0
TABLE
  2
LAYER
  5
25F2
 70
2
  0
LAYER
  5
2583
 70
0
  2
0
 62
7
  6
CONTINUOUS
  0
LAYER
  5
2584
 70
0
  2
SPEC
 62
7
  6
CONTINUOUS
  0
ENDTAB
  0
TABLE
  2
STYLE
  5
25F3
 70
3
  0
STYLE
  5
2598
  2
STANDARD
 70
0
 40
0
 41
1
 50
0
 71
0
 42
0.2
  3
txt.shx
  4
extfont2.shx
  0
STYLE
  5
2599
  2
ANNOTATIVE
 70
0
 40
0
 41
1
 50
0
 71
0
 42
0.2
  3
txt
  0
STYLE
  5
259A
  2
TATEGAKI
 70
4
 40
0
 41
1
 50
0
 71
0
 42
1
  3
txt
  4
bigfont.shx
  0
ENDTAB
  0
TABLE
  2
APPID
  5
25F6
 70
4
  0
APPID
  5
25F7
  2
ACAD
 70
0
  0
APPID
  5
25FA
  2
ACADANNOTATIVE
 70
0
  0
APPID
  5
25FB
  2
ACAD_MLEADERVER
 70
0
  0
APPID
  5
25FC
  2
ACAD_EXEMPT_FROM_CAD_STANDARDS
 70
0
  0
ENDTAB
  0
TABLE
  2
DIMSTYLE
  5
25F8
 70
2
  0
DIMSTYLE
105
25C2
  2
STANDARD
 70
0
  3

  4

  5

  6

  7

 40
1
 41
0.18
 42
0.0625
 43
0.38
 44
0.18
 45
0
 46
0
 47
0
 48
0
140
0.18
141
0.09
142
0
143
25.4
144
1
145
0
146
1
147
0.09
 71
0
 72
0
 73
1
 74
1
 75
0
 76
0
 77
0
 78
0
170
0
171
2
172
0
173
0
174
0
175
0
176
0
177
0
178
0
  0
DIMSTYLE
105
25C3
  2
ANNOTATIVE
 70
0
  3

  4

  5

  6

  7

 40
1
 41
0.18
 42
0.0625
 43
0.38
 44
0.18
 45
0
 46
0
 47
0
 48
0
140
0.18
141
0.09
142
0
143
25.4
144
1
145
0
146
1
147
0.09
 71
0
 72
0
 73
1
 74
1
 75
0
 76
0
 77
0
 78
0
170
0
171
2
172
0
173
0
174
0
175
0
176
0
177
0
178
0
  0
ENDTAB
  0
ENDSEC
  0
SECTION
  2
BLOCKS
  0
BLOCK
  5
2586
  8
0
  2
$MODEL_SPACE
 70
0
 10
0
 20
0
 30
0
  3
$MODEL_SPACE
  0
ENDBLK
  5
F4A
  8
0
  0
BLOCK
  5
2588
  8
0
 67
1
  2
$PAPER_SPACE
 70
0
 10
0
 20
0
 30
0
  3
$PAPER_SPACE
  0
ENDBLK
  5
F46
  8
0
  0
BLOCK
  5
258A
  8
0
  2
SPECEL-V0504L
 70
64
 10
0
 20
0
 30
0
  3
SPECEL-V0504L
  0
TEXT
  5
258B
  8
SPEC
 10
0
 20
0
 30
0
 40
1.5
  1
ｴｸｽﾃﾘｱ 電球色(2700K) Ra82
  7
STANDARD
  0
TEXT
  5
258C
  8
SPEC
 10
0
 20
-3
 30
0
 40
1.5
  1
本体:ﾌﾟﾗｽﾁｯｸ･白色塗装
  7
STANDARD
  0
TEXT
  5
258D
  8
SPEC
 10
0
 20
-6
 30
0
 40
1.5
  1
光源寿命:40,000時間
  7
STANDARD
  0
TEXT
  5
258E
  8
SPEC
 10
0
 20
-9
 30
0
 40
1.5
  1
光束:580lm 消費電力:8.9W 消費効率:65.1lm/W
  7
STANDARD
  0
ENDBLK
  5
258F
  8
0
  0
BLOCK
  5
2591
  8
0
  2
*MODEL_SPACE
 70
64
 10
0
 20
0
 30
0
  3
*MODEL_SPACE
  0
ENDBLK
  5
2594
  8
0
  0
BLOCK
  5
2596
  8
0
 67
1
  2
*PAPER_SPACE
 70
64
 10
0
 20
0
 30
0
  3
*PAPER_SPACE
  0
ENDBLK
  5
2597
  8
0
  0
ENDSEC
  0
SECTION
  2
ENTITIES
  0
TEXT
  5
A2
  8
0
 62
7
 10
65.566688548337751
 20
123.8499975
 30
0
 40
4.5
  1
LED8.9Wx1 ﾌﾞﾗｹｯﾄ
 41
0.96982639999999987
  7
STANDARD
  0
TEXT
  5
A3
  8
0
 62
7
 10
65.566688548337751
 20
39.85000250000013
 30
0
 40
4.5
  1
三菱　EL-V0504L
 41
0.9893333
  7
STANDARD
  0
POLYLINE
  5
1A32
  8
0
 62
7
 66
1
 70
0
 10
0
 20
0
 30
0
  0
VERTEX
  5
1A33
  8
0
 62
7
 10
113.3289246648261
 20
75.724752358662727
 70
0
  0
VERTEX
  5
1A34
  8
0
 62
7
 10
108.88475148885389
 20
75.724752358662727
 70
0
  0
SEQEND
  5
1A35
  8
0
  0
POLYLINE
  5
1A36
  8
0
 62
7
 66
1
 70
0
 10
0
 20
0
 30
0
  0
VERTEX
  5
1A37
  8
0
 62
7
 10
115.657809212855
 20
76.106296683654136
 70
0
  0
VERTEX
  5
1A38
  8
0
 62
7
 10
113.3289246648261
 20
76.106296683654136
 70
0
  0
SEQEND
  5
1A39
  8
0
  0
POLYLINE
  5
1A3A
  8
0
 62
7
 66
1
 70
0
 10
0
 20
0
 30
0
  0
VERTEX
  5
1A3B
  8
0
 62
7
 10
106.7680848227163
 20
75.808640433728556
 70
0
  0
VERTEX
  5
1A3C
  8
0
 62
7
 10
108.88475148885389
 20
75.724580103888457
 70
0
  0
SEQEND
  5
1A3D
  8
0
  0
POLYLINE
  5
1A3E
  8
0
 62
7
 66
1
 70
0
 10
0
 20
0
 30
0
  0
VERTEX
  5
1A3F
  8
0
 62
7
 10
108.75797197499671
 20
76.994959064074322
 70
0
  0
VERTEX
  5
1A40
  8
0
 62
7
 10
106.7680848227163
 20
76.486635225225712
 70
0
  0
VERTEX
  5
1A41
  8
0
 62
7
 10
106.7680848227163
 20
75.808640433728556
 70
0
  0
SEQEND
  5
1A42
  8
0
  0
POLYLINE
  5
1A43
  8
0
 62
7
 66
1
 70
0
 10
0
 20
0
 30
0
  0
VERTEX
  5
1A44
  8
0
 62
7
 10
108.88475148885389
 20
75.724752358662727
 70
0
  0
VERTEX
  5
1A45
  8
0
 62
7
 10
108.88475148885389
 20
76.909692950814389
 70
0
  0
SEQEND
  5
1A46
  8
0
  0
POLYLINE
  5
1A47
  8
0
 62
7
 66
1
 70
0
 10
0
 20
0
 30
0
  0
VERTEX
  5
1A48
  8
0
 62
7
 10
109.64680661019111
 20
75.344413817091123
 70
0
  0
VERTEX
  5
1A49
  8
0
 62
7
 10
109.64680661019111
 20
75.258630939508407
 70
0
  0
SEQEND
  5
1A4A
  8
0
  0
POLYLINE
  5
1A4B
  8
0
 62
7
 66
1
 70
0
 10
0
 20
0
 30
0
  0
VERTEX
  5
1A4C
  8
0
 62
7
 10
110.7892002731
 20
75.344413817091123
 70
0
  0
VERTEX
  5
1A4D
  8
0
 62
7
 10
110.7892002731
 20
75.258630939508407
 70
0
  0
SEQEND
  5
1A4E
  8
0
  0
POLYLINE
  5
1A4F
  8
0
 62
7
 66
1
 70
0
 10
0
 20
0
 30
0
  0
VERTEX
  5
1A50
  8
0
 62
7
 10
113.3289246648261
 20
75.724752358662727
 70
0
  0
VERTEX
  5
1A51
  8
0
 62
7
 10
113.3289246648261
 20
76.106296683654136
 70
0
  0
SEQEND
  5
1A52
  8
0
  0
POLYLINE
  5
1A53
  8
0
 62
7
 66
1
 70
0
 10
0
 20
0
 30
0
  0
VERTEX
  5
1A54
  8
0
 62
7
 10
115.657809212855
 20
99.386873934778421
 70
0
  0
VERTEX
  5
1A55
  8
0
 62
7
 10
109.52002709633391
 20
99.386873934778421
 70
0
  0
SEQEND
  5
1A56
  8
0
  0
POLYLINE
  5
1A57
  8
0
 62
7
 66
1
 70
0
 10
0
 20
0
 30
0
  0
VERTEX
  5
1A58
  8
0
 62
7
 10
109.2650900304254
 20
75.724752358662727
 70
0
  0
VERTEX
  5
1A59
  8
0
 62
7
 10
109.3078092144425
 20
75.640347519274087
 70
0
  0
VERTEX
  5
1A5A
  8
0
 62
7
 10
109.3932475824767
 20
75.555081406014153
 70
0
  0
VERTEX
  5
1A5B
  8
0
 62
7
 10
109.4345887282997
 20
75.512362221997051
 70
0
  0
VERTEX
  5
1A5C
  8
0
 62
7
 10
109.52002709633391
 20
75.428301892156952
 70
0
  0
VERTEX
  5
1A5D
  8
0
 62
7
 10
109.5613682421569
 20
75.385582708139879
 70
0
  0
VERTEX
  5
1A5E
  8
0
 62
7
 10
109.64680661019111
 20
75.344413817091123
 70
0
  0
SEQEND
  5
1A5F
  8
0
  0
POLYLINE
  5
1A60
  8
0
 62
7
 66
1
 70
0
 10
0
 20
0
 30
0
  0
VERTEX
  5
1A61
  8
0
 62
7
 10
110.7892002731
 20
75.344413817091123
 70
0
  0
VERTEX
  5
1A62
  8
0
 62
7
 10
110.8746386411342
 20
75.385582708139879
 70
0
  0
VERTEX
  5
1A63
  8
0
 62
7
 10
110.9586989709743
 20
75.428301892156952
 70
0
  0
VERTEX
  5
1A64
  8
0
 62
7
 10
111.0014181549914
 20
75.512362221997051
 70
0
  0
VERTEX
  5
1A65
  8
0
 62
7
 10
111.0854784848315
 20
75.555081406014153
 70
0
  0
VERTEX
  5
1A66
  8
0
 62
7
 10
111.1281976688486
 20
75.640347519274087
 70
0
  0
VERTEX
  5
1A67
  8
0
 62
7
 10
111.1709168528657
 20
75.724580103888457
 70
0
  0
SEQEND
  5
1A68
  8
0
  0
POLYLINE
  5
1A69
  8
0
 62
7
 66
1
 70
0
 10
0
 20
0
 30
0
  0
VERTEX
  5
1A6A
  8
0
 62
7
 10
109.77358612404829
 20
75.174742864442578
 70
0
  0
VERTEX
  5
1A6B
  8
0
 62
7
 10
109.77358612404829
 20
75.174742864442578
 70
0
  0
VERTEX
  5
1A6C
  8
0
 62
7
 10
109.8163053080654
 20
75.132023680425476
 70
0
  0
VERTEX
  5
1A6D
  8
0
 62
7
 10
109.8163053080654
 20
75.089304496408374
 70
0
  0
VERTEX
  5
1A6E
  8
0
 62
7
 10
109.85764645388841
 20
75.089304496408374
 70
0
  0
VERTEX
  5
1A6F
  8
0
 62
7
 10
109.9003656379055
 20
75.047963350585377
 70
0
  0
VERTEX
  5
1A70
  8
0
 62
7
 10
109.9430848219226
 20
75.047963350585377
 70
0
  0
VERTEX
  5
1A71
  8
0
 62
7
 10
109.9858040059397
 20
75.005416421342545
 70
0
  0
SEQEND
  5
1A72
  8
0
  0
POLYLINE
  5
1A73
  8
0
 62
7
 66
1
 70
0
 10
0
 20
0
 30
0
  0
VERTEX
  5
1A74
  8
0
 62
7
 10
110.45158091554551
 20
75.005416421342545
 70
0
  0
VERTEX
  5
1A75
  8
0
 62
7
 10
110.4929220613685
 20
75.047963350585377
 70
0
  0
VERTEX
  5
1A76
  8
0
 62
7
 10
110.53564124538561
 20
75.047963350585377
 70
0
  0
VERTEX
  5
1A77
  8
0
 62
7
 10
110.57836042940269
 20
75.047963350585377
 70
0
  0
VERTEX
  5
1A78
  8
0
 62
7
 10
110.57836042940269
 20
75.089304496408374
 70
0
  0
VERTEX
  5
1A79
  8
0
 62
7
 10
110.6197015752257
 20
75.089304496408374
 70
0
  0
VERTEX
  5
1A7A
  8
0
 62
7
 10
110.66242075924281
 20
75.132023680425476
 70
0
  0
VERTEX
  5
1A7B
  8
0
 62
7
 10
110.66242075924281
 20
75.174742864442578
 70
0
  0
VERTEX
  5
1A7C
  8
0
 62
7
 10
110.70513994325989
 20
75.174742864442578
 70
0
  0
SEQEND
  5
1A7D
  8
0
  0
POLYLINE
  5
1A7E
  8
0
 62
7
 66
1
 70
0
 10
0
 20
0
 30
0
  0
VERTEX
  5
1A7F
  8
0
 62
7
 10
109.52002709633391
 20
99.386873934778421
 70
0
  0
VERTEX
  5
1A80
  8
0
 62
7
 10
109.011531002711
 20
99.386873934778421
 70
0
  0
VERTEX
  5
1A81
  8
0
 62
7
 10
108.5457540931052
 20
99.344154750761334
 70
0
  0
VERTEX
  5
1A82
  8
0
 62
7
 10
108.1226963675166
 20
99.302985859712564
 70
0
  0
VERTEX
  5
1A83
  8
0
 62
7
 10
107.69963864192791
 20
99.217202982129891
 70
0
  0
VERTEX
  5
1A84
  8
0
 62
7
 10
107.6142002738937
 20
99.217202982129891
 70
0
  0
VERTEX
  5
1A85
  8
0
 62
7
 10
107.191142548305
 20
99.090595723046931
 70
0
  0
VERTEX
  5
1A86
  8
0
 62
7
 10
106.7680848227163
 20
99.006535393206846
 70
0
  0
VERTEX
  5
1A87
  8
0
 62
7
 10
106.7253656386992
 20
98.963816209189758
 70
0
  0
VERTEX
  5
1A88
  8
0
 62
7
 10
106.2609667672876
 20
98.836864440558315
 70
0
  0
VERTEX
  5
1A89
  8
0
 62
7
 10
105.87925018752191
 20
98.6675379974583
 70
0
  0
VERTEX
  5
1A8A
  8
0
 62
7
 10
105.79518985768181
 20
98.6675379974583
 70
0
  0
VERTEX
  5
1A8B
  8
0
 62
7
 10
105.370754093899
 20
98.455147860792636
 70
0
  0
VERTEX
  5
1A8C
  8
0
 62
7
 10
104.99041555232741
 20
98.2858214176926
 70
0
  0
VERTEX
  5
1A8D
  8
0
 62
7
 10
104.9476963683103
 20
98.244652526643847
 70
0
  0
VERTEX
  5
1A8E
  8
0
 62
7
 10
104.5673578267388
 20
98.032262389978214
 70
0
  0
VERTEX
  5
1A8F
  8
0
 62
7
 10
104.18564124697311
 20
97.778531107489528
 70
0
  0
VERTEX
  5
1A90
  8
0
 62
7
 10
104.101580917133
 20
97.735811923472454
 70
0
  0
VERTEX
  5
1A91
  8
0
 62
7
 10
103.7198643373673
 20
97.482597405306592
 70
0
  0
VERTEX
  5
1A92
  8
0
 62
7
 10
103.3822449798128
 20
97.18631919357513
 70
0
  0
VERTEX
  5
1A93
  8
0
 62
7
 10
103.33952579579569
 20
97.18631919357513
 70
0
  0
VERTEX
  5
1A94
  8
0
 62
7
 10
102.95918725422411
 20
96.88986872706937
 70
0
  0
VERTEX
  5
1A95
  8
0
 62
7
 10
102.6201898584755
 20
96.550871331320764
 70
0
  0
VERTEX
  5
1A96
  8
0
 62
7
 10
102.5774706744585
 20
96.5081521473037
 70
0
  0
VERTEX
  5
1A97
  8
0
 62
7
 10
102.28119246272691
 20
96.170532789749188
 70
0
  0
VERTEX
  5
1A98
  8
0
 62
7
 10
101.9421950669784
 20
95.831535394000582
 70
0
  0
VERTEX
  5
1A99
  8
0
 62
7
 10
101.9008539211554
 20
95.7888162099835
 70
0
  0
VERTEX
  5
1A9A
  8
0
 62
7
 10
101.6045757094239
 20
95.4086499231862
 70
0
  0
VERTEX
  5
1A9B
  8
0
 62
7
 10
101.30829749769239
 20
95.026933343420524
 70
0
  0
VERTEX
  5
1A9C
  8
0
 62
7
 10
101.30829749769239
 20
94.983869649854853
 70
0
  0
VERTEX
  5
1A9D
  8
0
 62
7
 10
101.0120192859609
 20
94.603531108283264
 70
0
  0
VERTEX
  5
1A9E
  8
0
 62
7
 10
100.7570822200524
 20
94.1806456374689
 70
0
  0
VERTEX
  5
1A9F
  8
0
 62
7
 10
100.7570822200524
 20
94.137926453451769
 70
0
  0
VERTEX
  5
1AA0
  8
0
 62
7
 10
100.503523192338
 20
93.7148687278631
 70
0
  0
VERTEX
  5
1AA1
  8
0
 62
7
 10
100.24996416462371
 20
93.291983257048685
 70
0
  0
VERTEX
  5
1AA2
  8
0
 62
7
 10
100.24996416462371
 20
93.249264073031611
 70
0
  0
VERTEX
  5
1AA3
  8
0
 62
7
 10
100.0377462827323
 20
92.825861837894365
 70
0
  0
VERTEX
  5
1AA4
  8
0
 62
7
 10
99.868247584857983
 20
92.360257183062856
 70
0
  0
VERTEX
  5
1AA5
  8
0
 62
7
 10
99.868247584857983
 20
92.3175379990458
 70
0
  0
VERTEX
  5
1AA6
  8
0
 62
7
 10
99.657407741160711
 20
91.851933344214274
 70
0
  0
VERTEX
  5
1AA7
  8
0
 62
7
 10
99.5292501891094
 20
91.3446430340112
 70
0
  0
VERTEX
  5
1AA8
  8
0
 62
7
 10
99.4024706752522
 20
90.836319195162616
 70
0
  0
VERTEX
  5
1AA9
  8
0
 62
7
 10
99.275691161395031
 20
90.329028884959541
 70
0
  0
VERTEX
  5
1AAA
  8
0
 62
7
 10
99.148911647537815
 20
89.820532791336689
 70
0
  0
VERTEX
  5
1AAB
  8
0
 62
7
 10
99.106192463520728
 20
89.311864442939566
 70
0
  0
VERTEX
  5
1AAC
  8
0
 62
7
 10
99.106192463520728
 20
89.27069555189081
 70
0
  0
VERTEX
  5
1AAD
  8
0
 62
7
 10
99.022132133680643
 20
88.762199458267943
 70
0
  0
VERTEX
  5
1AAE
  8
0
 62
7
 10
99.022132133680643
 20
87.154028885753291
 70
0
  0
VERTEX
  5
1AAF
  8
0
 62
7
 10
99.06485131769773
 20
86.645532792130425
 70
0
  0
VERTEX
  5
1AB0
  8
0
 62
7
 10
99.106192463520728
 20
86.1382424819274
 70
0
  0
VERTEX
  5
1AB1
  8
0
 62
7
 10
99.191630831554946
 20
85.629918643078781
 70
0
  0
VERTEX
  5
1AB2
  8
0
 62
7
 10
99.275691161395031
 20
85.121250294681644
 70
0
  0
VERTEX
  5
1AB3
  8
0
 62
7
 10
99.275691161395031
 20
85.079909148858661
 70
0
  0
VERTEX
  5
1AB4
  8
0
 62
7
 10
99.4024706752522
 20
84.614304494027124
 70
0
  0
VERTEX
  5
1AB5
  8
0
 62
7
 10
99.5292501891094
 20
84.1059806551785
 70
0
  0
VERTEX
  5
1AB6
  8
0
 62
7
 10
99.5292501891094
 20
84.062916961612885
 70
0
  0
VERTEX
  5
1AB7
  8
0
 62
7
 10
99.6987488869837
 20
83.598690344975466
 70
0
  0
VERTEX
  5
1AB8
  8
0
 62
7
 10
99.868247584857983
 20
83.132913435369716
 70
0
  0
VERTEX
  5
1AB9
  8
0
 62
7
 10
99.868247584857983
 20
83.090366506126855
 70
0
  0
VERTEX
  5
1ABA
  8
0
 62
7
 10
100.0804654667494
 20
82.666964270989666
 70
0
  0
VERTEX
  5
1ABB
  8
0
 62
7
 10
100.2913053104467
 20
82.201359616158143
 70
0
  0
VERTEX
  5
1ABC
  8
0
 62
7
 10
100.2913053104467
 20
82.158640432141056
 70
0
  0
VERTEX
  5
1ABD
  8
0
 62
7
 10
100.503523192338
 20
81.693035777309518
 70
0
  0
VERTEX
  5
1ABE
  8
0
 62
7
 10
100.7570822200524
 20
81.312697235737943
 70
0
  0
VERTEX
  5
1ABF
  8
0
 62
7
 10
100.7998014040695
 20
81.269633542172329
 70
0
  0
VERTEX
  5
1AC0
  8
0
 62
7
 10
101.0533604317839
 20
80.846575816583652
 70
0
  0
VERTEX
  5
1AC1
  8
0
 62
7
 10
101.30829749769239
 20
80.465031491592214
 70
0
  0
VERTEX
  5
1AC2
  8
0
 62
7
 10
101.34963864351541
 20
80.423690345769216
 70
0
  0
VERTEX
  5
1AC3
  8
0
 62
7
 10
101.6459168552469
 20
80.041973766003537
 70
0
  0
VERTEX
  5
1AC4
  8
0
 62
7
 10
101.9421950669784
 20
79.661635224431961
 70
0
  0
VERTEX
  5
1AC5
  8
0
 62
7
 10
101.9849142509955
 20
79.618916040414859
 70
0
  0
VERTEX
  5
1AC6
  8
0
 62
7
 10
102.28119246272691
 20
79.279918644666282
 70
0
  0
VERTEX
  5
1AC7
  8
0
 62
7
 10
102.6201898584755
 20
78.942299287111808
 70
0
  0
VERTEX
  5
1AC8
  8
0
 62
7
 10
102.6629090424926
 20
78.8995801030947
 70
0
  0
VERTEX
  5
1AC9
  8
0
 62
7
 10
103.0432475840642
 20
78.6033018913632
 70
0
  0
VERTEX
  5
1ACA
  8
0
 62
7
 10
103.3822449798128
 20
78.307023679631726
 70
0
  0
VERTEX
  5
1ACB
  8
0
 62
7
 10
103.42358612563579
 20
78.264304495614624
 70
0
  0
VERTEX
  5
1ACC
  8
0
 62
7
 10
103.8053027054015
 20
77.968026283883148
 70
0
  0
VERTEX
  5
1ACD
  8
0
 62
7
 10
104.18564124697311
 20
77.7142950013945
 70
0
  0
VERTEX
  5
1ACE
  8
0
 62
7
 10
104.22836043099019
 20
77.7142950013945
 70
0
  0
VERTEX
  5
1ACF
  8
0
 62
7
 10
104.6100770107558
 20
77.459702445034523
 70
0
  0
VERTEX
  5
1AD0
  8
0
 62
7
 10
104.99041555232741
 20
77.248690346562967
 70
0
  0
VERTEX
  5
1AD1
  8
0
 62
7
 10
105.07447588216751
 20
77.2059711625459
 70
0
  0
VERTEX
  5
1AD2
  8
0
 62
7
 10
105.4561924619332
 20
76.994959064074322
 70
0
  0
VERTEX
  5
1AD3
  8
0
 62
7
 10
105.87925018752191
 20
76.825632620974289
 70
0
  0
VERTEX
  5
1AD4
  8
0
 62
7
 10
105.921969371539
 20
76.825632620974289
 70
0
  0
VERTEX
  5
1AD5
  8
0
 62
7
 10
106.3450270971276
 20
76.655961668325745
 70
0
  0
VERTEX
  5
1AD6
  8
0
 62
7
 10
106.7680848227163
 20
76.486635225225712
 70
0
  0
SEQEND
  5
1AD7
  8
0
  0
POLYLINE
  5
1AD8
  8
0
 62
7
 66
1
 70
0
 10
0
 20
0
 30
0
  0
VERTEX
  5
1AD9
  8
0
 62
7
 10
112.7790874253802
 20
99.344154750761334
 70
0
  0
VERTEX
  5
1ADA
  8
0
 62
7
 10
112.1865310019173
 20
99.344154750761334
 70
0
  0
VERTEX
  5
1ADB
  8
0
 62
7
 10
111.7207540923115
 20
99.302985859712564
 70
0
  0
VERTEX
  5
1ADC
  8
0
 62
7
 10
111.2976963667228
 20
99.2602666756955
 70
0
  0
VERTEX
  5
1ADD
  8
0
 62
7
 10
110.8319194571171
 20
99.175861836306865
 70
0
  0
VERTEX
  5
1ADE
  8
0
 62
7
 10
110.70513994325989
 20
99.133314907064062
 70
0
  0
VERTEX
  5
1ADF
  8
0
 62
7
 10
110.2820822176712
 20
99.047876539029843
 70
0
  0
VERTEX
  5
1AE0
  8
0
 62
7
 10
109.8163053080654
 20
98.9212692799469
 70
0
  0
VERTEX
  5
1AE1
  8
0
 62
7
 10
109.68952579420819
 20
98.836864440558315
 70
0
  0
VERTEX
  5
1AE2
  8
0
 62
7
 10
109.2650900304254
 20
98.710257181475356
 70
0
  0
VERTEX
  5
1AE3
  8
0
 62
7
 10
108.84203230483671
 20
98.540930738375323
 70
0
  0
VERTEX
  5
1AE4
  8
0
 62
7
 10
108.6725336069624
 20
98.455147860792636
 70
0
  0
VERTEX
  5
1AE5
  8
0
 62
7
 10
108.2921950653909
 20
98.2858214176926
 70
0
  0
VERTEX
  5
1AE6
  8
0
 62
7
 10
107.91047848562521
 20
98.032262389978214
 70
0
  0
VERTEX
  5
1AE7
  8
0
 62
7
 10
107.742357825945
 20
97.9482020601381
 70
0
  0
VERTEX
  5
1AE8
  8
0
 62
7
 10
107.3606412461793
 20
97.6932649942296
 70
0
  0
VERTEX
  5
1AE9
  8
0
 62
7
 10
106.9803027046077
 20
97.439533711740978
 70
0
  0
VERTEX
  5
1AEA
  8
0
 62
7
 10
106.85352319075049
 20
97.355645636675163
 70
0
  0
VERTEX
  5
1AEB
  8
0
 62
7
 10
106.514525795002
 20
97.0591951701694
 70
0
  0
VERTEX
  5
1AEC
  8
0
 62
7
 10
106.13280921523631
 20
96.76291695843787
 70
0
  0
VERTEX
  5
1AED
  8
0
 62
7
 10
106.00602970137911
 20
96.634931661160863
 70
0
  0
VERTEX
  5
1AEE
  8
0
 62
7
 10
105.7097514896476
 20
96.297312303606361
 70
0
  0
VERTEX
  5
1AEF
  8
0
 62
7
 10
105.370754093899
 20
96.000861837100615
 70
0
  0
VERTEX
  5
1AF0
  8
0
 62
7
 10
105.24397458004179
 20
95.874254578017712
 70
0
  0
VERTEX
  5
1AF1
  8
0
 62
7
 10
104.9476963683103
 20
95.492537998252033
 70
0
  0
VERTEX
  5
1AF2
  8
0
 62
7
 10
104.6514181565789
 20
95.112199456680443
 70
0
  0
VERTEX
  5
1AF3
  8
0
 62
7
 10
104.5673578267388
 20
94.983869649854853
 70
0
  0
VERTEX
  5
1AF4
  8
0
 62
7
 10
104.3137987990244
 20
94.603531108283264
 70
0
  0
VERTEX
  5
1AF5
  8
0
 62
7
 10
104.0588617331159
 20
94.1806456374689
 70
0
  0
VERTEX
  5
1AF6
  8
0
 62
7
 10
103.97480140327581
 20
94.053866123611684
 70
0
  0
VERTEX
  5
1AF7
  8
0
 62
7
 10
103.7198643373673
 20
93.630980652797291
 70
0
  0
VERTEX
  5
1AF8
  8
0
 62
7
 10
103.50902449367
 20
93.206200379465955
 70
0
  0
VERTEX
  5
1AF9
  8
0
 62
7
 10
103.42358612563579
 20
93.079593120383038
 70
0
  0
VERTEX
  5
1AFA
  8
0
 62
7
 10
103.21274628193849
 20
92.613988465551515
 70
0
  0
VERTEX
  5
1AFB
  8
0
 62
7
 10
103.0432475840642
 20
92.106698155348454
 70
0
  0
VERTEX
  5
1AFC
  8
0
 62
7
 10
103.0005284000471
 20
91.9799186414913
 70
0
  0
VERTEX
  5
1AFD
  8
0
 62
7
 10
102.8310297021728
 20
91.514313986659772
 70
0
  0
VERTEX
  5
1AFE
  8
0
 62
7
 10
102.7042501883156
 20
91.048364822279709
 70
0
  0
VERTEX
  5
1AFF
  8
0
 62
7
 10
102.6629090424926
 20
90.92158530842255
 70
0
  0
VERTEX
  5
1B00
  8
0
 62
7
 10
102.5774706744585
 20
90.412916960025356
 70
0
  0
VERTEX
  5
1B01
  8
0
 62
7
 10
102.4506911606013
 20
89.904593121176774
 70
0
  0
VERTEX
  5
1B02
  8
0
 62
7
 10
102.4506911606013
 20
89.777985862093828
 70
0
  0
VERTEX
  5
1B03
  8
0
 62
7
 10
102.3666308307612
 20
89.27069555189081
 70
0
  0
VERTEX
  5
1B04
  8
0
 62
7
 10
102.32391164674409
 20
88.762199458267943
 70
0
  0
VERTEX
  5
1B05
  8
0
 62
7
 10
102.32391164674409
 20
88.635247689636458
 70
0
  0
VERTEX
  5
1B06
  8
0
 62
7
 10
102.28119246272691
 20
88.126923850787875
 70
0
  0
VERTEX
  5
1B07
  8
0
 62
7
 10
102.28119246272691
 20
87.323699838401865
 70
0
  0
VERTEX
  5
1B08
  8
0
 62
7
 10
102.32391164674409
 20
86.815031490004714
 70
0
  0
VERTEX
  5
1B09
  8
0
 62
7
 10
102.3666308307612
 20
86.306535396381875
 70
0
  0
VERTEX
  5
1B0A
  8
0
 62
7
 10
102.3666308307612
 20
86.1795836277504
 70
0
  0
VERTEX
  5
1B0B
  8
0
 62
7
 10
102.4506911606013
 20
85.672637827095883
 70
0
  0
VERTEX
  5
1B0C
  8
0
 62
7
 10
102.53475149044139
 20
85.164313988247258
 70
0
  0
VERTEX
  5
1B0D
  8
0
 62
7
 10
102.5774706744585
 20
85.037362219615787
 70
0
  0
VERTEX
  5
1B0E
  8
0
 62
7
 10
102.6629090424926
 20
84.528866125992948
 70
0
  0
VERTEX
  5
1B0F
  8
0
 62
7
 10
102.8310297021728
 20
84.062916961612885
 70
0
  0
VERTEX
  5
1B10
  8
0
 62
7
 10
102.8310297021728
 20
83.936309702529968
 70
0
  0
VERTEX
  5
1B11
  8
0
 62
7
 10
103.0432475840642
 20
83.429363901875462
 70
0
  0
VERTEX
  5
1B12
  8
0
 62
7
 10
103.21274628193849
 20
82.9634147374954
 70
0
  0
VERTEX
  5
1B13
  8
0
 62
7
 10
103.2554654659556
 20
82.836635223638226
 70
0
  0
VERTEX
  5
1B14
  8
0
 62
7
 10
103.4663053096529
 20
82.3710305688067
 70
0
  0
VERTEX
  5
1B15
  8
0
 62
7
 10
103.6785231915443
 20
81.947628333669485
 70
0
  0
VERTEX
  5
1B16
  8
0
 62
7
 10
103.7198643373673
 20
81.819643036392463
 70
0
  0
VERTEX
  5
1B17
  8
0
 62
7
 10
103.97480140327581
 20
81.396585310803758
 70
0
  0
VERTEX
  5
1B18
  8
0
 62
7
 10
104.22836043099019
 20
80.930980655972263
 70
0
  0
VERTEX
  5
1B19
  8
0
 62
7
 10
104.3137987990244
 20
80.804028887340834
 70
0
  0
VERTEX
  5
1B1A
  8
0
 62
7
 10
104.6100770107558
 20
80.423690345769216
 70
0
  0
VERTEX
  5
1B1B
  8
0
 62
7
 10
104.8636360384702
 20
80.041973766003537
 70
0
  0
VERTEX
  5
1B1C
  8
0
 62
7
 10
104.99041555232741
 20
79.9153665069206
 70
0
  0
VERTEX
  5
1B1D
  8
0
 62
7
 10
105.2866937640589
 20
79.53502796534903
 70
0
  0
VERTEX
  5
1B1E
  8
0
 62
7
 10
105.6256911598075
 20
79.238749753617554
 70
0
  0
VERTEX
  5
1B1F
  8
0
 62
7
 10
105.7097514896476
 20
79.110247692017737
 70
0
  0
VERTEX
  5
1B20
  8
0
 62
7
 10
106.04874888539619
 20
78.772628334463235
 70
0
  0
VERTEX
  5
1B21
  8
0
 62
7
 10
106.3877462811448
 20
78.476694632280271
 70
0
  0
VERTEX
  5
1B22
  8
0
 62
7
 10
106.514525795002
 20
78.349742863648814
 70
0
  0
VERTEX
  5
1B23
  8
0
 62
7
 10
106.89486433657351
 20
78.094633542966079
 70
0
  0
VERTEX
  5
1B24
  8
0
 62
7
 10
107.2765809163392
 20
77.798699840783115
 70
0
  0
VERTEX
  5
1B25
  8
0
 62
7
 10
107.4033604301964
 20
77.7142950013945
 70
0
  0
VERTEX
  5
1B26
  8
0
 62
7
 10
107.783698971768
 20
77.459702445034523
 70
0
  0
VERTEX
  5
1B27
  8
0
 62
7
 10
108.1654155515337
 20
77.248690346562967
 70
0
  0
VERTEX
  5
1B28
  8
0
 62
7
 10
108.334914249408
 20
77.163251978528791
 70
0
  0
VERTEX
  5
1B29
  8
0
 62
7
 10
108.75797197499671
 20
76.994959064074322
 70
0
  0
VERTEX
  5
1B2A
  8
0
 62
7
 10
109.1383105165682
 20
76.825632620974289
 70
0
  0
VERTEX
  5
1B2B
  8
0
 62
7
 10
109.3078092144425
 20
76.740366507714356
 70
0
  0
VERTEX
  5
1B2C
  8
0
 62
7
 10
109.68952579420819
 20
76.570695555065811
 70
0
  0
VERTEX
  5
1B2D
  8
0
 62
7
 10
110.155302703814
 20
76.44391604120861
 70
0
  0
VERTEX
  5
1B2E
  8
0
 62
7
 10
110.2820822176712
 20
76.402747150159882
 70
0
  0
VERTEX
  5
1B2F
  8
0
 62
7
 10
110.70513994325989
 20
76.316964272577167
 70
0
  0
VERTEX
  5
1B30
  8
0
 62
7
 10
111.1709168528657
 20
76.233076197511338
 70
0
  0
VERTEX
  5
1B31
  8
0
 62
7
 10
111.34041555073991
 20
76.190357013494236
 70
0
  0
VERTEX
  5
1B32
  8
0
 62
7
 10
111.7634732763286
 20
76.106296683654136
 70
0
  0
VERTEX
  5
1B33
  8
0
 62
7
 10
112.1865310019173
 20
76.106296683654136
 70
0
  0
VERTEX
  5
1B34
  8
0
 62
7
 10
112.652307911523
 20
76.0637497544113
 70
0
  0
VERTEX
  5
1B35
  8
0
 62
7
 10
112.8218066093974
 20
76.0637497544113
 70
0
  0
VERTEX
  5
1B36
  8
0
 62
7
 10
113.244864334986
 20
76.106296683654136
 70
0
  0
SEQEND
  5
1B37
  8
0
  0
POLYLINE
  5
1B38
  8
0
 62
7
 66
1
 70
0
 10
0
 20
0
 30
0
  0
VERTEX
  5
1B39
  8
0
 62
7
 10
116.0381477544266
 20
98.455147860792636
 70
0
  0
VERTEX
  5
1B3A
  8
0
 62
7
 10
115.1493131192321
 20
98.455147860792636
 70
0
  0
VERTEX
  5
1B3B
  8
0
 62
7
 10
115.106593935215
 20
98.41397896974388
 70
0
  0
VERTEX
  5
1B3C
  8
0
 62
7
 10
114.7262553936435
 20
98.3712597857268
 70
0
  0
VERTEX
  5
1B3D
  8
0
 62
7
 10
114.26047848403771
 20
98.2858214176926
 70
0
  0
VERTEX
  5
1B3E
  8
0
 62
7
 10
114.2177593000206
 20
98.2858214176926
 70
0
  0
VERTEX
  5
1B3F
  8
0
 62
7
 10
113.837420758449
 20
98.158869649061117
 70
0
  0
VERTEX
  5
1B40
  8
0
 62
7
 10
113.37164384884321
 20
98.032262389978214
 70
0
  0
VERTEX
  5
1B41
  8
0
 62
7
 10
113.3289246648261
 20
98.032262389978214
 70
0
  0
VERTEX
  5
1B42
  8
0
 62
7
 10
112.9485861232546
 20
97.862935946878167
 70
0
  0
VERTEX
  5
1B43
  8
0
 62
7
 10
112.56686954348891
 20
97.6932649942296
 70
0
  0
VERTEX
  5
1B44
  8
0
 62
7
 10
112.48280921364881
 20
97.651923848406625
 70
0
  0
VERTEX
  5
1B45
  8
0
 62
7
 10
112.1024706720772
 20
97.439533711740978
 70
0
  0
VERTEX
  5
1B46
  8
0
 62
7
 10
111.7207540923115
 20
97.270207268640945
 70
0
  0
VERTEX
  5
1B47
  8
0
 62
7
 10
111.67803490829441
 20
97.228866122817919
 70
0
  0
VERTEX
  5
1B48
  8
0
 62
7
 10
111.2976963667228
 20
96.973929056909455
 70
0
  0
VERTEX
  5
1B49
  8
0
 62
7
 10
110.9159797869571
 20
96.677650845177936
 70
0
  0
VERTEX
  5
1B4A
  8
0
 62
7
 10
110.53564124538561
 20
96.38120037867219
 70
0
  0
VERTEX
  5
1B4B
  8
0
 62
7
 10
110.196643849637
 20
96.085266676489255
 70
0
  0
VERTEX
  5
1B4C
  8
0
 62
7
 10
110.155302703814
 20
96.042202982923641
 70
0
  0
VERTEX
  5
1B4D
  8
0
 62
7
 10
109.8163053080654
 20
95.746269280740648
 70
0
  0
VERTEX
  5
1B4E
  8
0
 62
7
 10
109.52002709633391
 20
95.365930739169073
 70
0
  0
VERTEX
  5
1B4F
  8
0
 62
7
 10
109.1810297005853
 20
94.983869649854853
 70
0
  0
VERTEX
  5
1B50
  8
0
 62
7
 10
108.927470672871
 20
94.603531108283264
 70
0
  0
VERTEX
  5
1B51
  8
0
 62
7
 10
108.88475148885389
 20
94.560984179040474
 70
0
  0
VERTEX
  5
1B52
  8
0
 62
7
 10
108.63119246113951
 20
94.137926453451769
 70
0
  0
VERTEX
  5
1B53
  8
0
 62
7
 10
108.376255395231
 20
93.7148687278631
 70
0
  0
VERTEX
  5
1B54
  8
0
 62
7
 10
108.1226963675166
 20
93.249264073031611
 70
0
  0
VERTEX
  5
1B55
  8
0
 62
7
 10
107.91047848562521
 20
92.825861837894365
 70
0
  0
VERTEX
  5
1B56
  8
0
 62
7
 10
107.69963864192791
 20
92.360257183062856
 70
0
  0
VERTEX
  5
1B57
  8
0
 62
7
 10
107.4874207600365
 20
91.851933344214274
 70
0
  0
VERTEX
  5
1B58
  8
0
 62
7
 10
107.3606412461793
 20
91.3446430340112
 70
0
  0
VERTEX
  5
1B59
  8
0
 62
7
 10
107.191142548305
 20
90.8788661244054
 70
0
  0
VERTEX
  5
1B5A
  8
0
 62
7
 10
107.1070822184649
 20
90.3701977760083
 70
0
  0
VERTEX
  5
1B5B
  8
0
 62
7
 10
106.9803027046077
 20
89.820532791336689
 70
0
  0
VERTEX
  5
1B5C
  8
0
 62
7
 10
106.89486433657351
 20
89.311864442939566
 70
0
  0
VERTEX
  5
1B5D
  8
0
 62
7
 10
106.85352319075049
 20
88.804918642285031
 70
0
  0
VERTEX
  5
1B5E
  8
0
 62
7
 10
106.81080400673341
 20
88.253531109870778
 70
0
  0
VERTEX
  5
1B5F
  8
0
 62
7
 10
106.81080400673341
 20
87.237916960819121
 70
0
  0
VERTEX
  5
1B60
  8
0
 62
7
 10
106.85352319075049
 20
86.688251976147541
 70
0
  0
VERTEX
  5
1B61
  8
0
 62
7
 10
106.89486433657351
 20
86.1795836277504
 70
0
  0
VERTEX
  5
1B62
  8
0
 62
7
 10
106.9803027046077
 20
85.629918643078781
 70
0
  0
VERTEX
  5
1B63
  8
0
 62
7
 10
107.1070822184649
 20
85.121250294681644
 70
0
  0
VERTEX
  5
1B64
  8
0
 62
7
 10
107.191142548305
 20
84.614304494027124
 70
0
  0
VERTEX
  5
1B65
  8
0
 62
7
 10
107.3606412461793
 20
84.1059806551785
 70
0
  0
VERTEX
  5
1B66
  8
0
 62
7
 10
107.4874207600365
 20
83.640031490798464
 70
0
  0
VERTEX
  5
1B67
  8
0
 62
7
 10
107.69963864192791
 20
83.174254581192713
 70
0
  0
VERTEX
  5
1B68
  8
0
 62
7
 10
107.91047848562521
 20
82.708649926361176
 70
0
  0
VERTEX
  5
1B69
  8
0
 62
7
 10
107.91047848562521
 20
82.666964270989666
 70
0
  0
VERTEX
  5
1B6A
  8
0
 62
7
 10
108.1226963675166
 20
82.201359616158143
 70
0
  0
VERTEX
  5
1B6B
  8
0
 62
7
 10
108.376255395231
 20
81.778301890569466
 70
0
  0
VERTEX
  5
1B6C
  8
0
 62
7
 10
108.63119246113951
 20
81.3538661267867
 70
0
  0
VERTEX
  5
1B6D
  8
0
 62
7
 10
108.88475148885389
 20
80.930980655972263
 70
0
  0
VERTEX
  5
1B6E
  8
0
 62
7
 10
108.927470672871
 20
80.930980655972263
 70
0
  0
VERTEX
  5
1B6F
  8
0
 62
7
 10
109.1810297005853
 20
80.550297604852148
 70
0
  0
VERTEX
  5
1B70
  8
0
 62
7
 10
109.52002709633391
 20
80.168581025086468
 70
0
  0
VERTEX
  5
1B71
  8
0
 62
7
 10
109.52002709633391
 20
80.127412134037741
 70
0
  0
VERTEX
  5
1B72
  8
0
 62
7
 10
109.8163053080654
 20
79.788414738289163
 70
0
  0
VERTEX
  5
1B73
  8
0
 62
7
 10
110.155302703814
 20
79.449245087766315
 70
0
  0
VERTEX
  5
1B74
  8
0
 62
7
 10
110.196643849637
 20
79.406698158523483
 70
0
  0
VERTEX
  5
1B75
  8
0
 62
7
 10
110.53564124538561
 20
79.110247692017737
 70
0
  0
VERTEX
  5
1B76
  8
0
 62
7
 10
110.9159797869571
 20
78.814313989834773
 70
0
  0
VERTEX
  5
1B77
  8
0
 62
7
 10
110.9159797869571
 20
78.772628334463235
 70
0
  0
VERTEX
  5
1B78
  8
0
 62
7
 10
111.2976963667228
 20
78.518035778103268
 70
0
  0
VERTEX
  5
1B79
  8
0
 62
7
 10
111.67803490829441
 20
78.264304495614624
 70
0
  0
VERTEX
  5
1B7A
  8
0
 62
7
 10
111.7207540923115
 20
78.264304495614624
 70
0
  0
VERTEX
  5
1B7B
  8
0
 62
7
 10
112.1024706720772
 20
78.01074546790025
 70
0
  0
VERTEX
  5
1B7C
  8
0
 62
7
 10
112.48280921364881
 20
77.841246770025947
 70
0
  0
VERTEX
  5
1B7D
  8
0
 62
7
 10
112.56686954348891
 20
77.798699840783115
 70
0
  0
VERTEX
  5
1B7E
  8
0
 62
7
 10
112.9485861232546
 20
77.62902888813457
 70
0
  0
VERTEX
  5
1B7F
  8
0
 62
7
 10
113.3289246648261
 20
77.459702445034523
 70
0
  0
VERTEX
  5
1B80
  8
0
 62
7
 10
113.37164384884321
 20
77.459702445034523
 70
0
  0
VERTEX
  5
1B81
  8
0
 62
7
 10
113.837420758449
 20
77.332578421628824
 70
0
  0
VERTEX
  5
1B82
  8
0
 62
7
 10
114.2177593000206
 20
77.2059711625459
 70
0
  0
VERTEX
  5
1B83
  8
0
 62
7
 10
114.26047848403771
 20
77.2059711625459
 70
0
  0
VERTEX
  5
1B84
  8
0
 62
7
 10
114.7262553936435
 20
77.122083087480036
 70
0
  0
VERTEX
  5
1B85
  8
0
 62
7
 10
115.106593935215
 20
77.079363903462962
 70
0
  0
VERTEX
  5
1B86
  8
0
 62
7
 10
115.1493131192321
 20
77.079363903462962
 70
0
  0
VERTEX
  5
1B87
  8
0
 62
7
 10
115.6150900288379
 20
77.03630020989732
 70
0
  0
VERTEX
  5
1B88
  8
0
 62
7
 10
116.0381477544266
 20
76.994959064074322
 70
0
  0
VERTEX
  5
1B89
  8
0
 62
7
 10
116.4198643341923
 20
77.03630020989732
 70
0
  0
VERTEX
  5
1B8A
  8
0
 62
7
 10
116.88564124379811
 20
77.079363903462962
 70
0
  0
VERTEX
  5
1B8B
  8
0
 62
7
 10
116.9269823896211
 20
77.079363903462962
 70
0
  0
VERTEX
  5
1B8C
  8
0
 62
7
 10
117.35004011520969
 20
77.122083087480036
 70
0
  0
VERTEX
  5
1B8D
  8
0
 62
7
 10
117.7744758789925
 20
77.2059711625459
 70
0
  0
VERTEX
  5
1B8E
  8
0
 62
7
 10
117.815472515267
 20
77.2059711625459
 70
0
  0
VERTEX
  5
1B8F
  8
0
 62
7
 10
118.2402527885983
 20
77.332578421628824
 70
0
  0
VERTEX
  5
1B90
  8
0
 62
7
 10
118.663310514187
 20
77.459702445034523
 70
0
  0
VERTEX
  5
1B91
  8
0
 62
7
 10
118.70465166001
 20
77.459702445034523
 70
0
  0
VERTEX
  5
1B92
  8
0
 62
7
 10
119.0863682397756
 20
77.62902888813457
 70
0
  0
VERTEX
  5
1B93
  8
0
 62
7
 10
119.5094259653643
 20
77.798699840783115
 70
0
  0
VERTEX
  5
1B94
  8
0
 62
7
 10
119.5521451493814
 20
77.841246770025947
 70
0
  0
VERTEX
  5
1B95
  8
0
 62
7
 10
119.93213918140449
 20
78.01074546790025
 70
0
  0
VERTEX
  5
1B96
  8
0
 62
7
 10
120.3142002707187
 20
78.264304495614624
 70
0
  0
VERTEX
  5
1B97
  8
0
 62
7
 10
120.3555414165417
 20
78.264304495614624
 70
0
  0
VERTEX
  5
1B98
  8
0
 62
7
 10
120.73725799630741
 20
78.518035778103268
 70
0
  0
VERTEX
  5
1B99
  8
0
 62
7
 10
121.117596537879
 20
78.772628334463235
 70
0
  0
VERTEX
  5
1B9A
  8
0
 62
7
 10
121.117596537879
 20
78.814313989834773
 70
0
  0
VERTEX
  5
1B9B
  8
0
 62
7
 10
121.4993131176447
 20
79.110247692017737
 70
0
  0
VERTEX
  5
1B9C
  8
0
 62
7
 10
121.8383105133932
 20
79.406698158523483
 70
0
  0
VERTEX
  5
1B9D
  8
0
 62
7
 10
121.87965165921619
 20
79.449245087766315
 70
0
  0
VERTEX
  5
1B9E
  8
0
 62
7
 10
122.2186490549648
 20
79.788414738289163
 70
0
  0
VERTEX
  5
1B9F
  8
0
 62
7
 10
122.5149272666963
 20
80.127412134037741
 70
0
  0
VERTEX
  5
1BA0
  8
0
 62
7
 10
122.5149272666963
 20
80.168581025086468
 70
0
  0
VERTEX
  5
1BA1
  8
0
 62
7
 10
122.8539246624449
 20
80.550297604852148
 70
0
  0
VERTEX
  5
1BA2
  8
0
 62
7
 10
123.1502028741764
 20
80.930980655972263
 70
0
  0
VERTEX
  5
1BA3
  8
0
 62
7
 10
123.4037619018908
 20
81.3538661267867
 70
0
  0
VERTEX
  5
1BA4
  8
0
 62
7
 10
123.65732092960511
 20
81.778301890569466
 70
0
  0
VERTEX
  5
1BA5
  8
0
 62
7
 10
123.9122579955136
 20
82.201359616158143
 70
0
  0
VERTEX
  5
1BA6
  8
0
 62
7
 10
124.1654725136795
 20
82.666964270989666
 70
0
  0
VERTEX
  5
1BA7
  8
0
 62
7
 10
124.1654725136795
 20
82.708649926361176
 70
0
  0
VERTEX
  5
1BA8
  8
0
 62
7
 10
124.37803490511941
 20
83.174254581192713
 70
0
  0
VERTEX
  5
1BA9
  8
0
 62
7
 10
124.54615556479961
 20
83.640031490798464
 70
0
  0
VERTEX
  5
1BAA
  8
0
 62
7
 10
124.6743131168509
 20
84.1059806551785
 70
0
  0
VERTEX
  5
1BAB
  8
0
 62
7
 10
124.8424337765311
 20
84.614304494027124
 70
0
  0
VERTEX
  5
1BAC
  8
0
 62
7
 10
124.9705913285824
 20
85.121250294681644
 70
0
  0
VERTEX
  5
1BAD
  8
0
 62
7
 10
125.0546516584225
 20
85.629918643078781
 70
0
  0
VERTEX
  5
1BAE
  8
0
 62
7
 10
125.1387119882626
 20
86.1795836277504
 70
0
  0
VERTEX
  5
1BAF
  8
0
 62
7
 10
125.1814311722797
 20
86.688251976147541
 70
0
  0
VERTEX
  5
1BB0
  8
0
 62
7
 10
125.22380584674821
 20
87.237916960819121
 70
0
  0
VERTEX
  5
1BB1
  8
0
 62
7
 10
125.26686954031391
 20
87.7465853092163
 70
0
  0
VERTEX
  5
1BB2
  8
0
 62
7
 10
125.22380584674821
 20
88.253531109870778
 70
0
  0
VERTEX
  5
1BB3
  8
0
 62
7
 10
125.1814311722797
 20
88.804918642285031
 70
0
  0
VERTEX
  5
1BB4
  8
0
 62
7
 10
125.1387119882626
 20
89.311864442939566
 70
0
  0
VERTEX
  5
1BB5
  8
0
 62
7
 10
125.0546516584225
 20
89.820532791336689
 70
0
  0
VERTEX
  5
1BB6
  8
0
 62
7
 10
124.9705913285824
 20
90.3701977760083
 70
0
  0
VERTEX
  5
1BB7
  8
0
 62
7
 10
124.8424337765311
 20
90.8788661244054
 70
0
  0
VERTEX
  5
1BB8
  8
0
 62
7
 10
124.6743131168509
 20
91.3446430340112
 70
0
  0
VERTEX
  5
1BB9
  8
0
 62
7
 10
124.54615556479961
 20
91.851933344214274
 70
0
  0
VERTEX
  5
1BBA
  8
0
 62
7
 10
124.37803490511941
 20
92.360257183062856
 70
0
  0
VERTEX
  5
1BBB
  8
0
 62
7
 10
124.1654725136795
 20
92.825861837894365
 70
0
  0
VERTEX
  5
1BBC
  8
0
 62
7
 10
123.9122579955136
 20
93.249264073031611
 70
0
  0
VERTEX
  5
1BBD
  8
0
 62
7
 10
123.65732092960511
 20
93.7148687278631
 70
0
  0
VERTEX
  5
1BBE
  8
0
 62
7
 10
123.4037619018908
 20
94.137926453451769
 70
0
  0
VERTEX
  5
1BBF
  8
0
 62
7
 10
123.1502028741764
 20
94.560984179040474
 70
0
  0
VERTEX
  5
1BC0
  8
0
 62
7
 10
123.1502028741764
 20
94.603531108283264
 70
0
  0
VERTEX
  5
1BC1
  8
0
 62
7
 10
122.8539246624449
 20
94.983869649854853
 70
0
  0
VERTEX
  5
1BC2
  8
0
 62
7
 10
122.5149272666963
 20
95.365930739169073
 70
0
  0
VERTEX
  5
1BC3
  8
0
 62
7
 10
122.2186490549648
 20
95.746269280740648
 70
0
  0
VERTEX
  5
1BC4
  8
0
 62
7
 10
121.87965165921619
 20
96.042202982923641
 70
0
  0
VERTEX
  5
1BC5
  8
0
 62
7
 10
121.8383105133932
 20
96.085266676489255
 70
0
  0
VERTEX
  5
1BC6
  8
0
 62
7
 10
121.4993131176447
 20
96.38120037867219
 70
0
  0
VERTEX
  5
1BC7
  8
0
 62
7
 10
121.117596537879
 20
96.677650845177936
 70
0
  0
VERTEX
  5
1BC8
  8
0
 62
7
 10
120.73725799630741
 20
96.973929056909455
 70
0
  0
VERTEX
  5
1BC9
  8
0
 62
7
 10
120.3555414165417
 20
97.228866122817919
 70
0
  0
VERTEX
  5
1BCA
  8
0
 62
7
 10
120.3142002707187
 20
97.270207268640945
 70
0
  0
VERTEX
  5
1BCB
  8
0
 62
7
 10
119.93213918140449
 20
97.439533711740978
 70
0
  0
VERTEX
  5
1BCC
  8
0
 62
7
 10
119.5521451493814
 20
97.651923848406625
 70
0
  0
VERTEX
  5
1BCD
  8
0
 62
7
 10
119.5094259653643
 20
97.6932649942296
 70
0
  0
VERTEX
  5
1BCE
  8
0
 62
7
 10
119.0863682397756
 20
97.862935946878167
 70
0
  0
VERTEX
  5
1BCF
  8
0
 62
7
 10
118.70465166001
 20
98.032262389978214
 70
0
  0
VERTEX
  5
1BD0
  8
0
 62
7
 10
118.663310514187
 20
98.032262389978214
 70
0
  0
VERTEX
  5
1BD1
  8
0
 62
7
 10
118.2402527885983
 20
98.158869649061117
 70
0
  0
VERTEX
  5
1BD2
  8
0
 62
7
 10
117.815472515267
 20
98.2858214176926
 70
0
  0
VERTEX
  5
1BD3
  8
0
 62
7
 10
117.7744758789925
 20
98.2858214176926
 70
0
  0
VERTEX
  5
1BD4
  8
0
 62
7
 10
117.35004011520969
 20
98.3712597857268
 70
0
  0
VERTEX
  5
1BD5
  8
0
 62
7
 10
116.9269823896211
 20
98.41397896974388
 70
0
  0
VERTEX
  5
1BD6
  8
0
 62
7
 10
116.88564124379811
 20
98.455147860792636
 70
0
  0
VERTEX
  5
1BD7
  8
0
 62
7
 10
116.0381477544266
 20
98.455147860792636
 70
0
  0
SEQEND
  5
1BD8
  8
0
  0
POLYLINE
  5
1BD9
  8
0
 62
7
 66
1
 70
0
 10
0
 20
0
 30
0
  0
VERTEX
  5
1BDA
  8
0
 62
7
 10
115.7845887267122
 20
98.455147860792636
 70
0
  0
VERTEX
  5
1BDB
  8
0
 62
7
 10
115.7845887267122
 20
98.455147860792636
 70
0
  0
SEQEND
  5
1BDC
  8
0
  0
POLYLINE
  5
1BDD
  8
0
 62
7
 66
1
 70
0
 10
0
 20
0
 30
0
  0
VERTEX
  5
1BDE
  8
0
 62
7
 10
115.9113682405694
 20
97.6932649942296
 70
0
  0
VERTEX
  5
1BDF
  8
0
 62
7
 10
115.5310296989978
 20
97.6932649942296
 70
0
  0
VERTEX
  5
1BE0
  8
0
 62
7
 10
115.1493131192321
 20
97.651923848406625
 70
0
  0
VERTEX
  5
1BE1
  8
0
 62
7
 10
115.106593935215
 20
97.651923848406625
 70
0
  0
VERTEX
  5
1BE2
  8
0
 62
7
 10
114.7262553936435
 20
97.566485480372421
 70
0
  0
VERTEX
  5
1BE3
  8
0
 62
7
 10
114.30319766805481
 20
97.525316589323666
 70
0
  0
VERTEX
  5
1BE4
  8
0
 62
7
 10
114.26047848403771
 20
97.482597405306592
 70
0
  0
VERTEX
  5
1BE5
  8
0
 62
7
 10
113.8801399424661
 20
97.396814527723848
 70
0
  0
VERTEX
  5
1BE6
  8
0
 62
7
 10
113.49842336270039
 20
97.270207268640945
 70
0
  0
VERTEX
  5
1BE7
  8
0
 62
7
 10
113.45570417868331
 20
97.270207268640945
 70
0
  0
VERTEX
  5
1BE8
  8
0
 62
7
 10
113.0753656371117
 20
97.100536315992372
 70
0
  0
VERTEX
  5
1BE9
  8
0
 62
7
 10
112.6950270955402
 20
96.931209872892325
 70
0
  0
VERTEX
  5
1BEA
  8
0
 62
7
 10
112.652307911523
 20
96.931209872892325
 70
0
  0
VERTEX
  5
1BEB
  8
0
 62
7
 10
112.2705913317574
 20
96.76291695843787
 70
0
  0
VERTEX
  5
1BEC
  8
0
 62
7
 10
111.9329719742029
 20
96.550871331320764
 70
0
  0
VERTEX
  5
1BED
  8
0
 62
7
 10
111.8475336061687
 20
96.5081521473037
 70
0
  0
VERTEX
  5
1BEE
  8
0
 62
7
 10
111.55125539443721
 20
96.297312303606361
 70
0
  0
VERTEX
  5
1BEF
  8
0
 62
7
 10
111.1709168528657
 20
96.042202982923641
 70
0
  0
VERTEX
  5
1BF0
  8
0
 62
7
 10
111.1709168528657
 20
96.000861837100615
 70
0
  0
VERTEX
  5
1BF1
  8
0
 62
7
 10
110.8319194571171
 20
95.746269280740648
 70
0
  0
VERTEX
  5
1BF2
  8
0
 62
7
 10
110.4929220613685
 20
95.4498188142349
 70
0
  0
VERTEX
  5
1BF3
  8
0
 62
7
 10
110.451236405997
 20
95.4086499231862
 70
0
  0
VERTEX
  5
1BF4
  8
0
 62
7
 10
110.155302703814
 20
95.112199456680443
 70
0
  0
VERTEX
  5
1BF5
  8
0
 62
7
 10
109.85764645388841
 20
94.773202060931851
 70
0
  0
VERTEX
  5
1BF6
  8
0
 62
7
 10
109.8163053080654
 20
94.773202060931851
 70
0
  0
VERTEX
  5
1BF7
  8
0
 62
7
 10
109.5613682421569
 20
94.434204665183245
 70
0
  0
VERTEX
  5
1BF8
  8
0
 62
7
 10
109.3078092144425
 20
94.0952072694347
 70
0
  0
VERTEX
  5
1BF9
  8
0
 62
7
 10
109.2650900304254
 20
94.053866123611684
 70
0
  0
VERTEX
  5
1BFA
  8
0
 62
7
 10
109.011531002711
 20
93.672149543845975
 70
0
  0
VERTEX
  5
1BFB
  8
0
 62
7
 10
108.8006911590138
 20
93.291983257048685
 70
0
  0
VERTEX
  5
1BFC
  8
0
 62
7
 10
108.75797197499671
 20
93.249264073031611
 70
0
  0
VERTEX
  5
1BFD
  8
0
 62
7
 10
108.5457540931052
 20
92.8685810219115
 70
0
  0
VERTEX
  5
1BFE
  8
0
 62
7
 10
108.3345697398594
 20
92.444145258128685
 70
0
  0
VERTEX
  5
1BFF
  8
0
 62
7
 10
108.1654155515337
 20
91.9799186414913
 70
0
  0
VERTEX
  5
1C00
  8
0
 62
7
 10
107.9959168536594
 20
91.555482877708528
 70
0
  0
VERTEX
  5
1C01
  8
0
 62
7
 10
107.82641815578511
 20
91.089533713328478
 70
0
  0
VERTEX
  5
1C02
  8
0
 62
7
 10
107.69963864192791
 20
90.666648242514043
 70
0
  0
VERTEX
  5
1C03
  8
0
 62
7
 10
107.69963864192791
 20
90.625307096691074
 70
0
  0
VERTEX
  5
1C04
  8
0
 62
7
 10
107.5728591280707
 20
90.1595301870853
 70
0
  0
VERTEX
  5
1C05
  8
0
 62
7
 10
107.4874207600365
 20
89.693581022705246
 70
0
  0
VERTEX
  5
1C06
  8
0
 62
7
 10
107.4033604301964
 20
89.1852571838566
 70
0
  0
VERTEX
  5
1C07
  8
0
 62
7
 10
107.3606412461793
 20
88.7196525290251
 70
0
  0
VERTEX
  5
1C08
  8
0
 62
7
 10
107.3606412461793
 20
88.253531109870778
 70
0
  0
VERTEX
  5
1C09
  8
0
 62
7
 10
107.3179220621622
 20
87.7465853092163
 70
0
  0
VERTEX
  5
1C0A
  8
0
 62
7
 10
107.3606412461793
 20
87.280980654384777
 70
0
  0
VERTEX
  5
1C0B
  8
0
 62
7
 10
107.3606412461793
 20
86.77231230598764
 70
0
  0
VERTEX
  5
1C0C
  8
0
 62
7
 10
107.4033604301964
 20
86.306535396381875
 70
0
  0
VERTEX
  5
1C0D
  8
0
 62
7
 10
107.4874207600365
 20
85.841964270195916
 70
0
  0
VERTEX
  5
1C0E
  8
0
 62
7
 10
107.5728591280707
 20
85.3336404313473
 70
0
  0
VERTEX
  5
1C0F
  8
0
 62
7
 10
107.69963864192791
 20
84.867863521741526
 70
0
  0
VERTEX
  5
1C10
  8
0
 62
7
 10
107.82641815578511
 20
84.401914357361477
 70
0
  0
VERTEX
  5
1C11
  8
0
 62
7
 10
107.9959168536594
 20
83.936309702529968
 70
0
  0
VERTEX
  5
1C12
  8
0
 62
7
 10
108.1654155515337
 20
83.470532792924189
 70
0
  0
VERTEX
  5
1C13
  8
0
 62
7
 10
108.3345697398594
 20
83.090366506126855
 70
0
  0
VERTEX
  5
1C14
  8
0
 62
7
 10
108.3345697398594
 20
83.047647322109782
 70
0
  0
VERTEX
  5
1C15
  8
0
 62
7
 10
108.5457540931052
 20
82.666964270989666
 70
0
  0
VERTEX
  5
1C16
  8
0
 62
7
 10
108.75797197499671
 20
82.244078800175231
 70
0
  0
VERTEX
  5
1C17
  8
0
 62
7
 10
108.8006911590138
 20
82.201359616158143
 70
0
  0
VERTEX
  5
1C18
  8
0
 62
7
 10
109.011531002711
 20
81.819643036392463
 70
0
  0
VERTEX
  5
1C19
  8
0
 62
7
 10
109.2650900304254
 20
81.439304494820874
 70
0
  0
VERTEX
  5
1C1A
  8
0
 62
7
 10
109.3078092144425
 20
81.439304494820874
 70
0
  0
VERTEX
  5
1C1B
  8
0
 62
7
 10
109.5613682421569
 20
81.0575879150552
 70
0
  0
VERTEX
  5
1C1C
  8
0
 62
7
 10
109.8163053080654
 20
80.719968557500721
 70
0
  0
VERTEX
  5
1C1D
  8
0
 62
7
 10
109.85764645388841
 20
80.677249373483619
 70
0
  0
VERTEX
  5
1C1E
  8
0
 62
7
 10
110.155302703814
 20
80.380971161752129
 70
0
  0
VERTEX
  5
1C1F
  8
0
 62
7
 10
110.451236405997
 20
80.084692950020624
 70
0
  0
VERTEX
  5
1C20
  8
0
 62
7
 10
110.4929220613685
 20
80.041973766003537
 70
0
  0
VERTEX
  5
1C21
  8
0
 62
7
 10
110.8319194571171
 20
79.745695554272061
 70
0
  0
VERTEX
  5
1C22
  8
0
 62
7
 10
111.1709168528657
 20
79.491964271783417
 70
0
  0
VERTEX
  5
1C23
  8
0
 62
7
 10
111.55125539443721
 20
79.238749753617554
 70
0
  0
VERTEX
  5
1C24
  8
0
 62
7
 10
111.8475336061687
 20
78.9836404329348
 70
0
  0
VERTEX
  5
1C25
  8
0
 62
7
 10
111.9329719742029
 20
78.9836404329348
 70
0
  0
VERTEX
  5
1C26
  8
0
 62
7
 10
112.2705913317574
 20
78.772628334463235
 70
0
  0
VERTEX
  5
1C27
  8
0
 62
7
 10
112.652307911523
 20
78.6033018913632
 70
0
  0
VERTEX
  5
1C28
  8
0
 62
7
 10
112.6950270955402
 20
78.560582707346128
 70
0
  0
VERTEX
  5
1C29
  8
0
 62
7
 10
113.0753656371117
 20
78.390911754697555
 70
0
  0
VERTEX
  5
1C2A
  8
0
 62
7
 10
113.45570417868331
 20
78.264304495614624
 70
0
  0
VERTEX
  5
1C2B
  8
0
 62
7
 10
113.49842336270039
 20
78.221585311597522
 70
0
  0
VERTEX
  5
1C2C
  8
0
 62
7
 10
113.8801399424661
 20
78.094633542966079
 70
0
  0
VERTEX
  5
1C2D
  8
0
 62
7
 10
114.26047848403771
 20
78.01074546790025
 70
0
  0
VERTEX
  5
1C2E
  8
0
 62
7
 10
114.30319766805481
 20
78.01074546790025
 70
0
  0
VERTEX
  5
1C2F
  8
0
 62
7
 10
114.7262553936435
 20
77.925307099866046
 70
0
  0
VERTEX
  5
1C30
  8
0
 62
7
 10
115.106593935215
 20
77.883965954043049
 70
0
  0
VERTEX
  5
1C31
  8
0
 62
7
 10
115.1493131192321
 20
77.841246770025947
 70
0
  0
VERTEX
  5
1C32
  8
0
 62
7
 10
116.7161425459238
 20
77.841246770025947
 70
0
  0
VERTEX
  5
1C33
  8
0
 62
7
 10
116.8002028757639
 20
77.883965954043049
 70
0
  0
VERTEX
  5
1C34
  8
0
 62
7
 10
117.1819194555295
 20
77.925307099866046
 70
0
  0
VERTEX
  5
1C35
  8
0
 62
7
 10
117.5622579971012
 20
78.01074546790025
 70
0
  0
VERTEX
  5
1C36
  8
0
 62
7
 10
117.6049771811182
 20
78.01074546790025
 70
0
  0
VERTEX
  5
1C37
  8
0
 62
7
 10
118.02803490670691
 20
78.094633542966079
 70
0
  0
VERTEX
  5
1C38
  8
0
 62
7
 10
118.4083734482785
 20
78.221585311597522
 70
0
  0
VERTEX
  5
1C39
  8
0
 62
7
 10
118.4510926322956
 20
78.264304495614624
 70
0
  0
VERTEX
  5
1C3A
  8
0
 62
7
 10
118.83280921206131
 20
78.390911754697555
 70
0
  0
VERTEX
  5
1C3B
  8
0
 62
7
 10
119.17042856961569
 20
78.560582707346128
 70
0
  0
VERTEX
  5
1C3C
  8
0
 62
7
 10
119.2131477536328
 20
78.6033018913632
 70
0
  0
VERTEX
  5
1C3D
  8
0
 62
7
 10
119.59486433339851
 20
78.772628334463235
 70
0
  0
VERTEX
  5
1C3E
  8
0
 62
7
 10
119.97520287497009
 20
78.9836404329348
 70
0
  0
VERTEX
  5
1C3F
  8
0
 62
7
 10
120.3555414165417
 20
79.238749753617554
 70
0
  0
VERTEX
  5
1C40
  8
0
 62
7
 10
120.6945388122903
 20
79.491964271783417
 70
0
  0
VERTEX
  5
1C41
  8
0
 62
7
 10
120.73725799630741
 20
79.491964271783417
 70
0
  0
VERTEX
  5
1C42
  8
0
 62
7
 10
121.076255392056
 20
79.745695554272061
 70
0
  0
VERTEX
  5
1C43
  8
0
 62
7
 10
121.3725336037875
 20
80.041973766003537
 70
0
  0
VERTEX
  5
1C44
  8
0
 62
7
 10
121.3725336037875
 20
80.084692950020624
 70
0
  0
VERTEX
  5
1C45
  8
0
 62
7
 10
121.71015296134191
 20
80.380971161752129
 70
0
  0
VERTEX
  5
1C46
  8
0
 62
7
 10
122.0064311730734
 20
80.677249373483619
 70
0
  0
VERTEX
  5
1C47
  8
0
 62
7
 10
122.0064311730734
 20
80.719968557500721
 70
0
  0
VERTEX
  5
1C48
  8
0
 62
7
 10
122.3027093848049
 20
81.0575879150552
 70
0
  0
VERTEX
  5
1C49
  8
0
 62
7
 10
122.5989875965364
 20
81.439304494820874
 70
0
  0
VERTEX
  5
1C4A
  8
0
 62
7
 10
122.8539246624449
 20
81.819643036392463
 70
0
  0
VERTEX
  5
1C4B
  8
0
 62
7
 10
123.1071391806108
 20
82.201359616158143
 70
0
  0
VERTEX
  5
1C4C
  8
0
 62
7
 10
123.1071391806108
 20
82.244078800175231
 70
0
  0
VERTEX
  5
1C4D
  8
0
 62
7
 10
123.3197015720507
 20
82.666964270989666
 70
0
  0
VERTEX
  5
1C4E
  8
0
 62
7
 10
123.530541415748
 20
83.047647322109782
 70
0
  0
VERTEX
  5
1C4F
  8
0
 62
7
 10
123.530541415748
 20
83.090366506126855
 70
0
  0
VERTEX
  5
1C50
  8
0
 62
7
 10
123.7427592976393
 20
83.470532792924189
 70
0
  0
VERTEX
  5
1C51
  8
0
 62
7
 10
123.9122579955136
 20
83.936309702529968
 70
0
  0
VERTEX
  5
1C52
  8
0
 62
7
 10
124.0390375093708
 20
84.401914357361477
 70
0
  0
VERTEX
  5
1C53
  8
0
 62
7
 10
124.1654725136795
 20
84.867863521741526
 70
0
  0
VERTEX
  5
1C54
  8
0
 62
7
 10
124.2925965370852
 20
85.3336404313473
 70
0
  0
VERTEX
  5
1C55
  8
0
 62
7
 10
124.37803490511941
 20
85.841964270195916
 70
0
  0
VERTEX
  5
1C56
  8
0
 62
7
 10
124.46209523495951
 20
86.306535396381875
 70
0
  0
VERTEX
  5
1C57
  8
0
 62
7
 10
124.50481441897659
 20
86.77231230598764
 70
0
  0
VERTEX
  5
1C58
  8
0
 62
7
 10
124.54615556479961
 20
87.280980654384777
 70
0
  0
VERTEX
  5
1C59
  8
0
 62
7
 10
124.54615556479961
 20
88.253531109870778
 70
0
  0
VERTEX
  5
1C5A
  8
0
 62
7
 10
124.50481441897659
 20
88.7196525290251
 70
0
  0
VERTEX
  5
1C5B
  8
0
 62
7
 10
124.46209523495951
 20
89.1852571838566
 70
0
  0
VERTEX
  5
1C5C
  8
0
 62
7
 10
124.37803490511941
 20
89.693581022705246
 70
0
  0
VERTEX
  5
1C5D
  8
0
 62
7
 10
124.2925965370852
 20
90.1595301870853
 70
0
  0
VERTEX
  5
1C5E
  8
0
 62
7
 10
124.1654725136795
 20
90.625307096691074
 70
0
  0
VERTEX
  5
1C5F
  8
0
 62
7
 10
124.1654725136795
 20
90.666648242514043
 70
0
  0
VERTEX
  5
1C60
  8
0
 62
7
 10
124.0390375093708
 20
91.089533713328478
 70
0
  0
VERTEX
  5
1C61
  8
0
 62
7
 10
123.9122579955136
 20
91.555482877708528
 70
0
  0
VERTEX
  5
1C62
  8
0
 62
7
 10
123.7427592976393
 20
91.9799186414913
 70
0
  0
VERTEX
  5
1C63
  8
0
 62
7
 10
123.530541415748
 20
92.444145258128685
 70
0
  0
VERTEX
  5
1C64
  8
0
 62
7
 10
123.3197015720507
 20
92.8685810219115
 70
0
  0
VERTEX
  5
1C65
  8
0
 62
7
 10
123.1071391806108
 20
93.249264073031611
 70
0
  0
VERTEX
  5
1C66
  8
0
 62
7
 10
123.1071391806108
 20
93.291983257048685
 70
0
  0
VERTEX
  5
1C67
  8
0
 62
7
 10
122.8539246624449
 20
93.672149543845975
 70
0
  0
VERTEX
  5
1C68
  8
0
 62
7
 10
122.5989875965364
 20
94.053866123611684
 70
0
  0
VERTEX
  5
1C69
  8
0
 62
7
 10
122.5989875965364
 20
94.0952072694347
 70
0
  0
VERTEX
  5
1C6A
  8
0
 62
7
 10
122.3027093848049
 20
94.434204665183245
 70
0
  0
VERTEX
  5
1C6B
  8
0
 62
7
 10
122.0064311730734
 20
94.773202060931851
 70
0
  0
VERTEX
  5
1C6C
  8
0
 62
7
 10
121.71015296134191
 20
95.112199456680443
 70
0
  0
VERTEX
  5
1C6D
  8
0
 62
7
 10
121.3725336037875
 20
95.4086499231862
 70
0
  0
VERTEX
  5
1C6E
  8
0
 62
7
 10
121.3725336037875
 20
95.4498188142349
 70
0
  0
VERTEX
  5
1C6F
  8
0
 62
7
 10
121.076255392056
 20
95.746269280740648
 70
0
  0
VERTEX
  5
1C70
  8
0
 62
7
 10
120.73725799630741
 20
96.000861837100615
 70
0
  0
VERTEX
  5
1C71
  8
0
 62
7
 10
120.6945388122903
 20
96.042202982923641
 70
0
  0
VERTEX
  5
1C72
  8
0
 62
7
 10
120.3555414165417
 20
96.297312303606361
 70
0
  0
VERTEX
  5
1C73
  8
0
 62
7
 10
119.97520287497009
 20
96.5081521473037
 70
0
  0
VERTEX
  5
1C74
  8
0
 62
7
 10
119.97520287497009
 20
96.550871331320764
 70
0
  0
VERTEX
  5
1C75
  8
0
 62
7
 10
119.59486433339851
 20
96.76291695843787
 70
0
  0
VERTEX
  5
1C76
  8
0
 62
7
 10
119.2131477536328
 20
96.931209872892325
 70
0
  0
VERTEX
  5
1C77
  8
0
 62
7
 10
119.17042856961569
 20
96.931209872892325
 70
0
  0
VERTEX
  5
1C78
  8
0
 62
7
 10
118.83280921206131
 20
97.100536315992372
 70
0
  0
VERTEX
  5
1C79
  8
0
 62
7
 10
118.4510926322956
 20
97.270207268640945
 70
0
  0
VERTEX
  5
1C7A
  8
0
 62
7
 10
118.4083734482785
 20
97.270207268640945
 70
0
  0
VERTEX
  5
1C7B
  8
0
 62
7
 10
118.02803490670691
 20
97.396814527723848
 70
0
  0
VERTEX
  5
1C7C
  8
0
 62
7
 10
117.6049771811182
 20
97.482597405306592
 70
0
  0
VERTEX
  5
1C7D
  8
0
 62
7
 10
117.5622579971012
 20
97.525316589323666
 70
0
  0
VERTEX
  5
1C7E
  8
0
 62
7
 10
117.1819194555295
 20
97.566485480372421
 70
0
  0
VERTEX
  5
1C7F
  8
0
 62
7
 10
116.8002028757639
 20
97.651923848406625
 70
0
  0
VERTEX
  5
1C80
  8
0
 62
7
 10
116.7161425459238
 20
97.651923848406625
 70
0
  0
VERTEX
  5
1C81
  8
0
 62
7
 10
116.33442596615809
 20
97.6932649942296
 70
0
  0
VERTEX
  5
1C82
  8
0
 62
7
 10
115.9113682405694
 20
97.6932649942296
 70
0
  0
SEQEND
  5
1C83
  8
0
  0
POLYLINE
  5
1C84
  8
0
 62
7
 66
1
 70
0
 10
0
 20
0
 30
0
  0
VERTEX
  5
1C85
  8
0
 62
7
 10
115.7418695426951
 20
97.6932649942296
 70
0
  0
VERTEX
  5
1C86
  8
0
 62
7
 10
115.7418695426951
 20
97.6932649942296
 70
0
  0
SEQEND
  5
1C87
  8
0
  0
POLYLINE
  5
1C88
  8
0
 62
7
 66
1
 70
0
 10
0
 20
0
 30
0
  0
VERTEX
  5
1C89
  8
0
 62
7
 10
115.9113682405694
 20
98.032262389978214
 70
0
  0
VERTEX
  5
1C8A
  8
0
 62
7
 10
115.5310296989978
 20
98.032262389978214
 70
0
  0
VERTEX
  5
1C8B
  8
0
 62
7
 10
115.106593935215
 20
97.989543205961127
 70
0
  0
VERTEX
  5
1C8C
  8
0
 62
7
 10
115.06525278939211
 20
97.989543205961127
 70
0
  0
VERTEX
  5
1C8D
  8
0
 62
7
 10
114.6421950638034
 20
97.9482020601381
 70
0
  0
VERTEX
  5
1C8E
  8
0
 62
7
 10
114.26047848403771
 20
97.862935946878167
 70
0
  0
VERTEX
  5
1C8F
  8
0
 62
7
 10
114.2177593000206
 20
97.821250291506658
 70
0
  0
VERTEX
  5
1C90
  8
0
 62
7
 10
113.837420758449
 20
97.735811923472454
 70
0
  0
VERTEX
  5
1C91
  8
0
 62
7
 10
113.41436303286029
 20
97.6092046643895
 70
0
  0
VERTEX
  5
1C92
  8
0
 62
7
 10
113.37164384884321
 20
97.566485480372421
 70
0
  0
VERTEX
  5
1C93
  8
0
 62
7
 10
112.9913053072717
 20
97.439533711740978
 70
0
  0
VERTEX
  5
1C94
  8
0
 62
7
 10
112.609588727506
 20
97.270207268640945
 70
0
  0
VERTEX
  5
1C95
  8
0
 62
7
 10
112.56686954348891
 20
97.270207268640945
 70
0
  0
VERTEX
  5
1C96
  8
0
 62
7
 10
112.1865310019173
 20
97.0591951701694
 70
0
  0
VERTEX
  5
1C97
  8
0
 62
7
 10
111.80481442215159
 20
96.84714954305224
 70
0
  0
VERTEX
  5
1C98
  8
0
 62
7
 10
111.7634732763286
 20
96.804602613809436
 70
0
  0
VERTEX
  5
1C99
  8
0
 62
7
 10
111.42447588058
 20
96.5935905153379
 70
0
  0
VERTEX
  5
1C9A
  8
0
 62
7
 10
111.0854784848315
 20
96.338481194655117
 70
0
  0
VERTEX
  5
1C9B
  8
0
 62
7
 10
111.0441373390084
 20
96.297312303606361
 70
0
  0
VERTEX
  5
1C9C
  8
0
 62
7
 10
110.70513994325989
 20
96.042202982923641
 70
0
  0
VERTEX
  5
1C9D
  8
0
 62
7
 10
110.3661425475113
 20
95.746269280740648
 70
0
  0
VERTEX
  5
1C9E
  8
0
 62
7
 10
110.3234233634942
 20
95.704583625369139
 70
0
  0
VERTEX
  5
1C9F
  8
0
 62
7
 10
110.0271451517627
 20
95.365930739169073
 70
0
  0
VERTEX
  5
1CA0
  8
0
 62
7
 10
109.68952579420819
 20
95.026933343420524
 70
0
  0
VERTEX
  5
1CA1
  8
0
 62
7
 10
109.39290307292821
 20
94.6462502923004
 70
0
  0
VERTEX
  5
1CA2
  8
0
 62
7
 10
109.1383105165682
 20
94.307597406100328
 70
0
  0
VERTEX
  5
1CA3
  8
0
 62
7
 10
109.1383105165682
 20
94.264533712534714
 70
0
  0
VERTEX
  5
1CA4
  8
0
 62
7
 10
108.84203230483671
 20
93.884195170963139
 70
0
  0
VERTEX
  5
1CA5
  8
0
 62
7
 10
108.63119246113951
 20
93.502478591197473
 70
0
  0
VERTEX
  5
1CA6
  8
0
 62
7
 10
108.5884732771224
 20
93.461309700148718
 70
0
  0
VERTEX
  5
1CA7
  8
0
 62
7
 10
108.376255395231
 20
93.036873936365907
 70
0
  0
VERTEX
  5
1CA8
  8
0
 62
7
 10
108.1654155515337
 20
92.613816210777259
 70
0
  0
VERTEX
  5
1CA9
  8
0
 62
7
 10
107.95319766964229
 20
92.1478670463972
 70
0
  0
VERTEX
  5
1CAA
  8
0
 62
7
 10
107.783698971768
 20
91.6836404297598
 70
0
  0
VERTEX
  5
1CAB
  8
0
 62
7
 10
107.6142002738937
 20
91.217863520154026
 70
0
  0
VERTEX
  5
1CAC
  8
0
 62
7
 10
107.4874207600365
 20
90.7091951717569
 70
0
  0
VERTEX
  5
1CAD
  8
0
 62
7
 10
107.3606412461793
 20
90.2435905169254
 70
0
  0
VERTEX
  5
1CAE
  8
0
 62
7
 10
107.2762364067907
 20
89.777985862093828
 70
0
  0
VERTEX
  5
1CAF
  8
0
 62
7
 10
107.2338617323221
 20
89.27069555189081
 70
0
  0
VERTEX
  5
1CB0
  8
0
 62
7
 10
107.149801402482
 20
88.762199458267943
 70
0
  0
VERTEX
  5
1CB1
  8
0
 62
7
 10
107.1070822184649
 20
88.253531109870778
 70
0
  0
VERTEX
  5
1CB2
  8
0
 62
7
 10
107.1070822184649
 20
87.237916960819121
 70
0
  0
VERTEX
  5
1CB3
  8
0
 62
7
 10
107.149801402482
 20
86.730971160164643
 70
0
  0
VERTEX
  5
1CB4
  8
0
 62
7
 10
107.2338617323221
 20
86.2653665053331
 70
0
  0
VERTEX
  5
1CB5
  8
0
 62
7
 10
107.2762364067907
 20
85.7565259021617
 70
0
  0
VERTEX
  5
1CB6
  8
0
 62
7
 10
107.3606412461793
 20
85.248202063313116
 70
0
  0
VERTEX
  5
1CB7
  8
0
 62
7
 10
107.4874207600365
 20
84.740911753110055
 70
0
  0
VERTEX
  5
1CB8
  8
0
 62
7
 10
107.6142002738937
 20
84.275307098278546
 70
0
  0
VERTEX
  5
1CB9
  8
0
 62
7
 10
107.783698971768
 20
83.809530188672767
 70
0
  0
VERTEX
  5
1CBA
  8
0
 62
7
 10
107.95319766964229
 20
83.343581024292718
 70
0
  0
VERTEX
  5
1CBB
  8
0
 62
7
 10
108.1654155515337
 20
82.920695553478311
 70
0
  0
VERTEX
  5
1CBC
  8
0
 62
7
 10
108.376255395231
 20
82.454918643872517
 70
0
  0
VERTEX
  5
1CBD
  8
0
 62
7
 10
108.5884732771224
 20
82.032033173058124
 70
0
  0
VERTEX
  5
1CBE
  8
0
 62
7
 10
108.63119246113951
 20
82.032033173058124
 70
0
  0
VERTEX
  5
1CBF
  8
0
 62
7
 10
108.84203230483671
 20
81.6086309379209
 70
0
  0
VERTEX
  5
1CC0
  8
0
 62
7
 10
109.1383105165682
 20
81.226914358155227
 70
0
  0
VERTEX
  5
1CC1
  8
0
 62
7
 10
109.1383105165682
 20
81.1857454671065
 70
0
  0
VERTEX
  5
1CC2
  8
0
 62
7
 10
109.39290307292821
 20
80.804028887340834
 70
0
  0
VERTEX
  5
1CC3
  8
0
 62
7
 10
109.68952579420819
 20
80.464859236817986
 70
0
  0
VERTEX
  5
1CC4
  8
0
 62
7
 10
110.0271451517627
 20
80.127412134037741
 70
0
  0
VERTEX
  5
1CC5
  8
0
 62
7
 10
110.3234233634942
 20
79.788242483514892
 70
0
  0
VERTEX
  5
1CC6
  8
0
 62
7
 10
110.3661425475113
 20
79.788242483514892
 70
0
  0
VERTEX
  5
1CC7
  8
0
 62
7
 10
110.70513994325989
 20
79.491964271783417
 70
0
  0
VERTEX
  5
1CC8
  8
0
 62
7
 10
111.0441373390084
 20
79.196030569600453
 70
0
  0
VERTEX
  5
1CC9
  8
0
 62
7
 10
111.0854784848315
 20
79.152966876034839
 70
0
  0
VERTEX
  5
1CCA
  8
0
 62
7
 10
111.42447588058
 20
78.8995801030947
 70
0
  0
VERTEX
  5
1CCB
  8
0
 62
7
 10
111.7634732763286
 20
78.6873622212033
 70
0
  0
VERTEX
  5
1CCC
  8
0
 62
7
 10
111.80481442215159
 20
78.6460210753803
 70
0
  0
VERTEX
  5
1CCD
  8
0
 62
7
 10
112.1865310019173
 20
78.433630938714657
 70
0
  0
VERTEX
  5
1CCE
  8
0
 62
7
 10
112.56686954348891
 20
78.264304495614624
 70
0
  0
VERTEX
  5
1CCF
  8
0
 62
7
 10
112.609588727506
 20
78.221585311597522
 70
0
  0
VERTEX
  5
1CD0
  8
0
 62
7
 10
112.9913053072717
 20
78.053292397143082
 70
0
  0
VERTEX
  5
1CD1
  8
0
 62
7
 10
113.37164384884321
 20
77.883965954043049
 70
0
  0
VERTEX
  5
1CD2
  8
0
 62
7
 10
113.41436303286029
 20
77.883965954043049
 70
0
  0
VERTEX
  5
1CD3
  8
0
 62
7
 10
113.837420758449
 20
77.755980656766013
 70
0
  0
VERTEX
  5
1CD4
  8
0
 62
7
 10
114.2177593000206
 20
77.6715758173774
 70
0
  0
VERTEX
  5
1CD5
  8
0
 62
7
 10
114.26047848403771
 20
77.62902888813457
 70
0
  0
VERTEX
  5
1CD6
  8
0
 62
7
 10
114.6421950638034
 20
77.587687742311573
 70
0
  0
VERTEX
  5
1CD7
  8
0
 62
7
 10
115.06525278939211
 20
77.502249374277369
 70
0
  0
VERTEX
  5
1CD8
  8
0
 62
7
 10
115.106593935215
 20
77.502249374277369
 70
0
  0
VERTEX
  5
1CD9
  8
0
 62
7
 10
115.5310296989978
 20
77.459530190260267
 70
0
  0
VERTEX
  5
1CDA
  8
0
 62
7
 10
116.33442596615809
 20
77.459530190260267
 70
0
  0
VERTEX
  5
1CDB
  8
0
 62
7
 10
116.7571391821982
 20
77.502249374277369
 70
0
  0
VERTEX
  5
1CDC
  8
0
 62
7
 10
116.8002028757639
 20
77.502249374277369
 70
0
  0
VERTEX
  5
1CDD
  8
0
 62
7
 10
117.1819194555295
 20
77.587687742311573
 70
0
  0
VERTEX
  5
1CDE
  8
0
 62
7
 10
117.6049771811182
 20
77.62902888813457
 70
0
  0
VERTEX
  5
1CDF
  8
0
 62
7
 10
117.6476963651353
 20
77.6715758173774
 70
0
  0
VERTEX
  5
1CE0
  8
0
 62
7
 10
118.070754090724
 20
77.755980656766013
 70
0
  0
VERTEX
  5
1CE1
  8
0
 62
7
 10
118.4510926322956
 20
77.883965954043049
 70
0
  0
VERTEX
  5
1CE2
  8
0
 62
7
 10
118.4938118163127
 20
77.883965954043049
 70
0
  0
VERTEX
  5
1CE3
  8
0
 62
7
 10
118.87380584833571
 20
78.053292397143082
 70
0
  0
VERTEX
  5
1CE4
  8
0
 62
7
 10
119.25586693765
 20
78.221585311597522
 70
0
  0
VERTEX
  5
1CE5
  8
0
 62
7
 10
119.297208083473
 20
78.264304495614624
 70
0
  0
VERTEX
  5
1CE6
  8
0
 62
7
 10
119.6789246632386
 20
78.433630938714657
 70
0
  0
VERTEX
  5
1CE7
  8
0
 62
7
 10
120.05926320481019
 20
78.6460210753803
 70
0
  0
VERTEX
  5
1CE8
  8
0
 62
7
 10
120.1019823888273
 20
78.6873622212033
 70
0
  0
VERTEX
  5
1CE9
  8
0
 62
7
 10
120.4409797845759
 20
78.8995801030947
 70
0
  0
VERTEX
  5
1CEA
  8
0
 62
7
 10
120.82131832614751
 20
79.152966876034839
 70
0
  0
VERTEX
  5
1CEB
  8
0
 62
7
 10
120.82131832614751
 20
79.196030569600453
 70
0
  0
VERTEX
  5
1CEC
  8
0
 62
7
 10
121.2030349059132
 20
79.491964271783417
 70
0
  0
VERTEX
  5
1CED
  8
0
 62
7
 10
121.4993131176447
 20
79.788242483514892
 70
0
  0
VERTEX
  5
1CEE
  8
0
 62
7
 10
121.54203230166181
 20
79.788242483514892
 70
0
  0
VERTEX
  5
1CEF
  8
0
 62
7
 10
121.8383105133932
 20
80.127412134037741
 70
0
  0
VERTEX
  5
1CF0
  8
0
 62
7
 10
122.1345887251247
 20
80.464859236817986
 70
0
  0
VERTEX
  5
1CF1
  8
0
 62
7
 10
122.1759298709477
 20
80.464859236817986
 70
0
  0
VERTEX
  5
1CF2
  8
0
 62
7
 10
122.4722080826792
 20
80.804028887340834
 70
0
  0
VERTEX
  5
1CF3
  8
0
 62
7
 10
122.7271451485877
 20
81.1857454671065
 70
0
  0
VERTEX
  5
1CF4
  8
0
 62
7
 10
122.76848629441071
 20
81.226914358155227
 70
0
  0
VERTEX
  5
1CF5
  8
0
 62
7
 10
123.0234233603192
 20
81.6086309379209
 70
0
  0
VERTEX
  5
1CF6
  8
0
 62
7
 10
123.2769823880336
 20
82.032033173058124
 70
0
  0
VERTEX
  5
1CF7
  8
0
 62
7
 10
123.489200269925
 20
82.454918643872517
 70
0
  0
VERTEX
  5
1CF8
  8
0
 62
7
 10
123.7427592976393
 20
82.920695553478311
 70
0
  0
VERTEX
  5
1CF9
  8
0
 62
7
 10
123.9122579955136
 20
83.343581024292718
 70
0
  0
VERTEX
  5
1CFA
  8
0
 62
7
 10
124.0817566933879
 20
83.809530188672767
 70
0
  0
VERTEX
  5
1CFB
  8
0
 62
7
 10
124.2498773530681
 20
84.275307098278546
 70
0
  0
VERTEX
  5
1CFC
  8
0
 62
7
 10
124.37803490511941
 20
84.740911753110055
 70
0
  0
VERTEX
  5
1CFD
  8
0
 62
7
 10
124.50481441897659
 20
85.248202063313116
 70
0
  0
VERTEX
  5
1CFE
  8
0
 62
7
 10
124.58887474881671
 20
85.7565259021617
 70
0
  0
VERTEX
  5
1CFF
  8
0
 62
7
 10
124.6743131168509
 20
86.2653665053331
 70
0
  0
VERTEX
  5
1D00
  8
0
 62
7
 10
124.71565426267389
 20
86.730971160164643
 70
0
  0
VERTEX
  5
1D01
  8
0
 62
7
 10
124.758373446691
 20
87.237916960819121
 70
0
  0
VERTEX
  5
1D02
  8
0
 62
7
 10
124.758373446691
 20
88.253531109870778
 70
0
  0
VERTEX
  5
1D03
  8
0
 62
7
 10
124.71565426267389
 20
88.762199458267943
 70
0
  0
VERTEX
  5
1D04
  8
0
 62
7
 10
124.6743131168509
 20
89.27069555189081
 70
0
  0
VERTEX
  5
1D05
  8
0
 62
7
 10
124.58887474881671
 20
89.777985862093828
 70
0
  0
VERTEX
  5
1D06
  8
0
 62
7
 10
124.50481441897659
 20
90.2435905169254
 70
0
  0
VERTEX
  5
1D07
  8
0
 62
7
 10
124.37803490511941
 20
90.7091951717569
 70
0
  0
VERTEX
  5
1D08
  8
0
 62
7
 10
124.2498773530681
 20
91.217863520154026
 70
0
  0
VERTEX
  5
1D09
  8
0
 62
7
 10
124.0817566933879
 20
91.6836404297598
 70
0
  0
VERTEX
  5
1D0A
  8
0
 62
7
 10
123.9122579955136
 20
92.1478670463972
 70
0
  0
VERTEX
  5
1D0B
  8
0
 62
7
 10
123.7427592976393
 20
92.613816210777259
 70
0
  0
VERTEX
  5
1D0C
  8
0
 62
7
 10
123.489200269925
 20
93.036873936365907
 70
0
  0
VERTEX
  5
1D0D
  8
0
 62
7
 10
123.2769823880336
 20
93.461309700148718
 70
0
  0
VERTEX
  5
1D0E
  8
0
 62
7
 10
123.2769823880336
 20
93.502478591197473
 70
0
  0
VERTEX
  5
1D0F
  8
0
 62
7
 10
123.0234233603192
 20
93.884195170963139
 70
0
  0
VERTEX
  5
1D10
  8
0
 62
7
 10
122.76848629441071
 20
94.264533712534714
 70
0
  0
VERTEX
  5
1D11
  8
0
 62
7
 10
122.7271451485877
 20
94.307597406100328
 70
0
  0
VERTEX
  5
1D12
  8
0
 62
7
 10
122.4722080826792
 20
94.6462502923004
 70
0
  0
VERTEX
  5
1D13
  8
0
 62
7
 10
122.1759298709477
 20
95.026933343420524
 70
0
  0
VERTEX
  5
1D14
  8
0
 62
7
 10
122.1345887251247
 20
95.026933343420524
 70
0
  0
VERTEX
  5
1D15
  8
0
 62
7
 10
121.8383105133932
 20
95.365930739169073
 70
0
  0
VERTEX
  5
1D16
  8
0
 62
7
 10
121.54203230166181
 20
95.704583625369139
 70
0
  0
VERTEX
  5
1D17
  8
0
 62
7
 10
121.4993131176447
 20
95.746269280740648
 70
0
  0
VERTEX
  5
1D18
  8
0
 62
7
 10
121.2030349059132
 20
96.042202982923641
 70
0
  0
VERTEX
  5
1D19
  8
0
 62
7
 10
120.82131832614751
 20
96.297312303606361
 70
0
  0
VERTEX
  5
1D1A
  8
0
 62
7
 10
120.82131832614751
 20
96.338481194655117
 70
0
  0
VERTEX
  5
1D1B
  8
0
 62
7
 10
120.4409797845759
 20
96.5935905153379
 70
0
  0
VERTEX
  5
1D1C
  8
0
 62
7
 10
120.1019823888273
 20
96.804602613809436
 70
0
  0
VERTEX
  5
1D1D
  8
0
 62
7
 10
120.05926320481019
 20
96.84714954305224
 70
0
  0
VERTEX
  5
1D1E
  8
0
 62
7
 10
119.6789246632386
 20
97.0591951701694
 70
0
  0
VERTEX
  5
1D1F
  8
0
 62
7
 10
119.297208083473
 20
97.270207268640945
 70
0
  0
VERTEX
  5
1D20
  8
0
 62
7
 10
119.25586693765
 20
97.270207268640945
 70
0
  0
VERTEX
  5
1D21
  8
0
 62
7
 10
118.87380584833571
 20
97.439533711740978
 70
0
  0
VERTEX
  5
1D22
  8
0
 62
7
 10
118.4938118163127
 20
97.566485480372421
 70
0
  0
VERTEX
  5
1D23
  8
0
 62
7
 10
118.4510926322956
 20
97.6092046643895
 70
0
  0
VERTEX
  5
1D24
  8
0
 62
7
 10
118.070754090724
 20
97.735811923472454
 70
0
  0
VERTEX
  5
1D25
  8
0
 62
7
 10
117.6476963651353
 20
97.821250291506658
 70
0
  0
VERTEX
  5
1D26
  8
0
 62
7
 10
117.6049771811182
 20
97.862935946878167
 70
0
  0
VERTEX
  5
1D27
  8
0
 62
7
 10
117.1819194555295
 20
97.9482020601381
 70
0
  0
VERTEX
  5
1D28
  8
0
 62
7
 10
116.8002028757639
 20
97.989543205961127
 70
0
  0
VERTEX
  5
1D29
  8
0
 62
7
 10
116.7571391821982
 20
97.989543205961127
 70
0
  0
VERTEX
  5
1D2A
  8
0
 62
7
 10
116.33442596615809
 20
98.032262389978214
 70
0
  0
VERTEX
  5
1D2B
  8
0
 62
7
 10
115.9113682405694
 20
98.032262389978214
 70
0
  0
SEQEND
  5
1D2C
  8
0
  0
POLYLINE
  5
1D2D
  8
0
 62
7
 66
1
 70
0
 10
0
 20
0
 30
0
  0
VERTEX
  5
1D2E
  8
0
 62
7
 10
115.7418695426951
 20
98.032262389978214
 70
0
  0
VERTEX
  5
1D2F
  8
0
 62
7
 10
115.7418695426951
 20
98.032262389978214
 70
0
  0
SEQEND
  5
1D30
  8
0
  0
POLYLINE
  5
1D31
  8
0
 62
7
 66
1
 70
0
 10
0
 20
0
 30
0
  0
VERTEX
  5
1D32
  8
0
 62
7
 10
116.0381477544266
 20
98.2858214176926
 70
0
  0
VERTEX
  5
1D33
  8
0
 62
7
 10
115.6150900288379
 20
98.2858214176926
 70
0
  0
VERTEX
  5
1D34
  8
0
 62
7
 10
115.23475148726639
 20
98.244652526643847
 70
0
  0
VERTEX
  5
1D35
  8
0
 62
7
 10
115.1493131192321
 20
98.201933342626774
 70
0
  0
VERTEX
  5
1D36
  8
0
 62
7
 10
114.7262553936435
 20
98.158869649061117
 70
0
  0
VERTEX
  5
1D37
  8
0
 62
7
 10
114.3459168520719
 20
98.074981573995274
 70
0
  0
VERTEX
  5
1D38
  8
0
 62
7
 10
114.26047848403771
 20
98.074981573995274
 70
0
  0
VERTEX
  5
1D39
  8
0
 62
7
 10
113.8801399424661
 20
97.9482020601381
 70
0
  0
VERTEX
  5
1D3A
  8
0
 62
7
 10
113.45570417868331
 20
97.821250291506658
 70
0
  0
VERTEX
  5
1D3B
  8
0
 62
7
 10
113.41436303286029
 20
97.821250291506658
 70
0
  0
VERTEX
  5
1D3C
  8
0
 62
7
 10
112.9913053072717
 20
97.651923848406625
 70
0
  0
VERTEX
  5
1D3D
  8
0
 62
7
 10
112.609588727506
 20
97.525316589323666
 70
0
  0
VERTEX
  5
1D3E
  8
0
 62
7
 10
112.56686954348891
 20
97.482597405306592
 70
0
  0
VERTEX
  5
1D3F
  8
0
 62
7
 10
112.1865310019173
 20
97.270207268640945
 70
0
  0
VERTEX
  5
1D40
  8
0
 62
7
 10
111.80481442215159
 20
97.0591951701694
 70
0
  0
VERTEX
  5
1D41
  8
0
 62
7
 10
111.7634732763286
 20
97.016648240926543
 70
0
  0
VERTEX
  5
1D42
  8
0
 62
7
 10
111.42447588058
 20
96.804602613809436
 70
0
  0
VERTEX
  5
1D43
  8
0
 62
7
 10
111.0441373390084
 20
96.550871331320764
 70
0
  0
VERTEX
  5
1D44
  8
0
 62
7
 10
111.0014181549914
 20
96.5081521473037
 70
0
  0
VERTEX
  5
1D45
  8
0
 62
7
 10
110.66242075924281
 20
96.211873935572157
 70
0
  0
VERTEX
  5
1D46
  8
0
 62
7
 10
110.3234233634942
 20
95.9155957238407
 70
0
  0
VERTEX
  5
1D47
  8
0
 62
7
 10
110.2820822176712
 20
95.874254578017712
 70
0
  0
VERTEX
  5
1D48
  8
0
 62
7
 10
109.9858040059397
 20
95.5352571822691
 70
0
  0
VERTEX
  5
1D49
  8
0
 62
7
 10
109.64680661019111
 20
95.238978970537616
 70
0
  0
VERTEX
  5
1D4A
  8
0
 62
7
 10
109.64680661019111
 20
95.196259786520557
 70
0
  0
VERTEX
  5
1D4B
  8
0
 62
7
 10
109.3505283984596
 20
94.85726239077195
 70
0
  0
VERTEX
  5
1D4C
  8
0
 62
7
 10
109.0542501867281
 20
94.476923849200375
 70
0
  0
VERTEX
  5
1D4D
  8
0
 62
7
 10
109.0542501867281
 20
94.434204665183245
 70
0
  0
VERTEX
  5
1D4E
  8
0
 62
7
 10
108.8006911590138
 20
94.011319194368866
 70
0
  0
VERTEX
  5
1D4F
  8
0
 62
7
 10
108.5457540931052
 20
93.630980652797291
 70
0
  0
VERTEX
  5
1D50
  8
0
 62
7
 10
108.5044129472823
 20
93.58791695923162
 70
0
  0
VERTEX
  5
1D51
  8
0
 62
7
 10
108.2921950653909
 20
93.165031488417227
 70
0
  0
VERTEX
  5
1D52
  8
0
 62
7
 10
108.0386360376765
 20
92.740595724634431
 70
0
  0
VERTEX
  5
1D53
  8
0
 62
7
 10
108.0386360376765
 20
92.699254578811463
 70
0
  0
VERTEX
  5
1D54
  8
0
 62
7
 10
107.86913733980219
 20
92.233649923979954
 70
0
  0
VERTEX
  5
1D55
  8
0
 62
7
 10
107.6569194579108
 20
91.8102476888427
 70
0
  0
VERTEX
  5
1D56
  8
0
 62
7
 10
107.6569194579108
 20
91.767528504825634
 70
0
  0
VERTEX
  5
1D57
  8
0
 62
7
 10
107.5301399440536
 20
91.301923849994125
 70
0
  0
VERTEX
  5
1D58
  8
0
 62
7
 10
107.4033604301964
 20
90.793600011145486
 70
0
  0
VERTEX
  5
1D59
  8
0
 62
7
 10
107.2762364067907
 20
90.329028884959541
 70
0
  0
VERTEX
  5
1D5A
  8
0
 62
7
 10
107.149801402482
 20
89.820532791336689
 70
0
  0
VERTEX
  5
1D5B
  8
0
 62
7
 10
107.1070822184649
 20
89.311864442939566
 70
0
  0
VERTEX
  5
1D5C
  8
0
 62
7
 10
107.02164385043071
 20
88.762199458267943
 70
0
  0
VERTEX
  5
1D5D
  8
0
 62
7
 10
107.02164385043071
 20
88.253531109870778
 70
0
  0
VERTEX
  5
1D5E
  8
0
 62
7
 10
106.9803027046077
 20
87.7465853092163
 70
0
  0
VERTEX
  5
1D5F
  8
0
 62
7
 10
107.02164385043071
 20
87.237916960819121
 70
0
  0
VERTEX
  5
1D60
  8
0
 62
7
 10
107.02164385043071
 20
86.730971160164643
 70
0
  0
VERTEX
  5
1D61
  8
0
 62
7
 10
107.1070822184649
 20
86.222647321316018
 70
0
  0
VERTEX
  5
1D62
  8
0
 62
7
 10
107.149801402482
 20
85.713978972918881
 70
0
  0
VERTEX
  5
1D63
  8
0
 62
7
 10
107.2762364067907
 20
85.207033172264374
 70
0
  0
VERTEX
  5
1D64
  8
0
 62
7
 10
107.4033604301964
 20
84.698364823867223
 70
0
  0
VERTEX
  5
1D65
  8
0
 62
7
 10
107.5301399440536
 20
84.191419023212717
 70
0
  0
VERTEX
  5
1D66
  8
0
 62
7
 10
107.6569194579108
 20
83.725297604058383
 70
0
  0
VERTEX
  5
1D67
  8
0
 62
7
 10
107.86913733980219
 20
83.259692949226888
 70
0
  0
VERTEX
  5
1D68
  8
0
 62
7
 10
108.0386360376765
 20
82.7939160396211
 70
0
  0
VERTEX
  5
1D69
  8
0
 62
7
 10
108.2921950653909
 20
82.327966875241088
 70
0
  0
VERTEX
  5
1D6A
  8
0
 62
7
 10
108.5044129472823
 20
81.905081404426639
 70
0
  0
VERTEX
  5
1D6B
  8
0
 62
7
 10
108.5457540931052
 20
81.905081404426639
 70
0
  0
VERTEX
  5
1D6C
  8
0
 62
7
 10
108.8006911590138
 20
81.482023678837976
 70
0
  0
VERTEX
  5
1D6D
  8
0
 62
7
 10
109.0542501867281
 20
81.0575879150552
 70
0
  0
VERTEX
  5
1D6E
  8
0
 62
7
 10
109.3505283984596
 20
80.677249373483619
 70
0
  0
VERTEX
  5
1D6F
  8
0
 62
7
 10
109.64680661019111
 20
80.297083086686285
 70
0
  0
VERTEX
  5
1D70
  8
0
 62
7
 10
109.9858040059397
 20
79.9153665069206
 70
0
  0
VERTEX
  5
1D71
  8
0
 62
7
 10
110.2820822176712
 20
79.618916040414859
 70
0
  0
VERTEX
  5
1D72
  8
0
 62
7
 10
110.3234233634942
 20
79.576369111172014
 70
0
  0
VERTEX
  5
1D73
  8
0
 62
7
 10
110.66242075924281
 20
79.279918644666282
 70
0
  0
VERTEX
  5
1D74
  8
0
 62
7
 10
111.0014181549914
 20
78.9836404329348
 70
0
  0
VERTEX
  5
1D75
  8
0
 62
7
 10
111.0441373390084
 20
78.9836404329348
 70
0
  0
VERTEX
  5
1D76
  8
0
 62
7
 10
111.42447588058
 20
78.7300814052204
 70
0
  0
VERTEX
  5
1D77
  8
0
 62
7
 10
111.7634732763286
 20
78.476694632280271
 70
0
  0
VERTEX
  5
1D78
  8
0
 62
7
 10
111.80481442215159
 20
78.433630938714657
 70
0
  0
VERTEX
  5
1D79
  8
0
 62
7
 10
112.1865310019173
 20
78.221585311597522
 70
0
  0
VERTEX
  5
1D7A
  8
0
 62
7
 10
112.56686954348891
 20
78.01074546790025
 70
0
  0
VERTEX
  5
1D7B
  8
0
 62
7
 10
112.609588727506
 20
78.01074546790025
 70
0
  0
VERTEX
  5
1D7C
  8
0
 62
7
 10
112.9913053072717
 20
77.841419024800217
 70
0
  0
VERTEX
  5
1D7D
  8
0
 62
7
 10
113.41436303286029
 20
77.671748072151672
 70
0
  0
VERTEX
  5
1D7E
  8
0
 62
7
 10
113.45570417868331
 20
77.671748072151672
 70
0
  0
VERTEX
  5
1D7F
  8
0
 62
7
 10
113.8801399424661
 20
77.544968558294471
 70
0
  0
VERTEX
  5
1D80
  8
0
 62
7
 10
114.26047848403771
 20
77.418361299211526
 70
0
  0
VERTEX
  5
1D81
  8
0
 62
7
 10
114.3459168520719
 20
77.418361299211526
 70
0
  0
VERTEX
  5
1D82
  8
0
 62
7
 10
114.7262553936435
 20
77.332578421628824
 70
0
  0
VERTEX
  5
1D83
  8
0
 62
7
 10
115.1493131192321
 20
77.248690346562967
 70
0
  0
VERTEX
  5
1D84
  8
0
 62
7
 10
115.6150900288379
 20
77.248690346562967
 70
0
  0
VERTEX
  5
1D85
  8
0
 62
7
 10
116.0381477544266
 20
77.2059711625459
 70
0
  0
VERTEX
  5
1D86
  8
0
 62
7
 10
116.4612054800153
 20
77.248690346562967
 70
0
  0
VERTEX
  5
1D87
  8
0
 62
7
 10
116.9269823896211
 20
77.248690346562967
 70
0
  0
VERTEX
  5
1D88
  8
0
 62
7
 10
117.3086989693867
 20
77.332578421628824
 70
0
  0
VERTEX
  5
1D89
  8
0
 62
7
 10
117.7744758789925
 20
77.418361299211526
 70
0
  0
VERTEX
  5
1D8A
  8
0
 62
7
 10
117.815472515267
 20
77.418361299211526
 70
0
  0
VERTEX
  5
1D8B
  8
0
 62
7
 10
118.1975336045812
 20
77.544968558294471
 70
0
  0
VERTEX
  5
1D8C
  8
0
 62
7
 10
118.6205913301699
 20
77.671748072151672
 70
0
  0
VERTEX
  5
1D8D
  8
0
 62
7
 10
118.663310514187
 20
77.671748072151672
 70
0
  0
VERTEX
  5
1D8E
  8
0
 62
7
 10
119.04364905575849
 20
77.841419024800217
 70
0
  0
VERTEX
  5
1D8F
  8
0
 62
7
 10
119.4667067813472
 20
78.01074546790025
 70
0
  0
VERTEX
  5
1D90
  8
0
 62
7
 10
119.5094259653643
 20
78.01074546790025
 70
0
  0
VERTEX
  5
1D91
  8
0
 62
7
 10
119.89114254513
 20
78.221585311597522
 70
0
  0
VERTEX
  5
1D92
  8
0
 62
7
 10
120.2287619026845
 20
78.433630938714657
 70
0
  0
VERTEX
  5
1D93
  8
0
 62
7
 10
120.3142002707187
 20
78.476694632280271
 70
0
  0
VERTEX
  5
1D94
  8
0
 62
7
 10
120.6945388122903
 20
78.7300814052204
 70
0
  0
VERTEX
  5
1D95
  8
0
 62
7
 10
121.0335362080389
 20
78.9836404329348
 70
0
  0
VERTEX
  5
1D96
  8
0
 62
7
 10
121.076255392056
 20
78.9836404329348
 70
0
  0
VERTEX
  5
1D97
  8
0
 62
7
 10
121.4138747496104
 20
79.279918644666282
 70
0
  0
VERTEX
  5
1D98
  8
0
 62
7
 10
121.752872145359
 20
79.576369111172014
 70
0
  0
VERTEX
  5
1D99
  8
0
 62
7
 10
121.752872145359
 20
79.618916040414859
 70
0
  0
VERTEX
  5
1D9A
  8
0
 62
7
 10
122.0918695411076
 20
79.9153665069206
 70
0
  0
VERTEX
  5
1D9B
  8
0
 62
7
 10
122.3881477528391
 20
80.297083086686285
 70
0
  0
VERTEX
  5
1D9C
  8
0
 62
7
 10
122.43086693685621
 20
80.297083086686285
 70
0
  0
VERTEX
  5
1D9D
  8
0
 62
7
 10
122.7271451485877
 20
80.677249373483619
 70
0
  0
VERTEX
  5
1D9E
  8
0
 62
7
 10
123.0234233603192
 20
81.0575879150552
 70
0
  0
VERTEX
  5
1D9F
  8
0
 62
7
 10
123.2769823880336
 20
81.482023678837976
 70
0
  0
VERTEX
  5
1DA0
  8
0
 62
7
 10
123.530541415748
 20
81.905081404426639
 70
0
  0
VERTEX
  5
1DA1
  8
0
 62
7
 10
123.7854784816564
 20
82.327966875241088
 70
0
  0
VERTEX
  5
1DA2
  8
0
 62
7
 10
123.9963183253538
 20
82.7939160396211
 70
0
  0
VERTEX
  5
1DA3
  8
0
 62
7
 10
124.2085362072451
 20
83.259692949226888
 70
0
  0
VERTEX
  5
1DA4
  8
0
 62
7
 10
124.37803490511941
 20
83.725297604058383
 70
0
  0
VERTEX
  5
1DA5
  8
0
 62
7
 10
124.54615556479961
 20
84.191419023212717
 70
0
  0
VERTEX
  5
1DA6
  8
0
 62
7
 10
124.6743131168509
 20
84.698364823867223
 70
0
  0
VERTEX
  5
1DA7
  8
0
 62
7
 10
124.8010926307081
 20
85.207033172264374
 70
0
  0
VERTEX
  5
1DA8
  8
0
 62
7
 10
124.9278721445653
 20
85.713978972918881
 70
0
  0
VERTEX
  5
1DA9
  8
0
 62
7
 10
125.0119324744054
 20
86.222647321316018
 70
0
  0
VERTEX
  5
1DAA
  8
0
 62
7
 10
125.0546516584225
 20
86.730971160164643
 70
0
  0
VERTEX
  5
1DAB
  8
0
 62
7
 10
125.0546516584225
 20
88.762199458267943
 70
0
  0
VERTEX
  5
1DAC
  8
0
 62
7
 10
125.0119324744054
 20
89.311864442939566
 70
0
  0
VERTEX
  5
1DAD
  8
0
 62
7
 10
124.9278721445653
 20
89.820532791336689
 70
0
  0
VERTEX
  5
1DAE
  8
0
 62
7
 10
124.8010926307081
 20
90.329028884959541
 70
0
  0
VERTEX
  5
1DAF
  8
0
 62
7
 10
124.6743131168509
 20
90.793600011145486
 70
0
  0
VERTEX
  5
1DB0
  8
0
 62
7
 10
124.54615556479961
 20
91.301923849994125
 70
0
  0
VERTEX
  5
1DB1
  8
0
 62
7
 10
124.37803490511941
 20
91.767528504825634
 70
0
  0
VERTEX
  5
1DB2
  8
0
 62
7
 10
124.37803490511941
 20
91.8102476888427
 70
0
  0
VERTEX
  5
1DB3
  8
0
 62
7
 10
124.2085362072451
 20
92.233649923979954
 70
0
  0
VERTEX
  5
1DB4
  8
0
 62
7
 10
123.9963183253538
 20
92.699254578811463
 70
0
  0
VERTEX
  5
1DB5
  8
0
 62
7
 10
123.9963183253538
 20
92.740595724634431
 70
0
  0
VERTEX
  5
1DB6
  8
0
 62
7
 10
123.7854784816564
 20
93.165031488417227
 70
0
  0
VERTEX
  5
1DB7
  8
0
 62
7
 10
123.530541415748
 20
93.58791695923162
 70
0
  0
VERTEX
  5
1DB8
  8
0
 62
7
 10
123.530541415748
 20
93.630980652797291
 70
0
  0
VERTEX
  5
1DB9
  8
0
 62
7
 10
123.2769823880336
 20
94.011319194368866
 70
0
  0
VERTEX
  5
1DBA
  8
0
 62
7
 10
123.0234233603192
 20
94.434204665183245
 70
0
  0
VERTEX
  5
1DBB
  8
0
 62
7
 10
123.0234233603192
 20
94.476923849200375
 70
0
  0
VERTEX
  5
1DBC
  8
0
 62
7
 10
122.7271451485877
 20
94.85726239077195
 70
0
  0
VERTEX
  5
1DBD
  8
0
 62
7
 10
122.43086693685621
 20
95.196259786520557
 70
0
  0
VERTEX
  5
1DBE
  8
0
 62
7
 10
122.3881477528391
 20
95.238978970537616
 70
0
  0
VERTEX
  5
1DBF
  8
0
 62
7
 10
122.0918695411076
 20
95.5352571822691
 70
0
  0
VERTEX
  5
1DC0
  8
0
 62
7
 10
121.752872145359
 20
95.874254578017712
 70
0
  0
VERTEX
  5
1DC1
  8
0
 62
7
 10
121.752872145359
 20
95.9155957238407
 70
0
  0
VERTEX
  5
1DC2
  8
0
 62
7
 10
121.4138747496104
 20
96.211873935572157
 70
0
  0
VERTEX
  5
1DC3
  8
0
 62
7
 10
121.076255392056
 20
96.5081521473037
 70
0
  0
VERTEX
  5
1DC4
  8
0
 62
7
 10
121.0335362080389
 20
96.550871331320764
 70
0
  0
VERTEX
  5
1DC5
  8
0
 62
7
 10
120.6945388122903
 20
96.804602613809436
 70
0
  0
VERTEX
  5
1DC6
  8
0
 62
7
 10
120.3142002707187
 20
97.016648240926543
 70
0
  0
VERTEX
  5
1DC7
  8
0
 62
7
 10
120.2287619026845
 20
97.0591951701694
 70
0
  0
VERTEX
  5
1DC8
  8
0
 62
7
 10
119.89114254513
 20
97.270207268640945
 70
0
  0
VERTEX
  5
1DC9
  8
0
 62
7
 10
119.5094259653643
 20
97.482597405306592
 70
0
  0
VERTEX
  5
1DCA
  8
0
 62
7
 10
119.4667067813472
 20
97.525316589323666
 70
0
  0
VERTEX
  5
1DCB
  8
0
 62
7
 10
119.04364905575849
 20
97.651923848406625
 70
0
  0
VERTEX
  5
1DCC
  8
0
 62
7
 10
118.663310514187
 20
97.821250291506658
 70
0
  0
VERTEX
  5
1DCD
  8
0
 62
7
 10
118.6205913301699
 20
97.821250291506658
 70
0
  0
VERTEX
  5
1DCE
  8
0
 62
7
 10
118.1975336045812
 20
97.9482020601381
 70
0
  0
VERTEX
  5
1DCF
  8
0
 62
7
 10
117.815472515267
 20
98.074981573995274
 70
0
  0
VERTEX
  5
1DD0
  8
0
 62
7
 10
117.7744758789925
 20
98.074981573995274
 70
0
  0
VERTEX
  5
1DD1
  8
0
 62
7
 10
117.3086989693867
 20
98.158869649061117
 70
0
  0
VERTEX
  5
1DD2
  8
0
 62
7
 10
116.9269823896211
 20
98.201933342626774
 70
0
  0
VERTEX
  5
1DD3
  8
0
 62
7
 10
116.88564124379811
 20
98.244652526643847
 70
0
  0
VERTEX
  5
1DD4
  8
0
 62
7
 10
116.4612054800153
 20
98.2858214176926
 70
0
  0
VERTEX
  5
1DD5
  8
0
 62
7
 10
116.0381477544266
 20
98.2858214176926
 70
0
  0
SEQEND
  5
1DD6
  8
0
  0
POLYLINE
  5
1DD7
  8
0
 62
7
 66
1
 70
0
 10
0
 20
0
 30
0
  0
VERTEX
  5
1DD8
  8
0
 62
7
 10
115.8273079107293
 20
98.2858214176926
 70
0
  0
VERTEX
  5
1DD9
  8
0
 62
7
 10
115.8273079107293
 20
98.2858214176926
 70
0
  0
SEQEND
  5
1DDA
  8
0
  0
POLYLINE
  5
1DDB
  8
0
 62
7
 66
1
 70
0
 10
0
 20
0
 30
0
  0
VERTEX
  5
1DDC
  8
0
 62
7
 10
115.657809212855
 20
76.106296683654136
 70
0
  0
VERTEX
  5
1DDD
  8
0
 62
7
 10
116.08086693844371
 20
76.106296683654136
 70
0
  0
VERTEX
  5
1DDE
  8
0
 62
7
 10
116.5039246640324
 20
76.147637829477134
 70
0
  0
VERTEX
  5
1DDF
  8
0
 62
7
 10
116.6307041778896
 20
76.147637829477134
 70
0
  0
VERTEX
  5
1DE0
  8
0
 62
7
 10
117.0537619034783
 20
76.233076197511338
 70
0
  0
VERTEX
  5
1DE1
  8
0
 62
7
 10
117.478197667261
 20
76.316964272577167
 70
0
  0
VERTEX
  5
1DE2
  8
0
 62
7
 10
117.6476963651353
 20
76.316964272577167
 70
0
  0
VERTEX
  5
1DE3
  8
0
 62
7
 10
118.02803490670691
 20
76.44391604120861
 70
0
  0
VERTEX
  5
1DE4
  8
0
 62
7
 10
118.4510926322956
 20
76.570695555065811
 70
0
  0
VERTEX
  5
1DE5
  8
0
 62
7
 10
118.5778721461528
 20
76.613242484308643
 70
0
  0
VERTEX
  5
1DE6
  8
0
 62
7
 10
118.95958872591849
 20
76.740366507714356
 70
0
  0
VERTEX
  5
1DE7
  8
0
 62
7
 10
119.3826464515072
 20
76.952412134831491
 70
0
  0
VERTEX
  5
1DE8
  8
0
 62
7
 10
119.5094259653643
 20
76.994959064074322
 70
0
  0
VERTEX
  5
1DE9
  8
0
 62
7
 10
119.89114254513
 20
77.2059711625459
 70
0
  0
VERTEX
  5
1DEA
  8
0
 62
7
 10
120.3142002707187
 20
77.3752976056459
 70
0
  0
VERTEX
  5
1DEB
  8
0
 62
7
 10
120.3982606005588
 20
77.459702445034523
 70
0
  0
VERTEX
  5
1DEC
  8
0
 62
7
 10
120.77997718032449
 20
77.7142950013945
 70
0
  0
VERTEX
  5
1DED
  8
0
 62
7
 10
121.117596537879
 20
77.968026283883148
 70
0
  0
VERTEX
  5
1DEE
  8
0
 62
7
 10
121.2443760517362
 20
78.094633542966079
 70
0
  0
VERTEX
  5
1DEF
  8
0
 62
7
 10
121.62609263150191
 20
78.349742863648814
 70
0
  0
VERTEX
  5
1DF0
  8
0
 62
7
 10
121.9650900272504
 20
78.6460210753803
 70
0
  0
VERTEX
  5
1DF1
  8
0
 62
7
 10
122.048805847542
 20
78.729909150446133
 70
0
  0
VERTEX
  5
1DF2
  8
0
 62
7
 10
122.3881477528391
 20
79.069078800968981
 70
0
  0
VERTEX
  5
1DF3
  8
0
 62
7
 10
122.7271451485877
 20
79.406698158523483
 70
0
  0
VERTEX
  5
1DF4
  8
0
 62
7
 10
122.76848629441071
 20
79.53502796534903
 70
0
  0
VERTEX
  5
1DF5
  8
0
 62
7
 10
123.1071391806108
 20
79.8726473229035
 70
0
  0
VERTEX
  5
1DF6
  8
0
 62
7
 10
123.3610427178737
 20
80.254363902669212
 70
0
  0
VERTEX
  5
1DF7
  8
0
 62
7
 10
123.44648108590791
 20
80.380971161752129
 70
0
  0
VERTEX
  5
1DF8
  8
0
 62
7
 10
123.7427592976393
 20
80.7613097033237
 70
0
  0
VERTEX
  5
1DF9
  8
0
 62
7
 10
123.9963183253538
 20
81.1857454671065
 70
0
  0
VERTEX
  5
1DFA
  8
0
 62
7
 10
124.0390375093708
 20
81.269633542172329
 70
0
  0
VERTEX
  5
1DFB
  8
0
 62
7
 10
124.2925965370852
 20
81.693035777309518
 70
0
  0
VERTEX
  5
1DFC
  8
0
 62
7
 10
124.50481441897659
 20
82.158640432141056
 70
0
  0
VERTEX
  5
1DFD
  8
0
 62
7
 10
124.54615556479961
 20
82.285247691223987
 70
0
  0
VERTEX
  5
1DFE
  8
0
 62
7
 10
124.758373446691
 20
82.708649926361176
 70
0
  0
VERTEX
  5
1DFF
  8
0
 62
7
 10
124.9278721445653
 20
83.174254581192713
 70
0
  0
VERTEX
  5
1E00
  8
0
 62
7
 10
124.9705913285824
 20
83.300861840275644
 70
0
  0
VERTEX
  5
1E01
  8
0
 62
7
 10
125.1387119882626
 20
83.766983259429935
 70
0
  0
VERTEX
  5
1E02
  8
0
 62
7
 10
125.26686954031391
 20
84.275307098278546
 70
0
  0
VERTEX
  5
1E03
  8
0
 62
7
 10
125.3082106861369
 20
84.359195173344375
 70
0
  0
VERTEX
  5
1E04
  8
0
 62
7
 10
125.43636823818819
 20
84.868035776515754
 70
0
  0
VERTEX
  5
1E05
  8
0
 62
7
 10
125.52042856802819
 20
85.376359615364407
 70
0
  0
VERTEX
  5
1E06
  8
0
 62
7
 10
125.5631477520454
 20
85.460247690430236
 70
0
  0
VERTEX
  5
1E07
  8
0
 62
7
 10
125.6472080818854
 20
86.010257184650357
 70
0
  0
VERTEX
  5
1E08
  8
0
 62
7
 10
125.6899272659026
 20
86.518581023498953
 70
0
  0
VERTEX
  5
1E09
  8
0
 62
7
 10
125.6899272659026
 20
86.6029858628876
 70
0
  0
VERTEX
  5
1E0A
  8
0
 62
7
 10
125.7326464499197
 20
87.111309701736218
 70
0
  0
VERTEX
  5
1E0B
  8
0
 62
7
 10
125.7739875957426
 20
87.661319195956366
 70
0
  0
VERTEX
  5
1E0C
  8
0
 62
7
 10
125.7739875957426
 20
87.873364823073473
 70
0
  0
VERTEX
  5
1E0D
  8
0
 62
7
 10
125.7326464499197
 20
88.3820331714706
 70
0
  0
VERTEX
  5
1E0E
  8
0
 62
7
 10
125.6899272659026
 20
88.888978972125145
 70
0
  0
VERTEX
  5
1E0F
  8
0
 62
7
 10
125.6899272659026
 20
89.015930740756573
 70
0
  0
VERTEX
  5
1E10
  8
0
 62
7
 10
125.6472080818854
 20
89.5242545796052
 70
0
  0
VERTEX
  5
1E11
  8
0
 62
7
 10
125.5631477520454
 20
90.0325784184538
 70
0
  0
VERTEX
  5
1E12
  8
0
 62
7
 10
125.52042856802819
 20
90.116983257842435
 70
0
  0
VERTEX
  5
1E13
  8
0
 62
7
 10
125.43636823818819
 20
90.625307096691074
 70
0
  0
VERTEX
  5
1E14
  8
0
 62
7
 10
125.3082106861369
 20
91.132597406894092
 70
0
  0
VERTEX
  5
1E15
  8
0
 62
7
 10
125.26686954031391
 20
91.2180357749283
 70
0
  0
VERTEX
  5
1E16
  8
0
 62
7
 10
125.1387119882626
 20
91.724981575582774
 70
0
  0
VERTEX
  5
1E17
  8
0
 62
7
 10
124.9705913285824
 20
92.190930739962809
 70
0
  0
VERTEX
  5
1E18
  8
0
 62
7
 10
124.9278721445653
 20
92.3175379990458
 70
0
  0
VERTEX
  5
1E19
  8
0
 62
7
 10
124.758373446691
 20
92.783314908651562
 70
0
  0
VERTEX
  5
1E1A
  8
0
 62
7
 10
124.54615556479961
 20
93.249264073031611
 70
0
  0
VERTEX
  5
1E1B
  8
0
 62
7
 10
124.50481441897659
 20
93.334702441065758
 70
0
  0
VERTEX
  5
1E1C
  8
0
 62
7
 10
124.2925965370852
 20
93.798929057703219
 70
0
  0
VERTEX
  5
1E1D
  8
0
 62
7
 10
124.0390375093708
 20
94.223364821485973
 70
0
  0
VERTEX
  5
1E1E
  8
0
 62
7
 10
123.9963183253538
 20
94.350316590117416
 70
0
  0
VERTEX
  5
1E1F
  8
0
 62
7
 10
123.7427592976393
 20
94.730482876914778
 70
0
  0
VERTEX
  5
1E20
  8
0
 62
7
 10
123.44648108590791
 20
95.153540602503426
 70
0
  0
VERTEX
  5
1E21
  8
0
 62
7
 10
123.3610427178737
 20
95.238978970537616
 70
0
  0
VERTEX
  5
1E22
  8
0
 62
7
 10
123.1071391806108
 20
95.619145257334935
 70
0
  0
VERTEX
  5
1E23
  8
0
 62
7
 10
122.76848629441071
 20
96.000861837100615
 70
0
  0
VERTEX
  5
1E24
  8
0
 62
7
 10
122.7271451485877
 20
96.085266676489255
 70
0
  0
VERTEX
  5
1E25
  8
0
 62
7
 10
122.3881477528391
 20
96.424264072237875
 70
0
  0
VERTEX
  5
1E26
  8
0
 62
7
 10
122.048805847542
 20
96.76291695843787
 70
0
  0
VERTEX
  5
1E27
  8
0
 62
7
 10
121.9650900272504
 20
96.84714954305224
 70
0
  0
VERTEX
  5
1E28
  8
0
 62
7
 10
121.62609263150191
 20
97.143600009557986
 70
0
  0
VERTEX
  5
1E29
  8
0
 62
7
 10
121.2443760517362
 20
97.439533711740978
 70
0
  0
VERTEX
  5
1E2A
  8
0
 62
7
 10
121.117596537879
 20
97.525316589323666
 70
0
  0
VERTEX
  5
1E2B
  8
0
 62
7
 10
120.77997718032449
 20
97.778531107489528
 70
0
  0
VERTEX
  5
1E2C
  8
0
 62
7
 10
120.3982606005588
 20
98.032262389978214
 70
0
  0
VERTEX
  5
1E2D
  8
0
 62
7
 10
120.3142002707187
 20
98.074981573995274
 70
0
  0
VERTEX
  5
1E2E
  8
0
 62
7
 10
119.89114254513
 20
98.328540601709676
 70
0
  0
VERTEX
  5
1E2F
  8
0
 62
7
 10
119.5094259653643
 20
98.540930738375323
 70
0
  0
VERTEX
  5
1E30
  8
0
 62
7
 10
119.3826464515072
 20
98.582271884198349
 70
0
  0
VERTEX
  5
1E31
  8
0
 62
7
 10
118.95958872591849
 20
98.751598327298382
 70
0
  0
VERTEX
  5
1E32
  8
0
 62
7
 10
118.5778721461528
 20
98.9212692799469
 70
0
  0
VERTEX
  5
1E33
  8
0
 62
7
 10
118.4510926322956
 20
98.963816209189758
 70
0
  0
VERTEX
  5
1E34
  8
0
 62
7
 10
118.02803490670691
 20
99.090595723046931
 70
0
  0
VERTEX
  5
1E35
  8
0
 62
7
 10
117.6476963651353
 20
99.175861836306865
 70
0
  0
VERTEX
  5
1E36
  8
0
 62
7
 10
117.478197667261
 20
99.217202982129891
 70
0
  0
VERTEX
  5
1E37
  8
0
 62
7
 10
117.0537619034783
 20
99.302985859712564
 70
0
  0
VERTEX
  5
1E38
  8
0
 62
7
 10
116.6307041778896
 20
99.344154750761334
 70
0
  0
VERTEX
  5
1E39
  8
0
 62
7
 10
116.5039246640324
 20
99.344154750761334
 70
0
  0
VERTEX
  5
1E3A
  8
0
 62
7
 10
116.08086693844371
 20
99.386873934778421
 70
0
  0
VERTEX
  5
1E3B
  8
0
 62
7
 10
115.657809212855
 20
99.386873934778421
 70
0
  0
VERTEX
  5
1E3C
  8
0
 62
7
 10
115.23475148726639
 20
99.386873934778421
 70
0
  0
VERTEX
  5
1E3D
  8
0
 62
7
 10
114.8103157234836
 20
99.344154750761334
 70
0
  0
VERTEX
  5
1E3E
  8
0
 62
7
 10
114.7262553936435
 20
99.344154750761334
 70
0
  0
VERTEX
  5
1E3F
  8
0
 62
7
 10
114.30319766805481
 20
99.302985859712564
 70
0
  0
VERTEX
  5
1E40
  8
0
 62
7
 10
113.8801399424661
 20
99.217202982129891
 70
0
  0
VERTEX
  5
1E41
  8
0
 62
7
 10
113.7533604286089
 20
99.217202982129891
 70
0
  0
VERTEX
  5
1E42
  8
0
 62
7
 10
113.37164384884321
 20
99.090595723046931
 70
0
  0
VERTEX
  5
1E43
  8
0
 62
7
 10
112.9485861232546
 20
98.963816209189758
 70
0
  0
VERTEX
  5
1E44
  8
0
 62
7
 10
112.8631477552204
 20
98.963816209189758
 70
0
  0
VERTEX
  5
1E45
  8
0
 62
7
 10
112.48280921364881
 20
98.794145256541185
 70
0
  0
VERTEX
  5
1E46
  8
0
 62
7
 10
112.0597514880601
 20
98.6675379974583
 70
0
  0
VERTEX
  5
1E47
  8
0
 62
7
 10
111.9743131200259
 20
98.582271884198349
 70
0
  0
VERTEX
  5
1E48
  8
0
 62
7
 10
111.59397457845429
 20
98.41397896974388
 70
0
  0
VERTEX
  5
1E49
  8
0
 62
7
 10
111.2122579986887
 20
98.201933342626774
 70
0
  0
VERTEX
  5
1E4A
  8
0
 62
7
 10
111.1281976688486
 20
98.158869649061117
 70
0
  0
VERTEX
  5
1E4B
  8
0
 62
7
 10
110.747859127277
 20
97.9482020601381
 70
0
  0
VERTEX
  5
1E4C
  8
0
 62
7
 10
110.3661425475113
 20
97.6932649942296
 70
0
  0
VERTEX
  5
1E4D
  8
0
 62
7
 10
110.2820822176712
 20
97.651923848406625
 70
0
  0
VERTEX
  5
1E4E
  8
0
 62
7
 10
109.9430848219226
 20
97.355645636675163
 70
0
  0
VERTEX
  5
1E4F
  8
0
 62
7
 10
109.5613682421569
 20
97.0591951701694
 70
0
  0
VERTEX
  5
1E50
  8
0
 62
7
 10
109.52002709633391
 20
97.016648240926543
 70
0
  0
VERTEX
  5
1E51
  8
0
 62
7
 10
109.1810297005853
 20
96.677478590403723
 70
0
  0
VERTEX
  5
1E52
  8
0
 62
7
 10
108.88475148885389
 20
96.38120037867219
 70
0
  0
VERTEX
  5
1E53
  8
0
 62
7
 10
108.8006911590138
 20
96.297312303606361
 70
0
  0
VERTEX
  5
1E54
  8
0
 62
7
 10
108.5044129472823
 20
95.958314907857826
 70
0
  0
VERTEX
  5
1E55
  8
0
 62
7
 10
108.1654155515337
 20
95.619145257334935
 70
0
  0
VERTEX
  5
1E56
  8
0
 62
7
 10
108.1226963675166
 20
95.5352571822691
 70
0
  0
VERTEX
  5
1E57
  8
0
 62
7
 10
107.86913733980219
 20
95.153540602503426
 70
0
  0
VERTEX
  5
1E58
  8
0
 62
7
 10
107.6142002738937
 20
94.773202060931851
 70
0
  0
VERTEX
  5
1E59
  8
0
 62
7
 10
107.5301399440536
 20
94.730482876914778
 70
0
  0
VERTEX
  5
1E5A
  8
0
 62
7
 10
107.2762364067907
 20
94.264533712534714
 70
0
  0
VERTEX
  5
1E5B
  8
0
 62
7
 10
107.06436303444779
 20
93.884195170963139
 70
0
  0
VERTEX
  5
1E5C
  8
0
 62
7
 10
107.02164385043071
 20
93.798929057703219
 70
0
  0
VERTEX
  5
1E5D
  8
0
 62
7
 10
106.81080400673341
 20
93.375871332114514
 70
0
  0
VERTEX
  5
1E5E
  8
0
 62
7
 10
106.5985861248421
 20
92.910266677283
 70
0
  0
VERTEX
  5
1E5F
  8
0
 62
7
 10
106.5985861248421
 20
92.8685810219115
 70
0
  0
VERTEX
  5
1E60
  8
0
 62
7
 10
106.3877462811448
 20
92.360257183062856
 70
0
  0
VERTEX
  5
1E61
  8
0
 62
7
 10
106.2179030737219
 20
91.937199457474208
 70
0
  0
VERTEX
  5
1E62
  8
0
 62
7
 10
106.2179030737219
 20
91.851933344214274
 70
0
  0
VERTEX
  5
1E63
  8
0
 62
7
 10
106.04874888539619
 20
91.3446430340112
 70
0
  0
VERTEX
  5
1E64
  8
0
 62
7
 10
105.921969371539
 20
90.8788661244054
 70
0
  0
VERTEX
  5
1E65
  8
0
 62
7
 10
105.921969371539
 20
90.836319195162616
 70
0
  0
VERTEX
  5
1E66
  8
0
 62
7
 10
105.79518985768181
 20
90.329028884959541
 70
0
  0
VERTEX
  5
1E67
  8
0
 62
7
 10
105.7097514896476
 20
89.820532791336689
 70
0
  0
VERTEX
  5
1E68
  8
0
 62
7
 10
105.7097514896476
 20
89.777985862093828
 70
0
  0
VERTEX
  5
1E69
  8
0
 62
7
 10
105.6256911598075
 20
89.27069555189081
 70
0
  0
VERTEX
  5
1E6A
  8
0
 62
7
 10
105.5829719757904
 20
88.762199458267943
 70
0
  0
VERTEX
  5
1E6B
  8
0
 62
7
 10
105.5829719757904
 20
88.169643034804935
 70
0
  0
VERTEX
  5
1E6C
  8
0
 62
7
 10
105.5402527917733
 20
87.661319195956366
 70
0
  0
VERTEX
  5
1E6D
  8
0
 62
7
 10
105.5402527917733
 20
87.576914356567727
 70
0
  0
VERTEX
  5
1E6E
  8
0
 62
7
 10
105.5829719757904
 20
87.027249371896119
 70
0
  0
VERTEX
  5
1E6F
  8
0
 62
7
 10
105.6256911598075
 20
86.518581023498953
 70
0
  0
VERTEX
  5
1E70
  8
0
 62
7
 10
105.6256911598075
 20
86.4758618394819
 70
0
  0
VERTEX
  5
1E71
  8
0
 62
7
 10
105.6670323056305
 20
85.968916038827359
 70
0
  0
VERTEX
  5
1E72
  8
0
 62
7
 10
105.7524706736647
 20
85.460247690430236
 70
0
  0
VERTEX
  5
1E73
  8
0
 62
7
 10
105.7524706736647
 20
85.417528506413134
 70
0
  0
VERTEX
  5
1E74
  8
0
 62
7
 10
105.8365310035048
 20
84.910582705758614
 70
0
  0
VERTEX
  5
1E75
  8
0
 62
7
 10
105.963310517362
 20
84.401914357361477
 70
0
  0
VERTEX
  5
1E76
  8
0
 62
7
 10
106.00602970137911
 20
84.359195173344375
 70
0
  0
VERTEX
  5
1E77
  8
0
 62
7
 10
106.13280921523631
 20
83.852249372689855
 70
0
  0
VERTEX
  5
1E78
  8
0
 62
7
 10
106.2609667672876
 20
83.3863002083098
 70
0
  0
VERTEX
  5
1E79
  8
0
 62
7
 10
106.3023079131106
 20
83.343581024292718
 70
0
  0
VERTEX
  5
1E7A
  8
0
 62
7
 10
106.4718066109848
 20
82.836635223638226
 70
0
  0
VERTEX
  5
1E7B
  8
0
 62
7
 10
106.68402449287621
 20
82.412199459855429
 70
0
  0
VERTEX
  5
1E7C
  8
0
 62
7
 10
106.7253656386992
 20
82.327966875241088
 70
0
  0
VERTEX
  5
1E7D
  8
0
 62
7
 10
106.89486433657351
 20
81.904909149652383
 70
0
  0
VERTEX
  5
1E7E
  8
0
 62
7
 10
107.149801402482
 20
81.439304494820874
 70
0
  0
VERTEX
  5
1E7F
  8
0
 62
7
 10
107.191142548305
 20
81.396585310803758
 70
0
  0
VERTEX
  5
1E80
  8
0
 62
7
 10
107.4033604301964
 20
80.973699839989365
 70
0
  0
VERTEX
  5
1E81
  8
0
 62
7
 10
107.69963864192791
 20
80.550297604852148
 70
0
  0
VERTEX
  5
1E82
  8
0
 62
7
 10
107.742357825945
 20
80.507578420835074
 70
0
  0
VERTEX
  5
1E83
  8
0
 62
7
 10
107.9959168536594
 20
80.127412134037741
 70
0
  0
VERTEX
  5
1E84
  8
0
 62
7
 10
108.2921950653909
 20
79.745695554272061
 70
0
  0
VERTEX
  5
1E85
  8
0
 62
7
 10
108.376255395231
 20
79.702976370254945
 70
0
  0
VERTEX
  5
1E86
  8
0
 62
7
 10
108.6725336069624
 20
79.365357012700485
 70
0
  0
VERTEX
  5
1E87
  8
0
 62
7
 10
109.011531002711
 20
78.9836404329348
 70
0
  0
VERTEX
  5
1E88
  8
0
 62
7
 10
109.0542501867281
 20
78.942299287111808
 70
0
  0
VERTEX
  5
1E89
  8
0
 62
7
 10
109.39290307292821
 20
78.6033018913632
 70
0
  0
VERTEX
  5
1E8A
  8
0
 62
7
 10
109.73086694003121
 20
78.349742863648814
 70
0
  0
VERTEX
  5
1E8B
  8
0
 62
7
 10
109.77358612404829
 20
78.264304495614624
 70
0
  0
VERTEX
  5
1E8C
  8
0
 62
7
 10
110.155302703814
 20
77.968026283883148
 70
0
  0
VERTEX
  5
1E8D
  8
0
 62
7
 10
110.4929220613685
 20
77.7142950013945
 70
0
  0
VERTEX
  5
1E8E
  8
0
 62
7
 10
110.57836042940269
 20
77.6715758173774
 70
0
  0
VERTEX
  5
1E8F
  8
0
 62
7
 10
110.9586989709743
 20
77.459702445034523
 70
0
  0
VERTEX
  5
1E90
  8
0
 62
7
 10
111.34041555073991
 20
77.2059711625459
 70
0
  0
VERTEX
  5
1E91
  8
0
 62
7
 10
111.42447588058
 20
77.163251978528791
 70
0
  0
VERTEX
  5
1E92
  8
0
 62
7
 10
111.80481442215159
 20
76.994959064074322
 70
0
  0
VERTEX
  5
1E93
  8
0
 62
7
 10
112.1865310019173
 20
76.825632620974289
 70
0
  0
VERTEX
  5
1E94
  8
0
 62
7
 10
112.3133105157745
 20
76.740366507714356
 70
0
  0
VERTEX
  5
1E95
  8
0
 62
7
 10
112.6950270955402
 20
76.613242484308643
 70
0
  0
VERTEX
  5
1E96
  8
0
 62
7
 10
113.1180848211288
 20
76.486635225225712
 70
0
  0
VERTEX
  5
1E97
  8
0
 62
7
 10
113.2021451509689
 20
76.44391604120861
 70
0
  0
VERTEX
  5
1E98
  8
0
 62
7
 10
113.62520287655759
 20
76.360027966142781
 70
0
  0
VERTEX
  5
1E99
  8
0
 62
7
 10
114.0069194563233
 20
76.233076197511338
 70
0
  0
SEQEND
  5
1E9A
  8
0
  0
POLYLINE
  5
1E9B
  8
0
 62
7
 66
1
 70
0
 10
0
 20
0
 30
0
  0
VERTEX
  5
1E9C
  8
0
 62
7
 10
110.7892002731
 20
75.344413817091123
 70
0
  0
VERTEX
  5
1E9D
  8
0
 62
7
 10
110.7892002731
 20
75.385582708139879
 70
0
  0
VERTEX
  5
1E9E
  8
0
 62
7
 10
110.747859127277
 20
75.428301892156952
 70
0
  0
VERTEX
  5
1E9F
  8
0
 62
7
 10
110.70513994325989
 20
75.428301892156952
 70
0
  0
VERTEX
  5
1EA0
  8
0
 62
7
 10
110.66242075924281
 20
75.428301892156952
 70
0
  0
VERTEX
  5
1EA1
  8
0
 62
7
 10
110.66242075924281
 20
75.471021076174054
 70
0
  0
VERTEX
  5
1EA2
  8
0
 62
7
 10
110.6197015752257
 20
75.471021076174054
 70
0
  0
VERTEX
  5
1EA3
  8
0
 62
7
 10
110.57836042940269
 20
75.471021076174054
 70
0
  0
VERTEX
  5
1EA4
  8
0
 62
7
 10
110.45158091554551
 20
75.471021076174054
 70
0
  0
VERTEX
  5
1EA5
  8
0
 62
7
 10
110.4088617315284
 20
75.512362221997051
 70
0
  0
VERTEX
  5
1EA6
  8
0
 62
7
 10
110.3234233634942
 20
75.512362221997051
 70
0
  0
VERTEX
  5
1EA7
  8
0
 62
7
 10
110.196643849637
 20
75.512362221997051
 70
0
  0
VERTEX
  5
1EA8
  8
0
 62
7
 10
110.0698643357798
 20
75.512362221997051
 70
0
  0
VERTEX
  5
1EA9
  8
0
 62
7
 10
110.0271451517627
 20
75.512362221997051
 70
0
  0
VERTEX
  5
1EAA
  8
0
 62
7
 10
109.9858040059397
 20
75.471021076174054
 70
0
  0
VERTEX
  5
1EAB
  8
0
 62
7
 10
109.9430848219226
 20
75.471021076174054
 70
0
  0
VERTEX
  5
1EAC
  8
0
 62
7
 10
109.8163053080654
 20
75.471021076174054
 70
0
  0
VERTEX
  5
1EAD
  8
0
 62
7
 10
109.77358612404829
 20
75.471021076174054
 70
0
  0
VERTEX
  5
1EAE
  8
0
 62
7
 10
109.77358612404829
 20
75.428301892156952
 70
0
  0
VERTEX
  5
1EAF
  8
0
 62
7
 10
109.73086694003121
 20
75.428301892156952
 70
0
  0
VERTEX
  5
1EB0
  8
0
 62
7
 10
109.68952579420819
 20
75.428301892156952
 70
0
  0
VERTEX
  5
1EB1
  8
0
 62
7
 10
109.68952579420819
 20
75.385582708139879
 70
0
  0
VERTEX
  5
1EB2
  8
0
 62
7
 10
109.64680661019111
 20
75.385582708139879
 70
0
  0
VERTEX
  5
1EB3
  8
0
 62
7
 10
109.64680661019111
 20
75.344413817091123
 70
0
  0
SEQEND
  5
1EB4
  8
0
  0
POLYLINE
  5
1EB5
  8
0
 62
7
 66
1
 70
0
 10
0
 20
0
 30
0
  0
VERTEX
  5
1EB6
  8
0
 62
7
 10
109.64680661019111
 20
75.258630939508407
 70
0
  0
VERTEX
  5
1EB7
  8
0
 62
7
 10
109.64680661019111
 20
75.2159117554913
 70
0
  0
VERTEX
  5
1EB8
  8
0
 62
7
 10
109.68952579420819
 20
75.2159117554913
 70
0
  0
VERTEX
  5
1EB9
  8
0
 62
7
 10
109.68952579420819
 20
75.174742864442578
 70
0
  0
VERTEX
  5
1EBA
  8
0
 62
7
 10
109.73086694003121
 20
75.174742864442578
 70
0
  0
VERTEX
  5
1EBB
  8
0
 62
7
 10
109.77358612404829
 20
75.174742864442578
 70
0
  0
SEQEND
  5
1EBC
  8
0
  0
POLYLINE
  5
1EBD
  8
0
 62
7
 66
1
 70
0
 10
0
 20
0
 30
0
  0
VERTEX
  5
1EBE
  8
0
 62
7
 10
110.66242075924281
 20
75.174742864442578
 70
0
  0
VERTEX
  5
1EBF
  8
0
 62
7
 10
110.70513994325989
 20
75.174742864442578
 70
0
  0
VERTEX
  5
1EC0
  8
0
 62
7
 10
110.747859127277
 20
75.174742864442578
 70
0
  0
VERTEX
  5
1EC1
  8
0
 62
7
 10
110.747859127277
 20
75.2159117554913
 70
0
  0
VERTEX
  5
1EC2
  8
0
 62
7
 10
110.7892002731
 20
75.2159117554913
 70
0
  0
VERTEX
  5
1EC3
  8
0
 62
7
 10
110.7892002731
 20
75.301694633074021
 70
0
  0
VERTEX
  5
1EC4
  8
0
 62
7
 10
110.747859127277
 20
75.301694633074021
 70
0
  0
VERTEX
  5
1EC5
  8
0
 62
7
 10
110.70513994325989
 20
75.344413817091123
 70
0
  0
VERTEX
  5
1EC6
  8
0
 62
7
 10
110.66242075924281
 20
75.344413817091123
 70
0
  0
VERTEX
  5
1EC7
  8
0
 62
7
 10
110.6197015752257
 20
75.385582708139879
 70
0
  0
VERTEX
  5
1EC8
  8
0
 62
7
 10
110.53564124538561
 20
75.385582708139879
 70
0
  0
VERTEX
  5
1EC9
  8
0
 62
7
 10
110.4929220613685
 20
75.428301892156952
 70
0
  0
VERTEX
  5
1ECA
  8
0
 62
7
 10
110.4088617315284
 20
75.428301892156952
 70
0
  0
VERTEX
  5
1ECB
  8
0
 62
7
 10
110.2820822176712
 20
75.428301892156952
 70
0
  0
VERTEX
  5
1ECC
  8
0
 62
7
 10
110.155302703814
 20
75.428301892156952
 70
0
  0
VERTEX
  5
1ECD
  8
0
 62
7
 10
110.0698643357798
 20
75.428301892156952
 70
0
  0
VERTEX
  5
1ECE
  8
0
 62
7
 10
110.0271451517627
 20
75.428301892156952
 70
0
  0
VERTEX
  5
1ECF
  8
0
 62
7
 10
109.9430848219226
 20
75.428301892156952
 70
0
  0
VERTEX
  5
1ED0
  8
0
 62
7
 10
109.9430848219226
 20
75.385582708139879
 70
0
  0
VERTEX
  5
1ED1
  8
0
 62
7
 10
109.9003656379055
 20
75.385582708139879
 70
0
  0
VERTEX
  5
1ED2
  8
0
 62
7
 10
109.8163053080654
 20
75.385582708139879
 70
0
  0
VERTEX
  5
1ED3
  8
0
 62
7
 10
109.77358612404829
 20
75.344413817091123
 70
0
  0
VERTEX
  5
1ED4
  8
0
 62
7
 10
109.68952579420819
 20
75.344413817091123
 70
0
  0
VERTEX
  5
1ED5
  8
0
 62
7
 10
109.68952579420819
 20
75.301694633074021
 70
0
  0
VERTEX
  5
1ED6
  8
0
 62
7
 10
109.64680661019111
 20
75.301694633074021
 70
0
  0
VERTEX
  5
1ED7
  8
0
 62
7
 10
109.64680661019111
 20
75.258630939508407
 70
0
  0
SEQEND
  5
1ED8
  8
0
  0
POLYLINE
  5
1ED9
  8
0
 62
7
 66
1
 70
0
 10
0
 20
0
 30
0
  0
VERTEX
  5
1EDA
  8
0
 62
7
 10
110.70513994325989
 20
75.174742864442578
 70
0
  0
VERTEX
  5
1EDB
  8
0
 62
7
 10
110.70513994325989
 20
75.174742864442578
 70
0
  0
VERTEX
  5
1EDC
  8
0
 62
7
 10
110.66242075924281
 20
75.2159117554913
 70
0
  0
VERTEX
  5
1EDD
  8
0
 62
7
 10
110.6197015752257
 20
75.2159117554913
 70
0
  0
VERTEX
  5
1EDE
  8
0
 62
7
 10
110.6197015752257
 20
75.258630939508407
 70
0
  0
VERTEX
  5
1EDF
  8
0
 62
7
 10
110.57836042940269
 20
75.258630939508407
 70
0
  0
VERTEX
  5
1EE0
  8
0
 62
7
 10
110.53564124538561
 20
75.258630939508407
 70
0
  0
VERTEX
  5
1EE1
  8
0
 62
7
 10
110.4929220613685
 20
75.301694633074021
 70
0
  0
VERTEX
  5
1EE2
  8
0
 62
7
 10
110.4088617315284
 20
75.301694633074021
 70
0
  0
VERTEX
  5
1EE3
  8
0
 62
7
 10
110.3234233634942
 20
75.301694633074021
 70
0
  0
VERTEX
  5
1EE4
  8
0
 62
7
 10
110.196643849637
 20
75.301694633074021
 70
0
  0
VERTEX
  5
1EE5
  8
0
 62
7
 10
110.155302703814
 20
75.301694633074021
 70
0
  0
VERTEX
  5
1EE6
  8
0
 62
7
 10
110.0271451517627
 20
75.301694633074021
 70
0
  0
VERTEX
  5
1EE7
  8
0
 62
7
 10
109.9430848219226
 20
75.301694633074021
 70
0
  0
VERTEX
  5
1EE8
  8
0
 62
7
 10
109.9003656379055
 20
75.258630939508407
 70
0
  0
VERTEX
  5
1EE9
  8
0
 62
7
 10
109.85764645388841
 20
75.258630939508407
 70
0
  0
VERTEX
  5
1EEA
  8
0
 62
7
 10
109.8163053080654
 20
75.258630939508407
 70
0
  0
VERTEX
  5
1EEB
  8
0
 62
7
 10
109.8163053080654
 20
75.2159117554913
 70
0
  0
VERTEX
  5
1EEC
  8
0
 62
7
 10
109.77358612404829
 20
75.2159117554913
 70
0
  0
VERTEX
  5
1EED
  8
0
 62
7
 10
109.77358612404829
 20
75.174742864442578
 70
0
  0
SEQEND
  5
1EEE
  8
0
  0
POLYLINE
  5
1F01
  8
0
 62
7
 66
1
 70
8
  0
VERTEX
  5
1F02
  8
0
 62
7
 10
110.452
 20
75.0054
 30
0
 70
32
  0
VERTEX
  5
1F03
  8
0
 62
7
 10
110.452
 20
75.0054
 30
0
 70
32
  0
VERTEX
  5
1F04
  8
0
 62
7
 10
110.452
 20
75.0054
 30
0
 70
32
  0
VERTEX
  5
1F05
  8
0
 62
7
 10
110.452
 20
75.0054
 30
0
 70
32
  0
VERTEX
  5
1F06
  8
0
 62
7
 10
110.452
 20
75.0054
 30
0
 70
32
  0
VERTEX
  5
1F07
  8
0
 62
7
 10
110.452
 20
75.0054
 30
0
 70
32
  0
VERTEX
  5
1F08
  8
0
 62
7
 10
110.452
 20
75.0054
 30
0
 70
32
  0
VERTEX
  5
1F09
  8
0
 62
7
 10
110.452
 20
75.0054
 30
0
 70
32
  0
VERTEX
  5
1F0A
  8
0
 62
7
 10
110.452
 20
75.0054
 30
0
 70
32
  0
VERTEX
  5
1F0B
  8
0
 62
7
 10
110.452
 20
75.0054
 30
0
 70
32
  0
VERTEX
  5
1F0C
  8
0
 62
7
 10
110.452
 20
75.0054
 30
0
 70
32
  0
VERTEX
  5
1F0D
  8
0
 62
7
 10
110.452
 20
75.0054
 30
0
 70
32
  0
VERTEX
  5
1F0E
  8
0
 62
7
 10
110.452
 20
75.0054
 30
0
 70
32
  0
VERTEX
  5
1F0F
  8
0
 62
7
 10
110.452
 20
75.0054
 30
0
 70
32
  0
VERTEX
  5
1F10
  8
0
 62
7
 10
110.452
 20
75.0054
 30
0
 70
32
  0
VERTEX
  5
1F11
  8
0
 62
7
 10
110.452
 20
75.0054
 30
0
 70
32
  0
VERTEX
  5
1F12
  8
0
 62
7
 10
110.452
 20
75.0054
 30
0
 70
32
  0
VERTEX
  5
1F13
  8
0
 62
7
 10
110.452
 20
75.0054
 30
0
 70
32
  0
VERTEX
  5
1F14
  8
0
 62
7
 10
110.452
 20
75.0054
 30
0
 70
32
  0
VERTEX
  5
1F15
  8
0
 62
7
 10
110.452
 20
75.0054
 30
0
 70
32
  0
VERTEX
  5
1F16
  8
0
 62
7
 10
110.452
 20
75.0054
 30
0
 70
32
  0
VERTEX
  5
1F17
  8
0
 62
7
 10
110.452
 20
75.0054
 30
0
 70
32
  0
VERTEX
  5
1F18
  8
0
 62
7
 10
110.452
 20
75.0054
 30
0
 70
32
  0
VERTEX
  5
1F19
  8
0
 62
7
 10
110.452
 20
75.0054
 30
0
 70
32
  0
VERTEX
  5
1F1A
  8
0
 62
7
 10
110.452
 20
75.0054
 30
0
 70
32
  0
VERTEX
  5
1F1B
  8
0
 62
7
 10
110.452
 20
75.0054
 30
0
 70
32
  0
VERTEX
  5
1F1C
  8
0
 62
7
 10
110.452
 20
75.0054
 30
0
 70
32
  0
VERTEX
  5
1F1D
  8
0
 62
7
 10
110.452
 20
75.0054
 30
0
 70
32
  0
VERTEX
  5
1F1E
  8
0
 62
7
 10
110.452
 20
75.0054
 30
0
 70
32
  0
VERTEX
  5
1F1F
  8
0
 62
7
 10
110.452
 20
75.0054
 30
0
 70
32
  0
VERTEX
  5
1F20
  8
0
 62
7
 10
110.452
 20
75.0054
 30
0
 70
32
  0
VERTEX
  5
1F21
  8
0
 62
7
 10
110.452
 20
75.0054
 30
0
 70
32
  0
VERTEX
  5
1F22
  8
0
 62
7
 10
110.452
 20
75.0054
 30
0
 70
32
  0
VERTEX
  5
1F23
  8
0
 62
7
 10
110.452
 20
75.0054
 30
0
 70
32
  0
VERTEX
  5
1F24
  8
0
 62
7
 10
110.452
 20
75.0054
 30
0
 70
32
  0
VERTEX
  5
1F25
  8
0
 62
7
 10
110.452
 20
75.0054
 30
0
 70
32
  0
VERTEX
  5
1F26
  8
0
 62
7
 10
110.452
 20
75.0054
 30
0
 70
32
  0
VERTEX
  5
1F27
  8
0
 62
7
 10
110.452
 20
75.0054
 30
0
 70
32
  0
VERTEX
  5
1F28
  8
0
 62
7
 10
110.452
 20
75.0054
 30
0
 70
32
  0
VERTEX
  5
1F29
  8
0
 62
7
 10
110.452
 20
75.0054
 30
0
 70
32
  0
VERTEX
  5
1F2A
  8
0
 62
7
 10
110.452
 20
75.0054
 30
0
 70
32
  0
VERTEX
  5
1F2B
  8
0
 62
7
 10
110.452
 20
75.0054
 30
0
 70
32
  0
VERTEX
  5
1F2C
  8
0
 62
7
 10
110.452
 20
75.0054
 30
0
 70
32
  0
VERTEX
  5
1F2D
  8
0
 62
7
 10
110.452
 20
75.0054
 30
0
 70
32
  0
VERTEX
  5
1F2E
  8
0
 62
7
 10
110.452
 20
75.0054
 30
0
 70
32
  0
VERTEX
  5
1F2F
  8
0
 62
7
 10
110.452
 20
75.0054
 30
0
 70
32
  0
VERTEX
  5
1F30
  8
0
 62
7
 10
110.452
 20
75.0054
 30
0
 70
32
  0
VERTEX
  5
1F31
  8
0
 62
7
 10
110.452
 20
75.0054
 30
0
 70
32
  0
VERTEX
  5
1F32
  8
0
 62
7
 10
110.452
 20
75.0054
 30
0
 70
32
  0
VERTEX
  5
1F33
  8
0
 62
7
 10
110.452
 20
75.0054
 30
0
 70
32
  0
VERTEX
  5
1F34
  8
0
 62
7
 10
110.452
 20
75.0054
 30
0
 70
32
  0
VERTEX
  5
1F35
  8
0
 62
7
 10
110.452
 20
75.0054
 30
0
 70
32
  0
VERTEX
  5
1F36
  8
0
 62
7
 10
110.452
 20
75.0054
 30
0
 70
32
  0
VERTEX
  5
1F37
  8
0
 62
7
 10
110.452
 20
75.0054
 30
0
 70
32
  0
VERTEX
  5
1F38
  8
0
 62
7
 10
110.452
 20
75.0054
 30
0
 70
32
  0
VERTEX
  5
1F39
  8
0
 62
7
 10
110.452
 20
75.0054
 30
0
 70
32
  0
VERTEX
  5
1F3A
  8
0
 62
7
 10
110.452
 20
75.0054
 30
0
 70
32
  0
VERTEX
  5
1F3B
  8
0
 62
7
 10
110.452
 20
75.0054
 30
0
 70
32
  0
VERTEX
  5
1F3C
  8
0
 62
7
 10
110.452
 20
75.0054
 30
0
 70
32
  0
VERTEX
  5
1F3D
  8
0
 62
7
 10
110.452
 20
75.0054
 30
0
 70
32
  0
VERTEX
  5
1F3E
  8
0
 62
7
 10
110.452
 20
75.0054
 30
0
 70
32
  0
VERTEX
  5
1F3F
  8
0
 62
7
 10
110.452
 20
75.0054
 30
0
 70
32
  0
VERTEX
  5
1F40
  8
0
 62
7
 10
110.452
 20
75.0054
 30
0
 70
32
  0
VERTEX
  5
1F41
  8
0
 62
7
 10
110.452
 20
75.0054
 30
0
 70
32
  0
VERTEX
  5
1F42
  8
0
 62
7
 10
110.452
 20
75.0054
 30
0
 70
32
  0
VERTEX
  5
1F43
  8
0
 62
7
 10
110.452
 20
75.0054
 30
0
 70
32
  0
VERTEX
  5
1F44
  8
0
 62
7
 10
110.452
 20
75.0054
 30
0
 70
32
  0
VERTEX
  5
1F45
  8
0
 62
7
 10
110.452
 20
75.0054
 30
0
 70
32
  0
VERTEX
  5
1F46
  8
0
 62
7
 10
110.452
 20
75.0054
 30
0
 70
32
  0
VERTEX
  5
1F47
  8
0
 62
7
 10
110.452
 20
75.0054
 30
0
 70
32
  0
VERTEX
  5
1F48
  8
0
 62
7
 10
110.452
 20
75.0054
 30
0
 70
32
  0
VERTEX
  5
1F49
  8
0
 62
7
 10
110.452
 20
75.0054
 30
0
 70
32
  0
VERTEX
  5
1F4A
  8
0
 62
7
 10
110.452
 20
75.0054
 30
0
 70
32
  0
VERTEX
  5
1F4B
  8
0
 62
7
 10
110.452
 20
75.0054
 30
0
 70
32
  0
VERTEX
  5
1F4C
  8
0
 62
7
 10
110.452
 20
75.0054
 30
0
 70
32
  0
VERTEX
  5
1F4D
  8
0
 62
7
 10
110.452
 20
75.0054
 30
0
 70
32
  0
VERTEX
  5
1F4E
  8
0
 62
7
 10
110.452
 20
75.0054
 30
0
 70
32
  0
VERTEX
  5
1F4F
  8
0
 62
7
 10
110.452
 20
75.0054
 30
0
 70
32
  0
VERTEX
  5
1F50
  8
0
 62
7
 10
110.452
 20
75.0054
 30
0
 70
32
  0
VERTEX
  5
1F51
  8
0
 62
7
 10
110.452
 20
75.0054
 30
0
 70
32
  0
VERTEX
  5
1F52
  8
0
 62
7
 10
110.452
 20
75.0054
 30
0
 70
32
  0
VERTEX
  5
1F53
  8
0
 62
7
 10
110.452
 20
75.0054
 30
0
 70
32
  0
VERTEX
  5
1F54
  8
0
 62
7
 10
110.452
 20
75.0054
 30
0
 70
32
  0
VERTEX
  5
1F55
  8
0
 62
7
 10
110.452
 20
75.0054
 30
0
 70
32
  0
VERTEX
  5
1F56
  8
0
 62
7
 10
110.452
 20
75.0054
 30
0
 70
32
  0
VERTEX
  5
1F57
  8
0
 62
7
 10
110.452
 20
75.0054
 30
0
 70
32
  0
VERTEX
  5
1F58
  8
0
 62
7
 10
110.452
 20
75.0054
 30
0
 70
32
  0
VERTEX
  5
1F59
  8
0
 62
7
 10
110.452
 20
75.0054
 30
0
 70
32
  0
VERTEX
  5
1F5A
  8
0
 62
7
 10
110.452
 20
75.0054
 30
0
 70
32
  0
VERTEX
  5
1F5B
  8
0
 62
7
 10
110.452
 20
75.0054
 30
0
 70
32
  0
VERTEX
  5
1F5C
  8
0
 62
7
 10
110.452
 20
75.0054
 30
0
 70
32
  0
VERTEX
  5
1F5D
  8
0
 62
7
 10
110.452
 20
75.0054
 30
0
 70
32
  0
VERTEX
  5
1F5E
  8
0
 62
7
 10
110.452
 20
75.0054
 30
0
 70
32
  0
VERTEX
  5
1F5F
  8
0
 62
7
 10
110.452
 20
75.0054
 30
0
 70
32
  0
VERTEX
  5
1F60
  8
0
 62
7
 10
110.452
 20
75.0054
 30
0
 70
32
  0
VERTEX
  5
1F61
  8
0
 62
7
 10
110.452
 20
75.0054
 30
0
 70
32
  0
VERTEX
  5
1F62
  8
0
 62
7
 10
110.452
 20
75.0054
 30
0
 70
32
  0
VERTEX
  5
1F63
  8
0
 62
7
 10
110.452
 20
75.0054
 30
0
 70
32
  0
VERTEX
  5
1F64
  8
0
 62
7
 10
110.452
 20
75.0054
 30
0
 70
32
  0
VERTEX
  5
1F65
  8
0
 62
7
 10
110.452
 20
75.0054
 30
0
 70
32
  0
VERTEX
  5
1F66
  8
0
 62
7
 10
110.452
 20
75.0055
 30
0
 70
32
  0
VERTEX
  5
1F67
  8
0
 62
7
 10
110.452
 20
75.0055
 30
0
 70
32
  0
VERTEX
  5
1F68
  8
0
 62
7
 10
110.452
 20
75.0056
 30
0
 70
32
  0
VERTEX
  5
1F69
  8
0
 62
7
 10
110.452
 20
75.0058
 30
0
 70
32
  0
VERTEX
  5
1F6A
  8
0
 62
7
 10
110.452
 20
75.0059
 30
0
 70
32
  0
VERTEX
  5
1F6B
  8
0
 62
7
 10
110.452
 20
75.0061
 30
0
 70
32
  0
VERTEX
  5
1F6C
  8
0
 62
7
 10
110.452
 20
75.0063
 30
0
 70
32
  0
VERTEX
  5
1F6D
  8
0
 62
7
 10
110.453
 20
75.0065
 30
0
 70
32
  0
VERTEX
  5
1F6E
  8
0
 62
7
 10
110.453
 20
75.0067
 30
0
 70
32
  0
VERTEX
  5
1F6F
  8
0
 62
7
 10
110.453
 20
75.007
 30
0
 70
32
  0
VERTEX
  5
1F70
  8
0
 62
7
 10
110.453
 20
75.0072
 30
0
 70
32
  0
VERTEX
  5
1F71
  8
0
 62
7
 10
110.454
 20
75.0075
 30
0
 70
32
  0
VERTEX
  5
1F72
  8
0
 62
7
 10
110.454
 20
75.0078
 30
0
 70
32
  0
VERTEX
  5
1F73
  8
0
 62
7
 10
110.454
 20
75.0082
 30
0
 70
32
  0
VERTEX
  5
1F74
  8
0
 62
7
 10
110.455
 20
75.0085
 30
0
 70
32
  0
VERTEX
  5
1F75
  8
0
 62
7
 10
110.455
 20
75.0089
 30
0
 70
32
  0
VERTEX
  5
1F76
  8
0
 62
7
 10
110.455
 20
75.0093
 30
0
 70
32
  0
VERTEX
  5
1F77
  8
0
 62
7
 10
110.456
 20
75.0097
 30
0
 70
32
  0
VERTEX
  5
1F78
  8
0
 62
7
 10
110.456
 20
75.0101
 30
0
 70
32
  0
VERTEX
  5
1F79
  8
0
 62
7
 10
110.457
 20
75.0105
 30
0
 70
32
  0
VERTEX
  5
1F7A
  8
0
 62
7
 10
110.457
 20
75.011
 30
0
 70
32
  0
VERTEX
  5
1F7B
  8
0
 62
7
 10
110.457
 20
75.0114
 30
0
 70
32
  0
VERTEX
  5
1F7C
  8
0
 62
7
 10
110.458
 20
75.0119
 30
0
 70
32
  0
VERTEX
  5
1F7D
  8
0
 62
7
 10
110.458
 20
75.0124
 30
0
 70
32
  0
VERTEX
  5
1F7E
  8
0
 62
7
 10
110.459
 20
75.0129
 30
0
 70
32
  0
VERTEX
  5
1F7F
  8
0
 62
7
 10
110.459
 20
75.0134
 30
0
 70
32
  0
VERTEX
  5
1F80
  8
0
 62
7
 10
110.46
 20
75.014
 30
0
 70
32
  0
VERTEX
  5
1F81
  8
0
 62
7
 10
110.46
 20
75.0145
 30
0
 70
32
  0
VERTEX
  5
1F82
  8
0
 62
7
 10
110.461
 20
75.0151
 30
0
 70
32
  0
VERTEX
  5
1F83
  8
0
 62
7
 10
110.462
 20
75.0156
 30
0
 70
32
  0
VERTEX
  5
1F84
  8
0
 62
7
 10
110.462
 20
75.0162
 30
0
 70
32
  0
VERTEX
  5
1F85
  8
0
 62
7
 10
110.463
 20
75.0168
 30
0
 70
32
  0
VERTEX
  5
1F86
  8
0
 62
7
 10
110.463
 20
75.0174
 30
0
 70
32
  0
VERTEX
  5
1F87
  8
0
 62
7
 10
110.464
 20
75.018
 30
0
 70
32
  0
VERTEX
  5
1F88
  8
0
 62
7
 10
110.464
 20
75.0186
 30
0
 70
32
  0
VERTEX
  5
1F89
  8
0
 62
7
 10
110.465
 20
75.0192
 30
0
 70
32
  0
VERTEX
  5
1F8A
  8
0
 62
7
 10
110.466
 20
75.0198
 30
0
 70
32
  0
VERTEX
  5
1F8B
  8
0
 62
7
 10
110.466
 20
75.0204
 30
0
 70
32
  0
VERTEX
  5
1F8C
  8
0
 62
7
 10
110.467
 20
75.0211
 30
0
 70
32
  0
VERTEX
  5
1F8D
  8
0
 62
7
 10
110.467
 20
75.0217
 30
0
 70
32
  0
VERTEX
  5
1F8E
  8
0
 62
7
 10
110.468
 20
75.0223
 30
0
 70
32
  0
VERTEX
  5
1F8F
  8
0
 62
7
 10
110.469
 20
75.023
 30
0
 70
32
  0
VERTEX
  5
1F90
  8
0
 62
7
 10
110.469
 20
75.0236
 30
0
 70
32
  0
VERTEX
  5
1F91
  8
0
 62
7
 10
110.47
 20
75.0243
 30
0
 70
32
  0
VERTEX
  5
1F92
  8
0
 62
7
 10
110.471
 20
75.0249
 30
0
 70
32
  0
VERTEX
  5
1F93
  8
0
 62
7
 10
110.471
 20
75.0256
 30
0
 70
32
  0
VERTEX
  5
1F94
  8
0
 62
7
 10
110.472
 20
75.0262
 30
0
 70
32
  0
VERTEX
  5
1F95
  8
0
 62
7
 10
110.472
 20
75.0269
 30
0
 70
32
  0
VERTEX
  5
1F96
  8
0
 62
7
 10
110.473
 20
75.0275
 30
0
 70
32
  0
VERTEX
  5
1F97
  8
0
 62
7
 10
110.474
 20
75.0282
 30
0
 70
32
  0
VERTEX
  5
1F98
  8
0
 62
7
 10
110.474
 20
75.0288
 30
0
 70
32
  0
VERTEX
  5
1F99
  8
0
 62
7
 10
110.475
 20
75.0295
 30
0
 70
32
  0
VERTEX
  5
1F9A
  8
0
 62
7
 10
110.476
 20
75.0301
 30
0
 70
32
  0
VERTEX
  5
1F9B
  8
0
 62
7
 10
110.476
 20
75.0308
 30
0
 70
32
  0
VERTEX
  5
1F9C
  8
0
 62
7
 10
110.477
 20
75.0314
 30
0
 70
32
  0
VERTEX
  5
1F9D
  8
0
 62
7
 10
110.477
 20
75.032
 30
0
 70
32
  0
VERTEX
  5
1F9E
  8
0
 62
7
 10
110.478
 20
75.0327
 30
0
 70
32
  0
VERTEX
  5
1F9F
  8
0
 62
7
 10
110.479
 20
75.0333
 30
0
 70
32
  0
VERTEX
  5
1FA0
  8
0
 62
7
 10
110.479
 20
75.0339
 30
0
 70
32
  0
VERTEX
  5
1FA1
  8
0
 62
7
 10
110.48
 20
75.0345
 30
0
 70
32
  0
VERTEX
  5
1FA2
  8
0
 62
7
 10
110.48
 20
75.0351
 30
0
 70
32
  0
VERTEX
  5
1FA3
  8
0
 62
7
 10
110.481
 20
75.0357
 30
0
 70
32
  0
VERTEX
  5
1FA4
  8
0
 62
7
 10
110.482
 20
75.0363
 30
0
 70
32
  0
VERTEX
  5
1FA5
  8
0
 62
7
 10
110.482
 20
75.0369
 30
0
 70
32
  0
VERTEX
  5
1FA6
  8
0
 62
7
 10
110.483
 20
75.0375
 30
0
 70
32
  0
VERTEX
  5
1FA7
  8
0
 62
7
 10
110.483
 20
75.0381
 30
0
 70
32
  0
VERTEX
  5
1FA8
  8
0
 62
7
 10
110.484
 20
75.0386
 30
0
 70
32
  0
VERTEX
  5
1FA9
  8
0
 62
7
 10
110.484
 20
75.0392
 30
0
 70
32
  0
VERTEX
  5
1FAA
  8
0
 62
7
 10
110.485
 20
75.0397
 30
0
 70
32
  0
VERTEX
  5
1FAB
  8
0
 62
7
 10
110.485
 20
75.0402
 30
0
 70
32
  0
VERTEX
  5
1FAC
  8
0
 62
7
 10
110.486
 20
75.0407
 30
0
 70
32
  0
VERTEX
  5
1FAD
  8
0
 62
7
 10
110.486
 20
75.0412
 30
0
 70
32
  0
VERTEX
  5
1FAE
  8
0
 62
7
 10
110.487
 20
75.0417
 30
0
 70
32
  0
VERTEX
  5
1FAF
  8
0
 62
7
 10
110.487
 20
75.0422
 30
0
 70
32
  0
VERTEX
  5
1FB0
  8
0
 62
7
 10
110.488
 20
75.0426
 30
0
 70
32
  0
VERTEX
  5
1FB1
  8
0
 62
7
 10
110.488
 20
75.0431
 30
0
 70
32
  0
VERTEX
  5
1FB2
  8
0
 62
7
 10
110.489
 20
75.0435
 30
0
 70
32
  0
VERTEX
  5
1FB3
  8
0
 62
7
 10
110.489
 20
75.0439
 30
0
 70
32
  0
VERTEX
  5
1FB4
  8
0
 62
7
 10
110.489
 20
75.0443
 30
0
 70
32
  0
VERTEX
  5
1FB5
  8
0
 62
7
 10
110.49
 20
75.0447
 30
0
 70
32
  0
VERTEX
  5
1FB6
  8
0
 62
7
 10
110.49
 20
75.045
 30
0
 70
32
  0
VERTEX
  5
1FB7
  8
0
 62
7
 10
110.49
 20
75.0454
 30
0
 70
32
  0
VERTEX
  5
1FB8
  8
0
 62
7
 10
110.491
 20
75.0457
 30
0
 70
32
  0
VERTEX
  5
1FB9
  8
0
 62
7
 10
110.491
 20
75.046
 30
0
 70
32
  0
VERTEX
  5
1FBA
  8
0
 62
7
 10
110.491
 20
75.0463
 30
0
 70
32
  0
VERTEX
  5
1FBB
  8
0
 62
7
 10
110.492
 20
75.0466
 30
0
 70
32
  0
VERTEX
  5
1FBC
  8
0
 62
7
 10
110.492
 20
75.0468
 30
0
 70
32
  0
VERTEX
  5
1FBD
  8
0
 62
7
 10
110.492
 20
75.047
 30
0
 70
32
  0
VERTEX
  5
1FBE
  8
0
 62
7
 10
110.492
 20
75.0472
 30
0
 70
32
  0
VERTEX
  5
1FBF
  8
0
 62
7
 10
110.492
 20
75.0474
 30
0
 70
32
  0
VERTEX
  5
1FC0
  8
0
 62
7
 10
110.493
 20
75.0476
 30
0
 70
32
  0
VERTEX
  5
1FC1
  8
0
 62
7
 10
110.493
 20
75.0477
 30
0
 70
32
  0
VERTEX
  5
1FC2
  8
0
 62
7
 10
110.493
 20
75.0478
 30
0
 70
32
  0
VERTEX
  5
1FC3
  8
0
 62
7
 10
110.493
 20
75.0479
 30
0
 70
32
  0
VERTEX
  5
1FC4
  8
0
 62
7
 10
110.493
 20
75.0479
 30
0
 70
32
  0
VERTEX
  5
1FC5
  8
0
 62
7
 10
110.493
 20
75.048
 30
0
 70
32
  0
VERTEX
  5
1FC6
  8
0
 62
7
 10
110.493
 20
75.048
 30
0
 70
32
  0
VERTEX
  5
1FC7
  8
0
 62
7
 10
110.493
 20
75.048
 30
0
 70
32
  0
VERTEX
  5
1FC8
  8
0
 62
7
 10
110.493
 20
75.048
 30
0
 70
32
  0
VERTEX
  5
1FC9
  8
0
 62
7
 10
110.493
 20
75.048
 30
0
 70
32
  0
VERTEX
  5
1FCA
  8
0
 62
7
 10
110.493
 20
75.048
 30
0
 70
32
  0
VERTEX
  5
1FCB
  8
0
 62
7
 10
110.493
 20
75.048
 30
0
 70
32
  0
VERTEX
  5
1FCC
  8
0
 62
7
 10
110.493
 20
75.048
 30
0
 70
32
  0
VERTEX
  5
1FCD
  8
0
 62
7
 10
110.494
 20
75.048
 30
0
 70
32
  0
VERTEX
  5
1FCE
  8
0
 62
7
 10
110.494
 20
75.048
 30
0
 70
32
  0
VERTEX
  5
1FCF
  8
0
 62
7
 10
110.494
 20
75.048
 30
0
 70
32
  0
VERTEX
  5
1FD0
  8
0
 62
7
 10
110.494
 20
75.048
 30
0
 70
32
  0
VERTEX
  5
1FD1
  8
0
 62
7
 10
110.495
 20
75.048
 30
0
 70
32
  0
VERTEX
  5
1FD2
  8
0
 62
7
 10
110.495
 20
75.048
 30
0
 70
32
  0
VERTEX
  5
1FD3
  8
0
 62
7
 10
110.495
 20
75.048
 30
0
 70
32
  0
VERTEX
  5
1FD4
  8
0
 62
7
 10
110.495
 20
75.048
 30
0
 70
32
  0
VERTEX
  5
1FD5
  8
0
 62
7
 10
110.496
 20
75.048
 30
0
 70
32
  0
VERTEX
  5
1FD6
  8
0
 62
7
 10
110.496
 20
75.048
 30
0
 70
32
  0
VERTEX
  5
1FD7
  8
0
 62
7
 10
110.496
 20
75.048
 30
0
 70
32
  0
VERTEX
  5
1FD8
  8
0
 62
7
 10
110.497
 20
75.048
 30
0
 70
32
  0
VERTEX
  5
1FD9
  8
0
 62
7
 10
110.497
 20
75.048
 30
0
 70
32
  0
VERTEX
  5
1FDA
  8
0
 62
7
 10
110.498
 20
75.048
 30
0
 70
32
  0
VERTEX
  5
1FDB
  8
0
 62
7
 10
110.498
 20
75.048
 30
0
 70
32
  0
VERTEX
  5
1FDC
  8
0
 62
7
 10
110.499
 20
75.048
 30
0
 70
32
  0
VERTEX
  5
1FDD
  8
0
 62
7
 10
110.499
 20
75.048
 30
0
 70
32
  0
VERTEX
  5
1FDE
  8
0
 62
7
 10
110.5
 20
75.048
 30
0
 70
32
  0
VERTEX
  5
1FDF
  8
0
 62
7
 10
110.5
 20
75.048
 30
0
 70
32
  0
VERTEX
  5
1FE0
  8
0
 62
7
 10
110.501
 20
75.048
 30
0
 70
32
  0
VERTEX
  5
1FE1
  8
0
 62
7
 10
110.501
 20
75.048
 30
0
 70
32
  0
VERTEX
  5
1FE2
  8
0
 62
7
 10
110.502
 20
75.048
 30
0
 70
32
  0
VERTEX
  5
1FE3
  8
0
 62
7
 10
110.502
 20
75.048
 30
0
 70
32
  0
VERTEX
  5
1FE4
  8
0
 62
7
 10
110.503
 20
75.048
 30
0
 70
32
  0
VERTEX
  5
1FE5
  8
0
 62
7
 10
110.503
 20
75.048
 30
0
 70
32
  0
VERTEX
  5
1FE6
  8
0
 62
7
 10
110.504
 20
75.048
 30
0
 70
32
  0
VERTEX
  5
1FE7
  8
0
 62
7
 10
110.504
 20
75.048
 30
0
 70
32
  0
VERTEX
  5
1FE8
  8
0
 62
7
 10
110.505
 20
75.048
 30
0
 70
32
  0
VERTEX
  5
1FE9
  8
0
 62
7
 10
110.506
 20
75.048
 30
0
 70
32
  0
VERTEX
  5
1FEA
  8
0
 62
7
 10
110.506
 20
75.048
 30
0
 70
32
  0
VERTEX
  5
1FEB
  8
0
 62
7
 10
110.507
 20
75.048
 30
0
 70
32
  0
VERTEX
  5
1FEC
  8
0
 62
7
 10
110.507
 20
75.048
 30
0
 70
32
  0
VERTEX
  5
1FED
  8
0
 62
7
 10
110.508
 20
75.048
 30
0
 70
32
  0
VERTEX
  5
1FEE
  8
0
 62
7
 10
110.509
 20
75.048
 30
0
 70
32
  0
VERTEX
  5
1FEF
  8
0
 62
7
 10
110.509
 20
75.048
 30
0
 70
32
  0
VERTEX
  5
1FF0
  8
0
 62
7
 10
110.51
 20
75.048
 30
0
 70
32
  0
VERTEX
  5
1FF1
  8
0
 62
7
 10
110.511
 20
75.048
 30
0
 70
32
  0
VERTEX
  5
1FF2
  8
0
 62
7
 10
110.511
 20
75.048
 30
0
 70
32
  0
VERTEX
  5
1FF3
  8
0
 62
7
 10
110.512
 20
75.048
 30
0
 70
32
  0
VERTEX
  5
1FF4
  8
0
 62
7
 10
110.513
 20
75.048
 30
0
 70
32
  0
VERTEX
  5
1FF5
  8
0
 62
7
 10
110.513
 20
75.048
 30
0
 70
32
  0
VERTEX
  5
1FF6
  8
0
 62
7
 10
110.514
 20
75.048
 30
0
 70
32
  0
VERTEX
  5
1FF7
  8
0
 62
7
 10
110.515
 20
75.048
 30
0
 70
32
  0
VERTEX
  5
1FF8
  8
0
 62
7
 10
110.515
 20
75.048
 30
0
 70
32
  0
VERTEX
  5
1FF9
  8
0
 62
7
 10
110.516
 20
75.048
 30
0
 70
32
  0
VERTEX
  5
1FFA
  8
0
 62
7
 10
110.517
 20
75.048
 30
0
 70
32
  0
VERTEX
  5
1FFB
  8
0
 62
7
 10
110.517
 20
75.048
 30
0
 70
32
  0
VERTEX
  5
1FFC
  8
0
 62
7
 10
110.518
 20
75.048
 30
0
 70
32
  0
VERTEX
  5
1FFD
  8
0
 62
7
 10
110.518
 20
75.048
 30
0
 70
32
  0
VERTEX
  5
1FFE
  8
0
 62
7
 10
110.519
 20
75.048
 30
0
 70
32
  0
VERTEX
  5
1FFF
  8
0
 62
7
 10
110.52
 20
75.048
 30
0
 70
32
  0
VERTEX
  5
2000
  8
0
 62
7
 10
110.52
 20
75.048
 30
0
 70
32
  0
VERTEX
  5
2001
  8
0
 62
7
 10
110.521
 20
75.048
 30
0
 70
32
  0
VERTEX
  5
2002
  8
0
 62
7
 10
110.522
 20
75.048
 30
0
 70
32
  0
VERTEX
  5
2003
  8
0
 62
7
 10
110.522
 20
75.048
 30
0
 70
32
  0
VERTEX
  5
2004
  8
0
 62
7
 10
110.523
 20
75.048
 30
0
 70
32
  0
VERTEX
  5
2005
  8
0
 62
7
 10
110.523
 20
75.048
 30
0
 70
32
  0
VERTEX
  5
2006
  8
0
 62
7
 10
110.524
 20
75.048
 30
0
 70
32
  0
VERTEX
  5
2007
  8
0
 62
7
 10
110.525
 20
75.048
 30
0
 70
32
  0
VERTEX
  5
2008
  8
0
 62
7
 10
110.525
 20
75.048
 30
0
 70
32
  0
VERTEX
  5
2009
  8
0
 62
7
 10
110.526
 20
75.048
 30
0
 70
32
  0
VERTEX
  5
200A
  8
0
 62
7
 10
110.526
 20
75.048
 30
0
 70
32
  0
VERTEX
  5
200B
  8
0
 62
7
 10
110.527
 20
75.048
 30
0
 70
32
  0
VERTEX
  5
200C
  8
0
 62
7
 10
110.527
 20
75.048
 30
0
 70
32
  0
VERTEX
  5
200D
  8
0
 62
7
 10
110.528
 20
75.048
 30
0
 70
32
  0
VERTEX
  5
200E
  8
0
 62
7
 10
110.528
 20
75.048
 30
0
 70
32
  0
VERTEX
  5
200F
  8
0
 62
7
 10
110.529
 20
75.048
 30
0
 70
32
  0
VERTEX
  5
2010
  8
0
 62
7
 10
110.529
 20
75.048
 30
0
 70
32
  0
VERTEX
  5
2011
  8
0
 62
7
 10
110.53
 20
75.048
 30
0
 70
32
  0
VERTEX
  5
2012
  8
0
 62
7
 10
110.53
 20
75.048
 30
0
 70
32
  0
VERTEX
  5
2013
  8
0
 62
7
 10
110.531
 20
75.048
 30
0
 70
32
  0
VERTEX
  5
2014
  8
0
 62
7
 10
110.531
 20
75.048
 30
0
 70
32
  0
VERTEX
  5
2015
  8
0
 62
7
 10
110.532
 20
75.048
 30
0
 70
32
  0
VERTEX
  5
2016
  8
0
 62
7
 10
110.532
 20
75.048
 30
0
 70
32
  0
VERTEX
  5
2017
  8
0
 62
7
 10
110.532
 20
75.048
 30
0
 70
32
  0
VERTEX
  5
2018
  8
0
 62
7
 10
110.533
 20
75.048
 30
0
 70
32
  0
VERTEX
  5
2019
  8
0
 62
7
 10
110.533
 20
75.048
 30
0
 70
32
  0
VERTEX
  5
201A
  8
0
 62
7
 10
110.533
 20
75.048
 30
0
 70
32
  0
VERTEX
  5
201B
  8
0
 62
7
 10
110.534
 20
75.048
 30
0
 70
32
  0
VERTEX
  5
201C
  8
0
 62
7
 10
110.534
 20
75.048
 30
0
 70
32
  0
VERTEX
  5
201D
  8
0
 62
7
 10
110.534
 20
75.048
 30
0
 70
32
  0
VERTEX
  5
201E
  8
0
 62
7
 10
110.535
 20
75.048
 30
0
 70
32
  0
VERTEX
  5
201F
  8
0
 62
7
 10
110.535
 20
75.048
 30
0
 70
32
  0
VERTEX
  5
2020
  8
0
 62
7
 10
110.535
 20
75.048
 30
0
 70
32
  0
VERTEX
  5
2021
  8
0
 62
7
 10
110.535
 20
75.048
 30
0
 70
32
  0
VERTEX
  5
2022
  8
0
 62
7
 10
110.535
 20
75.048
 30
0
 70
32
  0
VERTEX
  5
2023
  8
0
 62
7
 10
110.535
 20
75.048
 30
0
 70
32
  0
VERTEX
  5
2024
  8
0
 62
7
 10
110.535
 20
75.048
 30
0
 70
32
  0
VERTEX
  5
2025
  8
0
 62
7
 10
110.536
 20
75.048
 30
0
 70
32
  0
VERTEX
  5
2026
  8
0
 62
7
 10
110.536
 20
75.048
 30
0
 70
32
  0
VERTEX
  5
2027
  8
0
 62
7
 10
110.536
 20
75.048
 30
0
 70
32
  0
VERTEX
  5
2028
  8
0
 62
7
 10
110.536
 20
75.048
 30
0
 70
32
  0
VERTEX
  5
2029
  8
0
 62
7
 10
110.536
 20
75.048
 30
0
 70
32
  0
VERTEX
  5
202A
  8
0
 62
7
 10
110.536
 20
75.048
 30
0
 70
32
  0
VERTEX
  5
202B
  8
0
 62
7
 10
110.535
 20
75.048
 30
0
 70
32
  0
VERTEX
  5
202C
  8
0
 62
7
 10
110.535
 20
75.048
 30
0
 70
32
  0
VERTEX
  5
202D
  8
0
 62
7
 10
110.535
 20
75.048
 30
0
 70
32
  0
VERTEX
  5
202E
  8
0
 62
7
 10
110.535
 20
75.048
 30
0
 70
32
  0
VERTEX
  5
202F
  8
0
 62
7
 10
110.535
 20
75.048
 30
0
 70
32
  0
VERTEX
  5
2030
  8
0
 62
7
 10
110.535
 20
75.048
 30
0
 70
32
  0
VERTEX
  5
2031
  8
0
 62
7
 10
110.535
 20
75.048
 30
0
 70
32
  0
VERTEX
  5
2032
  8
0
 62
7
 10
110.534
 20
75.048
 30
0
 70
32
  0
VERTEX
  5
2033
  8
0
 62
7
 10
110.534
 20
75.048
 30
0
 70
32
  0
VERTEX
  5
2034
  8
0
 62
7
 10
110.534
 20
75.048
 30
0
 70
32
  0
VERTEX
  5
2035
  8
0
 62
7
 10
110.533
 20
75.048
 30
0
 70
32
  0
VERTEX
  5
2036
  8
0
 62
7
 10
110.533
 20
75.048
 30
0
 70
32
  0
VERTEX
  5
2037
  8
0
 62
7
 10
110.533
 20
75.048
 30
0
 70
32
  0
VERTEX
  5
2038
  8
0
 62
7
 10
110.532
 20
75.048
 30
0
 70
32
  0
VERTEX
  5
2039
  8
0
 62
7
 10
110.532
 20
75.048
 30
0
 70
32
  0
VERTEX
  5
203A
  8
0
 62
7
 10
110.532
 20
75.048
 30
0
 70
32
  0
VERTEX
  5
203B
  8
0
 62
7
 10
110.531
 20
75.048
 30
0
 70
32
  0
VERTEX
  5
203C
  8
0
 62
7
 10
110.531
 20
75.048
 30
0
 70
32
  0
VERTEX
  5
203D
  8
0
 62
7
 10
110.53
 20
75.048
 30
0
 70
32
  0
VERTEX
  5
203E
  8
0
 62
7
 10
110.53
 20
75.048
 30
0
 70
32
  0
VERTEX
  5
203F
  8
0
 62
7
 10
110.529
 20
75.048
 30
0
 70
32
  0
VERTEX
  5
2040
  8
0
 62
7
 10
110.529
 20
75.048
 30
0
 70
32
  0
VERTEX
  5
2041
  8
0
 62
7
 10
110.528
 20
75.048
 30
0
 70
32
  0
VERTEX
  5
2042
  8
0
 62
7
 10
110.528
 20
75.048
 30
0
 70
32
  0
VERTEX
  5
2043
  8
0
 62
7
 10
110.527
 20
75.048
 30
0
 70
32
  0
VERTEX
  5
2044
  8
0
 62
7
 10
110.527
 20
75.048
 30
0
 70
32
  0
VERTEX
  5
2045
  8
0
 62
7
 10
110.526
 20
75.048
 30
0
 70
32
  0
VERTEX
  5
2046
  8
0
 62
7
 10
110.526
 20
75.048
 30
0
 70
32
  0
VERTEX
  5
2047
  8
0
 62
7
 10
110.525
 20
75.048
 30
0
 70
32
  0
VERTEX
  5
2048
  8
0
 62
7
 10
110.525
 20
75.048
 30
0
 70
32
  0
VERTEX
  5
2049
  8
0
 62
7
 10
110.524
 20
75.048
 30
0
 70
32
  0
VERTEX
  5
204A
  8
0
 62
7
 10
110.523
 20
75.048
 30
0
 70
32
  0
VERTEX
  5
204B
  8
0
 62
7
 10
110.523
 20
75.048
 30
0
 70
32
  0
VERTEX
  5
204C
  8
0
 62
7
 10
110.522
 20
75.048
 30
0
 70
32
  0
VERTEX
  5
204D
  8
0
 62
7
 10
110.522
 20
75.048
 30
0
 70
32
  0
VERTEX
  5
204E
  8
0
 62
7
 10
110.521
 20
75.048
 30
0
 70
32
  0
VERTEX
  5
204F
  8
0
 62
7
 10
110.52
 20
75.048
 30
0
 70
32
  0
VERTEX
  5
2050
  8
0
 62
7
 10
110.52
 20
75.048
 30
0
 70
32
  0
VERTEX
  5
2051
  8
0
 62
7
 10
110.519
 20
75.048
 30
0
 70
32
  0
VERTEX
  5
2052
  8
0
 62
7
 10
110.518
 20
75.048
 30
0
 70
32
  0
VERTEX
  5
2053
  8
0
 62
7
 10
110.518
 20
75.048
 30
0
 70
32
  0
VERTEX
  5
2054
  8
0
 62
7
 10
110.517
 20
75.048
 30
0
 70
32
  0
VERTEX
  5
2055
  8
0
 62
7
 10
110.516
 20
75.048
 30
0
 70
32
  0
VERTEX
  5
2056
  8
0
 62
7
 10
110.516
 20
75.048
 30
0
 70
32
  0
VERTEX
  5
2057
  8
0
 62
7
 10
110.515
 20
75.048
 30
0
 70
32
  0
VERTEX
  5
2058
  8
0
 62
7
 10
110.515
 20
75.048
 30
0
 70
32
  0
VERTEX
  5
2059
  8
0
 62
7
 10
110.514
 20
75.048
 30
0
 70
32
  0
VERTEX
  5
205A
  8
0
 62
7
 10
110.513
 20
75.048
 30
0
 70
32
  0
VERTEX
  5
205B
  8
0
 62
7
 10
110.513
 20
75.048
 30
0
 70
32
  0
VERTEX
  5
205C
  8
0
 62
7
 10
110.512
 20
75.048
 30
0
 70
32
  0
VERTEX
  5
205D
  8
0
 62
7
 10
110.511
 20
75.048
 30
0
 70
32
  0
VERTEX
  5
205E
  8
0
 62
7
 10
110.511
 20
75.048
 30
0
 70
32
  0
VERTEX
  5
205F
  8
0
 62
7
 10
110.51
 20
75.048
 30
0
 70
32
  0
VERTEX
  5
2060
  8
0
 62
7
 10
110.509
 20
75.048
 30
0
 70
32
  0
VERTEX
  5
2061
  8
0
 62
7
 10
110.509
 20
75.048
 30
0
 70
32
  0
VERTEX
  5
2062
  8
0
 62
7
 10
110.508
 20
75.048
 30
0
 70
32
  0
VERTEX
  5
2063
  8
0
 62
7
 10
110.507
 20
75.048
 30
0
 70
32
  0
VERTEX
  5
2064
  8
0
 62
7
 10
110.507
 20
75.048
 30
0
 70
32
  0
VERTEX
  5
2065
  8
0
 62
7
 10
110.506
 20
75.048
 30
0
 70
32
  0
VERTEX
  5
2066
  8
0
 62
7
 10
110.506
 20
75.048
 30
0
 70
32
  0
VERTEX
  5
2067
  8
0
 62
7
 10
110.505
 20
75.048
 30
0
 70
32
  0
VERTEX
  5
2068
  8
0
 62
7
 10
110.504
 20
75.048
 30
0
 70
32
  0
VERTEX
  5
2069
  8
0
 62
7
 10
110.504
 20
75.048
 30
0
 70
32
  0
VERTEX
  5
206A
  8
0
 62
7
 10
110.503
 20
75.048
 30
0
 70
32
  0
VERTEX
  5
206B
  8
0
 62
7
 10
110.503
 20
75.048
 30
0
 70
32
  0
VERTEX
  5
206C
  8
0
 62
7
 10
110.502
 20
75.048
 30
0
 70
32
  0
VERTEX
  5
206D
  8
0
 62
7
 10
110.502
 20
75.048
 30
0
 70
32
  0
VERTEX
  5
206E
  8
0
 62
7
 10
110.501
 20
75.048
 30
0
 70
32
  0
VERTEX
  5
206F
  8
0
 62
7
 10
110.501
 20
75.048
 30
0
 70
32
  0
VERTEX
  5
2070
  8
0
 62
7
 10
110.5
 20
75.048
 30
0
 70
32
  0
VERTEX
  5
2071
  8
0
 62
7
 10
110.5
 20
75.048
 30
0
 70
32
  0
VERTEX
  5
2072
  8
0
 62
7
 10
110.499
 20
75.048
 30
0
 70
32
  0
VERTEX
  5
2073
  8
0
 62
7
 10
110.499
 20
75.048
 30
0
 70
32
  0
VERTEX
  5
2074
  8
0
 62
7
 10
110.498
 20
75.048
 30
0
 70
32
  0
VERTEX
  5
2075
  8
0
 62
7
 10
110.498
 20
75.048
 30
0
 70
32
  0
VERTEX
  5
2076
  8
0
 62
7
 10
110.497
 20
75.048
 30
0
 70
32
  0
VERTEX
  5
2077
  8
0
 62
7
 10
110.497
 20
75.048
 30
0
 70
32
  0
VERTEX
  5
2078
  8
0
 62
7
 10
110.496
 20
75.048
 30
0
 70
32
  0
VERTEX
  5
2079
  8
0
 62
7
 10
110.496
 20
75.048
 30
0
 70
32
  0
VERTEX
  5
207A
  8
0
 62
7
 10
110.496
 20
75.048
 30
0
 70
32
  0
VERTEX
  5
207B
  8
0
 62
7
 10
110.495
 20
75.048
 30
0
 70
32
  0
VERTEX
  5
207C
  8
0
 62
7
 10
110.495
 20
75.048
 30
0
 70
32
  0
VERTEX
  5
207D
  8
0
 62
7
 10
110.495
 20
75.048
 30
0
 70
32
  0
VERTEX
  5
207E
  8
0
 62
7
 10
110.494
 20
75.048
 30
0
 70
32
  0
VERTEX
  5
207F
  8
0
 62
7
 10
110.494
 20
75.048
 30
0
 70
32
  0
VERTEX
  5
2080
  8
0
 62
7
 10
110.494
 20
75.048
 30
0
 70
32
  0
VERTEX
  5
2081
  8
0
 62
7
 10
110.494
 20
75.048
 30
0
 70
32
  0
VERTEX
  5
2082
  8
0
 62
7
 10
110.494
 20
75.048
 30
0
 70
32
  0
VERTEX
  5
2083
  8
0
 62
7
 10
110.493
 20
75.048
 30
0
 70
32
  0
VERTEX
  5
2084
  8
0
 62
7
 10
110.493
 20
75.048
 30
0
 70
32
  0
VERTEX
  5
2085
  8
0
 62
7
 10
110.493
 20
75.048
 30
0
 70
32
  0
VERTEX
  5
2086
  8
0
 62
7
 10
110.493
 20
75.048
 30
0
 70
32
  0
VERTEX
  5
2087
  8
0
 62
7
 10
110.493
 20
75.048
 30
0
 70
32
  0
VERTEX
  5
2088
  8
0
 62
7
 10
110.493
 20
75.048
 30
0
 70
32
  0
VERTEX
  5
2089
  8
0
 62
7
 10
110.493
 20
75.048
 30
0
 70
32
  0
VERTEX
  5
208A
  8
0
 62
7
 10
110.493
 20
75.048
 30
0
 70
32
  0
VERTEX
  5
208B
  8
0
 62
7
 10
110.493
 20
75.048
 30
0
 70
32
  0
VERTEX
  5
208C
  8
0
 62
7
 10
110.493
 20
75.0481
 30
0
 70
32
  0
VERTEX
  5
208D
  8
0
 62
7
 10
110.493
 20
75.0481
 30
0
 70
32
  0
VERTEX
  5
208E
  8
0
 62
7
 10
110.493
 20
75.0482
 30
0
 70
32
  0
VERTEX
  5
208F
  8
0
 62
7
 10
110.493
 20
75.0484
 30
0
 70
32
  0
VERTEX
  5
2090
  8
0
 62
7
 10
110.493
 20
75.0485
 30
0
 70
32
  0
VERTEX
  5
2091
  8
0
 62
7
 10
110.493
 20
75.0487
 30
0
 70
32
  0
VERTEX
  5
2092
  8
0
 62
7
 10
110.493
 20
75.0489
 30
0
 70
32
  0
VERTEX
  5
2093
  8
0
 62
7
 10
110.493
 20
75.0491
 30
0
 70
32
  0
VERTEX
  5
2094
  8
0
 62
7
 10
110.493
 20
75.0493
 30
0
 70
32
  0
VERTEX
  5
2095
  8
0
 62
7
 10
110.493
 20
75.0496
 30
0
 70
32
  0
VERTEX
  5
2096
  8
0
 62
7
 10
110.493
 20
75.0499
 30
0
 70
32
  0
VERTEX
  5
2097
  8
0
 62
7
 10
110.493
 20
75.0502
 30
0
 70
32
  0
VERTEX
  5
2098
  8
0
 62
7
 10
110.493
 20
75.0505
 30
0
 70
32
  0
VERTEX
  5
2099
  8
0
 62
7
 10
110.493
 20
75.0508
 30
0
 70
32
  0
VERTEX
  5
209A
  8
0
 62
7
 10
110.493
 20
75.0512
 30
0
 70
32
  0
VERTEX
  5
209B
  8
0
 62
7
 10
110.493
 20
75.0515
 30
0
 70
32
  0
VERTEX
  5
209C
  8
0
 62
7
 10
110.493
 20
75.0519
 30
0
 70
32
  0
VERTEX
  5
209D
  8
0
 62
7
 10
110.493
 20
75.0523
 30
0
 70
32
  0
VERTEX
  5
209E
  8
0
 62
7
 10
110.493
 20
75.0527
 30
0
 70
32
  0
VERTEX
  5
209F
  8
0
 62
7
 10
110.493
 20
75.0532
 30
0
 70
32
  0
VERTEX
  5
20A0
  8
0
 62
7
 10
110.493
 20
75.0536
 30
0
 70
32
  0
VERTEX
  5
20A1
  8
0
 62
7
 10
110.493
 20
75.0541
 30
0
 70
32
  0
VERTEX
  5
20A2
  8
0
 62
7
 10
110.493
 20
75.0545
 30
0
 70
32
  0
VERTEX
  5
20A3
  8
0
 62
7
 10
110.493
 20
75.055
 30
0
 70
32
  0
VERTEX
  5
20A4
  8
0
 62
7
 10
110.493
 20
75.0555
 30
0
 70
32
  0
VERTEX
  5
20A5
  8
0
 62
7
 10
110.493
 20
75.056
 30
0
 70
32
  0
VERTEX
  5
20A6
  8
0
 62
7
 10
110.493
 20
75.0566
 30
0
 70
32
  0
VERTEX
  5
20A7
  8
0
 62
7
 10
110.493
 20
75.0571
 30
0
 70
32
  0
VERTEX
  5
20A8
  8
0
 62
7
 10
110.493
 20
75.0576
 30
0
 70
32
  0
VERTEX
  5
20A9
  8
0
 62
7
 10
110.493
 20
75.0582
 30
0
 70
32
  0
VERTEX
  5
20AA
  8
0
 62
7
 10
110.493
 20
75.0587
 30
0
 70
32
  0
VERTEX
  5
20AB
  8
0
 62
7
 10
110.493
 20
75.0593
 30
0
 70
32
  0
VERTEX
  5
20AC
  8
0
 62
7
 10
110.493
 20
75.0599
 30
0
 70
32
  0
VERTEX
  5
20AD
  8
0
 62
7
 10
110.493
 20
75.0605
 30
0
 70
32
  0
VERTEX
  5
20AE
  8
0
 62
7
 10
110.493
 20
75.0611
 30
0
 70
32
  0
VERTEX
  5
20AF
  8
0
 62
7
 10
110.493
 20
75.0617
 30
0
 70
32
  0
VERTEX
  5
20B0
  8
0
 62
7
 10
110.493
 20
75.0623
 30
0
 70
32
  0
VERTEX
  5
20B1
  8
0
 62
7
 10
110.493
 20
75.0629
 30
0
 70
32
  0
VERTEX
  5
20B2
  8
0
 62
7
 10
110.493
 20
75.0635
 30
0
 70
32
  0
VERTEX
  5
20B3
  8
0
 62
7
 10
110.493
 20
75.0641
 30
0
 70
32
  0
VERTEX
  5
20B4
  8
0
 62
7
 10
110.493
 20
75.0647
 30
0
 70
32
  0
VERTEX
  5
20B5
  8
0
 62
7
 10
110.493
 20
75.0653
 30
0
 70
32
  0
VERTEX
  5
20B6
  8
0
 62
7
 10
110.493
 20
75.066
 30
0
 70
32
  0
VERTEX
  5
20B7
  8
0
 62
7
 10
110.493
 20
75.0666
 30
0
 70
32
  0
VERTEX
  5
20B8
  8
0
 62
7
 10
110.493
 20
75.0672
 30
0
 70
32
  0
VERTEX
  5
20B9
  8
0
 62
7
 10
110.493
 20
75.0679
 30
0
 70
32
  0
VERTEX
  5
20BA
  8
0
 62
7
 10
110.493
 20
75.0685
 30
0
 70
32
  0
VERTEX
  5
20BB
  8
0
 62
7
 10
110.493
 20
75.0691
 30
0
 70
32
  0
VERTEX
  5
20BC
  8
0
 62
7
 10
110.493
 20
75.0698
 30
0
 70
32
  0
VERTEX
  5
20BD
  8
0
 62
7
 10
110.493
 20
75.0704
 30
0
 70
32
  0
VERTEX
  5
20BE
  8
0
 62
7
 10
110.493
 20
75.071
 30
0
 70
32
  0
VERTEX
  5
20BF
  8
0
 62
7
 10
110.493
 20
75.0717
 30
0
 70
32
  0
VERTEX
  5
20C0
  8
0
 62
7
 10
110.493
 20
75.0723
 30
0
 70
32
  0
VERTEX
  5
20C1
  8
0
 62
7
 10
110.493
 20
75.0729
 30
0
 70
32
  0
VERTEX
  5
20C2
  8
0
 62
7
 10
110.493
 20
75.0735
 30
0
 70
32
  0
VERTEX
  5
20C3
  8
0
 62
7
 10
110.493
 20
75.0741
 30
0
 70
32
  0
VERTEX
  5
20C4
  8
0
 62
7
 10
110.493
 20
75.0748
 30
0
 70
32
  0
VERTEX
  5
20C5
  8
0
 62
7
 10
110.493
 20
75.0754
 30
0
 70
32
  0
VERTEX
  5
20C6
  8
0
 62
7
 10
110.493
 20
75.076
 30
0
 70
32
  0
VERTEX
  5
20C7
  8
0
 62
7
 10
110.493
 20
75.0766
 30
0
 70
32
  0
VERTEX
  5
20C8
  8
0
 62
7
 10
110.493
 20
75.0771
 30
0
 70
32
  0
VERTEX
  5
20C9
  8
0
 62
7
 10
110.493
 20
75.0777
 30
0
 70
32
  0
VERTEX
  5
20CA
  8
0
 62
7
 10
110.493
 20
75.0783
 30
0
 70
32
  0
VERTEX
  5
20CB
  8
0
 62
7
 10
110.493
 20
75.0789
 30
0
 70
32
  0
VERTEX
  5
20CC
  8
0
 62
7
 10
110.493
 20
75.0794
 30
0
 70
32
  0
VERTEX
  5
20CD
  8
0
 62
7
 10
110.493
 20
75.08
 30
0
 70
32
  0
VERTEX
  5
20CE
  8
0
 62
7
 10
110.493
 20
75.0805
 30
0
 70
32
  0
VERTEX
  5
20CF
  8
0
 62
7
 10
110.493
 20
75.081
 30
0
 70
32
  0
VERTEX
  5
20D0
  8
0
 62
7
 10
110.493
 20
75.0815
 30
0
 70
32
  0
VERTEX
  5
20D1
  8
0
 62
7
 10
110.493
 20
75.082
 30
0
 70
32
  0
VERTEX
  5
20D2
  8
0
 62
7
 10
110.493
 20
75.0825
 30
0
 70
32
  0
VERTEX
  5
20D3
  8
0
 62
7
 10
110.493
 20
75.083
 30
0
 70
32
  0
VERTEX
  5
20D4
  8
0
 62
7
 10
110.493
 20
75.0835
 30
0
 70
32
  0
VERTEX
  5
20D5
  8
0
 62
7
 10
110.493
 20
75.0839
 30
0
 70
32
  0
VERTEX
  5
20D6
  8
0
 62
7
 10
110.493
 20
75.0844
 30
0
 70
32
  0
VERTEX
  5
20D7
  8
0
 62
7
 10
110.493
 20
75.0848
 30
0
 70
32
  0
VERTEX
  5
20D8
  8
0
 62
7
 10
110.493
 20
75.0852
 30
0
 70
32
  0
VERTEX
  5
20D9
  8
0
 62
7
 10
110.493
 20
75.0856
 30
0
 70
32
  0
VERTEX
  5
20DA
  8
0
 62
7
 10
110.493
 20
75.0859
 30
0
 70
32
  0
VERTEX
  5
20DB
  8
0
 62
7
 10
110.493
 20
75.0863
 30
0
 70
32
  0
VERTEX
  5
20DC
  8
0
 62
7
 10
110.493
 20
75.0866
 30
0
 70
32
  0
VERTEX
  5
20DD
  8
0
 62
7
 10
110.493
 20
75.087
 30
0
 70
32
  0
VERTEX
  5
20DE
  8
0
 62
7
 10
110.493
 20
75.0873
 30
0
 70
32
  0
VERTEX
  5
20DF
  8
0
 62
7
 10
110.493
 20
75.0876
 30
0
 70
32
  0
VERTEX
  5
20E0
  8
0
 62
7
 10
110.493
 20
75.0878
 30
0
 70
32
  0
VERTEX
  5
20E1
  8
0
 62
7
 10
110.493
 20
75.0881
 30
0
 70
32
  0
VERTEX
  5
20E2
  8
0
 62
7
 10
110.493
 20
75.0883
 30
0
 70
32
  0
VERTEX
  5
20E3
  8
0
 62
7
 10
110.493
 20
75.0885
 30
0
 70
32
  0
VERTEX
  5
20E4
  8
0
 62
7
 10
110.493
 20
75.0887
 30
0
 70
32
  0
VERTEX
  5
20E5
  8
0
 62
7
 10
110.493
 20
75.0888
 30
0
 70
32
  0
VERTEX
  5
20E6
  8
0
 62
7
 10
110.493
 20
75.089
 30
0
 70
32
  0
VERTEX
  5
20E7
  8
0
 62
7
 10
110.493
 20
75.0891
 30
0
 70
32
  0
VERTEX
  5
20E8
  8
0
 62
7
 10
110.493
 20
75.0892
 30
0
 70
32
  0
VERTEX
  5
20E9
  8
0
 62
7
 10
110.493
 20
75.0892
 30
0
 70
32
  0
VERTEX
  5
20EA
  8
0
 62
7
 10
110.493
 20
75.0893
 30
0
 70
32
  0
VERTEX
  5
20EB
  8
0
 62
7
 10
110.493
 20
75.0893
 30
0
 70
32
  0
VERTEX
  5
20EC
  8
0
 62
7
 10
110.493
 20
75.0893
 30
0
 70
32
  0
VERTEX
  5
20ED
  8
0
 62
7
 10
110.493
 20
75.0893
 30
0
 70
32
  0
VERTEX
  5
20EE
  8
0
 62
7
 10
110.493
 20
75.0893
 30
0
 70
32
  0
VERTEX
  5
20EF
  8
0
 62
7
 10
110.493
 20
75.0893
 30
0
 70
32
  0
VERTEX
  5
20F0
  8
0
 62
7
 10
110.493
 20
75.0893
 30
0
 70
32
  0
VERTEX
  5
20F1
  8
0
 62
7
 10
110.492
 20
75.0893
 30
0
 70
32
  0
VERTEX
  5
20F2
  8
0
 62
7
 10
110.492
 20
75.0893
 30
0
 70
32
  0
VERTEX
  5
20F3
  8
0
 62
7
 10
110.492
 20
75.0893
 30
0
 70
32
  0
VERTEX
  5
20F4
  8
0
 62
7
 10
110.492
 20
75.0893
 30
0
 70
32
  0
VERTEX
  5
20F5
  8
0
 62
7
 10
110.492
 20
75.0893
 30
0
 70
32
  0
VERTEX
  5
20F6
  8
0
 62
7
 10
110.492
 20
75.0893
 30
0
 70
32
  0
VERTEX
  5
20F7
  8
0
 62
7
 10
110.491
 20
75.0893
 30
0
 70
32
  0
VERTEX
  5
20F8
  8
0
 62
7
 10
110.491
 20
75.0893
 30
0
 70
32
  0
VERTEX
  5
20F9
  8
0
 62
7
 10
110.491
 20
75.0893
 30
0
 70
32
  0
VERTEX
  5
20FA
  8
0
 62
7
 10
110.49
 20
75.0893
 30
0
 70
32
  0
VERTEX
  5
20FB
  8
0
 62
7
 10
110.49
 20
75.0893
 30
0
 70
32
  0
VERTEX
  5
20FC
  8
0
 62
7
 10
110.49
 20
75.0893
 30
0
 70
32
  0
VERTEX
  5
20FD
  8
0
 62
7
 10
110.489
 20
75.0893
 30
0
 70
32
  0
VERTEX
  5
20FE
  8
0
 62
7
 10
110.489
 20
75.0893
 30
0
 70
32
  0
VERTEX
  5
20FF
  8
0
 62
7
 10
110.488
 20
75.0893
 30
0
 70
32
  0
VERTEX
  5
2100
  8
0
 62
7
 10
110.488
 20
75.0893
 30
0
 70
32
  0
VERTEX
  5
2101
  8
0
 62
7
 10
110.488
 20
75.0893
 30
0
 70
32
  0
VERTEX
  5
2102
  8
0
 62
7
 10
110.487
 20
75.0893
 30
0
 70
32
  0
VERTEX
  5
2103
  8
0
 62
7
 10
110.487
 20
75.0893
 30
0
 70
32
  0
VERTEX
  5
2104
  8
0
 62
7
 10
110.486
 20
75.0893
 30
0
 70
32
  0
VERTEX
  5
2105
  8
0
 62
7
 10
110.486
 20
75.0893
 30
0
 70
32
  0
VERTEX
  5
2106
  8
0
 62
7
 10
110.485
 20
75.0893
 30
0
 70
32
  0
VERTEX
  5
2107
  8
0
 62
7
 10
110.485
 20
75.0893
 30
0
 70
32
  0
VERTEX
  5
2108
  8
0
 62
7
 10
110.484
 20
75.0893
 30
0
 70
32
  0
VERTEX
  5
2109
  8
0
 62
7
 10
110.484
 20
75.0893
 30
0
 70
32
  0
VERTEX
  5
210A
  8
0
 62
7
 10
110.483
 20
75.0893
 30
0
 70
32
  0
VERTEX
  5
210B
  8
0
 62
7
 10
110.483
 20
75.0893
 30
0
 70
32
  0
VERTEX
  5
210C
  8
0
 62
7
 10
110.482
 20
75.0893
 30
0
 70
32
  0
VERTEX
  5
210D
  8
0
 62
7
 10
110.481
 20
75.0893
 30
0
 70
32
  0
VERTEX
  5
210E
  8
0
 62
7
 10
110.481
 20
75.0893
 30
0
 70
32
  0
VERTEX
  5
210F
  8
0
 62
7
 10
110.48
 20
75.0893
 30
0
 70
32
  0
VERTEX
  5
2110
  8
0
 62
7
 10
110.48
 20
75.0893
 30
0
 70
32
  0
VERTEX
  5
2111
  8
0
 62
7
 10
110.479
 20
75.0893
 30
0
 70
32
  0
VERTEX
  5
2112
  8
0
 62
7
 10
110.479
 20
75.0893
 30
0
 70
32
  0
VERTEX
  5
2113
  8
0
 62
7
 10
110.478
 20
75.0893
 30
0
 70
32
  0
VERTEX
  5
2114
  8
0
 62
7
 10
110.477
 20
75.0893
 30
0
 70
32
  0
VERTEX
  5
2115
  8
0
 62
7
 10
110.477
 20
75.0893
 30
0
 70
32
  0
VERTEX
  5
2116
  8
0
 62
7
 10
110.476
 20
75.0893
 30
0
 70
32
  0
VERTEX
  5
2117
  8
0
 62
7
 10
110.475
 20
75.0893
 30
0
 70
32
  0
VERTEX
  5
2118
  8
0
 62
7
 10
110.475
 20
75.0893
 30
0
 70
32
  0
VERTEX
  5
2119
  8
0
 62
7
 10
110.474
 20
75.0893
 30
0
 70
32
  0
VERTEX
  5
211A
  8
0
 62
7
 10
110.474
 20
75.0893
 30
0
 70
32
  0
VERTEX
  5
211B
  8
0
 62
7
 10
110.473
 20
75.0893
 30
0
 70
32
  0
VERTEX
  5
211C
  8
0
 62
7
 10
110.472
 20
75.0893
 30
0
 70
32
  0
VERTEX
  5
211D
  8
0
 62
7
 10
110.472
 20
75.0893
 30
0
 70
32
  0
VERTEX
  5
211E
  8
0
 62
7
 10
110.471
 20
75.0893
 30
0
 70
32
  0
VERTEX
  5
211F
  8
0
 62
7
 10
110.47
 20
75.0893
 30
0
 70
32
  0
VERTEX
  5
2120
  8
0
 62
7
 10
110.47
 20
75.0893
 30
0
 70
32
  0
VERTEX
  5
2121
  8
0
 62
7
 10
110.469
 20
75.0893
 30
0
 70
32
  0
VERTEX
  5
2122
  8
0
 62
7
 10
110.468
 20
75.0893
 30
0
 70
32
  0
VERTEX
  5
2123
  8
0
 62
7
 10
110.468
 20
75.0893
 30
0
 70
32
  0
VERTEX
  5
2124
  8
0
 62
7
 10
110.467
 20
75.0893
 30
0
 70
32
  0
VERTEX
  5
2125
  8
0
 62
7
 10
110.467
 20
75.0893
 30
0
 70
32
  0
VERTEX
  5
2126
  8
0
 62
7
 10
110.466
 20
75.0893
 30
0
 70
32
  0
VERTEX
  5
2127
  8
0
 62
7
 10
110.465
 20
75.0893
 30
0
 70
32
  0
VERTEX
  5
2128
  8
0
 62
7
 10
110.465
 20
75.0893
 30
0
 70
32
  0
VERTEX
  5
2129
  8
0
 62
7
 10
110.464
 20
75.0893
 30
0
 70
32
  0
VERTEX
  5
212A
  8
0
 62
7
 10
110.464
 20
75.0893
 30
0
 70
32
  0
VERTEX
  5
212B
  8
0
 62
7
 10
110.463
 20
75.0893
 30
0
 70
32
  0
VERTEX
  5
212C
  8
0
 62
7
 10
110.462
 20
75.0893
 30
0
 70
32
  0
VERTEX
  5
212D
  8
0
 62
7
 10
110.462
 20
75.0893
 30
0
 70
32
  0
VERTEX
  5
212E
  8
0
 62
7
 10
110.461
 20
75.0893
 30
0
 70
32
  0
VERTEX
  5
212F
  8
0
 62
7
 10
110.461
 20
75.0893
 30
0
 70
32
  0
VERTEX
  5
2130
  8
0
 62
7
 10
110.46
 20
75.0893
 30
0
 70
32
  0
VERTEX
  5
2131
  8
0
 62
7
 10
110.46
 20
75.0893
 30
0
 70
32
  0
VERTEX
  5
2132
  8
0
 62
7
 10
110.459
 20
75.0893
 30
0
 70
32
  0
VERTEX
  5
2133
  8
0
 62
7
 10
110.459
 20
75.0893
 30
0
 70
32
  0
VERTEX
  5
2134
  8
0
 62
7
 10
110.458
 20
75.0893
 30
0
 70
32
  0
VERTEX
  5
2135
  8
0
 62
7
 10
110.458
 20
75.0893
 30
0
 70
32
  0
VERTEX
  5
2136
  8
0
 62
7
 10
110.457
 20
75.0893
 30
0
 70
32
  0
VERTEX
  5
2137
  8
0
 62
7
 10
110.457
 20
75.0893
 30
0
 70
32
  0
VERTEX
  5
2138
  8
0
 62
7
 10
110.456
 20
75.0893
 30
0
 70
32
  0
VERTEX
  5
2139
  8
0
 62
7
 10
110.456
 20
75.0893
 30
0
 70
32
  0
VERTEX
  5
213A
  8
0
 62
7
 10
110.456
 20
75.0893
 30
0
 70
32
  0
VERTEX
  5
213B
  8
0
 62
7
 10
110.455
 20
75.0893
 30
0
 70
32
  0
VERTEX
  5
213C
  8
0
 62
7
 10
110.455
 20
75.0893
 30
0
 70
32
  0
VERTEX
  5
213D
  8
0
 62
7
 10
110.455
 20
75.0893
 30
0
 70
32
  0
VERTEX
  5
213E
  8
0
 62
7
 10
110.454
 20
75.0893
 30
0
 70
32
  0
VERTEX
  5
213F
  8
0
 62
7
 10
110.454
 20
75.0893
 30
0
 70
32
  0
VERTEX
  5
2140
  8
0
 62
7
 10
110.454
 20
75.0893
 30
0
 70
32
  0
VERTEX
  5
2141
  8
0
 62
7
 10
110.453
 20
75.0893
 30
0
 70
32
  0
VERTEX
  5
2142
  8
0
 62
7
 10
110.453
 20
75.0893
 30
0
 70
32
  0
VERTEX
  5
2143
  8
0
 62
7
 10
110.453
 20
75.0893
 30
0
 70
32
  0
VERTEX
  5
2144
  8
0
 62
7
 10
110.453
 20
75.0893
 30
0
 70
32
  0
VERTEX
  5
2145
  8
0
 62
7
 10
110.452
 20
75.0893
 30
0
 70
32
  0
VERTEX
  5
2146
  8
0
 62
7
 10
110.452
 20
75.0893
 30
0
 70
32
  0
VERTEX
  5
2147
  8
0
 62
7
 10
110.452
 20
75.0893
 30
0
 70
32
  0
VERTEX
  5
2148
  8
0
 62
7
 10
110.452
 20
75.0893
 30
0
 70
32
  0
VERTEX
  5
2149
  8
0
 62
7
 10
110.452
 20
75.0893
 30
0
 70
32
  0
VERTEX
  5
214A
  8
0
 62
7
 10
110.452
 20
75.0893
 30
0
 70
32
  0
VERTEX
  5
214B
  8
0
 62
7
 10
110.452
 20
75.0893
 30
0
 70
32
  0
VERTEX
  5
214C
  8
0
 62
7
 10
110.452
 20
75.0893
 30
0
 70
32
  0
VERTEX
  5
214D
  8
0
 62
7
 10
110.452
 20
75.0893
 30
0
 70
32
  0
VERTEX
  5
214E
  8
0
 62
7
 10
110.452
 20
75.0893
 30
0
 70
32
  0
VERTEX
  5
214F
  8
0
 62
7
 10
110.452
 20
75.0893
 30
0
 70
32
  0
VERTEX
  5
2150
  8
0
 62
7
 10
110.451
 20
75.0893
 30
0
 70
32
  0
VERTEX
  5
2151
  8
0
 62
7
 10
110.451
 20
75.0893
 30
0
 70
32
  0
VERTEX
  5
2152
  8
0
 62
7
 10
110.451
 20
75.0893
 30
0
 70
32
  0
VERTEX
  5
2153
  8
0
 62
7
 10
110.451
 20
75.0893
 30
0
 70
32
  0
VERTEX
  5
2154
  8
0
 62
7
 10
110.451
 20
75.0893
 30
0
 70
32
  0
VERTEX
  5
2155
  8
0
 62
7
 10
110.451
 20
75.0893
 30
0
 70
32
  0
VERTEX
  5
2156
  8
0
 62
7
 10
110.451
 20
75.0893
 30
0
 70
32
  0
VERTEX
  5
2157
  8
0
 62
7
 10
110.45
 20
75.0893
 30
0
 70
32
  0
VERTEX
  5
2158
  8
0
 62
7
 10
110.45
 20
75.0893
 30
0
 70
32
  0
VERTEX
  5
2159
  8
0
 62
7
 10
110.45
 20
75.0893
 30
0
 70
32
  0
VERTEX
  5
215A
  8
0
 62
7
 10
110.45
 20
75.0893
 30
0
 70
32
  0
VERTEX
  5
215B
  8
0
 62
7
 10
110.449
 20
75.0893
 30
0
 70
32
  0
VERTEX
  5
215C
  8
0
 62
7
 10
110.449
 20
75.0893
 30
0
 70
32
  0
VERTEX
  5
215D
  8
0
 62
7
 10
110.449
 20
75.0893
 30
0
 70
32
  0
VERTEX
  5
215E
  8
0
 62
7
 10
110.448
 20
75.0893
 30
0
 70
32
  0
VERTEX
  5
215F
  8
0
 62
7
 10
110.448
 20
75.0893
 30
0
 70
32
  0
VERTEX
  5
2160
  8
0
 62
7
 10
110.447
 20
75.0893
 30
0
 70
32
  0
VERTEX
  5
2161
  8
0
 62
7
 10
110.447
 20
75.0893
 30
0
 70
32
  0
VERTEX
  5
2162
  8
0
 62
7
 10
110.446
 20
75.0893
 30
0
 70
32
  0
VERTEX
  5
2163
  8
0
 62
7
 10
110.446
 20
75.0893
 30
0
 70
32
  0
VERTEX
  5
2164
  8
0
 62
7
 10
110.446
 20
75.0893
 30
0
 70
32
  0
VERTEX
  5
2165
  8
0
 62
7
 10
110.445
 20
75.0893
 30
0
 70
32
  0
VERTEX
  5
2166
  8
0
 62
7
 10
110.445
 20
75.0893
 30
0
 70
32
  0
VERTEX
  5
2167
  8
0
 62
7
 10
110.444
 20
75.0893
 30
0
 70
32
  0
VERTEX
  5
2168
  8
0
 62
7
 10
110.444
 20
75.0893
 30
0
 70
32
  0
VERTEX
  5
2169
  8
0
 62
7
 10
110.443
 20
75.0893
 30
0
 70
32
  0
VERTEX
  5
216A
  8
0
 62
7
 10
110.443
 20
75.0893
 30
0
 70
32
  0
VERTEX
  5
216B
  8
0
 62
7
 10
110.442
 20
75.0893
 30
0
 70
32
  0
VERTEX
  5
216C
  8
0
 62
7
 10
110.441
 20
75.0893
 30
0
 70
32
  0
VERTEX
  5
216D
  8
0
 62
7
 10
110.441
 20
75.0893
 30
0
 70
32
  0
VERTEX
  5
216E
  8
0
 62
7
 10
110.44
 20
75.0893
 30
0
 70
32
  0
VERTEX
  5
216F
  8
0
 62
7
 10
110.44
 20
75.0893
 30
0
 70
32
  0
VERTEX
  5
2170
  8
0
 62
7
 10
110.439
 20
75.0893
 30
0
 70
32
  0
VERTEX
  5
2171
  8
0
 62
7
 10
110.438
 20
75.0893
 30
0
 70
32
  0
VERTEX
  5
2172
  8
0
 62
7
 10
110.438
 20
75.0893
 30
0
 70
32
  0
VERTEX
  5
2173
  8
0
 62
7
 10
110.437
 20
75.0893
 30
0
 70
32
  0
VERTEX
  5
2174
  8
0
 62
7
 10
110.437
 20
75.0893
 30
0
 70
32
  0
VERTEX
  5
2175
  8
0
 62
7
 10
110.436
 20
75.0893
 30
0
 70
32
  0
VERTEX
  5
2176
  8
0
 62
7
 10
110.435
 20
75.0893
 30
0
 70
32
  0
VERTEX
  5
2177
  8
0
 62
7
 10
110.435
 20
75.0893
 30
0
 70
32
  0
VERTEX
  5
2178
  8
0
 62
7
 10
110.434
 20
75.0893
 30
0
 70
32
  0
VERTEX
  5
2179
  8
0
 62
7
 10
110.433
 20
75.0893
 30
0
 70
32
  0
VERTEX
  5
217A
  8
0
 62
7
 10
110.433
 20
75.0893
 30
0
 70
32
  0
VERTEX
  5
217B
  8
0
 62
7
 10
110.432
 20
75.0893
 30
0
 70
32
  0
VERTEX
  5
217C
  8
0
 62
7
 10
110.431
 20
75.0893
 30
0
 70
32
  0
VERTEX
  5
217D
  8
0
 62
7
 10
110.431
 20
75.0893
 30
0
 70
32
  0
VERTEX
  5
217E
  8
0
 62
7
 10
110.43
 20
75.0893
 30
0
 70
32
  0
VERTEX
  5
217F
  8
0
 62
7
 10
110.429
 20
75.0893
 30
0
 70
32
  0
VERTEX
  5
2180
  8
0
 62
7
 10
110.429
 20
75.0893
 30
0
 70
32
  0
VERTEX
  5
2181
  8
0
 62
7
 10
110.428
 20
75.0893
 30
0
 70
32
  0
VERTEX
  5
2182
  8
0
 62
7
 10
110.428
 20
75.0893
 30
0
 70
32
  0
VERTEX
  5
2183
  8
0
 62
7
 10
110.427
 20
75.0893
 30
0
 70
32
  0
VERTEX
  5
2184
  8
0
 62
7
 10
110.426
 20
75.0893
 30
0
 70
32
  0
VERTEX
  5
2185
  8
0
 62
7
 10
110.426
 20
75.0893
 30
0
 70
32
  0
VERTEX
  5
2186
  8
0
 62
7
 10
110.425
 20
75.0893
 30
0
 70
32
  0
VERTEX
  5
2187
  8
0
 62
7
 10
110.424
 20
75.0893
 30
0
 70
32
  0
VERTEX
  5
2188
  8
0
 62
7
 10
110.424
 20
75.0893
 30
0
 70
32
  0
VERTEX
  5
2189
  8
0
 62
7
 10
110.423
 20
75.0893
 30
0
 70
32
  0
VERTEX
  5
218A
  8
0
 62
7
 10
110.422
 20
75.0893
 30
0
 70
32
  0
VERTEX
  5
218B
  8
0
 62
7
 10
110.422
 20
75.0893
 30
0
 70
32
  0
VERTEX
  5
218C
  8
0
 62
7
 10
110.421
 20
75.0893
 30
0
 70
32
  0
VERTEX
  5
218D
  8
0
 62
7
 10
110.421
 20
75.0893
 30
0
 70
32
  0
VERTEX
  5
218E
  8
0
 62
7
 10
110.42
 20
75.0893
 30
0
 70
32
  0
VERTEX
  5
218F
  8
0
 62
7
 10
110.419
 20
75.0893
 30
0
 70
32
  0
VERTEX
  5
2190
  8
0
 62
7
 10
110.419
 20
75.0893
 30
0
 70
32
  0
VERTEX
  5
2191
  8
0
 62
7
 10
110.418
 20
75.0893
 30
0
 70
32
  0
VERTEX
  5
2192
  8
0
 62
7
 10
110.418
 20
75.0893
 30
0
 70
32
  0
VERTEX
  5
2193
  8
0
 62
7
 10
110.417
 20
75.0893
 30
0
 70
32
  0
VERTEX
  5
2194
  8
0
 62
7
 10
110.417
 20
75.0893
 30
0
 70
32
  0
VERTEX
  5
2195
  8
0
 62
7
 10
110.416
 20
75.0893
 30
0
 70
32
  0
VERTEX
  5
2196
  8
0
 62
7
 10
110.416
 20
75.0893
 30
0
 70
32
  0
VERTEX
  5
2197
  8
0
 62
7
 10
110.415
 20
75.0893
 30
0
 70
32
  0
VERTEX
  5
2198
  8
0
 62
7
 10
110.415
 20
75.0893
 30
0
 70
32
  0
VERTEX
  5
2199
  8
0
 62
7
 10
110.414
 20
75.0893
 30
0
 70
32
  0
VERTEX
  5
219A
  8
0
 62
7
 10
110.414
 20
75.0893
 30
0
 70
32
  0
VERTEX
  5
219B
  8
0
 62
7
 10
110.413
 20
75.0893
 30
0
 70
32
  0
VERTEX
  5
219C
  8
0
 62
7
 10
110.413
 20
75.0893
 30
0
 70
32
  0
VERTEX
  5
219D
  8
0
 62
7
 10
110.413
 20
75.0893
 30
0
 70
32
  0
VERTEX
  5
219E
  8
0
 62
7
 10
110.412
 20
75.0893
 30
0
 70
32
  0
VERTEX
  5
219F
  8
0
 62
7
 10
110.412
 20
75.0893
 30
0
 70
32
  0
VERTEX
  5
21A0
  8
0
 62
7
 10
110.411
 20
75.0893
 30
0
 70
32
  0
VERTEX
  5
21A1
  8
0
 62
7
 10
110.411
 20
75.0893
 30
0
 70
32
  0
VERTEX
  5
21A2
  8
0
 62
7
 10
110.411
 20
75.0893
 30
0
 70
32
  0
VERTEX
  5
21A3
  8
0
 62
7
 10
110.411
 20
75.0893
 30
0
 70
32
  0
VERTEX
  5
21A4
  8
0
 62
7
 10
110.41
 20
75.0893
 30
0
 70
32
  0
VERTEX
  5
21A5
  8
0
 62
7
 10
110.41
 20
75.0893
 30
0
 70
32
  0
VERTEX
  5
21A6
  8
0
 62
7
 10
110.41
 20
75.0893
 30
0
 70
32
  0
VERTEX
  5
21A7
  8
0
 62
7
 10
110.41
 20
75.0893
 30
0
 70
32
  0
VERTEX
  5
21A8
  8
0
 62
7
 10
110.409
 20
75.0893
 30
0
 70
32
  0
VERTEX
  5
21A9
  8
0
 62
7
 10
110.409
 20
75.0893
 30
0
 70
32
  0
VERTEX
  5
21AA
  8
0
 62
7
 10
110.409
 20
75.0893
 30
0
 70
32
  0
VERTEX
  5
21AB
  8
0
 62
7
 10
110.409
 20
75.0893
 30
0
 70
32
  0
VERTEX
  5
21AC
  8
0
 62
7
 10
110.409
 20
75.0893
 30
0
 70
32
  0
VERTEX
  5
21AD
  8
0
 62
7
 10
110.409
 20
75.0893
 30
0
 70
32
  0
VERTEX
  5
21AE
  8
0
 62
7
 10
110.409
 20
75.0893
 30
0
 70
32
  0
VERTEX
  5
21AF
  8
0
 62
7
 10
110.409
 20
75.0893
 30
0
 70
32
  0
VERTEX
  5
21B0
  8
0
 62
7
 10
110.409
 20
75.0893
 30
0
 70
32
  0
VERTEX
  5
21B1
  8
0
 62
7
 10
110.409
 20
75.0893
 30
0
 70
32
  0
VERTEX
  5
21B2
  8
0
 62
7
 10
110.409
 20
75.0893
 30
0
 70
32
  0
VERTEX
  5
21B3
  8
0
 62
7
 10
110.409
 20
75.0893
 30
0
 70
32
  0
VERTEX
  5
21B4
  8
0
 62
7
 10
110.409
 20
75.0893
 30
0
 70
32
  0
VERTEX
  5
21B5
  8
0
 62
7
 10
110.408
 20
75.0893
 30
0
 70
32
  0
VERTEX
  5
21B6
  8
0
 62
7
 10
110.408
 20
75.0893
 30
0
 70
32
  0
VERTEX
  5
21B7
  8
0
 62
7
 10
110.408
 20
75.0893
 30
0
 70
32
  0
VERTEX
  5
21B8
  8
0
 62
7
 10
110.408
 20
75.0893
 30
0
 70
32
  0
VERTEX
  5
21B9
  8
0
 62
7
 10
110.408
 20
75.0893
 30
0
 70
32
  0
VERTEX
  5
21BA
  8
0
 62
7
 10
110.407
 20
75.0893
 30
0
 70
32
  0
VERTEX
  5
21BB
  8
0
 62
7
 10
110.407
 20
75.0893
 30
0
 70
32
  0
VERTEX
  5
21BC
  8
0
 62
7
 10
110.407
 20
75.0893
 30
0
 70
32
  0
VERTEX
  5
21BD
  8
0
 62
7
 10
110.406
 20
75.0893
 30
0
 70
32
  0
VERTEX
  5
21BE
  8
0
 62
7
 10
110.406
 20
75.0893
 30
0
 70
32
  0
VERTEX
  5
21BF
  8
0
 62
7
 10
110.406
 20
75.0893
 30
0
 70
32
  0
VERTEX
  5
21C0
  8
0
 62
7
 10
110.405
 20
75.0893
 30
0
 70
32
  0
VERTEX
  5
21C1
  8
0
 62
7
 10
110.405
 20
75.0893
 30
0
 70
32
  0
VERTEX
  5
21C2
  8
0
 62
7
 10
110.405
 20
75.0893
 30
0
 70
32
  0
VERTEX
  5
21C3
  8
0
 62
7
 10
110.404
 20
75.0893
 30
0
 70
32
  0
VERTEX
  5
21C4
  8
0
 62
7
 10
110.404
 20
75.0893
 30
0
 70
32
  0
VERTEX
  5
21C5
  8
0
 62
7
 10
110.403
 20
75.0893
 30
0
 70
32
  0
VERTEX
  5
21C6
  8
0
 62
7
 10
110.403
 20
75.0893
 30
0
 70
32
  0
VERTEX
  5
21C7
  8
0
 62
7
 10
110.402
 20
75.0893
 30
0
 70
32
  0
VERTEX
  5
21C8
  8
0
 62
7
 10
110.402
 20
75.0893
 30
0
 70
32
  0
VERTEX
  5
21C9
  8
0
 62
7
 10
110.401
 20
75.0893
 30
0
 70
32
  0
VERTEX
  5
21CA
  8
0
 62
7
 10
110.401
 20
75.0893
 30
0
 70
32
  0
VERTEX
  5
21CB
  8
0
 62
7
 10
110.4
 20
75.0893
 30
0
 70
32
  0
VERTEX
  5
21CC
  8
0
 62
7
 10
110.4
 20
75.0893
 30
0
 70
32
  0
VERTEX
  5
21CD
  8
0
 62
7
 10
110.399
 20
75.0893
 30
0
 70
32
  0
VERTEX
  5
21CE
  8
0
 62
7
 10
110.399
 20
75.0893
 30
0
 70
32
  0
VERTEX
  5
21CF
  8
0
 62
7
 10
110.398
 20
75.0893
 30
0
 70
32
  0
VERTEX
  5
21D0
  8
0
 62
7
 10
110.397
 20
75.0893
 30
0
 70
32
  0
VERTEX
  5
21D1
  8
0
 62
7
 10
110.397
 20
75.0893
 30
0
 70
32
  0
VERTEX
  5
21D2
  8
0
 62
7
 10
110.396
 20
75.0893
 30
0
 70
32
  0
VERTEX
  5
21D3
  8
0
 62
7
 10
110.396
 20
75.0893
 30
0
 70
32
  0
VERTEX
  5
21D4
  8
0
 62
7
 10
110.395
 20
75.0893
 30
0
 70
32
  0
VERTEX
  5
21D5
  8
0
 62
7
 10
110.394
 20
75.0893
 30
0
 70
32
  0
VERTEX
  5
21D6
  8
0
 62
7
 10
110.394
 20
75.0893
 30
0
 70
32
  0
VERTEX
  5
21D7
  8
0
 62
7
 10
110.393
 20
75.0893
 30
0
 70
32
  0
VERTEX
  5
21D8
  8
0
 62
7
 10
110.392
 20
75.0893
 30
0
 70
32
  0
VERTEX
  5
21D9
  8
0
 62
7
 10
110.392
 20
75.0893
 30
0
 70
32
  0
VERTEX
  5
21DA
  8
0
 62
7
 10
110.391
 20
75.0893
 30
0
 70
32
  0
VERTEX
  5
21DB
  8
0
 62
7
 10
110.391
 20
75.0893
 30
0
 70
32
  0
VERTEX
  5
21DC
  8
0
 62
7
 10
110.39
 20
75.0893
 30
0
 70
32
  0
VERTEX
  5
21DD
  8
0
 62
7
 10
110.389
 20
75.0893
 30
0
 70
32
  0
VERTEX
  5
21DE
  8
0
 62
7
 10
110.389
 20
75.0893
 30
0
 70
32
  0
VERTEX
  5
21DF
  8
0
 62
7
 10
110.388
 20
75.0893
 30
0
 70
32
  0
VERTEX
  5
21E0
  8
0
 62
7
 10
110.387
 20
75.0893
 30
0
 70
32
  0
VERTEX
  5
21E1
  8
0
 62
7
 10
110.387
 20
75.0893
 30
0
 70
32
  0
VERTEX
  5
21E2
  8
0
 62
7
 10
110.386
 20
75.0893
 30
0
 70
32
  0
VERTEX
  5
21E3
  8
0
 62
7
 10
110.385
 20
75.0893
 30
0
 70
32
  0
VERTEX
  5
21E4
  8
0
 62
7
 10
110.385
 20
75.0893
 30
0
 70
32
  0
VERTEX
  5
21E5
  8
0
 62
7
 10
110.384
 20
75.0893
 30
0
 70
32
  0
VERTEX
  5
21E6
  8
0
 62
7
 10
110.383
 20
75.0893
 30
0
 70
32
  0
VERTEX
  5
21E7
  8
0
 62
7
 10
110.383
 20
75.0893
 30
0
 70
32
  0
VERTEX
  5
21E8
  8
0
 62
7
 10
110.382
 20
75.0893
 30
0
 70
32
  0
VERTEX
  5
21E9
  8
0
 62
7
 10
110.381
 20
75.0893
 30
0
 70
32
  0
VERTEX
  5
21EA
  8
0
 62
7
 10
110.381
 20
75.0893
 30
0
 70
32
  0
VERTEX
  5
21EB
  8
0
 62
7
 10
110.38
 20
75.0893
 30
0
 70
32
  0
VERTEX
  5
21EC
  8
0
 62
7
 10
110.38
 20
75.0893
 30
0
 70
32
  0
VERTEX
  5
21ED
  8
0
 62
7
 10
110.379
 20
75.0893
 30
0
 70
32
  0
VERTEX
  5
21EE
  8
0
 62
7
 10
110.378
 20
75.0893
 30
0
 70
32
  0
VERTEX
  5
21EF
  8
0
 62
7
 10
110.378
 20
75.0893
 30
0
 70
32
  0
VERTEX
  5
21F0
  8
0
 62
7
 10
110.377
 20
75.0893
 30
0
 70
32
  0
VERTEX
  5
21F1
  8
0
 62
7
 10
110.377
 20
75.0893
 30
0
 70
32
  0
VERTEX
  5
21F2
  8
0
 62
7
 10
110.376
 20
75.0893
 30
0
 70
32
  0
VERTEX
  5
21F3
  8
0
 62
7
 10
110.376
 20
75.0893
 30
0
 70
32
  0
VERTEX
  5
21F4
  8
0
 62
7
 10
110.375
 20
75.0893
 30
0
 70
32
  0
VERTEX
  5
21F5
  8
0
 62
7
 10
110.374
 20
75.0893
 30
0
 70
32
  0
VERTEX
  5
21F6
  8
0
 62
7
 10
110.374
 20
75.0893
 30
0
 70
32
  0
VERTEX
  5
21F7
  8
0
 62
7
 10
110.373
 20
75.0893
 30
0
 70
32
  0
VERTEX
  5
21F8
  8
0
 62
7
 10
110.373
 20
75.0893
 30
0
 70
32
  0
VERTEX
  5
21F9
  8
0
 62
7
 10
110.372
 20
75.0893
 30
0
 70
32
  0
VERTEX
  5
21FA
  8
0
 62
7
 10
110.372
 20
75.0893
 30
0
 70
32
  0
VERTEX
  5
21FB
  8
0
 62
7
 10
110.371
 20
75.0893
 30
0
 70
32
  0
VERTEX
  5
21FC
  8
0
 62
7
 10
110.371
 20
75.0893
 30
0
 70
32
  0
VERTEX
  5
21FD
  8
0
 62
7
 10
110.371
 20
75.0893
 30
0
 70
32
  0
VERTEX
  5
21FE
  8
0
 62
7
 10
110.37
 20
75.0893
 30
0
 70
32
  0
VERTEX
  5
21FF
  8
0
 62
7
 10
110.37
 20
75.0893
 30
0
 70
32
  0
VERTEX
  5
2200
  8
0
 62
7
 10
110.369
 20
75.0893
 30
0
 70
32
  0
VERTEX
  5
2201
  8
0
 62
7
 10
110.369
 20
75.0893
 30
0
 70
32
  0
VERTEX
  5
2202
  8
0
 62
7
 10
110.369
 20
75.0893
 30
0
 70
32
  0
VERTEX
  5
2203
  8
0
 62
7
 10
110.368
 20
75.0893
 30
0
 70
32
  0
VERTEX
  5
2204
  8
0
 62
7
 10
110.368
 20
75.0893
 30
0
 70
32
  0
VERTEX
  5
2205
  8
0
 62
7
 10
110.368
 20
75.0893
 30
0
 70
32
  0
VERTEX
  5
2206
  8
0
 62
7
 10
110.368
 20
75.0893
 30
0
 70
32
  0
VERTEX
  5
2207
  8
0
 62
7
 10
110.367
 20
75.0893
 30
0
 70
32
  0
VERTEX
  5
2208
  8
0
 62
7
 10
110.367
 20
75.0893
 30
0
 70
32
  0
VERTEX
  5
2209
  8
0
 62
7
 10
110.367
 20
75.0893
 30
0
 70
32
  0
VERTEX
  5
220A
  8
0
 62
7
 10
110.367
 20
75.0893
 30
0
 70
32
  0
VERTEX
  5
220B
  8
0
 62
7
 10
110.367
 20
75.0893
 30
0
 70
32
  0
VERTEX
  5
220C
  8
0
 62
7
 10
110.366
 20
75.0893
 30
0
 70
32
  0
VERTEX
  5
220D
  8
0
 62
7
 10
110.366
 20
75.0893
 30
0
 70
32
  0
VERTEX
  5
220E
  8
0
 62
7
 10
110.366
 20
75.0893
 30
0
 70
32
  0
VERTEX
  5
220F
  8
0
 62
7
 10
110.366
 20
75.0893
 30
0
 70
32
  0
VERTEX
  5
2210
  8
0
 62
7
 10
110.366
 20
75.0893
 30
0
 70
32
  0
VERTEX
  5
2211
  8
0
 62
7
 10
110.366
 20
75.0893
 30
0
 70
32
  0
VERTEX
  5
2212
  8
0
 62
7
 10
110.366
 20
75.0893
 30
0
 70
32
  0
VERTEX
  5
2213
  8
0
 62
7
 10
110.366
 20
75.0893
 30
0
 70
32
  0
VERTEX
  5
2214
  8
0
 62
7
 10
110.366
 20
75.0893
 30
0
 70
32
  0
VERTEX
  5
2215
  8
0
 62
7
 10
110.366
 20
75.0893
 30
0
 70
32
  0
VERTEX
  5
2216
  8
0
 62
7
 10
110.365
 20
75.0893
 30
0
 70
32
  0
VERTEX
  5
2217
  8
0
 62
7
 10
110.365
 20
75.0893
 30
0
 70
32
  0
VERTEX
  5
2218
  8
0
 62
7
 10
110.365
 20
75.0893
 30
0
 70
32
  0
VERTEX
  5
2219
  8
0
 62
7
 10
110.364
 20
75.0893
 30
0
 70
32
  0
VERTEX
  5
221A
  8
0
 62
7
 10
110.364
 20
75.0893
 30
0
 70
32
  0
VERTEX
  5
221B
  8
0
 62
7
 10
110.363
 20
75.0893
 30
0
 70
32
  0
VERTEX
  5
221C
  8
0
 62
7
 10
110.363
 20
75.0893
 30
0
 70
32
  0
VERTEX
  5
221D
  8
0
 62
7
 10
110.362
 20
75.0893
 30
0
 70
32
  0
VERTEX
  5
221E
  8
0
 62
7
 10
110.362
 20
75.0893
 30
0
 70
32
  0
VERTEX
  5
221F
  8
0
 62
7
 10
110.361
 20
75.0893
 30
0
 70
32
  0
VERTEX
  5
2220
  8
0
 62
7
 10
110.361
 20
75.0893
 30
0
 70
32
  0
VERTEX
  5
2221
  8
0
 62
7
 10
110.36
 20
75.0893
 30
0
 70
32
  0
VERTEX
  5
2222
  8
0
 62
7
 10
110.359
 20
75.0893
 30
0
 70
32
  0
VERTEX
  5
2223
  8
0
 62
7
 10
110.358
 20
75.0893
 30
0
 70
32
  0
VERTEX
  5
2224
  8
0
 62
7
 10
110.358
 20
75.0893
 30
0
 70
32
  0
VERTEX
  5
2225
  8
0
 62
7
 10
110.357
 20
75.0893
 30
0
 70
32
  0
VERTEX
  5
2226
  8
0
 62
7
 10
110.356
 20
75.0893
 30
0
 70
32
  0
VERTEX
  5
2227
  8
0
 62
7
 10
110.355
 20
75.0893
 30
0
 70
32
  0
VERTEX
  5
2228
  8
0
 62
7
 10
110.354
 20
75.0893
 30
0
 70
32
  0
VERTEX
  5
2229
  8
0
 62
7
 10
110.353
 20
75.0893
 30
0
 70
32
  0
VERTEX
  5
222A
  8
0
 62
7
 10
110.352
 20
75.0893
 30
0
 70
32
  0
VERTEX
  5
222B
  8
0
 62
7
 10
110.351
 20
75.0893
 30
0
 70
32
  0
VERTEX
  5
222C
  8
0
 62
7
 10
110.35
 20
75.0893
 30
0
 70
32
  0
VERTEX
  5
222D
  8
0
 62
7
 10
110.349
 20
75.0893
 30
0
 70
32
  0
VERTEX
  5
222E
  8
0
 62
7
 10
110.348
 20
75.0893
 30
0
 70
32
  0
VERTEX
  5
222F
  8
0
 62
7
 10
110.347
 20
75.0893
 30
0
 70
32
  0
VERTEX
  5
2230
  8
0
 62
7
 10
110.346
 20
75.0893
 30
0
 70
32
  0
VERTEX
  5
2231
  8
0
 62
7
 10
110.345
 20
75.0893
 30
0
 70
32
  0
VERTEX
  5
2232
  8
0
 62
7
 10
110.343
 20
75.0893
 30
0
 70
32
  0
VERTEX
  5
2233
  8
0
 62
7
 10
110.342
 20
75.0893
 30
0
 70
32
  0
VERTEX
  5
2234
  8
0
 62
7
 10
110.341
 20
75.0893
 30
0
 70
32
  0
VERTEX
  5
2235
  8
0
 62
7
 10
110.34
 20
75.0893
 30
0
 70
32
  0
VERTEX
  5
2236
  8
0
 62
7
 10
110.339
 20
75.0893
 30
0
 70
32
  0
VERTEX
  5
2237
  8
0
 62
7
 10
110.337
 20
75.0893
 30
0
 70
32
  0
VERTEX
  5
2238
  8
0
 62
7
 10
110.336
 20
75.0893
 30
0
 70
32
  0
VERTEX
  5
2239
  8
0
 62
7
 10
110.335
 20
75.0893
 30
0
 70
32
  0
VERTEX
  5
223A
  8
0
 62
7
 10
110.334
 20
75.0893
 30
0
 70
32
  0
VERTEX
  5
223B
  8
0
 62
7
 10
110.332
 20
75.0893
 30
0
 70
32
  0
VERTEX
  5
223C
  8
0
 62
7
 10
110.331
 20
75.0893
 30
0
 70
32
  0
VERTEX
  5
223D
  8
0
 62
7
 10
110.33
 20
75.0893
 30
0
 70
32
  0
VERTEX
  5
223E
  8
0
 62
7
 10
110.329
 20
75.0893
 30
0
 70
32
  0
VERTEX
  5
223F
  8
0
 62
7
 10
110.327
 20
75.0893
 30
0
 70
32
  0
VERTEX
  5
2240
  8
0
 62
7
 10
110.326
 20
75.0893
 30
0
 70
32
  0
VERTEX
  5
2241
  8
0
 62
7
 10
110.325
 20
75.0893
 30
0
 70
32
  0
VERTEX
  5
2242
  8
0
 62
7
 10
110.323
 20
75.0893
 30
0
 70
32
  0
VERTEX
  5
2243
  8
0
 62
7
 10
110.322
 20
75.0893
 30
0
 70
32
  0
VERTEX
  5
2244
  8
0
 62
7
 10
110.321
 20
75.0893
 30
0
 70
32
  0
VERTEX
  5
2245
  8
0
 62
7
 10
110.32
 20
75.0893
 30
0
 70
32
  0
VERTEX
  5
2246
  8
0
 62
7
 10
110.318
 20
75.0893
 30
0
 70
32
  0
VERTEX
  5
2247
  8
0
 62
7
 10
110.317
 20
75.0893
 30
0
 70
32
  0
VERTEX
  5
2248
  8
0
 62
7
 10
110.316
 20
75.0893
 30
0
 70
32
  0
VERTEX
  5
2249
  8
0
 62
7
 10
110.315
 20
75.0893
 30
0
 70
32
  0
VERTEX
  5
224A
  8
0
 62
7
 10
110.313
 20
75.0893
 30
0
 70
32
  0
VERTEX
  5
224B
  8
0
 62
7
 10
110.312
 20
75.0893
 30
0
 70
32
  0
VERTEX
  5
224C
  8
0
 62
7
 10
110.311
 20
75.0893
 30
0
 70
32
  0
VERTEX
  5
224D
  8
0
 62
7
 10
110.31
 20
75.0893
 30
0
 70
32
  0
VERTEX
  5
224E
  8
0
 62
7
 10
110.308
 20
75.0893
 30
0
 70
32
  0
VERTEX
  5
224F
  8
0
 62
7
 10
110.307
 20
75.0893
 30
0
 70
32
  0
VERTEX
  5
2250
  8
0
 62
7
 10
110.306
 20
75.0893
 30
0
 70
32
  0
VERTEX
  5
2251
  8
0
 62
7
 10
110.305
 20
75.0893
 30
0
 70
32
  0
VERTEX
  5
2252
  8
0
 62
7
 10
110.304
 20
75.0893
 30
0
 70
32
  0
VERTEX
  5
2253
  8
0
 62
7
 10
110.303
 20
75.0893
 30
0
 70
32
  0
VERTEX
  5
2254
  8
0
 62
7
 10
110.301
 20
75.0893
 30
0
 70
32
  0
VERTEX
  5
2255
  8
0
 62
7
 10
110.3
 20
75.0893
 30
0
 70
32
  0
VERTEX
  5
2256
  8
0
 62
7
 10
110.299
 20
75.0893
 30
0
 70
32
  0
VERTEX
  5
2257
  8
0
 62
7
 10
110.298
 20
75.0893
 30
0
 70
32
  0
VERTEX
  5
2258
  8
0
 62
7
 10
110.297
 20
75.0893
 30
0
 70
32
  0
VERTEX
  5
2259
  8
0
 62
7
 10
110.296
 20
75.0893
 30
0
 70
32
  0
VERTEX
  5
225A
  8
0
 62
7
 10
110.295
 20
75.0893
 30
0
 70
32
  0
VERTEX
  5
225B
  8
0
 62
7
 10
110.294
 20
75.0893
 30
0
 70
32
  0
VERTEX
  5
225C
  8
0
 62
7
 10
110.293
 20
75.0893
 30
0
 70
32
  0
VERTEX
  5
225D
  8
0
 62
7
 10
110.292
 20
75.0893
 30
0
 70
32
  0
VERTEX
  5
225E
  8
0
 62
7
 10
110.292
 20
75.0893
 30
0
 70
32
  0
VERTEX
  5
225F
  8
0
 62
7
 10
110.291
 20
75.0893
 30
0
 70
32
  0
VERTEX
  5
2260
  8
0
 62
7
 10
110.29
 20
75.0893
 30
0
 70
32
  0
VERTEX
  5
2261
  8
0
 62
7
 10
110.289
 20
75.0893
 30
0
 70
32
  0
VERTEX
  5
2262
  8
0
 62
7
 10
110.288
 20
75.0893
 30
0
 70
32
  0
VERTEX
  5
2263
  8
0
 62
7
 10
110.288
 20
75.0893
 30
0
 70
32
  0
VERTEX
  5
2264
  8
0
 62
7
 10
110.287
 20
75.0893
 30
0
 70
32
  0
VERTEX
  5
2265
  8
0
 62
7
 10
110.286
 20
75.0893
 30
0
 70
32
  0
VERTEX
  5
2266
  8
0
 62
7
 10
110.286
 20
75.0893
 30
0
 70
32
  0
VERTEX
  5
2267
  8
0
 62
7
 10
110.285
 20
75.0893
 30
0
 70
32
  0
VERTEX
  5
2268
  8
0
 62
7
 10
110.285
 20
75.0893
 30
0
 70
32
  0
VERTEX
  5
2269
  8
0
 62
7
 10
110.284
 20
75.0893
 30
0
 70
32
  0
VERTEX
  5
226A
  8
0
 62
7
 10
110.284
 20
75.0893
 30
0
 70
32
  0
VERTEX
  5
226B
  8
0
 62
7
 10
110.283
 20
75.0893
 30
0
 70
32
  0
VERTEX
  5
226C
  8
0
 62
7
 10
110.283
 20
75.0893
 30
0
 70
32
  0
VERTEX
  5
226D
  8
0
 62
7
 10
110.283
 20
75.0893
 30
0
 70
32
  0
VERTEX
  5
226E
  8
0
 62
7
 10
110.283
 20
75.0893
 30
0
 70
32
  0
VERTEX
  5
226F
  8
0
 62
7
 10
110.282
 20
75.0893
 30
0
 70
32
  0
VERTEX
  5
2270
  8
0
 62
7
 10
110.282
 20
75.0893
 30
0
 70
32
  0
VERTEX
  5
2271
  8
0
 62
7
 10
110.282
 20
75.0893
 30
0
 70
32
  0
VERTEX
  5
2272
  8
0
 62
7
 10
110.282
 20
75.0893
 30
0
 70
32
  0
VERTEX
  5
2273
  8
0
 62
7
 10
110.282
 20
75.0893
 30
0
 70
32
  0
VERTEX
  5
2274
  8
0
 62
7
 10
110.282
 20
75.0893
 30
0
 70
32
  0
VERTEX
  5
2275
  8
0
 62
7
 10
110.282
 20
75.0893
 30
0
 70
32
  0
VERTEX
  5
2276
  8
0
 62
7
 10
110.282
 20
75.0893
 30
0
 70
32
  0
VERTEX
  5
2277
  8
0
 62
7
 10
110.282
 20
75.0893
 30
0
 70
32
  0
VERTEX
  5
2278
  8
0
 62
7
 10
110.281
 20
75.0893
 30
0
 70
32
  0
VERTEX
  5
2279
  8
0
 62
7
 10
110.281
 20
75.0893
 30
0
 70
32
  0
VERTEX
  5
227A
  8
0
 62
7
 10
110.281
 20
75.0893
 30
0
 70
32
  0
VERTEX
  5
227B
  8
0
 62
7
 10
110.28
 20
75.0893
 30
0
 70
32
  0
VERTEX
  5
227C
  8
0
 62
7
 10
110.28
 20
75.0893
 30
0
 70
32
  0
VERTEX
  5
227D
  8
0
 62
7
 10
110.279
 20
75.0893
 30
0
 70
32
  0
VERTEX
  5
227E
  8
0
 62
7
 10
110.279
 20
75.0893
 30
0
 70
32
  0
VERTEX
  5
227F
  8
0
 62
7
 10
110.278
 20
75.0893
 30
0
 70
32
  0
VERTEX
  5
2280
  8
0
 62
7
 10
110.278
 20
75.0893
 30
0
 70
32
  0
VERTEX
  5
2281
  8
0
 62
7
 10
110.277
 20
75.0893
 30
0
 70
32
  0
VERTEX
  5
2282
  8
0
 62
7
 10
110.276
 20
75.0893
 30
0
 70
32
  0
VERTEX
  5
2283
  8
0
 62
7
 10
110.276
 20
75.0893
 30
0
 70
32
  0
VERTEX
  5
2284
  8
0
 62
7
 10
110.275
 20
75.0893
 30
0
 70
32
  0
VERTEX
  5
2285
  8
0
 62
7
 10
110.274
 20
75.0893
 30
0
 70
32
  0
VERTEX
  5
2286
  8
0
 62
7
 10
110.273
 20
75.0893
 30
0
 70
32
  0
VERTEX
  5
2287
  8
0
 62
7
 10
110.272
 20
75.0893
 30
0
 70
32
  0
VERTEX
  5
2288
  8
0
 62
7
 10
110.271
 20
75.0893
 30
0
 70
32
  0
VERTEX
  5
2289
  8
0
 62
7
 10
110.271
 20
75.0893
 30
0
 70
32
  0
VERTEX
  5
228A
  8
0
 62
7
 10
110.27
 20
75.0893
 30
0
 70
32
  0
VERTEX
  5
228B
  8
0
 62
7
 10
110.269
 20
75.0893
 30
0
 70
32
  0
VERTEX
  5
228C
  8
0
 62
7
 10
110.268
 20
75.0893
 30
0
 70
32
  0
VERTEX
  5
228D
  8
0
 62
7
 10
110.267
 20
75.0893
 30
0
 70
32
  0
VERTEX
  5
228E
  8
0
 62
7
 10
110.266
 20
75.0893
 30
0
 70
32
  0
VERTEX
  5
228F
  8
0
 62
7
 10
110.264
 20
75.0893
 30
0
 70
32
  0
VERTEX
  5
2290
  8
0
 62
7
 10
110.263
 20
75.0893
 30
0
 70
32
  0
VERTEX
  5
2291
  8
0
 62
7
 10
110.262
 20
75.0893
 30
0
 70
32
  0
VERTEX
  5
2292
  8
0
 62
7
 10
110.261
 20
75.0893
 30
0
 70
32
  0
VERTEX
  5
2293
  8
0
 62
7
 10
110.26
 20
75.0893
 30
0
 70
32
  0
VERTEX
  5
2294
  8
0
 62
7
 10
110.259
 20
75.0893
 30
0
 70
32
  0
VERTEX
  5
2295
  8
0
 62
7
 10
110.258
 20
75.0893
 30
0
 70
32
  0
VERTEX
  5
2296
  8
0
 62
7
 10
110.256
 20
75.0893
 30
0
 70
32
  0
VERTEX
  5
2297
  8
0
 62
7
 10
110.255
 20
75.0893
 30
0
 70
32
  0
VERTEX
  5
2298
  8
0
 62
7
 10
110.254
 20
75.0893
 30
0
 70
32
  0
VERTEX
  5
2299
  8
0
 62
7
 10
110.253
 20
75.0893
 30
0
 70
32
  0
VERTEX
  5
229A
  8
0
 62
7
 10
110.251
 20
75.0893
 30
0
 70
32
  0
VERTEX
  5
229B
  8
0
 62
7
 10
110.25
 20
75.0893
 30
0
 70
32
  0
VERTEX
  5
229C
  8
0
 62
7
 10
110.249
 20
75.0893
 30
0
 70
32
  0
VERTEX
  5
229D
  8
0
 62
7
 10
110.248
 20
75.0893
 30
0
 70
32
  0
VERTEX
  5
229E
  8
0
 62
7
 10
110.246
 20
75.0893
 30
0
 70
32
  0
VERTEX
  5
229F
  8
0
 62
7
 10
110.245
 20
75.0893
 30
0
 70
32
  0
VERTEX
  5
22A0
  8
0
 62
7
 10
110.244
 20
75.0893
 30
0
 70
32
  0
VERTEX
  5
22A1
  8
0
 62
7
 10
110.242
 20
75.0893
 30
0
 70
32
  0
VERTEX
  5
22A2
  8
0
 62
7
 10
110.241
 20
75.0893
 30
0
 70
32
  0
VERTEX
  5
22A3
  8
0
 62
7
 10
110.24
 20
75.0893
 30
0
 70
32
  0
VERTEX
  5
22A4
  8
0
 62
7
 10
110.238
 20
75.0893
 30
0
 70
32
  0
VERTEX
  5
22A5
  8
0
 62
7
 10
110.237
 20
75.0893
 30
0
 70
32
  0
VERTEX
  5
22A6
  8
0
 62
7
 10
110.236
 20
75.0893
 30
0
 70
32
  0
VERTEX
  5
22A7
  8
0
 62
7
 10
110.235
 20
75.0893
 30
0
 70
32
  0
VERTEX
  5
22A8
  8
0
 62
7
 10
110.233
 20
75.0893
 30
0
 70
32
  0
VERTEX
  5
22A9
  8
0
 62
7
 10
110.232
 20
75.0893
 30
0
 70
32
  0
VERTEX
  5
22AA
  8
0
 62
7
 10
110.231
 20
75.0893
 30
0
 70
32
  0
VERTEX
  5
22AB
  8
0
 62
7
 10
110.229
 20
75.0893
 30
0
 70
32
  0
VERTEX
  5
22AC
  8
0
 62
7
 10
110.228
 20
75.0893
 30
0
 70
32
  0
VERTEX
  5
22AD
  8
0
 62
7
 10
110.227
 20
75.0893
 30
0
 70
32
  0
VERTEX
  5
22AE
  8
0
 62
7
 10
110.226
 20
75.0893
 30
0
 70
32
  0
VERTEX
  5
22AF
  8
0
 62
7
 10
110.224
 20
75.0893
 30
0
 70
32
  0
VERTEX
  5
22B0
  8
0
 62
7
 10
110.223
 20
75.0893
 30
0
 70
32
  0
VERTEX
  5
22B1
  8
0
 62
7
 10
110.222
 20
75.0893
 30
0
 70
32
  0
VERTEX
  5
22B2
  8
0
 62
7
 10
110.221
 20
75.0893
 30
0
 70
32
  0
VERTEX
  5
22B3
  8
0
 62
7
 10
110.22
 20
75.0893
 30
0
 70
32
  0
VERTEX
  5
22B4
  8
0
 62
7
 10
110.218
 20
75.0893
 30
0
 70
32
  0
VERTEX
  5
22B5
  8
0
 62
7
 10
110.217
 20
75.0893
 30
0
 70
32
  0
VERTEX
  5
22B6
  8
0
 62
7
 10
110.216
 20
75.0893
 30
0
 70
32
  0
VERTEX
  5
22B7
  8
0
 62
7
 10
110.215
 20
75.0893
 30
0
 70
32
  0
VERTEX
  5
22B8
  8
0
 62
7
 10
110.214
 20
75.0893
 30
0
 70
32
  0
VERTEX
  5
22B9
  8
0
 62
7
 10
110.213
 20
75.0893
 30
0
 70
32
  0
VERTEX
  5
22BA
  8
0
 62
7
 10
110.212
 20
75.0893
 30
0
 70
32
  0
VERTEX
  5
22BB
  8
0
 62
7
 10
110.211
 20
75.0893
 30
0
 70
32
  0
VERTEX
  5
22BC
  8
0
 62
7
 10
110.21
 20
75.0893
 30
0
 70
32
  0
VERTEX
  5
22BD
  8
0
 62
7
 10
110.209
 20
75.0893
 30
0
 70
32
  0
VERTEX
  5
22BE
  8
0
 62
7
 10
110.208
 20
75.0893
 30
0
 70
32
  0
VERTEX
  5
22BF
  8
0
 62
7
 10
110.207
 20
75.0893
 30
0
 70
32
  0
VERTEX
  5
22C0
  8
0
 62
7
 10
110.206
 20
75.0893
 30
0
 70
32
  0
VERTEX
  5
22C1
  8
0
 62
7
 10
110.205
 20
75.0893
 30
0
 70
32
  0
VERTEX
  5
22C2
  8
0
 62
7
 10
110.204
 20
75.0893
 30
0
 70
32
  0
VERTEX
  5
22C3
  8
0
 62
7
 10
110.204
 20
75.0893
 30
0
 70
32
  0
VERTEX
  5
22C4
  8
0
 62
7
 10
110.203
 20
75.0893
 30
0
 70
32
  0
VERTEX
  5
22C5
  8
0
 62
7
 10
110.202
 20
75.0893
 30
0
 70
32
  0
VERTEX
  5
22C6
  8
0
 62
7
 10
110.202
 20
75.0893
 30
0
 70
32
  0
VERTEX
  5
22C7
  8
0
 62
7
 10
110.201
 20
75.0893
 30
0
 70
32
  0
VERTEX
  5
22C8
  8
0
 62
7
 10
110.2
 20
75.0893
 30
0
 70
32
  0
VERTEX
  5
22C9
  8
0
 62
7
 10
110.2
 20
75.0893
 30
0
 70
32
  0
VERTEX
  5
22CA
  8
0
 62
7
 10
110.199
 20
75.0893
 30
0
 70
32
  0
VERTEX
  5
22CB
  8
0
 62
7
 10
110.199
 20
75.0893
 30
0
 70
32
  0
VERTEX
  5
22CC
  8
0
 62
7
 10
110.198
 20
75.0893
 30
0
 70
32
  0
VERTEX
  5
22CD
  8
0
 62
7
 10
110.198
 20
75.0893
 30
0
 70
32
  0
VERTEX
  5
22CE
  8
0
 62
7
 10
110.198
 20
75.0893
 30
0
 70
32
  0
VERTEX
  5
22CF
  8
0
 62
7
 10
110.197
 20
75.0893
 30
0
 70
32
  0
VERTEX
  5
22D0
  8
0
 62
7
 10
110.197
 20
75.0893
 30
0
 70
32
  0
VERTEX
  5
22D1
  8
0
 62
7
 10
110.197
 20
75.0893
 30
0
 70
32
  0
VERTEX
  5
22D2
  8
0
 62
7
 10
110.197
 20
75.0893
 30
0
 70
32
  0
VERTEX
  5
22D3
  8
0
 62
7
 10
110.197
 20
75.0893
 30
0
 70
32
  0
VERTEX
  5
22D4
  8
0
 62
7
 10
110.197
 20
75.0893
 30
0
 70
32
  0
VERTEX
  5
22D5
  8
0
 62
7
 10
110.197
 20
75.0893
 30
0
 70
32
  0
VERTEX
  5
22D6
  8
0
 62
7
 10
110.197
 20
75.0893
 30
0
 70
32
  0
VERTEX
  5
22D7
  8
0
 62
7
 10
110.197
 20
75.0893
 30
0
 70
32
  0
VERTEX
  5
22D8
  8
0
 62
7
 10
110.196
 20
75.0893
 30
0
 70
32
  0
VERTEX
  5
22D9
  8
0
 62
7
 10
110.196
 20
75.0893
 30
0
 70
32
  0
VERTEX
  5
22DA
  8
0
 62
7
 10
110.196
 20
75.0893
 30
0
 70
32
  0
VERTEX
  5
22DB
  8
0
 62
7
 10
110.196
 20
75.0893
 30
0
 70
32
  0
VERTEX
  5
22DC
  8
0
 62
7
 10
110.196
 20
75.0893
 30
0
 70
32
  0
VERTEX
  5
22DD
  8
0
 62
7
 10
110.196
 20
75.0893
 30
0
 70
32
  0
VERTEX
  5
22DE
  8
0
 62
7
 10
110.195
 20
75.0893
 30
0
 70
32
  0
VERTEX
  5
22DF
  8
0
 62
7
 10
110.195
 20
75.0893
 30
0
 70
32
  0
VERTEX
  5
22E0
  8
0
 62
7
 10
110.195
 20
75.0893
 30
0
 70
32
  0
VERTEX
  5
22E1
  8
0
 62
7
 10
110.195
 20
75.0893
 30
0
 70
32
  0
VERTEX
  5
22E2
  8
0
 62
7
 10
110.194
 20
75.0893
 30
0
 70
32
  0
VERTEX
  5
22E3
  8
0
 62
7
 10
110.194
 20
75.0893
 30
0
 70
32
  0
VERTEX
  5
22E4
  8
0
 62
7
 10
110.194
 20
75.0893
 30
0
 70
32
  0
VERTEX
  5
22E5
  8
0
 62
7
 10
110.193
 20
75.0893
 30
0
 70
32
  0
VERTEX
  5
22E6
  8
0
 62
7
 10
110.193
 20
75.0893
 30
0
 70
32
  0
VERTEX
  5
22E7
  8
0
 62
7
 10
110.193
 20
75.0893
 30
0
 70
32
  0
VERTEX
  5
22E8
  8
0
 62
7
 10
110.192
 20
75.0893
 30
0
 70
32
  0
VERTEX
  5
22E9
  8
0
 62
7
 10
110.192
 20
75.0893
 30
0
 70
32
  0
VERTEX
  5
22EA
  8
0
 62
7
 10
110.191
 20
75.0893
 30
0
 70
32
  0
VERTEX
  5
22EB
  8
0
 62
7
 10
110.191
 20
75.0893
 30
0
 70
32
  0
VERTEX
  5
22EC
  8
0
 62
7
 10
110.191
 20
75.0893
 30
0
 70
32
  0
VERTEX
  5
22ED
  8
0
 62
7
 10
110.19
 20
75.0893
 30
0
 70
32
  0
VERTEX
  5
22EE
  8
0
 62
7
 10
110.19
 20
75.0893
 30
0
 70
32
  0
VERTEX
  5
22EF
  8
0
 62
7
 10
110.189
 20
75.0893
 30
0
 70
32
  0
VERTEX
  5
22F0
  8
0
 62
7
 10
110.189
 20
75.0893
 30
0
 70
32
  0
VERTEX
  5
22F1
  8
0
 62
7
 10
110.188
 20
75.0893
 30
0
 70
32
  0
VERTEX
  5
22F2
  8
0
 62
7
 10
110.187
 20
75.0893
 30
0
 70
32
  0
VERTEX
  5
22F3
  8
0
 62
7
 10
110.187
 20
75.0893
 30
0
 70
32
  0
VERTEX
  5
22F4
  8
0
 62
7
 10
110.186
 20
75.0893
 30
0
 70
32
  0
VERTEX
  5
22F5
  8
0
 62
7
 10
110.186
 20
75.0893
 30
0
 70
32
  0
VERTEX
  5
22F6
  8
0
 62
7
 10
110.185
 20
75.0893
 30
0
 70
32
  0
VERTEX
  5
22F7
  8
0
 62
7
 10
110.185
 20
75.0893
 30
0
 70
32
  0
VERTEX
  5
22F8
  8
0
 62
7
 10
110.184
 20
75.0893
 30
0
 70
32
  0
VERTEX
  5
22F9
  8
0
 62
7
 10
110.184
 20
75.0893
 30
0
 70
32
  0
VERTEX
  5
22FA
  8
0
 62
7
 10
110.183
 20
75.0893
 30
0
 70
32
  0
VERTEX
  5
22FB
  8
0
 62
7
 10
110.182
 20
75.0893
 30
0
 70
32
  0
VERTEX
  5
22FC
  8
0
 62
7
 10
110.182
 20
75.0893
 30
0
 70
32
  0
VERTEX
  5
22FD
  8
0
 62
7
 10
110.181
 20
75.0893
 30
0
 70
32
  0
VERTEX
  5
22FE
  8
0
 62
7
 10
110.18
 20
75.0893
 30
0
 70
32
  0
VERTEX
  5
22FF
  8
0
 62
7
 10
110.18
 20
75.0893
 30
0
 70
32
  0
VERTEX
  5
2300
  8
0
 62
7
 10
110.179
 20
75.0893
 30
0
 70
32
  0
VERTEX
  5
2301
  8
0
 62
7
 10
110.179
 20
75.0893
 30
0
 70
32
  0
VERTEX
  5
2302
  8
0
 62
7
 10
110.178
 20
75.0893
 30
0
 70
32
  0
VERTEX
  5
2303
  8
0
 62
7
 10
110.177
 20
75.0893
 30
0
 70
32
  0
VERTEX
  5
2304
  8
0
 62
7
 10
110.177
 20
75.0893
 30
0
 70
32
  0
VERTEX
  5
2305
  8
0
 62
7
 10
110.176
 20
75.0893
 30
0
 70
32
  0
VERTEX
  5
2306
  8
0
 62
7
 10
110.175
 20
75.0893
 30
0
 70
32
  0
VERTEX
  5
2307
  8
0
 62
7
 10
110.175
 20
75.0893
 30
0
 70
32
  0
VERTEX
  5
2308
  8
0
 62
7
 10
110.174
 20
75.0893
 30
0
 70
32
  0
VERTEX
  5
2309
  8
0
 62
7
 10
110.174
 20
75.0893
 30
0
 70
32
  0
VERTEX
  5
230A
  8
0
 62
7
 10
110.173
 20
75.0893
 30
0
 70
32
  0
VERTEX
  5
230B
  8
0
 62
7
 10
110.172
 20
75.0893
 30
0
 70
32
  0
VERTEX
  5
230C
  8
0
 62
7
 10
110.172
 20
75.0893
 30
0
 70
32
  0
VERTEX
  5
230D
  8
0
 62
7
 10
110.171
 20
75.0893
 30
0
 70
32
  0
VERTEX
  5
230E
  8
0
 62
7
 10
110.17
 20
75.0893
 30
0
 70
32
  0
VERTEX
  5
230F
  8
0
 62
7
 10
110.17
 20
75.0893
 30
0
 70
32
  0
VERTEX
  5
2310
  8
0
 62
7
 10
110.169
 20
75.0893
 30
0
 70
32
  0
VERTEX
  5
2311
  8
0
 62
7
 10
110.169
 20
75.0893
 30
0
 70
32
  0
VERTEX
  5
2312
  8
0
 62
7
 10
110.168
 20
75.0893
 30
0
 70
32
  0
VERTEX
  5
2313
  8
0
 62
7
 10
110.167
 20
75.0893
 30
0
 70
32
  0
VERTEX
  5
2314
  8
0
 62
7
 10
110.167
 20
75.0893
 30
0
 70
32
  0
VERTEX
  5
2315
  8
0
 62
7
 10
110.166
 20
75.0893
 30
0
 70
32
  0
VERTEX
  5
2316
  8
0
 62
7
 10
110.166
 20
75.0893
 30
0
 70
32
  0
VERTEX
  5
2317
  8
0
 62
7
 10
110.165
 20
75.0893
 30
0
 70
32
  0
VERTEX
  5
2318
  8
0
 62
7
 10
110.165
 20
75.0893
 30
0
 70
32
  0
VERTEX
  5
2319
  8
0
 62
7
 10
110.164
 20
75.0893
 30
0
 70
32
  0
VERTEX
  5
231A
  8
0
 62
7
 10
110.164
 20
75.0893
 30
0
 70
32
  0
VERTEX
  5
231B
  8
0
 62
7
 10
110.163
 20
75.0893
 30
0
 70
32
  0
VERTEX
  5
231C
  8
0
 62
7
 10
110.163
 20
75.0893
 30
0
 70
32
  0
VERTEX
  5
231D
  8
0
 62
7
 10
110.162
 20
75.0893
 30
0
 70
32
  0
VERTEX
  5
231E
  8
0
 62
7
 10
110.162
 20
75.0893
 30
0
 70
32
  0
VERTEX
  5
231F
  8
0
 62
7
 10
110.161
 20
75.0893
 30
0
 70
32
  0
VERTEX
  5
2320
  8
0
 62
7
 10
110.161
 20
75.0893
 30
0
 70
32
  0
VERTEX
  5
2321
  8
0
 62
7
 10
110.16
 20
75.0893
 30
0
 70
32
  0
VERTEX
  5
2322
  8
0
 62
7
 10
110.16
 20
75.0893
 30
0
 70
32
  0
VERTEX
  5
2323
  8
0
 62
7
 10
110.159
 20
75.0893
 30
0
 70
32
  0
VERTEX
  5
2324
  8
0
 62
7
 10
110.159
 20
75.0893
 30
0
 70
32
  0
VERTEX
  5
2325
  8
0
 62
7
 10
110.159
 20
75.0893
 30
0
 70
32
  0
VERTEX
  5
2326
  8
0
 62
7
 10
110.158
 20
75.0893
 30
0
 70
32
  0
VERTEX
  5
2327
  8
0
 62
7
 10
110.158
 20
75.0893
 30
0
 70
32
  0
VERTEX
  5
2328
  8
0
 62
7
 10
110.158
 20
75.0893
 30
0
 70
32
  0
VERTEX
  5
2329
  8
0
 62
7
 10
110.157
 20
75.0893
 30
0
 70
32
  0
VERTEX
  5
232A
  8
0
 62
7
 10
110.157
 20
75.0893
 30
0
 70
32
  0
VERTEX
  5
232B
  8
0
 62
7
 10
110.157
 20
75.0893
 30
0
 70
32
  0
VERTEX
  5
232C
  8
0
 62
7
 10
110.157
 20
75.0893
 30
0
 70
32
  0
VERTEX
  5
232D
  8
0
 62
7
 10
110.156
 20
75.0893
 30
0
 70
32
  0
VERTEX
  5
232E
  8
0
 62
7
 10
110.156
 20
75.0893
 30
0
 70
32
  0
VERTEX
  5
232F
  8
0
 62
7
 10
110.156
 20
75.0893
 30
0
 70
32
  0
VERTEX
  5
2330
  8
0
 62
7
 10
110.156
 20
75.0893
 30
0
 70
32
  0
VERTEX
  5
2331
  8
0
 62
7
 10
110.156
 20
75.0893
 30
0
 70
32
  0
VERTEX
  5
2332
  8
0
 62
7
 10
110.156
 20
75.0893
 30
0
 70
32
  0
VERTEX
  5
2333
  8
0
 62
7
 10
110.155
 20
75.0893
 30
0
 70
32
  0
VERTEX
  5
2334
  8
0
 62
7
 10
110.155
 20
75.0893
 30
0
 70
32
  0
VERTEX
  5
2335
  8
0
 62
7
 10
110.155
 20
75.0893
 30
0
 70
32
  0
VERTEX
  5
2336
  8
0
 62
7
 10
110.155
 20
75.0893
 30
0
 70
32
  0
VERTEX
  5
2337
  8
0
 62
7
 10
110.155
 20
75.0893
 30
0
 70
32
  0
VERTEX
  5
2338
  8
0
 62
7
 10
110.155
 20
75.0893
 30
0
 70
32
  0
VERTEX
  5
2339
  8
0
 62
7
 10
110.155
 20
75.0893
 30
0
 70
32
  0
VERTEX
  5
233A
  8
0
 62
7
 10
110.155
 20
75.0893
 30
0
 70
32
  0
VERTEX
  5
233B
  8
0
 62
7
 10
110.155
 20
75.0893
 30
0
 70
32
  0
VERTEX
  5
233C
  8
0
 62
7
 10
110.154
 20
75.0893
 30
0
 70
32
  0
VERTEX
  5
233D
  8
0
 62
7
 10
110.154
 20
75.0893
 30
0
 70
32
  0
VERTEX
  5
233E
  8
0
 62
7
 10
110.154
 20
75.0893
 30
0
 70
32
  0
VERTEX
  5
233F
  8
0
 62
7
 10
110.153
 20
75.0893
 30
0
 70
32
  0
VERTEX
  5
2340
  8
0
 62
7
 10
110.153
 20
75.0893
 30
0
 70
32
  0
VERTEX
  5
2341
  8
0
 62
7
 10
110.152
 20
75.0893
 30
0
 70
32
  0
VERTEX
  5
2342
  8
0
 62
7
 10
110.152
 20
75.0893
 30
0
 70
32
  0
VERTEX
  5
2343
  8
0
 62
7
 10
110.151
 20
75.0893
 30
0
 70
32
  0
VERTEX
  5
2344
  8
0
 62
7
 10
110.151
 20
75.0893
 30
0
 70
32
  0
VERTEX
  5
2345
  8
0
 62
7
 10
110.15
 20
75.0893
 30
0
 70
32
  0
VERTEX
  5
2346
  8
0
 62
7
 10
110.149
 20
75.0893
 30
0
 70
32
  0
VERTEX
  5
2347
  8
0
 62
7
 10
110.149
 20
75.0893
 30
0
 70
32
  0
VERTEX
  5
2348
  8
0
 62
7
 10
110.148
 20
75.0893
 30
0
 70
32
  0
VERTEX
  5
2349
  8
0
 62
7
 10
110.147
 20
75.0893
 30
0
 70
32
  0
VERTEX
  5
234A
  8
0
 62
7
 10
110.146
 20
75.0893
 30
0
 70
32
  0
VERTEX
  5
234B
  8
0
 62
7
 10
110.145
 20
75.0893
 30
0
 70
32
  0
VERTEX
  5
234C
  8
0
 62
7
 10
110.144
 20
75.0893
 30
0
 70
32
  0
VERTEX
  5
234D
  8
0
 62
7
 10
110.143
 20
75.0893
 30
0
 70
32
  0
VERTEX
  5
234E
  8
0
 62
7
 10
110.142
 20
75.0893
 30
0
 70
32
  0
VERTEX
  5
234F
  8
0
 62
7
 10
110.141
 20
75.0893
 30
0
 70
32
  0
VERTEX
  5
2350
  8
0
 62
7
 10
110.14
 20
75.0893
 30
0
 70
32
  0
VERTEX
  5
2351
  8
0
 62
7
 10
110.139
 20
75.0893
 30
0
 70
32
  0
VERTEX
  5
2352
  8
0
 62
7
 10
110.138
 20
75.0893
 30
0
 70
32
  0
VERTEX
  5
2353
  8
0
 62
7
 10
110.137
 20
75.0893
 30
0
 70
32
  0
VERTEX
  5
2354
  8
0
 62
7
 10
110.136
 20
75.0893
 30
0
 70
32
  0
VERTEX
  5
2355
  8
0
 62
7
 10
110.135
 20
75.0893
 30
0
 70
32
  0
VERTEX
  5
2356
  8
0
 62
7
 10
110.134
 20
75.0893
 30
0
 70
32
  0
VERTEX
  5
2357
  8
0
 62
7
 10
110.133
 20
75.0893
 30
0
 70
32
  0
VERTEX
  5
2358
  8
0
 62
7
 10
110.132
 20
75.0893
 30
0
 70
32
  0
VERTEX
  5
2359
  8
0
 62
7
 10
110.13
 20
75.0893
 30
0
 70
32
  0
VERTEX
  5
235A
  8
0
 62
7
 10
110.129
 20
75.0893
 30
0
 70
32
  0
VERTEX
  5
235B
  8
0
 62
7
 10
110.128
 20
75.0893
 30
0
 70
32
  0
VERTEX
  5
235C
  8
0
 62
7
 10
110.127
 20
75.0893
 30
0
 70
32
  0
VERTEX
  5
235D
  8
0
 62
7
 10
110.125
 20
75.0893
 30
0
 70
32
  0
VERTEX
  5
235E
  8
0
 62
7
 10
110.124
 20
75.0893
 30
0
 70
32
  0
VERTEX
  5
235F
  8
0
 62
7
 10
110.123
 20
75.0893
 30
0
 70
32
  0
VERTEX
  5
2360
  8
0
 62
7
 10
110.122
 20
75.0893
 30
0
 70
32
  0
VERTEX
  5
2361
  8
0
 62
7
 10
110.12
 20
75.0893
 30
0
 70
32
  0
VERTEX
  5
2362
  8
0
 62
7
 10
110.119
 20
75.0893
 30
0
 70
32
  0
VERTEX
  5
2363
  8
0
 62
7
 10
110.118
 20
75.0893
 30
0
 70
32
  0
VERTEX
  5
2364
  8
0
 62
7
 10
110.116
 20
75.0893
 30
0
 70
32
  0
VERTEX
  5
2365
  8
0
 62
7
 10
110.115
 20
75.0893
 30
0
 70
32
  0
VERTEX
  5
2366
  8
0
 62
7
 10
110.114
 20
75.0893
 30
0
 70
32
  0
VERTEX
  5
2367
  8
0
 62
7
 10
110.113
 20
75.0893
 30
0
 70
32
  0
VERTEX
  5
2368
  8
0
 62
7
 10
110.111
 20
75.0893
 30
0
 70
32
  0
VERTEX
  5
2369
  8
0
 62
7
 10
110.11
 20
75.0893
 30
0
 70
32
  0
VERTEX
  5
236A
  8
0
 62
7
 10
110.109
 20
75.0893
 30
0
 70
32
  0
VERTEX
  5
236B
  8
0
 62
7
 10
110.107
 20
75.0893
 30
0
 70
32
  0
VERTEX
  5
236C
  8
0
 62
7
 10
110.106
 20
75.0893
 30
0
 70
32
  0
VERTEX
  5
236D
  8
0
 62
7
 10
110.105
 20
75.0893
 30
0
 70
32
  0
VERTEX
  5
236E
  8
0
 62
7
 10
110.103
 20
75.0893
 30
0
 70
32
  0
VERTEX
  5
236F
  8
0
 62
7
 10
110.102
 20
75.0893
 30
0
 70
32
  0
VERTEX
  5
2370
  8
0
 62
7
 10
110.101
 20
75.0893
 30
0
 70
32
  0
VERTEX
  5
2371
  8
0
 62
7
 10
110.1
 20
75.0893
 30
0
 70
32
  0
VERTEX
  5
2372
  8
0
 62
7
 10
110.098
 20
75.0893
 30
0
 70
32
  0
VERTEX
  5
2373
  8
0
 62
7
 10
110.097
 20
75.0893
 30
0
 70
32
  0
VERTEX
  5
2374
  8
0
 62
7
 10
110.096
 20
75.0893
 30
0
 70
32
  0
VERTEX
  5
2375
  8
0
 62
7
 10
110.095
 20
75.0893
 30
0
 70
32
  0
VERTEX
  5
2376
  8
0
 62
7
 10
110.094
 20
75.0893
 30
0
 70
32
  0
VERTEX
  5
2377
  8
0
 62
7
 10
110.092
 20
75.0893
 30
0
 70
32
  0
VERTEX
  5
2378
  8
0
 62
7
 10
110.091
 20
75.0893
 30
0
 70
32
  0
VERTEX
  5
2379
  8
0
 62
7
 10
110.09
 20
75.0893
 30
0
 70
32
  0
VERTEX
  5
237A
  8
0
 62
7
 10
110.089
 20
75.0893
 30
0
 70
32
  0
VERTEX
  5
237B
  8
0
 62
7
 10
110.088
 20
75.0893
 30
0
 70
32
  0
VERTEX
  5
237C
  8
0
 62
7
 10
110.087
 20
75.0893
 30
0
 70
32
  0
VERTEX
  5
237D
  8
0
 62
7
 10
110.086
 20
75.0893
 30
0
 70
32
  0
VERTEX
  5
237E
  8
0
 62
7
 10
110.085
 20
75.0893
 30
0
 70
32
  0
VERTEX
  5
237F
  8
0
 62
7
 10
110.084
 20
75.0893
 30
0
 70
32
  0
VERTEX
  5
2380
  8
0
 62
7
 10
110.083
 20
75.0893
 30
0
 70
32
  0
VERTEX
  5
2381
  8
0
 62
7
 10
110.082
 20
75.0893
 30
0
 70
32
  0
VERTEX
  5
2382
  8
0
 62
7
 10
110.081
 20
75.0893
 30
0
 70
32
  0
VERTEX
  5
2383
  8
0
 62
7
 10
110.08
 20
75.0893
 30
0
 70
32
  0
VERTEX
  5
2384
  8
0
 62
7
 10
110.079
 20
75.0893
 30
0
 70
32
  0
VERTEX
  5
2385
  8
0
 62
7
 10
110.078
 20
75.0893
 30
0
 70
32
  0
VERTEX
  5
2386
  8
0
 62
7
 10
110.077
 20
75.0893
 30
0
 70
32
  0
VERTEX
  5
2387
  8
0
 62
7
 10
110.077
 20
75.0893
 30
0
 70
32
  0
VERTEX
  5
2388
  8
0
 62
7
 10
110.076
 20
75.0893
 30
0
 70
32
  0
VERTEX
  5
2389
  8
0
 62
7
 10
110.075
 20
75.0893
 30
0
 70
32
  0
VERTEX
  5
238A
  8
0
 62
7
 10
110.075
 20
75.0893
 30
0
 70
32
  0
VERTEX
  5
238B
  8
0
 62
7
 10
110.074
 20
75.0893
 30
0
 70
32
  0
VERTEX
  5
238C
  8
0
 62
7
 10
110.073
 20
75.0893
 30
0
 70
32
  0
VERTEX
  5
238D
  8
0
 62
7
 10
110.073
 20
75.0893
 30
0
 70
32
  0
VERTEX
  5
238E
  8
0
 62
7
 10
110.072
 20
75.0893
 30
0
 70
32
  0
VERTEX
  5
238F
  8
0
 62
7
 10
110.072
 20
75.0893
 30
0
 70
32
  0
VERTEX
  5
2390
  8
0
 62
7
 10
110.071
 20
75.0893
 30
0
 70
32
  0
VERTEX
  5
2391
  8
0
 62
7
 10
110.071
 20
75.0893
 30
0
 70
32
  0
VERTEX
  5
2392
  8
0
 62
7
 10
110.071
 20
75.0893
 30
0
 70
32
  0
VERTEX
  5
2393
  8
0
 62
7
 10
110.07
 20
75.0893
 30
0
 70
32
  0
VERTEX
  5
2394
  8
0
 62
7
 10
110.07
 20
75.0893
 30
0
 70
32
  0
VERTEX
  5
2395
  8
0
 62
7
 10
110.07
 20
75.0893
 30
0
 70
32
  0
VERTEX
  5
2396
  8
0
 62
7
 10
110.07
 20
75.0893
 30
0
 70
32
  0
VERTEX
  5
2397
  8
0
 62
7
 10
110.07
 20
75.0893
 30
0
 70
32
  0
VERTEX
  5
2398
  8
0
 62
7
 10
110.07
 20
75.0893
 30
0
 70
32
  0
VERTEX
  5
2399
  8
0
 62
7
 10
110.07
 20
75.0893
 30
0
 70
32
  0
VERTEX
  5
239A
  8
0
 62
7
 10
110.07
 20
75.0893
 30
0
 70
32
  0
VERTEX
  5
239B
  8
0
 62
7
 10
110.07
 20
75.0893
 30
0
 70
32
  0
VERTEX
  5
239C
  8
0
 62
7
 10
110.07
 20
75.0893
 30
0
 70
32
  0
VERTEX
  5
239D
  8
0
 62
7
 10
110.07
 20
75.0893
 30
0
 70
32
  0
VERTEX
  5
239E
  8
0
 62
7
 10
110.069
 20
75.0893
 30
0
 70
32
  0
VERTEX
  5
239F
  8
0
 62
7
 10
110.069
 20
75.0893
 30
0
 70
32
  0
VERTEX
  5
23A0
  8
0
 62
7
 10
110.069
 20
75.0893
 30
0
 70
32
  0
VERTEX
  5
23A1
  8
0
 62
7
 10
110.069
 20
75.0893
 30
0
 70
32
  0
VERTEX
  5
23A2
  8
0
 62
7
 10
110.069
 20
75.0893
 30
0
 70
32
  0
VERTEX
  5
23A3
  8
0
 62
7
 10
110.068
 20
75.0893
 30
0
 70
32
  0
VERTEX
  5
23A4
  8
0
 62
7
 10
110.068
 20
75.0893
 30
0
 70
32
  0
VERTEX
  5
23A5
  8
0
 62
7
 10
110.068
 20
75.0893
 30
0
 70
32
  0
VERTEX
  5
23A6
  8
0
 62
7
 10
110.067
 20
75.0893
 30
0
 70
32
  0
VERTEX
  5
23A7
  8
0
 62
7
 10
110.067
 20
75.0893
 30
0
 70
32
  0
VERTEX
  5
23A8
  8
0
 62
7
 10
110.067
 20
75.0893
 30
0
 70
32
  0
VERTEX
  5
23A9
  8
0
 62
7
 10
110.066
 20
75.0893
 30
0
 70
32
  0
VERTEX
  5
23AA
  8
0
 62
7
 10
110.066
 20
75.0893
 30
0
 70
32
  0
VERTEX
  5
23AB
  8
0
 62
7
 10
110.066
 20
75.0893
 30
0
 70
32
  0
VERTEX
  5
23AC
  8
0
 62
7
 10
110.065
 20
75.0893
 30
0
 70
32
  0
VERTEX
  5
23AD
  8
0
 62
7
 10
110.065
 20
75.0893
 30
0
 70
32
  0
VERTEX
  5
23AE
  8
0
 62
7
 10
110.064
 20
75.0893
 30
0
 70
32
  0
VERTEX
  5
23AF
  8
0
 62
7
 10
110.064
 20
75.0893
 30
0
 70
32
  0
VERTEX
  5
23B0
  8
0
 62
7
 10
110.063
 20
75.0893
 30
0
 70
32
  0
VERTEX
  5
23B1
  8
0
 62
7
 10
110.063
 20
75.0893
 30
0
 70
32
  0
VERTEX
  5
23B2
  8
0
 62
7
 10
110.062
 20
75.0893
 30
0
 70
32
  0
VERTEX
  5
23B3
  8
0
 62
7
 10
110.062
 20
75.0893
 30
0
 70
32
  0
VERTEX
  5
23B4
  8
0
 62
7
 10
110.061
 20
75.0893
 30
0
 70
32
  0
VERTEX
  5
23B5
  8
0
 62
7
 10
110.061
 20
75.0893
 30
0
 70
32
  0
VERTEX
  5
23B6
  8
0
 62
7
 10
110.06
 20
75.0893
 30
0
 70
32
  0
VERTEX
  5
23B7
  8
0
 62
7
 10
110.06
 20
75.0893
 30
0
 70
32
  0
VERTEX
  5
23B8
  8
0
 62
7
 10
110.059
 20
75.0893
 30
0
 70
32
  0
VERTEX
  5
23B9
  8
0
 62
7
 10
110.058
 20
75.0893
 30
0
 70
32
  0
VERTEX
  5
23BA
  8
0
 62
7
 10
110.058
 20
75.0893
 30
0
 70
32
  0
VERTEX
  5
23BB
  8
0
 62
7
 10
110.057
 20
75.0893
 30
0
 70
32
  0
VERTEX
  5
23BC
  8
0
 62
7
 10
110.057
 20
75.0893
 30
0
 70
32
  0
VERTEX
  5
23BD
  8
0
 62
7
 10
110.056
 20
75.0893
 30
0
 70
32
  0
VERTEX
  5
23BE
  8
0
 62
7
 10
110.055
 20
75.0893
 30
0
 70
32
  0
VERTEX
  5
23BF
  8
0
 62
7
 10
110.055
 20
75.0893
 30
0
 70
32
  0
VERTEX
  5
23C0
  8
0
 62
7
 10
110.054
 20
75.0893
 30
0
 70
32
  0
VERTEX
  5
23C1
  8
0
 62
7
 10
110.054
 20
75.0893
 30
0
 70
32
  0
VERTEX
  5
23C2
  8
0
 62
7
 10
110.053
 20
75.0893
 30
0
 70
32
  0
VERTEX
  5
23C3
  8
0
 62
7
 10
110.052
 20
75.0893
 30
0
 70
32
  0
VERTEX
  5
23C4
  8
0
 62
7
 10
110.052
 20
75.0893
 30
0
 70
32
  0
VERTEX
  5
23C5
  8
0
 62
7
 10
110.051
 20
75.0893
 30
0
 70
32
  0
VERTEX
  5
23C6
  8
0
 62
7
 10
110.05
 20
75.0893
 30
0
 70
32
  0
VERTEX
  5
23C7
  8
0
 62
7
 10
110.05
 20
75.0893
 30
0
 70
32
  0
VERTEX
  5
23C8
  8
0
 62
7
 10
110.049
 20
75.0893
 30
0
 70
32
  0
VERTEX
  5
23C9
  8
0
 62
7
 10
110.048
 20
75.0893
 30
0
 70
32
  0
VERTEX
  5
23CA
  8
0
 62
7
 10
110.048
 20
75.0893
 30
0
 70
32
  0
VERTEX
  5
23CB
  8
0
 62
7
 10
110.047
 20
75.0893
 30
0
 70
32
  0
VERTEX
  5
23CC
  8
0
 62
7
 10
110.046
 20
75.0893
 30
0
 70
32
  0
VERTEX
  5
23CD
  8
0
 62
7
 10
110.046
 20
75.0893
 30
0
 70
32
  0
VERTEX
  5
23CE
  8
0
 62
7
 10
110.045
 20
75.0893
 30
0
 70
32
  0
VERTEX
  5
23CF
  8
0
 62
7
 10
110.044
 20
75.0893
 30
0
 70
32
  0
VERTEX
  5
23D0
  8
0
 62
7
 10
110.044
 20
75.0893
 30
0
 70
32
  0
VERTEX
  5
23D1
  8
0
 62
7
 10
110.043
 20
75.0893
 30
0
 70
32
  0
VERTEX
  5
23D2
  8
0
 62
7
 10
110.043
 20
75.0893
 30
0
 70
32
  0
VERTEX
  5
23D3
  8
0
 62
7
 10
110.042
 20
75.0893
 30
0
 70
32
  0
VERTEX
  5
23D4
  8
0
 62
7
 10
110.041
 20
75.0893
 30
0
 70
32
  0
VERTEX
  5
23D5
  8
0
 62
7
 10
110.041
 20
75.0893
 30
0
 70
32
  0
VERTEX
  5
23D6
  8
0
 62
7
 10
110.04
 20
75.0893
 30
0
 70
32
  0
VERTEX
  5
23D7
  8
0
 62
7
 10
110.039
 20
75.0893
 30
0
 70
32
  0
VERTEX
  5
23D8
  8
0
 62
7
 10
110.039
 20
75.0893
 30
0
 70
32
  0
VERTEX
  5
23D9
  8
0
 62
7
 10
110.038
 20
75.0893
 30
0
 70
32
  0
VERTEX
  5
23DA
  8
0
 62
7
 10
110.038
 20
75.0893
 30
0
 70
32
  0
VERTEX
  5
23DB
  8
0
 62
7
 10
110.037
 20
75.0893
 30
0
 70
32
  0
VERTEX
  5
23DC
  8
0
 62
7
 10
110.037
 20
75.0893
 30
0
 70
32
  0
VERTEX
  5
23DD
  8
0
 62
7
 10
110.036
 20
75.0893
 30
0
 70
32
  0
VERTEX
  5
23DE
  8
0
 62
7
 10
110.035
 20
75.0893
 30
0
 70
32
  0
VERTEX
  5
23DF
  8
0
 62
7
 10
110.035
 20
75.0893
 30
0
 70
32
  0
VERTEX
  5
23E0
  8
0
 62
7
 10
110.034
 20
75.0893
 30
0
 70
32
  0
VERTEX
  5
23E1
  8
0
 62
7
 10
110.034
 20
75.0893
 30
0
 70
32
  0
VERTEX
  5
23E2
  8
0
 62
7
 10
110.033
 20
75.0893
 30
0
 70
32
  0
VERTEX
  5
23E3
  8
0
 62
7
 10
110.033
 20
75.0893
 30
0
 70
32
  0
VERTEX
  5
23E4
  8
0
 62
7
 10
110.033
 20
75.0893
 30
0
 70
32
  0
VERTEX
  5
23E5
  8
0
 62
7
 10
110.032
 20
75.0893
 30
0
 70
32
  0
VERTEX
  5
23E6
  8
0
 62
7
 10
110.032
 20
75.0893
 30
0
 70
32
  0
VERTEX
  5
23E7
  8
0
 62
7
 10
110.031
 20
75.0893
 30
0
 70
32
  0
VERTEX
  5
23E8
  8
0
 62
7
 10
110.031
 20
75.0893
 30
0
 70
32
  0
VERTEX
  5
23E9
  8
0
 62
7
 10
110.03
 20
75.0893
 30
0
 70
32
  0
VERTEX
  5
23EA
  8
0
 62
7
 10
110.03
 20
75.0893
 30
0
 70
32
  0
VERTEX
  5
23EB
  8
0
 62
7
 10
110.03
 20
75.0893
 30
0
 70
32
  0
VERTEX
  5
23EC
  8
0
 62
7
 10
110.029
 20
75.0893
 30
0
 70
32
  0
VERTEX
  5
23ED
  8
0
 62
7
 10
110.029
 20
75.0893
 30
0
 70
32
  0
VERTEX
  5
23EE
  8
0
 62
7
 10
110.029
 20
75.0893
 30
0
 70
32
  0
VERTEX
  5
23EF
  8
0
 62
7
 10
110.029
 20
75.0893
 30
0
 70
32
  0
VERTEX
  5
23F0
  8
0
 62
7
 10
110.028
 20
75.0893
 30
0
 70
32
  0
VERTEX
  5
23F1
  8
0
 62
7
 10
110.028
 20
75.0893
 30
0
 70
32
  0
VERTEX
  5
23F2
  8
0
 62
7
 10
110.028
 20
75.0893
 30
0
 70
32
  0
VERTEX
  5
23F3
  8
0
 62
7
 10
110.028
 20
75.0893
 30
0
 70
32
  0
VERTEX
  5
23F4
  8
0
 62
7
 10
110.028
 20
75.0893
 30
0
 70
32
  0
VERTEX
  5
23F5
  8
0
 62
7
 10
110.027
 20
75.0893
 30
0
 70
32
  0
VERTEX
  5
23F6
  8
0
 62
7
 10
110.027
 20
75.0893
 30
0
 70
32
  0
VERTEX
  5
23F7
  8
0
 62
7
 10
110.027
 20
75.0893
 30
0
 70
32
  0
VERTEX
  5
23F8
  8
0
 62
7
 10
110.027
 20
75.0893
 30
0
 70
32
  0
VERTEX
  5
23F9
  8
0
 62
7
 10
110.027
 20
75.0893
 30
0
 70
32
  0
VERTEX
  5
23FA
  8
0
 62
7
 10
110.027
 20
75.0893
 30
0
 70
32
  0
VERTEX
  5
23FB
  8
0
 62
7
 10
110.027
 20
75.0893
 30
0
 70
32
  0
VERTEX
  5
23FC
  8
0
 62
7
 10
110.027
 20
75.0893
 30
0
 70
32
  0
VERTEX
  5
23FD
  8
0
 62
7
 10
110.027
 20
75.0893
 30
0
 70
32
  0
VERTEX
  5
23FE
  8
0
 62
7
 10
110.027
 20
75.0893
 30
0
 70
32
  0
VERTEX
  5
23FF
  8
0
 62
7
 10
110.027
 20
75.0893
 30
0
 70
32
  0
VERTEX
  5
2400
  8
0
 62
7
 10
110.027
 20
75.0893
 30
0
 70
32
  0
VERTEX
  5
2401
  8
0
 62
7
 10
110.026
 20
75.0893
 30
0
 70
32
  0
VERTEX
  5
2402
  8
0
 62
7
 10
110.026
 20
75.0893
 30
0
 70
32
  0
VERTEX
  5
2403
  8
0
 62
7
 10
110.026
 20
75.0893
 30
0
 70
32
  0
VERTEX
  5
2404
  8
0
 62
7
 10
110.026
 20
75.0893
 30
0
 70
32
  0
VERTEX
  5
2405
  8
0
 62
7
 10
110.026
 20
75.0893
 30
0
 70
32
  0
VERTEX
  5
2406
  8
0
 62
7
 10
110.025
 20
75.0893
 30
0
 70
32
  0
VERTEX
  5
2407
  8
0
 62
7
 10
110.025
 20
75.0893
 30
0
 70
32
  0
VERTEX
  5
2408
  8
0
 62
7
 10
110.025
 20
75.0893
 30
0
 70
32
  0
VERTEX
  5
2409
  8
0
 62
7
 10
110.024
 20
75.0893
 30
0
 70
32
  0
VERTEX
  5
240A
  8
0
 62
7
 10
110.024
 20
75.0893
 30
0
 70
32
  0
VERTEX
  5
240B
  8
0
 62
7
 10
110.024
 20
75.0893
 30
0
 70
32
  0
VERTEX
  5
240C
  8
0
 62
7
 10
110.023
 20
75.0893
 30
0
 70
32
  0
VERTEX
  5
240D
  8
0
 62
7
 10
110.023
 20
75.0893
 30
0
 70
32
  0
VERTEX
  5
240E
  8
0
 62
7
 10
110.023
 20
75.0893
 30
0
 70
32
  0
VERTEX
  5
240F
  8
0
 62
7
 10
110.022
 20
75.0893
 30
0
 70
32
  0
VERTEX
  5
2410
  8
0
 62
7
 10
110.022
 20
75.0893
 30
0
 70
32
  0
VERTEX
  5
2411
  8
0
 62
7
 10
110.021
 20
75.0893
 30
0
 70
32
  0
VERTEX
  5
2412
  8
0
 62
7
 10
110.021
 20
75.0893
 30
0
 70
32
  0
VERTEX
  5
2413
  8
0
 62
7
 10
110.02
 20
75.0893
 30
0
 70
32
  0
VERTEX
  5
2414
  8
0
 62
7
 10
110.02
 20
75.0893
 30
0
 70
32
  0
VERTEX
  5
2415
  8
0
 62
7
 10
110.019
 20
75.0893
 30
0
 70
32
  0
VERTEX
  5
2416
  8
0
 62
7
 10
110.019
 20
75.0893
 30
0
 70
32
  0
VERTEX
  5
2417
  8
0
 62
7
 10
110.018
 20
75.0893
 30
0
 70
32
  0
VERTEX
  5
2418
  8
0
 62
7
 10
110.018
 20
75.0893
 30
0
 70
32
  0
VERTEX
  5
2419
  8
0
 62
7
 10
110.017
 20
75.0893
 30
0
 70
32
  0
VERTEX
  5
241A
  8
0
 62
7
 10
110.017
 20
75.0893
 30
0
 70
32
  0
VERTEX
  5
241B
  8
0
 62
7
 10
110.016
 20
75.0893
 30
0
 70
32
  0
VERTEX
  5
241C
  8
0
 62
7
 10
110.015
 20
75.0893
 30
0
 70
32
  0
VERTEX
  5
241D
  8
0
 62
7
 10
110.015
 20
75.0893
 30
0
 70
32
  0
VERTEX
  5
241E
  8
0
 62
7
 10
110.014
 20
75.0893
 30
0
 70
32
  0
VERTEX
  5
241F
  8
0
 62
7
 10
110.014
 20
75.0893
 30
0
 70
32
  0
VERTEX
  5
2420
  8
0
 62
7
 10
110.013
 20
75.0893
 30
0
 70
32
  0
VERTEX
  5
2421
  8
0
 62
7
 10
110.012
 20
75.0893
 30
0
 70
32
  0
VERTEX
  5
2422
  8
0
 62
7
 10
110.012
 20
75.0893
 30
0
 70
32
  0
VERTEX
  5
2423
  8
0
 62
7
 10
110.011
 20
75.0893
 30
0
 70
32
  0
VERTEX
  5
2424
  8
0
 62
7
 10
110.011
 20
75.0893
 30
0
 70
32
  0
VERTEX
  5
2425
  8
0
 62
7
 10
110.01
 20
75.0893
 30
0
 70
32
  0
VERTEX
  5
2426
  8
0
 62
7
 10
110.009
 20
75.0893
 30
0
 70
32
  0
VERTEX
  5
2427
  8
0
 62
7
 10
110.009
 20
75.0893
 30
0
 70
32
  0
VERTEX
  5
2428
  8
0
 62
7
 10
110.008
 20
75.0893
 30
0
 70
32
  0
VERTEX
  5
2429
  8
0
 62
7
 10
110.007
 20
75.0893
 30
0
 70
32
  0
VERTEX
  5
242A
  8
0
 62
7
 10
110.007
 20
75.0893
 30
0
 70
32
  0
VERTEX
  5
242B
  8
0
 62
7
 10
110.006
 20
75.0893
 30
0
 70
32
  0
VERTEX
  5
242C
  8
0
 62
7
 10
110.006
 20
75.0893
 30
0
 70
32
  0
VERTEX
  5
242D
  8
0
 62
7
 10
110.005
 20
75.0893
 30
0
 70
32
  0
VERTEX
  5
242E
  8
0
 62
7
 10
110.004
 20
75.0893
 30
0
 70
32
  0
VERTEX
  5
242F
  8
0
 62
7
 10
110.004
 20
75.0893
 30
0
 70
32
  0
VERTEX
  5
2430
  8
0
 62
7
 10
110.003
 20
75.0893
 30
0
 70
32
  0
VERTEX
  5
2431
  8
0
 62
7
 10
110.002
 20
75.0893
 30
0
 70
32
  0
VERTEX
  5
2432
  8
0
 62
7
 10
110.002
 20
75.0893
 30
0
 70
32
  0
VERTEX
  5
2433
  8
0
 62
7
 10
110.001
 20
75.0893
 30
0
 70
32
  0
VERTEX
  5
2434
  8
0
 62
7
 10
110.001
 20
75.0893
 30
0
 70
32
  0
VERTEX
  5
2435
  8
0
 62
7
 10
110
 20
75.0893
 30
0
 70
32
  0
VERTEX
  5
2436
  8
0
 62
7
 10
109.999
 20
75.0893
 30
0
 70
32
  0
VERTEX
  5
2437
  8
0
 62
7
 10
109.999
 20
75.0893
 30
0
 70
32
  0
VERTEX
  5
2438
  8
0
 62
7
 10
109.998
 20
75.0893
 30
0
 70
32
  0
VERTEX
  5
2439
  8
0
 62
7
 10
109.998
 20
75.0893
 30
0
 70
32
  0
VERTEX
  5
243A
  8
0
 62
7
 10
109.997
 20
75.0893
 30
0
 70
32
  0
VERTEX
  5
243B
  8
0
 62
7
 10
109.996
 20
75.0893
 30
0
 70
32
  0
VERTEX
  5
243C
  8
0
 62
7
 10
109.996
 20
75.0893
 30
0
 70
32
  0
VERTEX
  5
243D
  8
0
 62
7
 10
109.995
 20
75.0893
 30
0
 70
32
  0
VERTEX
  5
243E
  8
0
 62
7
 10
109.995
 20
75.0893
 30
0
 70
32
  0
VERTEX
  5
243F
  8
0
 62
7
 10
109.994
 20
75.0893
 30
0
 70
32
  0
VERTEX
  5
2440
  8
0
 62
7
 10
109.994
 20
75.0893
 30
0
 70
32
  0
VERTEX
  5
2441
  8
0
 62
7
 10
109.993
 20
75.0893
 30
0
 70
32
  0
VERTEX
  5
2442
  8
0
 62
7
 10
109.993
 20
75.0893
 30
0
 70
32
  0
VERTEX
  5
2443
  8
0
 62
7
 10
109.992
 20
75.0893
 30
0
 70
32
  0
VERTEX
  5
2444
  8
0
 62
7
 10
109.992
 20
75.0893
 30
0
 70
32
  0
VERTEX
  5
2445
  8
0
 62
7
 10
109.991
 20
75.0893
 30
0
 70
32
  0
VERTEX
  5
2446
  8
0
 62
7
 10
109.991
 20
75.0893
 30
0
 70
32
  0
VERTEX
  5
2447
  8
0
 62
7
 10
109.991
 20
75.0893
 30
0
 70
32
  0
VERTEX
  5
2448
  8
0
 62
7
 10
109.99
 20
75.0893
 30
0
 70
32
  0
VERTEX
  5
2449
  8
0
 62
7
 10
109.99
 20
75.0893
 30
0
 70
32
  0
VERTEX
  5
244A
  8
0
 62
7
 10
109.989
 20
75.0893
 30
0
 70
32
  0
VERTEX
  5
244B
  8
0
 62
7
 10
109.989
 20
75.0893
 30
0
 70
32
  0
VERTEX
  5
244C
  8
0
 62
7
 10
109.989
 20
75.0893
 30
0
 70
32
  0
VERTEX
  5
244D
  8
0
 62
7
 10
109.988
 20
75.0893
 30
0
 70
32
  0
VERTEX
  5
244E
  8
0
 62
7
 10
109.988
 20
75.0893
 30
0
 70
32
  0
VERTEX
  5
244F
  8
0
 62
7
 10
109.988
 20
75.0893
 30
0
 70
32
  0
VERTEX
  5
2450
  8
0
 62
7
 10
109.987
 20
75.0893
 30
0
 70
32
  0
VERTEX
  5
2451
  8
0
 62
7
 10
109.987
 20
75.0893
 30
0
 70
32
  0
VERTEX
  5
2452
  8
0
 62
7
 10
109.987
 20
75.0893
 30
0
 70
32
  0
VERTEX
  5
2453
  8
0
 62
7
 10
109.987
 20
75.0893
 30
0
 70
32
  0
VERTEX
  5
2454
  8
0
 62
7
 10
109.987
 20
75.0893
 30
0
 70
32
  0
VERTEX
  5
2455
  8
0
 62
7
 10
109.986
 20
75.0893
 30
0
 70
32
  0
VERTEX
  5
2456
  8
0
 62
7
 10
109.986
 20
75.0893
 30
0
 70
32
  0
VERTEX
  5
2457
  8
0
 62
7
 10
109.986
 20
75.0893
 30
0
 70
32
  0
VERTEX
  5
2458
  8
0
 62
7
 10
109.986
 20
75.0893
 30
0
 70
32
  0
VERTEX
  5
2459
  8
0
 62
7
 10
109.986
 20
75.0893
 30
0
 70
32
  0
VERTEX
  5
245A
  8
0
 62
7
 10
109.986
 20
75.0893
 30
0
 70
32
  0
VERTEX
  5
245B
  8
0
 62
7
 10
109.986
 20
75.0893
 30
0
 70
32
  0
VERTEX
  5
245C
  8
0
 62
7
 10
109.986
 20
75.0893
 30
0
 70
32
  0
VERTEX
  5
245D
  8
0
 62
7
 10
109.986
 20
75.0893
 30
0
 70
32
  0
VERTEX
  5
245E
  8
0
 62
7
 10
109.986
 20
75.0893
 30
0
 70
32
  0
VERTEX
  5
245F
  8
0
 62
7
 10
109.986
 20
75.0893
 30
0
 70
32
  0
VERTEX
  5
2460
  8
0
 62
7
 10
109.986
 20
75.0893
 30
0
 70
32
  0
VERTEX
  5
2461
  8
0
 62
7
 10
109.985
 20
75.0893
 30
0
 70
32
  0
VERTEX
  5
2462
  8
0
 62
7
 10
109.985
 20
75.0893
 30
0
 70
32
  0
VERTEX
  5
2463
  8
0
 62
7
 10
109.985
 20
75.0893
 30
0
 70
32
  0
VERTEX
  5
2464
  8
0
 62
7
 10
109.985
 20
75.0893
 30
0
 70
32
  0
VERTEX
  5
2465
  8
0
 62
7
 10
109.985
 20
75.0893
 30
0
 70
32
  0
VERTEX
  5
2466
  8
0
 62
7
 10
109.984
 20
75.0893
 30
0
 70
32
  0
VERTEX
  5
2467
  8
0
 62
7
 10
109.984
 20
75.0893
 30
0
 70
32
  0
VERTEX
  5
2468
  8
0
 62
7
 10
109.984
 20
75.0893
 30
0
 70
32
  0
VERTEX
  5
2469
  8
0
 62
7
 10
109.984
 20
75.0893
 30
0
 70
32
  0
VERTEX
  5
246A
  8
0
 62
7
 10
109.983
 20
75.0893
 30
0
 70
32
  0
VERTEX
  5
246B
  8
0
 62
7
 10
109.983
 20
75.0893
 30
0
 70
32
  0
VERTEX
  5
246C
  8
0
 62
7
 10
109.983
 20
75.0893
 30
0
 70
32
  0
VERTEX
  5
246D
  8
0
 62
7
 10
109.982
 20
75.0893
 30
0
 70
32
  0
VERTEX
  5
246E
  8
0
 62
7
 10
109.982
 20
75.0893
 30
0
 70
32
  0
VERTEX
  5
246F
  8
0
 62
7
 10
109.981
 20
75.0893
 30
0
 70
32
  0
VERTEX
  5
2470
  8
0
 62
7
 10
109.981
 20
75.0893
 30
0
 70
32
  0
VERTEX
  5
2471
  8
0
 62
7
 10
109.981
 20
75.0893
 30
0
 70
32
  0
VERTEX
  5
2472
  8
0
 62
7
 10
109.98
 20
75.0893
 30
0
 70
32
  0
VERTEX
  5
2473
  8
0
 62
7
 10
109.98
 20
75.0893
 30
0
 70
32
  0
VERTEX
  5
2474
  8
0
 62
7
 10
109.979
 20
75.0893
 30
0
 70
32
  0
VERTEX
  5
2475
  8
0
 62
7
 10
109.979
 20
75.0893
 30
0
 70
32
  0
VERTEX
  5
2476
  8
0
 62
7
 10
109.978
 20
75.0893
 30
0
 70
32
  0
VERTEX
  5
2477
  8
0
 62
7
 10
109.978
 20
75.0893
 30
0
 70
32
  0
VERTEX
  5
2478
  8
0
 62
7
 10
109.977
 20
75.0893
 30
0
 70
32
  0
VERTEX
  5
2479
  8
0
 62
7
 10
109.977
 20
75.0893
 30
0
 70
32
  0
VERTEX
  5
247A
  8
0
 62
7
 10
109.976
 20
75.0893
 30
0
 70
32
  0
VERTEX
  5
247B
  8
0
 62
7
 10
109.975
 20
75.0893
 30
0
 70
32
  0
VERTEX
  5
247C
  8
0
 62
7
 10
109.975
 20
75.0893
 30
0
 70
32
  0
VERTEX
  5
247D
  8
0
 62
7
 10
109.974
 20
75.0893
 30
0
 70
32
  0
VERTEX
  5
247E
  8
0
 62
7
 10
109.974
 20
75.0893
 30
0
 70
32
  0
VERTEX
  5
247F
  8
0
 62
7
 10
109.973
 20
75.0893
 30
0
 70
32
  0
VERTEX
  5
2480
  8
0
 62
7
 10
109.972
 20
75.0893
 30
0
 70
32
  0
VERTEX
  5
2481
  8
0
 62
7
 10
109.972
 20
75.0893
 30
0
 70
32
  0
VERTEX
  5
2482
  8
0
 62
7
 10
109.971
 20
75.0893
 30
0
 70
32
  0
VERTEX
  5
2483
  8
0
 62
7
 10
109.971
 20
75.0893
 30
0
 70
32
  0
VERTEX
  5
2484
  8
0
 62
7
 10
109.97
 20
75.0893
 30
0
 70
32
  0
VERTEX
  5
2485
  8
0
 62
7
 10
109.969
 20
75.0893
 30
0
 70
32
  0
VERTEX
  5
2486
  8
0
 62
7
 10
109.969
 20
75.0893
 30
0
 70
32
  0
VERTEX
  5
2487
  8
0
 62
7
 10
109.968
 20
75.0893
 30
0
 70
32
  0
VERTEX
  5
2488
  8
0
 62
7
 10
109.967
 20
75.0893
 30
0
 70
32
  0
VERTEX
  5
2489
  8
0
 62
7
 10
109.967
 20
75.0893
 30
0
 70
32
  0
VERTEX
  5
248A
  8
0
 62
7
 10
109.966
 20
75.0893
 30
0
 70
32
  0
VERTEX
  5
248B
  8
0
 62
7
 10
109.965
 20
75.0893
 30
0
 70
32
  0
VERTEX
  5
248C
  8
0
 62
7
 10
109.965
 20
75.0893
 30
0
 70
32
  0
VERTEX
  5
248D
  8
0
 62
7
 10
109.964
 20
75.0893
 30
0
 70
32
  0
VERTEX
  5
248E
  8
0
 62
7
 10
109.963
 20
75.0893
 30
0
 70
32
  0
VERTEX
  5
248F
  8
0
 62
7
 10
109.963
 20
75.0893
 30
0
 70
32
  0
VERTEX
  5
2490
  8
0
 62
7
 10
109.962
 20
75.0893
 30
0
 70
32
  0
VERTEX
  5
2491
  8
0
 62
7
 10
109.961
 20
75.0893
 30
0
 70
32
  0
VERTEX
  5
2492
  8
0
 62
7
 10
109.961
 20
75.0893
 30
0
 70
32
  0
VERTEX
  5
2493
  8
0
 62
7
 10
109.96
 20
75.0893
 30
0
 70
32
  0
VERTEX
  5
2494
  8
0
 62
7
 10
109.96
 20
75.0893
 30
0
 70
32
  0
VERTEX
  5
2495
  8
0
 62
7
 10
109.959
 20
75.0893
 30
0
 70
32
  0
VERTEX
  5
2496
  8
0
 62
7
 10
109.958
 20
75.0893
 30
0
 70
32
  0
VERTEX
  5
2497
  8
0
 62
7
 10
109.958
 20
75.0893
 30
0
 70
32
  0
VERTEX
  5
2498
  8
0
 62
7
 10
109.957
 20
75.0893
 30
0
 70
32
  0
VERTEX
  5
2499
  8
0
 62
7
 10
109.956
 20
75.0893
 30
0
 70
32
  0
VERTEX
  5
249A
  8
0
 62
7
 10
109.956
 20
75.0893
 30
0
 70
32
  0
VERTEX
  5
249B
  8
0
 62
7
 10
109.955
 20
75.0893
 30
0
 70
32
  0
VERTEX
  5
249C
  8
0
 62
7
 10
109.955
 20
75.0893
 30
0
 70
32
  0
VERTEX
  5
249D
  8
0
 62
7
 10
109.954
 20
75.0893
 30
0
 70
32
  0
VERTEX
  5
249E
  8
0
 62
7
 10
109.953
 20
75.0893
 30
0
 70
32
  0
VERTEX
  5
249F
  8
0
 62
7
 10
109.953
 20
75.0893
 30
0
 70
32
  0
VERTEX
  5
24A0
  8
0
 62
7
 10
109.952
 20
75.0893
 30
0
 70
32
  0
VERTEX
  5
24A1
  8
0
 62
7
 10
109.952
 20
75.0893
 30
0
 70
32
  0
VERTEX
  5
24A2
  8
0
 62
7
 10
109.951
 20
75.0893
 30
0
 70
32
  0
VERTEX
  5
24A3
  8
0
 62
7
 10
109.951
 20
75.0893
 30
0
 70
32
  0
VERTEX
  5
24A4
  8
0
 62
7
 10
109.95
 20
75.0893
 30
0
 70
32
  0
VERTEX
  5
24A5
  8
0
 62
7
 10
109.95
 20
75.0893
 30
0
 70
32
  0
VERTEX
  5
24A6
  8
0
 62
7
 10
109.949
 20
75.0893
 30
0
 70
32
  0
VERTEX
  5
24A7
  8
0
 62
7
 10
109.949
 20
75.0893
 30
0
 70
32
  0
VERTEX
  5
24A8
  8
0
 62
7
 10
109.948
 20
75.0893
 30
0
 70
32
  0
VERTEX
  5
24A9
  8
0
 62
7
 10
109.948
 20
75.0893
 30
0
 70
32
  0
VERTEX
  5
24AA
  8
0
 62
7
 10
109.947
 20
75.0893
 30
0
 70
32
  0
VERTEX
  5
24AB
  8
0
 62
7
 10
109.947
 20
75.0893
 30
0
 70
32
  0
VERTEX
  5
24AC
  8
0
 62
7
 10
109.947
 20
75.0893
 30
0
 70
32
  0
VERTEX
  5
24AD
  8
0
 62
7
 10
109.946
 20
75.0893
 30
0
 70
32
  0
VERTEX
  5
24AE
  8
0
 62
7
 10
109.946
 20
75.0893
 30
0
 70
32
  0
VERTEX
  5
24AF
  8
0
 62
7
 10
109.946
 20
75.0893
 30
0
 70
32
  0
VERTEX
  5
24B0
  8
0
 62
7
 10
109.945
 20
75.0893
 30
0
 70
32
  0
VERTEX
  5
24B1
  8
0
 62
7
 10
109.945
 20
75.0893
 30
0
 70
32
  0
VERTEX
  5
24B2
  8
0
 62
7
 10
109.945
 20
75.0893
 30
0
 70
32
  0
VERTEX
  5
24B3
  8
0
 62
7
 10
109.944
 20
75.0893
 30
0
 70
32
  0
VERTEX
  5
24B4
  8
0
 62
7
 10
109.944
 20
75.0893
 30
0
 70
32
  0
VERTEX
  5
24B5
  8
0
 62
7
 10
109.944
 20
75.0893
 30
0
 70
32
  0
VERTEX
  5
24B6
  8
0
 62
7
 10
109.944
 20
75.0893
 30
0
 70
32
  0
VERTEX
  5
24B7
  8
0
 62
7
 10
109.944
 20
75.0893
 30
0
 70
32
  0
VERTEX
  5
24B8
  8
0
 62
7
 10
109.943
 20
75.0893
 30
0
 70
32
  0
VERTEX
  5
24B9
  8
0
 62
7
 10
109.943
 20
75.0893
 30
0
 70
32
  0
VERTEX
  5
24BA
  8
0
 62
7
 10
109.943
 20
75.0893
 30
0
 70
32
  0
VERTEX
  5
24BB
  8
0
 62
7
 10
109.943
 20
75.0893
 30
0
 70
32
  0
VERTEX
  5
24BC
  8
0
 62
7
 10
109.943
 20
75.0893
 30
0
 70
32
  0
VERTEX
  5
24BD
  8
0
 62
7
 10
109.943
 20
75.0893
 30
0
 70
32
  0
VERTEX
  5
24BE
  8
0
 62
7
 10
109.943
 20
75.0893
 30
0
 70
32
  0
VERTEX
  5
24BF
  8
0
 62
7
 10
109.943
 20
75.0892
 30
0
 70
32
  0
VERTEX
  5
24C0
  8
0
 62
7
 10
109.943
 20
75.0891
 30
0
 70
32
  0
VERTEX
  5
24C1
  8
0
 62
7
 10
109.943
 20
75.089
 30
0
 70
32
  0
VERTEX
  5
24C2
  8
0
 62
7
 10
109.943
 20
75.0888
 30
0
 70
32
  0
VERTEX
  5
24C3
  8
0
 62
7
 10
109.943
 20
75.0885
 30
0
 70
32
  0
VERTEX
  5
24C4
  8
0
 62
7
 10
109.943
 20
75.0882
 30
0
 70
32
  0
VERTEX
  5
24C5
  8
0
 62
7
 10
109.943
 20
75.0878
 30
0
 70
32
  0
VERTEX
  5
24C6
  8
0
 62
7
 10
109.943
 20
75.0875
 30
0
 70
32
  0
VERTEX
  5
24C7
  8
0
 62
7
 10
109.943
 20
75.087
 30
0
 70
32
  0
VERTEX
  5
24C8
  8
0
 62
7
 10
109.943
 20
75.0865
 30
0
 70
32
  0
VERTEX
  5
24C9
  8
0
 62
7
 10
109.943
 20
75.086
 30
0
 70
32
  0
VERTEX
  5
24CA
  8
0
 62
7
 10
109.943
 20
75.0855
 30
0
 70
32
  0
VERTEX
  5
24CB
  8
0
 62
7
 10
109.943
 20
75.0849
 30
0
 70
32
  0
VERTEX
  5
24CC
  8
0
 62
7
 10
109.943
 20
75.0842
 30
0
 70
32
  0
VERTEX
  5
24CD
  8
0
 62
7
 10
109.943
 20
75.0836
 30
0
 70
32
  0
VERTEX
  5
24CE
  8
0
 62
7
 10
109.943
 20
75.0828
 30
0
 70
32
  0
VERTEX
  5
24CF
  8
0
 62
7
 10
109.943
 20
75.0821
 30
0
 70
32
  0
VERTEX
  5
24D0
  8
0
 62
7
 10
109.943
 20
75.0813
 30
0
 70
32
  0
VERTEX
  5
24D1
  8
0
 62
7
 10
109.943
 20
75.0805
 30
0
 70
32
  0
VERTEX
  5
24D2
  8
0
 62
7
 10
109.943
 20
75.0797
 30
0
 70
32
  0
VERTEX
  5
24D3
  8
0
 62
7
 10
109.943
 20
75.0788
 30
0
 70
32
  0
VERTEX
  5
24D4
  8
0
 62
7
 10
109.943
 20
75.0779
 30
0
 70
32
  0
VERTEX
  5
24D5
  8
0
 62
7
 10
109.943
 20
75.077
 30
0
 70
32
  0
VERTEX
  5
24D6
  8
0
 62
7
 10
109.943
 20
75.076
 30
0
 70
32
  0
VERTEX
  5
24D7
  8
0
 62
7
 10
109.943
 20
75.075
 30
0
 70
32
  0
VERTEX
  5
24D8
  8
0
 62
7
 10
109.943
 20
75.074
 30
0
 70
32
  0
VERTEX
  5
24D9
  8
0
 62
7
 10
109.943
 20
75.073
 30
0
 70
32
  0
VERTEX
  5
24DA
  8
0
 62
7
 10
109.943
 20
75.0719
 30
0
 70
32
  0
VERTEX
  5
24DB
  8
0
 62
7
 10
109.943
 20
75.0709
 30
0
 70
32
  0
VERTEX
  5
24DC
  8
0
 62
7
 10
109.943
 20
75.0698
 30
0
 70
32
  0
VERTEX
  5
24DD
  8
0
 62
7
 10
109.943
 20
75.0686
 30
0
 70
32
  0
VERTEX
  5
24DE
  8
0
 62
7
 10
109.943
 20
75.0675
 30
0
 70
32
  0
VERTEX
  5
24DF
  8
0
 62
7
 10
109.943
 20
75.0664
 30
0
 70
32
  0
VERTEX
  5
24E0
  8
0
 62
7
 10
109.943
 20
75.0652
 30
0
 70
32
  0
VERTEX
  5
24E1
  8
0
 62
7
 10
109.943
 20
75.064
 30
0
 70
32
  0
VERTEX
  5
24E2
  8
0
 62
7
 10
109.943
 20
75.0628
 30
0
 70
32
  0
VERTEX
  5
24E3
  8
0
 62
7
 10
109.943
 20
75.0616
 30
0
 70
32
  0
VERTEX
  5
24E4
  8
0
 62
7
 10
109.943
 20
75.0604
 30
0
 70
32
  0
VERTEX
  5
24E5
  8
0
 62
7
 10
109.943
 20
75.0591
 30
0
 70
32
  0
VERTEX
  5
24E6
  8
0
 62
7
 10
109.943
 20
75.0579
 30
0
 70
32
  0
VERTEX
  5
24E7
  8
0
 62
7
 10
109.943
 20
75.0566
 30
0
 70
32
  0
VERTEX
  5
24E8
  8
0
 62
7
 10
109.943
 20
75.0554
 30
0
 70
32
  0
VERTEX
  5
24E9
  8
0
 62
7
 10
109.943
 20
75.0541
 30
0
 70
32
  0
VERTEX
  5
24EA
  8
0
 62
7
 10
109.943
 20
75.0528
 30
0
 70
32
  0
VERTEX
  5
24EB
  8
0
 62
7
 10
109.943
 20
75.0516
 30
0
 70
32
  0
VERTEX
  5
24EC
  8
0
 62
7
 10
109.943
 20
75.0503
 30
0
 70
32
  0
VERTEX
  5
24ED
  8
0
 62
7
 10
109.943
 20
75.049
 30
0
 70
32
  0
VERTEX
  5
24EE
  8
0
 62
7
 10
109.943
 20
75.0477
 30
0
 70
32
  0
VERTEX
  5
24EF
  8
0
 62
7
 10
109.943
 20
75.0464
 30
0
 70
32
  0
VERTEX
  5
24F0
  8
0
 62
7
 10
109.943
 20
75.0451
 30
0
 70
32
  0
VERTEX
  5
24F1
  8
0
 62
7
 10
109.943
 20
75.0438
 30
0
 70
32
  0
VERTEX
  5
24F2
  8
0
 62
7
 10
109.943
 20
75.0426
 30
0
 70
32
  0
VERTEX
  5
24F3
  8
0
 62
7
 10
109.943
 20
75.0413
 30
0
 70
32
  0
VERTEX
  5
24F4
  8
0
 62
7
 10
109.943
 20
75.04
 30
0
 70
32
  0
VERTEX
  5
24F5
  8
0
 62
7
 10
109.943
 20
75.0388
 30
0
 70
32
  0
VERTEX
  5
24F6
  8
0
 62
7
 10
109.943
 20
75.0375
 30
0
 70
32
  0
VERTEX
  5
24F7
  8
0
 62
7
 10
109.943
 20
75.0362
 30
0
 70
32
  0
VERTEX
  5
24F8
  8
0
 62
7
 10
109.943
 20
75.035
 30
0
 70
32
  0
VERTEX
  5
24F9
  8
0
 62
7
 10
109.943
 20
75.0338
 30
0
 70
32
  0
VERTEX
  5
24FA
  8
0
 62
7
 10
109.943
 20
75.0326
 30
0
 70
32
  0
VERTEX
  5
24FB
  8
0
 62
7
 10
109.943
 20
75.0313
 30
0
 70
32
  0
VERTEX
  5
24FC
  8
0
 62
7
 10
109.943
 20
75.0302
 30
0
 70
32
  0
VERTEX
  5
24FD
  8
0
 62
7
 10
109.943
 20
75.029
 30
0
 70
32
  0
VERTEX
  5
24FE
  8
0
 62
7
 10
109.943
 20
75.0278
 30
0
 70
32
  0
VERTEX
  5
24FF
  8
0
 62
7
 10
109.943
 20
75.0267
 30
0
 70
32
  0
VERTEX
  5
2500
  8
0
 62
7
 10
109.943
 20
75.0255
 30
0
 70
32
  0
VERTEX
  5
2501
  8
0
 62
7
 10
109.943
 20
75.0244
 30
0
 70
32
  0
VERTEX
  5
2502
  8
0
 62
7
 10
109.943
 20
75.0234
 30
0
 70
32
  0
VERTEX
  5
2503
  8
0
 62
7
 10
109.943
 20
75.0223
 30
0
 70
32
  0
VERTEX
  5
2504
  8
0
 62
7
 10
109.943
 20
75.0212
 30
0
 70
32
  0
VERTEX
  5
2505
  8
0
 62
7
 10
109.943
 20
75.0202
 30
0
 70
32
  0
VERTEX
  5
2506
  8
0
 62
7
 10
109.943
 20
75.0192
 30
0
 70
32
  0
VERTEX
  5
2507
  8
0
 62
7
 10
109.943
 20
75.0183
 30
0
 70
32
  0
VERTEX
  5
2508
  8
0
 62
7
 10
109.943
 20
75.0173
 30
0
 70
32
  0
VERTEX
  5
2509
  8
0
 62
7
 10
109.943
 20
75.0164
 30
0
 70
32
  0
VERTEX
  5
250A
  8
0
 62
7
 10
109.943
 20
75.0155
 30
0
 70
32
  0
VERTEX
  5
250B
  8
0
 62
7
 10
109.943
 20
75.0147
 30
0
 70
32
  0
VERTEX
  5
250C
  8
0
 62
7
 10
109.943
 20
75.0138
 30
0
 70
32
  0
VERTEX
  5
250D
  8
0
 62
7
 10
109.943
 20
75.013
 30
0
 70
32
  0
VERTEX
  5
250E
  8
0
 62
7
 10
109.943
 20
75.0123
 30
0
 70
32
  0
VERTEX
  5
250F
  8
0
 62
7
 10
109.943
 20
75.0115
 30
0
 70
32
  0
VERTEX
  5
2510
  8
0
 62
7
 10
109.943
 20
75.0108
 30
0
 70
32
  0
VERTEX
  5
2511
  8
0
 62
7
 10
109.943
 20
75.0102
 30
0
 70
32
  0
VERTEX
  5
2512
  8
0
 62
7
 10
109.943
 20
75.0096
 30
0
 70
32
  0
VERTEX
  5
2513
  8
0
 62
7
 10
109.943
 20
75.009
 30
0
 70
32
  0
VERTEX
  5
2514
  8
0
 62
7
 10
109.943
 20
75.0085
 30
0
 70
32
  0
VERTEX
  5
2515
  8
0
 62
7
 10
109.943
 20
75.008
 30
0
 70
32
  0
VERTEX
  5
2516
  8
0
 62
7
 10
109.943
 20
75.0075
 30
0
 70
32
  0
VERTEX
  5
2517
  8
0
 62
7
 10
109.943
 20
75.0071
 30
0
 70
32
  0
VERTEX
  5
2518
  8
0
 62
7
 10
109.943
 20
75.0067
 30
0
 70
32
  0
VERTEX
  5
2519
  8
0
 62
7
 10
109.943
 20
75.0064
 30
0
 70
32
  0
VERTEX
  5
251A
  8
0
 62
7
 10
109.943
 20
75.0061
 30
0
 70
32
  0
VERTEX
  5
251B
  8
0
 62
7
 10
109.943
 20
75.0059
 30
0
 70
32
  0
VERTEX
  5
251C
  8
0
 62
7
 10
109.943
 20
75.0057
 30
0
 70
32
  0
VERTEX
  5
251D
  8
0
 62
7
 10
109.943
 20
75.0055
 30
0
 70
32
  0
VERTEX
  5
251E
  8
0
 62
7
 10
109.943
 20
75.0055
 30
0
 70
32
  0
VERTEX
  5
251F
  8
0
 62
7
 10
109.943
 20
75.0054
 30
0
 70
32
  0
VERTEX
  5
2520
  8
0
 62
7
 10
109.943
 20
75.0054
 30
0
 70
32
  0
VERTEX
  5
2521
  8
0
 62
7
 10
109.943
 20
75.0054
 30
0
 70
32
  0
VERTEX
  5
2522
  8
0
 62
7
 10
109.943
 20
75.0054
 30
0
 70
32
  0
VERTEX
  5
2523
  8
0
 62
7
 10
109.943
 20
75.0054
 30
0
 70
32
  0
VERTEX
  5
2524
  8
0
 62
7
 10
109.943
 20
75.0054
 30
0
 70
32
  0
VERTEX
  5
2525
  8
0
 62
7
 10
109.944
 20
75.0054
 30
0
 70
32
  0
VERTEX
  5
2526
  8
0
 62
7
 10
109.944
 20
75.0054
 30
0
 70
32
  0
VERTEX
  5
2527
  8
0
 62
7
 10
109.944
 20
75.0054
 30
0
 70
32
  0
VERTEX
  5
2528
  8
0
 62
7
 10
109.944
 20
75.0054
 30
0
 70
32
  0
VERTEX
  5
2529
  8
0
 62
7
 10
109.944
 20
75.0054
 30
0
 70
32
  0
VERTEX
  5
252A
  8
0
 62
7
 10
109.945
 20
75.0054
 30
0
 70
32
  0
VERTEX
  5
252B
  8
0
 62
7
 10
109.945
 20
75.0054
 30
0
 70
32
  0
VERTEX
  5
252C
  8
0
 62
7
 10
109.945
 20
75.0054
 30
0
 70
32
  0
VERTEX
  5
252D
  8
0
 62
7
 10
109.945
 20
75.0054
 30
0
 70
32
  0
VERTEX
  5
252E
  8
0
 62
7
 10
109.946
 20
75.0054
 30
0
 70
32
  0
VERTEX
  5
252F
  8
0
 62
7
 10
109.946
 20
75.0054
 30
0
 70
32
  0
VERTEX
  5
2530
  8
0
 62
7
 10
109.946
 20
75.0054
 30
0
 70
32
  0
VERTEX
  5
2531
  8
0
 62
7
 10
109.947
 20
75.0054
 30
0
 70
32
  0
VERTEX
  5
2532
  8
0
 62
7
 10
109.947
 20
75.0054
 30
0
 70
32
  0
VERTEX
  5
2533
  8
0
 62
7
 10
109.948
 20
75.0054
 30
0
 70
32
  0
VERTEX
  5
2534
  8
0
 62
7
 10
109.948
 20
75.0054
 30
0
 70
32
  0
VERTEX
  5
2535
  8
0
 62
7
 10
109.949
 20
75.0054
 30
0
 70
32
  0
VERTEX
  5
2536
  8
0
 62
7
 10
109.949
 20
75.0054
 30
0
 70
32
  0
VERTEX
  5
2537
  8
0
 62
7
 10
109.949
 20
75.0054
 30
0
 70
32
  0
VERTEX
  5
2538
  8
0
 62
7
 10
109.95
 20
75.0054
 30
0
 70
32
  0
VERTEX
  5
2539
  8
0
 62
7
 10
109.95
 20
75.0054
 30
0
 70
32
  0
VERTEX
  5
253A
  8
0
 62
7
 10
109.951
 20
75.0054
 30
0
 70
32
  0
VERTEX
  5
253B
  8
0
 62
7
 10
109.951
 20
75.0054
 30
0
 70
32
  0
VERTEX
  5
253C
  8
0
 62
7
 10
109.952
 20
75.0054
 30
0
 70
32
  0
VERTEX
  5
253D
  8
0
 62
7
 10
109.953
 20
75.0054
 30
0
 70
32
  0
VERTEX
  5
253E
  8
0
 62
7
 10
109.953
 20
75.0054
 30
0
 70
32
  0
VERTEX
  5
253F
  8
0
 62
7
 10
109.954
 20
75.0054
 30
0
 70
32
  0
VERTEX
  5
2540
  8
0
 62
7
 10
109.954
 20
75.0054
 30
0
 70
32
  0
VERTEX
  5
2541
  8
0
 62
7
 10
109.955
 20
75.0054
 30
0
 70
32
  0
VERTEX
  5
2542
  8
0
 62
7
 10
109.955
 20
75.0054
 30
0
 70
32
  0
VERTEX
  5
2543
  8
0
 62
7
 10
109.956
 20
75.0054
 30
0
 70
32
  0
VERTEX
  5
2544
  8
0
 62
7
 10
109.957
 20
75.0054
 30
0
 70
32
  0
VERTEX
  5
2545
  8
0
 62
7
 10
109.957
 20
75.0054
 30
0
 70
32
  0
VERTEX
  5
2546
  8
0
 62
7
 10
109.958
 20
75.0054
 30
0
 70
32
  0
VERTEX
  5
2547
  8
0
 62
7
 10
109.959
 20
75.0054
 30
0
 70
32
  0
VERTEX
  5
2548
  8
0
 62
7
 10
109.959
 20
75.0054
 30
0
 70
32
  0
VERTEX
  5
2549
  8
0
 62
7
 10
109.96
 20
75.0054
 30
0
 70
32
  0
VERTEX
  5
254A
  8
0
 62
7
 10
109.96
 20
75.0054
 30
0
 70
32
  0
VERTEX
  5
254B
  8
0
 62
7
 10
109.961
 20
75.0054
 30
0
 70
32
  0
VERTEX
  5
254C
  8
0
 62
7
 10
109.962
 20
75.0054
 30
0
 70
32
  0
VERTEX
  5
254D
  8
0
 62
7
 10
109.962
 20
75.0054
 30
0
 70
32
  0
VERTEX
  5
254E
  8
0
 62
7
 10
109.963
 20
75.0054
 30
0
 70
32
  0
VERTEX
  5
254F
  8
0
 62
7
 10
109.964
 20
75.0054
 30
0
 70
32
  0
VERTEX
  5
2550
  8
0
 62
7
 10
109.964
 20
75.0054
 30
0
 70
32
  0
VERTEX
  5
2551
  8
0
 62
7
 10
109.965
 20
75.0054
 30
0
 70
32
  0
VERTEX
  5
2552
  8
0
 62
7
 10
109.966
 20
75.0054
 30
0
 70
32
  0
VERTEX
  5
2553
  8
0
 62
7
 10
109.966
 20
75.0054
 30
0
 70
32
  0
VERTEX
  5
2554
  8
0
 62
7
 10
109.967
 20
75.0054
 30
0
 70
32
  0
VERTEX
  5
2555
  8
0
 62
7
 10
109.968
 20
75.0054
 30
0
 70
32
  0
VERTEX
  5
2556
  8
0
 62
7
 10
109.968
 20
75.0054
 30
0
 70
32
  0
VERTEX
  5
2557
  8
0
 62
7
 10
109.969
 20
75.0054
 30
0
 70
32
  0
VERTEX
  5
2558
  8
0
 62
7
 10
109.97
 20
75.0054
 30
0
 70
32
  0
VERTEX
  5
2559
  8
0
 62
7
 10
109.97
 20
75.0054
 30
0
 70
32
  0
VERTEX
  5
255A
  8
0
 62
7
 10
109.971
 20
75.0054
 30
0
 70
32
  0
VERTEX
  5
255B
  8
0
 62
7
 10
109.971
 20
75.0054
 30
0
 70
32
  0
VERTEX
  5
255C
  8
0
 62
7
 10
109.972
 20
75.0054
 30
0
 70
32
  0
VERTEX
  5
255D
  8
0
 62
7
 10
109.973
 20
75.0054
 30
0
 70
32
  0
VERTEX
  5
255E
  8
0
 62
7
 10
109.973
 20
75.0054
 30
0
 70
32
  0
VERTEX
  5
255F
  8
0
 62
7
 10
109.974
 20
75.0054
 30
0
 70
32
  0
VERTEX
  5
2560
  8
0
 62
7
 10
109.974
 20
75.0054
 30
0
 70
32
  0
VERTEX
  5
2561
  8
0
 62
7
 10
109.975
 20
75.0054
 30
0
 70
32
  0
VERTEX
  5
2562
  8
0
 62
7
 10
109.976
 20
75.0054
 30
0
 70
32
  0
VERTEX
  5
2563
  8
0
 62
7
 10
109.976
 20
75.0054
 30
0
 70
32
  0
VERTEX
  5
2564
  8
0
 62
7
 10
109.977
 20
75.0054
 30
0
 70
32
  0
VERTEX
  5
2565
  8
0
 62
7
 10
109.977
 20
75.0054
 30
0
 70
32
  0
VERTEX
  5
2566
  8
0
 62
7
 10
109.978
 20
75.0054
 30
0
 70
32
  0
VERTEX
  5
2567
  8
0
 62
7
 10
109.978
 20
75.0054
 30
0
 70
32
  0
VERTEX
  5
2568
  8
0
 62
7
 10
109.979
 20
75.0054
 30
0
 70
32
  0
VERTEX
  5
2569
  8
0
 62
7
 10
109.979
 20
75.0054
 30
0
 70
32
  0
VERTEX
  5
256A
  8
0
 62
7
 10
109.98
 20
75.0054
 30
0
 70
32
  0
VERTEX
  5
256B
  8
0
 62
7
 10
109.98
 20
75.0054
 30
0
 70
32
  0
VERTEX
  5
256C
  8
0
 62
7
 10
109.981
 20
75.0054
 30
0
 70
32
  0
VERTEX
  5
256D
  8
0
 62
7
 10
109.981
 20
75.0054
 30
0
 70
32
  0
VERTEX
  5
256E
  8
0
 62
7
 10
109.982
 20
75.0054
 30
0
 70
32
  0
VERTEX
  5
256F
  8
0
 62
7
 10
109.982
 20
75.0054
 30
0
 70
32
  0
VERTEX
  5
2570
  8
0
 62
7
 10
109.982
 20
75.0054
 30
0
 70
32
  0
VERTEX
  5
2571
  8
0
 62
7
 10
109.983
 20
75.0054
 30
0
 70
32
  0
VERTEX
  5
2572
  8
0
 62
7
 10
109.983
 20
75.0054
 30
0
 70
32
  0
VERTEX
  5
2573
  8
0
 62
7
 10
109.983
 20
75.0054
 30
0
 70
32
  0
VERTEX
  5
2574
  8
0
 62
7
 10
109.984
 20
75.0054
 30
0
 70
32
  0
VERTEX
  5
2575
  8
0
 62
7
 10
109.984
 20
75.0054
 30
0
 70
32
  0
VERTEX
  5
2576
  8
0
 62
7
 10
109.984
 20
75.0054
 30
0
 70
32
  0
VERTEX
  5
2577
  8
0
 62
7
 10
109.985
 20
75.0054
 30
0
 70
32
  0
VERTEX
  5
2578
  8
0
 62
7
 10
109.985
 20
75.0054
 30
0
 70
32
  0
VERTEX
  5
2579
  8
0
 62
7
 10
109.985
 20
75.0054
 30
0
 70
32
  0
VERTEX
  5
257A
  8
0
 62
7
 10
109.985
 20
75.0054
 30
0
 70
32
  0
VERTEX
  5
257B
  8
0
 62
7
 10
109.985
 20
75.0054
 30
0
 70
32
  0
VERTEX
  5
257C
  8
0
 62
7
 10
109.985
 20
75.0054
 30
0
 70
32
  0
VERTEX
  5
257D
  8
0
 62
7
 10
109.986
 20
75.0054
 30
0
 70
32
  0
VERTEX
  5
257E
  8
0
 62
7
 10
109.986
 20
75.0054
 30
0
 70
32
  0
VERTEX
  5
257F
  8
0
 62
7
 10
109.986
 20
75.0054
 30
0
 70
32
  0
VERTEX
  5
2580
  8
0
 62
7
 10
109.986
 20
75.0054
 30
0
 70
32
  0
VERTEX
  5
2581
  8
0
 62
7
 10
109.986
 20
75.0054
 30
0
 70
32
  0
SEQEND
  5
2582
  8
0
  0
INSERT
  5
2592
  8
0
  2
SPECEL-V0504L
 10
181.5837592005565
 20
51.850002500000151
 30
0
 41
1
 42
1
 43
1
 50
0
  0
ENDSEC
999
Created By CadLib version 4.0.36.7
999
CadLib website: www.woutware.com
  0
EOF
