  0
SECTION
  2
HEADER
  9
$ACADVER
  1
AC1009
  9
$DWGCODEPAGE
  3
dos932
  9
$INSBASE
 10
0
 20
0
 30
0
  9
$EXTMIN
 10
66.013232081762041
 20
39.201707595777862
 30
0
  9
$EXTMAX
 10
226.97154910505856
 20
129.60361264644442
 30
0
  9
$LIMMIN
 10
0
 20
0
  9
$LIMMAX
 10
237.8
 20
168.2
  9
$SNAPMODE
 70
0
  9
$SNAPUNIT
 10
1
 20
1
  9
$SNAPBASE
 10
0
 20
0
  9
$SNAPANG
 50
0
  9
$SNAPSTYLE
 70
0
  9
$SNAPISOPAIR
 70
0
  9
$ORTHOMODE
 70
0
  9
$REGENMODE
 70
1
  9
$FILLMODE
 70
1
  9
$QTEXTMODE
 70
0
  9
$MIRRTEXT
 70
0
  9
$LTSCALE
 40
0.1
  9
$OSMODE
 70
37
  9
$ATTMODE
 70
1
  9
$TEXTSIZE
 40
0.2
  9
$TRACEWID
 40
0.05
  9
$TEXTSTYLE
  7
STANDARD
  9
$CLAYER
  8
0
  9
$CELTYPE
  6
CONTINUOUS
  9
$CECOLOR
 62
256
  9
$DIMSCALE
 40
1
  9
$DIMASZ
 40
0.18
  9
$DIMEXO
 40
0.0625
  9
$DIMDLI
 40
0.38
  9
$DIMRND
 40
0
  9
$DIMDLE
 40
0
  9
$DIMEXE
 40
0.18
  9
$DIMTP
 40
0
  9
$DIMTM
 40
0
  9
$DIMTXT
 40
0.18
  9
$DIMCEN
 40
0.09
  9
$DIMTSZ
 40
0
  9
$DIMTOL
 70
0
  9
$DIMLIM
 70
0
  9
$DIMTIH
 70
1
  9
$DIMTOH
 70
1
  9
$DIMSE1
 70
0
  9
$DIMSE2
 70
0
  9
$DIMTAD
 70
0
  9
$DIMZIN
 70
0
  9
$DIMBLK
  1

  9
$DIMASO
 70
1
  9
$DIMSHO
 70
1
  9
$DIMPOST
  1

  9
$DIMAPOST
  1

  9
$DIMALT
 70
0
  9
$DIMALTD
 70
2
  9
$DIMALTF
 40
25.4
  9
$DIMLFAC
 40
1
  9
$DIMTOFL
 70
0
  9
$DIMTVP
 40
0
  9
$DIMTIX
 70
0
  9
$DIMSOXD
 70
0
  9
$DIMSAH
 70
0
  9
$DIMBLK1
  1

  9
$DIMBLK2
  1

  9
$DIMSTYLE
  2
STANDARD
  9
$DIMCLRD
 70
0
  9
$DIMCLRE
 70
0
  9
$DIMCLRT
 70
0
  9
$DIMTFAC
 40
1
  9
$DIMGAP
 40
0.09
  9
$LUNITS
 70
2
  9
$LUPREC
 70
4
  9
$SKETCHINC
 40
0.1
  9
$FILLETRAD
 40
0
  9
$AUNITS
 70
0
  9
$AUPREC
 70
0
  9
$MENU
  1
.
  9
$ELEVATION
 40
0
  9
$PELEVATION
 40
0
  9
$THICKNESS
 40
0
  9
$LIMCHECK
 70
0
  9
$CHAMFERA
 40
0
  9
$CHAMFERB
 40
0
  9
$SKPOLY
 70
0
  9
$TDCREATE
 40
2457057.4658058332
  9
$TDUPDATE
 40
2457624.4316965509
  9
$TDINDWG
 40
0.0095873726851851849
  9
$TDUSRTIMER
 40
0.0095873726851851849
  9
$USRTIMER
 70
1
  9
$ANGBASE
 50
0
  9
$ANGDIR
 70
0
  9
$PDMODE
 70
0
  9
$PDSIZE
 40
0
  9
$PLINEWID
 40
0
  9
$SPLFRAME
 70
0
  9
$SPLINETYPE
 70
6
  9
$SPLINESEGS
 70
8
  9
$HANDLING
 70
1
  9
$HANDSEED
  5
27B1
  9
$SURFTAB1
 70
6
  9
$SURFTAB2
 70
6
  9
$SURFTYPE
 70
6
  9
$SURFU
 70
6
  9
$SURFV
 70
6
  9
$UCSORG
 10
0
 20
0
 30
0
  9
$UCSXDIR
 10
1
 20
0
 30
0
  9
$UCSYDIR
 10
0
 20
1
 30
0
  9
$PUCSORG
 10
0
 20
0
 30
0
  9
$PUCSXDIR
 10
1
 20
0
 30
0
  9
$PUCSYDIR
 10
0
 20
1
 30
0
  9
$USERI1
 70
0
  9
$USERI2
 70
0
  9
$USERI3
 70
0
  9
$USERI4
 70
0
  9
$USERI5
 70
0
  9
$USERR1
 40
0
  9
$USERR2
 40
0
  9
$USERR3
 40
0
  9
$USERR4
 40
0
  9
$USERR5
 40
0
  9
$WORLDVIEW
 70
1
  9
$SHADEDGE
 70
3
  9
$SHADEDIF
 70
70
  9
$TILEMODE
 70
1
  9
$MAXACTVP
 70
64
  9
$PINSBASE
 10
0
 20
0
 30
0
  9
$PLIMCHECK
 70
0
  9
$PEXTMIN
 10
1E+20
 20
1E+20
 30
1E+20
  9
$PEXTMAX
 10
-1E+20
 20
-1E+20
 30
-1E+20
  9
$PLIMMAX
 10
12
 20
9
  9
$PLIMMIN
 10
0
 20
0
  9
$UNITMODE
 70
0
  9
$VISRETAIN
 70
1
  9
$PLINEGEN
 70
0
  9
$PSLTSCALE
 70
1
  9
$TREEDEPTH
 70
3020
  9
$DRAGMODE
 70
     2
  9
$BLIPMODE
 70
     0
  9
$COORDS
 70
     1
  9
$ATTDIA
 70
     0
  9
$ATTREQ
 70
     1
  0
ENDSEC
  0
SECTION
  2
TABLES
  0
TABLE
  2
VPORT
  5
27A3
 70
1
  0
VPORT
  5
2777
  2
*ACTIVE
 70
0
 10
0
 20
0
 11
1
 21
1
 12
122.765763369398
 22
89.8115383423485
 13
0
 23
0
 14
1
 24
1
 15
0
 25
0
 16
0
 26
0
 36
1
 17
0
 27
0
 37
0
 40
194.3150606867994
 41
1.19546027742749
 42
50
 43
0
 44
0
 50
0
 51
0
 71
0
 72
100
 73
1
 74
1
 75
0
 76
0
 77
0
 78
0
  0
ENDTAB
  0
TABLE
  2
LTYPE
  5
27A4
 70
39
  0
LTYPE
  5
274E
  2
CONTINUOUS
  3
実線
 70
0
 72
65
 73
0
 40
0
  0
LTYPE
  5
274F
  2
DASHED1
  3
--  --  --  --  --  --  --  --  
 70
0
 72
65
 73
2
 40
2.5
 49
1.25
 49
-1.25
  0
LTYPE
  5
2750
  2
DASHED2
  3
----    ----    ----    ----    
 70
0
 72
65
 73
2
 40
5
 49
2.5
 49
-2.5
  0
LTYPE
  5
2751
  2
DASHED3
  3
------  ------  ------  ------  
 70
0
 72
65
 73
2
 40
5
 49
3.75
 49
-1.25
  0
LTYPE
  5
2752
  2
CENTER1
  3
----- - ----- - ----- - ----- - 
 70
0
 72
65
 73
4
 40
10
 49
6.25
 49
-1.25
 49
1.25
 49
-1.25
  0
LTYPE
  5
2753
  2
CENTER2
  3
----------  --  ----------  --  
 70
0
 72
65
 73
4
 40
20
 49
12.5
 49
-2.5
 49
2.5
 49
-2.5
  0
LTYPE
  5
2754
  2
PHANTOM1
  3
--- - - --- - - --- - - --- - - 
 70
0
 72
65
 73
6
 40
9.5
 49
3.25
 49
-1.25
 49
1.25
 49
-1.25
 49
1.25
 49
-1.25
  0
LTYPE
  5
2755
  2
PHANTOM2
  3
--------  -  -  --------  -  -  
 70
0
 72
65
 73
6
 40
20
 49
10
 49
-2.5
 49
1.25
 49
-2.5
 49
1.25
 49
-2.5
  0
LTYPE
  5
2756
  2
DOT
  3
-   -   -   -   -   -   -   -   
 70
0
 72
65
 73
2
 40
2.5
 49
0.625
 49
-1.875
  0
LTYPE
  5
2757
  2
DUMMY
  3
ダミー
 70
0
 72
65
 73
0
 40
0
  0
LTYPE
  5
2758
  2
RAND1
  3
ランダム線1
 70
0
 72
65
 73
4
 40
10
 49
1
 49
-2
 49
3
 49
-4
  0
LTYPE
  5
2759
  2
RAND2
  3
ランダム線2
 70
0
 72
65
 73
4
 40
14
 49
2
 49
-3
 49
4
 49
-5
  0
LTYPE
  5
275A
  2
RAND3
  3
ランダム線3
 70
0
 72
65
 73
4
 40
18
 49
3
 49
-4
 49
5
 49
-6
  0
LTYPE
  5
275B
  2
RAND4
  3
ランダム線4
 70
0
 72
65
 73
4
 40
22
 49
4
 49
-5
 49
6
 49
-7
  0
LTYPE
  5
275C
  2
RAND5
  3
ランダム線5
 70
0
 72
65
 73
4
 40
26
 49
5
 49
-6
 49
7
 49
-8
  0
LTYPE
  5
275D
  2
LONG1
  3
----------  --  ----------  --  
 70
0
 72
65
 73
4
 40
40
 49
32.5
 49
-2.5
 49
2.5
 49
-2.5
  0
LTYPE
  5
275E
  2
LONG2
  3
--------  -  -  --------  -  -  
 70
0
 72
65
 73
6
 40
40
 49
30
 49
-2.5
 49
1.25
 49
-2.5
 49
1.25
 49
-2.5
  0
LTYPE
  5
275F
  2
LONG3
  3
+++++++++++++++..+++++++++++++++
 70
0
 72
65
 73
2
 40
40
 49
37.5
 49
-2.5
  0
LTYPE
  5
2760
  2
LONG4
  3
+++++++++++++++..+++++++++++++++
 70
0
 72
65
 73
2
 40
80
 49
75
 49
-5
  0
LTYPE
  5
2761
  2
LONG5
  3
----------  --  ----------  --  
 70
0
 72
65
 73
4
 40
60
 49
37.5
 49
-7.5
 49
7.5
 49
-7.5
  0
LTYPE
  5
2762
  2
DASHED
  3
-------   -------------   ------
 70
0
 72
65
 73
2
 40
7.5
 49
6
 49
-1.5
  0
LTYPE
  5
2763
  2
DASHED_SPACED
  3
----        --------        ----
 70
0
 72
65
 73
2
 40
12
 49
6
 49
-6
  0
LTYPE
  5
2764
  2
LONG_DASHED_DOTTED
  3
------------- --- --------------
 70
0
 72
65
 73
4
 40
15.25
 49
12
 49
-1.5
 49
0.25
 49
-1.5
  0
LTYPE
  5
2765
  2
LONG_DASHED_DOUBLE-DOTTED
  3
----------- --- --- ------------
 70
0
 72
65
 73
6
 40
17
 49
12
 49
-1.5
 49
0.25
 49
-1.5
 49
0.25
 49
-1.5
  0
LTYPE
  5
2766
  2
LONG_DASHED_TRIPLICATE-DOT
  3
--------- --- --- --- ----------
 70
0
 72
65
 73
8
 40
18.75
 49
12
 49
-1.5
 49
0.25
 49
-1.5
 49
0.25
 49
-1.5
 49
0.25
 49
-1.5
  0
LTYPE
  5
2767
  2
DOTTED
  3
   -       -       -       -    
 70
0
 72
65
 73
2
 40
1.75
 49
0.25
 49
-1.5
  0
LTYPE
  5
2768
  2
CHAIN
  3
-------------- -- --------------
 70
0
 72
65
 73
4
 40
18.5
 49
12
 49
-1.5
 49
3.5
 49
-1.5
  0
LTYPE
  5
2769
  2
CHAIN_DOUBLE_DASH
  3
------------ -- -- -------------
 70
0
 72
65
 73
6
 40
23.5
 49
12
 49
-1.5
 49
3.5
 49
-1.5
 49
3.5
 49
-1.5
  0
LTYPE
  5
276A
  2
DASHED_DOTTED
  3
-----------     -     ----------
 70
0
 72
65
 73
4
 40
9.25
 49
6
 49
-1.5
 49
0.25
 49
-1.5
  0
LTYPE
  5
276B
  2
DOUBLE-DASHED_DOTTED
  3
------   -----------   -   -----
 70
0
 72
65
 73
6
 40
16.75
 49
6
 49
-1.5
 49
6
 49
-1.5
 49
0.25
 49
-1.5
  0
LTYPE
  5
276C
  2
DASHED_DOUBLE-DOTTED
  3
---------    -    -    ---------
 70
0
 72
65
 73
6
 40
11
 49
6
 49
-1.5
 49
0.25
 49
-1.5
 49
0.25
 49
-1.5
  0
LTYPE
  5
276D
  2
DOUBLE-DASHED_DOUBLE-DOTTE
  3
-----   ---------   -   -   ----
 70
0
 72
65
 73
8
 40
18.5
 49
6
 49
-1.5
 49
6
 49
-1.5
 49
0.25
 49
-1.5
 49
0.25
 49
-1.5
  0
LTYPE
  5
276E
  2
DASHED_TRIPLICATE-DOTTED
  3
-------    -    -    -    ------
 70
0
 72
65
 73
8
 40
12.75
 49
6
 49
-1.5
 49
0.25
 49
-1.5
 49
0.25
 49
-1.5
 49
0.25
 49
-1.5
  0
LTYPE
  5
276F
  2
DOUBLE-DASHED_TRIPLICATE-D
  3
-----  ---------  -  -  -  -----
 70
0
 72
65
 73
10
 40
20.25
 49
6
 49
-1.5
 49
6
 49
-1.5
 49
0.25
 49
-1.5
 49
0.25
 49
-1.5
 49
0.25
 49
-1.5
  0
LTYPE
  5
2770
  2
UNDEFINED
  3
--------------------------------
 70
0
 72
65
 73
0
 40
0
  0
LTYPE
  5
2771
  2
CENTER
  3
----------    ----    ----------
 70
0
 72
65
 73
4
 40
0.59999999999999964
 49
0.375
 49
-0.0749999999999999
 49
0.0749999999999999
 49
-0.0749999999999999
  0
LTYPE
  5
2772
  2
DASHDOT
  3
--------        -        -------
 70
0
 72
65
 73
4
 40
1.01
 49
0.5
 49
-0.25
 49
0.01
 49
-0.25
  0
LTYPE
  5
2773
  2
ByBlock
  3

 70
64
 72
65
 73
0
 40
0
  0
LTYPE
  5
2774
  2
ByLayer
  3

 70
64
 72
65
 73
0
 40
0
  0
ENDTAB
  0
TABLE
  2
LAYER
  5
27A5
 70
2
  0
LAYER
  5
2736
 70
0
  2
0
 62
7
  6
CONTINUOUS
  0
LAYER
  5
2737
 70
0
  2
SPEC
 62
7
  6
CONTINUOUS
  0
ENDTAB
  0
TABLE
  2
STYLE
  5
27A6
 70
3
  0
STYLE
  5
274B
  2
STANDARD
 70
0
 40
0
 41
1
 50
0
 71
0
 42
0.2
  3
txt.shx
  4
extfont2.shx
  0
STYLE
  5
274C
  2
ANNOTATIVE
 70
0
 40
0
 41
1
 50
0
 71
0
 42
0.2
  3
txt
  0
STYLE
  5
274D
  2
TATEGAKI
 70
4
 40
0
 41
1
 50
0
 71
0
 42
1
  3
txt
  4
bigfont.shx
  0
ENDTAB
  0
TABLE
  2
APPID
  5
27A9
 70
4
  0
APPID
  5
27AA
  2
ACAD
 70
0
  0
APPID
  5
27AD
  2
ACADANNOTATIVE
 70
0
  0
APPID
  5
27AE
  2
ACAD_MLEADERVER
 70
0
  0
APPID
  5
27AF
  2
ACAD_EXEMPT_FROM_CAD_STANDARDS
 70
0
  0
ENDTAB
  0
TABLE
  2
DIMSTYLE
  5
27AB
 70
2
  0
DIMSTYLE
105
2775
  2
STANDARD
 70
0
  3

  4

  5

  6

  7

 40
1
 41
0.18
 42
0.0625
 43
0.38
 44
0.18
 45
0
 46
0
 47
0
 48
0
140
0.18
141
0.09
142
0
143
25.4
144
1
145
0
146
1
147
0.09
 71
0
 72
0
 73
1
 74
1
 75
0
 76
0
 77
0
 78
0
170
0
171
2
172
0
173
0
174
0
175
0
176
0
177
0
178
0
  0
DIMSTYLE
105
2776
  2
ANNOTATIVE
 70
0
  3

  4

  5

  6

  7

 40
1
 41
0.18
 42
0.0625
 43
0.38
 44
0.18
 45
0
 46
0
 47
0
 48
0
140
0.18
141
0.09
142
0
143
25.4
144
1
145
0
146
1
147
0.09
 71
0
 72
0
 73
1
 74
1
 75
0
 76
0
 77
0
 78
0
170
0
171
2
172
0
173
0
174
0
175
0
176
0
177
0
178
0
  0
ENDTAB
  0
ENDSEC
  0
SECTION
  2
BLOCKS
  0
BLOCK
  5
2739
  8
0
  2
$MODEL_SPACE
 70
0
 10
0
 20
0
 30
0
  3
$MODEL_SPACE
  0
ENDBLK
  5
F4A
  8
0
  0
BLOCK
  5
273B
  8
0
 67
1
  2
$PAPER_SPACE
 70
0
 10
0
 20
0
 30
0
  3
$PAPER_SPACE
  0
ENDBLK
  5
F46
  8
0
  0
BLOCK
  5
273D
  8
0
  2
SPECEL-V0507L
 70
64
 10
0
 20
0
 30
0
  3
SPECEL-V0507L
  0
TEXT
  5
273E
  8
SPEC
 10
0
 20
0
 30
0
 40
1.5
  1
ｴｸｽﾃﾘｱ 電球色(2700K) Ra82
  7
STANDARD
  0
TEXT
  5
273F
  8
SPEC
 10
0
 20
-3
 30
0
 40
1.5
  1
本体:ﾌﾟﾗｽﾁｯｸ･黒色塗装
  7
STANDARD
  0
TEXT
  5
2740
  8
SPEC
 10
0
 20
-6
 30
0
 40
1.5
  1
光源寿命:40,000時間
  7
STANDARD
  0
TEXT
  5
2741
  8
SPEC
 10
0
 20
-9
 30
0
 40
1.5
  1
光束:580lm 消費電力:8.5W 消費効率:68.2lm/W
  7
STANDARD
  0
ENDBLK
  5
2742
  8
0
  0
BLOCK
  5
2744
  8
0
  2
*MODEL_SPACE
 70
64
 10
0
 20
0
 30
0
  3
*MODEL_SPACE
  0
ENDBLK
  5
2747
  8
0
  0
BLOCK
  5
2749
  8
0
 67
1
  2
*PAPER_SPACE
 70
64
 10
0
 20
0
 30
0
  3
*PAPER_SPACE
  0
ENDBLK
  5
274A
  8
0
  0
ENDSEC
  0
SECTION
  2
ENTITIES
  0
TEXT
  5
A2
  8
0
 62
7
 10
65.566688548337751
 20
123.8499975
 30
0
 40
4.5
  1
LED8.5Wx1 ﾌﾞﾗｹｯﾄ
 41
0.96982639999999987
  7
STANDARD
  0
TEXT
  5
A3
  8
0
 62
7
 10
65.566688548337751
 20
39.85000250000013
 30
0
 40
4.5
  1
三菱　EL-V0507L
 41
0.9893333
  7
STANDARD
  0
POLYLINE
  5
2326
  8
0
 62
7
 66
1
 70
0
 10
0
 20
0
 30
0
  0
VERTEX
  5
2327
  8
0
 62
7
 10
115.8471570119769
 20
76.229062096616843
 70
0
  0
VERTEX
  5
2328
  8
0
 62
7
 10
110.2592121349017
 20
76.229062096616843
 70
0
  0
SEQEND
  5
2329
  8
0
  0
POLYLINE
  5
232A
  8
0
 62
7
 66
1
 70
0
 10
0
 20
0
 30
0
  0
VERTEX
  5
232B
  8
0
 62
7
 10
115.8471570119769
 20
97.436897649040588
 70
0
  0
VERTEX
  5
232C
  8
0
 62
7
 10
110.2592121349017
 20
97.436897649040588
 70
0
  0
SEQEND
  5
232D
  8
0
  0
POLYLINE
  5
232E
  8
0
 62
7
 66
1
 70
0
 10
0
 20
0
 30
0
  0
VERTEX
  5
232F
  8
0
 62
7
 10
110.2592121349017
 20
97.436897649040588
 70
0
  0
VERTEX
  5
2330
  8
0
 62
7
 10
109.8788735933301
 20
97.394178465023515
 70
0
  0
VERTEX
  5
2331
  8
0
 62
7
 10
109.32903635388421
 20
97.394178465023515
 70
0
  0
VERTEX
  5
2332
  8
0
 62
7
 10
108.9046005901014
 20
97.309945880409146
 70
0
  0
VERTEX
  5
2333
  8
0
 62
7
 10
108.52426204852981
 20
97.267226696392015
 70
0
  0
VERTEX
  5
2334
  8
0
 62
7
 10
108.39748253467261
 20
97.224507512374956
 70
0
  0
VERTEX
  5
2335
  8
0
 62
7
 10
108.015765954907
 20
97.140619437309113
 70
0
  0
VERTEX
  5
2336
  8
0
 62
7
 10
107.63542741333541
 20
97.014012178226153
 70
0
  0
VERTEX
  5
2337
  8
0
 62
7
 10
107.4659287154611
 20
96.971292994209065
 70
0
  0
VERTEX
  5
2338
  8
0
 62
7
 10
107.0855901738895
 20
96.8016220415605
 70
0
  0
VERTEX
  5
2339
  8
0
 62
7
 10
106.74659277814089
 20
96.6750147824776
 70
0
  0
VERTEX
  5
233A
  8
0
 62
7
 10
106.61981326428371
 20
96.632295598460473
 70
0
  0
VERTEX
  5
233B
  8
0
 62
7
 10
106.238096684518
 20
96.419905461794826
 70
0
  0
VERTEX
  5
233C
  8
0
 62
7
 10
105.8577581429464
 20
96.251612547340358
 70
0
  0
VERTEX
  5
233D
  8
0
 62
7
 10
105.73097862908929
 20
96.166174179306211
 70
0
  0
VERTEX
  5
233E
  8
0
 62
7
 10
105.4347004173578
 20
95.955678845157436
 70
0
  0
VERTEX
  5
233F
  8
0
 62
7
 10
105.0529838375921
 20
95.743288708491775
 70
0
  0
VERTEX
  5
2340
  8
0
 62
7
 10
104.968923507752
 20
95.659228378651676
 70
0
  0
VERTEX
  5
2341
  8
0
 62
7
 10
104.6299261120034
 20
95.362950166920214
 70
0
  0
VERTEX
  5
2342
  8
0
 62
7
 10
104.2909287162548
 20
95.107840846237409
 70
0
  0
VERTEX
  5
2343
  8
0
 62
7
 10
104.2068683864147
 20
95.0239527711716
 70
0
  0
VERTEX
  5
2344
  8
0
 62
7
 10
103.91059017468319
 20
94.727674559440118
 70
0
  0
VERTEX
  5
2345
  8
0
 62
7
 10
103.5715927789347
 20
94.3886771636915
 70
0
  0
VERTEX
  5
2346
  8
0
 62
7
 10
103.5288735949176
 20
94.345957979674438
 70
0
  0
VERTEX
  5
2347
  8
0
 62
7
 10
103.23259538318609
 20
94.008338622119936
 70
0
  0
VERTEX
  5
2348
  8
0
 62
7
 10
102.9363171714546
 20
93.626622042354256
 70
0
  0
VERTEX
  5
2349
  8
0
 62
7
 10
102.89497602563161
 20
93.542561712514157
 70
0
  0
VERTEX
  5
234A
  8
0
 62
7
 10
102.6400389597231
 20
93.203564316765608
 70
0
  0
VERTEX
  5
234B
  8
0
 62
7
 10
102.3864799320087
 20
92.823398029968246
 70
0
  0
VERTEX
  5
234C
  8
0
 62
7
 10
102.3024196021686
 20
92.737959661934084
 70
0
  0
VERTEX
  5
234D
  8
0
 62
7
 10
102.1329209042943
 20
92.314557426796853
 70
0
  0
VERTEX
  5
234E
  8
0
 62
7
 10
101.8779838383858
 20
91.932840847031173
 70
0
  0
VERTEX
  5
234F
  8
0
 62
7
 10
101.83664269256281
 20
91.80623358794827
 70
0
  0
VERTEX
  5
2350
  8
0
 62
7
 10
101.6671439946886
 20
91.4258950463767
 70
0
  0
VERTEX
  5
2351
  8
0
 62
7
 10
101.4976452968143
 20
91.003009575562274
 70
0
  0
VERTEX
  5
2352
  8
0
 62
7
 10
101.4549261127972
 20
90.876057806930817
 70
0
  0
VERTEX
  5
2353
  8
0
 62
7
 10
101.28542741492291
 20
90.451622043148
 70
0
  0
VERTEX
  5
2354
  8
0
 62
7
 10
101.15864790106571
 20
90.028564317559344
 70
0
  0
VERTEX
  5
2355
  8
0
 62
7
 10
101.1159287170486
 20
89.901612548927858
 70
0
  0
VERTEX
  5
2356
  8
0
 62
7
 10
101.03186838720851
 20
89.436007894096335
 70
0
  0
VERTEX
  5
2357
  8
0
 62
7
 10
100.9050888733513
 20
89.0129501685077
 70
0
  0
VERTEX
  5
2358
  8
0
 62
7
 10
100.9050888733513
 20
88.886342909424755
 70
0
  0
VERTEX
  5
2359
  8
0
 62
7
 10
100.8196505053171
 20
88.420393745044692
 70
0
  0
VERTEX
  5
235A
  8
0
 62
7
 10
100.7783093594941
 20
87.997336019456043
 70
0
  0
VERTEX
  5
235B
  8
0
 62
7
 10
100.7783093594941
 20
87.870728760373083
 70
0
  0
VERTEX
  5
235C
  8
0
 62
7
 10
100.735590175477
 20
87.404607341218821
 70
0
  0
VERTEX
  5
235D
  8
0
 62
7
 10
100.735590175477
 20
86.261007894890128
 70
0
  0
VERTEX
  5
235E
  8
0
 62
7
 10
100.7783093594941
 20
85.795230985284348
 70
0
  0
VERTEX
  5
235F
  8
0
 62
7
 10
100.7783093594941
 20
85.711342910218519
 70
0
  0
VERTEX
  5
2360
  8
0
 62
7
 10
100.8196505053171
 20
85.24539374583847
 70
0
  0
VERTEX
  5
2361
  8
0
 62
7
 10
100.9050888733513
 20
84.779616836232677
 70
0
  0
VERTEX
  5
2362
  8
0
 62
7
 10
100.9050888733513
 20
84.65300957714976
 70
0
  0
VERTEX
  5
2363
  8
0
 62
7
 10
101.03186838720851
 20
84.229607342012542
 70
0
  0
VERTEX
  5
2364
  8
0
 62
7
 10
101.1159287170486
 20
83.764002687181033
 70
0
  0
VERTEX
  5
2365
  8
0
 62
7
 10
101.15864790106571
 20
83.679942357340934
 70
0
  0
VERTEX
  5
2366
  8
0
 62
7
 10
101.28542741492291
 20
83.213993192960885
 70
0
  0
VERTEX
  5
2367
  8
0
 62
7
 10
101.4549261127972
 20
82.789557429178146
 70
0
  0
VERTEX
  5
2368
  8
0
 62
7
 10
101.4976452968143
 20
82.6629501700952
 70
0
  0
VERTEX
  5
2369
  8
0
 62
7
 10
101.6671439946886
 20
82.2826116285236
 70
0
  0
VERTEX
  5
236A
  8
0
 62
7
 10
101.83664269256281
 20
81.816662464143576
 70
0
  0
VERTEX
  5
236B
  8
0
 62
7
 10
101.8779838383858
 20
81.732774389077719
 70
0
  0
VERTEX
  5
236C
  8
0
 62
7
 10
102.1329209042943
 20
81.351057809312024
 70
0
  0
VERTEX
  5
236D
  8
0
 62
7
 10
102.3024196021686
 20
80.928000083723362
 70
0
  0
VERTEX
  5
236E
  8
0
 62
7
 10
102.3864799320087
 20
80.842561715689186
 70
0
  0
VERTEX
  5
236F
  8
0
 62
7
 10
102.6400389597231
 20
80.504942358134684
 70
0
  0
VERTEX
  5
2370
  8
0
 62
7
 10
102.89497602563161
 20
80.123398033143275
 70
0
  0
VERTEX
  5
2371
  8
0
 62
7
 10
102.9363171714546
 20
80.038993193754635
 70
0
  0
VERTEX
  5
2372
  8
0
 62
7
 10
103.23259538318609
 20
79.657276613988955
 70
0
  0
VERTEX
  5
2373
  8
0
 62
7
 10
103.5288735949176
 20
79.361342911805991
 70
0
  0
VERTEX
  5
2374
  8
0
 62
7
 10
103.5715927789347
 20
79.234391143174548
 70
0
  0
VERTEX
  5
2375
  8
0
 62
7
 10
103.91059017468319
 20
78.9379406766688
 70
0
  0
VERTEX
  5
2376
  8
0
 62
7
 10
104.2068683864147
 20
78.641662464937326
 70
0
  0
VERTEX
  5
2377
  8
0
 62
7
 10
104.2909287162548
 20
78.557774389871454
 70
0
  0
VERTEX
  5
2378
  8
0
 62
7
 10
104.6299261120034
 20
78.261323923365723
 70
0
  0
VERTEX
  5
2379
  8
0
 62
7
 10
104.968923507752
 20
78.006731367005756
 70
0
  0
VERTEX
  5
237A
  8
0
 62
7
 10
105.0529838375921
 20
77.965390221182759
 70
0
  0
VERTEX
  5
237B
  8
0
 62
7
 10
105.4347004173578
 20
77.71028090050001
 70
0
  0
VERTEX
  5
237C
  8
0
 62
7
 10
105.77231977491231
 20
77.499441056802738
 70
0
  0
VERTEX
  5
237D
  8
0
 62
7
 10
105.8577581429464
 20
77.456721872785636
 70
0
  0
VERTEX
  5
237E
  8
0
 62
7
 10
106.238096684518
 20
77.2446762456685
 70
0
  0
VERTEX
  5
237F
  8
0
 62
7
 10
106.61981326428371
 20
77.07638333121406
 70
0
  0
VERTEX
  5
2380
  8
0
 62
7
 10
106.74659277814089
 20
76.990944963179857
 70
0
  0
VERTEX
  5
2381
  8
0
 62
7
 10
107.0855901738895
 20
76.821274010531312
 70
0
  0
VERTEX
  5
2382
  8
0
 62
7
 10
107.4659287154611
 20
76.694666751448381
 70
0
  0
VERTEX
  5
2383
  8
0
 62
7
 10
107.63542741333541
 20
76.651947567431279
 70
0
  0
VERTEX
  5
2384
  8
0
 62
7
 10
108.015765954907
 20
76.56805949236545
 70
0
  0
VERTEX
  5
2385
  8
0
 62
7
 10
108.39748253467261
 20
76.441107723733978
 70
0
  0
VERTEX
  5
2386
  8
0
 62
7
 10
108.52426204852981
 20
76.441107723733978
 70
0
  0
VERTEX
  5
2387
  8
0
 62
7
 10
108.9046005901014
 20
76.355669355699774
 70
0
  0
VERTEX
  5
2388
  8
0
 62
7
 10
109.32903635388421
 20
76.314328209876777
 70
0
  0
VERTEX
  5
2389
  8
0
 62
7
 10
109.7093748954558
 20
76.271609025859675
 70
0
  0
VERTEX
  5
238A
  8
0
 62
7
 10
109.8788735933301
 20
76.229062096616843
 70
0
  0
VERTEX
  5
238B
  8
0
 62
7
 10
110.2592121349017
 20
76.229062096616843
 70
0
  0
SEQEND
  5
238C
  8
0
  0
POLYLINE
  5
238D
  8
0
 62
7
 66
1
 70
0
 10
0
 20
0
 30
0
  0
VERTEX
  5
238E
  8
0
 62
7
 10
113.2233722904106
 20
97.394350719797728
 70
0
  0
VERTEX
  5
238F
  8
0
 62
7
 10
112.6721570127706
 20
97.394350719797728
 70
0
  0
VERTEX
  5
2390
  8
0
 62
7
 10
112.291818471199
 20
97.351631535780655
 70
0
  0
VERTEX
  5
2391
  8
0
 62
7
 10
111.9101018914334
 20
97.309945880409146
 70
0
  0
VERTEX
  5
2392
  8
0
 62
7
 10
111.5297633498618
 20
97.224679767149226
 70
0
  0
VERTEX
  5
2393
  8
0
 62
7
 10
111.36026465198751
 20
97.1819605831321
 70
0
  0
VERTEX
  5
2394
  8
0
 62
7
 10
110.9799261104159
 20
97.097900253291982
 70
0
  0
VERTEX
  5
2395
  8
0
 62
7
 10
110.5982095306502
 20
97.014012178226153
 70
0
  0
VERTEX
  5
2396
  8
0
 62
7
 10
110.471430016793
 20
96.928229300643466
 70
0
  0
VERTEX
  5
2397
  8
0
 62
7
 10
110.0910914752214
 20
96.8016220415605
 70
0
  0
VERTEX
  5
2398
  8
0
 62
7
 10
109.7093748954558
 20
96.632295598460473
 70
0
  0
VERTEX
  5
2399
  8
0
 62
7
 10
109.58259538159859
 20
96.589231904894859
 70
0
  0
VERTEX
  5
239A
  8
0
 62
7
 10
109.202256840027
 20
96.419905461794826
 70
0
  0
VERTEX
  5
239B
  8
0
 62
7
 10
108.8632594442784
 20
96.208893363323284
 70
0
  0
VERTEX
  5
239C
  8
0
 62
7
 10
108.7364799304212
 20
96.166346434080424
 70
0
  0
VERTEX
  5
239D
  8
0
 62
7
 10
108.39748253467261
 20
95.912959661140349
 70
0
  0
VERTEX
  5
239E
  8
0
 62
7
 10
108.015765954907
 20
95.700569524474645
 70
0
  0
VERTEX
  5
239F
  8
0
 62
7
 10
107.9317056250669
 20
95.616681449408816
 70
0
  0
VERTEX
  5
23A0
  8
0
 62
7
 10
107.59270822931831
 20
95.362950166920214
 70
0
  0
VERTEX
  5
23A1
  8
0
 62
7
 10
107.2550888717638
 20
95.1080131010117
 70
0
  0
VERTEX
  5
23A2
  8
0
 62
7
 10
107.1696505037296
 20
94.9812335871545
 70
0
  0
VERTEX
  5
23A3
  8
0
 62
7
 10
106.8733722919981
 20
94.727674559440118
 70
0
  0
VERTEX
  5
23A4
  8
0
 62
7
 10
106.57709408026661
 20
94.3886771636915
 70
0
  0
VERTEX
  5
23A5
  8
0
 62
7
 10
106.49303375042651
 20
94.304616833851412
 70
0
  0
VERTEX
  5
23A6
  8
0
 62
7
 10
106.196755538695
 20
93.965619438102863
 70
0
  0
VERTEX
  5
23A7
  8
0
 62
7
 10
105.94181847278649
 20
93.626622042354256
 70
0
  0
VERTEX
  5
23A8
  8
0
 62
7
 10
105.8577581429464
 20
93.500014783271354
 70
0
  0
VERTEX
  5
23A9
  8
0
 62
7
 10
105.60419911523211
 20
93.161017387522747
 70
0
  0
VERTEX
  5
23AA
  8
0
 62
7
 10
105.3492620493236
 20
92.823398029968246
 70
0
  0
VERTEX
  5
23AB
  8
0
 62
7
 10
105.3079209035006
 20
92.694895968368428
 70
0
  0
VERTEX
  5
23AC
  8
0
 62
7
 10
105.0957030216092
 20
92.314557426796853
 70
0
  0
VERTEX
  5
23AD
  8
0
 62
7
 10
104.84214399389479
 20
91.933013101805443
 70
0
  0
VERTEX
  5
23AE
  8
0
 62
7
 10
104.79942480987771
 20
91.80623358794827
 70
0
  0
VERTEX
  5
23AF
  8
0
 62
7
 10
104.6299261120034
 20
91.383348117133835
 70
0
  0
VERTEX
  5
23B0
  8
0
 62
7
 10
104.4604274141291
 20
90.959945881996646
 70
0
  0
VERTEX
  5
23B1
  8
0
 62
7
 10
104.417708230112
 20
90.876057806930817
 70
0
  0
VERTEX
  5
23B2
  8
0
 62
7
 10
104.2909287162548
 20
90.451622043148
 70
0
  0
VERTEX
  5
23B3
  8
0
 62
7
 10
104.12143001838049
 20
89.9860173883165
 70
0
  0
VERTEX
  5
23B4
  8
0
 62
7
 10
104.0800888725575
 20
89.901612548927858
 70
0
  0
VERTEX
  5
23B5
  8
0
 62
7
 10
103.99465050452341
 20
89.436007894096335
 70
0
  0
VERTEX
  5
23B6
  8
0
 62
7
 10
103.91059017468319
 20
89.0129501685077
 70
0
  0
VERTEX
  5
23B7
  8
0
 62
7
 10
103.86787099066621
 20
88.886342909424755
 70
0
  0
VERTEX
  5
23B8
  8
0
 62
7
 10
103.783810660826
 20
88.420393745044692
 70
0
  0
VERTEX
  5
23B9
  8
0
 62
7
 10
103.7410914768089
 20
87.954616835438912
 70
0
  0
VERTEX
  5
23BA
  8
0
 62
7
 10
103.7410914768089
 20
87.870728760373083
 70
0
  0
VERTEX
  5
23BB
  8
0
 62
7
 10
103.6983722927919
 20
87.404607341218821
 70
0
  0
VERTEX
  5
23BC
  8
0
 62
7
 10
103.6983722927919
 20
86.219666749067144
 70
0
  0
VERTEX
  5
23BD
  8
0
 62
7
 10
103.7410914768089
 20
85.7540620942356
 70
0
  0
VERTEX
  5
23BE
  8
0
 62
7
 10
103.7410914768089
 20
85.668279216652877
 70
0
  0
VERTEX
  5
23BF
  8
0
 62
7
 10
103.783810660826
 20
85.202674561821368
 70
0
  0
VERTEX
  5
23C0
  8
0
 62
7
 10
103.86787099066621
 20
84.736897652215589
 70
0
  0
VERTEX
  5
23C1
  8
0
 62
7
 10
103.91059017468319
 20
84.609945883584146
 70
0
  0
VERTEX
  5
23C2
  8
0
 62
7
 10
103.99465050452341
 20
84.187060412769711
 70
0
  0
VERTEX
  5
23C3
  8
0
 62
7
 10
104.0800888725575
 20
83.721283503163917
 70
0
  0
VERTEX
  5
23C4
  8
0
 62
7
 10
104.12143001838049
 20
83.6373954280981
 70
0
  0
VERTEX
  5
23C5
  8
0
 62
7
 10
104.2909287162548
 20
83.171274008943811
 70
0
  0
VERTEX
  5
23C6
  8
0
 62
7
 10
104.417708230112
 20
82.748388538129376
 70
0
  0
VERTEX
  5
23C7
  8
0
 62
7
 10
104.4604274141291
 20
82.6629501700952
 70
0
  0
VERTEX
  5
23C8
  8
0
 62
7
 10
104.6299261120034
 20
82.240064699280765
 70
0
  0
VERTEX
  5
23C9
  8
0
 62
7
 10
104.79942480987771
 20
81.816662464143576
 70
0
  0
VERTEX
  5
23CA
  8
0
 62
7
 10
104.84214399389479
 20
81.690055205060645
 70
0
  0
VERTEX
  5
23CB
  8
0
 62
7
 10
105.0957030216092
 20
81.308338625294965
 70
0
  0
VERTEX
  5
23CC
  8
0
 62
7
 10
105.3079209035006
 20
80.928000083723362
 70
0
  0
VERTEX
  5
23CD
  8
0
 62
7
 10
105.3492620493236
 20
80.801392824640445
 70
0
  0
VERTEX
  5
23CE
  8
0
 62
7
 10
105.60419911523211
 20
80.462395428891853
 70
0
  0
VERTEX
  5
23CF
  8
0
 62
7
 10
105.8577581429464
 20
80.082056887320277
 70
0
  0
VERTEX
  5
23D0
  8
0
 62
7
 10
105.94181847278649
 20
79.996274009737562
 70
0
  0
VERTEX
  5
23D1
  8
0
 62
7
 10
106.196755538695
 20
79.657276613988955
 70
0
  0
VERTEX
  5
23D2
  8
0
 62
7
 10
106.49303375042651
 20
79.319657256434482
 70
0
  0
VERTEX
  5
23D3
  8
0
 62
7
 10
106.57709408026661
 20
79.234391143174548
 70
0
  0
VERTEX
  5
23D4
  8
0
 62
7
 10
106.8733722919981
 20
78.89539374742597
 70
0
  0
VERTEX
  5
23D5
  8
0
 62
7
 10
107.1696505037296
 20
78.641662464937326
 70
0
  0
VERTEX
  5
23D6
  8
0
 62
7
 10
107.2550888717638
 20
78.5150552058544
 70
0
  0
VERTEX
  5
23D7
  8
0
 62
7
 10
107.59270822931831
 20
78.261323923365723
 70
0
  0
VERTEX
  5
23D8
  8
0
 62
7
 10
107.9317056250669
 20
78.006731367005756
 70
0
  0
VERTEX
  5
23D9
  8
0
 62
7
 10
108.015765954907
 20
77.922326527617145
 70
0
  0
VERTEX
  5
23DA
  8
0
 62
7
 10
108.39748253467261
 20
77.71028090050001
 70
0
  0
VERTEX
  5
23DB
  8
0
 62
7
 10
108.7364799304212
 20
77.456721872785636
 70
0
  0
VERTEX
  5
23DC
  8
0
 62
7
 10
108.8632594442784
 20
77.414002688768534
 70
0
  0
VERTEX
  5
23DD
  8
0
 62
7
 10
109.202256840027
 20
77.202990590296992
 70
0
  0
VERTEX
  5
23DE
  8
0
 62
7
 10
109.58259538159859
 20
77.033664147196944
 70
0
  0
VERTEX
  5
23DF
  8
0
 62
7
 10
109.7093748954558
 20
76.990944963179857
 70
0
  0
VERTEX
  5
23E0
  8
0
 62
7
 10
110.0910914752214
 20
76.821274010531312
 70
0
  0
VERTEX
  5
23E1
  8
0
 62
7
 10
110.471430016793
 20
76.694666751448381
 70
0
  0
VERTEX
  5
23E2
  8
0
 62
7
 10
110.5982095306502
 20
76.610778676382523
 70
0
  0
VERTEX
  5
23E3
  8
0
 62
7
 10
110.9799261104159
 20
76.524995798799807
 70
0
  0
VERTEX
  5
23E4
  8
0
 62
7
 10
111.36026465198751
 20
76.441107723733978
 70
0
  0
VERTEX
  5
23E5
  8
0
 62
7
 10
111.5297633498618
 20
76.398388539716876
 70
0
  0
VERTEX
  5
23E6
  8
0
 62
7
 10
111.9101018914334
 20
76.314328209876777
 70
0
  0
VERTEX
  5
23E7
  8
0
 62
7
 10
112.291818471199
 20
76.271781280633945
 70
0
  0
VERTEX
  5
23E8
  8
0
 62
7
 10
112.6721570127706
 20
76.229062096616843
 70
0
  0
VERTEX
  5
23E9
  8
0
 62
7
 10
113.2233722904106
 20
76.229062096616843
 70
0
  0
SEQEND
  5
23EA
  8
0
  0
POLYLINE
  5
23EB
  8
0
 62
7
 66
1
 70
0
 10
0
 20
0
 30
0
  0
VERTEX
  5
23EC
  8
0
 62
7
 10
116.1861544077255
 20
96.589231904894859
 70
0
  0
VERTEX
  5
23ED
  8
0
 62
7
 10
115.8044378279598
 20
96.589231904894859
 70
0
  0
VERTEX
  5
23EE
  8
0
 62
7
 10
115.4240992863882
 20
96.54789075907189
 70
0
  0
VERTEX
  5
23EF
  8
0
 62
7
 10
115.3813801023711
 20
96.54789075907189
 70
0
  0
VERTEX
  5
23F0
  8
0
 62
7
 10
115.00104156079949
 20
96.505343829829044
 70
0
  0
VERTEX
  5
23F1
  8
0
 62
7
 10
114.6193249810338
 20
96.419905461794826
 70
0
  0
VERTEX
  5
23F2
  8
0
 62
7
 10
114.5779838352108
 20
96.419905461794826
 70
0
  0
VERTEX
  5
23F3
  8
0
 62
7
 10
114.19626725544521
 20
96.293298202711924
 70
0
  0
VERTEX
  5
23F4
  8
0
 62
7
 10
113.8159287138736
 20
96.166174179306211
 70
0
  0
VERTEX
  5
23F5
  8
0
 62
7
 10
113.7304903458394
 20
96.166174179306211
 70
0
  0
VERTEX
  5
23F6
  8
0
 62
7
 10
113.3928709882849
 20
96.039566920223251
 70
0
  0
VERTEX
  5
23F7
  8
0
 62
7
 10
113.05387359253631
 20
95.869895967574664
 70
0
  0
VERTEX
  5
23F8
  8
0
 62
7
 10
112.9684352245021
 20
95.869895967574664
 70
0
  0
VERTEX
  5
23F9
  8
0
 62
7
 10
112.6308158669476
 20
95.659228378651676
 70
0
  0
VERTEX
  5
23FA
  8
0
 62
7
 10
112.291818471199
 20
95.489557426003117
 70
0
  0
VERTEX
  5
23FB
  8
0
 62
7
 10
112.2063801031649
 20
95.4470104967603
 70
0
  0
VERTEX
  5
23FC
  8
0
 62
7
 10
111.9101018914334
 20
95.234964869643136
 70
0
  0
VERTEX
  5
23FD
  8
0
 62
7
 10
111.5724825338789
 20
94.9812335871545
 70
0
  0
VERTEX
  5
23FE
  8
0
 62
7
 10
111.5297633498618
 20
94.938514403137376
 70
0
  0
VERTEX
  5
23FF
  8
0
 62
7
 10
111.1907659541132
 20
94.684955375423044
 70
0
  0
VERTEX
  5
2400
  8
0
 62
7
 10
110.8944877423817
 20
94.3886771636915
 70
0
  0
VERTEX
  5
2401
  8
0
 62
7
 10
110.55549034663311
 20
94.092226697185765
 70
0
  0
VERTEX
  5
2402
  8
0
 62
7
 10
110.3019313189188
 20
93.753229301437216
 70
0
  0
VERTEX
  5
2403
  8
0
 62
7
 10
110.2592121349017
 20
93.753229301437216
 70
0
  0
VERTEX
  5
2404
  8
0
 62
7
 10
110.0056531071873
 20
93.372890759865641
 70
0
  0
VERTEX
  5
2405
  8
0
 62
7
 10
109.7520940794729
 20
93.033893364117034
 70
0
  0
VERTEX
  5
2406
  8
0
 62
7
 10
109.7093748954558
 20
93.033893364117034
 70
0
  0
VERTEX
  5
2407
  8
0
 62
7
 10
109.45581586774141
 20
92.653727077319729
 70
0
  0
VERTEX
  5
2408
  8
0
 62
7
 10
109.24359798585
 20
92.272010497554064
 70
0
  0
VERTEX
  5
2409
  8
0
 62
7
 10
109.24359798585
 20
92.229291313536919
 70
0
  0
VERTEX
  5
240A
  8
0
 62
7
 10
108.9900389581356
 20
91.848952771965344
 70
0
  0
VERTEX
  5
240B
  8
0
 62
7
 10
108.77782107624419
 20
91.4258950463767
 70
0
  0
VERTEX
  5
240C
  8
0
 62
7
 10
108.6086668879185
 20
91.003009575562274
 70
0
  0
VERTEX
  5
240D
  8
0
 62
7
 10
108.44020171868971
 20
90.578229302230966
 70
0
  0
VERTEX
  5
240E
  8
0
 62
7
 10
108.2707030208154
 20
90.114002685593562
 70
0
  0
VERTEX
  5
240F
  8
0
 62
7
 10
108.1439235069582
 20
89.6482257759878
 70
0
  0
VERTEX
  5
2410
  8
0
 62
7
 10
108.0584851389241
 20
89.182276611607733
 70
0
  0
VERTEX
  5
2411
  8
0
 62
7
 10
107.974424809084
 20
88.759391140793284
 70
0
  0
VERTEX
  5
2412
  8
0
 62
7
 10
107.8889864410498
 20
88.250895047170445
 70
0
  0
VERTEX
  5
2413
  8
0
 62
7
 10
107.8476452952268
 20
87.7849458827904
 70
0
  0
VERTEX
  5
2414
  8
0
 62
7
 10
107.8049261112097
 20
87.319341227958887
 70
0
  0
VERTEX
  5
2415
  8
0
 62
7
 10
107.8049261112097
 20
86.346274008150061
 70
0
  0
VERTEX
  5
2416
  8
0
 62
7
 10
107.8476452952268
 20
85.880669353318524
 70
0
  0
VERTEX
  5
2417
  8
0
 62
7
 10
107.8889864410498
 20
85.414892443712745
 70
0
  0
VERTEX
  5
2418
  8
0
 62
7
 10
107.974424809084
 20
84.948943279332724
 70
0
  0
VERTEX
  5
2419
  8
0
 62
7
 10
108.0584851389241
 20
84.483338624501215
 70
0
  0
VERTEX
  5
241A
  8
0
 62
7
 10
108.1439235069582
 20
83.97639282384668
 70
0
  0
VERTEX
  5
241B
  8
0
 62
7
 10
108.2707030208154
 20
83.551612550515387
 70
0
  0
VERTEX
  5
241C
  8
0
 62
7
 10
108.44020171868971
 20
83.087385933877954
 70
0
  0
VERTEX
  5
241D
  8
0
 62
7
 10
108.6086668879185
 20
82.6629501700952
 70
0
  0
VERTEX
  5
241E
  8
0
 62
7
 10
108.77782107624419
 20
82.2398924445065
 70
0
  0
VERTEX
  5
241F
  8
0
 62
7
 10
108.77782107624419
 20
82.197345515263663
 70
0
  0
VERTEX
  5
2420
  8
0
 62
7
 10
108.9900389581356
 20
81.816662464143576
 70
0
  0
VERTEX
  5
2421
  8
0
 62
7
 10
109.24359798585
 20
81.393604738554885
 70
0
  0
VERTEX
  5
2422
  8
0
 62
7
 10
109.45581586774141
 20
81.012060413563475
 70
0
  0
VERTEX
  5
2423
  8
0
 62
7
 10
109.7093748954558
 20
80.631721871991886
 70
0
  0
VERTEX
  5
2424
  8
0
 62
7
 10
109.7520940794729
 20
80.631721871991886
 70
0
  0
VERTEX
  5
2425
  8
0
 62
7
 10
110.0056531071873
 20
80.2500052922262
 70
0
  0
VERTEX
  5
2426
  8
0
 62
7
 10
110.2592121349017
 20
79.9123859346717
 70
0
  0
VERTEX
  5
2427
  8
0
 62
7
 10
110.3019313189188
 20
79.9123859346717
 70
0
  0
VERTEX
  5
2428
  8
0
 62
7
 10
110.55549034663311
 20
79.616107722940214
 70
0
  0
VERTEX
  5
2429
  8
0
 62
7
 10
110.8944877423817
 20
79.276938072417366
 70
0
  0
VERTEX
  5
242A
  8
0
 62
7
 10
111.1907659541132
 20
78.9806598606859
 70
0
  0
VERTEX
  5
242B
  8
0
 62
7
 10
111.5297633498618
 20
78.727445342520042
 70
0
  0
VERTEX
  5
242C
  8
0
 62
7
 10
111.5724825338789
 20
78.68472615850294
 70
0
  0
VERTEX
  5
242D
  8
0
 62
7
 10
111.9101018914334
 20
78.4723360218373
 70
0
  0
VERTEX
  5
242E
  8
0
 62
7
 10
112.2063801031649
 20
78.218604739348621
 70
0
  0
VERTEX
  5
242F
  8
0
 62
7
 10
112.291818471199
 20
78.218604739348621
 70
0
  0
VERTEX
  5
2430
  8
0
 62
7
 10
112.6308158669476
 20
78.006559112231514
 70
0
  0
VERTEX
  5
2431
  8
0
 62
7
 10
112.9684352245021
 20
77.838438452551316
 70
0
  0
VERTEX
  5
2432
  8
0
 62
7
 10
113.05387359253631
 20
77.795719268534214
 70
0
  0
VERTEX
  5
2433
  8
0
 62
7
 10
113.3928709882849
 20
77.626392825434181
 70
0
  0
VERTEX
  5
2434
  8
0
 62
7
 10
113.7304903458394
 20
77.499441056802738
 70
0
  0
VERTEX
  5
2435
  8
0
 62
7
 10
113.8159287138736
 20
77.499441056802738
 70
0
  0
VERTEX
  5
2436
  8
0
 62
7
 10
114.19626725544521
 20
77.372661542945536
 70
0
  0
VERTEX
  5
2437
  8
0
 62
7
 10
114.5779838352108
 20
77.2446762456685
 70
0
  0
VERTEX
  5
2438
  8
0
 62
7
 10
114.6193249810338
 20
77.2446762456685
 70
0
  0
VERTEX
  5
2439
  8
0
 62
7
 10
115.00104156079949
 20
77.202990590296992
 70
0
  0
VERTEX
  5
243A
  8
0
 62
7
 10
115.3813801023711
 20
77.117724477037044
 70
0
  0
VERTEX
  5
243B
  8
0
 62
7
 10
115.4240992863882
 20
77.117724477037044
 70
0
  0
VERTEX
  5
243C
  8
0
 62
7
 10
115.8044378279598
 20
77.07638333121406
 70
0
  0
VERTEX
  5
243D
  8
0
 62
7
 10
116.5664929492971
 20
77.07638333121406
 70
0
  0
VERTEX
  5
243E
  8
0
 62
7
 10
116.94820952906269
 20
77.117724477037044
 70
0
  0
VERTEX
  5
243F
  8
0
 62
7
 10
116.9909287130798
 20
77.117724477037044
 70
0
  0
VERTEX
  5
2440
  8
0
 62
7
 10
117.3712672546514
 20
77.202990590296992
 70
0
  0
VERTEX
  5
2441
  8
0
 62
7
 10
117.751605796223
 20
77.2446762456685
 70
0
  0
VERTEX
  5
2442
  8
0
 62
7
 10
117.79432498024011
 20
77.2446762456685
 70
0
  0
VERTEX
  5
2443
  8
0
 62
7
 10
118.1760415600058
 20
77.372661542945536
 70
0
  0
VERTEX
  5
2444
  8
0
 62
7
 10
118.5563801015774
 20
77.499441056802738
 70
0
  0
VERTEX
  5
2445
  8
0
 62
7
 10
118.64181846961149
 20
77.499441056802738
 70
0
  0
VERTEX
  5
2446
  8
0
 62
7
 10
118.979437827166
 20
77.626392825434181
 70
0
  0
VERTEX
  5
2447
  8
0
 62
7
 10
119.3611544069317
 20
77.795719268534214
 70
0
  0
VERTEX
  5
2448
  8
0
 62
7
 10
119.4024955527547
 20
77.838438452551316
 70
0
  0
VERTEX
  5
2449
  8
0
 62
7
 10
119.74149294850331
 20
78.006559112231514
 70
0
  0
VERTEX
  5
244A
  8
0
 62
7
 10
120.0804903442519
 20
78.218604739348621
 70
0
  0
VERTEX
  5
244B
  8
0
 62
7
 10
120.164550674092
 20
78.218604739348621
 70
0
  0
VERTEX
  5
244C
  8
0
 62
7
 10
120.4608288858235
 20
78.4723360218373
 70
0
  0
VERTEX
  5
244D
  8
0
 62
7
 10
120.7998262815721
 20
78.68472615850294
 70
0
  0
VERTEX
  5
244E
  8
0
 62
7
 10
120.8425454655892
 20
78.727445342520042
 70
0
  0
VERTEX
  5
244F
  8
0
 62
7
 10
121.1815428613377
 20
78.9806598606859
 70
0
  0
VERTEX
  5
2450
  8
0
 62
7
 10
121.47782107306919
 20
79.276938072417366
 70
0
  0
VERTEX
  5
2451
  8
0
 62
7
 10
121.8154404306237
 20
79.616107722940214
 70
0
  0
VERTEX
  5
2452
  8
0
 62
7
 10
122.1117186423552
 20
79.9123859346717
 70
0
  0
VERTEX
  5
2453
  8
0
 62
7
 10
122.36665570826371
 20
80.2500052922262
 70
0
  0
VERTEX
  5
2454
  8
0
 62
7
 10
122.6629339199952
 20
80.631721871991886
 70
0
  0
VERTEX
  5
2455
  8
0
 62
7
 10
122.9164929477095
 20
81.012060413563475
 70
0
  0
VERTEX
  5
2456
  8
0
 62
7
 10
123.12871082960091
 20
81.393604738554885
 70
0
  0
VERTEX
  5
2457
  8
0
 62
7
 10
123.38226985731529
 20
81.816662464143576
 70
0
  0
VERTEX
  5
2458
  8
0
 62
7
 10
123.59310970101259
 20
82.197345515263663
 70
0
  0
VERTEX
  5
2459
  8
0
 62
7
 10
123.59310970101259
 20
82.2398924445065
 70
0
  0
VERTEX
  5
245A
  8
0
 62
7
 10
123.7626083988869
 20
82.6629501700952
 70
0
  0
VERTEX
  5
245B
  8
0
 62
7
 10
123.9321070967612
 20
83.087385933877954
 70
0
  0
VERTEX
  5
245C
  8
0
 62
7
 10
124.1016057946355
 20
83.551612550515387
 70
0
  0
VERTEX
  5
245D
  8
0
 62
7
 10
124.22838530849271
 20
83.97639282384668
 70
0
  0
VERTEX
  5
245E
  8
0
 62
7
 10
124.31382367652689
 20
84.483338624501215
 70
0
  0
VERTEX
  5
245F
  8
0
 62
7
 10
124.397884006367
 20
84.948943279332724
 70
0
  0
VERTEX
  5
2460
  8
0
 62
7
 10
124.4833223744012
 20
85.414892443712745
 70
0
  0
VERTEX
  5
2461
  8
0
 62
7
 10
124.5246635202242
 20
85.880669353318524
 70
0
  0
VERTEX
  5
2462
  8
0
 62
7
 10
124.5673827042413
 20
86.346274008150061
 70
0
  0
VERTEX
  5
2463
  8
0
 62
7
 10
124.5673827042413
 20
87.319341227958887
 70
0
  0
VERTEX
  5
2464
  8
0
 62
7
 10
124.5246635202242
 20
87.7849458827904
 70
0
  0
VERTEX
  5
2465
  8
0
 62
7
 10
124.4833223744012
 20
88.250895047170445
 70
0
  0
VERTEX
  5
2466
  8
0
 62
7
 10
124.397884006367
 20
88.759391140793284
 70
0
  0
VERTEX
  5
2467
  8
0
 62
7
 10
124.31382367652689
 20
89.182276611607733
 70
0
  0
VERTEX
  5
2468
  8
0
 62
7
 10
124.22838530849271
 20
89.6482257759878
 70
0
  0
VERTEX
  5
2469
  8
0
 62
7
 10
124.1016057946355
 20
90.114002685593562
 70
0
  0
VERTEX
  5
246A
  8
0
 62
7
 10
123.9321070967612
 20
90.578229302230966
 70
0
  0
VERTEX
  5
246B
  8
0
 62
7
 10
123.7626083988869
 20
91.003009575562274
 70
0
  0
VERTEX
  5
246C
  8
0
 62
7
 10
123.59310970101259
 20
91.4258950463767
 70
0
  0
VERTEX
  5
246D
  8
0
 62
7
 10
123.38226985731529
 20
91.848952771965344
 70
0
  0
VERTEX
  5
246E
  8
0
 62
7
 10
123.12871082960091
 20
92.229291313536919
 70
0
  0
VERTEX
  5
246F
  8
0
 62
7
 10
123.12871082960091
 20
92.272010497554064
 70
0
  0
VERTEX
  5
2470
  8
0
 62
7
 10
122.9164929477095
 20
92.653727077319729
 70
0
  0
VERTEX
  5
2471
  8
0
 62
7
 10
122.6629339199952
 20
93.033893364117034
 70
0
  0
VERTEX
  5
2472
  8
0
 62
7
 10
122.36665570826371
 20
93.372890759865641
 70
0
  0
VERTEX
  5
2473
  8
0
 62
7
 10
122.1117186423552
 20
93.753229301437216
 70
0
  0
VERTEX
  5
2474
  8
0
 62
7
 10
121.8154404306237
 20
94.092226697185765
 70
0
  0
VERTEX
  5
2475
  8
0
 62
7
 10
121.47782107306919
 20
94.3886771636915
 70
0
  0
VERTEX
  5
2476
  8
0
 62
7
 10
121.1815428613377
 20
94.684955375423044
 70
0
  0
VERTEX
  5
2477
  8
0
 62
7
 10
120.8425454655892
 20
94.938514403137376
 70
0
  0
VERTEX
  5
2478
  8
0
 62
7
 10
120.7998262815721
 20
94.9812335871545
 70
0
  0
VERTEX
  5
2479
  8
0
 62
7
 10
120.4608288858235
 20
95.234964869643136
 70
0
  0
VERTEX
  5
247A
  8
0
 62
7
 10
120.164550674092
 20
95.4470104967603
 70
0
  0
VERTEX
  5
247B
  8
0
 62
7
 10
120.0804903442519
 20
95.489557426003117
 70
0
  0
VERTEX
  5
247C
  8
0
 62
7
 10
119.74149294850331
 20
95.659228378651676
 70
0
  0
VERTEX
  5
247D
  8
0
 62
7
 10
119.4024955527547
 20
95.869895967574664
 70
0
  0
VERTEX
  5
247E
  8
0
 62
7
 10
119.3611544069317
 20
95.869895967574664
 70
0
  0
VERTEX
  5
247F
  8
0
 62
7
 10
118.979437827166
 20
96.039566920223251
 70
0
  0
VERTEX
  5
2480
  8
0
 62
7
 10
118.64181846961149
 20
96.166174179306211
 70
0
  0
VERTEX
  5
2481
  8
0
 62
7
 10
118.5563801015774
 20
96.166174179306211
 70
0
  0
VERTEX
  5
2482
  8
0
 62
7
 10
118.1760415600058
 20
96.293298202711924
 70
0
  0
VERTEX
  5
2483
  8
0
 62
7
 10
117.79432498024011
 20
96.419905461794826
 70
0
  0
VERTEX
  5
2484
  8
0
 62
7
 10
117.751605796223
 20
96.419905461794826
 70
0
  0
VERTEX
  5
2485
  8
0
 62
7
 10
117.3712672546514
 20
96.505343829829044
 70
0
  0
VERTEX
  5
2486
  8
0
 62
7
 10
116.9909287130798
 20
96.54789075907189
 70
0
  0
VERTEX
  5
2487
  8
0
 62
7
 10
116.94820952906269
 20
96.54789075907189
 70
0
  0
VERTEX
  5
2488
  8
0
 62
7
 10
116.5664929492971
 20
96.589231904894859
 70
0
  0
VERTEX
  5
2489
  8
0
 62
7
 10
116.1861544077255
 20
96.589231904894859
 70
0
  0
SEQEND
  5
248A
  8
0
  0
POLYLINE
  5
248B
  8
0
 62
7
 66
1
 70
0
 10
0
 20
0
 30
0
  0
VERTEX
  5
248C
  8
0
 62
7
 10
115.97393652583411
 20
96.589231904894859
 70
0
  0
VERTEX
  5
248D
  8
0
 62
7
 10
115.97393652583411
 20
96.589231904894859
 70
0
  0
SEQEND
  5
248E
  8
0
  0
POLYLINE
  5
248F
  8
0
 62
7
 66
1
 70
0
 10
0
 20
0
 30
0
  0
VERTEX
  5
2490
  8
0
 62
7
 10
116.10071603969131
 20
95.869895967574664
 70
0
  0
VERTEX
  5
2491
  8
0
 62
7
 10
115.76309668213681
 20
95.869895967574664
 70
0
  0
VERTEX
  5
2492
  8
0
 62
7
 10
115.3813801023711
 20
95.8271767835576
 70
0
  0
VERTEX
  5
2493
  8
0
 62
7
 10
115.3400389565481
 20
95.8271767835576
 70
0
  0
VERTEX
  5
2494
  8
0
 62
7
 10
115.00104156079949
 20
95.786007892508835
 70
0
  0
VERTEX
  5
2495
  8
0
 62
7
 10
114.6193249810338
 20
95.700569524474645
 70
0
  0
VERTEX
  5
2496
  8
0
 62
7
 10
114.5779838352108
 20
95.700569524474645
 70
0
  0
VERTEX
  5
2497
  8
0
 62
7
 10
114.2389864394623
 20
95.616681449408816
 70
0
  0
VERTEX
  5
2498
  8
0
 62
7
 10
113.8572698596966
 20
95.489557426003117
 70
0
  0
VERTEX
  5
2499
  8
0
 62
7
 10
113.8159287138736
 20
95.489557426003117
 70
0
  0
VERTEX
  5
249A
  8
0
 62
7
 10
113.476931318125
 20
95.362950166920214
 70
0
  0
VERTEX
  5
249B
  8
0
 62
7
 10
113.18065310639351
 20
95.193279214271627
 70
0
  0
VERTEX
  5
249C
  8
0
 62
7
 10
113.09659277655339
 20
95.150560030254539
 70
0
  0
VERTEX
  5
249D
  8
0
 62
7
 10
112.7989365266278
 20
95.0239527711716
 70
0
  0
VERTEX
  5
249E
  8
0
 62
7
 10
112.4613171690733
 20
94.811562634505947
 70
0
  0
VERTEX
  5
249F
  8
0
 62
7
 10
112.4185979850562
 20
94.7703937434572
 70
0
  0
VERTEX
  5
24A0
  8
0
 62
7
 10
112.0796005893077
 20
94.600895045582945
 70
0
  0
VERTEX
  5
24A1
  8
0
 62
7
 10
111.7836668871247
 20
94.345957979674438
 70
0
  0
VERTEX
  5
24A2
  8
0
 62
7
 10
111.4457030200217
 20
94.092226697185765
 70
0
  0
VERTEX
  5
24A3
  8
0
 62
7
 10
111.14942480829021
 20
93.8390121790199
 70
0
  0
VERTEX
  5
24A4
  8
0
 62
7
 10
110.8517685583646
 20
93.542561712514157
 70
0
  0
VERTEX
  5
24A5
  8
0
 62
7
 10
110.5982095306502
 20
93.2462835007827
 70
0
  0
VERTEX
  5
24A6
  8
0
 62
7
 10
110.55549034663311
 20
93.203564316765608
 70
0
  0
VERTEX
  5
24A7
  8
0
 62
7
 10
110.3019313189188
 20
92.907286105034117
 70
0
  0
VERTEX
  5
24A8
  8
0
 62
7
 10
110.0483722912043
 20
92.568288709285525
 70
0
  0
VERTEX
  5
24A9
  8
0
 62
7
 10
109.79481326349
 20
92.229291313536919
 70
0
  0
VERTEX
  5
24AA
  8
0
 62
7
 10
109.6253145656157
 20
91.848952771965344
 70
0
  0
VERTEX
  5
24AB
  8
0
 62
7
 10
109.41309668372431
 20
91.468614230393769
 70
0
  0
VERTEX
  5
24AC
  8
0
 62
7
 10
109.202256840027
 20
91.086897650628089
 70
0
  0
VERTEX
  5
24AD
  8
0
 62
7
 10
109.0327581421527
 20
90.706559109056514
 70
0
  0
VERTEX
  5
24AE
  8
0
 62
7
 10
108.8632594442784
 20
90.282295600047973
 70
0
  0
VERTEX
  5
24AF
  8
0
 62
7
 10
108.7364799304212
 20
89.901612548927858
 70
0
  0
VERTEX
  5
24B0
  8
0
 62
7
 10
108.6086668879185
 20
89.436007894096335
 70
0
  0
VERTEX
  5
24B1
  8
0
 62
7
 10
108.52426204852981
 20
89.0129501685077
 70
0
  0
VERTEX
  5
24B2
  8
0
 62
7
 10
108.44020171868971
 20
88.589892442919
 70
0
  0
VERTEX
  5
24B3
  8
0
 62
7
 10
108.3547633506555
 20
88.166662462556076
 70
0
  0
VERTEX
  5
24B4
  8
0
 62
7
 10
108.3120441666384
 20
87.742226698773266
 70
0
  0
VERTEX
  5
24B5
  8
0
 62
7
 10
108.2707030208154
 20
87.278000082135861
 70
0
  0
VERTEX
  5
24B6
  8
0
 62
7
 10
108.2707030208154
 20
86.3879596635216
 70
0
  0
VERTEX
  5
24B7
  8
0
 62
7
 10
108.3120441666384
 20
85.964557428384381
 70
0
  0
VERTEX
  5
24B8
  8
0
 62
7
 10
108.3547633506555
 20
85.498952773552844
 70
0
  0
VERTEX
  5
24B9
  8
0
 62
7
 10
108.44020171868971
 20
85.075895047964167
 70
0
  0
VERTEX
  5
24BA
  8
0
 62
7
 10
108.52426204852981
 20
84.65300957714976
 70
0
  0
VERTEX
  5
24BB
  8
0
 62
7
 10
108.6086668879185
 20
84.229607342012542
 70
0
  0
VERTEX
  5
24BC
  8
0
 62
7
 10
108.7364799304212
 20
83.806721871198135
 70
0
  0
VERTEX
  5
24BD
  8
0
 62
7
 10
108.8632594442784
 20
83.383664145609458
 70
0
  0
VERTEX
  5
24BE
  8
0
 62
7
 10
109.0327581421527
 20
82.959228381826676
 70
0
  0
VERTEX
  5
24BF
  8
0
 62
7
 10
109.202256840027
 20
82.579062095029343
 70
0
  0
VERTEX
  5
24C0
  8
0
 62
7
 10
109.41309668372431
 20
82.197345515263663
 70
0
  0
VERTEX
  5
24C1
  8
0
 62
7
 10
109.6253145656157
 20
81.816662464143576
 70
0
  0
VERTEX
  5
24C2
  8
0
 62
7
 10
109.79481326349
 20
81.436323922571972
 70
0
  0
VERTEX
  5
24C3
  8
0
 62
7
 10
110.0483722912043
 20
81.0973265268234
 70
0
  0
VERTEX
  5
24C4
  8
0
 62
7
 10
110.3019313189188
 20
80.758329131074817
 70
0
  0
VERTEX
  5
24C5
  8
0
 62
7
 10
110.55549034663311
 20
80.462395428891853
 70
0
  0
VERTEX
  5
24C6
  8
0
 62
7
 10
110.5982095306502
 20
80.419676244874736
 70
0
  0
VERTEX
  5
24C7
  8
0
 62
7
 10
110.8517685583646
 20
80.123225778369
 70
0
  0
VERTEX
  5
24C8
  8
0
 62
7
 10
111.14942480829021
 20
79.869666750654631
 70
0
  0
VERTEX
  5
24C9
  8
0
 62
7
 10
111.14942480829021
 20
79.826947566637529
 70
0
  0
VERTEX
  5
24CA
  8
0
 62
7
 10
111.4457030200217
 20
79.573388538923126
 70
0
  0
VERTEX
  5
24CB
  8
0
 62
7
 10
111.7836668871247
 20
79.319657256434482
 70
0
  0
VERTEX
  5
24CC
  8
0
 62
7
 10
111.7836668871247
 20
79.276938072417366
 70
0
  0
VERTEX
  5
24CD
  8
0
 62
7
 10
112.0796005893077
 20
79.107611629317347
 70
0
  0
VERTEX
  5
24CE
  8
0
 62
7
 10
112.4185979850562
 20
78.854052601602973
 70
0
  0
VERTEX
  5
24CF
  8
0
 62
7
 10
112.4613171690733
 20
78.854052601602973
 70
0
  0
VERTEX
  5
24D0
  8
0
 62
7
 10
112.7989365266278
 20
78.641662464937326
 70
0
  0
VERTEX
  5
24D1
  8
0
 62
7
 10
113.09659277655339
 20
78.4723360218373
 70
0
  0
VERTEX
  5
24D2
  8
0
 62
7
 10
113.18065310639351
 20
78.4723360218373
 70
0
  0
VERTEX
  5
24D3
  8
0
 62
7
 10
113.476931318125
 20
78.345728762754362
 70
0
  0
VERTEX
  5
24D4
  8
0
 62
7
 10
113.8159287138736
 20
78.218604739348621
 70
0
  0
VERTEX
  5
24D5
  8
0
 62
7
 10
113.8572698596966
 20
78.176057810105789
 70
0
  0
VERTEX
  5
24D6
  8
0
 62
7
 10
114.2389864394623
 20
78.09199748026569
 70
0
  0
VERTEX
  5
24D7
  8
0
 62
7
 10
114.5779838352108
 20
77.965390221182759
 70
0
  0
VERTEX
  5
24D8
  8
0
 62
7
 10
114.6193249810338
 20
77.965390221182759
 70
0
  0
VERTEX
  5
24D9
  8
0
 62
7
 10
115.00104156079949
 20
77.879607343600043
 70
0
  0
VERTEX
  5
24DA
  8
0
 62
7
 10
115.3400389565481
 20
77.838438452551316
 70
0
  0
VERTEX
  5
24DB
  8
0
 62
7
 10
115.76309668213681
 20
77.838438452551316
 70
0
  0
VERTEX
  5
24DC
  8
0
 62
7
 10
116.10071603969131
 20
77.795719268534214
 70
0
  0
VERTEX
  5
24DD
  8
0
 62
7
 10
116.4824326194569
 20
77.838438452551316
 70
0
  0
VERTEX
  5
24DE
  8
0
 62
7
 10
116.86277116102851
 20
77.838438452551316
 70
0
  0
VERTEX
  5
24DF
  8
0
 62
7
 10
117.2444877407942
 20
77.879607343600043
 70
0
  0
VERTEX
  5
24E0
  8
0
 62
7
 10
117.58348513654281
 20
77.965390221182759
 70
0
  0
VERTEX
  5
24E1
  8
0
 62
7
 10
117.6248262823658
 20
77.965390221182759
 70
0
  0
VERTEX
  5
24E2
  8
0
 62
7
 10
118.0065428621315
 20
78.09199748026569
 70
0
  0
VERTEX
  5
24E3
  8
0
 62
7
 10
118.3441622196859
 20
78.176057810105789
 70
0
  0
VERTEX
  5
24E4
  8
0
 62
7
 10
118.3868814037031
 20
78.218604739348621
 70
0
  0
VERTEX
  5
24E5
  8
0
 62
7
 10
118.72587879945161
 20
78.345728762754362
 70
0
  0
VERTEX
  5
24E6
  8
0
 62
7
 10
119.0648761952002
 20
78.4723360218373
 70
0
  0
VERTEX
  5
24E7
  8
0
 62
7
 10
119.1062173410232
 20
78.4723360218373
 70
0
  0
VERTEX
  5
24E8
  8
0
 62
7
 10
119.4452147367718
 20
78.641662464937326
 70
0
  0
VERTEX
  5
24E9
  8
0
 62
7
 10
119.7842121325204
 20
78.854052601602973
 70
0
  0
VERTEX
  5
24EA
  8
0
 62
7
 10
120.123209528269
 20
79.107611629317347
 70
0
  0
VERTEX
  5
24EB
  8
0
 62
7
 10
120.41948774000051
 20
79.276938072417366
 70
0
  0
VERTEX
  5
24EC
  8
0
 62
7
 10
120.4608288858235
 20
79.319657256434482
 70
0
  0
VERTEX
  5
24ED
  8
0
 62
7
 10
120.757107097555
 20
79.573388538923126
 70
0
  0
VERTEX
  5
24EE
  8
0
 62
7
 10
121.0533853092864
 20
79.826947566637529
 70
0
  0
VERTEX
  5
24EF
  8
0
 62
7
 10
121.0961044933035
 20
79.869666750654631
 70
0
  0
VERTEX
  5
24F0
  8
0
 62
7
 10
121.3496635210179
 20
80.123225778369
 70
0
  0
VERTEX
  5
24F1
  8
0
 62
7
 10
121.6046005869264
 20
80.419676244874736
 70
0
  0
VERTEX
  5
24F2
  8
0
 62
7
 10
121.64594173274941
 20
80.462395428891853
 70
0
  0
VERTEX
  5
24F3
  8
0
 62
7
 10
121.9008787986579
 20
80.758329131074817
 70
0
  0
VERTEX
  5
24F4
  8
0
 62
7
 10
122.1544378263723
 20
81.0973265268234
 70
0
  0
VERTEX
  5
24F5
  8
0
 62
7
 10
122.36665570826371
 20
81.436323922571972
 70
0
  0
VERTEX
  5
24F6
  8
0
 62
7
 10
122.6202147359781
 20
81.816662464143576
 70
0
  0
VERTEX
  5
24F7
  8
0
 62
7
 10
122.8324326178694
 20
82.197345515263663
 70
0
  0
VERTEX
  5
24F8
  8
0
 62
7
 10
123.0005532775496
 20
82.579062095029343
 70
0
  0
VERTEX
  5
24F9
  8
0
 62
7
 10
123.212771159441
 20
82.959228381826676
 70
0
  0
VERTEX
  5
24FA
  8
0
 62
7
 10
123.33955067329821
 20
83.383664145609458
 70
0
  0
VERTEX
  5
24FB
  8
0
 62
7
 10
123.46633018715541
 20
83.806721871198135
 70
0
  0
VERTEX
  5
24FC
  8
0
 62
7
 10
123.59310970101259
 20
84.229607342012542
 70
0
  0
VERTEX
  5
24FD
  8
0
 62
7
 10
123.7212672530639
 20
84.65300957714976
 70
0
  0
VERTEX
  5
24FE
  8
0
 62
7
 10
123.7626083988869
 20
85.075895047964167
 70
0
  0
VERTEX
  5
24FF
  8
0
 62
7
 10
123.8480467669211
 20
85.498952773552844
 70
0
  0
VERTEX
  5
2500
  8
0
 62
7
 10
123.8893879127441
 20
85.964557428384381
 70
0
  0
VERTEX
  5
2501
  8
0
 62
7
 10
123.9321070967612
 20
86.3879596635216
 70
0
  0
VERTEX
  5
2502
  8
0
 62
7
 10
123.9321070967612
 20
87.278000082135861
 70
0
  0
VERTEX
  5
2503
  8
0
 62
7
 10
123.8893879127441
 20
87.742226698773266
 70
0
  0
VERTEX
  5
2504
  8
0
 62
7
 10
123.8480467669211
 20
88.166662462556076
 70
0
  0
VERTEX
  5
2505
  8
0
 62
7
 10
123.7626083988869
 20
88.589892442919
 70
0
  0
VERTEX
  5
2506
  8
0
 62
7
 10
123.7212672530639
 20
89.0129501685077
 70
0
  0
VERTEX
  5
2507
  8
0
 62
7
 10
123.59310970101259
 20
89.436007894096335
 70
0
  0
VERTEX
  5
2508
  8
0
 62
7
 10
123.46633018715541
 20
89.901612548927858
 70
0
  0
VERTEX
  5
2509
  8
0
 62
7
 10
123.33955067329821
 20
90.282295600047973
 70
0
  0
VERTEX
  5
250A
  8
0
 62
7
 10
123.212771159441
 20
90.706559109056514
 70
0
  0
VERTEX
  5
250B
  8
0
 62
7
 10
123.0005532775496
 20
91.086897650628089
 70
0
  0
VERTEX
  5
250C
  8
0
 62
7
 10
122.8324326178694
 20
91.468614230393769
 70
0
  0
VERTEX
  5
250D
  8
0
 62
7
 10
122.6202147359781
 20
91.848952771965344
 70
0
  0
VERTEX
  5
250E
  8
0
 62
7
 10
122.36665570826371
 20
92.229291313536919
 70
0
  0
VERTEX
  5
250F
  8
0
 62
7
 10
122.1544378263723
 20
92.568288709285525
 70
0
  0
VERTEX
  5
2510
  8
0
 62
7
 10
121.9008787986579
 20
92.907286105034117
 70
0
  0
VERTEX
  5
2511
  8
0
 62
7
 10
121.64594173274941
 20
93.203564316765608
 70
0
  0
VERTEX
  5
2512
  8
0
 62
7
 10
121.6046005869264
 20
93.2462835007827
 70
0
  0
VERTEX
  5
2513
  8
0
 62
7
 10
121.3496635210179
 20
93.542561712514157
 70
0
  0
VERTEX
  5
2514
  8
0
 62
7
 10
121.0961044933035
 20
93.8390121790199
 70
0
  0
VERTEX
  5
2515
  8
0
 62
7
 10
121.0533853092864
 20
93.8390121790199
 70
0
  0
VERTEX
  5
2516
  8
0
 62
7
 10
120.757107097555
 20
94.092226697185765
 70
0
  0
VERTEX
  5
2517
  8
0
 62
7
 10
120.4608288858235
 20
94.345957979674438
 70
0
  0
VERTEX
  5
2518
  8
0
 62
7
 10
120.41948774000051
 20
94.345957979674438
 70
0
  0
VERTEX
  5
2519
  8
0
 62
7
 10
120.123209528269
 20
94.600895045582945
 70
0
  0
VERTEX
  5
251A
  8
0
 62
7
 10
119.7842121325204
 20
94.7703937434572
 70
0
  0
VERTEX
  5
251B
  8
0
 62
7
 10
119.7842121325204
 20
94.811562634505947
 70
0
  0
VERTEX
  5
251C
  8
0
 62
7
 10
119.4452147367718
 20
95.0239527711716
 70
0
  0
VERTEX
  5
251D
  8
0
 62
7
 10
119.1062173410232
 20
95.150560030254539
 70
0
  0
VERTEX
  5
251E
  8
0
 62
7
 10
119.0648761952002
 20
95.193279214271627
 70
0
  0
VERTEX
  5
251F
  8
0
 62
7
 10
118.72587879945161
 20
95.362950166920214
 70
0
  0
VERTEX
  5
2520
  8
0
 62
7
 10
118.3868814037031
 20
95.489557426003117
 70
0
  0
VERTEX
  5
2521
  8
0
 62
7
 10
118.3441622196859
 20
95.489557426003117
 70
0
  0
VERTEX
  5
2522
  8
0
 62
7
 10
118.0065428621315
 20
95.616681449408816
 70
0
  0
VERTEX
  5
2523
  8
0
 62
7
 10
117.6248262823658
 20
95.700569524474645
 70
0
  0
VERTEX
  5
2524
  8
0
 62
7
 10
117.58348513654281
 20
95.700569524474645
 70
0
  0
VERTEX
  5
2525
  8
0
 62
7
 10
117.2444877407942
 20
95.786007892508835
 70
0
  0
VERTEX
  5
2526
  8
0
 62
7
 10
116.86277116102851
 20
95.8271767835576
 70
0
  0
VERTEX
  5
2527
  8
0
 62
7
 10
116.82143001520549
 20
95.8271767835576
 70
0
  0
VERTEX
  5
2528
  8
0
 62
7
 10
116.4824326194569
 20
95.869895967574664
 70
0
  0
VERTEX
  5
2529
  8
0
 62
7
 10
116.10071603969131
 20
95.869895967574664
 70
0
  0
SEQEND
  5
252A
  8
0
  0
POLYLINE
  5
252B
  8
0
 62
7
 66
1
 70
0
 10
0
 20
0
 30
0
  0
VERTEX
  5
252C
  8
0
 62
7
 10
115.93259538001109
 20
95.869895967574664
 70
0
  0
VERTEX
  5
252D
  8
0
 62
7
 10
115.93259538001109
 20
95.869895967574664
 70
0
  0
SEQEND
  5
252E
  8
0
  0
POLYLINE
  5
252F
  8
0
 62
7
 66
1
 70
0
 10
0
 20
0
 30
0
  0
VERTEX
  5
2530
  8
0
 62
7
 10
116.10071603969131
 20
96.166346434080424
 70
0
  0
VERTEX
  5
2531
  8
0
 62
7
 10
115.3813801023711
 20
96.166346434080424
 70
0
  0
VERTEX
  5
2532
  8
0
 62
7
 10
115.3400389565481
 20
96.12362725006335
 70
0
  0
VERTEX
  5
2533
  8
0
 62
7
 10
114.95832237678241
 20
96.082286104240382
 70
0
  0
VERTEX
  5
2534
  8
0
 62
7
 10
114.5779838352108
 20
95.996847736206178
 70
0
  0
VERTEX
  5
2535
  8
0
 62
7
 10
114.5352646511937
 20
95.996847736206178
 70
0
  0
VERTEX
  5
2536
  8
0
 62
7
 10
114.19626725544521
 20
95.912959661140349
 70
0
  0
VERTEX
  5
2537
  8
0
 62
7
 10
113.8159287138736
 20
95.786007892508835
 70
0
  0
VERTEX
  5
2538
  8
0
 62
7
 10
113.7732095298565
 20
95.786007892508835
 70
0
  0
VERTEX
  5
2539
  8
0
 62
7
 10
113.4342121341079
 20
95.659228378651676
 70
0
  0
VERTEX
  5
253A
  8
0
 62
7
 10
113.09659277655339
 20
95.489557426003117
 70
0
  0
VERTEX
  5
253B
  8
0
 62
7
 10
113.05387359253631
 20
95.489557426003117
 70
0
  0
VERTEX
  5
253C
  8
0
 62
7
 10
112.7148761967877
 20
95.277511798886
 70
0
  0
VERTEX
  5
253D
  8
0
 62
7
 10
112.37587880103909
 20
95.1080131010117
 70
0
  0
VERTEX
  5
253E
  8
0
 62
7
 10
112.3345376552161
 20
95.1080131010117
 70
0
  0
VERTEX
  5
253F
  8
0
 62
7
 10
111.9955402594676
 20
94.854626328071561
 70
0
  0
VERTEX
  5
2540
  8
0
 62
7
 10
111.6992620477361
 20
94.642236191405914
 70
0
  0
VERTEX
  5
2541
  8
0
 62
7
 10
111.656542863719
 20
94.600895045582945
 70
0
  0
VERTEX
  5
2542
  8
0
 62
7
 10
111.31754546797041
 20
94.345957979674438
 70
0
  0
VERTEX
  5
2543
  8
0
 62
7
 10
111.063986440256
 20
94.092226697185765
 70
0
  0
VERTEX
  5
2544
  8
0
 62
7
 10
111.0212672562389
 20
94.092226697185765
 70
0
  0
VERTEX
  5
2545
  8
0
 62
7
 10
110.72533355405589
 20
93.753229301437216
 70
0
  0
VERTEX
  5
2546
  8
0
 62
7
 10
110.428710832776
 20
93.457295599254209
 70
0
  0
VERTEX
  5
2547
  8
0
 62
7
 10
110.1751518050615
 20
93.119676241699779
 70
0
  0
VERTEX
  5
2548
  8
0
 62
7
 10
109.9215927773472
 20
92.780678845951172
 70
0
  0
VERTEX
  5
2549
  8
0
 62
7
 10
109.9215927773472
 20
92.737959661934084
 70
0
  0
VERTEX
  5
254A
  8
0
 62
7
 10
109.66700022098721
 20
92.441681450202566
 70
0
  0
VERTEX
  5
254B
  8
0
 62
7
 10
109.45581586774141
 20
92.061342908630991
 70
0
  0
VERTEX
  5
254C
  8
0
 62
7
 10
109.41309668372431
 20
92.018279215065377
 70
0
  0
VERTEX
  5
254D
  8
0
 62
7
 10
109.24359798585
 20
91.6365626352997
 70
0
  0
VERTEX
  5
254E
  8
0
 62
7
 10
109.0327581421527
 20
91.256224093728122
 70
0
  0
VERTEX
  5
254F
  8
0
 62
7
 10
109.0327581421527
 20
91.213677164485262
 70
0
  0
VERTEX
  5
2550
  8
0
 62
7
 10
108.8632594442784
 20
90.833338622913686
 70
0
  0
VERTEX
  5
2551
  8
0
 62
7
 10
108.6937607464041
 20
90.410280897325038
 70
0
  0
VERTEX
  5
2552
  8
0
 62
7
 10
108.52426204852981
 20
89.985845133542213
 70
0
  0
VERTEX
  5
2553
  8
0
 62
7
 10
108.44020171868971
 20
89.562959662727849
 70
0
  0
VERTEX
  5
2554
  8
0
 62
7
 10
108.3120441666384
 20
89.097010498347785
 70
0
  0
VERTEX
  5
2555
  8
0
 62
7
 10
108.2279838367983
 20
88.6739527727591
 70
0
  0
VERTEX
  5
2556
  8
0
 62
7
 10
108.1439235069582
 20
88.208348117927585
 70
0
  0
VERTEX
  5
2557
  8
0
 62
7
 10
108.1439235069582
 20
87.742226698773266
 70
0
  0
VERTEX
  5
2558
  8
0
 62
7
 10
108.1012043229412
 20
87.278000082135861
 70
0
  0
VERTEX
  5
2559
  8
0
 62
7
 10
108.1012043229412
 20
86.3879596635216
 70
0
  0
VERTEX
  5
255A
  8
0
 62
7
 10
108.1439235069582
 20
85.923388537335626
 70
0
  0
VERTEX
  5
255B
  8
0
 62
7
 10
108.1439235069582
 20
85.457611627729847
 70
0
  0
VERTEX
  5
255C
  8
0
 62
7
 10
108.2279838367983
 20
84.991662463349826
 70
0
  0
VERTEX
  5
255D
  8
0
 62
7
 10
108.3120441666384
 20
84.56877699253539
 70
0
  0
VERTEX
  5
255E
  8
0
 62
7
 10
108.44020171868971
 20
84.103000082929626
 70
0
  0
VERTEX
  5
255F
  8
0
 62
7
 10
108.52426204852981
 20
83.679942357340934
 70
0
  0
VERTEX
  5
2560
  8
0
 62
7
 10
108.6937607464041
 20
83.255678848332423
 70
0
  0
VERTEX
  5
2561
  8
0
 62
7
 10
108.8632594442784
 20
82.8322766131952
 70
0
  0
VERTEX
  5
2562
  8
0
 62
7
 10
109.0327581421527
 20
82.409391142380784
 70
0
  0
VERTEX
  5
2563
  8
0
 62
7
 10
109.24359798585
 20
82.029052600809223
 70
0
  0
VERTEX
  5
2564
  8
0
 62
7
 10
109.41309668372431
 20
81.647336021043529
 70
0
  0
VERTEX
  5
2565
  8
0
 62
7
 10
109.45581586774141
 20
81.647336021043529
 70
0
  0
VERTEX
  5
2566
  8
0
 62
7
 10
109.66700022098721
 20
81.266997479471939
 70
0
  0
VERTEX
  5
2567
  8
0
 62
7
 10
109.9215927773472
 20
80.88528089970626
 70
0
  0
VERTEX
  5
2568
  8
0
 62
7
 10
110.1751518050615
 20
80.546283503957682
 70
0
  0
VERTEX
  5
2569
  8
0
 62
7
 10
110.428710832776
 20
80.2500052922262
 70
0
  0
VERTEX
  5
256A
  8
0
 62
7
 10
110.428710832776
 20
80.208664146403208
 70
0
  0
VERTEX
  5
256B
  8
0
 62
7
 10
110.72533355405589
 20
79.9123859346717
 70
0
  0
VERTEX
  5
256C
  8
0
 62
7
 10
111.0212672562389
 20
79.616107722940214
 70
0
  0
VERTEX
  5
256D
  8
0
 62
7
 10
111.063986440256
 20
79.573388538923126
 70
0
  0
VERTEX
  5
256E
  8
0
 62
7
 10
111.31754546797041
 20
79.319657256434482
 70
0
  0
VERTEX
  5
256F
  8
0
 62
7
 10
111.656542863719
 20
79.065064700074515
 70
0
  0
VERTEX
  5
2570
  8
0
 62
7
 10
111.6992620477361
 20
79.023723554251518
 70
0
  0
VERTEX
  5
2571
  8
0
 62
7
 10
111.9955402594676
 20
78.811333417585871
 70
0
  0
VERTEX
  5
2572
  8
0
 62
7
 10
112.3345376552161
 20
78.598943280920224
 70
0
  0
VERTEX
  5
2573
  8
0
 62
7
 10
112.37587880103909
 20
78.557774389871454
 70
0
  0
VERTEX
  5
2574
  8
0
 62
7
 10
112.7148761967877
 20
78.3882756919972
 70
0
  0
VERTEX
  5
2575
  8
0
 62
7
 10
113.05387359253631
 20
78.218776994122891
 70
0
  0
VERTEX
  5
2576
  8
0
 62
7
 10
113.09659277655339
 20
78.176057810105789
 70
0
  0
VERTEX
  5
2577
  8
0
 62
7
 10
113.4342121341079
 20
78.006731367005756
 70
0
  0
VERTEX
  5
2578
  8
0
 62
7
 10
113.7732095298565
 20
77.879607343600043
 70
0
  0
VERTEX
  5
2579
  8
0
 62
7
 10
113.8159287138736
 20
77.879607343600043
 70
0
  0
VERTEX
  5
257A
  8
0
 62
7
 10
114.19626725544521
 20
77.753000084517112
 70
0
  0
VERTEX
  5
257B
  8
0
 62
7
 10
114.5352646511937
 20
77.669112009451283
 70
0
  0
VERTEX
  5
257C
  8
0
 62
7
 10
114.5779838352108
 20
77.626392825434181
 70
0
  0
VERTEX
  5
257D
  8
0
 62
7
 10
114.95832237678241
 20
77.583329131868567
 70
0
  0
VERTEX
  5
257E
  8
0
 62
7
 10
115.3400389565481
 20
77.541987986045569
 70
0
  0
VERTEX
  5
257F
  8
0
 62
7
 10
115.3813801023711
 20
77.499441056802738
 70
0
  0
VERTEX
  5
2580
  8
0
 62
7
 10
116.86277116102851
 20
77.499441056802738
 70
0
  0
VERTEX
  5
2581
  8
0
 62
7
 10
116.90549034504561
 20
77.541987986045569
 70
0
  0
VERTEX
  5
2582
  8
0
 62
7
 10
117.2444877407942
 20
77.583329131868567
 70
0
  0
VERTEX
  5
2583
  8
0
 62
7
 10
117.6248262823658
 20
77.626392825434181
 70
0
  0
VERTEX
  5
2584
  8
0
 62
7
 10
117.6675454663829
 20
77.669112009451283
 70
0
  0
VERTEX
  5
2585
  8
0
 62
7
 10
118.04788400795449
 20
77.753000084517112
 70
0
  0
VERTEX
  5
2586
  8
0
 62
7
 10
118.3868814037031
 20
77.879607343600043
 70
0
  0
VERTEX
  5
2587
  8
0
 62
7
 10
118.4296005877202
 20
77.879607343600043
 70
0
  0
VERTEX
  5
2588
  8
0
 62
7
 10
118.80993912929171
 20
78.006731367005756
 70
0
  0
VERTEX
  5
2589
  8
0
 62
7
 10
119.1489365250403
 20
78.176057810105789
 70
0
  0
VERTEX
  5
258A
  8
0
 62
7
 10
119.1916557090574
 20
78.218776994122891
 70
0
  0
VERTEX
  5
258B
  8
0
 62
7
 10
119.530653104806
 20
78.3882756919972
 70
0
  0
VERTEX
  5
258C
  8
0
 62
7
 10
119.8269313165375
 20
78.557774389871454
 70
0
  0
VERTEX
  5
258D
  8
0
 62
7
 10
119.9109916463776
 20
78.598943280920224
 70
0
  0
VERTEX
  5
258E
  8
0
 62
7
 10
120.2072698581091
 20
78.811333417585871
 70
0
  0
VERTEX
  5
258F
  8
0
 62
7
 10
120.54626725385771
 20
79.023723554251518
 70
0
  0
VERTEX
  5
2590
  8
0
 62
7
 10
120.54626725385771
 20
79.065064700074515
 70
0
  0
VERTEX
  5
2591
  8
0
 62
7
 10
120.8852646496062
 20
79.319657256434482
 70
0
  0
VERTEX
  5
2592
  8
0
 62
7
 10
121.1815428613377
 20
79.573388538923126
 70
0
  0
VERTEX
  5
2593
  8
0
 62
7
 10
121.1815428613377
 20
79.616107722940214
 70
0
  0
VERTEX
  5
2594
  8
0
 62
7
 10
121.47782107306919
 20
79.9123859346717
 70
0
  0
VERTEX
  5
2595
  8
0
 62
7
 10
121.7740992848007
 20
80.208664146403208
 70
0
  0
VERTEX
  5
2596
  8
0
 62
7
 10
121.7740992848007
 20
80.2500052922262
 70
0
  0
VERTEX
  5
2597
  8
0
 62
7
 10
122.0703774965322
 20
80.546283503957682
 70
0
  0
VERTEX
  5
2598
  8
0
 62
7
 10
122.32393652424661
 20
80.88528089970626
 70
0
  0
VERTEX
  5
2599
  8
0
 62
7
 10
122.577495551961
 20
81.266997479471939
 70
0
  0
VERTEX
  5
259A
  8
0
 62
7
 10
122.7469942498352
 20
81.647336021043529
 70
0
  0
VERTEX
  5
259B
  8
0
 62
7
 10
122.7897134338523
 20
81.647336021043529
 70
0
  0
VERTEX
  5
259C
  8
0
 62
7
 10
123.0005532775496
 20
82.029052600809223
 70
0
  0
VERTEX
  5
259D
  8
0
 62
7
 10
123.1700519754239
 20
82.409391142380784
 70
0
  0
VERTEX
  5
259E
  8
0
 62
7
 10
123.212771159441
 20
82.409391142380784
 70
0
  0
VERTEX
  5
259F
  8
0
 62
7
 10
123.38226985731529
 20
82.8322766131952
 70
0
  0
VERTEX
  5
25A0
  8
0
 62
7
 10
123.5090493711725
 20
83.255678848332423
 70
0
  0
VERTEX
  5
25A1
  8
0
 62
7
 10
123.6358288850297
 20
83.679942357340934
 70
0
  0
VERTEX
  5
25A2
  8
0
 62
7
 10
123.7626083988869
 20
84.103000082929626
 70
0
  0
VERTEX
  5
25A3
  8
0
 62
7
 10
123.8893879127441
 20
84.56877699253539
 70
0
  0
VERTEX
  5
25A4
  8
0
 62
7
 10
123.9748262807783
 20
84.991662463349826
 70
0
  0
VERTEX
  5
25A5
  8
0
 62
7
 10
124.0588866106184
 20
85.457611627729847
 70
0
  0
VERTEX
  5
25A6
  8
0
 62
7
 10
124.1016057946355
 20
85.923388537335626
 70
0
  0
VERTEX
  5
25A7
  8
0
 62
7
 10
124.14432497865261
 20
86.3879596635216
 70
0
  0
VERTEX
  5
25A8
  8
0
 62
7
 10
124.14432497865261
 20
87.278000082135861
 70
0
  0
VERTEX
  5
25A9
  8
0
 62
7
 10
124.1016057946355
 20
87.742226698773266
 70
0
  0
VERTEX
  5
25AA
  8
0
 62
7
 10
124.0588866106184
 20
88.208348117927585
 70
0
  0
VERTEX
  5
25AB
  8
0
 62
7
 10
123.9748262807783
 20
88.6739527727591
 70
0
  0
VERTEX
  5
25AC
  8
0
 62
7
 10
123.8893879127441
 20
89.097010498347785
 70
0
  0
VERTEX
  5
25AD
  8
0
 62
7
 10
123.7626083988869
 20
89.562959662727849
 70
0
  0
VERTEX
  5
25AE
  8
0
 62
7
 10
123.6358288850297
 20
89.985845133542213
 70
0
  0
VERTEX
  5
25AF
  8
0
 62
7
 10
123.5090493711725
 20
90.410280897325038
 70
0
  0
VERTEX
  5
25B0
  8
0
 62
7
 10
123.38226985731529
 20
90.833338622913686
 70
0
  0
VERTEX
  5
25B1
  8
0
 62
7
 10
123.212771159441
 20
91.213677164485262
 70
0
  0
VERTEX
  5
25B2
  8
0
 62
7
 10
123.1700519754239
 20
91.256224093728122
 70
0
  0
VERTEX
  5
25B3
  8
0
 62
7
 10
123.0005532775496
 20
91.6365626352997
 70
0
  0
VERTEX
  5
25B4
  8
0
 62
7
 10
122.7897134338523
 20
92.018279215065377
 70
0
  0
VERTEX
  5
25B5
  8
0
 62
7
 10
122.7469942498352
 20
92.061342908630991
 70
0
  0
VERTEX
  5
25B6
  8
0
 62
7
 10
122.577495551961
 20
92.441681450202566
 70
0
  0
VERTEX
  5
25B7
  8
0
 62
7
 10
122.32393652424661
 20
92.737959661934084
 70
0
  0
VERTEX
  5
25B8
  8
0
 62
7
 10
122.32393652424661
 20
92.780678845951172
 70
0
  0
VERTEX
  5
25B9
  8
0
 62
7
 10
122.0703774965322
 20
93.119676241699779
 70
0
  0
VERTEX
  5
25BA
  8
0
 62
7
 10
121.7740992848007
 20
93.457295599254209
 70
0
  0
VERTEX
  5
25BB
  8
0
 62
7
 10
121.47782107306919
 20
93.753229301437216
 70
0
  0
VERTEX
  5
25BC
  8
0
 62
7
 10
121.1815428613377
 20
94.092226697185765
 70
0
  0
VERTEX
  5
25BD
  8
0
 62
7
 10
120.8852646496062
 20
94.345957979674438
 70
0
  0
VERTEX
  5
25BE
  8
0
 62
7
 10
120.54626725385771
 20
94.600895045582945
 70
0
  0
VERTEX
  5
25BF
  8
0
 62
7
 10
120.54626725385771
 20
94.642236191405914
 70
0
  0
VERTEX
  5
25C0
  8
0
 62
7
 10
120.2072698581091
 20
94.854626328071561
 70
0
  0
VERTEX
  5
25C1
  8
0
 62
7
 10
119.9109916463776
 20
95.1080131010117
 70
0
  0
VERTEX
  5
25C2
  8
0
 62
7
 10
119.8269313165375
 20
95.1080131010117
 70
0
  0
VERTEX
  5
25C3
  8
0
 62
7
 10
119.530653104806
 20
95.277511798886
 70
0
  0
VERTEX
  5
25C4
  8
0
 62
7
 10
119.1916557090574
 20
95.489557426003117
 70
0
  0
VERTEX
  5
25C5
  8
0
 62
7
 10
119.1489365250403
 20
95.489557426003117
 70
0
  0
VERTEX
  5
25C6
  8
0
 62
7
 10
118.80993912929171
 20
95.659228378651676
 70
0
  0
VERTEX
  5
25C7
  8
0
 62
7
 10
118.4296005877202
 20
95.786007892508835
 70
0
  0
VERTEX
  5
25C8
  8
0
 62
7
 10
118.3868814037031
 20
95.786007892508835
 70
0
  0
VERTEX
  5
25C9
  8
0
 62
7
 10
118.04788400795449
 20
95.912959661140349
 70
0
  0
VERTEX
  5
25CA
  8
0
 62
7
 10
117.6675454663829
 20
95.996847736206178
 70
0
  0
VERTEX
  5
25CB
  8
0
 62
7
 10
117.6248262823658
 20
95.996847736206178
 70
0
  0
VERTEX
  5
25CC
  8
0
 62
7
 10
117.2444877407942
 20
96.082286104240382
 70
0
  0
VERTEX
  5
25CD
  8
0
 62
7
 10
116.90549034504561
 20
96.12362725006335
 70
0
  0
VERTEX
  5
25CE
  8
0
 62
7
 10
116.86277116102851
 20
96.166346434080424
 70
0
  0
VERTEX
  5
25CF
  8
0
 62
7
 10
116.10071603969131
 20
96.166346434080424
 70
0
  0
SEQEND
  5
25D0
  8
0
  0
POLYLINE
  5
25D1
  8
0
 62
7
 66
1
 70
0
 10
0
 20
0
 30
0
  0
VERTEX
  5
25D2
  8
0
 62
7
 10
115.93259538001109
 20
96.166346434080424
 70
0
  0
VERTEX
  5
25D3
  8
0
 62
7
 10
115.93259538001109
 20
96.166346434080424
 70
0
  0
SEQEND
  5
25D4
  8
0
  0
POLYLINE
  5
25D5
  8
0
 62
7
 66
1
 70
0
 10
0
 20
0
 30
0
  0
VERTEX
  5
25D6
  8
0
 62
7
 10
116.2288735917426
 20
96.419905461794826
 70
0
  0
VERTEX
  5
25D7
  8
0
 62
7
 10
115.8471570119769
 20
96.378564315971843
 70
0
  0
VERTEX
  5
25D8
  8
0
 62
7
 10
115.3813801023711
 20
96.378564315971843
 70
0
  0
VERTEX
  5
25D9
  8
0
 62
7
 10
115.00104156079949
 20
96.293298202711924
 70
0
  0
VERTEX
  5
25DA
  8
0
 62
7
 10
114.6193249810338
 20
96.251612547340358
 70
0
  0
VERTEX
  5
25DB
  8
0
 62
7
 10
114.5779838352108
 20
96.208893363323284
 70
0
  0
VERTEX
  5
25DC
  8
0
 62
7
 10
114.2389864394623
 20
96.12362725006335
 70
0
  0
VERTEX
  5
25DD
  8
0
 62
7
 10
113.8572698596966
 20
95.996847736206178
 70
0
  0
VERTEX
  5
25DE
  8
0
 62
7
 10
113.8159287138736
 20
95.996847736206178
 70
0
  0
VERTEX
  5
25DF
  8
0
 62
7
 10
113.4342121341079
 20
95.869895967574664
 70
0
  0
VERTEX
  5
25E0
  8
0
 62
7
 10
113.09659277655339
 20
95.700569524474645
 70
0
  0
VERTEX
  5
25E1
  8
0
 62
7
 10
113.05387359253631
 20
95.659228378651676
 70
0
  0
VERTEX
  5
25E2
  8
0
 62
7
 10
112.7148761967877
 20
95.489557426003117
 70
0
  0
VERTEX
  5
25E3
  8
0
 62
7
 10
112.3345376552161
 20
95.277511798886
 70
0
  0
VERTEX
  5
25E4
  8
0
 62
7
 10
111.9955402594676
 20
95.066671955188724
 70
0
  0
VERTEX
  5
25E5
  8
0
 62
7
 10
111.656542863719
 20
94.811562634505947
 70
0
  0
VERTEX
  5
25E6
  8
0
 62
7
 10
111.656542863719
 20
94.7703937434572
 70
0
  0
VERTEX
  5
25E7
  8
0
 62
7
 10
111.31754546797041
 20
94.515628932323011
 70
0
  0
VERTEX
  5
25E8
  8
0
 62
7
 10
111.0212672562389
 20
94.261897649834324
 70
0
  0
VERTEX
  5
25E9
  8
0
 62
7
 10
110.9799261104159
 20
94.219178465817265
 70
0
  0
VERTEX
  5
25EA
  8
0
 62
7
 10
110.6836478986844
 20
93.965619438102863
 70
0
  0
VERTEX
  5
25EB
  8
0
 62
7
 10
110.38736968695289
 20
93.626622042354256
 70
0
  0
VERTEX
  5
25EC
  8
0
 62
7
 10
110.38736968695289
 20
93.5839028583372
 70
0
  0
VERTEX
  5
25ED
  8
0
 62
7
 10
110.1324326210445
 20
93.2462835007827
 70
0
  0
VERTEX
  5
25EE
  8
0
 62
7
 10
109.8788735933301
 20
92.9500052890512
 70
0
  0
VERTEX
  5
25EF
  8
0
 62
7
 10
109.836154409313
 20
92.907286105034117
 70
0
  0
VERTEX
  5
25F0
  8
0
 62
7
 10
109.6253145656157
 20
92.568288709285525
 70
0
  0
VERTEX
  5
25F1
  8
0
 62
7
 10
109.3703774997072
 20
92.18795016771395
 70
0
  0
VERTEX
  5
25F2
  8
0
 62
7
 10
109.3703774997072
 20
92.1452309836968
 70
0
  0
VERTEX
  5
25F3
  8
0
 62
7
 10
109.1595376560099
 20
91.765064696899515
 70
0
  0
VERTEX
  5
25F4
  8
0
 62
7
 10
108.9473197741185
 20
91.340628933116776
 70
0
  0
VERTEX
  5
25F5
  8
0
 62
7
 10
108.77782107624419
 20
90.917226697979515
 70
0
  0
VERTEX
  5
25F6
  8
0
 62
7
 10
108.60832237836991
 20
90.494341227165137
 70
0
  0
VERTEX
  5
25F7
  8
0
 62
7
 10
108.4815428645127
 20
90.071283501576431
 70
0
  0
VERTEX
  5
25F8
  8
0
 62
7
 10
108.3547633506555
 20
89.605678846744922
 70
0
  0
VERTEX
  5
25F9
  8
0
 62
7
 10
108.2279838367983
 20
89.1395574275906
 70
0
  0
VERTEX
  5
25FA
  8
0
 62
7
 10
108.1439235069582
 20
88.6739527727591
 70
0
  0
VERTEX
  5
25FB
  8
0
 62
7
 10
108.0584851389241
 20
88.250895047170445
 70
0
  0
VERTEX
  5
25FC
  8
0
 62
7
 10
108.015765954907
 20
87.7849458827904
 70
0
  0
VERTEX
  5
25FD
  8
0
 62
7
 10
107.974424809084
 20
87.278000082135861
 70
0
  0
VERTEX
  5
25FE
  8
0
 62
7
 10
107.974424809084
 20
86.3879596635216
 70
0
  0
VERTEX
  5
25FF
  8
0
 62
7
 10
108.015765954907
 20
85.880669353318524
 70
0
  0
VERTEX
  5
2600
  8
0
 62
7
 10
108.0584851389241
 20
85.457611627729847
 70
0
  0
VERTEX
  5
2601
  8
0
 62
7
 10
108.1439235069582
 20
84.948943279332724
 70
0
  0
VERTEX
  5
2602
  8
0
 62
7
 10
108.2279838367983
 20
84.483338624501215
 70
0
  0
VERTEX
  5
2603
  8
0
 62
7
 10
108.3547633506555
 20
84.0602808989125
 70
0
  0
VERTEX
  5
2604
  8
0
 62
7
 10
108.4815428645127
 20
83.594676244081
 70
0
  0
VERTEX
  5
2605
  8
0
 62
7
 10
108.60832237836991
 20
83.171274008943811
 70
0
  0
VERTEX
  5
2606
  8
0
 62
7
 10
108.77782107624419
 20
82.748388538129376
 70
0
  0
VERTEX
  5
2607
  8
0
 62
7
 10
108.9473197741185
 20
82.3253308125407
 70
0
  0
VERTEX
  5
2608
  8
0
 62
7
 10
109.1595376560099
 20
81.900895048757917
 70
0
  0
VERTEX
  5
2609
  8
0
 62
7
 10
109.3703774997072
 20
81.520728761960612
 70
0
  0
VERTEX
  5
260A
  8
0
 62
7
 10
109.6253145656157
 20
81.140390220389
 70
0
  0
VERTEX
  5
260B
  8
0
 62
7
 10
109.836154409313
 20
80.758329131074817
 70
0
  0
VERTEX
  5
260C
  8
0
 62
7
 10
109.8788735933301
 20
80.758329131074817
 70
0
  0
VERTEX
  5
260D
  8
0
 62
7
 10
110.1324326210445
 20
80.419676244874736
 70
0
  0
VERTEX
  5
260E
  8
0
 62
7
 10
110.38736968695289
 20
80.082056887320277
 70
0
  0
VERTEX
  5
260F
  8
0
 62
7
 10
110.38736968695289
 20
80.038993193754635
 70
0
  0
VERTEX
  5
2610
  8
0
 62
7
 10
110.6836478986844
 20
79.743059491571685
 70
0
  0
VERTEX
  5
2611
  8
0
 62
7
 10
110.9799261104159
 20
79.446609025065925
 70
0
  0
VERTEX
  5
2612
  8
0
 62
7
 10
111.0212672562389
 20
79.4040620958231
 70
0
  0
VERTEX
  5
2613
  8
0
 62
7
 10
111.31754546797041
 20
79.150330813334449
 70
0
  0
VERTEX
  5
2614
  8
0
 62
7
 10
111.656542863719
 20
78.89539374742597
 70
0
  0
VERTEX
  5
2615
  8
0
 62
7
 10
111.656542863719
 20
78.854052601602973
 70
0
  0
VERTEX
  5
2616
  8
0
 62
7
 10
111.9955402594676
 20
78.598943280920224
 70
0
  0
VERTEX
  5
2617
  8
0
 62
7
 10
112.3345376552161
 20
78.3882756919972
 70
0
  0
VERTEX
  5
2618
  8
0
 62
7
 10
112.7148761967877
 20
78.176057810105789
 70
0
  0
VERTEX
  5
2619
  8
0
 62
7
 10
113.05387359253631
 20
78.006731367005756
 70
0
  0
VERTEX
  5
261A
  8
0
 62
7
 10
113.09659277655339
 20
77.965390221182759
 70
0
  0
VERTEX
  5
261B
  8
0
 62
7
 10
113.4342121341079
 20
77.838438452551316
 70
0
  0
VERTEX
  5
261C
  8
0
 62
7
 10
113.8159287138736
 20
77.669112009451283
 70
0
  0
VERTEX
  5
261D
  8
0
 62
7
 10
113.8572698596966
 20
77.669112009451283
 70
0
  0
VERTEX
  5
261E
  8
0
 62
7
 10
114.2389864394623
 20
77.541987986045569
 70
0
  0
VERTEX
  5
261F
  8
0
 62
7
 10
114.5779838352108
 20
77.456721872785636
 70
0
  0
VERTEX
  5
2620
  8
0
 62
7
 10
114.6193249810338
 20
77.456721872785636
 70
0
  0
VERTEX
  5
2621
  8
0
 62
7
 10
115.00104156079949
 20
77.372661542945536
 70
0
  0
VERTEX
  5
2622
  8
0
 62
7
 10
115.3813801023711
 20
77.329942358928434
 70
0
  0
VERTEX
  5
2623
  8
0
 62
7
 10
115.4668184704053
 20
77.329942358928434
 70
0
  0
VERTEX
  5
2624
  8
0
 62
7
 10
115.8471570119769
 20
77.2873954296856
 70
0
  0
VERTEX
  5
2625
  8
0
 62
7
 10
116.2288735917426
 20
77.2446762456685
 70
0
  0
VERTEX
  5
2626
  8
0
 62
7
 10
116.5664929492971
 20
77.2873954296856
 70
0
  0
VERTEX
  5
2627
  8
0
 62
7
 10
116.94820952906269
 20
77.329942358928434
 70
0
  0
VERTEX
  5
2628
  8
0
 62
7
 10
116.9909287130798
 20
77.329942358928434
 70
0
  0
VERTEX
  5
2629
  8
0
 62
7
 10
117.3712672546514
 20
77.372661542945536
 70
0
  0
VERTEX
  5
262A
  8
0
 62
7
 10
117.751605796223
 20
77.456721872785636
 70
0
  0
VERTEX
  5
262B
  8
0
 62
7
 10
117.79432498024011
 20
77.456721872785636
 70
0
  0
VERTEX
  5
262C
  8
0
 62
7
 10
118.1760415600058
 20
77.541987986045569
 70
0
  0
VERTEX
  5
262D
  8
0
 62
7
 10
118.5563801015774
 20
77.669112009451283
 70
0
  0
VERTEX
  5
262E
  8
0
 62
7
 10
118.59909928559451
 20
77.669112009451283
 70
0
  0
VERTEX
  5
262F
  8
0
 62
7
 10
118.938096681343
 20
77.838438452551316
 70
0
  0
VERTEX
  5
2630
  8
0
 62
7
 10
119.3184352229146
 20
77.965390221182759
 70
0
  0
VERTEX
  5
2631
  8
0
 62
7
 10
119.3184352229146
 20
78.006731367005756
 70
0
  0
VERTEX
  5
2632
  8
0
 62
7
 10
119.69877376448621
 20
78.176057810105789
 70
0
  0
VERTEX
  5
2633
  8
0
 62
7
 10
120.0377711602348
 20
78.3882756919972
 70
0
  0
VERTEX
  5
2634
  8
0
 62
7
 10
120.0804903442519
 20
78.3882756919972
 70
0
  0
VERTEX
  5
2635
  8
0
 62
7
 10
120.41948774000051
 20
78.598943280920224
 70
0
  0
VERTEX
  5
2636
  8
0
 62
7
 10
120.715765951732
 20
78.854052601602973
 70
0
  0
VERTEX
  5
2637
  8
0
 62
7
 10
120.757107097555
 20
78.89539374742597
 70
0
  0
VERTEX
  5
2638
  8
0
 62
7
 10
121.0961044933035
 20
79.150330813334449
 70
0
  0
VERTEX
  5
2639
  8
0
 62
7
 10
121.392382705035
 20
79.4040620958231
 70
0
  0
VERTEX
  5
263A
  8
0
 62
7
 10
121.43510188905211
 20
79.446609025065925
 70
0
  0
VERTEX
  5
263B
  8
0
 62
7
 10
121.7313801007836
 20
79.743059491571685
 70
0
  0
VERTEX
  5
263C
  8
0
 62
7
 10
121.984939128498
 20
80.038993193754635
 70
0
  0
VERTEX
  5
263D
  8
0
 62
7
 10
121.984939128498
 20
80.082056887320277
 70
0
  0
VERTEX
  5
263E
  8
0
 62
7
 10
122.2812173402295
 20
80.419676244874736
 70
0
  0
VERTEX
  5
263F
  8
0
 62
7
 10
122.536154406138
 20
80.758329131074817
 70
0
  0
VERTEX
  5
2640
  8
0
 62
7
 10
122.577495551961
 20
80.758329131074817
 70
0
  0
VERTEX
  5
2641
  8
0
 62
7
 10
122.7897134338523
 20
81.140390220389
 70
0
  0
VERTEX
  5
2642
  8
0
 62
7
 10
123.0005532775496
 20
81.520728761960612
 70
0
  0
VERTEX
  5
2643
  8
0
 62
7
 10
123.0432724615667
 20
81.520728761960612
 70
0
  0
VERTEX
  5
2644
  8
0
 62
7
 10
123.25549034345811
 20
81.900895048757917
 70
0
  0
VERTEX
  5
2645
  8
0
 62
7
 10
123.46633018715541
 20
82.3253308125407
 70
0
  0
VERTEX
  5
2646
  8
0
 62
7
 10
123.6358288850297
 20
82.748388538129376
 70
0
  0
VERTEX
  5
2647
  8
0
 62
7
 10
123.805327582904
 20
83.171274008943811
 70
0
  0
VERTEX
  5
2648
  8
0
 62
7
 10
123.9321070967612
 20
83.594676244081
 70
0
  0
VERTEX
  5
2649
  8
0
 62
7
 10
124.0588866106184
 20
84.0602808989125
 70
0
  0
VERTEX
  5
264A
  8
0
 62
7
 10
124.1856661244756
 20
84.483338624501215
 70
0
  0
VERTEX
  5
264B
  8
0
 62
7
 10
124.27110449250981
 20
84.948943279332724
 70
0
  0
VERTEX
  5
264C
  8
0
 62
7
 10
124.35516482234991
 20
85.457611627729847
 70
0
  0
VERTEX
  5
264D
  8
0
 62
7
 10
124.397884006367
 20
85.880669353318524
 70
0
  0
VERTEX
  5
264E
  8
0
 62
7
 10
124.397884006367
 20
87.7849458827904
 70
0
  0
VERTEX
  5
264F
  8
0
 62
7
 10
124.35516482234991
 20
88.250895047170445
 70
0
  0
VERTEX
  5
2650
  8
0
 62
7
 10
124.27110449250981
 20
88.6739527727591
 70
0
  0
VERTEX
  5
2651
  8
0
 62
7
 10
124.1856661244756
 20
89.1395574275906
 70
0
  0
VERTEX
  5
2652
  8
0
 62
7
 10
124.0588866106184
 20
89.605678846744922
 70
0
  0
VERTEX
  5
2653
  8
0
 62
7
 10
123.9321070967612
 20
90.071283501576431
 70
0
  0
VERTEX
  5
2654
  8
0
 62
7
 10
123.805327582904
 20
90.494341227165137
 70
0
  0
VERTEX
  5
2655
  8
0
 62
7
 10
123.6358288850297
 20
90.917226697979515
 70
0
  0
VERTEX
  5
2656
  8
0
 62
7
 10
123.46633018715541
 20
91.340628933116776
 70
0
  0
VERTEX
  5
2657
  8
0
 62
7
 10
123.25549034345811
 20
91.765064696899515
 70
0
  0
VERTEX
  5
2658
  8
0
 62
7
 10
123.0432724615667
 20
92.1452309836968
 70
0
  0
VERTEX
  5
2659
  8
0
 62
7
 10
123.0005532775496
 20
92.18795016771395
 70
0
  0
VERTEX
  5
265A
  8
0
 62
7
 10
122.7897134338523
 20
92.568288709285525
 70
0
  0
VERTEX
  5
265B
  8
0
 62
7
 10
122.577495551961
 20
92.907286105034117
 70
0
  0
VERTEX
  5
265C
  8
0
 62
7
 10
122.536154406138
 20
92.9500052890512
 70
0
  0
VERTEX
  5
265D
  8
0
 62
7
 10
122.2812173402295
 20
93.2462835007827
 70
0
  0
VERTEX
  5
265E
  8
0
 62
7
 10
121.984939128498
 20
93.5839028583372
 70
0
  0
VERTEX
  5
265F
  8
0
 62
7
 10
121.984939128498
 20
93.626622042354256
 70
0
  0
VERTEX
  5
2660
  8
0
 62
7
 10
121.7313801007836
 20
93.965619438102863
 70
0
  0
VERTEX
  5
2661
  8
0
 62
7
 10
121.43510188905211
 20
94.219178465817265
 70
0
  0
VERTEX
  5
2662
  8
0
 62
7
 10
121.392382705035
 20
94.261897649834324
 70
0
  0
VERTEX
  5
2663
  8
0
 62
7
 10
121.0961044933035
 20
94.515628932323011
 70
0
  0
VERTEX
  5
2664
  8
0
 62
7
 10
120.757107097555
 20
94.7703937434572
 70
0
  0
VERTEX
  5
2665
  8
0
 62
7
 10
120.715765951732
 20
94.811562634505947
 70
0
  0
VERTEX
  5
2666
  8
0
 62
7
 10
120.41948774000051
 20
95.066671955188724
 70
0
  0
VERTEX
  5
2667
  8
0
 62
7
 10
120.0804903442519
 20
95.277511798886
 70
0
  0
VERTEX
  5
2668
  8
0
 62
7
 10
120.0377711602348
 20
95.277511798886
 70
0
  0
VERTEX
  5
2669
  8
0
 62
7
 10
119.69877376448621
 20
95.489557426003117
 70
0
  0
VERTEX
  5
266A
  8
0
 62
7
 10
119.3184352229146
 20
95.659228378651676
 70
0
  0
VERTEX
  5
266B
  8
0
 62
7
 10
119.3184352229146
 20
95.700569524474645
 70
0
  0
VERTEX
  5
266C
  8
0
 62
7
 10
118.938096681343
 20
95.869895967574664
 70
0
  0
VERTEX
  5
266D
  8
0
 62
7
 10
118.59909928559451
 20
95.996847736206178
 70
0
  0
VERTEX
  5
266E
  8
0
 62
7
 10
118.5563801015774
 20
95.996847736206178
 70
0
  0
VERTEX
  5
266F
  8
0
 62
7
 10
118.1760415600058
 20
96.12362725006335
 70
0
  0
VERTEX
  5
2670
  8
0
 62
7
 10
117.79432498024011
 20
96.208893363323284
 70
0
  0
VERTEX
  5
2671
  8
0
 62
7
 10
117.751605796223
 20
96.251612547340358
 70
0
  0
VERTEX
  5
2672
  8
0
 62
7
 10
117.3712672546514
 20
96.293298202711924
 70
0
  0
VERTEX
  5
2673
  8
0
 62
7
 10
116.9909287130798
 20
96.378564315971843
 70
0
  0
VERTEX
  5
2674
  8
0
 62
7
 10
116.5664929492971
 20
96.378564315971843
 70
0
  0
VERTEX
  5
2675
  8
0
 62
7
 10
116.2288735917426
 20
96.419905461794826
 70
0
  0
SEQEND
  5
2676
  8
0
  0
POLYLINE
  5
2677
  8
0
 62
7
 66
1
 70
0
 10
0
 20
0
 30
0
  0
VERTEX
  5
2678
  8
0
 62
7
 10
116.01665570985119
 20
96.378564315971843
 70
0
  0
VERTEX
  5
2679
  8
0
 62
7
 10
116.01665570985119
 20
96.378564315971843
 70
0
  0
SEQEND
  5
267A
  8
0
  0
POLYLINE
  5
267B
  8
0
 62
7
 66
1
 70
0
 10
0
 20
0
 30
0
  0
VERTEX
  5
267C
  8
0
 62
7
 10
115.8471570119769
 20
76.229062096616843
 70
0
  0
VERTEX
  5
267D
  8
0
 62
7
 10
116.2288735917426
 20
76.229062096616843
 70
0
  0
VERTEX
  5
267E
  8
0
 62
7
 10
116.6092121333141
 20
76.271609025859675
 70
0
  0
VERTEX
  5
267F
  8
0
 62
7
 10
116.7359916471713
 20
76.314328209876777
 70
0
  0
VERTEX
  5
2680
  8
0
 62
7
 10
117.117708226937
 20
76.355669355699774
 70
0
  0
VERTEX
  5
2681
  8
0
 62
7
 10
117.4980467685086
 20
76.441107723733978
 70
0
  0
VERTEX
  5
2682
  8
0
 62
7
 10
117.6248262823658
 20
76.441107723733978
 70
0
  0
VERTEX
  5
2683
  8
0
 62
7
 10
118.0065428621315
 20
76.56805949236545
 70
0
  0
VERTEX
  5
2684
  8
0
 62
7
 10
118.3868814037031
 20
76.651947567431279
 70
0
  0
VERTEX
  5
2685
  8
0
 62
7
 10
118.5136609175603
 20
76.694666751448381
 70
0
  0
VERTEX
  5
2686
  8
0
 62
7
 10
118.8953774973259
 20
76.821274010531312
 70
0
  0
VERTEX
  5
2687
  8
0
 62
7
 10
119.2343748930745
 20
76.990944963179857
 70
0
  0
VERTEX
  5
2688
  8
0
 62
7
 10
119.3611544069317
 20
77.07638333121406
 70
0
  0
VERTEX
  5
2689
  8
0
 62
7
 10
119.69877376448621
 20
77.2446762456685
 70
0
  0
VERTEX
  5
268A
  8
0
 62
7
 10
120.0804903442519
 20
77.456721872785636
 70
0
  0
VERTEX
  5
268B
  8
0
 62
7
 10
120.164550674092
 20
77.499441056802738
 70
0
  0
VERTEX
  5
268C
  8
0
 62
7
 10
120.50354806984061
 20
77.71028090050001
 70
0
  0
VERTEX
  5
268D
  8
0
 62
7
 10
120.8425454655892
 20
77.965390221182759
 70
0
  0
VERTEX
  5
268E
  8
0
 62
7
 10
120.9262612858807
 20
78.006559112231514
 70
0
  0
VERTEX
  5
268F
  8
0
 62
7
 10
121.2656031911778
 20
78.261323923365723
 70
0
  0
VERTEX
  5
2690
  8
0
 62
7
 10
121.56188140290929
 20
78.557774389871454
 70
0
  0
VERTEX
  5
2691
  8
0
 62
7
 10
121.68866091676649
 20
78.641662464937326
 70
0
  0
VERTEX
  5
2692
  8
0
 62
7
 10
121.9845946189495
 20
78.9379406766688
 70
0
  0
VERTEX
  5
2693
  8
0
 62
7
 10
122.2384981562124
 20
79.276938072417366
 70
0
  0
VERTEX
  5
2694
  8
0
 62
7
 10
122.32393652424661
 20
79.361342911805991
 70
0
  0
VERTEX
  5
2695
  8
0
 62
7
 10
122.6202147359781
 20
79.657276613988955
 70
0
  0
VERTEX
  5
2696
  8
0
 62
7
 10
122.8737737636924
 20
80.038993193754635
 70
0
  0
VERTEX
  5
2697
  8
0
 62
7
 10
122.9592121317266
 20
80.123225778369
 70
0
  0
VERTEX
  5
2698
  8
0
 62
7
 10
123.212771159441
 20
80.504942358134684
 70
0
  0
VERTEX
  5
2699
  8
0
 62
7
 10
123.4249890413324
 20
80.88528089970626
 70
0
  0
VERTEX
  5
269A
  8
0
 62
7
 10
123.46633018715541
 20
80.928000083723362
 70
0
  0
VERTEX
  5
269B
  8
0
 62
7
 10
123.7212672530639
 20
81.351057809312024
 70
0
  0
VERTEX
  5
269C
  8
0
 62
7
 10
123.8893879127441
 20
81.773943280126474
 70
0
  0
VERTEX
  5
269D
  8
0
 62
7
 10
123.9321070967612
 20
81.816662464143576
 70
0
  0
VERTEX
  5
269E
  8
0
 62
7
 10
124.14432497865261
 20
82.2826116285236
 70
0
  0
VERTEX
  5
269F
  8
0
 62
7
 10
124.27110449250981
 20
82.705669354112274
 70
0
  0
VERTEX
  5
26A0
  8
0
 62
7
 10
124.35516482234991
 20
82.789557429178146
 70
0
  0
VERTEX
  5
26A1
  8
0
 62
7
 10
124.4833223744012
 20
83.213993192960885
 70
0
  0
VERTEX
  5
26A2
  8
0
 62
7
 10
124.6101018882584
 20
83.679942357340934
 70
0
  0
VERTEX
  5
26A3
  8
0
 62
7
 10
124.6514430340813
 20
83.764002687181033
 70
0
  0
VERTEX
  5
26A4
  8
0
 62
7
 10
124.7368814021156
 20
84.229607342012542
 70
0
  0
VERTEX
  5
26A5
  8
0
 62
7
 10
124.8636609159728
 20
84.695728761166862
 70
0
  0
VERTEX
  5
26A6
  8
0
 62
7
 10
124.8636609159728
 20
84.779616836232677
 70
0
  0
VERTEX
  5
26A7
  8
0
 62
7
 10
124.9063800999899
 20
85.24539374583847
 70
0
  0
VERTEX
  5
26A8
  8
0
 62
7
 10
124.99044042983
 20
85.711342910218519
 70
0
  0
VERTEX
  5
26A9
  8
0
 62
7
 10
124.99044042983
 20
85.795230985284348
 70
0
  0
VERTEX
  5
26AA
  8
0
 62
7
 10
125.033159613847
 20
86.261007894890128
 70
0
  0
VERTEX
  5
26AB
  8
0
 62
7
 10
125.033159613847
 20
87.404607341218821
 70
0
  0
VERTEX
  5
26AC
  8
0
 62
7
 10
124.99044042983
 20
87.870728760373083
 70
0
  0
VERTEX
  5
26AD
  8
0
 62
7
 10
124.99044042983
 20
87.954616835438912
 70
0
  0
VERTEX
  5
26AE
  8
0
 62
7
 10
124.9063800999899
 20
88.420393745044692
 70
0
  0
VERTEX
  5
26AF
  8
0
 62
7
 10
124.8636609159728
 20
88.886342909424755
 70
0
  0
VERTEX
  5
26B0
  8
0
 62
7
 10
124.8636609159728
 20
89.0129501685077
 70
0
  0
VERTEX
  5
26B1
  8
0
 62
7
 10
124.7368814021156
 20
89.436007894096335
 70
0
  0
VERTEX
  5
26B2
  8
0
 62
7
 10
124.6514430340813
 20
89.901612548927858
 70
0
  0
VERTEX
  5
26B3
  8
0
 62
7
 10
124.6101018882584
 20
90.028564317559344
 70
0
  0
VERTEX
  5
26B4
  8
0
 62
7
 10
124.4833223744012
 20
90.451622043148
 70
0
  0
VERTEX
  5
26B5
  8
0
 62
7
 10
124.35516482234991
 20
90.876057806930817
 70
0
  0
VERTEX
  5
26B6
  8
0
 62
7
 10
124.27110449250981
 20
90.959945881996646
 70
0
  0
VERTEX
  5
26B7
  8
0
 62
7
 10
124.14432497865261
 20
91.4258950463767
 70
0
  0
VERTEX
  5
26B8
  8
0
 62
7
 10
123.9321070967612
 20
91.80623358794827
 70
0
  0
VERTEX
  5
26B9
  8
0
 62
7
 10
123.8893879127441
 20
91.932840847031173
 70
0
  0
VERTEX
  5
26BA
  8
0
 62
7
 10
123.7212672530639
 20
92.314557426796853
 70
0
  0
VERTEX
  5
26BB
  8
0
 62
7
 10
123.46633018715541
 20
92.737959661934084
 70
0
  0
VERTEX
  5
26BC
  8
0
 62
7
 10
123.4249890413324
 20
92.823398029968246
 70
0
  0
VERTEX
  5
26BD
  8
0
 62
7
 10
123.212771159441
 20
93.203564316765608
 70
0
  0
VERTEX
  5
26BE
  8
0
 62
7
 10
122.9592121317266
 20
93.542561712514157
 70
0
  0
VERTEX
  5
26BF
  8
0
 62
7
 10
122.8737737636924
 20
93.626622042354256
 70
0
  0
VERTEX
  5
26C0
  8
0
 62
7
 10
122.6202147359781
 20
94.008338622119936
 70
0
  0
VERTEX
  5
26C1
  8
0
 62
7
 10
122.32393652424661
 20
94.345957979674438
 70
0
  0
VERTEX
  5
26C2
  8
0
 62
7
 10
122.2384981562124
 20
94.3886771636915
 70
0
  0
VERTEX
  5
26C3
  8
0
 62
7
 10
121.9845946189495
 20
94.727674559440118
 70
0
  0
VERTEX
  5
26C4
  8
0
 62
7
 10
121.68866091676649
 20
95.0239527711716
 70
0
  0
VERTEX
  5
26C5
  8
0
 62
7
 10
121.56188140290929
 20
95.107840846237409
 70
0
  0
VERTEX
  5
26C6
  8
0
 62
7
 10
121.2656031911778
 20
95.362950166920214
 70
0
  0
VERTEX
  5
26C7
  8
0
 62
7
 10
120.9262612858807
 20
95.659228378651676
 70
0
  0
VERTEX
  5
26C8
  8
0
 62
7
 10
120.8425454655892
 20
95.743288708491775
 70
0
  0
VERTEX
  5
26C9
  8
0
 62
7
 10
120.50354806984061
 20
95.955678845157436
 70
0
  0
VERTEX
  5
26CA
  8
0
 62
7
 10
120.164550674092
 20
96.166174179306211
 70
0
  0
VERTEX
  5
26CB
  8
0
 62
7
 10
120.0804903442519
 20
96.251612547340358
 70
0
  0
VERTEX
  5
26CC
  8
0
 62
7
 10
119.69877376448621
 20
96.419905461794826
 70
0
  0
VERTEX
  5
26CD
  8
0
 62
7
 10
119.3611544069317
 20
96.632295598460473
 70
0
  0
VERTEX
  5
26CE
  8
0
 62
7
 10
119.2343748930745
 20
96.6750147824776
 70
0
  0
VERTEX
  5
26CF
  8
0
 62
7
 10
118.8953774973259
 20
96.8016220415605
 70
0
  0
VERTEX
  5
26D0
  8
0
 62
7
 10
118.5136609175603
 20
96.971292994209065
 70
0
  0
VERTEX
  5
26D1
  8
0
 62
7
 10
118.3868814037031
 20
97.014012178226153
 70
0
  0
VERTEX
  5
26D2
  8
0
 62
7
 10
118.0065428621315
 20
97.140619437309113
 70
0
  0
VERTEX
  5
26D3
  8
0
 62
7
 10
117.6248262823658
 20
97.224507512374956
 70
0
  0
VERTEX
  5
26D4
  8
0
 62
7
 10
117.4980467685086
 20
97.267226696392015
 70
0
  0
VERTEX
  5
26D5
  8
0
 62
7
 10
117.117708226937
 20
97.309945880409146
 70
0
  0
VERTEX
  5
26D6
  8
0
 62
7
 10
116.7359916471713
 20
97.394178465023515
 70
0
  0
VERTEX
  5
26D7
  8
0
 62
7
 10
116.2288735917426
 20
97.394178465023515
 70
0
  0
VERTEX
  5
26D8
  8
0
 62
7
 10
115.8471570119769
 20
97.436897649040588
 70
0
  0
VERTEX
  5
26D9
  8
0
 62
7
 10
115.4668184704053
 20
97.394178465023515
 70
0
  0
VERTEX
  5
26DA
  8
0
 62
7
 10
115.00104156079949
 20
97.394178465023515
 70
0
  0
VERTEX
  5
26DB
  8
0
 62
7
 10
114.6193249810338
 20
97.309945880409146
 70
0
  0
VERTEX
  5
26DC
  8
0
 62
7
 10
114.2389864394623
 20
97.267226696392015
 70
0
  0
VERTEX
  5
26DD
  8
0
 62
7
 10
114.15354807142811
 20
97.267226696392015
 70
0
  0
VERTEX
  5
26DE
  8
0
 62
7
 10
113.7732095298565
 20
97.140619437309113
 70
0
  0
VERTEX
  5
26DF
  8
0
 62
7
 10
113.3928709882849
 20
97.055181069274923
 70
0
  0
VERTEX
  5
26E0
  8
0
 62
7
 10
113.30743262025069
 20
97.014012178226153
 70
0
  0
VERTEX
  5
26E1
  8
0
 62
7
 10
112.9684352245021
 20
96.885510116626335
 70
0
  0
VERTEX
  5
26E2
  8
0
 62
7
 10
112.5880966829305
 20
96.758902857543433
 70
0
  0
VERTEX
  5
26E3
  8
0
 62
7
 10
112.50265831489629
 20
96.6750147824776
 70
0
  0
VERTEX
  5
26E4
  8
0
 62
7
 10
112.16503895734191
 20
96.54789075907189
 70
0
  0
VERTEX
  5
26E5
  8
0
 62
7
 10
111.7833223775762
 20
96.335845131954727
 70
0
  0
VERTEX
  5
26E6
  8
0
 62
7
 10
111.6992620477361
 20
96.293298202711924
 70
0
  0
VERTEX
  5
26E7
  8
0
 62
7
 10
111.40298383600459
 20
96.082286104240382
 70
0
  0
VERTEX
  5
26E8
  8
0
 62
7
 10
111.063986440256
 20
95.869895967574664
 70
0
  0
VERTEX
  5
26E9
  8
0
 62
7
 10
110.9799261104159
 20
95.786007892508835
 70
0
  0
VERTEX
  5
26EA
  8
0
 62
7
 10
110.6409287146673
 20
95.573962265391728
 70
0
  0
VERTEX
  5
26EB
  8
0
 62
7
 10
110.34465050293581
 20
95.277511798886
 70
0
  0
VERTEX
  5
26EC
  8
0
 62
7
 10
110.2592121349017
 20
95.234964869643136
 70
0
  0
VERTEX
  5
26ED
  8
0
 62
7
 10
109.9629339231702
 20
94.9812335871545
 70
0
  0
VERTEX
  5
26EE
  8
0
 62
7
 10
109.66665571143869
 20
94.684955375423044
 70
0
  0
VERTEX
  5
26EF
  8
0
 62
7
 10
109.6253145656157
 20
94.600895045582945
 70
0
  0
VERTEX
  5
26F0
  8
0
 62
7
 10
109.32869184433569
 20
94.304616833851412
 70
0
  0
VERTEX
  5
26F1
  8
0
 62
7
 10
109.0740992879757
 20
93.965619438102863
 70
0
  0
VERTEX
  5
26F2
  8
0
 62
7
 10
109.0327581421527
 20
93.922900254085732
 70
0
  0
VERTEX
  5
26F3
  8
0
 62
7
 10
108.77782107624419
 20
93.5839028583372
 70
0
  0
VERTEX
  5
26F4
  8
0
 62
7
 10
108.52426204852981
 20
93.203564316765608
 70
0
  0
VERTEX
  5
26F5
  8
0
 62
7
 10
108.4815428645127
 20
93.160845132748477
 70
0
  0
VERTEX
  5
26F6
  8
0
 62
7
 10
108.27035851126691
 20
92.780678845951172
 70
0
  0
VERTEX
  5
26F7
  8
0
 62
7
 10
108.015765954907
 20
92.398962266185492
 70
0
  0
VERTEX
  5
26F8
  8
0
 62
7
 10
108.015765954907
 20
92.357276610813983
 70
0
  0
VERTEX
  5
26F9
  8
0
 62
7
 10
107.8049261112097
 20
91.932840847031173
 70
0
  0
VERTEX
  5
26FA
  8
0
 62
7
 10
107.63542741333541
 20
91.552674560233854
 70
0
  0
VERTEX
  5
26FB
  8
0
 62
7
 10
107.59270822931831
 20
91.468614230393769
 70
0
  0
VERTEX
  5
26FC
  8
0
 62
7
 10
107.423209531444
 20
91.044178466611015
 70
0
  0
VERTEX
  5
26FD
  8
0
 62
7
 10
107.2550888717638
 20
90.621292995796566
 70
0
  0
VERTEX
  5
26FE
  8
0
 62
7
 10
107.2550888717638
 20
90.578229302230966
 70
0
  0
VERTEX
  5
26FF
  8
0
 62
7
 10
107.1269313197125
 20
90.155343831416545
 70
0
  0
VERTEX
  5
2700
  8
0
 62
7
 10
107.0001518058553
 20
89.689566921810751
 70
0
  0
VERTEX
  5
2701
  8
0
 62
7
 10
107.0001518058553
 20
89.648398030762
 70
0
  0
VERTEX
  5
2702
  8
0
 62
7
 10
106.8733722919981
 20
89.182276611607733
 70
0
  0
VERTEX
  5
2703
  8
0
 62
7
 10
106.830653107981
 20
88.716671956776224
 70
0
  0
VERTEX
  5
2704
  8
0
 62
7
 10
106.830653107981
 20
88.6739527727591
 70
0
  0
VERTEX
  5
2705
  8
0
 62
7
 10
106.74659277814089
 20
88.208348117927585
 70
0
  0
VERTEX
  5
2706
  8
0
 62
7
 10
106.70387359412381
 20
87.742226698773266
 70
0
  0
VERTEX
  5
2707
  8
0
 62
7
 10
106.70387359412381
 20
87.701057807724567
 70
0
  0
VERTEX
  5
2708
  8
0
 62
7
 10
106.6611544101067
 20
87.235280898118774
 70
0
  0
VERTEX
  5
2709
  8
0
 62
7
 10
106.6611544101067
 20
86.642724474655765
 70
0
  0
VERTEX
  5
270A
  8
0
 62
7
 10
106.70387359412381
 20
86.219666749067144
 70
0
  0
VERTEX
  5
270B
  8
0
 62
7
 10
106.70387359412381
 20
85.711342910218519
 70
0
  0
VERTEX
  5
270C
  8
0
 62
7
 10
106.74659277814089
 20
85.202674561821368
 70
0
  0
VERTEX
  5
270D
  8
0
 62
7
 10
106.830653107981
 20
84.736897652215589
 70
0
  0
VERTEX
  5
270E
  8
0
 62
7
 10
106.8733722919981
 20
84.695728761166862
 70
0
  0
VERTEX
  5
270F
  8
0
 62
7
 10
106.95743262183819
 20
84.229607342012542
 70
0
  0
VERTEX
  5
2710
  8
0
 62
7
 10
107.0428709898724
 20
83.806721871198135
 70
0
  0
VERTEX
  5
2711
  8
0
 62
7
 10
107.0855901738895
 20
83.721283503163917
 70
0
  0
VERTEX
  5
2712
  8
0
 62
7
 10
107.2120251781982
 20
83.298225777575254
 70
0
  0
VERTEX
  5
2713
  8
0
 62
7
 10
107.3391492016039
 20
82.8749957972123
 70
0
  0
VERTEX
  5
2714
  8
0
 62
7
 10
107.3391492016039
 20
82.8322766131952
 70
0
  0
VERTEX
  5
2715
  8
0
 62
7
 10
107.50864789947821
 20
82.409391142380784
 70
0
  0
VERTEX
  5
2716
  8
0
 62
7
 10
107.71948774317551
 20
81.943614232775019
 70
0
  0
VERTEX
  5
2717
  8
0
 62
7
 10
107.71948774317551
 20
81.900895048757917
 70
0
  0
VERTEX
  5
2718
  8
0
 62
7
 10
107.8889864410498
 20
81.520728761960612
 70
0
  0
VERTEX
  5
2719
  8
0
 62
7
 10
108.1439235069582
 20
81.140390220389
 70
0
  0
VERTEX
  5
271A
  8
0
 62
7
 10
108.1439235069582
 20
81.054607342806293
 70
0
  0
VERTEX
  5
271B
  8
0
 62
7
 10
108.39748253467261
 20
80.674441056008973
 70
0
  0
VERTEX
  5
271C
  8
0
 62
7
 10
108.60832237836991
 20
80.292724476243308
 70
0
  0
VERTEX
  5
271D
  8
0
 62
7
 10
108.651041562387
 20
80.2500052922262
 70
0
  0
VERTEX
  5
271E
  8
0
 62
7
 10
108.9046005901014
 20
79.9123859346717
 70
0
  0
VERTEX
  5
271F
  8
0
 62
7
 10
109.1595376560099
 20
79.573388538923126
 70
0
  0
VERTEX
  5
2720
  8
0
 62
7
 10
109.24359798585
 20
79.489328209083027
 70
0
  0
VERTEX
  5
2721
  8
0
 62
7
 10
109.4985350517585
 20
79.191671959157446
 70
0
  0
VERTEX
  5
2722
  8
0
 62
7
 10
109.79481326349
 20
78.89539374742597
 70
0
  0
VERTEX
  5
2723
  8
0
 62
7
 10
109.836154409313
 20
78.854052601602973
 70
0
  0
VERTEX
  5
2724
  8
0
 62
7
 10
110.1324326210445
 20
78.5150552058544
 70
0
  0
VERTEX
  5
2725
  8
0
 62
7
 10
110.428710832776
 20
78.261323923365723
 70
0
  0
VERTEX
  5
2726
  8
0
 62
7
 10
110.5141492008101
 20
78.218604739348621
 70
0
  0
VERTEX
  5
2727
  8
0
 62
7
 10
110.8517685583646
 20
77.965390221182759
 70
0
  0
VERTEX
  5
2728
  8
0
 62
7
 10
111.1907659541132
 20
77.71028090050001
 70
0
  0
VERTEX
  5
2729
  8
0
 62
7
 10
111.23348513813031
 20
77.669112009451283
 70
0
  0
VERTEX
  5
272A
  8
0
 62
7
 10
111.5724825338789
 20
77.456721872785636
 70
0
  0
VERTEX
  5
272B
  8
0
 62
7
 10
111.9101018914334
 20
77.2446762456685
 70
0
  0
VERTEX
  5
272C
  8
0
 62
7
 10
111.9955402594676
 20
77.202990590296992
 70
0
  0
VERTEX
  5
272D
  8
0
 62
7
 10
112.3345376552161
 20
77.033664147196944
 70
0
  0
VERTEX
  5
272E
  8
0
 62
7
 10
112.7148761967877
 20
76.863993194548385
 70
0
  0
VERTEX
  5
272F
  8
0
 62
7
 10
112.7989365266278
 20
76.863993194548385
 70
0
  0
VERTEX
  5
2730
  8
0
 62
7
 10
113.18065310639351
 20
76.694666751448381
 70
0
  0
VERTEX
  5
2731
  8
0
 62
7
 10
113.5196505021421
 20
76.56805949236545
 70
0
  0
VERTEX
  5
2732
  8
0
 62
7
 10
113.6037108319822
 20
76.56805949236545
 70
0
  0
VERTEX
  5
2733
  8
0
 62
7
 10
113.98542741174791
 20
76.48365465297681
 70
0
  0
VERTEX
  5
2734
  8
0
 62
7
 10
114.3657659533195
 20
76.355669355699774
 70
0
  0
SEQEND
  5
2735
  8
0
  0
INSERT
  5
2745
  8
0
  2
SPECEL-V0507L
 10
181.5837592005565
 20
51.850002500000151
 30
0
 41
1
 42
1
 43
1
 50
0
  0
ENDSEC
999
Created By CadLib version 4.0.36.7
999
CadLib website: www.woutware.com
  0
EOF
