  0
SECTION
  2
HEADER
  9
$ACADVER
  1
AC1009
  9
$INSBASE
 10
0
 20
0
 30
0
  9
$EXTMIN
 10
0
 20
0
  9
$EXTMAX
 10
148.5
 20
105
  9
$LIMMIN
 10
0
 20
0
  9
$LIMMAX
 10
148.5
 20
105
  9
$LTSCALE
 40
0.5
  0
ENDSEC
  0
SECTION
  2
TABLES
  0
TABLE
  2
LTYPE
 70
     9
  0
LTYPE
  2
CONTINUOUS
 70
    64
  3
実線
 72
    65
 73
     0
 40
0.0
  0
LTYPE
  2
DASHED1
 70
    64
  3
--  --  --  --  --  --  --  --  
 72
    65
 73
     2
 40
2.5
 49
1.25
 49
-1.25
  0
LTYPE
  2
DASHED2
 70
    64
  3
----    ----    ----    ----    
 72
    65
 73
     2
 40
5.0
 49
2.5
 49
-2.5
  0
LTYPE
  2
DASHED3
 70
    64
  3
------  ------  ------  ------  
 72
    65
 73
     2
 40
5.0
 49
3.75
 49
-1.25
  0
LTYPE
  2
CENTER1
 70
    64
  3
----- - ----- - ----- - ----- - 
 72
    65
 73
     4
 40
10.0
 49
6.25
 49
-1.25
 49
1.25
 49
-1.25
  0
LTYPE
  2
CENTER2
 70
    64
  3
----------  --  ----------  --  
 72
    65
 73
     4
 40
20.0
 49
12.5
 49
-2.5
 49
2.5
 49
-2.5
  0
LTYPE
  2
PHANTOM1
 70
    64
  3
--- - - --- - - --- - - --- - - 
 72
    65
 73
     6
 40
10.0
 49
3.25
 49
-1.25
 49
1.25
 49
-1.25
 49
1.25
 49
-1.25
  0
LTYPE
  2
PHANTOM2
 70
    64
  3
--------  -  -  --------  -  -  
 72
    65
 73
     6
 40
20.0
 49
10.0
 49
-2.5
 49
1.25
 49
-2.5
 49
1.25
 49
-2.5
  0
LTYPE
  2
DOT
 70
    64
  3
-   -   -   -   -   -   -   -   
 72
    65
 73
     2
 40
2.5
 49
0.625
 49
-1.875
  0
LTYPE
  2
DUMMY
 70
    64
  3
ダミー
 72
    65
 73
     0
 40
0.0
  0
LTYPE
  2
RAND1
 70
    64
  3
ランダム線1
 72
    65
 73
     4
 40
10.0
 49
1.0
 49
-2.0
 49
3.0
 49
-4.0
  0
LTYPE
  2
RAND2
 70
    64
  3
ランダム線2
 72
    65
 73
     4
 40
14.0
 49
2.0
 49
-3.0
 49
4.0
 49
-5.0
  0
LTYPE
  2
RAND3
 70
    64
  3
ランダム線3
 72
    65
 73
     4
 40
18.0
 49
3.0
 49
-4.0
 49
5.0
 49
-6.0
  0
LTYPE
  2
RAND4
 70
    64
  3
ランダム線4
 72
    65
 73
     4
 40
22.0
 49
4.0
 49
-5.0
 49
6.0
 49
-7.0
  0
LTYPE
  2
RAND5
 70
    64
  3
ランダム線5
 72
    65
 73
     4
 40
26.0
 49
5.0
 49
-6.0
 49
7.0
 49
-8.0
  0
LTYPE
  2
LONG1
 70
    64
  3
----------  --  ----------  --  
 72
    65
 73
     4
 40
40.0
 49
32.5
 49
-2.5
 49
2.5
 49
-2.5
  0
LTYPE
  2
LONG2
 70
    64
  3
--------  -  -  --------  -  -  
 72
    65
 73
     6
 40
40.0
 49
30.0
 49
-2.5
 49
1.25
 49
-2.5
 49
1.25
 49
-2.5
  0
LTYPE
  2
LONG3
 70
    64
  3
+++++++++++++++..+++++++++++++++
 72
    65
 73
     2
 40
40.0
 49
37.5
 49
-2.5
  0
LTYPE
  2
LONG4
 70
    64
  3
+++++++++++++++..+++++++++++++++
 72
    65
 73
     2
 40
80.0
 49
75.0
 49
-5.0
  0
LTYPE
  2
LONG5
 70
    64
  3
----------  --  ----------  --  
 72
    65
 73
     4
 40
60.0
 49
37.5
 49
-7.5
 49
7.5
 49
-7.5
  0
LTYPE
  2
dashed
 70
   64
  3
-------   -------------   ------
 72
   65
 73
    2
 40
7.5
 49
6
 49
-1.5
  0
LTYPE
  2
dashed_spaced
 70
   64
  3
----        --------        ----
 72
   65
 73
    2
 40
12
 49
6
 49
-6
  0
LTYPE
  2
long_dashed_dotted
 70
   64
  3
------------- --- --------------
 72
   65
 73
    4
 40
15.25
 49
12
 49
-1.5
 49
0.25
 49
-1.5
  0
LTYPE
  2
long_dashed_double-dotted
 70
   64
  3
----------- --- --- ------------
 72
   65
 73
    6
 40
17
 49
12
 49
-1.5
 49
0.25
 49
-1.5
 49
0.25
 49
-1.5
  0
LTYPE
  2
long_dashed_triplicate-dotted
 70
   64
  3
--------- --- --- --- ----------
 72
   65
 73
    8
 40
18.75
 49
12
 49
-1.5
 49
0.25
 49
-1.5
 49
0.25
 49
-1.5
 49
0.25
 49
-1.5
  0
LTYPE
  2
dotted
 70
   64
  3
   -       -       -       -    
 72
   65
 73
    2
 40
1.75
 49
0.25
 49
-1.5
  0
LTYPE
  2
chain
 70
   64
  3
-------------- -- --------------
 72
   65
 73
    4
 40
18.5
 49
12
 49
-1.5
 49
3.5
 49
-1.5
  0
LTYPE
  2
chain_double_dash
 70
   64
  3
------------ -- -- -------------
 72
   65
 73
    6
 40
23.5
 49
12
 49
-1.5
 49
3.5
 49
-1.5
 49
3.5
 49
-1.5
  0
LTYPE
  2
dashed_dotted
 70
   64
  3
-----------     -     ----------
 72
   65
 73
    4
 40
9.25
 49
6
 49
-1.5
 49
0.25
 49
-1.5
  0
LTYPE
  2
double-dashed_dotted
 70
   64
  3
------   -----------   -   -----
 72
   65
 73
    6
 40
16.75
 49
6
 49
-1.5
 49
6
 49
-1.5
 49
0.25
 49
-1.5
  0
LTYPE
  2
dashed_double-dotted
 70
   64
  3
---------    -    -    ---------
 72
   65
 73
    6
 40
11
 49
6
 49
-1.5
 49
0.25
 49
-1.5
 49
0.25
 49
-1.5
  0
LTYPE
  2
double-dashed_double-dotted
 70
   64
  3
-----   ---------   -   -   ----
 72
   65
 73
    8
 40
18.5
 49
6
 49
-1.5
 49
6
 49
-1.5
 49
0.25
 49
-1.5
 49
0.25
 49
-1.5
  0
LTYPE
  2
dashed_triplicate-dotted
 70
   64
  3
-------    -    -    -    ------
 72
   65
 73
    8
 40
12.75
 49
6
 49
-1.5
 49
0.25
 49
-1.5
 49
0.25
 49
-1.5
 49
0.25
 49
-1.5
  0
LTYPE
  2
double-dashed_triplicate-dotted
 70
   64
  3
-----  ---------  -  -  -  -----
 72
   65
 73
   10
 40
20.25
 49
6
 49
-1.5
 49
6
 49
-1.5
 49
0.25
 49
-1.5
 49
0.25
 49
-1.5
 49
0.25
 49
-1.5
  0
LTYPE
  2
undefined
 70
   64
  3
--------------------------------
 72
   65
 73
    0
 40
0
  0
LTYPE
  2
_
 70
   64
  3
                                
 72
   65
 73
    0
 40
0
  0
LTYPE
  2
__18
 70
   64
  3
                                
 72
   65
 73
    0
 40
0
  0
LTYPE
  2
__19
 70
   64
  3
                                
 72
   65
 73
    0
 40
0
  0
LTYPE
  2
__20
 70
   64
  3
                                
 72
   65
 73
    0
 40
0
  0
LTYPE
  2
__21
 70
   64
  3
                                
 72
   65
 73
    0
 40
0
  0
LTYPE
  2
__22
 70
   64
  3
                                
 72
   65
 73
    0
 40
0
  0
LTYPE
  2
__23
 70
   64
  3
                                
 72
   65
 73
    0
 40
0
  0
LTYPE
  2
__24
 70
   64
  3
                                
 72
   65
 73
    0
 40
0
  0
LTYPE
  2
__25
 70
   64
  3
                                
 72
   65
 73
    0
 40
0
  0
LTYPE
  2
__26
 70
   64
  3
                                
 72
   65
 73
    0
 40
0
  0
LTYPE
  2
__27
 70
   64
  3
                                
 72
   65
 73
    0
 40
0
  0
LTYPE
  2
__28
 70
   64
  3
                                
 72
   65
 73
    0
 40
0
  0
LTYPE
  2
__29
 70
   64
  3
                                
 72
   65
 73
    0
 40
0
  0
LTYPE
  2
__30
 70
   64
  3
                                
 72
   65
 73
    0
 40
0
  0
LTYPE
  2
__31
 70
   64
  3
                                
 72
   65
 73
    0
 40
0
  0
LTYPE
  2
__32
 70
   64
  3
                                
 72
   65
 73
    0
 40
0
  0
ENDTAB
  0
TABLE
  2
STYLE
  5
3
100
AcDbSymbolTable
 70
     1
  0
STYLE
  5
10
100
AcDbSymbolTableRecord
100
AcDbTextStyleTableRecord
  2
STANDARD
 70
     0
 40
0.0
 41
1.0
 50
0.0
 71
     0
 42
0.2
  3
txt
  4
bigfont.shx
  0
STYLE
  5
26
100
AcDbSymbolTableRecord
100
AcDbTextStyleTableRecord
  2
TATEGAKI
 70
    68
 40
0.0
 41
1.0
 50
0.0
 71
     0
 42
1.0
  3
txt
  4
bigfont.shx
  0
ENDTAB
  0
TABLE
  2
LAYER
 70
    3
  0
LAYER
  2
_0-0_0
 70
   64
 62
    7
  6
CONTINUOUS
  0
LAYER
  2
_0-2______1
 70
   64
 62
    7
  6
CONTINUOUS
  0
LAYER
  2
ADD_LINE
 70
   64
 62
    7
  6
CONTINUOUS
  0
ENDTAB
  0
ENDSEC
  0
SECTION
  2
BLOCKS
  0
BLOCK
  2
-000-SPECEL-V1010LW
 70
   64
 10
0
 20
0
 30
0
  0
TEXT
  8
_0-3_SPEC
 62
    7
 10
0
 20
0
 40
1.5
 41
1
 50
0
  1
ﾌﾞﾗｹｯﾄ 電球色(3000K) Ra85
  0
TEXT
  8
_0-3_SPEC
 62
    7
 10
0
 20
-3
 40
1.5
 41
1
 50
0
  1
100V~242V共用ﾀｲﾌﾟ
  0
TEXT
  8
_0-3_SPEC
 62
    7
 10
0
 20
-6
 40
1.5
 41
1
 50
0
  1
本体:ｱﾙﾐ 白色半ﾂﾔ粉体塗装仕上
  0
TEXT
  8
_0-3_SPEC
 62
    7
 10
0
 20
-9
 40
1.5
 41
1
 50
0
  1
光源寿命:40,000時間(光束維持率85%)
  0
TEXT
  8
_0-3_SPEC
 62
    7
 10
0
 20
-12
 40
1.5
 41
1
 50
0
  1
光束:860lm 消費電力:6.9W 消費効率:124.6lm/W
  0
ENDBLK
  0
ENDSEC
  0
SECTION
  2
ENTITIES
  0
TEXT
  8
_0-0_0
 62
    7
 10
6.7514636308465157
 20
92.322186391616086
 40
4.5
 41
1
 50
0
  1
ＬＥＤ６．９Ｗ×１　ブラケット
  0
TEXT
  8
_0-0_0
 62
    7
 10
6.7514636308465157
 20
8.3221913916161725
 40
4.205837626842416
 41
1
 50
0
  1
三菱　ＥＬ－Ｖ１０１０Ｌ／Ｗ
  0
INSERT
  2
-000-SPECEL-V1010LW
  8
_0-0_0
 10
94.690400415378804
 20
22.555080854486235
 41
1
 42
1
 50
0
  0
LINE
  8
_0-2______1
  6
CONTINUOUS
 62
    7
 10
36.987629698806415
 20
62.464171169796572
 11
41.374801702918006
 21
64.120123838653384
  0
LINE
  8
_0-2______1
  6
CONTINUOUS
 62
    7
 10
36.987629698806415
 20
42.27071917831708
 11
41.374801702918006
 21
43.883619177913872
  0
LINE
  8
_0-2______1
  6
CONTINUOUS
 62
    7
 10
69.33173502926212
 20
42.44275484450678
 11
69.546648353861201
 21
42.571737841436274
  0
LINE
  8
_0-2______1
  6
CONTINUOUS
 62
    7
 10
69.546648353861201
 20
42.571737841436274
 11
69.675806361641406
 21
42.722247172995878
  0
LINE
  8
_0-2______1
  6
CONTINUOUS
 62
    7
 10
68.514434356723427
 20
41.926647845937879
 11
68.815453019842607
 21
42.077157177497483
  0
LINE
  8
_0-2______1
  6
CONTINUOUS
 62
    7
 10
68.815453019842607
 20
42.077157177497483
 11
69.116471682961702
 21
42.27071917831708
  0
LINE
  8
_0-2______1
  6
CONTINUOUS
 62
    7
 10
41.374801702918006
 20
43.109371174635271
 11
41.374801702918006
 21
64.851319172671978
  0
LINE
  8
_0-2______1
  6
CONTINUOUS
 62
    7
 10
41.374801702918006
 20
43.109371174635271
 11
41.439205695957526
 21
42.915809173815575
  0
LINE
  8
_0-2______1
  6
CONTINUOUS
 62
    7
 10
41.439205695957526
 20
42.915809173815575
 11
41.503959710698211
 21
42.722247172995878
  0
LINE
  8
_0-2______1
  6
CONTINUOUS
 62
    7
 10
41.503959710698211
 20
42.722247172995878
 11
41.632767696777108
 21
42.593264176066384
  0
LINE
  8
_0-2______1
  6
CONTINUOUS
 62
    7
 10
69.761911700161505
 20
43.109371174635271
 11
69.761911700161505
 21
64.851319172671978
  0
LINE
  8
_0-2______1
  6
CONTINUOUS
 62
    7
 10
58.019733686604013
 20
40.270695177080981
 11
58.901438352182225
 21
40.335099170120472
  0
LINE
  8
_0-2______1
  6
CONTINUOUS
 62
    7
 10
58.901438352182225
 20
40.335099170120472
 11
59.697387700941505
 21
40.378151839380578
  0
LINE
  8
_0-2______1
  6
CONTINUOUS
 62
    7
 10
59.697387700941505
 20
40.378151839380578
 11
60.514338351779003
 21
40.464257177900677
  0
LINE
  8
_0-2______1
  6
CONTINUOUS
 62
    7
 10
60.514338351779003
 20
40.464257177900677
 11
61.353340369798417
 21
40.507134836310073
  0
LINE
  8
_0-2______1
  6
CONTINUOUS
 62
    7
 10
61.353340369798417
 20
40.507134836310073
 11
62.127238351375723
 21
40.593240174830285
  0
LINE
  8
_0-2______1
  6
CONTINUOUS
 62
    7
 10
62.127238351375723
 20
40.593240174830285
 11
62.837082361614904
 21
40.657819178720374
  0
LINE
  8
_0-2______1
  6
CONTINUOUS
 62
    7
 10
62.837082361614904
 20
40.657819178720374
 11
63.568277695633526
 21
40.765275841019871
  0
LINE
  8
_0-2______1
  6
CONTINUOUS
 62
    7
 10
63.568277695633526
 20
40.765275841019871
 11
64.256420360392013
 21
40.851381179539985
  0
LINE
  8
_0-2______1
  6
CONTINUOUS
 62
    7
 10
64.256420360392013
 20
40.851381179539985
 11
64.965914348930028
 21
40.980364176469578
  0
LINE
  8
_0-2______1
  6
CONTINUOUS
 62
    7
 10
64.965914348930028
 20
40.980364176469578
 11
65.546600351389003
 21
41.109347173399172
  0
LINE
  8
_0-2______1
  6
CONTINUOUS
 62
    7
 10
65.546600351389003
 20
41.109347173399172
 11
66.148987699328615
 21
41.23833017032868
  0
LINE
  8
_0-2______1
  6
CONTINUOUS
 62
    7
 10
66.148987699328615
 20
41.23833017032868
 11
66.707972356306925
 21
41.367488178108871
  0
LINE
  8
_0-2______1
  6
CONTINUOUS
 62
    7
 10
66.707972356306925
 20
41.367488178108871
 11
67.224254365726523
 21
41.496471175038479
  0
LINE
  8
_0-2______1
  6
CONTINUOUS
 62
    7
 10
67.224254365726523
 20
41.496471175038479
 11
67.697133684184706
 21
41.625454171967974
  0
LINE
  8
_0-2______1
  6
CONTINUOUS
 62
    7
 10
53.030524356254006
 20
40.270695177080981
 11
54.708178370591611
 21
40.270695177080981
  0
LINE
  8
_0-2______1
  6
CONTINUOUS
 62
    7
 10
54.708178370591611
 20
40.270695177080981
 11
55.568181690689102
 21
40.249168842450985
  0
LINE
  8
_0-2______1
  6
CONTINUOUS
 62
    7
 10
55.568181690689102
 20
40.249168842450985
 11
56.449886356267314
 21
40.270695177080981
  0
LINE
  8
_0-2______1
  6
CONTINUOUS
 62
    7
 10
56.342429693967802
 20
40.270695177080981
 11
58.148891694384218
 21
40.270695177080981
  0
LINE
  8
_0-2______1
  6
CONTINUOUS
 62
    7
 10
58.148891694384218
 20
40.270695177080981
 11
58.966192366922911
 21
40.335099170120472
  0
LINE
  8
_0-2______1
  6
CONTINUOUS
 62
    7
 10
58.966192366922911
 20
40.335099170120472
 11
59.804844363241102
 21
40.378151839380578
  0
LINE
  8
_0-2______1
  6
CONTINUOUS
 62
    7
 10
59.804844363241102
 20
40.378151839380578
 11
60.600443690299102
 21
40.464257177900677
  0
LINE
  8
_0-2______1
  6
CONTINUOUS
 62
    7
 10
60.600443690299102
 20
40.464257177900677
 11
61.374691693577802
 21
40.507134836310073
  0
LINE
  8
_0-2______1
  6
CONTINUOUS
 62
    7
 10
61.374691693577802
 20
40.507134836310073
 11
62.148939696856417
 21
40.593240174830285
  0
LINE
  8
_0-2______1
  6
CONTINUOUS
 62
    7
 10
62.148939696856417
 20
40.593240174830285
 11
62.923187700135003
 21
40.657819178720374
  0
LINE
  8
_0-2______1
  6
CONTINUOUS
 62
    7
 10
62.923187700135003
 20
40.657819178720374
 11
63.67573435793301
 21
40.765275841019871
  0
LINE
  8
_0-2______1
  6
CONTINUOUS
 62
    7
 10
63.67573435793301
 20
40.765275841019871
 11
64.342525698912226
 21
40.851381179539985
  0
LINE
  8
_0-2______1
  6
CONTINUOUS
 62
    7
 10
64.342525698912226
 20
40.851381179539985
 11
64.987615694410607
 21
40.980364176469578
  0
LINE
  8
_0-2______1
  6
CONTINUOUS
 62
    7
 10
64.987615694410607
 20
40.980364176469578
 11
65.611354366129717
 21
41.109347173399172
  0
LINE
  8
_0-2______1
  6
CONTINUOUS
 62
    7
 10
65.611354366129717
 20
41.109347173399172
 11
66.192040368588721
 21
41.23833017032868
  0
LINE
  8
_0-2______1
  6
CONTINUOUS
 62
    7
 10
66.192040368588721
 20
41.23833017032868
 11
66.772726371047725
 21
41.367488178108871
  0
LINE
  8
_0-2______1
  6
CONTINUOUS
 62
    7
 10
66.772726371047725
 20
41.367488178108871
 11
67.288658358765929
 21
41.496471175038479
  0
LINE
  8
_0-2______1
  6
CONTINUOUS
 62
    7
 10
67.288658358765929
 20
41.496471175038479
 11
67.697133684184706
 21
41.625454171967974
  0
LINE
  8
_0-2______1
  6
CONTINUOUS
 62
    7
 10
67.697133684184706
 20
41.625454171967974
 11
68.127310355084006
 21
41.797489838157674
  0
LINE
  8
_0-2______1
  6
CONTINUOUS
 62
    7
 10
68.127310355084006
 20
41.797489838157674
 11
68.514434356723427
 21
41.926647845937879
  0
LINE
  8
_0-2______1
  6
CONTINUOUS
 62
    7
 10
68.514434356723427
 20
41.926647845937879
 11
68.858505689102628
 21
42.077157177497483
  0
LINE
  8
_0-2______1
  6
CONTINUOUS
 62
    7
 10
68.858505689102628
 20
42.077157177497483
 11
69.116471682961702
 21
42.27071917831708
  0
LINE
  8
_0-2______1
  6
CONTINUOUS
 62
    7
 10
69.116471682961702
 20
42.27071917831708
 11
69.33173502926212
 21
42.44275484450678
  0
LINE
  8
_0-2______1
  6
CONTINUOUS
 62
    7
 10
69.33173502926212
 20
42.44275484450678
 11
69.546648353861201
 21
42.593264176066384
  0
LINE
  8
_0-2______1
  6
CONTINUOUS
 62
    7
 10
69.546648353861201
 20
42.593264176066384
 11
69.675806361641406
 21
42.722247172995878
  0
LINE
  8
_0-2______1
  6
CONTINUOUS
 62
    7
 10
69.675806361641406
 20
42.722247172995878
 11
69.718859030901427
 21
42.915809173815575
  0
LINE
  8
_0-2______1
  6
CONTINUOUS
 62
    7
 10
69.718859030901427
 20
42.915809173815575
 11
69.761911700161505
 21
43.109371174635271
  0
LINE
  8
_0-2______1
  6
CONTINUOUS
 62
    7
 10
54.278001699692226
 20
40.528661170940083
 11
56.858711703387314
 21
40.528661170940083
  0
LINE
  8
_0-2______1
  6
CONTINUOUS
 62
    7
 10
56.858711703387314
 20
40.528661170940083
 11
57.675662354224727
 21
40.593240174830285
  0
LINE
  8
_0-2______1
  6
CONTINUOUS
 62
    7
 10
57.675662354224727
 20
40.593240174830285
 11
58.536015696023526
 21
40.636292844090278
  0
LINE
  8
_0-2______1
  6
CONTINUOUS
 62
    7
 10
58.536015696023526
 20
40.636292844090278
 11
59.353316368562304
 21
40.657819178720374
  0
LINE
  8
_0-2______1
  6
CONTINUOUS
 62
    7
 10
59.353316368562304
 20
40.657819178720374
 11
60.19196836488041
 21
40.722223171759779
  0
LINE
  8
_0-2______1
  6
CONTINUOUS
 62
    7
 10
60.19196836488041
 20
40.722223171759779
 11
60.966216368159024
 21
40.786802175649882
  0
LINE
  8
_0-2______1
  6
CONTINUOUS
 62
    7
 10
60.966216368159024
 20
40.786802175649882
 11
61.740114349736416
 21
40.851206168689373
  0
LINE
  8
_0-2______1
  6
CONTINUOUS
 62
    7
 10
61.740114349736416
 20
40.851206168689373
 11
62.449958359975625
 21
40.915785172579476
  0
LINE
  8
_0-2______1
  6
CONTINUOUS
 62
    7
 10
62.449958359975625
 20
40.915785172579476
 11
63.159802370214805
 21
41.023241834878974
  0
LINE
  8
_0-2______1
  6
CONTINUOUS
 62
    7
 10
63.159802370214805
 20
41.023241834878974
 11
63.826243689492628
 21
41.152399842659179
  0
LINE
  8
_0-2______1
  6
CONTINUOUS
 62
    7
 10
63.826243689492628
 20
41.152399842659179
 11
64.44998236121171
 21
41.281382839588773
  0
LINE
  8
_0-2______1
  6
CONTINUOUS
 62
    7
 10
64.44998236121171
 20
41.281382839588773
 11
65.030668363670713
 21
41.410365836518281
  0
LINE
  8
_0-2______1
  6
CONTINUOUS
 62
    7
 10
65.030668363670713
 20
41.410365836518281
 11
65.611354366129717
 21
41.539523844298472
  0
LINE
  8
_0-2______1
  6
CONTINUOUS
 62
    7
 10
65.611354366129717
 20
41.539523844298472
 11
66.127286353848007
 21
41.66850684122808
  0
LINE
  8
_0-2______1
  6
CONTINUOUS
 62
    7
 10
66.127286353848007
 20
41.66850684122808
 11
66.536111700968007
 21
41.797489838157674
  0
LINE
  8
_0-2______1
  6
CONTINUOUS
 62
    7
 10
66.536111700968007
 20
41.797489838157674
 11
66.965938350166113
 21
41.947999169717278
  0
LINE
  8
_0-2______1
  6
CONTINUOUS
 62
    7
 10
66.965938350166113
 20
41.947999169717278
 11
67.310359704246622
 21
42.077157177497483
  0
LINE
  8
_0-2______1
  6
CONTINUOUS
 62
    7
 10
67.310359704246622
 20
42.077157177497483
 11
67.611378367365802
 21
42.27071917831708
  0
LINE
  8
_0-2______1
  6
CONTINUOUS
 62
    7
 10
67.611378367365802
 20
42.27071917831708
 11
67.869344361224904
 21
42.442579833656083
  0
LINE
  8
_0-2______1
  6
CONTINUOUS
 62
    7
 10
67.869344361224904
 20
42.442579833656083
 11
68.084257685824014
 21
42.593264176066384
  0
LINE
  8
_0-2______1
  6
CONTINUOUS
 62
    7
 10
68.084257685824014
 20
42.593264176066384
 11
68.213415693604219
 21
42.722247172995878
  0
LINE
  8
_0-2______1
  6
CONTINUOUS
 62
    7
 10
68.213415693604219
 20
42.722247172995878
 11
68.320872355903703
 21
42.915809173815575
  0
LINE
  8
_0-2______1
  6
CONTINUOUS
 62
    7
 10
68.320872355903703
 20
42.915809173815575
 11
68.342573701384424
 21
43.109371174635271
  0
LINE
  8
_0-2______1
  6
CONTINUOUS
 62
    7
 10
53.869526374273505
 20
41.926647845937879
 11
57.353292367326105
 21
41.926647845937879
  0
LINE
  8
_0-2______1
  6
CONTINUOUS
 62
    7
 10
57.353292367326105
 20
41.926647845937879
 11
58.191944363644325
 21
41.947999169717278
  0
LINE
  8
_0-2______1
  6
CONTINUOUS
 62
    7
 10
58.191944363644325
 20
41.947999169717278
 11
59.051947683741815
 21
42.01257817360738
  0
LINE
  8
_0-2______1
  6
CONTINUOUS
 62
    7
 10
59.051947683741815
 20
42.01257817360738
 11
59.869248356280508
 21
42.055630842867373
  0
LINE
  8
_0-2______1
  6
CONTINUOUS
 62
    7
 10
59.869248356280508
 20
42.055630842867373
 11
60.707900352598614
 21
42.141561170536875
  0
LINE
  8
_0-2______1
  6
CONTINUOUS
 62
    7
 10
60.707900352598614
 20
42.141561170536875
 11
61.482148355877314
 21
42.184613839796981
  0
LINE
  8
_0-2______1
  6
CONTINUOUS
 62
    7
 10
61.482148355877314
 20
42.184613839796981
 11
62.256396359155929
 21
42.27071917831708
  0
LINE
  8
_0-2______1
  6
CONTINUOUS
 62
    7
 10
62.256396359155929
 20
42.27071917831708
 11
62.966240369395223
 21
42.335123171356571
  0
LINE
  8
_0-2______1
  6
CONTINUOUS
 62
    7
 10
62.966240369395223
 20
42.335123171356571
 11
63.67573435793301
 21
42.464106168286079
  0
LINE
  8
_0-2______1
  6
CONTINUOUS
 62
    7
 10
63.67573435793301
 20
42.464106168286079
 11
64.320824353431505
 21
42.593264176066384
  0
LINE
  8
_0-2______1
  6
CONTINUOUS
 62
    7
 10
64.320824353431505
 20
42.593264176066384
 11
64.965914348930028
 21
42.722247172995878
  0
LINE
  8
_0-2______1
  6
CONTINUOUS
 62
    7
 10
64.965914348930028
 20
42.722247172995878
 11
65.503547682128925
 21
42.851230169925472
  0
LINE
  8
_0-2______1
  6
CONTINUOUS
 62
    7
 10
65.503547682128925
 20
42.851230169925472
 11
66.019829691548409
 21
42.98021316685498
  0
LINE
  8
_0-2______1
  6
CONTINUOUS
 62
    7
 10
66.019829691548409
 20
42.98021316685498
 11
66.514410355487314
 21
43.109371174635271
  0
LINE
  8
_0-2______1
  6
CONTINUOUS
 62
    7
 10
66.514410355487314
 20
43.109371174635271
 11
66.923235702607315
 21
43.302933175454882
  0
LINE
  8
_0-2______1
  6
CONTINUOUS
 62
    7
 10
66.923235702607315
 20
43.302933175454882
 11
67.310009682545314
 21
43.474968841644582
  0
LINE
  8
_0-2______1
  6
CONTINUOUS
 62
    7
 10
67.310009682545314
 20
43.474968841644582
 11
67.611378367365802
 21
43.603951838574076
  0
LINE
  8
_0-2______1
  6
CONTINUOUS
 62
    7
 10
67.611378367365802
 20
43.603951838574076
 11
67.869344361224904
 21
43.754461170133681
  0
LINE
  8
_0-2______1
  6
CONTINUOUS
 62
    7
 10
56.858711703387314
 20
45.668554843700278
 11
54.278001699692226
 21
45.668554843700278
  0
LINE
  8
_0-2______1
  6
CONTINUOUS
 62
    7
 10
54.278001699692226
 20
45.668554843700278
 11
53.482402372634226
 21
45.625502174440172
  0
LINE
  8
_0-2______1
  6
CONTINUOUS
 62
    7
 10
53.482402372634226
 20
45.625502174440172
 11
52.600697707056014
 21
45.560923170550083
  0
LINE
  8
_0-2______1
  6
CONTINUOUS
 62
    7
 10
52.600697707056014
 20
45.560923170550083
 11
51.804748358296621
 21
45.539396835920073
  0
LINE
  8
_0-2______1
  6
CONTINUOUS
 62
    7
 10
51.804748358296621
 20
45.539396835920073
 11
50.966096361978515
 21
45.496519177510677
  0
LINE
  8
_0-2______1
  6
CONTINUOUS
 62
    7
 10
50.966096361978515
 20
45.496519177510677
 11
50.191848358699815
 21
45.410413838990479
  0
LINE
  8
_0-2______1
  6
CONTINUOUS
 62
    7
 10
50.191848358699815
 20
45.410413838990479
 11
49.482354370162028
 21
45.367361169730472
  0
LINE
  8
_0-2______1
  6
CONTINUOUS
 62
    7
 10
49.482354370162028
 20
45.367361169730472
 11
48.708106366883328
 21
45.281430842060985
  0
LINE
  8
_0-2______1
  6
CONTINUOUS
 62
    7
 10
48.708106366883328
 20
45.281430842060985
 11
48.019963702124812
 21
45.173799168910776
  0
LINE
  8
_0-2______1
  6
CONTINUOUS
 62
    7
 10
48.019963702124812
 20
45.173799168910776
 11
47.374873706626317
 21
45.044816171981182
  0
LINE
  8
_0-2______1
  6
CONTINUOUS
 62
    7
 10
47.374873706626317
 20
45.044816171981182
 11
46.729433689426514
 21
44.915833175051674
  0
LINE
  8
_0-2______1
  6
CONTINUOUS
 62
    7
 10
46.729433689426514
 20
44.915833175051674
 11
46.127396363188211
 21
44.786675167271483
  0
LINE
  8
_0-2______1
  6
CONTINUOUS
 62
    7
 10
46.127396363188211
 20
44.786675167271483
 11
45.568411706209929
 21
44.657692170341875
  0
LINE
  8
_0-2______1
  6
CONTINUOUS
 62
    7
 10
45.568411706209929
 20
44.657692170341875
 11
45.095182366050409
 21
44.528709173412381
  0
LINE
  8
_0-2______1
  6
CONTINUOUS
 62
    7
 10
45.095182366050409
 20
44.528709173412381
 11
44.600601702111504
 21
44.399726176482773
  0
LINE
  8
_0-2______1
  6
CONTINUOUS
 62
    7
 10
44.600601702111504
 20
44.399726176482773
 11
44.192126376692812
 21
44.249041834072472
  0
LINE
  8
_0-2______1
  6
CONTINUOUS
 62
    7
 10
44.192126376692812
 20
44.249041834072472
 11
43.826353698832918
 21
44.120058837142977
  0
LINE
  8
_0-2______1
  6
CONTINUOUS
 62
    7
 10
43.826353698832918
 20
44.120058837142977
 11
43.546686359493123
 21
43.948023170953377
  0
LINE
  8
_0-2______1
  6
CONTINUOUS
 62
    7
 10
43.546686359493123
 20
43.948023170953377
 11
43.288720365633907
 21
43.754461170133681
  0
LINE
  8
_0-2______1
  6
CONTINUOUS
 62
    7
 10
43.288720365633907
 20
43.754461170133681
 11
43.052105695554218
 21
43.603951838574076
  0
LINE
  8
_0-2______1
  6
CONTINUOUS
 62
    7
 10
43.052105695554218
 20
43.603951838574076
 11
42.923297709475321
 21
43.474968841644582
  0
LINE
  8
_0-2______1
  6
CONTINUOUS
 62
    7
 10
42.923297709475321
 20
43.474968841644582
 11
42.858543694734522
 21
43.302933175454882
  0
LINE
  8
_0-2______1
  6
CONTINUOUS
 62
    7
 10
42.858543694734522
 20
43.302933175454882
 11
42.794139701695116
 21
43.109371174635271
  0
LINE
  8
_0-2______1
  6
CONTINUOUS
 62
    7
 10
42.794139701695116
 20
43.109371174635271
 11
42.858543694734522
 21
42.915809173815575
  0
LINE
  8
_0-2______1
  6
CONTINUOUS
 62
    7
 10
42.858543694734522
 20
42.915809173815575
 11
42.923297709475321
 21
42.722247172995878
  0
LINE
  8
_0-2______1
  6
CONTINUOUS
 62
    7
 10
42.923297709475321
 20
42.722247172995878
 11
43.052105695554218
 21
42.593264176066384
  0
LINE
  8
_0-2______1
  6
CONTINUOUS
 62
    7
 10
43.052105695554218
 20
42.593264176066384
 11
43.288720365633907
 21
42.44275484450678
  0
LINE
  8
_0-2______1
  6
CONTINUOUS
 62
    7
 10
43.288720365633907
 20
42.44275484450678
 11
43.546686359493123
 21
42.27071917831708
  0
LINE
  8
_0-2______1
  6
CONTINUOUS
 62
    7
 10
43.546686359493123
 20
42.27071917831708
 11
43.826353698832918
 21
42.077157177497483
  0
LINE
  8
_0-2______1
  6
CONTINUOUS
 62
    7
 10
43.826353698832918
 20
42.077157177497483
 11
44.192126376692812
 21
41.947999169717278
  0
LINE
  8
_0-2______1
  6
CONTINUOUS
 62
    7
 10
44.192126376692812
 20
41.947999169717278
 11
44.600601702111504
 21
41.797489838157674
  0
LINE
  8
_0-2______1
  6
CONTINUOUS
 62
    7
 10
44.600601702111504
 20
41.797489838157674
 11
45.052129696790303
 21
41.66850684122808
  0
LINE
  8
_0-2______1
  6
CONTINUOUS
 62
    7
 10
45.052129696790303
 20
41.66850684122808
 11
45.568411706209929
 21
41.539523844298472
  0
LINE
  8
_0-2______1
  6
CONTINUOUS
 62
    7
 10
45.568411706209929
 20
41.539523844298472
 11
46.127396363188211
 21
41.410365836518281
  0
LINE
  8
_0-2______1
  6
CONTINUOUS
 62
    7
 10
46.127396363188211
 20
41.410365836518281
 11
46.729433689426514
 21
41.281382839588773
  0
LINE
  8
_0-2______1
  6
CONTINUOUS
 62
    7
 10
46.729433689426514
 20
41.281382839588773
 11
47.374873706626317
 21
41.152399842659179
  0
LINE
  8
_0-2______1
  6
CONTINUOUS
 62
    7
 10
47.374873706626317
 20
41.152399842659179
 11
48.019963702124812
 21
41.023241834878974
  0
LINE
  8
_0-2______1
  6
CONTINUOUS
 62
    7
 10
48.019963702124812
 20
41.023241834878974
 11
48.708106366883328
 21
40.915785172579476
  0
LINE
  8
_0-2______1
  6
CONTINUOUS
 62
    7
 10
48.708106366883328
 20
40.915785172579476
 11
49.439301700901922
 21
40.851381179539985
  0
LINE
  8
_0-2______1
  6
CONTINUOUS
 62
    7
 10
49.439301700901922
 20
40.851381179539985
 11
50.191848358699815
 21
40.786802175649882
  0
LINE
  8
_0-2______1
  6
CONTINUOUS
 62
    7
 10
50.191848358699815
 20
40.786802175649882
 11
50.966096361978515
 21
40.722223171759779
  0
LINE
  8
_0-2______1
  6
CONTINUOUS
 62
    7
 10
50.966096361978515
 20
40.722223171759779
 11
51.804748358296621
 21
40.657819178720374
  0
LINE
  8
_0-2______1
  6
CONTINUOUS
 62
    7
 10
51.804748358296621
 20
40.657819178720374
 11
52.600697707056014
 21
40.636292844090278
  0
LINE
  8
_0-2______1
  6
CONTINUOUS
 62
    7
 10
52.600697707056014
 20
40.636292844090278
 11
53.482402372634226
 21
40.593240174830285
  0
LINE
  8
_0-2______1
  6
CONTINUOUS
 62
    7
 10
53.482402372634226
 20
40.593240174830285
 11
54.278001699692226
 21
40.528661170940083
  0
LINE
  8
_0-2______1
  6
CONTINUOUS
 62
    7
 10
58.148891694384218
 20
45.92652083755938
 11
56.449886356267314
 21
45.92652083755938
  0
LINE
  8
_0-2______1
  6
CONTINUOUS
 62
    7
 10
56.449886356267314
 20
45.92652083755938
 11
55.568181690689102
 21
45.948047172189476
  0
LINE
  8
_0-2______1
  6
CONTINUOUS
 62
    7
 10
55.568181690689102
 20
45.948047172189476
 11
54.708178370591611
 21
45.92652083755938
  0
LINE
  8
_0-2______1
  6
CONTINUOUS
 62
    7
 10
54.708178370591611
 20
45.92652083755938
 11
53.030524356254006
 21
45.92652083755938
  0
LINE
  8
_0-2______1
  6
CONTINUOUS
 62
    7
 10
53.030524356254006
 20
45.92652083755938
 11
52.191872359936013
 21
45.883468168299373
  0
LINE
  8
_0-2______1
  6
CONTINUOUS
 62
    7
 10
52.191872359936013
 20
45.883468168299373
 11
51.353220363617822
 21
45.819064175259882
  0
LINE
  8
_0-2______1
  6
CONTINUOUS
 62
    7
 10
51.353220363617822
 20
45.819064175259882
 11
50.535919691079101
 21
45.75448517136978
  0
LINE
  8
_0-2______1
  6
CONTINUOUS
 62
    7
 10
50.535919691079101
 20
45.75448517136978
 11
49.761671687800401
 21
45.689906167479677
  0
LINE
  8
_0-2______1
  6
CONTINUOUS
 62
    7
 10
49.761671687800401
 20
45.689906167479677
 11
48.987773706223123
 21
45.625502174440172
  0
LINE
  8
_0-2______1
  6
CONTINUOUS
 62
    7
 10
48.987773706223123
 20
45.625502174440172
 11
48.277929695983914
 21
45.539396835920073
  0
LINE
  8
_0-2______1
  6
CONTINUOUS
 62
    7
 10
48.277929695983914
 20
45.539396835920073
 11
47.546734361965321
 21
45.431940173620575
  0
LINE
  8
_0-2______1
  6
CONTINUOUS
 62
    7
 10
47.546734361965321
 20
45.431940173620575
 11
46.858591697206805
 21
45.367361169730472
  0
LINE
  8
_0-2______1
  6
CONTINUOUS
 62
    7
 10
46.858591697206805
 20
45.367361169730472
 11
46.149097708668904
 21
45.238378172800878
  0
LINE
  8
_0-2______1
  6
CONTINUOUS
 62
    7
 10
46.149097708668904
 20
45.238378172800878
 11
45.568411706209929
 21
45.109395175871285
  0
LINE
  8
_0-2______1
  6
CONTINUOUS
 62
    7
 10
45.568411706209929
 20
45.109395175871285
 11
44.966024358270204
 21
44.98023716809108
  0
LINE
  8
_0-2______1
  6
CONTINUOUS
 62
    7
 10
44.966024358270204
 20
44.98023716809108
 11
44.407039701291922
 21
44.851254171161571
  0
LINE
  8
_0-2______1
  6
CONTINUOUS
 62
    7
 10
44.407039701291922
 20
44.851254171161571
 11
43.933810361132402
 21
44.722271174231977
  0
LINE
  8
_0-2______1
  6
CONTINUOUS
 62
    7
 10
43.933810361132402
 20
44.722271174231977
 11
43.439229697193525
 21
44.593113166451772
  0
LINE
  8
_0-2______1
  6
CONTINUOUS
 62
    7
 10
43.439229697193525
 20
44.593113166451772
 11
43.030754371774805
 21
44.399726176482773
  0
LINE
  8
_0-2______1
  6
CONTINUOUS
 62
    7
 10
43.030754371774805
 20
44.399726176482773
 11
42.643630370135526
 21
44.270568168702582
  0
LINE
  8
_0-2______1
  6
CONTINUOUS
 62
    7
 10
42.643630370135526
 20
44.270568168702582
 11
42.342611707016317
 21
44.120058837142977
  0
LINE
  8
_0-2______1
  6
CONTINUOUS
 62
    7
 10
42.342611707016317
 20
44.120058837142977
 11
42.019891698416501
 21
43.948023170953377
  0
LINE
  8
_0-2______1
  6
CONTINUOUS
 62
    7
 10
42.019891698416501
 20
43.948023170953377
 11
41.826329697596805
 21
43.754461170133681
  0
LINE
  8
_0-2______1
  6
CONTINUOUS
 62
    7
 10
41.826329697596805
 20
43.754461170133681
 11
41.632767696777108
 21
43.603951838574076
  0
LINE
  8
_0-2______1
  6
CONTINUOUS
 62
    7
 10
41.632767696777108
 20
43.603951838574076
 11
41.503959710698211
 21
43.474968841644582
  0
LINE
  8
_0-2______1
  6
CONTINUOUS
 62
    7
 10
41.503959710698211
 20
43.474968841644582
 11
41.439205695957526
 21
43.302933175454882
  0
LINE
  8
_0-2______1
  6
CONTINUOUS
 62
    7
 10
41.439205695957526
 20
43.302933175454882
 11
41.374801702918006
 21
43.109371174635271
  0
LINE
  8
_0-2______1
  6
CONTINUOUS
 62
    7
 10
54.643424355850811
 20
40.270695177080981
 11
55.482426373870311
 21
40.249168842450985
  0
LINE
  8
_0-2______1
  6
CONTINUOUS
 62
    7
 10
55.482426373870311
 20
40.249168842450985
 11
56.342429693967802
 21
40.270695177080981
  0
LINE
  8
_0-2______1
  6
CONTINUOUS
 62
    7
 10
59.804844363241102
 20
45.819064175259882
 11
58.148891694384218
 21
45.92652083755938
  0
LINE
  8
_0-2______1
  6
CONTINUOUS
 62
    7
 10
43.761949705793427
 20
41.539523844298472
 11
36.987629698806415
 21
42.27071917831708
  0
LINE
  8
_0-2______1
  6
CONTINUOUS
 62
    7
 10
36.987629698806415
 20
42.27071917831708
 11
36.987629698806415
 21
62.464171169796572
  0
LINE
  8
_0-2______1
  6
CONTINUOUS
 62
    7
 10
54.385458361991709
 20
67.689995170226169
 11
53.503753696413526
 21
67.62541616633608
  0
LINE
  8
_0-2______1
  6
CONTINUOUS
 62
    7
 10
53.503753696413526
 20
67.62541616633608
 11
52.643400354614727
 21
67.62541616633608
  0
LINE
  8
_0-2______1
  6
CONTINUOUS
 62
    7
 10
52.643400354614727
 20
67.62541616633608
 11
51.804748358296621
 21
67.60388983170607
  0
LINE
  8
_0-2______1
  6
CONTINUOUS
 62
    7
 10
51.804748358296621
 20
67.60388983170607
 11
50.923043692718409
 21
67.496433169406473
  0
LINE
  8
_0-2______1
  6
CONTINUOUS
 62
    7
 10
50.923043692718409
 20
67.496433169406473
 11
50.127444365660409
 21
67.47490683477649
  0
LINE
  8
_0-2______1
  6
CONTINUOUS
 62
    7
 10
50.127444365660409
 20
67.47490683477649
 11
49.353196362381823
 21
67.367275161626267
  0
LINE
  8
_0-2______1
  6
CONTINUOUS
 62
    7
 10
49.353196362381823
 20
67.367275161626267
 11
48.578948359103123
 21
67.30287116858689
  0
LINE
  8
_0-2______1
  6
CONTINUOUS
 62
    7
 10
48.578948359103123
 20
67.30287116858689
 11
47.804700355824423
 21
67.216765830066677
  0
LINE
  8
_0-2______1
  6
CONTINUOUS
 62
    7
 10
47.804700355824423
 20
67.216765830066677
 11
47.116557691065907
 21
67.109309167767165
  0
LINE
  8
_0-2______1
  6
CONTINUOUS
 62
    7
 10
47.116557691065907
 20
67.109309167767165
 11
46.407063702528006
 21
66.980326170837671
  0
LINE
  8
_0-2______1
  6
CONTINUOUS
 62
    7
 10
46.407063702528006
 20
66.980326170837671
 11
45.761973707029512
 21
66.915747166947583
  0
LINE
  8
_0-2______1
  6
CONTINUOUS
 62
    7
 10
45.761973707029512
 20
66.915747166947583
 11
45.116533689829822
 21
66.786764170017975
  0
LINE
  8
_0-2______1
  6
CONTINUOUS
 62
    7
 10
45.116533689829822
 20
66.786764170017975
 11
44.578900356630925
 21
66.593202169198278
  0
LINE
  8
_0-2______1
  6
CONTINUOUS
 62
    7
 10
44.578900356630925
 20
66.593202169198278
 11
44.019915699652529
 21
66.464219172268784
  0
LINE
  8
_0-2______1
  6
CONTINUOUS
 62
    7
 10
44.019915699652529
 20
66.464219172268784
 11
43.546686359493123
 21
66.335061164488465
  0
LINE
  8
_0-2______1
  6
CONTINUOUS
 62
    7
 10
43.546686359493123
 20
66.335061164488465
 11
43.116859710295017
 21
66.184551832928875
  0
LINE
  8
_0-2______1
  6
CONTINUOUS
 62
    7
 10
43.116859710295017
 20
66.184551832928875
 11
42.72973570865571
 21
66.055568835999381
  0
LINE
  8
_0-2______1
  6
CONTINUOUS
 62
    7
 10
42.72973570865571
 20
66.055568835999381
 11
42.385664376276424
 21
65.883533169809667
  0
LINE
  8
_0-2______1
  6
CONTINUOUS
 62
    7
 10
42.385664376276424
 20
65.883533169809667
 11
42.084295691455907
 21
65.689971168990084
  0
LINE
  8
_0-2______1
  6
CONTINUOUS
 62
    7
 10
42.084295691455907
 20
65.689971168990084
 11
41.826329697596805
 21
65.53946183743048
  0
LINE
  8
_0-2______1
  6
CONTINUOUS
 62
    7
 10
41.826329697596805
 20
65.53946183743048
 11
41.632767696777108
 21
65.367426171240879
  0
LINE
  8
_0-2______1
  6
CONTINUOUS
 62
    7
 10
41.632767696777108
 20
65.367426171240879
 11
41.503959710698211
 21
65.173864170421183
  0
LINE
  8
_0-2______1
  6
CONTINUOUS
 62
    7
 10
41.503959710698211
 20
65.173864170421183
 11
41.439205695957526
 21
65.023354838861579
  0
LINE
  8
_0-2______1
  6
CONTINUOUS
 62
    7
 10
41.439205695957526
 20
65.023354838861579
 11
41.374801702918006
 21
64.851319172671978
  0
LINE
  8
_0-2______1
  6
CONTINUOUS
 62
    7
 10
65.030668363670713
 20
44.786675167271483
 11
63.826243689492628
 21
45.044816171981182
  0
LINE
  8
_0-2______1
  6
CONTINUOUS
 62
    7
 10
63.826243689492628
 20
45.044816171981182
 11
63.159802370214805
 21
45.173799168910776
  0
LINE
  8
_0-2______1
  6
CONTINUOUS
 62
    7
 10
63.159802370214805
 20
45.173799168910776
 11
62.449958359975625
 21
45.281430842060985
  0
LINE
  8
_0-2______1
  6
CONTINUOUS
 62
    7
 10
62.449958359975625
 20
45.281430842060985
 11
61.740114349736416
 21
45.367361169730472
  0
LINE
  8
_0-2______1
  6
CONTINUOUS
 62
    7
 10
61.740114349736416
 20
45.367361169730472
 11
60.966216368159024
 21
45.410413838990479
  0
LINE
  8
_0-2______1
  6
CONTINUOUS
 62
    7
 10
60.966216368159024
 20
45.410413838990479
 11
60.19196836488041
 21
45.496519177510677
  0
LINE
  8
_0-2______1
  6
CONTINUOUS
 62
    7
 10
60.19196836488041
 20
45.496519177510677
 11
59.353316368562304
 21
45.539396835920073
  0
LINE
  8
_0-2______1
  6
CONTINUOUS
 62
    7
 10
59.353316368562304
 20
45.539396835920073
 11
58.536015696023526
 21
45.560923170550083
  0
LINE
  8
_0-2______1
  6
CONTINUOUS
 62
    7
 10
58.536015696023526
 20
45.560923170550083
 11
57.675662354224727
 21
45.625502174440172
  0
LINE
  8
_0-2______1
  6
CONTINUOUS
 62
    7
 10
57.675662354224727
 20
45.625502174440172
 11
56.858711703387314
 21
45.668379832849681
  0
LINE
  8
_0-2______1
  6
CONTINUOUS
 62
    7
 10
41.761925704557427
 20
42.464281179136776
 11
41.998540374637116
 21
42.313596836726575
  0
LINE
  8
_0-2______1
  6
CONTINUOUS
 62
    7
 10
41.998540374637116
 20
42.313596836726575
 11
42.256506368496218
 21
42.141561170536875
  0
LINE
  8
_0-2______1
  6
CONTINUOUS
 62
    7
 10
42.256506368496218
 20
42.141561170536875
 11
42.600577700875419
 21
41.947999169717278
  0
LINE
  8
_0-2______1
  6
CONTINUOUS
 62
    7
 10
42.600577700875419
 20
41.947999169717278
 11
42.923297709475321
 21
41.797489838157674
  0
LINE
  8
_0-2______1
  6
CONTINUOUS
 62
    7
 10
42.923297709475321
 20
41.797489838157674
 11
43.374825704154119
 21
41.66850684122808
  0
LINE
  8
_0-2______1
  6
CONTINUOUS
 62
    7
 10
43.374825704154119
 20
41.66850684122808
 11
43.805002375053505
 21
41.539523844298472
  0
LINE
  8
_0-2______1
  6
CONTINUOUS
 62
    7
 10
43.805002375053505
 20
41.539523844298472
 11
44.320934362771709
 21
41.367313167258274
  0
LINE
  8
_0-2______1
  6
CONTINUOUS
 62
    7
 10
44.320934362771709
 20
41.367313167258274
 11
44.85856769597072
 21
41.23833017032868
  0
LINE
  8
_0-2______1
  6
CONTINUOUS
 62
    7
 10
44.85856769597072
 20
41.23833017032868
 11
45.439253698429724
 21
41.109347173399172
  0
LINE
  8
_0-2______1
  6
CONTINUOUS
 62
    7
 10
45.439253698429724
 20
41.109347173399172
 11
46.084343693928105
 21
41.023241834878974
  0
LINE
  8
_0-2______1
  6
CONTINUOUS
 62
    7
 10
46.084343693928105
 20
41.023241834878974
 11
46.729433689426514
 21
40.894258837949479
  0
LINE
  8
_0-2______1
  6
CONTINUOUS
 62
    7
 10
46.729433689426514
 20
40.894258837949479
 11
47.417926375886424
 21
40.786802175649882
  0
LINE
  8
_0-2______1
  6
CONTINUOUS
 62
    7
 10
47.417926375886424
 20
40.786802175649882
 11
48.084367695164303
 21
40.657819178720374
  0
LINE
  8
_0-2______1
  6
CONTINUOUS
 62
    7
 10
48.084367695164303
 20
40.657819178720374
 11
48.858615698442918
 21
40.593240174830285
  0
LINE
  8
_0-2______1
  6
CONTINUOUS
 62
    7
 10
48.858615698442918
 20
40.593240174830285
 11
49.632863701721504
 21
40.507134836310073
  0
LINE
  8
_0-2______1
  6
CONTINUOUS
 62
    7
 10
49.632863701721504
 20
40.507134836310073
 11
50.407111705000204
 21
40.464257177900677
  0
LINE
  8
_0-2______1
  6
CONTINUOUS
 62
    7
 10
50.407111705000204
 20
40.464257177900677
 11
51.224062355837617
 21
40.399678174010575
  0
LINE
  8
_0-2______1
  6
CONTINUOUS
 62
    7
 10
51.224062355837617
 20
40.399678174010575
 11
52.063064373857003
 21
40.335099170120472
  0
LINE
  8
_0-2______1
  6
CONTINUOUS
 62
    7
 10
52.063064373857003
 20
40.335099170120472
 11
52.901716370175222
 21
40.335099170120472
  0
LINE
  8
_0-2______1
  6
CONTINUOUS
 62
    7
 10
52.901716370175222
 20
40.335099170120472
 11
53.761719690272628
 21
40.270695177080981
  0
LINE
  8
_0-2______1
  6
CONTINUOUS
 62
    7
 10
41.482258365217518
 20
42.786826176885981
 11
41.611416372997724
 21
42.657668169105776
  0
LINE
  8
_0-2______1
  6
CONTINUOUS
 62
    7
 10
41.611416372997724
 20
42.657668169105776
 11
41.826329697596805
 21
42.44275484450678
  0
LINE
  8
_0-2______1
  6
CONTINUOUS
 62
    7
 10
41.826329697596805
 20
42.44275484450678
 11
42.019891698416501
 21
42.27071917831708
  0
LINE
  8
_0-2______1
  6
CONTINUOUS
 62
    7
 10
42.019891698416501
 20
42.27071917831708
 11
42.342611707016317
 21
42.077157177497483
  0
LINE
  8
_0-2______1
  6
CONTINUOUS
 62
    7
 10
42.342611707016317
 20
42.077157177497483
 11
42.643630370135526
 21
41.926647845937879
  0
LINE
  8
_0-2______1
  6
CONTINUOUS
 62
    7
 10
42.643630370135526
 20
41.926647845937879
 11
43.030754371774805
 21
41.797489838157674
  0
LINE
  8
_0-2______1
  6
CONTINUOUS
 62
    7
 10
43.030754371774805
 20
41.797489838157674
 11
43.439229697193525
 21
41.625454171967974
  0
LINE
  8
_0-2______1
  6
CONTINUOUS
 62
    7
 10
43.439229697193525
 20
41.625454171967974
 11
43.933810361132402
 21
41.496471175038479
  0
LINE
  8
_0-2______1
  6
CONTINUOUS
 62
    7
 10
43.933810361132402
 20
41.496471175038479
 11
44.407039701291922
 21
41.367488178108871
  0
LINE
  8
_0-2______1
  6
CONTINUOUS
 62
    7
 10
44.407039701291922
 20
41.367488178108871
 11
44.966024358270204
 21
41.23833017032868
  0
LINE
  8
_0-2______1
  6
CONTINUOUS
 62
    7
 10
44.966024358270204
 20
41.23833017032868
 11
45.568411706209929
 21
41.109347173399172
  0
LINE
  8
_0-2______1
  6
CONTINUOUS
 62
    7
 10
45.568411706209929
 20
41.109347173399172
 11
46.149097708668904
 21
40.980364176469578
  0
LINE
  8
_0-2______1
  6
CONTINUOUS
 62
    7
 10
46.149097708668904
 20
40.980364176469578
 11
46.858591697206805
 21
40.851381179539985
  0
LINE
  8
_0-2______1
  6
CONTINUOUS
 62
    7
 10
46.858591697206805
 20
40.851381179539985
 11
47.546734361965321
 21
40.765275841019871
  0
LINE
  8
_0-2______1
  6
CONTINUOUS
 62
    7
 10
47.546734361965321
 20
40.765275841019871
 11
48.277929695983914
 21
40.657819178720374
  0
LINE
  8
_0-2______1
  6
CONTINUOUS
 62
    7
 10
48.277929695983914
 20
40.657819178720374
 11
48.987773706223123
 21
40.593240174830285
  0
LINE
  8
_0-2______1
  6
CONTINUOUS
 62
    7
 10
48.987773706223123
 20
40.593240174830285
 11
49.761671687800401
 21
40.507134836310073
  0
LINE
  8
_0-2______1
  6
CONTINUOUS
 62
    7
 10
49.761671687800401
 20
40.507134836310073
 11
50.535919691079101
 21
40.464257177900677
  0
LINE
  8
_0-2______1
  6
CONTINUOUS
 62
    7
 10
50.535919691079101
 20
40.464257177900677
 11
51.353220363617822
 21
40.378151839380578
  0
LINE
  8
_0-2______1
  6
CONTINUOUS
 62
    7
 10
51.353220363617822
 20
40.378151839380578
 11
52.191872359936013
 21
40.335099170120472
  0
LINE
  8
_0-2______1
  6
CONTINUOUS
 62
    7
 10
52.191872359936013
 20
40.335099170120472
 11
53.030524356254006
 21
40.270695177080981
  0
LINE
  8
_0-2______1
  6
CONTINUOUS
 62
    7
 10
68.342573701384424
 20
43.109371174635271
 11
68.320872355903703
 21
43.302933175454882
  0
LINE
  8
_0-2______1
  6
CONTINUOUS
 62
    7
 10
68.320872355903703
 20
43.302933175454882
 11
68.213415693604219
 21
43.474968841644582
  0
LINE
  8
_0-2______1
  6
CONTINUOUS
 62
    7
 10
68.213415693604219
 20
43.474968841644582
 11
68.084257685824014
 21
43.603951838574076
  0
LINE
  8
_0-2______1
  6
CONTINUOUS
 62
    7
 10
68.084257685824014
 20
43.603951838574076
 11
67.869344361224904
 21
43.754461170133681
  0
LINE
  8
_0-2______1
  6
CONTINUOUS
 62
    7
 10
67.869344361224904
 20
43.754461170133681
 11
67.675782360405321
 21
43.948023170953377
  0
LINE
  8
_0-2______1
  6
CONTINUOUS
 62
    7
 10
67.675782360405321
 20
43.948023170953377
 11
67.310359704246622
 21
44.120058837142977
  0
LINE
  8
_0-2______1
  6
CONTINUOUS
 62
    7
 10
67.310359704246622
 20
44.120058837142977
 11
66.965938350166113
 21
44.249041834072472
  0
LINE
  8
_0-2______1
  6
CONTINUOUS
 62
    7
 10
66.965938350166113
 20
44.249041834072472
 11
66.536111700968007
 21
44.399726176482773
  0
LINE
  8
_0-2______1
  6
CONTINUOUS
 62
    7
 10
66.536111700968007
 20
44.399726176482773
 11
66.127286353848007
 21
44.528709173412381
  0
LINE
  8
_0-2______1
  6
CONTINUOUS
 62
    7
 10
66.127286353848007
 20
44.528709173412381
 11
65.611354366129717
 21
44.657692170341875
  0
LINE
  8
_0-2______1
  6
CONTINUOUS
 62
    7
 10
65.611354366129717
 20
44.657692170341875
 11
65.030668363670713
 21
44.786675167271483
  0
LINE
  8
_0-2______1
  6
CONTINUOUS
 62
    7
 10
69.761911700161505
 20
43.109371174635271
 11
69.718859030901427
 21
43.302933175454882
  0
LINE
  8
_0-2______1
  6
CONTINUOUS
 62
    7
 10
69.718859030901427
 20
43.302933175454882
 11
69.675806361641406
 21
43.474968841644582
  0
LINE
  8
_0-2______1
  6
CONTINUOUS
 62
    7
 10
69.675806361641406
 20
43.474968841644582
 11
69.546648353861201
 21
43.603951838574076
  0
LINE
  8
_0-2______1
  6
CONTINUOUS
 62
    7
 10
69.546648353861201
 20
43.603951838574076
 11
69.33173502926212
 21
43.754461170133681
  0
LINE
  8
_0-2______1
  6
CONTINUOUS
 62
    7
 10
69.33173502926212
 20
43.754461170133681
 11
69.116471682961702
 21
43.948023170953377
  0
LINE
  8
_0-2______1
  6
CONTINUOUS
 62
    7
 10
69.116471682961702
 20
43.948023170953377
 11
68.858505689102628
 21
44.120058837142977
  0
LINE
  8
_0-2______1
  6
CONTINUOUS
 62
    7
 10
68.858505689102628
 20
44.120058837142977
 11
68.514434356723427
 21
44.270568168702582
  0
LINE
  8
_0-2______1
  6
CONTINUOUS
 62
    7
 10
68.514434356723427
 20
44.270568168702582
 11
68.127310355084006
 21
44.399726176482773
  0
LINE
  8
_0-2______1
  6
CONTINUOUS
 62
    7
 10
68.127310355084006
 20
44.399726176482773
 11
67.697133684184706
 21
44.593113166451772
  0
LINE
  8
_0-2______1
  6
CONTINUOUS
 62
    7
 10
67.697133684184706
 20
44.593113166451772
 11
67.288658358765929
 21
44.722271174231977
  0
LINE
  8
_0-2______1
  6
CONTINUOUS
 62
    7
 10
67.288658358765929
 20
44.722271174231977
 11
66.772726371047725
 21
44.851254171161571
  0
LINE
  8
_0-2______1
  6
CONTINUOUS
 62
    7
 10
66.772726371047725
 20
44.851254171161571
 11
66.192040368588721
 21
44.98023716809108
  0
LINE
  8
_0-2______1
  6
CONTINUOUS
 62
    7
 10
66.192040368588721
 20
44.98023716809108
 11
65.611354366129717
 21
45.109395175871285
  0
LINE
  8
_0-2______1
  6
CONTINUOUS
 62
    7
 10
65.611354366129717
 20
45.109395175871285
 11
64.987615694410607
 21
45.238378172800878
  0
LINE
  8
_0-2______1
  6
CONTINUOUS
 62
    7
 10
64.987615694410607
 20
45.238378172800878
 11
64.342525698912226
 21
45.367361169730472
  0
LINE
  8
_0-2______1
  6
CONTINUOUS
 62
    7
 10
64.342525698912226
 20
45.367361169730472
 11
63.67573435793301
 21
45.431940173620575
  0
LINE
  8
_0-2______1
  6
CONTINUOUS
 62
    7
 10
63.67573435793301
 20
45.431940173620575
 11
62.923187700135003
 21
45.539396835920073
  0
LINE
  8
_0-2______1
  6
CONTINUOUS
 62
    7
 10
62.923187700135003
 20
45.539396835920073
 11
62.148939696856417
 21
45.625502174440172
  0
LINE
  8
_0-2______1
  6
CONTINUOUS
 62
    7
 10
62.148939696856417
 20
45.625502174440172
 11
61.374691693577802
 21
45.689906167479677
  0
LINE
  8
_0-2______1
  6
CONTINUOUS
 62
    7
 10
61.374691693577802
 20
45.689906167479677
 11
60.600443690299102
 21
45.75448517136978
  0
LINE
  8
_0-2______1
  6
CONTINUOUS
 62
    7
 10
60.600443690299102
 20
45.75448517136978
 11
59.804844363241102
 21
45.819064175259882
  0
LINE
  8
_0-2______1
  6
CONTINUOUS
 62
    7
 10
69.761911700161505
 20
64.851319172671978
 11
69.718859030901427
 21
65.023354838861579
  0
LINE
  8
_0-2______1
  6
CONTINUOUS
 62
    7
 10
69.718859030901427
 20
65.023354838861579
 11
69.632753692381328
 21
65.173864170421183
  0
LINE
  8
_0-2______1
  6
CONTINUOUS
 62
    7
 10
69.632753692381328
 20
65.173864170421183
 11
69.503595684601123
 21
65.367426171240879
  0
LINE
  8
_0-2______1
  6
CONTINUOUS
 62
    7
 10
69.503595684601123
 20
65.367426171240879
 11
69.33173502926212
 21
65.53946183743048
  0
LINE
  8
_0-2______1
  6
CONTINUOUS
 62
    7
 10
69.33173502926212
 20
65.53946183743048
 11
69.073769035403018
 21
65.689971168990084
  0
LINE
  8
_0-2______1
  6
CONTINUOUS
 62
    7
 10
69.073769035403018
 20
65.689971168990084
 11
68.815453019842607
 21
65.883533169809667
  0
LINE
  8
_0-2______1
  6
CONTINUOUS
 62
    7
 10
68.815453019842607
 20
65.883533169809667
 11
68.471381687463321
 21
66.055568835999381
  0
LINE
  8
_0-2______1
  6
CONTINUOUS
 62
    7
 10
68.471381687463321
 20
66.055568835999381
 11
68.062906362044629
 21
66.184551832928875
  0
LINE
  8
_0-2______1
  6
CONTINUOUS
 62
    7
 10
68.062906362044629
 20
66.184551832928875
 11
67.611378367365802
 21
66.335061164488465
  0
LINE
  8
_0-2______1
  6
CONTINUOUS
 62
    7
 10
67.611378367365802
 20
66.335061164488465
 11
67.159500350985724
 21
66.464219172268784
  0
LINE
  8
_0-2______1
  6
CONTINUOUS
 62
    7
 10
67.159500350985724
 20
66.464219172268784
 11
66.579164370228028
 21
66.593202169198278
  0
LINE
  8
_0-2______1
  6
CONTINUOUS
 62
    7
 10
66.579164370228028
 20
66.593202169198278
 11
66.019829691548409
 21
66.786764170017975
  0
LINE
  8
_0-2______1
  6
CONTINUOUS
 62
    7
 10
66.019829691548409
 20
66.786764170017975
 11
65.417792365310021
 21
66.915747166947583
  0
LINE
  8
_0-2______1
  6
CONTINUOUS
 62
    7
 10
65.417792365310021
 20
66.915747166947583
 11
64.772702369811526
 21
66.980326170837671
  0
LINE
  8
_0-2______1
  6
CONTINUOUS
 62
    7
 10
64.772702369811526
 20
66.980326170837671
 11
64.084559705053124
 21
67.109309167767165
  0
LINE
  8
_0-2______1
  6
CONTINUOUS
 62
    7
 10
64.084559705053124
 20
67.109309167767165
 11
63.353364371034502
 21
67.216765830066677
  0
LINE
  8
_0-2______1
  6
CONTINUOUS
 62
    7
 10
63.353364371034502
 20
67.216765830066677
 11
62.643520360795208
 21
67.30287116858689
  0
LINE
  8
_0-2______1
  6
CONTINUOUS
 62
    7
 10
62.643520360795208
 20
67.30287116858689
 11
61.869272357516621
 21
67.367275161626267
  0
LINE
  8
_0-2______1
  6
CONTINUOUS
 62
    7
 10
61.869272357516621
 20
67.367275161626267
 11
61.030620361198515
 21
67.47490683477649
  0
LINE
  8
_0-2______1
  6
CONTINUOUS
 62
    7
 10
61.030620361198515
 20
67.47490683477649
 11
60.213319688659823
 21
67.496433169406473
  0
LINE
  8
_0-2______1
  6
CONTINUOUS
 62
    7
 10
60.213319688659823
 20
67.496433169406473
 11
59.353316368562304
 21
67.60388983170607
  0
LINE
  8
_0-2______1
  6
CONTINUOUS
 62
    7
 10
59.353316368562304
 20
67.60388983170607
 11
58.536015696023526
 21
67.62541616633608
  0
LINE
  8
_0-2______1
  6
CONTINUOUS
 62
    7
 10
58.536015696023526
 20
67.62541616633608
 11
57.675662354224727
 21
67.62541616633608
  0
LINE
  8
_0-2______1
  6
CONTINUOUS
 62
    7
 10
57.675662354224727
 20
67.62541616633608
 11
56.772606364867215
 21
67.689995170226169
  0
LINE
  8
_0-2______1
  6
CONTINUOUS
 62
    7
 10
56.772606364867215
 20
67.689995170226169
 11
54.385458361991709
 21
67.689995170226169
  0
LINE
  8
_0-2______1
  6
CONTINUOUS
 62
    7
 10
43.288720365633907
 20
43.754461170133681
 11
43.546686359493123
 21
43.603951838574076
  0
LINE
  8
_0-2______1
  6
CONTINUOUS
 62
    7
 10
43.546686359493123
 20
43.603951838574076
 11
43.826353698832918
 21
43.474968841644582
  0
LINE
  8
_0-2______1
  6
CONTINUOUS
 62
    7
 10
43.826353698832918
 20
43.474968841644582
 11
44.213477700472225
 21
43.302933175454882
  0
LINE
  8
_0-2______1
  6
CONTINUOUS
 62
    7
 10
44.213477700472225
 20
43.302933175454882
 11
44.665005695151024
 21
43.109371174635271
  0
LINE
  8
_0-2______1
  6
CONTINUOUS
 62
    7
 10
44.665005695151024
 20
43.109371174635271
 11
45.116533689829822
 21
42.98021316685498
  0
LINE
  8
_0-2______1
  6
CONTINUOUS
 62
    7
 10
45.116533689829822
 20
42.98021316685498
 11
45.632815699249306
 21
42.851230169925472
  0
LINE
  8
_0-2______1
  6
CONTINUOUS
 62
    7
 10
45.632815699249306
 20
42.851230169925472
 11
46.256554370968416
 21
42.722247172995878
  0
LINE
  8
_0-2______1
  6
CONTINUOUS
 62
    7
 10
46.256554370968416
 20
42.722247172995878
 11
46.858591697206805
 21
42.593264176066384
  0
LINE
  8
_0-2______1
  6
CONTINUOUS
 62
    7
 10
46.858591697206805
 20
42.593264176066384
 11
47.503681692705328
 21
42.464106168286079
  0
LINE
  8
_0-2______1
  6
CONTINUOUS
 62
    7
 10
47.503681692705328
 20
42.464106168286079
 11
48.191824357463702
 21
42.335123171356571
  0
LINE
  8
_0-2______1
  6
CONTINUOUS
 62
    7
 10
48.191824357463702
 20
42.335123171356571
 11
48.923019691482324
 21
42.27071917831708
  0
LINE
  8
_0-2______1
  6
CONTINUOUS
 62
    7
 10
48.923019691482324
 20
42.27071917831708
 11
49.697267694761024
 21
42.184613839796981
  0
LINE
  8
_0-2______1
  6
CONTINUOUS
 62
    7
 10
49.697267694761024
 20
42.184613839796981
 11
50.450164374260311
 21
42.141561170536875
  0
LINE
  8
_0-2______1
  6
CONTINUOUS
 62
    7
 10
50.450164374260311
 20
42.141561170536875
 11
51.288816370578417
 21
42.055630842867373
  0
LINE
  8
_0-2______1
  6
CONTINUOUS
 62
    7
 10
51.288816370578417
 20
42.055630842867373
 11
52.127468366896522
 21
42.01257817360738
  0
LINE
  8
_0-2______1
  6
CONTINUOUS
 62
    7
 10
52.127468366896522
 20
42.01257817360738
 11
52.966120363214628
 21
41.947999169717278
  0
LINE
  8
_0-2______1
  6
CONTINUOUS
 62
    7
 10
52.966120363214628
 20
41.947999169717278
 11
53.869526374273505
 21
41.926472835087182
  0
ENDSEC
  0
EOF
