  0
SECTION
  2
HEADER
  9
$ACADVER
  1
AC1009
  9
$INSBASE
 10
0
 20
0
 30
0
  9
$EXTMIN
 10
0
 20
0
  9
$EXTMAX
 10
148.5
 20
105
  9
$LIMMIN
 10
0
 20
0
  9
$LIMMAX
 10
148.5
 20
105
  9
$LTSCALE
 40
0.5
  0
ENDSEC
  0
SECTION
  2
TABLES
  0
TABLE
  2
LTYPE
 70
     9
  0
LTYPE
  2
CONTINUOUS
 70
    64
  3
実線
 72
    65
 73
     0
 40
0.0
  0
LTYPE
  2
DASHED1
 70
    64
  3
--  --  --  --  --  --  --  --  
 72
    65
 73
     2
 40
2.5
 49
1.25
 49
-1.25
  0
LTYPE
  2
DASHED2
 70
    64
  3
----    ----    ----    ----    
 72
    65
 73
     2
 40
5.0
 49
2.5
 49
-2.5
  0
LTYPE
  2
DASHED3
 70
    64
  3
------  ------  ------  ------  
 72
    65
 73
     2
 40
5.0
 49
3.75
 49
-1.25
  0
LTYPE
  2
CENTER1
 70
    64
  3
----- - ----- - ----- - ----- - 
 72
    65
 73
     4
 40
10.0
 49
6.25
 49
-1.25
 49
1.25
 49
-1.25
  0
LTYPE
  2
CENTER2
 70
    64
  3
----------  --  ----------  --  
 72
    65
 73
     4
 40
20.0
 49
12.5
 49
-2.5
 49
2.5
 49
-2.5
  0
LTYPE
  2
PHANTOM1
 70
    64
  3
--- - - --- - - --- - - --- - - 
 72
    65
 73
     6
 40
10.0
 49
3.25
 49
-1.25
 49
1.25
 49
-1.25
 49
1.25
 49
-1.25
  0
LTYPE
  2
PHANTOM2
 70
    64
  3
--------  -  -  --------  -  -  
 72
    65
 73
     6
 40
20.0
 49
10.0
 49
-2.5
 49
1.25
 49
-2.5
 49
1.25
 49
-2.5
  0
LTYPE
  2
DOT
 70
    64
  3
-   -   -   -   -   -   -   -   
 72
    65
 73
     2
 40
2.5
 49
0.625
 49
-1.875
  0
LTYPE
  2
DUMMY
 70
    64
  3
ダミー
 72
    65
 73
     0
 40
0.0
  0
LTYPE
  2
RAND1
 70
    64
  3
ランダム線1
 72
    65
 73
     4
 40
10.0
 49
1.0
 49
-2.0
 49
3.0
 49
-4.0
  0
LTYPE
  2
RAND2
 70
    64
  3
ランダム線2
 72
    65
 73
     4
 40
14.0
 49
2.0
 49
-3.0
 49
4.0
 49
-5.0
  0
LTYPE
  2
RAND3
 70
    64
  3
ランダム線3
 72
    65
 73
     4
 40
18.0
 49
3.0
 49
-4.0
 49
5.0
 49
-6.0
  0
LTYPE
  2
RAND4
 70
    64
  3
ランダム線4
 72
    65
 73
     4
 40
22.0
 49
4.0
 49
-5.0
 49
6.0
 49
-7.0
  0
LTYPE
  2
RAND5
 70
    64
  3
ランダム線5
 72
    65
 73
     4
 40
26.0
 49
5.0
 49
-6.0
 49
7.0
 49
-8.0
  0
LTYPE
  2
LONG1
 70
    64
  3
----------  --  ----------  --  
 72
    65
 73
     4
 40
40.0
 49
32.5
 49
-2.5
 49
2.5
 49
-2.5
  0
LTYPE
  2
LONG2
 70
    64
  3
--------  -  -  --------  -  -  
 72
    65
 73
     6
 40
40.0
 49
30.0
 49
-2.5
 49
1.25
 49
-2.5
 49
1.25
 49
-2.5
  0
LTYPE
  2
LONG3
 70
    64
  3
+++++++++++++++..+++++++++++++++
 72
    65
 73
     2
 40
40.0
 49
37.5
 49
-2.5
  0
LTYPE
  2
LONG4
 70
    64
  3
+++++++++++++++..+++++++++++++++
 72
    65
 73
     2
 40
80.0
 49
75.0
 49
-5.0
  0
LTYPE
  2
LONG5
 70
    64
  3
----------  --  ----------  --  
 72
    65
 73
     4
 40
60.0
 49
37.5
 49
-7.5
 49
7.5
 49
-7.5
  0
LTYPE
  2
dashed
 70
   64
  3
-------   -------------   ------
 72
   65
 73
    2
 40
7.5
 49
6
 49
-1.5
  0
LTYPE
  2
dashed_spaced
 70
   64
  3
----        --------        ----
 72
   65
 73
    2
 40
12
 49
6
 49
-6
  0
LTYPE
  2
long_dashed_dotted
 70
   64
  3
------------- --- --------------
 72
   65
 73
    4
 40
15.25
 49
12
 49
-1.5
 49
0.25
 49
-1.5
  0
LTYPE
  2
long_dashed_double-dotted
 70
   64
  3
----------- --- --- ------------
 72
   65
 73
    6
 40
17
 49
12
 49
-1.5
 49
0.25
 49
-1.5
 49
0.25
 49
-1.5
  0
LTYPE
  2
long_dashed_triplicate-dotted
 70
   64
  3
--------- --- --- --- ----------
 72
   65
 73
    8
 40
18.75
 49
12
 49
-1.5
 49
0.25
 49
-1.5
 49
0.25
 49
-1.5
 49
0.25
 49
-1.5
  0
LTYPE
  2
dotted
 70
   64
  3
   -       -       -       -    
 72
   65
 73
    2
 40
1.75
 49
0.25
 49
-1.5
  0
LTYPE
  2
chain
 70
   64
  3
-------------- -- --------------
 72
   65
 73
    4
 40
18.5
 49
12
 49
-1.5
 49
3.5
 49
-1.5
  0
LTYPE
  2
chain_double_dash
 70
   64
  3
------------ -- -- -------------
 72
   65
 73
    6
 40
23.5
 49
12
 49
-1.5
 49
3.5
 49
-1.5
 49
3.5
 49
-1.5
  0
LTYPE
  2
dashed_dotted
 70
   64
  3
-----------     -     ----------
 72
   65
 73
    4
 40
9.25
 49
6
 49
-1.5
 49
0.25
 49
-1.5
  0
LTYPE
  2
double-dashed_dotted
 70
   64
  3
------   -----------   -   -----
 72
   65
 73
    6
 40
16.75
 49
6
 49
-1.5
 49
6
 49
-1.5
 49
0.25
 49
-1.5
  0
LTYPE
  2
dashed_double-dotted
 70
   64
  3
---------    -    -    ---------
 72
   65
 73
    6
 40
11
 49
6
 49
-1.5
 49
0.25
 49
-1.5
 49
0.25
 49
-1.5
  0
LTYPE
  2
double-dashed_double-dotted
 70
   64
  3
-----   ---------   -   -   ----
 72
   65
 73
    8
 40
18.5
 49
6
 49
-1.5
 49
6
 49
-1.5
 49
0.25
 49
-1.5
 49
0.25
 49
-1.5
  0
LTYPE
  2
dashed_triplicate-dotted
 70
   64
  3
-------    -    -    -    ------
 72
   65
 73
    8
 40
12.75
 49
6
 49
-1.5
 49
0.25
 49
-1.5
 49
0.25
 49
-1.5
 49
0.25
 49
-1.5
  0
LTYPE
  2
double-dashed_triplicate-dotted
 70
   64
  3
-----  ---------  -  -  -  -----
 72
   65
 73
   10
 40
20.25
 49
6
 49
-1.5
 49
6
 49
-1.5
 49
0.25
 49
-1.5
 49
0.25
 49
-1.5
 49
0.25
 49
-1.5
  0
LTYPE
  2
undefined
 70
   64
  3
--------------------------------
 72
   65
 73
    0
 40
0
  0
LTYPE
  2
_
 70
   64
  3
                                
 72
   65
 73
    0
 40
0
  0
LTYPE
  2
__18
 70
   64
  3
                                
 72
   65
 73
    0
 40
0
  0
LTYPE
  2
__19
 70
   64
  3
                                
 72
   65
 73
    0
 40
0
  0
LTYPE
  2
__20
 70
   64
  3
                                
 72
   65
 73
    0
 40
0
  0
LTYPE
  2
__21
 70
   64
  3
                                
 72
   65
 73
    0
 40
0
  0
LTYPE
  2
__22
 70
   64
  3
                                
 72
   65
 73
    0
 40
0
  0
LTYPE
  2
__23
 70
   64
  3
                                
 72
   65
 73
    0
 40
0
  0
LTYPE
  2
__24
 70
   64
  3
                                
 72
   65
 73
    0
 40
0
  0
LTYPE
  2
__25
 70
   64
  3
                                
 72
   65
 73
    0
 40
0
  0
LTYPE
  2
__26
 70
   64
  3
                                
 72
   65
 73
    0
 40
0
  0
LTYPE
  2
__27
 70
   64
  3
                                
 72
   65
 73
    0
 40
0
  0
LTYPE
  2
__28
 70
   64
  3
                                
 72
   65
 73
    0
 40
0
  0
LTYPE
  2
__29
 70
   64
  3
                                
 72
   65
 73
    0
 40
0
  0
LTYPE
  2
__30
 70
   64
  3
                                
 72
   65
 73
    0
 40
0
  0
LTYPE
  2
__31
 70
   64
  3
                                
 72
   65
 73
    0
 40
0
  0
LTYPE
  2
__32
 70
   64
  3
                                
 72
   65
 73
    0
 40
0
  0
ENDTAB
  0
TABLE
  2
STYLE
  5
3
100
AcDbSymbolTable
 70
     1
  0
STYLE
  5
10
100
AcDbSymbolTableRecord
100
AcDbTextStyleTableRecord
  2
STANDARD
 70
     0
 40
0.0
 41
1.0
 50
0.0
 71
     0
 42
0.2
  3
txt
  4
bigfont.shx
  0
STYLE
  5
26
100
AcDbSymbolTableRecord
100
AcDbTextStyleTableRecord
  2
TATEGAKI
 70
    68
 40
0.0
 41
1.0
 50
0.0
 71
     0
 42
1.0
  3
txt
  4
bigfont.shx
  0
ENDTAB
  0
TABLE
  2
LAYER
 70
    3
  0
LAYER
  2
_0-0_0
 70
   64
 62
    7
  6
CONTINUOUS
  0
LAYER
  2
_0-2______1
 70
   64
 62
    7
  6
CONTINUOUS
  0
LAYER
  2
ADD_LINE
 70
   64
 62
    7
  6
CONTINUOUS
  0
ENDTAB
  0
ENDSEC
  0
SECTION
  2
BLOCKS
  0
BLOCK
  2
-000-SPECEL-V2010NW
 70
   64
 10
0
 20
0
 30
0
  0
TEXT
  8
_0-3_SPEC
 62
    7
 10
0
 20
0
 40
1.5
 41
1
 50
0
  1
ﾌﾞﾗｹｯﾄ 昼白色(5000K) Ra85
  0
TEXT
  8
_0-3_SPEC
 62
    7
 10
0
 20
-3
 40
1.5
 41
1
 50
0
  1
100V~242V共用ﾀｲﾌﾟ
  0
TEXT
  8
_0-3_SPEC
 62
    7
 10
0
 20
-6
 40
1.5
 41
1
 50
0
  1
本体:ｱﾙﾐ 白色半ﾂﾔ粉体塗装仕上
  0
TEXT
  8
_0-3_SPEC
 62
    7
 10
0
 20
-9
 40
1.5
 41
1
 50
0
  1
光源寿命:40,000時間(光束維持率85%)
  0
TEXT
  8
_0-3_SPEC
 62
    7
 10
0
 20
-12
 40
1.5
 41
1
 50
0
  1
光束:1980lm 消費電力:15.1W 消費効率:131.1lm/W
  0
ENDBLK
  0
ENDSEC
  0
SECTION
  2
ENTITIES
  0
TEXT
  8
_0-0_0
 62
    7
 10
5.7206269580079692
 20
92.101580154706411
 40
4.205837626842416
 41
1
 50
0
  1
ＬＥＤ１５．１Ｗ×１　ブラケット
  0
TEXT
  8
_0-0_0
 62
    7
 10
5.7206269580079692
 20
8.1015851547064983
 40
4.205837626842416
 41
1
 50
0
  1
三菱　ＥＬ－Ｖ２０１０Ｎ／Ｗ
  0
INSERT
  2
-000-SPECEL-V2010NW
  8
_0-0_0
 10
93.390404891764462
 20
22.334474617576561
 41
1
 42
1
 50
0
  0
LINE
  8
_0-2______1
  6
CONTINUOUS
 62
    7
 10
35.956793025967869
 20
62.243564932886898
 11
40.34396503007946
 21
63.89951760174371
  0
LINE
  8
_0-2______1
  6
CONTINUOUS
 62
    7
 10
35.956793025967869
 20
42.050112941407406
 11
40.34396503007946
 21
43.663012941004197
  0
LINE
  8
_0-2______1
  6
CONTINUOUS
 62
    7
 10
68.300898356423573
 20
42.222148607597106
 11
68.515811681022655
 21
42.3511316045266
  0
LINE
  8
_0-2______1
  6
CONTINUOUS
 62
    7
 10
68.515811681022655
 20
42.3511316045266
 11
68.64496968880286
 21
42.501640936086204
  0
LINE
  8
_0-2______1
  6
CONTINUOUS
 62
    7
 10
67.483597683884881
 20
41.706041609028205
 11
67.784616347004061
 21
41.856550940587809
  0
LINE
  8
_0-2______1
  6
CONTINUOUS
 62
    7
 10
67.784616347004061
 20
41.856550940587809
 11
68.085635010123156
 21
42.050112941407406
  0
LINE
  8
_0-2______1
  6
CONTINUOUS
 62
    7
 10
40.34396503007946
 20
42.888764937725597
 11
40.34396503007946
 21
64.630712935762304
  0
LINE
  8
_0-2______1
  6
CONTINUOUS
 62
    7
 10
40.34396503007946
 20
42.888764937725597
 11
40.408369023118979
 21
42.695202936905901
  0
LINE
  8
_0-2______1
  6
CONTINUOUS
 62
    7
 10
40.408369023118979
 20
42.695202936905901
 11
40.473123037859665
 21
42.501640936086204
  0
LINE
  8
_0-2______1
  6
CONTINUOUS
 62
    7
 10
40.473123037859665
 20
42.501640936086204
 11
40.601931023938562
 21
42.37265793915671
  0
LINE
  8
_0-2______1
  6
CONTINUOUS
 62
    7
 10
68.731075027322959
 20
42.888764937725597
 11
68.731075027322959
 21
64.630712935762304
  0
LINE
  8
_0-2______1
  6
CONTINUOUS
 62
    7
 10
56.988897013765467
 20
40.050088940171307
 11
57.870601679343679
 21
40.114492933210798
  0
LINE
  8
_0-2______1
  6
CONTINUOUS
 62
    7
 10
57.870601679343679
 20
40.114492933210798
 11
58.666551028102958
 21
40.157545602470904
  0
LINE
  8
_0-2______1
  6
CONTINUOUS
 62
    7
 10
58.666551028102958
 20
40.157545602470904
 11
59.483501678940456
 21
40.243650940991003
  0
LINE
  8
_0-2______1
  6
CONTINUOUS
 62
    7
 10
59.483501678940456
 20
40.243650940991003
 11
60.32250369695987
 21
40.286528599400398
  0
LINE
  8
_0-2______1
  6
CONTINUOUS
 62
    7
 10
60.32250369695987
 20
40.286528599400398
 11
61.096401678537177
 21
40.372633937920611
  0
LINE
  8
_0-2______1
  6
CONTINUOUS
 62
    7
 10
61.096401678537177
 20
40.372633937920611
 11
61.806245688776357
 21
40.437212941810699
  0
LINE
  8
_0-2______1
  6
CONTINUOUS
 62
    7
 10
61.806245688776357
 20
40.437212941810699
 11
62.53744102279498
 21
40.544669604110197
  0
LINE
  8
_0-2______1
  6
CONTINUOUS
 62
    7
 10
62.53744102279498
 20
40.544669604110197
 11
63.225583687553467
 21
40.63077494263031
  0
LINE
  8
_0-2______1
  6
CONTINUOUS
 62
    7
 10
63.225583687553467
 20
40.63077494263031
 11
63.935077676091481
 21
40.759757939559904
  0
LINE
  8
_0-2______1
  6
CONTINUOUS
 62
    7
 10
63.935077676091481
 20
40.759757939559904
 11
64.515763678550456
 21
40.888740936489498
  0
LINE
  8
_0-2______1
  6
CONTINUOUS
 62
    7
 10
64.515763678550456
 20
40.888740936489498
 11
65.118151026490068
 21
41.017723933419006
  0
LINE
  8
_0-2______1
  6
CONTINUOUS
 62
    7
 10
65.118151026490068
 20
41.017723933419006
 11
65.677135683468379
 21
41.146881941199197
  0
LINE
  8
_0-2______1
  6
CONTINUOUS
 62
    7
 10
65.677135683468379
 20
41.146881941199197
 11
66.193417692887977
 21
41.275864938128805
  0
LINE
  8
_0-2______1
  6
CONTINUOUS
 62
    7
 10
66.193417692887977
 20
41.275864938128805
 11
66.66629701134616
 21
41.404847935058299
  0
LINE
  8
_0-2______1
  6
CONTINUOUS
 62
    7
 10
51.999687683415459
 20
40.050088940171307
 11
53.677341697753064
 21
40.050088940171307
  0
LINE
  8
_0-2______1
  6
CONTINUOUS
 62
    7
 10
53.677341697753064
 20
40.050088940171307
 11
54.537345017850555
 21
40.02856260554131
  0
LINE
  8
_0-2______1
  6
CONTINUOUS
 62
    7
 10
54.537345017850555
 20
40.02856260554131
 11
55.419049683428767
 21
40.050088940171307
  0
LINE
  8
_0-2______1
  6
CONTINUOUS
 62
    7
 10
55.311593021129255
 20
40.050088940171307
 11
57.118055021545672
 21
40.050088940171307
  0
LINE
  8
_0-2______1
  6
CONTINUOUS
 62
    7
 10
57.118055021545672
 20
40.050088940171307
 11
57.935355694084365
 21
40.114492933210798
  0
LINE
  8
_0-2______1
  6
CONTINUOUS
 62
    7
 10
57.935355694084365
 20
40.114492933210798
 11
58.774007690402556
 21
40.157545602470904
  0
LINE
  8
_0-2______1
  6
CONTINUOUS
 62
    7
 10
58.774007690402556
 20
40.157545602470904
 11
59.569607017460555
 21
40.243650940991003
  0
LINE
  8
_0-2______1
  6
CONTINUOUS
 62
    7
 10
59.569607017460555
 20
40.243650940991003
 11
60.343855020739255
 21
40.286528599400398
  0
LINE
  8
_0-2______1
  6
CONTINUOUS
 62
    7
 10
60.343855020739255
 20
40.286528599400398
 11
61.11810302401787
 21
40.372633937920611
  0
LINE
  8
_0-2______1
  6
CONTINUOUS
 62
    7
 10
61.11810302401787
 20
40.372633937920611
 11
61.892351027296456
 21
40.437212941810699
  0
LINE
  8
_0-2______1
  6
CONTINUOUS
 62
    7
 10
61.892351027296456
 20
40.437212941810699
 11
62.644897685094463
 21
40.544669604110197
  0
LINE
  8
_0-2______1
  6
CONTINUOUS
 62
    7
 10
62.644897685094463
 20
40.544669604110197
 11
63.31168902607368
 21
40.63077494263031
  0
LINE
  8
_0-2______1
  6
CONTINUOUS
 62
    7
 10
63.31168902607368
 20
40.63077494263031
 11
63.956779021572061
 21
40.759757939559904
  0
LINE
  8
_0-2______1
  6
CONTINUOUS
 62
    7
 10
63.956779021572061
 20
40.759757939559904
 11
64.580517693291171
 21
40.888740936489498
  0
LINE
  8
_0-2______1
  6
CONTINUOUS
 62
    7
 10
64.580517693291171
 20
40.888740936489498
 11
65.161203695750174
 21
41.017723933419006
  0
LINE
  8
_0-2______1
  6
CONTINUOUS
 62
    7
 10
65.161203695750174
 20
41.017723933419006
 11
65.741889698209178
 21
41.146881941199197
  0
LINE
  8
_0-2______1
  6
CONTINUOUS
 62
    7
 10
65.741889698209178
 20
41.146881941199197
 11
66.257821685927382
 21
41.275864938128805
  0
LINE
  8
_0-2______1
  6
CONTINUOUS
 62
    7
 10
66.257821685927382
 20
41.275864938128805
 11
66.66629701134616
 21
41.404847935058299
  0
LINE
  8
_0-2______1
  6
CONTINUOUS
 62
    7
 10
66.66629701134616
 20
41.404847935058299
 11
67.09647368224546
 21
41.576883601247999
  0
LINE
  8
_0-2______1
  6
CONTINUOUS
 62
    7
 10
67.09647368224546
 20
41.576883601247999
 11
67.483597683884881
 21
41.706041609028205
  0
LINE
  8
_0-2______1
  6
CONTINUOUS
 62
    7
 10
67.483597683884881
 20
41.706041609028205
 11
67.827669016264082
 21
41.856550940587809
  0
LINE
  8
_0-2______1
  6
CONTINUOUS
 62
    7
 10
67.827669016264082
 20
41.856550940587809
 11
68.085635010123156
 21
42.050112941407406
  0
LINE
  8
_0-2______1
  6
CONTINUOUS
 62
    7
 10
68.085635010123156
 20
42.050112941407406
 11
68.300898356423573
 21
42.222148607597106
  0
LINE
  8
_0-2______1
  6
CONTINUOUS
 62
    7
 10
68.300898356423573
 20
42.222148607597106
 11
68.515811681022655
 21
42.37265793915671
  0
LINE
  8
_0-2______1
  6
CONTINUOUS
 62
    7
 10
68.515811681022655
 20
42.37265793915671
 11
68.64496968880286
 21
42.501640936086204
  0
LINE
  8
_0-2______1
  6
CONTINUOUS
 62
    7
 10
68.64496968880286
 20
42.501640936086204
 11
68.688022358062881
 21
42.695202936905901
  0
LINE
  8
_0-2______1
  6
CONTINUOUS
 62
    7
 10
68.688022358062881
 20
42.695202936905901
 11
68.731075027322959
 21
42.888764937725597
  0
LINE
  8
_0-2______1
  6
CONTINUOUS
 62
    7
 10
53.247165026853679
 20
40.308054934030409
 11
55.827875030548768
 21
40.308054934030409
  0
LINE
  8
_0-2______1
  6
CONTINUOUS
 62
    7
 10
55.827875030548768
 20
40.308054934030409
 11
56.64482568138618
 21
40.372633937920611
  0
LINE
  8
_0-2______1
  6
CONTINUOUS
 62
    7
 10
56.64482568138618
 20
40.372633937920611
 11
57.505179023184979
 21
40.415686607180604
  0
LINE
  8
_0-2______1
  6
CONTINUOUS
 62
    7
 10
57.505179023184979
 20
40.415686607180604
 11
58.322479695723757
 21
40.437212941810699
  0
LINE
  8
_0-2______1
  6
CONTINUOUS
 62
    7
 10
58.322479695723757
 20
40.437212941810699
 11
59.161131692041863
 21
40.501616934850105
  0
LINE
  8
_0-2______1
  6
CONTINUOUS
 62
    7
 10
59.161131692041863
 20
40.501616934850105
 11
59.935379695320478
 21
40.566195938740208
  0
LINE
  8
_0-2______1
  6
CONTINUOUS
 62
    7
 10
59.935379695320478
 20
40.566195938740208
 11
60.709277676897869
 21
40.630599931779699
  0
LINE
  8
_0-2______1
  6
CONTINUOUS
 62
    7
 10
60.709277676897869
 20
40.630599931779699
 11
61.419121687137078
 21
40.695178935669801
  0
LINE
  8
_0-2______1
  6
CONTINUOUS
 62
    7
 10
61.419121687137078
 20
40.695178935669801
 11
62.128965697376259
 21
40.802635597969299
  0
LINE
  8
_0-2______1
  6
CONTINUOUS
 62
    7
 10
62.128965697376259
 20
40.802635597969299
 11
62.795407016654082
 21
40.931793605749505
  0
LINE
  8
_0-2______1
  6
CONTINUOUS
 62
    7
 10
62.795407016654082
 20
40.931793605749505
 11
63.419145688373163
 21
41.060776602679098
  0
LINE
  8
_0-2______1
  6
CONTINUOUS
 62
    7
 10
63.419145688373163
 20
41.060776602679098
 11
63.999831690832167
 21
41.189759599608607
  0
LINE
  8
_0-2______1
  6
CONTINUOUS
 62
    7
 10
63.999831690832167
 20
41.189759599608607
 11
64.580517693291171
 21
41.318917607388798
  0
LINE
  8
_0-2______1
  6
CONTINUOUS
 62
    7
 10
64.580517693291171
 20
41.318917607388798
 11
65.09644968100946
 21
41.447900604318406
  0
LINE
  8
_0-2______1
  6
CONTINUOUS
 62
    7
 10
65.09644968100946
 20
41.447900604318406
 11
65.505275028129461
 21
41.576883601247999
  0
LINE
  8
_0-2______1
  6
CONTINUOUS
 62
    7
 10
65.505275028129461
 20
41.576883601247999
 11
65.935101677327566
 21
41.727392932807604
  0
LINE
  8
_0-2______1
  6
CONTINUOUS
 62
    7
 10
65.935101677327566
 20
41.727392932807604
 11
66.279523031408075
 21
41.856550940587809
  0
LINE
  8
_0-2______1
  6
CONTINUOUS
 62
    7
 10
66.279523031408075
 20
41.856550940587809
 11
66.580541694527255
 21
42.050112941407406
  0
LINE
  8
_0-2______1
  6
CONTINUOUS
 62
    7
 10
66.580541694527255
 20
42.050112941407406
 11
66.838507688386358
 21
42.221973596746409
  0
LINE
  8
_0-2______1
  6
CONTINUOUS
 62
    7
 10
66.838507688386358
 20
42.221973596746409
 11
67.053421012985467
 21
42.37265793915671
  0
LINE
  8
_0-2______1
  6
CONTINUOUS
 62
    7
 10
67.053421012985467
 20
42.37265793915671
 11
67.182579020765672
 21
42.501640936086204
  0
LINE
  8
_0-2______1
  6
CONTINUOUS
 62
    7
 10
67.182579020765672
 20
42.501640936086204
 11
67.290035683065156
 21
42.695202936905901
  0
LINE
  8
_0-2______1
  6
CONTINUOUS
 62
    7
 10
67.290035683065156
 20
42.695202936905901
 11
67.311737028545878
 21
42.888764937725597
  0
LINE
  8
_0-2______1
  6
CONTINUOUS
 62
    7
 10
52.838689701434959
 20
41.706041609028205
 11
56.322455694487559
 21
41.706041609028205
  0
LINE
  8
_0-2______1
  6
CONTINUOUS
 62
    7
 10
56.322455694487559
 20
41.706041609028205
 11
57.161107690805778
 21
41.727392932807604
  0
LINE
  8
_0-2______1
  6
CONTINUOUS
 62
    7
 10
57.161107690805778
 20
41.727392932807604
 11
58.021111010903269
 21
41.791971936697706
  0
LINE
  8
_0-2______1
  6
CONTINUOUS
 62
    7
 10
58.021111010903269
 20
41.791971936697706
 11
58.838411683441961
 21
41.835024605957699
  0
LINE
  8
_0-2______1
  6
CONTINUOUS
 62
    7
 10
58.838411683441961
 20
41.835024605957699
 11
59.677063679760067
 21
41.9209549336272
  0
LINE
  8
_0-2______1
  6
CONTINUOUS
 62
    7
 10
59.677063679760067
 20
41.9209549336272
 11
60.451311683038767
 21
41.964007602887307
  0
LINE
  8
_0-2______1
  6
CONTINUOUS
 62
    7
 10
60.451311683038767
 20
41.964007602887307
 11
61.225559686317382
 21
42.050112941407406
  0
LINE
  8
_0-2______1
  6
CONTINUOUS
 62
    7
 10
61.225559686317382
 20
42.050112941407406
 11
61.935403696556676
 21
42.114516934446897
  0
LINE
  8
_0-2______1
  6
CONTINUOUS
 62
    7
 10
61.935403696556676
 20
42.114516934446897
 11
62.644897685094463
 21
42.243499931376405
  0
LINE
  8
_0-2______1
  6
CONTINUOUS
 62
    7
 10
62.644897685094463
 20
42.243499931376405
 11
63.289987680592958
 21
42.37265793915671
  0
LINE
  8
_0-2______1
  6
CONTINUOUS
 62
    7
 10
63.289987680592958
 20
42.37265793915671
 11
63.935077676091481
 21
42.501640936086204
  0
LINE
  8
_0-2______1
  6
CONTINUOUS
 62
    7
 10
63.935077676091481
 20
42.501640936086204
 11
64.472711009290379
 21
42.630623933015798
  0
LINE
  8
_0-2______1
  6
CONTINUOUS
 62
    7
 10
64.472711009290379
 20
42.630623933015798
 11
64.988993018709863
 21
42.759606929945306
  0
LINE
  8
_0-2______1
  6
CONTINUOUS
 62
    7
 10
64.988993018709863
 20
42.759606929945306
 11
65.483573682648768
 21
42.888764937725597
  0
LINE
  8
_0-2______1
  6
CONTINUOUS
 62
    7
 10
65.483573682648768
 20
42.888764937725597
 11
65.892399029768768
 21
43.082326938545208
  0
LINE
  8
_0-2______1
  6
CONTINUOUS
 62
    7
 10
65.892399029768768
 20
43.082326938545208
 11
66.279173009706767
 21
43.254362604734908
  0
LINE
  8
_0-2______1
  6
CONTINUOUS
 62
    7
 10
66.279173009706767
 20
43.254362604734908
 11
66.580541694527255
 21
43.383345601664402
  0
LINE
  8
_0-2______1
  6
CONTINUOUS
 62
    7
 10
66.580541694527255
 20
43.383345601664402
 11
66.838507688386358
 21
43.533854933224006
  0
LINE
  8
_0-2______1
  6
CONTINUOUS
 62
    7
 10
55.827875030548768
 20
45.447948606790604
 11
53.247165026853679
 21
45.447948606790604
  0
LINE
  8
_0-2______1
  6
CONTINUOUS
 62
    7
 10
53.247165026853679
 20
45.447948606790604
 11
52.45156569979568
 21
45.404895937530497
  0
LINE
  8
_0-2______1
  6
CONTINUOUS
 62
    7
 10
52.45156569979568
 20
45.404895937530497
 11
51.569861034217467
 21
45.340316933640409
  0
LINE
  8
_0-2______1
  6
CONTINUOUS
 62
    7
 10
51.569861034217467
 20
45.340316933640409
 11
50.773911685458074
 21
45.318790599010399
  0
LINE
  8
_0-2______1
  6
CONTINUOUS
 62
    7
 10
50.773911685458074
 20
45.318790599010399
 11
49.935259689139968
 21
45.275912940601003
  0
LINE
  8
_0-2______1
  6
CONTINUOUS
 62
    7
 10
49.935259689139968
 20
45.275912940601003
 11
49.161011685861268
 21
45.189807602080805
  0
LINE
  8
_0-2______1
  6
CONTINUOUS
 62
    7
 10
49.161011685861268
 20
45.189807602080805
 11
48.451517697323482
 21
45.146754932820798
  0
LINE
  8
_0-2______1
  6
CONTINUOUS
 62
    7
 10
48.451517697323482
 20
45.146754932820798
 11
47.677269694044782
 21
45.060824605151311
  0
LINE
  8
_0-2______1
  6
CONTINUOUS
 62
    7
 10
47.677269694044782
 20
45.060824605151311
 11
46.989127029286266
 21
44.953192932001102
  0
LINE
  8
_0-2______1
  6
CONTINUOUS
 62
    7
 10
46.989127029286266
 20
44.953192932001102
 11
46.344037033787771
 21
44.824209935071508
  0
LINE
  8
_0-2______1
  6
CONTINUOUS
 62
    7
 10
46.344037033787771
 20
44.824209935071508
 11
45.698597016587968
 21
44.695226938142
  0
LINE
  8
_0-2______1
  6
CONTINUOUS
 62
    7
 10
45.698597016587968
 20
44.695226938142
 11
45.096559690349665
 21
44.566068930361808
  0
LINE
  8
_0-2______1
  6
CONTINUOUS
 62
    7
 10
45.096559690349665
 20
44.566068930361808
 11
44.537575033371382
 21
44.437085933432201
  0
LINE
  8
_0-2______1
  6
CONTINUOUS
 62
    7
 10
44.537575033371382
 20
44.437085933432201
 11
44.064345693211862
 21
44.308102936502706
  0
LINE
  8
_0-2______1
  6
CONTINUOUS
 62
    7
 10
44.064345693211862
 20
44.308102936502706
 11
43.569765029272958
 21
44.179119939573098
  0
LINE
  8
_0-2______1
  6
CONTINUOUS
 62
    7
 10
43.569765029272958
 20
44.179119939573098
 11
43.161289703854266
 21
44.028435597162797
  0
LINE
  8
_0-2______1
  6
CONTINUOUS
 62
    7
 10
43.161289703854266
 20
44.028435597162797
 11
42.795517025994371
 21
43.899452600233303
  0
LINE
  8
_0-2______1
  6
CONTINUOUS
 62
    7
 10
42.795517025994371
 20
43.899452600233303
 11
42.515849686654576
 21
43.727416934043703
  0
LINE
  8
_0-2______1
  6
CONTINUOUS
 62
    7
 10
42.515849686654576
 20
43.727416934043703
 11
42.25788369279536
 21
43.533854933224006
  0
LINE
  8
_0-2______1
  6
CONTINUOUS
 62
    7
 10
42.25788369279536
 20
43.533854933224006
 11
42.021269022715671
 21
43.383345601664402
  0
LINE
  8
_0-2______1
  6
CONTINUOUS
 62
    7
 10
42.021269022715671
 20
43.383345601664402
 11
41.892461036636774
 21
43.254362604734908
  0
LINE
  8
_0-2______1
  6
CONTINUOUS
 62
    7
 10
41.892461036636774
 20
43.254362604734908
 11
41.827707021895975
 21
43.082326938545208
  0
LINE
  8
_0-2______1
  6
CONTINUOUS
 62
    7
 10
41.827707021895975
 20
43.082326938545208
 11
41.763303028856569
 21
42.888764937725597
  0
LINE
  8
_0-2______1
  6
CONTINUOUS
 62
    7
 10
41.763303028856569
 20
42.888764937725597
 11
41.827707021895975
 21
42.695202936905901
  0
LINE
  8
_0-2______1
  6
CONTINUOUS
 62
    7
 10
41.827707021895975
 20
42.695202936905901
 11
41.892461036636774
 21
42.501640936086204
  0
LINE
  8
_0-2______1
  6
CONTINUOUS
 62
    7
 10
41.892461036636774
 20
42.501640936086204
 11
42.021269022715671
 21
42.37265793915671
  0
LINE
  8
_0-2______1
  6
CONTINUOUS
 62
    7
 10
42.021269022715671
 20
42.37265793915671
 11
42.25788369279536
 21
42.222148607597106
  0
LINE
  8
_0-2______1
  6
CONTINUOUS
 62
    7
 10
42.25788369279536
 20
42.222148607597106
 11
42.515849686654576
 21
42.050112941407406
  0
LINE
  8
_0-2______1
  6
CONTINUOUS
 62
    7
 10
42.515849686654576
 20
42.050112941407406
 11
42.795517025994371
 21
41.856550940587809
  0
LINE
  8
_0-2______1
  6
CONTINUOUS
 62
    7
 10
42.795517025994371
 20
41.856550940587809
 11
43.161289703854266
 21
41.727392932807604
  0
LINE
  8
_0-2______1
  6
CONTINUOUS
 62
    7
 10
43.161289703854266
 20
41.727392932807604
 11
43.569765029272958
 21
41.576883601247999
  0
LINE
  8
_0-2______1
  6
CONTINUOUS
 62
    7
 10
43.569765029272958
 20
41.576883601247999
 11
44.021293023951756
 21
41.447900604318406
  0
LINE
  8
_0-2______1
  6
CONTINUOUS
 62
    7
 10
44.021293023951756
 20
41.447900604318406
 11
44.537575033371382
 21
41.318917607388798
  0
LINE
  8
_0-2______1
  6
CONTINUOUS
 62
    7
 10
44.537575033371382
 20
41.318917607388798
 11
45.096559690349665
 21
41.189759599608607
  0
LINE
  8
_0-2______1
  6
CONTINUOUS
 62
    7
 10
45.096559690349665
 20
41.189759599608607
 11
45.698597016587968
 21
41.060776602679098
  0
LINE
  8
_0-2______1
  6
CONTINUOUS
 62
    7
 10
45.698597016587968
 20
41.060776602679098
 11
46.344037033787771
 21
40.931793605749505
  0
LINE
  8
_0-2______1
  6
CONTINUOUS
 62
    7
 10
46.344037033787771
 20
40.931793605749505
 11
46.989127029286266
 21
40.802635597969299
  0
LINE
  8
_0-2______1
  6
CONTINUOUS
 62
    7
 10
46.989127029286266
 20
40.802635597969299
 11
47.677269694044782
 21
40.695178935669801
  0
LINE
  8
_0-2______1
  6
CONTINUOUS
 62
    7
 10
47.677269694044782
 20
40.695178935669801
 11
48.408465028063375
 21
40.63077494263031
  0
LINE
  8
_0-2______1
  6
CONTINUOUS
 62
    7
 10
48.408465028063375
 20
40.63077494263031
 11
49.161011685861268
 21
40.566195938740208
  0
LINE
  8
_0-2______1
  6
CONTINUOUS
 62
    7
 10
49.161011685861268
 20
40.566195938740208
 11
49.935259689139968
 21
40.501616934850105
  0
LINE
  8
_0-2______1
  6
CONTINUOUS
 62
    7
 10
49.935259689139968
 20
40.501616934850105
 11
50.773911685458074
 21
40.437212941810699
  0
LINE
  8
_0-2______1
  6
CONTINUOUS
 62
    7
 10
50.773911685458074
 20
40.437212941810699
 11
51.569861034217467
 21
40.415686607180604
  0
LINE
  8
_0-2______1
  6
CONTINUOUS
 62
    7
 10
51.569861034217467
 20
40.415686607180604
 11
52.45156569979568
 21
40.372633937920611
  0
LINE
  8
_0-2______1
  6
CONTINUOUS
 62
    7
 10
52.45156569979568
 20
40.372633937920611
 11
53.247165026853679
 21
40.308054934030409
  0
LINE
  8
_0-2______1
  6
CONTINUOUS
 62
    7
 10
57.118055021545672
 20
45.705914600649706
 11
55.419049683428767
 21
45.705914600649706
  0
LINE
  8
_0-2______1
  6
CONTINUOUS
 62
    7
 10
55.419049683428767
 20
45.705914600649706
 11
54.537345017850555
 21
45.727440935279802
  0
LINE
  8
_0-2______1
  6
CONTINUOUS
 62
    7
 10
54.537345017850555
 20
45.727440935279802
 11
53.677341697753064
 21
45.705914600649706
  0
LINE
  8
_0-2______1
  6
CONTINUOUS
 62
    7
 10
53.677341697753064
 20
45.705914600649706
 11
51.999687683415459
 21
45.705914600649706
  0
LINE
  8
_0-2______1
  6
CONTINUOUS
 62
    7
 10
51.999687683415459
 20
45.705914600649706
 11
51.161035687097467
 21
45.662861931389699
  0
LINE
  8
_0-2______1
  6
CONTINUOUS
 62
    7
 10
51.161035687097467
 20
45.662861931389699
 11
50.322383690779276
 21
45.598457938350208
  0
LINE
  8
_0-2______1
  6
CONTINUOUS
 62
    7
 10
50.322383690779276
 20
45.598457938350208
 11
49.505083018240555
 21
45.533878934460105
  0
LINE
  8
_0-2______1
  6
CONTINUOUS
 62
    7
 10
49.505083018240555
 20
45.533878934460105
 11
48.730835014961855
 21
45.469299930570003
  0
LINE
  8
_0-2______1
  6
CONTINUOUS
 62
    7
 10
48.730835014961855
 20
45.469299930570003
 11
47.956937033384577
 21
45.404895937530497
  0
LINE
  8
_0-2______1
  6
CONTINUOUS
 62
    7
 10
47.956937033384577
 20
45.404895937530497
 11
47.247093023145368
 21
45.318790599010399
  0
LINE
  8
_0-2______1
  6
CONTINUOUS
 62
    7
 10
47.247093023145368
 20
45.318790599010399
 11
46.515897689126774
 21
45.211333936710901
  0
LINE
  8
_0-2______1
  6
CONTINUOUS
 62
    7
 10
46.515897689126774
 20
45.211333936710901
 11
45.827755024368258
 21
45.146754932820798
  0
LINE
  8
_0-2______1
  6
CONTINUOUS
 62
    7
 10
45.827755024368258
 20
45.146754932820798
 11
45.118261035830358
 21
45.017771935891204
  0
LINE
  8
_0-2______1
  6
CONTINUOUS
 62
    7
 10
45.118261035830358
 20
45.017771935891204
 11
44.537575033371382
 21
44.888788938961611
  0
LINE
  8
_0-2______1
  6
CONTINUOUS
 62
    7
 10
44.537575033371382
 20
44.888788938961611
 11
43.935187685431657
 21
44.759630931181405
  0
LINE
  8
_0-2______1
  6
CONTINUOUS
 62
    7
 10
43.935187685431657
 20
44.759630931181405
 11
43.376203028453375
 21
44.630647934251897
  0
LINE
  8
_0-2______1
  6
CONTINUOUS
 62
    7
 10
43.376203028453375
 20
44.630647934251897
 11
42.902973688293855
 21
44.501664937322303
  0
LINE
  8
_0-2______1
  6
CONTINUOUS
 62
    7
 10
42.902973688293855
 20
44.501664937322303
 11
42.408393024354979
 21
44.372506929542098
  0
LINE
  8
_0-2______1
  6
CONTINUOUS
 62
    7
 10
42.408393024354979
 20
44.372506929542098
 11
41.999917698936258
 21
44.179119939573098
  0
LINE
  8
_0-2______1
  6
CONTINUOUS
 62
    7
 10
41.999917698936258
 20
44.179119939573098
 11
41.612793697296979
 21
44.049961931792907
  0
LINE
  8
_0-2______1
  6
CONTINUOUS
 62
    7
 10
41.612793697296979
 20
44.049961931792907
 11
41.311775034177771
 21
43.899452600233303
  0
LINE
  8
_0-2______1
  6
CONTINUOUS
 62
    7
 10
41.311775034177771
 20
43.899452600233303
 11
40.989055025577954
 21
43.727416934043703
  0
LINE
  8
_0-2______1
  6
CONTINUOUS
 62
    7
 10
40.989055025577954
 20
43.727416934043703
 11
40.795493024758258
 21
43.533854933224006
  0
LINE
  8
_0-2______1
  6
CONTINUOUS
 62
    7
 10
40.795493024758258
 20
43.533854933224006
 11
40.601931023938562
 21
43.383345601664402
  0
LINE
  8
_0-2______1
  6
CONTINUOUS
 62
    7
 10
40.601931023938562
 20
43.383345601664402
 11
40.473123037859665
 21
43.254362604734908
  0
LINE
  8
_0-2______1
  6
CONTINUOUS
 62
    7
 10
40.473123037859665
 20
43.254362604734908
 11
40.408369023118979
 21
43.082326938545208
  0
LINE
  8
_0-2______1
  6
CONTINUOUS
 62
    7
 10
40.408369023118979
 20
43.082326938545208
 11
40.34396503007946
 21
42.888764937725597
  0
LINE
  8
_0-2______1
  6
CONTINUOUS
 62
    7
 10
53.612587683012265
 20
40.050088940171307
 11
54.451589701031764
 21
40.02856260554131
  0
LINE
  8
_0-2______1
  6
CONTINUOUS
 62
    7
 10
54.451589701031764
 20
40.02856260554131
 11
55.311593021129255
 21
40.050088940171307
  0
LINE
  8
_0-2______1
  6
CONTINUOUS
 62
    7
 10
58.774007690402556
 20
45.598457938350208
 11
57.118055021545672
 21
45.705914600649706
  0
LINE
  8
_0-2______1
  6
CONTINUOUS
 62
    7
 10
42.73111303295488
 20
41.318917607388798
 11
35.956793025967869
 21
42.050112941407406
  0
LINE
  8
_0-2______1
  6
CONTINUOUS
 62
    7
 10
35.956793025967869
 20
42.050112941407406
 11
35.956793025967869
 21
62.243564932886898
  0
LINE
  8
_0-2______1
  6
CONTINUOUS
 62
    7
 10
53.354621689153163
 20
67.469388933316495
 11
52.472917023574979
 21
67.404809929426406
  0
LINE
  8
_0-2______1
  6
CONTINUOUS
 62
    7
 10
52.472917023574979
 20
67.404809929426406
 11
51.61256368177618
 21
67.404809929426406
  0
LINE
  8
_0-2______1
  6
CONTINUOUS
 62
    7
 10
51.61256368177618
 20
67.404809929426406
 11
50.773911685458074
 21
67.383283594796396
  0
LINE
  8
_0-2______1
  6
CONTINUOUS
 62
    7
 10
50.773911685458074
 20
67.383283594796396
 11
49.892207019879862
 21
67.275826932496798
  0
LINE
  8
_0-2______1
  6
CONTINUOUS
 62
    7
 10
49.892207019879862
 20
67.275826932496798
 11
49.096607692821863
 21
67.254300597866816
  0
LINE
  8
_0-2______1
  6
CONTINUOUS
 62
    7
 10
49.096607692821863
 20
67.254300597866816
 11
48.322359689543276
 21
67.146668924716593
  0
LINE
  8
_0-2______1
  6
CONTINUOUS
 62
    7
 10
48.322359689543276
 20
67.146668924716593
 11
47.548111686264576
 21
67.082264931677216
  0
LINE
  8
_0-2______1
  6
CONTINUOUS
 62
    7
 10
47.548111686264576
 20
67.082264931677216
 11
46.773863682985876
 21
66.996159593157003
  0
LINE
  8
_0-2______1
  6
CONTINUOUS
 62
    7
 10
46.773863682985876
 20
66.996159593157003
 11
46.08572101822736
 21
66.888702930857491
  0
LINE
  8
_0-2______1
  6
CONTINUOUS
 62
    7
 10
46.08572101822736
 20
66.888702930857491
 11
45.37622702968946
 21
66.759719933927997
  0
LINE
  8
_0-2______1
  6
CONTINUOUS
 62
    7
 10
45.37622702968946
 20
66.759719933927997
 11
44.731137034190965
 21
66.695140930037908
  0
LINE
  8
_0-2______1
  6
CONTINUOUS
 62
    7
 10
44.731137034190965
 20
66.695140930037908
 11
44.085697016991276
 21
66.5661579331083
  0
LINE
  8
_0-2______1
  6
CONTINUOUS
 62
    7
 10
44.085697016991276
 20
66.5661579331083
 11
43.548063683792378
 21
66.372595932288604
  0
LINE
  8
_0-2______1
  6
CONTINUOUS
 62
    7
 10
43.548063683792378
 20
66.372595932288604
 11
42.989079026813982
 21
66.24361293535911
  0
LINE
  8
_0-2______1
  6
CONTINUOUS
 62
    7
 10
42.989079026813982
 20
66.24361293535911
 11
42.515849686654576
 21
66.114454927578791
  0
LINE
  8
_0-2______1
  6
CONTINUOUS
 62
    7
 10
42.515849686654576
 20
66.114454927578791
 11
42.086023037456471
 21
65.963945596019201
  0
LINE
  8
_0-2______1
  6
CONTINUOUS
 62
    7
 10
42.086023037456471
 20
65.963945596019201
 11
41.698899035817163
 21
65.834962599089707
  0
LINE
  8
_0-2______1
  6
CONTINUOUS
 62
    7
 10
41.698899035817163
 20
65.834962599089707
 11
41.354827703437877
 21
65.662926932899992
  0
LINE
  8
_0-2______1
  6
CONTINUOUS
 62
    7
 10
41.354827703437877
 20
65.662926932899992
 11
41.05345901861736
 21
65.46936493208041
  0
LINE
  8
_0-2______1
  6
CONTINUOUS
 62
    7
 10
41.05345901861736
 20
65.46936493208041
 11
40.795493024758258
 21
65.318855600520806
  0
LINE
  8
_0-2______1
  6
CONTINUOUS
 62
    7
 10
40.795493024758258
 20
65.318855600520806
 11
40.601931023938562
 21
65.146819934331205
  0
LINE
  8
_0-2______1
  6
CONTINUOUS
 62
    7
 10
40.601931023938562
 20
65.146819934331205
 11
40.473123037859665
 21
64.953257933511509
  0
LINE
  8
_0-2______1
  6
CONTINUOUS
 62
    7
 10
40.473123037859665
 20
64.953257933511509
 11
40.408369023118979
 21
64.802748601951905
  0
LINE
  8
_0-2______1
  6
CONTINUOUS
 62
    7
 10
40.408369023118979
 20
64.802748601951905
 11
40.34396503007946
 21
64.630712935762304
  0
LINE
  8
_0-2______1
  6
CONTINUOUS
 62
    7
 10
63.999831690832167
 20
44.566068930361808
 11
62.795407016654082
 21
44.824209935071508
  0
LINE
  8
_0-2______1
  6
CONTINUOUS
 62
    7
 10
62.795407016654082
 20
44.824209935071508
 11
62.128965697376259
 21
44.953192932001102
  0
LINE
  8
_0-2______1
  6
CONTINUOUS
 62
    7
 10
62.128965697376259
 20
44.953192932001102
 11
61.419121687137078
 21
45.060824605151311
  0
LINE
  8
_0-2______1
  6
CONTINUOUS
 62
    7
 10
61.419121687137078
 20
45.060824605151311
 11
60.709277676897869
 21
45.146754932820798
  0
LINE
  8
_0-2______1
  6
CONTINUOUS
 62
    7
 10
60.709277676897869
 20
45.146754932820798
 11
59.935379695320478
 21
45.189807602080805
  0
LINE
  8
_0-2______1
  6
CONTINUOUS
 62
    7
 10
59.935379695320478
 20
45.189807602080805
 11
59.161131692041863
 21
45.275912940601003
  0
LINE
  8
_0-2______1
  6
CONTINUOUS
 62
    7
 10
59.161131692041863
 20
45.275912940601003
 11
58.322479695723757
 21
45.318790599010399
  0
LINE
  8
_0-2______1
  6
CONTINUOUS
 62
    7
 10
58.322479695723757
 20
45.318790599010399
 11
57.505179023184979
 21
45.340316933640409
  0
LINE
  8
_0-2______1
  6
CONTINUOUS
 62
    7
 10
57.505179023184979
 20
45.340316933640409
 11
56.64482568138618
 21
45.404895937530497
  0
LINE
  8
_0-2______1
  6
CONTINUOUS
 62
    7
 10
56.64482568138618
 20
45.404895937530497
 11
55.827875030548768
 21
45.447773595940006
  0
LINE
  8
_0-2______1
  6
CONTINUOUS
 62
    7
 10
40.731089031718881
 20
42.243674942227102
 11
40.96770370179857
 21
42.0929905998169
  0
LINE
  8
_0-2______1
  6
CONTINUOUS
 62
    7
 10
40.96770370179857
 20
42.0929905998169
 11
41.225669695657672
 21
41.9209549336272
  0
LINE
  8
_0-2______1
  6
CONTINUOUS
 62
    7
 10
41.225669695657672
 20
41.9209549336272
 11
41.569741028036873
 21
41.727392932807604
  0
LINE
  8
_0-2______1
  6
CONTINUOUS
 62
    7
 10
41.569741028036873
 20
41.727392932807604
 11
41.892461036636774
 21
41.576883601247999
  0
LINE
  8
_0-2______1
  6
CONTINUOUS
 62
    7
 10
41.892461036636774
 20
41.576883601247999
 11
42.343989031315573
 21
41.447900604318406
  0
LINE
  8
_0-2______1
  6
CONTINUOUS
 62
    7
 10
42.343989031315573
 20
41.447900604318406
 11
42.774165702214958
 21
41.318917607388798
  0
LINE
  8
_0-2______1
  6
CONTINUOUS
 62
    7
 10
42.774165702214958
 20
41.318917607388798
 11
43.290097689933162
 21
41.1467069303486
  0
LINE
  8
_0-2______1
  6
CONTINUOUS
 62
    7
 10
43.290097689933162
 20
41.1467069303486
 11
43.827731023132174
 21
41.017723933419006
  0
LINE
  8
_0-2______1
  6
CONTINUOUS
 62
    7
 10
43.827731023132174
 20
41.017723933419006
 11
44.408417025591177
 21
40.888740936489498
  0
LINE
  8
_0-2______1
  6
CONTINUOUS
 62
    7
 10
44.408417025591177
 20
40.888740936489498
 11
45.053507021089558
 21
40.802635597969299
  0
LINE
  8
_0-2______1
  6
CONTINUOUS
 62
    7
 10
45.053507021089558
 20
40.802635597969299
 11
45.698597016587968
 21
40.673652601039805
  0
LINE
  8
_0-2______1
  6
CONTINUOUS
 62
    7
 10
45.698597016587968
 20
40.673652601039805
 11
46.387089703047877
 21
40.566195938740208
  0
LINE
  8
_0-2______1
  6
CONTINUOUS
 62
    7
 10
46.387089703047877
 20
40.566195938740208
 11
47.053531022325757
 21
40.437212941810699
  0
LINE
  8
_0-2______1
  6
CONTINUOUS
 62
    7
 10
47.053531022325757
 20
40.437212941810699
 11
47.827779025604372
 21
40.372633937920611
  0
LINE
  8
_0-2______1
  6
CONTINUOUS
 62
    7
 10
47.827779025604372
 20
40.372633937920611
 11
48.602027028882958
 21
40.286528599400398
  0
LINE
  8
_0-2______1
  6
CONTINUOUS
 62
    7
 10
48.602027028882958
 20
40.286528599400398
 11
49.376275032161658
 21
40.243650940991003
  0
LINE
  8
_0-2______1
  6
CONTINUOUS
 62
    7
 10
49.376275032161658
 20
40.243650940991003
 11
50.193225682999071
 21
40.1790719371009
  0
LINE
  8
_0-2______1
  6
CONTINUOUS
 62
    7
 10
50.193225682999071
 20
40.1790719371009
 11
51.032227701018456
 21
40.114492933210798
  0
LINE
  8
_0-2______1
  6
CONTINUOUS
 62
    7
 10
51.032227701018456
 20
40.114492933210798
 11
51.870879697336676
 21
40.114492933210798
  0
LINE
  8
_0-2______1
  6
CONTINUOUS
 62
    7
 10
51.870879697336676
 20
40.114492933210798
 11
52.730883017434081
 21
40.050088940171307
  0
LINE
  8
_0-2______1
  6
CONTINUOUS
 62
    7
 10
40.451421692378972
 20
42.566219939976307
 11
40.580579700159177
 21
42.437061932196102
  0
LINE
  8
_0-2______1
  6
CONTINUOUS
 62
    7
 10
40.580579700159177
 20
42.437061932196102
 11
40.795493024758258
 21
42.222148607597106
  0
LINE
  8
_0-2______1
  6
CONTINUOUS
 62
    7
 10
40.795493024758258
 20
42.222148607597106
 11
40.989055025577954
 21
42.050112941407406
  0
LINE
  8
_0-2______1
  6
CONTINUOUS
 62
    7
 10
40.989055025577954
 20
42.050112941407406
 11
41.311775034177771
 21
41.856550940587809
  0
LINE
  8
_0-2______1
  6
CONTINUOUS
 62
    7
 10
41.311775034177771
 20
41.856550940587809
 11
41.612793697296979
 21
41.706041609028205
  0
LINE
  8
_0-2______1
  6
CONTINUOUS
 62
    7
 10
41.612793697296979
 20
41.706041609028205
 11
41.999917698936258
 21
41.576883601247999
  0
LINE
  8
_0-2______1
  6
CONTINUOUS
 62
    7
 10
41.999917698936258
 20
41.576883601247999
 11
42.408393024354979
 21
41.404847935058299
  0
LINE
  8
_0-2______1
  6
CONTINUOUS
 62
    7
 10
42.408393024354979
 20
41.404847935058299
 11
42.902973688293855
 21
41.275864938128805
  0
LINE
  8
_0-2______1
  6
CONTINUOUS
 62
    7
 10
42.902973688293855
 20
41.275864938128805
 11
43.376203028453375
 21
41.146881941199197
  0
LINE
  8
_0-2______1
  6
CONTINUOUS
 62
    7
 10
43.376203028453375
 20
41.146881941199197
 11
43.935187685431657
 21
41.017723933419006
  0
LINE
  8
_0-2______1
  6
CONTINUOUS
 62
    7
 10
43.935187685431657
 20
41.017723933419006
 11
44.537575033371382
 21
40.888740936489498
  0
LINE
  8
_0-2______1
  6
CONTINUOUS
 62
    7
 10
44.537575033371382
 20
40.888740936489498
 11
45.118261035830358
 21
40.759757939559904
  0
LINE
  8
_0-2______1
  6
CONTINUOUS
 62
    7
 10
45.118261035830358
 20
40.759757939559904
 11
45.827755024368258
 21
40.63077494263031
  0
LINE
  8
_0-2______1
  6
CONTINUOUS
 62
    7
 10
45.827755024368258
 20
40.63077494263031
 11
46.515897689126774
 21
40.544669604110197
  0
LINE
  8
_0-2______1
  6
CONTINUOUS
 62
    7
 10
46.515897689126774
 20
40.544669604110197
 11
47.247093023145368
 21
40.437212941810699
  0
LINE
  8
_0-2______1
  6
CONTINUOUS
 62
    7
 10
47.247093023145368
 20
40.437212941810699
 11
47.956937033384577
 21
40.372633937920611
  0
LINE
  8
_0-2______1
  6
CONTINUOUS
 62
    7
 10
47.956937033384577
 20
40.372633937920611
 11
48.730835014961855
 21
40.286528599400398
  0
LINE
  8
_0-2______1
  6
CONTINUOUS
 62
    7
 10
48.730835014961855
 20
40.286528599400398
 11
49.505083018240555
 21
40.243650940991003
  0
LINE
  8
_0-2______1
  6
CONTINUOUS
 62
    7
 10
49.505083018240555
 20
40.243650940991003
 11
50.322383690779276
 21
40.157545602470904
  0
LINE
  8
_0-2______1
  6
CONTINUOUS
 62
    7
 10
50.322383690779276
 20
40.157545602470904
 11
51.161035687097467
 21
40.114492933210798
  0
LINE
  8
_0-2______1
  6
CONTINUOUS
 62
    7
 10
51.161035687097467
 20
40.114492933210798
 11
51.999687683415459
 21
40.050088940171307
  0
LINE
  8
_0-2______1
  6
CONTINUOUS
 62
    7
 10
67.311737028545878
 20
42.888764937725597
 11
67.290035683065156
 21
43.082326938545208
  0
LINE
  8
_0-2______1
  6
CONTINUOUS
 62
    7
 10
67.290035683065156
 20
43.082326938545208
 11
67.182579020765672
 21
43.254362604734908
  0
LINE
  8
_0-2______1
  6
CONTINUOUS
 62
    7
 10
67.182579020765672
 20
43.254362604734908
 11
67.053421012985467
 21
43.383345601664402
  0
LINE
  8
_0-2______1
  6
CONTINUOUS
 62
    7
 10
67.053421012985467
 20
43.383345601664402
 11
66.838507688386358
 21
43.533854933224006
  0
LINE
  8
_0-2______1
  6
CONTINUOUS
 62
    7
 10
66.838507688386358
 20
43.533854933224006
 11
66.644945687566775
 21
43.727416934043703
  0
LINE
  8
_0-2______1
  6
CONTINUOUS
 62
    7
 10
66.644945687566775
 20
43.727416934043703
 11
66.279523031408075
 21
43.899452600233303
  0
LINE
  8
_0-2______1
  6
CONTINUOUS
 62
    7
 10
66.279523031408075
 20
43.899452600233303
 11
65.935101677327566
 21
44.028435597162797
  0
LINE
  8
_0-2______1
  6
CONTINUOUS
 62
    7
 10
65.935101677327566
 20
44.028435597162797
 11
65.505275028129461
 21
44.179119939573098
  0
LINE
  8
_0-2______1
  6
CONTINUOUS
 62
    7
 10
65.505275028129461
 20
44.179119939573098
 11
65.09644968100946
 21
44.308102936502706
  0
LINE
  8
_0-2______1
  6
CONTINUOUS
 62
    7
 10
65.09644968100946
 20
44.308102936502706
 11
64.580517693291171
 21
44.437085933432201
  0
LINE
  8
_0-2______1
  6
CONTINUOUS
 62
    7
 10
64.580517693291171
 20
44.437085933432201
 11
63.999831690832167
 21
44.566068930361808
  0
LINE
  8
_0-2______1
  6
CONTINUOUS
 62
    7
 10
68.731075027322959
 20
42.888764937725597
 11
68.688022358062881
 21
43.082326938545208
  0
LINE
  8
_0-2______1
  6
CONTINUOUS
 62
    7
 10
68.688022358062881
 20
43.082326938545208
 11
68.64496968880286
 21
43.254362604734908
  0
LINE
  8
_0-2______1
  6
CONTINUOUS
 62
    7
 10
68.64496968880286
 20
43.254362604734908
 11
68.515811681022655
 21
43.383345601664402
  0
LINE
  8
_0-2______1
  6
CONTINUOUS
 62
    7
 10
68.515811681022655
 20
43.383345601664402
 11
68.300898356423573
 21
43.533854933224006
  0
LINE
  8
_0-2______1
  6
CONTINUOUS
 62
    7
 10
68.300898356423573
 20
43.533854933224006
 11
68.085635010123156
 21
43.727416934043703
  0
LINE
  8
_0-2______1
  6
CONTINUOUS
 62
    7
 10
68.085635010123156
 20
43.727416934043703
 11
67.827669016264082
 21
43.899452600233303
  0
LINE
  8
_0-2______1
  6
CONTINUOUS
 62
    7
 10
67.827669016264082
 20
43.899452600233303
 11
67.483597683884881
 21
44.049961931792907
  0
LINE
  8
_0-2______1
  6
CONTINUOUS
 62
    7
 10
67.483597683884881
 20
44.049961931792907
 11
67.09647368224546
 21
44.179119939573098
  0
LINE
  8
_0-2______1
  6
CONTINUOUS
 62
    7
 10
67.09647368224546
 20
44.179119939573098
 11
66.66629701134616
 21
44.372506929542098
  0
LINE
  8
_0-2______1
  6
CONTINUOUS
 62
    7
 10
66.66629701134616
 20
44.372506929542098
 11
66.257821685927382
 21
44.501664937322303
  0
LINE
  8
_0-2______1
  6
CONTINUOUS
 62
    7
 10
66.257821685927382
 20
44.501664937322303
 11
65.741889698209178
 21
44.630647934251897
  0
LINE
  8
_0-2______1
  6
CONTINUOUS
 62
    7
 10
65.741889698209178
 20
44.630647934251897
 11
65.161203695750174
 21
44.759630931181405
  0
LINE
  8
_0-2______1
  6
CONTINUOUS
 62
    7
 10
65.161203695750174
 20
44.759630931181405
 11
64.580517693291171
 21
44.888788938961611
  0
LINE
  8
_0-2______1
  6
CONTINUOUS
 62
    7
 10
64.580517693291171
 20
44.888788938961611
 11
63.956779021572061
 21
45.017771935891204
  0
LINE
  8
_0-2______1
  6
CONTINUOUS
 62
    7
 10
63.956779021572061
 20
45.017771935891204
 11
63.31168902607368
 21
45.146754932820798
  0
LINE
  8
_0-2______1
  6
CONTINUOUS
 62
    7
 10
63.31168902607368
 20
45.146754932820798
 11
62.644897685094463
 21
45.211333936710901
  0
LINE
  8
_0-2______1
  6
CONTINUOUS
 62
    7
 10
62.644897685094463
 20
45.211333936710901
 11
61.892351027296456
 21
45.318790599010399
  0
LINE
  8
_0-2______1
  6
CONTINUOUS
 62
    7
 10
61.892351027296456
 20
45.318790599010399
 11
61.11810302401787
 21
45.404895937530497
  0
LINE
  8
_0-2______1
  6
CONTINUOUS
 62
    7
 10
61.11810302401787
 20
45.404895937530497
 11
60.343855020739255
 21
45.469299930570003
  0
LINE
  8
_0-2______1
  6
CONTINUOUS
 62
    7
 10
60.343855020739255
 20
45.469299930570003
 11
59.569607017460555
 21
45.533878934460105
  0
LINE
  8
_0-2______1
  6
CONTINUOUS
 62
    7
 10
59.569607017460555
 20
45.533878934460105
 11
58.774007690402556
 21
45.598457938350208
  0
LINE
  8
_0-2______1
  6
CONTINUOUS
 62
    7
 10
68.731075027322959
 20
64.630712935762304
 11
68.688022358062881
 21
64.802748601951905
  0
LINE
  8
_0-2______1
  6
CONTINUOUS
 62
    7
 10
68.688022358062881
 20
64.802748601951905
 11
68.601917019542782
 21
64.953257933511509
  0
LINE
  8
_0-2______1
  6
CONTINUOUS
 62
    7
 10
68.601917019542782
 20
64.953257933511509
 11
68.472759011762577
 21
65.146819934331205
  0
LINE
  8
_0-2______1
  6
CONTINUOUS
 62
    7
 10
68.472759011762577
 20
65.146819934331205
 11
68.300898356423573
 21
65.318855600520806
  0
LINE
  8
_0-2______1
  6
CONTINUOUS
 62
    7
 10
68.300898356423573
 20
65.318855600520806
 11
68.042932362564471
 21
65.46936493208041
  0
LINE
  8
_0-2______1
  6
CONTINUOUS
 62
    7
 10
68.042932362564471
 20
65.46936493208041
 11
67.784616347004061
 21
65.662926932899992
  0
LINE
  8
_0-2______1
  6
CONTINUOUS
 62
    7
 10
67.784616347004061
 20
65.662926932899992
 11
67.440545014624774
 21
65.834962599089707
  0
LINE
  8
_0-2______1
  6
CONTINUOUS
 62
    7
 10
67.440545014624774
 20
65.834962599089707
 11
67.032069689206082
 21
65.963945596019201
  0
LINE
  8
_0-2______1
  6
CONTINUOUS
 62
    7
 10
67.032069689206082
 20
65.963945596019201
 11
66.580541694527255
 21
66.114454927578791
  0
LINE
  8
_0-2______1
  6
CONTINUOUS
 62
    7
 10
66.580541694527255
 20
66.114454927578791
 11
66.128663678147177
 21
66.24361293535911
  0
LINE
  8
_0-2______1
  6
CONTINUOUS
 62
    7
 10
66.128663678147177
 20
66.24361293535911
 11
65.548327697389482
 21
66.372595932288604
  0
LINE
  8
_0-2______1
  6
CONTINUOUS
 62
    7
 10
65.548327697389482
 20
66.372595932288604
 11
64.988993018709863
 21
66.5661579331083
  0
LINE
  8
_0-2______1
  6
CONTINUOUS
 62
    7
 10
64.988993018709863
 20
66.5661579331083
 11
64.386955692471474
 21
66.695140930037908
  0
LINE
  8
_0-2______1
  6
CONTINUOUS
 62
    7
 10
64.386955692471474
 20
66.695140930037908
 11
63.74186569697298
 21
66.759719933927997
  0
LINE
  8
_0-2______1
  6
CONTINUOUS
 62
    7
 10
63.74186569697298
 20
66.759719933927997
 11
63.053723032214577
 21
66.888702930857491
  0
LINE
  8
_0-2______1
  6
CONTINUOUS
 62
    7
 10
63.053723032214577
 20
66.888702930857491
 11
62.322527698195955
 21
66.996159593157003
  0
LINE
  8
_0-2______1
  6
CONTINUOUS
 62
    7
 10
62.322527698195955
 20
66.996159593157003
 11
61.612683687956661
 21
67.082264931677216
  0
LINE
  8
_0-2______1
  6
CONTINUOUS
 62
    7
 10
61.612683687956661
 20
67.082264931677216
 11
60.838435684678075
 21
67.146668924716593
  0
LINE
  8
_0-2______1
  6
CONTINUOUS
 62
    7
 10
60.838435684678075
 20
67.146668924716593
 11
59.999783688359969
 21
67.254300597866816
  0
LINE
  8
_0-2______1
  6
CONTINUOUS
 62
    7
 10
59.999783688359969
 20
67.254300597866816
 11
59.182483015821276
 21
67.275826932496798
  0
LINE
  8
_0-2______1
  6
CONTINUOUS
 62
    7
 10
59.182483015821276
 20
67.275826932496798
 11
58.322479695723757
 21
67.383283594796396
  0
LINE
  8
_0-2______1
  6
CONTINUOUS
 62
    7
 10
58.322479695723757
 20
67.383283594796396
 11
57.505179023184979
 21
67.404809929426406
  0
LINE
  8
_0-2______1
  6
CONTINUOUS
 62
    7
 10
57.505179023184979
 20
67.404809929426406
 11
56.64482568138618
 21
67.404809929426406
  0
LINE
  8
_0-2______1
  6
CONTINUOUS
 62
    7
 10
56.64482568138618
 20
67.404809929426406
 11
55.741769692028669
 21
67.469388933316495
  0
LINE
  8
_0-2______1
  6
CONTINUOUS
 62
    7
 10
55.741769692028669
 20
67.469388933316495
 11
53.354621689153163
 21
67.469388933316495
  0
LINE
  8
_0-2______1
  6
CONTINUOUS
 62
    7
 10
42.25788369279536
 20
43.533854933224006
 11
42.515849686654576
 21
43.383345601664402
  0
LINE
  8
_0-2______1
  6
CONTINUOUS
 62
    7
 10
42.515849686654576
 20
43.383345601664402
 11
42.795517025994371
 21
43.254362604734908
  0
LINE
  8
_0-2______1
  6
CONTINUOUS
 62
    7
 10
42.795517025994371
 20
43.254362604734908
 11
43.182641027633679
 21
43.082326938545208
  0
LINE
  8
_0-2______1
  6
CONTINUOUS
 62
    7
 10
43.182641027633679
 20
43.082326938545208
 11
43.634169022312477
 21
42.888764937725597
  0
LINE
  8
_0-2______1
  6
CONTINUOUS
 62
    7
 10
43.634169022312477
 20
42.888764937725597
 11
44.085697016991276
 21
42.759606929945306
  0
LINE
  8
_0-2______1
  6
CONTINUOUS
 62
    7
 10
44.085697016991276
 20
42.759606929945306
 11
44.60197902641076
 21
42.630623933015798
  0
LINE
  8
_0-2______1
  6
CONTINUOUS
 62
    7
 10
44.60197902641076
 20
42.630623933015798
 11
45.22571769812987
 21
42.501640936086204
  0
LINE
  8
_0-2______1
  6
CONTINUOUS
 62
    7
 10
45.22571769812987
 20
42.501640936086204
 11
45.827755024368258
 21
42.37265793915671
  0
LINE
  8
_0-2______1
  6
CONTINUOUS
 62
    7
 10
45.827755024368258
 20
42.37265793915671
 11
46.472845019866782
 21
42.243499931376405
  0
LINE
  8
_0-2______1
  6
CONTINUOUS
 62
    7
 10
46.472845019866782
 20
42.243499931376405
 11
47.160987684625155
 21
42.114516934446897
  0
LINE
  8
_0-2______1
  6
CONTINUOUS
 62
    7
 10
47.160987684625155
 20
42.114516934446897
 11
47.892183018643777
 21
42.050112941407406
  0
LINE
  8
_0-2______1
  6
CONTINUOUS
 62
    7
 10
47.892183018643777
 20
42.050112941407406
 11
48.666431021922477
 21
41.964007602887307
  0
LINE
  8
_0-2______1
  6
CONTINUOUS
 62
    7
 10
48.666431021922477
 20
41.964007602887307
 11
49.419327701421764
 21
41.9209549336272
  0
LINE
  8
_0-2______1
  6
CONTINUOUS
 62
    7
 10
49.419327701421764
 20
41.9209549336272
 11
50.25797969773987
 21
41.835024605957699
  0
LINE
  8
_0-2______1
  6
CONTINUOUS
 62
    7
 10
50.25797969773987
 20
41.835024605957699
 11
51.096631694057976
 21
41.791971936697706
  0
LINE
  8
_0-2______1
  6
CONTINUOUS
 62
    7
 10
51.096631694057976
 20
41.791971936697706
 11
51.935283690376082
 21
41.727392932807604
  0
LINE
  8
_0-2______1
  6
CONTINUOUS
 62
    7
 10
51.935283690376082
 20
41.727392932807604
 11
52.838689701434959
 21
41.705866598177508
  0
ENDSEC
  0
EOF
