  0
SECTION
  2
HEADER
  9
$ACADVER
  1
AC1009
  9
$DWGCODEPAGE
  3
dos932
  9
$INSBASE
 10
0
 20
0
 30
0
  9
$EXTMIN
 10
-3.0466332221965926
 20
-8.0953276713580884
 30
0
  9
$EXTMAX
 10
165.56574563687155
 20
83.047919064773751
 30
0
  9
$LIMMIN
 10
0
 20
0
  9
$LIMMAX
 10
105.125
 20
74.25
  9
$SNAPMODE
 70
0
  9
$SNAPUNIT
 10
1
 20
1
  9
$SNAPBASE
 10
0
 20
0
  9
$SNAPANG
 50
0
  9
$SNAPSTYLE
 70
0
  9
$SNAPISOPAIR
 70
0
  9
$ORTHOMODE
 70
0
  9
$REGENMODE
 70
1
  9
$FILLMODE
 70
1
  9
$QTEXTMODE
 70
0
  9
$MIRRTEXT
 70
0
  9
$LTSCALE
 40
0.125
  9
$OSMODE
 70
37
  9
$ATTMODE
 70
1
  9
$TEXTSIZE
 40
0.2
  9
$TRACEWID
 40
0.05
  9
$TEXTSTYLE
  7
STANDARD
  9
$CLAYER
  8
0
  9
$CELTYPE
  6
CONTINUOUS
  9
$CECOLOR
 62
256
  9
$DIMSCALE
 40
1
  9
$DIMASZ
 40
0.18
  9
$DIMEXO
 40
0.0625
  9
$DIMDLI
 40
0.38
  9
$DIMRND
 40
0
  9
$DIMDLE
 40
0
  9
$DIMEXE
 40
0.18
  9
$DIMTP
 40
0
  9
$DIMTM
 40
0
  9
$DIMTXT
 40
0.18
  9
$DIMCEN
 40
0.09
  9
$DIMTSZ
 40
0
  9
$DIMTOL
 70
0
  9
$DIMLIM
 70
0
  9
$DIMTIH
 70
1
  9
$DIMTOH
 70
1
  9
$DIMSE1
 70
0
  9
$DIMSE2
 70
0
  9
$DIMTAD
 70
0
  9
$DIMZIN
 70
0
  9
$DIMBLK
  1

  9
$DIMASO
 70
1
  9
$DIMSHO
 70
1
  9
$DIMPOST
  1

  9
$DIMAPOST
  1

  9
$DIMALT
 70
0
  9
$DIMALTD
 70
2
  9
$DIMALTF
 40
25.4
  9
$DIMLFAC
 40
1
  9
$DIMTOFL
 70
0
  9
$DIMTVP
 40
0
  9
$DIMTIX
 70
0
  9
$DIMSOXD
 70
0
  9
$DIMSAH
 70
0
  9
$DIMBLK1
  1

  9
$DIMBLK2
  1

  9
$DIMSTYLE
  2
STANDARD
  9
$DIMCLRD
 70
0
  9
$DIMCLRE
 70
0
  9
$DIMCLRT
 70
0
  9
$DIMTFAC
 40
1
  9
$DIMGAP
 40
0.09
  9
$LUNITS
 70
2
  9
$LUPREC
 70
4
  9
$SKETCHINC
 40
0.1
  9
$FILLETRAD
 40
0
  9
$AUNITS
 70
0
  9
$AUPREC
 70
0
  9
$MENU
  1
.
  9
$ELEVATION
 40
0
  9
$PELEVATION
 40
0
  9
$THICKNESS
 40
0
  9
$LIMCHECK
 70
0
  9
$CHAMFERA
 40
0
  9
$CHAMFERB
 40
0
  9
$SKPOLY
 70
0
  9
$TDCREATE
 40
2456622.5523805902
  9
$TDUPDATE
 40
2457205.4337302432
  9
$TDINDWG
 40
0.034119745370370373
  9
$TDUSRTIMER
 40
0.034119745370370373
  9
$USRTIMER
 70
1
  9
$ANGBASE
 50
0
  9
$ANGDIR
 70
0
  9
$PDMODE
 70
0
  9
$PDSIZE
 40
0
  9
$PLINEWID
 40
0
  9
$SPLFRAME
 70
0
  9
$SPLINETYPE
 70
6
  9
$SPLINESEGS
 70
8
  9
$HANDLING
 70
1
  9
$HANDSEED
  5
1BE59
  9
$SURFTAB1
 70
6
  9
$SURFTAB2
 70
6
  9
$SURFTYPE
 70
6
  9
$SURFU
 70
6
  9
$SURFV
 70
6
  9
$UCSORG
 10
0
 20
0
 30
0
  9
$UCSXDIR
 10
1
 20
0
 30
0
  9
$UCSYDIR
 10
0
 20
1
 30
0
  9
$PUCSORG
 10
0
 20
0
 30
0
  9
$PUCSXDIR
 10
1
 20
0
 30
0
  9
$PUCSYDIR
 10
0
 20
1
 30
0
  9
$USERI1
 70
0
  9
$USERI2
 70
0
  9
$USERI3
 70
0
  9
$USERI4
 70
0
  9
$USERI5
 70
0
  9
$USERR1
 40
0
  9
$USERR2
 40
0
  9
$USERR3
 40
0
  9
$USERR4
 40
0
  9
$USERR5
 40
0
  9
$WORLDVIEW
 70
1
  9
$SHADEDGE
 70
3
  9
$SHADEDIF
 70
70
  9
$TILEMODE
 70
1
  9
$MAXACTVP
 70
64
  9
$PINSBASE
 10
0
 20
0
 30
0
  9
$PLIMCHECK
 70
0
  9
$PEXTMIN
 10
1E+20
 20
1E+20
 30
1E+20
  9
$PEXTMAX
 10
-1E+20
 20
-1E+20
 30
-1E+20
  9
$PLIMMAX
 10
12
 20
9
  9
$PLIMMIN
 10
0
 20
0
  9
$UNITMODE
 70
0
  9
$VISRETAIN
 70
1
  9
$PLINEGEN
 70
0
  9
$PSLTSCALE
 70
1
  9
$TREEDEPTH
 70
3020
  9
$DRAGMODE
 70
     2
  9
$BLIPMODE
 70
     0
  9
$COORDS
 70
     1
  9
$ATTDIA
 70
     0
  9
$ATTREQ
 70
     1
  0
ENDSEC
  0
SECTION
  2
TABLES
  0
TABLE
  2
VPORT
  5
1BE4B
 70
1
  0
VPORT
  5
1BE1F
  2
*ACTIVE
 70
0
 10
0
 20
0
 11
1
 21
1
 12
87.906371736190337
 22
43.803538720929993
 13
0
 23
0
 14
1
 24
1
 15
0
 25
0
 16
0
 26
0
 36
1
 17
0
 27
0
 37
0
 40
160.64668656280651
 41
1.70722433460076
 42
50
 43
0
 44
0
 50
0
 51
0
 71
0
 72
100
 73
1
 74
1
 75
0
 76
0
 77
0
 78
0
  0
ENDTAB
  0
TABLE
  2
LTYPE
  5
1BE4C
 70
40
  0
LTYPE
  5
1BDF5
  2
CONTINUOUS
  3
実線
 70
0
 72
65
 73
0
 40
0
  0
LTYPE
  5
1BDF6
  2
DASHED1
  3
--  --  --  --  --  --  --  --  
 70
0
 72
65
 73
2
 40
2.5
 49
1.25
 49
-1.25
  0
LTYPE
  5
1BDF7
  2
DASHED2
  3
----    ----    ----    ----    
 70
0
 72
65
 73
2
 40
5
 49
2.5
 49
-2.5
  0
LTYPE
  5
1BDF8
  2
DASHED3
  3
------  ------  ------  ------  
 70
0
 72
65
 73
2
 40
5
 49
3.75
 49
-1.25
  0
LTYPE
  5
1BDF9
  2
CENTER1
  3
----- - ----- - ----- - ----- - 
 70
0
 72
65
 73
4
 40
10
 49
6.25
 49
-1.25
 49
1.25
 49
-1.25
  0
LTYPE
  5
1BDFA
  2
CENTER2
  3
----------  --  ----------  --  
 70
0
 72
65
 73
4
 40
20
 49
12.5
 49
-2.5
 49
2.5
 49
-2.5
  0
LTYPE
  5
1BDFB
  2
PHANTOM1
  3
--- - - --- - - --- - - --- - - 
 70
0
 72
65
 73
6
 40
9.5
 49
3.25
 49
-1.25
 49
1.25
 49
-1.25
 49
1.25
 49
-1.25
  0
LTYPE
  5
1BDFC
  2
PHANTOM2
  3
--------  -  -  --------  -  -  
 70
0
 72
65
 73
6
 40
20
 49
10
 49
-2.5
 49
1.25
 49
-2.5
 49
1.25
 49
-2.5
  0
LTYPE
  5
1BDFD
  2
DOT
  3
-   -   -   -   -   -   -   -   
 70
0
 72
65
 73
2
 40
2.5
 49
0.625
 49
-1.875
  0
LTYPE
  5
1BDFE
  2
DUMMY
  3
ダミー
 70
0
 72
65
 73
0
 40
0
  0
LTYPE
  5
1BDFF
  2
RAND1
  3
ランダム線1
 70
0
 72
65
 73
4
 40
10
 49
1
 49
-2
 49
3
 49
-4
  0
LTYPE
  5
1BE00
  2
RAND2
  3
ランダム線2
 70
0
 72
65
 73
4
 40
14
 49
2
 49
-3
 49
4
 49
-5
  0
LTYPE
  5
1BE01
  2
RAND3
  3
ランダム線3
 70
0
 72
65
 73
4
 40
18
 49
3
 49
-4
 49
5
 49
-6
  0
LTYPE
  5
1BE02
  2
RAND4
  3
ランダム線4
 70
0
 72
65
 73
4
 40
22
 49
4
 49
-5
 49
6
 49
-7
  0
LTYPE
  5
1BE03
  2
RAND5
  3
ランダム線5
 70
0
 72
65
 73
4
 40
26
 49
5
 49
-6
 49
7
 49
-8
  0
LTYPE
  5
1BE04
  2
LONG1
  3
----------  --  ----------  --  
 70
0
 72
65
 73
4
 40
40
 49
32.5
 49
-2.5
 49
2.5
 49
-2.5
  0
LTYPE
  5
1BE05
  2
LONG2
  3
--------  -  -  --------  -  -  
 70
0
 72
65
 73
6
 40
40
 49
30
 49
-2.5
 49
1.25
 49
-2.5
 49
1.25
 49
-2.5
  0
LTYPE
  5
1BE06
  2
LONG3
  3
+++++++++++++++..+++++++++++++++
 70
0
 72
65
 73
2
 40
40
 49
37.5
 49
-2.5
  0
LTYPE
  5
1BE07
  2
LONG4
  3
+++++++++++++++..+++++++++++++++
 70
0
 72
65
 73
2
 40
80
 49
75
 49
-5
  0
LTYPE
  5
1BE08
  2
LONG5
  3
----------  --  ----------  --  
 70
0
 72
65
 73
4
 40
60
 49
37.5
 49
-7.5
 49
7.5
 49
-7.5
  0
LTYPE
  5
1BE09
  2
DASHED
  3
-------   -------------   ------
 70
0
 72
65
 73
2
 40
3.8
 49
3
 49
-0.8
  0
LTYPE
  5
1BE0A
  2
DASHED_SPACED
  3
----        --------        ----
 70
0
 72
65
 73
2
 40
12
 49
6
 49
-6
  0
LTYPE
  5
1BE0B
  2
LONG_DASHED_DOTTED
  3
------------- --- --------------
 70
0
 72
65
 73
4
 40
15.25
 49
12
 49
-1.5
 49
0.25
 49
-1.5
  0
LTYPE
  5
1BE0C
  2
LONG_DASHED_DOUBLE-DOTTED
  3
----------- --- --- ------------
 70
0
 72
65
 73
6
 40
17
 49
12
 49
-1.5
 49
0.25
 49
-1.5
 49
0.25
 49
-1.5
  0
LTYPE
  5
1BE0D
  2
LONG_DASHED_TRIPLICATE-DOT
  3
--------- --- --- --- ----------
 70
0
 72
65
 73
8
 40
18.75
 49
12
 49
-1.5
 49
0.25
 49
-1.5
 49
0.25
 49
-1.5
 49
0.25
 49
-1.5
  0
LTYPE
  5
1BE0E
  2
DOTTED
  3
   -       -       -       -    
 70
0
 72
65
 73
2
 40
1.75
 49
0.25
 49
-1.5
  0
LTYPE
  5
1BE0F
  2
CHAIN
  3
-------------- -- --------------
 70
0
 72
65
 73
4
 40
18.5
 49
12
 49
-1.5
 49
3.5
 49
-1.5
  0
LTYPE
  5
1BE10
  2
CHAIN_DOUBLE_DASH
  3
------------ -- -- -------------
 70
0
 72
65
 73
6
 40
23.5
 49
12
 49
-1.5
 49
3.5
 49
-1.5
 49
3.5
 49
-1.5
  0
LTYPE
  5
1BE11
  2
DASHED_DOTTED
  3
-----------     -     ----------
 70
0
 72
65
 73
4
 40
9.25
 49
6
 49
-1.5
 49
0.25
 49
-1.5
  0
LTYPE
  5
1BE12
  2
DOUBLE-DASHED_DOTTED
  3
------   -----------   -   -----
 70
0
 72
65
 73
6
 40
16.75
 49
6
 49
-1.5
 49
6
 49
-1.5
 49
0.25
 49
-1.5
  0
LTYPE
  5
1BE13
  2
DASHED_DOUBLE-DOTTED
  3
---------    -    -    ---------
 70
0
 72
65
 73
6
 40
11
 49
6
 49
-1.5
 49
0.25
 49
-1.5
 49
0.25
 49
-1.5
  0
LTYPE
  5
1BE14
  2
DOUBLE-DASHED_DOUBLE-DOTTE
  3
-----   ---------   -   -   ----
 70
0
 72
65
 73
8
 40
18.5
 49
6
 49
-1.5
 49
6
 49
-1.5
 49
0.25
 49
-1.5
 49
0.25
 49
-1.5
  0
LTYPE
  5
1BE15
  2
DASHED_TRIPLICATE-DOTTED
  3
-------    -    -    -    ------
 70
0
 72
65
 73
8
 40
12.75
 49
6
 49
-1.5
 49
0.25
 49
-1.5
 49
0.25
 49
-1.5
 49
0.25
 49
-1.5
  0
LTYPE
  5
1BE16
  2
DOUBLE-DASHED_TRIPLICATE-D
  3
-----  ---------  -  -  -  -----
 70
0
 72
65
 73
10
 40
20.25
 49
6
 49
-1.5
 49
6
 49
-1.5
 49
0.25
 49
-1.5
 49
0.25
 49
-1.5
 49
0.25
 49
-1.5
  0
LTYPE
  5
1BE17
  2
UNDEFINED
  3
--------------------------------
 70
0
 72
65
 73
0
 40
0
  0
LTYPE
  5
1BE18
  2
DOT_18
  3
----        --------        ----
 70
0
 72
65
 73
2
 40
2
 49
1
 49
-1
  0
LTYPE
  5
1BE19
  2
DASHDOT
  3
------------   --   ------------
 70
0
 72
65
 73
4
 40
25.6
 49
20
 49
-2
 49
1.6
 49
-2
  0
LTYPE
  5
1BE1A
  2
DIVIDE
  3
-----------  --  --  -----------
 70
0
 72
65
 73
6
 40
31.199999999999996
 49
20
 49
-2.399999999999999
 49
2
 49
-2.399999999999999
 49
2
 49
-2.399999999999999
  0
LTYPE
  5
1BE1B
  2
ByBlock
  3

 70
64
 72
65
 73
0
 40
0
  0
LTYPE
  5
1BE1C
  2
ByLayer
  3

 70
64
 72
65
 73
0
 40
0
  0
ENDTAB
  0
TABLE
  2
LAYER
  5
1BE4D
 70
2
  0
LAYER
  5
1BDDE
 70
0
  2
0
 62
7
  6
CONTINUOUS
  0
LAYER
  5
1BDDF
 70
0
  2
SPEC
 62
7
  6
CONTINUOUS
  0
ENDTAB
  0
TABLE
  2
STYLE
  5
1BE4E
 70
3
  0
STYLE
  5
1BDF2
  2
STANDARD
 70
0
 40
0
 41
1
 50
0
 71
0
 42
0.2
  3
txt.shx
  4
extfont2.shx
  0
STYLE
  5
1BDF3
  2
ANNOTATIVE
 70
0
 40
0
 41
1
 50
0
 71
0
 42
0.2
  3
txt
  0
STYLE
  5
1BDF4
  2
TATEGAKI
 70
4
 40
0
 41
1
 50
0
 71
0
 42
1
  3
txt
  4
bigfont.shx
  0
ENDTAB
  0
TABLE
  2
APPID
  5
1BE51
 70
4
  0
APPID
  5
1BE52
  2
ACAD
 70
0
  0
APPID
  5
1BE55
  2
ACADANNOTATIVE
 70
0
  0
APPID
  5
1BE56
  2
ACAD_MLEADERVER
 70
0
  0
APPID
  5
1BE57
  2
ACAD_EXEMPT_FROM_CAD_STANDARDS
 70
0
  0
ENDTAB
  0
TABLE
  2
DIMSTYLE
  5
1BE53
 70
2
  0
DIMSTYLE
105
1BE1D
  2
STANDARD
 70
0
  3

  4

  5

  6

  7

 40
1
 41
0.18
 42
0.0625
 43
0.38
 44
0.18
 45
0
 46
0
 47
0
 48
0
140
0.18
141
0.09
142
0
143
25.4
144
1
145
0
146
1
147
0.09
 71
0
 72
0
 73
1
 74
1
 75
0
 76
0
 77
0
 78
0
170
0
171
2
172
0
173
0
174
0
175
0
176
0
177
0
178
0
  0
DIMSTYLE
105
1BE1E
  2
ANNOTATIVE
 70
0
  3

  4

  5

  6

  7

 40
1
 41
0.18
 42
0.0625
 43
0.38
 44
0.18
 45
0
 46
0
 47
0
 48
0
140
0.18
141
0.09
142
0
143
25.4
144
1
145
0
146
1
147
0.09
 71
0
 72
0
 73
1
 74
1
 75
0
 76
0
 77
0
 78
0
170
0
171
2
172
0
173
0
174
0
175
0
176
0
177
0
178
0
  0
ENDTAB
  0
ENDSEC
  0
SECTION
  2
BLOCKS
  0
BLOCK
  5
1BDE1
  8
0
  2
$MODEL_SPACE
 70
0
 10
0
 20
0
 30
0
  3
$MODEL_SPACE
  0
ENDBLK
  5
9FD8
  8
0
  0
BLOCK
  5
1BDE3
  8
0
 67
1
  2
$PAPER_SPACE
 70
0
 10
0
 20
0
 30
0
  3
$PAPER_SPACE
  0
ENDBLK
  5
9FD4
  8
0
  0
BLOCK
  5
1BDE5
  8
0
  2
SPEC_BLOCK
 70
64
 10
0
 20
0
 30
0
  3
SPEC_BLOCK
  0
TEXT
  5
1BDE6
  8
SPEC
 10
0
 20
0
 30
0
 40
1.5
  1
LED 口金:E17
  7
STANDARD
  0
TEXT
  5
1BDE7
  8
SPEC
 10
0
 20
-3
 30
0
 40
1.5
  1
本体:鋼板 白色塗装仕上
  7
STANDARD
  0
TEXT
  5
1BDE8
  8
SPEC
 10
0
 20
-6
 30
0
 40
1.5
  1
質量:0.5kg
  7
STANDARD
  0
ENDBLK
  5
1BDE9
  8
0
  0
BLOCK
  5
1BDEB
  8
0
  2
*MODEL_SPACE
 70
64
 10
0
 20
0
 30
0
  3
*MODEL_SPACE
  0
ENDBLK
  5
1BDEE
  8
0
  0
BLOCK
  5
1BDF0
  8
0
 67
1
  2
*PAPER_SPACE
 70
64
 10
0
 20
0
 30
0
  3
*PAPER_SPACE
  0
ENDBLK
  5
1BDF1
  8
0
  0
ENDSEC
  0
SECTION
  2
ENTITIES
  0
TEXT
  5
A3
  8
0
 62
7
 10
-3.5582294022784482
 20
-7.3750000000000142
 30
0
 40
5
  1
三菱 EL-VE1726C
  7
STANDARD
  0
TEXT
  5
A4
  8
0
 62
7
 10
-3.5582294022784482
 20
76.624999999999986
 30
0
 40
5
  1
LEDx1 ブラケット
  7
STANDARD
  0
POLYLINE
  5
1BB9A
  8
0
 62
7
 66
1
 70
0
 10
0
 20
0
 30
0
  0
VERTEX
  5
1BB9B
  8
0
 62
7
 10
48.359874891942013
 20
33.956407107009227
 70
0
  0
VERTEX
  5
1BB9C
  8
0
 62
7
 10
49.332769856976569
 20
33.997575998057982
 70
0
  0
SEQEND
  5
1BB9D
  8
0
  0
POLYLINE
  5
1BB9E
  8
0
 62
7
 66
1
 70
0
 10
0
 20
0
 30
0
  0
VERTEX
  5
1BB9F
  8
0
 62
7
 10
49.332769856976569
 20
33.997575998057982
 70
0
  0
VERTEX
  5
1BBA0
  8
0
 62
7
 10
50.307042860205222
 20
34.083014366092193
 70
0
  0
SEQEND
  5
1BBA1
  8
0
  0
POLYLINE
  5
1BBA2
  8
0
 62
7
 66
1
 70
0
 10
0
 20
0
 30
0
  0
VERTEX
  5
1BBA3
  8
0
 62
7
 10
50.307042860205222
 20
34.083014366092193
 70
0
  0
VERTEX
  5
1BBA4
  8
0
 62
7
 10
51.237218641222682
 20
34.25268531874076
 70
0
  0
SEQEND
  5
1BBA5
  8
0
  0
POLYLINE
  5
1BBA6
  8
0
 62
7
 66
1
 70
0
 10
0
 20
0
 30
0
  0
VERTEX
  5
1BBA7
  8
0
 62
7
 10
51.237218641222682
 20
34.25268531874076
 70
0
  0
VERTEX
  5
1BBA8
  8
0
 62
7
 10
52.211491644451343
 20
34.463352907663761
 70
0
  0
SEQEND
  5
1BBA9
  8
0
  0
POLYLINE
  5
1BBAA
  8
0
 62
7
 66
1
 70
0
 10
0
 20
0
 30
0
  0
VERTEX
  5
1BBAB
  8
0
 62
7
 10
52.211491644451343
 20
34.463352907663761
 70
0
  0
VERTEX
  5
1BBAC
  8
0
 62
7
 10
53.1430454636629
 20
34.716911935378171
 70
0
  0
SEQEND
  5
1BBAD
  8
0
  0
POLYLINE
  5
1BBAE
  8
0
 62
7
 66
1
 70
0
 10
0
 20
0
 30
0
  0
VERTEX
  5
1BBAF
  8
0
 62
7
 10
53.1430454636629
 20
34.716911935378171
 70
0
  0
VERTEX
  5
1BBB0
  8
0
 62
7
 10
54.074599282874459
 20
35.055909331126713
 70
0
  0
SEQEND
  5
1BBB1
  8
0
  0
POLYLINE
  5
1BBB2
  8
0
 62
7
 66
1
 70
0
 10
0
 20
0
 30
0
  0
VERTEX
  5
1BBB3
  8
0
 62
7
 10
54.074599282874459
 20
35.055909331126713
 70
0
  0
VERTEX
  5
1BBB4
  8
0
 62
7
 10
54.963433918068922
 20
35.437625910892393
 70
0
  0
SEQEND
  5
1BBB5
  8
0
  0
POLYLINE
  5
1BBB6
  8
0
 62
7
 66
1
 70
0
 10
0
 20
0
 30
0
  0
VERTEX
  5
1BBB7
  8
0
 62
7
 10
54.963433918068922
 20
35.437625910892393
 70
0
  0
VERTEX
  5
1BBB8
  8
0
 62
7
 10
55.809549369246263
 20
35.8606836364811
 70
0
  0
SEQEND
  5
1BBB9
  8
0
  0
POLYLINE
  5
1BBBA
  8
0
 62
7
 66
1
 70
0
 10
0
 20
0
 30
0
  0
VERTEX
  5
1BBBB
  8
0
 62
7
 10
55.809549369246263
 20
35.8606836364811
 70
0
  0
VERTEX
  5
1BBBC
  8
0
 62
7
 10
56.655664820423617
 20
36.326288291312608
 70
0
  0
SEQEND
  5
1BBBD
  8
0
  0
POLYLINE
  5
1BBBE
  8
0
 62
7
 66
1
 70
0
 10
0
 20
0
 30
0
  0
VERTEX
  5
1BBBF
  8
0
 62
7
 10
56.655664820423617
 20
36.326288291312608
 70
0
  0
VERTEX
  5
1BBC0
  8
0
 62
7
 10
57.503158309795083
 20
36.876297785532763
 70
0
  0
SEQEND
  5
1BBC1
  8
0
  0
POLYLINE
  5
1BBC2
  8
0
 62
7
 66
1
 70
0
 10
0
 20
0
 30
0
  0
VERTEX
  5
1BBC3
  8
0
 62
7
 10
57.503158309795083
 20
36.876297785532763
 70
0
  0
VERTEX
  5
1BBC4
  8
0
 62
7
 10
58.265213431132359
 20
37.426307279752912
 70
0
  0
SEQEND
  5
1BBC5
  8
0
  0
POLYLINE
  5
1BBC6
  8
0
 62
7
 66
1
 70
0
 10
0
 20
0
 30
0
  0
VERTEX
  5
1BBC7
  8
0
 62
7
 10
58.265213431132359
 20
37.426307279752912
 70
0
  0
VERTEX
  5
1BBC8
  8
0
 62
7
 10
59.02589051427551
 20
38.061238377684447
 70
0
  0
SEQEND
  5
1BBC9
  8
0
  0
POLYLINE
  5
1BBCA
  8
0
 62
7
 66
1
 70
0
 10
0
 20
0
 30
0
  0
VERTEX
  5
1BBCB
  8
0
 62
7
 10
59.02589051427551
 20
38.061238377684447
 70
0
  0
VERTEX
  5
1BBCC
  8
0
 62
7
 10
59.746604489789767
 20
38.696686239938742
 70
0
  0
SEQEND
  5
1BBCD
  8
0
  0
POLYLINE
  5
1BBCE
  8
0
 62
7
 66
1
 70
0
 10
0
 20
0
 30
0
  0
VERTEX
  5
1BBCF
  8
0
 62
7
 10
59.746604489789767
 20
38.696686239938742
 70
0
  0
VERTEX
  5
1BBD0
  8
0
 62
7
 10
60.423221243092847
 20
39.416022177258917
 70
0
  0
SEQEND
  5
1BBD1
  8
0
  0
POLYLINE
  5
1BBD2
  8
0
 62
7
 66
1
 70
0
 10
0
 20
0
 30
0
  0
VERTEX
  5
1BBD3
  8
0
 62
7
 10
60.423221243092847
 20
39.416022177258917
 70
0
  0
VERTEX
  5
1BBD4
  8
0
 62
7
 10
61.0584968505729
 20
40.1779050438219
 70
0
  0
SEQEND
  5
1BBD5
  8
0
  0
POLYLINE
  5
1BBD6
  8
0
 62
7
 66
1
 70
0
 10
0
 20
0
 30
0
  0
VERTEX
  5
1BBD7
  8
0
 62
7
 10
61.0584968505729
 20
40.1779050438219
 70
0
  0
VERTEX
  5
1BBD8
  8
0
 62
7
 10
61.651053274035888
 20
40.9403046747077
 70
0
  0
SEQEND
  5
1BBD9
  8
0
  0
POLYLINE
  5
1BBDA
  8
0
 62
7
 66
1
 70
0
 10
0
 20
0
 30
0
  0
VERTEX
  5
1BBDB
  8
0
 62
7
 10
61.651053274035888
 20
40.9403046747077
 70
0
  0
VERTEX
  5
1BBDC
  8
0
 62
7
 10
62.200890513481767
 20
41.744906725287819
 70
0
  0
SEQEND
  5
1BBDD
  8
0
  0
POLYLINE
  5
1BBDE
  8
0
 62
7
 66
1
 70
0
 10
0
 20
0
 30
0
  0
VERTEX
  5
1BBDF
  8
0
 62
7
 10
62.200890513481767
 20
41.744906725287819
 70
0
  0
VERTEX
  5
1BBE0
  8
0
 62
7
 10
62.666667423087539
 20
42.591022176465167
 70
0
  0
SEQEND
  5
1BBE1
  8
0
  0
POLYLINE
  5
1BBE2
  8
0
 62
7
 66
1
 70
0
 10
0
 20
0
 30
0
  0
VERTEX
  5
1BBE3
  8
0
 62
7
 10
62.666667423087539
 20
42.591022176465167
 70
0
  0
VERTEX
  5
1BBE4
  8
0
 62
7
 10
63.132444332693318
 20
43.4373098824168
 70
0
  0
SEQEND
  5
1BBE5
  8
0
  0
POLYLINE
  5
1BBE6
  8
0
 62
7
 66
1
 70
0
 10
0
 20
0
 30
0
  0
VERTEX
  5
1BBE7
  8
0
 62
7
 10
63.132444332693318
 20
43.4373098824168
 70
0
  0
VERTEX
  5
1BBE8
  8
0
 62
7
 10
63.514160912459012
 20
44.325972262837013
 70
0
  0
SEQEND
  5
1BBE9
  8
0
  0
POLYLINE
  5
1BBEA
  8
0
 62
7
 66
1
 70
0
 10
0
 20
0
 30
0
  0
VERTEX
  5
1BBEB
  8
0
 62
7
 10
63.514160912459012
 20
44.325972262837013
 70
0
  0
VERTEX
  5
1BBEC
  8
0
 62
7
 10
63.514160912459012
 20
44.325972262837013
 70
0
  0
SEQEND
  5
1BBED
  8
0
  0
POLYLINE
  5
1BBEE
  8
0
 62
7
 66
1
 70
0
 10
0
 20
0
 30
0
  0
VERTEX
  5
1BBEF
  8
0
 62
7
 10
48.78293261753069
 20
32.642964453257783
 70
0
  0
VERTEX
  5
1BBF0
  8
0
 62
7
 10
49.755827582565253
 20
32.685683637274849
 70
0
  0
SEQEND
  5
1BBF1
  8
0
  0
POLYLINE
  5
1BBF2
  8
0
 62
7
 66
1
 70
0
 10
0
 20
0
 30
0
  0
VERTEX
  5
1BBF3
  8
0
 62
7
 10
49.755827582565253
 20
32.685683637274849
 70
0
  0
VERTEX
  5
1BBF4
  8
0
 62
7
 10
50.6873814017768
 20
32.812635405906292
 70
0
  0
SEQEND
  5
1BBF5
  8
0
  0
POLYLINE
  5
1BBF6
  8
0
 62
7
 66
1
 70
0
 10
0
 20
0
 30
0
  0
VERTEX
  5
1BBF7
  8
0
 62
7
 10
50.6873814017768
 20
32.812635405906292
 70
0
  0
VERTEX
  5
1BBF8
  8
0
 62
7
 10
51.661654405005457
 20
32.981961849006318
 70
0
  0
SEQEND
  5
1BBF9
  8
0
  0
POLYLINE
  5
1BBFA
  8
0
 62
7
 66
1
 70
0
 10
0
 20
0
 30
0
  0
VERTEX
  5
1BBFB
  8
0
 62
7
 10
51.661654405005457
 20
32.981961849006318
 70
0
  0
VERTEX
  5
1BBFC
  8
0
 62
7
 10
52.591830186022918
 20
33.194351985671972
 70
0
  0
SEQEND
  5
1BBFD
  8
0
  0
POLYLINE
  5
1BBFE
  8
0
 62
7
 66
1
 70
0
 10
0
 20
0
 30
0
  0
VERTEX
  5
1BBFF
  8
0
 62
7
 10
52.591830186022918
 20
33.194351985671972
 70
0
  0
VERTEX
  5
1BC00
  8
0
 62
7
 10
53.523384005234469
 20
33.447566503837841
 70
0
  0
SEQEND
  5
1BC01
  8
0
  0
POLYLINE
  5
1BC02
  8
0
 62
7
 66
1
 70
0
 10
0
 20
0
 30
0
  0
VERTEX
  5
1BC03
  8
0
 62
7
 10
53.523384005234469
 20
33.447566503837841
 70
0
  0
VERTEX
  5
1BC04
  8
0
 62
7
 10
54.412218640428932
 20
33.74401697034358
 70
0
  0
SEQEND
  5
1BC05
  8
0
  0
POLYLINE
  5
1BC06
  8
0
 62
7
 66
1
 70
0
 10
0
 20
0
 30
0
  0
VERTEX
  5
1BC07
  8
0
 62
7
 10
54.412218640428932
 20
33.74401697034358
 70
0
  0
VERTEX
  5
1BC08
  8
0
 62
7
 10
55.301053275623381
 20
34.124355511915162
 70
0
  0
SEQEND
  5
1BC09
  8
0
  0
POLYLINE
  5
1BC0A
  8
0
 62
7
 66
1
 70
0
 10
0
 20
0
 30
0
  0
VERTEX
  5
1BC0B
  8
0
 62
7
 10
55.301053275623381
 20
34.124355511915162
 70
0
  0
VERTEX
  5
1BC0C
  8
0
 62
7
 10
56.189887910817838
 20
34.5486190209237
 70
0
  0
SEQEND
  5
1BC0D
  8
0
  0
POLYLINE
  5
1BC0E
  8
0
 62
7
 66
1
 70
0
 10
0
 20
0
 30
0
  0
VERTEX
  5
1BC0F
  8
0
 62
7
 10
56.189887910817838
 20
34.5486190209237
 70
0
  0
VERTEX
  5
1BC10
  8
0
 62
7
 10
57.037381400189311
 20
35.01319014710964
 70
0
  0
SEQEND
  5
1BC11
  8
0
  0
POLYLINE
  5
1BC12
  8
0
 62
7
 66
1
 70
0
 10
0
 20
0
 30
0
  0
VERTEX
  5
1BC13
  8
0
 62
7
 10
57.037381400189311
 20
35.01319014710964
 70
0
  0
VERTEX
  5
1BC14
  8
0
 62
7
 10
57.840777667349577
 20
35.478967056715419
 70
0
  0
SEQEND
  5
1BC15
  8
0
  0
POLYLINE
  5
1BC16
  8
0
 62
7
 66
1
 70
0
 10
0
 20
0
 30
0
  0
VERTEX
  5
1BC17
  8
0
 62
7
 10
57.840777667349577
 20
35.478967056715419
 70
0
  0
VERTEX
  5
1BC18
  8
0
 62
7
 10
58.645551972703942
 20
36.030354589129672
 70
0
  0
SEQEND
  5
1BC19
  8
0
  0
POLYLINE
  5
1BC1A
  8
0
 62
7
 66
1
 70
0
 10
0
 20
0
 30
0
  0
VERTEX
  5
1BC1B
  8
0
 62
7
 10
58.645551972703942
 20
36.030354589129672
 70
0
  0
VERTEX
  5
1BC1C
  8
0
 62
7
 10
59.4076070940412
 20
36.622566503044091
 70
0
  0
SEQEND
  5
1BC1D
  8
0
  0
POLYLINE
  5
1BC1E
  8
0
 62
7
 66
1
 70
0
 10
0
 20
0
 30
0
  0
VERTEX
  5
1BC1F
  8
0
 62
7
 10
59.4076070940412
 20
36.622566503044091
 70
0
  0
VERTEX
  5
1BC20
  8
0
 62
7
 10
60.169662215378452
 20
37.256636327104331
 70
0
  0
SEQEND
  5
1BC21
  8
0
  0
POLYLINE
  5
1BC22
  8
0
 62
7
 66
1
 70
0
 10
0
 20
0
 30
0
  0
VERTEX
  5
1BC23
  8
0
 62
7
 10
60.169662215378452
 20
37.256636327104331
 70
0
  0
VERTEX
  5
1BC24
  8
0
 62
7
 10
60.846278968681531
 20
37.934631118601487
 70
0
  0
SEQEND
  5
1BC25
  8
0
  0
POLYLINE
  5
1BC26
  8
0
 62
7
 66
1
 70
0
 10
0
 20
0
 30
0
  0
VERTEX
  5
1BC27
  8
0
 62
7
 10
60.846278968681531
 20
37.934631118601487
 70
0
  0
VERTEX
  5
1BC28
  8
0
 62
7
 10
61.52427376017868
 20
38.6112478719046
 70
0
  0
SEQEND
  5
1BC29
  8
0
  0
POLYLINE
  5
1BC2A
  8
0
 62
7
 66
1
 70
0
 10
0
 20
0
 30
0
  0
VERTEX
  5
1BC2B
  8
0
 62
7
 10
61.52427376017868
 20
38.6112478719046
 70
0
  0
VERTEX
  5
1BC2C
  8
0
 62
7
 10
62.11683018364166
 20
39.37330299324185
 70
0
  0
SEQEND
  5
1BC2D
  8
0
  0
POLYLINE
  5
1BC2E
  8
0
 62
7
 66
1
 70
0
 10
0
 20
0
 30
0
  0
VERTEX
  5
1BC2F
  8
0
 62
7
 10
62.11683018364166
 20
39.37330299324185
 70
0
  0
VERTEX
  5
1BC30
  8
0
 62
7
 10
62.709386607104648
 20
40.135185859804842
 70
0
  0
SEQEND
  5
1BC31
  8
0
  0
POLYLINE
  5
1BC32
  8
0
 62
7
 66
1
 70
0
 10
0
 20
0
 30
0
  0
VERTEX
  5
1BC33
  8
0
 62
7
 10
62.709386607104648
 20
40.135185859804842
 70
0
  0
VERTEX
  5
1BC34
  8
0
 62
7
 10
63.259223846550519
 20
40.9403046747077
 70
0
  0
SEQEND
  5
1BC35
  8
0
  0
POLYLINE
  5
1BC36
  8
0
 62
7
 66
1
 70
0
 10
0
 20
0
 30
0
  0
VERTEX
  5
1BC37
  8
0
 62
7
 10
63.259223846550519
 20
40.9403046747077
 70
0
  0
VERTEX
  5
1BC38
  8
0
 62
7
 10
63.7250007561563
 20
41.744906725287819
 70
0
  0
SEQEND
  5
1BC39
  8
0
  0
POLYLINE
  5
1BC3A
  8
0
 62
7
 66
1
 70
0
 10
0
 20
0
 30
0
  0
VERTEX
  5
1BC3B
  8
0
 62
7
 10
63.7250007561563
 20
41.744906725287819
 70
0
  0
VERTEX
  5
1BC3C
  8
0
 62
7
 10
64.190777665762084
 20
42.633569105708027
 70
0
  0
SEQEND
  5
1BC3D
  8
0
  0
POLYLINE
  5
1BC3E
  8
0
 62
7
 66
1
 70
0
 10
0
 20
0
 30
0
  0
VERTEX
  5
1BC3F
  8
0
 62
7
 10
64.190777665762084
 20
42.633569105708027
 70
0
  0
VERTEX
  5
1BC40
  8
0
 62
7
 10
64.613835391350761
 20
43.479856811659651
 70
0
  0
SEQEND
  5
1BC41
  8
0
  0
POLYLINE
  5
1BC42
  8
0
 62
7
 66
1
 70
0
 10
0
 20
0
 30
0
  0
VERTEX
  5
1BC43
  8
0
 62
7
 10
64.613835391350761
 20
43.479856811659651
 70
0
  0
VERTEX
  5
1BC44
  8
0
 62
7
 10
64.952832787099325
 20
44.368519192079809
 70
0
  0
SEQEND
  5
1BC45
  8
0
  0
POLYLINE
  5
1BC46
  8
0
 62
7
 66
1
 70
0
 10
0
 20
0
 30
0
  0
VERTEX
  5
1BC47
  8
0
 62
7
 10
64.952832787099325
 20
44.368519192079809
 70
0
  0
VERTEX
  5
1BC48
  8
0
 62
7
 10
64.952832787099325
 20
44.368519192079809
 70
0
  0
SEQEND
  5
1BC49
  8
0
  0
POLYLINE
  5
1BC4A
  8
0
 62
7
 66
1
 70
0
 10
0
 20
0
 30
0
  0
VERTEX
  5
1BC4B
  8
0
 62
7
 10
33.544586267173628
 20
43.7763072781654
 70
0
  0
VERTEX
  5
1BC4C
  8
0
 62
7
 10
33.8822056247281
 20
42.844581204179583
 70
0
  0
SEQEND
  5
1BC4D
  8
0
  0
POLYLINE
  5
1BC4E
  8
0
 62
7
 66
1
 70
0
 10
0
 20
0
 30
0
  0
VERTEX
  5
1BC4F
  8
0
 62
7
 10
33.8822056247281
 20
42.844581204179583
 70
0
  0
VERTEX
  5
1BC50
  8
0
 62
7
 10
34.263922204493781
 20
41.912855130193748
 70
0
  0
SEQEND
  5
1BC51
  8
0
  0
POLYLINE
  5
1BC52
  8
0
 62
7
 66
1
 70
0
 10
0
 20
0
 30
0
  0
VERTEX
  5
1BC53
  8
0
 62
7
 10
34.263922204493781
 20
41.912855130193748
 70
0
  0
VERTEX
  5
1BC54
  8
0
 62
7
 10
34.72969911409956
 20
40.983023858724827
 70
0
  0
SEQEND
  5
1BC55
  8
0
  0
POLYLINE
  5
1BC56
  8
0
 62
7
 66
1
 70
0
 10
0
 20
0
 30
0
  0
VERTEX
  5
1BC57
  8
0
 62
7
 10
34.72969911409956
 20
40.983023858724827
 70
0
  0
VERTEX
  5
1BC58
  8
0
 62
7
 10
35.279536353545438
 20
40.135185859804842
 70
0
  0
SEQEND
  5
1BC59
  8
0
  0
POLYLINE
  5
1BC5A
  8
0
 62
7
 66
1
 70
0
 10
0
 20
0
 30
0
  0
VERTEX
  5
1BC5B
  8
0
 62
7
 10
35.279536353545438
 20
40.135185859804842
 70
0
  0
VERTEX
  5
1BC5C
  8
0
 62
7
 10
35.872092777008419
 20
39.331961847418832
 70
0
  0
SEQEND
  5
1BC5D
  8
0
  0
POLYLINE
  5
1BC5E
  8
0
 62
7
 66
1
 70
0
 10
0
 20
0
 30
0
  0
VERTEX
  5
1BC5F
  8
0
 62
7
 10
35.872092777008419
 20
39.331961847418832
 70
0
  0
VERTEX
  5
1BC60
  8
0
 62
7
 10
36.507368384488473
 20
38.56990672608157
 70
0
  0
SEQEND
  5
1BC61
  8
0
  0
POLYLINE
  5
1BC62
  8
0
 62
7
 66
1
 70
0
 10
0
 20
0
 30
0
  0
VERTEX
  5
1BC63
  8
0
 62
7
 10
36.507368384488473
 20
38.56990672608157
 70
0
  0
VERTEX
  5
1BC64
  8
0
 62
7
 10
37.226704321808661
 20
37.850570788761388
 70
0
  0
SEQEND
  5
1BC65
  8
0
  0
POLYLINE
  5
1BC66
  8
0
 62
7
 66
1
 70
0
 10
0
 20
0
 30
0
  0
VERTEX
  5
1BC67
  8
0
 62
7
 10
37.226704321808661
 20
37.850570788761388
 70
0
  0
VERTEX
  5
1BC68
  8
0
 62
7
 10
37.988759443145909
 20
37.215295181281363
 70
0
  0
SEQEND
  5
1BC69
  8
0
  0
POLYLINE
  5
1BC6A
  8
0
 62
7
 66
1
 70
0
 10
0
 20
0
 30
0
  0
VERTEX
  5
1BC6B
  8
0
 62
7
 10
37.988759443145909
 20
37.215295181281363
 70
0
  0
VERTEX
  5
1BC6C
  8
0
 62
7
 10
38.793533748500259
 20
36.58001957380128
 70
0
  0
SEQEND
  5
1BC6D
  8
0
  0
POLYLINE
  5
1BC6E
  8
0
 62
7
 66
1
 70
0
 10
0
 20
0
 30
0
  0
VERTEX
  5
1BC6F
  8
0
 62
7
 10
38.793533748500259
 20
36.58001957380128
 70
0
  0
VERTEX
  5
1BC70
  8
0
 62
7
 10
39.639649199677621
 20
36.071523480178371
 70
0
  0
SEQEND
  5
1BC71
  8
0
  0
POLYLINE
  5
1BC72
  8
0
 62
7
 66
1
 70
0
 10
0
 20
0
 30
0
  0
VERTEX
  5
1BC73
  8
0
 62
7
 10
39.639649199677621
 20
36.071523480178371
 70
0
  0
VERTEX
  5
1BC74
  8
0
 62
7
 10
40.528483834872077
 20
35.605574315798322
 70
0
  0
SEQEND
  5
1BC75
  8
0
  0
POLYLINE
  5
1BC76
  8
0
 62
7
 66
1
 70
0
 10
0
 20
0
 30
0
  0
VERTEX
  5
1BC77
  8
0
 62
7
 10
40.528483834872077
 20
35.605574315798322
 70
0
  0
VERTEX
  5
1BC78
  8
0
 62
7
 10
41.460037654083628
 20
35.182688844983943
 70
0
  0
SEQEND
  5
1BC79
  8
0
  0
POLYLINE
  5
1BC7A
  8
0
 62
7
 66
1
 70
0
 10
0
 20
0
 30
0
  0
VERTEX
  5
1BC7B
  8
0
 62
7
 10
41.460037654083628
 20
35.182688844983943
 70
0
  0
VERTEX
  5
1BC7C
  8
0
 62
7
 10
42.391591473295193
 20
34.8862383784782
 70
0
  0
SEQEND
  5
1BC7D
  8
0
  0
POLYLINE
  5
1BC7E
  8
0
 62
7
 66
1
 70
0
 10
0
 20
0
 30
0
  0
VERTEX
  5
1BC7F
  8
0
 62
7
 10
42.391591473295193
 20
34.8862383784782
 70
0
  0
VERTEX
  5
1BC80
  8
0
 62
7
 10
42.391591473295193
 20
34.8862383784782
 70
0
  0
SEQEND
  5
1BC81
  8
0
  0
POLYLINE
  5
1BC82
  8
0
 62
7
 66
1
 70
0
 10
0
 20
0
 30
0
  0
VERTEX
  5
1BC83
  8
0
 62
7
 10
42.391591473295193
 20
34.8862383784782
 70
0
  0
VERTEX
  5
1BC84
  8
0
 62
7
 10
43.237706924472569
 20
34.633023860312342
 70
0
  0
SEQEND
  5
1BC85
  8
0
  0
POLYLINE
  5
1BC86
  8
0
 62
7
 66
1
 70
0
 10
0
 20
0
 30
0
  0
VERTEX
  5
1BC87
  8
0
 62
7
 10
43.237706924472569
 20
34.633023860312342
 70
0
  0
VERTEX
  5
1BC88
  8
0
 62
7
 10
44.08382237564993
 20
34.420633723646688
 70
0
  0
SEQEND
  5
1BC89
  8
0
  0
POLYLINE
  5
1BC8A
  8
0
 62
7
 66
1
 70
0
 10
0
 20
0
 30
0
  0
VERTEX
  5
1BC8B
  8
0
 62
7
 10
44.08382237564993
 20
34.420633723646688
 70
0
  0
VERTEX
  5
1BC8C
  8
0
 62
7
 10
44.931315865021389
 20
34.25268531874076
 70
0
  0
SEQEND
  5
1BC8D
  8
0
  0
POLYLINE
  5
1BC8E
  8
0
 62
7
 66
1
 70
0
 10
0
 20
0
 30
0
  0
VERTEX
  5
1BC8F
  8
0
 62
7
 10
44.931315865021389
 20
34.25268531874076
 70
0
  0
VERTEX
  5
1BC90
  8
0
 62
7
 10
45.777431316198737
 20
34.124355511915162
 70
0
  0
SEQEND
  5
1BC91
  8
0
  0
POLYLINE
  5
1BC92
  8
0
 62
7
 66
1
 70
0
 10
0
 20
0
 30
0
  0
VERTEX
  5
1BC93
  8
0
 62
7
 10
45.777431316198737
 20
34.124355511915162
 70
0
  0
VERTEX
  5
1BC94
  8
0
 62
7
 10
46.623546767376091
 20
34.040295182075113
 70
0
  0
SEQEND
  5
1BC95
  8
0
  0
POLYLINE
  5
1BC96
  8
0
 62
7
 66
1
 70
0
 10
0
 20
0
 30
0
  0
VERTEX
  5
1BC97
  8
0
 62
7
 10
46.623546767376091
 20
34.040295182075113
 70
0
  0
VERTEX
  5
1BC98
  8
0
 62
7
 10
47.47104025674755
 20
33.956407107009227
 70
0
  0
SEQEND
  5
1BC99
  8
0
  0
POLYLINE
  5
1BC9A
  8
0
 62
7
 66
1
 70
0
 10
0
 20
0
 30
0
  0
VERTEX
  5
1BC9B
  8
0
 62
7
 10
47.47104025674755
 20
33.956407107009227
 70
0
  0
VERTEX
  5
1BC9C
  8
0
 62
7
 10
48.359874891942013
 20
33.956407107009227
 70
0
  0
SEQEND
  5
1BC9D
  8
0
  0
POLYLINE
  5
1BC9E
  8
0
 62
7
 66
1
 70
0
 10
0
 20
0
 30
0
  0
VERTEX
  5
1BC9F
  8
0
 62
7
 10
48.359874891942013
 20
33.956407107009227
 70
0
  0
VERTEX
  5
1BCA0
  8
0
 62
7
 10
48.359874891942013
 20
33.956407107009227
 70
0
  0
SEQEND
  5
1BCA1
  8
0
  0
POLYLINE
  5
1BCA2
  8
0
 62
7
 66
1
 70
0
 10
0
 20
0
 30
0
  0
VERTEX
  5
1BCA3
  8
0
 62
7
 10
32.993370989533652
 20
43.691902438776758
 70
0
  0
VERTEX
  5
1BCA4
  8
0
 62
7
 10
33.332368385282223
 20
42.801862020162453
 70
0
  0
SEQEND
  5
1BCA5
  8
0
  0
POLYLINE
  5
1BCA6
  8
0
 62
7
 66
1
 70
0
 10
0
 20
0
 30
0
  0
VERTEX
  5
1BCA7
  8
0
 62
7
 10
33.332368385282223
 20
42.801862020162453
 70
0
  0
VERTEX
  5
1BCA8
  8
0
 62
7
 10
33.6713657810308
 20
41.912855130193748
 70
0
  0
SEQEND
  5
1BCA9
  8
0
  0
POLYLINE
  5
1BCAA
  8
0
 62
7
 66
1
 70
0
 10
0
 20
0
 30
0
  0
VERTEX
  5
1BCAB
  8
0
 62
7
 10
33.6713657810308
 20
41.912855130193748
 70
0
  0
VERTEX
  5
1BCAC
  8
0
 62
7
 10
34.094423506619513
 20
41.066911933790657
 70
0
  0
SEQEND
  5
1BCAD
  8
0
  0
POLYLINE
  5
1BCAE
  8
0
 62
7
 66
1
 70
0
 10
0
 20
0
 30
0
  0
VERTEX
  5
1BCAF
  8
0
 62
7
 10
34.094423506619513
 20
41.066911933790657
 70
0
  0
VERTEX
  5
1BCB0
  8
0
 62
7
 10
34.560200416225292
 20
40.220968737387579
 70
0
  0
SEQEND
  5
1BCB1
  8
0
  0
POLYLINE
  5
1BCB2
  8
0
 62
7
 66
1
 70
0
 10
0
 20
0
 30
0
  0
VERTEX
  5
1BCB3
  8
0
 62
7
 10
34.560200416225292
 20
40.220968737387579
 70
0
  0
VERTEX
  5
1BCB4
  8
0
 62
7
 10
35.067318471654062
 20
39.416022177258917
 70
0
  0
SEQEND
  5
1BCB5
  8
0
  0
POLYLINE
  5
1BCB6
  8
0
 62
7
 66
1
 70
0
 10
0
 20
0
 30
0
  0
VERTEX
  5
1BCB7
  8
0
 62
7
 10
35.067318471654062
 20
39.416022177258917
 70
0
  0
VERTEX
  5
1BCB8
  8
0
 62
7
 10
35.618533749294023
 20
38.6112478719046
 70
0
  0
SEQEND
  5
1BCB9
  8
0
  0
POLYLINE
  5
1BCBA
  8
0
 62
7
 66
1
 70
0
 10
0
 20
0
 30
0
  0
VERTEX
  5
1BCBB
  8
0
 62
7
 10
35.618533749294023
 20
38.6112478719046
 70
0
  0
VERTEX
  5
1BCBC
  8
0
 62
7
 10
36.252431318579987
 20
37.891911934584407
 70
0
  0
SEQEND
  5
1BCBD
  8
0
  0
POLYLINE
  5
1BCBE
  8
0
 62
7
 66
1
 70
0
 10
0
 20
0
 30
0
  0
VERTEX
  5
1BCBF
  8
0
 62
7
 10
36.252431318579987
 20
37.891911934584407
 70
0
  0
VERTEX
  5
1BCC0
  8
0
 62
7
 10
36.887706926060083
 20
37.172575997264232
 70
0
  0
SEQEND
  5
1BCC1
  8
0
  0
POLYLINE
  5
1BCC2
  8
0
 62
7
 66
1
 70
0
 10
0
 20
0
 30
0
  0
VERTEX
  5
1BCC3
  8
0
 62
7
 10
36.887706926060083
 20
37.172575997264232
 70
0
  0
VERTEX
  5
1BCC4
  8
0
 62
7
 10
37.565701717557232
 20
36.495959243961181
 70
0
  0
SEQEND
  5
1BCC5
  8
0
  0
POLYLINE
  5
1BCC6
  8
0
 62
7
 66
1
 70
0
 10
0
 20
0
 30
0
  0
VERTEX
  5
1BCC7
  8
0
 62
7
 10
37.565701717557232
 20
36.495959243961181
 70
0
  0
VERTEX
  5
1BCC8
  8
0
 62
7
 10
37.565701717557232
 20
36.495959243961181
 70
0
  0
SEQEND
  5
1BCC9
  8
0
  0
POLYLINE
  5
1BCCA
  8
0
 62
7
 66
1
 70
0
 10
0
 20
0
 30
0
  0
VERTEX
  5
1BCCB
  8
0
 62
7
 10
63.514160912459012
 20
44.325972262837013
 70
0
  0
VERTEX
  5
1BCCC
  8
0
 62
7
 10
60.635439124984231
 20
45.003967054334161
 70
0
  0
SEQEND
  5
1BCCD
  8
0
  0
POLYLINE
  5
1BCCE
  8
0
 62
7
 66
1
 70
0
 10
0
 20
0
 30
0
  0
VERTEX
  5
1BCCF
  8
0
 62
7
 10
60.635439124984231
 20
45.003967054334161
 70
0
  0
VERTEX
  5
1BCD0
  8
0
 62
7
 10
57.756717337509478
 20
45.511257364537187
 70
0
  0
SEQEND
  5
1BCD1
  8
0
  0
POLYLINE
  5
1BCD2
  8
0
 62
7
 66
1
 70
0
 10
0
 20
0
 30
0
  0
VERTEX
  5
1BCD3
  8
0
 62
7
 10
57.756717337509478
 20
45.511257364537187
 70
0
  0
VERTEX
  5
1BCD4
  8
0
 62
7
 10
54.835276366017609
 20
45.892973944302859
 70
0
  0
SEQEND
  5
1BCD5
  8
0
  0
POLYLINE
  5
1BCD6
  8
0
 62
7
 66
1
 70
0
 10
0
 20
0
 30
0
  0
VERTEX
  5
1BCD7
  8
0
 62
7
 10
54.835276366017609
 20
45.892973944302859
 70
0
  0
VERTEX
  5
1BCD8
  8
0
 62
7
 10
51.91521343271986
 20
46.146188462468722
 70
0
  0
SEQEND
  5
1BCD9
  8
0
  0
POLYLINE
  5
1BCDA
  8
0
 62
7
 66
1
 70
0
 10
0
 20
0
 30
0
  0
VERTEX
  5
1BCDB
  8
0
 62
7
 10
51.91521343271986
 20
46.146188462468722
 70
0
  0
VERTEX
  5
1BCDC
  8
0
 62
7
 10
48.952431315405
 20
46.3158594151173
 70
0
  0
SEQEND
  5
1BCDD
  8
0
  0
POLYLINE
  5
1BCDE
  8
0
 62
7
 66
1
 70
0
 10
0
 20
0
 30
0
  0
VERTEX
  5
1BCDF
  8
0
 62
7
 10
48.952431315405
 20
46.3158594151173
 70
0
  0
VERTEX
  5
1BCE0
  8
0
 62
7
 10
46.030990343913118
 20
46.3158594151173
 70
0
  0
SEQEND
  5
1BCE1
  8
0
  0
POLYLINE
  5
1BCE2
  8
0
 62
7
 66
1
 70
0
 10
0
 20
0
 30
0
  0
VERTEX
  5
1BCE3
  8
0
 62
7
 10
46.030990343913118
 20
46.3158594151173
 70
0
  0
VERTEX
  5
1BCE4
  8
0
 62
7
 10
43.068208226598273
 20
46.188907646485852
 70
0
  0
SEQEND
  5
1BCE5
  8
0
  0
POLYLINE
  5
1BCE6
  8
0
 62
7
 66
1
 70
0
 10
0
 20
0
 30
0
  0
VERTEX
  5
1BCE7
  8
0
 62
7
 10
43.068208226598273
 20
46.188907646485852
 70
0
  0
VERTEX
  5
1BCE8
  8
0
 62
7
 10
41.12104025833505
 20
45.892973944302859
 70
0
  0
SEQEND
  5
1BCE9
  8
0
  0
POLYLINE
  5
1BCEA
  8
0
 62
7
 66
1
 70
0
 10
0
 20
0
 30
0
  0
VERTEX
  5
1BCEB
  8
0
 62
7
 10
41.12104025833505
 20
45.892973944302859
 70
0
  0
VERTEX
  5
1BCEC
  8
0
 62
7
 10
39.216591474088943
 20
45.511257364537187
 70
0
  0
SEQEND
  5
1BCED
  8
0
  0
POLYLINE
  5
1BCEE
  8
0
 62
7
 66
1
 70
0
 10
0
 20
0
 30
0
  0
VERTEX
  5
1BCEF
  8
0
 62
7
 10
39.216591474088943
 20
45.511257364537187
 70
0
  0
VERTEX
  5
1BCF0
  8
0
 62
7
 10
37.310764651648753
 20
45.003967054334161
 70
0
  0
SEQEND
  5
1BCF1
  8
0
  0
POLYLINE
  5
1BCF2
  8
0
 62
7
 66
1
 70
0
 10
0
 20
0
 30
0
  0
VERTEX
  5
1BCF3
  8
0
 62
7
 10
37.310764651648753
 20
45.003967054334161
 70
0
  0
VERTEX
  5
1BCF4
  8
0
 62
7
 10
35.40631586740264
 20
44.452924031468449
 70
0
  0
SEQEND
  5
1BCF5
  8
0
  0
POLYLINE
  5
1BCF6
  8
0
 62
7
 66
1
 70
0
 10
0
 20
0
 30
0
  0
VERTEX
  5
1BCF7
  8
0
 62
7
 10
35.40631586740264
 20
44.452924031468449
 70
0
  0
VERTEX
  5
1BCF8
  8
0
 62
7
 10
33.544586267173628
 20
43.7763072781654
 70
0
  0
SEQEND
  5
1BCF9
  8
0
  0
POLYLINE
  5
1BCFA
  8
0
 62
7
 66
1
 70
0
 10
0
 20
0
 30
0
  0
VERTEX
  5
1BCFB
  8
0
 62
7
 10
33.544586267173628
 20
43.7763072781654
 70
0
  0
VERTEX
  5
1BCFC
  8
0
 62
7
 10
33.544586267173628
 20
43.7763072781654
 70
0
  0
SEQEND
  5
1BCFD
  8
0
  0
POLYLINE
  5
1BCFE
  8
0
 62
7
 66
1
 70
0
 10
0
 20
0
 30
0
  0
VERTEX
  5
1BCFF
  8
0
 62
7
 10
63.514160912459012
 20
44.325972262837013
 70
0
  0
VERTEX
  5
1BD00
  8
0
 62
7
 10
64.952832787099325
 20
44.368519192079809
 70
0
  0
SEQEND
  5
1BD01
  8
0
  0
POLYLINE
  5
1BD02
  8
0
 62
7
 66
1
 70
0
 10
0
 20
0
 30
0
  0
VERTEX
  5
1BD03
  8
0
 62
7
 10
39.470150501803353
 20
35.141347699160917
 70
0
  0
VERTEX
  5
1BD04
  8
0
 62
7
 10
39.554210831643452
 20
35.055909331126713
 70
0
  0
SEQEND
  5
1BD05
  8
0
  0
POLYLINE
  5
1BD06
  8
0
 62
7
 66
1
 70
0
 10
0
 20
0
 30
0
  0
VERTEX
  5
1BD07
  8
0
 62
7
 10
39.554210831643452
 20
35.055909331126713
 70
0
  0
VERTEX
  5
1BD08
  8
0
 62
7
 10
39.554210831643452
 20
35.055909331126713
 70
0
  0
SEQEND
  5
1BD09
  8
0
  0
POLYLINE
  5
1BD0A
  8
0
 62
7
 66
1
 70
0
 10
0
 20
0
 30
0
  0
VERTEX
  5
1BD0B
  8
0
 62
7
 10
37.565701717557232
 20
36.495959243961181
 70
0
  0
VERTEX
  5
1BD0C
  8
0
 62
7
 10
38.158258141020212
 20
35.987635405112542
 70
0
  0
SEQEND
  5
1BD0D
  8
0
  0
POLYLINE
  5
1BD0E
  8
0
 62
7
 66
1
 70
0
 10
0
 20
0
 30
0
  0
VERTEX
  5
1BD0F
  8
0
 62
7
 10
38.158258141020212
 20
35.987635405112542
 70
0
  0
VERTEX
  5
1BD10
  8
0
 62
7
 10
38.793533748500259
 20
35.521686240732492
 70
0
  0
SEQEND
  5
1BD11
  8
0
  0
POLYLINE
  5
1BD12
  8
0
 62
7
 66
1
 70
0
 10
0
 20
0
 30
0
  0
VERTEX
  5
1BD13
  8
0
 62
7
 10
38.793533748500259
 20
35.521686240732492
 70
0
  0
VERTEX
  5
1BD14
  8
0
 62
7
 10
39.470150501803353
 20
35.141347699160917
 70
0
  0
SEQEND
  5
1BD15
  8
0
  0
POLYLINE
  5
1BD16
  8
0
 62
7
 66
1
 70
0
 10
0
 20
0
 30
0
  0
VERTEX
  5
1BD17
  8
0
 62
7
 10
47.639160916427763
 20
32.642964453257783
 70
0
  0
VERTEX
  5
1BD18
  8
0
 62
7
 10
48.23309537808484
 20
32.642964453257783
 70
0
  0
SEQEND
  5
1BD19
  8
0
  0
POLYLINE
  5
1BD1A
  8
0
 62
7
 66
1
 70
0
 10
0
 20
0
 30
0
  0
VERTEX
  5
1BD1B
  8
0
 62
7
 10
48.23309537808484
 20
32.642964453257783
 70
0
  0
VERTEX
  5
1BD1C
  8
0
 62
7
 10
48.78293261753069
 20
32.642964453257783
 70
0
  0
SEQEND
  5
1BD1D
  8
0
  0
POLYLINE
  5
1BD1E
  8
0
 62
7
 66
1
 70
0
 10
0
 20
0
 30
0
  0
VERTEX
  5
1BD1F
  8
0
 62
7
 10
64.952832787099325
 20
44.368519192079809
 70
0
  0
VERTEX
  5
1BD20
  8
0
 62
7
 10
65.629449540402419
 20
44.241911932996913
 70
0
  0
SEQEND
  5
1BD21
  8
0
  0
POLYLINE
  5
1BD22
  8
0
 62
7
 66
1
 70
0
 10
0
 20
0
 30
0
  0
VERTEX
  5
1BD23
  8
0
 62
7
 10
57.1214417300294
 20
34.294026464563728
 70
0
  0
VERTEX
  5
1BD24
  8
0
 62
7
 10
57.92621603538376
 20
34.759631119395237
 70
0
  0
SEQEND
  5
1BD25
  8
0
  0
POLYLINE
  5
1BD26
  8
0
 62
7
 66
1
 70
0
 10
0
 20
0
 30
0
  0
VERTEX
  5
1BD27
  8
0
 62
7
 10
57.92621603538376
 20
34.759631119395237
 70
0
  0
VERTEX
  5
1BD28
  8
0
 62
7
 10
58.729612302544041
 20
35.267954958243877
 70
0
  0
SEQEND
  5
1BD29
  8
0
  0
POLYLINE
  5
1BD2A
  8
0
 62
7
 66
1
 70
0
 10
0
 20
0
 30
0
  0
VERTEX
  5
1BD2B
  8
0
 62
7
 10
58.729612302544041
 20
35.267954958243877
 70
0
  0
VERTEX
  5
1BD2C
  8
0
 62
7
 10
59.491667423881289
 20
35.8606836364811
 70
0
  0
SEQEND
  5
1BD2D
  8
0
  0
POLYLINE
  5
1BD2E
  8
0
 62
7
 66
1
 70
0
 10
0
 20
0
 30
0
  0
VERTEX
  5
1BD2F
  8
0
 62
7
 10
59.491667423881289
 20
35.8606836364811
 70
0
  0
VERTEX
  5
1BD30
  8
0
 62
7
 10
60.253722545218551
 20
36.453240059944051
 70
0
  0
SEQEND
  5
1BD31
  8
0
  0
POLYLINE
  5
1BD32
  8
0
 62
7
 66
1
 70
0
 10
0
 20
0
 30
0
  0
VERTEX
  5
1BD33
  8
0
 62
7
 10
60.253722545218551
 20
36.453240059944051
 70
0
  0
VERTEX
  5
1BD34
  8
0
 62
7
 10
60.931717336715742
 20
37.08868792219841
 70
0
  0
SEQEND
  5
1BD35
  8
0
  0
POLYLINE
  5
1BD36
  8
0
 62
7
 66
1
 70
0
 10
0
 20
0
 30
0
  0
VERTEX
  5
1BD37
  8
0
 62
7
 10
60.931717336715742
 20
37.08868792219841
 70
0
  0
VERTEX
  5
1BD38
  8
0
 62
7
 10
61.608334090018779
 20
37.765304675501447
 70
0
  0
SEQEND
  5
1BD39
  8
0
  0
POLYLINE
  5
1BD3A
  8
0
 62
7
 66
1
 70
0
 10
0
 20
0
 30
0
  0
VERTEX
  5
1BD3B
  8
0
 62
7
 10
61.608334090018779
 20
37.765304675501447
 70
0
  0
VERTEX
  5
1BD3C
  8
0
 62
7
 10
62.243609697498869
 20
38.484640612821643
 70
0
  0
SEQEND
  5
1BD3D
  8
0
  0
POLYLINE
  5
1BD3E
  8
0
 62
7
 66
1
 70
0
 10
0
 20
0
 30
0
  0
VERTEX
  5
1BD3F
  8
0
 62
7
 10
62.243609697498869
 20
38.484640612821643
 70
0
  0
VERTEX
  5
1BD40
  8
0
 62
7
 10
62.878885304978922
 20
39.246523479384621
 70
0
  0
SEQEND
  5
1BD41
  8
0
  0
POLYLINE
  5
1BD42
  8
0
 62
7
 66
1
 70
0
 10
0
 20
0
 30
0
  0
VERTEX
  5
1BD43
  8
0
 62
7
 10
62.878885304978922
 20
39.246523479384621
 70
0
  0
VERTEX
  5
1BD44
  8
0
 62
7
 10
63.4287225444248
 20
40.008578600721869
 70
0
  0
SEQEND
  5
1BD45
  8
0
  0
POLYLINE
  5
1BD46
  8
0
 62
7
 66
1
 70
0
 10
0
 20
0
 30
0
  0
VERTEX
  5
1BD47
  8
0
 62
7
 10
63.4287225444248
 20
40.008578600721869
 70
0
  0
VERTEX
  5
1BD48
  8
0
 62
7
 10
63.937218638047682
 20
40.813352906076261
 70
0
  0
SEQEND
  5
1BD49
  8
0
  0
POLYLINE
  5
1BD4A
  8
0
 62
7
 66
1
 70
0
 10
0
 20
0
 30
0
  0
VERTEX
  5
1BD4B
  8
0
 62
7
 10
63.937218638047682
 20
40.813352906076261
 70
0
  0
VERTEX
  5
1BD4C
  8
0
 62
7
 10
64.444336693476444
 20
41.616921428010812
 70
0
  0
SEQEND
  5
1BD4D
  8
0
  0
POLYLINE
  5
1BD4E
  8
0
 62
7
 66
1
 70
0
 10
0
 20
0
 30
0
  0
VERTEX
  5
1BD4F
  8
0
 62
7
 10
64.444336693476444
 20
41.616921428010812
 70
0
  0
VERTEX
  5
1BD50
  8
0
 62
7
 10
64.867394419065135
 20
42.464242662608
 70
0
  0
SEQEND
  5
1BD51
  8
0
  0
POLYLINE
  5
1BD52
  8
0
 62
7
 66
1
 70
0
 10
0
 20
0
 30
0
  0
VERTEX
  5
1BD53
  8
0
 62
7
 10
64.867394419065135
 20
42.464242662608
 70
0
  0
VERTEX
  5
1BD54
  8
0
 62
7
 10
65.249110998830815
 20
43.352905043028159
 70
0
  0
SEQEND
  5
1BD55
  8
0
  0
POLYLINE
  5
1BD56
  8
0
 62
7
 66
1
 70
0
 10
0
 20
0
 30
0
  0
VERTEX
  5
1BD57
  8
0
 62
7
 10
65.249110998830815
 20
43.352905043028159
 70
0
  0
VERTEX
  5
1BD58
  8
0
 62
7
 10
65.629449540402419
 20
44.241911932996913
 70
0
  0
SEQEND
  5
1BD59
  8
0
  0
POLYLINE
  5
1BD5A
  8
0
 62
7
 66
1
 70
0
 10
0
 20
0
 30
0
  0
VERTEX
  5
1BD5B
  8
0
 62
7
 10
65.629449540402419
 20
44.241911932996913
 70
0
  0
VERTEX
  5
1BD5C
  8
0
 62
7
 10
65.629449540402419
 20
44.241911932996913
 70
0
  0
SEQEND
  5
1BD5D
  8
0
  0
POLYLINE
  5
1BD5E
  8
0
 62
7
 66
1
 70
0
 10
0
 20
0
 30
0
  0
VERTEX
  5
1BD5F
  8
0
 62
7
 10
39.554210831643452
 20
35.055909331126713
 70
0
  0
VERTEX
  5
1BD60
  8
0
 62
7
 10
40.3589851369978
 20
34.590304676295212
 70
0
  0
SEQEND
  5
1BD61
  8
0
  0
POLYLINE
  5
1BD62
  8
0
 62
7
 66
1
 70
0
 10
0
 20
0
 30
0
  0
VERTEX
  5
1BD63
  8
0
 62
7
 10
40.3589851369978
 20
34.590304676295212
 70
0
  0
VERTEX
  5
1BD64
  8
0
 62
7
 10
41.163759442352152
 20
34.166902441158022
 70
0
  0
SEQEND
  5
1BD65
  8
0
  0
POLYLINE
  5
1BD66
  8
0
 62
7
 66
1
 70
0
 10
0
 20
0
 30
0
  0
VERTEX
  5
1BD67
  8
0
 62
7
 10
41.163759442352152
 20
34.166902441158022
 70
0
  0
VERTEX
  5
1BD68
  8
0
 62
7
 10
41.967155709512411
 20
33.78673615436071
 70
0
  0
SEQEND
  5
1BD69
  8
0
  0
POLYLINE
  5
1BD6A
  8
0
 62
7
 66
1
 70
0
 10
0
 20
0
 30
0
  0
VERTEX
  5
1BD6B
  8
0
 62
7
 10
41.967155709512411
 20
33.78673615436071
 70
0
  0
VERTEX
  5
1BD6C
  8
0
 62
7
 10
42.81464919888387
 20
33.40501957459503
 70
0
  0
SEQEND
  5
1BD6D
  8
0
  0
POLYLINE
  5
1BD6E
  8
0
 62
7
 66
1
 70
0
 10
0
 20
0
 30
0
  0
VERTEX
  5
1BD6F
  8
0
 62
7
 10
42.81464919888387
 20
33.40501957459503
 70
0
  0
VERTEX
  5
1BD70
  8
0
 62
7
 10
43.660764650061253
 20
33.108569108089277
 70
0
  0
SEQEND
  5
1BD71
  8
0
  0
POLYLINE
  5
1BD72
  8
0
 62
7
 66
1
 70
0
 10
0
 20
0
 30
0
  0
VERTEX
  5
1BD73
  8
0
 62
7
 10
43.660764650061253
 20
33.108569108089277
 70
0
  0
VERTEX
  5
1BD74
  8
0
 62
7
 10
43.660764650061253
 20
33.108569108089277
 70
0
  0
SEQEND
  5
1BD75
  8
0
  0
POLYLINE
  5
1BD76
  8
0
 62
7
 66
1
 70
0
 10
0
 20
0
 30
0
  0
VERTEX
  5
1BD77
  8
0
 62
7
 10
43.660764650061253
 20
33.108569108089277
 70
0
  0
VERTEX
  5
1BD78
  8
0
 62
7
 10
44.635037653289878
 20
32.812635405906292
 70
0
  0
SEQEND
  5
1BD79
  8
0
  0
POLYLINE
  5
1BD7A
  8
0
 62
7
 66
1
 70
0
 10
0
 20
0
 30
0
  0
VERTEX
  5
1BD7B
  8
0
 62
7
 10
44.635037653289878
 20
32.812635405906292
 70
0
  0
VERTEX
  5
1BD7C
  8
0
 62
7
 10
45.565213434307367
 20
32.558904123417683
 70
0
  0
SEQEND
  5
1BD7D
  8
0
  0
POLYLINE
  5
1BD7E
  8
0
 62
7
 66
1
 70
0
 10
0
 20
0
 30
0
  0
VERTEX
  5
1BD7F
  8
0
 62
7
 10
45.565213434307367
 20
32.558904123417683
 70
0
  0
VERTEX
  5
1BD80
  8
0
 62
7
 10
46.539486437536
 20
32.3892331707691
 70
0
  0
SEQEND
  5
1BD81
  8
0
  0
POLYLINE
  5
1BD82
  8
0
 62
7
 66
1
 70
0
 10
0
 20
0
 30
0
  0
VERTEX
  5
1BD83
  8
0
 62
7
 10
46.539486437536
 20
32.3892331707691
 70
0
  0
VERTEX
  5
1BD84
  8
0
 62
7
 10
47.555100586587649
 20
32.26262591168615
 70
0
  0
SEQEND
  5
1BD85
  8
0
  0
POLYLINE
  5
1BD86
  8
0
 62
7
 66
1
 70
0
 10
0
 20
0
 30
0
  0
VERTEX
  5
1BD87
  8
0
 62
7
 10
47.555100586587649
 20
32.26262591168615
 70
0
  0
VERTEX
  5
1BD88
  8
0
 62
7
 10
48.529373589816309
 20
32.21990672766907
 70
0
  0
SEQEND
  5
1BD89
  8
0
  0
POLYLINE
  5
1BD8A
  8
0
 62
7
 66
1
 70
0
 10
0
 20
0
 30
0
  0
VERTEX
  5
1BD8B
  8
0
 62
7
 10
48.529373589816309
 20
32.21990672766907
 70
0
  0
VERTEX
  5
1BD8C
  8
0
 62
7
 10
49.502268554850872
 20
32.21990672766907
 70
0
  0
SEQEND
  5
1BD8D
  8
0
  0
POLYLINE
  5
1BD8E
  8
0
 62
7
 66
1
 70
0
 10
0
 20
0
 30
0
  0
VERTEX
  5
1BD8F
  8
0
 62
7
 10
49.502268554850872
 20
32.21990672766907
 70
0
  0
VERTEX
  5
1BD90
  8
0
 62
7
 10
50.517882703902529
 20
32.26262591168615
 70
0
  0
SEQEND
  5
1BD91
  8
0
  0
POLYLINE
  5
1BD92
  8
0
 62
7
 66
1
 70
0
 10
0
 20
0
 30
0
  0
VERTEX
  5
1BD93
  8
0
 62
7
 10
50.517882703902529
 20
32.26262591168615
 70
0
  0
VERTEX
  5
1BD94
  8
0
 62
7
 10
51.492155707131161
 20
32.3892331707691
 70
0
  0
SEQEND
  5
1BD95
  8
0
  0
POLYLINE
  5
1BD96
  8
0
 62
7
 66
1
 70
0
 10
0
 20
0
 30
0
  0
VERTEX
  5
1BD97
  8
0
 62
7
 10
51.492155707131161
 20
32.3892331707691
 70
0
  0
VERTEX
  5
1BD98
  8
0
 62
7
 10
52.46505067216571
 20
32.558904123417683
 70
0
  0
SEQEND
  5
1BD99
  8
0
  0
POLYLINE
  5
1BD9A
  8
0
 62
7
 66
1
 70
0
 10
0
 20
0
 30
0
  0
VERTEX
  5
1BD9B
  8
0
 62
7
 10
52.46505067216571
 20
32.558904123417683
 70
0
  0
VERTEX
  5
1BD9C
  8
0
 62
7
 10
53.43932367539437
 20
32.769571712340678
 70
0
  0
SEQEND
  5
1BD9D
  8
0
  0
POLYLINE
  5
1BD9E
  8
0
 62
7
 66
1
 70
0
 10
0
 20
0
 30
0
  0
VERTEX
  5
1BD9F
  8
0
 62
7
 10
53.43932367539437
 20
32.769571712340678
 70
0
  0
VERTEX
  5
1BDA0
  8
0
 62
7
 10
54.370877494605942
 20
33.066022178846431
 70
0
  0
SEQEND
  5
1BDA1
  8
0
  0
POLYLINE
  5
1BDA2
  8
0
 62
7
 66
1
 70
0
 10
0
 20
0
 30
0
  0
VERTEX
  5
1BDA3
  8
0
 62
7
 10
54.370877494605942
 20
33.066022178846431
 70
0
  0
VERTEX
  5
1BDA4
  8
0
 62
7
 10
55.301053275623381
 20
33.40501957459503
 70
0
  0
SEQEND
  5
1BDA5
  8
0
  0
POLYLINE
  5
1BDA6
  8
0
 62
7
 66
1
 70
0
 10
0
 20
0
 30
0
  0
VERTEX
  5
1BDA7
  8
0
 62
7
 10
55.301053275623381
 20
33.40501957459503
 70
0
  0
VERTEX
  5
1BDA8
  8
0
 62
7
 10
56.232607094834947
 20
33.827905045409409
 70
0
  0
SEQEND
  5
1BDA9
  8
0
  0
POLYLINE
  5
1BDAA
  8
0
 62
7
 66
1
 70
0
 10
0
 20
0
 30
0
  0
VERTEX
  5
1BDAB
  8
0
 62
7
 10
56.232607094834947
 20
33.827905045409409
 70
0
  0
VERTEX
  5
1BDAC
  8
0
 62
7
 10
57.1214417300294
 20
34.294026464563728
 70
0
  0
SEQEND
  5
1BDAD
  8
0
  0
POLYLINE
  5
1BDAE
  8
0
 62
7
 66
1
 70
0
 10
0
 20
0
 30
0
  0
VERTEX
  5
1BDAF
  8
0
 62
7
 10
57.1214417300294
 20
34.294026464563728
 70
0
  0
VERTEX
  5
1BDB0
  8
0
 62
7
 10
57.1214417300294
 20
34.294026464563728
 70
0
  0
SEQEND
  5
1BDB1
  8
0
  0
POLYLINE
  5
1BDB2
  8
0
 62
7
 66
1
 70
0
 10
0
 20
0
 30
0
  0
VERTEX
  5
1BDB3
  8
0
 62
7
 10
33.544586267173628
 20
43.7763072781654
 70
0
  0
VERTEX
  5
1BDB4
  8
0
 62
7
 10
32.993370989533652
 20
43.691902438776758
 70
0
  0
SEQEND
  5
1BDB5
  8
0
  0
POLYLINE
  5
1BDB6
  8
0
 62
7
 66
1
 70
0
 10
0
 20
0
 30
0
  0
VERTEX
  5
1BDB7
  8
0
 62
7
 10
39.554210831643452
 20
35.055909331126713
 70
0
  0
VERTEX
  5
1BDB8
  8
0
 62
7
 10
40.4017043210149
 20
34.633023860312342
 70
0
  0
SEQEND
  5
1BDB9
  8
0
  0
POLYLINE
  5
1BDBA
  8
0
 62
7
 66
1
 70
0
 10
0
 20
0
 30
0
  0
VERTEX
  5
1BDBB
  8
0
 62
7
 10
40.4017043210149
 20
34.633023860312342
 70
0
  0
VERTEX
  5
1BDBC
  8
0
 62
7
 10
41.247819772192258
 20
34.25268531874076
 70
0
  0
SEQEND
  5
1BDBD
  8
0
  0
POLYLINE
  5
1BDBE
  8
0
 62
7
 66
1
 70
0
 10
0
 20
0
 30
0
  0
VERTEX
  5
1BDBF
  8
0
 62
7
 10
41.247819772192258
 20
34.25268531874076
 70
0
  0
VERTEX
  5
1BDC0
  8
0
 62
7
 10
42.136654407386708
 20
33.87096873897508
 70
0
  0
SEQEND
  5
1BDC1
  8
0
  0
POLYLINE
  5
1BDC2
  8
0
 62
7
 66
1
 70
0
 10
0
 20
0
 30
0
  0
VERTEX
  5
1BDC3
  8
0
 62
7
 10
42.136654407386708
 20
33.87096873897508
 70
0
  0
VERTEX
  5
1BDC4
  8
0
 62
7
 10
43.025489042581171
 20
33.574690527243547
 70
0
  0
SEQEND
  5
1BDC5
  8
0
  0
POLYLINE
  5
1BDC6
  8
0
 62
7
 66
1
 70
0
 10
0
 20
0
 30
0
  0
VERTEX
  5
1BDC7
  8
0
 62
7
 10
43.025489042581171
 20
33.574690527243547
 70
0
  0
VERTEX
  5
1BDC8
  8
0
 62
7
 10
43.914323677775627
 20
33.320959244754931
 70
0
  0
SEQEND
  5
1BDC9
  8
0
  0
POLYLINE
  5
1BDCA
  8
0
 62
7
 66
1
 70
0
 10
0
 20
0
 30
0
  0
VERTEX
  5
1BDCB
  8
0
 62
7
 10
43.914323677775627
 20
33.320959244754931
 70
0
  0
VERTEX
  5
1BDCC
  8
0
 62
7
 10
44.845877496987178
 20
33.066022178846431
 70
0
  0
SEQEND
  5
1BDCD
  8
0
  0
POLYLINE
  5
1BDCE
  8
0
 62
7
 66
1
 70
0
 10
0
 20
0
 30
0
  0
VERTEX
  5
1BDCF
  8
0
 62
7
 10
44.845877496987178
 20
33.066022178846431
 70
0
  0
VERTEX
  5
1BDD0
  8
0
 62
7
 10
45.777431316198737
 20
32.8980737739405
 70
0
  0
SEQEND
  5
1BDD1
  8
0
  0
POLYLINE
  5
1BDD2
  8
0
 62
7
 66
1
 70
0
 10
0
 20
0
 30
0
  0
VERTEX
  5
1BDD3
  8
0
 62
7
 10
45.777431316198737
 20
32.8980737739405
 70
0
  0
VERTEX
  5
1BDD4
  8
0
 62
7
 10
46.7089851354103
 20
32.769571712340678
 70
0
  0
SEQEND
  5
1BDD5
  8
0
  0
POLYLINE
  5
1BDD6
  8
0
 62
7
 66
1
 70
0
 10
0
 20
0
 30
0
  0
VERTEX
  5
1BDD7
  8
0
 62
7
 10
46.7089851354103
 20
32.769571712340678
 70
0
  0
VERTEX
  5
1BDD8
  8
0
 62
7
 10
47.639160916427763
 20
32.642964453257783
 70
0
  0
SEQEND
  5
1BDD9
  8
0
  0
POLYLINE
  5
1BDDA
  8
0
 62
7
 66
1
 70
0
 10
0
 20
0
 30
0
  0
VERTEX
  5
1BDDB
  8
0
 62
7
 10
47.639160916427763
 20
32.642964453257783
 70
0
  0
VERTEX
  5
1BDDC
  8
0
 62
7
 10
47.639160916427763
 20
32.642964453257783
 70
0
  0
SEQEND
  5
1BDDD
  8
0
  0
INSERT
  5
1BDEC
  8
0
  2
SPEC_BLOCK
 10
141.54712389119169
 20
1.6249999999999849
 30
0
 41
1
 42
1
 43
1
 50
0
  0
ENDSEC
999
Created By CadLib version 4.0.36.7
999
CadLib website: www.woutware.com
  0
EOF
