  0
SECTION
  2
HEADER
  9
$ACADVER
  1
AC1009
  9
$INSBASE
 10
0
 20
0
 30
0
  9
$EXTMIN
 10
0
 20
0
  9
$EXTMAX
 10
148.5
 20
105
  9
$LIMMIN
 10
0
 20
0
  9
$LIMMAX
 10
148.5
 20
105
  9
$LTSCALE
 40
0.5
  0
ENDSEC
  0
SECTION
  2
TABLES
  0
TABLE
  2
LTYPE
 70
     9
  0
LTYPE
  2
CONTINUOUS
 70
    64
  3
実線
 72
    65
 73
     0
 40
0.0
  0
LTYPE
  2
DASHED1
 70
    64
  3
--  --  --  --  --  --  --  --  
 72
    65
 73
     2
 40
2.5
 49
1.25
 49
-1.25
  0
LTYPE
  2
DASHED2
 70
    64
  3
----    ----    ----    ----    
 72
    65
 73
     2
 40
5.0
 49
2.5
 49
-2.5
  0
LTYPE
  2
DASHED3
 70
    64
  3
------  ------  ------  ------  
 72
    65
 73
     2
 40
5.0
 49
3.75
 49
-1.25
  0
LTYPE
  2
CENTER1
 70
    64
  3
----- - ----- - ----- - ----- - 
 72
    65
 73
     4
 40
10.0
 49
6.25
 49
-1.25
 49
1.25
 49
-1.25
  0
LTYPE
  2
CENTER2
 70
    64
  3
----------  --  ----------  --  
 72
    65
 73
     4
 40
20.0
 49
12.5
 49
-2.5
 49
2.5
 49
-2.5
  0
LTYPE
  2
PHANTOM1
 70
    64
  3
--- - - --- - - --- - - --- - - 
 72
    65
 73
     6
 40
10.0
 49
3.25
 49
-1.25
 49
1.25
 49
-1.25
 49
1.25
 49
-1.25
  0
LTYPE
  2
PHANTOM2
 70
    64
  3
--------  -  -  --------  -  -  
 72
    65
 73
     6
 40
20.0
 49
10.0
 49
-2.5
 49
1.25
 49
-2.5
 49
1.25
 49
-2.5
  0
LTYPE
  2
DOT
 70
    64
  3
-   -   -   -   -   -   -   -   
 72
    65
 73
     2
 40
2.5
 49
0.625
 49
-1.875
  0
LTYPE
  2
DUMMY
 70
    64
  3
ダミー
 72
    65
 73
     0
 40
0.0
  0
LTYPE
  2
RAND1
 70
    64
  3
ランダム線1
 72
    65
 73
     4
 40
10.0
 49
1.0
 49
-2.0
 49
3.0
 49
-4.0
  0
LTYPE
  2
RAND2
 70
    64
  3
ランダム線2
 72
    65
 73
     4
 40
14.0
 49
2.0
 49
-3.0
 49
4.0
 49
-5.0
  0
LTYPE
  2
RAND3
 70
    64
  3
ランダム線3
 72
    65
 73
     4
 40
18.0
 49
3.0
 49
-4.0
 49
5.0
 49
-6.0
  0
LTYPE
  2
RAND4
 70
    64
  3
ランダム線4
 72
    65
 73
     4
 40
22.0
 49
4.0
 49
-5.0
 49
6.0
 49
-7.0
  0
LTYPE
  2
RAND5
 70
    64
  3
ランダム線5
 72
    65
 73
     4
 40
26.0
 49
5.0
 49
-6.0
 49
7.0
 49
-8.0
  0
LTYPE
  2
LONG1
 70
    64
  3
----------  --  ----------  --  
 72
    65
 73
     4
 40
40.0
 49
32.5
 49
-2.5
 49
2.5
 49
-2.5
  0
LTYPE
  2
LONG2
 70
    64
  3
--------  -  -  --------  -  -  
 72
    65
 73
     6
 40
40.0
 49
30.0
 49
-2.5
 49
1.25
 49
-2.5
 49
1.25
 49
-2.5
  0
LTYPE
  2
LONG3
 70
    64
  3
+++++++++++++++..+++++++++++++++
 72
    65
 73
     2
 40
40.0
 49
37.5
 49
-2.5
  0
LTYPE
  2
LONG4
 70
    64
  3
+++++++++++++++..+++++++++++++++
 72
    65
 73
     2
 40
80.0
 49
75.0
 49
-5.0
  0
LTYPE
  2
LONG5
 70
    64
  3
----------  --  ----------  --  
 72
    65
 73
     4
 40
60.0
 49
37.5
 49
-7.5
 49
7.5
 49
-7.5
  0
LTYPE
  2
dashed
 70
   64
  3
-------   -------------   ------
 72
   65
 73
    2
 40
7.5
 49
6
 49
-1.5
  0
LTYPE
  2
dashed_spaced
 70
   64
  3
----        --------        ----
 72
   65
 73
    2
 40
12
 49
6
 49
-6
  0
LTYPE
  2
long_dashed_dotted
 70
   64
  3
------------- --- --------------
 72
   65
 73
    4
 40
15.25
 49
12
 49
-1.5
 49
0.25
 49
-1.5
  0
LTYPE
  2
long_dashed_double-dotted
 70
   64
  3
----------- --- --- ------------
 72
   65
 73
    6
 40
17
 49
12
 49
-1.5
 49
0.25
 49
-1.5
 49
0.25
 49
-1.5
  0
LTYPE
  2
long_dashed_triplicate-dotted
 70
   64
  3
--------- --- --- --- ----------
 72
   65
 73
    8
 40
18.75
 49
12
 49
-1.5
 49
0.25
 49
-1.5
 49
0.25
 49
-1.5
 49
0.25
 49
-1.5
  0
LTYPE
  2
dotted
 70
   64
  3
   -       -       -       -    
 72
   65
 73
    2
 40
1.75
 49
0.25
 49
-1.5
  0
LTYPE
  2
chain
 70
   64
  3
-------------- -- --------------
 72
   65
 73
    4
 40
18.5
 49
12
 49
-1.5
 49
3.5
 49
-1.5
  0
LTYPE
  2
chain_double_dash
 70
   64
  3
------------ -- -- -------------
 72
   65
 73
    6
 40
23.5
 49
12
 49
-1.5
 49
3.5
 49
-1.5
 49
3.5
 49
-1.5
  0
LTYPE
  2
dashed_dotted
 70
   64
  3
-----------     -     ----------
 72
   65
 73
    4
 40
9.25
 49
6
 49
-1.5
 49
0.25
 49
-1.5
  0
LTYPE
  2
double-dashed_dotted
 70
   64
  3
------   -----------   -   -----
 72
   65
 73
    6
 40
16.75
 49
6
 49
-1.5
 49
6
 49
-1.5
 49
0.25
 49
-1.5
  0
LTYPE
  2
dashed_double-dotted
 70
   64
  3
---------    -    -    ---------
 72
   65
 73
    6
 40
11
 49
6
 49
-1.5
 49
0.25
 49
-1.5
 49
0.25
 49
-1.5
  0
LTYPE
  2
double-dashed_double-dotted
 70
   64
  3
-----   ---------   -   -   ----
 72
   65
 73
    8
 40
18.5
 49
6
 49
-1.5
 49
6
 49
-1.5
 49
0.25
 49
-1.5
 49
0.25
 49
-1.5
  0
LTYPE
  2
dashed_triplicate-dotted
 70
   64
  3
-------    -    -    -    ------
 72
   65
 73
    8
 40
12.75
 49
6
 49
-1.5
 49
0.25
 49
-1.5
 49
0.25
 49
-1.5
 49
0.25
 49
-1.5
  0
LTYPE
  2
double-dashed_triplicate-dotted
 70
   64
  3
-----  ---------  -  -  -  -----
 72
   65
 73
   10
 40
20.25
 49
6
 49
-1.5
 49
6
 49
-1.5
 49
0.25
 49
-1.5
 49
0.25
 49
-1.5
 49
0.25
 49
-1.5
  0
LTYPE
  2
undefined
 70
   64
  3
--------------------------------
 72
   65
 73
    0
 40
0
  0
LTYPE
  2
_
 70
   64
  3
                                
 72
   65
 73
    0
 40
0
  0
LTYPE
  2
__18
 70
   64
  3
                                
 72
   65
 73
    0
 40
0
  0
LTYPE
  2
__19
 70
   64
  3
                                
 72
   65
 73
    0
 40
0
  0
LTYPE
  2
__20
 70
   64
  3
                                
 72
   65
 73
    0
 40
0
  0
LTYPE
  2
__21
 70
   64
  3
                                
 72
   65
 73
    0
 40
0
  0
LTYPE
  2
__22
 70
   64
  3
                                
 72
   65
 73
    0
 40
0
  0
LTYPE
  2
__23
 70
   64
  3
                                
 72
   65
 73
    0
 40
0
  0
LTYPE
  2
__24
 70
   64
  3
                                
 72
   65
 73
    0
 40
0
  0
LTYPE
  2
__25
 70
   64
  3
                                
 72
   65
 73
    0
 40
0
  0
LTYPE
  2
__26
 70
   64
  3
                                
 72
   65
 73
    0
 40
0
  0
LTYPE
  2
__27
 70
   64
  3
                                
 72
   65
 73
    0
 40
0
  0
LTYPE
  2
__28
 70
   64
  3
                                
 72
   65
 73
    0
 40
0
  0
LTYPE
  2
__29
 70
   64
  3
                                
 72
   65
 73
    0
 40
0
  0
LTYPE
  2
__30
 70
   64
  3
                                
 72
   65
 73
    0
 40
0
  0
LTYPE
  2
__31
 70
   64
  3
                                
 72
   65
 73
    0
 40
0
  0
LTYPE
  2
__32
 70
   64
  3
                                
 72
   65
 73
    0
 40
0
  0
ENDTAB
  0
TABLE
  2
STYLE
  5
3
100
AcDbSymbolTable
 70
     1
  0
STYLE
  5
10
100
AcDbSymbolTableRecord
100
AcDbTextStyleTableRecord
  2
STANDARD
 70
     0
 40
0.0
 41
1.0
 50
0.0
 71
     0
 42
0.2
  3
txt
  4
bigfont.shx
  0
STYLE
  5
26
100
AcDbSymbolTableRecord
100
AcDbTextStyleTableRecord
  2
TATEGAKI
 70
    68
 40
0.0
 41
1.0
 50
0.0
 71
     0
 42
1.0
  3
txt
  4
bigfont.shx
  0
ENDTAB
  0
TABLE
  2
LAYER
 70
    3
  0
LAYER
  2
_0-0_0
 70
   64
 62
    7
  6
CONTINUOUS
  0
LAYER
  2
_0-2______1
 70
   64
 62
    7
  6
CONTINUOUS
  0
LAYER
  2
ADD_LINE
 70
   64
 62
    7
  6
CONTINUOUS
  0
ENDTAB
  0
ENDSEC
  0
SECTION
  2
BLOCKS
  0
BLOCK
  2
-000-SPECEL-WC1510NS
 70
   64
 10
0
 20
0
 30
0
  0
TEXT
  8
_0-3_SPEC
 62
    7
 10
0
 20
0
 40
1.5
 41
1
 50
0
  1
ｴｸｽﾃﾘｱ 昼白色(5000K) Ra85
  0
TEXT
  8
_0-3_SPEC
 62
    7
 10
0
 20
-3
 40
1.5
 41
1
 50
0
  1
100V~242V共用ﾀｲﾌﾟ
  0
TEXT
  8
_0-3_SPEC
 62
    7
 10
0
 20
-6
 40
1.5
 41
1
 50
0
  1
本体:ｱﾙﾐ ｼﾙﾊﾞｰ色塗装仕上
  0
TEXT
  8
_0-3_SPEC
 62
    7
 10
0
 20
-9
 40
1.5
 41
1
 50
0
  1
光源寿命:40,000時間(光束維持率85%)
  0
TEXT
  8
_0-3_SPEC
 62
    7
 10
0
 20
-12
 40
1.5
 41
1
 50
0
  1
光束:1540lm 消費電力:12W 消費効率:128.3lm/W
  0
ENDBLK
  0
ENDSEC
  0
SECTION
  2
ENTITIES
  0
TEXT
  8
_0-0_0
 62
    7
 10
9.3341347809029145
 20
92.114204489646269
 40
4.2058354959995956
 41
1
 50
0
  1
ＬＥＤ１２Ｗ×１　シーリング
  0
TEXT
  8
_0-0_0
 62
    7
 10
9.3341347809029145
 20
8.1142094896463561
 40
4.2058354959995956
 41
1
 50
0
  1
三菱　ＥＬ－ＷＣ１５１０Ｎ／Ｓ
  0
INSERT
  2
-000-SPECEL-WC1510NS
  8
_0-0_0
 10
91.524509875846519
 20
22.347099341164792
 41
1
 42
1
 50
0
  0
LINE
  8
_0-2______1
  6
CONTINUOUS
 62
    7
 10
72.032309593395922
 20
65.366091078856755
 11
72.240260986356105
 21
65.522160505141457
  0
LINE
  8
_0-2______1
  6
CONTINUOUS
 62
    7
 10
72.240260986356105
 20
65.522160505141457
 11
72.344448445965526
 21
65.730535424360269
  0
LINE
  8
_0-2______1
  6
CONTINUOUS
 62
    7
 10
72.344448445965526
 20
65.730535424360269
 11
72.396542175770207
 21
65.886604850644957
  0
LINE
  8
_0-2______1
  6
CONTINUOUS
 62
    7
 10
72.396542175770207
 20
65.886604850644957
 11
72.448635905574804
 21
65.990580547125049
  0
LINE
  8
_0-2______1
  6
CONTINUOUS
 62
    7
 10
72.448635905574804
 20
65.990580547125049
 11
72.396542175770207
 21
66.198743703214561
  0
LINE
  8
_0-2______1
  6
CONTINUOUS
 62
    7
 10
72.396542175770207
 20
66.198743703214561
 11
72.292354716160816
 21
66.355024892628663
  0
LINE
  8
_0-2______1
  6
CONTINUOUS
 62
    7
 10
72.292354716160816
 20
66.355024892628663
 11
72.188590782810024
 21
66.511094318913351
  0
LINE
  8
_0-2______1
  6
CONTINUOUS
 62
    7
 10
43.93134233696631
 20
65.990580547125049
 11
43.93134233696631
 21
66.927420631092261
  0
LINE
  8
_0-2______1
  6
CONTINUOUS
 62
    7
 10
44.399338852691301
 20
42.677577643882159
 11
44.399338852691301
 21
65.990580547125049
  0
LINE
  8
_0-2______1
  6
CONTINUOUS
 62
    7
 10
45.752505248837423
 20
43.041810226256359
 11
45.752505248837423
 21
42.677577643882159
  0
LINE
  8
_0-2______1
  6
CONTINUOUS
 62
    7
 10
45.752505248837423
 20
42.677577643882159
 11
45.856692708446815
 21
42.521296454468157
  0
LINE
  8
_0-2______1
  6
CONTINUOUS
 62
    7
 10
45.856692708446815
 20
42.521296454468157
 11
46.012973897860917
 21
42.365227028183256
  0
LINE
  8
_0-2______1
  6
CONTINUOUS
 62
    7
 10
46.012973897860917
 20
42.365227028183256
 11
46.168831561016304
 21
42.209157601898568
  0
LINE
  8
_0-2______1
  6
CONTINUOUS
 62
    7
 10
46.168831561016304
 20
42.209157601898568
 11
46.429300210039827
 21
42.052876412484565
  0
LINE
  8
_0-2______1
  6
CONTINUOUS
 62
    7
 10
46.429300210039827
 20
42.052876412484565
 11
46.741439062609317
 21
41.844925019524368
  0
LINE
  8
_0-2______1
  6
CONTINUOUS
 62
    7
 10
46.741439062609317
 20
41.844925019524368
 11
47.105671644983516
 21
41.740737559914962
  0
LINE
  8
_0-2______1
  6
CONTINUOUS
 62
    7
 10
47.105671644983516
 20
41.740737559914962
 11
47.469904227357802
 21
41.58466813363016
  0
LINE
  8
_0-2______1
  6
CONTINUOUS
 62
    7
 10
47.469904227357802
 20
41.58466813363016
 11
47.938324269341308
 21
41.428386944216157
  0
LINE
  8
_0-2______1
  6
CONTINUOUS
 62
    7
 10
47.938324269341308
 20
41.428386944216157
 11
48.45883804112961
 21
41.324411247736066
  0
LINE
  8
_0-2______1
  6
CONTINUOUS
 62
    7
 10
48.45883804112961
 20
41.324411247736066
 11
48.979351812917912
 21
41.220223788126759
  0
LINE
  8
_0-2______1
  6
CONTINUOUS
 62
    7
 10
48.979351812917912
 20
41.220223788126759
 11
49.55195931451081
 21
41.064154361841958
  0
LINE
  8
_0-2______1
  6
CONTINUOUS
 62
    7
 10
49.55195931451081
 20
41.064154361841958
 11
50.175813493391303
 21
40.960178665361866
  0
LINE
  8
_0-2______1
  6
CONTINUOUS
 62
    7
 10
50.175813493391303
 20
40.960178665361866
 11
50.852184928335106
 21
40.85599120575246
  0
LINE
  8
_0-2______1
  6
CONTINUOUS
 62
    7
 10
50.852184928335106
 20
40.85599120575246
 11
51.476886159732715
 21
40.751803746143167
  0
LINE
  8
_0-2______1
  6
CONTINUOUS
 62
    7
 10
51.476886159732715
 20
40.751803746143167
 11
52.2053513244812
 21
40.699921779467758
  0
LINE
  8
_0-2______1
  6
CONTINUOUS
 62
    7
 10
52.2053513244812
 20
40.699921779467758
 11
52.985910219034309
 21
40.595734319858366
  0
LINE
  8
_0-2______1
  6
CONTINUOUS
 62
    7
 10
52.985910219034309
 20
40.595734319858366
 11
53.71479891004131
 21
40.49175862337826
  0
LINE
  8
_0-2______1
  6
CONTINUOUS
 62
    7
 10
53.71479891004131
 20
40.49175862337826
 11
54.494934278335904
 21
40.49175862337826
  0
LINE
  8
_0-2______1
  6
CONTINUOUS
 62
    7
 10
54.494934278335904
 20
40.49175862337826
 11
55.327586902693724
 21
40.439664893573664
  0
LINE
  8
_0-2______1
  6
CONTINUOUS
 62
    7
 10
55.327586902693724
 20
40.439664893573664
 11
56.108145797246806
 21
40.387571163768868
  0
LINE
  8
_0-2______1
  6
CONTINUOUS
 62
    7
 10
56.108145797246806
 20
40.387571163768868
 11
56.992892151409222
 21
40.387571163768868
  0
LINE
  8
_0-2______1
  6
CONTINUOUS
 62
    7
 10
56.992892151409222
 20
40.387571163768868
 11
57.773451045962418
 21
40.335477433964257
  0
LINE
  8
_0-2______1
  6
CONTINUOUS
 62
    7
 10
57.773451045962418
 20
40.335477433964257
 11
58.606103670320209
 21
40.335477433964257
  0
LINE
  8
_0-2______1
  6
CONTINUOUS
 62
    7
 10
58.606103670320209
 20
40.335477433964257
 11
59.438756294678001
 21
40.387571163768868
  0
LINE
  8
_0-2______1
  6
CONTINUOUS
 62
    7
 10
59.438756294678001
 20
40.387571163768868
 11
60.271408919035821
 21
40.387571163768868
  0
LINE
  8
_0-2______1
  6
CONTINUOUS
 62
    7
 10
60.271408919035821
 20
40.387571163768868
 11
61.052391339847503
 21
40.439664893573664
  0
LINE
  8
_0-2______1
  6
CONTINUOUS
 62
    7
 10
61.052391339847503
 20
40.439664893573664
 11
61.884196911688207
 21
40.49175862337826
  0
LINE
  8
_0-2______1
  6
CONTINUOUS
 62
    7
 10
61.884196911688207
 20
40.49175862337826
 11
62.665179332499804
 21
40.49175862337826
  0
LINE
  8
_0-2______1
  6
CONTINUOUS
 62
    7
 10
62.665179332499804
 20
40.49175862337826
 11
63.445738227053027
 21
40.595734319858366
  0
LINE
  8
_0-2______1
  6
CONTINUOUS
 62
    7
 10
63.445738227053027
 20
40.595734319858366
 11
64.174203391801427
 21
40.699921779467758
  0
LINE
  8
_0-2______1
  6
CONTINUOUS
 62
    7
 10
64.174203391801427
 20
40.699921779467758
 11
64.903092082808428
 21
40.751803746143167
  0
LINE
  8
_0-2______1
  6
CONTINUOUS
 62
    7
 10
64.903092082808428
 20
40.751803746143167
 11
65.579463517752203
 21
40.85599120575246
  0
LINE
  8
_0-2______1
  6
CONTINUOUS
 62
    7
 10
65.579463517752203
 20
40.85599120575246
 11
66.204164749149925
 21
40.960178665361866
  0
LINE
  8
_0-2______1
  6
CONTINUOUS
 62
    7
 10
66.204164749149925
 20
40.960178665361866
 11
66.828018928030303
 21
41.064154361841958
  0
LINE
  8
_0-2______1
  6
CONTINUOUS
 62
    7
 10
66.828018928030303
 20
41.064154361841958
 11
67.452296633169425
 21
41.220223788126759
  0
LINE
  8
_0-2______1
  6
CONTINUOUS
 62
    7
 10
67.452296633169425
 20
41.220223788126759
 11
68.024904134762409
 21
41.324411247736066
  0
LINE
  8
_0-2______1
  6
CONTINUOUS
 62
    7
 10
68.024904134762409
 20
41.324411247736066
 11
68.441230446941205
 21
41.428386944216157
  0
LINE
  8
_0-2______1
  6
CONTINUOUS
 62
    7
 10
68.441230446941205
 20
41.428386944216157
 11
68.90965048892491
 21
41.58466813363016
  0
LINE
  8
_0-2______1
  6
CONTINUOUS
 62
    7
 10
68.90965048892491
 20
41.58466813363016
 11
69.325976801103707
 21
41.740737559914962
  0
LINE
  8
_0-2______1
  6
CONTINUOUS
 62
    7
 10
69.325976801103707
 20
41.740737559914962
 11
69.690209383477907
 21
41.844925019524368
  0
LINE
  8
_0-2______1
  6
CONTINUOUS
 62
    7
 10
69.690209383477907
 20
41.844925019524368
 11
69.950678032501401
 21
42.052876412484565
  0
LINE
  8
_0-2______1
  6
CONTINUOUS
 62
    7
 10
69.950678032501401
 20
42.052876412484565
 11
70.210723155266322
 21
42.209157601898568
  0
LINE
  8
_0-2______1
  6
CONTINUOUS
 62
    7
 10
70.210723155266322
 20
42.209157601898568
 11
70.419098074485021
 21
42.365227028183256
  0
LINE
  8
_0-2______1
  6
CONTINUOUS
 62
    7
 10
70.419098074485021
 20
42.365227028183256
 11
70.574955737640522
 21
42.521296454468157
  0
LINE
  8
_0-2______1
  6
CONTINUOUS
 62
    7
 10
70.574955737640522
 20
42.521296454468157
 11
70.627049467445204
 21
42.677577643882159
  0
LINE
  8
_0-2______1
  6
CONTINUOUS
 62
    7
 10
70.627049467445204
 20
42.677577643882159
 11
70.627049467445204
 21
43.041810226256359
  0
LINE
  8
_0-2______1
  6
CONTINUOUS
 62
    7
 10
70.627049467445204
 20
43.041810226256359
 11
70.574955737640522
 21
43.197879652541161
  0
LINE
  8
_0-2______1
  6
CONTINUOUS
 62
    7
 10
70.574955737640522
 20
43.197879652541161
 11
70.419098074485021
 21
43.302067112150567
  0
LINE
  8
_0-2______1
  6
CONTINUOUS
 62
    7
 10
70.419098074485021
 20
43.302067112150567
 11
70.210723155266322
 21
43.510230268239965
  0
LINE
  8
_0-2______1
  6
CONTINUOUS
 62
    7
 10
70.210723155266322
 20
43.510230268239965
 11
69.950678032501401
 21
43.666299694524767
  0
LINE
  8
_0-2______1
  6
CONTINUOUS
 62
    7
 10
69.950678032501401
 20
43.666299694524767
 11
69.690209383477907
 21
43.874462850614165
  0
LINE
  8
_0-2______1
  6
CONTINUOUS
 62
    7
 10
69.690209383477907
 20
43.874462850614165
 11
69.325976801103707
 21
44.030744040028267
  0
LINE
  8
_0-2______1
  6
CONTINUOUS
 62
    7
 10
69.325976801103707
 20
44.030744040028267
 11
68.90965048892491
 21
44.134719736508259
  0
LINE
  8
_0-2______1
  6
CONTINUOUS
 62
    7
 10
68.90965048892491
 20
44.134719736508259
 11
68.441230446941205
 21
44.238695432988365
  0
LINE
  8
_0-2______1
  6
CONTINUOUS
 62
    7
 10
68.441230446941205
 20
44.238695432988365
 11
68.024904134762409
 21
44.447070352207163
  0
LINE
  8
_0-2______1
  6
CONTINUOUS
 62
    7
 10
68.024904134762409
 20
44.447070352207163
 11
67.452296633169425
 21
44.551046048687255
  0
LINE
  8
_0-2______1
  6
CONTINUOUS
 62
    7
 10
67.452296633169425
 20
44.551046048687255
 11
66.828018928030303
 21
44.655233508296661
  0
LINE
  8
_0-2______1
  6
CONTINUOUS
 62
    7
 10
66.828018928030303
 20
44.655233508296661
 11
66.204164749149925
 21
44.759209204776667
  0
LINE
  8
_0-2______1
  6
CONTINUOUS
 62
    7
 10
66.204164749149925
 20
44.759209204776667
 11
65.579463517752203
 21
44.863396664386059
  0
LINE
  8
_0-2______1
  6
CONTINUOUS
 62
    7
 10
65.579463517752203
 20
44.863396664386059
 11
64.903092082808428
 21
44.967372360866165
  0
LINE
  8
_0-2______1
  6
CONTINUOUS
 62
    7
 10
64.903092082808428
 20
44.967372360866165
 11
64.174203391801427
 21
45.071559820475557
  0
LINE
  8
_0-2______1
  6
CONTINUOUS
 62
    7
 10
64.174203391801427
 20
45.071559820475557
 11
63.445738227053027
 21
45.123441787150867
  0
LINE
  8
_0-2______1
  6
CONTINUOUS
 62
    7
 10
63.445738227053027
 20
45.123441787150867
 11
62.665179332499804
 21
45.227629246760259
  0
LINE
  8
_0-2______1
  6
CONTINUOUS
 62
    7
 10
62.665179332499804
 20
45.227629246760259
 11
61.884196911688207
 21
45.227629246760259
  0
LINE
  8
_0-2______1
  6
CONTINUOUS
 62
    7
 10
61.884196911688207
 20
45.227629246760259
 11
61.052391339847503
 21
45.331816706369665
  0
LINE
  8
_0-2______1
  6
CONTINUOUS
 62
    7
 10
61.052391339847503
 20
45.331816706369665
 11
60.271408919035821
 21
45.331816706369665
  0
LINE
  8
_0-2______1
  6
CONTINUOUS
 62
    7
 10
60.271408919035821
 20
45.331816706369665
 11
59.438756294678001
 21
45.38369867304506
  0
LINE
  8
_0-2______1
  6
CONTINUOUS
 62
    7
 10
72.032309593395922
 20
42.677577643882159
 11
72.032309593395922
 21
65.990580547125049
  0
LINE
  8
_0-2______1
  6
CONTINUOUS
 62
    7
 10
72.032309593395922
 20
65.990580547125049
 11
71.928122133786616
 21
66.146861736539151
  0
LINE
  8
_0-2______1
  6
CONTINUOUS
 62
    7
 10
71.928122133786616
 20
66.146861736539151
 11
71.823934674177224
 21
66.355024892628663
  0
LINE
  8
_0-2______1
  6
CONTINUOUS
 62
    7
 10
71.823934674177224
 20
66.355024892628663
 11
71.563889551412416
 21
66.511094318913351
  0
LINE
  8
_0-2______1
  6
CONTINUOUS
 62
    7
 10
71.563889551412416
 20
66.511094318913351
 11
71.407608361998314
 21
66.667163745198152
  0
LINE
  8
_0-2______1
  6
CONTINUOUS
 62
    7
 10
71.407608361998314
 20
66.667163745198152
 11
71.095469509428824
 21
66.823233171482954
  0
LINE
  8
_0-2______1
  6
CONTINUOUS
 62
    7
 10
71.095469509428824
 20
66.823233171482954
 11
70.783330656859221
 21
66.979514360896971
  0
LINE
  8
_0-2______1
  6
CONTINUOUS
 62
    7
 10
70.783330656859221
 20
66.979514360896971
 11
70.367004344680311
 21
67.135583787181773
  0
LINE
  8
_0-2______1
  6
CONTINUOUS
 62
    7
 10
70.367004344680311
 20
67.135583787181773
 11
69.950678032501401
 21
67.291653213466461
  0
LINE
  8
_0-2______1
  6
CONTINUOUS
 62
    7
 10
69.950678032501401
 20
67.291653213466461
 11
69.482257990517809
 21
67.447934402880563
  0
LINE
  8
_0-2______1
  6
CONTINUOUS
 62
    7
 10
69.482257990517809
 20
67.447934402880563
 11
68.961744218729621
 21
67.551910099360654
  0
LINE
  8
_0-2______1
  6
CONTINUOUS
 62
    7
 10
68.961744218729621
 20
67.551910099360654
 11
68.389136717136608
 21
67.656097558969961
  0
LINE
  8
_0-2______1
  6
CONTINUOUS
 62
    7
 10
68.389136717136608
 20
67.656097558969961
 11
67.764859011997515
 21
67.812166985254763
  0
LINE
  8
_0-2______1
  6
CONTINUOUS
 62
    7
 10
67.764859011997515
 20
67.812166985254763
 11
67.140157780599907
 21
67.916354444864155
  0
LINE
  8
_0-2______1
  6
CONTINUOUS
 62
    7
 10
67.140157780599907
 20
67.916354444864155
 11
66.464209871914704
 21
68.020330141344274
  0
LINE
  8
_0-2______1
  6
CONTINUOUS
 62
    7
 10
66.464209871914704
 20
68.020330141344274
 11
65.735744707166305
 21
68.124305837824252
  0
LINE
  8
_0-2______1
  6
CONTINUOUS
 62
    7
 10
65.735744707166305
 20
68.124305837824252
 11
65.058949745963901
 21
68.228493297433673
  0
LINE
  8
_0-2______1
  6
CONTINUOUS
 62
    7
 10
65.058949745963901
 20
68.228493297433673
 11
64.278390851410819
 21
68.280587027238354
  0
LINE
  8
_0-2______1
  6
CONTINUOUS
 62
    7
 10
64.278390851410819
 20
68.280587027238354
 11
63.497831956857709
 21
68.384562723718474
  0
LINE
  8
_0-2______1
  6
CONTINUOUS
 62
    7
 10
63.497831956857709
 20
68.384562723718474
 11
62.717273062304628
 21
68.436656453523071
  0
LINE
  8
_0-2______1
  6
CONTINUOUS
 62
    7
 10
62.717273062304628
 20
68.436656453523071
 11
61.884196911688207
 21
68.436656453523071
  0
LINE
  8
_0-2______1
  6
CONTINUOUS
 62
    7
 10
61.884196911688207
 20
68.436656453523071
 11
61.052391339847503
 21
68.540843913132548
  0
LINE
  8
_0-2______1
  6
CONTINUOUS
 62
    7
 10
61.052391339847503
 20
68.540843913132548
 11
59.386662564873319
 21
68.540843913132548
  0
LINE
  8
_0-2______1
  6
CONTINUOUS
 62
    7
 10
72.448635905574804
 20
65.990580547125049
 11
72.448635905574804
 21
66.927420631092261
  0
LINE
  8
_0-2______1
  6
CONTINUOUS
 62
    7
 10
72.448635905574804
 20
66.927420631092261
 11
72.396542175770207
 21
67.031608090701567
  0
LINE
  8
_0-2______1
  6
CONTINUOUS
 62
    7
 10
72.396542175770207
 20
67.031608090701567
 11
72.292354716160816
 21
67.187677516986454
  0
LINE
  8
_0-2______1
  6
CONTINUOUS
 62
    7
 10
72.292354716160816
 20
67.187677516986454
 11
72.188590782810024
 21
67.343746943271171
  0
LINE
  8
_0-2______1
  6
CONTINUOUS
 62
    7
 10
72.188590782810024
 20
67.343746943271171
 11
72.032309593395922
 21
67.551910099360654
  0
LINE
  8
_0-2______1
  6
CONTINUOUS
 62
    7
 10
72.032309593395922
 20
67.551910099360654
 11
71.771840944372514
 21
67.707979525645371
  0
LINE
  8
_0-2______1
  6
CONTINUOUS
 62
    7
 10
71.771840944372514
 20
67.707979525645371
 11
71.511795821607706
 21
67.916142681734854
  0
LINE
  8
_0-2______1
  6
CONTINUOUS
 62
    7
 10
71.511795821607706
 20
67.916142681734854
 11
71.199656969038102
 21
68.020330141344274
  0
LINE
  8
_0-2______1
  6
CONTINUOUS
 62
    7
 10
71.199656969038102
 20
68.020330141344274
 11
70.783330656859221
 21
68.176399567629048
  0
LINE
  8
_0-2______1
  6
CONTINUOUS
 62
    7
 10
70.783330656859221
 20
68.176399567629048
 11
70.367004344680311
 21
68.332680757043065
  0
LINE
  8
_0-2______1
  6
CONTINUOUS
 62
    7
 10
70.367004344680311
 20
68.332680757043065
 11
69.950678032501401
 21
68.436656453523071
  0
LINE
  8
_0-2______1
  6
CONTINUOUS
 62
    7
 10
69.950678032501401
 20
68.436656453523071
 11
69.378070530908502
 21
68.592725879807873
  0
LINE
  8
_0-2______1
  6
CONTINUOUS
 62
    7
 10
69.378070530908502
 20
68.592725879807873
 11
68.8575567591202
 21
68.696913339417264
  0
LINE
  8
_0-2______1
  6
CONTINUOUS
 62
    7
 10
68.8575567591202
 20
68.696913339417264
 11
68.233279053981107
 21
68.852982765702066
  0
LINE
  8
_0-2______1
  6
CONTINUOUS
 62
    7
 10
68.233279053981107
 20
68.852982765702066
 11
67.660671552388209
 21
69.009052191986754
  0
LINE
  8
_0-2______1
  6
CONTINUOUS
 62
    7
 10
67.660671552388209
 20
69.009052191986754
 11
66.984300117444405
 21
69.113239651596174
  0
LINE
  8
_0-2______1
  6
CONTINUOUS
 62
    7
 10
66.984300117444405
 20
69.113239651596174
 11
66.25583495269592
 21
69.165333381400856
  0
LINE
  8
_0-2______1
  6
CONTINUOUS
 62
    7
 10
66.25583495269592
 20
69.165333381400856
 11
65.579463517752203
 21
69.269309077880948
  0
LINE
  8
_0-2______1
  6
CONTINUOUS
 62
    7
 10
65.579463517752203
 20
69.269309077880948
 11
64.798904623199121
 21
69.373496537490254
  0
LINE
  8
_0-2______1
  6
CONTINUOUS
 62
    7
 10
64.798904623199121
 20
69.373496537490254
 11
64.070015932192121
 21
69.425378504165664
  0
LINE
  8
_0-2______1
  6
CONTINUOUS
 62
    7
 10
64.070015932192121
 20
69.425378504165664
 11
63.2373633078343
 21
69.477472233970374
  0
LINE
  8
_0-2______1
  6
CONTINUOUS
 62
    7
 10
63.2373633078343
 20
69.477472233970374
 11
62.456804413281105
 21
69.529565963775056
  0
LINE
  8
_0-2______1
  6
CONTINUOUS
 62
    7
 10
62.456804413281105
 20
69.529565963775056
 11
61.624575315181914
 21
69.633753423384448
  0
LINE
  8
_0-2______1
  6
CONTINUOUS
 62
    7
 10
61.624575315181914
 20
69.633753423384448
 11
59.907176336661621
 21
69.633753423384448
  0
LINE
  8
_0-2______1
  6
CONTINUOUS
 62
    7
 10
59.907176336661621
 20
69.633753423384448
 11
59.074523712303801
 21
69.685635390059858
  0
LINE
  8
_0-2______1
  6
CONTINUOUS
 62
    7
 10
44.399338852691301
 20
42.677577643882159
 11
44.451432582496011
 21
42.521296454468157
  0
LINE
  8
_0-2______1
  6
CONTINUOUS
 62
    7
 10
44.451432582496011
 20
42.521296454468157
 11
44.555620042105403
 21
42.365227028183256
  0
LINE
  8
_0-2______1
  6
CONTINUOUS
 62
    7
 10
44.555620042105403
 20
42.365227028183256
 11
44.763994961324101
 21
42.209157601898568
  0
LINE
  8
_0-2______1
  6
CONTINUOUS
 62
    7
 10
44.763994961324101
 20
42.209157601898568
 11
45.024040084089023
 21
42.053088175613865
  0
LINE
  8
_0-2______1
  6
CONTINUOUS
 62
    7
 10
45.024040084089023
 20
42.053088175613865
 11
45.284085206853803
 21
41.844925019524368
  0
LINE
  8
_0-2______1
  6
CONTINUOUS
 62
    7
 10
45.284085206853803
 20
41.844925019524368
 11
45.596647585681922
 21
41.688643830110365
  0
LINE
  8
_0-2______1
  6
CONTINUOUS
 62
    7
 10
45.596647585681922
 20
41.688643830110365
 11
45.960880168056207
 21
41.58466813363016
  0
LINE
  8
_0-2______1
  6
CONTINUOUS
 62
    7
 10
45.960880168056207
 20
41.58466813363016
 11
46.325112750430407
 21
41.428598707345458
  0
LINE
  8
_0-2______1
  6
CONTINUOUS
 62
    7
 10
46.325112750430407
 20
41.428598707345458
 11
46.793532792414027
 21
41.272317517931356
  0
LINE
  8
_0-2______1
  6
CONTINUOUS
 62
    7
 10
46.793532792414027
 20
41.272317517931356
 11
47.3140465642023
 21
41.116248091646668
  0
LINE
  8
_0-2______1
  6
CONTINUOUS
 62
    7
 10
47.3140465642023
 20
41.116248091646668
 11
47.834560335990517
 21
41.012060632037262
  0
LINE
  8
_0-2______1
  6
CONTINUOUS
 62
    7
 10
47.834560335990517
 20
41.012060632037262
 11
48.4067443113249
 21
40.908084935557156
  0
LINE
  8
_0-2______1
  6
CONTINUOUS
 62
    7
 10
48.4067443113249
 20
40.908084935557156
 11
49.031445542722622
 21
40.752015509272368
  0
LINE
  8
_0-2______1
  6
CONTINUOUS
 62
    7
 10
49.031445542722622
 20
40.752015509272368
 11
49.655299721603001
 21
40.699921779467758
  0
LINE
  8
_0-2______1
  6
CONTINUOUS
 62
    7
 10
49.655299721603001
 20
40.699921779467758
 11
50.332094682805405
 21
40.595734319858366
  0
LINE
  8
_0-2______1
  6
CONTINUOUS
 62
    7
 10
50.332094682805405
 20
40.595734319858366
 11
51.060559847553805
 21
40.49175862337826
  0
LINE
  8
_0-2______1
  6
CONTINUOUS
 62
    7
 10
51.060559847553805
 20
40.49175862337826
 11
51.789025012302204
 21
40.387571163768868
  0
LINE
  8
_0-2______1
  6
CONTINUOUS
 62
    7
 10
51.789025012302204
 20
40.387571163768868
 11
52.517913703309205
 21
40.335477433964257
  0
LINE
  8
_0-2______1
  6
CONTINUOUS
 62
    7
 10
52.517913703309205
 20
40.335477433964257
 11
53.2984725978624
 21
40.283595467288862
  0
LINE
  8
_0-2______1
  6
CONTINUOUS
 62
    7
 10
53.2984725978624
 20
40.283595467288862
 11
54.07903149241551
 21
40.231501737484166
  0
LINE
  8
_0-2______1
  6
CONTINUOUS
 62
    7
 10
54.07903149241551
 20
40.231501737484166
 11
54.911260590514701
 21
40.179408007679456
  0
LINE
  8
_0-2______1
  6
CONTINUOUS
 62
    7
 10
54.911260590514701
 20
40.179408007679456
 11
55.691819485067924
 21
40.12752604100406
  0
LINE
  8
_0-2______1
  6
CONTINUOUS
 62
    7
 10
55.691819485067924
 20
40.12752604100406
 11
56.524472109425716
 21
40.12752604100406
  0
LINE
  8
_0-2______1
  6
CONTINUOUS
 62
    7
 10
72.032309593395922
 20
43.041810226256359
 11
71.928122133786616
 21
43.197879652541161
  0
LINE
  8
_0-2______1
  6
CONTINUOUS
 62
    7
 10
71.928122133786616
 20
43.197879652541161
 11
71.823934674177224
 21
43.406042808630559
  0
LINE
  8
_0-2______1
  6
CONTINUOUS
 62
    7
 10
71.823934674177224
 20
43.406042808630559
 11
71.668077011021722
 21
43.510230268239965
  0
LINE
  8
_0-2______1
  6
CONTINUOUS
 62
    7
 10
71.668077011021722
 20
43.510230268239965
 11
71.407608361998314
 21
43.666299694524767
  0
LINE
  8
_0-2______1
  6
CONTINUOUS
 62
    7
 10
71.407608361998314
 20
43.666299694524767
 11
71.147563239233421
 21
43.874462850614165
  0
LINE
  8
_0-2______1
  6
CONTINUOUS
 62
    7
 10
71.147563239233421
 20
43.874462850614165
 11
70.783330656859221
 21
44.030532276898967
  0
LINE
  8
_0-2______1
  6
CONTINUOUS
 62
    7
 10
70.783330656859221
 20
44.030532276898967
 11
70.470768278031102
 21
44.134719736508259
  0
LINE
  8
_0-2______1
  6
CONTINUOUS
 62
    7
 10
70.470768278031102
 20
44.134719736508259
 11
70.05444196585222
 21
44.29078916279316
  0
LINE
  8
_0-2______1
  6
CONTINUOUS
 62
    7
 10
70.05444196585222
 20
44.29078916279316
 11
69.586445450127201
 21
44.447070352207163
  0
LINE
  8
_0-2______1
  6
CONTINUOUS
 62
    7
 10
69.586445450127201
 20
44.447070352207163
 11
69.118025408143609
 21
44.603139778491965
  0
LINE
  8
_0-2______1
  6
CONTINUOUS
 62
    7
 10
69.118025408143609
 20
44.603139778491965
 11
68.545417906550711
 21
44.707115474971957
  0
LINE
  8
_0-2______1
  6
CONTINUOUS
 62
    7
 10
68.545417906550711
 20
44.707115474971957
 11
68.024904134762409
 21
44.811302934581363
  0
LINE
  8
_0-2______1
  6
CONTINUOUS
 62
    7
 10
68.024904134762409
 20
44.811302934581363
 11
67.348532699818605
 21
44.967372360866165
  0
LINE
  8
_0-2______1
  6
CONTINUOUS
 62
    7
 10
67.348532699818605
 20
44.967372360866165
 11
66.723831468421025
 21
45.071559820475557
  0
LINE
  8
_0-2______1
  6
CONTINUOUS
 62
    7
 10
66.723831468421025
 20
45.071559820475557
 11
66.047883559735823
 21
45.123441787150867
  0
LINE
  8
_0-2______1
  6
CONTINUOUS
 62
    7
 10
66.047883559735823
 20
45.123441787150867
 11
65.371088598533419
 21
45.227629246760259
  0
LINE
  8
_0-2______1
  6
CONTINUOUS
 62
    7
 10
65.371088598533419
 20
45.227629246760259
 11
64.642623433785019
 21
45.331604943240364
  0
LINE
  8
_0-2______1
  6
CONTINUOUS
 62
    7
 10
64.642623433785019
 20
45.331604943240364
 11
63.914158269036619
 21
45.38369867304506
  0
LINE
  8
_0-2______1
  6
CONTINUOUS
 62
    7
 10
63.914158269036619
 20
45.38369867304506
 11
63.133599374483509
 21
45.435792402849756
  0
LINE
  8
_0-2______1
  6
CONTINUOUS
 62
    7
 10
63.133599374483509
 20
45.435792402849756
 11
62.352616953671827
 21
45.539344573071261
  0
LINE
  8
_0-2______1
  6
CONTINUOUS
 62
    7
 10
62.352616953671827
 20
45.539344573071261
 11
61.520811381831123
 21
45.591438302875858
  0
LINE
  8
_0-2______1
  6
CONTINUOUS
 62
    7
 10
61.520811381831123
 20
45.591438302875858
 11
59.855082606856911
 21
45.591438302875858
  0
LINE
  8
_0-2______1
  6
CONTINUOUS
 62
    7
 10
59.855082606856911
 20
45.591438302875858
 11
59.022429982499119
 21
45.695413999356063
  0
LINE
  8
_0-2______1
  6
CONTINUOUS
 62
    7
 10
72.032309593395922
 20
44.707115474971957
 11
71.928122133786616
 21
44.863396664386059
  0
LINE
  8
_0-2______1
  6
CONTINUOUS
 62
    7
 10
71.928122133786616
 20
44.863396664386059
 11
71.823934674177224
 21
45.019466090670861
  0
LINE
  8
_0-2______1
  6
CONTINUOUS
 62
    7
 10
71.823934674177224
 20
45.019466090670861
 11
71.668077011021722
 21
45.227629246760259
  0
LINE
  8
_0-2______1
  6
CONTINUOUS
 62
    7
 10
71.668077011021722
 20
45.227629246760259
 11
71.407608361998314
 21
45.38369867304506
  0
LINE
  8
_0-2______1
  6
CONTINUOUS
 62
    7
 10
71.407608361998314
 20
45.38369867304506
 11
71.147563239233421
 21
45.539344573071261
  0
LINE
  8
_0-2______1
  6
CONTINUOUS
 62
    7
 10
71.147563239233421
 20
45.539344573071261
 11
70.783330656859221
 21
45.695413999356063
  0
LINE
  8
_0-2______1
  6
CONTINUOUS
 62
    7
 10
70.783330656859221
 20
45.695413999356063
 11
70.470768278031102
 21
45.851695188770066
  0
LINE
  8
_0-2______1
  6
CONTINUOUS
 62
    7
 10
70.470768278031102
 20
45.851695188770066
 11
70.05444196585222
 21
45.955670885250058
  0
LINE
  8
_0-2______1
  6
CONTINUOUS
 62
    7
 10
70.05444196585222
 20
45.955670885250058
 11
69.586445450127201
 21
46.111740311534959
  0
LINE
  8
_0-2______1
  6
CONTINUOUS
 62
    7
 10
69.586445450127201
 20
46.111740311534959
 11
69.118025408143609
 21
46.215927771144266
  0
LINE
  8
_0-2______1
  6
CONTINUOUS
 62
    7
 10
69.118025408143609
 20
46.215927771144266
 11
68.545417906550711
 21
46.371997197429067
  0
LINE
  8
_0-2______1
  6
CONTINUOUS
 62
    7
 10
68.545417906550711
 20
46.371997197429067
 11
68.024904134762409
 21
46.476184657038459
  0
LINE
  8
_0-2______1
  6
CONTINUOUS
 62
    7
 10
68.024904134762409
 20
46.476184657038459
 11
67.348532699818605
 21
46.632254083323161
  0
LINE
  8
_0-2______1
  6
CONTINUOUS
 62
    7
 10
67.348532699818605
 20
46.632254083323161
 11
66.723831468421025
 21
46.684347813127857
  0
LINE
  8
_0-2______1
  6
CONTINUOUS
 62
    7
 10
66.723831468421025
 20
46.684347813127857
 11
66.047883559735823
 21
46.840417239412659
  0
LINE
  8
_0-2______1
  6
CONTINUOUS
 62
    7
 10
46.168831561016304
 20
43.510230268239965
 11
46.429300210039827
 21
43.302067112150567
  0
LINE
  8
_0-2______1
  6
CONTINUOUS
 62
    7
 10
46.429300210039827
 20
43.302067112150567
 11
46.741439062609317
 21
43.197879652541161
  0
LINE
  8
_0-2______1
  6
CONTINUOUS
 62
    7
 10
46.741439062609317
 20
43.197879652541161
 11
47.105671644983516
 21
43.041810226256359
  0
LINE
  8
_0-2______1
  6
CONTINUOUS
 62
    7
 10
47.105671644983516
 20
43.041810226256359
 11
47.521997957162426
 21
42.937622766647067
  0
LINE
  8
_0-2______1
  6
CONTINUOUS
 62
    7
 10
47.521997957162426
 20
42.937622766647067
 11
47.990417999146018
 21
42.781553340362265
  0
LINE
  8
_0-2______1
  6
CONTINUOUS
 62
    7
 10
47.990417999146018
 20
42.781553340362265
 11
48.51093177093432
 21
42.625483914077464
  0
LINE
  8
_0-2______1
  6
CONTINUOUS
 62
    7
 10
48.51093177093432
 20
42.625483914077464
 11
49.083539272527304
 21
42.521296454468157
  0
LINE
  8
_0-2______1
  6
CONTINUOUS
 62
    7
 10
49.083539272527304
 20
42.521296454468157
 11
49.655299721603001
 21
42.365227028183256
  0
LINE
  8
_0-2______1
  6
CONTINUOUS
 62
    7
 10
49.655299721603001
 20
42.365227028183256
 11
50.332094682805405
 21
42.209157601898568
  0
LINE
  8
_0-2______1
  6
CONTINUOUS
 62
    7
 10
50.332094682805405
 20
42.209157601898568
 11
51.008466117749123
 21
42.157063872093957
  0
LINE
  8
_0-2______1
  6
CONTINUOUS
 62
    7
 10
51.008466117749123
 20
42.157063872093957
 11
51.684837552692926
 21
42.052876412484565
  0
LINE
  8
_0-2______1
  6
CONTINUOUS
 62
    7
 10
51.684837552692926
 20
42.052876412484565
 11
52.413726243699926
 21
41.948900716004459
  0
LINE
  8
_0-2______1
  6
CONTINUOUS
 62
    7
 10
52.413726243699926
 20
41.948900716004459
 11
53.246378868057718
 21
41.896806986199763
  0
LINE
  8
_0-2______1
  6
CONTINUOUS
 62
    7
 10
53.246378868057718
 20
41.896806986199763
 11
54.0269377626108
 21
41.844925019524368
  0
LINE
  8
_0-2______1
  6
CONTINUOUS
 62
    7
 10
54.0269377626108
 20
41.844925019524368
 11
54.807073130905422
 21
41.792831289719658
  0
LINE
  8
_0-2______1
  6
CONTINUOUS
 62
    7
 10
54.807073130905422
 20
41.792831289719658
 11
55.639725755263214
 21
41.740737559914962
  0
LINE
  8
_0-2______1
  6
CONTINUOUS
 62
    7
 10
55.639725755263214
 20
41.740737559914962
 11
56.524472109425716
 21
41.688643830110365
  0
LINE
  8
_0-2______1
  6
CONTINUOUS
 62
    7
 10
72.188590782810024
 20
66.511094318913351
 11
71.771840944372514
 21
66.823233171482954
  0
LINE
  8
_0-2______1
  6
CONTINUOUS
 62
    7
 10
71.771840944372514
 20
66.823233171482954
 11
71.459702091803024
 21
66.979514360896971
  0
LINE
  8
_0-2______1
  6
CONTINUOUS
 62
    7
 10
71.459702091803024
 20
66.979514360896971
 11
71.147563239233421
 21
67.135583787181773
  0
LINE
  8
_0-2______1
  6
CONTINUOUS
 62
    7
 10
71.147563239233421
 20
67.135583787181773
 11
70.783330656859221
 21
67.291653213466461
  0
LINE
  8
_0-2______1
  6
CONTINUOUS
 62
    7
 10
70.783330656859221
 20
67.291653213466461
 11
70.3149106148756
 21
67.447934402880563
  0
LINE
  8
_0-2______1
  6
CONTINUOUS
 62
    7
 10
70.3149106148756
 20
67.447934402880563
 11
69.846490572892122
 21
67.604003829165251
  0
LINE
  8
_0-2______1
  6
CONTINUOUS
 62
    7
 10
69.846490572892122
 20
67.604003829165251
 11
69.378070530908502
 21
67.707979525645371
  0
LINE
  8
_0-2______1
  6
CONTINUOUS
 62
    7
 10
69.378070530908502
 20
67.707979525645371
 11
68.8575567591202
 21
67.812166985254763
  0
LINE
  8
_0-2______1
  6
CONTINUOUS
 62
    7
 10
68.8575567591202
 20
67.812166985254763
 11
68.233279053981107
 21
67.968236411539564
  0
LINE
  8
_0-2______1
  6
CONTINUOUS
 62
    7
 10
68.233279053981107
 20
67.968236411539564
 11
67.608577822583527
 21
68.072423871148871
  0
LINE
  8
_0-2______1
  6
CONTINUOUS
 62
    7
 10
67.608577822583527
 20
68.072423871148871
 11
66.932206387639724
 21
68.176399567629048
  0
LINE
  8
_0-2______1
  6
CONTINUOUS
 62
    7
 10
66.932206387639724
 20
68.176399567629048
 11
66.25583495269592
 21
68.280587027238354
  0
LINE
  8
_0-2______1
  6
CONTINUOUS
 62
    7
 10
66.25583495269592
 20
68.280587027238354
 11
65.527369787947521
 21
68.384562723718474
  0
LINE
  8
_0-2______1
  6
CONTINUOUS
 62
    7
 10
65.527369787947521
 20
68.384562723718474
 11
64.798904623199121
 21
68.436656453523071
  0
LINE
  8
_0-2______1
  6
CONTINUOUS
 62
    7
 10
64.798904623199121
 20
68.436656453523071
 11
64.018345728646011
 21
68.540843913132548
  0
LINE
  8
_0-2______1
  6
CONTINUOUS
 62
    7
 10
64.018345728646011
 20
68.540843913132548
 11
63.185269578029619
 21
68.592725879807873
  0
LINE
  8
_0-2______1
  6
CONTINUOUS
 62
    7
 10
63.185269578029619
 20
68.592725879807873
 11
62.404710683476424
 21
68.644819609612554
  0
LINE
  8
_0-2______1
  6
CONTINUOUS
 62
    7
 10
62.404710683476424
 20
68.644819609612554
 11
61.624575315181914
 21
68.696913339417264
  0
LINE
  8
_0-2______1
  6
CONTINUOUS
 62
    7
 10
61.624575315181914
 20
68.696913339417264
 11
60.739828961019413
 21
68.696913339417264
  0
LINE
  8
_0-2______1
  6
CONTINUOUS
 62
    7
 10
60.739828961019413
 20
68.696913339417264
 11
59.907176336661621
 21
68.749007069221975
  0
LINE
  8
_0-2______1
  6
CONTINUOUS
 62
    7
 10
56.524472109425716
 20
40.12752604100406
 11
60.687735231214702
 21
40.12752604100406
  0
LINE
  8
_0-2______1
  6
CONTINUOUS
 62
    7
 10
60.687735231214702
 20
40.12752604100406
 11
61.520811381831123
 21
40.179408007679456
  0
LINE
  8
_0-2______1
  6
CONTINUOUS
 62
    7
 10
61.520811381831123
 20
40.179408007679456
 11
62.352616953671827
 21
40.231501737484166
  0
LINE
  8
_0-2______1
  6
CONTINUOUS
 62
    7
 10
62.352616953671827
 20
40.231501737484166
 11
63.133599374483509
 21
40.283595467288862
  0
LINE
  8
_0-2______1
  6
CONTINUOUS
 62
    7
 10
63.133599374483509
 20
40.283595467288862
 11
63.914158269036619
 21
40.335477433964257
  0
LINE
  8
_0-2______1
  6
CONTINUOUS
 62
    7
 10
63.914158269036619
 20
40.335477433964257
 11
64.642623433785019
 21
40.387571163768868
  0
LINE
  8
_0-2______1
  6
CONTINUOUS
 62
    7
 10
64.642623433785019
 20
40.387571163768868
 11
65.371088598533419
 21
40.49175862337826
  0
LINE
  8
_0-2______1
  6
CONTINUOUS
 62
    7
 10
65.371088598533419
 20
40.49175862337826
 11
66.047883559735823
 21
40.595734319858366
  0
LINE
  8
_0-2______1
  6
CONTINUOUS
 62
    7
 10
66.047883559735823
 20
40.595734319858366
 11
66.723831468421025
 21
40.699921779467758
  0
LINE
  8
_0-2______1
  6
CONTINUOUS
 62
    7
 10
66.723831468421025
 20
40.699921779467758
 11
67.348532699818605
 21
40.751803746143167
  0
LINE
  8
_0-2______1
  6
CONTINUOUS
 62
    7
 10
67.348532699818605
 20
40.751803746143167
 11
68.024904134762409
 21
40.908084935557156
  0
LINE
  8
_0-2______1
  6
CONTINUOUS
 62
    7
 10
68.024904134762409
 20
40.908084935557156
 11
68.545417906550711
 21
41.012060632037262
  0
LINE
  8
_0-2______1
  6
CONTINUOUS
 62
    7
 10
68.545417906550711
 20
41.012060632037262
 11
69.118025408143609
 21
41.116248091646668
  0
LINE
  8
_0-2______1
  6
CONTINUOUS
 62
    7
 10
69.118025408143609
 20
41.116248091646668
 11
69.586445450127201
 21
41.272317517931356
  0
LINE
  8
_0-2______1
  6
CONTINUOUS
 62
    7
 10
69.586445450127201
 20
41.272317517931356
 11
70.05444196585222
 21
41.428386944216157
  0
LINE
  8
_0-2______1
  6
CONTINUOUS
 62
    7
 10
70.05444196585222
 20
41.428386944216157
 11
70.470768278031102
 21
41.58466813363016
  0
LINE
  8
_0-2______1
  6
CONTINUOUS
 62
    7
 10
70.470768278031102
 20
41.58466813363016
 11
70.783330656859221
 21
41.688643830110365
  0
LINE
  8
_0-2______1
  6
CONTINUOUS
 62
    7
 10
70.783330656859221
 20
41.688643830110365
 11
71.147563239233421
 21
41.844925019524368
  0
LINE
  8
_0-2______1
  6
CONTINUOUS
 62
    7
 10
71.147563239233421
 20
41.844925019524368
 11
71.407608361998314
 21
42.052876412484565
  0
LINE
  8
_0-2______1
  6
CONTINUOUS
 62
    7
 10
71.407608361998314
 20
42.052876412484565
 11
71.668077011021722
 21
42.209157601898568
  0
LINE
  8
_0-2______1
  6
CONTINUOUS
 62
    7
 10
71.668077011021722
 20
42.209157601898568
 11
71.823934674177224
 21
42.365227028183256
  0
LINE
  8
_0-2______1
  6
CONTINUOUS
 62
    7
 10
71.823934674177224
 20
42.365227028183256
 11
71.928122133786616
 21
42.521296454468157
  0
LINE
  8
_0-2______1
  6
CONTINUOUS
 62
    7
 10
71.928122133786616
 20
42.521296454468157
 11
72.032309593395922
 21
42.677577643882159
  0
LINE
  8
_0-2______1
  6
CONTINUOUS
 62
    7
 10
56.524472109425716
 20
41.688643830110365
 11
59.907176336661621
 21
41.688643830110365
  0
LINE
  8
_0-2______1
  6
CONTINUOUS
 62
    7
 10
59.907176336661621
 20
41.688643830110365
 11
60.739828961019413
 21
41.740737559914962
  0
LINE
  8
_0-2______1
  6
CONTINUOUS
 62
    7
 10
60.739828961019413
 20
41.740737559914962
 11
61.572481585377204
 21
41.792831289719658
  0
LINE
  8
_0-2______1
  6
CONTINUOUS
 62
    7
 10
61.572481585377204
 20
41.792831289719658
 11
62.352616953671827
 21
41.844925019524368
  0
LINE
  8
_0-2______1
  6
CONTINUOUS
 62
    7
 10
62.352616953671827
 20
41.844925019524368
 11
63.185269578029619
 21
41.896806986199763
  0
LINE
  8
_0-2______1
  6
CONTINUOUS
 62
    7
 10
63.185269578029619
 20
41.896806986199763
 11
63.966251998841301
 21
41.948900716004459
  0
LINE
  8
_0-2______1
  6
CONTINUOUS
 62
    7
 10
63.966251998841301
 20
41.948900716004459
 11
64.694717163589701
 21
42.052876412484565
  0
LINE
  8
_0-2______1
  6
CONTINUOUS
 62
    7
 10
64.694717163589701
 20
42.052876412484565
 11
65.371088598533419
 21
42.157063872093957
  0
LINE
  8
_0-2______1
  6
CONTINUOUS
 62
    7
 10
65.371088598533419
 20
42.157063872093957
 11
66.099977289540504
 21
42.209157601898568
  0
LINE
  8
_0-2______1
  6
CONTINUOUS
 62
    7
 10
66.099977289540504
 20
42.209157601898568
 11
66.723831468421025
 21
42.365227028183256
  0
LINE
  8
_0-2______1
  6
CONTINUOUS
 62
    7
 10
66.723831468421025
 20
42.365227028183256
 11
67.296438970014009
 21
42.521296454468157
  0
LINE
  8
_0-2______1
  6
CONTINUOUS
 62
    7
 10
67.296438970014009
 20
42.521296454468157
 11
67.868622945348307
 21
42.625483914077464
  0
LINE
  8
_0-2______1
  6
CONTINUOUS
 62
    7
 10
67.868622945348307
 20
42.625483914077464
 11
68.389136717136608
 21
42.781553340362265
  0
LINE
  8
_0-2______1
  6
CONTINUOUS
 62
    7
 10
68.389136717136608
 20
42.781553340362265
 11
68.8575567591202
 21
42.937622766647067
  0
LINE
  8
_0-2______1
  6
CONTINUOUS
 62
    7
 10
68.8575567591202
 20
42.937622766647067
 11
69.27388307129911
 21
43.041810226256359
  0
LINE
  8
_0-2______1
  6
CONTINUOUS
 62
    7
 10
69.27388307129911
 20
43.041810226256359
 11
69.63811565367331
 21
43.197879652541161
  0
LINE
  8
_0-2______1
  6
CONTINUOUS
 62
    7
 10
69.63811565367331
 20
43.197879652541161
 11
69.950678032501401
 21
43.302067112150567
  0
LINE
  8
_0-2______1
  6
CONTINUOUS
 62
    7
 10
69.950678032501401
 20
43.302067112150567
 11
70.210723155266322
 21
43.510230268239965
  0
LINE
  8
_0-2______1
  6
CONTINUOUS
 62
    7
 10
59.438756294678001
 20
45.38369867304506
 11
56.992892151409222
 21
45.38369867304506
  0
LINE
  8
_0-2______1
  6
CONTINUOUS
 62
    7
 10
56.992892151409222
 20
45.38369867304506
 11
56.108145797246806
 21
45.331604943240364
  0
LINE
  8
_0-2______1
  6
CONTINUOUS
 62
    7
 10
56.108145797246806
 20
45.331604943240364
 11
55.327586902693724
 21
45.331604943240364
  0
LINE
  8
_0-2______1
  6
CONTINUOUS
 62
    7
 10
55.327586902693724
 20
45.331604943240364
 11
54.494934278335904
 21
45.227629246760259
  0
LINE
  8
_0-2______1
  6
CONTINUOUS
 62
    7
 10
54.494934278335904
 20
45.227629246760259
 11
53.71479891004131
 21
45.227629246760259
  0
LINE
  8
_0-2______1
  6
CONTINUOUS
 62
    7
 10
53.71479891004131
 20
45.227629246760259
 11
52.985910219034309
 21
45.123441787150867
  0
LINE
  8
_0-2______1
  6
CONTINUOUS
 62
    7
 10
52.985910219034309
 20
45.123441787150867
 11
52.2053513244812
 21
45.071559820475557
  0
LINE
  8
_0-2______1
  6
CONTINUOUS
 62
    7
 10
52.2053513244812
 20
45.071559820475557
 11
51.476886159732715
 21
44.967372360866165
  0
LINE
  8
_0-2______1
  6
CONTINUOUS
 62
    7
 10
51.476886159732715
 20
44.967372360866165
 11
50.852184928335106
 21
44.863396664386059
  0
LINE
  8
_0-2______1
  6
CONTINUOUS
 62
    7
 10
50.852184928335106
 20
44.863396664386059
 11
50.175813493391303
 21
44.759209204776667
  0
LINE
  8
_0-2______1
  6
CONTINUOUS
 62
    7
 10
50.175813493391303
 20
44.759209204776667
 11
49.55195931451081
 21
44.65502174516736
  0
LINE
  8
_0-2______1
  6
CONTINUOUS
 62
    7
 10
49.55195931451081
 20
44.65502174516736
 11
48.979351812917912
 21
44.551046048687255
  0
LINE
  8
_0-2______1
  6
CONTINUOUS
 62
    7
 10
48.979351812917912
 20
44.551046048687255
 11
48.45883804112961
 21
44.447070352207163
  0
LINE
  8
_0-2______1
  6
CONTINUOUS
 62
    7
 10
48.45883804112961
 20
44.447070352207163
 11
47.938324269341308
 21
44.238695432988365
  0
LINE
  8
_0-2______1
  6
CONTINUOUS
 62
    7
 10
47.938324269341308
 20
44.238695432988365
 11
47.469904227357802
 21
44.134719736508259
  0
LINE
  8
_0-2______1
  6
CONTINUOUS
 62
    7
 10
47.469904227357802
 20
44.134719736508259
 11
47.105671644983516
 21
44.030532276898967
  0
LINE
  8
_0-2______1
  6
CONTINUOUS
 62
    7
 10
47.105671644983516
 20
44.030532276898967
 11
46.741439062609317
 21
43.874462850614165
  0
LINE
  8
_0-2______1
  6
CONTINUOUS
 62
    7
 10
46.741439062609317
 20
43.874462850614165
 11
46.429300210039827
 21
43.666299694524767
  0
LINE
  8
_0-2______1
  6
CONTINUOUS
 62
    7
 10
46.429300210039827
 20
43.666299694524767
 11
46.168831561016304
 21
43.510230268239965
  0
LINE
  8
_0-2______1
  6
CONTINUOUS
 62
    7
 10
46.168831561016304
 20
43.510230268239965
 11
46.012973897860917
 21
43.302067112150567
  0
LINE
  8
_0-2______1
  6
CONTINUOUS
 62
    7
 10
46.012973897860917
 20
43.302067112150567
 11
45.856692708446815
 21
43.197879652541161
  0
LINE
  8
_0-2______1
  6
CONTINUOUS
 62
    7
 10
45.856692708446815
 20
43.197879652541161
 11
45.752505248837423
 21
43.041810226256359
  0
LINE
  8
_0-2______1
  6
CONTINUOUS
 62
    7
 10
59.022429982499119
 20
45.695413999356063
 11
57.357124733783508
 21
45.695413999356063
  0
LINE
  8
_0-2______1
  6
CONTINUOUS
 62
    7
 10
57.357124733783508
 20
45.695413999356063
 11
56.524472109425716
 21
45.591438302875858
  0
LINE
  8
_0-2______1
  6
CONTINUOUS
 62
    7
 10
56.524472109425716
 20
45.591438302875858
 11
54.911260590514701
 21
45.591438302875858
  0
LINE
  8
_0-2______1
  6
CONTINUOUS
 62
    7
 10
54.911260590514701
 20
45.591438302875858
 11
54.13112522222022
 21
45.539344573071261
  0
LINE
  8
_0-2______1
  6
CONTINUOUS
 62
    7
 10
54.13112522222022
 20
45.539344573071261
 11
53.2984725978624
 21
45.435792402849756
  0
LINE
  8
_0-2______1
  6
CONTINUOUS
 62
    7
 10
53.2984725978624
 20
45.435792402849756
 11
52.517913703309205
 21
45.38369867304506
  0
LINE
  8
_0-2______1
  6
CONTINUOUS
 62
    7
 10
52.517913703309205
 20
45.38369867304506
 11
51.789025012302204
 21
45.331604943240364
  0
LINE
  8
_0-2______1
  6
CONTINUOUS
 62
    7
 10
51.789025012302204
 20
45.331604943240364
 11
51.060559847553805
 21
45.227629246760259
  0
LINE
  8
_0-2______1
  6
CONTINUOUS
 62
    7
 10
51.060559847553805
 20
45.227629246760259
 11
50.332094682805405
 21
45.123441787150867
  0
LINE
  8
_0-2______1
  6
CONTINUOUS
 62
    7
 10
50.332094682805405
 20
45.123441787150867
 11
49.655299721603001
 21
45.071348057346256
  0
LINE
  8
_0-2______1
  6
CONTINUOUS
 62
    7
 10
49.655299721603001
 20
45.071348057346256
 11
49.031445542722622
 21
44.967372360866165
  0
LINE
  8
_0-2______1
  6
CONTINUOUS
 62
    7
 10
49.031445542722622
 20
44.967372360866165
 11
48.4067443113249
 21
44.811302934581363
  0
LINE
  8
_0-2______1
  6
CONTINUOUS
 62
    7
 10
48.4067443113249
 20
44.811302934581363
 11
47.834560335990517
 21
44.707115474971957
  0
LINE
  8
_0-2______1
  6
CONTINUOUS
 62
    7
 10
47.834560335990517
 20
44.707115474971957
 11
47.3140465642023
 21
44.603139778491965
  0
LINE
  8
_0-2______1
  6
CONTINUOUS
 62
    7
 10
47.3140465642023
 20
44.603139778491965
 11
46.793532792414027
 21
44.446858589077863
  0
LINE
  8
_0-2______1
  6
CONTINUOUS
 62
    7
 10
46.793532792414027
 20
44.446858589077863
 11
46.325112750430407
 21
44.29078916279316
  0
LINE
  8
_0-2______1
  6
CONTINUOUS
 62
    7
 10
46.325112750430407
 20
44.29078916279316
 11
45.960880168056207
 21
44.134719736508259
  0
LINE
  8
_0-2______1
  6
CONTINUOUS
 62
    7
 10
45.960880168056207
 20
44.134719736508259
 11
45.596647585681922
 21
44.030532276898967
  0
LINE
  8
_0-2______1
  6
CONTINUOUS
 62
    7
 10
45.596647585681922
 20
44.030532276898967
 11
45.284085206853803
 21
43.874462850614165
  0
LINE
  8
_0-2______1
  6
CONTINUOUS
 62
    7
 10
45.284085206853803
 20
43.874462850614165
 11
45.024040084089023
 21
43.666299694524767
  0
LINE
  8
_0-2______1
  6
CONTINUOUS
 62
    7
 10
45.024040084089023
 20
43.666299694524767
 11
44.763994961324101
 21
43.510230268239965
  0
LINE
  8
_0-2______1
  6
CONTINUOUS
 62
    7
 10
44.763994961324101
 20
43.510230268239965
 11
44.555620042105403
 21
43.406042808630559
  0
LINE
  8
_0-2______1
  6
CONTINUOUS
 62
    7
 10
44.555620042105403
 20
43.406042808630559
 11
44.451432582496011
 21
43.197879652541161
  0
LINE
  8
_0-2______1
  6
CONTINUOUS
 62
    7
 10
44.451432582496011
 20
43.197879652541161
 11
44.399338852691301
 21
43.041810226256359
  0
LINE
  8
_0-2______1
  6
CONTINUOUS
 62
    7
 10
59.855082606856911
 20
47.308837281396166
 11
56.524472109425716
 21
47.308837281396166
  0
LINE
  8
_0-2______1
  6
CONTINUOUS
 62
    7
 10
56.524472109425716
 20
47.308837281396166
 11
55.691819485067924
 21
47.256743551591555
  0
LINE
  8
_0-2______1
  6
CONTINUOUS
 62
    7
 10
55.691819485067924
 20
47.256743551591555
 11
54.911260590514701
 21
47.204649821786859
  0
LINE
  8
_0-2______1
  6
CONTINUOUS
 62
    7
 10
54.911260590514701
 20
47.204649821786859
 11
54.13112522222022
 21
47.152556091982163
  0
LINE
  8
_0-2______1
  6
CONTINUOUS
 62
    7
 10
54.13112522222022
 20
47.152556091982163
 11
53.2984725978624
 21
47.152556091982163
  0
LINE
  8
_0-2______1
  6
CONTINUOUS
 62
    7
 10
53.2984725978624
 20
47.152556091982163
 11
52.517913703309205
 21
47.048580395502057
  0
LINE
  8
_0-2______1
  6
CONTINUOUS
 62
    7
 10
52.517913703309205
 20
47.048580395502057
 11
51.789025012302204
 21
46.996486665697361
  0
LINE
  8
_0-2______1
  6
CONTINUOUS
 62
    7
 10
51.789025012302204
 20
46.996486665697361
 11
51.060559847553805
 21
46.944604699021966
  0
LINE
  8
_0-2______1
  6
CONTINUOUS
 62
    7
 10
51.060559847553805
 20
46.944604699021966
 11
50.332094682805405
 21
46.840417239412659
  0
LINE
  8
_0-2______1
  6
CONTINUOUS
 62
    7
 10
50.332094682805405
 20
46.840417239412659
 11
49.655299721603001
 21
46.684347813127857
  0
LINE
  8
_0-2______1
  6
CONTINUOUS
 62
    7
 10
49.655299721603001
 20
46.684347813127857
 11
49.031445542722622
 21
46.632254083323161
  0
LINE
  8
_0-2______1
  6
CONTINUOUS
 62
    7
 10
49.031445542722622
 20
46.632254083323161
 11
48.4067443113249
 21
46.476184657038459
  0
LINE
  8
_0-2______1
  6
CONTINUOUS
 62
    7
 10
48.4067443113249
 20
46.476184657038459
 11
47.834560335990517
 21
46.371997197429067
  0
LINE
  8
_0-2______1
  6
CONTINUOUS
 62
    7
 10
47.834560335990517
 20
46.371997197429067
 11
47.3140465642023
 21
46.215927771144266
  0
LINE
  8
_0-2______1
  6
CONTINUOUS
 62
    7
 10
47.3140465642023
 20
46.215927771144266
 11
46.793532792414027
 21
46.111740311534959
  0
LINE
  8
_0-2______1
  6
CONTINUOUS
 62
    7
 10
46.793532792414027
 20
46.111740311534959
 11
46.325112750430407
 21
45.955670885250058
  0
LINE
  8
_0-2______1
  6
CONTINUOUS
 62
    7
 10
46.325112750430407
 20
45.955670885250058
 11
45.960880168056207
 21
45.851483425640765
  0
LINE
  8
_0-2______1
  6
CONTINUOUS
 62
    7
 10
45.960880168056207
 20
45.851483425640765
 11
45.596647585681922
 21
45.695413999356063
  0
LINE
  8
_0-2______1
  6
CONTINUOUS
 62
    7
 10
45.596647585681922
 20
45.695413999356063
 11
45.284085206853803
 21
45.539344573071261
  0
LINE
  8
_0-2______1
  6
CONTINUOUS
 62
    7
 10
45.284085206853803
 20
45.539344573071261
 11
45.024040084089023
 21
45.38369867304506
  0
LINE
  8
_0-2______1
  6
CONTINUOUS
 62
    7
 10
45.024040084089023
 20
45.38369867304506
 11
44.763994961324101
 21
45.227629246760259
  0
LINE
  8
_0-2______1
  6
CONTINUOUS
 62
    7
 10
44.763994961324101
 20
45.227629246760259
 11
44.555620042105403
 21
45.019466090670861
  0
LINE
  8
_0-2______1
  6
CONTINUOUS
 62
    7
 10
44.555620042105403
 20
45.019466090670861
 11
44.451432582496011
 21
44.863396664386059
  0
LINE
  8
_0-2______1
  6
CONTINUOUS
 62
    7
 10
44.451432582496011
 20
44.863396664386059
 11
44.399338852691301
 21
44.707115474971957
  0
LINE
  8
_0-2______1
  6
CONTINUOUS
 62
    7
 10
66.047883559735823
 20
46.840417239412659
 11
64.642623433785019
 21
46.996486665697361
  0
LINE
  8
_0-2______1
  6
CONTINUOUS
 62
    7
 10
64.642623433785019
 20
46.996486665697361
 11
63.914158269036619
 21
47.048580395502057
  0
LINE
  8
_0-2______1
  6
CONTINUOUS
 62
    7
 10
63.914158269036619
 20
47.048580395502057
 11
63.133599374483509
 21
47.152556091982163
  0
LINE
  8
_0-2______1
  6
CONTINUOUS
 62
    7
 10
63.133599374483509
 20
47.152556091982163
 11
62.352616953671827
 21
47.152556091982163
  0
LINE
  8
_0-2______1
  6
CONTINUOUS
 62
    7
 10
62.352616953671827
 20
47.152556091982163
 11
61.520811381831123
 21
47.204649821786859
  0
LINE
  8
_0-2______1
  6
CONTINUOUS
 62
    7
 10
61.520811381831123
 20
47.204649821786859
 11
60.687735231214702
 21
47.256743551591555
  0
LINE
  8
_0-2______1
  6
CONTINUOUS
 62
    7
 10
60.687735231214702
 20
47.256743551591555
 11
59.855082606856911
 21
47.308837281396166
  0
LINE
  8
_0-2______1
  6
CONTINUOUS
 62
    7
 10
55.639725755263214
 20
68.696913339417264
 11
53.974844032806118
 21
68.644819609612554
  0
LINE
  8
_0-2______1
  6
CONTINUOUS
 62
    7
 10
53.974844032806118
 20
68.644819609612554
 11
53.194285138253008
 21
68.592725879807873
  0
LINE
  8
_0-2______1
  6
CONTINUOUS
 62
    7
 10
53.194285138253008
 20
68.592725879807873
 11
52.413726243699926
 21
68.540632150003248
  0
LINE
  8
_0-2______1
  6
CONTINUOUS
 62
    7
 10
52.413726243699926
 20
68.540632150003248
 11
51.633167349146817
 21
68.436656453523071
  0
LINE
  8
_0-2______1
  6
CONTINUOUS
 62
    7
 10
51.633167349146817
 20
68.436656453523071
 11
50.852184928335106
 21
68.384562723718474
  0
LINE
  8
_0-2______1
  6
CONTINUOUS
 62
    7
 10
50.852184928335106
 20
68.384562723718474
 11
50.175813493391303
 21
68.280587027238354
  0
LINE
  8
_0-2______1
  6
CONTINUOUS
 62
    7
 10
50.175813493391303
 20
68.280587027238354
 11
49.447771854901504
 21
68.176399567629048
  0
LINE
  8
_0-2______1
  6
CONTINUOUS
 62
    7
 10
49.447771854901504
 20
68.176399567629048
 11
48.82307062350381
 21
68.072423871148871
  0
LINE
  8
_0-2______1
  6
CONTINUOUS
 62
    7
 10
48.82307062350381
 20
68.072423871148871
 11
48.198792918364802
 21
67.968236411539564
  0
LINE
  8
_0-2______1
  6
CONTINUOUS
 62
    7
 10
48.198792918364802
 20
67.968236411539564
 11
47.574091686967108
 21
67.812166985254763
  0
LINE
  8
_0-2______1
  6
CONTINUOUS
 62
    7
 10
47.574091686967108
 20
67.812166985254763
 11
47.053577915178806
 21
67.707979525645371
  0
LINE
  8
_0-2______1
  6
CONTINUOUS
 62
    7
 10
47.053577915178806
 20
67.707979525645371
 11
46.481393939844423
 21
67.604003829165251
  0
LINE
  8
_0-2______1
  6
CONTINUOUS
 62
    7
 10
46.481393939844423
 20
67.604003829165251
 11
46.012973897860917
 21
67.447934402880563
  0
LINE
  8
_0-2______1
  6
CONTINUOUS
 62
    7
 10
46.012973897860917
 20
67.447934402880563
 11
45.648741315486603
 21
67.291653213466461
  0
LINE
  8
_0-2______1
  6
CONTINUOUS
 62
    7
 10
45.648741315486603
 20
67.291653213466461
 11
45.284085206853803
 21
67.187677516986454
  0
LINE
  8
_0-2______1
  6
CONTINUOUS
 62
    7
 10
45.284085206853803
 20
67.187677516986454
 11
44.919852624479603
 21
66.979514360896971
  0
LINE
  8
_0-2______1
  6
CONTINUOUS
 62
    7
 10
44.919852624479603
 20
66.979514360896971
 11
44.659807501714823
 21
66.823233171482954
  0
LINE
  8
_0-2______1
  6
CONTINUOUS
 62
    7
 10
44.659807501714823
 20
66.823233171482954
 11
44.399338852691301
 21
66.667163745198152
  0
LINE
  8
_0-2______1
  6
CONTINUOUS
 62
    7
 10
44.399338852691301
 20
66.667163745198152
 11
44.191387459731203
 21
66.511094318913351
  0
LINE
  8
_0-2______1
  6
CONTINUOUS
 62
    7
 10
44.191387459731203
 20
66.511094318913351
 11
44.087200000121811
 21
66.355024892628663
  0
LINE
  8
_0-2______1
  6
CONTINUOUS
 62
    7
 10
44.087200000121811
 20
66.355024892628663
 11
43.983012540512419
 21
66.198743703214561
  0
LINE
  8
_0-2______1
  6
CONTINUOUS
 62
    7
 10
43.983012540512419
 20
66.198743703214561
 11
43.93134233696631
 21
65.990580547125049
  0
LINE
  8
_0-2______1
  6
CONTINUOUS
 62
    7
 10
43.93134233696631
 20
65.990580547125049
 11
43.983012540512419
 21
65.886604850644957
  0
LINE
  8
_0-2______1
  6
CONTINUOUS
 62
    7
 10
43.983012540512419
 20
65.886604850644957
 11
44.087200000121811
 21
65.730535424360269
  0
LINE
  8
_0-2______1
  6
CONTINUOUS
 62
    7
 10
44.087200000121811
 20
65.730535424360269
 11
44.191387459731203
 21
65.522160505141457
  0
LINE
  8
_0-2______1
  6
CONTINUOUS
 62
    7
 10
44.191387459731203
 20
65.522160505141457
 11
44.399338852691301
 21
65.366091078856755
  0
LINE
  8
_0-2______1
  6
CONTINUOUS
 62
    7
 10
57.044985881213904
 20
68.540843913132548
 11
55.327586902693724
 21
68.540843913132548
  0
LINE
  8
_0-2______1
  6
CONTINUOUS
 62
    7
 10
55.327586902693724
 20
68.540843913132548
 11
54.494934278335904
 21
68.436656453523071
  0
LINE
  8
_0-2______1
  6
CONTINUOUS
 62
    7
 10
54.494934278335904
 20
68.436656453523071
 11
53.6627051802366
 21
68.436656453523071
  0
LINE
  8
_0-2______1
  6
CONTINUOUS
 62
    7
 10
53.6627051802366
 20
68.436656453523071
 11
52.882146285683518
 21
68.384562723718474
  0
LINE
  8
_0-2______1
  6
CONTINUOUS
 62
    7
 10
52.882146285683518
 20
68.384562723718474
 11
52.101587391130408
 21
68.280587027238354
  0
LINE
  8
_0-2______1
  6
CONTINUOUS
 62
    7
 10
52.101587391130408
 20
68.280587027238354
 11
51.320604970318726
 21
68.228493297433673
  0
LINE
  8
_0-2______1
  6
CONTINUOUS
 62
    7
 10
51.320604970318726
 20
68.228493297433673
 11
50.592139805570213
 21
68.124305837824252
  0
LINE
  8
_0-2______1
  6
CONTINUOUS
 62
    7
 10
50.592139805570213
 20
68.124305837824252
 11
49.915768370626523
 21
68.020330141344274
  0
LINE
  8
_0-2______1
  6
CONTINUOUS
 62
    7
 10
49.915768370626523
 20
68.020330141344274
 11
49.23939693568272
 21
67.916354444864155
  0
LINE
  8
_0-2______1
  6
CONTINUOUS
 62
    7
 10
49.23939693568272
 20
67.916354444864155
 11
48.615119230543712
 21
67.812166985254763
  0
LINE
  8
_0-2______1
  6
CONTINUOUS
 62
    7
 10
48.615119230543712
 20
67.812166985254763
 11
48.0425117289507
 21
67.656097558969961
  0
LINE
  8
_0-2______1
  6
CONTINUOUS
 62
    7
 10
48.0425117289507
 20
67.656097558969961
 11
47.418234023811607
 21
67.551910099360654
  0
LINE
  8
_0-2______1
  6
CONTINUOUS
 62
    7
 10
47.418234023811607
 20
67.551910099360654
 11
46.949813981828015
 21
67.447934402880563
  0
LINE
  8
_0-2______1
  6
CONTINUOUS
 62
    7
 10
46.949813981828015
 20
67.447934402880563
 11
46.481393939844423
 21
67.291653213466461
  0
LINE
  8
_0-2______1
  6
CONTINUOUS
 62
    7
 10
46.481393939844423
 20
67.291653213466461
 11
46.012973897860917
 21
67.135583787181773
  0
LINE
  8
_0-2______1
  6
CONTINUOUS
 62
    7
 10
46.012973897860917
 20
67.135583787181773
 11
45.648741315486603
 21
66.979514360896971
  0
LINE
  8
_0-2______1
  6
CONTINUOUS
 62
    7
 10
45.648741315486603
 20
66.979514360896971
 11
45.284085206853803
 21
66.823233171482954
  0
LINE
  8
_0-2______1
  6
CONTINUOUS
 62
    7
 10
45.284085206853803
 20
66.823233171482954
 11
45.024040084089023
 21
66.667163745198152
  0
LINE
  8
_0-2______1
  6
CONTINUOUS
 62
    7
 10
45.024040084089023
 20
66.667163745198152
 11
44.816088691128812
 21
66.511094318913351
  0
LINE
  8
_0-2______1
  6
CONTINUOUS
 62
    7
 10
44.816088691128812
 20
66.511094318913351
 11
44.659807501714823
 21
66.355024892628663
  0
LINE
  8
_0-2______1
  6
CONTINUOUS
 62
    7
 10
44.659807501714823
 20
66.355024892628663
 11
44.451432582496011
 21
66.146861736539151
  0
LINE
  8
_0-2______1
  6
CONTINUOUS
 62
    7
 10
44.451432582496011
 20
66.146861736539151
 11
44.399338852691301
 21
65.990580547125049
  0
LINE
  8
_0-2______1
  6
CONTINUOUS
 62
    7
 10
59.907176336661621
 20
68.749007069221975
 11
56.524472109425716
 21
68.749007069221975
  0
LINE
  8
_0-2______1
  6
CONTINUOUS
 62
    7
 10
56.524472109425716
 20
68.749007069221975
 11
55.639725755263214
 21
68.696913339417264
  0
LINE
  8
_0-2______1
  6
CONTINUOUS
 62
    7
 10
59.074523712303801
 20
69.685635390059858
 11
57.357124733783508
 21
69.685635390059858
  0
LINE
  8
_0-2______1
  6
CONTINUOUS
 62
    7
 10
57.357124733783508
 20
69.685635390059858
 11
56.524472109425716
 21
69.633753423384448
  0
LINE
  8
_0-2______1
  6
CONTINUOUS
 62
    7
 10
56.524472109425716
 20
69.633753423384448
 11
54.807073130905422
 21
69.633753423384448
  0
LINE
  8
_0-2______1
  6
CONTINUOUS
 62
    7
 10
54.807073130905422
 20
69.633753423384448
 11
53.974844032806118
 21
69.529565963775056
  0
LINE
  8
_0-2______1
  6
CONTINUOUS
 62
    7
 10
53.974844032806118
 20
69.529565963775056
 11
53.142191408448326
 21
69.477472233970374
  0
LINE
  8
_0-2______1
  6
CONTINUOUS
 62
    7
 10
53.142191408448326
 20
69.477472233970374
 11
52.309538784090506
 21
69.425378504165664
  0
LINE
  8
_0-2______1
  6
CONTINUOUS
 62
    7
 10
52.309538784090506
 20
69.425378504165664
 11
51.581073619342106
 21
69.373496537490254
  0
LINE
  8
_0-2______1
  6
CONTINUOUS
 62
    7
 10
51.581073619342106
 20
69.373496537490254
 11
50.852184928335106
 21
69.269309077880948
  0
LINE
  8
_0-2______1
  6
CONTINUOUS
 62
    7
 10
50.852184928335106
 20
69.269309077880948
 11
50.123719763586621
 21
69.165333381400856
  0
LINE
  8
_0-2______1
  6
CONTINUOUS
 62
    7
 10
50.123719763586621
 20
69.165333381400856
 11
49.447771854901504
 21
69.113239651596174
  0
LINE
  8
_0-2______1
  6
CONTINUOUS
 62
    7
 10
49.447771854901504
 20
69.113239651596174
 11
48.7709768936991
 21
69.009052191986754
  0
LINE
  8
_0-2______1
  6
CONTINUOUS
 62
    7
 10
48.7709768936991
 20
69.009052191986754
 11
48.146699188560007
 21
68.852982765702066
  0
LINE
  8
_0-2______1
  6
CONTINUOUS
 62
    7
 10
48.146699188560007
 20
68.852982765702066
 11
47.574091686967108
 21
68.696913339417264
  0
LINE
  8
_0-2______1
  6
CONTINUOUS
 62
    7
 10
47.574091686967108
 20
68.696913339417264
 11
47.001484185374125
 21
68.592725879807873
  0
LINE
  8
_0-2______1
  6
CONTINUOUS
 62
    7
 10
47.001484185374125
 20
68.592725879807873
 11
46.481393939844423
 21
68.436656453523071
  0
LINE
  8
_0-2______1
  6
CONTINUOUS
 62
    7
 10
46.481393939844423
 20
68.436656453523071
 11
46.012973897860917
 21
68.332680757043065
  0
LINE
  8
_0-2______1
  6
CONTINUOUS
 62
    7
 10
46.012973897860917
 20
68.332680757043065
 11
45.596647585681922
 21
68.176399567629048
  0
LINE
  8
_0-2______1
  6
CONTINUOUS
 62
    7
 10
45.596647585681922
 20
68.176399567629048
 11
45.180321273503125
 21
68.020330141344274
  0
LINE
  8
_0-2______1
  6
CONTINUOUS
 62
    7
 10
45.180321273503125
 20
68.020330141344274
 11
44.919852624479603
 21
67.916354444864155
  0
LINE
  8
_0-2______1
  6
CONTINUOUS
 62
    7
 10
44.919852624479603
 20
67.916354444864155
 11
44.659807501714823
 21
67.707979525645371
  0
LINE
  8
_0-2______1
  6
CONTINUOUS
 62
    7
 10
44.659807501714823
 20
67.707979525645371
 11
44.399338852691301
 21
67.551910099360654
  0
LINE
  8
_0-2______1
  6
CONTINUOUS
 62
    7
 10
44.399338852691301
 20
67.551910099360654
 11
44.191387459731203
 21
67.343746943271171
  0
LINE
  8
_0-2______1
  6
CONTINUOUS
 62
    7
 10
44.191387459731203
 20
67.343746943271171
 11
44.087200000121811
 21
67.187677516986454
  0
LINE
  8
_0-2______1
  6
CONTINUOUS
 62
    7
 10
44.087200000121811
 20
67.187677516986454
 11
43.983012540512419
 21
67.031608090701567
  0
LINE
  8
_0-2______1
  6
CONTINUOUS
 62
    7
 10
43.983012540512419
 20
67.031608090701567
 11
43.93134233696631
 21
66.927420631092261
  0
LINE
  8
_0-2______1
  6
CONTINUOUS
 62
    7
 10
59.38708609113192
 20
68.540843913132548
 11
58.241871087945924
 21
68.592725879807873
  0
LINE
  8
_0-2______1
  6
CONTINUOUS
 62
    7
 10
58.241871087945924
 20
68.592725879807873
 11
57.044985881213904
 21
68.540843913132548
  0
ENDSEC
  0
EOF
