  0
SECTION
  2
HEADER
  9
$ACADVER
  1
AC1009
  9
$DWGCODEPAGE
  3
ANSI_932
  9
$INSBASE
 10
0.0
 20
0.0
 30
0.0
  9
$EXTMIN
 10
0
 20
0
 30
0
  9
$EXTMAX
 10
0
 20
0
 30
0
  9
$LIMMIN
 10
0.0
 20
0.0
  9
$LIMMAX
 10
420.0
 20
297.0
  9
$ORTHOMODE
 70
0
  9
$REGENMODE
 70
1
  9
$FILLMODE
 70
1
  9
$DRAGMODE
 70
2
  9
$QTEXTMODE
 70
0
  9
$MIRRTEXT
 70
1
  9
$OSMODE
 70
37
  9
$LTSCALE
 40
25.4
  9
$ATTMODE
 70
1
  9
$TEXTSIZE
 40
0.2
  9
$TRACEWID
 40
1.0
  9
$TEXTSTYLE
  7
STANDARD
  9
$CLAYER
  8
__
  9
$CELTYPE
  6
BYLAYER
  9
$CECOLOR
 62
256
  9
$DIMSCALE
 40
1.0
  9
$DIMASZ
 40
0.18
  9
$DIMEXO
 40
0.0625
  9
$DIMDLI
 40
0.38
  9
$DIMRND
 40
0.0
  9
$DIMDLE
 40
0.0
  9
$DIMEXE
 40
0.18
  9
$DIMTP
 40
0.0
  9
$DIMTM
 40
0.0
  9
$DIMTXT
 40
0.18
  9
$DIMCEN
 40
0.09
  9
$DIMTSZ
 40
0.0
  9
$DIMTOL
 70
0
  9
$DIMLIM
 70
0
  9
$DIMTIH
 70
1
  9
$DIMTOH
 70
1
  9
$DIMSE1
 70
0
  9
$DIMSE2
 70
0
  9
$DIMTAD
 70
0
  9
$DIMZIN
 70
0
  9
$DIMBLK
  1

  9
$DIMASO
 70
1
  9
$DIMSHO
 70
1
  9
$DIMPOST
  1

  9
$DIMAPOST
  1

  9
$DIMALT
 70
0
  9
$DIMALTD
 70
2
  9
$DIMALTF
 40
25.4
  9
$DIMLFAC
 40
1.0
  9
$DIMTOFL
 70
0
  9
$DIMTVP
 40
0.0
  9
$DIMTIX
 70
0
  9
$DIMSOXD
 70
0
  9
$DIMSAH
 70
0
  9
$DIMBLK1
  1

  9
$DIMBLK2
  1

  9
$DIMSTYLE
  2
STANDARD
  9
$DIMCLRD
 70
0
  9
$DIMCLRE
 70
0
  9
$DIMCLRT
 70
0
  9
$DIMTFAC
 40
1.0
  9
$DIMGAP
 40
0.09
  9
$COORDS
 70
1
  9
$ATTDIA
 70
0
  9
$ATTREQ
 70
1
  9
$HANDLING
 70
1
  9
$LUNITS
 70
2
  9
$LUPREC
 70
2
  9
$SKETCHINC
 40
0.1
  9
$FILLETRAD
 40
0.5
  9
$AUNITS
 70
0
  9
$AUPREC
 70
2
  9
$MENU
  1
.
  9
$ELEVATION
 40
0.0
  9
$PELEVATION
 40
0.0
  9
$THICKNESS
 40
0.0
  9
$LIMCHECK
 70
0
  9
$CHAMFERA
 40
0.0
  9
$CHAMFERB
 40
0.0
  9
$SKPOLY
 70
0
  9
$TDCREATE
 40
2460040.4118981482
  9
$TDUPDATE
 40
2460040.4118981482
  9
$TDINDWG
 40
1.16e-08
  9
$TDUSRTIMER
 40
1.16e-08
  9
$USRTIMER
 70
1
  9
$ANGBASE
 50
0.0
  9
$ANGDIR
 70
0
  9
$PDMODE
 70
1
  9
$PDSIZE
 40
-2.0
  9
$PLINEWID
 40
0.0
  9
$SPLFRAME
 70
0
  9
$SPLINETYPE
 70
6
  9
$SPLINESEGS
 70
8
  9
$HANDSEED
  5
25A
  9
$SURFTAB1
 70
6
  9
$SURFTAB2
 70
6
  9
$SURFTYPE
 70
6
  9
$SURFU
 70
6
  9
$SURFV
 70
6
  9
$UCSNAME
  2

  9
$UCSORG
 10
0.0
 20
0.0
 30
0.0
  9
$UCSXDIR
 10
1.0
 20
0.0
 30
0.0
  9
$UCSYDIR
 10
0.0
 20
1.0
 30
0.0
  9
$PUCSNAME
  2

  9
$PUCSORG
 10
0.0
 20
0.0
 30
0.0
  9
$PUCSXDIR
 10
1.0
 20
0.0
 30
0.0
  9
$PUCSYDIR
 10
0.0
 20
1.0
 30
0.0
  9
$USERI1
 70
0
  9
$USERI2
 70
0
  9
$USERI3
 70
0
  9
$USERI4
 70
0
  9
$USERI5
 70
0
  9
$USERR1
 40
0.0
  9
$USERR2
 40
0.0
  9
$USERR3
 40
0.0
  9
$USERR4
 40
0.0
  9
$USERR5
 40
0.0
  9
$WORLDVIEW
 70
1
  9
$SHADEDGE
 70
3
  9
$SHADEDIF
 70
70
  9
$TILEMODE
 70
1
  9
$MAXACTVP
 70
64
  9
$PLIMCHECK
 70
0
  9
$PEXTMIN
 10
1e+20
 20
1e+20
 30
1e+20
  9
$PEXTMAX
 10
-1e+20
 20
-1e+20
 30
-1e+20
  9
$PLIMMIN
 10
0.0
 20
0.0
  9
$PLIMMAX
 10
420.0
 20
297.0
  9
$UNITMODE
 70
0
  9
$VISRETAIN
 70
1
  9
$PLINEGEN
 70
0
  9
$PSLTSCALE
 70
1
  0
ENDSEC
  0
SECTION
  2
TABLES
  0
TABLE
  2
VPORT
 70
1
  0
VPORT
  5
81
  2
*ACTIVE
 70
0
 10
0.0
 20
0.0
 11
1.0
 21
1.0
 12
0.0
 22
0.0
 13
0.0
 23
0.0
 14
0.5
 24
0.5
 15
0.5
 25
0.5
 16
0.0
 26
0.0
 36
1.0
 17
0.0
 27
0.0
 37
0.0
 40
296.9895
 41
0.7067921032000568
 42
2000.0
 43
0.0
 44
0.0
 50
0.0
 51
0.0
 71
0
 72
100
 73
1
 74
3
 75
0
 76
0
 77
0
 78
0
  0
ENDTAB
  0
TABLE
  2
LTYPE
 70
3
  0
LTYPE
  5
82
  2
CONTINUOUS
 70
0
  3
Solid line
 72
65
 73
0
 40
0.0
  0
LTYPE
  5
AB
  2
ByBlock
 70
0
  3

 72
65
 73
0
 40
0.0
  0
LTYPE
  5
AC
  2
ByLayer
 70
0
  3

 72
65
 73
0
 40
0.0
  0
ENDTAB
  0
TABLE
  2
LAYER
 70
3
  0
LAYER
  5
83
  2
0
 70
0
 62
7
  6
CONTINUOUS
  0
LAYER
  5
84
  2
__
 70
0
 62
7
  6
CONTINUOUS
  0
LAYER
  5
AD
  2
Defpoints
 70
0
 62
7
  6
Continuous
  0
ENDTAB
  0
TABLE
  2
STYLE
 70
1
  0
STYLE
  5
85
  2
STANDARD
 70
0
 40
0.0
 41
1.0
 50
0.0
 71
0
 42
0.2
  3
txt
  4
BIGFONT.SHX
  0
ENDTAB
  0
TABLE
  2
VIEW
 70
0
  0
ENDTAB
  0
TABLE
  2
UCS
 70
0
  0
ENDTAB
  0
TABLE
  2
APPID
 70
5
  0
APPID
  5
86
  2
ACAD
 70
0
  0
APPID
  5
87
  2
ACCMTRANSPARENCY
 70
0
  0
APPID
  5
88
  2
ACAECLAYERSTANDARD
 70
0
  0
APPID
  5
258
  2
HATCHBACKGROUNDCOLOR
 70
0
  0
APPID
  5
259
  2
EZDXF
 70
0
  0
ENDTAB
  0
TABLE
  2
DIMSTYLE
 70
1
  0
DIMSTYLE
105
89
  2
STANDARD
 70
0
  3

  4

  5

  6

  7

 40
1.0
 41
0.18
 42
0.0625
 43
0.38
 44
0.18
 45
0.0
 46
0.0
 47
0.0
 48
0.0
140
0.18
141
0.09
142
0.0
143
25.4
144
1.0
145
0.0
146
1.0
147
0.09
 71
0
 72
0
 73
1
 74
1
 75
0
 76
0
 77
0
 78
0
170
0
171
2
172
0
173
0
174
0
175
0
176
0
177
0
178
0
  0
ENDTAB
  0
ENDSEC
  0
SECTION
  2
BLOCKS
  0
BLOCK
  5
8A
  8
0
  2
$Model_Space
 70
0
 10
0.0
 20
0.0
 30
0.0
  3
$Model_Space
  1

1001
EZDXF
1000
WRITTEN_BY_EZDXF
1000
0.16.4 @ 2023-04-05T00:53:08.425706+00:00
  0
ENDBLK
  5
21
  8
0
  0
BLOCK
  5
8B
 67
1
  8
0
  2
$Paper_Space
 70
0
 10
0.0
 20
0.0
 30
0.0
  3
$Paper_Space
  1

  0
ENDBLK
  5
1D
 67
1
  8
0
  0
ENDSEC
  0
SECTION
  2
ENTITIES
  0
LINE
  5
AF
  8
0
 10
46.775
 20
79.885
 30
0.0
 11
47.021
 21
80.07
 31
0.0
  0
LINE
  5
B0
  8
0
 10
47.021
 20
80.07
 30
0.0
 11
47.144
 21
80.317
 31
0.0
  0
LINE
  5
B1
  8
0
 10
47.144
 20
80.317
 30
0.0
 11
47.206
 21
80.502
 31
0.0
  0
LINE
  5
B2
  8
0
 10
47.206
 20
80.502
 30
0.0
 11
47.268
 21
80.625
 31
0.0
  0
LINE
  5
B3
  8
0
 10
47.268
 20
80.625
 30
0.0
 11
47.206
 21
80.871
 31
0.0
  0
LINE
  5
B4
  8
0
 10
47.206
 20
80.871
 30
0.0
 11
47.083
 21
81.056
 31
0.0
  0
LINE
  5
B5
  8
0
 10
47.083
 20
81.056
 30
0.0
 11
46.96
 21
81.241
 31
0.0
  0
LINE
  5
B6
  8
0
 10
13.5
 20
80.625
 30
0.0
 11
13.5
 21
81.734
 31
0.0
  0
LINE
  5
B7
  8
0
 10
14.054
 20
53.02
 30
0.0
 11
14.054
 21
80.625
 31
0.0
  0
LINE
  5
B8
  8
0
 10
15.656
 20
53.451
 30
0.0
 11
15.656
 21
53.02
 31
0.0
  0
LINE
  5
B9
  8
0
 10
15.656
 20
53.02
 30
0.0
 11
15.78
 21
52.834
 31
0.0
  0
LINE
  5
BA
  8
0
 10
15.78
 20
52.834
 30
0.0
 11
15.965
 21
52.65
 31
0.0
  0
LINE
  5
BB
  8
0
 10
15.965
 20
52.65
 30
0.0
 11
16.149
 21
52.465
 31
0.0
  0
LINE
  5
BC
  8
0
 10
16.149
 20
52.465
 30
0.0
 11
16.458
 21
52.28
 31
0.0
  0
LINE
  5
BD
  8
0
 10
16.458
 20
52.28
 30
0.0
 11
16.827
 21
52.034
 31
0.0
  0
LINE
  5
BE
  8
0
 10
16.827
 20
52.034
 30
0.0
 11
17.259
 21
51.91
 31
0.0
  0
LINE
  5
BF
  8
0
 10
17.259
 20
51.91
 30
0.0
 11
17.69
 21
51.725
 31
0.0
  0
LINE
  5
C0
  8
0
 10
17.69
 20
51.725
 30
0.0
 11
18.245
 21
51.54
 31
0.0
  0
LINE
  5
C1
  8
0
 10
18.245
 20
51.54
 30
0.0
 11
18.861
 21
51.417
 31
0.0
  0
LINE
  5
C2
  8
0
 10
18.861
 20
51.417
 30
0.0
 11
19.477
 21
51.294
 31
0.0
  0
LINE
  5
C3
  8
0
 10
19.477
 20
51.294
 30
0.0
 11
20.155
 21
51.109
 31
0.0
  0
LINE
  5
C4
  8
0
 10
20.155
 20
51.109
 30
0.0
 11
20.894
 21
50.986
 31
0.0
  0
LINE
  5
C5
  8
0
 10
20.894
 20
50.986
 30
0.0
 11
21.695
 21
50.863
 31
0.0
  0
LINE
  5
C6
  8
0
 10
21.695
 20
50.863
 30
0.0
 11
22.435
 21
50.739
 31
0.0
  0
LINE
  5
C7
  8
0
 10
22.435
 20
50.739
 30
0.0
 11
23.297
 21
50.678
 31
0.0
  0
LINE
  5
C8
  8
0
 10
23.297
 20
50.678
 30
0.0
 11
24.222
 21
50.554
 31
0.0
  0
LINE
  5
C9
  8
0
 10
24.222
 20
50.554
 30
0.0
 11
25.085
 21
50.431
 31
0.0
  0
LINE
  5
CA
  8
0
 10
25.085
 20
50.431
 30
0.0
 11
26.008
 21
50.431
 31
0.0
  0
LINE
  5
CB
  8
0
 10
26.008
 20
50.431
 30
0.0
 11
26.994
 21
50.37
 31
0.0
  0
LINE
  5
CC
  8
0
 10
26.994
 20
50.37
 30
0.0
 11
27.919
 21
50.308
 31
0.0
  0
LINE
  5
CD
  8
0
 10
27.919
 20
50.308
 30
0.0
 11
28.966
 21
50.308
 31
0.0
  0
LINE
  5
CE
  8
0
 10
28.966
 20
50.308
 30
0.0
 11
29.891
 21
50.246
 31
0.0
  0
LINE
  5
CF
  8
0
 10
29.891
 20
50.246
 30
0.0
 11
30.877
 21
50.246
 31
0.0
  0
LINE
  5
D0
  8
0
 10
30.877
 20
50.246
 30
0.0
 11
31.862
 21
50.308
 31
0.0
  0
LINE
  5
D1
  8
0
 10
31.862
 20
50.308
 30
0.0
 11
32.848
 21
50.308
 31
0.0
  0
LINE
  5
D2
  8
0
 10
32.848
 20
50.308
 30
0.0
 11
33.773
 21
50.37
 31
0.0
  0
LINE
  5
D3
  8
0
 10
33.773
 20
50.37
 30
0.0
 11
34.758
 21
50.431
 31
0.0
  0
LINE
  5
D4
  8
0
 10
34.758
 20
50.431
 30
0.0
 11
35.683
 21
50.431
 31
0.0
  0
LINE
  5
D5
  8
0
 10
35.683
 20
50.431
 30
0.0
 11
36.607
 21
50.554
 31
0.0
  0
LINE
  5
D6
  8
0
 10
36.607
 20
50.554
 30
0.0
 11
37.47
 21
50.678
 31
0.0
  0
LINE
  5
D7
  8
0
 10
37.47
 20
50.678
 30
0.0
 11
38.333
 21
50.739
 31
0.0
  0
LINE
  5
D8
  8
0
 10
38.333
 20
50.739
 30
0.0
 11
39.134
 21
50.863
 31
0.0
  0
LINE
  5
D9
  8
0
 10
39.134
 20
50.863
 30
0.0
 11
39.873
 21
50.986
 31
0.0
  0
LINE
  5
DA
  8
0
 10
39.873
 20
50.986
 30
0.0
 11
40.612
 21
51.109
 31
0.0
  0
LINE
  5
DB
  8
0
 10
40.612
 20
51.109
 30
0.0
 11
41.351
 21
51.294
 31
0.0
  0
LINE
  5
DC
  8
0
 10
41.351
 20
51.294
 30
0.0
 11
42.029
 21
51.417
 31
0.0
  0
LINE
  5
DD
  8
0
 10
42.029
 20
51.417
 30
0.0
 11
42.522
 21
51.54
 31
0.0
  0
LINE
  5
DE
  8
0
 10
42.522
 20
51.54
 30
0.0
 11
43.077
 21
51.725
 31
0.0
  0
LINE
  5
DF
  8
0
 10
43.077
 20
51.725
 30
0.0
 11
43.57
 21
51.91
 31
0.0
  0
LINE
  5
E0
  8
0
 10
43.57
 20
51.91
 30
0.0
 11
44.001
 21
52.034
 31
0.0
  0
LINE
  5
E1
  8
0
 10
44.001
 20
52.034
 30
0.0
 11
44.31
 21
52.28
 31
0.0
  0
LINE
  5
E2
  8
0
 10
44.31
 20
52.28
 30
0.0
 11
44.618
 21
52.465
 31
0.0
  0
LINE
  5
E3
  8
0
 10
44.618
 20
52.465
 30
0.0
 11
44.864
 21
52.65
 31
0.0
  0
LINE
  5
E4
  8
0
 10
44.864
 20
52.65
 30
0.0
 11
45.049
 21
52.834
 31
0.0
  0
LINE
  5
E5
  8
0
 10
45.049
 20
52.834
 30
0.0
 11
45.111
 21
53.02
 31
0.0
  0
LINE
  5
E6
  8
0
 10
45.111
 20
53.02
 30
0.0
 11
45.111
 21
53.451
 31
0.0
  0
LINE
  5
E7
  8
0
 10
45.111
 20
53.451
 30
0.0
 11
45.049
 21
53.636
 31
0.0
  0
LINE
  5
E8
  8
0
 10
45.049
 20
53.636
 30
0.0
 11
44.864
 21
53.759
 31
0.0
  0
LINE
  5
E9
  8
0
 10
44.864
 20
53.759
 30
0.0
 11
44.618
 21
54.005
 31
0.0
  0
LINE
  5
EA
  8
0
 10
44.618
 20
54.005
 30
0.0
 11
44.31
 21
54.19
 31
0.0
  0
LINE
  5
EB
  8
0
 10
44.31
 20
54.19
 30
0.0
 11
44.001
 21
54.437
 31
0.0
  0
LINE
  5
EC
  8
0
 10
44.001
 20
54.437
 30
0.0
 11
43.57
 21
54.622
 31
0.0
  0
LINE
  5
ED
  8
0
 10
43.57
 20
54.622
 30
0.0
 11
43.077
 21
54.745
 31
0.0
  0
LINE
  5
EE
  8
0
 10
43.077
 20
54.745
 30
0.0
 11
42.522
 21
54.868
 31
0.0
  0
LINE
  5
EF
  8
0
 10
42.522
 20
54.868
 30
0.0
 11
42.029
 21
55.115
 31
0.0
  0
LINE
  5
F0
  8
0
 10
42.029
 20
55.115
 30
0.0
 11
41.351
 21
55.238
 31
0.0
  0
LINE
  5
F1
  8
0
 10
41.351
 20
55.238
 30
0.0
 11
40.612
 21
55.361
 31
0.0
  0
LINE
  5
F2
  8
0
 10
40.612
 20
55.361
 30
0.0
 11
39.873
 21
55.484
 31
0.0
  0
LINE
  5
F3
  8
0
 10
39.873
 20
55.484
 30
0.0
 11
39.134
 21
55.608
 31
0.0
  0
LINE
  5
F4
  8
0
 10
39.134
 20
55.608
 30
0.0
 11
38.333
 21
55.731
 31
0.0
  0
LINE
  5
F5
  8
0
 10
38.333
 20
55.731
 30
0.0
 11
37.47
 21
55.854
 31
0.0
  0
LINE
  5
F6
  8
0
 10
37.47
 20
55.854
 30
0.0
 11
36.607
 21
55.916
 31
0.0
  0
LINE
  5
F7
  8
0
 10
36.607
 20
55.916
 30
0.0
 11
35.683
 21
56.039
 31
0.0
  0
LINE
  5
F8
  8
0
 10
35.683
 20
56.039
 30
0.0
 11
34.758
 21
56.039
 31
0.0
  0
LINE
  5
F9
  8
0
 10
34.758
 20
56.039
 30
0.0
 11
33.773
 21
56.162
 31
0.0
  0
LINE
  5
FA
  8
0
 10
33.773
 20
56.162
 30
0.0
 11
32.848
 21
56.162
 31
0.0
  0
LINE
  5
FB
  8
0
 10
32.848
 20
56.162
 30
0.0
 11
31.862
 21
56.224
 31
0.0
  0
LINE
  5
FC
  8
0
 10
46.775
 20
53.02
 30
0.0
 11
46.775
 21
80.625
 31
0.0
  0
LINE
  5
FD
  8
0
 10
46.775
 20
80.625
 30
0.0
 11
46.651
 21
80.81
 31
0.0
  0
LINE
  5
FE
  8
0
 10
46.651
 20
80.81
 30
0.0
 11
46.528
 21
81.056
 31
0.0
  0
LINE
  5
FF
  8
0
 10
46.528
 20
81.056
 30
0.0
 11
46.22
 21
81.241
 31
0.0
  0
LINE
  5
100
  8
0
 10
46.22
 20
81.241
 30
0.0
 11
46.035
 21
81.426
 31
0.0
  0
LINE
  5
101
  8
0
 10
46.035
 20
81.426
 30
0.0
 11
45.665
 21
81.611
 31
0.0
  0
LINE
  5
102
  8
0
 10
45.665
 20
81.611
 30
0.0
 11
45.296
 21
81.796
 31
0.0
  0
LINE
  5
103
  8
0
 10
45.296
 20
81.796
 30
0.0
 11
44.803
 21
81.98
 31
0.0
  0
LINE
  5
104
  8
0
 10
44.803
 20
81.98
 30
0.0
 11
44.31
 21
82.165
 31
0.0
  0
LINE
  5
105
  8
0
 10
44.31
 20
82.165
 30
0.0
 11
43.755
 21
82.35
 31
0.0
  0
LINE
  5
106
  8
0
 10
43.755
 20
82.35
 30
0.0
 11
43.139
 21
82.473
 31
0.0
  0
LINE
  5
107
  8
0
 10
43.139
 20
82.473
 30
0.0
 11
42.461
 21
82.597
 31
0.0
  0
LINE
  5
108
  8
0
 10
42.461
 20
82.597
 30
0.0
 11
41.721
 21
82.782
 31
0.0
  0
LINE
  5
109
  8
0
 10
41.721
 20
82.782
 30
0.0
 11
40.982
 21
82.905
 31
0.0
  0
LINE
  5
10A
  8
0
 10
40.982
 20
82.905
 30
0.0
 11
40.181
 21
83.028
 31
0.0
  0
LINE
  5
10B
  8
0
 10
40.181
 20
83.028
 30
0.0
 11
39.319
 21
83.151
 31
0.0
  0
LINE
  5
10C
  8
0
 10
39.319
 20
83.151
 30
0.0
 11
38.517
 21
83.275
 31
0.0
  0
LINE
  5
10D
  8
0
 10
38.517
 20
83.275
 30
0.0
 11
37.593
 21
83.336
 31
0.0
  0
LINE
  5
10E
  8
0
 10
37.593
 20
83.336
 30
0.0
 11
36.669
 21
83.459
 31
0.0
  0
LINE
  5
10F
  8
0
 10
36.669
 20
83.459
 30
0.0
 11
35.745
 21
83.521
 31
0.0
  0
LINE
  5
110
  8
0
 10
35.745
 20
83.521
 30
0.0
 11
34.758
 21
83.521
 31
0.0
  0
LINE
  5
111
  8
0
 10
34.758
 20
83.521
 30
0.0
 11
33.773
 21
83.644
 31
0.0
  0
LINE
  5
112
  8
0
 10
33.773
 20
83.644
 30
0.0
 11
31.801
 21
83.644
 31
0.0
  0
LINE
  5
113
  8
0
 10
47.268
 20
80.625
 30
0.0
 11
47.268
 21
81.734
 31
0.0
  0
LINE
  5
114
  8
0
 10
47.268
 20
81.734
 30
0.0
 11
47.206
 21
81.857
 31
0.0
  0
LINE
  5
115
  8
0
 10
47.206
 20
81.857
 30
0.0
 11
47.083
 21
82.042
 31
0.0
  0
LINE
  5
116
  8
0
 10
47.083
 20
82.042
 30
0.0
 11
46.96
 21
82.227
 31
0.0
  0
LINE
  5
117
  8
0
 10
46.96
 20
82.227
 30
0.0
 11
46.775
 21
82.473
 31
0.0
  0
LINE
  5
118
  8
0
 10
46.775
 20
82.473
 30
0.0
 11
46.466
 21
82.658
 31
0.0
  0
LINE
  5
119
  8
0
 10
46.466
 20
82.658
 30
0.0
 11
46.158
 21
82.905
 31
0.0
  0
LINE
  5
11A
  8
0
 10
46.158
 20
82.905
 30
0.0
 11
45.789
 21
83.028
 31
0.0
  0
LINE
  5
11B
  8
0
 10
45.789
 20
83.028
 30
0.0
 11
45.296
 21
83.213
 31
0.0
  0
LINE
  5
11C
  8
0
 10
45.296
 20
83.213
 30
0.0
 11
44.803
 21
83.398
 31
0.0
  0
LINE
  5
11D
  8
0
 10
44.803
 20
83.398
 30
0.0
 11
44.31
 21
83.521
 31
0.0
  0
LINE
  5
11E
  8
0
 10
44.31
 20
83.521
 30
0.0
 11
43.632
 21
83.706
 31
0.0
  0
LINE
  5
11F
  8
0
 10
43.632
 20
83.706
 30
0.0
 11
43.015
 21
83.829
 31
0.0
  0
LINE
  5
120
  8
0
 10
43.015
 20
83.829
 30
0.0
 11
42.276
 21
84.014
 31
0.0
  0
LINE
  5
121
  8
0
 10
42.276
 20
84.014
 30
0.0
 11
41.598
 21
84.199
 31
0.0
  0
LINE
  5
122
  8
0
 10
41.598
 20
84.199
 30
0.0
 11
40.797
 21
84.322
 31
0.0
  0
LINE
  5
123
  8
0
 10
40.797
 20
84.322
 30
0.0
 11
39.935
 21
84.384
 31
0.0
  0
LINE
  5
124
  8
0
 10
39.935
 20
84.384
 30
0.0
 11
39.134
 21
84.507
 31
0.0
  0
LINE
  5
125
  8
0
 10
39.134
 20
84.507
 30
0.0
 11
38.209
 21
84.63
 31
0.0
  0
LINE
  5
126
  8
0
 10
38.209
 20
84.63
 30
0.0
 11
37.346
 21
84.692
 31
0.0
  0
LINE
  5
127
  8
0
 10
37.346
 20
84.692
 30
0.0
 11
36.36
 21
84.754
 31
0.0
  0
LINE
  5
128
  8
0
 10
36.36
 20
84.754
 30
0.0
 11
35.436
 21
84.815
 31
0.0
  0
LINE
  5
129
  8
0
 10
35.436
 20
84.815
 30
0.0
 11
34.451
 21
84.939
 31
0.0
  0
LINE
  5
12A
  8
0
 10
34.451
 20
84.939
 30
0.0
 11
32.417
 21
84.939
 31
0.0
  0
LINE
  5
12B
  8
0
 10
32.417
 20
84.939
 30
0.0
 11
31.431
 21
85.0
 31
0.0
  0
LINE
  5
12C
  8
0
 10
14.054
 20
53.02
 30
0.0
 11
14.116
 21
52.834
 31
0.0
  0
LINE
  5
12D
  8
0
 10
14.116
 20
52.834
 30
0.0
 11
14.239
 21
52.65
 31
0.0
  0
LINE
  5
12E
  8
0
 10
14.239
 20
52.65
 30
0.0
 11
14.486
 21
52.465
 31
0.0
  0
LINE
  5
12F
  8
0
 10
14.486
 20
52.465
 30
0.0
 11
14.794
 21
52.28
 31
0.0
  0
LINE
  5
130
  8
0
 10
14.794
 20
52.28
 30
0.0
 11
15.102
 21
52.034
 31
0.0
  0
LINE
  5
131
  8
0
 10
15.102
 20
52.034
 30
0.0
 11
15.472
 21
51.849
 31
0.0
  0
LINE
  5
132
  8
0
 10
15.472
 20
51.849
 30
0.0
 11
15.903
 21
51.725
 31
0.0
  0
LINE
  5
133
  8
0
 10
15.903
 20
51.725
 30
0.0
 11
16.334
 21
51.541
 31
0.0
  0
LINE
  5
134
  8
0
 10
16.334
 20
51.541
 30
0.0
 11
16.889
 21
51.356
 31
0.0
  0
LINE
  5
135
  8
0
 10
16.889
 20
51.356
 30
0.0
 11
17.505
 21
51.171
 31
0.0
  0
LINE
  5
136
  8
0
 10
17.505
 20
51.171
 30
0.0
 11
18.122
 21
51.047
 31
0.0
  0
LINE
  5
137
  8
0
 10
18.122
 20
51.047
 30
0.0
 11
18.799
 21
50.924
 31
0.0
  0
LINE
  5
138
  8
0
 10
18.799
 20
50.924
 30
0.0
 11
19.539
 21
50.739
 31
0.0
  0
LINE
  5
139
  8
0
 10
19.539
 20
50.739
 30
0.0
 11
20.278
 21
50.678
 31
0.0
  0
LINE
  5
13A
  8
0
 10
20.278
 20
50.678
 30
0.0
 11
21.079
 21
50.554
 31
0.0
  0
LINE
  5
13B
  8
0
 10
21.079
 20
50.554
 30
0.0
 11
21.942
 21
50.431
 31
0.0
  0
LINE
  5
13C
  8
0
 10
21.942
 20
50.431
 30
0.0
 11
22.804
 21
50.308
 31
0.0
  0
LINE
  5
13D
  8
0
 10
22.804
 20
50.308
 30
0.0
 11
23.667
 21
50.246
 31
0.0
  0
LINE
  5
13E
  8
0
 10
23.667
 20
50.246
 30
0.0
 11
24.592
 21
50.185
 31
0.0
  0
LINE
  5
13F
  8
0
 10
24.592
 20
50.185
 30
0.0
 11
25.516
 21
50.123
 31
0.0
  0
LINE
  5
140
  8
0
 10
25.516
 20
50.123
 30
0.0
 11
26.501
 21
50.061
 31
0.0
  0
LINE
  5
141
  8
0
 10
26.501
 20
50.061
 30
0.0
 11
27.426
 21
50.0
 31
0.0
  0
LINE
  5
142
  8
0
 10
27.426
 20
50.0
 30
0.0
 11
28.412
 21
50.0
 31
0.0
  0
LINE
  5
143
  8
0
 10
46.775
 20
53.451
 30
0.0
 11
46.651
 21
53.636
 31
0.0
  0
LINE
  5
144
  8
0
 10
46.651
 20
53.636
 30
0.0
 11
46.528
 21
53.882
 31
0.0
  0
LINE
  5
145
  8
0
 10
46.528
 20
53.882
 30
0.0
 11
46.343
 21
54.005
 31
0.0
  0
LINE
  5
146
  8
0
 10
46.343
 20
54.005
 30
0.0
 11
46.035
 21
54.19
 31
0.0
  0
LINE
  5
147
  8
0
 10
46.035
 20
54.19
 30
0.0
 11
45.727
 21
54.437
 31
0.0
  0
LINE
  5
148
  8
0
 10
45.727
 20
54.437
 30
0.0
 11
45.296
 21
54.622
 31
0.0
  0
LINE
  5
149
  8
0
 10
45.296
 20
54.622
 30
0.0
 11
44.926
 21
54.745
 31
0.0
  0
LINE
  5
14A
  8
0
 10
44.926
 20
54.745
 30
0.0
 11
44.433
 21
54.93
 31
0.0
  0
LINE
  5
14B
  8
0
 10
44.433
 20
54.93
 30
0.0
 11
43.878
 21
55.115
 31
0.0
  0
LINE
  5
14C
  8
0
 10
43.878
 20
55.115
 30
0.0
 11
43.324
 21
55.3
 31
0.0
  0
LINE
  5
14D
  8
0
 10
43.324
 20
55.3
 30
0.0
 11
42.646
 21
55.423
 31
0.0
  0
LINE
  5
14E
  8
0
 10
42.646
 20
55.423
 30
0.0
 11
42.029
 21
55.546
 31
0.0
  0
LINE
  5
14F
  8
0
 10
42.029
 20
55.546
 30
0.0
 11
41.228
 21
55.731
 31
0.0
  0
LINE
  5
150
  8
0
 10
41.228
 20
55.731
 30
0.0
 11
40.489
 21
55.854
 31
0.0
  0
LINE
  5
151
  8
0
 10
40.489
 20
55.854
 30
0.0
 11
39.688
 21
55.916
 31
0.0
  0
LINE
  5
152
  8
0
 10
39.688
 20
55.916
 30
0.0
 11
38.887
 21
56.039
 31
0.0
  0
LINE
  5
153
  8
0
 10
38.887
 20
56.039
 30
0.0
 11
38.024
 21
56.162
 31
0.0
  0
LINE
  5
154
  8
0
 10
38.024
 20
56.162
 30
0.0
 11
37.162
 21
56.224
 31
0.0
  0
LINE
  5
155
  8
0
 10
37.162
 20
56.224
 30
0.0
 11
36.238
 21
56.286
 31
0.0
  0
LINE
  5
156
  8
0
 10
36.238
 20
56.286
 30
0.0
 11
35.313
 21
56.408
 31
0.0
  0
LINE
  5
157
  8
0
 10
35.313
 20
56.408
 30
0.0
 11
34.328
 21
56.47
 31
0.0
  0
LINE
  5
158
  8
0
 10
34.328
 20
56.47
 30
0.0
 11
32.355
 21
56.47
 31
0.0
  0
LINE
  5
159
  8
0
 10
32.355
 20
56.47
 30
0.0
 11
31.369
 21
56.593
 31
0.0
  0
LINE
  5
15A
  8
0
 10
46.775
 20
55.423
 30
0.0
 11
46.651
 21
55.608
 31
0.0
  0
LINE
  5
15B
  8
0
 10
46.651
 20
55.608
 30
0.0
 11
46.528
 21
55.793
 31
0.0
  0
LINE
  5
15C
  8
0
 10
46.528
 20
55.793
 30
0.0
 11
46.343
 21
56.039
 31
0.0
  0
LINE
  5
15D
  8
0
 10
46.343
 20
56.039
 30
0.0
 11
46.035
 21
56.224
 31
0.0
  0
LINE
  5
15E
  8
0
 10
46.035
 20
56.224
 30
0.0
 11
45.727
 21
56.408
 31
0.0
  0
LINE
  5
15F
  8
0
 10
45.727
 20
56.408
 30
0.0
 11
45.296
 21
56.593
 31
0.0
  0
LINE
  5
160
  8
0
 10
45.296
 20
56.593
 30
0.0
 11
44.926
 21
56.778
 31
0.0
  0
LINE
  5
161
  8
0
 10
44.926
 20
56.778
 30
0.0
 11
44.433
 21
56.901
 31
0.0
  0
LINE
  5
162
  8
0
 10
44.433
 20
56.901
 30
0.0
 11
43.878
 21
57.086
 31
0.0
  0
LINE
  5
163
  8
0
 10
43.878
 20
57.086
 30
0.0
 11
43.324
 21
57.209
 31
0.0
  0
LINE
  5
164
  8
0
 10
43.324
 20
57.209
 30
0.0
 11
42.646
 21
57.394
 31
0.0
  0
LINE
  5
165
  8
0
 10
42.646
 20
57.394
 30
0.0
 11
42.029
 21
57.517
 31
0.0
  0
LINE
  5
166
  8
0
 10
42.029
 20
57.517
 30
0.0
 11
41.228
 21
57.702
 31
0.0
  0
LINE
  5
167
  8
0
 10
41.228
 20
57.702
 30
0.0
 11
40.489
 21
57.764
 31
0.0
  0
LINE
  5
168
  8
0
 10
40.489
 20
57.764
 30
0.0
 11
39.688
 21
57.949
 31
0.0
  0
LINE
  5
169
  8
0
 10
16.149
 20
54.005
 30
0.0
 11
16.458
 21
53.759
 31
0.0
  0
LINE
  5
16A
  8
0
 10
16.458
 20
53.759
 30
0.0
 11
16.827
 21
53.636
 31
0.0
  0
LINE
  5
16B
  8
0
 10
16.827
 20
53.636
 30
0.0
 11
17.259
 21
53.451
 31
0.0
  0
LINE
  5
16C
  8
0
 10
17.259
 20
53.451
 30
0.0
 11
17.752
 21
53.327
 31
0.0
  0
LINE
  5
16D
  8
0
 10
17.752
 20
53.327
 30
0.0
 11
18.306
 21
53.143
 31
0.0
  0
LINE
  5
16E
  8
0
 10
18.306
 20
53.143
 30
0.0
 11
18.923
 21
52.958
 31
0.0
  0
LINE
  5
16F
  8
0
 10
18.923
 20
52.958
 30
0.0
 11
19.601
 21
52.834
 31
0.0
  0
LINE
  5
170
  8
0
 10
19.601
 20
52.834
 30
0.0
 11
20.278
 21
52.65
 31
0.0
  0
LINE
  5
171
  8
0
 10
20.278
 20
52.65
 30
0.0
 11
21.079
 21
52.465
 31
0.0
  0
LINE
  5
172
  8
0
 10
21.079
 20
52.465
 30
0.0
 11
21.88
 21
52.403
 31
0.0
  0
LINE
  5
173
  8
0
 10
21.88
 20
52.403
 30
0.0
 11
22.681
 21
52.28
 31
0.0
  0
LINE
  5
174
  8
0
 10
22.681
 20
52.28
 30
0.0
 11
23.544
 21
52.157
 31
0.0
  0
LINE
  5
175
  8
0
 10
23.544
 20
52.157
 30
0.0
 11
24.53
 21
52.095
 31
0.0
  0
LINE
  5
176
  8
0
 10
24.53
 20
52.095
 30
0.0
 11
25.454
 21
52.034
 31
0.0
  0
LINE
  5
177
  8
0
 10
25.454
 20
52.034
 30
0.0
 11
26.378
 21
51.972
 31
0.0
  0
LINE
  5
178
  8
0
 10
26.378
 20
51.972
 30
0.0
 11
27.364
 21
51.91
 31
0.0
  0
LINE
  5
179
  8
0
 10
27.364
 20
51.91
 30
0.0
 11
28.412
 21
51.849
 31
0.0
  0
LINE
  5
17A
  8
0
 10
46.96
 20
81.241
 30
0.0
 11
46.466
 21
81.611
 31
0.0
  0
LINE
  5
17B
  8
0
 10
46.466
 20
81.611
 30
0.0
 11
46.097
 21
81.796
 31
0.0
  0
LINE
  5
17C
  8
0
 10
46.097
 20
81.796
 30
0.0
 11
45.727
 21
81.98
 31
0.0
  0
LINE
  5
17D
  8
0
 10
45.727
 20
81.98
 30
0.0
 11
45.296
 21
82.165
 31
0.0
  0
LINE
  5
17E
  8
0
 10
45.296
 20
82.165
 30
0.0
 11
44.741
 21
82.35
 31
0.0
  0
LINE
  5
17F
  8
0
 10
44.741
 20
82.35
 30
0.0
 11
44.186
 21
82.535
 31
0.0
  0
LINE
  5
180
  8
0
 10
44.186
 20
82.535
 30
0.0
 11
43.632
 21
82.658
 31
0.0
  0
LINE
  5
181
  8
0
 10
43.632
 20
82.658
 30
0.0
 11
43.015
 21
82.782
 31
0.0
  0
LINE
  5
182
  8
0
 10
43.015
 20
82.782
 30
0.0
 11
42.276
 21
82.966
 31
0.0
  0
LINE
  5
183
  8
0
 10
42.276
 20
82.966
 30
0.0
 11
41.536
 21
83.09
 31
0.0
  0
LINE
  5
184
  8
0
 10
41.536
 20
83.09
 30
0.0
 11
40.736
 21
83.213
 31
0.0
  0
LINE
  5
185
  8
0
 10
40.736
 20
83.213
 30
0.0
 11
39.935
 21
83.336
 31
0.0
  0
LINE
  5
186
  8
0
 10
39.935
 20
83.336
 30
0.0
 11
39.072
 21
83.459
 31
0.0
  0
LINE
  5
187
  8
0
 10
39.072
 20
83.459
 30
0.0
 11
38.209
 21
83.521
 31
0.0
  0
LINE
  5
188
  8
0
 10
38.209
 20
83.521
 30
0.0
 11
37.285
 21
83.644
 31
0.0
  0
LINE
  5
189
  8
0
 10
37.285
 20
83.644
 30
0.0
 11
36.299
 21
83.706
 31
0.0
  0
LINE
  5
18A
  8
0
 10
36.299
 20
83.706
 30
0.0
 11
35.374
 21
83.768
 31
0.0
  0
LINE
  5
18B
  8
0
 10
35.374
 20
83.768
 30
0.0
 11
34.451
 21
83.829
 31
0.0
  0
LINE
  5
18C
  8
0
 10
34.451
 20
83.829
 30
0.0
 11
33.403
 21
83.829
 31
0.0
  0
LINE
  5
18D
  8
0
 10
33.403
 20
83.829
 30
0.0
 11
32.417
 21
83.891
 31
0.0
  0
LINE
  5
18E
  8
0
 10
28.412
 20
50.0
 30
0.0
 11
33.341
 21
50.0
 31
0.0
  0
LINE
  5
18F
  8
0
 10
33.341
 20
50.0
 30
0.0
 11
34.328
 21
50.061
 31
0.0
  0
LINE
  5
190
  8
0
 10
34.328
 20
50.061
 30
0.0
 11
35.313
 21
50.123
 31
0.0
  0
LINE
  5
191
  8
0
 10
35.313
 20
50.123
 30
0.0
 11
36.238
 21
50.185
 31
0.0
  0
LINE
  5
192
  8
0
 10
36.238
 20
50.185
 30
0.0
 11
37.162
 21
50.246
 31
0.0
  0
LINE
  5
193
  8
0
 10
37.162
 20
50.246
 30
0.0
 11
38.024
 21
50.308
 31
0.0
  0
LINE
  5
194
  8
0
 10
38.024
 20
50.308
 30
0.0
 11
38.887
 21
50.431
 31
0.0
  0
LINE
  5
195
  8
0
 10
38.887
 20
50.431
 30
0.0
 11
39.688
 21
50.554
 31
0.0
  0
LINE
  5
196
  8
0
 10
39.688
 20
50.554
 30
0.0
 11
40.489
 21
50.678
 31
0.0
  0
LINE
  5
197
  8
0
 10
40.489
 20
50.678
 30
0.0
 11
41.228
 21
50.739
 31
0.0
  0
LINE
  5
198
  8
0
 10
41.228
 20
50.739
 30
0.0
 11
42.029
 21
50.924
 31
0.0
  0
LINE
  5
199
  8
0
 10
42.029
 20
50.924
 30
0.0
 11
42.646
 21
51.047
 31
0.0
  0
LINE
  5
19A
  8
0
 10
42.646
 20
51.047
 30
0.0
 11
43.324
 21
51.171
 31
0.0
  0
LINE
  5
19B
  8
0
 10
43.324
 20
51.171
 30
0.0
 11
43.878
 21
51.356
 31
0.0
  0
LINE
  5
19C
  8
0
 10
43.878
 20
51.356
 30
0.0
 11
44.433
 21
51.54
 31
0.0
  0
LINE
  5
19D
  8
0
 10
44.433
 20
51.54
 30
0.0
 11
44.926
 21
51.725
 31
0.0
  0
LINE
  5
19E
  8
0
 10
44.926
 20
51.725
 30
0.0
 11
45.296
 21
51.849
 31
0.0
  0
LINE
  5
19F
  8
0
 10
45.296
 20
51.849
 30
0.0
 11
45.727
 21
52.034
 31
0.0
  0
LINE
  5
1A0
  8
0
 10
45.727
 20
52.034
 30
0.0
 11
46.035
 21
52.28
 31
0.0
  0
LINE
  5
1A1
  8
0
 10
46.035
 20
52.28
 30
0.0
 11
46.343
 21
52.465
 31
0.0
  0
LINE
  5
1A2
  8
0
 10
46.343
 20
52.465
 30
0.0
 11
46.528
 21
52.65
 31
0.0
  0
LINE
  5
1A3
  8
0
 10
46.528
 20
52.65
 30
0.0
 11
46.651
 21
52.834
 31
0.0
  0
LINE
  5
1A4
  8
0
 10
46.651
 20
52.834
 30
0.0
 11
46.775
 21
53.02
 31
0.0
  0
LINE
  5
1A5
  8
0
 10
28.412
 20
51.849
 30
0.0
 11
32.417
 21
51.849
 31
0.0
  0
LINE
  5
1A6
  8
0
 10
32.417
 20
51.849
 30
0.0
 11
33.403
 21
51.91
 31
0.0
  0
LINE
  5
1A7
  8
0
 10
33.403
 20
51.91
 30
0.0
 11
34.389
 21
51.972
 31
0.0
  0
LINE
  5
1A8
  8
0
 10
34.389
 20
51.972
 30
0.0
 11
35.313
 21
52.034
 31
0.0
  0
LINE
  5
1A9
  8
0
 10
35.313
 20
52.034
 30
0.0
 11
36.299
 21
52.095
 31
0.0
  0
LINE
  5
1AA
  8
0
 10
36.299
 20
52.095
 30
0.0
 11
37.224
 21
52.157
 31
0.0
  0
LINE
  5
1AB
  8
0
 10
37.224
 20
52.157
 30
0.0
 11
38.086
 21
52.28
 31
0.0
  0
LINE
  5
1AC
  8
0
 10
38.086
 20
52.28
 30
0.0
 11
38.887
 21
52.403
 31
0.0
  0
LINE
  5
1AD
  8
0
 10
38.887
 20
52.403
 30
0.0
 11
39.75
 21
52.465
 31
0.0
  0
LINE
  5
1AE
  8
0
 10
39.75
 20
52.465
 30
0.0
 11
40.489
 21
52.65
 31
0.0
  0
LINE
  5
1AF
  8
0
 10
40.489
 20
52.65
 30
0.0
 11
41.167
 21
52.834
 31
0.0
  0
LINE
  5
1B0
  8
0
 10
41.167
 20
52.834
 30
0.0
 11
41.844
 21
52.958
 31
0.0
  0
LINE
  5
1B1
  8
0
 10
41.844
 20
52.958
 30
0.0
 11
42.461
 21
53.143
 31
0.0
  0
LINE
  5
1B2
  8
0
 10
42.461
 20
53.143
 30
0.0
 11
43.015
 21
53.327
 31
0.0
  0
LINE
  5
1B3
  8
0
 10
43.015
 20
53.327
 30
0.0
 11
43.508
 21
53.451
 31
0.0
  0
LINE
  5
1B4
  8
0
 10
43.508
 20
53.451
 30
0.0
 11
43.94
 21
53.636
 31
0.0
  0
LINE
  5
1B5
  8
0
 10
43.94
 20
53.636
 30
0.0
 11
44.31
 21
53.759
 31
0.0
  0
LINE
  5
1B6
  8
0
 10
44.31
 20
53.759
 30
0.0
 11
44.618
 21
54.005
 31
0.0
  0
LINE
  5
1B7
  8
0
 10
31.862
 20
56.224
 30
0.0
 11
28.966
 21
56.224
 31
0.0
  0
LINE
  5
1B8
  8
0
 10
28.966
 20
56.224
 30
0.0
 11
27.919
 21
56.162
 31
0.0
  0
LINE
  5
1B9
  8
0
 10
27.919
 20
56.162
 30
0.0
 11
26.994
 21
56.162
 31
0.0
  0
LINE
  5
1BA
  8
0
 10
26.994
 20
56.162
 30
0.0
 11
26.008
 21
56.039
 31
0.0
  0
LINE
  5
1BB
  8
0
 10
26.008
 20
56.039
 30
0.0
 11
25.085
 21
56.039
 31
0.0
  0
LINE
  5
1BC
  8
0
 10
25.085
 20
56.039
 30
0.0
 11
24.222
 21
55.916
 31
0.0
  0
LINE
  5
1BD
  8
0
 10
24.222
 20
55.916
 30
0.0
 11
23.297
 21
55.854
 31
0.0
  0
LINE
  5
1BE
  8
0
 10
23.297
 20
55.854
 30
0.0
 11
22.435
 21
55.731
 31
0.0
  0
LINE
  5
1BF
  8
0
 10
22.435
 20
55.731
 30
0.0
 11
21.695
 21
55.608
 31
0.0
  0
LINE
  5
1C0
  8
0
 10
21.695
 20
55.608
 30
0.0
 11
20.894
 21
55.484
 31
0.0
  0
LINE
  5
1C1
  8
0
 10
20.894
 20
55.484
 30
0.0
 11
20.155
 21
55.361
 31
0.0
  0
LINE
  5
1C2
  8
0
 10
20.155
 20
55.361
 30
0.0
 11
19.477
 21
55.238
 31
0.0
  0
LINE
  5
1C3
  8
0
 10
19.477
 20
55.238
 30
0.0
 11
18.861
 21
55.115
 31
0.0
  0
LINE
  5
1C4
  8
0
 10
18.861
 20
55.115
 30
0.0
 11
18.245
 21
54.868
 31
0.0
  0
LINE
  5
1C5
  8
0
 10
18.245
 20
54.868
 30
0.0
 11
17.69
 21
54.745
 31
0.0
  0
LINE
  5
1C6
  8
0
 10
17.69
 20
54.745
 30
0.0
 11
17.259
 21
54.622
 31
0.0
  0
LINE
  5
1C7
  8
0
 10
17.259
 20
54.622
 30
0.0
 11
16.827
 21
54.437
 31
0.0
  0
LINE
  5
1C8
  8
0
 10
16.827
 20
54.437
 30
0.0
 11
16.458
 21
54.19
 31
0.0
  0
LINE
  5
1C9
  8
0
 10
16.458
 20
54.19
 30
0.0
 11
16.149
 21
54.005
 31
0.0
  0
LINE
  5
1CA
  8
0
 10
16.149
 20
54.005
 30
0.0
 11
15.965
 21
53.759
 31
0.0
  0
LINE
  5
1CB
  8
0
 10
15.965
 20
53.759
 30
0.0
 11
15.78
 21
53.636
 31
0.0
  0
LINE
  5
1CC
  8
0
 10
15.78
 20
53.636
 30
0.0
 11
15.656
 21
53.451
 31
0.0
  0
LINE
  5
1CD
  8
0
 10
31.369
 20
56.593
 30
0.0
 11
29.398
 21
56.593
 31
0.0
  0
LINE
  5
1CE
  8
0
 10
29.398
 20
56.593
 30
0.0
 11
28.412
 21
56.47
 31
0.0
  0
LINE
  5
1CF
  8
0
 10
28.412
 20
56.47
 30
0.0
 11
26.501
 21
56.47
 31
0.0
  0
LINE
  5
1D0
  8
0
 10
26.501
 20
56.47
 30
0.0
 11
25.578
 21
56.408
 31
0.0
  0
LINE
  5
1D1
  8
0
 10
25.578
 20
56.408
 30
0.0
 11
24.592
 21
56.286
 31
0.0
  0
LINE
  5
1D2
  8
0
 10
24.592
 20
56.286
 30
0.0
 11
23.667
 21
56.224
 31
0.0
  0
LINE
  5
1D3
  8
0
 10
23.667
 20
56.224
 30
0.0
 11
22.804
 21
56.162
 31
0.0
  0
LINE
  5
1D4
  8
0
 10
22.804
 20
56.162
 30
0.0
 11
21.942
 21
56.039
 31
0.0
  0
LINE
  5
1D5
  8
0
 10
21.942
 20
56.039
 30
0.0
 11
21.079
 21
55.916
 31
0.0
  0
LINE
  5
1D6
  8
0
 10
21.079
 20
55.916
 30
0.0
 11
20.278
 21
55.854
 31
0.0
  0
LINE
  5
1D7
  8
0
 10
20.278
 20
55.854
 30
0.0
 11
19.539
 21
55.731
 31
0.0
  0
LINE
  5
1D8
  8
0
 10
19.539
 20
55.731
 30
0.0
 11
18.799
 21
55.546
 31
0.0
  0
LINE
  5
1D9
  8
0
 10
18.799
 20
55.546
 30
0.0
 11
18.122
 21
55.423
 31
0.0
  0
LINE
  5
1DA
  8
0
 10
18.122
 20
55.423
 30
0.0
 11
17.505
 21
55.3
 31
0.0
  0
LINE
  5
1DB
  8
0
 10
17.505
 20
55.3
 30
0.0
 11
16.889
 21
55.115
 31
0.0
  0
LINE
  5
1DC
  8
0
 10
16.889
 20
55.115
 30
0.0
 11
16.334
 21
54.93
 31
0.0
  0
LINE
  5
1DD
  8
0
 10
16.334
 20
54.93
 30
0.0
 11
15.903
 21
54.745
 31
0.0
  0
LINE
  5
1DE
  8
0
 10
15.903
 20
54.745
 30
0.0
 11
15.472
 21
54.622
 31
0.0
  0
LINE
  5
1DF
  8
0
 10
15.472
 20
54.622
 30
0.0
 11
15.102
 21
54.437
 31
0.0
  0
LINE
  5
1E0
  8
0
 10
15.102
 20
54.437
 30
0.0
 11
14.794
 21
54.19
 31
0.0
  0
LINE
  5
1E1
  8
0
 10
14.794
 20
54.19
 30
0.0
 11
14.486
 21
54.005
 31
0.0
  0
LINE
  5
1E2
  8
0
 10
14.486
 20
54.005
 30
0.0
 11
14.239
 21
53.882
 31
0.0
  0
LINE
  5
1E3
  8
0
 10
14.239
 20
53.882
 30
0.0
 11
14.116
 21
53.636
 31
0.0
  0
LINE
  5
1E4
  8
0
 10
14.116
 20
53.636
 30
0.0
 11
14.054
 21
53.451
 31
0.0
  0
LINE
  5
1E5
  8
0
 10
32.355
 20
58.503
 30
0.0
 11
28.412
 21
58.503
 31
0.0
  0
LINE
  5
1E6
  8
0
 10
28.412
 20
58.503
 30
0.0
 11
27.426
 21
58.442
 31
0.0
  0
LINE
  5
1E7
  8
0
 10
27.426
 20
58.442
 30
0.0
 11
26.501
 21
58.38
 31
0.0
  0
LINE
  5
1E8
  8
0
 10
26.501
 20
58.38
 30
0.0
 11
25.578
 21
58.318
 31
0.0
  0
LINE
  5
1E9
  8
0
 10
25.578
 20
58.318
 30
0.0
 11
24.592
 21
58.318
 31
0.0
  0
LINE
  5
1EA
  8
0
 10
24.592
 20
58.318
 30
0.0
 11
23.667
 21
58.195
 31
0.0
  0
LINE
  5
1EB
  8
0
 10
23.667
 20
58.195
 30
0.0
 11
22.804
 21
58.134
 31
0.0
  0
LINE
  5
1EC
  8
0
 10
22.804
 20
58.134
 30
0.0
 11
21.942
 21
58.072
 31
0.0
  0
LINE
  5
1ED
  8
0
 10
21.942
 20
58.072
 30
0.0
 11
21.079
 21
57.949
 31
0.0
  0
LINE
  5
1EE
  8
0
 10
21.079
 20
57.949
 30
0.0
 11
20.278
 21
57.764
 31
0.0
  0
LINE
  5
1EF
  8
0
 10
20.278
 20
57.764
 30
0.0
 11
19.539
 21
57.702
 31
0.0
  0
LINE
  5
1F0
  8
0
 10
19.539
 20
57.702
 30
0.0
 11
18.799
 21
57.517
 31
0.0
  0
LINE
  5
1F1
  8
0
 10
18.799
 20
57.517
 30
0.0
 11
18.122
 21
57.394
 31
0.0
  0
LINE
  5
1F2
  8
0
 10
18.122
 20
57.394
 30
0.0
 11
17.505
 21
57.209
 31
0.0
  0
LINE
  5
1F3
  8
0
 10
17.505
 20
57.209
 30
0.0
 11
16.889
 21
57.086
 31
0.0
  0
LINE
  5
1F4
  8
0
 10
16.889
 20
57.086
 30
0.0
 11
16.334
 21
56.901
 31
0.0
  0
LINE
  5
1F5
  8
0
 10
16.334
 20
56.901
 30
0.0
 11
15.903
 21
56.778
 31
0.0
  0
LINE
  5
1F6
  8
0
 10
15.903
 20
56.778
 30
0.0
 11
15.472
 21
56.593
 31
0.0
  0
LINE
  5
1F7
  8
0
 10
15.472
 20
56.593
 30
0.0
 11
15.102
 21
56.408
 31
0.0
  0
LINE
  5
1F8
  8
0
 10
15.102
 20
56.408
 30
0.0
 11
14.794
 21
56.224
 31
0.0
  0
LINE
  5
1F9
  8
0
 10
14.794
 20
56.224
 30
0.0
 11
14.486
 21
56.039
 31
0.0
  0
LINE
  5
1FA
  8
0
 10
14.486
 20
56.039
 30
0.0
 11
14.239
 21
55.793
 31
0.0
  0
LINE
  5
1FB
  8
0
 10
14.239
 20
55.793
 30
0.0
 11
14.116
 21
55.608
 31
0.0
  0
LINE
  5
1FC
  8
0
 10
14.116
 20
55.608
 30
0.0
 11
14.054
 21
55.423
 31
0.0
  0
LINE
  5
1FD
  8
0
 10
39.688
 20
57.949
 30
0.0
 11
38.024
 21
58.134
 31
0.0
  0
LINE
  5
1FE
  8
0
 10
38.024
 20
58.134
 30
0.0
 11
37.162
 21
58.195
 31
0.0
  0
LINE
  5
1FF
  8
0
 10
37.162
 20
58.195
 30
0.0
 11
36.238
 21
58.318
 31
0.0
  0
LINE
  5
200
  8
0
 10
36.238
 20
58.318
 30
0.0
 11
35.313
 21
58.318
 31
0.0
  0
LINE
  5
201
  8
0
 10
35.313
 20
58.318
 30
0.0
 11
34.328
 21
58.38
 31
0.0
  0
LINE
  5
202
  8
0
 10
34.328
 20
58.38
 30
0.0
 11
33.341
 21
58.442
 31
0.0
  0
LINE
  5
203
  8
0
 10
33.341
 20
58.442
 30
0.0
 11
32.355
 21
58.503
 31
0.0
  0
LINE
  5
204
  8
0
 10
27.364
 20
83.829
 30
0.0
 11
25.393
 21
83.768
 31
0.0
  0
LINE
  5
205
  8
0
 10
25.393
 20
83.768
 30
0.0
 11
24.468
 21
83.706
 31
0.0
  0
LINE
  5
206
  8
0
 10
24.468
 20
83.706
 30
0.0
 11
23.544
 21
83.644
 31
0.0
  0
LINE
  5
207
  8
0
 10
23.544
 20
83.644
 30
0.0
 11
22.62
 21
83.521
 31
0.0
  0
LINE
  5
208
  8
0
 10
22.62
 20
83.521
 30
0.0
 11
21.695
 21
83.459
 31
0.0
  0
LINE
  5
209
  8
0
 10
21.695
 20
83.459
 30
0.0
 11
20.894
 21
83.336
 31
0.0
  0
LINE
  5
20A
  8
0
 10
20.894
 20
83.336
 30
0.0
 11
20.032
 21
83.213
 31
0.0
  0
LINE
  5
20B
  8
0
 10
20.032
 20
83.213
 30
0.0
 11
19.292
 21
83.09
 31
0.0
  0
LINE
  5
20C
  8
0
 10
19.292
 20
83.09
 30
0.0
 11
18.553
 21
82.966
 31
0.0
  0
LINE
  5
20D
  8
0
 10
18.553
 20
82.966
 30
0.0
 11
17.813
 21
82.782
 31
0.0
  0
LINE
  5
20E
  8
0
 10
17.813
 20
82.782
 30
0.0
 11
17.197
 21
82.658
 31
0.0
  0
LINE
  5
20F
  8
0
 10
17.197
 20
82.658
 30
0.0
 11
16.52
 21
82.535
 31
0.0
  0
LINE
  5
210
  8
0
 10
16.52
 20
82.535
 30
0.0
 11
15.965
 21
82.35
 31
0.0
  0
LINE
  5
211
  8
0
 10
15.965
 20
82.35
 30
0.0
 11
15.534
 21
82.165
 31
0.0
  0
LINE
  5
212
  8
0
 10
15.534
 20
82.165
 30
0.0
 11
15.102
 21
82.042
 31
0.0
  0
LINE
  5
213
  8
0
 10
15.102
 20
82.042
 30
0.0
 11
14.671
 21
81.796
 31
0.0
  0
LINE
  5
214
  8
0
 10
14.671
 20
81.796
 30
0.0
 11
14.363
 21
81.611
 31
0.0
  0
LINE
  5
215
  8
0
 10
14.363
 20
81.611
 30
0.0
 11
14.054
 21
81.426
 31
0.0
  0
LINE
  5
216
  8
0
 10
14.054
 20
81.426
 30
0.0
 11
13.808
 21
81.241
 31
0.0
  0
LINE
  5
217
  8
0
 10
13.808
 20
81.241
 30
0.0
 11
13.685
 21
81.056
 31
0.0
  0
LINE
  5
218
  8
0
 10
13.685
 20
81.056
 30
0.0
 11
13.561
 21
80.871
 31
0.0
  0
LINE
  5
219
  8
0
 10
13.561
 20
80.871
 30
0.0
 11
13.5
 21
80.625
 31
0.0
  0
LINE
  5
21A
  8
0
 10
13.5
 20
80.625
 30
0.0
 11
13.561
 21
80.502
 31
0.0
  0
LINE
  5
21B
  8
0
 10
13.561
 20
80.502
 30
0.0
 11
13.685
 21
80.317
 31
0.0
  0
LINE
  5
21C
  8
0
 10
13.685
 20
80.317
 30
0.0
 11
13.808
 21
80.07
 31
0.0
  0
LINE
  5
21D
  8
0
 10
13.808
 20
80.07
 30
0.0
 11
14.054
 21
79.885
 31
0.0
  0
LINE
  5
21E
  8
0
 10
29.028
 20
83.644
 30
0.0
 11
26.994
 21
83.644
 31
0.0
  0
LINE
  5
21F
  8
0
 10
26.994
 20
83.644
 30
0.0
 11
26.008
 21
83.521
 31
0.0
  0
LINE
  5
220
  8
0
 10
26.008
 20
83.521
 30
0.0
 11
25.023
 21
83.521
 31
0.0
  0
LINE
  5
221
  8
0
 10
25.023
 20
83.521
 30
0.0
 11
24.099
 21
83.459
 31
0.0
  0
LINE
  5
222
  8
0
 10
24.099
 20
83.459
 30
0.0
 11
23.174
 21
83.336
 31
0.0
  0
LINE
  5
223
  8
0
 10
23.174
 20
83.336
 30
0.0
 11
22.25
 21
83.275
 31
0.0
  0
LINE
  5
224
  8
0
 10
22.25
 20
83.275
 30
0.0
 11
21.387
 21
83.151
 31
0.0
  0
LINE
  5
225
  8
0
 10
21.387
 20
83.151
 30
0.0
 11
20.586
 21
83.028
 31
0.0
  0
LINE
  5
226
  8
0
 10
20.586
 20
83.028
 30
0.0
 11
19.785
 21
82.905
 31
0.0
  0
LINE
  5
227
  8
0
 10
19.785
 20
82.905
 30
0.0
 11
19.046
 21
82.782
 31
0.0
  0
LINE
  5
228
  8
0
 10
19.046
 20
82.782
 30
0.0
 11
18.368
 21
82.597
 31
0.0
  0
LINE
  5
229
  8
0
 10
18.368
 20
82.597
 30
0.0
 11
17.629
 21
82.473
 31
0.0
  0
LINE
  5
22A
  8
0
 10
17.629
 20
82.473
 30
0.0
 11
17.074
 21
82.35
 31
0.0
  0
LINE
  5
22B
  8
0
 10
17.074
 20
82.35
 30
0.0
 11
16.52
 21
82.165
 31
0.0
  0
LINE
  5
22C
  8
0
 10
16.52
 20
82.165
 30
0.0
 11
15.965
 21
81.98
 31
0.0
  0
LINE
  5
22D
  8
0
 10
15.965
 20
81.98
 30
0.0
 11
15.534
 21
81.796
 31
0.0
  0
LINE
  5
22E
  8
0
 10
15.534
 20
81.796
 30
0.0
 11
15.102
 21
81.611
 31
0.0
  0
LINE
  5
22F
  8
0
 10
15.102
 20
81.611
 30
0.0
 11
14.794
 21
81.426
 31
0.0
  0
LINE
  5
230
  8
0
 10
14.794
 20
81.426
 30
0.0
 11
14.548
 21
81.241
 31
0.0
  0
LINE
  5
231
  8
0
 10
14.548
 20
81.241
 30
0.0
 11
14.363
 21
81.056
 31
0.0
  0
LINE
  5
232
  8
0
 10
14.363
 20
81.056
 30
0.0
 11
14.116
 21
80.81
 31
0.0
  0
LINE
  5
233
  8
0
 10
14.116
 20
80.81
 30
0.0
 11
14.054
 21
80.625
 31
0.0
  0
LINE
  5
234
  8
0
 10
32.417
 20
83.891
 30
0.0
 11
28.412
 21
83.891
 31
0.0
  0
LINE
  5
235
  8
0
 10
28.412
 20
83.891
 30
0.0
 11
27.364
 21
83.829
 31
0.0
  0
LINE
  5
236
  8
0
 10
31.431
 20
85.0
 30
0.0
 11
29.398
 21
85.0
 31
0.0
  0
LINE
  5
237
  8
0
 10
29.398
 20
85.0
 30
0.0
 11
28.412
 21
84.939
 31
0.0
  0
LINE
  5
238
  8
0
 10
28.412
 20
84.939
 30
0.0
 11
26.378
 21
84.939
 31
0.0
  0
LINE
  5
239
  8
0
 10
26.378
 20
84.939
 30
0.0
 11
25.393
 21
84.815
 31
0.0
  0
LINE
  5
23A
  8
0
 10
25.393
 20
84.815
 30
0.0
 11
24.407
 21
84.754
 31
0.0
  0
LINE
  5
23B
  8
0
 10
24.407
 20
84.754
 30
0.0
 11
23.421
 21
84.692
 31
0.0
  0
LINE
  5
23C
  8
0
 10
23.421
 20
84.692
 30
0.0
 11
22.558
 21
84.63
 31
0.0
  0
LINE
  5
23D
  8
0
 10
22.558
 20
84.63
 30
0.0
 11
21.695
 21
84.507
 31
0.0
  0
LINE
  5
23E
  8
0
 10
21.695
 20
84.507
 30
0.0
 11
20.832
 21
84.384
 31
0.0
  0
LINE
  5
23F
  8
0
 10
20.832
 20
84.384
 30
0.0
 11
20.032
 21
84.322
 31
0.0
  0
LINE
  5
240
  8
0
 10
20.032
 20
84.322
 30
0.0
 11
19.231
 21
84.199
 31
0.0
  0
LINE
  5
241
  8
0
 10
19.231
 20
84.199
 30
0.0
 11
18.491
 21
84.014
 31
0.0
  0
LINE
  5
242
  8
0
 10
18.491
 20
84.014
 30
0.0
 11
17.813
 21
83.829
 31
0.0
  0
LINE
  5
243
  8
0
 10
17.813
 20
83.829
 30
0.0
 11
17.135
 21
83.706
 31
0.0
  0
LINE
  5
244
  8
0
 10
17.135
 20
83.706
 30
0.0
 11
16.52
 21
83.521
 31
0.0
  0
LINE
  5
245
  8
0
 10
16.52
 20
83.521
 30
0.0
 11
15.965
 21
83.398
 31
0.0
  0
LINE
  5
246
  8
0
 10
15.965
 20
83.398
 30
0.0
 11
15.472
 21
83.213
 31
0.0
  0
LINE
  5
247
  8
0
 10
15.472
 20
83.213
 30
0.0
 11
14.979
 21
83.028
 31
0.0
  0
LINE
  5
248
  8
0
 10
14.979
 20
83.028
 30
0.0
 11
14.671
 21
82.905
 31
0.0
  0
LINE
  5
249
  8
0
 10
14.671
 20
82.905
 30
0.0
 11
14.363
 21
82.658
 31
0.0
  0
LINE
  5
24A
  8
0
 10
14.363
 20
82.658
 30
0.0
 11
14.054
 21
82.473
 31
0.0
  0
LINE
  5
24B
  8
0
 10
14.054
 20
82.473
 30
0.0
 11
13.808
 21
82.227
 31
0.0
  0
LINE
  5
24C
  8
0
 10
13.808
 20
82.227
 30
0.0
 11
13.685
 21
82.042
 31
0.0
  0
LINE
  5
24D
  8
0
 10
13.685
 20
82.042
 30
0.0
 11
13.561
 21
81.857
 31
0.0
  0
LINE
  5
24E
  8
0
 10
13.561
 20
81.857
 30
0.0
 11
13.5
 21
81.734
 31
0.0
  0
LINE
  5
24F
  8
0
 10
31.801
 20
83.644
 30
0.0
 11
30.445
 21
83.706
 31
0.0
  0
LINE
  5
250
  8
0
 10
30.445
 20
83.706
 30
0.0
 11
29.028
 21
83.644
 31
0.0
  0
TEXT
  5
251
  8
0
 10
0.0
 20
95.0
 30
0.0
 40
3.0
  1
LEDｸﾗｽ200 ｼｰﾘﾝｸﾞWP
 11
0.0
 21
95.0
 31
0.0
  0
TEXT
  5
252
  8
0
 10
0.0
 20
10.0
 30
0.0
 40
3.0
  1
三菱 EL-WC2010AN/S AHN
 11
0.0
 21
10.0
 31
0.0
  0
TEXT
  5
253
  8
0
 10
50.0
 20
35.0
 30
0.0
 40
1.5
  1
エクステリア 昼白色(5000K)　Ra83
 11
50.0
 21
35.0
 31
0.0
  0
TEXT
  5
254
  8
0
 10
50.0
 20
32.0
 30
0.0
 40
1.5
  1
100V～242V共用タイプ
 11
50.0
 21
32.0
 31
0.0
  0
TEXT
  5
255
  8
0
 10
50.0
 20
29.0
 30
0.0
 40
1.5
  1
本体：アルミ シルバー色塗装仕上
 11
50.0
 21
29.0
 31
0.0
  0
TEXT
  5
256
  8
0
 10
50.0
 20
26.0
 30
0.0
 40
1.5
  1
光源寿命：40,000時間(光束維持率85％)
 11
50.0
 21
26.0
 31
0.0
  0
TEXT
  5
257
  8
0
 10
50.0
 20
23.0
 30
0.0
 40
1.5
  1
光束：1920lm 消費電力：13.7W 消費効率：140.1lm/W
 11
50.0
 21
23.0
 31
0.0
  0
VIEWPORT
  5
76
 67
1
  8
0
 10
128.5
 20
97.5
 30
0.0
 40
314.226
 41
222.18
 68
1
 69
1
1001
ACAD
1000
MVIEW
1002
{
1070
16
1010
0.0
1020
0.0
1030
0.0
1010
0.0
1020
0.0
1030
0.0
1040
0
1040
1
1040
0.0
1040
0.0
1040
50
1040
0
1040
0
1070
0
1070
100
1070
0
1070
0
1070
0
1070
0
1070
0
1070
0
1040
0
1040
0.0
1040
0.0
1040
10.0
1040
10.0
1040
10.0
1040
10.0
1070
0
1002
{
1002
}
1002
}
  0
ENDSEC
  0
EOF
