  0
SECTION
  2
HEADER
  9
$ACADVER
  1
AC1009
  9
$DWGCODEPAGE
  3
dos932
  9
$INSBASE
 10
0
 20
0
 30
0
  9
$EXTMIN
 10
-2.9579566435019684
 20
-8.0953276713580884
 30
0
  9
$EXTMAX
 10
143.97498743899948
 20
83.01790571827155
 30
0
  9
$LIMMIN
 10
0
 20
0
  9
$LIMMAX
 10
105.125
 20
74.25
  9
$SNAPMODE
 70
0
  9
$SNAPUNIT
 10
1
 20
1
  9
$SNAPBASE
 10
0
 20
0
  9
$SNAPANG
 50
0
  9
$SNAPSTYLE
 70
0
  9
$SNAPISOPAIR
 70
0
  9
$ORTHOMODE
 70
0
  9
$REGENMODE
 70
1
  9
$FILLMODE
 70
1
  9
$QTEXTMODE
 70
0
  9
$MIRRTEXT
 70
0
  9
$LTSCALE
 40
0.125
  9
$OSMODE
 70
37
  9
$ATTMODE
 70
1
  9
$TEXTSIZE
 40
0.2
  9
$TRACEWID
 40
0.05
  9
$TEXTSTYLE
  7
STANDARD
  9
$CLAYER
  8
0
  9
$CELTYPE
  6
CONTINUOUS
  9
$CECOLOR
 62
256
  9
$DIMSCALE
 40
1
  9
$DIMASZ
 40
0.18
  9
$DIMEXO
 40
0.0625
  9
$DIMDLI
 40
0.38
  9
$DIMRND
 40
0
  9
$DIMDLE
 40
0
  9
$DIMEXE
 40
0.18
  9
$DIMTP
 40
0
  9
$DIMTM
 40
0
  9
$DIMTXT
 40
0.18
  9
$DIMCEN
 40
0.09
  9
$DIMTSZ
 40
0
  9
$DIMTOL
 70
0
  9
$DIMLIM
 70
0
  9
$DIMTIH
 70
1
  9
$DIMTOH
 70
1
  9
$DIMSE1
 70
0
  9
$DIMSE2
 70
0
  9
$DIMTAD
 70
0
  9
$DIMZIN
 70
0
  9
$DIMBLK
  1

  9
$DIMASO
 70
1
  9
$DIMSHO
 70
1
  9
$DIMPOST
  1

  9
$DIMAPOST
  1

  9
$DIMALT
 70
0
  9
$DIMALTD
 70
2
  9
$DIMALTF
 40
25.4
  9
$DIMLFAC
 40
1
  9
$DIMTOFL
 70
0
  9
$DIMTVP
 40
0
  9
$DIMTIX
 70
0
  9
$DIMSOXD
 70
0
  9
$DIMSAH
 70
0
  9
$DIMBLK1
  1

  9
$DIMBLK2
  1

  9
$DIMSTYLE
  2
STANDARD
  9
$DIMCLRD
 70
0
  9
$DIMCLRE
 70
0
  9
$DIMCLRT
 70
0
  9
$DIMTFAC
 40
1
  9
$DIMGAP
 40
0.09
  9
$LUNITS
 70
2
  9
$LUPREC
 70
4
  9
$SKETCHINC
 40
0.1
  9
$FILLETRAD
 40
0
  9
$AUNITS
 70
0
  9
$AUPREC
 70
0
  9
$MENU
  1
.
  9
$ELEVATION
 40
0
  9
$PELEVATION
 40
0
  9
$THICKNESS
 40
0
  9
$LIMCHECK
 70
0
  9
$CHAMFERA
 40
0
  9
$CHAMFERB
 40
0
  9
$SKPOLY
 70
0
  9
$TDCREATE
 40
2456622.5523805902
  9
$TDUPDATE
 40
2456622.5867015044
  9
$TDINDWG
 40
0.028308171296296297
  9
$TDUSRTIMER
 40
0.028308101851851852
  9
$USRTIMER
 70
1
  9
$ANGBASE
 50
0
  9
$ANGDIR
 70
0
  9
$PDMODE
 70
0
  9
$PDSIZE
 40
0
  9
$PLINEWID
 40
0
  9
$SPLFRAME
 70
0
  9
$SPLINETYPE
 70
6
  9
$SPLINESEGS
 70
8
  9
$HANDLING
 70
1
  9
$HANDSEED
  5
C396
  9
$SURFTAB1
 70
6
  9
$SURFTAB2
 70
6
  9
$SURFTYPE
 70
6
  9
$SURFU
 70
6
  9
$SURFV
 70
6
  9
$UCSORG
 10
0
 20
0
 30
0
  9
$UCSXDIR
 10
1
 20
0
 30
0
  9
$UCSYDIR
 10
0
 20
1
 30
0
  9
$PUCSORG
 10
0
 20
0
 30
0
  9
$PUCSXDIR
 10
1
 20
0
 30
0
  9
$PUCSYDIR
 10
0
 20
1
 30
0
  9
$USERI1
 70
0
  9
$USERI2
 70
0
  9
$USERI3
 70
0
  9
$USERI4
 70
0
  9
$USERI5
 70
0
  9
$USERR1
 40
0
  9
$USERR2
 40
0
  9
$USERR3
 40
0
  9
$USERR4
 40
0
  9
$USERR5
 40
0
  9
$WORLDVIEW
 70
1
  9
$SHADEDGE
 70
3
  9
$SHADEDIF
 70
70
  9
$TILEMODE
 70
1
  9
$MAXACTVP
 70
64
  9
$PINSBASE
 10
0
 20
0
 30
0
  9
$PLIMCHECK
 70
0
  9
$PEXTMIN
 10
1E+20
 20
1E+20
 30
1E+20
  9
$PEXTMAX
 10
-1E+20
 20
-1E+20
 30
-1E+20
  9
$PLIMMAX
 10
12
 20
9
  9
$PLIMMIN
 10
0
 20
0
  9
$UNITMODE
 70
0
  9
$VISRETAIN
 70
1
  9
$PLINEGEN
 70
0
  9
$PSLTSCALE
 70
1
  9
$TREEDEPTH
 70
3020
  9
$DRAGMODE
 70
     2
  9
$BLIPMODE
 70
     0
  9
$COORDS
 70
     1
  9
$ATTDIA
 70
     0
  9
$ATTREQ
 70
     1
  0
ENDSEC
  0
SECTION
  2
TABLES
  0
TABLE
  2
VPORT
  5
C388
 70
1
  0
VPORT
  5
C35C
  2
*ACTIVE
 70
0
 10
0
 20
0
 11
1
 21
1
 12
184.4449999636924
 22
9.78419794204882
 13
0
 23
0
 14
1
 24
1
 15
0
 25
0
 16
0
 26
0
 36
1
 17
0
 27
0
 37
0
 40
258.22157046140489
 41
2.0462427745664731
 42
50
 43
0
 44
0
 50
0
 51
0
 71
0
 72
100
 73
1
 74
1
 75
0
 76
0
 77
0
 78
0
  0
ENDTAB
  0
TABLE
  2
LTYPE
  5
C389
 70
40
  0
LTYPE
  5
C332
  2
CONTINUOUS
  3
実線
 70
0
 72
65
 73
0
 40
0
  0
LTYPE
  5
C333
  2
DASHED1
  3
--  --  --  --  --  --  --  --  
 70
0
 72
65
 73
2
 40
2.5
 49
1.25
 49
-1.25
  0
LTYPE
  5
C334
  2
DASHED2
  3
----    ----    ----    ----    
 70
0
 72
65
 73
2
 40
5
 49
2.5
 49
-2.5
  0
LTYPE
  5
C335
  2
DASHED3
  3
------  ------  ------  ------  
 70
0
 72
65
 73
2
 40
5
 49
3.75
 49
-1.25
  0
LTYPE
  5
C336
  2
CENTER1
  3
----- - ----- - ----- - ----- - 
 70
0
 72
65
 73
4
 40
10
 49
6.25
 49
-1.25
 49
1.25
 49
-1.25
  0
LTYPE
  5
C337
  2
CENTER2
  3
----------  --  ----------  --  
 70
0
 72
65
 73
4
 40
20
 49
12.5
 49
-2.5
 49
2.5
 49
-2.5
  0
LTYPE
  5
C338
  2
PHANTOM1
  3
--- - - --- - - --- - - --- - - 
 70
0
 72
65
 73
6
 40
9.5
 49
3.25
 49
-1.25
 49
1.25
 49
-1.25
 49
1.25
 49
-1.25
  0
LTYPE
  5
C339
  2
PHANTOM2
  3
--------  -  -  --------  -  -  
 70
0
 72
65
 73
6
 40
20
 49
10
 49
-2.5
 49
1.25
 49
-2.5
 49
1.25
 49
-2.5
  0
LTYPE
  5
C33A
  2
DOT
  3
-   -   -   -   -   -   -   -   
 70
0
 72
65
 73
2
 40
2.5
 49
0.625
 49
-1.875
  0
LTYPE
  5
C33B
  2
DUMMY
  3
ダミー
 70
0
 72
65
 73
0
 40
0
  0
LTYPE
  5
C33C
  2
RAND1
  3
ランダム線1
 70
0
 72
65
 73
4
 40
10
 49
1
 49
-2
 49
3
 49
-4
  0
LTYPE
  5
C33D
  2
RAND2
  3
ランダム線2
 70
0
 72
65
 73
4
 40
14
 49
2
 49
-3
 49
4
 49
-5
  0
LTYPE
  5
C33E
  2
RAND3
  3
ランダム線3
 70
0
 72
65
 73
4
 40
18
 49
3
 49
-4
 49
5
 49
-6
  0
LTYPE
  5
C33F
  2
RAND4
  3
ランダム線4
 70
0
 72
65
 73
4
 40
22
 49
4
 49
-5
 49
6
 49
-7
  0
LTYPE
  5
C340
  2
RAND5
  3
ランダム線5
 70
0
 72
65
 73
4
 40
26
 49
5
 49
-6
 49
7
 49
-8
  0
LTYPE
  5
C341
  2
LONG1
  3
----------  --  ----------  --  
 70
0
 72
65
 73
4
 40
40
 49
32.5
 49
-2.5
 49
2.5
 49
-2.5
  0
LTYPE
  5
C342
  2
LONG2
  3
--------  -  -  --------  -  -  
 70
0
 72
65
 73
6
 40
40
 49
30
 49
-2.5
 49
1.25
 49
-2.5
 49
1.25
 49
-2.5
  0
LTYPE
  5
C343
  2
LONG3
  3
+++++++++++++++..+++++++++++++++
 70
0
 72
65
 73
2
 40
40
 49
37.5
 49
-2.5
  0
LTYPE
  5
C344
  2
LONG4
  3
+++++++++++++++..+++++++++++++++
 70
0
 72
65
 73
2
 40
80
 49
75
 49
-5
  0
LTYPE
  5
C345
  2
LONG5
  3
----------  --  ----------  --  
 70
0
 72
65
 73
4
 40
60
 49
37.5
 49
-7.5
 49
7.5
 49
-7.5
  0
LTYPE
  5
C346
  2
DASHED
  3
-------   -------------   ------
 70
0
 72
65
 73
2
 40
3.8
 49
3
 49
-0.8
  0
LTYPE
  5
C347
  2
DASHED_SPACED
  3
----        --------        ----
 70
0
 72
65
 73
2
 40
12
 49
6
 49
-6
  0
LTYPE
  5
C348
  2
LONG_DASHED_DOTTED
  3
------------- --- --------------
 70
0
 72
65
 73
4
 40
15.25
 49
12
 49
-1.5
 49
0.25
 49
-1.5
  0
LTYPE
  5
C349
  2
LONG_DASHED_DOUBLE-DOTTED
  3
----------- --- --- ------------
 70
0
 72
65
 73
6
 40
17
 49
12
 49
-1.5
 49
0.25
 49
-1.5
 49
0.25
 49
-1.5
  0
LTYPE
  5
C34A
  2
LONG_DASHED_TRIPLICATE-DOT
  3
--------- --- --- --- ----------
 70
0
 72
65
 73
8
 40
18.75
 49
12
 49
-1.5
 49
0.25
 49
-1.5
 49
0.25
 49
-1.5
 49
0.25
 49
-1.5
  0
LTYPE
  5
C34B
  2
DOTTED
  3
   -       -       -       -    
 70
0
 72
65
 73
2
 40
1.75
 49
0.25
 49
-1.5
  0
LTYPE
  5
C34C
  2
CHAIN
  3
-------------- -- --------------
 70
0
 72
65
 73
4
 40
18.5
 49
12
 49
-1.5
 49
3.5
 49
-1.5
  0
LTYPE
  5
C34D
  2
CHAIN_DOUBLE_DASH
  3
------------ -- -- -------------
 70
0
 72
65
 73
6
 40
23.5
 49
12
 49
-1.5
 49
3.5
 49
-1.5
 49
3.5
 49
-1.5
  0
LTYPE
  5
C34E
  2
DASHED_DOTTED
  3
-----------     -     ----------
 70
0
 72
65
 73
4
 40
9.25
 49
6
 49
-1.5
 49
0.25
 49
-1.5
  0
LTYPE
  5
C34F
  2
DOUBLE-DASHED_DOTTED
  3
------   -----------   -   -----
 70
0
 72
65
 73
6
 40
16.75
 49
6
 49
-1.5
 49
6
 49
-1.5
 49
0.25
 49
-1.5
  0
LTYPE
  5
C350
  2
DASHED_DOUBLE-DOTTED
  3
---------    -    -    ---------
 70
0
 72
65
 73
6
 40
11
 49
6
 49
-1.5
 49
0.25
 49
-1.5
 49
0.25
 49
-1.5
  0
LTYPE
  5
C351
  2
DOUBLE-DASHED_DOUBLE-DOTTE
  3
-----   ---------   -   -   ----
 70
0
 72
65
 73
8
 40
18.5
 49
6
 49
-1.5
 49
6
 49
-1.5
 49
0.25
 49
-1.5
 49
0.25
 49
-1.5
  0
LTYPE
  5
C352
  2
DASHED_TRIPLICATE-DOTTED
  3
-------    -    -    -    ------
 70
0
 72
65
 73
8
 40
12.75
 49
6
 49
-1.5
 49
0.25
 49
-1.5
 49
0.25
 49
-1.5
 49
0.25
 49
-1.5
  0
LTYPE
  5
C353
  2
DOUBLE-DASHED_TRIPLICATE-D
  3
-----  ---------  -  -  -  -----
 70
0
 72
65
 73
10
 40
20.25
 49
6
 49
-1.5
 49
6
 49
-1.5
 49
0.25
 49
-1.5
 49
0.25
 49
-1.5
 49
0.25
 49
-1.5
  0
LTYPE
  5
C354
  2
UNDEFINED
  3
--------------------------------
 70
0
 72
65
 73
0
 40
0
  0
LTYPE
  5
C355
  2
DOT_18
  3
----        --------        ----
 70
0
 72
65
 73
2
 40
2
 49
1
 49
-1
  0
LTYPE
  5
C356
  2
DASHDOT
  3
------------   --   ------------
 70
0
 72
65
 73
4
 40
25.6
 49
20
 49
-2
 49
1.6
 49
-2
  0
LTYPE
  5
C357
  2
DIVIDE
  3
-----------  --  --  -----------
 70
0
 72
65
 73
6
 40
31.199999999999996
 49
20
 49
-2.399999999999999
 49
2
 49
-2.399999999999999
 49
2
 49
-2.399999999999999
  0
LTYPE
  5
C358
  2
ByBlock
  3

 70
64
 72
65
 73
0
 40
0
  0
LTYPE
  5
C359
  2
ByLayer
  3

 70
64
 72
65
 73
0
 40
0
  0
ENDTAB
  0
TABLE
  2
LAYER
  5
C38A
 70
2
  0
LAYER
  5
C31C
 70
0
  2
0
 62
7
  6
CONTINUOUS
  0
LAYER
  5
C31D
 70
0
  2
SPEC
 62
7
  6
CONTINUOUS
  0
ENDTAB
  0
TABLE
  2
STYLE
  5
C38B
 70
3
  0
STYLE
  5
C32F
  2
STANDARD
 70
0
 40
0
 41
1
 50
0
 71
0
 42
0.2
  3
txt.shx
  4
extfont2.shx
  0
STYLE
  5
C330
  2
ANNOTATIVE
 70
0
 40
0
 41
1
 50
0
 71
0
 42
0.2
  3
txt
  0
STYLE
  5
C331
  2
TATEGAKI
 70
4
 40
0
 41
1
 50
0
 71
0
 42
1
  3
txt
  4
bigfont.shx
  0
ENDTAB
  0
TABLE
  2
APPID
  5
C38E
 70
4
  0
APPID
  5
C38F
  2
ACAD
 70
0
  0
APPID
  5
C392
  2
ACADANNOTATIVE
 70
0
  0
APPID
  5
C393
  2
ACAD_MLEADERVER
 70
0
  0
APPID
  5
C394
  2
ACAD_EXEMPT_FROM_CAD_STANDARDS
 70
0
  0
ENDTAB
  0
TABLE
  2
DIMSTYLE
  5
C390
 70
2
  0
DIMSTYLE
105
C35A
  2
STANDARD
 70
0
  3

  4

  5

  6

  7

 40
1
 41
0.18
 42
0.0625
 43
0.38
 44
0.18
 45
0
 46
0
 47
0
 48
0
140
0.18
141
0.09
142
0
143
25.4
144
1
145
0
146
1
147
0.09
 71
0
 72
0
 73
1
 74
1
 75
0
 76
0
 77
0
 78
0
170
0
171
2
172
0
173
0
174
0
175
0
176
0
177
0
178
0
  0
DIMSTYLE
105
C35B
  2
ANNOTATIVE
 70
0
  3

  4

  5

  6

  7

 40
1
 41
0.18
 42
0.0625
 43
0.38
 44
0.18
 45
0
 46
0
 47
0
 48
0
140
0.18
141
0.09
142
0
143
25.4
144
1
145
0
146
1
147
0.09
 71
0
 72
0
 73
1
 74
1
 75
0
 76
0
 77
0
 78
0
170
0
171
2
172
0
173
0
174
0
175
0
176
0
177
0
178
0
  0
ENDTAB
  0
ENDSEC
  0
SECTION
  2
BLOCKS
  0
BLOCK
  5
C31F
  8
0
  2
$MODEL_SPACE
 70
0
 10
0
 20
0
 30
0
  3
$MODEL_SPACE
  0
ENDBLK
  5
BA4E
  8
0
  0
BLOCK
  5
C321
  8
0
 67
1
  2
$PAPER_SPACE
 70
0
 10
0
 20
0
 30
0
  3
$PAPER_SPACE
  0
ENDBLK
  5
BA4A
  8
0
  0
BLOCK
  5
C323
  8
0
  2
SPECEL-WCE1700C
 70
64
 10
0
 20
0
 30
0
  3
SPECEL-WCE1700C
  0
TEXT
  5
C324
  8
SPEC
 10
0
 20
0
 30
0
 40
1.5
  1
LED 口金:E17
  7
STANDARD
  0
TEXT
  5
C325
  8
SPEC
 10
0
 20
-3
 30
0
 40
1.5
  1
本体:ﾌﾟﾗｽﾁｯｸ 白色仕上
  7
STANDARD
  0
ENDBLK
  5
C326
  8
0
  0
BLOCK
  5
C328
  8
0
  2
*MODEL_SPACE
 70
64
 10
0
 20
0
 30
0
  3
*MODEL_SPACE
  0
ENDBLK
  5
C32B
  8
0
  0
BLOCK
  5
C32D
  8
0
 67
1
  2
*PAPER_SPACE
 70
64
 10
0
 20
0
 30
0
  3
*PAPER_SPACE
  0
ENDBLK
  5
C32E
  8
0
  0
ENDSEC
  0
SECTION
  2
ENTITIES
  0
TEXT
  5
A3
  8
0
 62
7
 10
-3.5582294022784482
 20
-7.3750000000000142
 30
0
 40
5
  1
三菱　ＥＬ－ＷＣＥ１７００Ｃ
  7
STANDARD
  0
TEXT
  5
A4
  8
0
 62
7
 10
-3.5582294022784482
 20
76.624999999999986
 30
0
 40
5
  1
ＬＥＤ６Ｗ×１　シーリング
  7
STANDARD
  0
POLYLINE
  5
BF64
  8
0
 62
7
 66
1
 70
0
 10
0
 20
0
 30
0
  0
VERTEX
  5
BF65
  8
0
 62
7
 10
75.6883212522405
 20
32.289571490015419
 70
0
  0
VERTEX
  5
BF66
  8
0
 62
7
 10
75.6042609224004
 20
32.37535436759817
 70
0
  0
SEQEND
  5
BF67
  8
0
  0
POLYLINE
  5
BF68
  8
0
 62
7
 66
1
 70
0
 10
0
 20
0
 30
0
  0
VERTEX
  5
BF69
  8
0
 62
7
 10
75.6042609224004
 20
32.37535436759817
 70
0
  0
VERTEX
  5
BF6A
  8
0
 62
7
 10
75.434762224526111
 20
32.459242442664
 70
0
  0
SEQEND
  5
BF6B
  8
0
  0
POLYLINE
  5
BF6C
  8
0
 62
7
 66
1
 70
0
 10
0
 20
0
 30
0
  0
VERTEX
  5
BF6D
  8
0
 62
7
 10
75.434762224526111
 20
32.459242442664
 70
0
  0
VERTEX
  5
BF6E
  8
0
 62
7
 10
75.265263526651822
 20
32.585849701746952
 70
0
  0
SEQEND
  5
BF6F
  8
0
  0
POLYLINE
  5
BF70
  8
0
 62
7
 66
1
 70
0
 10
0
 20
0
 30
0
  0
VERTEX
  5
BF71
  8
0
 62
7
 10
75.265263526651822
 20
32.585849701746952
 70
0
  0
VERTEX
  5
BF72
  8
0
 62
7
 10
75.011704498937434
 20
32.6712880697811
 70
0
  0
SEQEND
  5
BF73
  8
0
  0
POLYLINE
  5
BF74
  8
0
 62
7
 66
1
 70
0
 10
0
 20
0
 30
0
  0
VERTEX
  5
BF75
  8
0
 62
7
 10
75.011704498937434
 20
32.6712880697811
 70
0
  0
VERTEX
  5
BF76
  8
0
 62
7
 10
74.715426287205943
 20
32.755520654395468
 70
0
  0
SEQEND
  5
BF77
  8
0
  0
POLYLINE
  5
BF78
  8
0
 62
7
 66
1
 70
0
 10
0
 20
0
 30
0
  0
VERTEX
  5
BF79
  8
0
 62
7
 10
74.715426287205943
 20
32.755520654395468
 70
0
  0
VERTEX
  5
BF7A
  8
0
 62
7
 10
74.376428891457365
 20
32.840959022429672
 70
0
  0
SEQEND
  5
BF7B
  8
0
  0
POLYLINE
  5
BF7C
  8
0
 62
7
 66
1
 70
0
 10
0
 20
0
 30
0
  0
VERTEX
  5
BF7D
  8
0
 62
7
 10
74.376428891457365
 20
32.840959022429672
 70
0
  0
VERTEX
  5
BF7E
  8
0
 62
7
 10
73.994712311691686
 20
32.925019352269771
 70
0
  0
SEQEND
  5
BF7F
  8
0
  0
POLYLINE
  5
BF80
  8
0
 62
7
 66
1
 70
0
 10
0
 20
0
 30
0
  0
VERTEX
  5
BF81
  8
0
 62
7
 10
73.994712311691686
 20
32.925019352269771
 70
0
  0
VERTEX
  5
BF82
  8
0
 62
7
 10
73.571654586103
 20
33.0102854655297
 70
0
  0
SEQEND
  5
BF83
  8
0
  0
POLYLINE
  5
BF84
  8
0
 62
7
 66
1
 70
0
 10
0
 20
0
 30
0
  0
VERTEX
  5
BF85
  8
0
 62
7
 10
73.571654586103
 20
33.0102854655297
 70
0
  0
VERTEX
  5
BF86
  8
0
 62
7
 10
73.063158492480113
 20
33.094690304918352
 70
0
  0
SEQEND
  5
BF87
  8
0
  0
POLYLINE
  5
BF88
  8
0
 62
7
 66
1
 70
0
 10
0
 20
0
 30
0
  0
VERTEX
  5
BF89
  8
0
 62
7
 10
73.063158492480113
 20
33.094690304918352
 70
0
  0
VERTEX
  5
BF8A
  8
0
 62
7
 10
72.556040437051351
 20
33.178578379984167
 70
0
  0
SEQEND
  5
BF8B
  8
0
  0
POLYLINE
  5
BF8C
  8
0
 62
7
 66
1
 70
0
 10
0
 20
0
 30
0
  0
VERTEX
  5
BF8D
  8
0
 62
7
 10
72.556040437051351
 20
33.178578379984167
 70
0
  0
VERTEX
  5
BF8E
  8
0
 62
7
 10
72.004825159411354
 20
33.221297564001247
 70
0
  0
SEQEND
  5
BF8F
  8
0
  0
POLYLINE
  5
BF90
  8
0
 62
7
 66
1
 70
0
 10
0
 20
0
 30
0
  0
VERTEX
  5
BF91
  8
0
 62
7
 10
72.004825159411354
 20
33.221297564001247
 70
0
  0
VERTEX
  5
BF92
  8
0
 62
7
 10
71.4122687359484
 20
33.306735932035451
 70
0
  0
SEQEND
  5
BF93
  8
0
  0
POLYLINE
  5
BF94
  8
0
 62
7
 66
1
 70
0
 10
0
 20
0
 30
0
  0
VERTEX
  5
BF95
  8
0
 62
7
 10
71.4122687359484
 20
33.306735932035451
 70
0
  0
VERTEX
  5
BF96
  8
0
 62
7
 10
70.778371166662438
 20
33.390968516649821
 70
0
  0
SEQEND
  5
BF97
  8
0
  0
POLYLINE
  5
BF98
  8
0
 62
7
 66
1
 70
0
 10
0
 20
0
 30
0
  0
VERTEX
  5
BF99
  8
0
 62
7
 10
70.778371166662438
 20
33.390968516649821
 70
0
  0
VERTEX
  5
BF9A
  8
0
 62
7
 10
70.100548629939524
 20
33.433687700666887
 70
0
  0
SEQEND
  5
BF9B
  8
0
  0
POLYLINE
  5
BF9C
  8
0
 62
7
 66
1
 70
0
 10
0
 20
0
 30
0
  0
VERTEX
  5
BF9D
  8
0
 62
7
 10
70.100548629939524
 20
33.433687700666887
 70
0
  0
VERTEX
  5
BF9E
  8
0
 62
7
 10
69.381212692619357
 20
33.517575775732723
 70
0
  0
SEQEND
  5
BF9F
  8
0
  0
POLYLINE
  5
BFA0
  8
0
 62
7
 66
1
 70
0
 10
0
 20
0
 30
0
  0
VERTEX
  5
BFA1
  8
0
 62
7
 10
69.381212692619357
 20
33.517575775732723
 70
0
  0
VERTEX
  5
BFA2
  8
0
 62
7
 10
68.66187675529919
 20
33.560294959749847
 70
0
  0
SEQEND
  5
BFA3
  8
0
  0
POLYLINE
  5
BFA4
  8
0
 62
7
 66
1
 70
0
 10
0
 20
0
 30
0
  0
VERTEX
  5
BFA5
  8
0
 62
7
 10
68.66187675529919
 20
33.560294959749847
 70
0
  0
VERTEX
  5
BFA6
  8
0
 62
7
 10
67.899477124413409
 20
33.644183034815683
 70
0
  0
SEQEND
  5
BFA7
  8
0
  0
POLYLINE
  5
BFA8
  8
0
 62
7
 66
1
 70
0
 10
0
 20
0
 30
0
  0
VERTEX
  5
BFA9
  8
0
 62
7
 10
67.899477124413409
 20
33.644183034815683
 70
0
  0
VERTEX
  5
BFAA
  8
0
 62
7
 10
67.094875073833308
 20
33.686902218832763
 70
0
  0
SEQEND
  5
BFAB
  8
0
  0
POLYLINE
  5
BFAC
  8
0
 62
7
 66
1
 70
0
 10
0
 20
0
 30
0
  0
VERTEX
  5
BFAD
  8
0
 62
7
 10
67.094875073833308
 20
33.686902218832763
 70
0
  0
VERTEX
  5
BFAE
  8
0
 62
7
 10
66.248931877430209
 20
33.729621402849887
 70
0
  0
SEQEND
  5
BFAF
  8
0
  0
POLYLINE
  5
BFB0
  8
0
 62
7
 66
1
 70
0
 10
0
 20
0
 30
0
  0
VERTEX
  5
BFB1
  8
0
 62
7
 10
66.248931877430209
 20
33.729621402849887
 70
0
  0
VERTEX
  5
BFB2
  8
0
 62
7
 10
65.401093878510224
 20
33.7726850964155
 70
0
  0
SEQEND
  5
BFB3
  8
0
  0
POLYLINE
  5
BFB4
  8
0
 62
7
 66
1
 70
0
 10
0
 20
0
 30
0
  0
VERTEX
  5
BFB5
  8
0
 62
7
 10
65.401093878510224
 20
33.7726850964155
 70
0
  0
VERTEX
  5
BFB6
  8
0
 62
7
 10
64.555150682107126
 20
33.813853987464263
 70
0
  0
SEQEND
  5
BFB7
  8
0
  0
POLYLINE
  5
BFB8
  8
0
 62
7
 66
1
 70
0
 10
0
 20
0
 30
0
  0
VERTEX
  5
BFB9
  8
0
 62
7
 10
64.555150682107126
 20
33.813853987464263
 70
0
  0
VERTEX
  5
BFBA
  8
0
 62
7
 10
63.6661437921384
 20
33.813853987464263
 70
0
  0
SEQEND
  5
BFBB
  8
0
  0
POLYLINE
  5
BFBC
  8
0
 62
7
 66
1
 70
0
 10
0
 20
0
 30
0
  0
VERTEX
  5
BFBD
  8
0
 62
7
 10
63.6661437921384
 20
33.813853987464263
 70
0
  0
VERTEX
  5
BFBE
  8
0
 62
7
 10
62.777481411718213
 20
33.85657317148133
 70
0
  0
SEQEND
  5
BFBF
  8
0
  0
POLYLINE
  5
BFC0
  8
0
 62
7
 66
1
 70
0
 10
0
 20
0
 30
0
  0
VERTEX
  5
BFC1
  8
0
 62
7
 10
62.777481411718213
 20
33.85657317148133
 70
0
  0
VERTEX
  5
BFC2
  8
0
 62
7
 10
61.845927592506662
 20
33.8992923554984
 70
0
  0
SEQEND
  5
BFC3
  8
0
  0
POLYLINE
  5
BFC4
  8
0
 62
7
 66
1
 70
0
 10
0
 20
0
 30
0
  0
VERTEX
  5
BFC5
  8
0
 62
7
 10
61.845927592506662
 20
33.8992923554984
 70
0
  0
VERTEX
  5
BFC6
  8
0
 62
7
 10
60.914546028069367
 20
33.8992923554984
 70
0
  0
SEQEND
  5
BFC7
  8
0
  0
POLYLINE
  5
BFC8
  8
0
 62
7
 66
1
 70
0
 10
0
 20
0
 30
0
  0
VERTEX
  5
BFC9
  8
0
 62
7
 10
60.914546028069367
 20
33.8992923554984
 70
0
  0
VERTEX
  5
BFCA
  8
0
 62
7
 10
59.982819954083539
 20
33.8992923554984
 70
0
  0
SEQEND
  5
BFCB
  8
0
  0
POLYLINE
  5
BFCC
  8
0
 62
7
 66
1
 70
0
 10
0
 20
0
 30
0
  0
VERTEX
  5
BFCD
  8
0
 62
7
 10
59.982819954083539
 20
33.8992923554984
 70
0
  0
VERTEX
  5
BFCE
  8
0
 62
7
 10
59.051093880097731
 20
33.8992923554984
 70
0
  0
SEQEND
  5
BFCF
  8
0
  0
POLYLINE
  5
BFD0
  8
0
 62
7
 66
1
 70
0
 10
0
 20
0
 30
0
  0
VERTEX
  5
BFD1
  8
0
 62
7
 10
59.051093880097731
 20
33.8992923554984
 70
0
  0
VERTEX
  5
BFD2
  8
0
 62
7
 10
58.119712315660443
 20
33.8992923554984
 70
0
  0
SEQEND
  5
BFD3
  8
0
  0
POLYLINE
  5
BFD4
  8
0
 62
7
 66
1
 70
0
 10
0
 20
0
 30
0
  0
VERTEX
  5
BFD5
  8
0
 62
7
 10
58.119712315660443
 20
33.8992923554984
 70
0
  0
VERTEX
  5
BFD6
  8
0
 62
7
 10
57.188158496448871
 20
33.8992923554984
 70
0
  0
SEQEND
  5
BFD7
  8
0
  0
POLYLINE
  5
BFD8
  8
0
 62
7
 66
1
 70
0
 10
0
 20
0
 30
0
  0
VERTEX
  5
BFD9
  8
0
 62
7
 10
57.188158496448871
 20
33.8992923554984
 70
0
  0
VERTEX
  5
BFDA
  8
0
 62
7
 10
56.257810460657147
 20
33.8992923554984
 70
0
  0
SEQEND
  5
BFDB
  8
0
  0
POLYLINE
  5
BFDC
  8
0
 62
7
 66
1
 70
0
 10
0
 20
0
 30
0
  0
VERTEX
  5
BFDD
  8
0
 62
7
 10
56.257810460657147
 20
33.8992923554984
 70
0
  0
VERTEX
  5
BFDE
  8
0
 62
7
 10
55.326428896219859
 20
33.8992923554984
 70
0
  0
SEQEND
  5
BFDF
  8
0
  0
POLYLINE
  5
BFE0
  8
0
 62
7
 66
1
 70
0
 10
0
 20
0
 30
0
  0
VERTEX
  5
BFE1
  8
0
 62
7
 10
55.326428896219859
 20
33.8992923554984
 70
0
  0
VERTEX
  5
BFE2
  8
0
 62
7
 10
54.394875077008308
 20
33.8992923554984
 70
0
  0
SEQEND
  5
BFE3
  8
0
  0
POLYLINE
  5
BFE4
  8
0
 62
7
 66
1
 70
0
 10
0
 20
0
 30
0
  0
VERTEX
  5
BFE5
  8
0
 62
7
 10
54.394875077008308
 20
33.8992923554984
 70
0
  0
VERTEX
  5
BFE6
  8
0
 62
7
 10
53.506212696588108
 20
33.85657317148133
 70
0
  0
SEQEND
  5
BFE7
  8
0
  0
POLYLINE
  5
BFE8
  8
0
 62
7
 66
1
 70
0
 10
0
 20
0
 30
0
  0
VERTEX
  5
BFE9
  8
0
 62
7
 10
53.506212696588108
 20
33.85657317148133
 70
0
  0
VERTEX
  5
BFEA
  8
0
 62
7
 10
52.574486622602294
 20
33.813853987464263
 70
0
  0
SEQEND
  5
BFEB
  8
0
  0
POLYLINE
  5
BFEC
  8
0
 62
7
 66
1
 70
0
 10
0
 20
0
 30
0
  0
VERTEX
  5
BFED
  8
0
 62
7
 10
52.574486622602294
 20
33.813853987464263
 70
0
  0
VERTEX
  5
BFEE
  8
0
 62
7
 10
51.685479732633567
 20
33.813853987464263
 70
0
  0
SEQEND
  5
BFEF
  8
0
  0
POLYLINE
  5
BFF0
  8
0
 62
7
 66
1
 70
0
 10
0
 20
0
 30
0
  0
VERTEX
  5
BFF1
  8
0
 62
7
 10
51.685479732633567
 20
33.813853987464263
 70
0
  0
VERTEX
  5
BFF2
  8
0
 62
7
 10
50.838158498036378
 20
33.7726850964155
 70
0
  0
SEQEND
  5
BFF3
  8
0
  0
POLYLINE
  5
BFF4
  8
0
 62
7
 66
1
 70
0
 10
0
 20
0
 30
0
  0
VERTEX
  5
BFF5
  8
0
 62
7
 10
50.838158498036378
 20
33.7726850964155
 70
0
  0
VERTEX
  5
BFF6
  8
0
 62
7
 10
49.99221530163328
 20
33.729621402849887
 70
0
  0
SEQEND
  5
BFF7
  8
0
  0
POLYLINE
  5
BFF8
  8
0
 62
7
 66
1
 70
0
 10
0
 20
0
 30
0
  0
VERTEX
  5
BFF9
  8
0
 62
7
 10
49.99221530163328
 20
33.729621402849887
 70
0
  0
VERTEX
  5
BFFA
  8
0
 62
7
 10
49.187096486730383
 20
33.686902218832763
 70
0
  0
SEQEND
  5
BFFB
  8
0
  0
POLYLINE
  5
BFFC
  8
0
 62
7
 66
1
 70
0
 10
0
 20
0
 30
0
  0
VERTEX
  5
BFFD
  8
0
 62
7
 10
49.187096486730383
 20
33.686902218832763
 70
0
  0
VERTEX
  5
BFFE
  8
0
 62
7
 10
48.383872474344393
 20
33.644183034815683
 70
0
  0
SEQEND
  5
BFFF
  8
0
  0
POLYLINE
  5
C000
  8
0
 62
7
 66
1
 70
0
 10
0
 20
0
 30
0
  0
VERTEX
  5
C001
  8
0
 62
7
 10
48.383872474344393
 20
33.644183034815683
 70
0
  0
VERTEX
  5
C002
  8
0
 62
7
 10
47.579098168990029
 20
33.560294959749847
 70
0
  0
SEQEND
  5
C003
  8
0
  0
POLYLINE
  5
C004
  8
0
 62
7
 66
1
 70
0
 10
0
 20
0
 30
0
  0
VERTEX
  5
C005
  8
0
 62
7
 10
47.579098168990029
 20
33.560294959749847
 70
0
  0
VERTEX
  5
C006
  8
0
 62
7
 10
46.859762231669862
 20
33.517575775732723
 70
0
  0
SEQEND
  5
C007
  8
0
  0
POLYLINE
  5
C008
  8
0
 62
7
 66
1
 70
0
 10
0
 20
0
 30
0
  0
VERTEX
  5
C009
  8
0
 62
7
 10
46.859762231669862
 20
33.517575775732723
 70
0
  0
VERTEX
  5
C00A
  8
0
 62
7
 10
46.140598549123972
 20
33.433687700666887
 70
0
  0
SEQEND
  5
C00B
  8
0
  0
POLYLINE
  5
C00C
  8
0
 62
7
 66
1
 70
0
 10
0
 20
0
 30
0
  0
VERTEX
  5
C00D
  8
0
 62
7
 10
46.140598549123972
 20
33.433687700666887
 70
0
  0
VERTEX
  5
C00E
  8
0
 62
7
 10
45.505150686869619
 20
33.390968516649821
 70
0
  0
SEQEND
  5
C00F
  8
0
  0
POLYLINE
  5
C010
  8
0
 62
7
 66
1
 70
0
 10
0
 20
0
 30
0
  0
VERTEX
  5
C011
  8
0
 62
7
 10
45.505150686869619
 20
33.390968516649821
 70
0
  0
VERTEX
  5
C012
  8
0
 62
7
 10
44.869875079389551
 20
33.306735932035451
 70
0
  0
SEQEND
  5
C013
  8
0
  0
POLYLINE
  5
C014
  8
0
 62
7
 66
1
 70
0
 10
0
 20
0
 30
0
  0
VERTEX
  5
C015
  8
0
 62
7
 10
44.869875079389551
 20
33.306735932035451
 70
0
  0
VERTEX
  5
C016
  8
0
 62
7
 10
44.23442721713522
 20
33.221297564001247
 70
0
  0
SEQEND
  5
C017
  8
0
  0
POLYLINE
  5
C018
  8
0
 62
7
 66
1
 70
0
 10
0
 20
0
 30
0
  0
VERTEX
  5
C019
  8
0
 62
7
 10
44.23442721713522
 20
33.221297564001247
 70
0
  0
VERTEX
  5
C01A
  8
0
 62
7
 10
43.684762232463612
 20
33.178578379984167
 70
0
  0
SEQEND
  5
C01B
  8
0
  0
POLYLINE
  5
C01C
  8
0
 62
7
 66
1
 70
0
 10
0
 20
0
 30
0
  0
VERTEX
  5
C01D
  8
0
 62
7
 10
43.684762232463612
 20
33.178578379984167
 70
0
  0
VERTEX
  5
C01E
  8
0
 62
7
 10
43.176093884066468
 20
33.094690304918352
 70
0
  0
SEQEND
  5
C01F
  8
0
  0
POLYLINE
  5
C020
  8
0
 62
7
 66
1
 70
0
 10
0
 20
0
 30
0
  0
VERTEX
  5
C021
  8
0
 62
7
 10
43.176093884066468
 20
33.094690304918352
 70
0
  0
VERTEX
  5
C022
  8
0
 62
7
 10
42.710489229234952
 20
33.0102854655297
 70
0
  0
SEQEND
  5
C023
  8
0
  0
POLYLINE
  5
C024
  8
0
 62
7
 66
1
 70
0
 10
0
 20
0
 30
0
  0
VERTEX
  5
C025
  8
0
 62
7
 10
42.710489229234952
 20
33.0102854655297
 70
0
  0
VERTEX
  5
C026
  8
0
 62
7
 10
42.287431503646282
 20
32.925019352269771
 70
0
  0
SEQEND
  5
C027
  8
0
  0
POLYLINE
  5
C028
  8
0
 62
7
 66
1
 70
0
 10
0
 20
0
 30
0
  0
VERTEX
  5
C029
  8
0
 62
7
 10
42.287431503646282
 20
32.925019352269771
 70
0
  0
VERTEX
  5
C02A
  8
0
 62
7
 10
41.864546032831853
 20
32.840959022429672
 70
0
  0
SEQEND
  5
C02B
  8
0
  0
POLYLINE
  5
C02C
  8
0
 62
7
 66
1
 70
0
 10
0
 20
0
 30
0
  0
VERTEX
  5
C02D
  8
0
 62
7
 10
41.864546032831853
 20
32.840959022429672
 70
0
  0
VERTEX
  5
C02E
  8
0
 62
7
 10
41.525548637083268
 20
32.755520654395468
 70
0
  0
SEQEND
  5
C02F
  8
0
  0
POLYLINE
  5
C030
  8
0
 62
7
 66
1
 70
0
 10
0
 20
0
 30
0
  0
VERTEX
  5
C031
  8
0
 62
7
 10
41.525548637083268
 20
32.755520654395468
 70
0
  0
VERTEX
  5
C032
  8
0
 62
7
 10
41.271817354594631
 20
32.6712880697811
 70
0
  0
SEQEND
  5
C033
  8
0
  0
POLYLINE
  5
C034
  8
0
 62
7
 66
1
 70
0
 10
0
 20
0
 30
0
  0
VERTEX
  5
C035
  8
0
 62
7
 10
41.271817354594631
 20
32.6712880697811
 70
0
  0
VERTEX
  5
C036
  8
0
 62
7
 10
41.016708033911861
 20
32.585849701746952
 70
0
  0
SEQEND
  5
C037
  8
0
  0
POLYLINE
  5
C038
  8
0
 62
7
 66
1
 70
0
 10
0
 20
0
 30
0
  0
VERTEX
  5
C039
  8
0
 62
7
 10
41.016708033911861
 20
32.585849701746952
 70
0
  0
VERTEX
  5
C03A
  8
0
 62
7
 10
40.806212699763108
 20
32.459242442664
 70
0
  0
SEQEND
  5
C03B
  8
0
  0
POLYLINE
  5
C03C
  8
0
 62
7
 66
1
 70
0
 10
0
 20
0
 30
0
  0
VERTEX
  5
C03D
  8
0
 62
7
 10
40.806212699763108
 20
32.459242442664
 70
0
  0
VERTEX
  5
C03E
  8
0
 62
7
 10
40.679260931131651
 20
32.37535436759817
 70
0
  0
SEQEND
  5
C03F
  8
0
  0
POLYLINE
  5
C040
  8
0
 62
7
 66
1
 70
0
 10
0
 20
0
 30
0
  0
VERTEX
  5
C041
  8
0
 62
7
 10
40.679260931131651
 20
32.37535436759817
 70
0
  0
VERTEX
  5
C042
  8
0
 62
7
 10
40.552481417274457
 20
32.289571490015419
 70
0
  0
SEQEND
  5
C043
  8
0
  0
POLYLINE
  5
C044
  8
0
 62
7
 66
1
 70
0
 10
0
 20
0
 30
0
  0
VERTEX
  5
C045
  8
0
 62
7
 10
75.7310404362576
 20
32.416523258646919
 70
0
  0
VERTEX
  5
C046
  8
0
 62
7
 10
75.7310404362576
 20
32.50196162668113
 70
0
  0
SEQEND
  5
C047
  8
0
  0
POLYLINE
  5
C048
  8
0
 62
7
 66
1
 70
0
 10
0
 20
0
 30
0
  0
VERTEX
  5
C049
  8
0
 62
7
 10
75.7310404362576
 20
32.50196162668113
 70
0
  0
VERTEX
  5
C04A
  8
0
 62
7
 10
75.6456020682234
 20
32.628568885764032
 70
0
  0
SEQEND
  5
C04B
  8
0
  0
POLYLINE
  5
C04C
  8
0
 62
7
 66
1
 70
0
 10
0
 20
0
 30
0
  0
VERTEX
  5
C04D
  8
0
 62
7
 10
75.6456020682234
 20
32.628568885764032
 70
0
  0
VERTEX
  5
C04E
  8
0
 62
7
 10
75.51882255436621
 20
32.71435176334677
 70
0
  0
SEQEND
  5
C04F
  8
0
  0
POLYLINE
  5
C050
  8
0
 62
7
 66
1
 70
0
 10
0
 20
0
 30
0
  0
VERTEX
  5
C051
  8
0
 62
7
 10
75.51882255436621
 20
32.71435176334677
 70
0
  0
VERTEX
  5
C052
  8
0
 62
7
 10
75.349323856491921
 20
32.7982398384126
 70
0
  0
SEQEND
  5
C053
  8
0
  0
POLYLINE
  5
C054
  8
0
 62
7
 66
1
 70
0
 10
0
 20
0
 30
0
  0
VERTEX
  5
C055
  8
0
 62
7
 10
75.349323856491921
 20
32.7982398384126
 70
0
  0
VERTEX
  5
C056
  8
0
 62
7
 10
75.095764828777533
 20
32.8823001682527
 70
0
  0
SEQEND
  5
C057
  8
0
  0
POLYLINE
  5
C058
  8
0
 62
7
 66
1
 70
0
 10
0
 20
0
 30
0
  0
VERTEX
  5
C059
  8
0
 62
7
 10
75.095764828777533
 20
32.8823001682527
 70
0
  0
VERTEX
  5
C05A
  8
0
 62
7
 10
74.842205801063145
 20
33.0102854655297
 70
0
  0
SEQEND
  5
C05B
  8
0
  0
POLYLINE
  5
C05C
  8
0
 62
7
 66
1
 70
0
 10
0
 20
0
 30
0
  0
VERTEX
  5
C05D
  8
0
 62
7
 10
74.842205801063145
 20
33.0102854655297
 70
0
  0
VERTEX
  5
C05E
  8
0
 62
7
 10
74.503208405314552
 20
33.094690304918352
 70
0
  0
SEQEND
  5
C05F
  8
0
  0
POLYLINE
  5
C060
  8
0
 62
7
 66
1
 70
0
 10
0
 20
0
 30
0
  0
VERTEX
  5
C061
  8
0
 62
7
 10
74.503208405314552
 20
33.094690304918352
 70
0
  0
VERTEX
  5
C062
  8
0
 62
7
 10
74.121491825548873
 20
33.178578379984167
 70
0
  0
SEQEND
  5
C063
  8
0
  0
POLYLINE
  5
C064
  8
0
 62
7
 66
1
 70
0
 10
0
 20
0
 30
0
  0
VERTEX
  5
C065
  8
0
 62
7
 10
74.121491825548873
 20
33.178578379984167
 70
0
  0
VERTEX
  5
C066
  8
0
 62
7
 10
73.6984340999602
 20
33.264016748018378
 70
0
  0
SEQEND
  5
C067
  8
0
  0
POLYLINE
  5
C068
  8
0
 62
7
 66
1
 70
0
 10
0
 20
0
 30
0
  0
VERTEX
  5
C069
  8
0
 62
7
 10
73.6984340999602
 20
33.264016748018378
 70
0
  0
VERTEX
  5
C06A
  8
0
 62
7
 10
73.232657190354416
 20
33.347904823084207
 70
0
  0
SEQEND
  5
C06B
  8
0
  0
POLYLINE
  5
C06C
  8
0
 62
7
 66
1
 70
0
 10
0
 20
0
 30
0
  0
VERTEX
  5
C06D
  8
0
 62
7
 10
73.232657190354416
 20
33.347904823084207
 70
0
  0
VERTEX
  5
C06E
  8
0
 62
7
 10
72.72553913492564
 20
33.433687700666887
 70
0
  0
SEQEND
  5
C06F
  8
0
  0
POLYLINE
  5
C070
  8
0
 62
7
 66
1
 70
0
 10
0
 20
0
 30
0
  0
VERTEX
  5
C071
  8
0
 62
7
 10
72.72553913492564
 20
33.433687700666887
 70
0
  0
VERTEX
  5
C072
  8
0
 62
7
 10
72.174323857285671
 20
33.47485659171565
 70
0
  0
SEQEND
  5
C073
  8
0
  0
POLYLINE
  5
C074
  8
0
 62
7
 66
1
 70
0
 10
0
 20
0
 30
0
  0
VERTEX
  5
C075
  8
0
 62
7
 10
72.174323857285671
 20
33.47485659171565
 70
0
  0
VERTEX
  5
C076
  8
0
 62
7
 10
71.5404262879997
 20
33.560294959749847
 70
0
  0
SEQEND
  5
C077
  8
0
  0
POLYLINE
  5
C078
  8
0
 62
7
 66
1
 70
0
 10
0
 20
0
 30
0
  0
VERTEX
  5
C079
  8
0
 62
7
 10
71.5404262879997
 20
33.560294959749847
 70
0
  0
VERTEX
  5
C07A
  8
0
 62
7
 10
70.905150680519625
 20
33.644183034815683
 70
0
  0
SEQEND
  5
C07B
  8
0
  0
POLYLINE
  5
C07C
  8
0
 62
7
 66
1
 70
0
 10
0
 20
0
 30
0
  0
VERTEX
  5
C07D
  8
0
 62
7
 10
70.905150680519625
 20
33.644183034815683
 70
0
  0
VERTEX
  5
C07E
  8
0
 62
7
 10
70.227155889022455
 20
33.729621402849887
 70
0
  0
SEQEND
  5
C07F
  8
0
  0
POLYLINE
  5
C080
  8
0
 62
7
 66
1
 70
0
 10
0
 20
0
 30
0
  0
VERTEX
  5
C081
  8
0
 62
7
 10
70.227155889022455
 20
33.729621402849887
 70
0
  0
VERTEX
  5
C082
  8
0
 62
7
 10
69.507819951702274
 20
33.7726850964155
 70
0
  0
SEQEND
  5
C083
  8
0
  0
POLYLINE
  5
C084
  8
0
 62
7
 66
1
 70
0
 10
0
 20
0
 30
0
  0
VERTEX
  5
C085
  8
0
 62
7
 10
69.507819951702274
 20
33.7726850964155
 70
0
  0
VERTEX
  5
C086
  8
0
 62
7
 10
68.788484014382121
 20
33.813853987464263
 70
0
  0
SEQEND
  5
C087
  8
0
  0
POLYLINE
  5
C088
  8
0
 62
7
 66
1
 70
0
 10
0
 20
0
 30
0
  0
VERTEX
  5
C089
  8
0
 62
7
 10
68.788484014382121
 20
33.813853987464263
 70
0
  0
VERTEX
  5
C08A
  8
0
 62
7
 10
68.026428893044866
 20
33.8992923554984
 70
0
  0
SEQEND
  5
C08B
  8
0
  0
POLYLINE
  5
C08C
  8
0
 62
7
 66
1
 70
0
 10
0
 20
0
 30
0
  0
VERTEX
  5
C08D
  8
0
 62
7
 10
68.026428893044866
 20
33.8992923554984
 70
0
  0
VERTEX
  5
C08E
  8
0
 62
7
 10
67.221826842464765
 20
33.940633501321429
 70
0
  0
SEQEND
  5
C08F
  8
0
  0
POLYLINE
  5
C090
  8
0
 62
7
 66
1
 70
0
 10
0
 20
0
 30
0
  0
VERTEX
  5
C091
  8
0
 62
7
 10
67.221826842464765
 20
33.940633501321429
 70
0
  0
VERTEX
  5
C092
  8
0
 62
7
 10
66.37553913651314
 20
33.98335268533851
 70
0
  0
SEQEND
  5
C093
  8
0
  0
POLYLINE
  5
C094
  8
0
 62
7
 66
1
 70
0
 10
0
 20
0
 30
0
  0
VERTEX
  5
C095
  8
0
 62
7
 10
66.37553913651314
 20
33.98335268533851
 70
0
  0
VERTEX
  5
C096
  8
0
 62
7
 10
65.528045647141681
 20
34.025899614581363
 70
0
  0
SEQEND
  5
C097
  8
0
  0
POLYLINE
  5
C098
  8
0
 62
7
 66
1
 70
0
 10
0
 20
0
 30
0
  0
VERTEX
  5
C099
  8
0
 62
7
 10
65.528045647141681
 20
34.025899614581363
 70
0
  0
VERTEX
  5
C09A
  8
0
 62
7
 10
64.639211011947225
 20
34.068618798598443
 70
0
  0
SEQEND
  5
C09B
  8
0
  0
POLYLINE
  5
C09C
  8
0
 62
7
 66
1
 70
0
 10
0
 20
0
 30
0
  0
VERTEX
  5
C09D
  8
0
 62
7
 10
64.639211011947225
 20
34.068618798598443
 70
0
  0
VERTEX
  5
C09E
  8
0
 62
7
 10
63.750548631527018
 20
34.11030445397
 70
0
  0
SEQEND
  5
C09F
  8
0
  0
POLYLINE
  5
C0A0
  8
0
 62
7
 66
1
 70
0
 10
0
 20
0
 30
0
  0
VERTEX
  5
C0A1
  8
0
 62
7
 10
63.750548631527018
 20
34.11030445397
 70
0
  0
VERTEX
  5
C0A2
  8
0
 62
7
 10
62.81882255754121
 20
34.11030445397
 70
0
  0
SEQEND
  5
C0A3
  8
0
  0
POLYLINE
  5
C0A4
  8
0
 62
7
 66
1
 70
0
 10
0
 20
0
 30
0
  0
VERTEX
  5
C0A5
  8
0
 62
7
 10
62.81882255754121
 20
34.11030445397
 70
0
  0
VERTEX
  5
C0A6
  8
0
 62
7
 10
61.93016017712101
 20
34.153023637987083
 70
0
  0
SEQEND
  5
C0A7
  8
0
  0
POLYLINE
  5
C0A8
  8
0
 62
7
 66
1
 70
0
 10
0
 20
0
 30
0
  0
VERTEX
  5
C0A9
  8
0
 62
7
 10
61.93016017712101
 20
34.153023637987083
 70
0
  0
VERTEX
  5
C0AA
  8
0
 62
7
 10
60.998434103135189
 20
34.153023637987083
 70
0
  0
SEQEND
  5
C0AB
  8
0
  0
POLYLINE
  5
C0AC
  8
0
 62
7
 66
1
 70
0
 10
0
 20
0
 30
0
  0
VERTEX
  5
C0AD
  8
0
 62
7
 10
60.998434103135189
 20
34.153023637987083
 70
0
  0
VERTEX
  5
C0AE
  8
0
 62
7
 10
60.02553913810064
 20
34.195570567229943
 70
0
  0
SEQEND
  5
C0AF
  8
0
  0
POLYLINE
  5
C0B0
  8
0
 62
7
 66
1
 70
0
 10
0
 20
0
 30
0
  0
VERTEX
  5
C0B1
  8
0
 62
7
 10
60.02553913810064
 20
34.195570567229943
 70
0
  0
VERTEX
  5
C0B2
  8
0
 62
7
 10
59.093813064114819
 20
34.195570567229943
 70
0
  0
SEQEND
  5
C0B3
  8
0
  0
POLYLINE
  5
C0B4
  8
0
 62
7
 66
1
 70
0
 10
0
 20
0
 30
0
  0
VERTEX
  5
C0B5
  8
0
 62
7
 10
59.093813064114819
 20
34.195570567229943
 70
0
  0
VERTEX
  5
C0B6
  8
0
 62
7
 10
58.119712315660443
 20
34.195570567229943
 70
0
  0
SEQEND
  5
C0B7
  8
0
  0
POLYLINE
  5
C0B8
  8
0
 62
7
 66
1
 70
0
 10
0
 20
0
 30
0
  0
VERTEX
  5
C0B9
  8
0
 62
7
 10
58.119712315660443
 20
34.195570567229943
 70
0
  0
VERTEX
  5
C0BA
  8
0
 62
7
 10
57.188158496448871
 20
34.195570567229943
 70
0
  0
SEQEND
  5
C0BB
  8
0
  0
POLYLINE
  5
C0BC
  8
0
 62
7
 66
1
 70
0
 10
0
 20
0
 30
0
  0
VERTEX
  5
C0BD
  8
0
 62
7
 10
57.188158496448871
 20
34.195570567229943
 70
0
  0
VERTEX
  5
C0BE
  8
0
 62
7
 10
56.215091276640052
 20
34.195570567229943
 70
0
  0
SEQEND
  5
C0BF
  8
0
  0
POLYLINE
  5
C0C0
  8
0
 62
7
 66
1
 70
0
 10
0
 20
0
 30
0
  0
VERTEX
  5
C0C1
  8
0
 62
7
 10
56.215091276640052
 20
34.195570567229943
 70
0
  0
VERTEX
  5
C0C2
  8
0
 62
7
 10
55.28388196697702
 20
34.153023637987083
 70
0
  0
SEQEND
  5
C0C3
  8
0
  0
POLYLINE
  5
C0C4
  8
0
 62
7
 66
1
 70
0
 10
0
 20
0
 30
0
  0
VERTEX
  5
C0C5
  8
0
 62
7
 10
55.28388196697702
 20
34.153023637987083
 70
0
  0
VERTEX
  5
C0C6
  8
0
 62
7
 10
54.3521558929912
 20
34.153023637987083
 70
0
  0
SEQEND
  5
C0C7
  8
0
  0
POLYLINE
  5
C0C8
  8
0
 62
7
 66
1
 70
0
 10
0
 20
0
 30
0
  0
VERTEX
  5
C0C9
  8
0
 62
7
 10
54.3521558929912
 20
34.153023637987083
 70
0
  0
VERTEX
  5
C0CA
  8
0
 62
7
 10
53.420429819005392
 20
34.11030445397
 70
0
  0
SEQEND
  5
C0CB
  8
0
  0
POLYLINE
  5
C0CC
  8
0
 62
7
 66
1
 70
0
 10
0
 20
0
 30
0
  0
VERTEX
  5
C0CD
  8
0
 62
7
 10
53.420429819005392
 20
34.11030445397
 70
0
  0
VERTEX
  5
C0CE
  8
0
 62
7
 10
52.490598547536457
 20
34.11030445397
 70
0
  0
SEQEND
  5
C0CF
  8
0
  0
POLYLINE
  5
C0D0
  8
0
 62
7
 66
1
 70
0
 10
0
 20
0
 30
0
  0
VERTEX
  5
C0D1
  8
0
 62
7
 10
52.490598547536457
 20
34.11030445397
 70
0
  0
VERTEX
  5
C0D2
  8
0
 62
7
 10
51.600041364599377
 20
34.068618798598443
 70
0
  0
SEQEND
  5
C0D3
  8
0
  0
POLYLINE
  5
C0D4
  8
0
 62
7
 66
1
 70
0
 10
0
 20
0
 30
0
  0
VERTEX
  5
C0D5
  8
0
 62
7
 10
51.600041364599377
 20
34.068618798598443
 70
0
  0
VERTEX
  5
C0D6
  8
0
 62
7
 10
50.711378984179177
 20
34.025899614581363
 70
0
  0
SEQEND
  5
C0D7
  8
0
  0
POLYLINE
  5
C0D8
  8
0
 62
7
 66
1
 70
0
 10
0
 20
0
 30
0
  0
VERTEX
  5
C0D9
  8
0
 62
7
 10
50.711378984179177
 20
34.025899614581363
 70
0
  0
VERTEX
  5
C0DA
  8
0
 62
7
 10
49.865091278227553
 20
33.98335268533851
 70
0
  0
SEQEND
  5
C0DB
  8
0
  0
POLYLINE
  5
C0DC
  8
0
 62
7
 66
1
 70
0
 10
0
 20
0
 30
0
  0
VERTEX
  5
C0DD
  8
0
 62
7
 10
49.865091278227553
 20
33.98335268533851
 70
0
  0
VERTEX
  5
C0DE
  8
0
 62
7
 10
49.060489227647452
 20
33.940633501321429
 70
0
  0
SEQEND
  5
C0DF
  8
0
  0
POLYLINE
  5
C0E0
  8
0
 62
7
 66
1
 70
0
 10
0
 20
0
 30
0
  0
VERTEX
  5
C0E1
  8
0
 62
7
 10
49.060489227647452
 20
33.940633501321429
 70
0
  0
VERTEX
  5
C0E2
  8
0
 62
7
 10
48.257265215261462
 20
33.8992923554984
 70
0
  0
SEQEND
  5
C0E3
  8
0
  0
POLYLINE
  5
C0E4
  8
0
 62
7
 66
1
 70
0
 10
0
 20
0
 30
0
  0
VERTEX
  5
C0E5
  8
0
 62
7
 10
48.257265215261462
 20
33.8992923554984
 70
0
  0
VERTEX
  5
C0E6
  8
0
 62
7
 10
47.452146400358572
 20
33.813853987464263
 70
0
  0
SEQEND
  5
C0E7
  8
0
  0
POLYLINE
  5
C0E8
  8
0
 62
7
 66
1
 70
0
 10
0
 20
0
 30
0
  0
VERTEX
  5
C0E9
  8
0
 62
7
 10
47.452146400358572
 20
33.813853987464263
 70
0
  0
VERTEX
  5
C0EA
  8
0
 62
7
 10
46.732810463038412
 20
33.7726850964155
 70
0
  0
SEQEND
  5
C0EB
  8
0
  0
POLYLINE
  5
C0EC
  8
0
 62
7
 66
1
 70
0
 10
0
 20
0
 30
0
  0
VERTEX
  5
C0ED
  8
0
 62
7
 10
46.732810463038412
 20
33.7726850964155
 70
0
  0
VERTEX
  5
C0EE
  8
0
 62
7
 10
46.012096487524133
 20
33.729621402849887
 70
0
  0
SEQEND
  5
C0EF
  8
0
  0
POLYLINE
  5
C0F0
  8
0
 62
7
 66
1
 70
0
 10
0
 20
0
 30
0
  0
VERTEX
  5
C0F1
  8
0
 62
7
 10
46.012096487524133
 20
33.729621402849887
 70
0
  0
VERTEX
  5
C0F2
  8
0
 62
7
 10
45.33547973422106
 20
33.644183034815683
 70
0
  0
SEQEND
  5
C0F3
  8
0
  0
POLYLINE
  5
C0F4
  8
0
 62
7
 66
1
 70
0
 10
0
 20
0
 30
0
  0
VERTEX
  5
C0F5
  8
0
 62
7
 10
45.33547973422106
 20
33.644183034815683
 70
0
  0
VERTEX
  5
C0F6
  8
0
 62
7
 10
44.700548636289518
 20
33.560294959749847
 70
0
  0
SEQEND
  5
C0F7
  8
0
  0
POLYLINE
  5
C0F8
  8
0
 62
7
 66
1
 70
0
 10
0
 20
0
 30
0
  0
VERTEX
  5
C0F9
  8
0
 62
7
 10
44.700548636289518
 20
33.560294959749847
 70
0
  0
VERTEX
  5
C0FA
  8
0
 62
7
 10
44.107819958052289
 20
33.47485659171565
 70
0
  0
SEQEND
  5
C0FB
  8
0
  0
POLYLINE
  5
C0FC
  8
0
 62
7
 66
1
 70
0
 10
0
 20
0
 30
0
  0
VERTEX
  5
C0FD
  8
0
 62
7
 10
44.107819958052289
 20
33.47485659171565
 70
0
  0
VERTEX
  5
C0FE
  8
0
 62
7
 10
43.557810463832148
 20
33.433687700666887
 70
0
  0
SEQEND
  5
C0FF
  8
0
  0
POLYLINE
  5
C100
  8
0
 62
7
 66
1
 70
0
 10
0
 20
0
 30
0
  0
VERTEX
  5
C101
  8
0
 62
7
 10
43.557810463832148
 20
33.433687700666887
 70
0
  0
VERTEX
  5
C102
  8
0
 62
7
 10
43.049486624983537
 20
33.347904823084207
 70
0
  0
SEQEND
  5
C103
  8
0
  0
POLYLINE
  5
C104
  8
0
 62
7
 66
1
 70
0
 10
0
 20
0
 30
0
  0
VERTEX
  5
C105
  8
0
 62
7
 10
43.049486624983537
 20
33.347904823084207
 70
0
  0
VERTEX
  5
C106
  8
0
 62
7
 10
42.541162786134933
 20
33.264016748018378
 70
0
  0
SEQEND
  5
C107
  8
0
  0
POLYLINE
  5
C108
  8
0
 62
7
 66
1
 70
0
 10
0
 20
0
 30
0
  0
VERTEX
  5
C109
  8
0
 62
7
 10
42.541162786134933
 20
33.264016748018378
 70
0
  0
VERTEX
  5
C10A
  8
0
 62
7
 10
42.16047973501481
 20
33.178578379984167
 70
0
  0
SEQEND
  5
C10B
  8
0
  0
POLYLINE
  5
C10C
  8
0
 62
7
 66
1
 70
0
 10
0
 20
0
 30
0
  0
VERTEX
  5
C10D
  8
0
 62
7
 10
42.16047973501481
 20
33.178578379984167
 70
0
  0
VERTEX
  5
C10E
  8
0
 62
7
 10
41.778763155249138
 20
33.094690304918352
 70
0
  0
SEQEND
  5
C10F
  8
0
  0
POLYLINE
  5
C110
  8
0
 62
7
 66
1
 70
0
 10
0
 20
0
 30
0
  0
VERTEX
  5
C111
  8
0
 62
7
 10
41.778763155249138
 20
33.094690304918352
 70
0
  0
VERTEX
  5
C112
  8
0
 62
7
 10
41.441143797694643
 20
33.0102854655297
 70
0
  0
SEQEND
  5
C113
  8
0
  0
POLYLINE
  5
C114
  8
0
 62
7
 66
1
 70
0
 10
0
 20
0
 30
0
  0
VERTEX
  5
C115
  8
0
 62
7
 10
41.441143797694643
 20
33.0102854655297
 70
0
  0
VERTEX
  5
C116
  8
0
 62
7
 10
41.1452100955117
 20
32.8823001682527
 70
0
  0
SEQEND
  5
C117
  8
0
  0
POLYLINE
  5
C118
  8
0
 62
7
 66
1
 70
0
 10
0
 20
0
 30
0
  0
VERTEX
  5
C119
  8
0
 62
7
 10
41.1452100955117
 20
32.8823001682527
 70
0
  0
VERTEX
  5
C11A
  8
0
 62
7
 10
40.932819958846039
 20
32.7982398384126
 70
0
  0
SEQEND
  5
C11B
  8
0
  0
POLYLINE
  5
C11C
  8
0
 62
7
 66
1
 70
0
 10
0
 20
0
 30
0
  0
VERTEX
  5
C11D
  8
0
 62
7
 10
40.932819958846039
 20
32.7982398384126
 70
0
  0
VERTEX
  5
C11E
  8
0
 62
7
 10
40.720429822180392
 20
32.71435176334677
 70
0
  0
SEQEND
  5
C11F
  8
0
  0
POLYLINE
  5
C120
  8
0
 62
7
 66
1
 70
0
 10
0
 20
0
 30
0
  0
VERTEX
  5
C121
  8
0
 62
7
 10
40.720429822180392
 20
32.71435176334677
 70
0
  0
VERTEX
  5
C122
  8
0
 62
7
 10
40.593822563097461
 20
32.628568885764032
 70
0
  0
SEQEND
  5
C123
  8
0
  0
POLYLINE
  5
C124
  8
0
 62
7
 66
1
 70
0
 10
0
 20
0
 30
0
  0
VERTEX
  5
C125
  8
0
 62
7
 10
40.593822563097461
 20
32.628568885764032
 70
0
  0
VERTEX
  5
C126
  8
0
 62
7
 10
40.552481417274457
 20
32.50196162668113
 70
0
  0
SEQEND
  5
C127
  8
0
  0
POLYLINE
  5
C128
  8
0
 62
7
 66
1
 70
0
 10
0
 20
0
 30
0
  0
VERTEX
  5
C129
  8
0
 62
7
 10
40.552481417274457
 20
32.50196162668113
 70
0
  0
VERTEX
  5
C12A
  8
0
 62
7
 10
40.509762233257362
 20
32.416523258646919
 70
0
  0
SEQEND
  5
C12B
  8
0
  0
POLYLINE
  5
C12C
  8
0
 62
7
 66
1
 70
0
 10
0
 20
0
 30
0
  0
VERTEX
  5
C12D
  8
0
 62
7
 10
40.552481417274457
 20
32.289571490015419
 70
0
  0
VERTEX
  5
C12E
  8
0
 62
7
 10
40.509762233257362
 20
32.24840259896672
 70
0
  0
SEQEND
  5
C12F
  8
0
  0
POLYLINE
  5
C130
  8
0
 62
7
 66
1
 70
0
 10
0
 20
0
 30
0
  0
VERTEX
  5
C131
  8
0
 62
7
 10
40.509762233257362
 20
32.24840259896672
 70
0
  0
VERTEX
  5
C132
  8
0
 62
7
 10
40.509762233257362
 20
32.162964230932523
 70
0
  0
SEQEND
  5
C133
  8
0
  0
POLYLINE
  5
C134
  8
0
 62
7
 66
1
 70
0
 10
0
 20
0
 30
0
  0
VERTEX
  5
C135
  8
0
 62
7
 10
40.509762233257362
 20
32.416523258646919
 70
0
  0
VERTEX
  5
C136
  8
0
 62
7
 10
40.509762233257362
 20
32.37535436759817
 70
0
  0
SEQEND
  5
C137
  8
0
  0
POLYLINE
  5
C138
  8
0
 62
7
 66
1
 70
0
 10
0
 20
0
 30
0
  0
VERTEX
  5
C139
  8
0
 62
7
 10
40.509762233257362
 20
32.37535436759817
 70
0
  0
VERTEX
  5
C13A
  8
0
 62
7
 10
40.552481417274457
 20
32.289571490015419
 70
0
  0
SEQEND
  5
C13B
  8
0
  0
POLYLINE
  5
C13C
  8
0
 62
7
 66
1
 70
0
 10
0
 20
0
 30
0
  0
VERTEX
  5
C13D
  8
0
 62
7
 10
75.7310404362576
 20
32.416523258646919
 70
0
  0
VERTEX
  5
C13E
  8
0
 62
7
 10
75.7310404362576
 20
35.930520653601718
 70
0
  0
SEQEND
  5
C13F
  8
0
  0
POLYLINE
  5
C140
  8
0
 62
7
 66
1
 70
0
 10
0
 20
0
 30
0
  0
VERTEX
  5
C141
  8
0
 62
7
 10
40.509762233257362
 20
32.416523258646919
 70
0
  0
VERTEX
  5
C142
  8
0
 62
7
 10
40.509762233257362
 20
35.930520653601718
 70
0
  0
SEQEND
  5
C143
  8
0
  0
POLYLINE
  5
C144
  8
0
 62
7
 66
1
 70
0
 10
0
 20
0
 30
0
  0
VERTEX
  5
C145
  8
0
 62
7
 10
75.6883212522405
 20
32.289571490015419
 70
0
  0
VERTEX
  5
C146
  8
0
 62
7
 10
75.7310404362576
 20
32.37535436759817
 70
0
  0
SEQEND
  5
C147
  8
0
  0
POLYLINE
  5
C148
  8
0
 62
7
 66
1
 70
0
 10
0
 20
0
 30
0
  0
VERTEX
  5
C149
  8
0
 62
7
 10
75.7310404362576
 20
32.37535436759817
 70
0
  0
VERTEX
  5
C14A
  8
0
 62
7
 10
75.7310404362576
 20
32.416523258646919
 70
0
  0
SEQEND
  5
C14B
  8
0
  0
POLYLINE
  5
C14C
  8
0
 62
7
 66
1
 70
0
 10
0
 20
0
 30
0
  0
VERTEX
  5
C14D
  8
0
 62
7
 10
75.7310404362576
 20
35.930520653601718
 70
0
  0
VERTEX
  5
C14E
  8
0
 62
7
 10
75.7310404362576
 20
36.057300167458948
 70
0
  0
SEQEND
  5
C14F
  8
0
  0
POLYLINE
  5
C150
  8
0
 62
7
 66
1
 70
0
 10
0
 20
0
 30
0
  0
VERTEX
  5
C151
  8
0
 62
7
 10
75.7310404362576
 20
36.057300167458948
 70
0
  0
VERTEX
  5
C152
  8
0
 62
7
 10
75.6456020682234
 20
36.142566280718881
 70
0
  0
SEQEND
  5
C153
  8
0
  0
POLYLINE
  5
C154
  8
0
 62
7
 66
1
 70
0
 10
0
 20
0
 30
0
  0
VERTEX
  5
C155
  8
0
 62
7
 10
75.6456020682234
 20
36.142566280718881
 70
0
  0
VERTEX
  5
C156
  8
0
 62
7
 10
75.51882255436621
 20
36.226971120107457
 70
0
  0
SEQEND
  5
C157
  8
0
  0
POLYLINE
  5
C158
  8
0
 62
7
 66
1
 70
0
 10
0
 20
0
 30
0
  0
VERTEX
  5
C159
  8
0
 62
7
 10
75.51882255436621
 20
36.226971120107457
 70
0
  0
VERTEX
  5
C15A
  8
0
 62
7
 10
75.349323856491921
 20
36.3122372333674
 70
0
  0
SEQEND
  5
C15B
  8
0
  0
POLYLINE
  5
C15C
  8
0
 62
7
 66
1
 70
0
 10
0
 20
0
 30
0
  0
VERTEX
  5
C15D
  8
0
 62
7
 10
75.349323856491921
 20
36.3122372333674
 70
0
  0
VERTEX
  5
C15E
  8
0
 62
7
 10
75.095764828777533
 20
36.3962975632075
 70
0
  0
SEQEND
  5
C15F
  8
0
  0
POLYLINE
  5
C160
  8
0
 62
7
 66
1
 70
0
 10
0
 20
0
 30
0
  0
VERTEX
  5
C161
  8
0
 62
7
 10
75.095764828777533
 20
36.3962975632075
 70
0
  0
VERTEX
  5
C162
  8
0
 62
7
 10
74.842205801063145
 20
36.522904822290457
 70
0
  0
SEQEND
  5
C163
  8
0
  0
POLYLINE
  5
C164
  8
0
 62
7
 66
1
 70
0
 10
0
 20
0
 30
0
  0
VERTEX
  5
C165
  8
0
 62
7
 10
74.842205801063145
 20
36.522904822290457
 70
0
  0
VERTEX
  5
C166
  8
0
 62
7
 10
74.503208405314552
 20
36.608687699873151
 70
0
  0
SEQEND
  5
C167
  8
0
  0
POLYLINE
  5
C168
  8
0
 62
7
 66
1
 70
0
 10
0
 20
0
 30
0
  0
VERTEX
  5
C169
  8
0
 62
7
 10
74.503208405314552
 20
36.608687699873151
 70
0
  0
VERTEX
  5
C16A
  8
0
 62
7
 10
74.121491825548873
 20
36.69257577493898
 70
0
  0
SEQEND
  5
C16B
  8
0
  0
POLYLINE
  5
C16C
  8
0
 62
7
 66
1
 70
0
 10
0
 20
0
 30
0
  0
VERTEX
  5
C16D
  8
0
 62
7
 10
74.121491825548873
 20
36.69257577493898
 70
0
  0
VERTEX
  5
C16E
  8
0
 62
7
 10
73.6984340999602
 20
36.778014142973177
 70
0
  0
SEQEND
  5
C16F
  8
0
  0
POLYLINE
  5
C170
  8
0
 62
7
 66
1
 70
0
 10
0
 20
0
 30
0
  0
VERTEX
  5
C171
  8
0
 62
7
 10
73.6984340999602
 20
36.778014142973177
 70
0
  0
VERTEX
  5
C172
  8
0
 62
7
 10
73.232657190354416
 20
36.861902218039013
 70
0
  0
SEQEND
  5
C173
  8
0
  0
POLYLINE
  5
C174
  8
0
 62
7
 66
1
 70
0
 10
0
 20
0
 30
0
  0
VERTEX
  5
C175
  8
0
 62
7
 10
73.232657190354416
 20
36.861902218039013
 70
0
  0
VERTEX
  5
C176
  8
0
 62
7
 10
72.72553913492564
 20
36.94768509562175
 70
0
  0
SEQEND
  5
C177
  8
0
  0
POLYLINE
  5
C178
  8
0
 62
7
 66
1
 70
0
 10
0
 20
0
 30
0
  0
VERTEX
  5
C179
  8
0
 62
7
 10
72.72553913492564
 20
36.94768509562175
 70
0
  0
VERTEX
  5
C17A
  8
0
 62
7
 10
72.174323857285671
 20
37.031573170687579
 70
0
  0
SEQEND
  5
C17B
  8
0
  0
POLYLINE
  5
C17C
  8
0
 62
7
 66
1
 70
0
 10
0
 20
0
 30
0
  0
VERTEX
  5
C17D
  8
0
 62
7
 10
72.174323857285671
 20
37.031573170687579
 70
0
  0
VERTEX
  5
C17E
  8
0
 62
7
 10
71.5404262879997
 20
37.07429235470466
 70
0
  0
SEQEND
  5
C17F
  8
0
  0
POLYLINE
  5
C180
  8
0
 62
7
 66
1
 70
0
 10
0
 20
0
 30
0
  0
VERTEX
  5
C181
  8
0
 62
7
 10
71.5404262879997
 20
37.07429235470466
 70
0
  0
VERTEX
  5
C182
  8
0
 62
7
 10
70.905150680519625
 20
37.158352684544752
 70
0
  0
SEQEND
  5
C183
  8
0
  0
POLYLINE
  5
C184
  8
0
 62
7
 66
1
 70
0
 10
0
 20
0
 30
0
  0
VERTEX
  5
C185
  8
0
 62
7
 10
70.905150680519625
 20
37.158352684544752
 70
0
  0
VERTEX
  5
C186
  8
0
 62
7
 10
70.227155889022455
 20
37.243618797804693
 70
0
  0
SEQEND
  5
C187
  8
0
  0
POLYLINE
  5
C188
  8
0
 62
7
 66
1
 70
0
 10
0
 20
0
 30
0
  0
VERTEX
  5
C189
  8
0
 62
7
 10
70.227155889022455
 20
37.243618797804693
 70
0
  0
VERTEX
  5
C18A
  8
0
 62
7
 10
69.507819951702274
 20
37.285304453176259
 70
0
  0
SEQEND
  5
C18B
  8
0
  0
POLYLINE
  5
C18C
  8
0
 62
7
 66
1
 70
0
 10
0
 20
0
 30
0
  0
VERTEX
  5
C18D
  8
0
 62
7
 10
69.507819951702274
 20
37.285304453176259
 70
0
  0
VERTEX
  5
C18E
  8
0
 62
7
 10
68.788484014382121
 20
37.370570566436193
 70
0
  0
SEQEND
  5
C18F
  8
0
  0
POLYLINE
  5
C190
  8
0
 62
7
 66
1
 70
0
 10
0
 20
0
 30
0
  0
VERTEX
  5
C191
  8
0
 62
7
 10
68.788484014382121
 20
37.370570566436193
 70
0
  0
VERTEX
  5
C192
  8
0
 62
7
 10
68.026428893044866
 20
37.411911712259162
 70
0
  0
SEQEND
  5
C193
  8
0
  0
POLYLINE
  5
C194
  8
0
 62
7
 66
1
 70
0
 10
0
 20
0
 30
0
  0
VERTEX
  5
C195
  8
0
 62
7
 10
68.026428893044866
 20
37.411911712259162
 70
0
  0
VERTEX
  5
C196
  8
0
 62
7
 10
67.221826842464765
 20
37.454630896276292
 70
0
  0
SEQEND
  5
C197
  8
0
  0
POLYLINE
  5
C198
  8
0
 62
7
 66
1
 70
0
 10
0
 20
0
 30
0
  0
VERTEX
  5
C199
  8
0
 62
7
 10
67.221826842464765
 20
37.454630896276292
 70
0
  0
VERTEX
  5
C19A
  8
0
 62
7
 10
66.37553913651314
 20
37.497350080293359
 70
0
  0
SEQEND
  5
C19B
  8
0
  0
POLYLINE
  5
C19C
  8
0
 62
7
 66
1
 70
0
 10
0
 20
0
 30
0
  0
VERTEX
  5
C19D
  8
0
 62
7
 10
66.37553913651314
 20
37.497350080293359
 70
0
  0
VERTEX
  5
C19E
  8
0
 62
7
 10
65.528045647141681
 20
37.540069264310432
 70
0
  0
SEQEND
  5
C19F
  8
0
  0
POLYLINE
  5
C1A0
  8
0
 62
7
 66
1
 70
0
 10
0
 20
0
 30
0
  0
VERTEX
  5
C1A1
  8
0
 62
7
 10
65.528045647141681
 20
37.540069264310432
 70
0
  0
VERTEX
  5
C1A2
  8
0
 62
7
 10
64.639211011947225
 20
37.581238155359188
 70
0
  0
SEQEND
  5
C1A3
  8
0
  0
POLYLINE
  5
C1A4
  8
0
 62
7
 66
1
 70
0
 10
0
 20
0
 30
0
  0
VERTEX
  5
C1A5
  8
0
 62
7
 10
64.639211011947225
 20
37.581238155359188
 70
0
  0
VERTEX
  5
C1A6
  8
0
 62
7
 10
63.750548631527018
 20
37.6243018489248
 70
0
  0
SEQEND
  5
C1A7
  8
0
  0
POLYLINE
  5
C1A8
  8
0
 62
7
 66
1
 70
0
 10
0
 20
0
 30
0
  0
VERTEX
  5
C1A9
  8
0
 62
7
 10
63.750548631527018
 20
37.6243018489248
 70
0
  0
VERTEX
  5
C1AA
  8
0
 62
7
 10
62.81882255754121
 20
37.6243018489248
 70
0
  0
SEQEND
  5
C1AB
  8
0
  0
POLYLINE
  5
C1AC
  8
0
 62
7
 66
1
 70
0
 10
0
 20
0
 30
0
  0
VERTEX
  5
C1AD
  8
0
 62
7
 10
62.81882255754121
 20
37.6243018489248
 70
0
  0
VERTEX
  5
C1AE
  8
0
 62
7
 10
61.93016017712101
 20
37.667021032941932
 70
0
  0
SEQEND
  5
C1AF
  8
0
  0
POLYLINE
  5
C1B0
  8
0
 62
7
 66
1
 70
0
 10
0
 20
0
 30
0
  0
VERTEX
  5
C1B1
  8
0
 62
7
 10
61.93016017712101
 20
37.667021032941932
 70
0
  0
VERTEX
  5
C1B2
  8
0
 62
7
 10
60.998434103135189
 20
37.667021032941932
 70
0
  0
SEQEND
  5
C1B3
  8
0
  0
POLYLINE
  5
C1B4
  8
0
 62
7
 66
1
 70
0
 10
0
 20
0
 30
0
  0
VERTEX
  5
C1B5
  8
0
 62
7
 10
60.998434103135189
 20
37.667021032941932
 70
0
  0
VERTEX
  5
C1B6
  8
0
 62
7
 10
60.02553913810064
 20
37.708189923990631
 70
0
  0
SEQEND
  5
C1B7
  8
0
  0
POLYLINE
  5
C1B8
  8
0
 62
7
 66
1
 70
0
 10
0
 20
0
 30
0
  0
VERTEX
  5
C1B9
  8
0
 62
7
 10
60.02553913810064
 20
37.708189923990631
 70
0
  0
VERTEX
  5
C1BA
  8
0
 62
7
 10
59.093813064114819
 20
37.708189923990631
 70
0
  0
SEQEND
  5
C1BB
  8
0
  0
POLYLINE
  5
C1BC
  8
0
 62
7
 66
1
 70
0
 10
0
 20
0
 30
0
  0
VERTEX
  5
C1BD
  8
0
 62
7
 10
59.093813064114819
 20
37.708189923990631
 70
0
  0
VERTEX
  5
C1BE
  8
0
 62
7
 10
58.119712315660443
 20
37.708189923990631
 70
0
  0
SEQEND
  5
C1BF
  8
0
  0
POLYLINE
  5
C1C0
  8
0
 62
7
 66
1
 70
0
 10
0
 20
0
 30
0
  0
VERTEX
  5
C1C1
  8
0
 62
7
 10
58.119712315660443
 20
37.708189923990631
 70
0
  0
VERTEX
  5
C1C2
  8
0
 62
7
 10
57.188158496448871
 20
37.708189923990631
 70
0
  0
SEQEND
  5
C1C3
  8
0
  0
POLYLINE
  5
C1C4
  8
0
 62
7
 66
1
 70
0
 10
0
 20
0
 30
0
  0
VERTEX
  5
C1C5
  8
0
 62
7
 10
57.188158496448871
 20
37.708189923990631
 70
0
  0
VERTEX
  5
C1C6
  8
0
 62
7
 10
56.215091276640052
 20
37.708189923990631
 70
0
  0
SEQEND
  5
C1C7
  8
0
  0
POLYLINE
  5
C1C8
  8
0
 62
7
 66
1
 70
0
 10
0
 20
0
 30
0
  0
VERTEX
  5
C1C9
  8
0
 62
7
 10
56.215091276640052
 20
37.708189923990631
 70
0
  0
VERTEX
  5
C1CA
  8
0
 62
7
 10
55.28388196697702
 20
37.667021032941932
 70
0
  0
SEQEND
  5
C1CB
  8
0
  0
POLYLINE
  5
C1CC
  8
0
 62
7
 66
1
 70
0
 10
0
 20
0
 30
0
  0
VERTEX
  5
C1CD
  8
0
 62
7
 10
55.28388196697702
 20
37.667021032941932
 70
0
  0
VERTEX
  5
C1CE
  8
0
 62
7
 10
54.3521558929912
 20
37.667021032941932
 70
0
  0
SEQEND
  5
C1CF
  8
0
  0
POLYLINE
  5
C1D0
  8
0
 62
7
 66
1
 70
0
 10
0
 20
0
 30
0
  0
VERTEX
  5
C1D1
  8
0
 62
7
 10
54.3521558929912
 20
37.667021032941932
 70
0
  0
VERTEX
  5
C1D2
  8
0
 62
7
 10
53.420429819005392
 20
37.6243018489248
 70
0
  0
SEQEND
  5
C1D3
  8
0
  0
POLYLINE
  5
C1D4
  8
0
 62
7
 66
1
 70
0
 10
0
 20
0
 30
0
  0
VERTEX
  5
C1D5
  8
0
 62
7
 10
53.420429819005392
 20
37.6243018489248
 70
0
  0
VERTEX
  5
C1D6
  8
0
 62
7
 10
52.490598547536457
 20
37.6243018489248
 70
0
  0
SEQEND
  5
C1D7
  8
0
  0
POLYLINE
  5
C1D8
  8
0
 62
7
 66
1
 70
0
 10
0
 20
0
 30
0
  0
VERTEX
  5
C1D9
  8
0
 62
7
 10
52.490598547536457
 20
37.6243018489248
 70
0
  0
VERTEX
  5
C1DA
  8
0
 62
7
 10
51.600041364599377
 20
37.581238155359188
 70
0
  0
SEQEND
  5
C1DB
  8
0
  0
POLYLINE
  5
C1DC
  8
0
 62
7
 66
1
 70
0
 10
0
 20
0
 30
0
  0
VERTEX
  5
C1DD
  8
0
 62
7
 10
51.600041364599377
 20
37.581238155359188
 70
0
  0
VERTEX
  5
C1DE
  8
0
 62
7
 10
50.711378984179177
 20
37.540069264310432
 70
0
  0
SEQEND
  5
C1DF
  8
0
  0
POLYLINE
  5
C1E0
  8
0
 62
7
 66
1
 70
0
 10
0
 20
0
 30
0
  0
VERTEX
  5
C1E1
  8
0
 62
7
 10
50.711378984179177
 20
37.540069264310432
 70
0
  0
VERTEX
  5
C1E2
  8
0
 62
7
 10
49.865091278227553
 20
37.497350080293359
 70
0
  0
SEQEND
  5
C1E3
  8
0
  0
POLYLINE
  5
C1E4
  8
0
 62
7
 66
1
 70
0
 10
0
 20
0
 30
0
  0
VERTEX
  5
C1E5
  8
0
 62
7
 10
49.865091278227553
 20
37.497350080293359
 70
0
  0
VERTEX
  5
C1E6
  8
0
 62
7
 10
49.060489227647452
 20
37.454630896276292
 70
0
  0
SEQEND
  5
C1E7
  8
0
  0
POLYLINE
  5
C1E8
  8
0
 62
7
 66
1
 70
0
 10
0
 20
0
 30
0
  0
VERTEX
  5
C1E9
  8
0
 62
7
 10
49.060489227647452
 20
37.454630896276292
 70
0
  0
VERTEX
  5
C1EA
  8
0
 62
7
 10
48.257265215261462
 20
37.411911712259162
 70
0
  0
SEQEND
  5
C1EB
  8
0
  0
POLYLINE
  5
C1EC
  8
0
 62
7
 66
1
 70
0
 10
0
 20
0
 30
0
  0
VERTEX
  5
C1ED
  8
0
 62
7
 10
48.257265215261462
 20
37.411911712259162
 70
0
  0
VERTEX
  5
C1EE
  8
0
 62
7
 10
47.452146400358572
 20
37.370570566436193
 70
0
  0
SEQEND
  5
C1EF
  8
0
  0
POLYLINE
  5
C1F0
  8
0
 62
7
 66
1
 70
0
 10
0
 20
0
 30
0
  0
VERTEX
  5
C1F1
  8
0
 62
7
 10
47.452146400358572
 20
37.370570566436193
 70
0
  0
VERTEX
  5
C1F2
  8
0
 62
7
 10
46.732810463038412
 20
37.285304453176259
 70
0
  0
SEQEND
  5
C1F3
  8
0
  0
POLYLINE
  5
C1F4
  8
0
 62
7
 66
1
 70
0
 10
0
 20
0
 30
0
  0
VERTEX
  5
C1F5
  8
0
 62
7
 10
46.732810463038412
 20
37.285304453176259
 70
0
  0
VERTEX
  5
C1F6
  8
0
 62
7
 10
46.012096487524133
 20
37.243618797804693
 70
0
  0
SEQEND
  5
C1F7
  8
0
  0
POLYLINE
  5
C1F8
  8
0
 62
7
 66
1
 70
0
 10
0
 20
0
 30
0
  0
VERTEX
  5
C1F9
  8
0
 62
7
 10
46.012096487524133
 20
37.243618797804693
 70
0
  0
VERTEX
  5
C1FA
  8
0
 62
7
 10
45.33547973422106
 20
37.158352684544752
 70
0
  0
SEQEND
  5
C1FB
  8
0
  0
POLYLINE
  5
C1FC
  8
0
 62
7
 66
1
 70
0
 10
0
 20
0
 30
0
  0
VERTEX
  5
C1FD
  8
0
 62
7
 10
45.33547973422106
 20
37.158352684544752
 70
0
  0
VERTEX
  5
C1FE
  8
0
 62
7
 10
44.700548636289518
 20
37.07429235470466
 70
0
  0
SEQEND
  5
C1FF
  8
0
  0
POLYLINE
  5
C200
  8
0
 62
7
 66
1
 70
0
 10
0
 20
0
 30
0
  0
VERTEX
  5
C201
  8
0
 62
7
 10
44.700548636289518
 20
37.07429235470466
 70
0
  0
VERTEX
  5
C202
  8
0
 62
7
 10
44.107819958052289
 20
37.031573170687579
 70
0
  0
SEQEND
  5
C203
  8
0
  0
POLYLINE
  5
C204
  8
0
 62
7
 66
1
 70
0
 10
0
 20
0
 30
0
  0
VERTEX
  5
C205
  8
0
 62
7
 10
44.107819958052289
 20
37.031573170687579
 70
0
  0
VERTEX
  5
C206
  8
0
 62
7
 10
43.557810463832148
 20
36.94768509562175
 70
0
  0
SEQEND
  5
C207
  8
0
  0
POLYLINE
  5
C208
  8
0
 62
7
 66
1
 70
0
 10
0
 20
0
 30
0
  0
VERTEX
  5
C209
  8
0
 62
7
 10
43.557810463832148
 20
36.94768509562175
 70
0
  0
VERTEX
  5
C20A
  8
0
 62
7
 10
43.049486624983537
 20
36.861902218039013
 70
0
  0
SEQEND
  5
C20B
  8
0
  0
POLYLINE
  5
C20C
  8
0
 62
7
 66
1
 70
0
 10
0
 20
0
 30
0
  0
VERTEX
  5
C20D
  8
0
 62
7
 10
43.049486624983537
 20
36.861902218039013
 70
0
  0
VERTEX
  5
C20E
  8
0
 62
7
 10
42.541162786134933
 20
36.778014142973177
 70
0
  0
SEQEND
  5
C20F
  8
0
  0
POLYLINE
  5
C210
  8
0
 62
7
 66
1
 70
0
 10
0
 20
0
 30
0
  0
VERTEX
  5
C211
  8
0
 62
7
 10
42.541162786134933
 20
36.778014142973177
 70
0
  0
VERTEX
  5
C212
  8
0
 62
7
 10
42.16047973501481
 20
36.69257577493898
 70
0
  0
SEQEND
  5
C213
  8
0
  0
POLYLINE
  5
C214
  8
0
 62
7
 66
1
 70
0
 10
0
 20
0
 30
0
  0
VERTEX
  5
C215
  8
0
 62
7
 10
42.16047973501481
 20
36.69257577493898
 70
0
  0
VERTEX
  5
C216
  8
0
 62
7
 10
41.778763155249138
 20
36.608687699873151
 70
0
  0
SEQEND
  5
C217
  8
0
  0
POLYLINE
  5
C218
  8
0
 62
7
 66
1
 70
0
 10
0
 20
0
 30
0
  0
VERTEX
  5
C219
  8
0
 62
7
 10
41.778763155249138
 20
36.608687699873151
 70
0
  0
VERTEX
  5
C21A
  8
0
 62
7
 10
41.441143797694643
 20
36.522904822290457
 70
0
  0
SEQEND
  5
C21B
  8
0
  0
POLYLINE
  5
C21C
  8
0
 62
7
 66
1
 70
0
 10
0
 20
0
 30
0
  0
VERTEX
  5
C21D
  8
0
 62
7
 10
41.441143797694643
 20
36.522904822290457
 70
0
  0
VERTEX
  5
C21E
  8
0
 62
7
 10
41.1452100955117
 20
36.3962975632075
 70
0
  0
SEQEND
  5
C21F
  8
0
  0
POLYLINE
  5
C220
  8
0
 62
7
 66
1
 70
0
 10
0
 20
0
 30
0
  0
VERTEX
  5
C221
  8
0
 62
7
 10
41.1452100955117
 20
36.3962975632075
 70
0
  0
VERTEX
  5
C222
  8
0
 62
7
 10
40.932819958846039
 20
36.3122372333674
 70
0
  0
SEQEND
  5
C223
  8
0
  0
POLYLINE
  5
C224
  8
0
 62
7
 66
1
 70
0
 10
0
 20
0
 30
0
  0
VERTEX
  5
C225
  8
0
 62
7
 10
40.932819958846039
 20
36.3122372333674
 70
0
  0
VERTEX
  5
C226
  8
0
 62
7
 10
40.720429822180392
 20
36.226971120107457
 70
0
  0
SEQEND
  5
C227
  8
0
  0
POLYLINE
  5
C228
  8
0
 62
7
 66
1
 70
0
 10
0
 20
0
 30
0
  0
VERTEX
  5
C229
  8
0
 62
7
 10
40.720429822180392
 20
36.226971120107457
 70
0
  0
VERTEX
  5
C22A
  8
0
 62
7
 10
40.593822563097461
 20
36.142566280718881
 70
0
  0
SEQEND
  5
C22B
  8
0
  0
POLYLINE
  5
C22C
  8
0
 62
7
 66
1
 70
0
 10
0
 20
0
 30
0
  0
VERTEX
  5
C22D
  8
0
 62
7
 10
40.593822563097461
 20
36.142566280718881
 70
0
  0
VERTEX
  5
C22E
  8
0
 62
7
 10
40.552481417274457
 20
36.057300167458948
 70
0
  0
SEQEND
  5
C22F
  8
0
  0
POLYLINE
  5
C230
  8
0
 62
7
 66
1
 70
0
 10
0
 20
0
 30
0
  0
VERTEX
  5
C231
  8
0
 62
7
 10
40.552481417274457
 20
36.057300167458948
 70
0
  0
VERTEX
  5
C232
  8
0
 62
7
 10
40.509762233257362
 20
35.930520653601718
 70
0
  0
SEQEND
  5
C233
  8
0
  0
POLYLINE
  5
C234
  8
0
 62
7
 66
1
 70
0
 10
0
 20
0
 30
0
  0
VERTEX
  5
C235
  8
0
 62
7
 10
75.7310404362576
 20
32.162964230932523
 70
0
  0
VERTEX
  5
C236
  8
0
 62
7
 10
75.7310404362576
 20
32.24840259896672
 70
0
  0
SEQEND
  5
C237
  8
0
  0
POLYLINE
  5
C238
  8
0
 62
7
 66
1
 70
0
 10
0
 20
0
 30
0
  0
VERTEX
  5
C239
  8
0
 62
7
 10
75.7310404362576
 20
32.24840259896672
 70
0
  0
VERTEX
  5
C23A
  8
0
 62
7
 10
75.6883212522405
 20
32.289571490015419
 70
0
  0
SEQEND
  5
C23B
  8
0
  0
POLYLINE
  5
C23C
  8
0
 62
7
 66
1
 70
0
 10
0
 20
0
 30
0
  0
VERTEX
  5
C23D
  8
0
 62
7
 10
58.119712315660443
 20
16.11863779180123
 70
0
  0
VERTEX
  5
C23E
  8
0
 62
7
 10
59.178045648729181
 20
16.11863779180123
 70
0
  0
SEQEND
  5
C23F
  8
0
  0
POLYLINE
  5
C240
  8
0
 62
7
 66
1
 70
0
 10
0
 20
0
 30
0
  0
VERTEX
  5
C241
  8
0
 62
7
 10
59.178045648729181
 20
16.11863779180123
 70
0
  0
VERTEX
  5
C242
  8
0
 62
7
 10
60.1952100907492
 20
16.203903905061161
 70
0
  0
SEQEND
  5
C243
  8
0
  0
POLYLINE
  5
C244
  8
0
 62
7
 66
1
 70
0
 10
0
 20
0
 30
0
  0
VERTEX
  5
C245
  8
0
 62
7
 10
60.1952100907492
 20
16.203903905061161
 70
0
  0
VERTEX
  5
C246
  8
0
 62
7
 10
61.253543423817938
 20
16.330683418918369
 70
0
  0
SEQEND
  5
C247
  8
0
  0
POLYLINE
  5
C248
  8
0
 62
7
 66
1
 70
0
 10
0
 20
0
 30
0
  0
VERTEX
  5
C249
  8
0
 62
7
 10
61.253543423817938
 20
16.330683418918369
 70
0
  0
VERTEX
  5
C24A
  8
0
 62
7
 10
62.268813063321069
 20
16.50035437156691
 70
0
  0
SEQEND
  5
C24B
  8
0
  0
POLYLINE
  5
C24C
  8
0
 62
7
 66
1
 70
0
 10
0
 20
0
 30
0
  0
VERTEX
  5
C24D
  8
0
 62
7
 10
62.268813063321069
 20
16.50035437156691
 70
0
  0
VERTEX
  5
C24E
  8
0
 62
7
 10
63.284427212372719
 20
16.71084970571567
 70
0
  0
SEQEND
  5
C24F
  8
0
  0
POLYLINE
  5
C250
  8
0
 62
7
 66
1
 70
0
 10
0
 20
0
 30
0
  0
VERTEX
  5
C251
  8
0
 62
7
 10
63.284427212372719
 20
16.71084970571567
 70
0
  0
VERTEX
  5
C252
  8
0
 62
7
 10
64.300041361424377
 20
16.965959026398419
 70
0
  0
SEQEND
  5
C253
  8
0
  0
POLYLINE
  5
C254
  8
0
 62
7
 66
1
 70
0
 10
0
 20
0
 30
0
  0
VERTEX
  5
C255
  8
0
 62
7
 10
64.300041361424377
 20
16.965959026398419
 70
0
  0
VERTEX
  5
C256
  8
0
 62
7
 10
65.3172058034444
 20
17.303578383952921
 70
0
  0
SEQEND
  5
C257
  8
0
  0
POLYLINE
  5
C258
  8
0
 62
7
 66
1
 70
0
 10
0
 20
0
 30
0
  0
VERTEX
  5
C259
  8
0
 62
7
 10
65.3172058034444
 20
17.303578383952921
 70
0
  0
VERTEX
  5
C25A
  8
0
 62
7
 10
66.29010076847895
 20
17.64257577970147
 70
0
  0
SEQEND
  5
C25B
  8
0
  0
POLYLINE
  5
C25C
  8
0
 62
7
 66
1
 70
0
 10
0
 20
0
 30
0
  0
VERTEX
  5
C25D
  8
0
 62
7
 10
66.29010076847895
 20
17.64257577970147
 70
0
  0
VERTEX
  5
C25E
  8
0
 62
7
 10
67.221826842464765
 20
18.06563350529018
 70
0
  0
SEQEND
  5
C25F
  8
0
  0
POLYLINE
  5
C260
  8
0
 62
7
 66
1
 70
0
 10
0
 20
0
 30
0
  0
VERTEX
  5
C261
  8
0
 62
7
 10
67.221826842464765
 20
18.06563350529018
 70
0
  0
VERTEX
  5
C262
  8
0
 62
7
 10
68.195927590919155
 20
18.490069269072929
 70
0
  0
SEQEND
  5
C263
  8
0
  0
POLYLINE
  5
C264
  8
0
 62
7
 66
1
 70
0
 10
0
 20
0
 30
0
  0
VERTEX
  5
C265
  8
0
 62
7
 10
68.195927590919155
 20
18.490069269072929
 70
0
  0
VERTEX
  5
C266
  8
0
 62
7
 10
68.195927590919155
 20
18.490069269072929
 70
0
  0
SEQEND
  5
C267
  8
0
  0
POLYLINE
  5
C268
  8
0
 62
7
 66
1
 70
0
 10
0
 20
0
 30
0
  0
VERTEX
  5
C269
  8
0
 62
7
 10
75.7310404362576
 20
32.162964230932523
 70
0
  0
VERTEX
  5
C26A
  8
0
 62
7
 10
75.6042609224004
 20
29.835285466323459
 70
0
  0
SEQEND
  5
C26B
  8
0
  0
POLYLINE
  5
C26C
  8
0
 62
7
 66
1
 70
0
 10
0
 20
0
 30
0
  0
VERTEX
  5
C26D
  8
0
 62
7
 10
68.195927590919155
 20
18.490069269072929
 70
0
  0
VERTEX
  5
C26E
  8
0
 62
7
 10
68.999496112853677
 20
18.956018433452979
 70
0
  0
SEQEND
  5
C26F
  8
0
  0
POLYLINE
  5
C270
  8
0
 62
7
 66
1
 70
0
 10
0
 20
0
 30
0
  0
VERTEX
  5
C271
  8
0
 62
7
 10
68.999496112853677
 20
18.956018433452979
 70
0
  0
VERTEX
  5
C272
  8
0
 62
7
 10
69.804098163433778
 20
19.46296423410752
 70
0
  0
SEQEND
  5
C273
  8
0
  0
POLYLINE
  5
C274
  8
0
 62
7
 66
1
 70
0
 10
0
 20
0
 30
0
  0
VERTEX
  5
C275
  8
0
 62
7
 10
69.804098163433778
 20
19.46296423410752
 70
0
  0
VERTEX
  5
C276
  8
0
 62
7
 10
70.566153284771033
 20
20.01435176652177
 70
0
  0
SEQEND
  5
C277
  8
0
  0
POLYLINE
  5
C278
  8
0
 62
7
 66
1
 70
0
 10
0
 20
0
 30
0
  0
VERTEX
  5
C279
  8
0
 62
7
 10
70.566153284771033
 20
20.01435176652177
 70
0
  0
VERTEX
  5
C27A
  8
0
 62
7
 10
71.285489222091215
 20
20.647904826259211
 70
0
  0
SEQEND
  5
C27B
  8
0
  0
POLYLINE
  5
C27C
  8
0
 62
7
 66
1
 70
0
 10
0
 20
0
 30
0
  0
VERTEX
  5
C27D
  8
0
 62
7
 10
71.285489222091215
 20
20.647904826259211
 70
0
  0
VERTEX
  5
C27E
  8
0
 62
7
 10
71.963484013588371
 20
21.2833526885135
 70
0
  0
SEQEND
  5
C27F
  8
0
  0
POLYLINE
  5
C280
  8
0
 62
7
 66
1
 70
0
 10
0
 20
0
 30
0
  0
VERTEX
  5
C281
  8
0
 62
7
 10
71.963484013588371
 20
21.2833526885135
 70
0
  0
VERTEX
  5
C282
  8
0
 62
7
 10
72.598759621068453
 20
22.002516371059411
 70
0
  0
SEQEND
  5
C283
  8
0
  0
POLYLINE
  5
C284
  8
0
 62
7
 66
1
 70
0
 10
0
 20
0
 30
0
  0
VERTEX
  5
C285
  8
0
 62
7
 10
72.598759621068453
 20
22.002516371059411
 70
0
  0
VERTEX
  5
C286
  8
0
 62
7
 10
73.191316044531419
 20
22.764571492396669
 70
0
  0
SEQEND
  5
C287
  8
0
  0
POLYLINE
  5
C288
  8
0
 62
7
 66
1
 70
0
 10
0
 20
0
 30
0
  0
VERTEX
  5
C289
  8
0
 62
7
 10
73.191316044531419
 20
22.764571492396669
 70
0
  0
VERTEX
  5
C28A
  8
0
 62
7
 10
73.6984340999602
 20
23.5696903072996
 70
0
  0
SEQEND
  5
C28B
  8
0
  0
POLYLINE
  5
C28C
  8
0
 62
7
 66
1
 70
0
 10
0
 20
0
 30
0
  0
VERTEX
  5
C28D
  8
0
 62
7
 10
73.6984340999602
 20
23.5696903072996
 70
0
  0
VERTEX
  5
C28E
  8
0
 62
7
 10
74.164211009565975
 20
24.37429235787965
 70
0
  0
SEQEND
  5
C28F
  8
0
  0
POLYLINE
  5
C290
  8
0
 62
7
 66
1
 70
0
 10
0
 20
0
 30
0
  0
VERTEX
  5
C291
  8
0
 62
7
 10
74.164211009565975
 20
24.37429235787965
 70
0
  0
VERTEX
  5
C292
  8
0
 62
7
 10
74.545927589331654
 20
25.262954738299872
 70
0
  0
SEQEND
  5
C293
  8
0
  0
POLYLINE
  5
C294
  8
0
 62
7
 66
1
 70
0
 10
0
 20
0
 30
0
  0
VERTEX
  5
C295
  8
0
 62
7
 10
74.545927589331654
 20
25.262954738299872
 70
0
  0
VERTEX
  5
C296
  8
0
 62
7
 10
74.883546946886142
 20
26.151961628268619
 70
0
  0
SEQEND
  5
C297
  8
0
  0
POLYLINE
  5
C298
  8
0
 62
7
 66
1
 70
0
 10
0
 20
0
 30
0
  0
VERTEX
  5
C299
  8
0
 62
7
 10
74.883546946886142
 20
26.151961628268619
 70
0
  0
VERTEX
  5
C29A
  8
0
 62
7
 10
75.179825158617618
 20
27.040968518237321
 70
0
  0
SEQEND
  5
C29B
  8
0
  0
POLYLINE
  5
C29C
  8
0
 62
7
 66
1
 70
0
 10
0
 20
0
 30
0
  0
VERTEX
  5
C29D
  8
0
 62
7
 10
75.179825158617618
 20
27.040968518237321
 70
0
  0
VERTEX
  5
C29E
  8
0
 62
7
 10
75.392043040509009
 20
27.972350082674609
 70
0
  0
SEQEND
  5
C29F
  8
0
  0
POLYLINE
  5
C2A0
  8
0
 62
7
 66
1
 70
0
 10
0
 20
0
 30
0
  0
VERTEX
  5
C2A1
  8
0
 62
7
 10
75.392043040509009
 20
27.972350082674609
 70
0
  0
VERTEX
  5
C2A2
  8
0
 62
7
 10
75.561541738383312
 20
28.903903901886171
 70
0
  0
SEQEND
  5
C2A3
  8
0
  0
POLYLINE
  5
C2A4
  8
0
 62
7
 66
1
 70
0
 10
0
 20
0
 30
0
  0
VERTEX
  5
C2A5
  8
0
 62
7
 10
75.561541738383312
 20
28.903903901886171
 70
0
  0
VERTEX
  5
C2A6
  8
0
 62
7
 10
75.6042609224004
 20
29.835285466323459
 70
0
  0
SEQEND
  5
C2A7
  8
0
  0
POLYLINE
  5
C2A8
  8
0
 62
7
 66
1
 70
0
 10
0
 20
0
 30
0
  0
VERTEX
  5
C2A9
  8
0
 62
7
 10
75.6042609224004
 20
29.835285466323459
 70
0
  0
VERTEX
  5
C2AA
  8
0
 62
7
 10
75.6042609224004
 20
29.835285466323459
 70
0
  0
SEQEND
  5
C2AB
  8
0
  0
POLYLINE
  5
C2AC
  8
0
 62
7
 66
1
 70
0
 10
0
 20
0
 30
0
  0
VERTEX
  5
C2AD
  8
0
 62
7
 10
40.636541747114542
 20
29.835285466323459
 70
0
  0
VERTEX
  5
C2AE
  8
0
 62
7
 10
40.720429822180392
 20
28.903903901886171
 70
0
  0
SEQEND
  5
C2AF
  8
0
  0
POLYLINE
  5
C2B0
  8
0
 62
7
 66
1
 70
0
 10
0
 20
0
 30
0
  0
VERTEX
  5
C2B1
  8
0
 62
7
 10
40.720429822180392
 20
28.903903901886171
 70
0
  0
VERTEX
  5
C2B2
  8
0
 62
7
 10
40.8489318837802
 20
27.972350082674609
 70
0
  0
SEQEND
  5
C2B3
  8
0
  0
POLYLINE
  5
C2B4
  8
0
 62
7
 66
1
 70
0
 10
0
 20
0
 30
0
  0
VERTEX
  5
C2B5
  8
0
 62
7
 10
40.8489318837802
 20
27.972350082674609
 70
0
  0
VERTEX
  5
C2B6
  8
0
 62
7
 10
41.05942721792897
 20
27.040968518237321
 70
0
  0
SEQEND
  5
C2B7
  8
0
  0
POLYLINE
  5
C2B8
  8
0
 62
7
 66
1
 70
0
 10
0
 20
0
 30
0
  0
VERTEX
  5
C2B9
  8
0
 62
7
 10
41.05942721792897
 20
27.040968518237321
 70
0
  0
VERTEX
  5
C2BA
  8
0
 62
7
 10
41.355877684434709
 20
26.151961628268619
 70
0
  0
SEQEND
  5
C2BB
  8
0
  0
POLYLINE
  5
C2BC
  8
0
 62
7
 66
1
 70
0
 10
0
 20
0
 30
0
  0
VERTEX
  5
C2BD
  8
0
 62
7
 10
41.355877684434709
 20
26.151961628268619
 70
0
  0
VERTEX
  5
C2BE
  8
0
 62
7
 10
41.6948750801833
 20
25.262954738299872
 70
0
  0
SEQEND
  5
C2BF
  8
0
  0
POLYLINE
  5
C2C0
  8
0
 62
7
 66
1
 70
0
 10
0
 20
0
 30
0
  0
VERTEX
  5
C2C1
  8
0
 62
7
 10
41.6948750801833
 20
25.262954738299872
 70
0
  0
VERTEX
  5
C2C2
  8
0
 62
7
 10
42.11776055099773
 20
24.37429235787965
 70
0
  0
SEQEND
  5
C2C3
  8
0
  0
POLYLINE
  5
C2C4
  8
0
 62
7
 66
1
 70
0
 10
0
 20
0
 30
0
  0
VERTEX
  5
C2C5
  8
0
 62
7
 10
42.11776055099773
 20
24.37429235787965
 70
0
  0
VERTEX
  5
C2C6
  8
0
 62
7
 10
42.541162786134933
 20
23.5696903072996
 70
0
  0
SEQEND
  5
C2C7
  8
0
  0
POLYLINE
  5
C2C8
  8
0
 62
7
 66
1
 70
0
 10
0
 20
0
 30
0
  0
VERTEX
  5
C2C9
  8
0
 62
7
 10
42.541162786134933
 20
23.5696903072996
 70
0
  0
VERTEX
  5
C2CA
  8
0
 62
7
 10
43.092205809000639
 20
22.764571492396669
 70
0
  0
SEQEND
  5
C2CB
  8
0
  0
POLYLINE
  5
C2CC
  8
0
 62
7
 66
1
 70
0
 10
0
 20
0
 30
0
  0
VERTEX
  5
C2CD
  8
0
 62
7
 10
43.092205809000639
 20
22.764571492396669
 70
0
  0
VERTEX
  5
C2CE
  8
0
 62
7
 10
43.64221530322078
 20
22.002516371059411
 70
0
  0
SEQEND
  5
C2CF
  8
0
  0
POLYLINE
  5
C2D0
  8
0
 62
7
 66
1
 70
0
 10
0
 20
0
 30
0
  0
VERTEX
  5
C2D1
  8
0
 62
7
 10
43.64221530322078
 20
22.002516371059411
 70
0
  0
VERTEX
  5
C2D2
  8
0
 62
7
 10
44.277146401152322
 20
21.2833526885135
 70
0
  0
SEQEND
  5
C2D3
  8
0
  0
POLYLINE
  5
C2D4
  8
0
 62
7
 66
1
 70
0
 10
0
 20
0
 30
0
  0
VERTEX
  5
C2D5
  8
0
 62
7
 10
44.277146401152322
 20
21.2833526885135
 70
0
  0
VERTEX
  5
C2D6
  8
0
 62
7
 10
44.953763154455388
 20
20.647904826259211
 70
0
  0
SEQEND
  5
C2D7
  8
0
  0
POLYLINE
  5
C2D8
  8
0
 62
7
 66
1
 70
0
 10
0
 20
0
 30
0
  0
VERTEX
  5
C2D9
  8
0
 62
7
 10
44.953763154455388
 20
20.647904826259211
 70
0
  0
VERTEX
  5
C2DA
  8
0
 62
7
 10
45.674477129969652
 20
20.01435176652177
 70
0
  0
SEQEND
  5
C2DB
  8
0
  0
POLYLINE
  5
C2DC
  8
0
 62
7
 66
1
 70
0
 10
0
 20
0
 30
0
  0
VERTEX
  5
C2DD
  8
0
 62
7
 10
45.674477129969652
 20
20.01435176652177
 70
0
  0
VERTEX
  5
C2DE
  8
0
 62
7
 10
46.436876760855426
 20
19.46296423410752
 70
0
  0
SEQEND
  5
C2DF
  8
0
  0
POLYLINE
  5
C2E0
  8
0
 62
7
 66
1
 70
0
 10
0
 20
0
 30
0
  0
VERTEX
  5
C2E1
  8
0
 62
7
 10
46.436876760855426
 20
19.46296423410752
 70
0
  0
VERTEX
  5
C2E2
  8
0
 62
7
 10
47.240100773241437
 20
18.956018433452979
 70
0
  0
SEQEND
  5
C2E3
  8
0
  0
POLYLINE
  5
C2E4
  8
0
 62
7
 66
1
 70
0
 10
0
 20
0
 30
0
  0
VERTEX
  5
C2E5
  8
0
 62
7
 10
47.240100773241437
 20
18.956018433452979
 70
0
  0
VERTEX
  5
C2E6
  8
0
 62
7
 10
48.08759426261291
 20
18.490069269072929
 70
0
  0
SEQEND
  5
C2E7
  8
0
  0
POLYLINE
  5
C2E8
  8
0
 62
7
 66
1
 70
0
 10
0
 20
0
 30
0
  0
VERTEX
  5
C2E9
  8
0
 62
7
 10
48.08759426261291
 20
18.490069269072929
 70
0
  0
VERTEX
  5
C2EA
  8
0
 62
7
 10
48.08759426261291
 20
18.490069269072929
 70
0
  0
SEQEND
  5
C2EB
  8
0
  0
POLYLINE
  5
C2EC
  8
0
 62
7
 66
1
 70
0
 10
0
 20
0
 30
0
  0
VERTEX
  5
C2ED
  8
0
 62
7
 10
40.509762233257362
 20
32.162964230932523
 70
0
  0
VERTEX
  5
C2EE
  8
0
 62
7
 10
40.636541747114542
 20
29.835285466323459
 70
0
  0
SEQEND
  5
C2EF
  8
0
  0
POLYLINE
  5
C2F0
  8
0
 62
7
 66
1
 70
0
 10
0
 20
0
 30
0
  0
VERTEX
  5
C2F1
  8
0
 62
7
 10
48.08759426261291
 20
18.490069269072929
 70
0
  0
VERTEX
  5
C2F2
  8
0
 62
7
 10
49.019148081824447
 20
18.06563350529018
 70
0
  0
SEQEND
  5
C2F3
  8
0
  0
POLYLINE
  5
C2F4
  8
0
 62
7
 66
1
 70
0
 10
0
 20
0
 30
0
  0
VERTEX
  5
C2F5
  8
0
 62
7
 10
49.019148081824447
 20
18.06563350529018
 70
0
  0
VERTEX
  5
C2F6
  8
0
 62
7
 10
49.99221530163328
 20
17.64257577970147
 70
0
  0
SEQEND
  5
C2F7
  8
0
  0
POLYLINE
  5
C2F8
  8
0
 62
7
 66
1
 70
0
 10
0
 20
0
 30
0
  0
VERTEX
  5
C2F9
  8
0
 62
7
 10
49.99221530163328
 20
17.64257577970147
 70
0
  0
VERTEX
  5
C2FA
  8
0
 62
7
 10
50.9661437953134
 20
17.303578383952921
 70
0
  0
SEQEND
  5
C2FB
  8
0
  0
POLYLINE
  5
C2FC
  8
0
 62
7
 66
1
 70
0
 10
0
 20
0
 30
0
  0
VERTEX
  5
C2FD
  8
0
 62
7
 10
50.9661437953134
 20
17.303578383952921
 70
0
  0
VERTEX
  5
C2FE
  8
0
 62
7
 10
51.939211015122233
 20
16.965959026398419
 70
0
  0
SEQEND
  5
C2FF
  8
0
  0
POLYLINE
  5
C300
  8
0
 62
7
 66
1
 70
0
 10
0
 20
0
 30
0
  0
VERTEX
  5
C301
  8
0
 62
7
 10
51.939211015122233
 20
16.965959026398419
 70
0
  0
VERTEX
  5
C302
  8
0
 62
7
 10
52.954825164173862
 20
16.71084970571567
 70
0
  0
SEQEND
  5
C303
  8
0
  0
POLYLINE
  5
C304
  8
0
 62
7
 66
1
 70
0
 10
0
 20
0
 30
0
  0
VERTEX
  5
C305
  8
0
 62
7
 10
52.954825164173862
 20
16.71084970571567
 70
0
  0
VERTEX
  5
C306
  8
0
 62
7
 10
53.971817351419631
 20
16.50035437156691
 70
0
  0
SEQEND
  5
C307
  8
0
  0
POLYLINE
  5
C308
  8
0
 62
7
 66
1
 70
0
 10
0
 20
0
 30
0
  0
VERTEX
  5
C309
  8
0
 62
7
 10
53.971817351419631
 20
16.50035437156691
 70
0
  0
VERTEX
  5
C30A
  8
0
 62
7
 10
54.987431500471267
 20
16.330683418918369
 70
0
  0
SEQEND
  5
C30B
  8
0
  0
POLYLINE
  5
C30C
  8
0
 62
7
 66
1
 70
0
 10
0
 20
0
 30
0
  0
VERTEX
  5
C30D
  8
0
 62
7
 10
54.987431500471267
 20
16.330683418918369
 70
0
  0
VERTEX
  5
C30E
  8
0
 62
7
 10
56.045764833540026
 20
16.203903905061161
 70
0
  0
SEQEND
  5
C30F
  8
0
  0
POLYLINE
  5
C310
  8
0
 62
7
 66
1
 70
0
 10
0
 20
0
 30
0
  0
VERTEX
  5
C311
  8
0
 62
7
 10
56.045764833540026
 20
16.203903905061161
 70
0
  0
VERTEX
  5
C312
  8
0
 62
7
 10
57.061378982591677
 20
16.11863779180123
 70
0
  0
SEQEND
  5
C313
  8
0
  0
POLYLINE
  5
C314
  8
0
 62
7
 66
1
 70
0
 10
0
 20
0
 30
0
  0
VERTEX
  5
C315
  8
0
 62
7
 10
57.061378982591677
 20
16.11863779180123
 70
0
  0
VERTEX
  5
C316
  8
0
 62
7
 10
58.119712315660443
 20
16.11863779180123
 70
0
  0
SEQEND
  5
C317
  8
0
  0
POLYLINE
  5
C318
  8
0
 62
7
 66
1
 70
0
 10
0
 20
0
 30
0
  0
VERTEX
  5
C319
  8
0
 62
7
 10
58.119712315660443
 20
16.11863779180123
 70
0
  0
VERTEX
  5
C31A
  8
0
 62
7
 10
58.119712315660443
 20
16.11863779180123
 70
0
  0
SEQEND
  5
C31B
  8
0
  0
INSERT
  5
C329
  8
0
  2
SPECEL-WCE1700C
 10
120.8506358161027
 20
-1.3750000000000124
 30
0
 41
1
 42
1
 43
1
 50
0
  0
ENDSEC
999
Created By CadLib version 4.0.36.7
999
CadLib website: www.woutware.com
  0
EOF
