  0
SECTION
  2
HEADER
  9
$ACADVER
  1
AC1009
  9
$DWGCODEPAGE
  3
dos932
  9
$INSBASE
 10
0
 20
0
 30
0
  9
$EXTMIN
 10
-2.9579566435019684
 20
-8.0953276713580884
 30
0
  9
$EXTMAX
 10
141.67162705972959
 20
83.01790571827155
 30
0
  9
$LIMMIN
 10
0
 20
0
  9
$LIMMAX
 10
105.125
 20
74.25
  9
$SNAPMODE
 70
0
  9
$SNAPUNIT
 10
1
 20
1
  9
$SNAPBASE
 10
0
 20
0
  9
$SNAPANG
 50
0
  9
$SNAPSTYLE
 70
0
  9
$SNAPISOPAIR
 70
0
  9
$ORTHOMODE
 70
0
  9
$REGENMODE
 70
1
  9
$FILLMODE
 70
1
  9
$QTEXTMODE
 70
0
  9
$MIRRTEXT
 70
0
  9
$LTSCALE
 40
0.125
  9
$OSMODE
 70
37
  9
$ATTMODE
 70
1
  9
$TEXTSIZE
 40
0.2
  9
$TRACEWID
 40
0.05
  9
$TEXTSTYLE
  7
STANDARD
  9
$CLAYER
  8
0
  9
$CELTYPE
  6
CONTINUOUS
  9
$CECOLOR
 62
256
  9
$DIMSCALE
 40
1
  9
$DIMASZ
 40
0.18
  9
$DIMEXO
 40
0.0625
  9
$DIMDLI
 40
0.38
  9
$DIMRND
 40
0
  9
$DIMDLE
 40
0
  9
$DIMEXE
 40
0.18
  9
$DIMTP
 40
0
  9
$DIMTM
 40
0
  9
$DIMTXT
 40
0.18
  9
$DIMCEN
 40
0.09
  9
$DIMTSZ
 40
0
  9
$DIMTOL
 70
0
  9
$DIMLIM
 70
0
  9
$DIMTIH
 70
1
  9
$DIMTOH
 70
1
  9
$DIMSE1
 70
0
  9
$DIMSE2
 70
0
  9
$DIMTAD
 70
0
  9
$DIMZIN
 70
0
  9
$DIMBLK
  1

  9
$DIMASO
 70
1
  9
$DIMSHO
 70
1
  9
$DIMPOST
  1

  9
$DIMAPOST
  1

  9
$DIMALT
 70
0
  9
$DIMALTD
 70
2
  9
$DIMALTF
 40
25.4
  9
$DIMLFAC
 40
1
  9
$DIMTOFL
 70
0
  9
$DIMTVP
 40
0
  9
$DIMTIX
 70
0
  9
$DIMSOXD
 70
0
  9
$DIMSAH
 70
0
  9
$DIMBLK1
  1

  9
$DIMBLK2
  1

  9
$DIMSTYLE
  2
STANDARD
  9
$DIMCLRD
 70
0
  9
$DIMCLRE
 70
0
  9
$DIMCLRT
 70
0
  9
$DIMTFAC
 40
1
  9
$DIMGAP
 40
0.09
  9
$LUNITS
 70
2
  9
$LUPREC
 70
4
  9
$SKETCHINC
 40
0.1
  9
$FILLETRAD
 40
0
  9
$AUNITS
 70
0
  9
$AUPREC
 70
0
  9
$MENU
  1
.
  9
$ELEVATION
 40
0
  9
$PELEVATION
 40
0
  9
$THICKNESS
 40
0
  9
$LIMCHECK
 70
0
  9
$CHAMFERA
 40
0
  9
$CHAMFERB
 40
0
  9
$SKPOLY
 70
0
  9
$TDCREATE
 40
2456622.5523805902
  9
$TDUPDATE
 40
2456622.5983850579
  9
$TDINDWG
 40
0.0309996875
  9
$TDUSRTIMER
 40
0.03099957175925926
  9
$USRTIMER
 70
1
  9
$ANGBASE
 50
0
  9
$ANGDIR
 70
0
  9
$PDMODE
 70
0
  9
$PDSIZE
 40
0
  9
$PLINEWID
 40
0
  9
$SPLFRAME
 70
0
  9
$SPLINETYPE
 70
6
  9
$SPLINESEGS
 70
8
  9
$HANDLING
 70
1
  9
$HANDSEED
  5
CFE8
  9
$SURFTAB1
 70
6
  9
$SURFTAB2
 70
6
  9
$SURFTYPE
 70
6
  9
$SURFU
 70
6
  9
$SURFV
 70
6
  9
$UCSORG
 10
0
 20
0
 30
0
  9
$UCSXDIR
 10
1
 20
0
 30
0
  9
$UCSYDIR
 10
0
 20
1
 30
0
  9
$PUCSORG
 10
0
 20
0
 30
0
  9
$PUCSXDIR
 10
1
 20
0
 30
0
  9
$PUCSYDIR
 10
0
 20
1
 30
0
  9
$USERI1
 70
0
  9
$USERI2
 70
0
  9
$USERI3
 70
0
  9
$USERI4
 70
0
  9
$USERI5
 70
0
  9
$USERR1
 40
0
  9
$USERR2
 40
0
  9
$USERR3
 40
0
  9
$USERR4
 40
0
  9
$USERR5
 40
0
  9
$WORLDVIEW
 70
1
  9
$SHADEDGE
 70
3
  9
$SHADEDIF
 70
70
  9
$TILEMODE
 70
1
  9
$MAXACTVP
 70
64
  9
$PINSBASE
 10
0
 20
0
 30
0
  9
$PLIMCHECK
 70
0
  9
$PEXTMIN
 10
1E+20
 20
1E+20
 30
1E+20
  9
$PEXTMAX
 10
-1E+20
 20
-1E+20
 30
-1E+20
  9
$PLIMMAX
 10
12
 20
9
  9
$PLIMMIN
 10
0
 20
0
  9
$UNITMODE
 70
0
  9
$VISRETAIN
 70
1
  9
$PLINEGEN
 70
0
  9
$PSLTSCALE
 70
1
  9
$TREEDEPTH
 70
3020
  9
$DRAGMODE
 70
     2
  9
$BLIPMODE
 70
     0
  9
$COORDS
 70
     1
  9
$ATTDIA
 70
     0
  9
$ATTREQ
 70
     1
  0
ENDSEC
  0
SECTION
  2
TABLES
  0
TABLE
  2
VPORT
  5
CFDA
 70
1
  0
VPORT
  5
CFAE
  2
*ACTIVE
 70
0
 10
0
 20
0
 11
1
 21
1
 12
221.19503943538649
 22
9.78419794204882
 13
0
 23
0
 14
1
 24
1
 15
0
 25
0
 16
0
 26
0
 36
1
 17
0
 27
0
 37
0
 40
258.22157046140489
 41
2.3308823529411762
 42
50
 43
0
 44
0
 50
0
 51
0
 71
0
 72
100
 73
1
 74
1
 75
0
 76
0
 77
0
 78
0
  0
ENDTAB
  0
TABLE
  2
LTYPE
  5
CFDB
 70
40
  0
LTYPE
  5
CF84
  2
CONTINUOUS
  3
実線
 70
0
 72
65
 73
0
 40
0
  0
LTYPE
  5
CF85
  2
DASHED1
  3
--  --  --  --  --  --  --  --  
 70
0
 72
65
 73
2
 40
2.5
 49
1.25
 49
-1.25
  0
LTYPE
  5
CF86
  2
DASHED2
  3
----    ----    ----    ----    
 70
0
 72
65
 73
2
 40
5
 49
2.5
 49
-2.5
  0
LTYPE
  5
CF87
  2
DASHED3
  3
------  ------  ------  ------  
 70
0
 72
65
 73
2
 40
5
 49
3.75
 49
-1.25
  0
LTYPE
  5
CF88
  2
CENTER1
  3
----- - ----- - ----- - ----- - 
 70
0
 72
65
 73
4
 40
10
 49
6.25
 49
-1.25
 49
1.25
 49
-1.25
  0
LTYPE
  5
CF89
  2
CENTER2
  3
----------  --  ----------  --  
 70
0
 72
65
 73
4
 40
20
 49
12.5
 49
-2.5
 49
2.5
 49
-2.5
  0
LTYPE
  5
CF8A
  2
PHANTOM1
  3
--- - - --- - - --- - - --- - - 
 70
0
 72
65
 73
6
 40
9.5
 49
3.25
 49
-1.25
 49
1.25
 49
-1.25
 49
1.25
 49
-1.25
  0
LTYPE
  5
CF8B
  2
PHANTOM2
  3
--------  -  -  --------  -  -  
 70
0
 72
65
 73
6
 40
20
 49
10
 49
-2.5
 49
1.25
 49
-2.5
 49
1.25
 49
-2.5
  0
LTYPE
  5
CF8C
  2
DOT
  3
-   -   -   -   -   -   -   -   
 70
0
 72
65
 73
2
 40
2.5
 49
0.625
 49
-1.875
  0
LTYPE
  5
CF8D
  2
DUMMY
  3
ダミー
 70
0
 72
65
 73
0
 40
0
  0
LTYPE
  5
CF8E
  2
RAND1
  3
ランダム線1
 70
0
 72
65
 73
4
 40
10
 49
1
 49
-2
 49
3
 49
-4
  0
LTYPE
  5
CF8F
  2
RAND2
  3
ランダム線2
 70
0
 72
65
 73
4
 40
14
 49
2
 49
-3
 49
4
 49
-5
  0
LTYPE
  5
CF90
  2
RAND3
  3
ランダム線3
 70
0
 72
65
 73
4
 40
18
 49
3
 49
-4
 49
5
 49
-6
  0
LTYPE
  5
CF91
  2
RAND4
  3
ランダム線4
 70
0
 72
65
 73
4
 40
22
 49
4
 49
-5
 49
6
 49
-7
  0
LTYPE
  5
CF92
  2
RAND5
  3
ランダム線5
 70
0
 72
65
 73
4
 40
26
 49
5
 49
-6
 49
7
 49
-8
  0
LTYPE
  5
CF93
  2
LONG1
  3
----------  --  ----------  --  
 70
0
 72
65
 73
4
 40
40
 49
32.5
 49
-2.5
 49
2.5
 49
-2.5
  0
LTYPE
  5
CF94
  2
LONG2
  3
--------  -  -  --------  -  -  
 70
0
 72
65
 73
6
 40
40
 49
30
 49
-2.5
 49
1.25
 49
-2.5
 49
1.25
 49
-2.5
  0
LTYPE
  5
CF95
  2
LONG3
  3
+++++++++++++++..+++++++++++++++
 70
0
 72
65
 73
2
 40
40
 49
37.5
 49
-2.5
  0
LTYPE
  5
CF96
  2
LONG4
  3
+++++++++++++++..+++++++++++++++
 70
0
 72
65
 73
2
 40
80
 49
75
 49
-5
  0
LTYPE
  5
CF97
  2
LONG5
  3
----------  --  ----------  --  
 70
0
 72
65
 73
4
 40
60
 49
37.5
 49
-7.5
 49
7.5
 49
-7.5
  0
LTYPE
  5
CF98
  2
DASHED
  3
-------   -------------   ------
 70
0
 72
65
 73
2
 40
3.8
 49
3
 49
-0.8
  0
LTYPE
  5
CF99
  2
DASHED_SPACED
  3
----        --------        ----
 70
0
 72
65
 73
2
 40
12
 49
6
 49
-6
  0
LTYPE
  5
CF9A
  2
LONG_DASHED_DOTTED
  3
------------- --- --------------
 70
0
 72
65
 73
4
 40
15.25
 49
12
 49
-1.5
 49
0.25
 49
-1.5
  0
LTYPE
  5
CF9B
  2
LONG_DASHED_DOUBLE-DOTTED
  3
----------- --- --- ------------
 70
0
 72
65
 73
6
 40
17
 49
12
 49
-1.5
 49
0.25
 49
-1.5
 49
0.25
 49
-1.5
  0
LTYPE
  5
CF9C
  2
LONG_DASHED_TRIPLICATE-DOT
  3
--------- --- --- --- ----------
 70
0
 72
65
 73
8
 40
18.75
 49
12
 49
-1.5
 49
0.25
 49
-1.5
 49
0.25
 49
-1.5
 49
0.25
 49
-1.5
  0
LTYPE
  5
CF9D
  2
DOTTED
  3
   -       -       -       -    
 70
0
 72
65
 73
2
 40
1.75
 49
0.25
 49
-1.5
  0
LTYPE
  5
CF9E
  2
CHAIN
  3
-------------- -- --------------
 70
0
 72
65
 73
4
 40
18.5
 49
12
 49
-1.5
 49
3.5
 49
-1.5
  0
LTYPE
  5
CF9F
  2
CHAIN_DOUBLE_DASH
  3
------------ -- -- -------------
 70
0
 72
65
 73
6
 40
23.5
 49
12
 49
-1.5
 49
3.5
 49
-1.5
 49
3.5
 49
-1.5
  0
LTYPE
  5
CFA0
  2
DASHED_DOTTED
  3
-----------     -     ----------
 70
0
 72
65
 73
4
 40
9.25
 49
6
 49
-1.5
 49
0.25
 49
-1.5
  0
LTYPE
  5
CFA1
  2
DOUBLE-DASHED_DOTTED
  3
------   -----------   -   -----
 70
0
 72
65
 73
6
 40
16.75
 49
6
 49
-1.5
 49
6
 49
-1.5
 49
0.25
 49
-1.5
  0
LTYPE
  5
CFA2
  2
DASHED_DOUBLE-DOTTED
  3
---------    -    -    ---------
 70
0
 72
65
 73
6
 40
11
 49
6
 49
-1.5
 49
0.25
 49
-1.5
 49
0.25
 49
-1.5
  0
LTYPE
  5
CFA3
  2
DOUBLE-DASHED_DOUBLE-DOTTE
  3
-----   ---------   -   -   ----
 70
0
 72
65
 73
8
 40
18.5
 49
6
 49
-1.5
 49
6
 49
-1.5
 49
0.25
 49
-1.5
 49
0.25
 49
-1.5
  0
LTYPE
  5
CFA4
  2
DASHED_TRIPLICATE-DOTTED
  3
-------    -    -    -    ------
 70
0
 72
65
 73
8
 40
12.75
 49
6
 49
-1.5
 49
0.25
 49
-1.5
 49
0.25
 49
-1.5
 49
0.25
 49
-1.5
  0
LTYPE
  5
CFA5
  2
DOUBLE-DASHED_TRIPLICATE-D
  3
-----  ---------  -  -  -  -----
 70
0
 72
65
 73
10
 40
20.25
 49
6
 49
-1.5
 49
6
 49
-1.5
 49
0.25
 49
-1.5
 49
0.25
 49
-1.5
 49
0.25
 49
-1.5
  0
LTYPE
  5
CFA6
  2
UNDEFINED
  3
--------------------------------
 70
0
 72
65
 73
0
 40
0
  0
LTYPE
  5
CFA7
  2
DOT_18
  3
----        --------        ----
 70
0
 72
65
 73
2
 40
2
 49
1
 49
-1
  0
LTYPE
  5
CFA8
  2
DASHDOT
  3
------------   --   ------------
 70
0
 72
65
 73
4
 40
25.6
 49
20
 49
-2
 49
1.6
 49
-2
  0
LTYPE
  5
CFA9
  2
DIVIDE
  3
-----------  --  --  -----------
 70
0
 72
65
 73
6
 40
31.199999999999996
 49
20
 49
-2.399999999999999
 49
2
 49
-2.399999999999999
 49
2
 49
-2.399999999999999
  0
LTYPE
  5
CFAA
  2
ByBlock
  3

 70
64
 72
65
 73
0
 40
0
  0
LTYPE
  5
CFAB
  2
ByLayer
  3

 70
64
 72
65
 73
0
 40
0
  0
ENDTAB
  0
TABLE
  2
LAYER
  5
CFDC
 70
2
  0
LAYER
  5
CF6E
 70
0
  2
0
 62
7
  6
CONTINUOUS
  0
LAYER
  5
CF6F
 70
0
  2
SPEC
 62
7
  6
CONTINUOUS
  0
ENDTAB
  0
TABLE
  2
STYLE
  5
CFDD
 70
3
  0
STYLE
  5
CF81
  2
STANDARD
 70
0
 40
0
 41
1
 50
0
 71
0
 42
0.2
  3
txt.shx
  4
extfont2.shx
  0
STYLE
  5
CF82
  2
ANNOTATIVE
 70
0
 40
0
 41
1
 50
0
 71
0
 42
0.2
  3
txt
  0
STYLE
  5
CF83
  2
TATEGAKI
 70
4
 40
0
 41
1
 50
0
 71
0
 42
1
  3
txt
  4
bigfont.shx
  0
ENDTAB
  0
TABLE
  2
APPID
  5
CFE0
 70
4
  0
APPID
  5
CFE1
  2
ACAD
 70
0
  0
APPID
  5
CFE4
  2
ACADANNOTATIVE
 70
0
  0
APPID
  5
CFE5
  2
ACAD_MLEADERVER
 70
0
  0
APPID
  5
CFE6
  2
ACAD_EXEMPT_FROM_CAD_STANDARDS
 70
0
  0
ENDTAB
  0
TABLE
  2
DIMSTYLE
  5
CFE2
 70
2
  0
DIMSTYLE
105
CFAC
  2
STANDARD
 70
0
  3

  4

  5

  6

  7

 40
1
 41
0.18
 42
0.0625
 43
0.38
 44
0.18
 45
0
 46
0
 47
0
 48
0
140
0.18
141
0.09
142
0
143
25.4
144
1
145
0
146
1
147
0.09
 71
0
 72
0
 73
1
 74
1
 75
0
 76
0
 77
0
 78
0
170
0
171
2
172
0
173
0
174
0
175
0
176
0
177
0
178
0
  0
DIMSTYLE
105
CFAD
  2
ANNOTATIVE
 70
0
  3

  4

  5

  6

  7

 40
1
 41
0.18
 42
0.0625
 43
0.38
 44
0.18
 45
0
 46
0
 47
0
 48
0
140
0.18
141
0.09
142
0
143
25.4
144
1
145
0
146
1
147
0.09
 71
0
 72
0
 73
1
 74
1
 75
0
 76
0
 77
0
 78
0
170
0
171
2
172
0
173
0
174
0
175
0
176
0
177
0
178
0
  0
ENDTAB
  0
ENDSEC
  0
SECTION
  2
BLOCKS
  0
BLOCK
  5
CF71
  8
0
  2
$MODEL_SPACE
 70
0
 10
0
 20
0
 30
0
  3
$MODEL_SPACE
  0
ENDBLK
  5
CC40
  8
0
  0
BLOCK
  5
CF73
  8
0
 67
1
  2
$PAPER_SPACE
 70
0
 10
0
 20
0
 30
0
  3
$PAPER_SPACE
  0
ENDBLK
  5
CC3C
  8
0
  0
BLOCK
  5
CF75
  8
0
  2
SPECEL-WCE1702CK
 70
64
 10
0
 20
0
 30
0
  3
SPECEL-WCE1702CK
  0
TEXT
  5
CF76
  8
SPEC
 10
0
 20
0
 30
0
 40
1.5
  1
LED 口金:E17 Ra83
  7
STANDARD
  0
TEXT
  5
CF77
  8
SPEC
 10
0
 20
-3
 30
0
 40
1.5
  1
本体:ｱﾙﾐﾀﾞｲｶｽﾄ 黒色塗装仕上
  7
STANDARD
  0
ENDBLK
  5
CF78
  8
0
  0
BLOCK
  5
CF7A
  8
0
  2
*MODEL_SPACE
 70
64
 10
0
 20
0
 30
0
  3
*MODEL_SPACE
  0
ENDBLK
  5
CF7D
  8
0
  0
BLOCK
  5
CF7F
  8
0
 67
1
  2
*PAPER_SPACE
 70
64
 10
0
 20
0
 30
0
  3
*PAPER_SPACE
  0
ENDBLK
  5
CF80
  8
0
  0
ENDSEC
  0
SECTION
  2
ENTITIES
  0
TEXT
  5
A3
  8
0
 62
7
 10
-3.5582294022784482
 20
-7.3750000000000142
 30
0
 40
5
  1
三菱　ＥＬ－ＷＣＥ１７０２Ｃ/Ｋ
  7
STANDARD
  0
TEXT
  5
A4
  8
0
 62
7
 10
-3.5582294022784482
 20
76.624999999999986
 30
0
 40
5
  1
ＬＥＤ６Ｗ×１　シーリング
  7
STANDARD
  0
POLYLINE
  5
CDF2
  8
0
 62
7
 66
1
 70
0
 10
0
 20
0
 30
0
  0
VERTEX
  5
CDF3
  8
0
 62
7
 10
50.870833894256947
 20
42.187300624697741
 70
0
  0
VERTEX
  5
CDF4
  8
0
 62
7
 10
50.870833894256947
 20
38.799910488825851
 70
0
  0
SEQEND
  5
CDF5
  8
0
  0
POLYLINE
  5
CDF6
  8
0
 62
7
 66
1
 70
0
 10
0
 20
0
 30
0
  0
VERTEX
  5
CDF7
  8
0
 62
7
 10
69.198741875786084
 20
42.187300624697741
 70
0
  0
VERTEX
  5
CDF8
  8
0
 62
7
 10
69.114681545946
 20
38.926517747908811
 70
0
  0
SEQEND
  5
CDF9
  8
0
  0
POLYLINE
  5
CDFA
  8
0
 62
7
 66
1
 70
0
 10
0
 20
0
 30
0
  0
VERTEX
  5
CDFB
  8
0
 62
7
 10
69.495020087517574
 20
42.949355746034989
 70
0
  0
VERTEX
  5
CDFC
  8
0
 62
7
 10
69.453678941694577
 20
43.159851080183778
 70
0
  0
VERTEX
  5
CDFD
  8
0
 62
7
 10
69.368240573660373
 20
43.414960400866562
 70
0
  0
VERTEX
  5
CDFE
  8
0
 62
7
 10
69.198741875786084
 20
43.6259724993381
 70
0
  0
VERTEX
  5
CDFF
  8
0
 62
7
 10
68.987902032088783
 20
43.879187017503959
 70
0
  0
VERTEX
  5
CE00
  8
0
 62
7
 10
68.691623820357307
 20
44.091577154169613
 70
0
  0
VERTEX
  5
CE01
  8
0
 62
7
 10
68.352626424608729
 20
44.303967290835253
 70
0
  0
VERTEX
  5
CE02
  8
0
 62
7
 10
67.97228788303714
 20
44.514634879758262
 70
0
  0
VERTEX
  5
CE03
  8
0
 62
7
 10
67.506510973431361
 20
44.726852761649688
 70
0
  0
VERTEX
  5
CE04
  8
0
 62
7
 10
66.9980148798085
 20
44.896351459523927
 70
0
  0
VERTEX
  5
CE05
  8
0
 62
7
 10
66.448177640362616
 20
45.06447211920414
 70
0
  0
VERTEX
  5
CE06
  8
0
 62
7
 10
65.85562121689965
 20
45.233798562304173
 70
0
  0
VERTEX
  5
CE07
  8
0
 62
7
 10
65.220345609419581
 20
45.362300623903991
 70
0
  0
VERTEX
  5
CE08
  8
0
 62
7
 10
64.542350817922411
 20
45.488907882986943
 70
0
  0
VERTEX
  5
CE09
  8
0
 62
7
 10
63.823014880602251
 20
45.615515142069853
 70
0
  0
VERTEX
  5
CE0A
  8
0
 62
7
 10
63.103678943282077
 20
45.699919981458493
 70
0
  0
VERTEX
  5
CE0B
  8
0
 62
7
 10
62.3416238219448
 20
45.742639165475573
 70
0
  0
VERTEX
  5
CE0C
  8
0
 62
7
 10
61.579740955381808
 20
45.785186094718419
 70
0
  0
VERTEX
  5
CE0D
  8
0
 62
7
 10
60.817341324496027
 20
45.826527240541452
 70
0
  0
VERTEX
  5
CE0E
  8
0
 62
7
 10
60.014117312110017
 20
45.826527240541452
 70
0
  0
VERTEX
  5
CE0F
  8
0
 62
7
 10
59.252062190772762
 20
45.826527240541452
 70
0
  0
VERTEX
  5
CE10
  8
0
 62
7
 10
58.490007069435492
 20
45.785186094718419
 70
0
  0
VERTEX
  5
CE11
  8
0
 62
7
 10
57.728124202872493
 20
45.742639165475573
 70
0
  0
VERTEX
  5
CE12
  8
0
 62
7
 10
56.966069081535231
 20
45.699919981458493
 70
0
  0
VERTEX
  5
CE13
  8
0
 62
7
 10
56.24638863466653
 20
45.615515142069853
 70
0
  0
VERTEX
  5
CE14
  8
0
 62
7
 10
55.52705269734637
 20
45.488907882986943
 70
0
  0
VERTEX
  5
CE15
  8
0
 62
7
 10
54.849402415397734
 20
45.362300623903991
 70
0
  0
VERTEX
  5
CE16
  8
0
 62
7
 10
54.214126807917651
 20
45.233798562304173
 70
0
  0
VERTEX
  5
CE17
  8
0
 62
7
 10
53.621398129680429
 20
45.06447211920414
 70
0
  0
VERTEX
  5
CE18
  8
0
 62
7
 10
53.071388635460281
 20
44.896351459523927
 70
0
  0
VERTEX
  5
CE19
  8
0
 62
7
 10
52.56306479661167
 20
44.726852761649688
 70
0
  0
VERTEX
  5
CE1A
  8
0
 62
7
 10
52.140007071022993
 20
44.514634879758262
 70
0
  0
VERTEX
  5
CE1B
  8
0
 62
7
 10
51.717121600208571
 20
44.303967290835253
 70
0
  0
VERTEX
  5
CE1C
  8
0
 62
7
 10
51.37812420446
 20
44.091577154169613
 70
0
  0
VERTEX
  5
CE1D
  8
0
 62
7
 10
51.08167373795424
 20
43.879187017503959
 70
0
  0
VERTEX
  5
CE1E
  8
0
 62
7
 10
50.870833894256947
 20
43.6259724993381
 70
0
  0
VERTEX
  5
CE1F
  8
0
 62
7
 10
50.701507451156928
 20
43.414960400866562
 70
0
  0
VERTEX
  5
CE20
  8
0
 62
7
 10
50.616069083122717
 20
43.159851080183778
 70
0
  0
VERTEX
  5
CE21
  8
0
 62
7
 10
50.5743834277512
 20
42.949355746034989
 70
0
  0
SEQEND
  5
CE22
  8
0
  0
POLYLINE
  5
CE23
  8
0
 62
7
 66
1
 70
0
 10
0
 20
0
 30
0
  0
VERTEX
  5
CE24
  8
0
 62
7
 10
69.495020087517574
 20
42.187300624697741
 70
0
  0
VERTEX
  5
CE25
  8
0
 62
7
 10
69.453678941694577
 20
42.4405151428636
 70
0
  0
VERTEX
  5
CE26
  8
0
 62
7
 10
69.368240573660373
 20
42.694246425352269
 70
0
  0
VERTEX
  5
CE27
  8
0
 62
7
 10
69.198741875786084
 20
42.906636562017923
 70
0
  0
VERTEX
  5
CE28
  8
0
 62
7
 10
68.987902032088783
 20
43.159851080183778
 70
0
  0
VERTEX
  5
CE29
  8
0
 62
7
 10
68.691623820357307
 20
43.372241216849417
 70
0
  0
VERTEX
  5
CE2A
  8
0
 62
7
 10
68.352626424608729
 20
43.583253315320967
 70
0
  0
VERTEX
  5
CE2B
  8
0
 62
7
 10
67.97228788303714
 20
43.79529894243813
 70
0
  0
VERTEX
  5
CE2C
  8
0
 62
7
 10
67.506510973431361
 20
44.007516824329507
 70
0
  0
VERTEX
  5
CE2D
  8
0
 62
7
 10
66.9980148798085
 20
44.175465229235442
 70
0
  0
VERTEX
  5
CE2E
  8
0
 62
7
 10
66.448177640362616
 20
44.345136181884008
 70
0
  0
VERTEX
  5
CE2F
  8
0
 62
7
 10
65.85562121689965
 20
44.514634879758262
 70
0
  0
VERTEX
  5
CE30
  8
0
 62
7
 10
65.220345609419581
 20
44.641586648389762
 70
0
  0
VERTEX
  5
CE31
  8
0
 62
7
 10
64.542350817922411
 20
44.768193907472657
 70
0
  0
VERTEX
  5
CE32
  8
0
 62
7
 10
63.823014880602251
 20
44.853632275506868
 70
0
  0
VERTEX
  5
CE33
  8
0
 62
7
 10
63.103678943282077
 20
44.980584044138311
 70
0
  0
VERTEX
  5
CE34
  8
0
 62
7
 10
62.3416238219448
 20
45.023303228155442
 70
0
  0
VERTEX
  5
CE35
  8
0
 62
7
 10
61.579740955381808
 20
45.06447211920414
 70
0
  0
VERTEX
  5
CE36
  8
0
 62
7
 10
60.817341324496027
 20
45.107191303221271
 70
0
  0
VERTEX
  5
CE37
  8
0
 62
7
 10
60.014117312110017
 20
45.107191303221271
 70
0
  0
VERTEX
  5
CE38
  8
0
 62
7
 10
59.252062190772762
 20
45.107191303221271
 70
0
  0
VERTEX
  5
CE39
  8
0
 62
7
 10
58.490007069435492
 20
45.06447211920414
 70
0
  0
VERTEX
  5
CE3A
  8
0
 62
7
 10
57.728124202872493
 20
45.023303228155442
 70
0
  0
VERTEX
  5
CE3B
  8
0
 62
7
 10
56.966069081535231
 20
44.980584044138311
 70
0
  0
VERTEX
  5
CE3C
  8
0
 62
7
 10
56.24638863466653
 20
44.853632275506868
 70
0
  0
VERTEX
  5
CE3D
  8
0
 62
7
 10
55.52705269734637
 20
44.768193907472657
 70
0
  0
VERTEX
  5
CE3E
  8
0
 62
7
 10
54.849402415397734
 20
44.641586648389762
 70
0
  0
VERTEX
  5
CE3F
  8
0
 62
7
 10
54.214126807917651
 20
44.514634879758262
 70
0
  0
VERTEX
  5
CE40
  8
0
 62
7
 10
53.621398129680429
 20
44.345136181884008
 70
0
  0
VERTEX
  5
CE41
  8
0
 62
7
 10
53.071388635460281
 20
44.175465229235442
 70
0
  0
VERTEX
  5
CE42
  8
0
 62
7
 10
52.56306479661167
 20
44.007516824329507
 70
0
  0
VERTEX
  5
CE43
  8
0
 62
7
 10
52.140007071022993
 20
43.79529894243813
 70
0
  0
VERTEX
  5
CE44
  8
0
 62
7
 10
51.717121600208571
 20
43.583253315320967
 70
0
  0
VERTEX
  5
CE45
  8
0
 62
7
 10
51.37812420446
 20
43.372241216849417
 70
0
  0
VERTEX
  5
CE46
  8
0
 62
7
 10
51.08167373795424
 20
43.159851080183778
 70
0
  0
VERTEX
  5
CE47
  8
0
 62
7
 10
50.870833894256947
 20
42.906636562017923
 70
0
  0
VERTEX
  5
CE48
  8
0
 62
7
 10
50.701507451156928
 20
42.694246425352269
 70
0
  0
VERTEX
  5
CE49
  8
0
 62
7
 10
50.616069083122717
 20
42.4405151428636
 70
0
  0
VERTEX
  5
CE4A
  8
0
 62
7
 10
50.5743834277512
 20
42.187300624697741
 70
0
  0
SEQEND
  5
CE4B
  8
0
  0
POLYLINE
  5
CE4C
  8
0
 62
7
 66
1
 70
0
 10
0
 20
0
 30
0
  0
VERTEX
  5
CE4D
  8
0
 62
7
 10
69.453678941694577
 20
38.419571947254269
 70
0
  0
VERTEX
  5
CE4E
  8
0
 62
7
 10
69.326899427837375
 20
38.673303229742942
 70
0
  0
VERTEX
  5
CE4F
  8
0
 62
7
 10
69.157400729963086
 20
38.885348856860048
 70
0
  0
VERTEX
  5
CE50
  8
0
 62
7
 10
68.9024636640546
 20
39.138907884574451
 70
0
  0
VERTEX
  5
CE51
  8
0
 62
7
 10
68.56484430650012
 20
39.3512980212401
 70
0
  0
VERTEX
  5
CE52
  8
0
 62
7
 10
68.18312772673444
 20
39.60451253940596
 70
0
  0
VERTEX
  5
CE53
  8
0
 62
7
 10
67.760070001145735
 20
39.816902676071606
 70
0
  0
VERTEX
  5
CE54
  8
0
 62
7
 10
67.251573907522882
 20
39.984851080977528
 70
0
  0
VERTEX
  5
CE55
  8
0
 62
7
 10
66.6590174840599
 20
40.197241217643182
 70
0
  0
VERTEX
  5
CE56
  8
0
 62
7
 10
66.066461060596936
 20
40.366567660743222
 70
0
  0
VERTEX
  5
CE57
  8
0
 62
7
 10
65.431185453116868
 20
40.493519429374651
 70
0
  0
VERTEX
  5
CE58
  8
0
 62
7
 10
64.7545686998138
 20
40.662845872474684
 70
0
  0
VERTEX
  5
CE59
  8
0
 62
7
 10
63.992513578476533
 20
40.74725071186333
 70
0
  0
VERTEX
  5
CE5A
  8
0
 62
7
 10
63.230286202365008
 20
40.873857970946233
 70
0
  0
VERTEX
  5
CE5B
  8
0
 62
7
 10
62.468403335802009
 20
40.916577154963363
 70
0
  0
VERTEX
  5
CE5C
  8
0
 62
7
 10
61.665007068641742
 20
41.002015522997567
 70
0
  0
VERTEX
  5
CE5D
  8
0
 62
7
 10
60.860405018061641
 20
41.002015522997567
 70
0
  0
VERTEX
  5
CE5E
  8
0
 62
7
 10
60.014117312110017
 20
41.043184414046259
 70
0
  0
VERTEX
  5
CE5F
  8
0
 62
7
 10
59.20934300675566
 20
41.002015522997567
 70
0
  0
VERTEX
  5
CE60
  8
0
 62
7
 10
58.404740956175559
 20
41.002015522997567
 70
0
  0
VERTEX
  5
CE61
  8
0
 62
7
 10
57.601000179466759
 20
40.916577154963363
 70
0
  0
VERTEX
  5
CE62
  8
0
 62
7
 10
56.83911731290376
 20
40.873857970946233
 70
0
  0
VERTEX
  5
CE63
  8
0
 62
7
 10
56.077062191566512
 20
40.74725071186333
 70
0
  0
VERTEX
  5
CE64
  8
0
 62
7
 10
55.357726254246337
 20
40.662845872474684
 70
0
  0
VERTEX
  5
CE65
  8
0
 62
7
 10
54.638390316926177
 20
40.493519429374651
 70
0
  0
VERTEX
  5
CE66
  8
0
 62
7
 10
54.003114709446109
 20
40.366567660743222
 70
0
  0
VERTEX
  5
CE67
  8
0
 62
7
 10
53.367666847191771
 20
40.197241217643182
 70
0
  0
VERTEX
  5
CE68
  8
0
 62
7
 10
52.85934300834316
 20
39.984851080977528
 70
0
  0
VERTEX
  5
CE69
  8
0
 62
7
 10
52.352052698140113
 20
39.816902676071606
 70
0
  0
VERTEX
  5
CE6A
  8
0
 62
7
 10
51.8864480433086
 20
39.60451253940596
 70
0
  0
VERTEX
  5
CE6B
  8
0
 62
7
 10
51.504731463542917
 20
39.3512980212401
 70
0
  0
VERTEX
  5
CE6C
  8
0
 62
7
 10
51.16711210598843
 20
39.138907884574451
 70
0
  0
VERTEX
  5
CE6D
  8
0
 62
7
 10
50.95472196932279
 20
38.885348856860048
 70
0
  0
VERTEX
  5
CE6E
  8
0
 62
7
 10
50.74405438039976
 20
38.673303229742942
 70
0
  0
VERTEX
  5
CE6F
  8
0
 62
7
 10
50.616069083122717
 20
38.419571947254269
 70
0
  0
SEQEND
  5
CE70
  8
0
  0
POLYLINE
  5
CE71
  8
0
 62
7
 66
1
 70
0
 10
0
 20
0
 30
0
  0
VERTEX
  5
CE72
  8
0
 62
7
 10
69.623177639568866
 20
37.827015523791317
 70
0
  0
VERTEX
  5
CE73
  8
0
 62
7
 10
69.623177639568866
 20
38.037855367488589
 70
0
  0
VERTEX
  5
CE74
  8
0
 62
7
 10
69.495020087517574
 20
38.292964688171367
 70
0
  0
VERTEX
  5
CE75
  8
0
 62
7
 10
69.368240573660373
 20
38.503632277094368
 70
0
  0
VERTEX
  5
CE76
  8
0
 62
7
 10
69.114681545946
 20
38.758569343002868
 70
0
  0
VERTEX
  5
CE77
  8
0
 62
7
 10
68.86112251823161
 20
38.969236931925877
 70
0
  0
VERTEX
  5
CE78
  8
0
 62
7
 10
68.479405938465916
 20
39.22296821441455
 70
0
  0
VERTEX
  5
CE79
  8
0
 62
7
 10
68.099067396894341
 20
39.435186096305927
 70
0
  0
VERTEX
  5
CE7A
  8
0
 62
7
 10
67.633290487288562
 20
39.60451253940596
 70
0
  0
VERTEX
  5
CE7B
  8
0
 62
7
 10
67.124794393665681
 20
39.816902676071606
 70
0
  0
VERTEX
  5
CE7C
  8
0
 62
7
 10
66.532237970202715
 20
39.984851080977528
 70
0
  0
VERTEX
  5
CE7D
  8
0
 62
7
 10
65.939681546739735
 20
40.113353142577353
 70
0
  0
VERTEX
  5
CE7E
  8
0
 62
7
 10
65.304405939259667
 20
40.281301547483267
 70
0
  0
VERTEX
  5
CE7F
  8
0
 62
7
 10
64.6277891859566
 20
40.366567660743222
 70
0
  0
VERTEX
  5
CE80
  8
0
 62
7
 10
63.908453248636441
 20
40.493519429374651
 70
0
  0
VERTEX
  5
CE81
  8
0
 62
7
 10
63.146398127299179
 20
40.57757975921475
 70
0
  0
VERTEX
  5
CE82
  8
0
 62
7
 10
62.38434300596191
 20
40.662845872474684
 70
0
  0
VERTEX
  5
CE83
  8
0
 62
7
 10
61.62246013939891
 20
40.705565056491807
 70
0
  0
VERTEX
  5
CE84
  8
0
 62
7
 10
60.817341324496027
 20
40.705565056491807
 70
0
  0
VERTEX
  5
CE85
  8
0
 62
7
 10
60.014117312110017
 20
40.74725071186333
 70
0
  0
VERTEX
  5
CE86
  8
0
 62
7
 10
59.252062190772762
 20
40.705565056491807
 70
0
  0
VERTEX
  5
CE87
  8
0
 62
7
 10
58.447460140192661
 20
40.705565056491807
 70
0
  0
VERTEX
  5
CE88
  8
0
 62
7
 10
57.685405018855391
 20
40.662845872474684
 70
0
  0
VERTEX
  5
CE89
  8
0
 62
7
 10
56.92300538796961
 20
40.57757975921475
 70
0
  0
VERTEX
  5
CE8A
  8
0
 62
7
 10
56.16112252140659
 20
40.493519429374651
 70
0
  0
VERTEX
  5
CE8B
  8
0
 62
7
 10
55.441786584086437
 20
40.366567660743222
 70
0
  0
VERTEX
  5
CE8C
  8
0
 62
7
 10
54.765169830783371
 20
40.239960401660312
 70
0
  0
VERTEX
  5
CE8D
  8
0
 62
7
 10
54.12972196852904
 20
40.113353142577353
 70
0
  0
VERTEX
  5
CE8E
  8
0
 62
7
 10
53.537337799840323
 20
39.984851080977528
 70
0
  0
VERTEX
  5
CE8F
  8
0
 62
7
 10
52.94478137637735
 20
39.816902676071606
 70
0
  0
VERTEX
  5
CE90
  8
0
 62
7
 10
52.436457537528739
 20
39.60451253940596
 70
0
  0
VERTEX
  5
CE91
  8
0
 62
7
 10
51.970336118374441
 20
39.392639167063066
 70
0
  0
VERTEX
  5
CE92
  8
0
 62
7
 10
51.590169831577107
 20
39.22296821441455
 70
0
  0
VERTEX
  5
CE93
  8
0
 62
7
 10
51.251000181054273
 20
38.969236931925877
 70
0
  0
VERTEX
  5
CE94
  8
0
 62
7
 10
50.95472196932279
 20
38.758569343002868
 70
0
  0
VERTEX
  5
CE95
  8
0
 62
7
 10
50.74405438039976
 20
38.503632277094368
 70
0
  0
VERTEX
  5
CE96
  8
0
 62
7
 10
50.5743834277512
 20
38.292964688171367
 70
0
  0
VERTEX
  5
CE97
  8
0
 62
7
 10
50.44777616866827
 20
38.037855367488589
 70
0
  0
VERTEX
  5
CE98
  8
0
 62
7
 10
50.44777616866827
 20
37.784296339774187
 70
0
  0
SEQEND
  5
CE99
  8
0
  0
POLYLINE
  5
CE9A
  8
0
 62
7
 66
1
 70
0
 10
0
 20
0
 30
0
  0
VERTEX
  5
CE9B
  8
0
 62
7
 10
69.495020087517574
 20
41.891022412966258
 70
0
  0
VERTEX
  5
CE9C
  8
0
 62
7
 10
69.495020087517574
 20
42.949355746034989
 70
0
  0
SEQEND
  5
CE9D
  8
0
  0
POLYLINE
  5
CE9E
  8
0
 62
7
 66
1
 70
0
 10
0
 20
0
 30
0
  0
VERTEX
  5
CE9F
  8
0
 62
7
 10
50.5743834277512
 20
41.891022412966258
 70
0
  0
VERTEX
  5
CEA0
  8
0
 62
7
 10
50.5743834277512
 20
42.949355746034989
 70
0
  0
SEQEND
  5
CEA1
  8
0
  0
POLYLINE
  5
CEA2
  8
0
 62
7
 66
1
 70
0
 10
0
 20
0
 30
0
  0
VERTEX
  5
CEA3
  8
0
 62
7
 10
68.056348212877239
 20
22.756617578340151
 70
0
  0
VERTEX
  5
CEA4
  8
0
 62
7
 10
67.59057130327146
 20
22.9690077150058
 70
0
  0
VERTEX
  5
CEA5
  8
0
 62
7
 10
67.124794393665681
 20
23.181397851671449
 70
0
  0
VERTEX
  5
CEA6
  8
0
 62
7
 10
66.532237970202715
 20
23.34934625657738
 70
0
  0
VERTEX
  5
CEA7
  8
0
 62
7
 10
65.939681546739735
 20
23.51901720922595
 70
0
  0
VERTEX
  5
CEA8
  8
0
 62
7
 10
65.304405939259667
 20
23.68834365232598
 70
0
  0
VERTEX
  5
CEA9
  8
0
 62
7
 10
64.5850700019395
 20
23.814950911408911
 70
0
  0
VERTEX
  5
CEAA
  8
0
 62
7
 10
63.865734064619339
 20
23.90073378899163
 70
0
  0
VERTEX
  5
CEAB
  8
0
 62
7
 10
63.146398127299179
 20
24.027341048074561
 70
0
  0
VERTEX
  5
CEAC
  8
0
 62
7
 10
62.3416238219448
 20
24.07006023209167
 70
0
  0
VERTEX
  5
CEAD
  8
0
 62
7
 10
61.579740955381808
 20
24.11122912314039
 70
0
  0
VERTEX
  5
CEAE
  8
0
 62
7
 10
60.776000178673009
 20
24.1539483071575
 70
0
  0
VERTEX
  5
CEAF
  8
0
 62
7
 10
59.971398128092929
 20
24.1539483071575
 70
0
  0
VERTEX
  5
CEB0
  8
0
 62
7
 10
59.166623822738551
 20
24.1539483071575
 70
0
  0
VERTEX
  5
CEB1
  8
0
 62
7
 10
58.363055300804028
 20
24.11122912314039
 70
0
  0
VERTEX
  5
CEB2
  8
0
 62
7
 10
57.558453250223927
 20
24.07006023209167
 70
0
  0
VERTEX
  5
CEB3
  8
0
 62
7
 10
56.796398128886679
 20
23.984621864057459
 70
0
  0
VERTEX
  5
CEB4
  8
0
 62
7
 10
56.077062191566512
 20
23.90073378899163
 70
0
  0
VERTEX
  5
CEB5
  8
0
 62
7
 10
55.357726254246337
 20
23.773782020360159
 70
0
  0
VERTEX
  5
CEB6
  8
0
 62
7
 10
54.679731462749182
 20
23.645624468308881
 70
0
  0
VERTEX
  5
CEB7
  8
0
 62
7
 10
54.0458338934632
 20
23.477331553854409
 70
0
  0
VERTEX
  5
CEB8
  8
0
 62
7
 10
53.410386031208873
 20
23.30800511075438
 70
0
  0
VERTEX
  5
CEB9
  8
0
 62
7
 10
52.902062192360262
 20
23.138334158105831
 70
0
  0
VERTEX
  5
CEBA
  8
0
 62
7
 10
52.394771882157222
 20
22.9262885309887
 70
0
  0
VERTEX
  5
CEBB
  8
0
 62
7
 10
51.970336118374441
 20
22.715448687291431
 70
0
  0
SEQEND
  5
CEBC
  8
0
  0
POLYLINE
  5
CEBD
  8
0
 62
7
 66
1
 70
0
 10
0
 20
0
 30
0
  0
VERTEX
  5
CEBE
  8
0
 62
7
 10
69.453678941694577
 20
21.234057628633991
 70
0
  0
VERTEX
  5
CEBF
  8
0
 62
7
 10
69.623177639568866
 20
37.827015523791317
 70
0
  0
SEQEND
  5
CEC0
  8
0
  0
POLYLINE
  5
CEC1
  8
0
 62
7
 66
1
 70
0
 10
0
 20
0
 30
0
  0
VERTEX
  5
CEC2
  8
0
 62
7
 10
50.701507451156928
 20
21.234057628633991
 70
0
  0
VERTEX
  5
CEC3
  8
0
 62
7
 10
50.74405438039976
 20
20.978948307951239
 70
0
  0
VERTEX
  5
CEC4
  8
0
 62
7
 10
50.828114710239859
 20
20.72573378978538
 70
0
  0
VERTEX
  5
CEC5
  8
0
 62
7
 10
50.9977856628884
 20
20.472002507296711
 70
0
  0
VERTEX
  5
CEC6
  8
0
 62
7
 10
51.251000181054273
 20
20.259612370631061
 70
0
  0
VERTEX
  5
CEC7
  8
0
 62
7
 10
51.590169831577107
 20
20.0063978524652
 70
0
  0
VERTEX
  5
CEC8
  8
0
 62
7
 10
51.970336118374441
 20
19.794007715799552
 70
0
  0
VERTEX
  5
CEC9
  8
0
 62
7
 10
52.394771882157222
 20
19.58299561732801
 70
0
  0
VERTEX
  5
CECA
  8
0
 62
7
 10
52.902062192360262
 20
19.370949990210871
 70
0
  0
VERTEX
  5
CECB
  8
0
 62
7
 10
53.452071686580389
 20
19.20127903756233
 70
0
  0
VERTEX
  5
CECC
  8
0
 62
7
 10
54.0458338934632
 20
19.0319525944623
 70
0
  0
VERTEX
  5
CECD
  8
0
 62
7
 10
54.722450646766269
 20
18.86228164181372
 70
0
  0
VERTEX
  5
CECE
  8
0
 62
7
 10
55.399067400069342
 20
18.735674382730789
 70
0
  0
VERTEX
  5
CECF
  8
0
 62
7
 10
56.119781375583592
 20
18.609067123647861
 70
0
  0
VERTEX
  5
CED0
  8
0
 62
7
 10
56.881836496920869
 20
18.481943100242152
 70
0
  0
VERTEX
  5
CED1
  8
0
 62
7
 10
57.642341325289777
 20
18.439396170999309
 70
0
  0
VERTEX
  5
CED2
  8
0
 62
7
 10
58.447460140192661
 20
18.35533584115921
 70
0
  0
VERTEX
  5
CED3
  8
0
 62
7
 10
59.252062190772762
 20
18.35533584115921
 70
0
  0
VERTEX
  5
CED4
  8
0
 62
7
 10
60.055286203158751
 20
18.312616657142112
 70
0
  0
VERTEX
  5
CED5
  8
0
 62
7
 10
60.903124202078743
 20
18.35533584115921
 70
0
  0
VERTEX
  5
CED6
  8
0
 62
7
 10
61.70634821446474
 20
18.35533584115921
 70
0
  0
VERTEX
  5
CED7
  8
0
 62
7
 10
62.510950265044841
 20
18.439396170999309
 70
0
  0
VERTEX
  5
CED8
  8
0
 62
7
 10
63.27300538638211
 20
18.481943100242152
 70
0
  0
VERTEX
  5
CED9
  8
0
 62
7
 10
64.035232762493635
 20
18.609067123647861
 70
0
  0
VERTEX
  5
CEDA
  8
0
 62
7
 10
64.7545686998138
 20
18.735674382730789
 70
0
  0
VERTEX
  5
CEDB
  8
0
 62
7
 10
65.431185453116868
 20
18.86228164181372
 70
0
  0
VERTEX
  5
CEDC
  8
0
 62
7
 10
66.109180244614038
 20
19.0319525944623
 70
0
  0
VERTEX
  5
CEDD
  8
0
 62
7
 10
66.701736668077
 20
19.20127903756233
 70
0
  0
VERTEX
  5
CEDE
  8
0
 62
7
 10
67.251573907522882
 20
19.370949990210871
 70
0
  0
VERTEX
  5
CEDF
  8
0
 62
7
 10
67.760070001145735
 20
19.58299561732801
 70
0
  0
VERTEX
  5
CEE0
  8
0
 62
7
 10
68.18312772673444
 20
19.794007715799552
 70
0
  0
VERTEX
  5
CEE1
  8
0
 62
7
 10
68.56484430650012
 20
20.0063978524652
 70
0
  0
VERTEX
  5
CEE2
  8
0
 62
7
 10
68.86112251823161
 20
20.259612370631061
 70
0
  0
VERTEX
  5
CEE3
  8
0
 62
7
 10
69.114681545946
 20
20.472002507296711
 70
0
  0
VERTEX
  5
CEE4
  8
0
 62
7
 10
69.284180243820288
 20
20.72573378978538
 70
0
  0
VERTEX
  5
CEE5
  8
0
 62
7
 10
69.410959757677475
 20
20.978948307951239
 70
0
  0
VERTEX
  5
CEE6
  8
0
 62
7
 10
69.453678941694577
 20
21.234057628633991
 70
0
  0
SEQEND
  5
CEE7
  8
0
  0
POLYLINE
  5
CEE8
  8
0
 62
7
 66
1
 70
0
 10
0
 20
0
 30
0
  0
VERTEX
  5
CEE9
  8
0
 62
7
 10
68.7756841501974
 20
43.033243821100882
 70
0
  0
VERTEX
  5
CEEA
  8
0
 62
7
 10
68.395345608625831
 20
43.245633957766522
 70
0
  0
VERTEX
  5
CEEB
  8
0
 62
7
 10
68.013629028860137
 20
43.456301546689531
 70
0
  0
VERTEX
  5
CEEC
  8
0
 62
7
 10
67.547852119254372
 20
43.6685194285809
 70
0
  0
VERTEX
  5
CEED
  8
0
 62
7
 10
67.0407340638256
 20
43.879187017503959
 70
0
  0
VERTEX
  5
CEEE
  8
0
 62
7
 10
66.489518786185613
 20
44.048857970152483
 70
0
  0
VERTEX
  5
CEEF
  8
0
 62
7
 10
65.896962362722647
 20
44.218184413252509
 70
0
  0
VERTEX
  5
CEF0
  8
0
 62
7
 10
65.220345609419581
 20
44.345136181884008
 70
0
  0
VERTEX
  5
CEF1
  8
0
 62
7
 10
64.542350817922411
 20
44.471915695741181
 70
0
  0
VERTEX
  5
CEF2
  8
0
 62
7
 10
63.823014880602251
 20
44.599900993018188
 70
0
  0
VERTEX
  5
CEF3
  8
0
 62
7
 10
63.060959759264968
 20
44.684305832406828
 70
0
  0
VERTEX
  5
CEF4
  8
0
 62
7
 10
62.299076892701983
 20
44.726852761649688
 70
0
  0
VERTEX
  5
CEF5
  8
0
 62
7
 10
61.5370217713647
 20
44.810913091489788
 70
0
  0
VERTEX
  5
CEF6
  8
0
 62
7
 10
60.733453249430177
 20
44.810913091489788
 70
0
  0
VERTEX
  5
CEF7
  8
0
 62
7
 10
59.928678944075827
 20
44.810913091489788
 70
0
  0
VERTEX
  5
CEF8
  8
0
 62
7
 10
59.125454931689831
 20
44.810913091489788
 70
0
  0
VERTEX
  5
CEF9
  8
0
 62
7
 10
58.320336116786933
 20
44.768193907472657
 70
0
  0
VERTEX
  5
CEFA
  8
0
 62
7
 10
57.558453250223927
 20
44.726852761649688
 70
0
  0
VERTEX
  5
CEFB
  8
0
 62
7
 10
56.796398128886679
 20
44.641586648389762
 70
0
  0
VERTEX
  5
CEFC
  8
0
 62
7
 10
56.0343430075494
 20
44.557181809001122
 70
0
  0
VERTEX
  5
CEFD
  8
0
 62
7
 10
55.357726254246337
 20
44.430574549918163
 70
0
  0
VERTEX
  5
CEFE
  8
0
 62
7
 10
54.679731462749182
 20
44.303967290835253
 70
0
  0
VERTEX
  5
CEFF
  8
0
 62
7
 10
54.0458338934632
 20
44.175465229235442
 70
0
  0
VERTEX
  5
CF00
  8
0
 62
7
 10
53.410386031208873
 20
44.007516824329507
 70
0
  0
VERTEX
  5
CF01
  8
0
 62
7
 10
52.85934300834316
 20
43.79529894243813
 70
0
  0
VERTEX
  5
CF02
  8
0
 62
7
 10
52.394771882157222
 20
43.6259724993381
 70
0
  0
VERTEX
  5
CF03
  8
0
 62
7
 10
51.9291672273257
 20
43.414960400866562
 70
0
  0
VERTEX
  5
CF04
  8
0
 62
7
 10
51.547450647560026
 20
43.202570264200858
 70
0
  0
VERTEX
  5
CF05
  8
0
 62
7
 10
51.251000181054273
 20
42.949183491260783
 70
0
  0
SEQEND
  5
CF06
  8
0
  0
POLYLINE
  5
CF07
  8
0
 62
7
 66
1
 70
0
 10
0
 20
0
 30
0
  0
VERTEX
  5
CF08
  8
0
 62
7
 10
68.7329649661803
 20
43.033243821100882
 70
0
  0
VERTEX
  5
CF09
  8
0
 62
7
 10
68.395345608625831
 20
43.286802848815228
 70
0
  0
VERTEX
  5
CF0A
  8
0
 62
7
 10
67.97228788303714
 20
43.498848475932391
 70
0
  0
VERTEX
  5
CF0B
  8
0
 62
7
 10
67.506510973431361
 20
43.6685194285809
 70
0
  0
VERTEX
  5
CF0C
  8
0
 62
7
 10
66.9980148798085
 20
43.879187017503959
 70
0
  0
VERTEX
  5
CF0D
  8
0
 62
7
 10
66.405458456345514
 20
44.048857970152483
 70
0
  0
VERTEX
  5
CF0E
  8
0
 62
7
 10
65.770182848865446
 20
44.218184413252509
 70
0
  0
VERTEX
  5
CF0F
  8
0
 62
7
 10
65.134907241385378
 20
44.387855365901089
 70
0
  0
VERTEX
  5
CF10
  8
0
 62
7
 10
64.41557130406521
 20
44.471915695741181
 70
0
  0
VERTEX
  5
CF11
  8
0
 62
7
 10
63.696235366745043
 20
44.599900993018188
 70
0
  0
VERTEX
  5
CF12
  8
0
 62
7
 10
62.891288806616423
 20
44.684305832406828
 70
0
  0
VERTEX
  5
CF13
  8
0
 62
7
 10
62.130783978247521
 20
44.768193907472657
 70
0
  0
VERTEX
  5
CF14
  8
0
 62
7
 10
61.326009672893171
 20
44.810913091489788
 70
0
  0
VERTEX
  5
CF15
  8
0
 62
7
 10
60.52140762231307
 20
44.810913091489788
 70
0
  0
VERTEX
  5
CF16
  8
0
 62
7
 10
59.675119916361432
 20
44.810913091489788
 70
0
  0
VERTEX
  5
CF17
  8
0
 62
7
 10
58.870345611007082
 20
44.810913091489788
 70
0
  0
VERTEX
  5
CF18
  8
0
 62
7
 10
58.067121598621071
 20
44.768193907472657
 70
0
  0
VERTEX
  5
CF19
  8
0
 62
7
 10
57.262002783718188
 20
44.684305832406828
 70
0
  0
VERTEX
  5
CF1A
  8
0
 62
7
 10
56.500119917155189
 20
44.599900993018188
 70
0
  0
VERTEX
  5
CF1B
  8
0
 62
7
 10
55.780783979835022
 20
44.514634879758262
 70
0
  0
VERTEX
  5
CF1C
  8
0
 62
7
 10
55.061448042514847
 20
44.387855365901089
 70
0
  0
VERTEX
  5
CF1D
  8
0
 62
7
 10
54.383453251017677
 20
44.260903597269639
 70
0
  0
VERTEX
  5
CF1E
  8
0
 62
7
 10
53.74800538876336
 20
44.091577154169613
 70
0
  0
VERTEX
  5
CF1F
  8
0
 62
7
 10
53.155793474848913
 20
43.92225071106958
 70
0
  0
VERTEX
  5
CF20
  8
0
 62
7
 10
52.648503164645867
 20
43.711238612598031
 70
0
  0
VERTEX
  5
CF21
  8
0
 62
7
 10
52.140007071022993
 20
43.498848475932391
 70
0
  0
VERTEX
  5
CF22
  8
0
 62
7
 10
51.717121600208571
 20
43.286802848815228
 70
0
  0
VERTEX
  5
CF23
  8
0
 62
7
 10
51.37812420446
 20
43.075963005117963
 70
0
  0
VERTEX
  5
CF24
  8
0
 62
7
 10
51.08167373795424
 20
42.820853684435171
 70
0
  0
SEQEND
  5
CF25
  8
0
  0
POLYLINE
  5
CF26
  8
0
 62
7
 66
1
 70
0
 10
0
 20
0
 30
0
  0
VERTEX
  5
CF27
  8
0
 62
7
 10
69.198741875786084
 20
42.356627067797767
 70
0
  0
VERTEX
  5
CF28
  8
0
 62
7
 10
69.114681545946
 20
42.65290527952925
 70
0
  0
VERTEX
  5
CF29
  8
0
 62
7
 10
68.9451828480717
 20
42.863917378000849
 70
0
  0
SEQEND
  5
CF2A
  8
0
  0
POLYLINE
  5
CF2B
  8
0
 62
7
 66
1
 70
0
 10
0
 20
0
 30
0
  0
VERTEX
  5
CF2C
  8
0
 62
7
 10
68.7329649661803
 20
43.033243821100882
 70
0
  0
VERTEX
  5
CF2D
  8
0
 62
7
 10
68.9451828480717
 20
42.863917378000849
 70
0
  0
SEQEND
  5
CF2E
  8
0
  0
POLYLINE
  5
CF2F
  8
0
 62
7
 66
1
 70
0
 10
0
 20
0
 30
0
  0
VERTEX
  5
CF30
  8
0
 62
7
 10
69.198741875786084
 20
42.397968213620793
 70
0
  0
VERTEX
  5
CF31
  8
0
 62
7
 10
69.198741875786084
 20
42.060348856066291
 70
0
  0
SEQEND
  5
CF32
  8
0
  0
POLYLINE
  5
CF33
  8
0
 62
7
 66
1
 70
0
 10
0
 20
0
 30
0
  0
VERTEX
  5
CF34
  8
0
 62
7
 10
69.495020087517574
 20
41.932191304015021
 70
0
  0
VERTEX
  5
CF35
  8
0
 62
7
 10
69.495020087517574
 20
41.848303228949192
 70
0
  0
SEQEND
  5
CF36
  8
0
  0
POLYLINE
  5
CF37
  8
0
 62
7
 66
1
 70
0
 10
0
 20
0
 30
0
  0
VERTEX
  5
CF38
  8
0
 62
7
 10
50.701507451156928
 20
21.234057628633991
 70
0
  0
VERTEX
  5
CF39
  8
0
 62
7
 10
50.44777616866827
 20
37.784296339774187
 70
0
  0
SEQEND
  5
CF3A
  8
0
  0
POLYLINE
  5
CF3B
  8
0
 62
7
 66
1
 70
0
 10
0
 20
0
 30
0
  0
VERTEX
  5
CF3C
  8
0
 62
7
 10
50.9977856628884
 20
42.77968479338648
 70
0
  0
VERTEX
  5
CF3D
  8
0
 62
7
 10
50.9977856628884
 20
42.77968479338648
 70
0
  0
SEQEND
  5
CF3E
  8
0
  0
POLYLINE
  5
CF3F
  8
0
 62
7
 66
1
 70
0
 10
0
 20
0
 30
0
  0
VERTEX
  5
CF40
  8
0
 62
7
 10
69.157400729963086
 20
41.170136182677759
 70
0
  0
VERTEX
  5
CF41
  8
0
 62
7
 10
69.410959757677475
 20
41.509305833200578
 70
0
  0
VERTEX
  5
CF42
  8
0
 62
7
 10
69.495020087517574
 20
41.890850158191988
 70
0
  0
SEQEND
  5
CF43
  8
0
  0
POLYLINE
  5
CF44
  8
0
 62
7
 66
1
 70
0
 10
0
 20
0
 30
0
  0
VERTEX
  5
CF45
  8
0
 62
7
 10
68.8184033342145
 20
42.990524637083752
 70
0
  0
VERTEX
  5
CF46
  8
0
 62
7
 10
68.479405938465916
 20
43.202570264200858
 70
0
  0
VERTEX
  5
CF47
  8
0
 62
7
 10
68.099067396894341
 20
43.456301546689531
 70
0
  0
VERTEX
  5
CF48
  8
0
 62
7
 10
67.633290487288562
 20
43.6685194285809
 70
0
  0
VERTEX
  5
CF49
  8
0
 62
7
 10
67.124794393665681
 20
43.838018126455211
 70
0
  0
VERTEX
  5
CF4A
  8
0
 62
7
 10
66.532237970202715
 20
44.048857970152483
 70
0
  0
VERTEX
  5
CF4B
  8
0
 62
7
 10
65.939681546739735
 20
44.175465229235442
 70
0
  0
VERTEX
  5
CF4C
  8
0
 62
7
 10
65.263064793436655
 20
44.345136181884008
 70
0
  0
VERTEX
  5
CF4D
  8
0
 62
7
 10
64.542350817922411
 20
44.471915695741181
 70
0
  0
VERTEX
  5
CF4E
  8
0
 62
7
 10
63.823014880602251
 20
44.599900993018188
 70
0
  0
VERTEX
  5
CF4F
  8
0
 62
7
 10
63.060959759264968
 20
44.684305832406828
 70
0
  0
VERTEX
  5
CF50
  8
0
 62
7
 10
62.299076892701983
 20
44.726852761649688
 70
0
  0
VERTEX
  5
CF51
  8
0
 62
7
 10
61.495336115993183
 20
44.810913091489788
 70
0
  0
VERTEX
  5
CF52
  8
0
 62
7
 10
60.6907340654131
 20
44.810913091489788
 70
0
  0
VERTEX
  5
CF53
  8
0
 62
7
 10
59.84479086901
 20
44.810913091489788
 70
0
  0
VERTEX
  5
CF54
  8
0
 62
7
 10
59.0396720541071
 20
44.810913091489788
 70
0
  0
VERTEX
  5
CF55
  8
0
 62
7
 10
58.2364480417211
 20
44.768193907472657
 70
0
  0
VERTEX
  5
CF56
  8
0
 62
7
 10
57.431673736366747
 20
44.726852761649688
 70
0
  0
VERTEX
  5
CF57
  8
0
 62
7
 10
56.669790869803748
 20
44.641586648389762
 70
0
  0
VERTEX
  5
CF58
  8
0
 62
7
 10
55.907735748466479
 20
44.514634879758262
 70
0
  0
VERTEX
  5
CF59
  8
0
 62
7
 10
55.188055301597778
 20
44.430574549918163
 70
0
  0
VERTEX
  5
CF5A
  8
0
 62
7
 10
54.510405019649141
 20
44.260903597269639
 70
0
  0
VERTEX
  5
CF5B
  8
0
 62
7
 10
53.876507450363171
 20
44.13429633818668
 70
0
  0
VERTEX
  5
CF5C
  8
0
 62
7
 10
53.283778772125942
 20
43.964969895086647
 70
0
  0
VERTEX
  5
CF5D
  8
0
 62
7
 10
52.732735749260222
 20
43.752579758421
 70
0
  0
VERTEX
  5
CF5E
  8
0
 62
7
 10
52.266786584880187
 20
43.541567659949457
 70
0
  0
VERTEX
  5
CF5F
  8
0
 62
7
 10
51.801009675274408
 20
43.329522032832358
 70
0
  0
VERTEX
  5
CF60
  8
0
 62
7
 10
51.463390317719927
 20
43.1171318961667
 70
0
  0
VERTEX
  5
CF61
  8
0
 62
7
 10
51.124392921971342
 20
42.906636562017923
 70
0
  0
SEQEND
  5
CF62
  8
0
  0
POLYLINE
  5
CF63
  8
0
 62
7
 66
1
 70
0
 10
0
 20
0
 30
0
  0
VERTEX
  5
CF64
  8
0
 62
7
 10
50.5743834277512
 20
41.932191304015021
 70
0
  0
VERTEX
  5
CF65
  8
0
 62
7
 10
50.658788267139833
 20
41.551852762443453
 70
0
  0
VERTEX
  5
CF66
  8
0
 62
7
 10
50.870833894256947
 20
41.212855366694839
 70
0
  0
SEQEND
  5
CF67
  8
0
  0
POLYLINE
  5
CF68
  8
0
 62
7
 66
1
 70
0
 10
0
 20
0
 30
0
  0
VERTEX
  5
CF69
  8
0
 62
7
 10
51.124392921971342
 20
42.863917378000849
 70
0
  0
VERTEX
  5
CF6A
  8
0
 62
7
 10
50.95472196932279
 20
42.694246425352269
 70
0
  0
VERTEX
  5
CF6B
  8
0
 62
7
 10
50.870833894256947
 20
42.483234326880734
 70
0
  0
VERTEX
  5
CF6C
  8
0
 62
7
 10
50.870833894256947
 20
42.22846951574649
 70
0
  0
SEQEND
  5
CF6D
  8
0
  0
INSERT
  5
CF7B
  8
0
  2
SPECEL-WCE1702CK
 10
111.3613972677787
 20
-1.3750000000000124
 30
0
 41
1
 42
1
 43
1
 50
0
  0
ENDSEC
999
Created By CadLib version 4.0.36.7
999
CadLib website: www.woutware.com
  0
EOF
