  0
SECTION
  2
HEADER
  9
$ACADVER
  1
AC1009
  9
$DWGCODEPAGE
  3
dos932
  9
$INSBASE
 10
0
 20
0
 30
0
  9
$EXTMIN
 10
-9.40354700265137
 20
-8.0953276713580884
 30
0
  9
$EXTMAX
 10
142.1473059847014
 20
83.047919064773751
 30
0
  9
$LIMMIN
 10
0
 20
0
  9
$LIMMAX
 10
105.125
 20
74.25
  9
$SNAPMODE
 70
0
  9
$SNAPUNIT
 10
1
 20
1
  9
$SNAPBASE
 10
0
 20
0
  9
$SNAPANG
 50
0
  9
$SNAPSTYLE
 70
0
  9
$SNAPISOPAIR
 70
0
  9
$ORTHOMODE
 70
0
  9
$REGENMODE
 70
1
  9
$FILLMODE
 70
1
  9
$QTEXTMODE
 70
0
  9
$MIRRTEXT
 70
0
  9
$LTSCALE
 40
0.125
  9
$OSMODE
 70
37
  9
$ATTMODE
 70
1
  9
$TEXTSIZE
 40
0.2
  9
$TRACEWID
 40
0.05
  9
$TEXTSTYLE
  7
STANDARD
  9
$CLAYER
  8
0
  9
$CELTYPE
  6
CONTINUOUS
  9
$CECOLOR
 62
256
  9
$DIMSCALE
 40
1
  9
$DIMASZ
 40
0.18
  9
$DIMEXO
 40
0.0625
  9
$DIMDLI
 40
0.38
  9
$DIMRND
 40
0
  9
$DIMDLE
 40
0
  9
$DIMEXE
 40
0.18
  9
$DIMTP
 40
0
  9
$DIMTM
 40
0
  9
$DIMTXT
 40
0.18
  9
$DIMCEN
 40
0.09
  9
$DIMTSZ
 40
0
  9
$DIMTOL
 70
0
  9
$DIMLIM
 70
0
  9
$DIMTIH
 70
1
  9
$DIMTOH
 70
1
  9
$DIMSE1
 70
0
  9
$DIMSE2
 70
0
  9
$DIMTAD
 70
0
  9
$DIMZIN
 70
0
  9
$DIMBLK
  1

  9
$DIMASO
 70
1
  9
$DIMSHO
 70
1
  9
$DIMPOST
  1

  9
$DIMAPOST
  1

  9
$DIMALT
 70
0
  9
$DIMALTD
 70
2
  9
$DIMALTF
 40
25.4
  9
$DIMLFAC
 40
1
  9
$DIMTOFL
 70
0
  9
$DIMTVP
 40
0
  9
$DIMTIX
 70
0
  9
$DIMSOXD
 70
0
  9
$DIMSAH
 70
0
  9
$DIMBLK1
  1

  9
$DIMBLK2
  1

  9
$DIMSTYLE
  2
STANDARD
  9
$DIMCLRD
 70
0
  9
$DIMCLRE
 70
0
  9
$DIMCLRT
 70
0
  9
$DIMTFAC
 40
1
  9
$DIMGAP
 40
0.09
  9
$LUNITS
 70
2
  9
$LUPREC
 70
4
  9
$SKETCHINC
 40
0.1
  9
$FILLETRAD
 40
0
  9
$AUNITS
 70
0
  9
$AUPREC
 70
0
  9
$MENU
  1
.
  9
$ELEVATION
 40
0
  9
$PELEVATION
 40
0
  9
$THICKNESS
 40
0
  9
$LIMCHECK
 70
0
  9
$CHAMFERA
 40
0
  9
$CHAMFERB
 40
0
  9
$SKPOLY
 70
0
  9
$TDCREATE
 40
2456107.5348785068
  9
$TDUPDATE
 40
2456107.5373348729
  9
$TDINDWG
 40
0.0024567129629629631
  9
$TDUSRTIMER
 40
0.0024567129629629631
  9
$USRTIMER
 70
1
  9
$ANGBASE
 50
0
  9
$ANGDIR
 70
0
  9
$PDMODE
 70
0
  9
$PDSIZE
 40
0
  9
$PLINEWID
 40
0
  9
$SPLFRAME
 70
0
  9
$SPLINETYPE
 70
6
  9
$SPLINESEGS
 70
8
  9
$HANDLING
 70
1
  9
$HANDSEED
  5
D50
  9
$SURFTAB1
 70
6
  9
$SURFTAB2
 70
6
  9
$SURFTYPE
 70
6
  9
$SURFU
 70
6
  9
$SURFV
 70
6
  9
$UCSORG
 10
0
 20
0
 30
0
  9
$UCSXDIR
 10
1
 20
0
 30
0
  9
$UCSYDIR
 10
0
 20
1
 30
0
  9
$PUCSORG
 10
0
 20
0
 30
0
  9
$PUCSXDIR
 10
1
 20
0
 30
0
  9
$PUCSYDIR
 10
0
 20
1
 30
0
  9
$USERI1
 70
0
  9
$USERI2
 70
0
  9
$USERI3
 70
0
  9
$USERI4
 70
0
  9
$USERI5
 70
0
  9
$USERR1
 40
0
  9
$USERR2
 40
0
  9
$USERR3
 40
0
  9
$USERR4
 40
0
  9
$USERR5
 40
0
  9
$WORLDVIEW
 70
1
  9
$SHADEDGE
 70
3
  9
$SHADEDIF
 70
70
  9
$TILEMODE
 70
1
  9
$MAXACTVP
 70
64
  9
$PINSBASE
 10
0
 20
0
 30
0
  9
$PLIMCHECK
 70
0
  9
$PEXTMIN
 10
1E+20
 20
1E+20
 30
1E+20
  9
$PEXTMAX
 10
-1E+20
 20
-1E+20
 30
-1E+20
  9
$PLIMMAX
 10
12
 20
9
  9
$PLIMMIN
 10
0
 20
0
  9
$UNITMODE
 70
0
  9
$VISRETAIN
 70
1
  9
$PLINEGEN
 70
0
  9
$PSLTSCALE
 70
1
  9
$TREEDEPTH
 70
3020
  9
$DRAGMODE
 70
     2
  9
$BLIPMODE
 70
     0
  9
$COORDS
 70
     1
  9
$ATTDIA
 70
     0
  9
$ATTREQ
 70
     1
  0
ENDSEC
  0
SECTION
  2
TABLES
  0
TABLE
  2
VPORT
  5
D42
 70
1
  0
VPORT
  5
D16
  2
*ACTIVE
 70
0
 10
0
 20
0
 11
1
 21
1
 12
21.6613667980466
 22
29.82070485851343
 13
0
 23
0
 14
1
 24
1
 15
0
 25
0
 16
0
 26
0
 36
1
 17
0
 27
0
 37
0
 40
206.78147333640351
 41
1.424483306836247
 42
50
 43
0
 44
0
 50
0
 51
0
 71
0
 72
100
 73
1
 74
1
 75
0
 76
0
 77
0
 78
0
  0
ENDTAB
  0
TABLE
  2
LTYPE
  5
D43
 70
40
  0
LTYPE
  5
CEC
  2
CONTINUOUS
  3
実線
 70
0
 72
65
 73
0
 40
0
  0
LTYPE
  5
CED
  2
DASHED1
  3
--  --  --  --  --  --  --  --  
 70
0
 72
65
 73
2
 40
2.5
 49
1.25
 49
-1.25
  0
LTYPE
  5
CEE
  2
DASHED2
  3
----    ----    ----    ----    
 70
0
 72
65
 73
2
 40
5
 49
2.5
 49
-2.5
  0
LTYPE
  5
CEF
  2
DASHED3
  3
------  ------  ------  ------  
 70
0
 72
65
 73
2
 40
5
 49
3.75
 49
-1.25
  0
LTYPE
  5
CF0
  2
CENTER1
  3
----- - ----- - ----- - ----- - 
 70
0
 72
65
 73
4
 40
10
 49
6.25
 49
-1.25
 49
1.25
 49
-1.25
  0
LTYPE
  5
CF1
  2
CENTER2
  3
----------  --  ----------  --  
 70
0
 72
65
 73
4
 40
20
 49
12.5
 49
-2.5
 49
2.5
 49
-2.5
  0
LTYPE
  5
CF2
  2
PHANTOM1
  3
--- - - --- - - --- - - --- - - 
 70
0
 72
65
 73
6
 40
9.5
 49
3.25
 49
-1.25
 49
1.25
 49
-1.25
 49
1.25
 49
-1.25
  0
LTYPE
  5
CF3
  2
PHANTOM2
  3
--------  -  -  --------  -  -  
 70
0
 72
65
 73
6
 40
20
 49
10
 49
-2.5
 49
1.25
 49
-2.5
 49
1.25
 49
-2.5
  0
LTYPE
  5
CF4
  2
DOT
  3
-   -   -   -   -   -   -   -   
 70
0
 72
65
 73
2
 40
2.5
 49
0.625
 49
-1.875
  0
LTYPE
  5
CF5
  2
DUMMY
  3
ダミー
 70
0
 72
65
 73
0
 40
0
  0
LTYPE
  5
CF6
  2
RAND1
  3
ランダム線1
 70
0
 72
65
 73
4
 40
10
 49
1
 49
-2
 49
3
 49
-4
  0
LTYPE
  5
CF7
  2
RAND2
  3
ランダム線2
 70
0
 72
65
 73
4
 40
14
 49
2
 49
-3
 49
4
 49
-5
  0
LTYPE
  5
CF8
  2
RAND3
  3
ランダム線3
 70
0
 72
65
 73
4
 40
18
 49
3
 49
-4
 49
5
 49
-6
  0
LTYPE
  5
CF9
  2
RAND4
  3
ランダム線4
 70
0
 72
65
 73
4
 40
22
 49
4
 49
-5
 49
6
 49
-7
  0
LTYPE
  5
CFA
  2
RAND5
  3
ランダム線5
 70
0
 72
65
 73
4
 40
26
 49
5
 49
-6
 49
7
 49
-8
  0
LTYPE
  5
CFB
  2
LONG1
  3
----------  --  ----------  --  
 70
0
 72
65
 73
4
 40
40
 49
32.5
 49
-2.5
 49
2.5
 49
-2.5
  0
LTYPE
  5
CFC
  2
LONG2
  3
--------  -  -  --------  -  -  
 70
0
 72
65
 73
6
 40
40
 49
30
 49
-2.5
 49
1.25
 49
-2.5
 49
1.25
 49
-2.5
  0
LTYPE
  5
CFD
  2
LONG3
  3
+++++++++++++++..+++++++++++++++
 70
0
 72
65
 73
2
 40
40
 49
37.5
 49
-2.5
  0
LTYPE
  5
CFE
  2
LONG4
  3
+++++++++++++++..+++++++++++++++
 70
0
 72
65
 73
2
 40
80
 49
75
 49
-5
  0
LTYPE
  5
CFF
  2
LONG5
  3
----------  --  ----------  --  
 70
0
 72
65
 73
4
 40
60
 49
37.5
 49
-7.5
 49
7.5
 49
-7.5
  0
LTYPE
  5
D00
  2
DASHED
  3
-------   -------------   ------
 70
0
 72
65
 73
2
 40
3.8
 49
3
 49
-0.8
  0
LTYPE
  5
D01
  2
DASHED_SPACED
  3
----        --------        ----
 70
0
 72
65
 73
2
 40
12
 49
6
 49
-6
  0
LTYPE
  5
D02
  2
LONG_DASHED_DOTTED
  3
------------- --- --------------
 70
0
 72
65
 73
4
 40
15.25
 49
12
 49
-1.5
 49
0.25
 49
-1.5
  0
LTYPE
  5
D03
  2
LONG_DASHED_DOUBLE-DOTTED
  3
----------- --- --- ------------
 70
0
 72
65
 73
6
 40
17
 49
12
 49
-1.5
 49
0.25
 49
-1.5
 49
0.25
 49
-1.5
  0
LTYPE
  5
D04
  2
LONG_DASHED_TRIPLICATE-DOT
  3
--------- --- --- --- ----------
 70
0
 72
65
 73
8
 40
18.75
 49
12
 49
-1.5
 49
0.25
 49
-1.5
 49
0.25
 49
-1.5
 49
0.25
 49
-1.5
  0
LTYPE
  5
D05
  2
DOTTED
  3
   -       -       -       -    
 70
0
 72
65
 73
2
 40
1.75
 49
0.25
 49
-1.5
  0
LTYPE
  5
D06
  2
CHAIN
  3
-------------- -- --------------
 70
0
 72
65
 73
4
 40
18.5
 49
12
 49
-1.5
 49
3.5
 49
-1.5
  0
LTYPE
  5
D07
  2
CHAIN_DOUBLE_DASH
  3
------------ -- -- -------------
 70
0
 72
65
 73
6
 40
23.5
 49
12
 49
-1.5
 49
3.5
 49
-1.5
 49
3.5
 49
-1.5
  0
LTYPE
  5
D08
  2
DASHED_DOTTED
  3
-----------     -     ----------
 70
0
 72
65
 73
4
 40
9.25
 49
6
 49
-1.5
 49
0.25
 49
-1.5
  0
LTYPE
  5
D09
  2
DOUBLE-DASHED_DOTTED
  3
------   -----------   -   -----
 70
0
 72
65
 73
6
 40
16.75
 49
6
 49
-1.5
 49
6
 49
-1.5
 49
0.25
 49
-1.5
  0
LTYPE
  5
D0A
  2
DASHED_DOUBLE-DOTTED
  3
---------    -    -    ---------
 70
0
 72
65
 73
6
 40
11
 49
6
 49
-1.5
 49
0.25
 49
-1.5
 49
0.25
 49
-1.5
  0
LTYPE
  5
D0B
  2
DOUBLE-DASHED_DOUBLE-DOTTE
  3
-----   ---------   -   -   ----
 70
0
 72
65
 73
8
 40
18.5
 49
6
 49
-1.5
 49
6
 49
-1.5
 49
0.25
 49
-1.5
 49
0.25
 49
-1.5
  0
LTYPE
  5
D0C
  2
DASHED_TRIPLICATE-DOTTED
  3
-------    -    -    -    ------
 70
0
 72
65
 73
8
 40
12.75
 49
6
 49
-1.5
 49
0.25
 49
-1.5
 49
0.25
 49
-1.5
 49
0.25
 49
-1.5
  0
LTYPE
  5
D0D
  2
DOUBLE-DASHED_TRIPLICATE-D
  3
-----  ---------  -  -  -  -----
 70
0
 72
65
 73
10
 40
20.25
 49
6
 49
-1.5
 49
6
 49
-1.5
 49
0.25
 49
-1.5
 49
0.25
 49
-1.5
 49
0.25
 49
-1.5
  0
LTYPE
  5
D0E
  2
UNDEFINED
  3
--------------------------------
 70
0
 72
65
 73
0
 40
0
  0
LTYPE
  5
D0F
  2
DOT_18
  3
----        --------        ----
 70
0
 72
65
 73
2
 40
2
 49
1
 49
-1
  0
LTYPE
  5
D10
  2
DASHDOT
  3
------------   --   ------------
 70
0
 72
65
 73
4
 40
25.6
 49
20
 49
-2
 49
1.6
 49
-2
  0
LTYPE
  5
D11
  2
DIVIDE
  3
-----------  --  --  -----------
 70
0
 72
65
 73
6
 40
31.199999999999996
 49
20
 49
-2.399999999999999
 49
2
 49
-2.399999999999999
 49
2
 49
-2.399999999999999
  0
LTYPE
  5
D12
  2
ByBlock
  3

 70
64
 72
65
 73
0
 40
0
  0
LTYPE
  5
D13
  2
ByLayer
  3

 70
64
 72
65
 73
0
 40
0
  0
ENDTAB
  0
TABLE
  2
LAYER
  5
D44
 70
2
  0
LAYER
  5
CD5
 70
0
  2
0
 62
7
  6
CONTINUOUS
  0
LAYER
  5
CD6
 70
0
  2
SPEC
 62
7
  6
CONTINUOUS
  0
ENDTAB
  0
TABLE
  2
STYLE
  5
D45
 70
3
  0
STYLE
  5
CE9
  2
STANDARD
 70
0
 40
0
 41
1
 50
0
 71
0
 42
0.2
  3
txt.shx
  4
extfont2.shx
  0
STYLE
  5
CEA
  2
ANNOTATIVE
 70
0
 40
0
 41
1
 50
0
 71
0
 42
0.2
  3
txt
  0
STYLE
  5
CEB
  2
TATEGAKI
 70
4
 40
0
 41
1
 50
0
 71
0
 42
1
  3
txt
  4
bigfont.shx
  0
ENDTAB
  0
TABLE
  2
APPID
  5
D48
 70
4
  0
APPID
  5
D49
  2
ACAD
 70
0
  0
APPID
  5
D4C
  2
ACADANNOTATIVE
 70
0
  0
APPID
  5
D4D
  2
ACAD_MLEADERVER
 70
0
  0
APPID
  5
D4E
  2
ACAD_EXEMPT_FROM_CAD_STANDARDS
 70
0
  0
ENDTAB
  0
TABLE
  2
DIMSTYLE
  5
D4A
 70
2
  0
DIMSTYLE
105
D14
  2
STANDARD
 70
0
  3

  4

  5

  6

  7

 40
1
 41
0.18
 42
0.0625
 43
0.38
 44
0.18
 45
0
 46
0
 47
0
 48
0
140
0.18
141
0.09
142
0
143
25.4
144
1
145
0
146
1
147
0.09
 71
0
 72
0
 73
1
 74
1
 75
0
 76
0
 77
0
 78
0
170
0
171
2
172
0
173
0
174
0
175
0
176
0
177
0
178
0
  0
DIMSTYLE
105
D15
  2
ANNOTATIVE
 70
0
  3

  4

  5

  6

  7

 40
1
 41
0.18
 42
0.0625
 43
0.38
 44
0.18
 45
0
 46
0
 47
0
 48
0
140
0.18
141
0.09
142
0
143
25.4
144
1
145
0
146
1
147
0.09
 71
0
 72
0
 73
1
 74
1
 75
0
 76
0
 77
0
 78
0
170
0
171
2
172
0
173
0
174
0
175
0
176
0
177
0
178
0
  0
ENDTAB
  0
ENDSEC
  0
SECTION
  2
BLOCKS
  0
BLOCK
  5
CD8
  8
0
  2
$MODEL_SPACE
 70
0
 10
0
 20
0
 30
0
  3
$MODEL_SPACE
  0
ENDBLK
  5
76
  8
0
  0
BLOCK
  5
CDA
  8
0
 67
1
  2
$PAPER_SPACE
 70
0
 10
0
 20
0
 30
0
  3
$PAPER_SPACE
  0
ENDBLK
  5
72
  8
0
  0
BLOCK
  5
CDC
  8
0
  2
SPECEL-WCG5300LW
 70
64
 10
0
 20
0
 30
0
  3
SPECEL-WCG5300LW
  0
TEXT
  5
CDD
  8
SPEC
 10
0
 20
0
 30
0
 40
1.5
  1
LED 口金:GX53 Ra80
  7
STANDARD
  0
TEXT
  5
CDE
  8
SPEC
 10
0
 20
-3
 30
0
 40
1.5
  1
本体:ｱﾙﾐﾀﾞｲｶｽﾄ ｵﾌﾎﾜｲﾄ塗装仕上
  7
STANDARD
  0
TEXT
  5
CDF
  8
SPEC
 10
0
 20
-6
 30
0
 40
1.5
  1
光源寿命:40,000時間
  7
STANDARD
  0
ENDBLK
  5
CE0
  8
0
  0
BLOCK
  5
CE2
  8
0
  2
*MODEL_SPACE
 70
64
 10
0
 20
0
 30
0
  3
*MODEL_SPACE
  0
ENDBLK
  5
CE5
  8
0
  0
BLOCK
  5
CE7
  8
0
 67
1
  2
*PAPER_SPACE
 70
64
 10
0
 20
0
 30
0
  3
*PAPER_SPACE
  0
ENDBLK
  5
CE8
  8
0
  0
ENDSEC
  0
SECTION
  2
ENTITIES
  0
TEXT
  5
A3
  8
0
 62
7
 10
-10.003819761427851
 20
-7.3750000000000142
 30
0
 40
5
  1
三菱　ＥＬ－ＷＣＧ５３００Ｌ／Ｗ
  7
STANDARD
  0
TEXT
  5
A4
  8
0
 62
7
 10
-10.003819761427851
 20
76.624999999999986
 30
0
 40
5
  1
ＬＥＤ５Ｗ×１　小物ブラケット
  7
STANDARD
  0
POLYLINE
  5
725
  8
0
 62
7
 66
1
 70
0
 10
0
 20
0
 30
0
  0
VERTEX
  5
726
  8
0
 62
7
 10
38.148638265299439
 20
50.181222849307908
 70
0
  0
VERTEX
  5
727
  8
0
 62
7
 10
37.344552979042142
 20
50.689202178608006
 70
0
  0
SEQEND
  5
728
  8
0
  0
POLYLINE
  5
729
  8
0
 62
7
 66
1
 70
0
 10
0
 20
0
 30
0
  0
VERTEX
  5
72A
  8
0
 62
7
 10
37.344552979042142
 20
50.689202178608006
 70
0
  0
VERTEX
  5
72B
  8
0
 62
7
 10
36.54012318323629
 20
51.112432158970933
 70
0
  0
SEQEND
  5
72C
  8
0
  0
POLYLINE
  5
72D
  8
0
 62
7
 66
1
 70
0
 10
0
 20
0
 30
0
  0
VERTEX
  5
72E
  8
0
 62
7
 10
36.54012318323629
 20
51.112432158970933
 70
0
  0
VERTEX
  5
72F
  8
0
 62
7
 10
35.651288548041833
 20
51.451085045171
 70
0
  0
SEQEND
  5
730
  8
0
  0
POLYLINE
  5
731
  8
0
 62
7
 66
1
 70
0
 10
0
 20
0
 30
0
  0
VERTEX
  5
732
  8
0
 62
7
 10
35.651288548041833
 20
51.451085045171
 70
0
  0
VERTEX
  5
733
  8
0
 62
7
 10
34.762109403298837
 20
51.705160837208211
 70
0
  0
SEQEND
  5
734
  8
0
  0
POLYLINE
  5
735
  8
0
 62
7
 66
1
 70
0
 10
0
 20
0
 30
0
  0
VERTEX
  5
736
  8
0
 62
7
 10
34.762109403298837
 20
51.705160837208211
 70
0
  0
VERTEX
  5
737
  8
0
 62
7
 10
33.87327476810438
 20
51.916861954776778
 70
0
  0
SEQEND
  5
738
  8
0
  0
POLYLINE
  5
739
  8
0
 62
7
 66
1
 70
0
 10
0
 20
0
 30
0
  0
VERTEX
  5
73A
  8
0
 62
7
 10
33.87327476810438
 20
51.916861954776778
 70
0
  0
VERTEX
  5
73B
  8
0
 62
7
 10
32.941720948892822
 20
52.086188397876811
 70
0
  0
SEQEND
  5
73C
  8
0
  0
POLYLINE
  5
73D
  8
0
 62
7
 66
1
 70
0
 10
0
 20
0
 30
0
  0
VERTEX
  5
73E
  8
0
 62
7
 10
32.941720948892822
 20
52.086188397876811
 70
0
  0
VERTEX
  5
73F
  8
0
 62
7
 10
32.010511639229811
 20
52.1285630723454
 70
0
  0
SEQEND
  5
740
  8
0
  0
POLYLINE
  5
741
  8
0
 62
7
 66
1
 70
0
 10
0
 20
0
 30
0
  0
VERTEX
  5
742
  8
0
 62
7
 10
32.010511639229811
 20
52.1285630723454
 70
0
  0
VERTEX
  5
743
  8
0
 62
7
 10
31.079302329566762
 20
52.086188397876811
 70
0
  0
SEQEND
  5
744
  8
0
  0
POLYLINE
  5
745
  8
0
 62
7
 66
1
 70
0
 10
0
 20
0
 30
0
  0
VERTEX
  5
746
  8
0
 62
7
 10
31.079302329566762
 20
52.086188397876811
 70
0
  0
VERTEX
  5
747
  8
0
 62
7
 10
30.19012318482379
 20
52.001439048939687
 70
0
  0
SEQEND
  5
748
  8
0
  0
POLYLINE
  5
749
  8
0
 62
7
 66
1
 70
0
 10
0
 20
0
 30
0
  0
VERTEX
  5
74A
  8
0
 62
7
 10
30.19012318482379
 20
52.001439048939687
 70
0
  0
VERTEX
  5
74B
  8
0
 62
7
 10
29.25891387516074
 20
51.832112605839647
 70
0
  0
SEQEND
  5
74C
  8
0
  0
POLYLINE
  5
74D
  8
0
 62
7
 66
1
 70
0
 10
0
 20
0
 30
0
  0
VERTEX
  5
74E
  8
0
 62
7
 10
29.25891387516074
 20
51.832112605839647
 70
0
  0
VERTEX
  5
74F
  8
0
 62
7
 10
28.369734730417779
 20
51.578209068576712
 70
0
  0
SEQEND
  5
750
  8
0
  0
POLYLINE
  5
751
  8
0
 62
7
 66
1
 70
0
 10
0
 20
0
 30
0
  0
VERTEX
  5
752
  8
0
 62
7
 10
28.369734730417779
 20
51.578209068576712
 70
0
  0
VERTEX
  5
753
  8
0
 62
7
 10
27.480900095223319
 20
51.281930856845229
 70
0
  0
SEQEND
  5
754
  8
0
  0
POLYLINE
  5
755
  8
0
 62
7
 66
1
 70
0
 10
0
 20
0
 30
0
  0
VERTEX
  5
756
  8
0
 62
7
 10
27.480900095223319
 20
51.281930856845229
 70
0
  0
VERTEX
  5
757
  8
0
 62
7
 10
27.480900095223319
 20
51.281930856845229
 70
0
  0
SEQEND
  5
758
  8
0
  0
POLYLINE
  5
759
  8
0
 62
7
 66
1
 70
0
 10
0
 20
0
 30
0
  0
VERTEX
  5
75A
  8
0
 62
7
 10
25.74526098975446
 20
24.103917083257809
 70
0
  0
VERTEX
  5
75B
  8
0
 62
7
 10
26.591720950480319
 20
23.59576549918344
 70
0
  0
SEQEND
  5
75C
  8
0
  0
POLYLINE
  5
75D
  8
0
 62
7
 66
1
 70
0
 10
0
 20
0
 30
0
  0
VERTEX
  5
75E
  8
0
 62
7
 10
26.591720950480319
 20
23.59576549918344
 70
0
  0
VERTEX
  5
75F
  8
0
 62
7
 10
27.480900095223319
 20
23.214910193289089
 70
0
  0
SEQEND
  5
760
  8
0
  0
POLYLINE
  5
761
  8
0
 62
7
 66
1
 70
0
 10
0
 20
0
 30
0
  0
VERTEX
  5
762
  8
0
 62
7
 10
27.480900095223319
 20
23.214910193289089
 70
0
  0
VERTEX
  5
763
  8
0
 62
7
 10
28.369734730417779
 20
22.87608505231475
 70
0
  0
SEQEND
  5
764
  8
0
  0
POLYLINE
  5
765
  8
0
 62
7
 66
1
 70
0
 10
0
 20
0
 30
0
  0
VERTEX
  5
766
  8
0
 62
7
 10
28.369734730417779
 20
22.87608505231475
 70
0
  0
VERTEX
  5
767
  8
0
 62
7
 10
29.301288549629341
 20
22.622181515051839
 70
0
  0
SEQEND
  5
768
  8
0
  0
POLYLINE
  5
769
  8
0
 62
7
 66
1
 70
0
 10
0
 20
0
 30
0
  0
VERTEX
  5
76A
  8
0
 62
7
 10
29.301288549629341
 20
22.622181515051839
 70
0
  0
VERTEX
  5
76B
  8
0
 62
7
 10
30.232497859292351
 20
22.452855071951831
 70
0
  0
SEQEND
  5
76C
  8
0
  0
POLYLINE
  5
76D
  8
0
 62
7
 66
1
 70
0
 10
0
 20
0
 30
0
  0
VERTEX
  5
76E
  8
0
 62
7
 10
30.232497859292351
 20
22.452855071951831
 70
0
  0
VERTEX
  5
76F
  8
0
 62
7
 10
31.206081843423959
 20
22.368105723014679
 70
0
  0
SEQEND
  5
770
  8
0
  0
POLYLINE
  5
771
  8
0
 62
7
 66
1
 70
0
 10
0
 20
0
 30
0
  0
VERTEX
  5
772
  8
0
 62
7
 10
31.206081843423959
 20
22.368105723014679
 70
0
  0
VERTEX
  5
773
  8
0
 62
7
 10
32.137635662635518
 20
22.368105723014679
 70
0
  0
SEQEND
  5
774
  8
0
  0
POLYLINE
  5
775
  8
0
 62
7
 66
1
 70
0
 10
0
 20
0
 30
0
  0
VERTEX
  5
776
  8
0
 62
7
 10
32.137635662635518
 20
22.368105723014679
 70
0
  0
VERTEX
  5
777
  8
0
 62
7
 10
33.111219646767132
 20
22.410480397483241
 70
0
  0
SEQEND
  5
778
  8
0
  0
POLYLINE
  5
779
  8
0
 62
7
 66
1
 70
0
 10
0
 20
0
 30
0
  0
VERTEX
  5
77A
  8
0
 62
7
 10
33.111219646767132
 20
22.410480397483241
 70
0
  0
VERTEX
  5
77B
  8
0
 62
7
 10
34.042428956430143
 20
22.579806840583281
 70
0
  0
SEQEND
  5
77C
  8
0
  0
POLYLINE
  5
77D
  8
0
 62
7
 66
1
 70
0
 10
0
 20
0
 30
0
  0
VERTEX
  5
77E
  8
0
 62
7
 10
34.042428956430143
 20
22.579806840583281
 70
0
  0
VERTEX
  5
77F
  8
0
 62
7
 10
34.973638266093189
 20
22.833882632620458
 70
0
  0
SEQEND
  5
780
  8
0
  0
POLYLINE
  5
781
  8
0
 62
7
 66
1
 70
0
 10
0
 20
0
 30
0
  0
VERTEX
  5
782
  8
0
 62
7
 10
34.973638266093189
 20
22.833882632620458
 70
0
  0
VERTEX
  5
783
  8
0
 62
7
 10
35.905192085304748
 20
23.130160844351941
 70
0
  0
SEQEND
  5
784
  8
0
  0
POLYLINE
  5
785
  8
0
 62
7
 66
1
 70
0
 10
0
 20
0
 30
0
  0
VERTEX
  5
786
  8
0
 62
7
 10
35.905192085304748
 20
23.130160844351941
 70
0
  0
VERTEX
  5
787
  8
0
 62
7
 10
36.794026720499211
 20
23.511188405020562
 70
0
  0
SEQEND
  5
788
  8
0
  0
POLYLINE
  5
789
  8
0
 62
7
 66
1
 70
0
 10
0
 20
0
 30
0
  0
VERTEX
  5
78A
  8
0
 62
7
 10
36.794026720499211
 20
23.511188405020562
 70
0
  0
VERTEX
  5
78B
  8
0
 62
7
 10
36.794026720499211
 20
23.511188405020562
 70
0
  0
SEQEND
  5
78C
  8
0
  0
POLYLINE
  5
78D
  8
0
 62
7
 66
1
 70
0
 10
0
 20
0
 30
0
  0
VERTEX
  5
78E
  8
0
 62
7
 10
36.794026720499211
 20
23.511188405020562
 70
0
  0
VERTEX
  5
78F
  8
0
 62
7
 10
37.598456516305049
 20
23.976793059852071
 70
0
  0
SEQEND
  5
790
  8
0
  0
POLYLINE
  5
791
  8
0
 62
7
 66
1
 70
0
 10
0
 20
0
 30
0
  0
VERTEX
  5
792
  8
0
 62
7
 10
37.598456516305049
 20
23.976793059852071
 70
0
  0
VERTEX
  5
793
  8
0
 62
7
 10
38.402886312110873
 20
24.48477238915217
 70
0
  0
SEQEND
  5
794
  8
0
  0
POLYLINE
  5
795
  8
0
 62
7
 66
1
 70
0
 10
0
 20
0
 30
0
  0
VERTEX
  5
796
  8
0
 62
7
 10
38.402886312110873
 20
24.48477238915217
 70
0
  0
VERTEX
  5
797
  8
0
 62
7
 10
39.122566758979559
 20
25.03512639292083
 70
0
  0
SEQEND
  5
798
  8
0
  0
POLYLINE
  5
799
  8
0
 62
7
 66
1
 70
0
 10
0
 20
0
 30
0
  0
VERTEX
  5
79A
  8
0
 62
7
 10
39.122566758979559
 20
25.03512639292083
 70
0
  0
VERTEX
  5
79B
  8
0
 62
7
 10
39.842247205848253
 20
25.627855071158081
 70
0
  0
SEQEND
  5
79C
  8
0
  0
POLYLINE
  5
79D
  8
0
 62
7
 66
1
 70
0
 10
0
 20
0
 30
0
  0
VERTEX
  5
79E
  8
0
 62
7
 10
39.842247205848253
 20
25.627855071158081
 70
0
  0
VERTEX
  5
79F
  8
0
 62
7
 10
40.519552978248377
 20
26.305160843558181
 70
0
  0
SEQEND
  5
7A0
  8
0
  0
POLYLINE
  5
7A1
  8
0
 62
7
 66
1
 70
0
 10
0
 20
0
 30
0
  0
VERTEX
  5
7A2
  8
0
 62
7
 10
40.519552978248377
 20
26.305160843558181
 70
0
  0
VERTEX
  5
7A3
  8
0
 62
7
 10
41.112109401711329
 20
26.98246661595832
 70
0
  0
SEQEND
  5
7A4
  8
0
  0
POLYLINE
  5
7A5
  8
0
 62
7
 66
1
 70
0
 10
0
 20
0
 30
0
  0
VERTEX
  5
7A6
  8
0
 62
7
 10
41.112109401711329
 20
26.98246661595832
 70
0
  0
VERTEX
  5
7A7
  8
0
 62
7
 10
41.70466582517431
 20
27.744521737295571
 70
0
  0
SEQEND
  5
7A8
  8
0
  0
POLYLINE
  5
7A9
  8
0
 62
7
 66
1
 70
0
 10
0
 20
0
 30
0
  0
VERTEX
  5
7AA
  8
0
 62
7
 10
41.70466582517431
 20
27.744521737295571
 70
0
  0
VERTEX
  5
7AB
  8
0
 62
7
 10
42.25519208371724
 20
28.506576858632819
 70
0
  0
SEQEND
  5
7AC
  8
0
  0
POLYLINE
  5
7AD
  8
0
 62
7
 66
1
 70
0
 10
0
 20
0
 30
0
  0
VERTEX
  5
7AE
  8
0
 62
7
 10
42.25519208371724
 20
28.506576858632819
 70
0
  0
VERTEX
  5
7AF
  8
0
 62
7
 10
42.720968993323027
 20
29.3108343996644
 70
0
  0
SEQEND
  5
7B0
  8
0
  0
POLYLINE
  5
7B1
  8
0
 62
7
 66
1
 70
0
 10
0
 20
0
 30
0
  0
VERTEX
  5
7B2
  8
0
 62
7
 10
42.720968993323027
 20
29.3108343996644
 70
0
  0
VERTEX
  5
7B3
  8
0
 62
7
 10
43.1440267189117
 20
30.157466615164569
 70
0
  0
SEQEND
  5
7B4
  8
0
  0
POLYLINE
  5
7B5
  8
0
 62
7
 66
1
 70
0
 10
0
 20
0
 30
0
  0
VERTEX
  5
7B6
  8
0
 62
7
 10
43.1440267189117
 20
30.157466615164569
 70
0
  0
VERTEX
  5
7B7
  8
0
 62
7
 10
43.48267960511177
 20
31.004098830664709
 70
0
  0
SEQEND
  5
7B8
  8
0
  0
POLYLINE
  5
7B9
  8
0
 62
7
 66
1
 70
0
 10
0
 20
0
 30
0
  0
VERTEX
  5
7BA
  8
0
 62
7
 10
43.48267960511177
 20
31.004098830664709
 70
0
  0
VERTEX
  5
7BB
  8
0
 62
7
 10
43.48267960511177
 20
31.004098830664709
 70
0
  0
SEQEND
  5
7BC
  8
0
  0
POLYLINE
  5
7BD
  8
0
 62
7
 66
1
 70
0
 10
0
 20
0
 30
0
  0
VERTEX
  5
7BE
  8
0
 62
7
 10
43.48267960511177
 20
31.004098830664709
 70
0
  0
VERTEX
  5
7BF
  8
0
 62
7
 10
43.821332491311807
 20
31.8931057206334
 70
0
  0
SEQEND
  5
7C0
  8
0
  0
POLYLINE
  5
7C1
  8
0
 62
7
 66
1
 70
0
 10
0
 20
0
 30
0
  0
VERTEX
  5
7C2
  8
0
 62
7
 10
43.821332491311807
 20
31.8931057206334
 70
0
  0
VERTEX
  5
7C3
  8
0
 62
7
 10
44.075580538123262
 20
32.782112610602162
 70
0
  0
SEQEND
  5
7C4
  8
0
  0
POLYLINE
  5
7C5
  8
0
 62
7
 66
1
 70
0
 10
0
 20
0
 30
0
  0
VERTEX
  5
7C6
  8
0
 62
7
 10
44.075580538123262
 20
32.782112610602162
 70
0
  0
VERTEX
  5
7C7
  8
0
 62
7
 10
44.287109400917579
 20
33.671119500570853
 70
0
  0
SEQEND
  5
7C8
  8
0
  0
POLYLINE
  5
7C9
  8
0
 62
7
 66
1
 70
0
 10
0
 20
0
 30
0
  0
VERTEX
  5
7CA
  8
0
 62
7
 10
44.287109400917579
 20
33.671119500570853
 70
0
  0
VERTEX
  5
7CB
  8
0
 62
7
 10
44.456608098791882
 20
34.602501065008141
 70
0
  0
SEQEND
  5
7CC
  8
0
  0
POLYLINE
  5
7CD
  8
0
 62
7
 66
1
 70
0
 10
0
 20
0
 30
0
  0
VERTEX
  5
7CE
  8
0
 62
7
 10
44.456608098791882
 20
34.602501065008141
 70
0
  0
VERTEX
  5
7CF
  8
0
 62
7
 10
44.583387612649091
 20
35.533882629445429
 70
0
  0
SEQEND
  5
7D0
  8
0
  0
POLYLINE
  5
7D1
  8
0
 62
7
 66
1
 70
0
 10
0
 20
0
 30
0
  0
VERTEX
  5
7D2
  8
0
 62
7
 10
44.583387612649091
 20
35.533882629445429
 70
0
  0
VERTEX
  5
7D3
  8
0
 62
7
 10
44.668136961586242
 20
36.465264193882717
 70
0
  0
SEQEND
  5
7D4
  8
0
  0
POLYLINE
  5
7D5
  8
0
 62
7
 66
1
 70
0
 10
0
 20
0
 30
0
  0
VERTEX
  5
7D6
  8
0
 62
7
 10
44.668136961586242
 20
36.465264193882717
 70
0
  0
VERTEX
  5
7D7
  8
0
 62
7
 10
44.668136961586242
 20
37.396473503545792
 70
0
  0
SEQEND
  5
7D8
  8
0
  0
POLYLINE
  5
7D9
  8
0
 62
7
 66
1
 70
0
 10
0
 20
0
 30
0
  0
VERTEX
  5
7DA
  8
0
 62
7
 10
44.668136961586242
 20
37.396473503545792
 70
0
  0
VERTEX
  5
7DB
  8
0
 62
7
 10
44.625762287117652
 20
38.32785506798308
 70
0
  0
SEQEND
  5
7DC
  8
0
  0
POLYLINE
  5
7DD
  8
0
 62
7
 66
1
 70
0
 10
0
 20
0
 30
0
  0
VERTEX
  5
7DE
  8
0
 62
7
 10
44.625762287117652
 20
38.32785506798308
 70
0
  0
VERTEX
  5
7DF
  8
0
 62
7
 10
44.5410129381805
 20
39.259236632420368
 70
0
  0
SEQEND
  5
7E0
  8
0
  0
POLYLINE
  5
7E1
  8
0
 62
7
 66
1
 70
0
 10
0
 20
0
 30
0
  0
VERTEX
  5
7E2
  8
0
 62
7
 10
44.5410129381805
 20
39.259236632420368
 70
0
  0
VERTEX
  5
7E3
  8
0
 62
7
 10
44.414233424323321
 20
40.190445942083379
 70
0
  0
SEQEND
  5
7E4
  8
0
  0
POLYLINE
  5
7E5
  8
0
 62
7
 66
1
 70
0
 10
0
 20
0
 30
0
  0
VERTEX
  5
7E6
  8
0
 62
7
 10
44.414233424323321
 20
40.190445942083379
 70
0
  0
VERTEX
  5
7E7
  8
0
 62
7
 10
44.244734726449018
 20
41.079452832052127
 70
0
  0
SEQEND
  5
7E8
  8
0
  0
POLYLINE
  5
7E9
  8
0
 62
7
 66
1
 70
0
 10
0
 20
0
 30
0
  0
VERTEX
  5
7EA
  8
0
 62
7
 10
44.244734726449018
 20
41.079452832052127
 70
0
  0
VERTEX
  5
7EB
  8
0
 62
7
 10
43.99083118918611
 20
42.010834396489422
 70
0
  0
SEQEND
  5
7EC
  8
0
  0
POLYLINE
  5
7ED
  8
0
 62
7
 66
1
 70
0
 10
0
 20
0
 30
0
  0
VERTEX
  5
7EE
  8
0
 62
7
 10
43.99083118918611
 20
42.010834396489422
 70
0
  0
VERTEX
  5
7EF
  8
0
 62
7
 10
43.694552977454627
 20
42.89984128645812
 70
0
  0
SEQEND
  5
7F0
  8
0
  0
POLYLINE
  5
7F1
  8
0
 62
7
 66
1
 70
0
 10
0
 20
0
 30
0
  0
VERTEX
  5
7F2
  8
0
 62
7
 10
43.694552977454627
 20
42.89984128645812
 70
0
  0
VERTEX
  5
7F3
  8
0
 62
7
 10
43.694552977454627
 20
42.89984128645812
 70
0
  0
SEQEND
  5
7F4
  8
0
  0
POLYLINE
  5
7F5
  8
0
 62
7
 66
1
 70
0
 10
0
 20
0
 30
0
  0
VERTEX
  5
7F6
  8
0
 62
7
 10
43.694552977454627
 20
42.89984128645812
 70
0
  0
VERTEX
  5
7F7
  8
0
 62
7
 10
43.398274765723123
 20
43.746473501958292
 70
0
  0
SEQEND
  5
7F8
  8
0
  0
POLYLINE
  5
7F9
  8
0
 62
7
 66
1
 70
0
 10
0
 20
0
 30
0
  0
VERTEX
  5
7FA
  8
0
 62
7
 10
43.398274765723123
 20
43.746473501958292
 70
0
  0
VERTEX
  5
7FB
  8
0
 62
7
 10
42.974872530585927
 20
44.5931057174584
 70
0
  0
SEQEND
  5
7FC
  8
0
  0
POLYLINE
  5
7FD
  8
0
 62
7
 66
1
 70
0
 10
0
 20
0
 30
0
  0
VERTEX
  5
7FE
  8
0
 62
7
 10
42.974872530585927
 20
44.5931057174584
 70
0
  0
VERTEX
  5
7FF
  8
0
 62
7
 10
42.551470295448723
 20
45.439910187732828
 70
0
  0
SEQEND
  5
800
  8
0
  0
POLYLINE
  5
801
  8
0
 62
7
 66
1
 70
0
 10
0
 20
0
 30
0
  0
VERTEX
  5
802
  8
0
 62
7
 10
42.551470295448723
 20
45.439910187732828
 70
0
  0
VERTEX
  5
803
  8
0
 62
7
 10
42.043318711374383
 20
46.24416772876441
 70
0
  0
SEQEND
  5
804
  8
0
  0
POLYLINE
  5
805
  8
0
 62
7
 66
1
 70
0
 10
0
 20
0
 30
0
  0
VERTEX
  5
806
  8
0
 62
7
 10
42.043318711374383
 20
46.24416772876441
 70
0
  0
VERTEX
  5
807
  8
0
 62
7
 10
41.535511636848547
 20
47.006222850101658
 70
0
  0
SEQEND
  5
808
  8
0
  0
POLYLINE
  5
809
  8
0
 62
7
 66
1
 70
0
 10
0
 20
0
 30
0
  0
VERTEX
  5
80A
  8
0
 62
7
 10
41.535511636848547
 20
47.006222850101658
 70
0
  0
VERTEX
  5
80B
  8
0
 62
7
 10
40.942955213385567
 20
47.72590329697038
 70
0
  0
SEQEND
  5
80C
  8
0
  0
POLYLINE
  5
80D
  8
0
 62
7
 66
1
 70
0
 10
0
 20
0
 30
0
  0
VERTEX
  5
80E
  8
0
 62
7
 10
40.942955213385567
 20
47.72590329697038
 70
0
  0
VERTEX
  5
80F
  8
0
 62
7
 10
40.307679605905513
 20
48.403209069370462
 70
0
  0
SEQEND
  5
810
  8
0
  0
POLYLINE
  5
811
  8
0
 62
7
 66
1
 70
0
 10
0
 20
0
 30
0
  0
VERTEX
  5
812
  8
0
 62
7
 10
40.307679605905513
 20
48.403209069370462
 70
0
  0
VERTEX
  5
813
  8
0
 62
7
 10
39.630373833505388
 20
49.038140167302
 70
0
  0
SEQEND
  5
814
  8
0
  0
POLYLINE
  5
815
  8
0
 62
7
 66
1
 70
0
 10
0
 20
0
 30
0
  0
VERTEX
  5
816
  8
0
 62
7
 10
39.630373833505388
 20
49.038140167302
 70
0
  0
VERTEX
  5
817
  8
0
 62
7
 10
38.910693386636687
 20
49.630868845539283
 70
0
  0
SEQEND
  5
818
  8
0
  0
POLYLINE
  5
819
  8
0
 62
7
 66
1
 70
0
 10
0
 20
0
 30
0
  0
VERTEX
  5
81A
  8
0
 62
7
 10
38.910693386636687
 20
49.630868845539283
 70
0
  0
VERTEX
  5
81B
  8
0
 62
7
 10
38.148638265299439
 20
50.181222849307908
 70
0
  0
SEQEND
  5
81C
  8
0
  0
POLYLINE
  5
81D
  8
0
 62
7
 66
1
 70
0
 10
0
 20
0
 30
0
  0
VERTEX
  5
81E
  8
0
 62
7
 10
38.148638265299439
 20
50.181222849307908
 70
0
  0
VERTEX
  5
81F
  8
0
 62
7
 10
38.148638265299439
 20
50.181222849307908
 70
0
  0
SEQEND
  5
820
  8
0
  0
POLYLINE
  5
821
  8
0
 62
7
 66
1
 70
0
 10
0
 20
0
 30
0
  0
VERTEX
  5
822
  8
0
 62
7
 10
27.480900095223319
 20
51.281930856845229
 70
0
  0
VERTEX
  5
823
  8
0
 62
7
 10
26.634095624948909
 20
50.858528621708047
 70
0
  0
SEQEND
  5
824
  8
0
  0
POLYLINE
  5
825
  8
0
 62
7
 66
1
 70
0
 10
0
 20
0
 30
0
  0
VERTEX
  5
826
  8
0
 62
7
 10
26.634095624948909
 20
50.858528621708047
 70
0
  0
VERTEX
  5
827
  8
0
 62
7
 10
25.829665829143071
 20
50.392751712102267
 70
0
  0
SEQEND
  5
828
  8
0
  0
POLYLINE
  5
829
  8
0
 62
7
 66
1
 70
0
 10
0
 20
0
 30
0
  0
VERTEX
  5
82A
  8
0
 62
7
 10
25.829665829143071
 20
50.392751712102267
 70
0
  0
VERTEX
  5
82B
  8
0
 62
7
 10
25.025580542885759
 20
49.842569963107849
 70
0
  0
SEQEND
  5
82C
  8
0
  0
POLYLINE
  5
82D
  8
0
 62
7
 66
1
 70
0
 10
0
 20
0
 30
0
  0
VERTEX
  5
82E
  8
0
 62
7
 10
25.025580542885759
 20
49.842569963107849
 70
0
  0
VERTEX
  5
82F
  8
0
 62
7
 10
24.263525421548479
 20
49.29221595933921
 70
0
  0
SEQEND
  5
830
  8
0
  0
POLYLINE
  5
831
  8
0
 62
7
 66
1
 70
0
 10
0
 20
0
 30
0
  0
VERTEX
  5
832
  8
0
 62
7
 10
24.263525421548479
 20
49.29221595933921
 70
0
  0
VERTEX
  5
833
  8
0
 62
7
 10
23.543844974679811
 20
48.614910186939078
 70
0
  0
SEQEND
  5
834
  8
0
  0
POLYLINE
  5
835
  8
0
 62
7
 66
1
 70
0
 10
0
 20
0
 30
0
  0
VERTEX
  5
836
  8
0
 62
7
 10
23.543844974679811
 20
48.614910186939078
 70
0
  0
VERTEX
  5
837
  8
0
 62
7
 10
22.90891387674824
 20
47.979806834233273
 70
0
  0
SEQEND
  5
838
  8
0
  0
POLYLINE
  5
839
  8
0
 62
7
 66
1
 70
0
 10
0
 20
0
 30
0
  0
VERTEX
  5
83A
  8
0
 62
7
 10
22.90891387674824
 20
47.979806834233273
 70
0
  0
VERTEX
  5
83B
  8
0
 62
7
 10
22.27363826926819
 20
47.2601263873646
 70
0
  0
SEQEND
  5
83C
  8
0
  0
POLYLINE
  5
83D
  8
0
 62
7
 66
1
 70
0
 10
0
 20
0
 30
0
  0
VERTEX
  5
83E
  8
0
 62
7
 10
22.27363826926819
 20
47.2601263873646
 70
0
  0
VERTEX
  5
83F
  8
0
 62
7
 10
21.68108184580521
 20
46.498243520801559
 70
0
  0
SEQEND
  5
840
  8
0
  0
POLYLINE
  5
841
  8
0
 62
7
 66
1
 70
0
 10
0
 20
0
 30
0
  0
VERTEX
  5
842
  8
0
 62
7
 10
21.68108184580521
 20
46.498243520801559
 70
0
  0
VERTEX
  5
843
  8
0
 62
7
 10
21.173274771279381
 20
45.693813724995721
 70
0
  0
SEQEND
  5
844
  8
0
  0
POLYLINE
  5
845
  8
0
 62
7
 66
1
 70
0
 10
0
 20
0
 30
0
  0
VERTEX
  5
846
  8
0
 62
7
 10
21.173274771279381
 20
45.693813724995721
 70
0
  0
VERTEX
  5
847
  8
0
 62
7
 10
20.7074978616736
 20
44.847181509495613
 70
0
  0
SEQEND
  5
848
  8
0
  0
POLYLINE
  5
849
  8
0
 62
7
 66
1
 70
0
 10
0
 20
0
 30
0
  0
VERTEX
  5
84A
  8
0
 62
7
 10
20.7074978616736
 20
44.847181509495613
 70
0
  0
VERTEX
  5
84B
  8
0
 62
7
 10
20.284095626536409
 20
44.000549293995441
 70
0
  0
SEQEND
  5
84C
  8
0
  0
POLYLINE
  5
84D
  8
0
 62
7
 66
1
 70
0
 10
0
 20
0
 30
0
  0
VERTEX
  5
84E
  8
0
 62
7
 10
20.284095626536409
 20
44.000549293995441
 70
0
  0
VERTEX
  5
84F
  8
0
 62
7
 10
19.94544274033635
 20
43.111542404026743
 70
0
  0
SEQEND
  5
850
  8
0
  0
POLYLINE
  5
851
  8
0
 62
7
 66
1
 70
0
 10
0
 20
0
 30
0
  0
VERTEX
  5
852
  8
0
 62
7
 10
19.94544274033635
 20
43.111542404026743
 70
0
  0
VERTEX
  5
853
  8
0
 62
7
 10
19.94544274033635
 20
43.111542404026743
 70
0
  0
SEQEND
  5
854
  8
0
  0
POLYLINE
  5
855
  8
0
 62
7
 66
1
 70
0
 10
0
 20
0
 30
0
  0
VERTEX
  5
856
  8
0
 62
7
 10
19.94544274033635
 20
43.111542404026743
 70
0
  0
VERTEX
  5
857
  8
0
 62
7
 10
19.649164528604871
 20
42.180160839589462
 70
0
  0
SEQEND
  5
858
  8
0
  0
POLYLINE
  5
859
  8
0
 62
7
 66
1
 70
0
 10
0
 20
0
 30
0
  0
VERTEX
  5
85A
  8
0
 62
7
 10
19.649164528604871
 20
42.180160839589462
 70
0
  0
VERTEX
  5
85B
  8
0
 62
7
 10
19.39526099134196
 20
41.206576855457847
 70
0
  0
SEQEND
  5
85C
  8
0
  0
POLYLINE
  5
85D
  8
0
 62
7
 66
1
 70
0
 10
0
 20
0
 30
0
  0
VERTEX
  5
85E
  8
0
 62
7
 10
19.39526099134196
 20
41.206576855457847
 70
0
  0
VERTEX
  5
85F
  8
0
 62
7
 10
19.183387618999092
 20
40.275195291020573
 70
0
  0
SEQEND
  5
860
  8
0
  0
POLYLINE
  5
861
  8
0
 62
7
 66
1
 70
0
 10
0
 20
0
 30
0
  0
VERTEX
  5
862
  8
0
 62
7
 10
19.183387618999092
 20
40.275195291020573
 70
0
  0
VERTEX
  5
863
  8
0
 62
7
 10
19.014233430673329
 20
39.301439052114688
 70
0
  0
SEQEND
  5
864
  8
0
  0
POLYLINE
  5
865
  8
0
 62
7
 66
1
 70
0
 10
0
 20
0
 30
0
  0
VERTEX
  5
866
  8
0
 62
7
 10
19.014233430673329
 20
39.301439052114688
 70
0
  0
VERTEX
  5
867
  8
0
 62
7
 10
18.929484081736181
 20
38.32785506798308
 70
0
  0
SEQEND
  5
868
  8
0
  0
POLYLINE
  5
869
  8
0
 62
7
 66
1
 70
0
 10
0
 20
0
 30
0
  0
VERTEX
  5
86A
  8
0
 62
7
 10
18.929484081736181
 20
38.32785506798308
 70
0
  0
VERTEX
  5
86B
  8
0
 62
7
 10
18.887109407267591
 20
37.311896409382882
 70
0
  0
SEQEND
  5
86C
  8
0
  0
POLYLINE
  5
86D
  8
0
 62
7
 66
1
 70
0
 10
0
 20
0
 30
0
  0
VERTEX
  5
86E
  8
0
 62
7
 10
18.887109407267591
 20
37.311896409382882
 70
0
  0
VERTEX
  5
86F
  8
0
 62
7
 10
18.929484081736181
 20
36.338140170477011
 70
0
  0
SEQEND
  5
870
  8
0
  0
POLYLINE
  5
871
  8
0
 62
7
 66
1
 70
0
 10
0
 20
0
 30
0
  0
VERTEX
  5
872
  8
0
 62
7
 10
18.929484081736181
 20
36.338140170477011
 70
0
  0
VERTEX
  5
873
  8
0
 62
7
 10
19.014233430673329
 20
35.3645561863454
 70
0
  0
SEQEND
  5
874
  8
0
  0
POLYLINE
  5
875
  8
0
 62
7
 66
1
 70
0
 10
0
 20
0
 30
0
  0
VERTEX
  5
876
  8
0
 62
7
 10
19.014233430673329
 20
35.3645561863454
 70
0
  0
VERTEX
  5
877
  8
0
 62
7
 10
19.1410129445305
 20
34.390799947439582
 70
0
  0
SEQEND
  5
878
  8
0
  0
POLYLINE
  5
879
  8
0
 62
7
 66
1
 70
0
 10
0
 20
0
 30
0
  0
VERTEX
  5
87A
  8
0
 62
7
 10
19.1410129445305
 20
34.390799947439582
 70
0
  0
VERTEX
  5
87B
  8
0
 62
7
 10
19.35288631687337
 20
33.417215963307967
 70
0
  0
SEQEND
  5
87C
  8
0
  0
POLYLINE
  5
87D
  8
0
 62
7
 66
1
 70
0
 10
0
 20
0
 30
0
  0
VERTEX
  5
87E
  8
0
 62
7
 10
19.35288631687337
 20
33.417215963307967
 70
0
  0
VERTEX
  5
87F
  8
0
 62
7
 10
19.606789854136281
 20
32.485834398870679
 70
0
  0
SEQEND
  5
880
  8
0
  0
POLYLINE
  5
881
  8
0
 62
7
 66
1
 70
0
 10
0
 20
0
 30
0
  0
VERTEX
  5
882
  8
0
 62
7
 10
19.606789854136281
 20
32.485834398870679
 70
0
  0
VERTEX
  5
883
  8
0
 62
7
 10
19.903068065867782
 20
31.554452834433391
 70
0
  0
SEQEND
  5
884
  8
0
  0
POLYLINE
  5
885
  8
0
 62
7
 66
1
 70
0
 10
0
 20
0
 30
0
  0
VERTEX
  5
886
  8
0
 62
7
 10
19.903068065867782
 20
31.554452834433391
 70
0
  0
VERTEX
  5
887
  8
0
 62
7
 10
20.284095626536409
 20
30.623243524770341
 70
0
  0
SEQEND
  5
888
  8
0
  0
POLYLINE
  5
889
  8
0
 62
7
 66
1
 70
0
 10
0
 20
0
 30
0
  0
VERTEX
  5
88A
  8
0
 62
7
 10
20.284095626536409
 20
30.623243524770341
 70
0
  0
VERTEX
  5
88B
  8
0
 62
7
 10
20.66512318720504
 20
29.734236634801618
 70
0
  0
SEQEND
  5
88C
  8
0
  0
POLYLINE
  5
88D
  8
0
 62
7
 66
1
 70
0
 10
0
 20
0
 30
0
  0
VERTEX
  5
88E
  8
0
 62
7
 10
20.66512318720504
 20
29.734236634801618
 70
0
  0
VERTEX
  5
88F
  8
0
 62
7
 10
21.130900096810819
 20
28.845229744832888
 70
0
  0
SEQEND
  5
890
  8
0
  0
POLYLINE
  5
891
  8
0
 62
7
 66
1
 70
0
 10
0
 20
0
 30
0
  0
VERTEX
  5
892
  8
0
 62
7
 10
21.130900096810819
 20
28.845229744832888
 70
0
  0
VERTEX
  5
893
  8
0
 62
7
 10
21.130900096810819
 20
28.845229744832888
 70
0
  0
SEQEND
  5
894
  8
0
  0
POLYLINE
  5
895
  8
0
 62
7
 66
1
 70
0
 10
0
 20
0
 30
0
  0
VERTEX
  5
896
  8
0
 62
7
 10
21.130900096810819
 20
28.845229744832888
 70
0
  0
VERTEX
  5
897
  8
0
 62
7
 10
21.638707171336652
 20
28.040799949027051
 70
0
  0
SEQEND
  5
898
  8
0
  0
POLYLINE
  5
899
  8
0
 62
7
 66
1
 70
0
 10
0
 20
0
 30
0
  0
VERTEX
  5
89A
  8
0
 62
7
 10
21.638707171336652
 20
28.040799949027051
 70
0
  0
VERTEX
  5
89B
  8
0
 62
7
 10
22.23160810434814
 20
27.278917082464059
 70
0
  0
SEQEND
  5
89C
  8
0
  0
POLYLINE
  5
89D
  8
0
 62
7
 66
1
 70
0
 10
0
 20
0
 30
0
  0
VERTEX
  5
89E
  8
0
 62
7
 10
22.23160810434814
 20
27.278917082464059
 70
0
  0
VERTEX
  5
89F
  8
0
 62
7
 10
22.824164527811121
 20
26.516861961126779
 70
0
  0
SEQEND
  5
8A0
  8
0
  0
POLYLINE
  5
8A1
  8
0
 62
7
 66
1
 70
0
 10
0
 20
0
 30
0
  0
VERTEX
  5
8A2
  8
0
 62
7
 10
22.824164527811121
 20
26.516861961126779
 70
0
  0
VERTEX
  5
8A3
  8
0
 62
7
 10
23.501470300211231
 20
25.839556188726679
 70
0
  0
SEQEND
  5
8A4
  8
0
  0
POLYLINE
  5
8A5
  8
0
 62
7
 66
1
 70
0
 10
0
 20
0
 30
0
  0
VERTEX
  5
8A6
  8
0
 62
7
 10
23.501470300211231
 20
25.839556188726679
 70
0
  0
VERTEX
  5
8A7
  8
0
 62
7
 10
24.221150747079921
 20
25.20445283602086
 70
0
  0
SEQEND
  5
8A8
  8
0
  0
POLYLINE
  5
8A9
  8
0
 62
7
 66
1
 70
0
 10
0
 20
0
 30
0
  0
VERTEX
  5
8AA
  8
0
 62
7
 10
24.221150747079921
 20
25.20445283602086
 70
0
  0
VERTEX
  5
8AB
  8
0
 62
7
 10
24.940831193948611
 20
24.611896412557879
 70
0
  0
SEQEND
  5
8AC
  8
0
  0
POLYLINE
  5
8AD
  8
0
 62
7
 66
1
 70
0
 10
0
 20
0
 30
0
  0
VERTEX
  5
8AE
  8
0
 62
7
 10
24.940831193948611
 20
24.611896412557879
 70
0
  0
VERTEX
  5
8AF
  8
0
 62
7
 10
25.74526098975446
 20
24.103917083257809
 70
0
  0
SEQEND
  5
8B0
  8
0
  0
POLYLINE
  5
8B1
  8
0
 62
7
 66
1
 70
0
 10
0
 20
0
 30
0
  0
VERTEX
  5
8B2
  8
0
 62
7
 10
25.74526098975446
 20
24.103917083257809
 70
0
  0
VERTEX
  5
8B3
  8
0
 62
7
 10
25.74526098975446
 20
24.103917083257809
 70
0
  0
SEQEND
  5
8B4
  8
0
  0
POLYLINE
  5
8B5
  8
0
 62
7
 66
1
 70
0
 10
0
 20
0
 30
0
  0
VERTEX
  5
8B6
  8
0
 62
7
 10
26.29544273874885
 20
23.130160844351941
 70
0
  0
VERTEX
  5
8B7
  8
0
 62
7
 10
27.14224720902326
 20
22.70693086398899
 70
0
  0
SEQEND
  5
8B8
  8
0
  0
POLYLINE
  5
8B9
  8
0
 62
7
 66
1
 70
0
 10
0
 20
0
 30
0
  0
VERTEX
  5
8BA
  8
0
 62
7
 10
27.14224720902326
 20
22.70693086398899
 70
0
  0
VERTEX
  5
8BB
  8
0
 62
7
 10
27.988707169749151
 20
22.325903303320359
 70
0
  0
SEQEND
  5
8BC
  8
0
  0
POLYLINE
  5
8BD
  8
0
 62
7
 66
1
 70
0
 10
0
 20
0
 30
0
  0
VERTEX
  5
8BE
  8
0
 62
7
 10
27.988707169749151
 20
22.325903303320359
 70
0
  0
VERTEX
  5
8BF
  8
0
 62
7
 10
28.877886314492109
 20
22.02945283681462
 70
0
  0
SEQEND
  5
8C0
  8
0
  0
POLYLINE
  5
8C1
  8
0
 62
7
 66
1
 70
0
 10
0
 20
0
 30
0
  0
VERTEX
  5
8C2
  8
0
 62
7
 10
28.877886314492109
 20
22.02945283681462
 70
0
  0
VERTEX
  5
8C3
  8
0
 62
7
 10
29.766720949686569
 20
21.817751719246019
 70
0
  0
SEQEND
  5
8C4
  8
0
  0
POLYLINE
  5
8C5
  8
0
 62
7
 66
1
 70
0
 10
0
 20
0
 30
0
  0
VERTEX
  5
8C6
  8
0
 62
7
 10
29.766720949686569
 20
21.817751719246019
 70
0
  0
VERTEX
  5
8C7
  8
0
 62
7
 10
30.698274768898131
 20
21.690799950614551
 70
0
  0
SEQEND
  5
8C8
  8
0
  0
POLYLINE
  5
8C9
  8
0
 62
7
 66
1
 70
0
 10
0
 20
0
 30
0
  0
VERTEX
  5
8CA
  8
0
 62
7
 10
30.698274768898131
 20
21.690799950614551
 70
0
  0
VERTEX
  5
8CB
  8
0
 62
7
 10
31.62948407856118
 20
21.606222856451669
 70
0
  0
SEQEND
  5
8CC
  8
0
  0
POLYLINE
  5
8CD
  8
0
 62
7
 66
1
 70
0
 10
0
 20
0
 30
0
  0
VERTEX
  5
8CE
  8
0
 62
7
 10
31.62948407856118
 20
21.606222856451669
 70
0
  0
VERTEX
  5
8CF
  8
0
 62
7
 10
32.518318713755633
 20
21.606222856451669
 70
0
  0
SEQEND
  5
8D0
  8
0
  0
POLYLINE
  5
8D1
  8
0
 62
7
 66
1
 70
0
 10
0
 20
0
 30
0
  0
VERTEX
  5
8D2
  8
0
 62
7
 10
32.518318713755633
 20
21.606222856451669
 70
0
  0
VERTEX
  5
8D3
  8
0
 62
7
 10
33.449872532967191
 20
21.648597530920249
 70
0
  0
SEQEND
  5
8D4
  8
0
  0
POLYLINE
  5
8D5
  8
0
 62
7
 66
1
 70
0
 10
0
 20
0
 30
0
  0
VERTEX
  5
8D6
  8
0
 62
7
 10
33.449872532967191
 20
21.648597530920249
 70
0
  0
VERTEX
  5
8D7
  8
0
 62
7
 10
34.381081842630209
 20
21.7755492995517
 70
0
  0
SEQEND
  5
8D8
  8
0
  0
POLYLINE
  5
8D9
  8
0
 62
7
 66
1
 70
0
 10
0
 20
0
 30
0
  0
VERTEX
  5
8DA
  8
0
 62
7
 10
34.381081842630209
 20
21.7755492995517
 70
0
  0
VERTEX
  5
8DB
  8
0
 62
7
 10
35.270260987373213
 20
22.02945283681462
 70
0
  0
SEQEND
  5
8DC
  8
0
  0
POLYLINE
  5
8DD
  8
0
 62
7
 66
1
 70
0
 10
0
 20
0
 30
0
  0
VERTEX
  5
8DE
  8
0
 62
7
 10
35.270260987373213
 20
22.02945283681462
 70
0
  0
VERTEX
  5
8DF
  8
0
 62
7
 10
36.159095622567662
 20
22.2835286288518
 70
0
  0
SEQEND
  5
8E0
  8
0
  0
POLYLINE
  5
8E1
  8
0
 62
7
 66
1
 70
0
 10
0
 20
0
 30
0
  0
VERTEX
  5
8E2
  8
0
 62
7
 10
36.159095622567662
 20
22.2835286288518
 70
0
  0
VERTEX
  5
8E3
  8
0
 62
7
 10
37.04827476731063
 20
22.664556189520429
 70
0
  0
SEQEND
  5
8E4
  8
0
  0
POLYLINE
  5
8E5
  8
0
 62
7
 66
1
 70
0
 10
0
 20
0
 30
0
  0
VERTEX
  5
8E6
  8
0
 62
7
 10
37.04827476731063
 20
22.664556189520429
 70
0
  0
VERTEX
  5
8E7
  8
0
 62
7
 10
37.894734728036532
 20
23.087786169883369
 70
0
  0
SEQEND
  5
8E8
  8
0
  0
POLYLINE
  5
8E9
  8
0
 62
7
 66
1
 70
0
 10
0
 20
0
 30
0
  0
VERTEX
  5
8EA
  8
0
 62
7
 10
37.894734728036532
 20
23.087786169883369
 70
0
  0
VERTEX
  5
8EB
  8
0
 62
7
 10
38.741539198310932
 20
23.59576549918344
 70
0
  0
SEQEND
  5
8EC
  8
0
  0
POLYLINE
  5
8ED
  8
0
 62
7
 66
1
 70
0
 10
0
 20
0
 30
0
  0
VERTEX
  5
8EE
  8
0
 62
7
 10
38.741539198310932
 20
23.59576549918344
 70
0
  0
VERTEX
  5
8EF
  8
0
 62
7
 10
39.503594319648187
 20
24.1461195029521
 70
0
  0
SEQEND
  5
8F0
  8
0
  0
POLYLINE
  5
8F1
  8
0
 62
7
 66
1
 70
0
 10
0
 20
0
 30
0
  0
VERTEX
  5
8F2
  8
0
 62
7
 10
39.503594319648187
 20
24.1461195029521
 70
0
  0
VERTEX
  5
8F3
  8
0
 62
7
 10
40.26530493143693
 20
24.738848181189361
 70
0
  0
SEQEND
  5
8F4
  8
0
  0
POLYLINE
  5
8F5
  8
0
 62
7
 66
1
 70
0
 10
0
 20
0
 30
0
  0
VERTEX
  5
8F6
  8
0
 62
7
 10
40.26530493143693
 20
24.738848181189361
 70
0
  0
VERTEX
  5
8F7
  8
0
 62
7
 10
40.984985378305623
 20
25.3737792791209
 70
0
  0
SEQEND
  5
8F8
  8
0
  0
POLYLINE
  5
8F9
  8
0
 62
7
 66
1
 70
0
 10
0
 20
0
 30
0
  0
VERTEX
  5
8FA
  8
0
 62
7
 10
40.984985378305623
 20
25.3737792791209
 70
0
  0
VERTEX
  5
8FB
  8
0
 62
7
 10
41.662635660254267
 20
26.09345972598959
 70
0
  0
SEQEND
  5
8FC
  8
0
  0
POLYLINE
  5
8FD
  8
0
 62
7
 66
1
 70
0
 10
0
 20
0
 30
0
  0
VERTEX
  5
8FE
  8
0
 62
7
 10
41.662635660254267
 20
26.09345972598959
 70
0
  0
VERTEX
  5
8FF
  8
0
 62
7
 10
42.25519208371724
 20
26.813140172858279
 70
0
  0
SEQEND
  5
900
  8
0
  0
POLYLINE
  5
901
  8
0
 62
7
 66
1
 70
0
 10
0
 20
0
 30
0
  0
VERTEX
  5
902
  8
0
 62
7
 10
42.25519208371724
 20
26.813140172858279
 70
0
  0
VERTEX
  5
903
  8
0
 62
7
 10
42.805373832711631
 20
27.575195294195542
 70
0
  0
SEQEND
  5
904
  8
0
  0
POLYLINE
  5
905
  8
0
 62
7
 66
1
 70
0
 10
0
 20
0
 30
0
  0
VERTEX
  5
906
  8
0
 62
7
 10
42.805373832711631
 20
27.575195294195542
 70
0
  0
VERTEX
  5
907
  8
0
 62
7
 10
43.355900091254561
 20
28.37945283522712
 70
0
  0
SEQEND
  5
908
  8
0
  0
POLYLINE
  5
909
  8
0
 62
7
 66
1
 70
0
 10
0
 20
0
 30
0
  0
VERTEX
  5
90A
  8
0
 62
7
 10
43.355900091254561
 20
28.37945283522712
 70
0
  0
VERTEX
  5
90B
  8
0
 62
7
 10
43.821332491311807
 20
29.226085050727249
 70
0
  0
SEQEND
  5
90C
  8
0
  0
POLYLINE
  5
90D
  8
0
 62
7
 66
1
 70
0
 10
0
 20
0
 30
0
  0
VERTEX
  5
90E
  8
0
 62
7
 10
43.821332491311807
 20
29.226085050727249
 70
0
  0
VERTEX
  5
90F
  8
0
 62
7
 10
44.202360051980463
 20
30.11526419547025
 70
0
  0
SEQEND
  5
910
  8
0
  0
POLYLINE
  5
911
  8
0
 62
7
 66
1
 70
0
 10
0
 20
0
 30
0
  0
VERTEX
  5
912
  8
0
 62
7
 10
44.202360051980463
 20
30.11526419547025
 70
0
  0
VERTEX
  5
913
  8
0
 62
7
 10
44.202360051980463
 20
30.11526419547025
 70
0
  0
SEQEND
  5
914
  8
0
  0
POLYLINE
  5
915
  8
0
 62
7
 66
1
 70
0
 10
0
 20
0
 30
0
  0
VERTEX
  5
916
  8
0
 62
7
 10
44.202360051980463
 20
30.11526419547025
 70
0
  0
VERTEX
  5
917
  8
0
 62
7
 10
44.5410129381805
 20
31.004098830664709
 70
0
  0
SEQEND
  5
918
  8
0
  0
POLYLINE
  5
919
  8
0
 62
7
 66
1
 70
0
 10
0
 20
0
 30
0
  0
VERTEX
  5
91A
  8
0
 62
7
 10
44.5410129381805
 20
31.004098830664709
 70
0
  0
VERTEX
  5
91B
  8
0
 62
7
 10
44.879665824380567
 20
31.8931057206334
 70
0
  0
SEQEND
  5
91C
  8
0
  0
POLYLINE
  5
91D
  8
0
 62
7
 66
1
 70
0
 10
0
 20
0
 30
0
  0
VERTEX
  5
91E
  8
0
 62
7
 10
44.879665824380567
 20
31.8931057206334
 70
0
  0
VERTEX
  5
91F
  8
0
 62
7
 10
45.133913871192007
 20
32.824487285070688
 70
0
  0
SEQEND
  5
920
  8
0
  0
POLYLINE
  5
921
  8
0
 62
7
 66
1
 70
0
 10
0
 20
0
 30
0
  0
VERTEX
  5
922
  8
0
 62
7
 10
45.133913871192007
 20
32.824487285070688
 70
0
  0
VERTEX
  5
923
  8
0
 62
7
 10
45.345442733986339
 20
33.755868849508033
 70
0
  0
SEQEND
  5
924
  8
0
  0
POLYLINE
  5
925
  8
0
 62
7
 66
1
 70
0
 10
0
 20
0
 30
0
  0
VERTEX
  5
926
  8
0
 62
7
 10
45.345442733986339
 20
33.755868849508033
 70
0
  0
VERTEX
  5
927
  8
0
 62
7
 10
45.514941431860642
 20
34.687250413945321
 70
0
  0
SEQEND
  5
928
  8
0
  0
POLYLINE
  5
929
  8
0
 62
7
 66
1
 70
0
 10
0
 20
0
 30
0
  0
VERTEX
  5
92A
  8
0
 62
7
 10
45.514941431860642
 20
34.687250413945321
 70
0
  0
VERTEX
  5
92B
  8
0
 62
7
 10
45.59934627124926
 20
35.618459723608339
 70
0
  0
SEQEND
  5
92C
  8
0
  0
POLYLINE
  5
92D
  8
0
 62
7
 66
1
 70
0
 10
0
 20
0
 30
0
  0
VERTEX
  5
92E
  8
0
 62
7
 10
45.59934627124926
 20
35.618459723608339
 70
0
  0
VERTEX
  5
92F
  8
0
 62
7
 10
45.684095620186412
 20
36.592215962514217
 70
0
  0
SEQEND
  5
930
  8
0
  0
POLYLINE
  5
931
  8
0
 62
7
 66
1
 70
0
 10
0
 20
0
 30
0
  0
VERTEX
  5
932
  8
0
 62
7
 10
45.684095620186412
 20
36.592215962514217
 70
0
  0
VERTEX
  5
933
  8
0
 62
7
 10
45.684095620186412
 20
37.523597526951512
 70
0
  0
SEQEND
  5
934
  8
0
  0
POLYLINE
  5
935
  8
0
 62
7
 66
1
 70
0
 10
0
 20
0
 30
0
  0
VERTEX
  5
936
  8
0
 62
7
 10
45.684095620186412
 20
37.523597526951512
 70
0
  0
VERTEX
  5
937
  8
0
 62
7
 10
45.641720945717822
 20
38.497181511083113
 70
0
  0
SEQEND
  5
938
  8
0
  0
POLYLINE
  5
939
  8
0
 62
7
 66
1
 70
0
 10
0
 20
0
 30
0
  0
VERTEX
  5
93A
  8
0
 62
7
 10
45.641720945717822
 20
38.497181511083113
 70
0
  0
VERTEX
  5
93B
  8
0
 62
7
 10
45.5569715967807
 20
39.4285630755204
 70
0
  0
SEQEND
  5
93C
  8
0
  0
POLYLINE
  5
93D
  8
0
 62
7
 66
1
 70
0
 10
0
 20
0
 30
0
  0
VERTEX
  5
93E
  8
0
 62
7
 10
45.5569715967807
 20
39.4285630755204
 70
0
  0
VERTEX
  5
93F
  8
0
 62
7
 10
45.43019208292349
 20
40.359772385183412
 70
0
  0
SEQEND
  5
940
  8
0
  0
POLYLINE
  5
941
  8
0
 62
7
 66
1
 70
0
 10
0
 20
0
 30
0
  0
VERTEX
  5
942
  8
0
 62
7
 10
45.43019208292349
 20
40.359772385183412
 70
0
  0
VERTEX
  5
943
  8
0
 62
7
 10
45.218318710580633
 20
41.33352862408929
 70
0
  0
SEQEND
  5
944
  8
0
  0
POLYLINE
  5
945
  8
0
 62
7
 66
1
 70
0
 10
0
 20
0
 30
0
  0
VERTEX
  5
946
  8
0
 62
7
 10
45.218318710580633
 20
41.33352862408929
 70
0
  0
VERTEX
  5
947
  8
0
 62
7
 10
44.964415173317711
 20
42.222535514057988
 70
0
  0
SEQEND
  5
948
  8
0
  0
POLYLINE
  5
949
  8
0
 62
7
 66
1
 70
0
 10
0
 20
0
 30
0
  0
VERTEX
  5
94A
  8
0
 62
7
 10
44.964415173317711
 20
42.222535514057988
 70
0
  0
VERTEX
  5
94B
  8
0
 62
7
 10
44.7105116360548
 20
43.153917078495283
 70
0
  0
SEQEND
  5
94C
  8
0
  0
POLYLINE
  5
94D
  8
0
 62
7
 66
1
 70
0
 10
0
 20
0
 30
0
  0
VERTEX
  5
94E
  8
0
 62
7
 10
44.7105116360548
 20
43.153917078495283
 70
0
  0
VERTEX
  5
94F
  8
0
 62
7
 10
44.371858749854731
 20
44.042751713689761
 70
0
  0
SEQEND
  5
950
  8
0
  0
POLYLINE
  5
951
  8
0
 62
7
 66
1
 70
0
 10
0
 20
0
 30
0
  0
VERTEX
  5
952
  8
0
 62
7
 10
44.371858749854731
 20
44.042751713689761
 70
0
  0
VERTEX
  5
953
  8
0
 62
7
 10
44.371858749854731
 20
44.042751713689761
 70
0
  0
SEQEND
  5
954
  8
0
  0
POLYLINE
  5
955
  8
0
 62
7
 66
1
 70
0
 10
0
 20
0
 30
0
  0
VERTEX
  5
956
  8
0
 62
7
 10
44.371858749854731
 20
44.042751713689761
 70
0
  0
VERTEX
  5
957
  8
0
 62
7
 10
43.99083118918611
 20
44.889556183964139
 70
0
  0
SEQEND
  5
958
  8
0
  0
POLYLINE
  5
959
  8
0
 62
7
 66
1
 70
0
 10
0
 20
0
 30
0
  0
VERTEX
  5
95A
  8
0
 62
7
 10
43.99083118918611
 20
44.889556183964139
 70
0
  0
VERTEX
  5
95B
  8
0
 62
7
 10
43.567428954048893
 20
45.693813724995721
 70
0
  0
SEQEND
  5
95C
  8
0
  0
POLYLINE
  5
95D
  8
0
 62
7
 66
1
 70
0
 10
0
 20
0
 30
0
  0
VERTEX
  5
95E
  8
0
 62
7
 10
43.567428954048893
 20
45.693813724995721
 70
0
  0
VERTEX
  5
95F
  8
0
 62
7
 10
43.101652044443142
 20
46.455868846333033
 70
0
  0
SEQEND
  5
960
  8
0
  0
POLYLINE
  5
961
  8
0
 62
7
 66
1
 70
0
 10
0
 20
0
 30
0
  0
VERTEX
  5
962
  8
0
 62
7
 10
43.101652044443142
 20
46.455868846333033
 70
0
  0
VERTEX
  5
963
  8
0
 62
7
 10
42.593844969917313
 20
47.217751712896018
 70
0
  0
SEQEND
  5
964
  8
0
  0
POLYLINE
  5
965
  8
0
 62
7
 66
1
 70
0
 10
0
 20
0
 30
0
  0
VERTEX
  5
966
  8
0
 62
7
 10
42.593844969917313
 20
47.217751712896018
 70
0
  0
VERTEX
  5
967
  8
0
 62
7
 10
42.043318711374383
 20
47.937432159764683
 70
0
  0
SEQEND
  5
968
  8
0
  0
POLYLINE
  5
969
  8
0
 62
7
 66
1
 70
0
 10
0
 20
0
 30
0
  0
VERTEX
  5
96A
  8
0
 62
7
 10
42.043318711374383
 20
47.937432159764683
 70
0
  0
VERTEX
  5
96B
  8
0
 62
7
 10
41.4507622879114
 20
48.6571126066334
 70
0
  0
SEQEND
  5
96C
  8
0
  0
POLYLINE
  5
96D
  8
0
 62
7
 66
1
 70
0
 10
0
 20
0
 30
0
  0
VERTEX
  5
96E
  8
0
 62
7
 10
41.4507622879114
 20
48.6571126066334
 70
0
  0
VERTEX
  5
96F
  8
0
 62
7
 10
40.773456515511292
 20
49.29221595933921
 70
0
  0
SEQEND
  5
970
  8
0
  0
POLYLINE
  5
971
  8
0
 62
7
 66
1
 70
0
 10
0
 20
0
 30
0
  0
VERTEX
  5
972
  8
0
 62
7
 10
40.773456515511292
 20
49.29221595933921
 70
0
  0
VERTEX
  5
973
  8
0
 62
7
 10
40.09615074311116
 20
49.884772382802169
 70
0
  0
SEQEND
  5
974
  8
0
  0
POLYLINE
  5
975
  8
0
 62
7
 66
1
 70
0
 10
0
 20
0
 30
0
  0
VERTEX
  5
976
  8
0
 62
7
 10
40.09615074311116
 20
49.884772382802169
 70
0
  0
VERTEX
  5
977
  8
0
 62
7
 10
39.376470296242481
 20
50.435126386570857
 70
0
  0
SEQEND
  5
978
  8
0
  0
POLYLINE
  5
979
  8
0
 62
7
 66
1
 70
0
 10
0
 20
0
 30
0
  0
VERTEX
  5
97A
  8
0
 62
7
 10
39.376470296242481
 20
50.435126386570857
 70
0
  0
VERTEX
  5
97B
  8
0
 62
7
 10
38.614415174905218
 20
50.98548039033949
 70
0
  0
SEQEND
  5
97C
  8
0
  0
POLYLINE
  5
97D
  8
0
 62
7
 66
1
 70
0
 10
0
 20
0
 30
0
  0
VERTEX
  5
97E
  8
0
 62
7
 10
38.614415174905218
 20
50.98548039033949
 70
0
  0
VERTEX
  5
97F
  8
0
 62
7
 10
37.852360053567971
 20
51.451085045171
 70
0
  0
SEQEND
  5
980
  8
0
  0
POLYLINE
  5
981
  8
0
 62
7
 66
1
 70
0
 10
0
 20
0
 30
0
  0
VERTEX
  5
982
  8
0
 62
7
 10
37.852360053567971
 20
51.451085045171
 70
0
  0
VERTEX
  5
983
  8
0
 62
7
 10
37.852360053567971
 20
51.451085045171
 70
0
  0
SEQEND
  5
984
  8
0
  0
POLYLINE
  5
985
  8
0
 62
7
 66
1
 70
0
 10
0
 20
0
 30
0
  0
VERTEX
  5
986
  8
0
 62
7
 10
37.852360053567971
 20
51.451085045171
 70
0
  0
VERTEX
  5
987
  8
0
 62
7
 10
37.005900092842069
 20
51.874487280308237
 70
0
  0
SEQEND
  5
988
  8
0
  0
POLYLINE
  5
989
  8
0
 62
7
 66
1
 70
0
 10
0
 20
0
 30
0
  0
VERTEX
  5
98A
  8
0
 62
7
 10
37.005900092842069
 20
51.874487280308237
 70
0
  0
VERTEX
  5
98B
  8
0
 62
7
 10
36.159095622567662
 20
52.213140166508261
 70
0
  0
SEQEND
  5
98C
  8
0
  0
POLYLINE
  5
98D
  8
0
 62
7
 66
1
 70
0
 10
0
 20
0
 30
0
  0
VERTEX
  5
98E
  8
0
 62
7
 10
36.159095622567662
 20
52.213140166508261
 70
0
  0
VERTEX
  5
98F
  8
0
 62
7
 10
35.312635661841767
 20
52.467215958545466
 70
0
  0
SEQEND
  5
990
  8
0
  0
POLYLINE
  5
991
  8
0
 62
7
 66
1
 70
0
 10
0
 20
0
 30
0
  0
VERTEX
  5
992
  8
0
 62
7
 10
35.312635661841767
 20
52.467215958545466
 70
0
  0
VERTEX
  5
993
  8
0
 62
7
 10
34.4234565170988
 20
52.678917076114033
 70
0
  0
SEQEND
  5
994
  8
0
  0
POLYLINE
  5
995
  8
0
 62
7
 66
1
 70
0
 10
0
 20
0
 30
0
  0
VERTEX
  5
996
  8
0
 62
7
 10
34.4234565170988
 20
52.678917076114033
 70
0
  0
VERTEX
  5
997
  8
0
 62
7
 10
33.492247207435753
 20
52.805868844745532
 70
0
  0
SEQEND
  5
998
  8
0
  0
POLYLINE
  5
999
  8
0
 62
7
 66
1
 70
0
 10
0
 20
0
 30
0
  0
VERTEX
  5
99A
  8
0
 62
7
 10
33.492247207435753
 20
52.805868844745532
 70
0
  0
VERTEX
  5
99B
  8
0
 62
7
 10
32.603068062692792
 20
52.890445938908393
 70
0
  0
SEQEND
  5
99C
  8
0
  0
POLYLINE
  5
99D
  8
0
 62
7
 66
1
 70
0
 10
0
 20
0
 30
0
  0
VERTEX
  5
99E
  8
0
 62
7
 10
32.603068062692792
 20
52.890445938908393
 70
0
  0
VERTEX
  5
99F
  8
0
 62
7
 10
31.671858753029738
 20
52.890445938908393
 70
0
  0
SEQEND
  5
9A0
  8
0
  0
POLYLINE
  5
9A1
  8
0
 62
7
 66
1
 70
0
 10
0
 20
0
 30
0
  0
VERTEX
  5
9A2
  8
0
 62
7
 10
31.671858753029738
 20
52.890445938908393
 70
0
  0
VERTEX
  5
9A3
  8
0
 62
7
 10
30.74030493381818
 20
52.805868844745532
 70
0
  0
SEQEND
  5
9A4
  8
0
  0
POLYLINE
  5
9A5
  8
0
 62
7
 66
1
 70
0
 10
0
 20
0
 30
0
  0
VERTEX
  5
9A6
  8
0
 62
7
 10
30.74030493381818
 20
52.805868844745532
 70
0
  0
VERTEX
  5
9A7
  8
0
 62
7
 10
29.851470298623731
 20
52.678917076114033
 70
0
  0
SEQEND
  5
9A8
  8
0
  0
POLYLINE
  5
9A9
  8
0
 62
7
 66
1
 70
0
 10
0
 20
0
 30
0
  0
VERTEX
  5
9AA
  8
0
 62
7
 10
29.851470298623731
 20
52.678917076114033
 70
0
  0
VERTEX
  5
9AB
  8
0
 62
7
 10
28.962635663429271
 20
52.467215958545466
 70
0
  0
SEQEND
  5
9AC
  8
0
  0
POLYLINE
  5
9AD
  8
0
 62
7
 66
1
 70
0
 10
0
 20
0
 30
0
  0
VERTEX
  5
9AE
  8
0
 62
7
 10
28.962635663429271
 20
52.467215958545466
 70
0
  0
VERTEX
  5
9AF
  8
0
 62
7
 10
28.0734565186863
 20
52.17076549203972
 70
0
  0
SEQEND
  5
9B0
  8
0
  0
POLYLINE
  5
9B1
  8
0
 62
7
 66
1
 70
0
 10
0
 20
0
 30
0
  0
VERTEX
  5
9B2
  8
0
 62
7
 10
28.0734565186863
 20
52.17076549203972
 70
0
  0
VERTEX
  5
9B3
  8
0
 62
7
 10
28.0734565186863
 20
52.17076549203972
 70
0
  0
SEQEND
  5
9B4
  8
0
  0
POLYLINE
  5
9B5
  8
0
 62
7
 66
1
 70
0
 10
0
 20
0
 30
0
  0
VERTEX
  5
9B6
  8
0
 62
7
 10
28.0734565186863
 20
52.17076549203972
 70
0
  0
VERTEX
  5
9B7
  8
0
 62
7
 10
27.18462188349184
 20
51.789910186145327
 70
0
  0
SEQEND
  5
9B8
  8
0
  0
POLYLINE
  5
9B9
  8
0
 62
7
 66
1
 70
0
 10
0
 20
0
 30
0
  0
VERTEX
  5
9BA
  8
0
 62
7
 10
27.18462188349184
 20
51.789910186145327
 70
0
  0
VERTEX
  5
9BB
  8
0
 62
7
 10
26.337817413217412
 20
51.366507951008138
 70
0
  0
SEQEND
  5
9BC
  8
0
  0
POLYLINE
  5
9BD
  8
0
 62
7
 66
1
 70
0
 10
0
 20
0
 30
0
  0
VERTEX
  5
9BE
  8
0
 62
7
 10
26.337817413217412
 20
51.366507951008138
 70
0
  0
VERTEX
  5
9BF
  8
0
 62
7
 10
25.533387617411591
 20
50.858528621708047
 70
0
  0
SEQEND
  5
9C0
  8
0
  0
POLYLINE
  5
9C1
  8
0
 62
7
 66
1
 70
0
 10
0
 20
0
 30
0
  0
VERTEX
  5
9C2
  8
0
 62
7
 10
25.533387617411591
 20
50.858528621708047
 70
0
  0
VERTEX
  5
9C3
  8
0
 62
7
 10
24.729302331154258
 20
50.308174617939358
 70
0
  0
SEQEND
  5
9C4
  8
0
  0
POLYLINE
  5
9C5
  8
0
 62
7
 66
1
 70
0
 10
0
 20
0
 30
0
  0
VERTEX
  5
9C6
  8
0
 62
7
 10
24.729302331154258
 20
50.308174617939358
 70
0
  0
VERTEX
  5
9C7
  8
0
 62
7
 10
23.967247209817
 20
49.715445939702143
 70
0
  0
SEQEND
  5
9C8
  8
0
  0
POLYLINE
  5
9C9
  8
0
 62
7
 66
1
 70
0
 10
0
 20
0
 30
0
  0
VERTEX
  5
9CA
  8
0
 62
7
 10
23.967247209817
 20
49.715445939702143
 70
0
  0
VERTEX
  5
9CB
  8
0
 62
7
 10
23.24756676294831
 20
49.038140167302
 70
0
  0
SEQEND
  5
9CC
  8
0
  0
POLYLINE
  5
9CD
  8
0
 62
7
 66
1
 70
0
 10
0
 20
0
 30
0
  0
VERTEX
  5
9CE
  8
0
 62
7
 10
23.24756676294831
 20
49.038140167302
 70
0
  0
VERTEX
  5
9CF
  8
0
 62
7
 10
22.612635665016771
 20
48.360834394901929
 70
0
  0
SEQEND
  5
9D0
  8
0
  0
POLYLINE
  5
9D1
  8
0
 62
7
 66
1
 70
0
 10
0
 20
0
 30
0
  0
VERTEX
  5
9D2
  8
0
 62
7
 10
22.612635665016771
 20
48.360834394901929
 70
0
  0
VERTEX
  5
9D3
  8
0
 62
7
 10
21.977360057536721
 20
47.598779273564617
 70
0
  0
SEQEND
  5
9D4
  8
0
  0
POLYLINE
  5
9D5
  8
0
 62
7
 66
1
 70
0
 10
0
 20
0
 30
0
  0
VERTEX
  5
9D6
  8
0
 62
7
 10
21.977360057536721
 20
47.598779273564617
 70
0
  0
VERTEX
  5
9D7
  8
0
 62
7
 10
21.4271783085423
 20
46.836896407001632
 70
0
  0
SEQEND
  5
9D8
  8
0
  0
POLYLINE
  5
9D9
  8
0
 62
7
 66
1
 70
0
 10
0
 20
0
 30
0
  0
VERTEX
  5
9DA
  8
0
 62
7
 10
21.4271783085423
 20
46.836896407001632
 70
0
  0
VERTEX
  5
9DB
  8
0
 62
7
 10
20.919026724467962
 20
45.99026419150146
 70
0
  0
SEQEND
  5
9DC
  8
0
  0
POLYLINE
  5
9DD
  8
0
 62
7
 66
1
 70
0
 10
0
 20
0
 30
0
  0
VERTEX
  5
9DE
  8
0
 62
7
 10
20.919026724467962
 20
45.99026419150146
 70
0
  0
VERTEX
  5
9DF
  8
0
 62
7
 10
20.453594324410691
 20
45.143459721227089
 70
0
  0
SEQEND
  5
9E0
  8
0
  0
POLYLINE
  5
9E1
  8
0
 62
7
 66
1
 70
0
 10
0
 20
0
 30
0
  0
VERTEX
  5
9E2
  8
0
 62
7
 10
20.453594324410691
 20
45.143459721227089
 70
0
  0
VERTEX
  5
9E3
  8
0
 62
7
 10
20.453594324410691
 20
45.143459721227089
 70
0
  0
SEQEND
  5
9E4
  8
0
  0
POLYLINE
  5
9E5
  8
0
 62
7
 66
1
 70
0
 10
0
 20
0
 30
0
  0
VERTEX
  5
9E6
  8
0
 62
7
 10
20.453594324410691
 20
45.143459721227089
 70
0
  0
VERTEX
  5
9E7
  8
0
 62
7
 10
20.0301920892735
 20
44.254452831258391
 70
0
  0
SEQEND
  5
9E8
  8
0
  0
POLYLINE
  5
9E9
  8
0
 62
7
 66
1
 70
0
 10
0
 20
0
 30
0
  0
VERTEX
  5
9EA
  8
0
 62
7
 10
20.0301920892735
 20
44.254452831258391
 70
0
  0
VERTEX
  5
9EB
  8
0
 62
7
 10
19.691539203073429
 20
43.323243521595309
 70
0
  0
SEQEND
  5
9EC
  8
0
  0
POLYLINE
  5
9ED
  8
0
 62
7
 66
1
 70
0
 10
0
 20
0
 30
0
  0
VERTEX
  5
9EE
  8
0
 62
7
 10
19.691539203073429
 20
43.323243521595309
 70
0
  0
VERTEX
  5
9EF
  8
0
 62
7
 10
19.35288631687337
 20
42.349487282689431
 70
0
  0
SEQEND
  5
9F0
  8
0
  0
POLYLINE
  5
9F1
  8
0
 62
7
 66
1
 70
0
 10
0
 20
0
 30
0
  0
VERTEX
  5
9F2
  8
0
 62
7
 10
19.35288631687337
 20
42.349487282689431
 70
0
  0
VERTEX
  5
9F3
  8
0
 62
7
 10
19.09863827006194
 20
41.375903298557887
 70
0
  0
SEQEND
  5
9F4
  8
0
  0
POLYLINE
  5
9F5
  8
0
 62
7
 66
1
 70
0
 10
0
 20
0
 30
0
  0
VERTEX
  5
9F6
  8
0
 62
7
 10
19.09863827006194
 20
41.375903298557887
 70
0
  0
VERTEX
  5
9F7
  8
0
 62
7
 10
18.887109407267591
 20
40.402147059652
 70
0
  0
SEQEND
  5
9F8
  8
0
  0
POLYLINE
  5
9F9
  8
0
 62
7
 66
1
 70
0
 10
0
 20
0
 30
0
  0
VERTEX
  5
9FA
  8
0
 62
7
 10
18.887109407267591
 20
40.402147059652
 70
0
  0
VERTEX
  5
9FB
  8
0
 62
7
 10
18.717955218941821
 20
39.386188401051811
 70
0
  0
SEQEND
  5
9FC
  8
0
  0
POLYLINE
  5
9FD
  8
0
 62
7
 66
1
 70
0
 10
0
 20
0
 30
0
  0
VERTEX
  5
9FE
  8
0
 62
7
 10
18.717955218941821
 20
39.386188401051811
 70
0
  0
VERTEX
  5
9FF
  8
0
 62
7
 10
18.633205870004669
 20
38.412432162145933
 70
0
  0
SEQEND
  5
A00
  8
0
  0
POLYLINE
  5
A01
  8
0
 62
7
 66
1
 70
0
 10
0
 20
0
 30
0
  0
VERTEX
  5
A02
  8
0
 62
7
 10
18.633205870004669
 20
38.412432162145933
 70
0
  0
VERTEX
  5
A03
  8
0
 62
7
 10
18.590831195536111
 20
37.396473503545792
 70
0
  0
SEQEND
  5
A04
  8
0
  0
POLYLINE
  5
A05
  8
0
 62
7
 66
1
 70
0
 10
0
 20
0
 30
0
  0
VERTEX
  5
A06
  8
0
 62
7
 10
18.590831195536111
 20
37.396473503545792
 70
0
  0
VERTEX
  5
A07
  8
0
 62
7
 10
18.633205870004669
 20
36.380514844945587
 70
0
  0
SEQEND
  5
A08
  8
0
  0
POLYLINE
  5
A09
  8
0
 62
7
 66
1
 70
0
 10
0
 20
0
 30
0
  0
VERTEX
  5
A0A
  8
0
 62
7
 10
18.633205870004669
 20
36.380514844945587
 70
0
  0
VERTEX
  5
A0B
  8
0
 62
7
 10
18.717955218941821
 20
35.3645561863454
 70
0
  0
SEQEND
  5
A0C
  8
0
  0
POLYLINE
  5
A0D
  8
0
 62
7
 66
1
 70
0
 10
0
 20
0
 30
0
  0
VERTEX
  5
A0E
  8
0
 62
7
 10
18.717955218941821
 20
35.3645561863454
 70
0
  0
VERTEX
  5
A0F
  8
0
 62
7
 10
18.844734732799019
 20
34.390799947439582
 70
0
  0
SEQEND
  5
A10
  8
0
  0
POLYLINE
  5
A11
  8
0
 62
7
 66
1
 70
0
 10
0
 20
0
 30
0
  0
VERTEX
  5
A12
  8
0
 62
7
 10
18.844734732799019
 20
34.390799947439582
 70
0
  0
VERTEX
  5
A13
  8
0
 62
7
 10
19.014233430673329
 20
33.374841288839377
 70
0
  0
SEQEND
  5
A14
  8
0
  0
POLYLINE
  5
A15
  8
0
 62
7
 66
1
 70
0
 10
0
 20
0
 30
0
  0
VERTEX
  5
A16
  8
0
 62
7
 10
19.014233430673329
 20
33.374841288839377
 70
0
  0
VERTEX
  5
A17
  8
0
 62
7
 10
19.268136967936211
 20
32.4010850499335
 70
0
  0
SEQEND
  5
A18
  8
0
  0
POLYLINE
  5
A19
  8
0
 62
7
 66
1
 70
0
 10
0
 20
0
 30
0
  0
VERTEX
  5
A1A
  8
0
 62
7
 10
19.268136967936211
 20
32.4010850499335
 70
0
  0
VERTEX
  5
A1B
  8
0
 62
7
 10
19.564415179667719
 20
31.469875740270481
 70
0
  0
SEQEND
  5
A1C
  8
0
  0
POLYLINE
  5
A1D
  8
0
 62
7
 66
1
 70
0
 10
0
 20
0
 30
0
  0
VERTEX
  5
A1E
  8
0
 62
7
 10
19.564415179667719
 20
31.469875740270481
 70
0
  0
VERTEX
  5
A1F
  8
0
 62
7
 10
19.903068065867782
 20
30.49611950136461
 70
0
  0
SEQEND
  5
A20
  8
0
  0
POLYLINE
  5
A21
  8
0
 62
7
 66
1
 70
0
 10
0
 20
0
 30
0
  0
VERTEX
  5
A22
  8
0
 62
7
 10
19.903068065867782
 20
30.49611950136461
 70
0
  0
VERTEX
  5
A23
  8
0
 62
7
 10
19.903068065867782
 20
30.49611950136461
 70
0
  0
SEQEND
  5
A24
  8
0
  0
POLYLINE
  5
A25
  8
0
 62
7
 66
1
 70
0
 10
0
 20
0
 30
0
  0
VERTEX
  5
A26
  8
0
 62
7
 10
19.903068065867782
 20
30.49611950136461
 70
0
  0
VERTEX
  5
A27
  8
0
 62
7
 10
20.326470301004971
 20
29.607112611395909
 70
0
  0
SEQEND
  5
A28
  8
0
  0
POLYLINE
  5
A29
  8
0
 62
7
 66
1
 70
0
 10
0
 20
0
 30
0
  0
VERTEX
  5
A2A
  8
0
 62
7
 10
20.326470301004971
 20
29.607112611395909
 70
0
  0
VERTEX
  5
A2B
  8
0
 62
7
 10
20.749872536142188
 20
28.718105721427179
 70
0
  0
SEQEND
  5
A2C
  8
0
  0
POLYLINE
  5
A2D
  8
0
 62
7
 66
1
 70
0
 10
0
 20
0
 30
0
  0
VERTEX
  5
A2E
  8
0
 62
7
 10
20.749872536142188
 20
28.718105721427179
 70
0
  0
VERTEX
  5
A2F
  8
0
 62
7
 10
21.300054285136579
 20
27.871473505927021
 70
0
  0
SEQEND
  5
A30
  8
0
  0
POLYLINE
  5
A31
  8
0
 62
7
 66
1
 70
0
 10
0
 20
0
 30
0
  0
VERTEX
  5
A32
  8
0
 62
7
 10
21.300054285136579
 20
27.871473505927021
 70
0
  0
VERTEX
  5
A33
  8
0
 62
7
 10
21.850580543679509
 20
27.024841290426881
 70
0
  0
SEQEND
  5
A34
  8
0
  0
POLYLINE
  5
A35
  8
0
 62
7
 66
1
 70
0
 10
0
 20
0
 30
0
  0
VERTEX
  5
A36
  8
0
 62
7
 10
21.850580543679509
 20
27.024841290426881
 70
0
  0
VERTEX
  5
A37
  8
0
 62
7
 10
22.485511641611058
 20
26.262786169089619
 70
0
  0
SEQEND
  5
A38
  8
0
  0
POLYLINE
  5
A39
  8
0
 62
7
 66
1
 70
0
 10
0
 20
0
 30
0
  0
VERTEX
  5
A3A
  8
0
 62
7
 10
22.485511641611058
 20
26.262786169089619
 70
0
  0
VERTEX
  5
A3B
  8
0
 62
7
 10
23.162817414011158
 20
25.543105722220929
 70
0
  0
SEQEND
  5
A3C
  8
0
  0
POLYLINE
  5
A3D
  8
0
 62
7
 66
1
 70
0
 10
0
 20
0
 30
0
  0
VERTEX
  5
A3E
  8
0
 62
7
 10
23.162817414011158
 20
25.543105722220929
 70
0
  0
VERTEX
  5
A3F
  8
0
 62
7
 10
23.882497860879852
 20
24.8657999498208
 70
0
  0
SEQEND
  5
A40
  8
0
  0
POLYLINE
  5
A41
  8
0
 62
7
 66
1
 70
0
 10
0
 20
0
 30
0
  0
VERTEX
  5
A42
  8
0
 62
7
 10
23.882497860879852
 20
24.8657999498208
 70
0
  0
VERTEX
  5
A43
  8
0
 62
7
 10
24.644552982217139
 20
24.230868851889259
 70
0
  0
SEQEND
  5
A44
  8
0
  0
POLYLINE
  5
A45
  8
0
 62
7
 66
1
 70
0
 10
0
 20
0
 30
0
  0
VERTEX
  5
A46
  8
0
 62
7
 10
24.644552982217139
 20
24.230868851889259
 70
0
  0
VERTEX
  5
A47
  8
0
 62
7
 10
25.44863826847444
 20
23.63814017365204
 70
0
  0
SEQEND
  5
A48
  8
0
  0
POLYLINE
  5
A49
  8
0
 62
7
 66
1
 70
0
 10
0
 20
0
 30
0
  0
VERTEX
  5
A4A
  8
0
 62
7
 10
25.44863826847444
 20
23.63814017365204
 70
0
  0
VERTEX
  5
A4B
  8
0
 62
7
 10
26.29544273874885
 20
23.130160844351941
 70
0
  0
SEQEND
  5
A4C
  8
0
  0
POLYLINE
  5
A4D
  8
0
 62
7
 66
1
 70
0
 10
0
 20
0
 30
0
  0
VERTEX
  5
A4E
  8
0
 62
7
 10
26.29544273874885
 20
23.130160844351941
 70
0
  0
VERTEX
  5
A4F
  8
0
 62
7
 10
26.29544273874885
 20
23.130160844351941
 70
0
  0
SEQEND
  5
A50
  8
0
  0
POLYLINE
  5
A51
  8
0
 62
7
 66
1
 70
0
 10
0
 20
0
 30
0
  0
VERTEX
  5
A52
  8
0
 62
7
 10
45.59934627124926
 20
49.503917076907783
 70
0
  0
VERTEX
  5
A53
  8
0
 62
7
 10
44.879665824380567
 20
50.096473500370792
 70
0
  0
SEQEND
  5
A54
  8
0
  0
POLYLINE
  5
A55
  8
0
 62
7
 66
1
 70
0
 10
0
 20
0
 30
0
  0
VERTEX
  5
A56
  8
0
 62
7
 10
44.879665824380567
 20
50.096473500370792
 70
0
  0
VERTEX
  5
A57
  8
0
 62
7
 10
44.075580538123262
 20
50.60445282967089
 70
0
  0
SEQEND
  5
A58
  8
0
  0
POLYLINE
  5
A59
  8
0
 62
7
 66
1
 70
0
 10
0
 20
0
 30
0
  0
VERTEX
  5
A5A
  8
0
 62
7
 10
44.075580538123262
 20
50.60445282967089
 70
0
  0
VERTEX
  5
A5B
  8
0
 62
7
 10
43.27115074231741
 20
51.02785506480808
 70
0
  0
SEQEND
  5
A5C
  8
0
  0
POLYLINE
  5
A5D
  8
0
 62
7
 66
1
 70
0
 10
0
 20
0
 30
0
  0
VERTEX
  5
A5E
  8
0
 62
7
 10
43.27115074231741
 20
51.02785506480808
 70
0
  0
VERTEX
  5
A5F
  8
0
 62
7
 10
42.381971597574449
 20
51.451085045171
 70
0
  0
SEQEND
  5
A60
  8
0
  0
POLYLINE
  5
A61
  8
0
 62
7
 66
1
 70
0
 10
0
 20
0
 30
0
  0
VERTEX
  5
A62
  8
0
 62
7
 10
42.381971597574449
 20
51.451085045171
 70
0
  0
VERTEX
  5
A63
  8
0
 62
7
 10
41.493136962379992
 20
51.747535511676737
 70
0
  0
SEQEND
  5
A64
  8
0
  0
POLYLINE
  5
A65
  8
0
 62
7
 66
1
 70
0
 10
0
 20
0
 30
0
  0
VERTEX
  5
A66
  8
0
 62
7
 10
41.493136962379992
 20
51.747535511676737
 70
0
  0
VERTEX
  5
A67
  8
0
 62
7
 10
40.604302327185508
 20
52.043813723408221
 70
0
  0
SEQEND
  5
A68
  8
0
  0
POLYLINE
  5
A69
  8
0
 62
7
 66
1
 70
0
 10
0
 20
0
 30
0
  0
VERTEX
  5
A6A
  8
0
 62
7
 10
40.604302327185508
 20
52.043813723408221
 70
0
  0
VERTEX
  5
A6B
  8
0
 62
7
 10
39.672748507973978
 20
52.213140166508261
 70
0
  0
SEQEND
  5
A6C
  8
0
  0
POLYLINE
  5
A6D
  8
0
 62
7
 66
1
 70
0
 10
0
 20
0
 30
0
  0
VERTEX
  5
A6E
  8
0
 62
7
 10
39.672748507973978
 20
52.213140166508261
 70
0
  0
VERTEX
  5
A6F
  8
0
 62
7
 10
38.741539198310932
 20
52.340264189913967
 70
0
  0
SEQEND
  5
A70
  8
0
  0
POLYLINE
  5
A71
  8
0
 62
7
 66
1
 70
0
 10
0
 20
0
 30
0
  0
VERTEX
  5
A72
  8
0
 62
7
 10
38.741539198310932
 20
52.340264189913967
 70
0
  0
VERTEX
  5
A73
  8
0
 62
7
 10
38.741539198310932
 20
52.340264189913967
 70
0
  0
SEQEND
  5
A74
  8
0
  0
POLYLINE
  5
A75
  8
0
 62
7
 66
1
 70
0
 10
0
 20
0
 30
0
  0
VERTEX
  5
A76
  8
0
 62
7
 10
50.975762285530152
 20
40.317569965489092
 70
0
  0
VERTEX
  5
A77
  8
0
 62
7
 10
50.764233422735821
 20
41.2911539496207
 70
0
  0
SEQEND
  5
A78
  8
0
  0
POLYLINE
  5
A79
  8
0
 62
7
 66
1
 70
0
 10
0
 20
0
 30
0
  0
VERTEX
  5
A7A
  8
0
 62
7
 10
50.764233422735821
 20
41.2911539496207
 70
0
  0
VERTEX
  5
A7B
  8
0
 62
7
 10
50.467610701455811
 20
42.264910188526578
 70
0
  0
SEQEND
  5
A7C
  8
0
  0
POLYLINE
  5
A7D
  8
0
 62
7
 66
1
 70
0
 10
0
 20
0
 30
0
  0
VERTEX
  5
A7E
  8
0
 62
7
 10
50.467610701455811
 20
42.264910188526578
 70
0
  0
VERTEX
  5
A7F
  8
0
 62
7
 10
50.129302324804279
 20
43.153917078495283
 70
0
  0
SEQEND
  5
A80
  8
0
  0
POLYLINE
  5
A81
  8
0
 62
7
 66
1
 70
0
 10
0
 20
0
 30
0
  0
VERTEX
  5
A82
  8
0
 62
7
 10
50.129302324804279
 20
43.153917078495283
 70
0
  0
VERTEX
  5
A83
  8
0
 62
7
 10
49.74827476413563
 20
44.085126388158351
 70
0
  0
SEQEND
  5
A84
  8
0
  0
POLYLINE
  5
A85
  8
0
 62
7
 66
1
 70
0
 10
0
 20
0
 30
0
  0
VERTEX
  5
A86
  8
0
 62
7
 10
49.74827476413563
 20
44.085126388158351
 70
0
  0
VERTEX
  5
A87
  8
0
 62
7
 10
49.324872528998441
 20
44.931930858432729
 70
0
  0
SEQEND
  5
A88
  8
0
  0
POLYLINE
  5
A89
  8
0
 62
7
 66
1
 70
0
 10
0
 20
0
 30
0
  0
VERTEX
  5
A8A
  8
0
 62
7
 10
49.324872528998441
 20
44.931930858432729
 70
0
  0
VERTEX
  5
A8B
  8
0
 62
7
 10
48.816720944924072
 20
45.7785630739329
 70
0
  0
SEQEND
  5
A8C
  8
0
  0
POLYLINE
  5
A8D
  8
0
 62
7
 66
1
 70
0
 10
0
 20
0
 30
0
  0
VERTEX
  5
A8E
  8
0
 62
7
 10
48.816720944924072
 20
45.7785630739329
 70
0
  0
VERTEX
  5
A8F
  8
0
 62
7
 10
48.266539195929681
 20
46.625195289433059
 70
0
  0
SEQEND
  5
A90
  8
0
  0
POLYLINE
  5
A91
  8
0
 62
7
 66
1
 70
0
 10
0
 20
0
 30
0
  0
VERTEX
  5
A92
  8
0
 62
7
 10
48.266539195929681
 20
46.625195289433059
 70
0
  0
VERTEX
  5
A93
  8
0
 62
7
 10
47.673638262918189
 20
47.387250410770321
 70
0
  0
SEQEND
  5
A94
  8
0
  0
POLYLINE
  5
A95
  8
0
 62
7
 66
1
 70
0
 10
0
 20
0
 30
0
  0
VERTEX
  5
A96
  8
0
 62
7
 10
47.673638262918189
 20
47.387250410770321
 70
0
  0
VERTEX
  5
A97
  8
0
 62
7
 10
47.038707164986647
 20
48.1491332773333
 70
0
  0
SEQEND
  5
A98
  8
0
  0
POLYLINE
  5
A99
  8
0
 62
7
 66
1
 70
0
 10
0
 20
0
 30
0
  0
VERTEX
  5
A9A
  8
0
 62
7
 10
47.038707164986647
 20
48.1491332773333
 70
0
  0
VERTEX
  5
A9B
  8
0
 62
7
 10
46.319026718117946
 20
48.826439049733438
 70
0
  0
SEQEND
  5
A9C
  8
0
  0
POLYLINE
  5
A9D
  8
0
 62
7
 66
1
 70
0
 10
0
 20
0
 30
0
  0
VERTEX
  5
A9E
  8
0
 62
7
 10
46.319026718117946
 20
48.826439049733438
 70
0
  0
VERTEX
  5
A9F
  8
0
 62
7
 10
45.59934627124926
 20
49.503917076907783
 70
0
  0
SEQEND
  5
AA0
  8
0
  0
POLYLINE
  5
AA1
  8
0
 62
7
 66
1
 70
0
 10
0
 20
0
 30
0
  0
VERTEX
  5
AA2
  8
0
 62
7
 10
45.59934627124926
 20
49.503917076907783
 70
0
  0
VERTEX
  5
AA3
  8
0
 62
7
 10
45.59934627124926
 20
49.503917076907783
 70
0
  0
SEQEND
  5
AA4
  8
0
  0
POLYLINE
  5
AA5
  8
0
 62
7
 66
1
 70
0
 10
0
 20
0
 30
0
  0
VERTEX
  5
AA6
  8
0
 62
7
 10
49.621150740729917
 20
29.09913328209581
 70
0
  0
VERTEX
  5
AA7
  8
0
 62
7
 10
50.002178301398537
 20
29.988140172064529
 70
0
  0
SEQEND
  5
AA8
  8
0
  0
POLYLINE
  5
AA9
  8
0
 62
7
 66
1
 70
0
 10
0
 20
0
 30
0
  0
VERTEX
  5
AAA
  8
0
 62
7
 10
50.002178301398537
 20
29.988140172064529
 70
0
  0
VERTEX
  5
AAB
  8
0
 62
7
 10
50.34083118759861
 20
30.877147062033231
 70
0
  0
SEQEND
  5
AAC
  8
0
  0
POLYLINE
  5
AAD
  8
0
 62
7
 66
1
 70
0
 10
0
 20
0
 30
0
  0
VERTEX
  5
AAE
  8
0
 62
7
 10
50.34083118759861
 20
30.877147062033231
 70
0
  0
VERTEX
  5
AAF
  8
0
 62
7
 10
50.637109399330093
 20
31.808528626470551
 70
0
  0
SEQEND
  5
AB0
  8
0
  0
POLYLINE
  5
AB1
  8
0
 62
7
 66
1
 70
0
 10
0
 20
0
 30
0
  0
VERTEX
  5
AB2
  8
0
 62
7
 10
50.637109399330093
 20
31.808528626470551
 70
0
  0
VERTEX
  5
AB3
  8
0
 62
7
 10
50.891012936593
 20
32.739910190907842
 70
0
  0
SEQEND
  5
AB4
  8
0
  0
POLYLINE
  5
AB5
  8
0
 62
7
 66
1
 70
0
 10
0
 20
0
 30
0
  0
VERTEX
  5
AB6
  8
0
 62
7
 10
50.891012936593
 20
32.739910190907842
 70
0
  0
VERTEX
  5
AB7
  8
0
 62
7
 10
51.0605116344673
 20
33.671119500570853
 70
0
  0
SEQEND
  5
AB8
  8
0
  0
POLYLINE
  5
AB9
  8
0
 62
7
 66
1
 70
0
 10
0
 20
0
 30
0
  0
VERTEX
  5
ABA
  8
0
 62
7
 10
51.0605116344673
 20
33.671119500570853
 70
0
  0
VERTEX
  5
ABB
  8
0
 62
7
 10
51.229665822793073
 20
34.602501065008141
 70
0
  0
SEQEND
  5
ABC
  8
0
  0
POLYLINE
  5
ABD
  8
0
 62
7
 66
1
 70
0
 10
0
 20
0
 30
0
  0
VERTEX
  5
ABE
  8
0
 62
7
 10
51.229665822793073
 20
34.602501065008141
 70
0
  0
VERTEX
  5
ABF
  8
0
 62
7
 10
51.314415171730218
 20
35.576085049139749
 70
0
  0
SEQEND
  5
AC0
  8
0
  0
POLYLINE
  5
AC1
  8
0
 62
7
 66
1
 70
0
 10
0
 20
0
 30
0
  0
VERTEX
  5
AC2
  8
0
 62
7
 10
51.314415171730218
 20
35.576085049139749
 70
0
  0
VERTEX
  5
AC3
  8
0
 62
7
 10
51.35678984619878
 20
36.507466613577037
 70
0
  0
SEQEND
  5
AC4
  8
0
  0
POLYLINE
  5
AC5
  8
0
 62
7
 66
1
 70
0
 10
0
 20
0
 30
0
  0
VERTEX
  5
AC6
  8
0
 62
7
 10
51.35678984619878
 20
36.507466613577037
 70
0
  0
VERTEX
  5
AC7
  8
0
 62
7
 10
51.314415171730218
 20
37.481222852482922
 70
0
  0
SEQEND
  5
AC8
  8
0
  0
POLYLINE
  5
AC9
  8
0
 62
7
 66
1
 70
0
 10
0
 20
0
 30
0
  0
VERTEX
  5
ACA
  8
0
 62
7
 10
51.314415171730218
 20
37.481222852482922
 70
0
  0
VERTEX
  5
ACB
  8
0
 62
7
 10
51.272040497261663
 20
38.45480683661453
 70
0
  0
SEQEND
  5
ACC
  8
0
  0
POLYLINE
  5
ACD
  8
0
 62
7
 66
1
 70
0
 10
0
 20
0
 30
0
  0
VERTEX
  5
ACE
  8
0
 62
7
 10
51.272040497261663
 20
38.45480683661453
 70
0
  0
VERTEX
  5
ACF
  8
0
 62
7
 10
51.145260983404448
 20
39.386188401051811
 70
0
  0
SEQEND
  5
AD0
  8
0
  0
POLYLINE
  5
AD1
  8
0
 62
7
 66
1
 70
0
 10
0
 20
0
 30
0
  0
VERTEX
  5
AD2
  8
0
 62
7
 10
51.145260983404448
 20
39.386188401051811
 70
0
  0
VERTEX
  5
AD3
  8
0
 62
7
 10
50.975762285530152
 20
40.317569965489092
 70
0
  0
SEQEND
  5
AD4
  8
0
  0
POLYLINE
  5
AD5
  8
0
 62
7
 66
1
 70
0
 10
0
 20
0
 30
0
  0
VERTEX
  5
AD6
  8
0
 62
7
 10
50.975762285530152
 20
40.317569965489092
 70
0
  0
VERTEX
  5
AD7
  8
0
 62
7
 10
50.975762285530152
 20
40.317569965489092
 70
0
  0
SEQEND
  5
AD8
  8
0
  0
POLYLINE
  5
AD9
  8
0
 62
7
 66
1
 70
0
 10
0
 20
0
 30
0
  0
VERTEX
  5
ADA
  8
0
 62
7
 10
44.414233424323321
 20
23.045583750189049
 70
0
  0
VERTEX
  5
ADB
  8
0
 62
7
 10
45.133913871192007
 20
23.553563079489152
 70
0
  0
SEQEND
  5
ADC
  8
0
  0
POLYLINE
  5
ADD
  8
0
 62
7
 66
1
 70
0
 10
0
 20
0
 30
0
  0
VERTEX
  5
ADE
  8
0
 62
7
 10
45.133913871192007
 20
23.553563079489152
 70
0
  0
VERTEX
  5
ADF
  8
0
 62
7
 10
45.853594318060679
 20
24.103917083257809
 70
0
  0
SEQEND
  5
AE0
  8
0
  0
POLYLINE
  5
AE1
  8
0
 62
7
 66
1
 70
0
 10
0
 20
0
 30
0
  0
VERTEX
  5
AE2
  8
0
 62
7
 10
45.853594318060679
 20
24.103917083257809
 70
0
  0
VERTEX
  5
AE3
  8
0
 62
7
 10
46.48852541599225
 20
24.738848181189361
 70
0
  0
SEQEND
  5
AE4
  8
0
  0
POLYLINE
  5
AE5
  8
0
 62
7
 66
1
 70
0
 10
0
 20
0
 30
0
  0
VERTEX
  5
AE6
  8
0
 62
7
 10
46.48852541599225
 20
24.738848181189361
 70
0
  0
VERTEX
  5
AE7
  8
0
 62
7
 10
47.1234565139238
 20
25.3737792791209
 70
0
  0
SEQEND
  5
AE8
  8
0
  0
POLYLINE
  5
AE9
  8
0
 62
7
 66
1
 70
0
 10
0
 20
0
 30
0
  0
VERTEX
  5
AEA
  8
0
 62
7
 10
47.1234565139238
 20
25.3737792791209
 70
0
  0
VERTEX
  5
AEB
  8
0
 62
7
 10
47.716012937386751
 20
26.051085051521
 70
0
  0
SEQEND
  5
AEC
  8
0
  0
POLYLINE
  5
AED
  8
0
 62
7
 66
1
 70
0
 10
0
 20
0
 30
0
  0
VERTEX
  5
AEE
  8
0
 62
7
 10
47.716012937386751
 20
26.051085051521
 70
0
  0
VERTEX
  5
AEF
  8
0
 62
7
 10
48.266539195929681
 20
26.770765498389689
 70
0
  0
SEQEND
  5
AF0
  8
0
  0
POLYLINE
  5
AF1
  8
0
 62
7
 66
1
 70
0
 10
0
 20
0
 30
0
  0
VERTEX
  5
AF2
  8
0
 62
7
 10
48.266539195929681
 20
26.770765498389689
 70
0
  0
VERTEX
  5
AF3
  8
0
 62
7
 10
48.77434627045551
 20
27.53282061972698
 70
0
  0
SEQEND
  5
AF4
  8
0
  0
POLYLINE
  5
AF5
  8
0
 62
7
 66
1
 70
0
 10
0
 20
0
 30
0
  0
VERTEX
  5
AF6
  8
0
 62
7
 10
48.77434627045551
 20
27.53282061972698
 70
0
  0
VERTEX
  5
AF7
  8
0
 62
7
 10
49.240123180061289
 20
28.294875741064232
 70
0
  0
SEQEND
  5
AF8
  8
0
  0
POLYLINE
  5
AF9
  8
0
 62
7
 66
1
 70
0
 10
0
 20
0
 30
0
  0
VERTEX
  5
AFA
  8
0
 62
7
 10
49.240123180061289
 20
28.294875741064232
 70
0
  0
VERTEX
  5
AFB
  8
0
 62
7
 10
49.621150740729917
 20
29.09913328209581
 70
0
  0
SEQEND
  5
AFC
  8
0
  0
POLYLINE
  5
AFD
  8
0
 62
7
 66
1
 70
0
 10
0
 20
0
 30
0
  0
VERTEX
  5
AFE
  8
0
 62
7
 10
49.621150740729917
 20
29.09913328209581
 70
0
  0
VERTEX
  5
AFF
  8
0
 62
7
 10
49.621150740729917
 20
29.09913328209581
 70
0
  0
SEQEND
  5
B00
  8
0
  0
POLYLINE
  5
B01
  8
0
 62
7
 66
1
 70
0
 10
0
 20
0
 30
0
  0
VERTEX
  5
B02
  8
0
 62
7
 10
37.259803630104983
 20
21.098243527151588
 70
0
  0
VERTEX
  5
B03
  8
0
 62
7
 10
38.191012939768
 20
21.098243527151588
 70
0
  0
SEQEND
  5
B04
  8
0
  0
POLYLINE
  5
B05
  8
0
 62
7
 66
1
 70
0
 10
0
 20
0
 30
0
  0
VERTEX
  5
B06
  8
0
 62
7
 10
38.191012939768
 20
21.098243527151588
 70
0
  0
VERTEX
  5
B07
  8
0
 62
7
 10
39.122566758979559
 20
21.14044594684589
 70
0
  0
SEQEND
  5
B08
  8
0
  0
POLYLINE
  5
B09
  8
0
 62
7
 66
1
 70
0
 10
0
 20
0
 30
0
  0
VERTEX
  5
B0A
  8
0
 62
7
 10
39.122566758979559
 20
21.14044594684589
 70
0
  0
VERTEX
  5
B0B
  8
0
 62
7
 10
40.0537760686426
 20
21.2675699702516
 70
0
  0
SEQEND
  5
B0C
  8
0
  0
POLYLINE
  5
B0D
  8
0
 62
7
 66
1
 70
0
 10
0
 20
0
 30
0
  0
VERTEX
  5
B0E
  8
0
 62
7
 10
40.0537760686426
 20
21.2675699702516
 70
0
  0
VERTEX
  5
B0F
  8
0
 62
7
 10
40.984985378305623
 20
21.479098833045949
 70
0
  0
SEQEND
  5
B10
  8
0
  0
POLYLINE
  5
B11
  8
0
 62
7
 66
1
 70
0
 10
0
 20
0
 30
0
  0
VERTEX
  5
B12
  8
0
 62
7
 10
40.984985378305623
 20
21.479098833045949
 70
0
  0
VERTEX
  5
B13
  8
0
 62
7
 10
41.874164523048613
 20
21.7755492995517
 70
0
  0
SEQEND
  5
B14
  8
0
  0
POLYLINE
  5
B15
  8
0
 62
7
 66
1
 70
0
 10
0
 20
0
 30
0
  0
VERTEX
  5
B16
  8
0
 62
7
 10
41.874164523048613
 20
21.7755492995517
 70
0
  0
VERTEX
  5
B17
  8
0
 62
7
 10
42.762999158243069
 20
22.114202185751768
 70
0
  0
SEQEND
  5
B18
  8
0
  0
POLYLINE
  5
B19
  8
0
 62
7
 66
1
 70
0
 10
0
 20
0
 30
0
  0
VERTEX
  5
B1A
  8
0
 62
7
 10
42.762999158243069
 20
22.114202185751768
 70
0
  0
VERTEX
  5
B1B
  8
0
 62
7
 10
43.609803628517483
 20
22.537432166114709
 70
0
  0
SEQEND
  5
B1C
  8
0
  0
POLYLINE
  5
B1D
  8
0
 62
7
 66
1
 70
0
 10
0
 20
0
 30
0
  0
VERTEX
  5
B1E
  8
0
 62
7
 10
43.609803628517483
 20
22.537432166114709
 70
0
  0
VERTEX
  5
B1F
  8
0
 62
7
 10
44.414233424323321
 20
23.045583750189049
 70
0
  0
SEQEND
  5
B20
  8
0
  0
POLYLINE
  5
B21
  8
0
 62
7
 66
1
 70
0
 10
0
 20
0
 30
0
  0
VERTEX
  5
B22
  8
0
 62
7
 10
44.414233424323321
 20
23.045583750189049
 70
0
  0
VERTEX
  5
B23
  8
0
 62
7
 10
44.414233424323321
 20
23.045583750189049
 70
0
  0
SEQEND
  5
B24
  8
0
  0
POLYLINE
  5
B25
  8
0
 62
7
 66
1
 70
0
 10
0
 20
0
 30
0
  0
VERTEX
  5
B26
  8
0
 62
7
 10
36.878776069436363
 20
21.14044594684589
 70
0
  0
VERTEX
  5
B27
  8
0
 62
7
 10
37.894734728036532
 20
21.055868852683009
 70
0
  0
SEQEND
  5
B28
  8
0
  0
POLYLINE
  5
B29
  8
0
 62
7
 66
1
 70
0
 10
0
 20
0
 30
0
  0
VERTEX
  5
B2A
  8
0
 62
7
 10
37.894734728036532
 20
21.055868852683009
 70
0
  0
VERTEX
  5
B2B
  8
0
 62
7
 10
38.910693386636687
 20
21.055868852683009
 70
0
  0
SEQEND
  5
B2C
  8
0
  0
POLYLINE
  5
B2D
  8
0
 62
7
 66
1
 70
0
 10
0
 20
0
 30
0
  0
VERTEX
  5
B2E
  8
0
 62
7
 10
38.910693386636687
 20
21.055868852683009
 70
0
  0
VERTEX
  5
B2F
  8
0
 62
7
 10
39.926652045236892
 20
21.18282062131448
 70
0
  0
SEQEND
  5
B30
  8
0
  0
POLYLINE
  5
B31
  8
0
 62
7
 66
1
 70
0
 10
0
 20
0
 30
0
  0
VERTEX
  5
B32
  8
0
 62
7
 10
39.926652045236892
 20
21.18282062131448
 70
0
  0
VERTEX
  5
B33
  8
0
 62
7
 10
40.900580538917012
 20
21.352147064414481
 70
0
  0
SEQEND
  5
B34
  8
0
  0
POLYLINE
  5
B35
  8
0
 62
7
 66
1
 70
0
 10
0
 20
0
 30
0
  0
VERTEX
  5
B36
  8
0
 62
7
 10
40.900580538917012
 20
21.352147064414481
 70
0
  0
VERTEX
  5
B37
  8
0
 62
7
 10
41.874164523048613
 20
21.606222856451669
 70
0
  0
SEQEND
  5
B38
  8
0
  0
POLYLINE
  5
B39
  8
0
 62
7
 66
1
 70
0
 10
0
 20
0
 30
0
  0
VERTEX
  5
B3A
  8
0
 62
7
 10
41.874164523048613
 20
21.606222856451669
 70
0
  0
VERTEX
  5
B3B
  8
0
 62
7
 10
42.847748507180221
 20
21.944875742651728
 70
0
  0
SEQEND
  5
B3C
  8
0
  0
POLYLINE
  5
B3D
  8
0
 62
7
 66
1
 70
0
 10
0
 20
0
 30
0
  0
VERTEX
  5
B3E
  8
0
 62
7
 10
42.847748507180221
 20
21.944875742651728
 70
0
  0
VERTEX
  5
B3F
  8
0
 62
7
 10
43.736927651923189
 20
22.368105723014679
 70
0
  0
SEQEND
  5
B40
  8
0
  0
POLYLINE
  5
B41
  8
0
 62
7
 66
1
 70
0
 10
0
 20
0
 30
0
  0
VERTEX
  5
B42
  8
0
 62
7
 10
43.736927651923189
 20
22.368105723014679
 70
0
  0
VERTEX
  5
B43
  8
0
 62
7
 10
44.625762287117652
 20
22.833882632620458
 70
0
  0
SEQEND
  5
B44
  8
0
  0
POLYLINE
  5
B45
  8
0
 62
7
 66
1
 70
0
 10
0
 20
0
 30
0
  0
VERTEX
  5
B46
  8
0
 62
7
 10
44.625762287117652
 20
22.833882632620458
 70
0
  0
VERTEX
  5
B47
  8
0
 62
7
 10
45.472566757392052
 20
23.384236636389119
 70
0
  0
SEQEND
  5
B48
  8
0
  0
POLYLINE
  5
B49
  8
0
 62
7
 66
1
 70
0
 10
0
 20
0
 30
0
  0
VERTEX
  5
B4A
  8
0
 62
7
 10
45.472566757392052
 20
23.384236636389119
 70
0
  0
VERTEX
  5
B4B
  8
0
 62
7
 10
45.472566757392052
 20
23.384236636389119
 70
0
  0
SEQEND
  5
B4C
  8
0
  0
POLYLINE
  5
B4D
  8
0
 62
7
 66
1
 70
0
 10
0
 20
0
 30
0
  0
VERTEX
  5
B4E
  8
0
 62
7
 10
45.472566757392052
 20
23.384236636389119
 70
0
  0
VERTEX
  5
B4F
  8
0
 62
7
 10
46.192247204260752
 20
23.976793059852071
 70
0
  0
SEQEND
  5
B50
  8
0
  0
POLYLINE
  5
B51
  8
0
 62
7
 66
1
 70
0
 10
0
 20
0
 30
0
  0
VERTEX
  5
B52
  8
0
 62
7
 10
46.192247204260752
 20
23.976793059852071
 70
0
  0
VERTEX
  5
B53
  8
0
 62
7
 10
46.869552976660877
 20
24.611896412557879
 70
0
  0
SEQEND
  5
B54
  8
0
  0
POLYLINE
  5
B55
  8
0
 62
7
 66
1
 70
0
 10
0
 20
0
 30
0
  0
VERTEX
  5
B56
  8
0
 62
7
 10
46.869552976660877
 20
24.611896412557879
 70
0
  0
VERTEX
  5
B57
  8
0
 62
7
 10
47.546858749060981
 20
25.289202184958022
 70
0
  0
SEQEND
  5
B58
  8
0
  0
POLYLINE
  5
B59
  8
0
 62
7
 66
1
 70
0
 10
0
 20
0
 30
0
  0
VERTEX
  5
B5A
  8
0
 62
7
 10
47.546858749060981
 20
25.289202184958022
 70
0
  0
VERTEX
  5
B5B
  8
0
 62
7
 10
48.139415172523968
 20
26.008882631826712
 70
0
  0
SEQEND
  5
B5C
  8
0
  0
POLYLINE
  5
B5D
  8
0
 62
7
 66
1
 70
0
 10
0
 20
0
 30
0
  0
VERTEX
  5
B5E
  8
0
 62
7
 10
48.139415172523968
 20
26.008882631826712
 70
0
  0
VERTEX
  5
B5F
  8
0
 62
7
 10
48.731971595986948
 20
26.7285630786954
 70
0
  0
SEQEND
  5
B60
  8
0
  0
POLYLINE
  5
B61
  8
0
 62
7
 66
1
 70
0
 10
0
 20
0
 30
0
  0
VERTEX
  5
B62
  8
0
 62
7
 10
48.731971595986948
 20
26.7285630786954
 70
0
  0
VERTEX
  5
B63
  8
0
 62
7
 10
49.240123180061289
 20
27.49044594525839
 70
0
  0
SEQEND
  5
B64
  8
0
  0
POLYLINE
  5
B65
  8
0
 62
7
 66
1
 70
0
 10
0
 20
0
 30
0
  0
VERTEX
  5
B66
  8
0
 62
7
 10
49.240123180061289
 20
27.49044594525839
 70
0
  0
VERTEX
  5
B67
  8
0
 62
7
 10
49.74827476413563
 20
28.294875741064232
 70
0
  0
SEQEND
  5
B68
  8
0
  0
POLYLINE
  5
B69
  8
0
 62
7
 66
1
 70
0
 10
0
 20
0
 30
0
  0
VERTEX
  5
B6A
  8
0
 62
7
 10
49.74827476413563
 20
28.294875741064232
 70
0
  0
VERTEX
  5
B6B
  8
0
 62
7
 10
50.171332489724307
 20
29.141507956564372
 70
0
  0
SEQEND
  5
B6C
  8
0
  0
POLYLINE
  5
B6D
  8
0
 62
7
 66
1
 70
0
 10
0
 20
0
 30
0
  0
VERTEX
  5
B6E
  8
0
 62
7
 10
50.171332489724307
 20
29.141507956564372
 70
0
  0
VERTEX
  5
B6F
  8
0
 62
7
 10
50.552360050392963
 20
29.988140172064529
 70
0
  0
SEQEND
  5
B70
  8
0
  0
POLYLINE
  5
B71
  8
0
 62
7
 66
1
 70
0
 10
0
 20
0
 30
0
  0
VERTEX
  5
B72
  8
0
 62
7
 10
50.552360050392963
 20
29.988140172064529
 70
0
  0
VERTEX
  5
B73
  8
0
 62
7
 10
50.891012936593
 20
30.834772387564669
 70
0
  0
SEQEND
  5
B74
  8
0
  0
POLYLINE
  5
B75
  8
0
 62
7
 66
1
 70
0
 10
0
 20
0
 30
0
  0
VERTEX
  5
B76
  8
0
 62
7
 10
50.891012936593
 20
30.834772387564669
 70
0
  0
VERTEX
  5
B77
  8
0
 62
7
 10
51.18763565787301
 20
31.723779277533371
 70
0
  0
SEQEND
  5
B78
  8
0
  0
POLYLINE
  5
B79
  8
0
 62
7
 66
1
 70
0
 10
0
 20
0
 30
0
  0
VERTEX
  5
B7A
  8
0
 62
7
 10
51.18763565787301
 20
31.723779277533371
 70
0
  0
VERTEX
  5
B7B
  8
0
 62
7
 10
51.39916452066737
 20
32.655160841970712
 70
0
  0
SEQEND
  5
B7C
  8
0
  0
POLYLINE
  5
B7D
  8
0
 62
7
 66
1
 70
0
 10
0
 20
0
 30
0
  0
VERTEX
  5
B7E
  8
0
 62
7
 10
51.39916452066737
 20
32.655160841970712
 70
0
  0
VERTEX
  5
B7F
  8
0
 62
7
 10
51.39916452066737
 20
32.655160841970712
 70
0
  0
SEQEND
  5
B80
  8
0
  0
POLYLINE
  5
B81
  8
0
 62
7
 66
1
 70
0
 10
0
 20
0
 30
0
  0
VERTEX
  5
B82
  8
0
 62
7
 10
51.39916452066737
 20
32.655160841970712
 70
0
  0
VERTEX
  5
B83
  8
0
 62
7
 10
51.6106933834617
 20
33.586542406408
 70
0
  0
SEQEND
  5
B84
  8
0
  0
POLYLINE
  5
B85
  8
0
 62
7
 66
1
 70
0
 10
0
 20
0
 30
0
  0
VERTEX
  5
B86
  8
0
 62
7
 10
51.6106933834617
 20
33.586542406408
 70
0
  0
VERTEX
  5
B87
  8
0
 62
7
 10
51.737817406867407
 20
34.560126390539608
 70
0
  0
SEQEND
  5
B88
  8
0
  0
POLYLINE
  5
B89
  8
0
 62
7
 66
1
 70
0
 10
0
 20
0
 30
0
  0
VERTEX
  5
B8A
  8
0
 62
7
 10
51.737817406867407
 20
34.560126390539608
 70
0
  0
VERTEX
  5
B8B
  8
0
 62
7
 10
51.822566755804559
 20
35.533882629445429
 70
0
  0
SEQEND
  5
B8C
  8
0
  0
POLYLINE
  5
B8D
  8
0
 62
7
 66
1
 70
0
 10
0
 20
0
 30
0
  0
VERTEX
  5
B8E
  8
0
 62
7
 10
51.822566755804559
 20
35.533882629445429
 70
0
  0
VERTEX
  5
B8F
  8
0
 62
7
 10
51.864941430273149
 20
36.465264193882717
 70
0
  0
SEQEND
  5
B90
  8
0
  0
POLYLINE
  5
B91
  8
0
 62
7
 66
1
 70
0
 10
0
 20
0
 30
0
  0
VERTEX
  5
B92
  8
0
 62
7
 10
51.864941430273149
 20
36.465264193882717
 70
0
  0
VERTEX
  5
B93
  8
0
 62
7
 10
51.864941430273149
 20
37.438848178014332
 70
0
  0
SEQEND
  5
B94
  8
0
  0
POLYLINE
  5
B95
  8
0
 62
7
 66
1
 70
0
 10
0
 20
0
 30
0
  0
VERTEX
  5
B96
  8
0
 62
7
 10
51.864941430273149
 20
37.438848178014332
 70
0
  0
VERTEX
  5
B97
  8
0
 62
7
 10
51.780192081336
 20
38.412432162145933
 70
0
  0
SEQEND
  5
B98
  8
0
  0
POLYLINE
  5
B99
  8
0
 62
7
 66
1
 70
0
 10
0
 20
0
 30
0
  0
VERTEX
  5
B9A
  8
0
 62
7
 10
51.780192081336
 20
38.412432162145933
 70
0
  0
VERTEX
  5
B9B
  8
0
 62
7
 10
51.695442732398853
 20
39.386188401051811
 70
0
  0
SEQEND
  5
B9C
  8
0
  0
POLYLINE
  5
B9D
  8
0
 62
7
 66
1
 70
0
 10
0
 20
0
 30
0
  0
VERTEX
  5
B9E
  8
0
 62
7
 10
51.695442732398853
 20
39.386188401051811
 70
0
  0
VERTEX
  5
B9F
  8
0
 62
7
 10
51.525944034524542
 20
40.317569965489092
 70
0
  0
SEQEND
  5
BA0
  8
0
  0
POLYLINE
  5
BA1
  8
0
 62
7
 66
1
 70
0
 10
0
 20
0
 30
0
  0
VERTEX
  5
BA2
  8
0
 62
7
 10
51.525944034524542
 20
40.317569965489092
 70
0
  0
VERTEX
  5
BA3
  8
0
 62
7
 10
51.272040497261663
 20
41.2911539496207
 70
0
  0
SEQEND
  5
BA4
  8
0
  0
POLYLINE
  5
BA5
  8
0
 62
7
 66
1
 70
0
 10
0
 20
0
 30
0
  0
VERTEX
  5
BA6
  8
0
 62
7
 10
51.272040497261663
 20
41.2911539496207
 70
0
  0
VERTEX
  5
BA7
  8
0
 62
7
 10
51.018136959998742
 20
42.222535514057988
 70
0
  0
SEQEND
  5
BA8
  8
0
  0
POLYLINE
  5
BA9
  8
0
 62
7
 66
1
 70
0
 10
0
 20
0
 30
0
  0
VERTEX
  5
BAA
  8
0
 62
7
 10
51.018136959998742
 20
42.222535514057988
 70
0
  0
VERTEX
  5
BAB
  8
0
 62
7
 10
50.679484073798669
 20
43.111542404026743
 70
0
  0
SEQEND
  5
BAC
  8
0
  0
POLYLINE
  5
BAD
  8
0
 62
7
 66
1
 70
0
 10
0
 20
0
 30
0
  0
VERTEX
  5
BAE
  8
0
 62
7
 10
50.679484073798669
 20
43.111542404026743
 70
0
  0
VERTEX
  5
BAF
  8
0
 62
7
 10
50.298456513130049
 20
44.000549293995441
 70
0
  0
SEQEND
  5
BB0
  8
0
  0
POLYLINE
  5
BB1
  8
0
 62
7
 66
1
 70
0
 10
0
 20
0
 30
0
  0
VERTEX
  5
BB2
  8
0
 62
7
 10
50.298456513130049
 20
44.000549293995441
 70
0
  0
VERTEX
  5
BB3
  8
0
 62
7
 10
50.298456513130049
 20
44.000549293995441
 70
0
  0
SEQEND
  5
BB4
  8
0
  0
POLYLINE
  5
BB5
  8
0
 62
7
 66
1
 70
0
 10
0
 20
0
 30
0
  0
VERTEX
  5
BB6
  8
0
 62
7
 10
50.298456513130049
 20
44.000549293995441
 70
0
  0
VERTEX
  5
BB7
  8
0
 62
7
 10
49.875054277992831
 20
44.889556183964139
 70
0
  0
SEQEND
  5
BB8
  8
0
  0
POLYLINE
  5
BB9
  8
0
 62
7
 66
1
 70
0
 10
0
 20
0
 30
0
  0
VERTEX
  5
BBA
  8
0
 62
7
 10
49.875054277992831
 20
44.889556183964139
 70
0
  0
VERTEX
  5
BBB
  8
0
 62
7
 10
49.409277368387052
 20
45.736188399464311
 70
0
  0
SEQEND
  5
BBC
  8
0
  0
POLYLINE
  5
BBD
  8
0
 62
7
 66
1
 70
0
 10
0
 20
0
 30
0
  0
VERTEX
  5
BBE
  8
0
 62
7
 10
49.409277368387052
 20
45.736188399464311
 70
0
  0
VERTEX
  5
BBF
  8
0
 62
7
 10
48.859095619392662
 20
46.540445940495879
 70
0
  0
SEQEND
  5
BC0
  8
0
  0
POLYLINE
  5
BC1
  8
0
 62
7
 66
1
 70
0
 10
0
 20
0
 30
0
  0
VERTEX
  5
BC2
  8
0
 62
7
 10
48.859095619392662
 20
46.540445940495879
 70
0
  0
VERTEX
  5
BC3
  8
0
 62
7
 10
48.308913870398271
 20
47.302501061833141
 70
0
  0
SEQEND
  5
BC4
  8
0
  0
POLYLINE
  5
BC5
  8
0
 62
7
 66
1
 70
0
 10
0
 20
0
 30
0
  0
VERTEX
  5
BC6
  8
0
 62
7
 10
48.308913870398271
 20
47.302501061833141
 70
0
  0
VERTEX
  5
BC7
  8
0
 62
7
 10
47.673638262918189
 20
48.064556183170389
 70
0
  0
SEQEND
  5
BC8
  8
0
  0
POLYLINE
  5
BC9
  8
0
 62
7
 66
1
 70
0
 10
0
 20
0
 30
0
  0
VERTEX
  5
BCA
  8
0
 62
7
 10
47.673638262918189
 20
48.064556183170389
 70
0
  0
VERTEX
  5
BCB
  8
0
 62
7
 10
46.996332490518057
 20
48.741861955570528
 70
0
  0
SEQEND
  5
BCC
  8
0
  0
POLYLINE
  5
BCD
  8
0
 62
7
 66
1
 70
0
 10
0
 20
0
 30
0
  0
VERTEX
  5
BCE
  8
0
 62
7
 10
46.996332490518057
 20
48.741861955570528
 70
0
  0
VERTEX
  5
BCF
  8
0
 62
7
 10
46.276652043649392
 20
49.37679305350207
 70
0
  0
SEQEND
  5
BD0
  8
0
  0
POLYLINE
  5
BD1
  8
0
 62
7
 66
1
 70
0
 10
0
 20
0
 30
0
  0
VERTEX
  5
BD2
  8
0
 62
7
 10
46.276652043649392
 20
49.37679305350207
 70
0
  0
VERTEX
  5
BD3
  8
0
 62
7
 10
45.514941431860642
 20
49.969521731739292
 70
0
  0
SEQEND
  5
BD4
  8
0
  0
POLYLINE
  5
BD5
  8
0
 62
7
 66
1
 70
0
 10
0
 20
0
 30
0
  0
VERTEX
  5
BD6
  8
0
 62
7
 10
45.514941431860642
 20
49.969521731739292
 70
0
  0
VERTEX
  5
BD7
  8
0
 62
7
 10
45.514941431860642
 20
49.969521731739292
 70
0
  0
SEQEND
  5
BD8
  8
0
  0
POLYLINE
  5
BD9
  8
0
 62
7
 66
1
 70
0
 10
0
 20
0
 30
0
  0
VERTEX
  5
BDA
  8
0
 62
7
 10
45.514941431860642
 20
49.969521731739292
 70
0
  0
VERTEX
  5
BDB
  8
0
 62
7
 10
44.668136961586242
 20
50.562250409976571
 70
0
  0
SEQEND
  5
BDC
  8
0
  0
POLYLINE
  5
BDD
  8
0
 62
7
 66
1
 70
0
 10
0
 20
0
 30
0
  0
VERTEX
  5
BDE
  8
0
 62
7
 10
44.668136961586242
 20
50.562250409976571
 70
0
  0
VERTEX
  5
BDF
  8
0
 62
7
 10
43.821332491311807
 20
51.02785506480808
 70
0
  0
SEQEND
  5
BE0
  8
0
  0
POLYLINE
  5
BE1
  8
0
 62
7
 66
1
 70
0
 10
0
 20
0
 30
0
  0
VERTEX
  5
BE2
  8
0
 62
7
 10
43.821332491311807
 20
51.02785506480808
 70
0
  0
VERTEX
  5
BE3
  8
0
 62
7
 10
42.890123181648782
 20
51.451085045171
 70
0
  0
SEQEND
  5
BE4
  8
0
  0
POLYLINE
  5
BE5
  8
0
 62
7
 66
1
 70
0
 10
0
 20
0
 30
0
  0
VERTEX
  5
BE6
  8
0
 62
7
 10
42.890123181648782
 20
51.451085045171
 70
0
  0
VERTEX
  5
BE7
  8
0
 62
7
 10
41.958913871985771
 20
51.789910186145327
 70
0
  0
SEQEND
  5
BE8
  8
0
  0
POLYLINE
  5
BE9
  8
0
 62
7
 66
1
 70
0
 10
0
 20
0
 30
0
  0
VERTEX
  5
BEA
  8
0
 62
7
 10
41.958913871985771
 20
51.789910186145327
 70
0
  0
VERTEX
  5
BEB
  8
0
 62
7
 10
40.984985378305623
 20
52.086188397876811
 70
0
  0
SEQEND
  5
BEC
  8
0
  0
POLYLINE
  5
BED
  8
0
 62
7
 66
1
 70
0
 10
0
 20
0
 30
0
  0
VERTEX
  5
BEE
  8
0
 62
7
 10
40.984985378305623
 20
52.086188397876811
 70
0
  0
VERTEX
  5
BEF
  8
0
 62
7
 10
40.011401394174008
 20
52.255514840976844
 70
0
  0
SEQEND
  5
BF0
  8
0
  0
POLYLINE
  5
BF1
  8
0
 62
7
 66
1
 70
0
 10
0
 20
0
 30
0
  0
VERTEX
  5
BF2
  8
0
 62
7
 10
40.011401394174008
 20
52.255514840976844
 70
0
  0
VERTEX
  5
BF3
  8
0
 62
7
 10
38.995442735573853
 20
52.340264189913967
 70
0
  0
SEQEND
  5
BF4
  8
0
  0
POLYLINE
  5
BF5
  8
0
 62
7
 66
1
 70
0
 10
0
 20
0
 30
0
  0
VERTEX
  5
BF6
  8
0
 62
7
 10
38.995442735573853
 20
52.340264189913967
 70
0
  0
VERTEX
  5
BF7
  8
0
 62
7
 10
38.995442735573853
 20
52.340264189913967
 70
0
  0
SEQEND
  5
BF8
  8
0
  0
POLYLINE
  5
BF9
  8
0
 62
7
 66
1
 70
0
 10
0
 20
0
 30
0
  0
VERTEX
  5
BFA
  8
0
 62
7
 10
47.462109400123829
 20
50.265799943470817
 70
0
  0
VERTEX
  5
BFB
  8
0
 62
7
 10
46.65767960431802
 20
50.646827504139416
 70
0
  0
SEQEND
  5
BFC
  8
0
  0
POLYLINE
  5
BFD
  8
0
 62
7
 66
1
 70
0
 10
0
 20
0
 30
0
  0
VERTEX
  5
BFE
  8
0
 62
7
 10
46.65767960431802
 20
50.646827504139416
 70
0
  0
VERTEX
  5
BFF
  8
0
 62
7
 10
45.811219643592118
 20
50.900903296176629
 70
0
  0
SEQEND
  5
C00
  8
0
  0
POLYLINE
  5
C01
  8
0
 62
7
 66
1
 70
0
 10
0
 20
0
 30
0
  0
VERTEX
  5
C02
  8
0
 62
7
 10
45.811219643592118
 20
50.900903296176629
 70
0
  0
VERTEX
  5
C03
  8
0
 62
7
 10
45.00678984778628
 20
51.112432158970933
 70
0
  0
SEQEND
  5
C04
  8
0
  0
POLYLINE
  5
C05
  8
0
 62
7
 66
1
 70
0
 10
0
 20
0
 30
0
  0
VERTEX
  5
C06
  8
0
 62
7
 10
45.00678984778628
 20
51.112432158970933
 70
0
  0
VERTEX
  5
C07
  8
0
 62
7
 10
44.117610703043312
 20
51.239556182376653
 70
0
  0
SEQEND
  5
C08
  8
0
  0
POLYLINE
  5
C09
  8
0
 62
7
 66
1
 70
0
 10
0
 20
0
 30
0
  0
VERTEX
  5
C0A
  8
0
 62
7
 10
44.117610703043312
 20
51.239556182376653
 70
0
  0
VERTEX
  5
C0B
  8
0
 62
7
 10
43.27115074231741
 20
51.281930856845229
 70
0
  0
SEQEND
  5
C0C
  8
0
  0
POLYLINE
  5
C0D
  8
0
 62
7
 66
1
 70
0
 10
0
 20
0
 30
0
  0
VERTEX
  5
C0E
  8
0
 62
7
 10
43.27115074231741
 20
51.281930856845229
 70
0
  0
VERTEX
  5
C0F
  8
0
 62
7
 10
43.27115074231741
 20
51.281930856845229
 70
0
  0
SEQEND
  5
C10
  8
0
  0
POLYLINE
  5
C11
  8
0
 62
7
 66
1
 70
0
 10
0
 20
0
 30
0
  0
VERTEX
  5
C12
  8
0
 62
7
 10
52.415123179267539
 20
46.159418379827279
 70
0
  0
VERTEX
  5
C13
  8
0
 62
7
 10
51.822566755804559
 20
46.879098826695952
 70
0
  0
SEQEND
  5
C14
  8
0
  0
POLYLINE
  5
C15
  8
0
 62
7
 66
1
 70
0
 10
0
 20
0
 30
0
  0
VERTEX
  5
C16
  8
0
 62
7
 10
51.822566755804559
 20
46.879098826695952
 70
0
  0
VERTEX
  5
C17
  8
0
 62
7
 10
51.18763565787301
 20
47.598779273564617
 70
0
  0
SEQEND
  5
C18
  8
0
  0
POLYLINE
  5
C19
  8
0
 62
7
 66
1
 70
0
 10
0
 20
0
 30
0
  0
VERTEX
  5
C1A
  8
0
 62
7
 10
51.18763565787301
 20
47.598779273564617
 70
0
  0
VERTEX
  5
C1B
  8
0
 62
7
 10
50.509985375924373
 20
48.233882626270429
 70
0
  0
SEQEND
  5
C1C
  8
0
  0
POLYLINE
  5
C1D
  8
0
 62
7
 66
1
 70
0
 10
0
 20
0
 30
0
  0
VERTEX
  5
C1E
  8
0
 62
7
 10
50.509985375924373
 20
48.233882626270429
 70
0
  0
VERTEX
  5
C1F
  8
0
 62
7
 10
49.832679603524269
 20
48.826439049733438
 70
0
  0
SEQEND
  5
C20
  8
0
  0
POLYLINE
  5
C21
  8
0
 62
7
 66
1
 70
0
 10
0
 20
0
 30
0
  0
VERTEX
  5
C22
  8
0
 62
7
 10
49.832679603524269
 20
48.826439049733438
 70
0
  0
VERTEX
  5
C23
  8
0
 62
7
 10
49.070968991735519
 20
49.37679305350207
 70
0
  0
SEQEND
  5
C24
  8
0
  0
POLYLINE
  5
C25
  8
0
 62
7
 66
1
 70
0
 10
0
 20
0
 30
0
  0
VERTEX
  5
C26
  8
0
 62
7
 10
49.070968991735519
 20
49.37679305350207
 70
0
  0
VERTEX
  5
C27
  8
0
 62
7
 10
48.266539195929681
 20
49.842569963107849
 70
0
  0
SEQEND
  5
C28
  8
0
  0
POLYLINE
  5
C29
  8
0
 62
7
 66
1
 70
0
 10
0
 20
0
 30
0
  0
VERTEX
  5
C2A
  8
0
 62
7
 10
48.266539195929681
 20
49.842569963107849
 70
0
  0
VERTEX
  5
C2B
  8
0
 62
7
 10
47.462109400123829
 20
50.265799943470817
 70
0
  0
SEQEND
  5
C2C
  8
0
  0
POLYLINE
  5
C2D
  8
0
 62
7
 66
1
 70
0
 10
0
 20
0
 30
0
  0
VERTEX
  5
C2E
  8
0
 62
7
 10
47.462109400123829
 20
50.265799943470817
 70
0
  0
VERTEX
  5
C2F
  8
0
 62
7
 10
47.462109400123829
 20
50.265799943470817
 70
0
  0
SEQEND
  5
C30
  8
0
  0
POLYLINE
  5
C31
  8
0
 62
7
 66
1
 70
0
 10
0
 20
0
 30
0
  0
VERTEX
  5
C32
  8
0
 62
7
 10
55.336219641210867
 20
33.925195292608073
 70
0
  0
VERTEX
  5
C33
  8
0
 62
7
 10
55.462999155068069
 20
34.898779276739617
 70
0
  0
SEQEND
  5
C34
  8
0
  0
POLYLINE
  5
C35
  8
0
 62
7
 66
1
 70
0
 10
0
 20
0
 30
0
  0
VERTEX
  5
C36
  8
0
 62
7
 10
55.462999155068069
 20
34.898779276739617
 70
0
  0
VERTEX
  5
C37
  8
0
 62
7
 10
55.50537382953663
 20
35.914910190114092
 70
0
  0
SEQEND
  5
C38
  8
0
  0
POLYLINE
  5
C39
  8
0
 62
7
 66
1
 70
0
 10
0
 20
0
 30
0
  0
VERTEX
  5
C3A
  8
0
 62
7
 10
55.50537382953663
 20
35.914910190114092
 70
0
  0
VERTEX
  5
C3B
  8
0
 62
7
 10
55.50537382953663
 20
36.888494174245693
 70
0
  0
SEQEND
  5
C3C
  8
0
  0
POLYLINE
  5
C3D
  8
0
 62
7
 66
1
 70
0
 10
0
 20
0
 30
0
  0
VERTEX
  5
C3E
  8
0
 62
7
 10
55.50537382953663
 20
36.888494174245693
 70
0
  0
VERTEX
  5
C3F
  8
0
 62
7
 10
55.462999155068069
 20
37.862250413151571
 70
0
  0
SEQEND
  5
C40
  8
0
  0
POLYLINE
  5
C41
  8
0
 62
7
 66
1
 70
0
 10
0
 20
0
 30
0
  0
VERTEX
  5
C42
  8
0
 62
7
 10
55.462999155068069
 20
37.862250413151571
 70
0
  0
VERTEX
  5
C43
  8
0
 62
7
 10
55.336219641210867
 20
38.878209071751712
 70
0
  0
SEQEND
  5
C44
  8
0
  0
POLYLINE
  5
C45
  8
0
 62
7
 66
1
 70
0
 10
0
 20
0
 30
0
  0
VERTEX
  5
C46
  8
0
 62
7
 10
55.336219641210867
 20
38.878209071751712
 70
0
  0
VERTEX
  5
C47
  8
0
 62
7
 10
55.166720943336571
 20
39.85179305588332
 70
0
  0
SEQEND
  5
C48
  8
0
  0
POLYLINE
  5
C49
  8
0
 62
7
 66
1
 70
0
 10
0
 20
0
 30
0
  0
VERTEX
  5
C4A
  8
0
 62
7
 10
55.166720943336571
 20
39.85179305588332
 70
0
  0
VERTEX
  5
C4B
  8
0
 62
7
 10
54.955192080542247
 20
40.825549294789191
 70
0
  0
SEQEND
  5
C4C
  8
0
  0
POLYLINE
  5
C4D
  8
0
 62
7
 66
1
 70
0
 10
0
 20
0
 30
0
  0
VERTEX
  5
C4E
  8
0
 62
7
 10
54.955192080542247
 20
40.825549294789191
 70
0
  0
VERTEX
  5
C4F
  8
0
 62
7
 10
54.658913868810771
 20
41.756930859226479
 70
0
  0
SEQEND
  5
C50
  8
0
  0
POLYLINE
  5
C51
  8
0
 62
7
 66
1
 70
0
 10
0
 20
0
 30
0
  0
VERTEX
  5
C52
  8
0
 62
7
 10
54.658913868810771
 20
41.756930859226479
 70
0
  0
VERTEX
  5
C53
  8
0
 62
7
 10
54.3202609826107
 20
42.6881401688895
 70
0
  0
SEQEND
  5
C54
  8
0
  0
POLYLINE
  5
C55
  8
0
 62
7
 66
1
 70
0
 10
0
 20
0
 30
0
  0
VERTEX
  5
C56
  8
0
 62
7
 10
54.3202609826107
 20
42.6881401688895
 70
0
  0
VERTEX
  5
C57
  8
0
 62
7
 10
53.896858747473487
 20
43.619521733326792
 70
0
  0
SEQEND
  5
C58
  8
0
  0
POLYLINE
  5
C59
  8
0
 62
7
 66
1
 70
0
 10
0
 20
0
 30
0
  0
VERTEX
  5
C5A
  8
0
 62
7
 10
53.896858747473487
 20
43.619521733326792
 70
0
  0
VERTEX
  5
C5B
  8
0
 62
7
 10
53.4734565123363
 20
44.46615394882695
 70
0
  0
SEQEND
  5
C5C
  8
0
  0
POLYLINE
  5
C5D
  8
0
 62
7
 66
1
 70
0
 10
0
 20
0
 30
0
  0
VERTEX
  5
C5E
  8
0
 62
7
 10
53.4734565123363
 20
44.46615394882695
 70
0
  0
VERTEX
  5
C5F
  8
0
 62
7
 10
52.965304928261922
 20
45.355160838795712
 70
0
  0
SEQEND
  5
C60
  8
0
  0
POLYLINE
  5
C61
  8
0
 62
7
 66
1
 70
0
 10
0
 20
0
 30
0
  0
VERTEX
  5
C62
  8
0
 62
7
 10
52.965304928261922
 20
45.355160838795712
 70
0
  0
VERTEX
  5
C63
  8
0
 62
7
 10
52.415123179267539
 20
46.159418379827279
 70
0
  0
SEQEND
  5
C64
  8
0
  0
POLYLINE
  5
C65
  8
0
 62
7
 66
1
 70
0
 10
0
 20
0
 30
0
  0
VERTEX
  5
C66
  8
0
 62
7
 10
52.415123179267539
 20
46.159418379827279
 70
0
  0
VERTEX
  5
C67
  8
0
 62
7
 10
52.415123179267539
 20
46.159418379827279
 70
0
  0
SEQEND
  5
C68
  8
0
  0
POLYLINE
  5
C69
  8
0
 62
7
 66
1
 70
0
 10
0
 20
0
 30
0
  0
VERTEX
  5
C6A
  8
0
 62
7
 10
52.965304928261922
 20
27.49044594525839
 70
0
  0
VERTEX
  5
C6B
  8
0
 62
7
 10
53.4734565123363
 20
28.33725041553279
 70
0
  0
SEQEND
  5
C6C
  8
0
  0
POLYLINE
  5
C6D
  8
0
 62
7
 66
1
 70
0
 10
0
 20
0
 30
0
  0
VERTEX
  5
C6E
  8
0
 62
7
 10
53.4734565123363
 20
28.33725041553279
 70
0
  0
VERTEX
  5
C6F
  8
0
 62
7
 10
53.939233421942077
 20
29.226085050727249
 70
0
  0
SEQEND
  5
C70
  8
0
  0
POLYLINE
  5
C71
  8
0
 62
7
 66
1
 70
0
 10
0
 20
0
 30
0
  0
VERTEX
  5
C72
  8
0
 62
7
 10
53.939233421942077
 20
29.226085050727249
 70
0
  0
VERTEX
  5
C73
  8
0
 62
7
 10
54.3202609826107
 20
30.11526419547025
 70
0
  0
SEQEND
  5
C74
  8
0
  0
POLYLINE
  5
C75
  8
0
 62
7
 66
1
 70
0
 10
0
 20
0
 30
0
  0
VERTEX
  5
C76
  8
0
 62
7
 10
54.3202609826107
 20
30.11526419547025
 70
0
  0
VERTEX
  5
C77
  8
0
 62
7
 10
54.658913868810771
 20
31.046473505133271
 70
0
  0
SEQEND
  5
C78
  8
0
  0
POLYLINE
  5
C79
  8
0
 62
7
 66
1
 70
0
 10
0
 20
0
 30
0
  0
VERTEX
  5
C7A
  8
0
 62
7
 10
54.658913868810771
 20
31.046473505133271
 70
0
  0
VERTEX
  5
C7B
  8
0
 62
7
 10
54.955192080542247
 20
31.97785506957058
 70
0
  0
SEQEND
  5
C7C
  8
0
  0
POLYLINE
  5
C7D
  8
0
 62
7
 66
1
 70
0
 10
0
 20
0
 30
0
  0
VERTEX
  5
C7E
  8
0
 62
7
 10
54.955192080542247
 20
31.97785506957058
 70
0
  0
VERTEX
  5
C7F
  8
0
 62
7
 10
55.166720943336571
 20
32.951439053702188
 70
0
  0
SEQEND
  5
C80
  8
0
  0
POLYLINE
  5
C81
  8
0
 62
7
 66
1
 70
0
 10
0
 20
0
 30
0
  0
VERTEX
  5
C82
  8
0
 62
7
 10
55.166720943336571
 20
32.951439053702188
 70
0
  0
VERTEX
  5
C83
  8
0
 62
7
 10
55.336219641210867
 20
33.925195292608073
 70
0
  0
SEQEND
  5
C84
  8
0
  0
POLYLINE
  5
C85
  8
0
 62
7
 66
1
 70
0
 10
0
 20
0
 30
0
  0
VERTEX
  5
C86
  8
0
 62
7
 10
55.336219641210867
 20
33.925195292608073
 70
0
  0
VERTEX
  5
C87
  8
0
 62
7
 10
55.336219641210867
 20
33.925195292608073
 70
0
  0
SEQEND
  5
C88
  8
0
  0
POLYLINE
  5
C89
  8
0
 62
7
 66
1
 70
0
 10
0
 20
0
 30
0
  0
VERTEX
  5
C8A
  8
0
 62
7
 10
48.435693384255437
 20
23.087786169883369
 70
0
  0
VERTEX
  5
C8B
  8
0
 62
7
 10
49.197748505592727
 20
23.59576549918344
 70
0
  0
SEQEND
  5
C8C
  8
0
  0
POLYLINE
  5
C8D
  8
0
 62
7
 66
1
 70
0
 10
0
 20
0
 30
0
  0
VERTEX
  5
C8E
  8
0
 62
7
 10
49.197748505592727
 20
23.59576549918344
 70
0
  0
VERTEX
  5
C8F
  8
0
 62
7
 10
49.959803626929983
 20
24.103917083257809
 70
0
  0
SEQEND
  5
C90
  8
0
  0
POLYLINE
  5
C91
  8
0
 62
7
 66
1
 70
0
 10
0
 20
0
 30
0
  0
VERTEX
  5
C92
  8
0
 62
7
 10
49.959803626929983
 20
24.103917083257809
 70
0
  0
VERTEX
  5
C93
  8
0
 62
7
 10
50.637109399330093
 20
24.696473506720761
 70
0
  0
SEQEND
  5
C94
  8
0
  0
POLYLINE
  5
C95
  8
0
 62
7
 66
1
 70
0
 10
0
 20
0
 30
0
  0
VERTEX
  5
C96
  8
0
 62
7
 10
50.637109399330093
 20
24.696473506720761
 70
0
  0
VERTEX
  5
C97
  8
0
 62
7
 10
51.314415171730218
 20
25.33157685942658
 70
0
  0
SEQEND
  5
C98
  8
0
  0
POLYLINE
  5
C99
  8
0
 62
7
 66
1
 70
0
 10
0
 20
0
 30
0
  0
VERTEX
  5
C9A
  8
0
 62
7
 10
51.314415171730218
 20
25.33157685942658
 70
0
  0
VERTEX
  5
C9B
  8
0
 62
7
 10
51.9069715951932
 20
26.008882631826712
 70
0
  0
SEQEND
  5
C9C
  8
0
  0
POLYLINE
  5
C9D
  8
0
 62
7
 66
1
 70
0
 10
0
 20
0
 30
0
  0
VERTEX
  5
C9E
  8
0
 62
7
 10
51.9069715951932
 20
26.008882631826712
 70
0
  0
VERTEX
  5
C9F
  8
0
 62
7
 10
52.4574978537361
 20
26.7285630786954
 70
0
  0
SEQEND
  5
CA0
  8
0
  0
POLYLINE
  5
CA1
  8
0
 62
7
 66
1
 70
0
 10
0
 20
0
 30
0
  0
VERTEX
  5
CA2
  8
0
 62
7
 10
52.4574978537361
 20
26.7285630786954
 70
0
  0
VERTEX
  5
CA3
  8
0
 62
7
 10
52.965304928261922
 20
27.49044594525839
 70
0
  0
SEQEND
  5
CA4
  8
0
  0
POLYLINE
  5
CA5
  8
0
 62
7
 66
1
 70
0
 10
0
 20
0
 30
0
  0
VERTEX
  5
CA6
  8
0
 62
7
 10
52.965304928261922
 20
27.49044594525839
 70
0
  0
VERTEX
  5
CA7
  8
0
 62
7
 10
52.965304928261922
 20
27.49044594525839
 70
0
  0
SEQEND
  5
CA8
  8
0
  0
POLYLINE
  5
CA9
  8
0
 62
7
 66
1
 70
0
 10
0
 20
0
 30
0
  0
VERTEX
  5
CAA
  8
0
 62
7
 10
41.7470404996429
 20
21.5638481819831
 70
0
  0
VERTEX
  5
CAB
  8
0
 62
7
 10
42.593844969917313
 20
21.521473507514521
 70
0
  0
SEQEND
  5
CAC
  8
0
  0
POLYLINE
  5
CAD
  8
0
 62
7
 66
1
 70
0
 10
0
 20
0
 30
0
  0
VERTEX
  5
CAE
  8
0
 62
7
 10
42.593844969917313
 20
21.521473507514521
 70
0
  0
VERTEX
  5
CAF
  8
0
 62
7
 10
43.48267960511177
 20
21.521473507514521
 70
0
  0
SEQEND
  5
CB0
  8
0
  0
POLYLINE
  5
CB1
  8
0
 62
7
 66
1
 70
0
 10
0
 20
0
 30
0
  0
VERTEX
  5
CB2
  8
0
 62
7
 10
43.48267960511177
 20
21.521473507514521
 70
0
  0
VERTEX
  5
CB3
  8
0
 62
7
 10
44.371858749854731
 20
21.606222856451669
 70
0
  0
SEQEND
  5
CB4
  8
0
  0
POLYLINE
  5
CB5
  8
0
 62
7
 66
1
 70
0
 10
0
 20
0
 30
0
  0
VERTEX
  5
CB6
  8
0
 62
7
 10
44.371858749854731
 20
21.606222856451669
 70
0
  0
VERTEX
  5
CB7
  8
0
 62
7
 10
45.218318710580633
 20
21.7755492995517
 70
0
  0
SEQEND
  5
CB8
  8
0
  0
POLYLINE
  5
CB9
  8
0
 62
7
 66
1
 70
0
 10
0
 20
0
 30
0
  0
VERTEX
  5
CBA
  8
0
 62
7
 10
45.218318710580633
 20
21.7755492995517
 70
0
  0
VERTEX
  5
CBB
  8
0
 62
7
 10
46.065123180855039
 20
21.98725041712029
 70
0
  0
SEQEND
  5
CBC
  8
0
  0
POLYLINE
  5
CBD
  8
0
 62
7
 66
1
 70
0
 10
0
 20
0
 30
0
  0
VERTEX
  5
CBE
  8
0
 62
7
 10
46.065123180855039
 20
21.98725041712029
 70
0
  0
VERTEX
  5
CBF
  8
0
 62
7
 10
46.869552976660877
 20
22.2835286288518
 70
0
  0
SEQEND
  5
CC0
  8
0
  0
POLYLINE
  5
CC1
  8
0
 62
7
 66
1
 70
0
 10
0
 20
0
 30
0
  0
VERTEX
  5
CC2
  8
0
 62
7
 10
46.869552976660877
 20
22.2835286288518
 70
0
  0
VERTEX
  5
CC3
  8
0
 62
7
 10
47.673638262918189
 20
22.664556189520429
 70
0
  0
SEQEND
  5
CC4
  8
0
  0
POLYLINE
  5
CC5
  8
0
 62
7
 66
1
 70
0
 10
0
 20
0
 30
0
  0
VERTEX
  5
CC6
  8
0
 62
7
 10
47.673638262918189
 20
22.664556189520429
 70
0
  0
VERTEX
  5
CC7
  8
0
 62
7
 10
48.435693384255437
 20
23.087786169883369
 70
0
  0
SEQEND
  5
CC8
  8
0
  0
POLYLINE
  5
CC9
  8
0
 62
7
 66
1
 70
0
 10
0
 20
0
 30
0
  0
VERTEX
  5
CCA
  8
0
 62
7
 10
48.435693384255437
 20
23.087786169883369
 70
0
  0
VERTEX
  5
CCB
  8
0
 62
7
 10
48.435693384255437
 20
23.087786169883369
 70
0
  0
SEQEND
  5
CCC
  8
0
  0
POLYLINE
  5
CCD
  8
0
 62
7
 66
1
 70
0
 10
0
 20
0
 30
0
  0
VERTEX
  5
CCE
  8
0
 62
7
 10
38.741539198310932
 20
52.340264189913967
 70
0
  0
VERTEX
  5
CCF
  8
0
 62
7
 10
33.237999160624327
 20
52.848243519214073
 70
0
  0
SEQEND
  5
CD0
  8
0
  0
POLYLINE
  5
CD1
  8
0
 62
7
 66
1
 70
0
 10
0
 20
0
 30
0
  0
VERTEX
  5
CD2
  8
0
 62
7
 10
37.259803630104983
 20
21.098243527151588
 70
0
  0
VERTEX
  5
CD3
  8
0
 62
7
 10
31.8410129413555
 20
21.5638481819831
 70
0
  0
SEQEND
  5
CD4
  8
0
  0
INSERT
  5
CE3
  8
0
  2
SPECEL-WCG5300LW
 10
108.51579379165911
 20
1.6221315119440476
 30
0
 41
1
 42
1
 43
1
 50
0
  0
ENDSEC
999
Created By CadLib version 4.0.36.7
999
CadLib website: www.woutware.com
  0
EOF
