  0
SECTION
  2
HEADER
  9
$ACADVER
  1
AC1009
  9
$INSBASE
 10
0
 20
0
 30
0
  9
$EXTMIN
 10
0
 20
0
  9
$EXTMAX
 10
148.5
 20
105
  9
$LIMMIN
 10
0
 20
0
  9
$LIMMAX
 10
148.5
 20
105
  9
$LTSCALE
 40
0.5
  0
ENDSEC
  0
SECTION
  2
TABLES
  0
TABLE
  2
LTYPE
 70
     9
  0
LTYPE
  2
CONTINUOUS
 70
    64
  3
実線
 72
    65
 73
     0
 40
0.0
  0
LTYPE
  2
DASHED1
 70
    64
  3
--  --  --  --  --  --  --  --  
 72
    65
 73
     2
 40
2.5
 49
1.25
 49
-1.25
  0
LTYPE
  2
DASHED2
 70
    64
  3
----    ----    ----    ----    
 72
    65
 73
     2
 40
5.0
 49
2.5
 49
-2.5
  0
LTYPE
  2
DASHED3
 70
    64
  3
------  ------  ------  ------  
 72
    65
 73
     2
 40
5.0
 49
3.75
 49
-1.25
  0
LTYPE
  2
CENTER1
 70
    64
  3
----- - ----- - ----- - ----- - 
 72
    65
 73
     4
 40
10.0
 49
6.25
 49
-1.25
 49
1.25
 49
-1.25
  0
LTYPE
  2
CENTER2
 70
    64
  3
----------  --  ----------  --  
 72
    65
 73
     4
 40
20.0
 49
12.5
 49
-2.5
 49
2.5
 49
-2.5
  0
LTYPE
  2
PHANTOM1
 70
    64
  3
--- - - --- - - --- - - --- - - 
 72
    65
 73
     6
 40
10.0
 49
3.25
 49
-1.25
 49
1.25
 49
-1.25
 49
1.25
 49
-1.25
  0
LTYPE
  2
PHANTOM2
 70
    64
  3
--------  -  -  --------  -  -  
 72
    65
 73
     6
 40
20.0
 49
10.0
 49
-2.5
 49
1.25
 49
-2.5
 49
1.25
 49
-2.5
  0
LTYPE
  2
DOT
 70
    64
  3
-   -   -   -   -   -   -   -   
 72
    65
 73
     2
 40
2.5
 49
0.625
 49
-1.875
  0
LTYPE
  2
DUMMY
 70
    64
  3
ダミー
 72
    65
 73
     0
 40
0.0
  0
LTYPE
  2
RAND1
 70
    64
  3
ランダム線1
 72
    65
 73
     4
 40
10.0
 49
1.0
 49
-2.0
 49
3.0
 49
-4.0
  0
LTYPE
  2
RAND2
 70
    64
  3
ランダム線2
 72
    65
 73
     4
 40
14.0
 49
2.0
 49
-3.0
 49
4.0
 49
-5.0
  0
LTYPE
  2
RAND3
 70
    64
  3
ランダム線3
 72
    65
 73
     4
 40
18.0
 49
3.0
 49
-4.0
 49
5.0
 49
-6.0
  0
LTYPE
  2
RAND4
 70
    64
  3
ランダム線4
 72
    65
 73
     4
 40
22.0
 49
4.0
 49
-5.0
 49
6.0
 49
-7.0
  0
LTYPE
  2
RAND5
 70
    64
  3
ランダム線5
 72
    65
 73
     4
 40
26.0
 49
5.0
 49
-6.0
 49
7.0
 49
-8.0
  0
LTYPE
  2
LONG1
 70
    64
  3
----------  --  ----------  --  
 72
    65
 73
     4
 40
40.0
 49
32.5
 49
-2.5
 49
2.5
 49
-2.5
  0
LTYPE
  2
LONG2
 70
    64
  3
--------  -  -  --------  -  -  
 72
    65
 73
     6
 40
40.0
 49
30.0
 49
-2.5
 49
1.25
 49
-2.5
 49
1.25
 49
-2.5
  0
LTYPE
  2
LONG3
 70
    64
  3
+++++++++++++++..+++++++++++++++
 72
    65
 73
     2
 40
40.0
 49
37.5
 49
-2.5
  0
LTYPE
  2
LONG4
 70
    64
  3
+++++++++++++++..+++++++++++++++
 72
    65
 73
     2
 40
80.0
 49
75.0
 49
-5.0
  0
LTYPE
  2
LONG5
 70
    64
  3
----------  --  ----------  --  
 72
    65
 73
     4
 40
60.0
 49
37.5
 49
-7.5
 49
7.5
 49
-7.5
  0
LTYPE
  2
dashed
 70
   64
  3
-------   -------------   ------
 72
   65
 73
    2
 40
7.5
 49
6
 49
-1.5
  0
LTYPE
  2
dashed_spaced
 70
   64
  3
----        --------        ----
 72
   65
 73
    2
 40
12
 49
6
 49
-6
  0
LTYPE
  2
long_dashed_dotted
 70
   64
  3
------------- --- --------------
 72
   65
 73
    4
 40
15.25
 49
12
 49
-1.5
 49
0.25
 49
-1.5
  0
LTYPE
  2
long_dashed_double-dotted
 70
   64
  3
----------- --- --- ------------
 72
   65
 73
    6
 40
17
 49
12
 49
-1.5
 49
0.25
 49
-1.5
 49
0.25
 49
-1.5
  0
LTYPE
  2
long_dashed_triplicate-dotted
 70
   64
  3
--------- --- --- --- ----------
 72
   65
 73
    8
 40
18.75
 49
12
 49
-1.5
 49
0.25
 49
-1.5
 49
0.25
 49
-1.5
 49
0.25
 49
-1.5
  0
LTYPE
  2
dotted
 70
   64
  3
   -       -       -       -    
 72
   65
 73
    2
 40
1.75
 49
0.25
 49
-1.5
  0
LTYPE
  2
chain
 70
   64
  3
-------------- -- --------------
 72
   65
 73
    4
 40
18.5
 49
12
 49
-1.5
 49
3.5
 49
-1.5
  0
LTYPE
  2
chain_double_dash
 70
   64
  3
------------ -- -- -------------
 72
   65
 73
    6
 40
23.5
 49
12
 49
-1.5
 49
3.5
 49
-1.5
 49
3.5
 49
-1.5
  0
LTYPE
  2
dashed_dotted
 70
   64
  3
-----------     -     ----------
 72
   65
 73
    4
 40
9.25
 49
6
 49
-1.5
 49
0.25
 49
-1.5
  0
LTYPE
  2
double-dashed_dotted
 70
   64
  3
------   -----------   -   -----
 72
   65
 73
    6
 40
16.75
 49
6
 49
-1.5
 49
6
 49
-1.5
 49
0.25
 49
-1.5
  0
LTYPE
  2
dashed_double-dotted
 70
   64
  3
---------    -    -    ---------
 72
   65
 73
    6
 40
11
 49
6
 49
-1.5
 49
0.25
 49
-1.5
 49
0.25
 49
-1.5
  0
LTYPE
  2
double-dashed_double-dotted
 70
   64
  3
-----   ---------   -   -   ----
 72
   65
 73
    8
 40
18.5
 49
6
 49
-1.5
 49
6
 49
-1.5
 49
0.25
 49
-1.5
 49
0.25
 49
-1.5
  0
LTYPE
  2
dashed_triplicate-dotted
 70
   64
  3
-------    -    -    -    ------
 72
   65
 73
    8
 40
12.75
 49
6
 49
-1.5
 49
0.25
 49
-1.5
 49
0.25
 49
-1.5
 49
0.25
 49
-1.5
  0
LTYPE
  2
double-dashed_triplicate-dotted
 70
   64
  3
-----  ---------  -  -  -  -----
 72
   65
 73
   10
 40
20.25
 49
6
 49
-1.5
 49
6
 49
-1.5
 49
0.25
 49
-1.5
 49
0.25
 49
-1.5
 49
0.25
 49
-1.5
  0
LTYPE
  2
undefined
 70
   64
  3
--------------------------------
 72
   65
 73
    0
 40
0
  0
LTYPE
  2
_
 70
   64
  3
                                
 72
   65
 73
    0
 40
0
  0
LTYPE
  2
__18
 70
   64
  3
                                
 72
   65
 73
    0
 40
0
  0
LTYPE
  2
__19
 70
   64
  3
                                
 72
   65
 73
    0
 40
0
  0
LTYPE
  2
__20
 70
   64
  3
                                
 72
   65
 73
    0
 40
0
  0
LTYPE
  2
__21
 70
   64
  3
                                
 72
   65
 73
    0
 40
0
  0
LTYPE
  2
__22
 70
   64
  3
                                
 72
   65
 73
    0
 40
0
  0
LTYPE
  2
__23
 70
   64
  3
                                
 72
   65
 73
    0
 40
0
  0
LTYPE
  2
__24
 70
   64
  3
                                
 72
   65
 73
    0
 40
0
  0
LTYPE
  2
__25
 70
   64
  3
                                
 72
   65
 73
    0
 40
0
  0
LTYPE
  2
__26
 70
   64
  3
                                
 72
   65
 73
    0
 40
0
  0
LTYPE
  2
__27
 70
   64
  3
                                
 72
   65
 73
    0
 40
0
  0
LTYPE
  2
__28
 70
   64
  3
                                
 72
   65
 73
    0
 40
0
  0
LTYPE
  2
__29
 70
   64
  3
                                
 72
   65
 73
    0
 40
0
  0
LTYPE
  2
__30
 70
   64
  3
                                
 72
   65
 73
    0
 40
0
  0
LTYPE
  2
__31
 70
   64
  3
                                
 72
   65
 73
    0
 40
0
  0
LTYPE
  2
__32
 70
   64
  3
                                
 72
   65
 73
    0
 40
0
  0
ENDTAB
  0
TABLE
  2
STYLE
  5
3
100
AcDbSymbolTable
 70
     1
  0
STYLE
  5
10
100
AcDbSymbolTableRecord
100
AcDbTextStyleTableRecord
  2
STANDARD
 70
     0
 40
0.0
 41
1.0
 50
0.0
 71
     0
 42
0.2
  3
txt
  4
bigfont.shx
  0
STYLE
  5
26
100
AcDbSymbolTableRecord
100
AcDbTextStyleTableRecord
  2
TATEGAKI
 70
    68
 40
0.0
 41
1.0
 50
0.0
 71
     0
 42
1.0
  3
txt
  4
bigfont.shx
  0
ENDTAB
  0
TABLE
  2
LAYER
 70
    3
  0
LAYER
  2
_0-0_0
 70
   64
 62
    7
  6
CONTINUOUS
  0
LAYER
  2
_0-1___
 70
   64
 62
    7
  6
CONTINUOUS
  0
LAYER
  2
ADD_LINE
 70
   64
 62
    7
  6
CONTINUOUS
  0
ENDTAB
  0
ENDSEC
  0
SECTION
  2
BLOCKS
  0
BLOCK
  2
-001-SPECEL-WV1510NS
 70
   64
 10
0
 20
0
 30
0
  0
TEXT
  8
_0-3_SPEC
 62
    7
 10
0
 20
0
 40
1.5
 41
1
 50
0
  1
ｴｸｽﾃﾘｱ 昼白色(5000K) Ra85
  0
TEXT
  8
_0-3_SPEC
 62
    7
 10
0
 20
-3
 40
1.5
 41
1
 50
0
  1
100V~242V共用ﾀｲﾌﾟ
  0
TEXT
  8
_0-3_SPEC
 62
    7
 10
0
 20
-6
 40
1.5
 41
1
 50
0
  1
本体:ｱﾙﾐ ｼﾙﾊﾞｰ色塗装仕上
  0
TEXT
  8
_0-3_SPEC
 62
    7
 10
0
 20
-9
 40
1.5
 41
1
 50
0
  1
光源寿命:40,000時間(光束維持率85%)
  0
TEXT
  8
_0-3_SPEC
 62
    7
 10
0
 20
-12
 40
1.5
 41
1
 50
0
  1
光束:1540lm 消費電力:12W 消費効率:128.3lm/W
  0
ENDBLK
  0
ENDSEC
  0
SECTION
  2
ENTITIES
  0
TEXT
  8
_0-0_0
 62
    7
 10
8.7348806653487401
 20
92.066820773092786
 40
4.266791286706197
 41
1
 50
0
  1
ＬＥＤ１２Ｗ×１　ブラケット
  0
TEXT
  8
_0-0_0
 62
    7
 10
8.7348806653487401
 20
8.066825773092873
 40
4.266791286706197
 41
1
 50
0
  1
三菱　ＥＬ－ＷＶ１５１０Ｎ／Ｓ
  0
INSERT
  2
-001-SPECEL-WV1510NS
  8
_0-0_0
 10
92.116445971270537
 20
22.288597784718576
 41
1
 42
1
 50
0
  0
LINE
  8
_0-1___
  6
CONTINUOUS
 62
    7
 10
39.341837561197941
 20
63.593395359834233
 11
43.68103756119794
 21
65.180895359834253
  0
LINE
  8
_0-1___
  6
CONTINUOUS
 62
    7
 10
38.283537561197953
 20
63.402895359834254
 11
43.68103756119794
 21
65.41369535983425
  0
LINE
  8
_0-1___
  6
CONTINUOUS
 62
    7
 10
41.331537561197948
 20
60.608895359834271
 11
41.395037561197938
 21
60.672395359834262
  0
LINE
  8
_0-1___
  6
CONTINUOUS
 62
    7
 10
41.395037561197938
 20
60.672395359834262
 11
41.458537561197943
 21
60.735895359834267
  0
LINE
  8
_0-1___
  6
CONTINUOUS
 62
    7
 10
41.458537561197943
 20
60.735895359834267
 11
41.50083756119794
 21
60.841695359834262
  0
LINE
  8
_0-1___
  6
CONTINUOUS
 62
    7
 10
41.50083756119794
 20
60.841695359834262
 11
41.522037561197948
 21
60.968695359834257
  0
LINE
  8
_0-1___
  6
CONTINUOUS
 62
    7
 10
41.522037561197948
 20
60.968695359834257
 11
41.585537561197938
 21
61.095695359834252
  0
LINE
  8
_0-1___
  6
CONTINUOUS
 62
    7
 10
41.585537561197938
 20
61.095695359834252
 11
41.627837561197943
 21
61.222695359834262
  0
LINE
  8
_0-1___
  6
CONTINUOUS
 62
    7
 10
39.341837561197941
 20
43.696695359834244
 11
43.68103756119794
 21
45.305395359834279
  0
LINE
  8
_0-1___
  6
CONTINUOUS
 62
    7
 10
40.35783756119794
 20
62.11169535983425
 11
40.315537561197942
 21
62.069395359834239
  0
LINE
  8
_0-1___
  6
CONTINUOUS
 62
    7
 10
40.315537561197942
 20
62.069395359834239
 11
40.252037561197938
 21
62.005895359834248
  0
LINE
  8
_0-1___
  6
CONTINUOUS
 62
    7
 10
40.252037561197938
 20
62.005895359834248
 11
40.230837561197937
 21
61.984695359834255
  0
LINE
  8
_0-1___
  6
CONTINUOUS
 62
    7
 10
40.230837561197937
 20
61.984695359834255
 11
40.188537561197947
 21
61.878895359834253
  0
LINE
  8
_0-1___
  6
CONTINUOUS
 62
    7
 10
40.188537561197947
 20
61.878895359834253
 11
40.125037561197942
 21
61.751895359834258
  0
LINE
  8
_0-1___
  6
CONTINUOUS
 62
    7
 10
40.125037561197942
 20
61.751895359834258
 11
40.103837561197942
 21
61.688395359834239
  0
LINE
  8
_0-1___
  6
CONTINUOUS
 62
    7
 10
38.960837561197941
 20
43.336895359834251
 11
38.283537561197953
 21
42.807695359834248
  0
LINE
  8
_0-1___
  6
CONTINUOUS
 62
    7
 10
40.35783756119794
 20
48.099395359834261
 11
40.315537561197942
 21
48.035895359834271
  0
LINE
  8
_0-1___
  6
CONTINUOUS
 62
    7
 10
40.315537561197942
 20
48.035895359834271
 11
40.252037561197938
 21
48.014695359834278
  0
LINE
  8
_0-1___
  6
CONTINUOUS
 62
    7
 10
40.252037561197938
 20
48.014695359834278
 11
40.230837561197937
 21
47.97239535983428
  0
LINE
  8
_0-1___
  6
CONTINUOUS
 62
    7
 10
40.230837561197937
 20
47.97239535983428
 11
40.188537561197947
 21
47.845395359834271
  0
LINE
  8
_0-1___
  6
CONTINUOUS
 62
    7
 10
40.188537561197947
 20
47.845395359834271
 11
40.125037561197942
 21
47.760695359834273
  0
LINE
  8
_0-1___
  6
CONTINUOUS
 62
    7
 10
40.125037561197942
 20
47.760695359834273
 11
40.103837561197942
 21
47.654895359834271
  0
LINE
  8
_0-1___
  6
CONTINUOUS
 62
    7
 10
38.283537561197953
 20
42.807695359834248
 11
38.283537561197953
 21
63.402895359834254
  0
LINE
  8
_0-1___
  6
CONTINUOUS
 62
    7
 10
38.960837561197941
 20
43.336895359834251
 11
38.960837561197941
 21
63.656895359834252
  0
LINE
  8
_0-1___
  6
CONTINUOUS
 62
    7
 10
39.341837561197941
 20
43.696695359834244
 11
39.341837561197941
 21
63.593395359834233
  0
LINE
  8
_0-1___
  6
CONTINUOUS
 62
    7
 10
40.103837561197942
 20
61.688395359834239
 11
40.103837561197942
 21
61.222695359834262
  0
LINE
  8
_0-1___
  6
CONTINUOUS
 62
    7
 10
40.103837561197942
 20
61.222695359834262
 11
40.125037561197942
 21
61.11689535983426
  0
LINE
  8
_0-1___
  6
CONTINUOUS
 62
    7
 10
40.125037561197942
 20
61.11689535983426
 11
40.188537561197947
 21
60.989895359834264
  0
LINE
  8
_0-1___
  6
CONTINUOUS
 62
    7
 10
40.188537561197947
 20
60.989895359834264
 11
40.230837561197937
 21
60.926395359834245
  0
LINE
  8
_0-1___
  6
CONTINUOUS
 62
    7
 10
40.230837561197937
 20
60.926395359834245
 11
40.252037561197938
 21
60.862895359834255
  0
LINE
  8
_0-1___
  6
CONTINUOUS
 62
    7
 10
40.252037561197938
 20
60.862895359834255
 11
40.315537561197942
 21
60.841695359834262
  0
LINE
  8
_0-1___
  6
CONTINUOUS
 62
    7
 10
40.315537561197942
 20
60.841695359834262
 11
40.35783756119794
 21
60.799395359834264
  0
LINE
  8
_0-1___
  6
CONTINUOUS
 62
    7
 10
40.103837561197942
 20
47.654895359834271
 11
40.103837561197942
 21
47.21039535983428
  0
LINE
  8
_0-1___
  6
CONTINUOUS
 62
    7
 10
40.103837561197942
 20
47.21039535983428
 11
40.125037561197942
 21
47.125695359834268
  0
LINE
  8
_0-1___
  6
CONTINUOUS
 62
    7
 10
40.125037561197942
 20
47.125695359834268
 11
40.188537561197947
 21
46.998695359834272
  0
LINE
  8
_0-1___
  6
CONTINUOUS
 62
    7
 10
40.188537561197947
 20
46.998695359834272
 11
40.230837561197937
 21
46.89289535983427
  0
LINE
  8
_0-1___
  6
CONTINUOUS
 62
    7
 10
40.230837561197937
 20
46.89289535983427
 11
40.252037561197938
 21
46.871695359834277
  0
LINE
  8
_0-1___
  6
CONTINUOUS
 62
    7
 10
40.252037561197938
 20
46.871695359834277
 11
40.315537561197942
 21
46.82939535983428
  0
LINE
  8
_0-1___
  6
CONTINUOUS
 62
    7
 10
40.315537561197942
 20
46.82939535983428
 11
40.35783756119794
 21
46.765895359834261
  0
LINE
  8
_0-1___
  6
CONTINUOUS
 62
    7
 10
40.73883756119794
 20
47.21039535983428
 11
40.73883756119794
 21
47.654895359834271
  0
LINE
  8
_0-1___
  6
CONTINUOUS
 62
    7
 10
40.73883756119794
 20
47.654895359834271
 11
40.696537561197943
 21
47.760695359834273
  0
LINE
  8
_0-1___
  6
CONTINUOUS
 62
    7
 10
40.696537561197943
 20
47.760695359834273
 11
40.696537561197943
 21
47.845395359834271
  0
LINE
  8
_0-1___
  6
CONTINUOUS
 62
    7
 10
40.696537561197943
 20
47.845395359834271
 11
40.633037561197938
 21
47.97239535983428
  0
LINE
  8
_0-1___
  6
CONTINUOUS
 62
    7
 10
40.633037561197938
 20
47.97239535983428
 11
40.569537561197947
 21
48.014695359834278
  0
LINE
  8
_0-1___
  6
CONTINUOUS
 62
    7
 10
40.569537561197947
 20
48.014695359834278
 11
40.506037561197942
 21
48.035895359834271
  0
LINE
  8
_0-1___
  6
CONTINUOUS
 62
    7
 10
40.506037561197942
 20
48.035895359834271
 11
40.463737561197952
 21
48.099395359834261
  0
LINE
  8
_0-1___
  6
CONTINUOUS
 62
    7
 10
40.463737561197952
 20
48.099395359834261
 11
40.35783756119794
 21
48.099395359834261
  0
LINE
  8
_0-1___
  6
CONTINUOUS
 62
    7
 10
40.73883756119794
 20
61.222695359834262
 11
40.73883756119794
 21
61.688395359834239
  0
LINE
  8
_0-1___
  6
CONTINUOUS
 62
    7
 10
40.73883756119794
 20
61.688395359834239
 11
40.696537561197943
 21
61.751895359834258
  0
LINE
  8
_0-1___
  6
CONTINUOUS
 62
    7
 10
40.696537561197943
 20
61.751895359834258
 11
40.696537561197943
 21
61.878895359834253
  0
LINE
  8
_0-1___
  6
CONTINUOUS
 62
    7
 10
40.696537561197943
 20
61.878895359834253
 11
40.633037561197938
 21
61.984695359834255
  0
LINE
  8
_0-1___
  6
CONTINUOUS
 62
    7
 10
40.633037561197938
 20
61.984695359834255
 11
40.569537561197947
 21
62.005895359834248
  0
LINE
  8
_0-1___
  6
CONTINUOUS
 62
    7
 10
40.569537561197947
 20
62.005895359834248
 11
40.506037561197942
 21
62.069395359834239
  0
LINE
  8
_0-1___
  6
CONTINUOUS
 62
    7
 10
40.506037561197942
 20
62.069395359834239
 11
40.463737561197952
 21
62.11169535983425
  0
LINE
  8
_0-1___
  6
CONTINUOUS
 62
    7
 10
40.463737561197952
 20
62.11169535983425
 11
40.35783756119794
 21
62.11169535983425
  0
LINE
  8
_0-1___
  6
CONTINUOUS
 62
    7
 10
41.522037561197948
 20
47.125695359834268
 11
41.522037561197948
 21
47.633695359834277
  0
LINE
  8
_0-1___
  6
CONTINUOUS
 62
    7
 10
41.522037561197948
 20
47.633695359834277
 11
41.50083756119794
 21
47.760695359834273
  0
LINE
  8
_0-1___
  6
CONTINUOUS
 62
    7
 10
41.50083756119794
 20
47.760695359834273
 11
41.458537561197943
 21
47.845395359834271
  0
LINE
  8
_0-1___
  6
CONTINUOUS
 62
    7
 10
41.458537561197943
 20
47.845395359834271
 11
41.395037561197938
 21
47.908895359834261
  0
LINE
  8
_0-1___
  6
CONTINUOUS
 62
    7
 10
41.395037561197938
 20
47.908895359834261
 11
41.373837561197952
 21
48.014695359834278
  0
LINE
  8
_0-1___
  6
CONTINUOUS
 62
    7
 10
41.373837561197952
 20
48.014695359834278
 11
41.268037561197943
 21
48.035895359834271
  0
LINE
  8
_0-1___
  6
CONTINUOUS
 62
    7
 10
41.268037561197943
 20
48.035895359834271
 11
41.225737561197953
 21
48.035895359834271
  0
LINE
  8
_0-1___
  6
CONTINUOUS
 62
    7
 10
41.522037561197948
 20
61.11689535983426
 11
41.522037561197948
 21
61.624895359834248
  0
LINE
  8
_0-1___
  6
CONTINUOUS
 62
    7
 10
41.522037561197948
 20
61.624895359834248
 11
41.50083756119794
 21
61.751895359834258
  0
LINE
  8
_0-1___
  6
CONTINUOUS
 62
    7
 10
41.50083756119794
 20
61.751895359834258
 11
41.458537561197943
 21
61.857695359834246
  0
LINE
  8
_0-1___
  6
CONTINUOUS
 62
    7
 10
41.458537561197943
 20
61.857695359834246
 11
41.395037561197938
 21
61.942395359834258
  0
LINE
  8
_0-1___
  6
CONTINUOUS
 62
    7
 10
41.395037561197938
 20
61.942395359834258
 11
41.373837561197952
 21
62.005895359834248
  0
LINE
  8
_0-1___
  6
CONTINUOUS
 62
    7
 10
41.373837561197952
 20
62.005895359834248
 11
41.268037561197943
 21
62.069395359834239
  0
LINE
  8
_0-1___
  6
CONTINUOUS
 62
    7
 10
41.268037561197943
 20
62.069395359834239
 11
41.225737561197953
 21
62.069395359834239
  0
LINE
  8
_0-1___
  6
CONTINUOUS
 62
    7
 10
41.627837561197943
 20
47.21039535983428
 11
41.627837561197943
 21
47.506695359834268
  0
LINE
  8
_0-1___
  6
CONTINUOUS
 62
    7
 10
41.627837561197943
 20
47.506695359834268
 11
41.585537561197938
 21
47.633695359834277
  0
LINE
  8
_0-1___
  6
CONTINUOUS
 62
    7
 10
41.585537561197938
 20
47.633695359834277
 11
41.585537561197938
 21
47.760695359834273
  0
LINE
  8
_0-1___
  6
CONTINUOUS
 62
    7
 10
41.585537561197938
 20
47.760695359834273
 11
41.522037561197948
 21
47.887695359834268
  0
LINE
  8
_0-1___
  6
CONTINUOUS
 62
    7
 10
41.522037561197948
 20
47.887695359834268
 11
41.458537561197943
 21
48.014695359834278
  0
LINE
  8
_0-1___
  6
CONTINUOUS
 62
    7
 10
41.458537561197943
 20
48.014695359834278
 11
41.395037561197938
 21
48.099395359834261
  0
LINE
  8
_0-1___
  6
CONTINUOUS
 62
    7
 10
41.395037561197938
 20
48.099395359834261
 11
41.373837561197952
 21
48.141695359834273
  0
LINE
  8
_0-1___
  6
CONTINUOUS
 62
    7
 10
41.373837561197952
 20
48.141695359834273
 11
41.268037561197943
 21
48.16289535983428
  0
LINE
  8
_0-1___
  6
CONTINUOUS
 62
    7
 10
41.627837561197943
 20
61.222695359834262
 11
41.627837561197943
 21
61.497895359834253
  0
LINE
  8
_0-1___
  6
CONTINUOUS
 62
    7
 10
41.627837561197943
 20
61.497895359834253
 11
41.585537561197938
 21
61.624895359834248
  0
LINE
  8
_0-1___
  6
CONTINUOUS
 62
    7
 10
41.585537561197938
 20
61.624895359834248
 11
41.585537561197938
 21
61.751895359834258
  0
LINE
  8
_0-1___
  6
CONTINUOUS
 62
    7
 10
41.585537561197938
 20
61.751895359834258
 11
41.522037561197948
 21
61.878895359834253
  0
LINE
  8
_0-1___
  6
CONTINUOUS
 62
    7
 10
41.522037561197948
 20
61.878895359834253
 11
41.458537561197943
 21
62.005895359834248
  0
LINE
  8
_0-1___
  6
CONTINUOUS
 62
    7
 10
41.458537561197943
 20
62.005895359834248
 11
41.395037561197938
 21
62.11169535983425
  0
LINE
  8
_0-1___
  6
CONTINUOUS
 62
    7
 10
41.395037561197938
 20
62.11169535983425
 11
41.373837561197952
 21
62.132895359834258
  0
LINE
  8
_0-1___
  6
CONTINUOUS
 62
    7
 10
41.373837561197952
 20
62.132895359834258
 11
41.268037561197943
 21
62.196395359834241
  0
LINE
  8
_0-1___
  6
CONTINUOUS
 62
    7
 10
41.754837561197952
 20
47.146895359834261
 11
41.754837561197952
 21
47.59139535983428
  0
LINE
  8
_0-1___
  6
CONTINUOUS
 62
    7
 10
41.754837561197952
 20
47.59139535983428
 11
41.712537561197948
 21
47.718395359834261
  0
LINE
  8
_0-1___
  6
CONTINUOUS
 62
    7
 10
41.712537561197948
 20
47.718395359834261
 11
41.712537561197948
 21
47.845395359834271
  0
LINE
  8
_0-1___
  6
CONTINUOUS
 62
    7
 10
41.712537561197948
 20
47.845395359834271
 11
41.649037561197943
 21
47.97239535983428
  0
LINE
  8
_0-1___
  6
CONTINUOUS
 62
    7
 10
41.649037561197943
 20
47.97239535983428
 11
41.585537561197938
 21
48.035895359834271
  0
LINE
  8
_0-1___
  6
CONTINUOUS
 62
    7
 10
41.585537561197938
 20
48.035895359834271
 11
41.522037561197948
 21
48.099395359834261
  0
LINE
  8
_0-1___
  6
CONTINUOUS
 62
    7
 10
41.754837561197952
 20
61.180395359834264
 11
41.754837561197952
 21
61.603695359834255
  0
LINE
  8
_0-1___
  6
CONTINUOUS
 62
    7
 10
41.754837561197952
 20
61.603695359834255
 11
41.712537561197948
 21
61.73069535983425
  0
LINE
  8
_0-1___
  6
CONTINUOUS
 62
    7
 10
41.712537561197948
 20
61.73069535983425
 11
41.712537561197948
 21
61.857695359834246
  0
LINE
  8
_0-1___
  6
CONTINUOUS
 62
    7
 10
41.712537561197948
 20
61.857695359834246
 11
41.649037561197943
 21
61.984695359834255
  0
LINE
  8
_0-1___
  6
CONTINUOUS
 62
    7
 10
41.649037561197943
 20
61.984695359834255
 11
41.585537561197938
 21
62.069395359834239
  0
LINE
  8
_0-1___
  6
CONTINUOUS
 62
    7
 10
41.585537561197938
 20
62.069395359834239
 11
41.522037561197948
 21
62.11169535983425
  0
LINE
  8
_0-1___
  6
CONTINUOUS
 62
    7
 10
41.522037561197948
 20
62.11169535983425
 11
41.458537561197943
 21
62.196395359834241
  0
LINE
  8
_0-1___
  6
CONTINUOUS
 62
    7
 10
41.458537561197943
 20
62.196395359834241
 11
41.395037561197938
 21
62.238695359834246
  0
LINE
  8
_0-1___
  6
CONTINUOUS
 62
    7
 10
41.395037561197938
 20
62.238695359834246
 11
41.331537561197948
 21
62.238695359834246
  0
LINE
  8
_0-1___
  6
CONTINUOUS
 62
    7
 10
41.331537561197948
 20
62.238695359834246
 11
41.268037561197943
 21
62.196395359834241
  0
LINE
  8
_0-1___
  6
CONTINUOUS
 62
    7
 10
43.68103756119794
 20
42.680695359834253
 11
43.68103756119794
 21
66.069895359834248
  0
LINE
  8
_0-1___
  6
CONTINUOUS
 62
    7
 10
45.078037561197952
 20
43.019395359834256
 11
45.078037561197952
 21
42.680695359834253
  0
LINE
  8
_0-1___
  6
CONTINUOUS
 62
    7
 10
45.078037561197952
 20
42.680695359834253
 11
45.162737561197943
 21
42.511395359834246
  0
LINE
  8
_0-1___
  6
CONTINUOUS
 62
    7
 10
45.162737561197943
 20
42.511395359834246
 11
45.289737561197953
 21
42.320895359834246
  0
LINE
  8
_0-1___
  6
CONTINUOUS
 62
    7
 10
45.289737561197953
 20
42.320895359834246
 11
45.501337561197957
 21
42.172695359834243
  0
LINE
  8
_0-1___
  6
CONTINUOUS
 62
    7
 10
45.501337561197957
 20
42.172695359834243
 11
45.755337561197948
 21
42.045695359834241
  0
LINE
  8
_0-1___
  6
CONTINUOUS
 62
    7
 10
45.755337561197948
 20
42.045695359834241
 11
46.051737561197953
 21
41.876395359834255
  0
LINE
  8
_0-1___
  6
CONTINUOUS
 62
    7
 10
46.051737561197953
 20
41.876395359834255
 11
46.390337561197938
 21
41.685895359834255
  0
LINE
  8
_0-1___
  6
CONTINUOUS
 62
    7
 10
46.390337561197938
 20
41.685895359834255
 11
46.813737561197946
 21
41.558895359834246
  0
LINE
  8
_0-1___
  6
CONTINUOUS
 62
    7
 10
46.813737561197946
 20
41.558895359834246
 11
47.279337561197949
 21
41.410695359834243
  0
LINE
  8
_0-1___
  6
CONTINUOUS
 62
    7
 10
47.279337561197949
 20
41.410695359834243
 11
47.745037561197947
 21
41.283695359834248
  0
LINE
  8
_0-1___
  6
CONTINUOUS
 62
    7
 10
47.745037561197947
 20
41.283695359834248
 11
48.29533756119794
 21
41.156695359834259
  0
LINE
  8
_0-1___
  6
CONTINUOUS
 62
    7
 10
48.29533756119794
 20
41.156695359834259
 11
48.888037561197947
 21
41.029695359834243
  0
LINE
  8
_0-1___
  6
CONTINUOUS
 62
    7
 10
48.888037561197947
 20
41.029695359834243
 11
49.523037561197938
 21
40.923895359834255
  0
LINE
  8
_0-1___
  6
CONTINUOUS
 62
    7
 10
49.523037561197938
 20
40.923895359834255
 11
50.158037561197958
 21
40.796895359834245
  0
LINE
  8
_0-1___
  6
CONTINUOUS
 62
    7
 10
50.158037561197958
 20
40.796895359834245
 11
50.877737561197947
 21
40.733395359834255
  0
LINE
  8
_0-1___
  6
CONTINUOUS
 62
    7
 10
50.877737561197947
 20
40.733395359834255
 11
51.597337561197961
 21
40.64869535983425
  0
LINE
  8
_0-1___
  6
CONTINUOUS
 62
    7
 10
51.597337561197961
 20
40.64869535983425
 11
52.317037561197949
 21
40.542895359834255
  0
LINE
  8
_0-1___
  6
CONTINUOUS
 62
    7
 10
52.317037561197949
 20
40.542895359834255
 11
53.121337561197961
 21
40.521695359834247
  0
LINE
  8
_0-1___
  6
CONTINUOUS
 62
    7
 10
53.121337561197961
 20
40.521695359834247
 11
53.883337561197962
 21
40.415895359834245
  0
LINE
  8
_0-1___
  6
CONTINUOUS
 62
    7
 10
53.883337561197962
 20
40.415895359834245
 11
54.666537561197956
 21
40.394695359834245
  0
LINE
  8
_0-1___
  6
CONTINUOUS
 62
    7
 10
54.666537561197956
 20
40.394695359834245
 11
55.534337561197944
 21
40.352395359834254
  0
LINE
  8
_0-1___
  6
CONTINUOUS
 62
    7
 10
47.745037561197947
 20
44.416395359834254
 11
46.813737561197946
 21
44.162395359834257
  0
LINE
  8
_0-1___
  6
CONTINUOUS
 62
    7
 10
46.813737561197946
 20
44.162395359834257
 11
46.390337561197938
 21
43.971895359834257
  0
LINE
  8
_0-1___
  6
CONTINUOUS
 62
    7
 10
46.390337561197938
 20
43.971895359834257
 11
46.051737561197953
 21
43.823695359834254
  0
LINE
  8
_0-1___
  6
CONTINUOUS
 62
    7
 10
46.051737561197953
 20
43.823695359834254
 11
45.755337561197948
 21
43.696695359834244
  0
LINE
  8
_0-1___
  6
CONTINUOUS
 62
    7
 10
45.755337561197948
 20
43.696695359834244
 11
45.501337561197957
 21
43.527395359834266
  0
LINE
  8
_0-1___
  6
CONTINUOUS
 62
    7
 10
45.501337561197957
 20
43.527395359834266
 11
45.289737561197953
 21
43.336895359834251
  0
LINE
  8
_0-1___
  6
CONTINUOUS
 62
    7
 10
45.289737561197953
 20
43.336895359834251
 11
45.162737561197943
 21
43.188695359834249
  0
LINE
  8
_0-1___
  6
CONTINUOUS
 62
    7
 10
45.162737561197943
 20
43.188695359834249
 11
45.078037561197952
 21
43.019395359834256
  0
LINE
  8
_0-1___
  6
CONTINUOUS
 62
    7
 10
66.350537561197967
 20
41.029695359834243
 11
67.472337561197975
 21
41.283695359834248
  0
LINE
  8
_0-1___
  6
CONTINUOUS
 62
    7
 10
67.472337561197975
 20
41.283695359834248
 11
67.980337561197956
 21
41.410695359834243
  0
LINE
  8
_0-1___
  6
CONTINUOUS
 62
    7
 10
67.980337561197956
 20
41.410695359834243
 11
68.446037561197954
 21
41.558895359834246
  0
LINE
  8
_0-1___
  6
CONTINUOUS
 62
    7
 10
68.446037561197954
 20
41.558895359834246
 11
68.827037561197955
 21
41.685895359834255
  0
LINE
  8
_0-1___
  6
CONTINUOUS
 62
    7
 10
68.827037561197955
 20
41.685895359834255
 11
69.186837561197947
 21
41.876395359834255
  0
LINE
  8
_0-1___
  6
CONTINUOUS
 62
    7
 10
69.186837561197947
 20
41.876395359834255
 11
69.504337561197957
 21
42.045695359834241
  0
LINE
  8
_0-1___
  6
CONTINUOUS
 62
    7
 10
69.504337561197957
 20
42.045695359834241
 11
69.758337561197976
 21
42.172695359834243
  0
LINE
  8
_0-1___
  6
CONTINUOUS
 62
    7
 10
69.758337561197976
 20
42.172695359834243
 11
69.906537561197936
 21
42.320895359834246
  0
LINE
  8
_0-1___
  6
CONTINUOUS
 62
    7
 10
69.906537561197936
 20
42.320895359834246
 11
70.075837561197929
 21
42.511395359834246
  0
LINE
  8
_0-1___
  6
CONTINUOUS
 62
    7
 10
70.075837561197929
 20
42.511395359834246
 11
70.160537561197955
 21
42.680695359834253
  0
LINE
  8
_0-1___
  6
CONTINUOUS
 62
    7
 10
70.160537561197955
 20
42.680695359834253
 11
70.160537561197955
 21
43.019395359834256
  0
LINE
  8
_0-1___
  6
CONTINUOUS
 62
    7
 10
70.160537561197955
 20
43.019395359834256
 11
70.075837561197929
 21
43.188695359834249
  0
LINE
  8
_0-1___
  6
CONTINUOUS
 62
    7
 10
70.075837561197929
 20
43.188695359834249
 11
69.906537561197936
 21
43.336895359834251
  0
LINE
  8
_0-1___
  6
CONTINUOUS
 62
    7
 10
69.906537561197936
 20
43.336895359834251
 11
69.758337561197976
 21
43.527395359834266
  0
LINE
  8
_0-1___
  6
CONTINUOUS
 62
    7
 10
69.758337561197976
 20
43.527395359834266
 11
69.504337561197957
 21
43.696695359834244
  0
LINE
  8
_0-1___
  6
CONTINUOUS
 62
    7
 10
69.504337561197957
 20
43.696695359834244
 11
69.186837561197947
 21
43.823695359834254
  0
LINE
  8
_0-1___
  6
CONTINUOUS
 62
    7
 10
69.186837561197947
 20
43.823695359834254
 11
68.827037561197955
 21
43.971895359834257
  0
LINE
  8
_0-1___
  6
CONTINUOUS
 62
    7
 10
68.827037561197955
 20
43.971895359834257
 11
68.446037561197954
 21
44.162395359834257
  0
LINE
  8
_0-1___
  6
CONTINUOUS
 62
    7
 10
68.446037561197954
 20
44.162395359834257
 11
67.980337561197956
 21
44.289395359834266
  0
LINE
  8
_0-1___
  6
CONTINUOUS
 62
    7
 10
67.980337561197956
 20
44.289395359834266
 11
67.472337561197975
 21
44.416395359834254
  0
LINE
  8
_0-1___
  6
CONTINUOUS
 62
    7
 10
67.472337561197975
 20
44.416395359834254
 11
66.964337561197965
 21
44.543395359834264
  0
LINE
  8
_0-1___
  6
CONTINUOUS
 62
    7
 10
66.964337561197965
 20
44.543395359834264
 11
66.350537561197967
 21
44.670395359834274
  0
LINE
  8
_0-1___
  6
CONTINUOUS
 62
    7
 10
66.350537561197967
 20
44.670395359834274
 11
65.715537561197976
 21
44.797395359834255
  0
LINE
  8
_0-1___
  6
CONTINUOUS
 62
    7
 10
65.715537561197976
 20
44.797395359834255
 11
65.080537561197957
 21
44.860895359834267
  0
LINE
  8
_0-1___
  6
CONTINUOUS
 62
    7
 10
65.080537561197957
 20
44.860895359834267
 11
64.382037561197947
 21
44.966695359834269
  0
LINE
  8
_0-1___
  6
CONTINUOUS
 62
    7
 10
64.382037561197947
 20
44.966695359834269
 11
63.662337561197958
 21
45.051395359834281
  0
LINE
  8
_0-1___
  6
CONTINUOUS
 62
    7
 10
63.662337561197958
 20
45.051395359834281
 11
62.900337561197958
 21
45.114895359834271
  0
LINE
  8
_0-1___
  6
CONTINUOUS
 62
    7
 10
62.900337561197958
 20
45.114895359834271
 11
62.138337561197957
 21
45.220695359834266
  0
LINE
  8
_0-1___
  6
CONTINUOUS
 62
    7
 10
62.138337561197957
 20
45.220695359834266
 11
61.334037561197945
 21
45.241895359834274
  0
LINE
  8
_0-1___
  6
CONTINUOUS
 62
    7
 10
61.334037561197945
 20
45.241895359834274
 11
60.50853756119794
 21
45.305395359834279
  0
LINE
  8
_0-1___
  6
CONTINUOUS
 62
    7
 10
60.50853756119794
 20
45.305395359834279
 11
59.725337561197946
 21
45.347695359834276
  0
LINE
  8
_0-1___
  6
CONTINUOUS
 62
    7
 10
59.725337561197946
 20
45.347695359834276
 11
58.857537561197958
 21
45.347695359834276
  0
LINE
  8
_0-1___
  6
CONTINUOUS
 62
    7
 10
58.857537561197958
 20
45.347695359834276
 11
58.032037561197953
 21
45.368895359834269
  0
LINE
  8
_0-1___
  6
CONTINUOUS
 62
    7
 10
58.032037561197953
 20
45.368895359834269
 11
57.185337561197954
 21
45.368895359834269
  0
LINE
  8
_0-1___
  6
CONTINUOUS
 62
    7
 10
57.185337561197954
 20
45.368895359834269
 11
56.381037561197942
 21
45.347695359834276
  0
LINE
  8
_0-1___
  6
CONTINUOUS
 62
    7
 10
56.381037561197942
 20
45.347695359834276
 11
55.534337561197944
 21
45.347695359834276
  0
LINE
  8
_0-1___
  6
CONTINUOUS
 62
    7
 10
55.534337561197944
 20
45.347695359834276
 11
54.730037561197932
 21
45.305395359834279
  0
LINE
  8
_0-1___
  6
CONTINUOUS
 62
    7
 10
54.730037561197932
 20
45.305395359834279
 11
53.883337561197962
 21
45.241895359834274
  0
LINE
  8
_0-1___
  6
CONTINUOUS
 62
    7
 10
53.883337561197962
 20
45.241895359834274
 11
53.121337561197961
 21
45.220695359834266
  0
LINE
  8
_0-1___
  6
CONTINUOUS
 62
    7
 10
53.121337561197961
 20
45.220695359834266
 11
52.317037561197949
 21
45.114895359834271
  0
LINE
  8
_0-1___
  6
CONTINUOUS
 62
    7
 10
52.317037561197949
 20
45.114895359834271
 11
51.597337561197961
 21
45.051395359834281
  0
LINE
  8
_0-1___
  6
CONTINUOUS
 62
    7
 10
51.597337561197961
 20
45.051395359834281
 11
50.877737561197947
 21
44.966695359834269
  0
LINE
  8
_0-1___
  6
CONTINUOUS
 62
    7
 10
50.877737561197947
 20
44.966695359834269
 11
50.158037561197958
 21
44.860895359834267
  0
LINE
  8
_0-1___
  6
CONTINUOUS
 62
    7
 10
50.158037561197958
 20
44.860895359834267
 11
49.523037561197938
 21
44.797395359834255
  0
LINE
  8
_0-1___
  6
CONTINUOUS
 62
    7
 10
49.523037561197938
 20
44.797395359834255
 11
48.888037561197947
 21
44.670395359834274
  0
LINE
  8
_0-1___
  6
CONTINUOUS
 62
    7
 10
48.888037561197947
 20
44.670395359834274
 11
48.29533756119794
 21
44.543395359834264
  0
LINE
  8
_0-1___
  6
CONTINUOUS
 62
    7
 10
48.29533756119794
 20
44.543395359834264
 11
47.745037561197947
 21
44.416395359834254
  0
LINE
  8
_0-1___
  6
CONTINUOUS
 62
    7
 10
71.557537561197947
 20
42.680695359834253
 11
71.557537561197947
 21
66.069895359834248
  0
LINE
  8
_0-1___
  6
CONTINUOUS
 62
    7
 10
56.804337561197954
 20
40.034895359834245
 11
58.455337561197936
 21
40.034895359834245
  0
LINE
  8
_0-1___
  6
CONTINUOUS
 62
    7
 10
58.455337561197936
 20
40.034895359834245
 11
59.302037561197935
 21
40.098395359834264
  0
LINE
  8
_0-1___
  6
CONTINUOUS
 62
    7
 10
59.302037561197935
 20
40.098395359834264
 11
60.12753756119794
 21
40.098395359834264
  0
LINE
  8
_0-1___
  6
CONTINUOUS
 62
    7
 10
60.12753756119794
 20
40.098395359834264
 11
60.953037561197945
 21
40.140695359834247
  0
LINE
  8
_0-1___
  6
CONTINUOUS
 62
    7
 10
60.953037561197945
 20
40.140695359834247
 11
61.77853756119795
 21
40.161895359834254
  0
LINE
  8
_0-1___
  6
CONTINUOUS
 62
    7
 10
61.77853756119795
 20
40.161895359834254
 11
62.540537561197951
 21
40.225395359834245
  0
LINE
  8
_0-1___
  6
CONTINUOUS
 62
    7
 10
62.540537561197951
 20
40.225395359834245
 11
63.366037561197928
 21
40.288895359834243
  0
LINE
  8
_0-1___
  6
CONTINUOUS
 62
    7
 10
63.366037561197928
 20
40.288895359834243
 11
64.128037561197928
 21
40.394695359834245
  0
LINE
  8
_0-1___
  6
CONTINUOUS
 62
    7
 10
64.128037561197928
 20
40.394695359834245
 11
64.826537561197966
 21
40.415895359834245
  0
LINE
  8
_0-1___
  6
CONTINUOUS
 62
    7
 10
64.826537561197966
 20
40.415895359834245
 11
65.567337561197959
 21
40.542895359834255
  0
LINE
  8
_0-1___
  6
CONTINUOUS
 62
    7
 10
65.567337561197959
 20
40.542895359834255
 11
66.223537561197958
 21
40.64869535983425
  0
LINE
  8
_0-1___
  6
CONTINUOUS
 62
    7
 10
66.223537561197958
 20
40.64869535983425
 11
66.858537561197977
 21
40.775695359834259
  0
LINE
  8
_0-1___
  6
CONTINUOUS
 62
    7
 10
66.858537561197977
 20
40.775695359834259
 11
67.493537561197954
 21
40.860395359834264
  0
LINE
  8
_0-1___
  6
CONTINUOUS
 62
    7
 10
67.493537561197954
 20
40.860395359834264
 11
68.065037561197954
 21
40.987395359834245
  0
LINE
  8
_0-1___
  6
CONTINUOUS
 62
    7
 10
68.065037561197954
 20
40.987395359834245
 11
68.615337561197975
 21
41.114395359834255
  0
LINE
  8
_0-1___
  6
CONTINUOUS
 62
    7
 10
68.615337561197975
 20
41.114395359834255
 11
69.123337561197957
 21
41.283695359834248
  0
LINE
  8
_0-1___
  6
CONTINUOUS
 62
    7
 10
69.123337561197957
 20
41.283695359834248
 11
69.567837561197948
 21
41.410695359834243
  0
LINE
  8
_0-1___
  6
CONTINUOUS
 62
    7
 10
69.567837561197948
 20
41.410695359834243
 11
69.948837561197948
 21
41.558895359834246
  0
LINE
  8
_0-1___
  6
CONTINUOUS
 62
    7
 10
69.948837561197948
 20
41.558895359834246
 11
70.329837561197948
 21
41.685895359834255
  0
LINE
  8
_0-1___
  6
CONTINUOUS
 62
    7
 10
70.329837561197948
 20
41.685895359834255
 11
70.668537561197937
 21
41.876395359834255
  0
LINE
  8
_0-1___
  6
CONTINUOUS
 62
    7
 10
70.668537561197937
 20
41.876395359834255
 11
70.922537561197956
 21
42.003395359834265
  0
LINE
  8
_0-1___
  6
CONTINUOUS
 62
    7
 10
70.922537561197956
 20
42.003395359834265
 11
71.176537561197947
 21
42.172695359834243
  0
LINE
  8
_0-1___
  6
CONTINUOUS
 62
    7
 10
71.176537561197947
 20
42.172695359834243
 11
71.345837561197939
 21
42.320895359834246
  0
LINE
  8
_0-1___
  6
CONTINUOUS
 62
    7
 10
71.345837561197939
 20
42.320895359834246
 11
71.472837561197949
 21
42.511395359834246
  0
LINE
  8
_0-1___
  6
CONTINUOUS
 62
    7
 10
71.472837561197949
 20
42.511395359834246
 11
71.557537561197947
 21
42.680695359834253
  0
LINE
  8
_0-1___
  6
CONTINUOUS
 62
    7
 10
55.534337561197944
 20
40.352395359834254
 11
59.725337561197946
 21
40.352395359834254
  0
LINE
  8
_0-1___
  6
CONTINUOUS
 62
    7
 10
59.725337561197946
 20
40.352395359834254
 11
60.50853756119794
 21
40.394695359834245
  0
LINE
  8
_0-1___
  6
CONTINUOUS
 62
    7
 10
60.50853756119794
 20
40.394695359834245
 11
61.334037561197945
 21
40.415895359834245
  0
LINE
  8
_0-1___
  6
CONTINUOUS
 62
    7
 10
61.334037561197945
 20
40.415895359834245
 11
62.138337561197957
 21
40.521695359834247
  0
LINE
  8
_0-1___
  6
CONTINUOUS
 62
    7
 10
62.138337561197957
 20
40.521695359834247
 11
62.900337561197958
 21
40.542895359834255
  0
LINE
  8
_0-1___
  6
CONTINUOUS
 62
    7
 10
62.900337561197958
 20
40.542895359834255
 11
63.662337561197958
 21
40.64869535983425
  0
LINE
  8
_0-1___
  6
CONTINUOUS
 62
    7
 10
63.662337561197958
 20
40.64869535983425
 11
64.382037561197947
 21
40.733395359834255
  0
LINE
  8
_0-1___
  6
CONTINUOUS
 62
    7
 10
64.382037561197947
 20
40.733395359834255
 11
65.059337561197964
 21
40.796895359834245
  0
LINE
  8
_0-1___
  6
CONTINUOUS
 62
    7
 10
65.059337561197964
 20
40.796895359834245
 11
65.715537561197976
 21
40.923895359834255
  0
LINE
  8
_0-1___
  6
CONTINUOUS
 62
    7
 10
65.715537561197976
 20
40.923895359834255
 11
66.350537561197967
 21
41.029695359834243
  0
LINE
  8
_0-1___
  6
CONTINUOUS
 62
    7
 10
56.762037561197943
 20
41.664695359834248
 11
58.476537561197958
 21
41.664695359834248
  0
LINE
  8
_0-1___
  6
CONTINUOUS
 62
    7
 10
58.476537561197958
 20
41.664695359834248
 11
59.344337561197946
 21
41.685895359834255
  0
LINE
  8
_0-1___
  6
CONTINUOUS
 62
    7
 10
59.344337561197946
 20
41.685895359834255
 11
60.191037561197945
 21
41.749395359834246
  0
LINE
  8
_0-1___
  6
CONTINUOUS
 62
    7
 10
60.191037561197945
 20
41.749395359834246
 11
61.01653756119795
 21
41.749395359834246
  0
LINE
  8
_0-1___
  6
CONTINUOUS
 62
    7
 10
61.01653756119795
 20
41.749395359834246
 11
61.842037561197927
 21
41.812895359834243
  0
LINE
  8
_0-1___
  6
CONTINUOUS
 62
    7
 10
61.842037561197927
 20
41.812895359834243
 11
62.646337561197939
 21
41.876395359834255
  0
LINE
  8
_0-1___
  6
CONTINUOUS
 62
    7
 10
62.646337561197939
 20
41.876395359834255
 11
63.408337561197939
 21
41.939895359834246
  0
LINE
  8
_0-1___
  6
CONTINUOUS
 62
    7
 10
63.408337561197939
 20
41.939895359834246
 11
64.17033756119794
 21
42.045695359834241
  0
LINE
  8
_0-1___
  6
CONTINUOUS
 62
    7
 10
64.17033756119794
 20
42.045695359834241
 11
64.890037561197929
 21
42.130395359834246
  0
LINE
  8
_0-1___
  6
CONTINUOUS
 62
    7
 10
64.890037561197929
 20
42.130395359834246
 11
65.567337561197959
 21
42.257395359834256
  0
LINE
  8
_0-1___
  6
CONTINUOUS
 62
    7
 10
65.567337561197959
 20
42.257395359834256
 11
66.223537561197958
 21
42.320895359834246
  0
LINE
  8
_0-1___
  6
CONTINUOUS
 62
    7
 10
66.223537561197958
 20
42.320895359834246
 11
66.837337561197955
 21
42.447895359834256
  0
LINE
  8
_0-1___
  6
CONTINUOUS
 62
    7
 10
66.837337561197955
 20
42.447895359834256
 11
67.366537561197944
 21
42.574895359834251
  0
LINE
  8
_0-1___
  6
CONTINUOUS
 62
    7
 10
67.366537561197944
 20
42.574895359834251
 11
67.938037561197945
 21
42.701895359834246
  0
LINE
  8
_0-1___
  6
CONTINUOUS
 62
    7
 10
67.938037561197945
 20
42.701895359834246
 11
68.382537561197935
 21
42.892395359834246
  0
LINE
  8
_0-1___
  6
CONTINUOUS
 62
    7
 10
68.382537561197935
 20
42.892395359834246
 11
68.827037561197955
 21
43.061695359834253
  0
LINE
  8
_0-1___
  6
CONTINUOUS
 62
    7
 10
68.827037561197955
 20
43.061695359834253
 11
69.144537561197936
 21
43.188695359834249
  0
LINE
  8
_0-1___
  6
CONTINUOUS
 62
    7
 10
69.144537561197936
 20
43.188695359834249
 11
69.504337561197957
 21
43.336895359834251
  0
LINE
  8
_0-1___
  6
CONTINUOUS
 62
    7
 10
69.504337561197957
 20
43.336895359834251
 11
69.758337561197976
 21
43.527395359834266
  0
LINE
  8
_0-1___
  6
CONTINUOUS
 62
    7
 10
59.302037561197935
 20
45.62289535983426
 11
55.936537561197937
 21
45.62289535983426
  0
LINE
  8
_0-1___
  6
CONTINUOUS
 62
    7
 10
55.936537561197937
 20
45.62289535983426
 11
55.111037561197932
 21
45.601695359834267
  0
LINE
  8
_0-1___
  6
CONTINUOUS
 62
    7
 10
55.111037561197932
 20
45.601695359834267
 11
54.285537561197955
 21
45.559395359834269
  0
LINE
  8
_0-1___
  6
CONTINUOUS
 62
    7
 10
54.285537561197955
 20
45.559395359834269
 11
53.46003756119795
 21
45.495895359834279
  0
LINE
  8
_0-1___
  6
CONTINUOUS
 62
    7
 10
53.46003756119795
 20
45.495895359834279
 11
52.634537561197945
 21
45.474695359834271
  0
LINE
  8
_0-1___
  6
CONTINUOUS
 62
    7
 10
52.634537561197945
 20
45.474695359834271
 11
51.872537561197944
 21
45.368895359834269
  0
LINE
  8
_0-1___
  6
CONTINUOUS
 62
    7
 10
51.872537561197944
 20
45.368895359834269
 11
51.110537561197944
 21
45.347695359834276
  0
LINE
  8
_0-1___
  6
CONTINUOUS
 62
    7
 10
51.110537561197944
 20
45.347695359834276
 11
50.412037561197948
 21
45.241895359834274
  0
LINE
  8
_0-1___
  6
CONTINUOUS
 62
    7
 10
50.412037561197948
 20
45.241895359834274
 11
49.692337561197959
 21
45.178395359834269
  0
LINE
  8
_0-1___
  6
CONTINUOUS
 62
    7
 10
49.692337561197959
 20
45.178395359834269
 11
49.015037561197957
 21
45.051395359834281
  0
LINE
  8
_0-1___
  6
CONTINUOUS
 62
    7
 10
49.015037561197957
 20
45.051395359834281
 11
48.380037561197938
 21
44.966695359834269
  0
LINE
  8
_0-1___
  6
CONTINUOUS
 62
    7
 10
48.380037561197938
 20
44.966695359834269
 11
47.745037561197947
 21
44.839695359834259
  0
LINE
  8
_0-1___
  6
CONTINUOUS
 62
    7
 10
47.745037561197947
 20
44.839695359834259
 11
47.215837561197937
 21
44.712695359834257
  0
LINE
  8
_0-1___
  6
CONTINUOUS
 62
    7
 10
47.215837561197937
 20
44.712695359834257
 11
46.644337561197958
 21
44.585695359834261
  0
LINE
  8
_0-1___
  6
CONTINUOUS
 62
    7
 10
46.644337561197958
 20
44.585695359834261
 11
46.136337561197948
 21
44.458695359834252
  0
LINE
  8
_0-1___
  6
CONTINUOUS
 62
    7
 10
46.136337561197948
 20
44.458695359834252
 11
45.691837561197943
 21
44.289395359834266
  0
LINE
  8
_0-1___
  6
CONTINUOUS
 62
    7
 10
45.691837561197943
 20
44.289395359834266
 11
45.247337561197938
 21
44.162395359834257
  0
LINE
  8
_0-1___
  6
CONTINUOUS
 62
    7
 10
45.247337561197938
 20
44.162395359834257
 11
44.929837561197942
 21
43.971895359834257
  0
LINE
  8
_0-1___
  6
CONTINUOUS
 62
    7
 10
44.929837561197942
 20
43.971895359834257
 11
44.570037561197942
 21
43.844895359834247
  0
LINE
  8
_0-1___
  6
CONTINUOUS
 62
    7
 10
44.570037561197942
 20
43.844895359834247
 11
44.316037561197938
 21
43.696695359834244
  0
LINE
  8
_0-1___
  6
CONTINUOUS
 62
    7
 10
44.316037561197938
 20
43.696695359834244
 11
44.06203756119794
 21
43.527395359834266
  0
LINE
  8
_0-1___
  6
CONTINUOUS
 62
    7
 10
44.06203756119794
 20
43.527395359834266
 11
43.913837561197937
 21
43.336895359834251
  0
LINE
  8
_0-1___
  6
CONTINUOUS
 62
    7
 10
43.913837561197937
 20
43.336895359834251
 11
43.765737561197938
 21
43.188695359834249
  0
LINE
  8
_0-1___
  6
CONTINUOUS
 62
    7
 10
43.765737561197938
 20
43.188695359834249
 11
43.68103756119794
 21
43.019395359834256
  0
LINE
  8
_0-1___
  6
CONTINUOUS
 62
    7
 10
58.455337561197936
 20
46.490695359834277
 11
56.804337561197954
 21
46.490695359834277
  0
LINE
  8
_0-1___
  6
CONTINUOUS
 62
    7
 10
56.804337561197954
 20
46.490695359834277
 11
55.936537561197937
 21
46.448395359834279
  0
LINE
  8
_0-1___
  6
CONTINUOUS
 62
    7
 10
55.936537561197937
 20
46.448395359834279
 11
55.111037561197932
 21
46.448395359834279
  0
LINE
  8
_0-1___
  6
CONTINUOUS
 62
    7
 10
55.111037561197932
 20
46.448395359834279
 11
54.285537561197955
 21
46.38489535983426
  0
LINE
  8
_0-1___
  6
CONTINUOUS
 62
    7
 10
54.285537561197955
 20
46.38489535983426
 11
53.46003756119795
 21
46.363695359834267
  0
LINE
  8
_0-1___
  6
CONTINUOUS
 62
    7
 10
53.46003756119795
 20
46.363695359834267
 11
52.634537561197945
 21
46.32139535983427
  0
LINE
  8
_0-1___
  6
CONTINUOUS
 62
    7
 10
52.634537561197945
 20
46.32139535983427
 11
51.872537561197944
 21
46.236695359834272
  0
LINE
  8
_0-1___
  6
CONTINUOUS
 62
    7
 10
51.872537561197944
 20
46.236695359834272
 11
51.110537561197944
 21
46.13089535983427
  0
LINE
  8
_0-1___
  6
CONTINUOUS
 62
    7
 10
51.110537561197944
 20
46.13089535983427
 11
50.412037561197948
 21
46.067395359834279
  0
LINE
  8
_0-1___
  6
CONTINUOUS
 62
    7
 10
50.412037561197948
 20
46.067395359834279
 11
49.692337561197959
 21
45.982695359834267
  0
LINE
  8
_0-1___
  6
CONTINUOUS
 62
    7
 10
49.692337561197959
 20
45.982695359834267
 11
49.015037561197957
 21
45.876895359834279
  0
LINE
  8
_0-1___
  6
CONTINUOUS
 62
    7
 10
49.015037561197957
 20
45.876895359834279
 11
48.380037561197938
 21
45.749895359834269
  0
LINE
  8
_0-1___
  6
CONTINUOUS
 62
    7
 10
48.380037561197938
 20
45.749895359834269
 11
47.745037561197947
 21
45.62289535983426
  0
LINE
  8
_0-1___
  6
CONTINUOUS
 62
    7
 10
47.745037561197947
 20
45.62289535983426
 11
47.215837561197937
 21
45.559395359834269
  0
LINE
  8
_0-1___
  6
CONTINUOUS
 62
    7
 10
47.215837561197937
 20
45.559395359834269
 11
46.644337561197958
 21
45.43239535983426
  0
LINE
  8
_0-1___
  6
CONTINUOUS
 62
    7
 10
46.644337561197958
 20
45.43239535983426
 11
46.136337561197948
 21
45.241895359834274
  0
LINE
  8
_0-1___
  6
CONTINUOUS
 62
    7
 10
46.136337561197948
 20
45.241895359834274
 11
45.691837561197943
 21
45.114895359834271
  0
LINE
  8
_0-1___
  6
CONTINUOUS
 62
    7
 10
45.691837561197943
 20
45.114895359834271
 11
45.247337561197938
 21
44.987895359834262
  0
LINE
  8
_0-1___
  6
CONTINUOUS
 62
    7
 10
45.247337561197938
 20
44.987895359834262
 11
44.929837561197942
 21
44.839695359834259
  0
LINE
  8
_0-1___
  6
CONTINUOUS
 62
    7
 10
44.929837561197942
 20
44.839695359834259
 11
44.570037561197942
 21
44.670395359834274
  0
LINE
  8
_0-1___
  6
CONTINUOUS
 62
    7
 10
44.570037561197942
 20
44.670395359834274
 11
44.316037561197938
 21
44.543395359834264
  0
LINE
  8
_0-1___
  6
CONTINUOUS
 62
    7
 10
44.316037561197938
 20
44.543395359834264
 11
44.06203756119794
 21
44.352895359834257
  0
LINE
  8
_0-1___
  6
CONTINUOUS
 62
    7
 10
44.06203756119794
 20
44.352895359834257
 11
43.913837561197937
 21
44.204695359834254
  0
LINE
  8
_0-1___
  6
CONTINUOUS
 62
    7
 10
43.913837561197937
 20
44.204695359834254
 11
43.765737561197938
 21
44.035395359834247
  0
LINE
  8
_0-1___
  6
CONTINUOUS
 62
    7
 10
43.765737561197938
 20
44.035395359834247
 11
43.68103756119794
 21
43.844895359834247
  0
LINE
  8
_0-1___
  6
CONTINUOUS
 62
    7
 10
41.331537561197948
 20
46.617695359834272
 11
41.458537561197943
 21
46.617695359834272
  0
LINE
  8
_0-1___
  6
CONTINUOUS
 62
    7
 10
41.458537561197943
 20
46.617695359834272
 11
41.50083756119794
 21
46.638895359834279
  0
LINE
  8
_0-1___
  6
CONTINUOUS
 62
    7
 10
41.50083756119794
 20
46.638895359834279
 11
41.585537561197938
 21
46.744695359834267
  0
LINE
  8
_0-1___
  6
CONTINUOUS
 62
    7
 10
41.585537561197938
 20
46.744695359834267
 11
41.627837561197943
 21
46.82939535983428
  0
LINE
  8
_0-1___
  6
CONTINUOUS
 62
    7
 10
41.627837561197943
 20
46.82939535983428
 11
41.649037561197943
 21
46.89289535983427
  0
LINE
  8
_0-1___
  6
CONTINUOUS
 62
    7
 10
41.649037561197943
 20
46.89289535983427
 11
41.712537561197948
 21
47.01989535983428
  0
LINE
  8
_0-1___
  6
CONTINUOUS
 62
    7
 10
41.712537561197948
 20
47.01989535983428
 11
41.754837561197952
 21
47.146895359834261
  0
LINE
  8
_0-1___
  6
CONTINUOUS
 62
    7
 10
41.204537561197938
 20
46.744695359834267
 11
41.331537561197948
 21
46.744695359834267
  0
LINE
  8
_0-1___
  6
CONTINUOUS
 62
    7
 10
41.331537561197948
 20
46.744695359834267
 11
41.395037561197938
 21
46.82939535983428
  0
LINE
  8
_0-1___
  6
CONTINUOUS
 62
    7
 10
41.395037561197938
 20
46.82939535983428
 11
41.458537561197943
 21
46.89289535983427
  0
LINE
  8
_0-1___
  6
CONTINUOUS
 62
    7
 10
41.458537561197943
 20
46.89289535983427
 11
41.50083756119794
 21
46.998695359834272
  0
LINE
  8
_0-1___
  6
CONTINUOUS
 62
    7
 10
41.50083756119794
 20
46.998695359834272
 11
41.522037561197948
 21
47.125695359834268
  0
LINE
  8
_0-1___
  6
CONTINUOUS
 62
    7
 10
40.35783756119794
 20
46.765895359834261
 11
40.463737561197952
 21
46.765895359834261
  0
LINE
  8
_0-1___
  6
CONTINUOUS
 62
    7
 10
40.463737561197952
 20
46.765895359834261
 11
40.506037561197942
 21
46.82939535983428
  0
LINE
  8
_0-1___
  6
CONTINUOUS
 62
    7
 10
40.506037561197942
 20
46.82939535983428
 11
40.569537561197947
 21
46.871695359834277
  0
LINE
  8
_0-1___
  6
CONTINUOUS
 62
    7
 10
40.569537561197947
 20
46.871695359834277
 11
40.633037561197938
 21
46.89289535983427
  0
LINE
  8
_0-1___
  6
CONTINUOUS
 62
    7
 10
40.633037561197938
 20
46.89289535983427
 11
40.696537561197943
 21
46.998695359834272
  0
LINE
  8
_0-1___
  6
CONTINUOUS
 62
    7
 10
40.696537561197943
 20
46.998695359834272
 11
40.696537561197943
 21
47.125695359834268
  0
LINE
  8
_0-1___
  6
CONTINUOUS
 62
    7
 10
40.696537561197943
 20
47.125695359834268
 11
40.73883756119794
 21
47.21039535983428
  0
LINE
  8
_0-1___
  6
CONTINUOUS
 62
    7
 10
41.268037561197943
 20
48.16289535983428
 11
41.141037561197948
 21
48.16289535983428
  0
LINE
  8
_0-1___
  6
CONTINUOUS
 62
    7
 10
41.141037561197948
 20
48.16289535983428
 11
41.077537561197943
 21
48.141695359834273
  0
LINE
  8
_0-1___
  6
CONTINUOUS
 62
    7
 10
41.077537561197943
 20
48.141695359834273
 11
40.992837561197938
 21
48.035895359834271
  0
LINE
  8
_0-1___
  6
CONTINUOUS
 62
    7
 10
41.204537561197938
 20
46.744695359834267
 11
40.379037561197947
 21
46.765895359834261
  0
LINE
  8
_0-1___
  6
CONTINUOUS
 62
    7
 10
41.225737561197953
 20
48.035895359834271
 11
40.442537561197938
 21
48.099395359834261
  0
LINE
  8
_0-1___
  6
CONTINUOUS
 62
    7
 10
43.68103756119794
 20
43.209895359834256
 11
39.341837561197941
 21
43.696695359834244
  0
LINE
  8
_0-1___
  6
CONTINUOUS
 62
    7
 10
43.638737561197942
 20
42.828895359834256
 11
38.960837561197941
 21
43.336895359834251
  0
LINE
  8
_0-1___
  6
CONTINUOUS
 62
    7
 10
44.06203756119794
 20
42.172695359834243
 11
38.283537561197953
 21
42.807695359834248
  0
LINE
  8
_0-1___
  6
CONTINUOUS
 62
    7
 10
43.68103756119794
 20
42.680695359834253
 11
43.765737561197938
 21
42.511395359834246
  0
LINE
  8
_0-1___
  6
CONTINUOUS
 62
    7
 10
43.765737561197938
 20
42.511395359834246
 11
43.913837561197937
 21
42.320895359834246
  0
LINE
  8
_0-1___
  6
CONTINUOUS
 62
    7
 10
43.913837561197937
 20
42.320895359834246
 11
44.06203756119794
 21
42.172695359834243
  0
LINE
  8
_0-1___
  6
CONTINUOUS
 62
    7
 10
44.06203756119794
 20
42.172695359834243
 11
44.316037561197938
 21
42.003395359834265
  0
LINE
  8
_0-1___
  6
CONTINUOUS
 62
    7
 10
44.316037561197938
 20
42.003395359834265
 11
44.570037561197942
 21
41.876395359834255
  0
LINE
  8
_0-1___
  6
CONTINUOUS
 62
    7
 10
44.570037561197942
 20
41.876395359834255
 11
44.929837561197942
 21
41.685895359834255
  0
LINE
  8
_0-1___
  6
CONTINUOUS
 62
    7
 10
44.929837561197942
 20
41.685895359834255
 11
45.247337561197938
 21
41.558895359834246
  0
LINE
  8
_0-1___
  6
CONTINUOUS
 62
    7
 10
45.247337561197938
 20
41.558895359834246
 11
45.691837561197943
 21
41.410695359834243
  0
LINE
  8
_0-1___
  6
CONTINUOUS
 62
    7
 10
45.691837561197943
 20
41.410695359834243
 11
46.136337561197948
 21
41.283695359834248
  0
LINE
  8
_0-1___
  6
CONTINUOUS
 62
    7
 10
46.136337561197948
 20
41.283695359834248
 11
46.644337561197958
 21
41.114395359834255
  0
LINE
  8
_0-1___
  6
CONTINUOUS
 62
    7
 10
46.644337561197958
 20
41.114395359834255
 11
47.215837561197937
 21
40.987395359834245
  0
LINE
  8
_0-1___
  6
CONTINUOUS
 62
    7
 10
47.215837561197937
 20
40.987395359834245
 11
47.745037561197947
 21
40.860395359834264
  0
LINE
  8
_0-1___
  6
CONTINUOUS
 62
    7
 10
47.745037561197947
 20
40.860395359834264
 11
48.380037561197938
 21
40.775695359834259
  0
LINE
  8
_0-1___
  6
CONTINUOUS
 62
    7
 10
48.380037561197938
 20
40.775695359834259
 11
49.015037561197957
 21
40.64869535983425
  0
LINE
  8
_0-1___
  6
CONTINUOUS
 62
    7
 10
49.015037561197957
 20
40.64869535983425
 11
49.692337561197959
 21
40.542895359834255
  0
LINE
  8
_0-1___
  6
CONTINUOUS
 62
    7
 10
49.692337561197959
 20
40.542895359834255
 11
50.412037561197948
 21
40.415895359834245
  0
LINE
  8
_0-1___
  6
CONTINUOUS
 62
    7
 10
50.412037561197948
 20
40.415895359834245
 11
51.110537561197944
 21
40.394695359834245
  0
LINE
  8
_0-1___
  6
CONTINUOUS
 62
    7
 10
51.110537561197944
 20
40.394695359834245
 11
51.872537561197944
 21
40.288895359834243
  0
LINE
  8
_0-1___
  6
CONTINUOUS
 62
    7
 10
51.872537561197944
 20
40.288895359834243
 11
52.634537561197945
 21
40.225395359834245
  0
LINE
  8
_0-1___
  6
CONTINUOUS
 62
    7
 10
52.634537561197945
 20
40.225395359834245
 11
53.46003756119795
 21
40.161895359834254
  0
LINE
  8
_0-1___
  6
CONTINUOUS
 62
    7
 10
53.46003756119795
 20
40.161895359834254
 11
54.264337561197934
 21
40.140695359834247
  0
LINE
  8
_0-1___
  6
CONTINUOUS
 62
    7
 10
54.264337561197934
 20
40.140695359834247
 11
55.111037561197932
 21
40.098395359834264
  0
LINE
  8
_0-1___
  6
CONTINUOUS
 62
    7
 10
55.111037561197932
 20
40.098395359834264
 11
55.936537561197937
 21
40.098395359834264
  0
LINE
  8
_0-1___
  6
CONTINUOUS
 62
    7
 10
55.936537561197937
 20
40.098395359834264
 11
56.804337561197954
 21
40.034895359834245
  0
LINE
  8
_0-1___
  6
CONTINUOUS
 62
    7
 10
41.11983756119794
 20
60.608895359834271
 11
41.458537561197943
 21
60.608895359834271
  0
LINE
  8
_0-1___
  6
CONTINUOUS
 62
    7
 10
41.458537561197943
 20
60.608895359834271
 11
41.50083756119794
 21
60.672395359834262
  0
LINE
  8
_0-1___
  6
CONTINUOUS
 62
    7
 10
41.50083756119794
 20
60.672395359834262
 11
41.585537561197938
 21
60.735895359834267
  0
LINE
  8
_0-1___
  6
CONTINUOUS
 62
    7
 10
41.585537561197938
 20
60.735895359834267
 11
41.627837561197943
 21
60.841695359834262
  0
LINE
  8
_0-1___
  6
CONTINUOUS
 62
    7
 10
41.627837561197943
 20
60.841695359834262
 11
41.649037561197943
 21
60.926395359834245
  0
LINE
  8
_0-1___
  6
CONTINUOUS
 62
    7
 10
41.649037561197943
 20
60.926395359834245
 11
41.712537561197948
 21
61.053395359834255
  0
LINE
  8
_0-1___
  6
CONTINUOUS
 62
    7
 10
41.712537561197948
 20
61.053395359834255
 11
41.754837561197952
 21
61.180395359834264
  0
LINE
  8
_0-1___
  6
CONTINUOUS
 62
    7
 10
41.204537561197938
 20
60.735895359834267
 11
41.268037561197943
 21
60.735895359834267
  0
LINE
  8
_0-1___
  6
CONTINUOUS
 62
    7
 10
41.268037561197943
 20
60.735895359834267
 11
41.331537561197948
 21
60.799395359834264
  0
LINE
  8
_0-1___
  6
CONTINUOUS
 62
    7
 10
41.331537561197948
 20
60.799395359834264
 11
41.395037561197938
 21
60.841695359834262
  0
LINE
  8
_0-1___
  6
CONTINUOUS
 62
    7
 10
41.395037561197938
 20
60.841695359834262
 11
41.458537561197943
 21
60.926395359834245
  0
LINE
  8
_0-1___
  6
CONTINUOUS
 62
    7
 10
41.458537561197943
 20
60.926395359834245
 11
41.50083756119794
 21
60.989895359834264
  0
LINE
  8
_0-1___
  6
CONTINUOUS
 62
    7
 10
41.50083756119794
 20
60.989895359834264
 11
41.522037561197948
 21
61.11689535983426
  0
LINE
  8
_0-1___
  6
CONTINUOUS
 62
    7
 10
40.35783756119794
 20
60.799395359834264
 11
40.463737561197952
 21
60.799395359834264
  0
LINE
  8
_0-1___
  6
CONTINUOUS
 62
    7
 10
40.463737561197952
 20
60.799395359834264
 11
40.506037561197942
 21
60.841695359834262
  0
LINE
  8
_0-1___
  6
CONTINUOUS
 62
    7
 10
40.506037561197942
 20
60.841695359834262
 11
40.569537561197947
 21
60.862895359834255
  0
LINE
  8
_0-1___
  6
CONTINUOUS
 62
    7
 10
40.569537561197947
 20
60.862895359834255
 11
40.633037561197938
 21
60.926395359834245
  0
LINE
  8
_0-1___
  6
CONTINUOUS
 62
    7
 10
40.633037561197938
 20
60.926395359834245
 11
40.696537561197943
 21
60.989895359834264
  0
LINE
  8
_0-1___
  6
CONTINUOUS
 62
    7
 10
40.696537561197943
 20
60.989895359834264
 11
40.696537561197943
 21
61.11689535983426
  0
LINE
  8
_0-1___
  6
CONTINUOUS
 62
    7
 10
40.696537561197943
 20
61.11689535983426
 11
40.73883756119794
 21
61.222695359834262
  0
LINE
  8
_0-1___
  6
CONTINUOUS
 62
    7
 10
41.268037561197943
 20
62.196395359834241
 11
41.141037561197948
 21
62.196395359834241
  0
LINE
  8
_0-1___
  6
CONTINUOUS
 62
    7
 10
41.141037561197948
 20
62.196395359834241
 11
41.077537561197943
 21
62.132895359834258
  0
LINE
  8
_0-1___
  6
CONTINUOUS
 62
    7
 10
41.077537561197943
 20
62.132895359834258
 11
40.992837561197938
 21
62.11169535983425
  0
LINE
  8
_0-1___
  6
CONTINUOUS
 62
    7
 10
41.204537561197938
 20
60.735895359834267
 11
40.379037561197947
 21
60.799395359834264
  0
LINE
  8
_0-1___
  6
CONTINUOUS
 62
    7
 10
41.225737561197953
 20
62.069395359834239
 11
40.442537561197938
 21
62.11169535983425
  0
LINE
  8
_0-1___
  6
CONTINUOUS
 62
    7
 10
45.501337561197957
 20
43.527395359834266
 11
45.755337561197948
 21
43.336895359834251
  0
LINE
  8
_0-1___
  6
CONTINUOUS
 62
    7
 10
45.755337561197948
 20
43.336895359834251
 11
46.094037561197943
 21
43.188695359834249
  0
LINE
  8
_0-1___
  6
CONTINUOUS
 62
    7
 10
46.094037561197943
 20
43.188695359834249
 11
46.453837561197943
 21
43.061695359834253
  0
LINE
  8
_0-1___
  6
CONTINUOUS
 62
    7
 10
46.453837561197943
 20
43.061695359834253
 11
46.856037561197937
 21
42.892395359834246
  0
LINE
  8
_0-1___
  6
CONTINUOUS
 62
    7
 10
46.856037561197937
 20
42.892395359834246
 11
47.342837561197953
 21
42.765395359834265
  0
LINE
  8
_0-1___
  6
CONTINUOUS
 62
    7
 10
47.342837561197953
 20
42.765395359834265
 11
47.872037561197963
 21
42.574895359834251
  0
LINE
  8
_0-1___
  6
CONTINUOUS
 62
    7
 10
47.872037561197963
 20
42.574895359834251
 11
48.422337561197949
 21
42.447895359834256
  0
LINE
  8
_0-1___
  6
CONTINUOUS
 62
    7
 10
48.422337561197949
 20
42.447895359834256
 11
49.015037561197957
 21
42.320895359834246
  0
LINE
  8
_0-1___
  6
CONTINUOUS
 62
    7
 10
49.015037561197957
 20
42.320895359834246
 11
49.650037561197948
 21
42.257395359834256
  0
LINE
  8
_0-1___
  6
CONTINUOUS
 62
    7
 10
49.650037561197948
 20
42.257395359834256
 11
50.369737561197937
 21
42.130395359834246
  0
LINE
  8
_0-1___
  6
CONTINUOUS
 62
    7
 10
50.369737561197937
 20
42.130395359834246
 11
51.089337561197951
 21
42.045695359834241
  0
LINE
  8
_0-1___
  6
CONTINUOUS
 62
    7
 10
51.089337561197951
 20
42.045695359834241
 11
51.80903756119794
 21
41.939895359834246
  0
LINE
  8
_0-1___
  6
CONTINUOUS
 62
    7
 10
51.80903756119794
 20
41.939895359834246
 11
52.613337561197952
 21
41.876395359834255
  0
LINE
  8
_0-1___
  6
CONTINUOUS
 62
    7
 10
52.613337561197952
 20
41.876395359834255
 11
53.396537561197945
 21
41.812895359834243
  0
LINE
  8
_0-1___
  6
CONTINUOUS
 62
    7
 10
53.396537561197945
 20
41.812895359834243
 11
54.222037561197951
 21
41.749395359834246
  0
LINE
  8
_0-1___
  6
CONTINUOUS
 62
    7
 10
54.222037561197951
 20
41.749395359834246
 11
55.047537561197956
 21
41.749395359834246
  0
LINE
  8
_0-1___
  6
CONTINUOUS
 62
    7
 10
55.047537561197956
 20
41.749395359834246
 11
55.915337561197944
 21
41.685895359834255
  0
LINE
  8
_0-1___
  6
CONTINUOUS
 62
    7
 10
55.915337561197944
 20
41.685895359834255
 11
56.762037561197943
 21
41.664695359834248
  0
LINE
  8
_0-1___
  6
CONTINUOUS
 62
    7
 10
40.992837561197938
 20
46.744695359834267
 11
41.077537561197943
 21
46.638895359834279
  0
LINE
  8
_0-1___
  6
CONTINUOUS
 62
    7
 10
41.077537561197943
 20
46.638895359834279
 11
41.11983756119794
 21
46.617695359834272
  0
LINE
  8
_0-1___
  6
CONTINUOUS
 62
    7
 10
41.11983756119794
 20
46.617695359834272
 11
41.204537561197938
 21
46.57539535983426
  0
LINE
  8
_0-1___
  6
CONTINUOUS
 62
    7
 10
41.204537561197938
 20
46.57539535983426
 11
41.268037561197943
 21
46.57539535983426
  0
LINE
  8
_0-1___
  6
CONTINUOUS
 62
    7
 10
41.268037561197943
 20
46.57539535983426
 11
41.331537561197948
 21
46.617695359834272
  0
LINE
  8
_0-1___
  6
CONTINUOUS
 62
    7
 10
41.331537561197948
 20
46.617695359834272
 11
41.395037561197938
 21
46.638895359834279
  0
LINE
  8
_0-1___
  6
CONTINUOUS
 62
    7
 10
41.395037561197938
 20
46.638895359834279
 11
41.458537561197943
 21
46.744695359834267
  0
LINE
  8
_0-1___
  6
CONTINUOUS
 62
    7
 10
41.458537561197943
 20
46.744695359834267
 11
41.50083756119794
 21
46.82939535983428
  0
LINE
  8
_0-1___
  6
CONTINUOUS
 62
    7
 10
41.50083756119794
 20
46.82939535983428
 11
41.522037561197948
 21
46.956395359834261
  0
LINE
  8
_0-1___
  6
CONTINUOUS
 62
    7
 10
41.522037561197948
 20
46.956395359834261
 11
41.585537561197938
 21
47.08339535983427
  0
LINE
  8
_0-1___
  6
CONTINUOUS
 62
    7
 10
41.585537561197938
 20
47.08339535983427
 11
41.627837561197943
 21
47.21039535983428
  0
LINE
  8
_0-1___
  6
CONTINUOUS
 62
    7
 10
41.522037561197948
 20
48.099395359834261
 11
41.395037561197938
 21
48.226395359834271
  0
LINE
  8
_0-1___
  6
CONTINUOUS
 62
    7
 10
41.395037561197938
 20
48.226395359834271
 11
41.331537561197948
 21
48.226395359834271
  0
LINE
  8
_0-1___
  6
CONTINUOUS
 62
    7
 10
41.331537561197948
 20
48.226395359834271
 11
41.268037561197943
 21
48.16289535983428
  0
LINE
  8
_0-1___
  6
CONTINUOUS
 62
    7
 10
40.125037561197942
 20
47.78189535983428
 11
40.696537561197943
 21
47.08339535983427
  0
LINE
  8
_0-1___
  6
CONTINUOUS
 62
    7
 10
58.836337561197936
 20
68.715695359834257
 11
56.423337561197954
 21
68.715695359834257
  0
LINE
  8
_0-1___
  6
CONTINUOUS
 62
    7
 10
56.423337561197954
 20
68.715695359834257
 11
55.555537561197937
 21
68.673395359834274
  0
LINE
  8
_0-1___
  6
CONTINUOUS
 62
    7
 10
55.555537561197937
 20
68.673395359834274
 11
54.730037561197932
 21
68.673395359834274
  0
LINE
  8
_0-1___
  6
CONTINUOUS
 62
    7
 10
54.730037561197932
 20
68.673395359834274
 11
53.883337561197962
 21
68.609895359834269
  0
LINE
  8
_0-1___
  6
CONTINUOUS
 62
    7
 10
53.883337561197962
 20
68.609895359834269
 11
53.07903756119795
 21
68.588695359834261
  0
LINE
  8
_0-1___
  6
CONTINUOUS
 62
    7
 10
53.07903756119795
 20
68.588695359834261
 11
52.232337561197951
 21
68.482895359834245
  0
LINE
  8
_0-1___
  6
CONTINUOUS
 62
    7
 10
52.232337561197951
 20
68.482895359834245
 11
51.470337561197951
 21
68.419395359834269
  0
LINE
  8
_0-1___
  6
CONTINUOUS
 62
    7
 10
51.470337561197951
 20
68.419395359834269
 11
50.708337561197951
 21
68.334695359834257
  0
LINE
  8
_0-1___
  6
CONTINUOUS
 62
    7
 10
50.708337561197951
 20
68.334695359834257
 11
49.988737561197937
 21
68.22889535983424
  0
LINE
  8
_0-1___
  6
CONTINUOUS
 62
    7
 10
49.988737561197937
 20
68.22889535983424
 11
49.269037561197948
 21
68.16539535983425
  0
LINE
  8
_0-1___
  6
CONTINUOUS
 62
    7
 10
49.269037561197948
 20
68.16539535983425
 11
48.591737561197952
 21
68.03839535983424
  0
LINE
  8
_0-1___
  6
CONTINUOUS
 62
    7
 10
48.591737561197952
 20
68.03839535983424
 11
47.956737561197947
 21
67.953695359834228
  0
LINE
  8
_0-1___
  6
CONTINUOUS
 62
    7
 10
47.956737561197947
 20
67.953695359834228
 11
47.364037561197947
 21
67.826695359834261
  0
LINE
  8
_0-1___
  6
CONTINUOUS
 62
    7
 10
47.364037561197947
 20
67.826695359834261
 11
46.771337561197939
 21
67.69969535983428
  0
LINE
  8
_0-1___
  6
CONTINUOUS
 62
    7
 10
46.771337561197939
 20
67.69969535983428
 11
46.263337561197957
 21
67.530395359834245
  0
LINE
  8
_0-1___
  6
CONTINUOUS
 62
    7
 10
46.263337561197957
 20
67.530395359834245
 11
45.818837561197952
 21
67.403395359834249
  0
LINE
  8
_0-1___
  6
CONTINUOUS
 62
    7
 10
45.818837561197952
 20
67.403395359834249
 11
45.332037561197943
 21
67.212895359834249
  0
LINE
  8
_0-1___
  6
CONTINUOUS
 62
    7
 10
45.332037561197943
 20
67.212895359834249
 11
44.951037561197943
 21
67.08589535983424
  0
LINE
  8
_0-1___
  6
CONTINUOUS
 62
    7
 10
44.951037561197943
 20
67.08589535983424
 11
44.612337561197947
 21
66.937695359834279
  0
LINE
  8
_0-1___
  6
CONTINUOUS
 62
    7
 10
44.612337561197947
 20
66.937695359834279
 11
44.316037561197938
 21
66.768395359834244
  0
LINE
  8
_0-1___
  6
CONTINUOUS
 62
    7
 10
44.316037561197938
 20
66.768395359834244
 11
44.104337561197937
 21
66.577895359834258
  0
LINE
  8
_0-1___
  6
CONTINUOUS
 62
    7
 10
44.104337561197937
 20
66.577895359834258
 11
43.913837561197937
 21
66.429695359834241
  0
LINE
  8
_0-1___
  6
CONTINUOUS
 62
    7
 10
43.913837561197937
 20
66.429695359834241
 11
43.765737561197938
 21
66.260395359834234
  0
LINE
  8
_0-1___
  6
CONTINUOUS
 62
    7
 10
43.765737561197938
 20
66.260395359834234
 11
43.68103756119794
 21
66.069895359834248
  0
LINE
  8
_0-1___
  6
CONTINUOUS
 62
    7
 10
40.992837561197938
 20
60.735895359834267
 11
41.077537561197943
 21
60.672395359834262
  0
LINE
  8
_0-1___
  6
CONTINUOUS
 62
    7
 10
41.077537561197943
 20
60.672395359834262
 11
41.11983756119794
 21
60.608895359834271
  0
LINE
  8
_0-1___
  6
CONTINUOUS
 62
    7
 10
40.125037561197942
 20
61.815395359834248
 11
40.696537561197943
 21
61.095695359834252
  0
LINE
  8
_0-1___
  6
CONTINUOUS
 62
    7
 10
71.557537561197947
 20
43.019395359834256
 11
71.472837561197949
 21
43.188695359834249
  0
LINE
  8
_0-1___
  6
CONTINUOUS
 62
    7
 10
71.472837561197949
 20
43.188695359834249
 11
71.345837561197939
 21
43.336895359834251
  0
LINE
  8
_0-1___
  6
CONTINUOUS
 62
    7
 10
71.345837561197939
 20
43.336895359834251
 11
71.176537561197947
 21
43.527395359834266
  0
LINE
  8
_0-1___
  6
CONTINUOUS
 62
    7
 10
71.176537561197947
 20
43.527395359834266
 11
70.922537561197956
 21
43.696695359834244
  0
LINE
  8
_0-1___
  6
CONTINUOUS
 62
    7
 10
70.922537561197956
 20
43.696695359834244
 11
70.668537561197937
 21
43.844895359834247
  0
LINE
  8
_0-1___
  6
CONTINUOUS
 62
    7
 10
70.668537561197937
 20
43.844895359834247
 11
70.329837561197948
 21
43.971895359834257
  0
LINE
  8
_0-1___
  6
CONTINUOUS
 62
    7
 10
70.329837561197948
 20
43.971895359834257
 11
70.012337561197967
 21
44.162395359834257
  0
LINE
  8
_0-1___
  6
CONTINUOUS
 62
    7
 10
70.012337561197967
 20
44.162395359834257
 11
69.567837561197948
 21
44.289395359834266
  0
LINE
  8
_0-1___
  6
CONTINUOUS
 62
    7
 10
69.567837561197948
 20
44.289395359834266
 11
69.123337561197957
 21
44.458695359834252
  0
LINE
  8
_0-1___
  6
CONTINUOUS
 62
    7
 10
69.123337561197957
 20
44.458695359834252
 11
68.615337561197975
 21
44.585695359834261
  0
LINE
  8
_0-1___
  6
CONTINUOUS
 62
    7
 10
68.615337561197975
 20
44.585695359834261
 11
68.065037561197954
 21
44.712695359834257
  0
LINE
  8
_0-1___
  6
CONTINUOUS
 62
    7
 10
68.065037561197954
 20
44.712695359834257
 11
67.493537561197954
 21
44.839695359834259
  0
LINE
  8
_0-1___
  6
CONTINUOUS
 62
    7
 10
67.493537561197954
 20
44.839695359834259
 11
66.858537561197977
 21
44.966695359834269
  0
LINE
  8
_0-1___
  6
CONTINUOUS
 62
    7
 10
66.858537561197977
 20
44.966695359834269
 11
66.223537561197958
 21
45.051395359834281
  0
LINE
  8
_0-1___
  6
CONTINUOUS
 62
    7
 10
66.223537561197958
 20
45.051395359834281
 11
65.567337561197959
 21
45.178395359834269
  0
LINE
  8
_0-1___
  6
CONTINUOUS
 62
    7
 10
65.567337561197959
 20
45.178395359834269
 11
64.826537561197966
 21
45.241895359834274
  0
LINE
  8
_0-1___
  6
CONTINUOUS
 62
    7
 10
64.826537561197966
 20
45.241895359834274
 11
64.128037561197928
 21
45.347695359834276
  0
LINE
  8
_0-1___
  6
CONTINUOUS
 62
    7
 10
64.128037561197928
 20
45.347695359834276
 11
63.366037561197928
 21
45.368895359834269
  0
LINE
  8
_0-1___
  6
CONTINUOUS
 62
    7
 10
63.366037561197928
 20
45.368895359834269
 11
62.540537561197951
 21
45.474695359834271
  0
LINE
  8
_0-1___
  6
CONTINUOUS
 62
    7
 10
62.540537561197951
 20
45.474695359834271
 11
61.77853756119795
 21
45.495895359834279
  0
LINE
  8
_0-1___
  6
CONTINUOUS
 62
    7
 10
61.77853756119795
 20
45.495895359834279
 11
60.953037561197945
 21
45.559395359834269
  0
LINE
  8
_0-1___
  6
CONTINUOUS
 62
    7
 10
60.953037561197945
 20
45.559395359834269
 11
60.12753756119794
 21
45.601695359834267
  0
LINE
  8
_0-1___
  6
CONTINUOUS
 62
    7
 10
60.12753756119794
 20
45.601695359834267
 11
59.302037561197935
 21
45.62289535983426
  0
LINE
  8
_0-1___
  6
CONTINUOUS
 62
    7
 10
71.557537561197947
 20
43.844895359834247
 11
71.472837561197949
 21
44.035395359834247
  0
LINE
  8
_0-1___
  6
CONTINUOUS
 62
    7
 10
71.472837561197949
 20
44.035395359834247
 11
71.345837561197939
 21
44.204695359834254
  0
LINE
  8
_0-1___
  6
CONTINUOUS
 62
    7
 10
71.345837561197939
 20
44.204695359834254
 11
71.176537561197947
 21
44.352895359834257
  0
LINE
  8
_0-1___
  6
CONTINUOUS
 62
    7
 10
71.176537561197947
 20
44.352895359834257
 11
70.922537561197956
 21
44.543395359834264
  0
LINE
  8
_0-1___
  6
CONTINUOUS
 62
    7
 10
70.922537561197956
 20
44.543395359834264
 11
70.668537561197937
 21
44.670395359834274
  0
LINE
  8
_0-1___
  6
CONTINUOUS
 62
    7
 10
70.668537561197937
 20
44.670395359834274
 11
70.329837561197948
 21
44.839695359834259
  0
LINE
  8
_0-1___
  6
CONTINUOUS
 62
    7
 10
70.329837561197948
 20
44.839695359834259
 11
70.012337561197967
 21
44.987895359834262
  0
LINE
  8
_0-1___
  6
CONTINUOUS
 62
    7
 10
70.012337561197967
 20
44.987895359834262
 11
69.567837561197948
 21
45.114895359834271
  0
LINE
  8
_0-1___
  6
CONTINUOUS
 62
    7
 10
69.567837561197948
 20
45.114895359834271
 11
69.123337561197957
 21
45.241895359834274
  0
LINE
  8
_0-1___
  6
CONTINUOUS
 62
    7
 10
69.123337561197957
 20
45.241895359834274
 11
68.615337561197975
 21
45.43239535983426
  0
LINE
  8
_0-1___
  6
CONTINUOUS
 62
    7
 10
68.615337561197975
 20
45.43239535983426
 11
68.065037561197954
 21
45.559395359834269
  0
LINE
  8
_0-1___
  6
CONTINUOUS
 62
    7
 10
68.065037561197954
 20
45.559395359834269
 11
67.493537561197954
 21
45.62289535983426
  0
LINE
  8
_0-1___
  6
CONTINUOUS
 62
    7
 10
67.493537561197954
 20
45.62289535983426
 11
66.858537561197977
 21
45.749895359834269
  0
LINE
  8
_0-1___
  6
CONTINUOUS
 62
    7
 10
66.858537561197977
 20
45.749895359834269
 11
66.223537561197958
 21
45.876895359834279
  0
LINE
  8
_0-1___
  6
CONTINUOUS
 62
    7
 10
66.223537561197958
 20
45.876895359834279
 11
65.567337561197959
 21
45.982695359834267
  0
LINE
  8
_0-1___
  6
CONTINUOUS
 62
    7
 10
65.567337561197959
 20
45.982695359834267
 11
64.826537561197966
 21
46.067395359834279
  0
LINE
  8
_0-1___
  6
CONTINUOUS
 62
    7
 10
64.826537561197966
 20
46.067395359834279
 11
64.128037561197928
 21
46.13089535983427
  0
LINE
  8
_0-1___
  6
CONTINUOUS
 62
    7
 10
64.128037561197928
 20
46.13089535983427
 11
63.366037561197928
 21
46.236695359834272
  0
LINE
  8
_0-1___
  6
CONTINUOUS
 62
    7
 10
63.366037561197928
 20
46.236695359834272
 11
62.540537561197951
 21
46.32139535983427
  0
LINE
  8
_0-1___
  6
CONTINUOUS
 62
    7
 10
62.540537561197951
 20
46.32139535983427
 11
61.77853756119795
 21
46.363695359834267
  0
LINE
  8
_0-1___
  6
CONTINUOUS
 62
    7
 10
61.77853756119795
 20
46.363695359834267
 11
60.953037561197945
 21
46.38489535983426
  0
LINE
  8
_0-1___
  6
CONTINUOUS
 62
    7
 10
60.953037561197945
 20
46.38489535983426
 11
60.12753756119794
 21
46.448395359834279
  0
LINE
  8
_0-1___
  6
CONTINUOUS
 62
    7
 10
60.12753756119794
 20
46.448395359834279
 11
59.302037561197935
 21
46.448395359834279
  0
LINE
  8
_0-1___
  6
CONTINUOUS
 62
    7
 10
59.302037561197935
 20
46.448395359834279
 11
58.455337561197936
 21
46.490695359834277
  0
LINE
  8
_0-1___
  6
CONTINUOUS
 62
    7
 10
71.557537561197947
 20
66.069895359834248
 11
71.472837561197949
 21
66.260395359834234
  0
LINE
  8
_0-1___
  6
CONTINUOUS
 62
    7
 10
71.472837561197949
 20
66.260395359834234
 11
71.345837561197939
 21
66.429695359834241
  0
LINE
  8
_0-1___
  6
CONTINUOUS
 62
    7
 10
71.345837561197939
 20
66.429695359834241
 11
71.155337561197953
 21
66.577895359834258
  0
LINE
  8
_0-1___
  6
CONTINUOUS
 62
    7
 10
71.155337561197953
 20
66.577895359834258
 11
70.922537561197956
 21
66.768395359834244
  0
LINE
  8
_0-1___
  6
CONTINUOUS
 62
    7
 10
70.922537561197956
 20
66.768395359834244
 11
70.647337561197958
 21
66.937695359834279
  0
LINE
  8
_0-1___
  6
CONTINUOUS
 62
    7
 10
70.647337561197958
 20
66.937695359834279
 11
70.287537561197936
 21
67.08589535983424
  0
LINE
  8
_0-1___
  6
CONTINUOUS
 62
    7
 10
70.287537561197936
 20
67.08589535983424
 11
69.906537561197936
 21
67.212895359834249
  0
LINE
  8
_0-1___
  6
CONTINUOUS
 62
    7
 10
69.906537561197936
 20
67.212895359834249
 11
69.440837561197938
 21
67.403395359834249
  0
LINE
  8
_0-1___
  6
CONTINUOUS
 62
    7
 10
69.440837561197938
 20
67.403395359834249
 11
68.996337561197976
 21
67.530395359834245
  0
LINE
  8
_0-1___
  6
CONTINUOUS
 62
    7
 10
68.996337561197976
 20
67.530395359834245
 11
68.488337561197966
 21
67.69969535983428
  0
LINE
  8
_0-1___
  6
CONTINUOUS
 62
    7
 10
68.488337561197966
 20
67.69969535983428
 11
67.874537561197954
 21
67.826695359834261
  0
LINE
  8
_0-1___
  6
CONTINUOUS
 62
    7
 10
67.874537561197954
 20
67.826695359834261
 11
67.303037561197939
 21
67.953695359834228
  0
LINE
  8
_0-1___
  6
CONTINUOUS
 62
    7
 10
67.303037561197939
 20
67.953695359834228
 11
66.668037561197949
 21
68.03839535983424
  0
LINE
  8
_0-1___
  6
CONTINUOUS
 62
    7
 10
66.668037561197949
 20
68.03839535983424
 11
65.969537561197967
 21
68.16539535983425
  0
LINE
  8
_0-1___
  6
CONTINUOUS
 62
    7
 10
65.969537561197967
 20
68.16539535983425
 11
65.271037561197929
 21
68.22889535983424
  0
LINE
  8
_0-1___
  6
CONTINUOUS
 62
    7
 10
65.271037561197929
 20
68.22889535983424
 11
64.55133756119794
 21
68.334695359834257
  0
LINE
  8
_0-1___
  6
CONTINUOUS
 62
    7
 10
64.55133756119794
 20
68.334695359834257
 11
63.789337561197939
 21
68.419395359834269
  0
LINE
  8
_0-1___
  6
CONTINUOUS
 62
    7
 10
63.789337561197939
 20
68.419395359834269
 11
62.985037561197927
 21
68.482895359834245
  0
LINE
  8
_0-1___
  6
CONTINUOUS
 62
    7
 10
62.985037561197927
 20
68.482895359834245
 11
62.159537561197951
 21
68.588695359834261
  0
LINE
  8
_0-1___
  6
CONTINUOUS
 62
    7
 10
62.159537561197951
 20
68.588695359834261
 11
61.376337561197957
 21
68.609895359834269
  0
LINE
  8
_0-1___
  6
CONTINUOUS
 62
    7
 10
61.376337561197957
 20
68.609895359834269
 11
60.50853756119794
 21
68.673395359834274
  0
LINE
  8
_0-1___
  6
CONTINUOUS
 62
    7
 10
60.50853756119794
 20
68.673395359834274
 11
59.683037561197935
 21
68.673395359834274
  0
LINE
  8
_0-1___
  6
CONTINUOUS
 62
    7
 10
59.683037561197935
 20
68.673395359834274
 11
58.836337561197936
 21
68.715695359834257
  0
ENDSEC
  0
EOF
