  0
SECTION
  2
HEADER
  9
$ACADVER
  1
AC1009
  9
$DWGCODEPAGE
  3
dos932
  9
$INSBASE
 10
0
 20
0
 30
0
  9
$EXTMIN
 10
6.1627727587764713
 20
-8.0953276713580813
 30
0
  9
$EXTMAX
 10
140.34039579492458
 20
83.047919064773765
 30
0
  9
$LIMMIN
 10
0
 20
0
  9
$LIMMAX
 10
105.125
 20
74.25
  9
$SNAPMODE
 70
0
  9
$SNAPUNIT
 10
1
 20
1
  9
$SNAPBASE
 10
0
 20
0
  9
$SNAPANG
 50
0
  9
$SNAPSTYLE
 70
0
  9
$SNAPISOPAIR
 70
0
  9
$ORTHOMODE
 70
0
  9
$REGENMODE
 70
1
  9
$FILLMODE
 70
1
  9
$QTEXTMODE
 70
0
  9
$MIRRTEXT
 70
0
  9
$LTSCALE
 40
0.125
  9
$OSMODE
 70
37
  9
$ATTMODE
 70
1
  9
$TEXTSIZE
 40
0.2
  9
$TRACEWID
 40
0.05
  9
$TEXTSTYLE
  7
STANDARD
  9
$CLAYER
  8
0
  9
$CELTYPE
  6
CONTINUOUS
  9
$CECOLOR
 62
256
  9
$DIMSCALE
 40
1
  9
$DIMASZ
 40
0.18
  9
$DIMEXO
 40
0.0625
  9
$DIMDLI
 40
0.38
  9
$DIMRND
 40
0
  9
$DIMDLE
 40
0
  9
$DIMEXE
 40
0.18
  9
$DIMTP
 40
0
  9
$DIMTM
 40
0
  9
$DIMTXT
 40
0.18
  9
$DIMCEN
 40
0.09
  9
$DIMTSZ
 40
0
  9
$DIMTOL
 70
0
  9
$DIMLIM
 70
0
  9
$DIMTIH
 70
1
  9
$DIMTOH
 70
1
  9
$DIMSE1
 70
0
  9
$DIMSE2
 70
0
  9
$DIMTAD
 70
0
  9
$DIMZIN
 70
0
  9
$DIMBLK
  1

  9
$DIMASO
 70
1
  9
$DIMSHO
 70
1
  9
$DIMPOST
  1

  9
$DIMAPOST
  1

  9
$DIMALT
 70
0
  9
$DIMALTD
 70
2
  9
$DIMALTF
 40
25.4
  9
$DIMLFAC
 40
1
  9
$DIMTOFL
 70
0
  9
$DIMTVP
 40
0
  9
$DIMTIX
 70
0
  9
$DIMSOXD
 70
0
  9
$DIMSAH
 70
0
  9
$DIMBLK1
  1

  9
$DIMBLK2
  1

  9
$DIMSTYLE
  2
STANDARD
  9
$DIMCLRD
 70
0
  9
$DIMCLRE
 70
0
  9
$DIMCLRT
 70
0
  9
$DIMTFAC
 40
1
  9
$DIMGAP
 40
0.09
  9
$LUNITS
 70
2
  9
$LUPREC
 70
4
  9
$SKETCHINC
 40
0.1
  9
$FILLETRAD
 40
0
  9
$AUNITS
 70
0
  9
$AUPREC
 70
0
  9
$MENU
  1
.
  9
$ELEVATION
 40
0
  9
$PELEVATION
 40
0
  9
$THICKNESS
 40
0
  9
$LIMCHECK
 70
0
  9
$CHAMFERA
 40
0
  9
$CHAMFERB
 40
0
  9
$SKPOLY
 70
0
  9
$TDCREATE
 40
2457779.6213881248
  9
$TDUPDATE
 40
2457779.6228473149
  9
$TDINDWG
 40
0.0014597337962962962
  9
$TDUSRTIMER
 40
0.0014597337962962962
  9
$USRTIMER
 70
1
  9
$ANGBASE
 50
0
  9
$ANGDIR
 70
0
  9
$PDMODE
 70
0
  9
$PDSIZE
 40
0
  9
$PLINEWID
 40
0
  9
$SPLFRAME
 70
0
  9
$SPLINETYPE
 70
6
  9
$SPLINESEGS
 70
8
  9
$HANDLING
 70
1
  9
$HANDSEED
  5
64F
  9
$SURFTAB1
 70
6
  9
$SURFTAB2
 70
6
  9
$SURFTYPE
 70
6
  9
$SURFU
 70
6
  9
$SURFV
 70
6
  9
$UCSORG
 10
0
 20
0
 30
0
  9
$UCSXDIR
 10
1
 20
0
 30
0
  9
$UCSYDIR
 10
0
 20
1
 30
0
  9
$PUCSORG
 10
0
 20
0
 30
0
  9
$PUCSXDIR
 10
1
 20
0
 30
0
  9
$PUCSYDIR
 10
0
 20
1
 30
0
  9
$USERI1
 70
0
  9
$USERI2
 70
0
  9
$USERI3
 70
0
  9
$USERI4
 70
0
  9
$USERI5
 70
0
  9
$USERR1
 40
0
  9
$USERR2
 40
0
  9
$USERR3
 40
0
  9
$USERR4
 40
0
  9
$USERR5
 40
0
  9
$WORLDVIEW
 70
1
  9
$SHADEDGE
 70
3
  9
$SHADEDIF
 70
70
  9
$TILEMODE
 70
1
  9
$MAXACTVP
 70
64
  9
$PINSBASE
 10
0
 20
0
 30
0
  9
$PLIMCHECK
 70
0
  9
$PEXTMIN
 10
1E+20
 20
1E+20
 30
1E+20
  9
$PEXTMAX
 10
-1E+20
 20
-1E+20
 30
-1E+20
  9
$PLIMMAX
 10
12
 20
9
  9
$PLIMMIN
 10
0
 20
0
  9
$UNITMODE
 70
0
  9
$VISRETAIN
 70
1
  9
$PLINEGEN
 70
0
  9
$PSLTSCALE
 70
1
  9
$TREEDEPTH
 70
3020
  9
$DRAGMODE
 70
     2
  9
$BLIPMODE
 70
     0
  9
$COORDS
 70
     1
  9
$ATTDIA
 70
     0
  9
$ATTREQ
 70
     1
  0
ENDSEC
  0
SECTION
  2
TABLES
  0
TABLE
  2
VPORT
  5
641
 70
1
  0
VPORT
  5
615
  2
*ACTIVE
 70
0
 10
0
 20
0
 11
1
 21
1
 12
52.562500000000028
 22
37.125
 13
0
 23
0
 14
1
 24
1
 15
0
 25
0
 16
0
 26
0
 36
1
 17
0
 27
0
 37
0
 40
371.24999982712342
 41
1.5206310679611641
 42
50
 43
0
 44
0
 50
0
 51
0
 71
0
 72
100
 73
1
 74
1
 75
0
 76
0
 77
0
 78
0
  0
ENDTAB
  0
TABLE
  2
LTYPE
  5
642
 70
40
  0
LTYPE
  5
5EB
  2
CONTINUOUS
  3
実線
 70
0
 72
65
 73
0
 40
0
  0
LTYPE
  5
5EC
  2
DASHED1
  3
--  --  --  --  --  --  --  --  
 70
0
 72
65
 73
2
 40
2.5
 49
1.25
 49
-1.25
  0
LTYPE
  5
5ED
  2
DASHED2
  3
----    ----    ----    ----    
 70
0
 72
65
 73
2
 40
5
 49
2.5
 49
-2.5
  0
LTYPE
  5
5EE
  2
DASHED3
  3
------  ------  ------  ------  
 70
0
 72
65
 73
2
 40
5
 49
3.75
 49
-1.25
  0
LTYPE
  5
5EF
  2
CENTER1
  3
----- - ----- - ----- - ----- - 
 70
0
 72
65
 73
4
 40
10
 49
6.25
 49
-1.25
 49
1.25
 49
-1.25
  0
LTYPE
  5
5F0
  2
CENTER2
  3
----------  --  ----------  --  
 70
0
 72
65
 73
4
 40
20
 49
12.5
 49
-2.5
 49
2.5
 49
-2.5
  0
LTYPE
  5
5F1
  2
PHANTOM1
  3
--- - - --- - - --- - - --- - - 
 70
0
 72
65
 73
6
 40
9.5
 49
3.25
 49
-1.25
 49
1.25
 49
-1.25
 49
1.25
 49
-1.25
  0
LTYPE
  5
5F2
  2
PHANTOM2
  3
--------  -  -  --------  -  -  
 70
0
 72
65
 73
6
 40
20
 49
10
 49
-2.5
 49
1.25
 49
-2.5
 49
1.25
 49
-2.5
  0
LTYPE
  5
5F3
  2
DOT
  3
-   -   -   -   -   -   -   -   
 70
0
 72
65
 73
2
 40
2.5
 49
0.625
 49
-1.875
  0
LTYPE
  5
5F4
  2
DUMMY
  3
ダミー
 70
0
 72
65
 73
0
 40
0
  0
LTYPE
  5
5F5
  2
RAND1
  3
ランダム線1
 70
0
 72
65
 73
4
 40
10
 49
1
 49
-2
 49
3
 49
-4
  0
LTYPE
  5
5F6
  2
RAND2
  3
ランダム線2
 70
0
 72
65
 73
4
 40
14
 49
2
 49
-3
 49
4
 49
-5
  0
LTYPE
  5
5F7
  2
RAND3
  3
ランダム線3
 70
0
 72
65
 73
4
 40
18
 49
3
 49
-4
 49
5
 49
-6
  0
LTYPE
  5
5F8
  2
RAND4
  3
ランダム線4
 70
0
 72
65
 73
4
 40
22
 49
4
 49
-5
 49
6
 49
-7
  0
LTYPE
  5
5F9
  2
RAND5
  3
ランダム線5
 70
0
 72
65
 73
4
 40
26
 49
5
 49
-6
 49
7
 49
-8
  0
LTYPE
  5
5FA
  2
LONG1
  3
----------  --  ----------  --  
 70
0
 72
65
 73
4
 40
40
 49
32.5
 49
-2.5
 49
2.5
 49
-2.5
  0
LTYPE
  5
5FB
  2
LONG2
  3
--------  -  -  --------  -  -  
 70
0
 72
65
 73
6
 40
40
 49
30
 49
-2.5
 49
1.25
 49
-2.5
 49
1.25
 49
-2.5
  0
LTYPE
  5
5FC
  2
LONG3
  3
+++++++++++++++..+++++++++++++++
 70
0
 72
65
 73
2
 40
40
 49
37.5
 49
-2.5
  0
LTYPE
  5
5FD
  2
LONG4
  3
+++++++++++++++..+++++++++++++++
 70
0
 72
65
 73
2
 40
80
 49
75
 49
-5
  0
LTYPE
  5
5FE
  2
LONG5
  3
----------  --  ----------  --  
 70
0
 72
65
 73
4
 40
60
 49
37.5
 49
-7.5
 49
7.5
 49
-7.5
  0
LTYPE
  5
5FF
  2
DASHED
  3
-------   -------------   ------
 70
0
 72
65
 73
2
 40
3.8
 49
3
 49
-0.8
  0
LTYPE
  5
600
  2
DASHED_SPACED
  3
----        --------        ----
 70
0
 72
65
 73
2
 40
12
 49
6
 49
-6
  0
LTYPE
  5
601
  2
LONG_DASHED_DOTTED
  3
------------- --- --------------
 70
0
 72
65
 73
4
 40
15.25
 49
12
 49
-1.5
 49
0.25
 49
-1.5
  0
LTYPE
  5
602
  2
LONG_DASHED_DOUBLE-DOTTED
  3
----------- --- --- ------------
 70
0
 72
65
 73
6
 40
17
 49
12
 49
-1.5
 49
0.25
 49
-1.5
 49
0.25
 49
-1.5
  0
LTYPE
  5
603
  2
LONG_DASHED_TRIPLICATE-DOT
  3
--------- --- --- --- ----------
 70
0
 72
65
 73
8
 40
18.75
 49
12
 49
-1.5
 49
0.25
 49
-1.5
 49
0.25
 49
-1.5
 49
0.25
 49
-1.5
  0
LTYPE
  5
604
  2
DOTTED
  3
   -       -       -       -    
 70
0
 72
65
 73
2
 40
1.75
 49
0.25
 49
-1.5
  0
LTYPE
  5
605
  2
CHAIN
  3
-------------- -- --------------
 70
0
 72
65
 73
4
 40
18.5
 49
12
 49
-1.5
 49
3.5
 49
-1.5
  0
LTYPE
  5
606
  2
CHAIN_DOUBLE_DASH
  3
------------ -- -- -------------
 70
0
 72
65
 73
6
 40
23.5
 49
12
 49
-1.5
 49
3.5
 49
-1.5
 49
3.5
 49
-1.5
  0
LTYPE
  5
607
  2
DASHED_DOTTED
  3
-----------     -     ----------
 70
0
 72
65
 73
4
 40
9.25
 49
6
 49
-1.5
 49
0.25
 49
-1.5
  0
LTYPE
  5
608
  2
DOUBLE-DASHED_DOTTED
  3
------   -----------   -   -----
 70
0
 72
65
 73
6
 40
16.75
 49
6
 49
-1.5
 49
6
 49
-1.5
 49
0.25
 49
-1.5
  0
LTYPE
  5
609
  2
DASHED_DOUBLE-DOTTED
  3
---------    -    -    ---------
 70
0
 72
65
 73
6
 40
11
 49
6
 49
-1.5
 49
0.25
 49
-1.5
 49
0.25
 49
-1.5
  0
LTYPE
  5
60A
  2
DOUBLE-DASHED_DOUBLE-DOTTE
  3
-----   ---------   -   -   ----
 70
0
 72
65
 73
8
 40
18.5
 49
6
 49
-1.5
 49
6
 49
-1.5
 49
0.25
 49
-1.5
 49
0.25
 49
-1.5
  0
LTYPE
  5
60B
  2
DASHED_TRIPLICATE-DOTTED
  3
-------    -    -    -    ------
 70
0
 72
65
 73
8
 40
12.75
 49
6
 49
-1.5
 49
0.25
 49
-1.5
 49
0.25
 49
-1.5
 49
0.25
 49
-1.5
  0
LTYPE
  5
60C
  2
DOUBLE-DASHED_TRIPLICATE-D
  3
-----  ---------  -  -  -  -----
 70
0
 72
65
 73
10
 40
20.25
 49
6
 49
-1.5
 49
6
 49
-1.5
 49
0.25
 49
-1.5
 49
0.25
 49
-1.5
 49
0.25
 49
-1.5
  0
LTYPE
  5
60D
  2
UNDEFINED
  3
--------------------------------
 70
0
 72
65
 73
0
 40
0
  0
LTYPE
  5
60E
  2
DOT_18
  3
----        --------        ----
 70
0
 72
65
 73
2
 40
2
 49
1
 49
-1
  0
LTYPE
  5
60F
  2
DASHDOT
  3
------------   --   ------------
 70
0
 72
65
 73
4
 40
25.6
 49
20
 49
-2
 49
1.6
 49
-2
  0
LTYPE
  5
610
  2
DIVIDE
  3
-----------  --  --  -----------
 70
0
 72
65
 73
6
 40
31.199999999999996
 49
20
 49
-2.399999999999999
 49
2
 49
-2.399999999999999
 49
2
 49
-2.399999999999999
  0
LTYPE
  5
611
  2
ByBlock
  3

 70
64
 72
65
 73
0
 40
0
  0
LTYPE
  5
612
  2
ByLayer
  3

 70
64
 72
65
 73
0
 40
0
  0
ENDTAB
  0
TABLE
  2
LAYER
  5
643
 70
2
  0
LAYER
  5
5D4
 70
0
  2
0
 62
7
  6
CONTINUOUS
  0
LAYER
  5
5D5
 70
0
  2
SPEC
 62
7
  6
CONTINUOUS
  0
ENDTAB
  0
TABLE
  2
STYLE
  5
644
 70
3
  0
STYLE
  5
5E8
  2
STANDARD
 70
0
 40
0
 41
1
 50
0
 71
0
 42
0.2
  3
txt.shx
  4
extfont2.shx
  0
STYLE
  5
5E9
  2
ANNOTATIVE
 70
0
 40
0
 41
1
 50
0
 71
0
 42
0.2
  3
txt
  0
STYLE
  5
5EA
  2
TATEGAKI
 70
4
 40
0
 41
1
 50
0
 71
0
 42
1
  3
txt
  4
bigfont.shx
  0
ENDTAB
  0
TABLE
  2
APPID
  5
647
 70
4
  0
APPID
  5
648
  2
ACAD
 70
0
  0
APPID
  5
64B
  2
ACADANNOTATIVE
 70
0
  0
APPID
  5
64C
  2
ACAD_MLEADERVER
 70
0
  0
APPID
  5
64D
  2
ACAD_EXEMPT_FROM_CAD_STANDARDS
 70
0
  0
ENDTAB
  0
TABLE
  2
DIMSTYLE
  5
649
 70
2
  0
DIMSTYLE
105
613
  2
STANDARD
 70
0
  3

  4

  5

  6

  7

 40
1
 41
0.18
 42
0.0625
 43
0.38
 44
0.18
 45
0
 46
0
 47
0
 48
0
140
0.18
141
0.09
142
0
143
25.4
144
1
145
0
146
1
147
0.09
 71
0
 72
0
 73
1
 74
1
 75
0
 76
0
 77
0
 78
0
170
0
171
2
172
0
173
0
174
0
175
0
176
0
177
0
178
0
  0
DIMSTYLE
105
614
  2
ANNOTATIVE
 70
0
  3

  4

  5

  6

  7

 40
1
 41
0.18
 42
0.0625
 43
0.38
 44
0.18
 45
0
 46
0
 47
0
 48
0
140
0.18
141
0.09
142
0
143
25.4
144
1
145
0
146
1
147
0.09
 71
0
 72
0
 73
1
 74
1
 75
0
 76
0
 77
0
 78
0
170
0
171
2
172
0
173
0
174
0
175
0
176
0
177
0
178
0
  0
ENDTAB
  0
ENDSEC
  0
SECTION
  2
BLOCKS
  0
BLOCK
  5
5D7
  8
0
  2
$MODEL_SPACE
 70
0
 10
0
 20
0
 30
0
  3
$MODEL_SPACE
  0
ENDBLK
  5
76
  8
0
  0
BLOCK
  5
5D9
  8
0
 67
1
  2
$PAPER_SPACE
 70
0
 10
0
 20
0
 30
0
  3
$PAPER_SPACE
  0
ENDBLK
  5
72
  8
0
  0
BLOCK
  5
5DB
  8
0
  2
SPECEL-WVE1707CH
 70
64
 10
0
 20
0
 30
0
  3
SPECEL-WVE1707CH
  0
TEXT
  5
5DC
  8
SPEC
 10
0
 20
0
 30
0
 40
1.5
  1
LED 口金:E17 Ra83
  7
STANDARD
  0
TEXT
  5
5DD
  8
SPEC
 10
0
 20
-3
 30
0
 40
1.5
  1
本体:ｱﾙﾐﾀﾞｲｶｽﾄ ﾀﾞｰｸｸﾞﾚｰﾒﾀﾘｯｸ塗装仕上
  7
STANDARD
  0
TEXT
  5
5DE
  8
SPEC
 10
0
 20
-6
 30
0
 40
1.5
  1
質量:2.3kg
  7
STANDARD
  0
ENDBLK
  5
5DF
  8
0
  0
BLOCK
  5
5E1
  8
0
  2
*MODEL_SPACE
 70
64
 10
0
 20
0
 30
0
  3
*MODEL_SPACE
  0
ENDBLK
  5
5E4
  8
0
  0
BLOCK
  5
5E6
  8
0
 67
1
  2
*PAPER_SPACE
 70
64
 10
0
 20
0
 30
0
  3
*PAPER_SPACE
  0
ENDBLK
  5
5E7
  8
0
  0
ENDSEC
  0
SECTION
  2
ENTITIES
  0
TEXT
  5
A3
  8
0
 62
7
 10
5.562499999999992
 20
-7.3750000000000062
 30
0
 40
5
  1
三菱　ＥＬ－ＷＶＥ１７０７Ｃ／Ｈ
  7
STANDARD
  0
TEXT
  5
A4
  8
0
 62
7
 10
5.562499999999992
 20
76.625
 30
0
 40
5
  1
ＬＥＤ×１　ブラケット   
  7
STANDARD
  0
LINE
  5
A5
  8
0
  6
CONTINUOUS
 62
7
 10
44.426077378909433
 20
39.82548754856014
 30
0
 11
63.98319542957573
 21
39.82548754856014
 31
0
  0
LINE
  5
A6
  8
0
  6
CONTINUOUS
 62
7
 10
44.426077378909433
 20
39.7402214353002
 30
0
 11
63.98319542957573
 21
39.7402214353002
 31
0
  0
LINE
  5
A7
  8
0
  6
CONTINUOUS
 62
7
 10
44.426077378909433
 20
39.613441921442991
 30
0
 11
63.98319542957573
 21
39.613441921442991
 31
0
  0
LINE
  5
A8
  8
0
  6
CONTINUOUS
 62
7
 10
44.426077378909433
 20
39.529553846377127
 30
0
 11
63.98319542957573
 21
39.529553846377127
 31
0
  0
LINE
  5
A9
  8
0
  6
CONTINUOUS
 62
7
 10
44.426077378909433
 20
39.44377096879446
 30
0
 11
63.98319542957573
 21
39.44377096879446
 31
0
  0
LINE
  5
AA
  8
0
  6
CONTINUOUS
 62
7
 10
44.426077378909433
 20
39.3171637097115
 30
0
 11
63.98319542957573
 21
39.3171637097115
 31
0
  0
LINE
  5
AB
  8
0
  6
CONTINUOUS
 62
7
 10
44.426077378909433
 20
39.233275634645672
 30
0
 11
63.98319542957573
 21
39.233275634645672
 31
0
  0
LINE
  5
AC
  8
0
  6
CONTINUOUS
 62
7
 10
44.426077378909433
 20
39.147492757062977
 30
0
 11
63.98319542957573
 21
39.147492757062977
 31
0
  0
LINE
  5
AD
  8
0
  6
CONTINUOUS
 62
7
 10
44.426077378909433
 20
39.020885497980032
 30
0
 11
62.121465829346718
 21
39.020885497980032
 31
0
  0
LINE
  5
AE
  8
0
  6
CONTINUOUS
 62
7
 10
62.332305673044033
 20
39.020885497980032
 30
0
 11
63.98319542957573
 21
39.020885497980032
 31
0
  0
LINE
  5
AF
  8
0
  6
CONTINUOUS
 62
7
 10
44.426077378909433
 20
38.936825168139912
 30
0
 11
61.951967131472422
 21
38.936825168139912
 31
0
  0
LINE
  5
B0
  8
0
  6
CONTINUOUS
 62
7
 10
62.6285838847755
 20
38.936825168139912
 30
0
 11
63.98319542957573
 21
38.936825168139912
 31
0
  0
LINE
  5
B1
  8
0
  6
CONTINUOUS
 62
7
 10
44.426077378909433
 20
38.809873399508483
 30
0
 11
61.825187617615263
 21
38.809873399508483
 31
0
  0
LINE
  5
B2
  8
0
  6
CONTINUOUS
 62
7
 10
62.75536339863271
 20
38.809873399508483
 30
0
 11
63.98319542957573
 21
38.809873399508483
 31
0
  0
LINE
  5
B3
  8
0
  6
CONTINUOUS
 62
7
 10
44.426077378909433
 20
38.724607286248542
 30
0
 11
61.697030065563929
 21
38.724607286248542
 31
0
  0
LINE
  5
B4
  8
0
  6
CONTINUOUS
 62
7
 10
62.883520950683973
 20
38.724607286248542
 30
0
 11
63.98319542957573
 21
38.724607286248542
 31
0
  0
LINE
  5
B5
  8
0
  6
CONTINUOUS
 62
7
 10
44.426077378909433
 20
38.640546956408443
 30
0
 11
61.570250551706742
 21
38.640546956408443
 31
0
  0
LINE
  5
B6
  8
0
  6
CONTINUOUS
 62
7
 10
62.924862096507
 20
38.640546956408443
 30
0
 11
63.98319542957573
 21
38.640546956408443
 31
0
  0
LINE
  5
B7
  8
0
  6
CONTINUOUS
 62
7
 10
44.426077378909433
 20
38.51393969732549
 30
0
 11
61.486190221866643
 21
38.51393969732549
 31
0
  0
LINE
  5
B8
  8
0
  6
CONTINUOUS
 62
7
 10
63.010300464541167
 20
38.51393969732549
 30
0
 11
63.98319542957573
 21
38.51393969732549
 31
0
  0
LINE
  5
B9
  8
0
  6
CONTINUOUS
 62
7
 10
44.426077378909433
 20
38.428156819742789
 30
0
 11
61.443471037849562
 21
38.428156819742789
 31
0
  0
LINE
  5
BA
  8
0
  6
CONTINUOUS
 62
7
 10
63.051641610364172
 20
38.428156819742789
 30
0
 11
63.98319542957573
 21
38.428156819742789
 31
0
  0
LINE
  5
BB
  8
0
  6
CONTINUOUS
 62
7
 10
44.426077378909433
 20
38.344268744676967
 30
0
 11
61.400751853832467
 21
38.344268744676967
 31
0
  0
LINE
  5
BC
  8
0
  6
CONTINUOUS
 62
7
 10
63.094360794381281
 20
38.344268744676967
 30
0
 11
63.98319542957573
 21
38.344268744676967
 31
0
  0
LINE
  5
BD
  8
0
  6
CONTINUOUS
 62
7
 10
44.426077378909433
 20
38.217489230819737
 30
0
 11
61.400751853832467
 21
38.217489230819737
 31
0
  0
LINE
  5
BE
  8
0
  6
CONTINUOUS
 62
7
 10
63.137079978398383
 20
38.217489230819737
 30
0
 11
63.98319542957573
 21
38.217489230819737
 31
0
  0
LINE
  5
BF
  8
0
  6
CONTINUOUS
 62
7
 10
44.426077378909433
 20
38.132223117559818
 30
0
 11
61.400751853832467
 21
38.132223117559818
 31
0
  0
LINE
  5
C0
  8
0
  6
CONTINUOUS
 62
7
 10
63.179799162415492
 20
38.132223117559818
 30
0
 11
63.98319542957573
 21
38.132223117559818
 31
0
  0
LINE
  5
C1
  8
0
  6
CONTINUOUS
 62
7
 10
44.426077378909433
 20
38.047818278171221
 30
0
 11
61.443471037849562
 21
38.047818278171221
 31
0
  0
LINE
  5
C2
  8
0
  6
CONTINUOUS
 62
7
 10
63.137079978398383
 20
38.047818278171221
 30
0
 11
63.98319542957573
 21
38.047818278171221
 31
0
  0
LINE
  5
C3
  8
0
  6
CONTINUOUS
 62
7
 10
44.426077378909433
 20
37.921211019088261
 30
0
 11
61.443471037849562
 21
37.921211019088261
 31
0
  0
LINE
  5
C4
  8
0
  6
CONTINUOUS
 62
7
 10
63.137079978398383
 20
37.921211019088261
 30
0
 11
63.98319542957573
 21
37.921211019088261
 31
0
  0
LINE
  5
C5
  8
0
  6
CONTINUOUS
 62
7
 10
44.426077378909433
 20
37.835944905828342
 30
0
 11
61.486190221866643
 21
37.835944905828342
 31
0
  0
LINE
  5
C6
  8
0
  6
CONTINUOUS
 62
7
 10
63.094360794381281
 20
37.835944905828342
 30
0
 11
63.98319542957573
 21
37.835944905828342
 31
0
  0
LINE
  5
C7
  8
0
  6
CONTINUOUS
 62
7
 10
44.426077378909433
 20
37.708820882422621
 30
0
 11
61.570250551706742
 21
37.708820882422621
 31
0
  0
LINE
  5
C8
  8
0
  6
CONTINUOUS
 62
7
 10
63.051641610364172
 20
37.708820882422621
 30
0
 11
63.98319542957573
 21
37.708820882422621
 31
0
  0
LINE
  5
C9
  8
0
  6
CONTINUOUS
 62
7
 10
44.426077378909433
 20
37.623554769162681
 30
0
 11
61.612969735723851
 21
37.623554769162681
 31
0
  0
LINE
  5
CA
  8
0
  6
CONTINUOUS
 62
7
 10
62.924862096507
 20
37.623554769162681
 30
0
 11
63.98319542957573
 21
37.623554769162681
 31
0
  0
LINE
  5
CB
  8
0
  6
CONTINUOUS
 62
7
 10
44.426077378909433
 20
37.5394944393226
 30
0
 11
61.697030065563929
 21
37.5394944393226
 31
0
  0
LINE
  5
CC
  8
0
  6
CONTINUOUS
 62
7
 10
62.798082582649812
 20
37.5394944393226
 30
0
 11
63.98319542957573
 21
37.5394944393226
 31
0
  0
LINE
  5
CD
  8
0
  6
CONTINUOUS
 62
7
 10
44.426077378909433
 20
37.412887180239693
 30
0
 11
61.825187617615263
 21
37.412887180239693
 31
0
  0
LINE
  5
CE
  8
0
  6
CONTINUOUS
 62
7
 10
62.7140222528097
 20
37.412887180239693
 30
0
 11
63.98319542957573
 21
37.412887180239693
 31
0
  0
LINE
  5
CF
  8
0
  6
CONTINUOUS
 62
7
 10
44.426077378909433
 20
37.327104302656949
 30
0
 11
61.9933082772954
 21
37.327104302656949
 31
0
  0
LINE
  5
D0
  8
0
  6
CONTINUOUS
 62
7
 10
62.5445235549354
 20
37.327104302656949
 30
0
 11
63.98319542957573
 21
37.327104302656949
 31
0
  0
LINE
  5
D1
  8
0
  6
CONTINUOUS
 62
7
 10
44.426077378909433
 20
37.24321622759112
 30
0
 11
63.98319542957573
 21
37.24321622759112
 31
0
  0
LINE
  5
D2
  8
0
  6
CONTINUOUS
 62
7
 10
44.426077378909433
 20
37.116608968508153
 30
0
 11
63.98319542957573
 21
37.116608968508153
 31
0
  0
LINE
  5
D3
  8
0
  6
CONTINUOUS
 62
7
 10
44.426077378909433
 20
37.030826090925473
 30
0
 11
63.98319542957573
 21
37.030826090925473
 31
0
  0
LINE
  5
D4
  8
0
  6
CONTINUOUS
 62
7
 10
44.426077378909433
 20
36.946938015859622
 30
0
 11
63.98319542957573
 21
36.946938015859622
 31
0
  0
LINE
  5
D5
  8
0
  6
CONTINUOUS
 62
7
 10
44.426077378909433
 20
36.8201585020024
 30
0
 11
63.98319542957573
 21
36.8201585020024
 31
0
  0
LINE
  5
D6
  8
0
  6
CONTINUOUS
 62
7
 10
44.426077378909433
 20
36.734892388742473
 30
0
 11
63.98319542957573
 21
36.734892388742473
 31
0
  0
LINE
  5
D7
  8
0
  6
CONTINUOUS
 62
7
 10
44.426077378909433
 20
36.60794062011103
 30
0
 11
63.98319542957573
 21
36.60794062011103
 31
0
  0
LINE
  5
D8
  8
0
  6
CONTINUOUS
 62
7
 10
44.426077378909433
 20
36.523880290270931
 30
0
 11
63.98319542957573
 21
36.523880290270931
 31
0
  0
LINE
  5
D9
  8
0
  6
CONTINUOUS
 62
7
 10
44.426077378909433
 20
36.43844192223672
 30
0
 11
63.98319542957573
 21
36.43844192223672
 31
0
  0
LINE
  5
DA
  8
0
  6
CONTINUOUS
 62
7
 10
44.426077378909433
 20
36.311490153605277
 30
0
 11
63.98319542957573
 21
36.311490153605277
 31
0
  0
LINE
  5
DB
  8
0
  6
CONTINUOUS
 62
7
 10
44.426077378909433
 20
36.227602078539462
 30
0
 11
63.98319542957573
 21
36.227602078539462
 31
0
  0
LINE
  5
DC
  8
0
  6
CONTINUOUS
 62
7
 10
44.426077378909433
 20
36.142163710505251
 30
0
 11
63.98319542957573
 21
36.142163710505251
 31
0
  0
LINE
  5
DD
  8
0
  6
CONTINUOUS
 62
7
 10
44.426077378909433
 20
36.015556451422341
 30
0
 11
63.98319542957573
 21
36.015556451422341
 31
0
  0
LINE
  5
DE
  8
0
  6
CONTINUOUS
 62
7
 10
44.426077378909433
 20
35.931151612033688
 30
0
 11
63.98319542957573
 21
35.931151612033688
 31
0
  0
LINE
  5
DF
  8
0
  6
CONTINUOUS
 62
7
 10
44.426077378909433
 20
35.845885498773768
 30
0
 11
63.98319542957573
 21
35.845885498773768
 31
0
  0
LINE
  5
E0
  8
0
  6
CONTINUOUS
 62
7
 10
44.426077378909433
 20
35.71927823969088
 30
0
 11
63.98319542957573
 21
35.71927823969088
 31
0
  0
LINE
  5
E1
  8
0
  6
CONTINUOUS
 62
7
 10
44.426077378909433
 20
35.634873400302233
 30
0
 11
63.98319542957573
 21
35.634873400302233
 31
0
  0
LINE
  5
E2
  8
0
  6
CONTINUOUS
 62
7
 10
44.426077378909433
 20
35.549607287042278
 30
0
 11
63.98319542957573
 21
35.549607287042278
 31
0
  0
LINE
  5
E3
  8
0
  6
CONTINUOUS
 62
7
 10
44.426077378909433
 20
35.422827773185141
 30
0
 11
63.98319542957573
 21
35.422827773185141
 31
0
  0
LINE
  5
E4
  8
0
  6
CONTINUOUS
 62
7
 10
44.426077378909433
 20
35.338939698119241
 30
0
 11
63.98319542957573
 21
35.338939698119241
 31
0
  0
LINE
  5
E5
  8
0
  6
CONTINUOUS
 62
7
 10
44.426077378909433
 20
35.210437636519423
 30
0
 11
63.98319542957573
 21
35.210437636519423
 31
0
  0
LINE
  5
E6
  8
0
  6
CONTINUOUS
 62
7
 10
44.426077378909433
 20
35.1265495614536
 30
0
 11
63.98319542957573
 21
35.1265495614536
 31
0
  0
LINE
  5
E7
  8
0
  6
CONTINUOUS
 62
7
 10
44.426077378909433
 20
35.042489231613487
 30
0
 11
63.98319542957573
 21
35.042489231613487
 31
0
  0
LINE
  5
E8
  8
0
  6
CONTINUOUS
 62
7
 10
44.426077378909433
 20
34.91415942478794
 30
0
 11
63.98319542957573
 21
34.91415942478794
 31
0
  0
LINE
  5
E9
  8
0
  6
CONTINUOUS
 62
7
 10
44.426077378909433
 20
34.830271349722111
 30
0
 11
63.98319542957573
 21
34.830271349722111
 31
0
  0
LINE
  5
EA
  8
0
  6
CONTINUOUS
 62
7
 10
44.426077378909433
 20
34.746211019882
 30
0
 11
63.98319542957573
 21
34.746211019882
 31
0
  0
LINE
  5
EB
  8
0
  6
CONTINUOUS
 62
7
 10
44.426077378909433
 20
34.618225722605
 30
0
 11
63.98319542957573
 21
34.618225722605
 31
0
  0
LINE
  5
EC
  8
0
  6
CONTINUOUS
 62
7
 10
44.426077378909433
 20
34.533820883216372
 30
0
 11
63.98319542957573
 21
34.533820883216372
 31
0
  0
LINE
  5
ED
  8
0
  6
CONTINUOUS
 62
7
 10
44.595576076783772
 20
34.448554769956452
 30
0
 11
63.98319542957573
 21
34.448554769956452
 31
0
  0
LINE
  5
EE
  8
0
  6
CONTINUOUS
 62
7
 10
44.975914618355333
 20
34.321775256099258
 30
0
 11
63.98319542957573
 21
34.321775256099258
 31
0
  0
LINE
  5
EF
  8
0
  6
CONTINUOUS
 62
7
 10
45.356253159926922
 20
34.237887181033443
 30
0
 11
63.98319542957573
 21
34.237887181033443
 31
0
  0
LINE
  5
F0
  8
0
  6
CONTINUOUS
 62
7
 10
45.7379697396926
 20
34.11093541240195
 30
0
 11
63.98319542957573
 21
34.11093541240195
 31
0
  0
LINE
  5
F1
  8
0
  6
CONTINUOUS
 62
7
 10
46.076967135441173
 20
34.025497044367768
 30
0
 11
63.98319542957573
 21
34.025497044367768
 31
0
  0
LINE
  5
F2
  8
0
  6
CONTINUOUS
 62
7
 10
46.457305677012748
 20
33.9416089693019
 30
0
 11
63.98319542957573
 21
33.9416089693019
 31
0
  0
LINE
  5
F3
  8
0
  6
CONTINUOUS
 62
7
 10
46.839022256778449
 20
33.814484945896183
 30
0
 11
63.98319542957573
 21
33.814484945896183
 31
0
  0
LINE
  5
F4
  8
0
  6
CONTINUOUS
 62
7
 10
47.219360798350017
 20
33.729218832636263
 30
0
 11
63.98319542957573
 21
33.729218832636263
 31
0
  0
LINE
  5
F5
  8
0
  6
CONTINUOUS
 62
7
 10
47.601077378115683
 20
33.64515850279615
 30
0
 11
63.98319542957573
 21
33.64515850279615
 31
0
  0
LINE
  5
F6
  8
0
  6
CONTINUOUS
 62
7
 10
47.938696735670177
 20
33.5182067341647
 30
0
 11
63.98319542957573
 21
33.5182067341647
 31
0
  0
LINE
  5
F7
  8
0
  6
CONTINUOUS
 62
7
 10
48.32041331543585
 20
33.432940620904773
 30
0
 11
63.98319542957573
 21
33.432940620904773
 31
0
  0
LINE
  5
F8
  8
0
  6
CONTINUOUS
 62
7
 10
48.700751857007468
 20
33.348880291064681
 30
0
 11
63.98319542957573
 21
33.348880291064681
 31
0
  0
LINE
  5
F9
  8
0
  6
CONTINUOUS
 62
7
 10
49.039749252756032
 20
33.222273031981771
 30
0
 11
63.98319542957573
 21
33.222273031981771
 31
0
  0
LINE
  5
FA
  8
0
  6
CONTINUOUS
 62
7
 10
49.421465832521719
 20
33.136490154399027
 30
0
 11
63.98319542957573
 21
33.136490154399027
 31
0
  0
LINE
  5
FB
  8
0
  6
CONTINUOUS
 62
7
 10
49.801804374093287
 20
33.009882895316132
 30
0
 11
63.98319542957573
 21
33.009882895316132
 31
0
  0
LINE
  5
FC
  8
0
  6
CONTINUOUS
 62
7
 10
50.18352095385896
 20
32.925822565476032
 30
0
 11
63.98319542957573
 21
32.925822565476032
 31
0
  0
LINE
  5
FD
  8
0
  6
CONTINUOUS
 62
7
 10
50.563859495430577
 20
32.840556452216077
 30
0
 11
63.98319542957573
 21
32.840556452216077
 31
0
  0
LINE
  5
FE
  8
0
  6
CONTINUOUS
 62
7
 10
50.902856891179148
 20
32.713604683584592
 30
0
 11
63.98319542957573
 21
32.713604683584592
 31
0
  0
LINE
  5
FF
  8
0
  6
CONTINUOUS
 62
7
 10
51.28319543275073
 20
32.629544353744564
 30
0
 11
63.98319542957573
 21
32.629544353744564
 31
0
  0
LINE
  5
100
  8
0
  6
CONTINUOUS
 62
7
 10
51.6649120125164
 20
32.544278240484623
 30
0
 11
63.98319542957573
 21
32.544278240484623
 31
0
  0
LINE
  5
101
  8
0
  6
CONTINUOUS
 62
7
 10
52.045250554087993
 20
32.41715421707886
 30
0
 11
63.98319542957573
 21
32.41715421707886
 31
0
  0
LINE
  5
102
  8
0
  6
CONTINUOUS
 62
7
 10
52.384247949836571
 20
32.331888103818912
 30
0
 11
63.98319542957573
 21
32.331888103818912
 31
0
  0
LINE
  5
103
  8
0
  6
CONTINUOUS
 62
7
 10
52.76458649140816
 20
32.247827773978869
 30
0
 11
63.98319542957573
 21
32.247827773978869
 31
0
  0
LINE
  5
104
  8
0
  6
CONTINUOUS
 62
7
 10
53.146303071173861
 20
32.12122051489591
 30
0
 11
63.98319542957573
 21
32.12122051489591
 31
0
  0
LINE
  5
105
  8
0
  6
CONTINUOUS
 62
7
 10
53.526641612745429
 20
32.035437637313173
 30
0
 11
63.98319542957573
 21
32.035437637313173
 31
0
  0
LINE
  5
106
  8
0
  6
CONTINUOUS
 62
7
 10
53.9083581925111
 20
31.90883037823027
 30
0
 11
63.98319542957573
 21
31.90883037823027
 31
0
  0
LINE
  5
107
  8
0
  6
CONTINUOUS
 62
7
 10
54.24735558825968
 20
31.824942303164448
 30
0
 11
63.98319542957573
 21
31.824942303164448
 31
0
  0
LINE
  5
108
  8
0
  6
CONTINUOUS
 62
7
 10
54.627694129831283
 20
31.73915942558169
 30
0
 11
63.98319542957573
 21
31.73915942558169
 31
0
  0
LINE
  5
109
  8
0
  6
CONTINUOUS
 62
7
 10
55.00941070959697
 20
31.61255216649878
 30
0
 11
63.98319542957573
 21
31.61255216649878
 31
0
  0
LINE
  5
10A
  8
0
  6
CONTINUOUS
 62
7
 10
55.389749251168539
 20
31.528491836658691
 30
0
 11
63.98319542957573
 21
31.528491836658691
 31
0
  0
LINE
  5
10B
  8
0
  6
CONTINUOUS
 62
7
 10
55.728746646917109
 20
31.443225723398751
 30
0
 11
63.98319542957573
 21
31.443225723398751
 31
0
  0
LINE
  5
10C
  8
0
  6
CONTINUOUS
 62
7
 10
56.109085188488713
 20
31.316273954767318
 30
0
 11
63.98319542957573
 21
31.316273954767318
 31
0
  0
LINE
  5
10D
  8
0
  6
CONTINUOUS
 62
7
 10
56.490801768254357
 20
31.232213624927208
 30
0
 11
63.98319542957573
 21
31.232213624927208
 31
0
  0
LINE
  5
10E
  8
0
  6
CONTINUOUS
 62
7
 10
56.871140309825982
 20
31.146775256893012
 30
0
 11
63.98319542957573
 21
31.146775256893012
 31
0
  0
LINE
  5
10F
  8
0
  6
CONTINUOUS
 62
7
 10
57.21013770557456
 20
31.019823488261519
 30
0
 11
63.98319542957573
 21
31.019823488261519
 31
0
  0
LINE
  5
110
  8
0
  6
CONTINUOUS
 62
7
 10
57.59185428534024
 20
30.935935413195669
 30
0
 11
63.98319542957573
 21
30.935935413195669
 31
0
  0
LINE
  5
111
  8
0
  6
CONTINUOUS
 62
7
 10
57.972192826911822
 20
30.809155899338521
 30
0
 11
63.98319542957573
 21
30.809155899338521
 31
0
  0
LINE
  5
112
  8
0
  6
CONTINUOUS
 62
7
 10
58.3539094066775
 20
30.723889786078569
 30
0
 11
63.98319542957573
 21
30.723889786078569
 31
0
  0
LINE
  5
113
  8
0
  6
CONTINUOUS
 62
7
 10
58.734247948249113
 20
30.63948494668993
 30
0
 11
63.98319542957573
 21
30.63948494668993
 31
0
  0
LINE
  5
114
  8
0
  6
CONTINUOUS
 62
7
 10
59.073245343997669
 20
30.51287768760703
 30
0
 11
63.98319542957573
 21
30.51287768760703
 31
0
  0
LINE
  5
115
  8
0
  6
CONTINUOUS
 62
7
 10
59.453583885569252
 20
30.42761157434709
 30
0
 11
63.98319542957573
 21
30.42761157434709
 31
0
  0
LINE
  5
116
  8
0
  6
CONTINUOUS
 62
7
 10
59.835300465334932
 20
30.34320673495845
 30
0
 11
63.98319542957573
 21
30.34320673495845
 31
0
  0
LINE
  5
117
  8
0
  6
CONTINUOUS
 62
7
 10
60.215639006906493
 20
30.21522143768145
 30
0
 11
63.98319542957573
 21
30.21522143768145
 31
0
  0
LINE
  5
118
  8
0
  6
CONTINUOUS
 62
7
 10
60.5546364026551
 20
30.13116110784134
 30
0
 11
63.98319542957573
 21
30.13116110784134
 31
0
  0
LINE
  5
119
  8
0
  6
CONTINUOUS
 62
7
 10
60.934974944226667
 20
30.047273032775539
 30
0
 11
63.98319542957573
 21
30.047273032775539
 31
0
  0
LINE
  5
11A
  8
0
  6
CONTINUOUS
 62
7
 10
61.316691523992382
 20
29.918770971175711
 30
0
 11
63.98319542957573
 21
29.918770971175711
 31
0
  0
LINE
  5
11B
  8
0
  6
CONTINUOUS
 62
7
 10
61.697030065563929
 20
29.834882896109882
 30
0
 11
63.98319542957573
 21
29.834882896109882
 31
0
  0
LINE
  5
11C
  8
0
  6
CONTINUOUS
 62
7
 10
62.036027461312543
 20
29.708275637026919
 30
0
 11
63.98319542957573
 21
29.708275637026919
 31
0
  0
LINE
  5
11D
  8
0
  6
CONTINUOUS
 62
7
 10
62.41774404107818
 20
29.622492759444238
 30
0
 11
63.98319542957573
 21
29.622492759444238
 31
0
  0
LINE
  5
11E
  8
0
  6
CONTINUOUS
 62
7
 10
62.798082582649812
 20
29.538604684378331
 30
0
 11
63.98319542957573
 21
29.538604684378331
 31
0
  0
LINE
  5
11F
  8
0
  6
CONTINUOUS
 62
7
 10
63.179799162415492
 20
29.411825170521169
 30
0
 11
63.98319542957573
 21
29.411825170521169
 31
0
  0
LINE
  5
120
  8
0
  6
CONTINUOUS
 62
7
 10
63.560137703987039
 20
29.326559057261221
 30
0
 11
63.98319542957573
 21
29.326559057261221
 31
0
  0
LINE
  5
121
  8
0
  6
CONTINUOUS
 62
7
 10
63.899135099735652
 20
29.24215421787261
 30
0
 11
63.98319542957573
 21
29.24215421787261
 31
0
  0
LINE
  5
122
  8
0
  6
CONTINUOUS
 62
7
 10
44.426077378909433
 20
39.909892387948723
 30
0
 11
63.98319542957573
 21
39.909892387948723
 31
0
  0
LINE
  5
123
  8
0
  6
CONTINUOUS
 62
7
 10
44.426077378909433
 20
40.037877685225773
 30
0
 11
63.98319542957573
 21
40.037877685225773
 31
0
  0
LINE
  5
124
  8
0
  6
CONTINUOUS
 62
7
 10
44.426077378909433
 20
40.121938015065858
 30
0
 11
63.98319542957573
 21
40.121938015065858
 31
0
  0
LINE
  5
125
  8
0
  6
CONTINUOUS
 62
7
 10
44.426077378909433
 20
40.248889783697336
 30
0
 11
63.98319542957573
 21
40.248889783697336
 31
0
  0
LINE
  5
126
  8
0
  6
CONTINUOUS
 62
7
 10
44.426077378909433
 20
40.334155896957263
 30
0
 11
63.98319542957573
 21
40.334155896957263
 31
0
  0
LINE
  5
127
  8
0
  6
CONTINUOUS
 62
7
 10
44.426077378909433
 20
40.418216226797362
 30
0
 11
63.98319542957573
 21
40.418216226797362
 31
0
  0
LINE
  5
128
  8
0
  6
CONTINUOUS
 62
7
 10
44.426077378909433
 20
40.544823485880322
 30
0
 11
63.98319542957573
 21
40.544823485880322
 31
0
  0
LINE
  5
129
  8
0
  6
CONTINUOUS
 62
7
 10
44.426077378909433
 20
40.630606363463
 30
0
 11
63.98319542957573
 21
40.630606363463
 31
0
  0
LINE
  5
12A
  8
0
  6
CONTINUOUS
 62
7
 10
44.426077378909433
 20
40.714494438528831
 30
0
 11
63.98319542957573
 21
40.714494438528831
 31
0
  0
LINE
  5
12B
  8
0
  6
CONTINUOUS
 62
7
 10
44.426077378909433
 20
40.841273952386061
 30
0
 11
63.98319542957573
 21
40.841273952386061
 31
0
  0
LINE
  5
12C
  8
0
  6
CONTINUOUS
 62
7
 10
44.426077378909433
 20
40.926540065645987
 30
0
 11
63.98319542957573
 21
40.926540065645987
 31
0
  0
LINE
  5
12D
  8
0
  6
CONTINUOUS
 62
7
 10
44.426077378909433
 20
41.010944905034577
 30
0
 11
63.98319542957573
 21
41.010944905034577
 31
0
  0
LINE
  5
12E
  8
0
  6
CONTINUOUS
 62
7
 10
44.426077378909433
 20
41.137552164117523
 30
0
 11
63.98319542957573
 21
41.137552164117523
 31
0
  0
LINE
  5
12F
  8
0
  6
CONTINUOUS
 62
7
 10
44.426077378909433
 20
41.222818277377449
 30
0
 11
63.98319542957573
 21
41.222818277377449
 31
0
  0
LINE
  5
130
  8
0
  6
CONTINUOUS
 62
7
 10
44.426077378909433
 20
41.349942300783169
 30
0
 11
63.98319542957573
 21
41.349942300783169
 31
0
  0
LINE
  5
131
  8
0
  6
CONTINUOUS
 62
7
 10
44.426077378909433
 20
41.43383037584902
 30
0
 11
63.98319542957573
 21
41.43383037584902
 31
0
  0
LINE
  5
132
  8
0
  6
CONTINUOUS
 62
7
 10
44.426077378909433
 20
41.519268743883217
 30
0
 11
63.98319542957573
 21
41.519268743883217
 31
0
  0
LINE
  5
133
  8
0
  6
CONTINUOUS
 62
7
 10
44.426077378909433
 20
41.646220512514638
 30
0
 11
63.98319542957573
 21
41.646220512514638
 31
0
  0
LINE
  5
134
  8
0
  6
CONTINUOUS
 62
7
 10
44.426077378909433
 20
41.730108587580489
 30
0
 11
63.98319542957573
 21
41.730108587580489
 31
0
  0
LINE
  5
135
  8
0
  6
CONTINUOUS
 62
7
 10
44.426077378909433
 20
41.815546955614693
 30
0
 11
63.98319542957573
 21
41.815546955614693
 31
0
  0
LINE
  5
136
  8
0
  6
CONTINUOUS
 62
7
 10
44.426077378909433
 20
41.9421542146976
 30
0
 11
63.98319542957573
 21
41.9421542146976
 31
0
  0
LINE
  5
137
  8
0
  6
CONTINUOUS
 62
7
 10
44.426077378909433
 20
42.026559054086242
 30
0
 11
63.98319542957573
 21
42.026559054086242
 31
0
  0
LINE
  5
138
  8
0
  6
CONTINUOUS
 62
7
 10
44.426077378909433
 20
42.111825167346169
 30
0
 11
63.98319542957573
 21
42.111825167346169
 31
0
  0
LINE
  5
139
  8
0
  6
CONTINUOUS
 62
7
 10
44.426077378909433
 20
42.238604681203341
 30
0
 11
63.98319542957573
 21
42.238604681203341
 31
0
  0
LINE
  5
13A
  8
0
  6
CONTINUOUS
 62
7
 10
44.426077378909433
 20
42.322492756269241
 30
0
 11
63.98319542957573
 21
42.322492756269241
 31
0
  0
LINE
  5
13B
  8
0
  6
CONTINUOUS
 62
7
 10
44.426077378909433
 20
42.450822563094782
 30
0
 11
63.98319542957573
 21
42.450822563094782
 31
0
  0
LINE
  5
13C
  8
0
  6
CONTINUOUS
 62
7
 10
44.426077378909433
 20
42.534882892934881
 30
0
 11
63.98319542957573
 21
42.534882892934881
 31
0
  0
LINE
  5
13D
  8
0
  6
CONTINUOUS
 62
7
 10
44.426077378909433
 20
42.61877096800071
 30
0
 11
63.98319542957573
 21
42.61877096800071
 31
0
  0
LINE
  5
13E
  8
0
  6
CONTINUOUS
 62
7
 10
44.426077378909433
 20
42.747273029600521
 30
0
 11
63.98319542957573
 21
42.747273029600521
 31
0
  0
LINE
  5
13F
  8
0
  6
CONTINUOUS
 62
7
 10
44.426077378909433
 20
42.83116110466635
 30
0
 11
63.98319542957573
 21
42.83116110466635
 31
0
  0
LINE
  5
140
  8
0
  6
CONTINUOUS
 62
7
 10
44.426077378909433
 20
42.915221434506449
 30
0
 11
63.98319542957573
 21
42.915221434506449
 31
0
  0
LINE
  5
141
  8
0
  6
CONTINUOUS
 62
7
 10
44.426077378909433
 20
43.043206731783449
 30
0
 11
63.98319542957573
 21
43.043206731783449
 31
0
  0
LINE
  5
142
  8
0
  6
CONTINUOUS
 62
7
 10
44.426077378909433
 20
43.127611571172089
 30
0
 11
63.98319542957573
 21
43.127611571172089
 31
0
  0
LINE
  5
143
  8
0
  6
CONTINUOUS
 62
7
 10
44.426077378909433
 20
43.21287768443203
 30
0
 11
63.98319542957573
 21
43.21287768443203
 31
0
  0
LINE
  5
144
  8
0
  6
CONTINUOUS
 62
7
 10
44.426077378909433
 20
43.339484943514961
 30
0
 11
63.98319542957573
 21
43.339484943514961
 31
0
  0
LINE
  5
145
  8
0
  6
CONTINUOUS
 62
7
 10
44.426077378909433
 20
43.423889782903558
 30
0
 11
63.98319542957573
 21
43.423889782903558
 31
0
  0
LINE
  5
146
  8
0
  6
CONTINUOUS
 62
7
 10
44.426077378909433
 20
43.509155896163513
 30
0
 11
63.98319542957573
 21
43.509155896163513
 31
0
  0
LINE
  5
147
  8
0
  6
CONTINUOUS
 62
7
 10
44.426077378909433
 20
43.635935410020672
 30
0
 11
63.98319542957573
 21
43.635935410020672
 31
0
  0
LINE
  5
148
  8
0
  6
CONTINUOUS
 62
7
 10
44.426077378909433
 20
43.719823485086572
 30
0
 11
63.98319542957573
 21
43.719823485086572
 31
0
  0
LINE
  5
149
  8
0
  6
CONTINUOUS
 62
7
 10
44.426077378909433
 20
43.846775253718008
 30
0
 11
63.98319542957573
 21
43.846775253718008
 31
0
  0
LINE
  5
14A
  8
0
  6
CONTINUOUS
 62
7
 10
44.426077378909433
 20
43.9322136217522
 30
0
 11
63.98319542957573
 21
43.9322136217522
 31
0
  0
LINE
  5
14B
  8
0
  6
CONTINUOUS
 62
7
 10
44.426077378909433
 20
44.016273951592311
 30
0
 11
63.98319542957573
 21
44.016273951592311
 31
0
  0
LINE
  5
14C
  8
0
  6
CONTINUOUS
 62
7
 10
44.426077378909433
 20
44.143225720223761
 30
0
 11
63.98319542957573
 21
44.143225720223761
 31
0
  0
LINE
  5
14D
  8
0
  6
CONTINUOUS
 62
7
 10
44.426077378909433
 20
44.228491833483687
 30
0
 11
63.98319542957573
 21
44.228491833483687
 31
0
  0
LINE
  5
14E
  8
0
  6
CONTINUOUS
 62
7
 10
44.426077378909433
 20
44.31255216332378
 30
0
 11
63.98319542957573
 21
44.31255216332378
 31
0
  0
LINE
  5
14F
  8
0
  6
CONTINUOUS
 62
7
 10
44.426077378909433
 20
44.439159422406689
 30
0
 11
63.98319542957573
 21
44.439159422406689
 31
0
  0
LINE
  5
150
  8
0
  6
CONTINUOUS
 62
7
 10
44.426077378909433
 20
44.524942299989434
 30
0
 11
63.98319542957573
 21
44.524942299989434
 31
0
  0
LINE
  5
151
  8
0
  6
CONTINUOUS
 62
7
 10
44.426077378909433
 20
44.60883037505527
 30
0
 11
63.98319542957573
 21
44.60883037505527
 31
0
  0
LINE
  5
152
  8
0
  6
CONTINUOUS
 62
7
 10
44.426077378909433
 20
44.735437634138172
 30
0
 11
63.98319542957573
 21
44.735437634138172
 31
0
  0
LINE
  5
153
  8
0
  6
CONTINUOUS
 62
7
 10
44.426077378909433
 20
44.8212205117209
 30
0
 11
63.98319542957573
 21
44.8212205117209
 31
0
  0
LINE
  5
154
  8
0
  6
CONTINUOUS
 62
7
 10
44.426077378909433
 20
44.947827770803883
 30
0
 11
63.98319542957573
 21
44.947827770803883
 31
0
  0
LINE
  5
155
  8
0
  6
CONTINUOUS
 62
7
 10
44.426077378909433
 20
45.031888100643933
 30
0
 11
63.98319542957573
 21
45.031888100643933
 31
0
  0
LINE
  5
156
  8
0
  6
CONTINUOUS
 62
7
 10
44.426077378909433
 20
45.117154213903859
 30
0
 11
63.98319542957573
 21
45.117154213903859
 31
0
  0
LINE
  5
157
  8
0
  6
CONTINUOUS
 62
7
 10
44.426077378909433
 20
45.2442782373096
 30
0
 11
63.98319542957573
 21
45.2442782373096
 31
0
  0
LINE
  5
158
  8
0
  6
CONTINUOUS
 62
7
 10
44.426077378909433
 20
45.329544350569563
 30
0
 11
63.98319542957573
 21
45.329544350569563
 31
0
  0
LINE
  5
159
  8
0
  6
CONTINUOUS
 62
7
 10
44.426077378909433
 20
45.413604680409662
 30
0
 11
63.98319542957573
 21
45.413604680409662
 31
0
  0
LINE
  5
15A
  8
0
  6
CONTINUOUS
 62
7
 10
44.426077378909433
 20
45.540556449041091
 30
0
 11
63.98319542957573
 21
45.540556449041091
 31
0
  0
LINE
  5
15B
  8
0
  6
CONTINUOUS
 62
7
 10
44.426077378909433
 20
45.625822562301032
 30
0
 11
63.98319542957573
 21
45.625822562301032
 31
0
  0
LINE
  5
15C
  8
0
  6
CONTINUOUS
 62
7
 10
44.426077378909433
 20
45.70988289214111
 30
0
 11
63.98319542957573
 21
45.70988289214111
 31
0
  0
LINE
  5
15D
  8
0
  6
CONTINUOUS
 62
7
 10
44.426077378909433
 20
45.836490151224027
 30
0
 11
63.98319542957573
 21
45.836490151224027
 31
0
  0
LINE
  5
15E
  8
0
  6
CONTINUOUS
 62
7
 10
44.426077378909433
 20
45.922273028806792
 30
0
 11
63.98319542957573
 21
45.922273028806792
 31
0
  0
LINE
  5
15F
  8
0
  6
CONTINUOUS
 62
7
 10
44.426077378909433
 20
46.048880287889681
 30
0
 11
63.98319542957573
 21
46.048880287889681
 31
0
  0
LINE
  5
160
  8
0
  6
CONTINUOUS
 62
7
 10
44.426077378909433
 20
46.132940617729759
 30
0
 11
63.98319542957573
 21
46.132940617729759
 31
0
  0
LINE
  5
161
  8
0
  6
CONTINUOUS
 62
7
 10
44.426077378909433
 20
46.218206730989714
 30
0
 11
63.98319542957573
 21
46.218206730989714
 31
0
  0
LINE
  5
162
  8
0
  6
CONTINUOUS
 62
7
 10
44.426077378909433
 20
46.345158499621171
 30
0
 11
63.98319542957573
 21
46.345158499621171
 31
0
  0
LINE
  5
163
  8
0
  6
CONTINUOUS
 62
7
 10
44.426077378909433
 20
46.429218829461263
 30
0
 11
63.941854283752747
 21
46.429218829461263
 31
0
  0
LINE
  5
164
  8
0
  6
CONTINUOUS
 62
7
 10
44.426077378909433
 20
46.514484942721182
 30
0
 11
63.560137703987039
 21
46.514484942721182
 31
0
  0
LINE
  5
165
  8
0
  6
CONTINUOUS
 62
7
 10
44.426077378909433
 20
46.641608966126952
 30
0
 11
63.221140308238468
 21
46.641608966126952
 31
0
  0
LINE
  5
166
  8
0
  6
CONTINUOUS
 62
7
 10
44.426077378909433
 20
46.725497041192789
 30
0
 11
62.840801766666893
 21
46.725497041192789
 31
0
  0
LINE
  5
167
  8
0
  6
CONTINUOUS
 62
7
 10
44.426077378909433
 20
46.810935409226943
 30
0
 11
62.459085186901191
 21
46.810935409226943
 31
0
  0
LINE
  5
168
  8
0
  6
CONTINUOUS
 62
7
 10
44.426077378909433
 20
46.937887177858407
 30
0
 11
62.078746645329637
 21
46.937887177858407
 31
0
  0
LINE
  5
169
  8
0
  6
CONTINUOUS
 62
7
 10
44.426077378909433
 20
47.021775252924257
 30
0
 11
61.697030065563929
 21
47.021775252924257
 31
0
  0
LINE
  5
16A
  8
0
  6
CONTINUOUS
 62
7
 10
44.426077378909433
 20
47.148554766781423
 30
0
 11
61.359410708009463
 21
47.148554766781423
 31
0
  0
LINE
  5
16B
  8
0
  6
CONTINUOUS
 62
7
 10
44.426077378909433
 20
47.233820880041371
 30
0
 11
60.977694128243783
 21
47.233820880041371
 31
0
  0
LINE
  5
16C
  8
0
  6
CONTINUOUS
 62
7
 10
44.426077378909433
 20
47.318225719430011
 30
0
 11
60.597355586672172
 21
47.318225719430011
 31
0
  0
LINE
  5
16D
  8
0
  6
CONTINUOUS
 62
7
 10
44.426077378909433
 20
47.446211016707011
 30
0
 11
60.215639006906493
 21
47.446211016707011
 31
0
  0
LINE
  5
16E
  8
0
  6
CONTINUOUS
 62
7
 10
44.426077378909433
 20
47.530271346547089
 30
0
 11
59.876641611157922
 21
47.530271346547089
 31
0
  0
LINE
  5
16F
  8
0
  6
CONTINUOUS
 62
7
 10
44.426077378909433
 20
47.614159421612953
 30
0
 11
59.496303069586347
 21
47.614159421612953
 31
0
  0
LINE
  5
170
  8
0
  6
CONTINUOUS
 62
7
 10
44.426077378909433
 20
47.7424892284385
 30
0
 11
59.114586489820667
 21
47.7424892284385
 31
0
  0
LINE
  5
171
  8
0
  6
CONTINUOUS
 62
7
 10
44.426077378909433
 20
47.826549558278579
 30
0
 11
58.734247948249113
 21
47.826549558278579
 31
0
  0
LINE
  5
172
  8
0
  6
CONTINUOUS
 62
7
 10
44.426077378909433
 20
47.910437633344422
 30
0
 11
58.395250552500492
 21
47.910437633344422
 31
0
  0
LINE
  5
173
  8
0
  6
CONTINUOUS
 62
7
 10
44.426077378909433
 20
48.038939694944219
 30
0
 11
58.01491201092891
 21
48.038939694944219
 31
0
  0
LINE
  5
174
  8
0
  6
CONTINUOUS
 62
7
 10
44.426077378909433
 20
48.12282777001014
 30
0
 11
57.633195431163223
 21
48.12282777001014
 31
0
  0
LINE
  5
175
  8
0
  6
CONTINUOUS
 62
7
 10
44.426077378909433
 20
48.249607283867292
 30
0
 11
57.252856889591648
 21
48.249607283867292
 31
0
  0
LINE
  5
176
  8
0
  6
CONTINUOUS
 62
7
 10
44.426077378909433
 20
48.334873397127247
 30
0
 11
56.871140309825982
 21
48.334873397127247
 31
0
  0
LINE
  5
177
  8
0
  6
CONTINUOUS
 62
7
 10
44.426077378909433
 20
48.419278236515858
 30
0
 11
56.533520952271481
 21
48.419278236515858
 31
0
  0
LINE
  5
178
  8
0
  6
CONTINUOUS
 62
7
 10
44.426077378909433
 20
48.545885495598782
 30
0
 11
56.1518043725058
 21
48.545885495598782
 31
0
  0
LINE
  5
179
  8
0
  6
CONTINUOUS
 62
7
 10
44.426077378909433
 20
48.631151608858723
 30
0
 11
55.771465830934211
 21
48.631151608858723
 31
0
  0
LINE
  5
17A
  8
0
  6
CONTINUOUS
 62
7
 10
44.426077378909433
 20
48.715556448247327
 30
0
 11
55.389749251168539
 21
48.715556448247327
 31
0
  0
LINE
  5
17B
  8
0
  6
CONTINUOUS
 62
7
 10
44.426077378909433
 20
48.842163707330251
 30
0
 11
55.050751855419954
 21
48.842163707330251
 31
0
  0
LINE
  5
17C
  8
0
  6
CONTINUOUS
 62
7
 10
44.426077378909433
 20
48.92760207536444
 30
0
 11
54.670413313848371
 21
48.92760207536444
 31
0
  0
LINE
  5
17D
  8
0
  6
CONTINUOUS
 62
7
 10
44.426077378909433
 20
49.011490150430291
 30
0
 11
54.288696734082691
 21
49.011490150430291
 31
0
  0
LINE
  5
17E
  8
0
  6
CONTINUOUS
 62
7
 10
44.426077378909433
 20
49.138441919061712
 30
0
 11
53.9083581925111
 21
49.138441919061712
 31
0
  0
LINE
  5
17F
  8
0
  6
CONTINUOUS
 62
7
 10
44.426077378909433
 20
49.22388028709593
 30
0
 11
53.526641612745429
 21
49.22388028709593
 31
0
  0
LINE
  5
180
  8
0
  6
CONTINUOUS
 62
7
 10
44.426077378909433
 20
49.3504875461789
 30
0
 11
53.189022255190963
 21
49.3504875461789
 31
0
  0
LINE
  5
181
  8
0
  6
CONTINUOUS
 62
7
 10
44.426077378909433
 20
49.434892385567473
 30
0
 11
52.807305675425283
 21
49.434892385567473
 31
0
  0
LINE
  5
182
  8
0
  6
CONTINUOUS
 62
7
 10
44.426077378909433
 20
49.520158498827413
 30
0
 11
52.426967133853687
 21
49.520158498827413
 31
0
  0
LINE
  5
183
  8
0
  6
CONTINUOUS
 62
7
 10
44.426077378909433
 20
49.646938012684643
 30
0
 11
52.045250554087993
 21
49.646938012684643
 31
0
  0
LINE
  5
184
  8
0
  6
CONTINUOUS
 62
7
 10
44.426077378909433
 20
49.730826087750472
 30
0
 11
51.706253158339422
 21
49.730826087750472
 31
0
  0
LINE
  5
185
  8
0
  6
CONTINUOUS
 62
7
 10
44.426077378909433
 20
49.816608965333216
 30
0
 11
51.325914616767818
 21
49.816608965333216
 31
0
  0
LINE
  5
186
  8
0
  6
CONTINUOUS
 62
7
 10
44.426077378909433
 20
49.943216224416112
 30
0
 11
50.94557607519625
 21
49.943216224416112
 31
0
  0
LINE
  5
187
  8
0
  6
CONTINUOUS
 62
7
 10
44.426077378909433
 20
50.027104299481927
 30
0
 11
50.563859495430577
 21
50.027104299481927
 31
0
  0
LINE
  5
188
  8
0
  6
CONTINUOUS
 62
7
 10
44.426077378909433
 20
50.112887177064678
 30
0
 11
50.224862099681971
 21
50.112887177064678
 31
0
  0
LINE
  5
189
  8
0
  6
CONTINUOUS
 62
7
 10
44.426077378909433
 20
50.2394944361476
 30
0
 11
49.8445235581104
 21
50.2394944361476
 31
0
  0
LINE
  5
18A
  8
0
  6
CONTINUOUS
 62
7
 10
44.426077378909433
 20
50.3235547659877
 30
0
 11
49.462806978344709
 21
50.3235547659877
 31
0
  0
LINE
  5
18B
  8
0
  6
CONTINUOUS
 62
7
 10
44.426077378909433
 20
50.4088208792476
 30
0
 11
49.082468436773148
 21
50.4088208792476
 31
0
  0
LINE
  5
18C
  8
0
  6
CONTINUOUS
 62
7
 10
44.426077378909433
 20
50.535944902653327
 30
0
 11
48.700751857007468
 21
50.535944902653327
 31
0
  0
LINE
  5
18D
  8
0
  6
CONTINUOUS
 62
7
 10
44.426077378909433
 20
50.621211015913268
 30
0
 11
48.363132499452973
 21
50.621211015913268
 31
0
  0
LINE
  5
18E
  8
0
  6
CONTINUOUS
 62
7
 10
44.426077378909433
 20
50.747818274996241
 30
0
 11
47.981415919687279
 21
50.747818274996241
 31
0
  0
LINE
  5
18F
  8
0
  6
CONTINUOUS
 62
7
 10
44.426077378909433
 20
50.83222311438481
 30
0
 11
47.601077378115683
 21
50.83222311438481
 31
0
  0
LINE
  5
190
  8
0
  6
CONTINUOUS
 62
7
 10
44.426077378909433
 20
50.91748922764473
 30
0
 11
47.219360798350017
 21
50.91748922764473
 31
0
  0
LINE
  5
191
  8
0
  6
CONTINUOUS
 62
7
 10
44.426077378909433
 20
51.044268741501973
 30
0
 11
46.880363402601454
 21
51.044268741501973
 31
0
  0
LINE
  5
192
  8
0
  6
CONTINUOUS
 62
7
 10
44.426077378909433
 20
51.1281568165678
 30
0
 11
46.500024861029843
 21
51.1281568165678
 31
0
  0
LINE
  5
193
  8
0
  6
CONTINUOUS
 62
7
 10
44.426077378909433
 20
51.21393969415049
 30
0
 11
46.118308281264149
 21
51.21393969415049
 31
0
  0
LINE
  5
194
  8
0
  6
CONTINUOUS
 62
7
 10
44.426077378909433
 20
51.340546953233449
 30
0
 11
45.7379697396926
 21
51.340546953233449
 31
0
  0
LINE
  5
195
  8
0
  6
CONTINUOUS
 62
7
 10
44.426077378909433
 20
51.424607283073541
 30
0
 11
45.398972343943989
 21
51.424607283073541
 31
0
  0
LINE
  5
196
  8
0
  6
CONTINUOUS
 62
7
 10
44.426077378909433
 20
51.509873396333468
 30
0
 11
45.018633802372413
 21
51.509873396333468
 31
0
  0
LINE
  5
197
  8
0
  6
CONTINUOUS
 62
7
 10
44.426077378909433
 20
51.636825164964932
 30
0
 11
44.636917222606769
 21
51.636825164964932
 31
0
  0
LINE
  5
198
  8
0
  6
CONTINUOUS
 62
7
 10
61.78246843359814
 20
37.751540066439752
 30
0
 11
62.58724273895249
 21
37.751540066439752
 31
0
  0
LINE
  5
199
  8
0
  6
CONTINUOUS
 62
7
 10
61.909247947455349
 20
37.666273953179811
 30
0
 11
62.459085186901191
 21
37.666273953179811
 31
0
  0
LINE
  5
19A
  8
0
  6
CONTINUOUS
 62
7
 10
62.078746645329637
 20
37.5394944393226
 30
0
 11
62.332305673044033
 21
37.5394944393226
 31
0
  0
LINE
  5
19B
  8
0
  6
CONTINUOUS
 62
7
 10
61.739749249581052
 20
37.835944905828342
 30
0
 11
62.332305673044033
 21
37.835944905828342
 31
0
  0
LINE
  5
19C
  8
0
  6
CONTINUOUS
 62
7
 10
61.697030065563929
 20
37.9625521649113
 30
0
 11
62.205526159186817
 21
37.9625521649113
 31
0
  0
LINE
  5
19D
  8
0
  6
CONTINUOUS
 62
7
 10
61.655688919740953
 20
38.047818278171221
 30
0
 11
62.078746645329637
 21
38.047818278171221
 31
0
  0
LINE
  5
19E
  8
0
  6
CONTINUOUS
 62
7
 10
61.655688919740953
 20
38.132223117559818
 30
0
 11
62.036027461312543
 21
38.132223117559818
 31
0
  0
LINE
  5
19F
  8
0
  6
CONTINUOUS
 62
7
 10
61.655688919740953
 20
38.258830376642777
 30
0
 11
61.9933082772954
 21
38.258830376642777
 31
0
  0
LINE
  5
1A0
  8
0
  6
CONTINUOUS
 62
7
 10
61.739749249581052
 20
38.344268744676967
 30
0
 11
61.951967131472422
 21
38.344268744676967
 31
0
  0
LINE
  5
1A1
  8
0
  6
CONTINUOUS
 62
7
 10
61.825187617615263
 20
38.428156819742789
 30
0
 11
61.9933082772954
 21
38.428156819742789
 31
0
  0
LINE
  5
1A2
  8
0
  6
CONTINUOUS
 62
7
 10
61.951967131472422
 20
38.555108588374253
 30
0
 11
61.9933082772954
 21
38.555108588374253
 31
0
  0
LINE
  5
1A3
  8
0
  6
CONTINUOUS
 62
7
 10
62.121465829346718
 20
38.258830376642777
 30
0
 11
62.883520950683973
 21
38.258830376642777
 31
0
  0
LINE
  5
1A4
  8
0
  6
CONTINUOUS
 62
7
 10
62.162806975169708
 20
38.174942301576941
 30
0
 11
62.883520950683973
 21
38.174942301576941
 31
0
  0
LINE
  5
1A5
  8
0
  6
CONTINUOUS
 62
7
 10
62.248245343203934
 20
38.089159423994211
 30
0
 11
62.883520950683973
 21
38.089159423994211
 31
0
  0
LINE
  5
1A6
  8
0
  6
CONTINUOUS
 62
7
 10
62.332305673044033
 20
37.9625521649113
 30
0
 11
62.840801766666893
 21
37.9625521649113
 31
0
  0
LINE
  5
1A7
  8
0
  6
CONTINUOUS
 62
7
 10
62.5445235549354
 20
37.8784918350712
 30
0
 11
62.7140222528097
 21
37.8784918350712
 31
0
  0
LINE
  5
1A8
  8
0
  6
CONTINUOUS
 62
7
 10
62.078746645329637
 20
38.385437635725673
 30
0
 11
62.840801766666893
 21
38.385437635725673
 31
0
  0
LINE
  5
1A9
  8
0
  6
CONTINUOUS
 62
7
 10
62.078746645329637
 20
38.4712205133084
 30
0
 11
62.798082582649812
 21
38.4712205133084
 31
0
  0
LINE
  5
1AA
  8
0
  6
CONTINUOUS
 62
7
 10
62.078746645329637
 20
38.597827772391383
 30
0
 11
62.7140222528097
 21
38.597827772391383
 31
0
  0
LINE
  5
1AB
  8
0
  6
CONTINUOUS
 62
7
 10
62.121465829346718
 20
38.6818881022314
 30
0
 11
62.58724273895249
 21
38.6818881022314
 31
0
  0
LINE
  5
1AC
  8
0
  6
CONTINUOUS
 62
7
 10
62.078746645329637
 20
38.640546956408443
 30
0
 11
61.9933082772954
 21
38.597827772391383
 31
0
  0
LINE
  5
1AD
  8
0
  6
CONTINUOUS
 62
7
 10
61.9933082772954
 20
38.597827772391383
 30
0
 11
61.9933082772954
 21
38.51393969732549
 31
0
  0
LINE
  5
1AE
  8
0
  6
CONTINUOUS
 62
7
 10
61.9933082772954
 20
38.51393969732549
 30
0
 11
61.9933082772954
 21
38.4712205133084
 31
0
  0
LINE
  5
1AF
  8
0
  6
CONTINUOUS
 62
7
 10
61.9933082772954
 20
38.4712205133084
 30
0
 11
61.951967131472422
 21
38.385437635725673
 31
0
  0
LINE
  5
1B0
  8
0
  6
CONTINUOUS
 62
7
 10
61.951967131472422
 20
38.385437635725673
 30
0
 11
61.9933082772954
 21
38.301549560659844
 31
0
  0
LINE
  5
1B1
  8
0
  6
CONTINUOUS
 62
7
 10
61.9933082772954
 20
38.301549560659844
 30
0
 11
61.9933082772954
 21
38.258830376642777
 31
0
  0
LINE
  5
1B2
  8
0
  6
CONTINUOUS
 62
7
 10
61.9933082772954
 20
38.258830376642777
 30
0
 11
62.036027461312543
 21
38.174942301576941
 31
0
  0
LINE
  5
1B3
  8
0
  6
CONTINUOUS
 62
7
 10
62.036027461312543
 20
38.174942301576941
 30
0
 11
62.078746645329637
 21
38.089159423994211
 31
0
  0
LINE
  5
1B4
  8
0
  6
CONTINUOUS
 62
7
 10
62.078746645329637
 20
38.089159423994211
 30
0
 11
62.121465829346718
 21
38.00527134892836
 31
0
  0
LINE
  5
1B5
  8
0
  6
CONTINUOUS
 62
7
 10
62.121465829346718
 20
38.00527134892836
 30
0
 11
62.162806975169708
 21
37.9625521649113
 31
0
  0
LINE
  5
1B6
  8
0
  6
CONTINUOUS
 62
7
 10
62.162806975169708
 20
37.9625521649113
 30
0
 11
62.248245343203934
 21
37.8784918350712
 31
0
  0
LINE
  5
1B7
  8
0
  6
CONTINUOUS
 62
7
 10
62.248245343203934
 20
37.8784918350712
 30
0
 11
62.332305673044033
 21
37.835944905828342
 31
0
  0
LINE
  5
1B8
  8
0
  6
CONTINUOUS
 62
7
 10
62.332305673044033
 20
37.835944905828342
 30
0
 11
62.3750248570611
 21
37.793225721811261
 31
0
  0
LINE
  5
1B9
  8
0
  6
CONTINUOUS
 62
7
 10
62.3750248570611
 20
37.793225721811261
 30
0
 11
62.459085186901191
 21
37.793225721811261
 31
0
  0
LINE
  5
1BA
  8
0
  6
CONTINUOUS
 62
7
 10
62.459085186901191
 20
37.793225721811261
 30
0
 11
62.5445235549354
 21
37.793225721811261
 31
0
  0
LINE
  5
1BB
  8
0
  6
CONTINUOUS
 62
7
 10
62.5445235549354
 20
37.793225721811261
 30
0
 11
62.58724273895249
 21
37.793225721811261
 31
0
  0
LINE
  5
1BC
  8
0
  6
CONTINUOUS
 62
7
 10
62.58724273895249
 20
37.793225721811261
 30
0
 11
62.671303068792611
 21
37.793225721811261
 31
0
  0
LINE
  5
1BD
  8
0
  6
CONTINUOUS
 62
7
 10
62.671303068792611
 20
37.793225721811261
 30
0
 11
62.7140222528097
 21
37.835944905828342
 31
0
  0
LINE
  5
1BE
  8
0
  6
CONTINUOUS
 62
7
 10
63.010300464541167
 20
37.708820882422621
 30
0
 11
62.58724273895249
 21
37.327104302656949
 31
0
  0
LINE
  5
1BF
  8
0
  6
CONTINUOUS
 62
7
 10
61.951967131472422
 20
38.936825168139912
 30
0
 11
61.528909405883752
 21
38.597827772391383
 31
0
  0
LINE
  5
1C0
  8
0
  6
CONTINUOUS
 62
7
 10
61.528909405883752
 20
38.597827772391383
 30
0
 11
61.443471037849562
 21
38.51393969732549
 31
0
  0
LINE
  5
1C1
  8
0
  6
CONTINUOUS
 62
7
 10
61.443471037849562
 20
38.51393969732549
 30
0
 11
61.443471037849562
 21
38.428156819742789
 31
0
  0
LINE
  5
1C2
  8
0
  6
CONTINUOUS
 62
7
 10
61.443471037849562
 20
38.428156819742789
 30
0
 11
61.400751853832467
 21
38.344268744676967
 31
0
  0
LINE
  5
1C3
  8
0
  6
CONTINUOUS
 62
7
 10
61.400751853832467
 20
38.344268744676967
 30
0
 11
61.400751853832467
 21
38.217489230819737
 31
0
  0
LINE
  5
1C4
  8
0
  6
CONTINUOUS
 62
7
 10
61.400751853832467
 20
38.217489230819737
 30
0
 11
61.400751853832467
 21
38.089159423994211
 31
0
  0
LINE
  5
1C5
  8
0
  6
CONTINUOUS
 62
7
 10
61.400751853832467
 20
38.089159423994211
 30
0
 11
61.443471037849562
 21
37.9625521649113
 31
0
  0
LINE
  5
1C6
  8
0
  6
CONTINUOUS
 62
7
 10
61.443471037849562
 20
37.9625521649113
 30
0
 11
61.486190221866643
 21
37.835944905828342
 31
0
  0
LINE
  5
1C7
  8
0
  6
CONTINUOUS
 62
7
 10
61.486190221866643
 20
37.835944905828342
 30
0
 11
61.528909405883752
 21
37.708820882422621
 31
0
  0
LINE
  5
1C8
  8
0
  6
CONTINUOUS
 62
7
 10
61.528909405883752
 20
37.708820882422621
 30
0
 11
61.612969735723851
 21
37.623554769162681
 31
0
  0
LINE
  5
1C9
  8
0
  6
CONTINUOUS
 62
7
 10
61.612969735723851
 20
37.623554769162681
 30
0
 11
61.739749249581052
 21
37.496775255305529
 31
0
  0
LINE
  5
1CA
  8
0
  6
CONTINUOUS
 62
7
 10
61.739749249581052
 20
37.496775255305529
 30
0
 11
61.825187617615263
 21
37.412887180239693
 31
0
  0
LINE
  5
1CB
  8
0
  6
CONTINUOUS
 62
7
 10
61.825187617615263
 20
37.412887180239693
 30
0
 11
61.951967131472422
 21
37.327104302656949
 31
0
  0
LINE
  5
1CC
  8
0
  6
CONTINUOUS
 62
7
 10
61.951967131472422
 20
37.327104302656949
 30
0
 11
62.078746645329637
 21
37.285935411608193
 31
0
  0
LINE
  5
1CD
  8
0
  6
CONTINUOUS
 62
7
 10
62.078746645329637
 20
37.285935411608193
 30
0
 11
62.162806975169708
 21
37.24321622759112
 31
0
  0
LINE
  5
1CE
  8
0
  6
CONTINUOUS
 62
7
 10
62.162806975169708
 20
37.24321622759112
 30
0
 11
62.289586489026931
 21
37.24321622759112
 31
0
  0
LINE
  5
1CF
  8
0
  6
CONTINUOUS
 62
7
 10
62.289586489026931
 20
37.24321622759112
 30
0
 11
62.41774404107818
 21
37.24321622759112
 31
0
  0
LINE
  5
1D0
  8
0
  6
CONTINUOUS
 62
7
 10
62.41774404107818
 20
37.24321622759112
 30
0
 11
62.501804370918293
 21
37.285935411608193
 31
0
  0
LINE
  5
1D1
  8
0
  6
CONTINUOUS
 62
7
 10
62.501804370918293
 20
37.285935411608193
 30
0
 11
62.58724273895249
 21
37.327104302656949
 31
0
  0
LINE
  5
1D2
  8
0
  6
CONTINUOUS
 62
7
 10
63.010300464541167
 20
37.708820882422621
 30
0
 11
63.051641610364172
 21
37.751540066439752
 31
0
  0
LINE
  5
1D3
  8
0
  6
CONTINUOUS
 62
7
 10
63.051641610364172
 20
37.751540066439752
 30
0
 11
63.137079978398383
 21
37.835944905828342
 31
0
  0
LINE
  5
1D4
  8
0
  6
CONTINUOUS
 62
7
 10
63.137079978398383
 20
37.835944905828342
 30
0
 11
63.137079978398383
 21
37.9625521649113
 31
0
  0
LINE
  5
1D5
  8
0
  6
CONTINUOUS
 62
7
 10
63.137079978398383
 20
37.9625521649113
 30
0
 11
63.179799162415492
 21
38.089159423994211
 31
0
  0
LINE
  5
1D6
  8
0
  6
CONTINUOUS
 62
7
 10
63.179799162415492
 20
38.089159423994211
 30
0
 11
63.137079978398383
 21
38.174942301576941
 31
0
  0
LINE
  5
1D7
  8
0
  6
CONTINUOUS
 62
7
 10
63.137079978398383
 20
38.174942301576941
 30
0
 11
63.137079978398383
 21
38.301549560659844
 31
0
  0
LINE
  5
1D8
  8
0
  6
CONTINUOUS
 62
7
 10
63.137079978398383
 20
38.301549560659844
 30
0
 11
63.051641610364172
 21
38.428156819742789
 31
0
  0
LINE
  5
1D9
  8
0
  6
CONTINUOUS
 62
7
 10
63.051641610364172
 20
38.428156819742789
 30
0
 11
63.010300464541167
 21
38.555108588374253
 31
0
  0
LINE
  5
1DA
  8
0
  6
CONTINUOUS
 62
7
 10
63.010300464541167
 20
38.555108588374253
 30
0
 11
62.924862096507
 21
38.6818881022314
 31
0
  0
LINE
  5
1DB
  8
0
  6
CONTINUOUS
 62
7
 10
62.924862096507
 20
38.6818881022314
 30
0
 11
62.840801766666893
 21
38.767154215491352
 31
0
  0
LINE
  5
1DC
  8
0
  6
CONTINUOUS
 62
7
 10
62.840801766666893
 20
38.767154215491352
 30
0
 11
62.7140222528097
 21
38.851559054879992
 31
0
  0
LINE
  5
1DD
  8
0
  6
CONTINUOUS
 62
7
 10
62.7140222528097
 20
38.851559054879992
 30
0
 11
62.58724273895249
 21
38.936825168139912
 31
0
  0
LINE
  5
1DE
  8
0
  6
CONTINUOUS
 62
7
 10
62.58724273895249
 20
38.936825168139912
 30
0
 11
62.501804370918293
 21
38.979544352157042
 31
0
  0
LINE
  5
1DF
  8
0
  6
CONTINUOUS
 62
7
 10
62.501804370918293
 20
38.979544352157042
 30
0
 11
62.3750248570611
 21
39.020885497980032
 31
0
  0
LINE
  5
1E0
  8
0
  6
CONTINUOUS
 62
7
 10
62.3750248570611
 20
39.020885497980032
 30
0
 11
62.248245343203934
 21
39.063604681997113
 31
0
  0
LINE
  5
1E1
  8
0
  6
CONTINUOUS
 62
7
 10
62.248245343203934
 20
39.063604681997113
 30
0
 11
62.162806975169708
 21
39.020885497980032
 31
0
  0
LINE
  5
1E2
  8
0
  6
CONTINUOUS
 62
7
 10
62.162806975169708
 20
39.020885497980032
 30
0
 11
62.036027461312543
 21
39.020885497980032
 31
0
  0
LINE
  5
1E3
  8
0
  6
CONTINUOUS
 62
7
 10
62.036027461312543
 20
39.020885497980032
 30
0
 11
61.951967131472422
 21
38.936825168139912
 31
0
  0
LINE
  5
1E4
  8
0
  6
CONTINUOUS
 62
7
 10
53.358520953065209
 20
25.897827775566331
 30
0
 11
58.311190222660379
 21
25.897827775566331
 31
0
  0
LINE
  5
1E5
  8
0
  6
CONTINUOUS
 62
7
 10
53.23036340101396
 20
25.813939700500509
 30
0
 11
58.18441070880322
 21
25.813939700500509
 31
0
  0
LINE
  5
1E6
  8
0
  6
CONTINUOUS
 62
7
 10
53.146303071173861
 20
25.728156822917811
 30
0
 11
58.056253156751922
 21
25.728156822917811
 31
0
  0
LINE
  5
1E7
  8
0
  6
CONTINUOUS
 62
7
 10
53.019523557316639
 20
25.601549563834869
 30
0
 11
57.929473642894713
 21
25.601549563834869
 31
0
  0
LINE
  5
1E8
  8
0
  6
CONTINUOUS
 62
7
 10
52.892744043459459
 20
25.51748923399477
 30
0
 11
57.802694129037533
 21
25.51748923399477
 31
0
  0
LINE
  5
1E9
  8
0
  6
CONTINUOUS
 62
7
 10
52.76458649140816
 20
25.432223120734839
 30
0
 11
57.675914615180332
 21
25.432223120734839
 31
0
  0
LINE
  5
1EA
  8
0
  6
CONTINUOUS
 62
7
 10
52.637806977550959
 20
25.305271352103372
 30
0
 11
57.59185428534024
 21
25.305271352103372
 31
0
  0
LINE
  5
1EB
  8
0
  6
CONTINUOUS
 62
7
 10
52.511027463693772
 20
25.221211022263279
 30
0
 11
57.46369673328892
 21
25.221211022263279
 31
0
  0
LINE
  5
1EC
  8
0
  6
CONTINUOUS
 62
7
 10
52.384247949836571
 20
25.135944909003332
 30
0
 11
57.336917219431747
 21
25.135944909003332
 31
0
  0
LINE
  5
1ED
  8
0
  6
CONTINUOUS
 62
7
 10
52.2574684359794
 20
25.008820885597611
 30
0
 11
57.21013770557456
 21
25.008820885597611
 31
0
  0
LINE
  5
1EE
  8
0
  6
CONTINUOUS
 62
7
 10
52.1720300679452
 20
24.923554772337688
 30
0
 11
57.083358191717338
 21
24.923554772337688
 31
0
  0
LINE
  5
1EF
  8
0
  6
CONTINUOUS
 62
7
 10
52.2574684359794
 20
24.839494442497589
 30
0
 11
56.956578677860144
 21
24.839494442497589
 31
0
  0
LINE
  5
1F0
  8
0
  6
CONTINUOUS
 62
7
 10
52.637806977550959
 20
24.712887183414669
 30
0
 11
56.829799164002978
 21
24.712887183414669
 31
0
  0
LINE
  5
1F1
  8
0
  6
CONTINUOUS
 62
7
 10
53.019523557316639
 20
24.627104305831949
 30
0
 11
56.744360795968767
 21
24.627104305831949
 31
0
  0
LINE
  5
1F2
  8
0
  6
CONTINUOUS
 62
7
 10
53.3998620988882
 20
24.500497046749011
 30
0
 11
56.617581282111587
 21
24.500497046749011
 31
0
  0
LINE
  5
1F3
  8
0
  6
CONTINUOUS
 62
7
 10
53.738859494636841
 20
24.416608971683178
 30
0
 11
56.490801768254357
 21
24.416608971683178
 31
0
  0
LINE
  5
1F4
  8
0
  6
CONTINUOUS
 62
7
 10
54.1205760744025
 20
24.33082609410048
 30
0
 11
56.364022254397213
 21
24.33082609410048
 31
0
  0
LINE
  5
1F5
  8
0
  6
CONTINUOUS
 62
7
 10
54.500914615974089
 20
24.204218835017532
 30
0
 11
56.237242740540012
 21
24.204218835017532
 31
0
  0
LINE
  5
1F6
  8
0
  6
CONTINUOUS
 62
7
 10
54.881253157545672
 20
24.12015850517745
 30
0
 11
56.109085188488713
 21
24.12015850517745
 31
0
  0
LINE
  5
1F7
  8
0
  6
CONTINUOUS
 62
7
 10
55.220250553294242
 20
24.034892391917509
 30
0
 11
55.982305674631519
 21
24.034892391917509
 31
0
  0
LINE
  5
1F8
  8
0
  6
CONTINUOUS
 62
7
 10
55.601967133059922
 20
23.907940623286041
 30
0
 11
55.855526160774318
 21
23.907940623286041
 31
0
  0
LINE
  5
1F9
  8
0
  6
CONTINUOUS
 62
7
 10
53.485300466922432
 20
26.02460728942356
 30
0
 11
58.395250552500492
 21
26.02460728942356
 31
0
  0
LINE
  5
1FA
  8
0
  6
CONTINUOUS
 62
7
 10
53.612079980779619
 20
26.10987340268348
 30
0
 11
58.564749250374788
 21
26.10987340268348
 31
0
  0
LINE
  5
1FB
  8
0
  6
CONTINUOUS
 62
7
 10
53.738859494636841
 20
26.23682517131493
 30
0
 11
58.650187618409
 21
26.23682517131493
 31
0
  0
LINE
  5
1FC
  8
0
  6
CONTINUOUS
 62
7
 10
53.865639008493993
 20
26.320885501155018
 30
0
 11
58.776967132266158
 21
26.320885501155018
 31
0
  0
LINE
  5
1FD
  8
0
  6
CONTINUOUS
 62
7
 10
53.992418522351208
 20
26.406151614414949
 30
0
 11
58.903746646123381
 21
26.406151614414949
 31
0
  0
LINE
  5
1FE
  8
0
  6
CONTINUOUS
 62
7
 10
54.0778568903854
 20
26.533275637820669
 30
0
 11
59.03052615998056
 21
26.533275637820669
 31
0
  0
LINE
  5
1FF
  8
0
  6
CONTINUOUS
 62
7
 10
54.204636404242592
 20
26.61716371288648
 30
0
 11
59.15730567383779
 21
26.61716371288648
 31
0
  0
LINE
  5
200
  8
0
  6
CONTINUOUS
 62
7
 10
54.331415918099779
 20
26.7026020809207
 30
0
 11
59.284085187694963
 21
26.7026020809207
 31
0
  0
LINE
  5
201
  8
0
  6
CONTINUOUS
 62
7
 10
54.458195431956959
 20
26.829553849552159
 30
0
 11
59.369523555729153
 21
26.829553849552159
 31
0
  0
LINE
  5
202
  8
0
  6
CONTINUOUS
 62
7
 10
54.5849749458142
 20
26.913441924618009
 30
0
 11
58.18441070880322
 21
26.913441924618009
 31
0
  0
LINE
  5
203
  8
0
  6
CONTINUOUS
 62
7
 10
58.691528764231968
 20
26.913441924618009
 30
0
 11
59.496303069586347
 21
26.913441924618009
 31
0
  0
LINE
  5
204
  8
0
  6
CONTINUOUS
 62
7
 10
54.713132497865459
 20
26.9988802926522
 30
0
 11
58.098972340769031
 21
26.9988802926522
 31
0
  0
LINE
  5
205
  8
0
  6
CONTINUOUS
 62
7
 10
58.776967132266158
 20
26.9988802926522
 30
0
 11
59.623082583443562
 21
26.9988802926522
 31
0
  0
LINE
  5
206
  8
0
  6
CONTINUOUS
 62
7
 10
54.797192827705572
 20
27.125487551735119
 30
0
 11
58.141691524786111
 21
27.125487551735119
 31
0
  0
LINE
  5
207
  8
0
  6
CONTINUOUS
 62
7
 10
58.734247948249113
 20
27.125487551735119
 30
0
 11
59.749862097300742
 21
27.125487551735119
 31
0
  0
LINE
  5
208
  8
0
  6
CONTINUOUS
 62
7
 10
54.966691525579861
 20
27.209892391123748
 30
0
 11
59.876641611157922
 21
27.209892391123748
 31
0
  0
LINE
  5
209
  8
0
  6
CONTINUOUS
 62
7
 10
55.050751855419954
 20
27.3378776884008
 30
0
 11
60.004799163209221
 21
27.3378776884008
 31
0
  0
LINE
  5
20A
  8
0
  6
CONTINUOUS
 62
7
 10
55.178909407471231
 20
27.42193801824088
 30
0
 11
60.131578677066393
 21
27.42193801824088
 31
0
  0
LINE
  5
20B
  8
0
  6
CONTINUOUS
 62
7
 10
55.305688921328432
 20
27.5058260933067
 30
0
 11
60.215639006906493
 21
27.5058260933067
 31
0
  0
LINE
  5
20C
  8
0
  6
CONTINUOUS
 62
7
 10
55.43246843518564
 20
27.634155900132249
 30
0
 11
60.342418520763722
 21
27.634155900132249
 31
0
  0
LINE
  5
20D
  8
0
  6
CONTINUOUS
 62
7
 10
55.559247949042842
 20
27.71821622997237
 30
0
 11
60.470576072815021
 21
27.71821622997237
 31
0
  0
LINE
  5
20E
  8
0
  6
CONTINUOUS
 62
7
 10
55.686027462900022
 20
27.802104305038188
 30
0
 11
60.597355586672172
 21
27.802104305038188
 31
0
  0
LINE
  5
20F
  8
0
  6
CONTINUOUS
 62
7
 10
55.771465830934211
 20
27.93060636663801
 30
0
 11
60.724135100529388
 21
27.93060636663801
 31
0
  0
LINE
  5
210
  8
0
  6
CONTINUOUS
 62
7
 10
55.898245344791441
 20
28.014494441703832
 30
0
 11
60.8509146143866
 21
28.014494441703832
 31
0
  0
LINE
  5
211
  8
0
  6
CONTINUOUS
 62
7
 10
56.0250248586486
 20
28.098554771543931
 30
0
 11
60.977694128243783
 21
28.098554771543931
 31
0
  0
LINE
  5
212
  8
0
  6
CONTINUOUS
 62
7
 10
56.1518043725058
 20
28.22654006882097
 30
0
 11
61.063132496277973
 21
28.22654006882097
 31
0
  0
LINE
  5
213
  8
0
  6
CONTINUOUS
 62
7
 10
56.278583886363
 20
28.310944908209589
 30
0
 11
61.189912010135153
 21
28.310944908209589
 31
0
  0
LINE
  5
214
  8
0
  6
CONTINUOUS
 62
7
 10
56.4053634002202
 20
28.43755216729252
 30
0
 11
61.316691523992382
 21
28.43755216729252
 31
0
  0
LINE
  5
215
  8
0
  6
CONTINUOUS
 62
7
 10
56.533520952271481
 20
28.52281828055245
 30
0
 11
61.443471037849562
 21
28.52281828055245
 31
0
  0
LINE
  5
216
  8
0
  6
CONTINUOUS
 62
7
 10
56.617581282111587
 20
28.607223119941072
 30
0
 11
61.570250551706742
 21
28.607223119941072
 31
0
  0
LINE
  5
217
  8
0
  6
CONTINUOUS
 62
7
 10
56.744360795968767
 20
28.73383037902401
 30
0
 11
61.697030065563929
 21
28.73383037902401
 31
0
  0
LINE
  5
218
  8
0
  6
CONTINUOUS
 62
7
 10
56.871140309825982
 20
28.819268747058221
 30
0
 11
61.825187617615263
 21
28.819268747058221
 31
0
  0
LINE
  5
219
  8
0
  6
CONTINUOUS
 62
7
 10
56.997919823683148
 20
28.903156822124028
 30
0
 11
61.951967131472422
 21
28.903156822124028
 31
0
  0
LINE
  5
21A
  8
0
  6
CONTINUOUS
 62
7
 10
57.126077375734468
 20
29.030108590755511
 30
0
 11
61.612969735723851
 21
29.030108590755511
 31
0
  0
LINE
  5
21B
  8
0
  6
CONTINUOUS
 62
7
 10
57.252856889591648
 20
29.11554695878969
 30
0
 11
61.231253155958171
 21
29.11554695878969
 31
0
  0
LINE
  5
21C
  8
0
  6
CONTINUOUS
 62
7
 10
57.379636403448842
 20
29.1996072886298
 30
0
 11
60.8509146143866
 21
29.1996072886298
 31
0
  0
LINE
  5
21D
  8
0
  6
CONTINUOUS
 62
7
 10
57.46369673328892
 20
29.326559057261221
 30
0
 11
60.511917218638011
 21
29.326559057261221
 31
0
  0
LINE
  5
21E
  8
0
  6
CONTINUOUS
 62
7
 10
57.59185428534024
 20
29.411825170521169
 30
0
 11
60.131578677066393
 21
29.411825170521169
 31
0
  0
LINE
  5
21F
  8
0
  6
CONTINUOUS
 62
7
 10
57.718633799197427
 20
29.538604684378331
 30
0
 11
59.749862097300742
 21
29.538604684378331
 31
0
  0
LINE
  5
220
  8
0
  6
CONTINUOUS
 62
7
 10
57.845413313054607
 20
29.622492759444238
 30
0
 11
59.369523555729153
 21
29.622492759444238
 31
0
  0
LINE
  5
221
  8
0
  6
CONTINUOUS
 62
7
 10
57.972192826911822
 20
29.708275637026919
 30
0
 11
59.03052615998056
 21
29.708275637026919
 31
0
  0
LINE
  5
222
  8
0
  6
CONTINUOUS
 62
7
 10
58.098972340769031
 20
29.834882896109882
 30
0
 11
58.650187618409
 21
29.834882896109882
 31
0
  0
LINE
  5
223
  8
0
  6
CONTINUOUS
 62
7
 10
58.225751854626218
 20
29.918770971175711
 30
0
 11
58.26847103864332
 21
29.918770971175711
 31
0
  0
LINE
  5
224
  8
0
  6
CONTINUOUS
 62
7
 10
53.44258128290533
 20
24.077611575934611
 30
0
 11
53.822919824476891
 21
24.077611575934611
 31
0
  0
LINE
  5
225
  8
0
  6
CONTINUOUS
 62
7
 10
53.822919824476891
 20
23.993206736545961
 30
0
 11
54.204636404242592
 21
23.993206736545961
 31
0
  0
LINE
  5
226
  8
0
  6
CONTINUOUS
 62
7
 10
54.204636404242592
 20
23.907940623286041
 30
0
 11
54.5849749458142
 21
23.907940623286041
 31
0
  0
LINE
  5
227
  8
0
  6
CONTINUOUS
 62
7
 10
54.5849749458142
 20
23.781161109428869
 30
0
 11
54.966691525579861
 21
23.781161109428869
 31
0
  0
LINE
  5
228
  8
0
  6
CONTINUOUS
 62
7
 10
54.923972341562759
 20
23.697273034363
 30
0
 11
55.305688921328432
 21
23.697273034363
 31
0
  0
LINE
  5
229
  8
0
  6
CONTINUOUS
 62
7
 10
55.305688921328432
 20
23.568770972763179
 30
0
 11
55.347030067151437
 21
23.568770972763179
 31
0
  0
LINE
  5
22A
  8
0
  6
CONTINUOUS
 62
7
 10
53.062242741333762
 20
24.204218835017532
 30
0
 11
53.485300466922432
 21
24.204218835017532
 31
0
  0
LINE
  5
22B
  8
0
  6
CONTINUOUS
 62
7
 10
52.72324534558517
 20
24.28948494827748
 30
0
 11
53.103583887156738
 21
24.28948494827748
 31
0
  0
LINE
  5
22C
  8
0
  6
CONTINUOUS
 62
7
 10
52.34152876581949
 20
24.37388978766608
 30
0
 11
52.72324534558517
 21
24.37388978766608
 31
0
  0
LINE
  5
22D
  8
0
  6
CONTINUOUS
 62
7
 10
51.961190224247893
 20
24.500497046749011
 30
0
 11
52.34152876581949
 21
24.500497046749011
 31
0
  0
LINE
  5
22E
  8
0
  6
CONTINUOUS
 62
7
 10
51.579473644482214
 20
24.585935414783211
 30
0
 11
51.961190224247893
 21
24.585935414783211
 31
0
  0
LINE
  5
22F
  8
0
  6
CONTINUOUS
 62
7
 10
51.5381324986592
 20
24.669823489849051
 30
0
 11
51.6221928284993
 21
24.669823489849051
 31
0
  0
LINE
  5
230
  8
0
  6
CONTINUOUS
 62
7
 10
52.08796973810508
 20
23.611490156780281
 30
0
 11
54.374135102116881
 21
23.611490156780281
 31
0
  0
LINE
  5
231
  8
0
  6
CONTINUOUS
 62
7
 10
52.46830827967667
 20
23.527602081714459
 30
0
 11
54.754473643688463
 21
23.527602081714459
 31
0
  0
LINE
  5
232
  8
0
  6
CONTINUOUS
 62
7
 10
52.85002485944235
 20
23.442163713680252
 30
0
 11
55.136190223454143
 21
23.442163713680252
 31
0
  0
LINE
  5
233
  8
0
  6
CONTINUOUS
 62
7
 10
53.189022255190963
 20
23.315556454597321
 30
0
 11
55.220250553294242
 21
23.315556454597321
 31
0
  0
LINE
  5
234
  8
0
  6
CONTINUOUS
 62
7
 10
53.569360796762531
 20
23.231151615208709
 30
0
 11
55.09347103943707
 21
23.231151615208709
 31
0
  0
LINE
  5
235
  8
0
  6
CONTINUOUS
 62
7
 10
53.951077376528211
 20
23.14588550194879
 30
0
 11
54.966691525579861
 21
23.14588550194879
 31
0
  0
LINE
  5
236
  8
0
  6
CONTINUOUS
 62
7
 10
54.331415918099779
 20
23.019278242865841
 30
0
 11
54.83991201172266
 21
23.019278242865841
 31
0
  0
LINE
  5
237
  8
0
  6
CONTINUOUS
 62
7
 10
51.748972342356531
 20
23.73844192541176
 30
0
 11
53.992418522351208
 21
23.73844192541176
 31
0
  0
LINE
  5
238
  8
0
  6
CONTINUOUS
 62
7
 10
51.368633800784941
 20
23.82388029344596
 30
0
 11
53.612079980779619
 21
23.82388029344596
 31
0
  0
LINE
  5
239
  8
0
  6
CONTINUOUS
 62
7
 10
50.986917221019262
 20
23.907940623286041
 30
0
 11
53.273082585031062
 21
23.907940623286041
 31
0
  0
LINE
  5
23A
  8
0
  6
CONTINUOUS
 62
7
 10
50.94557607519625
 20
24.034892391917509
 30
0
 11
52.892744043459459
 21
24.034892391917509
 31
0
  0
LINE
  5
23B
  8
0
  6
CONTINUOUS
 62
7
 10
51.072355589053423
 20
24.12015850517745
 30
0
 11
52.511027463693772
 21
24.12015850517745
 31
0
  0
LINE
  5
23C
  8
0
  6
CONTINUOUS
 62
7
 10
51.199135102910653
 20
24.24693801903463
 30
0
 11
52.130688922122182
 21
24.24693801903463
 31
0
  0
LINE
  5
23D
  8
0
  6
CONTINUOUS
 62
7
 10
51.325914616767818
 20
24.33082609410048
 30
0
 11
51.748972342356531
 21
24.33082609410048
 31
0
  0
LINE
  5
23E
  8
0
  6
CONTINUOUS
 62
7
 10
37.0177440474282
 20
28.057213625720959
 30
0
 11
39.980526164743083
 21
28.057213625720959
 31
0
  0
LINE
  5
23F
  8
0
  6
CONTINUOUS
 62
7
 10
36.889586495376932
 20
27.97177525768673
 30
0
 11
40.319523560491639
 21
27.97177525768673
 31
0
  0
LINE
  5
240
  8
0
  6
CONTINUOUS
 62
7
 10
36.805526165536833
 20
27.84482348905528
 30
0
 11
40.699862102063243
 21
27.84482348905528
 31
0
  0
LINE
  5
241
  8
0
  6
CONTINUOUS
 62
7
 10
36.678746651679617
 20
27.760935413989451
 30
0
 11
41.0815786818289
 21
27.760935413989451
 31
0
  0
LINE
  5
242
  8
0
  6
CONTINUOUS
 62
7
 10
36.551967137822423
 20
27.67549704595525
 30
0
 11
41.4619172234005
 21
27.67549704595525
 31
0
  0
LINE
  5
243
  8
0
  6
CONTINUOUS
 62
7
 10
36.425187623965243
 20
27.548889786872319
 30
0
 11
41.843633803166192
 21
27.548889786872319
 31
0
  0
LINE
  5
244
  8
0
  6
CONTINUOUS
 62
7
 10
36.297030071913937
 20
27.464484947483712
 30
0
 11
42.181253160720658
 21
27.464484947483712
 31
0
  0
LINE
  5
245
  8
0
  6
CONTINUOUS
 62
7
 10
36.170250558056743
 20
27.379218834223789
 30
0
 11
42.562969740486338
 21
27.379218834223789
 31
0
  0
LINE
  5
246
  8
0
  6
CONTINUOUS
 62
7
 10
36.086190228216637
 20
27.25261157514084
 30
0
 11
42.9433082820579
 21
27.25261157514084
 31
0
  0
LINE
  5
247
  8
0
  6
CONTINUOUS
 62
7
 10
36.170250558056743
 20
27.168206735752211
 30
0
 11
43.282305677806512
 21
27.168206735752211
 31
0
  0
LINE
  5
248
  8
0
  6
CONTINUOUS
 62
7
 10
36.551967137822423
 20
27.0402214384752
 30
0
 11
43.664022257572213
 21
27.0402214384752
 31
0
  0
LINE
  5
249
  8
0
  6
CONTINUOUS
 62
7
 10
36.932305679394041
 20
26.95616110863509
 30
0
 11
44.044360799143767
 21
26.95616110863509
 31
0
  0
LINE
  5
24A
  8
0
  6
CONTINUOUS
 62
7
 10
37.314022259159707
 20
26.87227303356925
 30
0
 11
44.426077378909433
 21
26.87227303356925
 31
0
  0
LINE
  5
24B
  8
0
  6
CONTINUOUS
 62
7
 10
37.694360800731282
 20
26.74377097196944
 30
0
 11
44.806415920481022
 21
26.74377097196944
 31
0
  0
LINE
  5
24C
  8
0
  6
CONTINUOUS
 62
7
 10
38.03335819647986
 20
26.659882896903611
 30
0
 11
45.1454133162296
 21
26.659882896903611
 31
0
  0
LINE
  5
24D
  8
0
  6
CONTINUOUS
 62
7
 10
38.413696738051428
 20
26.57582256706349
 30
0
 11
45.525751857801211
 21
26.57582256706349
 31
0
  0
LINE
  5
24E
  8
0
  6
CONTINUOUS
 62
7
 10
38.7954133178171
 20
26.447492760237949
 30
0
 11
45.907468437566877
 21
26.447492760237949
 31
0
  0
LINE
  5
24F
  8
0
  6
CONTINUOUS
 62
7
 10
39.134410713565707
 20
26.36360468517212
 30
0
 11
46.287806979138473
 21
26.36360468517212
 31
0
  0
LINE
  5
250
  8
0
  6
CONTINUOUS
 62
7
 10
39.514749255137318
 20
26.279544355332039
 30
0
 11
46.669523558904153
 21
26.279544355332039
 31
0
  0
LINE
  5
251
  8
0
  6
CONTINUOUS
 62
7
 10
39.896465834902983
 20
26.151559058055
 30
0
 11
47.00852095465271
 21
26.151559058055
 31
0
  0
LINE
  5
252
  8
0
  6
CONTINUOUS
 62
7
 10
40.276804376474537
 20
26.06715421866636
 30
0
 11
47.388859496224292
 21
26.06715421866636
 31
0
  0
LINE
  5
253
  8
0
  6
CONTINUOUS
 62
7
 10
40.658520956240238
 20
25.94054695958345
 30
0
 11
47.770576075990022
 21
25.94054695958345
 31
0
  0
LINE
  5
254
  8
0
  6
CONTINUOUS
 62
7
 10
40.996140313794733
 20
25.855108591549239
 30
0
 11
48.150914617561568
 21
25.855108591549239
 31
0
  0
LINE
  5
255
  8
0
  6
CONTINUOUS
 62
7
 10
41.37785689356042
 20
25.7712205164834
 30
0
 11
48.489912013310153
 21
25.7712205164834
 31
0
  0
LINE
  5
256
  8
0
  6
CONTINUOUS
 62
7
 10
41.758195435131988
 20
25.64426874785195
 30
0
 11
48.870250554881743
 21
25.64426874785195
 31
0
  0
LINE
  5
257
  8
0
  6
CONTINUOUS
 62
7
 10
42.139912014897668
 20
25.558830379817771
 30
0
 11
49.251967134647423
 21
25.558830379817771
 31
0
  0
LINE
  5
258
  8
0
  6
CONTINUOUS
 62
7
 10
42.520250556469243
 20
25.474942304751931
 30
0
 11
49.632305676219033
 21
25.474942304751931
 31
0
  0
LINE
  5
259
  8
0
  6
CONTINUOUS
 62
7
 10
42.859247952217807
 20
25.3478182813462
 30
0
 11
49.9713030719676
 21
25.3478182813462
 31
0
  0
LINE
  5
25A
  8
0
  6
CONTINUOUS
 62
7
 10
43.239586493789432
 20
25.26255216808627
 30
0
 11
50.4797991655905
 21
25.26255216808627
 31
0
  0
LINE
  5
25B
  8
0
  6
CONTINUOUS
 62
7
 10
43.62130307355509
 20
25.178491838246192
 30
0
 11
50.4797991655905
 21
25.178491838246192
 31
0
  0
LINE
  5
25C
  8
0
  6
CONTINUOUS
 62
7
 10
44.001641615126658
 20
25.05154006961471
 30
0
 11
50.4797991655905
 21
25.05154006961471
 31
0
  0
LINE
  5
25D
  8
0
  6
CONTINUOUS
 62
7
 10
44.340639010875243
 20
24.96627395635479
 30
0
 11
50.4797991655905
 21
24.96627395635479
 31
0
  0
LINE
  5
25E
  8
0
  6
CONTINUOUS
 62
7
 10
44.722355590640923
 20
24.839494442497589
 30
0
 11
50.4797991655905
 21
24.839494442497589
 31
0
  0
LINE
  5
25F
  8
0
  6
CONTINUOUS
 62
7
 10
45.102694132212527
 20
24.75560636743176
 30
0
 11
50.4797991655905
 21
24.75560636743176
 31
0
  0
LINE
  5
260
  8
0
  6
CONTINUOUS
 62
7
 10
45.4844107119782
 20
24.669823489849051
 30
0
 11
50.4797991655905
 21
24.669823489849051
 31
0
  0
LINE
  5
261
  8
0
  6
CONTINUOUS
 62
7
 10
45.82203006953268
 20
24.543216230766109
 30
0
 11
50.4797991655905
 21
24.543216230766109
 31
0
  0
LINE
  5
262
  8
0
  6
CONTINUOUS
 62
7
 10
46.20374664929836
 20
24.459155900926021
 30
0
 11
50.4797991655905
 21
24.459155900926021
 31
0
  0
LINE
  5
263
  8
0
  6
CONTINUOUS
 62
7
 10
46.584085190869942
 20
24.37388978766608
 30
0
 11
50.4797991655905
 21
24.37388978766608
 31
0
  0
LINE
  5
264
  8
0
  6
CONTINUOUS
 62
7
 10
46.965801770635643
 20
24.24693801903463
 30
0
 11
50.4797991655905
 21
24.24693801903463
 31
0
  0
LINE
  5
265
  8
0
  6
CONTINUOUS
 62
7
 10
47.304799166384242
 20
24.162877689194548
 30
0
 11
50.4797991655905
 21
24.162877689194548
 31
0
  0
LINE
  5
266
  8
0
  6
CONTINUOUS
 62
7
 10
47.685137707955789
 20
24.077611575934611
 30
0
 11
50.4797991655905
 21
24.077611575934611
 31
0
  0
LINE
  5
267
  8
0
  6
CONTINUOUS
 62
7
 10
48.066854287721483
 20
23.950487552528891
 30
0
 11
50.4797991655905
 21
23.950487552528891
 31
0
  0
LINE
  5
268
  8
0
  6
CONTINUOUS
 62
7
 10
48.447192829293058
 20
23.86522143926895
 30
0
 11
50.4797991655905
 21
23.86522143926895
 31
0
  0
LINE
  5
269
  8
0
  6
CONTINUOUS
 62
7
 10
48.828909409058738
 20
23.73844192541176
 30
0
 11
50.4797991655905
 21
23.73844192541176
 31
0
  0
LINE
  5
26A
  8
0
  6
CONTINUOUS
 62
7
 10
49.16652876661324
 20
23.65455385034592
 30
0
 11
50.817418523144937
 21
23.65455385034592
 31
0
  0
LINE
  5
26B
  8
0
  6
CONTINUOUS
 62
7
 10
49.5482453463789
 20
23.568770972763179
 30
0
 11
51.199135102910653
 21
23.568770972763179
 31
0
  0
LINE
  5
26C
  8
0
  6
CONTINUOUS
 62
7
 10
49.928583887950481
 20
23.442163713680252
 30
0
 11
51.579473644482214
 21
23.442163713680252
 31
0
  0
LINE
  5
26D
  8
0
  6
CONTINUOUS
 62
7
 10
50.310300467716182
 20
23.358275638614419
 30
0
 11
51.9184710402308
 21
23.358275638614419
 31
0
  0
LINE
  5
26E
  8
0
  6
CONTINUOUS
 62
7
 10
50.647919825270641
 20
23.272492761031721
 30
0
 11
52.300187619996493
 21
23.272492761031721
 31
0
  0
LINE
  5
26F
  8
0
  6
CONTINUOUS
 62
7
 10
51.029636405036342
 20
23.14588550194879
 30
0
 11
52.680526161568082
 21
23.14588550194879
 31
0
  0
LINE
  5
270
  8
0
  6
CONTINUOUS
 62
7
 10
51.409974946607932
 20
23.06182517210868
 30
0
 11
53.062242741333762
 21
23.06182517210868
 31
0
  0
LINE
  5
271
  8
0
  6
CONTINUOUS
 62
7
 10
51.7916915263736
 20
22.97655905884875
 30
0
 11
53.3998620988882
 21
22.97655905884875
 31
0
  0
LINE
  5
272
  8
0
  6
CONTINUOUS
 62
7
 10
52.130688922122182
 20
22.8496072902173
 30
0
 11
53.781578678653908
 21
22.8496072902173
 31
0
  0
LINE
  5
273
  8
0
  6
CONTINUOUS
 62
7
 10
52.511027463693772
 20
22.765546960377211
 30
0
 11
54.16191722022549
 21
22.765546960377211
 31
0
  0
LINE
  5
274
  8
0
  6
CONTINUOUS
 62
7
 10
52.892744043459459
 20
22.638939701294269
 30
0
 11
54.5436337999912
 21
22.638939701294269
 31
0
  0
LINE
  5
275
  8
0
  6
CONTINUOUS
 62
7
 10
53.273082585031062
 20
22.55315682371155
 30
0
 11
54.923972341562759
 21
22.55315682371155
 31
0
  0
LINE
  5
276
  8
0
  6
CONTINUOUS
 62
7
 10
53.654799164796742
 20
22.4692687486457
 30
0
 11
55.00941070959697
 21
22.4692687486457
 31
0
  0
LINE
  5
277
  8
0
  6
CONTINUOUS
 62
7
 10
53.992418522351208
 20
22.34248923478852
 30
0
 11
55.00941070959697
 21
22.34248923478852
 31
0
  0
LINE
  5
278
  8
0
  6
CONTINUOUS
 62
7
 10
54.374135102116881
 20
22.257223121528611
 30
0
 11
55.00941070959697
 21
22.257223121528611
 31
0
  0
LINE
  5
279
  8
0
  6
CONTINUOUS
 62
7
 10
54.754473643688463
 20
22.17281828213995
 30
0
 11
55.00941070959697
 21
22.17281828213995
 31
0
  0
LINE
  5
27A
  8
0
  6
CONTINUOUS
 62
7
 10
37.1445235612854
 20
28.14127395556104
 30
0
 11
39.6001876231715
 21
28.14127395556104
 31
0
  0
LINE
  5
27B
  8
0
  6
CONTINUOUS
 62
7
 10
37.27130307514259
 20
28.268225724192511
 30
0
 11
39.218471043405778
 21
28.268225724192511
 31
0
  0
LINE
  5
27C
  8
0
  6
CONTINUOUS
 62
7
 10
37.398082588999813
 20
28.353491837452449
 30
0
 11
38.838132501834217
 21
28.353491837452449
 31
0
  0
LINE
  5
27D
  8
0
  6
CONTINUOUS
 62
7
 10
37.524862102856993
 20
28.43755216729252
 30
0
 11
38.499135106085653
 21
28.43755216729252
 31
0
  0
LINE
  5
27E
  8
0
  6
CONTINUOUS
 62
7
 10
37.651641616714187
 20
28.56415942637544
 30
0
 11
38.11741852631998
 21
28.56415942637544
 31
0
  0
LINE
  5
27F
  8
0
  6
CONTINUOUS
 62
7
 10
37.737079984748391
 20
28.649942303958191
 30
0
 11
37.906578682622673
 21
28.649942303958191
 31
0
  0
LINE
  5
280
  8
0
  6
CONTINUOUS
 62
7
 10
53.992418522351208
 20
21.580606368225521
 30
0
 11
54.966691525579861
 21
21.580606368225521
 31
0
  0
LINE
  5
281
  8
0
  6
CONTINUOUS
 62
7
 10
54.374135102116881
 20
21.4948234906428
 30
0
 11
54.923972341562759
 21
21.4948234906428
 31
0
  0
LINE
  5
282
  8
0
  6
CONTINUOUS
 62
7
 10
54.754473643688463
 20
21.36821623155986
 30
0
 11
54.797192827705572
 21
21.36821623155986
 31
0
  0
LINE
  5
283
  8
0
  6
CONTINUOUS
 62
7
 10
53.654799164796742
 20
21.66449444329135
 30
0
 11
54.5849749458142
 21
21.66449444329135
 31
0
  0
LINE
  5
284
  8
0
  6
CONTINUOUS
 62
7
 10
53.273082585031062
 20
21.79127395714854
 30
0
 11
54.24735558825968
 21
21.79127395714854
 31
0
  0
LINE
  5
285
  8
0
  6
CONTINUOUS
 62
7
 10
52.892744043459459
 20
21.876540070408481
 30
0
 11
53.865639008493993
 21
21.876540070408481
 31
0
  0
LINE
  5
286
  8
0
  6
CONTINUOUS
 62
7
 10
52.511027463693772
 20
21.960944909797082
 30
0
 11
53.485300466922432
 21
21.960944909797082
 31
0
  0
LINE
  5
287
  8
0
  6
CONTINUOUS
 62
7
 10
52.130688922122182
 20
22.08755216888002
 30
0
 11
53.103583887156738
 21
22.08755216888002
 31
0
  0
LINE
  5
288
  8
0
  6
CONTINUOUS
 62
7
 10
51.7916915263736
 20
22.17281828213995
 30
0
 11
52.76458649140816
 21
22.17281828213995
 31
0
  0
LINE
  5
289
  8
0
  6
CONTINUOUS
 62
7
 10
51.409974946607932
 20
22.299942305545692
 30
0
 11
52.384247949836571
 21
22.299942305545692
 31
0
  0
LINE
  5
28A
  8
0
  6
CONTINUOUS
 62
7
 10
51.029636405036342
 20
22.383830380611521
 30
0
 11
52.003909408265
 21
22.383830380611521
 31
0
  0
LINE
  5
28B
  8
0
  6
CONTINUOUS
 62
7
 10
50.647919825270641
 20
22.4692687486457
 30
0
 11
51.6221928284993
 21
22.4692687486457
 31
0
  0
LINE
  5
28C
  8
0
  6
CONTINUOUS
 62
7
 10
50.310300467716182
 20
22.59622051727716
 30
0
 11
51.241854286927719
 21
22.59622051727716
 31
0
  0
LINE
  5
28D
  8
0
  6
CONTINUOUS
 62
7
 10
49.928583887950481
 20
22.680108592342989
 30
0
 11
50.902856891179148
 21
22.680108592342989
 31
0
  0
LINE
  5
28E
  8
0
  6
CONTINUOUS
 62
7
 10
49.5482453463789
 20
22.765546960377211
 30
0
 11
50.521140311413468
 21
22.765546960377211
 31
0
  0
LINE
  5
28F
  8
0
  6
CONTINUOUS
 62
7
 10
49.16652876661324
 20
22.892154219460121
 30
0
 11
50.140801769841872
 21
22.892154219460121
 31
0
  0
LINE
  5
290
  8
0
  6
CONTINUOUS
 62
7
 10
48.828909409058738
 20
22.97655905884875
 30
0
 11
49.759085190076171
 21
22.97655905884875
 31
0
  0
LINE
  5
291
  8
0
  6
CONTINUOUS
 62
7
 10
48.447192829293058
 20
23.06182517210868
 30
0
 11
49.421465832521719
 21
23.06182517210868
 31
0
  0
LINE
  5
292
  8
0
  6
CONTINUOUS
 62
7
 10
48.066854287721483
 20
23.188604685965888
 30
0
 11
49.039749252756032
 21
23.188604685965888
 31
0
  0
LINE
  5
293
  8
0
  6
CONTINUOUS
 62
7
 10
47.685137707955789
 20
23.272492761031721
 30
0
 11
48.659410711184449
 21
23.272492761031721
 31
0
  0
LINE
  5
294
  8
0
  6
CONTINUOUS
 62
7
 10
47.304799166384242
 20
23.358275638614419
 30
0
 11
48.277694131418791
 21
23.358275638614419
 31
0
  0
LINE
  5
295
  8
0
  6
CONTINUOUS
 62
7
 10
46.965801770635643
 20
23.48488289769735
 30
0
 11
47.938696735670177
 21
23.48488289769735
 31
0
  0
LINE
  5
296
  8
0
  6
CONTINUOUS
 62
7
 10
46.584085190869942
 20
23.568770972763179
 30
0
 11
47.558358194098609
 21
23.568770972763179
 31
0
  0
LINE
  5
297
  8
0
  6
CONTINUOUS
 62
7
 10
46.20374664929836
 20
23.697273034363
 30
0
 11
47.176641614332922
 21
23.697273034363
 31
0
  0
LINE
  5
298
  8
0
  6
CONTINUOUS
 62
7
 10
45.82203006953268
 20
23.781161109428869
 30
0
 11
46.79630307276134
 21
23.781161109428869
 31
0
  0
LINE
  5
299
  8
0
  6
CONTINUOUS
 62
7
 10
45.4844107119782
 20
23.86522143926895
 30
0
 11
46.414586492995667
 21
23.86522143926895
 31
0
  0
LINE
  5
29A
  8
0
  6
CONTINUOUS
 62
7
 10
45.102694132212527
 20
23.993206736545961
 30
0
 11
46.076967135441173
 21
23.993206736545961
 31
0
  0
LINE
  5
29B
  8
0
  6
CONTINUOUS
 62
7
 10
44.722355590640923
 20
24.077611575934611
 30
0
 11
45.695250555675479
 21
24.077611575934611
 31
0
  0
LINE
  5
29C
  8
0
  6
CONTINUOUS
 62
7
 10
44.340639010875243
 20
24.162877689194548
 30
0
 11
45.314912014103911
 21
24.162877689194548
 31
0
  0
LINE
  5
29D
  8
0
  6
CONTINUOUS
 62
7
 10
44.001641615126658
 20
24.28948494827748
 30
0
 11
44.933195434338238
 21
24.28948494827748
 31
0
  0
LINE
  5
29E
  8
0
  6
CONTINUOUS
 62
7
 10
43.62130307355509
 20
24.37388978766608
 30
0
 11
44.595576076783772
 21
24.37388978766608
 31
0
  0
LINE
  5
29F
  8
0
  6
CONTINUOUS
 62
7
 10
43.239586493789432
 20
24.459155900926021
 30
0
 11
44.213859497018049
 21
24.459155900926021
 31
0
  0
LINE
  5
2A0
  8
0
  6
CONTINUOUS
 62
7
 10
42.859247952217807
 20
24.585935414783211
 30
0
 11
43.833520955446467
 21
24.585935414783211
 31
0
  0
LINE
  5
2A1
  8
0
  6
CONTINUOUS
 62
7
 10
42.478909410646239
 20
24.669823489849051
 30
0
 11
43.451804375680773
 21
24.669823489849051
 31
0
  0
LINE
  5
2A2
  8
0
  6
CONTINUOUS
 62
7
 10
42.139912014897668
 20
24.796775258480491
 30
0
 11
43.112806979932223
 21
24.796775258480491
 31
0
  0
LINE
  5
2A3
  8
0
  6
CONTINUOUS
 62
7
 10
41.758195435131988
 20
24.882213626514691
 30
0
 11
42.732468438360641
 21
24.882213626514691
 31
0
  0
LINE
  5
2A4
  8
0
  6
CONTINUOUS
 62
7
 10
41.37785689356042
 20
24.96627395635479
 30
0
 11
42.350751858594968
 21
24.96627395635479
 31
0
  0
LINE
  5
2A5
  8
0
  6
CONTINUOUS
 62
7
 10
40.996140313794733
 20
25.093225724986269
 30
0
 11
41.970413317023358
 21
25.093225724986269
 31
0
  0
LINE
  5
2A6
  8
0
  6
CONTINUOUS
 62
7
 10
40.658520956240238
 20
25.178491838246192
 30
0
 11
41.588696737257678
 21
25.178491838246192
 31
0
  0
LINE
  5
2A7
  8
0
  6
CONTINUOUS
 62
7
 10
40.276804376474537
 20
25.26255216808627
 30
0
 11
41.251077379703212
 21
25.26255216808627
 31
0
  0
LINE
  5
2A8
  8
0
  6
CONTINUOUS
 62
7
 10
39.896465834902983
 20
25.389159427169211
 30
0
 11
40.869360799937532
 21
25.389159427169211
 31
0
  0
LINE
  5
2A9
  8
0
  6
CONTINUOUS
 62
7
 10
39.514749255137318
 20
25.474942304751931
 30
0
 11
40.489022258365942
 21
25.474942304751931
 31
0
  0
LINE
  5
2AA
  8
0
  6
CONTINUOUS
 62
7
 10
39.134410713565707
 20
25.558830379817771
 30
0
 11
40.107305678600277
 21
25.558830379817771
 31
0
  0
LINE
  5
2AB
  8
0
  6
CONTINUOUS
 62
7
 10
38.7954133178171
 20
25.685437638900709
 30
0
 11
39.76830828285167
 21
25.685437638900709
 31
0
  0
LINE
  5
2AC
  8
0
  6
CONTINUOUS
 62
7
 10
38.413696738051428
 20
25.7712205164834
 30
0
 11
39.3879697412801
 21
25.7712205164834
 31
0
  0
LINE
  5
2AD
  8
0
  6
CONTINUOUS
 62
7
 10
38.03335819647986
 20
25.897827775566331
 30
0
 11
39.006253161514422
 21
25.897827775566331
 31
0
  0
LINE
  5
2AE
  8
0
  6
CONTINUOUS
 62
7
 10
37.651641616714187
 20
25.981888105406441
 30
0
 11
38.62591461994284
 21
25.981888105406441
 31
0
  0
LINE
  5
2AF
  8
0
  6
CONTINUOUS
 62
7
 10
37.314022259159707
 20
26.06715421866636
 30
0
 11
38.245576078371272
 21
26.06715421866636
 31
0
  0
LINE
  5
2B0
  8
0
  6
CONTINUOUS
 62
7
 10
36.932305679394041
 20
26.19427824207208
 30
0
 11
37.906578682622673
 21
26.19427824207208
 31
0
  0
LINE
  5
2B1
  8
0
  6
CONTINUOUS
 62
7
 10
36.551967137822423
 20
26.279544355332039
 30
0
 11
37.524862102856993
 21
26.279544355332039
 31
0
  0
LINE
  5
2B2
  8
0
  6
CONTINUOUS
 62
7
 10
36.170250558056743
 20
26.36360468517212
 30
0
 11
37.1445235612854
 21
26.36360468517212
 31
0
  0
LINE
  5
2B3
  8
0
  6
CONTINUOUS
 62
7
 10
35.831253162308158
 20
26.49055645380356
 30
0
 11
36.762806981519731
 21
26.49055645380356
 31
0
  0
LINE
  5
2B4
  8
0
  6
CONTINUOUS
 62
7
 10
35.4509146207366
 20
26.57582256706349
 30
0
 11
36.425187623965243
 21
26.57582256706349
 31
0
  0
LINE
  5
2B5
  8
0
  6
CONTINUOUS
 62
7
 10
35.366854290896491
 20
26.659882896903611
 30
0
 11
36.043471044199542
 21
26.659882896903611
 31
0
  0
LINE
  5
2B6
  8
0
  6
CONTINUOUS
 62
7
 10
35.493633804753692
 20
26.78649015598652
 30
0
 11
35.663132502627967
 21
26.78649015598652
 31
0
  0
LINE
  5
2B7
  8
0
  6
CONTINUOUS
 62
7
 10
35.027856895147913
 20
26.95616110863509
 30
0
 11
35.3241351068794
 21
26.95616110863509
 31
0
  0
LINE
  5
2B8
  8
0
  6
CONTINUOUS
 62
7
 10
34.901077381290712
 20
26.87227303356925
 30
0
 11
35.197355593022188
 21
26.87227303356925
 31
0
  0
LINE
  5
2B9
  8
0
  6
CONTINUOUS
 62
7
 10
34.772919829239413
 20
26.74377097196944
 30
0
 11
35.070576079165008
 21
26.74377097196944
 31
0
  0
LINE
  5
2BA
  8
0
  6
CONTINUOUS
 62
7
 10
35.154636409005093
 20
27.0402214384752
 30
0
 11
35.4509146207366
 21
27.0402214384752
 31
0
  0
LINE
  5
2BB
  8
0
  6
CONTINUOUS
 62
7
 10
35.238696738845192
 20
27.168206735752211
 30
0
 11
35.577694134593791
 21
27.168206735752211
 31
0
  0
LINE
  5
2BC
  8
0
  6
CONTINUOUS
 62
7
 10
35.366854290896491
 20
27.25261157514084
 30
0
 11
35.663132502627967
 21
27.25261157514084
 31
0
  0
LINE
  5
2BD
  8
0
  6
CONTINUOUS
 62
7
 10
35.493633804753692
 20
27.379218834223789
 30
0
 11
35.789912016485168
 21
27.379218834223789
 31
0
  0
LINE
  5
2BE
  8
0
  6
CONTINUOUS
 62
7
 10
35.620413318610872
 20
27.464484947483712
 30
0
 11
35.916691530342391
 21
27.464484947483712
 31
0
  0
LINE
  5
2BF
  8
0
  6
CONTINUOUS
 62
7
 10
35.747192832468073
 20
27.548889786872319
 30
0
 11
36.043471044199542
 21
27.548889786872319
 31
0
  0
LINE
  5
2C0
  8
0
  6
CONTINUOUS
 62
7
 10
35.873972346325282
 20
27.67549704595525
 30
0
 11
36.170250558056743
 21
27.67549704595525
 31
0
  0
LINE
  5
2C1
  8
0
  6
CONTINUOUS
 62
7
 10
36.000751860182483
 20
27.760935413989451
 30
0
 11
36.297030071913937
 21
27.760935413989451
 31
0
  0
LINE
  5
2C2
  8
0
  6
CONTINUOUS
 62
7
 10
36.086190228216637
 20
27.84482348905528
 30
0
 11
36.425187623965243
 21
27.84482348905528
 31
0
  0
LINE
  5
2C3
  8
0
  6
CONTINUOUS
 62
7
 10
36.212969742073852
 20
27.97177525768673
 30
0
 11
36.509247953805321
 21
27.97177525768673
 31
0
  0
LINE
  5
2C4
  8
0
  6
CONTINUOUS
 62
7
 10
36.339749255931054
 20
28.057213625720959
 30
0
 11
36.636027467662522
 21
28.057213625720959
 31
0
  0
LINE
  5
2C5
  8
0
  6
CONTINUOUS
 62
7
 10
36.466528769788241
 20
28.14127395556104
 30
0
 11
36.762806981519731
 21
28.14127395556104
 31
0
  0
LINE
  5
2C6
  8
0
  6
CONTINUOUS
 62
7
 10
36.59330828364542
 20
28.268225724192511
 30
0
 11
36.889586495376932
 21
28.268225724192511
 31
0
  0
LINE
  5
2C7
  8
0
  6
CONTINUOUS
 62
7
 10
36.721465835696733
 20
28.353491837452449
 30
0
 11
37.0177440474282
 21
28.353491837452449
 31
0
  0
LINE
  5
2C8
  8
0
  6
CONTINUOUS
 62
7
 10
36.84824534955392
 20
28.43755216729252
 30
0
 11
37.1445235612854
 21
28.43755216729252
 31
0
  0
LINE
  5
2C9
  8
0
  6
CONTINUOUS
 62
7
 10
36.9750248634111
 20
28.56415942637544
 30
0
 11
37.22858389112551
 21
28.56415942637544
 31
0
  0
LINE
  5
2CA
  8
0
  6
CONTINUOUS
 62
7
 10
37.059085193251207
 20
28.649942303958191
 30
0
 11
37.355363404982711
 21
28.649942303958191
 31
0
  0
LINE
  5
2CB
  8
0
  6
CONTINUOUS
 62
7
 10
37.187242745302513
 20
28.7765495630411
 30
0
 11
37.483520957033981
 21
28.7765495630411
 31
0
  0
LINE
  5
2CC
  8
0
  6
CONTINUOUS
 62
7
 10
37.314022259159707
 20
28.860437638106909
 30
0
 11
37.61030047089119
 21
28.860437638106909
 31
0
  0
LINE
  5
2CD
  8
0
  6
CONTINUOUS
 62
7
 10
37.440801773016879
 20
28.946220515689649
 30
0
 11
37.737079984748391
 21
28.946220515689649
 31
0
  0
LINE
  5
2CE
  8
0
  6
CONTINUOUS
 62
7
 10
37.567581286874081
 20
29.072827774772581
 30
0
 11
37.863859498605549
 21
29.072827774772581
 31
0
  0
LINE
  5
2CF
  8
0
  6
CONTINUOUS
 62
7
 10
37.694360800731282
 20
29.15688810461268
 30
0
 11
37.990639012462751
 21
29.15688810461268
 31
0
  0
LINE
  5
2D0
  8
0
  6
CONTINUOUS
 62
7
 10
37.779799168765493
 20
29.24215421787261
 30
0
 11
38.076077380496962
 21
29.24215421787261
 31
0
  0
LINE
  5
2D1
  8
0
  6
CONTINUOUS
 62
7
 10
37.906578682622673
 20
29.369278241278369
 30
0
 11
38.202856894354149
 21
29.369278241278369
 31
0
  0
LINE
  5
2D2
  8
0
  6
CONTINUOUS
 62
7
 10
38.03335819647986
 20
29.4545443545383
 30
0
 11
38.329636408211343
 21
29.4545443545383
 31
0
  0
LINE
  5
2D3
  8
0
  6
CONTINUOUS
 62
7
 10
38.160137710337061
 20
29.538604684378331
 30
0
 11
38.456415922068551
 21
29.538604684378331
 31
0
  0
LINE
  5
2D4
  8
0
  6
CONTINUOUS
 62
7
 10
38.286917224194283
 20
29.665556453009842
 30
0
 11
38.583195435925752
 21
29.665556453009842
 31
0
  0
LINE
  5
2D5
  8
0
  6
CONTINUOUS
 62
7
 10
38.413696738051428
 20
29.750822566269761
 30
0
 11
38.709974949782961
 21
29.750822566269761
 31
0
  0
LINE
  5
2D6
  8
0
  6
CONTINUOUS
 62
7
 10
38.541854290102741
 20
29.877602080126952
 30
0
 11
38.838132501834217
 21
29.877602080126952
 31
0
  0
LINE
  5
2D7
  8
0
  6
CONTINUOUS
 62
7
 10
38.62591461994284
 20
29.96149015519277
 30
0
 11
38.964912015691432
 21
29.96149015519277
 31
0
  0
LINE
  5
2D8
  8
0
  6
CONTINUOUS
 62
7
 10
38.752694133800041
 20
30.047273032775539
 30
0
 11
39.04897234553151
 21
30.047273032775539
 31
0
  0
LINE
  5
2D9
  8
0
  6
CONTINUOUS
 62
7
 10
38.879473647657221
 20
30.173880291858431
 30
0
 11
39.175751859388718
 21
30.173880291858431
 31
0
  0
LINE
  5
2DA
  8
0
  6
CONTINUOUS
 62
7
 10
39.006253161514422
 20
30.25794062169853
 30
0
 11
39.30390941144001
 21
30.25794062169853
 31
0
  0
LINE
  5
2DB
  8
0
  6
CONTINUOUS
 62
7
 10
39.134410713565707
 20
30.34320673495845
 30
0
 11
39.43068892529719
 21
30.34320673495845
 31
0
  0
LINE
  5
2DC
  8
0
  6
CONTINUOUS
 62
7
 10
39.2611902274229
 20
30.4701585035899
 30
0
 11
39.557468439154391
 21
30.4701585035899
 31
0
  0
LINE
  5
2DD
  8
0
  6
CONTINUOUS
 62
7
 10
39.3879697412801
 20
30.55421883343001
 30
0
 11
39.684247953011571
 21
30.55421883343001
 31
0
  0
LINE
  5
2DE
  8
0
  6
CONTINUOUS
 62
7
 10
39.514749255137318
 20
30.63948494668993
 30
0
 11
39.811027466868772
 21
30.63948494668993
 31
0
  0
LINE
  5
2DF
  8
0
  6
CONTINUOUS
 62
7
 10
39.6001876231715
 20
30.76660897009565
 30
0
 11
39.896465834902983
 21
30.76660897009565
 31
0
  0
LINE
  5
2E0
  8
0
  6
CONTINUOUS
 62
7
 10
39.72696713702868
 20
30.850497045161539
 30
0
 11
40.02324534876017
 21
30.850497045161539
 31
0
  0
LINE
  5
2E1
  8
0
  6
CONTINUOUS
 62
7
 10
39.853746650885867
 20
30.977104304244431
 30
0
 11
40.150024862617343
 21
30.977104304244431
 31
0
  0
LINE
  5
2E2
  8
0
  6
CONTINUOUS
 62
7
 10
39.980526164743083
 20
31.062887181827168
 30
0
 11
40.276804376474537
 21
31.062887181827168
 31
0
  0
LINE
  5
2E3
  8
0
  6
CONTINUOUS
 62
7
 10
40.107305678600277
 20
31.146775256893012
 30
0
 11
40.403583890331753
 21
31.146775256893012
 31
0
  0
LINE
  5
2E4
  8
0
  6
CONTINUOUS
 62
7
 10
40.234085192457442
 20
31.2735547707502
 30
0
 11
40.530363404188961
 21
31.2735547707502
 31
0
  0
LINE
  5
2E5
  8
0
  6
CONTINUOUS
 62
7
 10
40.362242744508727
 20
31.358820884010139
 30
0
 11
40.658520956240238
 21
31.358820884010139
 31
0
  0
LINE
  5
2E6
  8
0
  6
CONTINUOUS
 62
7
 10
40.446303074348869
 20
31.443225723398751
 30
0
 11
40.785300470097418
 21
31.443225723398751
 31
0
  0
LINE
  5
2E7
  8
0
  6
CONTINUOUS
 62
7
 10
40.573082588206049
 20
31.571211020675769
 30
0
 11
40.869360799937532
 21
31.571211020675769
 31
0
  0
LINE
  5
2E8
  8
0
  6
CONTINUOUS
 62
7
 10
40.699862102063243
 20
31.655271350515839
 30
0
 11
40.996140313794733
 21
31.655271350515839
 31
0
  0
LINE
  5
2E9
  8
0
  6
CONTINUOUS
 62
7
 10
40.82664161592043
 20
31.73915942558169
 30
0
 11
41.1229198276519
 21
31.73915942558169
 31
0
  0
LINE
  5
2EA
  8
0
  6
CONTINUOUS
 62
7
 10
40.954799167971728
 20
31.86748923240723
 30
0
 11
41.251077379703212
 21
31.86748923240723
 31
0
  0
LINE
  5
2EB
  8
0
  6
CONTINUOUS
 62
7
 10
41.0815786818289
 20
31.95154956224734
 30
0
 11
41.37785689356042
 21
31.95154956224734
 31
0
  0
LINE
  5
2EC
  8
0
  6
CONTINUOUS
 62
7
 10
41.2083581956861
 20
32.07815682133031
 30
0
 11
41.504636407417593
 21
32.07815682133031
 31
0
  0
LINE
  5
2ED
  8
0
  6
CONTINUOUS
 62
7
 10
41.29241852552623
 20
32.163939698912984
 30
0
 11
41.63141592127478
 21
32.163939698912984
 31
0
  0
LINE
  5
2EE
  8
0
  6
CONTINUOUS
 62
7
 10
41.420576077577522
 20
32.247827773978869
 30
0
 11
41.716854289308984
 21
32.247827773978869
 31
0
  0
LINE
  5
2EF
  8
0
  6
CONTINUOUS
 62
7
 10
41.547355591434687
 20
32.374607287836042
 30
0
 11
41.843633803166192
 21
32.374607287836042
 31
0
  0
LINE
  5
2F0
  8
0
  6
CONTINUOUS
 62
7
 10
41.6741351052919
 20
32.45987340109599
 30
0
 11
41.970413317023358
 21
32.45987340109599
 31
0
  0
LINE
  5
2F1
  8
0
  6
CONTINUOUS
 62
7
 10
41.80091461914909
 20
32.544278240484623
 30
0
 11
42.097192830880573
 21
32.544278240484623
 31
0
  0
LINE
  5
2F2
  8
0
  6
CONTINUOUS
 62
7
 10
41.927694133006291
 20
32.670885499567511
 30
0
 11
42.223972344737767
 21
32.670885499567511
 31
0
  0
LINE
  5
2F3
  8
0
  6
CONTINUOUS
 62
7
 10
42.05447364686345
 20
32.756151612827452
 30
0
 11
42.350751858594968
 21
32.756151612827452
 31
0
  0
LINE
  5
2F4
  8
0
  6
CONTINUOUS
 62
7
 10
42.181253160720658
 20
32.840556452216077
 30
0
 11
42.478909410646239
 21
32.840556452216077
 31
0
  0
LINE
  5
2F5
  8
0
  6
CONTINUOUS
 62
7
 10
42.266691528754883
 20
32.967163711299
 30
0
 11
42.562969740486338
 21
32.967163711299
 31
0
  0
LINE
  5
2F6
  8
0
  6
CONTINUOUS
 62
7
 10
42.39347104261207
 20
33.052602079333212
 30
0
 11
42.689749254343532
 21
33.052602079333212
 31
0
  0
LINE
  5
2F7
  8
0
  6
CONTINUOUS
 62
7
 10
42.520250556469243
 20
33.179553847964641
 30
0
 11
42.816528768200719
 21
33.179553847964641
 31
0
  0
LINE
  5
2F8
  8
0
  6
CONTINUOUS
 62
7
 10
42.647030070326423
 20
33.26344192303047
 30
0
 11
42.9433082820579
 21
33.26344192303047
 31
0
  0
LINE
  5
2F9
  8
0
  6
CONTINUOUS
 62
7
 10
42.775187622377743
 20
33.348880291064681
 30
0
 11
43.071465834109212
 21
33.348880291064681
 31
0
  0
LINE
  5
2FA
  8
0
  6
CONTINUOUS
 62
7
 10
42.901967136234923
 20
33.475487550147641
 30
0
 11
43.1982453479664
 21
33.475487550147641
 31
0
  0
LINE
  5
2FB
  8
0
  6
CONTINUOUS
 62
7
 10
43.028746650092131
 20
33.55989238953623
 30
0
 11
43.282305677806512
 21
33.55989238953623
 31
0
  0
LINE
  5
2FC
  8
0
  6
CONTINUOUS
 62
7
 10
43.112806979932223
 20
33.64515850279615
 30
0
 11
43.409085191663678
 21
33.64515850279615
 31
0
  0
LINE
  5
2FD
  8
0
  6
CONTINUOUS
 62
7
 10
43.239586493789432
 20
33.771938016653372
 30
0
 11
43.537242743715012
 21
33.771938016653372
 31
0
  0
LINE
  5
2FE
  8
0
  6
CONTINUOUS
 62
7
 10
43.367744045840688
 20
33.855826091719223
 30
0
 11
43.664022257572213
 21
33.855826091719223
 31
0
  0
LINE
  5
2FF
  8
0
  6
CONTINUOUS
 62
7
 10
43.494523559697889
 20
33.9416089693019
 30
0
 11
43.790801771429358
 21
33.9416089693019
 31
0
  0
LINE
  5
300
  8
0
  6
CONTINUOUS
 62
7
 10
43.62130307355509
 20
34.068216228384863
 30
0
 11
43.917581285286559
 21
34.068216228384863
 31
0
  0
LINE
  5
301
  8
0
  6
CONTINUOUS
 62
7
 10
50.776077377321961
 20
24.28948494827748
 30
0
 11
50.986917221019262
 21
24.28948494827748
 31
0
  0
LINE
  5
302
  8
0
  6
CONTINUOUS
 62
7
 10
50.776077377321961
 20
24.204218835017532
 30
0
 11
50.86013770716206
 21
24.204218835017532
 31
0
  0
LINE
  5
303
  8
0
  6
CONTINUOUS
 62
7
 10
50.776077377321961
 20
24.37388978766608
 30
0
 11
51.113696734876441
 21
24.37388978766608
 31
0
  0
LINE
  5
304
  8
0
  6
CONTINUOUS
 62
7
 10
50.776077377321961
 20
24.500497046749011
 30
0
 11
50.902856891179148
 21
24.500497046749011
 31
0
  0
LINE
  5
305
  8
0
  6
CONTINUOUS
 62
7
 10
50.94557607519625
 20
24.500497046749011
 30
0
 11
51.029636405036342
 21
24.500497046749011
 31
0
  0
LINE
  5
306
  8
0
  6
CONTINUOUS
 62
7
 10
51.113696734876441
 20
24.500497046749011
 30
0
 11
51.241854286927719
 21
24.500497046749011
 31
0
  0
LINE
  5
307
  8
0
  6
CONTINUOUS
 62
7
 10
50.776077377321961
 20
24.585935414783211
 30
0
 11
50.902856891179148
 21
24.585935414783211
 31
0
  0
LINE
  5
308
  8
0
  6
CONTINUOUS
 62
7
 10
50.776077377321961
 20
24.669823489849051
 30
0
 11
50.902856891179148
 21
24.669823489849051
 31
0
  0
LINE
  5
309
  8
0
  6
CONTINUOUS
 62
7
 10
50.776077377321961
 20
24.796775258480491
 30
0
 11
50.902856891179148
 21
24.796775258480491
 31
0
  0
LINE
  5
30A
  8
0
  6
CONTINUOUS
 62
7
 10
50.817418523144937
 20
24.882213626514691
 30
0
 11
50.902856891179148
 21
24.882213626514691
 31
0
  0
LINE
  5
30B
  8
0
  6
CONTINUOUS
 62
7
 10
52.553746647710888
 20
26.659882896903611
 30
0
 11
53.569360796762531
 21
26.659882896903611
 31
0
  0
LINE
  5
30C
  8
0
  6
CONTINUOUS
 62
7
 10
52.426967133853687
 20
26.57582256706349
 30
0
 11
53.44258128290533
 21
26.57582256706349
 31
0
  0
LINE
  5
30D
  8
0
  6
CONTINUOUS
 62
7
 10
52.300187619996493
 20
26.49055645380356
 30
0
 11
53.358520953065209
 21
26.49055645380356
 31
0
  0
LINE
  5
30E
  8
0
  6
CONTINUOUS
 62
7
 10
52.2147492519623
 20
26.36360468517212
 30
0
 11
53.23036340101396
 21
26.36360468517212
 31
0
  0
LINE
  5
30F
  8
0
  6
CONTINUOUS
 62
7
 10
52.08796973810508
 20
26.279544355332039
 30
0
 11
53.103583887156738
 21
26.279544355332039
 31
0
  0
LINE
  5
310
  8
0
  6
CONTINUOUS
 62
7
 10
51.961190224247893
 20
26.19427824207208
 30
0
 11
52.976804373299551
 21
26.19427824207208
 31
0
  0
LINE
  5
311
  8
0
  6
CONTINUOUS
 62
7
 10
51.834410710390713
 20
26.06715421866636
 30
0
 11
52.85002485944235
 21
26.06715421866636
 31
0
  0
LINE
  5
312
  8
0
  6
CONTINUOUS
 62
7
 10
51.706253158339422
 20
25.981888105406441
 30
0
 11
52.72324534558517
 21
25.981888105406441
 31
0
  0
LINE
  5
313
  8
0
  6
CONTINUOUS
 62
7
 10
51.579473644482214
 20
25.897827775566331
 30
0
 11
52.596465831727961
 21
25.897827775566331
 31
0
  0
LINE
  5
314
  8
0
  6
CONTINUOUS
 62
7
 10
51.452694130625041
 20
25.7712205164834
 30
0
 11
52.46830827967667
 21
25.7712205164834
 31
0
  0
LINE
  5
315
  8
0
  6
CONTINUOUS
 62
7
 10
51.368633800784941
 20
25.685437638900709
 30
0
 11
52.384247949836571
 21
25.685437638900709
 31
0
  0
LINE
  5
316
  8
0
  6
CONTINUOUS
 62
7
 10
51.241854286927719
 20
25.558830379817771
 30
0
 11
52.2574684359794
 21
25.558830379817771
 31
0
  0
LINE
  5
317
  8
0
  6
CONTINUOUS
 62
7
 10
51.199135102910653
 20
25.474942304751931
 30
0
 11
52.130688922122182
 21
25.474942304751931
 31
0
  0
LINE
  5
318
  8
0
  6
CONTINUOUS
 62
7
 10
51.199135102910653
 20
25.389159427169211
 30
0
 11
52.003909408265
 21
25.389159427169211
 31
0
  0
LINE
  5
319
  8
0
  6
CONTINUOUS
 62
7
 10
51.199135102910653
 20
25.26255216808627
 30
0
 11
51.875751856213711
 21
25.26255216808627
 31
0
  0
LINE
  5
31A
  8
0
  6
CONTINUOUS
 62
7
 10
51.199135102910653
 20
25.178491838246192
 30
0
 11
51.748972342356531
 21
25.178491838246192
 31
0
  0
LINE
  5
31B
  8
0
  6
CONTINUOUS
 62
7
 10
51.199135102910653
 20
25.093225724986269
 30
0
 11
51.6221928284993
 21
25.093225724986269
 31
0
  0
LINE
  5
31C
  8
0
  6
CONTINUOUS
 62
7
 10
51.199135102910653
 20
24.96627395635479
 30
0
 11
51.5381324986592
 21
24.96627395635479
 31
0
  0
LINE
  5
31D
  8
0
  6
CONTINUOUS
 62
7
 10
51.199135102910653
 20
24.882213626514691
 30
0
 11
51.409974946607932
 21
24.882213626514691
 31
0
  0
LINE
  5
31E
  8
0
  6
CONTINUOUS
 62
7
 10
51.199135102910653
 20
24.796775258480491
 30
0
 11
51.28319543275073
 21
24.796775258480491
 31
0
  0
LINE
  5
31F
  8
0
  6
CONTINUOUS
 62
7
 10
52.680526161568082
 20
26.78649015598652
 30
0
 11
53.696140310619739
 21
26.78649015598652
 31
0
  0
LINE
  5
320
  8
0
  6
CONTINUOUS
 62
7
 10
52.807305675425283
 20
26.87227303356925
 30
0
 11
53.822919824476891
 21
26.87227303356925
 31
0
  0
LINE
  5
321
  8
0
  6
CONTINUOUS
 62
7
 10
52.934085189282428
 20
26.9988802926522
 30
0
 11
53.951077376528211
 21
26.9988802926522
 31
0
  0
LINE
  5
322
  8
0
  6
CONTINUOUS
 62
7
 10
53.062242741333762
 20
27.082940622492281
 30
0
 11
54.0778568903854
 21
27.082940622492281
 31
0
  0
LINE
  5
323
  8
0
  6
CONTINUOUS
 62
7
 10
53.189022255190963
 20
27.168206735752211
 30
0
 11
54.204636404242592
 21
27.168206735752211
 31
0
  0
LINE
  5
324
  8
0
  6
CONTINUOUS
 62
7
 10
53.273082585031062
 20
27.295158504383679
 30
0
 11
54.288696734082691
 21
27.295158504383679
 31
0
  0
LINE
  5
325
  8
0
  6
CONTINUOUS
 62
7
 10
53.3998620988882
 20
27.379218834223789
 30
0
 11
54.416854286133969
 21
27.379218834223789
 31
0
  0
LINE
  5
326
  8
0
  6
CONTINUOUS
 62
7
 10
53.612079980779619
 20
27.464484947483712
 30
0
 11
54.5436337999912
 21
27.464484947483712
 31
0
  0
LINE
  5
327
  8
0
  6
CONTINUOUS
 62
7
 10
53.865639008493993
 20
27.591608970889428
 30
0
 11
54.670413313848371
 21
27.591608970889428
 31
0
  0
LINE
  5
328
  8
0
  6
CONTINUOUS
 62
7
 10
54.0778568903854
 20
27.67549704595525
 30
0
 11
54.797192827705572
 21
27.67549704595525
 31
0
  0
LINE
  5
329
  8
0
  6
CONTINUOUS
 62
7
 10
54.24735558825968
 20
27.760935413989451
 30
0
 11
54.923972341562759
 21
27.760935413989451
 31
0
  0
LINE
  5
32A
  8
0
  6
CONTINUOUS
 62
7
 10
54.416854286133969
 20
27.8878871826209
 30
0
 11
55.050751855419954
 21
27.8878871826209
 31
0
  0
LINE
  5
32B
  8
0
  6
CONTINUOUS
 62
7
 10
54.5849749458142
 20
27.97177525768673
 30
0
 11
55.136190223454143
 21
27.97177525768673
 31
0
  0
LINE
  5
32C
  8
0
  6
CONTINUOUS
 62
7
 10
54.754473643688463
 20
28.098554771543931
 30
0
 11
55.262969737311352
 21
28.098554771543931
 31
0
  0
LINE
  5
32D
  8
0
  6
CONTINUOUS
 62
7
 10
54.923972341562759
 20
28.183820884803868
 30
0
 11
55.389749251168539
 21
28.183820884803868
 31
0
  0
LINE
  5
32E
  8
0
  6
CONTINUOUS
 62
7
 10
55.050751855419954
 20
28.268225724192511
 30
0
 11
55.516528765025733
 21
28.268225724192511
 31
0
  0
LINE
  5
32F
  8
0
  6
CONTINUOUS
 62
7
 10
55.136190223454143
 20
28.396211021469512
 30
0
 11
55.64330827888292
 21
28.396211021469512
 31
0
  0
LINE
  5
330
  8
0
  6
CONTINUOUS
 62
7
 10
55.262969737311352
 20
28.480271351309611
 30
0
 11
55.771465830934211
 21
28.480271351309611
 31
0
  0
LINE
  5
331
  8
0
  6
CONTINUOUS
 62
7
 10
55.347030067151437
 20
28.56415942637544
 30
0
 11
55.855526160774318
 21
28.56415942637544
 31
0
  0
LINE
  5
332
  8
0
  6
CONTINUOUS
 62
7
 10
55.475187619202728
 20
28.692489233201
 30
0
 11
56.0250248586486
 21
28.692489233201
 31
0
  0
LINE
  5
333
  8
0
  6
CONTINUOUS
 62
7
 10
55.559247949042842
 20
28.7765495630411
 30
0
 11
56.109085188488713
 21
28.7765495630411
 31
0
  0
LINE
  5
334
  8
0
  6
CONTINUOUS
 62
7
 10
55.686027462900022
 20
28.860437638106909
 30
0
 11
56.237242740540012
 21
28.860437638106909
 31
0
  0
LINE
  5
335
  8
0
  6
CONTINUOUS
 62
7
 10
55.771465830934211
 20
28.988939699706719
 30
0
 11
56.364022254397213
 21
28.988939699706719
 31
0
  0
LINE
  5
336
  8
0
  6
CONTINUOUS
 62
7
 10
55.855526160774318
 20
29.072827774772581
 30
0
 11
56.490801768254357
 21
29.072827774772581
 31
0
  0
LINE
  5
337
  8
0
  6
CONTINUOUS
 62
7
 10
55.898245344791441
 20
29.1996072886298
 30
0
 11
56.617581282111587
 21
29.1996072886298
 31
0
  0
LINE
  5
338
  8
0
  6
CONTINUOUS
 62
7
 10
55.982305674631519
 20
29.28487340188973
 30
0
 11
56.744360795968767
 21
29.28487340188973
 31
0
  0
LINE
  5
339
  8
0
  6
CONTINUOUS
 62
7
 10
56.0250248586486
 20
29.369278241278369
 30
0
 11
56.829799164002978
 21
29.369278241278369
 31
0
  0
LINE
  5
33A
  8
0
  6
CONTINUOUS
 62
7
 10
56.109085188488713
 20
29.495885500361279
 30
0
 11
56.956578677860144
 21
29.495885500361279
 31
0
  0
LINE
  5
33B
  8
0
  6
CONTINUOUS
 62
7
 10
56.194523556522888
 20
29.58115161362122
 30
0
 11
57.083358191717338
 21
29.58115161362122
 31
0
  0
LINE
  5
33C
  8
0
  6
CONTINUOUS
 62
7
 10
56.237242740540012
 20
29.665556453009842
 30
0
 11
57.21013770557456
 21
29.665556453009842
 31
0
  0
LINE
  5
33D
  8
0
  6
CONTINUOUS
 62
7
 10
56.3213030703801
 20
29.79216371209273
 30
0
 11
57.336917219431747
 21
29.79216371209273
 31
0
  0
LINE
  5
33E
  8
0
  6
CONTINUOUS
 62
7
 10
56.448082584237291
 20
29.877602080126952
 30
0
 11
57.46369673328892
 21
29.877602080126952
 31
0
  0
LINE
  5
33F
  8
0
  6
CONTINUOUS
 62
7
 10
56.574862098094457
 20
29.96149015519277
 30
0
 11
57.59185428534024
 21
29.96149015519277
 31
0
  0
LINE
  5
340
  8
0
  6
CONTINUOUS
 62
7
 10
56.660300466128682
 20
30.08844192382421
 30
0
 11
57.675914615180332
 21
30.08844192382421
 31
0
  0
LINE
  5
341
  8
0
  6
CONTINUOUS
 62
7
 10
56.78707997998589
 20
30.173880291858431
 30
0
 11
57.295576073608771
 21
30.173880291858431
 31
0
  0
LINE
  5
342
  8
0
  6
CONTINUOUS
 62
7
 10
56.9138594938431
 20
30.25794062169853
 30
0
 11
56.956578677860144
 21
30.25794062169853
 31
0
  0
LINE
  5
343
  8
0
  6
CONTINUOUS
 62
7
 10
53.485300466922432
 20
27.42193801824088
 30
0
 11
54.331415918099779
 21
27.802104305038188
 31
0
  0
LINE
  5
344
  8
0
  6
CONTINUOUS
 62
7
 10
54.331415918099779
 20
27.802104305038188
 30
0
 11
55.136190223454143
 21
28.310944908209589
 31
0
  0
LINE
  5
345
  8
0
  6
CONTINUOUS
 62
7
 10
55.136190223454143
 20
28.310944908209589
 30
0
 11
55.812806976757223
 21
28.988939699706719
 31
0
  0
LINE
  5
346
  8
0
  6
CONTINUOUS
 62
7
 10
55.812806976757223
 20
28.988939699706719
 30
0
 11
56.3213030703801
 21
29.79216371209273
 31
0
  0
LINE
  5
347
  8
0
  6
CONTINUOUS
 62
7
 10
49.082468436773148
 20
32.713604683584592
 30
0
 11
50.055363401807689
 21
32.713604683584592
 31
0
  0
LINE
  5
348
  8
0
  6
CONTINUOUS
 62
7
 10
49.462806978344709
 20
32.586825169727433
 30
0
 11
50.437079981573383
 21
32.586825169727433
 31
0
  0
LINE
  5
349
  8
0
  6
CONTINUOUS
 62
7
 10
49.8445235581104
 20
32.501559056467492
 30
0
 11
50.817418523144937
 21
32.501559056467492
 31
0
  0
LINE
  5
34A
  8
0
  6
CONTINUOUS
 62
7
 10
50.224862099681971
 20
32.41715421707886
 30
0
 11
51.199135102910653
 21
32.41715421707886
 31
0
  0
LINE
  5
34B
  8
0
  6
CONTINUOUS
 62
7
 10
50.563859495430577
 20
32.29054695799595
 30
0
 11
51.5381324986592
 21
32.29054695799595
 31
0
  0
LINE
  5
34C
  8
0
  6
CONTINUOUS
 62
7
 10
50.94557607519625
 20
32.205108589961732
 30
0
 11
51.9184710402308
 21
32.205108589961732
 31
0
  0
LINE
  5
34D
  8
0
  6
CONTINUOUS
 62
7
 10
51.325914616767818
 20
32.07815682133031
 30
0
 11
52.300187619996493
 21
32.07815682133031
 31
0
  0
LINE
  5
34E
  8
0
  6
CONTINUOUS
 62
7
 10
51.706253158339422
 20
31.994268746264471
 30
0
 11
52.637806977550959
 21
31.994268746264471
 31
0
  0
LINE
  5
34F
  8
0
  6
CONTINUOUS
 62
7
 10
52.08796973810508
 20
31.90883037823027
 30
0
 11
53.019523557316639
 21
31.90883037823027
 31
0
  0
LINE
  5
350
  8
0
  6
CONTINUOUS
 62
7
 10
52.426967133853687
 20
31.782223119147311
 30
0
 11
53.3998620988882
 21
31.782223119147311
 31
0
  0
LINE
  5
351
  8
0
  6
CONTINUOUS
 62
7
 10
52.807305675425283
 20
31.697818279758732
 30
0
 11
53.781578678653908
 21
31.697818279758732
 31
0
  0
LINE
  5
352
  8
0
  6
CONTINUOUS
 62
7
 10
53.189022255190963
 20
31.61255216649878
 30
0
 11
54.16191722022549
 21
31.61255216649878
 31
0
  0
LINE
  5
353
  8
0
  6
CONTINUOUS
 62
7
 10
53.526641612745429
 20
31.485944907415838
 30
0
 11
54.500914615974089
 21
31.485944907415838
 31
0
  0
LINE
  5
354
  8
0
  6
CONTINUOUS
 62
7
 10
53.9083581925111
 20
31.401540068027249
 30
0
 11
54.881253157545672
 21
31.401540068027249
 31
0
  0
LINE
  5
355
  8
0
  6
CONTINUOUS
 62
7
 10
54.288696734082691
 20
31.316273954767318
 30
0
 11
55.262969737311352
 21
31.316273954767318
 31
0
  0
LINE
  5
356
  8
0
  6
CONTINUOUS
 62
7
 10
54.670413313848371
 20
31.189494440910082
 30
0
 11
55.64330827888292
 21
31.189494440910082
 31
0
  0
LINE
  5
357
  8
0
  6
CONTINUOUS
 62
7
 10
55.050751855419954
 20
31.105606365844249
 30
0
 11
56.0250248586486
 21
31.105606365844249
 31
0
  0
LINE
  5
358
  8
0
  6
CONTINUOUS
 62
7
 10
55.389749251168539
 20
30.977104304244431
 30
0
 11
56.364022254397213
 21
30.977104304244431
 31
0
  0
LINE
  5
359
  8
0
  6
CONTINUOUS
 62
7
 10
55.771465830934211
 20
30.893216229178609
 30
0
 11
56.744360795968767
 21
30.893216229178609
 31
0
  0
LINE
  5
35A
  8
0
  6
CONTINUOUS
 62
7
 10
56.1518043725058
 20
30.809155899338521
 30
0
 11
57.126077375734468
 21
30.809155899338521
 31
0
  0
LINE
  5
35B
  8
0
  6
CONTINUOUS
 62
7
 10
56.533520952271481
 20
30.680826092512969
 30
0
 11
57.46369673328892
 21
30.680826092512969
 31
0
  0
LINE
  5
35C
  8
0
  6
CONTINUOUS
 62
7
 10
56.9138594938431
 20
30.59693801744713
 30
0
 11
57.845413313054607
 21
30.59693801744713
 31
0
  0
LINE
  5
35D
  8
0
  6
CONTINUOUS
 62
7
 10
57.252856889591648
 20
30.51287768760703
 30
0
 11
58.225751854626218
 21
30.51287768760703
 31
0
  0
LINE
  5
35E
  8
0
  6
CONTINUOUS
 62
7
 10
57.633195431163223
 20
30.38489239032997
 30
0
 11
58.607468434391883
 21
30.38489239032997
 31
0
  0
LINE
  5
35F
  8
0
  6
CONTINUOUS
 62
7
 10
58.01491201092891
 20
30.300487550941391
 30
0
 11
58.987806975963473
 21
30.300487550941391
 31
0
  0
LINE
  5
360
  8
0
  6
CONTINUOUS
 62
7
 10
58.395250552500492
 20
30.21522143768145
 30
0
 11
59.326804371712029
 21
30.21522143768145
 31
0
  0
LINE
  5
361
  8
0
  6
CONTINUOUS
 62
7
 10
58.734247948249113
 20
30.08844192382421
 30
0
 11
59.70852095147773
 21
30.08844192382421
 31
0
  0
LINE
  5
362
  8
0
  6
CONTINUOUS
 62
7
 10
59.114586489820667
 20
30.004553848758409
 30
0
 11
60.08885949304932
 21
30.004553848758409
 31
0
  0
LINE
  5
363
  8
0
  6
CONTINUOUS
 62
7
 10
59.496303069586347
 20
29.918770971175711
 30
0
 11
60.470576072815021
 21
29.918770971175711
 31
0
  0
LINE
  5
364
  8
0
  6
CONTINUOUS
 62
7
 10
59.876641611157922
 20
29.79216371209273
 30
0
 11
60.8509146143866
 21
29.79216371209273
 31
0
  0
LINE
  5
365
  8
0
  6
CONTINUOUS
 62
7
 10
60.215639006906493
 20
29.708275637026919
 30
0
 11
61.189912010135153
 21
29.708275637026919
 31
0
  0
LINE
  5
366
  8
0
  6
CONTINUOUS
 62
7
 10
60.597355586672172
 20
29.58115161362122
 30
0
 11
61.570250551706742
 21
29.58115161362122
 31
0
  0
LINE
  5
367
  8
0
  6
CONTINUOUS
 62
7
 10
60.977694128243783
 20
29.495885500361279
 30
0
 11
61.951967131472422
 21
29.495885500361279
 31
0
  0
LINE
  5
368
  8
0
  6
CONTINUOUS
 62
7
 10
61.359410708009463
 20
29.411825170521169
 30
0
 11
62.332305673044033
 21
29.411825170521169
 31
0
  0
LINE
  5
369
  8
0
  6
CONTINUOUS
 62
7
 10
61.739749249581052
 20
29.28487340188973
 30
0
 11
62.671303068792611
 21
29.28487340188973
 31
0
  0
LINE
  5
36A
  8
0
  6
CONTINUOUS
 62
7
 10
62.078746645329637
 20
29.1996072886298
 30
0
 11
63.051641610364172
 21
29.1996072886298
 31
0
  0
LINE
  5
36B
  8
0
  6
CONTINUOUS
 62
7
 10
62.459085186901191
 20
29.11554695878969
 30
0
 11
63.433358190129859
 21
29.11554695878969
 31
0
  0
LINE
  5
36C
  8
0
  6
CONTINUOUS
 62
7
 10
62.840801766666893
 20
28.988939699706719
 30
0
 11
63.813696731701441
 21
28.988939699706719
 31
0
  0
LINE
  5
36D
  8
0
  6
CONTINUOUS
 62
7
 10
63.221140308238468
 20
28.903156822124028
 30
0
 11
63.899135099735652
 21
28.903156822124028
 31
0
  0
LINE
  5
36E
  8
0
  6
CONTINUOUS
 62
7
 10
63.560137703987039
 20
28.819268747058221
 30
0
 11
63.772355585878422
 21
28.819268747058221
 31
0
  0
LINE
  5
36F
  8
0
  6
CONTINUOUS
 62
7
 10
48.700751857007468
 20
32.797492758650492
 30
0
 11
49.675024860236093
 21
32.797492758650492
 31
0
  0
LINE
  5
370
  8
0
  6
CONTINUOUS
 62
7
 10
48.363132499452973
 20
32.883275636233179
 30
0
 11
49.336027464487522
 21
32.883275636233179
 31
0
  0
LINE
  5
371
  8
0
  6
CONTINUOUS
 62
7
 10
47.981415919687279
 20
33.009882895316132
 30
0
 11
48.955688922915918
 21
33.009882895316132
 31
0
  0
LINE
  5
372
  8
0
  6
CONTINUOUS
 62
7
 10
47.601077378115683
 20
33.093770970381961
 30
0
 11
48.573972343150253
 21
33.093770970381961
 31
0
  0
LINE
  5
373
  8
0
  6
CONTINUOUS
 62
7
 10
47.219360798350017
 20
33.179553847964641
 30
0
 11
48.193633801578677
 21
33.179553847964641
 31
0
  0
LINE
  5
374
  8
0
  6
CONTINUOUS
 62
7
 10
46.880363402601454
 20
33.3061611070476
 30
0
 11
47.811917221813012
 21
33.3061611070476
 31
0
  0
LINE
  5
375
  8
0
  6
CONTINUOUS
 62
7
 10
46.500024861029843
 20
33.390221436887693
 30
0
 11
47.472919826064377
 21
33.390221436887693
 31
0
  0
LINE
  5
376
  8
0
  6
CONTINUOUS
 62
7
 10
46.118308281264149
 20
33.5182067341647
 30
0
 11
47.092581284492809
 21
33.5182067341647
 31
0
  0
LINE
  5
377
  8
0
  6
CONTINUOUS
 62
7
 10
45.7379697396926
 20
33.602611573553347
 30
0
 11
46.712242742921248
 21
33.602611573553347
 31
0
  0
LINE
  5
378
  8
0
  6
CONTINUOUS
 62
7
 10
45.398972343943989
 20
33.68787768681328
 30
0
 11
46.330526163155568
 21
33.68787768681328
 31
0
  0
LINE
  5
379
  8
0
  6
CONTINUOUS
 62
7
 10
45.018633802372413
 20
33.814484945896183
 30
0
 11
45.991528767406983
 21
33.814484945896183
 31
0
  0
LINE
  5
37A
  8
0
  6
CONTINUOUS
 62
7
 10
44.636917222606769
 20
33.89888978528483
 30
0
 11
45.611190225835387
 21
33.89888978528483
 31
0
  0
LINE
  5
37B
  8
0
  6
CONTINUOUS
 62
7
 10
44.25657868103513
 20
33.984155898544763
 30
0
 11
45.229473646069678
 21
33.984155898544763
 31
0
  0
LINE
  5
37C
  8
0
  6
CONTINUOUS
 62
7
 10
44.171140313000969
 20
34.11093541240195
 30
0
 11
44.849135104498131
 21
34.11093541240195
 31
0
  0
LINE
  5
37D
  8
0
  6
CONTINUOUS
 62
7
 10
44.171140313000969
 20
34.194823487467808
 30
0
 11
44.510137708749532
 21
34.194823487467808
 31
0
  0
LINE
  5
37E
  8
0
  6
CONTINUOUS
 62
7
 10
43.917581285286559
 20
35.08383037743652
 30
0
 11
44.171140313000969
 21
35.08383037743652
 31
0
  0
LINE
  5
37F
  8
0
  6
CONTINUOUS
 62
7
 10
43.917581285286559
 20
34.999942302370691
 30
0
 11
44.171140313000969
 21
34.999942302370691
 31
0
  0
LINE
  5
380
  8
0
  6
CONTINUOUS
 62
7
 10
43.917581285286559
 20
34.872818278964992
 30
0
 11
44.171140313000969
 21
34.872818278964992
 31
0
  0
LINE
  5
381
  8
0
  6
CONTINUOUS
 62
7
 10
43.917581285286559
 20
34.787552165705051
 30
0
 11
44.171140313000969
 21
34.787552165705051
 31
0
  0
LINE
  5
382
  8
0
  6
CONTINUOUS
 62
7
 10
43.917581285286559
 20
34.703491835864952
 30
0
 11
44.171140313000969
 21
34.703491835864952
 31
0
  0
LINE
  5
383
  8
0
  6
CONTINUOUS
 62
7
 10
43.917581285286559
 20
34.576540067233488
 30
0
 11
44.171140313000969
 21
34.576540067233488
 31
0
  0
LINE
  5
384
  8
0
  6
CONTINUOUS
 62
7
 10
43.917581285286559
 20
34.491273953973568
 30
0
 11
44.171140313000969
 21
34.491273953973568
 31
0
  0
LINE
  5
385
  8
0
  6
CONTINUOUS
 62
7
 10
43.917581285286559
 20
34.407213624133462
 30
0
 11
44.171140313000969
 21
34.407213624133462
 31
0
  0
LINE
  5
386
  8
0
  6
CONTINUOUS
 62
7
 10
43.917581285286559
 20
35.16926874547071
 30
0
 11
44.171140313000969
 21
35.16926874547071
 31
0
  0
LINE
  5
387
  8
0
  6
CONTINUOUS
 62
7
 10
43.917581285286559
 20
35.296220514102181
 30
0
 11
44.171140313000969
 21
35.296220514102181
 31
0
  0
LINE
  5
388
  8
0
  6
CONTINUOUS
 62
7
 10
43.917581285286559
 20
35.380108589167989
 30
0
 11
44.171140313000969
 21
35.380108589167989
 31
0
  0
LINE
  5
389
  8
0
  6
CONTINUOUS
 62
7
 10
43.917581285286559
 20
35.506888103025162
 30
0
 11
44.171140313000969
 21
35.506888103025162
 31
0
  0
LINE
  5
38A
  8
0
  6
CONTINUOUS
 62
7
 10
43.917581285286559
 20
35.5921542162851
 30
0
 11
44.171140313000969
 21
35.5921542162851
 31
0
  0
LINE
  5
38B
  8
0
  6
CONTINUOUS
 62
7
 10
43.917581285286559
 20
35.676559055673742
 30
0
 11
44.171140313000969
 21
35.676559055673742
 31
0
  0
LINE
  5
38C
  8
0
  6
CONTINUOUS
 62
7
 10
43.917581285286559
 20
35.804544352950813
 30
0
 11
44.171140313000969
 21
35.804544352950813
 31
0
  0
LINE
  5
38D
  8
0
  6
CONTINUOUS
 62
7
 10
43.917581285286559
 20
35.88860468279087
 30
0
 11
44.171140313000969
 21
35.88860468279087
 31
0
  0
LINE
  5
38E
  8
0
  6
CONTINUOUS
 62
7
 10
43.917581285286559
 20
35.972492757856728
 30
0
 11
44.171140313000969
 21
35.972492757856728
 31
0
  0
LINE
  5
38F
  8
0
  6
CONTINUOUS
 62
7
 10
43.917581285286559
 20
36.100822564682282
 30
0
 11
44.171140313000969
 21
36.100822564682282
 31
0
  0
LINE
  5
390
  8
0
  6
CONTINUOUS
 62
7
 10
43.917581285286559
 20
36.184882894522381
 30
0
 11
44.171140313000969
 21
36.184882894522381
 31
0
  0
LINE
  5
391
  8
0
  6
CONTINUOUS
 62
7
 10
43.917581285286559
 20
36.2687709695882
 30
0
 11
44.171140313000969
 21
36.2687709695882
 31
0
  0
LINE
  5
392
  8
0
  6
CONTINUOUS
 62
7
 10
43.917581285286559
 20
36.397273031188021
 30
0
 11
44.171140313000969
 21
36.397273031188021
 31
0
  0
LINE
  5
393
  8
0
  6
CONTINUOUS
 62
7
 10
43.917581285286559
 20
36.48116110625385
 30
0
 11
44.171140313000969
 21
36.48116110625385
 31
0
  0
LINE
  5
394
  8
0
  6
CONTINUOUS
 62
7
 10
43.917581285286559
 20
36.60794062011103
 30
0
 11
44.171140313000969
 21
36.60794062011103
 31
0
  0
LINE
  5
395
  8
0
  6
CONTINUOUS
 62
7
 10
43.917581285286559
 20
36.693206733370971
 30
0
 11
44.171140313000969
 21
36.693206733370971
 31
0
  0
LINE
  5
396
  8
0
  6
CONTINUOUS
 62
7
 10
43.917581285286559
 20
36.7776115727596
 30
0
 11
44.171140313000969
 21
36.7776115727596
 31
0
  0
LINE
  5
397
  8
0
  6
CONTINUOUS
 62
7
 10
43.917581285286559
 20
36.904218831842492
 30
0
 11
44.171140313000969
 21
36.904218831842492
 31
0
  0
LINE
  5
398
  8
0
  6
CONTINUOUS
 62
7
 10
43.917581285286559
 20
36.989484945102419
 30
0
 11
44.171140313000969
 21
36.989484945102419
 31
0
  0
LINE
  5
399
  8
0
  6
CONTINUOUS
 62
7
 10
43.917581285286559
 20
37.0738897844911
 30
0
 11
44.171140313000969
 21
37.0738897844911
 31
0
  0
LINE
  5
39A
  8
0
  6
CONTINUOUS
 62
7
 10
43.917581285286559
 20
37.200497043574032
 30
0
 11
44.171140313000969
 21
37.200497043574032
 31
0
  0
LINE
  5
39B
  8
0
  6
CONTINUOUS
 62
7
 10
43.917581285286559
 20
37.285935411608193
 30
0
 11
44.171140313000969
 21
37.285935411608193
 31
0
  0
LINE
  5
39C
  8
0
  6
CONTINUOUS
 62
7
 10
43.917581285286559
 20
37.369823486674072
 30
0
 11
44.171140313000969
 21
37.369823486674072
 31
0
  0
LINE
  5
39D
  8
0
  6
CONTINUOUS
 62
7
 10
43.917581285286559
 20
37.496775255305529
 30
0
 11
44.171140313000969
 21
37.496775255305529
 31
0
  0
LINE
  5
39E
  8
0
  6
CONTINUOUS
 62
7
 10
43.917581285286559
 20
37.582213623339733
 30
0
 11
44.171140313000969
 21
37.582213623339733
 31
0
  0
LINE
  5
39F
  8
0
  6
CONTINUOUS
 62
7
 10
43.917581285286559
 20
37.708820882422621
 30
0
 11
44.171140313000969
 21
37.708820882422621
 31
0
  0
LINE
  5
3A0
  8
0
  6
CONTINUOUS
 62
7
 10
43.917581285286559
 20
37.793225721811261
 30
0
 11
44.171140313000969
 21
37.793225721811261
 31
0
  0
LINE
  5
3A1
  8
0
  6
CONTINUOUS
 62
7
 10
43.917581285286559
 20
37.8784918350712
 30
0
 11
44.171140313000969
 21
37.8784918350712
 31
0
  0
LINE
  5
3A2
  8
0
  6
CONTINUOUS
 62
7
 10
43.917581285286559
 20
38.00527134892836
 30
0
 11
44.171140313000969
 21
38.00527134892836
 31
0
  0
LINE
  5
3A3
  8
0
  6
CONTINUOUS
 62
7
 10
43.917581285286559
 20
38.089159423994211
 30
0
 11
44.171140313000969
 21
38.089159423994211
 31
0
  0
LINE
  5
3A4
  8
0
  6
CONTINUOUS
 62
7
 10
43.917581285286559
 20
38.174942301576941
 30
0
 11
44.171140313000969
 21
38.174942301576941
 31
0
  0
LINE
  5
3A5
  8
0
  6
CONTINUOUS
 62
7
 10
43.917581285286559
 20
38.301549560659844
 30
0
 11
44.171140313000969
 21
38.301549560659844
 31
0
  0
LINE
  5
3A6
  8
0
  6
CONTINUOUS
 62
7
 10
43.917581285286559
 20
38.385437635725673
 30
0
 11
44.171140313000969
 21
38.385437635725673
 31
0
  0
LINE
  5
3A7
  8
0
  6
CONTINUOUS
 62
7
 10
43.917581285286559
 20
38.4712205133084
 30
0
 11
44.171140313000969
 21
38.4712205133084
 31
0
  0
LINE
  5
3A8
  8
0
  6
CONTINUOUS
 62
7
 10
43.917581285286559
 20
38.597827772391383
 30
0
 11
44.171140313000969
 21
38.597827772391383
 31
0
  0
LINE
  5
3A9
  8
0
  6
CONTINUOUS
 62
7
 10
43.917581285286559
 20
38.6818881022314
 30
0
 11
44.171140313000969
 21
38.6818881022314
 31
0
  0
LINE
  5
3AA
  8
0
  6
CONTINUOUS
 62
7
 10
43.917581285286559
 20
38.809873399508483
 30
0
 11
44.171140313000969
 21
38.809873399508483
 31
0
  0
LINE
  5
3AB
  8
0
  6
CONTINUOUS
 62
7
 10
43.917581285286559
 20
38.894278238897108
 30
0
 11
44.171140313000969
 21
38.894278238897108
 31
0
  0
LINE
  5
3AC
  8
0
  6
CONTINUOUS
 62
7
 10
43.917581285286559
 20
38.979544352157042
 30
0
 11
44.171140313000969
 21
38.979544352157042
 31
0
  0
LINE
  5
3AD
  8
0
  6
CONTINUOUS
 62
7
 10
43.917581285286559
 20
39.106151611239937
 30
0
 11
44.171140313000969
 21
39.106151611239937
 31
0
  0
LINE
  5
3AE
  8
0
  6
CONTINUOUS
 62
7
 10
43.917581285286559
 20
39.190556450628613
 30
0
 11
44.171140313000969
 21
39.190556450628613
 31
0
  0
LINE
  5
3AF
  8
0
  6
CONTINUOUS
 62
7
 10
43.917581285286559
 20
39.275822563888532
 30
0
 11
44.171140313000969
 21
39.275822563888532
 31
0
  0
LINE
  5
3B0
  8
0
  6
CONTINUOUS
 62
7
 10
43.917581285286559
 20
39.402602077745712
 30
0
 11
44.171140313000969
 21
39.402602077745712
 31
0
  0
LINE
  5
3B1
  8
0
  6
CONTINUOUS
 62
7
 10
43.917581285286559
 20
39.48649015281152
 30
0
 11
44.171140313000969
 21
39.48649015281152
 31
0
  0
LINE
  5
3B2
  8
0
  6
CONTINUOUS
 62
7
 10
43.917581285286559
 20
39.572273030394257
 30
0
 11
44.171140313000969
 21
39.572273030394257
 31
0
  0
LINE
  5
3B3
  8
0
  6
CONTINUOUS
 62
7
 10
43.917581285286559
 20
39.698880289477181
 30
0
 11
44.171140313000969
 21
39.698880289477181
 31
0
  0
LINE
  5
3B4
  8
0
  6
CONTINUOUS
 62
7
 10
43.917581285286559
 20
39.78294061931728
 30
0
 11
44.171140313000969
 21
39.78294061931728
 31
0
  0
LINE
  5
3B5
  8
0
  6
CONTINUOUS
 62
7
 10
43.917581285286559
 20
39.909892387948723
 30
0
 11
44.171140313000969
 21
39.909892387948723
 31
0
  0
LINE
  5
3B6
  8
0
  6
CONTINUOUS
 62
7
 10
43.917581285286559
 20
39.995158501208643
 30
0
 11
44.171140313000969
 21
39.995158501208643
 31
0
  0
LINE
  5
3B7
  8
0
  6
CONTINUOUS
 62
7
 10
43.917581285286559
 20
40.079218831048728
 30
0
 11
44.171140313000969
 21
40.079218831048728
 31
0
  0
LINE
  5
3B8
  8
0
  6
CONTINUOUS
 62
7
 10
43.917581285286559
 20
40.205826090131708
 30
0
 11
44.171140313000969
 21
40.205826090131708
 31
0
  0
LINE
  5
3B9
  8
0
  6
CONTINUOUS
 62
7
 10
43.917581285286559
 20
40.2916089677144
 30
0
 11
44.171140313000969
 21
40.2916089677144
 31
0
  0
LINE
  5
3BA
  8
0
  6
CONTINUOUS
 62
7
 10
43.917581285286559
 20
40.375497042780282
 30
0
 11
44.171140313000969
 21
40.375497042780282
 31
0
  0
LINE
  5
3BB
  8
0
  6
CONTINUOUS
 62
7
 10
43.917581285286559
 20
40.502104301863213
 30
0
 11
44.171140313000969
 21
40.502104301863213
 31
0
  0
LINE
  5
3BC
  8
0
  6
CONTINUOUS
 62
7
 10
43.917581285286559
 20
40.587887179445929
 30
0
 11
44.171140313000969
 21
40.587887179445929
 31
0
  0
LINE
  5
3BD
  8
0
  6
CONTINUOUS
 62
7
 10
43.917581285286559
 20
40.671775254511772
 30
0
 11
44.171140313000969
 21
40.671775254511772
 31
0
  0
LINE
  5
3BE
  8
0
  6
CONTINUOUS
 62
7
 10
43.917581285286559
 20
40.798554768368923
 30
0
 11
44.171140313000969
 21
40.798554768368923
 31
0
  0
LINE
  5
3BF
  8
0
  6
CONTINUOUS
 62
7
 10
43.917581285286559
 20
40.88382088162885
 30
0
 11
44.171140313000969
 21
40.88382088162885
 31
0
  0
LINE
  5
3C0
  8
0
  6
CONTINUOUS
 62
7
 10
43.917581285286559
 20
40.968225721017532
 30
0
 11
44.171140313000969
 21
40.968225721017532
 31
0
  0
LINE
  5
3C1
  8
0
  6
CONTINUOUS
 62
7
 10
43.917581285286559
 20
41.096211018294532
 30
0
 11
44.171140313000969
 21
41.096211018294532
 31
0
  0
LINE
  5
3C2
  8
0
  6
CONTINUOUS
 62
7
 10
43.917581285286559
 20
41.180271348134632
 30
0
 11
44.171140313000969
 21
41.180271348134632
 31
0
  0
LINE
  5
3C3
  8
0
  6
CONTINUOUS
 62
7
 10
43.917581285286559
 20
41.307223116766039
 30
0
 11
44.171140313000969
 21
41.307223116766039
 31
0
  0
LINE
  5
3C4
  8
0
  6
CONTINUOUS
 62
7
 10
43.917581285286559
 20
41.39248923002598
 30
0
 11
44.171140313000969
 21
41.39248923002598
 31
0
  0
LINE
  5
3C5
  8
0
  6
CONTINUOUS
 62
7
 10
43.917581285286559
 20
41.476549559866093
 30
0
 11
44.171140313000969
 21
41.476549559866093
 31
0
  0
LINE
  5
3C6
  8
0
  6
CONTINUOUS
 62
7
 10
43.917581285286559
 20
41.603156818949039
 30
0
 11
44.171140313000969
 21
41.603156818949039
 31
0
  0
LINE
  5
3C7
  8
0
  6
CONTINUOUS
 62
7
 10
43.917581285286559
 20
41.688939696531762
 30
0
 11
44.171140313000969
 21
41.688939696531762
 31
0
  0
LINE
  5
3C8
  8
0
  6
CONTINUOUS
 62
7
 10
43.917581285286559
 20
41.772827771597633
 30
0
 11
44.171140313000969
 21
41.772827771597633
 31
0
  0
LINE
  5
3C9
  8
0
  6
CONTINUOUS
 62
7
 10
43.917581285286559
 20
41.899607285454778
 30
0
 11
44.171140313000969
 21
41.899607285454778
 31
0
  0
LINE
  5
3CA
  8
0
  6
CONTINUOUS
 62
7
 10
43.917581285286559
 20
41.984873398714718
 30
0
 11
44.171140313000969
 21
41.984873398714718
 31
0
  0
LINE
  5
3CB
  8
0
  6
CONTINUOUS
 62
7
 10
43.917581285286559
 20
42.069278238103358
 30
0
 11
44.171140313000969
 21
42.069278238103358
 31
0
  0
LINE
  5
3CC
  8
0
  6
CONTINUOUS
 62
7
 10
43.917581285286559
 20
42.195885497186282
 30
0
 11
44.171140313000969
 21
42.195885497186282
 31
0
  0
LINE
  5
3CD
  8
0
  6
CONTINUOUS
 62
7
 10
43.917581285286559
 20
42.281151610446209
 30
0
 11
44.171140313000969
 21
42.281151610446209
 31
0
  0
LINE
  5
3CE
  8
0
  6
CONTINUOUS
 62
7
 10
43.917581285286559
 20
42.408275633851922
 30
0
 11
44.171140313000969
 21
42.408275633851922
 31
0
  0
LINE
  5
3CF
  8
0
  6
CONTINUOUS
 62
7
 10
43.917581285286559
 20
42.492163708917751
 30
0
 11
44.171140313000969
 21
42.492163708917751
 31
0
  0
LINE
  5
3D0
  8
0
  6
CONTINUOUS
 62
7
 10
43.917581285286559
 20
42.577602076951962
 30
0
 11
44.171140313000969
 21
42.577602076951962
 31
0
  0
LINE
  5
3D1
  8
0
  6
CONTINUOUS
 62
7
 10
43.917581285286559
 20
42.704553845583384
 30
0
 11
44.171140313000969
 21
42.704553845583384
 31
0
  0
LINE
  5
3D2
  8
0
  6
CONTINUOUS
 62
7
 10
43.917581285286559
 20
42.78844192064922
 30
0
 11
44.171140313000969
 21
42.78844192064922
 31
0
  0
LINE
  5
3D3
  8
0
  6
CONTINUOUS
 62
7
 10
43.917581285286559
 20
42.873880288683416
 30
0
 11
44.171140313000969
 21
42.873880288683416
 31
0
  0
LINE
  5
3D4
  8
0
  6
CONTINUOUS
 62
7
 10
43.917581285286559
 20
43.000487547766383
 30
0
 11
44.171140313000969
 21
43.000487547766383
 31
0
  0
LINE
  5
3D5
  8
0
  6
CONTINUOUS
 62
7
 10
43.917581285286559
 20
43.084892387154973
 30
0
 11
44.171140313000969
 21
43.084892387154973
 31
0
  0
LINE
  5
3D6
  8
0
  6
CONTINUOUS
 62
7
 10
43.917581285286559
 20
43.170158500414878
 30
0
 11
44.171140313000969
 21
43.170158500414878
 31
0
  0
LINE
  5
3D7
  8
0
  6
CONTINUOUS
 62
7
 10
43.917581285286559
 20
43.296938014272143
 30
0
 11
44.171140313000969
 21
43.296938014272143
 31
0
  0
LINE
  5
3D8
  8
0
  6
CONTINUOUS
 62
7
 10
43.917581285286559
 20
43.380826089337937
 30
0
 11
44.171140313000969
 21
43.380826089337937
 31
0
  0
LINE
  5
3D9
  8
0
  6
CONTINUOUS
 62
7
 10
43.917581285286559
 20
43.509155896163513
 30
0
 11
44.171140313000969
 21
43.509155896163513
 31
0
  0
LINE
  5
3DA
  8
0
  6
CONTINUOUS
 62
7
 10
43.917581285286559
 20
43.593216226003612
 30
0
 11
44.171140313000969
 21
43.593216226003612
 31
0
  0
LINE
  5
3DB
  8
0
  6
CONTINUOUS
 62
7
 10
43.917581285286559
 20
43.677104301069441
 30
0
 11
44.171140313000969
 21
43.677104301069441
 31
0
  0
LINE
  5
3DC
  8
0
  6
CONTINUOUS
 62
7
 10
43.917581285286559
 20
43.80560636266928
 30
0
 11
44.171140313000969
 21
43.80560636266928
 31
0
  0
LINE
  5
3DD
  8
0
  6
CONTINUOUS
 62
7
 10
43.917581285286559
 20
43.889494437735067
 30
0
 11
44.171140313000969
 21
43.889494437735067
 31
0
  0
LINE
  5
3DE
  8
0
  6
CONTINUOUS
 62
7
 10
43.917581285286559
 20
43.973554767575173
 30
0
 11
44.171140313000969
 21
43.973554767575173
 31
0
  0
LINE
  5
3DF
  8
0
  6
CONTINUOUS
 62
7
 10
43.917581285286559
 20
44.101540064852237
 30
0
 11
44.171140313000969
 21
44.101540064852237
 31
0
  0
LINE
  5
3E0
  8
0
  6
CONTINUOUS
 62
7
 10
43.917581285286559
 20
44.185944904240849
 30
0
 11
44.171140313000969
 21
44.185944904240849
 31
0
  0
LINE
  5
3E1
  8
0
  6
CONTINUOUS
 62
7
 10
43.917581285286559
 20
44.271211017500768
 30
0
 11
44.171140313000969
 21
44.271211017500768
 31
0
  0
LINE
  5
3E2
  8
0
  6
CONTINUOUS
 62
7
 10
43.917581285286559
 20
44.397818276583713
 30
0
 11
44.171140313000969
 21
44.397818276583713
 31
0
  0
LINE
  5
3E3
  8
0
  6
CONTINUOUS
 62
7
 10
43.917581285286559
 20
44.48222311597231
 30
0
 11
44.171140313000969
 21
44.48222311597231
 31
0
  0
LINE
  5
3E4
  8
0
  6
CONTINUOUS
 62
7
 10
43.917581285286559
 20
44.60883037505527
 30
0
 11
44.171140313000969
 21
44.60883037505527
 31
0
  0
LINE
  5
3E5
  8
0
  6
CONTINUOUS
 62
7
 10
43.917581285286559
 20
44.694268743089459
 30
0
 11
44.171140313000969
 21
44.694268743089459
 31
0
  0
LINE
  5
3E6
  8
0
  6
CONTINUOUS
 62
7
 10
43.917581285286559
 20
44.778156818155288
 30
0
 11
44.171140313000969
 21
44.778156818155288
 31
0
  0
LINE
  5
3E7
  8
0
  6
CONTINUOUS
 62
7
 10
43.917581285286559
 20
44.905108586786739
 30
0
 11
44.171140313000969
 21
44.905108586786739
 31
0
  0
LINE
  5
3E8
  8
0
  6
CONTINUOUS
 62
7
 10
43.917581285286559
 20
44.990546954820957
 30
0
 11
44.171140313000969
 21
44.990546954820957
 31
0
  0
LINE
  5
3E9
  8
0
  6
CONTINUOUS
 62
7
 10
43.917581285286559
 20
45.074607284661063
 30
0
 11
44.171140313000969
 21
45.074607284661063
 31
0
  0
LINE
  5
3EA
  8
0
  6
CONTINUOUS
 62
7
 10
43.917581285286559
 20
45.201559053292492
 30
0
 11
44.171140313000969
 21
45.201559053292492
 31
0
  0
LINE
  5
3EB
  8
0
  6
CONTINUOUS
 62
7
 10
43.917581285286559
 20
45.286825166552418
 30
0
 11
44.171140313000969
 21
45.286825166552418
 31
0
  0
LINE
  5
3EC
  8
0
  6
CONTINUOUS
 62
7
 10
43.917581285286559
 20
45.370885496392532
 30
0
 11
44.171140313000969
 21
45.370885496392532
 31
0
  0
LINE
  5
3ED
  8
0
  6
CONTINUOUS
 62
7
 10
43.917581285286559
 20
45.497492755475491
 30
0
 11
44.171140313000969
 21
45.497492755475491
 31
0
  0
LINE
  5
3EE
  8
0
  6
CONTINUOUS
 62
7
 10
43.917581285286559
 20
45.583275633058179
 30
0
 11
44.171140313000969
 21
45.583275633058179
 31
0
  0
LINE
  5
3EF
  8
0
  6
CONTINUOUS
 62
7
 10
43.917581285286559
 20
45.70988289214111
 30
0
 11
44.171140313000969
 21
45.70988289214111
 31
0
  0
LINE
  5
3F0
  8
0
  6
CONTINUOUS
 62
7
 10
43.917581285286559
 20
45.793770967206967
 30
0
 11
44.171140313000969
 21
45.793770967206967
 31
0
  0
LINE
  5
3F1
  8
0
  6
CONTINUOUS
 62
7
 10
43.917581285286559
 20
45.879553844789662
 30
0
 11
44.171140313000969
 21
45.879553844789662
 31
0
  0
LINE
  5
3F2
  8
0
  6
CONTINUOUS
 62
7
 10
43.917581285286559
 20
46.0061611038726
 30
0
 11
44.171140313000969
 21
46.0061611038726
 31
0
  0
LINE
  5
3F3
  8
0
  6
CONTINUOUS
 62
7
 10
43.917581285286559
 20
46.090221433712713
 30
0
 11
44.171140313000969
 21
46.090221433712713
 31
0
  0
LINE
  5
3F4
  8
0
  6
CONTINUOUS
 62
7
 10
43.917581285286559
 20
46.17548754697264
 30
0
 11
44.171140313000969
 21
46.17548754697264
 31
0
  0
LINE
  5
3F5
  8
0
  6
CONTINUOUS
 62
7
 10
43.917581285286559
 20
46.302611570378353
 30
0
 11
44.171140313000969
 21
46.302611570378353
 31
0
  0
LINE
  5
3F6
  8
0
  6
CONTINUOUS
 62
7
 10
43.917581285286559
 20
46.387877683638287
 30
0
 11
44.171140313000969
 21
46.387877683638287
 31
0
  0
LINE
  5
3F7
  8
0
  6
CONTINUOUS
 62
7
 10
43.917581285286559
 20
46.471938013478393
 30
0
 11
44.171140313000969
 21
46.471938013478393
 31
0
  0
LINE
  5
3F8
  8
0
  6
CONTINUOUS
 62
7
 10
43.917581285286559
 20
46.598889782109822
 30
0
 11
44.171140313000969
 21
46.598889782109822
 31
0
  0
LINE
  5
3F9
  8
0
  6
CONTINUOUS
 62
7
 10
43.917581285286559
 20
46.684155895369763
 30
0
 11
44.171140313000969
 21
46.684155895369763
 31
0
  0
LINE
  5
3FA
  8
0
  6
CONTINUOUS
 62
7
 10
43.917581285286559
 20
46.810935409226943
 30
0
 11
44.171140313000969
 21
46.810935409226943
 31
0
  0
LINE
  5
3FB
  8
0
  6
CONTINUOUS
 62
7
 10
43.917581285286559
 20
46.894823484292822
 30
0
 11
44.171140313000969
 21
46.894823484292822
 31
0
  0
LINE
  5
3FC
  8
0
  6
CONTINUOUS
 62
7
 10
43.917581285286559
 20
46.980606361875523
 30
0
 11
44.171140313000969
 21
46.980606361875523
 31
0
  0
LINE
  5
3FD
  8
0
  6
CONTINUOUS
 62
7
 10
43.917581285286559
 20
47.107213620958461
 30
0
 11
44.171140313000969
 21
47.107213620958461
 31
0
  0
LINE
  5
3FE
  8
0
  6
CONTINUOUS
 62
7
 10
43.917581285286559
 20
47.191273950798582
 30
0
 11
44.171140313000969
 21
47.191273950798582
 31
0
  0
LINE
  5
3FF
  8
0
  6
CONTINUOUS
 62
7
 10
43.917581285286559
 20
47.2765400640585
 30
0
 11
44.171140313000969
 21
47.2765400640585
 31
0
  0
LINE
  5
400
  8
0
  6
CONTINUOUS
 62
7
 10
43.917581285286559
 20
47.40349183268993
 30
0
 11
44.171140313000969
 21
47.40349183268993
 31
0
  0
LINE
  5
401
  8
0
  6
CONTINUOUS
 62
7
 10
43.917581285286559
 20
47.487552162530037
 30
0
 11
44.171140313000969
 21
47.487552162530037
 31
0
  0
LINE
  5
402
  8
0
  6
CONTINUOUS
 62
7
 10
43.917581285286559
 20
47.572818275789963
 30
0
 11
44.171140313000969
 21
47.572818275789963
 31
0
  0
LINE
  5
403
  8
0
  6
CONTINUOUS
 62
7
 10
43.917581285286559
 20
47.699942299195691
 30
0
 11
44.171140313000969
 21
47.699942299195691
 31
0
  0
LINE
  5
404
  8
0
  6
CONTINUOUS
 62
7
 10
43.917581285286559
 20
47.7838303742615
 30
0
 11
44.171140313000969
 21
47.7838303742615
 31
0
  0
LINE
  5
405
  8
0
  6
CONTINUOUS
 62
7
 10
43.917581285286559
 20
47.869268742295723
 30
0
 11
44.171140313000969
 21
47.869268742295723
 31
0
  0
LINE
  5
406
  8
0
  6
CONTINUOUS
 62
7
 10
43.917581285286559
 20
47.996220510927152
 30
0
 11
44.171140313000969
 21
47.996220510927152
 31
0
  0
LINE
  5
407
  8
0
  6
CONTINUOUS
 62
7
 10
43.917581285286559
 20
48.080108585993
 30
0
 11
44.171140313000969
 21
48.080108585993
 31
0
  0
LINE
  5
408
  8
0
  6
CONTINUOUS
 62
7
 10
43.917581285286559
 20
48.206888099850183
 30
0
 11
44.171140313000969
 21
48.206888099850183
 31
0
  0
LINE
  5
409
  8
0
  6
CONTINUOUS
 62
7
 10
43.917581285286559
 20
48.2921542131101
 30
0
 11
44.171140313000969
 21
48.2921542131101
 31
0
  0
LINE
  5
40A
  8
0
  6
CONTINUOUS
 62
7
 10
43.917581285286559
 20
48.376559052498742
 30
0
 11
44.171140313000969
 21
48.376559052498742
 31
0
  0
LINE
  5
40B
  8
0
  6
CONTINUOUS
 62
7
 10
43.917581285286559
 20
48.504544349775813
 30
0
 11
44.171140313000969
 21
48.504544349775813
 31
0
  0
LINE
  5
40C
  8
0
  6
CONTINUOUS
 62
7
 10
43.917581285286559
 20
48.588604679615912
 30
0
 11
44.171140313000969
 21
48.588604679615912
 31
0
  0
LINE
  5
40D
  8
0
  6
CONTINUOUS
 62
7
 10
43.917581285286559
 20
48.67249275468172
 30
0
 11
44.171140313000969
 21
48.67249275468172
 31
0
  0
LINE
  5
40E
  8
0
  6
CONTINUOUS
 62
7
 10
43.917581285286559
 20
48.800822561507282
 30
0
 11
44.171140313000969
 21
48.800822561507282
 31
0
  0
LINE
  5
40F
  8
0
  6
CONTINUOUS
 62
7
 10
43.917581285286559
 20
48.884882891347381
 30
0
 11
44.171140313000969
 21
48.884882891347381
 31
0
  0
LINE
  5
410
  8
0
  6
CONTINUOUS
 62
7
 10
43.917581285286559
 20
48.96877096641321
 30
0
 11
44.171140313000969
 21
48.96877096641321
 31
0
  0
LINE
  5
411
  8
0
  6
CONTINUOUS
 62
7
 10
43.917581285286559
 20
49.097273028013042
 30
0
 11
44.171140313000969
 21
49.097273028013042
 31
0
  0
LINE
  5
412
  8
0
  6
CONTINUOUS
 62
7
 10
43.917581285286559
 20
49.181161103078843
 30
0
 11
44.171140313000969
 21
49.181161103078843
 31
0
  0
LINE
  5
413
  8
0
  6
CONTINUOUS
 62
7
 10
43.917581285286559
 20
49.307940616936023
 30
0
 11
44.171140313000969
 21
49.307940616936023
 31
0
  0
LINE
  5
414
  8
0
  6
CONTINUOUS
 62
7
 10
43.917581285286559
 20
49.393206730195963
 30
0
 11
44.171140313000969
 21
49.393206730195963
 31
0
  0
LINE
  5
415
  8
0
  6
CONTINUOUS
 62
7
 10
43.917581285286559
 20
49.4776115695846
 30
0
 11
44.171140313000969
 21
49.4776115695846
 31
0
  0
LINE
  5
416
  8
0
  6
CONTINUOUS
 62
7
 10
43.917581285286559
 20
49.604218828667491
 30
0
 11
44.171140313000969
 21
49.604218828667491
 31
0
  0
LINE
  5
417
  8
0
  6
CONTINUOUS
 62
7
 10
43.917581285286559
 20
49.689484941927432
 30
0
 11
44.171140313000969
 21
49.689484941927432
 31
0
  0
LINE
  5
418
  8
0
  6
CONTINUOUS
 62
7
 10
43.917581285286559
 20
49.773889781316079
 30
0
 11
44.171140313000969
 21
49.773889781316079
 31
0
  0
LINE
  5
419
  8
0
  6
CONTINUOUS
 62
7
 10
43.917581285286559
 20
49.900497040399038
 30
0
 11
44.171140313000969
 21
49.900497040399038
 31
0
  0
LINE
  5
41A
  8
0
  6
CONTINUOUS
 62
7
 10
43.917581285286559
 20
49.985935408433193
 30
0
 11
44.171140313000969
 21
49.985935408433193
 31
0
  0
LINE
  5
41B
  8
0
  6
CONTINUOUS
 62
7
 10
43.917581285286559
 20
50.069823483499057
 30
0
 11
44.171140313000969
 21
50.069823483499057
 31
0
  0
LINE
  5
41C
  8
0
  6
CONTINUOUS
 62
7
 10
43.917581285286559
 20
50.196775252130507
 30
0
 11
44.171140313000969
 21
50.196775252130507
 31
0
  0
LINE
  5
41D
  8
0
  6
CONTINUOUS
 62
7
 10
43.917581285286559
 20
50.282213620164718
 30
0
 11
44.171140313000969
 21
50.282213620164718
 31
0
  0
LINE
  5
41E
  8
0
  6
CONTINUOUS
 62
7
 10
43.917581285286559
 20
50.4088208792476
 30
0
 11
44.171140313000969
 21
50.4088208792476
 31
0
  0
LINE
  5
41F
  8
0
  6
CONTINUOUS
 62
7
 10
43.917581285286559
 20
50.493225718636232
 30
0
 11
44.171140313000969
 21
50.493225718636232
 31
0
  0
LINE
  5
420
  8
0
  6
CONTINUOUS
 62
7
 10
43.917581285286559
 20
50.578491831896187
 30
0
 11
44.171140313000969
 21
50.578491831896187
 31
0
  0
LINE
  5
421
  8
0
  6
CONTINUOUS
 62
7
 10
43.917581285286559
 20
50.705271345753381
 30
0
 11
44.171140313000969
 21
50.705271345753381
 31
0
  0
LINE
  5
422
  8
0
  6
CONTINUOUS
 62
7
 10
43.917581285286559
 20
50.7891594208192
 30
0
 11
44.171140313000969
 21
50.7891594208192
 31
0
  0
LINE
  5
423
  8
0
  6
CONTINUOUS
 62
7
 10
43.917581285286559
 20
50.874942298401919
 30
0
 11
44.171140313000969
 21
50.874942298401919
 31
0
  0
LINE
  5
424
  8
0
  6
CONTINUOUS
 62
7
 10
43.917581285286559
 20
51.001549557484843
 30
0
 11
44.171140313000969
 21
51.001549557484843
 31
0
  0
LINE
  5
425
  8
0
  6
CONTINUOUS
 62
7
 10
43.917581285286559
 20
51.085437632550672
 30
0
 11
44.171140313000969
 21
51.085437632550672
 31
0
  0
LINE
  5
426
  8
0
  6
CONTINUOUS
 62
7
 10
43.917581285286559
 20
51.171220510133423
 30
0
 11
44.171140313000969
 21
51.171220510133423
 31
0
  0
LINE
  5
427
  8
0
  6
CONTINUOUS
 62
7
 10
43.917581285286559
 20
51.297827769216383
 30
0
 11
44.171140313000969
 21
51.297827769216383
 31
0
  0
LINE
  5
428
  8
0
  6
CONTINUOUS
 62
7
 10
43.917581285286559
 20
51.381888099056418
 30
0
 11
44.171140313000969
 21
51.381888099056418
 31
0
  0
LINE
  5
429
  8
0
  6
CONTINUOUS
 62
7
 10
43.917581285286559
 20
51.509873396333468
 30
0
 11
44.171140313000969
 21
51.509873396333468
 31
0
  0
LINE
  5
42A
  8
0
  6
CONTINUOUS
 62
7
 10
43.917581285286559
 20
51.594278235722122
 30
0
 11
44.171140313000969
 21
51.594278235722122
 31
0
  0
LINE
  5
42B
  8
0
  6
CONTINUOUS
 62
7
 10
43.917581285286559
 20
51.67954434898207
 30
0
 11
44.171140313000969
 21
51.67954434898207
 31
0
  0
LINE
  5
42C
  8
0
  6
CONTINUOUS
 62
7
 10
43.917581285286559
 20
51.806151608064958
 30
0
 11
44.044360799143767
 21
51.806151608064958
 31
0
  0
LINE
  5
42D
  8
0
  6
CONTINUOUS
 62
7
 10
34.435300471684933
 20
36.397273031188021
 30
0
 11
43.409085191663678
 21
36.397273031188021
 31
0
  0
LINE
  5
42E
  8
0
  6
CONTINUOUS
 62
7
 10
34.435300471684933
 20
36.311490153605277
 30
0
 11
43.409085191663678
 21
36.311490153605277
 31
0
  0
LINE
  5
42F
  8
0
  6
CONTINUOUS
 62
7
 10
34.435300471684933
 20
36.184882894522381
 30
0
 11
43.409085191663678
 21
36.184882894522381
 31
0
  0
LINE
  5
430
  8
0
  6
CONTINUOUS
 62
7
 10
34.435300471684933
 20
36.100822564682282
 30
0
 11
43.409085191663678
 21
36.100822564682282
 31
0
  0
LINE
  5
431
  8
0
  6
CONTINUOUS
 62
7
 10
34.435300471684933
 20
36.015556451422341
 30
0
 11
43.409085191663678
 21
36.015556451422341
 31
0
  0
LINE
  5
432
  8
0
  6
CONTINUOUS
 62
7
 10
34.435300471684933
 20
35.88860468279087
 30
0
 11
43.409085191663678
 21
35.88860468279087
 31
0
  0
LINE
  5
433
  8
0
  6
CONTINUOUS
 62
7
 10
34.435300471684933
 20
35.804544352950813
 30
0
 11
43.409085191663678
 21
35.804544352950813
 31
0
  0
LINE
  5
434
  8
0
  6
CONTINUOUS
 62
7
 10
34.435300471684933
 20
35.71927823969088
 30
0
 11
43.409085191663678
 21
35.71927823969088
 31
0
  0
LINE
  5
435
  8
0
  6
CONTINUOUS
 62
7
 10
34.435300471684933
 20
35.5921542162851
 30
0
 11
43.409085191663678
 21
35.5921542162851
 31
0
  0
LINE
  5
436
  8
0
  6
CONTINUOUS
 62
7
 10
34.435300471684933
 20
35.506888103025162
 30
0
 11
43.409085191663678
 21
35.506888103025162
 31
0
  0
LINE
  5
437
  8
0
  6
CONTINUOUS
 62
7
 10
34.435300471684933
 20
35.380108589167989
 30
0
 11
43.409085191663678
 21
35.380108589167989
 31
0
  0
LINE
  5
438
  8
0
  6
CONTINUOUS
 62
7
 10
34.435300471684933
 20
35.296220514102181
 30
0
 11
43.409085191663678
 21
35.296220514102181
 31
0
  0
LINE
  5
439
  8
0
  6
CONTINUOUS
 62
7
 10
34.435300471684933
 20
35.210437636519423
 30
0
 11
43.409085191663678
 21
35.210437636519423
 31
0
  0
LINE
  5
43A
  8
0
  6
CONTINUOUS
 62
7
 10
34.435300471684933
 20
35.08383037743652
 30
0
 11
43.409085191663678
 21
35.08383037743652
 31
0
  0
LINE
  5
43B
  8
0
  6
CONTINUOUS
 62
7
 10
34.435300471684933
 20
34.999942302370691
 30
0
 11
43.409085191663678
 21
34.999942302370691
 31
0
  0
LINE
  5
43C
  8
0
  6
CONTINUOUS
 62
7
 10
34.435300471684933
 20
34.91415942478794
 30
0
 11
43.409085191663678
 21
34.91415942478794
 31
0
  0
LINE
  5
43D
  8
0
  6
CONTINUOUS
 62
7
 10
34.435300471684933
 20
34.787552165705051
 30
0
 11
43.409085191663678
 21
34.787552165705051
 31
0
  0
LINE
  5
43E
  8
0
  6
CONTINUOUS
 62
7
 10
34.435300471684933
 20
34.703491835864952
 30
0
 11
43.409085191663678
 21
34.703491835864952
 31
0
  0
LINE
  5
43F
  8
0
  6
CONTINUOUS
 62
7
 10
34.435300471684933
 20
34.618225722605
 30
0
 11
43.409085191663678
 21
34.618225722605
 31
0
  0
LINE
  5
440
  8
0
  6
CONTINUOUS
 62
7
 10
34.435300471684933
 20
34.491273953973568
 30
0
 11
43.367744045840688
 21
34.491273953973568
 31
0
  0
LINE
  5
441
  8
0
  6
CONTINUOUS
 62
7
 10
34.435300471684933
 20
34.407213624133462
 30
0
 11
43.239586493789432
 21
34.407213624133462
 31
0
  0
LINE
  5
442
  8
0
  6
CONTINUOUS
 62
7
 10
34.435300471684933
 20
34.2806063650505
 30
0
 11
43.112806979932223
 21
34.2806063650505
 31
0
  0
LINE
  5
443
  8
0
  6
CONTINUOUS
 62
7
 10
34.435300471684933
 20
34.194823487467808
 30
0
 11
42.986027466075022
 21
34.194823487467808
 31
0
  0
LINE
  5
444
  8
0
  6
CONTINUOUS
 62
7
 10
34.435300471684933
 20
34.11093541240195
 30
0
 11
42.859247952217807
 21
34.11093541240195
 31
0
  0
LINE
  5
445
  8
0
  6
CONTINUOUS
 62
7
 10
34.435300471684933
 20
33.984155898544763
 30
0
 11
42.732468438360641
 21
33.984155898544763
 31
0
  0
LINE
  5
446
  8
0
  6
CONTINUOUS
 62
7
 10
34.435300471684933
 20
33.89888978528483
 30
0
 11
42.647030070326423
 21
33.89888978528483
 31
0
  0
LINE
  5
447
  8
0
  6
CONTINUOUS
 62
7
 10
34.435300471684933
 20
33.814484945896183
 30
0
 11
42.520250556469243
 21
33.814484945896183
 31
0
  0
LINE
  5
448
  8
0
  6
CONTINUOUS
 62
7
 10
34.435300471684933
 20
33.68787768681328
 30
0
 11
42.39347104261207
 21
33.68787768681328
 31
0
  0
LINE
  5
449
  8
0
  6
CONTINUOUS
 62
7
 10
34.435300471684933
 20
33.602611573553347
 30
0
 11
42.266691528754883
 21
33.602611573553347
 31
0
  0
LINE
  5
44A
  8
0
  6
CONTINUOUS
 62
7
 10
34.435300471684933
 20
33.5182067341647
 30
0
 11
42.139912014897668
 21
33.5182067341647
 31
0
  0
LINE
  5
44B
  8
0
  6
CONTINUOUS
 62
7
 10
34.435300471684933
 20
33.390221436887693
 30
0
 11
42.013132501040452
 21
33.390221436887693
 31
0
  0
LINE
  5
44C
  8
0
  6
CONTINUOUS
 62
7
 10
34.435300471684933
 20
33.3061611070476
 30
0
 11
41.8849749489892
 21
33.3061611070476
 31
0
  0
LINE
  5
44D
  8
0
  6
CONTINUOUS
 62
7
 10
34.435300471684933
 20
33.179553847964641
 30
0
 11
41.80091461914909
 21
33.179553847964641
 31
0
  0
LINE
  5
44E
  8
0
  6
CONTINUOUS
 62
7
 10
34.435300471684933
 20
33.093770970381961
 30
0
 11
41.6741351052919
 21
33.093770970381961
 31
0
  0
LINE
  5
44F
  8
0
  6
CONTINUOUS
 62
7
 10
34.435300471684933
 20
33.009882895316132
 30
0
 11
41.547355591434687
 21
33.009882895316132
 31
0
  0
LINE
  5
450
  8
0
  6
CONTINUOUS
 62
7
 10
34.435300471684933
 20
32.883275636233179
 30
0
 11
41.420576077577522
 21
32.883275636233179
 31
0
  0
LINE
  5
451
  8
0
  6
CONTINUOUS
 62
7
 10
34.435300471684933
 20
32.797492758650492
 30
0
 11
41.29241852552623
 21
32.797492758650492
 31
0
  0
LINE
  5
452
  8
0
  6
CONTINUOUS
 62
7
 10
34.435300471684933
 20
32.713604683584592
 30
0
 11
41.165639011669029
 21
32.713604683584592
 31
0
  0
LINE
  5
453
  8
0
  6
CONTINUOUS
 62
7
 10
34.435300471684933
 20
32.586825169727433
 30
0
 11
41.038859497811821
 21
32.586825169727433
 31
0
  0
LINE
  5
454
  8
0
  6
CONTINUOUS
 62
7
 10
34.435300471684933
 20
32.501559056467492
 30
0
 11
40.954799167971728
 21
32.501559056467492
 31
0
  0
LINE
  5
455
  8
0
  6
CONTINUOUS
 62
7
 10
34.435300471684933
 20
32.41715421707886
 30
0
 11
40.82664161592043
 21
32.41715421707886
 31
0
  0
LINE
  5
456
  8
0
  6
CONTINUOUS
 62
7
 10
34.435300471684933
 20
32.29054695799595
 30
0
 11
40.699862102063243
 21
32.29054695799595
 31
0
  0
LINE
  5
457
  8
0
  6
CONTINUOUS
 62
7
 10
34.435300471684933
 20
32.205108589961732
 30
0
 11
40.573082588206049
 21
32.205108589961732
 31
0
  0
LINE
  5
458
  8
0
  6
CONTINUOUS
 62
7
 10
34.435300471684933
 20
32.07815682133031
 30
0
 11
40.446303074348869
 21
32.07815682133031
 31
0
  0
LINE
  5
459
  8
0
  6
CONTINUOUS
 62
7
 10
34.435300471684933
 20
31.994268746264471
 30
0
 11
40.319523560491639
 21
31.994268746264471
 31
0
  0
LINE
  5
45A
  8
0
  6
CONTINUOUS
 62
7
 10
34.435300471684933
 20
31.90883037823027
 30
0
 11
40.192744046634452
 21
31.90883037823027
 31
0
  0
LINE
  5
45B
  8
0
  6
CONTINUOUS
 62
7
 10
34.435300471684933
 20
31.782223119147311
 30
0
 11
40.064586494583189
 21
31.782223119147311
 31
0
  0
LINE
  5
45C
  8
0
  6
CONTINUOUS
 62
7
 10
34.435300471684933
 20
31.697818279758732
 30
0
 11
39.980526164743083
 21
31.697818279758732
 31
0
  0
LINE
  5
45D
  8
0
  6
CONTINUOUS
 62
7
 10
34.435300471684933
 20
31.61255216649878
 30
0
 11
39.853746650885867
 21
31.61255216649878
 31
0
  0
LINE
  5
45E
  8
0
  6
CONTINUOUS
 62
7
 10
34.435300471684933
 20
31.485944907415838
 30
0
 11
39.72696713702868
 21
31.485944907415838
 31
0
  0
LINE
  5
45F
  8
0
  6
CONTINUOUS
 62
7
 10
34.435300471684933
 20
31.401540068027249
 30
0
 11
39.6001876231715
 21
31.401540068027249
 31
0
  0
LINE
  5
460
  8
0
  6
CONTINUOUS
 62
7
 10
34.435300471684933
 20
31.316273954767318
 30
0
 11
39.472030071120187
 21
31.316273954767318
 31
0
  0
LINE
  5
461
  8
0
  6
CONTINUOUS
 62
7
 10
34.435300471684933
 20
31.189494440910082
 30
0
 11
39.345250557262993
 21
31.189494440910082
 31
0
  0
LINE
  5
462
  8
0
  6
CONTINUOUS
 62
7
 10
34.435300471684933
 20
31.105606365844249
 30
0
 11
39.2611902274229
 21
31.105606365844249
 31
0
  0
LINE
  5
463
  8
0
  6
CONTINUOUS
 62
7
 10
34.435300471684933
 20
30.977104304244431
 30
0
 11
39.134410713565707
 21
30.977104304244431
 31
0
  0
LINE
  5
464
  8
0
  6
CONTINUOUS
 62
7
 10
34.435300471684933
 20
30.893216229178609
 30
0
 11
39.006253161514422
 21
30.893216229178609
 31
0
  0
LINE
  5
465
  8
0
  6
CONTINUOUS
 62
7
 10
34.435300471684933
 20
30.809155899338521
 30
0
 11
38.879473647657221
 21
30.809155899338521
 31
0
  0
LINE
  5
466
  8
0
  6
CONTINUOUS
 62
7
 10
34.435300471684933
 20
30.680826092512969
 30
0
 11
38.752694133800041
 21
30.680826092512969
 31
0
  0
LINE
  5
467
  8
0
  6
CONTINUOUS
 62
7
 10
34.435300471684933
 20
30.59693801744713
 30
0
 11
38.62591461994284
 21
30.59693801744713
 31
0
  0
LINE
  5
468
  8
0
  6
CONTINUOUS
 62
7
 10
34.435300471684933
 20
30.51287768760703
 30
0
 11
38.499135106085653
 21
30.51287768760703
 31
0
  0
LINE
  5
469
  8
0
  6
CONTINUOUS
 62
7
 10
34.435300471684933
 20
30.38489239032997
 30
0
 11
38.413696738051428
 21
30.38489239032997
 31
0
  0
LINE
  5
46A
  8
0
  6
CONTINUOUS
 62
7
 10
34.435300471684933
 20
30.300487550941391
 30
0
 11
38.286917224194283
 21
30.300487550941391
 31
0
  0
LINE
  5
46B
  8
0
  6
CONTINUOUS
 62
7
 10
34.435300471684933
 20
30.21522143768145
 30
0
 11
38.160137710337061
 21
30.21522143768145
 31
0
  0
LINE
  5
46C
  8
0
  6
CONTINUOUS
 62
7
 10
34.435300471684933
 20
30.08844192382421
 30
0
 11
38.03335819647986
 21
30.08844192382421
 31
0
  0
LINE
  5
46D
  8
0
  6
CONTINUOUS
 62
7
 10
34.435300471684933
 20
30.004553848758409
 30
0
 11
37.906578682622673
 21
30.004553848758409
 31
0
  0
LINE
  5
46E
  8
0
  6
CONTINUOUS
 62
7
 10
34.435300471684933
 20
29.918770971175711
 30
0
 11
37.779799168765493
 21
29.918770971175711
 31
0
  0
LINE
  5
46F
  8
0
  6
CONTINUOUS
 62
7
 10
34.435300471684933
 20
29.79216371209273
 30
0
 11
37.651641616714187
 21
29.79216371209273
 31
0
  0
LINE
  5
470
  8
0
  6
CONTINUOUS
 62
7
 10
34.435300471684933
 20
29.708275637026919
 30
0
 11
37.524862102856993
 21
29.708275637026919
 31
0
  0
LINE
  5
471
  8
0
  6
CONTINUOUS
 62
7
 10
34.435300471684933
 20
29.58115161362122
 30
0
 11
37.440801773016879
 21
29.58115161362122
 31
0
  0
LINE
  5
472
  8
0
  6
CONTINUOUS
 62
7
 10
34.435300471684933
 20
29.495885500361279
 30
0
 11
37.314022259159707
 21
29.495885500361279
 31
0
  0
LINE
  5
473
  8
0
  6
CONTINUOUS
 62
7
 10
34.435300471684933
 20
29.411825170521169
 30
0
 11
37.187242745302513
 21
29.411825170521169
 31
0
  0
LINE
  5
474
  8
0
  6
CONTINUOUS
 62
7
 10
34.435300471684933
 20
29.28487340188973
 30
0
 11
37.059085193251207
 21
29.28487340188973
 31
0
  0
LINE
  5
475
  8
0
  6
CONTINUOUS
 62
7
 10
34.435300471684933
 20
29.1996072886298
 30
0
 11
36.932305679394041
 21
29.1996072886298
 31
0
  0
LINE
  5
476
  8
0
  6
CONTINUOUS
 62
7
 10
34.435300471684933
 20
29.11554695878969
 30
0
 11
36.805526165536833
 21
29.11554695878969
 31
0
  0
LINE
  5
477
  8
0
  6
CONTINUOUS
 62
7
 10
34.435300471684933
 20
28.988939699706719
 30
0
 11
36.678746651679617
 21
28.988939699706719
 31
0
  0
LINE
  5
478
  8
0
  6
CONTINUOUS
 62
7
 10
34.435300471684933
 20
28.903156822124028
 30
0
 11
36.59330828364542
 21
28.903156822124028
 31
0
  0
LINE
  5
479
  8
0
  6
CONTINUOUS
 62
7
 10
34.435300471684933
 20
28.819268747058221
 30
0
 11
36.466528769788241
 21
28.819268747058221
 31
0
  0
LINE
  5
47A
  8
0
  6
CONTINUOUS
 62
7
 10
34.435300471684933
 20
28.692489233201
 30
0
 11
36.339749255931054
 21
28.692489233201
 31
0
  0
LINE
  5
47B
  8
0
  6
CONTINUOUS
 62
7
 10
34.435300471684933
 20
28.607223119941072
 30
0
 11
36.212969742073852
 21
28.607223119941072
 31
0
  0
LINE
  5
47C
  8
0
  6
CONTINUOUS
 62
7
 10
34.435300471684933
 20
28.480271351309611
 30
0
 11
36.086190228216637
 21
28.480271351309611
 31
0
  0
LINE
  5
47D
  8
0
  6
CONTINUOUS
 62
7
 10
34.435300471684933
 20
28.396211021469512
 30
0
 11
35.959410714359471
 21
28.396211021469512
 31
0
  0
LINE
  5
47E
  8
0
  6
CONTINUOUS
 62
7
 10
34.435300471684933
 20
28.310944908209589
 30
0
 11
35.831253162308158
 21
28.310944908209589
 31
0
  0
LINE
  5
47F
  8
0
  6
CONTINUOUS
 62
7
 10
34.435300471684933
 20
28.183820884803868
 30
0
 11
35.747192832468073
 21
28.183820884803868
 31
0
  0
LINE
  5
480
  8
0
  6
CONTINUOUS
 62
7
 10
34.435300471684933
 20
28.098554771543931
 30
0
 11
35.620413318610872
 21
28.098554771543931
 31
0
  0
LINE
  5
481
  8
0
  6
CONTINUOUS
 62
7
 10
34.435300471684933
 20
28.014494441703832
 30
0
 11
35.493633804753692
 21
28.014494441703832
 31
0
  0
LINE
  5
482
  8
0
  6
CONTINUOUS
 62
7
 10
34.435300471684933
 20
27.8878871826209
 30
0
 11
35.366854290896491
 21
27.8878871826209
 31
0
  0
LINE
  5
483
  8
0
  6
CONTINUOUS
 62
7
 10
34.435300471684933
 20
27.802104305038188
 30
0
 11
35.238696738845192
 21
27.802104305038188
 31
0
  0
LINE
  5
484
  8
0
  6
CONTINUOUS
 62
7
 10
34.435300471684933
 20
27.71821622997237
 30
0
 11
35.111917224988012
 21
27.71821622997237
 31
0
  0
LINE
  5
485
  8
0
  6
CONTINUOUS
 62
7
 10
34.435300471684933
 20
27.591608970889428
 30
0
 11
34.9851377111308
 21
27.591608970889428
 31
0
  0
LINE
  5
486
  8
0
  6
CONTINUOUS
 62
7
 10
34.435300471684933
 20
27.5058260933067
 30
0
 11
34.85835819727361
 21
27.5058260933067
 31
0
  0
LINE
  5
487
  8
0
  6
CONTINUOUS
 62
7
 10
34.435300471684933
 20
27.379218834223789
 30
0
 11
34.772919829239413
 21
27.379218834223789
 31
0
  0
LINE
  5
488
  8
0
  6
CONTINUOUS
 62
7
 10
34.435300471684933
 20
27.295158504383679
 30
0
 11
34.64614031538224
 21
27.295158504383679
 31
0
  0
LINE
  5
489
  8
0
  6
CONTINUOUS
 62
7
 10
34.435300471684933
 20
27.209892391123748
 30
0
 11
34.519360801525032
 21
27.209892391123748
 31
0
  0
LINE
  5
48A
  8
0
  6
CONTINUOUS
 62
7
 10
34.435300471684933
 20
36.48116110625385
 30
0
 11
43.409085191663678
 21
36.48116110625385
 31
0
  0
LINE
  5
48B
  8
0
  6
CONTINUOUS
 62
7
 10
34.435300471684933
 20
36.60794062011103
 30
0
 11
43.409085191663678
 21
36.60794062011103
 31
0
  0
LINE
  5
48C
  8
0
  6
CONTINUOUS
 62
7
 10
34.435300471684933
 20
36.693206733370971
 30
0
 11
43.409085191663678
 21
36.693206733370971
 31
0
  0
LINE
  5
48D
  8
0
  6
CONTINUOUS
 62
7
 10
34.435300471684933
 20
36.8201585020024
 30
0
 11
43.409085191663678
 21
36.8201585020024
 31
0
  0
LINE
  5
48E
  8
0
  6
CONTINUOUS
 62
7
 10
34.435300471684933
 20
36.904218831842492
 30
0
 11
43.409085191663678
 21
36.904218831842492
 31
0
  0
LINE
  5
48F
  8
0
  6
CONTINUOUS
 62
7
 10
34.435300471684933
 20
36.989484945102419
 30
0
 11
43.409085191663678
 21
36.989484945102419
 31
0
  0
LINE
  5
490
  8
0
  6
CONTINUOUS
 62
7
 10
34.435300471684933
 20
37.116608968508153
 30
0
 11
43.409085191663678
 21
37.116608968508153
 31
0
  0
LINE
  5
491
  8
0
  6
CONTINUOUS
 62
7
 10
34.435300471684933
 20
37.200497043574032
 30
0
 11
43.409085191663678
 21
37.200497043574032
 31
0
  0
LINE
  5
492
  8
0
  6
CONTINUOUS
 62
7
 10
34.435300471684933
 20
37.285935411608193
 30
0
 11
43.409085191663678
 21
37.285935411608193
 31
0
  0
LINE
  5
493
  8
0
  6
CONTINUOUS
 62
7
 10
34.435300471684933
 20
37.412887180239693
 30
0
 11
43.409085191663678
 21
37.412887180239693
 31
0
  0
LINE
  5
494
  8
0
  6
CONTINUOUS
 62
7
 10
34.435300471684933
 20
37.496775255305529
 30
0
 11
43.409085191663678
 21
37.496775255305529
 31
0
  0
LINE
  5
495
  8
0
  6
CONTINUOUS
 62
7
 10
34.435300471684933
 20
37.582213623339733
 30
0
 11
43.409085191663678
 21
37.582213623339733
 31
0
  0
LINE
  5
496
  8
0
  6
CONTINUOUS
 62
7
 10
34.435300471684933
 20
37.708820882422621
 30
0
 11
43.409085191663678
 21
37.708820882422621
 31
0
  0
LINE
  5
497
  8
0
  6
CONTINUOUS
 62
7
 10
34.435300471684933
 20
37.793225721811261
 30
0
 11
43.409085191663678
 21
37.793225721811261
 31
0
  0
LINE
  5
498
  8
0
  6
CONTINUOUS
 62
7
 10
34.435300471684933
 20
37.8784918350712
 30
0
 11
43.409085191663678
 21
37.8784918350712
 31
0
  0
LINE
  5
499
  8
0
  6
CONTINUOUS
 62
7
 10
34.435300471684933
 20
38.00527134892836
 30
0
 11
43.409085191663678
 21
38.00527134892836
 31
0
  0
LINE
  5
49A
  8
0
  6
CONTINUOUS
 62
7
 10
34.435300471684933
 20
38.089159423994211
 30
0
 11
43.409085191663678
 21
38.089159423994211
 31
0
  0
LINE
  5
49B
  8
0
  6
CONTINUOUS
 62
7
 10
34.435300471684933
 20
38.217489230819737
 30
0
 11
43.409085191663678
 21
38.217489230819737
 31
0
  0
LINE
  5
49C
  8
0
  6
CONTINUOUS
 62
7
 10
34.435300471684933
 20
38.301549560659844
 30
0
 11
43.409085191663678
 21
38.301549560659844
 31
0
  0
LINE
  5
49D
  8
0
  6
CONTINUOUS
 62
7
 10
34.435300471684933
 20
38.385437635725673
 30
0
 11
43.409085191663678
 21
38.385437635725673
 31
0
  0
LINE
  5
49E
  8
0
  6
CONTINUOUS
 62
7
 10
34.435300471684933
 20
38.51393969732549
 30
0
 11
43.409085191663678
 21
38.51393969732549
 31
0
  0
LINE
  5
49F
  8
0
  6
CONTINUOUS
 62
7
 10
34.435300471684933
 20
38.597827772391383
 30
0
 11
43.409085191663678
 21
38.597827772391383
 31
0
  0
LINE
  5
4A0
  8
0
  6
CONTINUOUS
 62
7
 10
34.435300471684933
 20
38.6818881022314
 30
0
 11
43.409085191663678
 21
38.6818881022314
 31
0
  0
LINE
  5
4A1
  8
0
  6
CONTINUOUS
 62
7
 10
34.435300471684933
 20
38.809873399508483
 30
0
 11
43.409085191663678
 21
38.809873399508483
 31
0
  0
LINE
  5
4A2
  8
0
  6
CONTINUOUS
 62
7
 10
34.435300471684933
 20
38.894278238897108
 30
0
 11
43.409085191663678
 21
38.894278238897108
 31
0
  0
LINE
  5
4A3
  8
0
  6
CONTINUOUS
 62
7
 10
34.435300471684933
 20
38.979544352157042
 30
0
 11
43.409085191663678
 21
38.979544352157042
 31
0
  0
LINE
  5
4A4
  8
0
  6
CONTINUOUS
 62
7
 10
34.435300471684933
 20
39.106151611239937
 30
0
 11
43.409085191663678
 21
39.106151611239937
 31
0
  0
LINE
  5
4A5
  8
0
  6
CONTINUOUS
 62
7
 10
34.435300471684933
 20
39.190556450628613
 30
0
 11
43.409085191663678
 21
39.190556450628613
 31
0
  0
LINE
  5
4A6
  8
0
  6
CONTINUOUS
 62
7
 10
34.435300471684933
 20
39.3171637097115
 30
0
 11
43.409085191663678
 21
39.3171637097115
 31
0
  0
LINE
  5
4A7
  8
0
  6
CONTINUOUS
 62
7
 10
34.435300471684933
 20
39.402602077745712
 30
0
 11
43.409085191663678
 21
39.402602077745712
 31
0
  0
LINE
  5
4A8
  8
0
  6
CONTINUOUS
 62
7
 10
34.435300471684933
 20
39.48649015281152
 30
0
 11
43.409085191663678
 21
39.48649015281152
 31
0
  0
LINE
  5
4A9
  8
0
  6
CONTINUOUS
 62
7
 10
34.435300471684933
 20
39.613441921442991
 30
0
 11
43.409085191663678
 21
39.613441921442991
 31
0
  0
LINE
  5
4AA
  8
0
  6
CONTINUOUS
 62
7
 10
34.435300471684933
 20
39.698880289477181
 30
0
 11
43.409085191663678
 21
39.698880289477181
 31
0
  0
LINE
  5
4AB
  8
0
  6
CONTINUOUS
 62
7
 10
34.435300471684933
 20
39.78294061931728
 30
0
 11
43.409085191663678
 21
39.78294061931728
 31
0
  0
LINE
  5
4AC
  8
0
  6
CONTINUOUS
 62
7
 10
34.435300471684933
 20
39.909892387948723
 30
0
 11
43.409085191663678
 21
39.909892387948723
 31
0
  0
LINE
  5
4AD
  8
0
  6
CONTINUOUS
 62
7
 10
34.435300471684933
 20
39.995158501208643
 30
0
 11
43.409085191663678
 21
39.995158501208643
 31
0
  0
LINE
  5
4AE
  8
0
  6
CONTINUOUS
 62
7
 10
34.435300471684933
 20
40.079218831048728
 30
0
 11
43.409085191663678
 21
40.079218831048728
 31
0
  0
LINE
  5
4AF
  8
0
  6
CONTINUOUS
 62
7
 10
34.435300471684933
 20
40.205826090131708
 30
0
 11
43.409085191663678
 21
40.205826090131708
 31
0
  0
LINE
  5
4B0
  8
0
  6
CONTINUOUS
 62
7
 10
34.435300471684933
 20
40.2916089677144
 30
0
 11
43.409085191663678
 21
40.2916089677144
 31
0
  0
LINE
  5
4B1
  8
0
  6
CONTINUOUS
 62
7
 10
34.435300471684933
 20
40.418216226797362
 30
0
 11
43.409085191663678
 21
40.418216226797362
 31
0
  0
LINE
  5
4B2
  8
0
  6
CONTINUOUS
 62
7
 10
34.435300471684933
 20
40.502104301863213
 30
0
 11
43.409085191663678
 21
40.502104301863213
 31
0
  0
LINE
  5
4B3
  8
0
  6
CONTINUOUS
 62
7
 10
34.435300471684933
 20
40.587887179445929
 30
0
 11
43.409085191663678
 21
40.587887179445929
 31
0
  0
LINE
  5
4B4
  8
0
  6
CONTINUOUS
 62
7
 10
34.435300471684933
 20
40.714494438528831
 30
0
 11
43.409085191663678
 21
40.714494438528831
 31
0
  0
LINE
  5
4B5
  8
0
  6
CONTINUOUS
 62
7
 10
34.435300471684933
 20
40.798554768368923
 30
0
 11
43.409085191663678
 21
40.798554768368923
 31
0
  0
LINE
  5
4B6
  8
0
  6
CONTINUOUS
 62
7
 10
34.435300471684933
 20
40.88382088162885
 30
0
 11
43.409085191663678
 21
40.88382088162885
 31
0
  0
LINE
  5
4B7
  8
0
  6
CONTINUOUS
 62
7
 10
34.435300471684933
 20
41.010944905034577
 30
0
 11
43.409085191663678
 21
41.010944905034577
 31
0
  0
LINE
  5
4B8
  8
0
  6
CONTINUOUS
 62
7
 10
34.435300471684933
 20
41.096211018294532
 30
0
 11
43.409085191663678
 21
41.096211018294532
 31
0
  0
LINE
  5
4B9
  8
0
  6
CONTINUOUS
 62
7
 10
34.435300471684933
 20
41.180271348134632
 30
0
 11
43.409085191663678
 21
41.180271348134632
 31
0
  0
LINE
  5
4BA
  8
0
  6
CONTINUOUS
 62
7
 10
34.435300471684933
 20
41.307223116766039
 30
0
 11
43.409085191663678
 21
41.307223116766039
 31
0
  0
LINE
  5
4BB
  8
0
  6
CONTINUOUS
 62
7
 10
34.435300471684933
 20
41.39248923002598
 30
0
 11
43.409085191663678
 21
41.39248923002598
 31
0
  0
LINE
  5
4BC
  8
0
  6
CONTINUOUS
 62
7
 10
34.435300471684933
 20
41.519268743883217
 30
0
 11
43.409085191663678
 21
41.519268743883217
 31
0
  0
LINE
  5
4BD
  8
0
  6
CONTINUOUS
 62
7
 10
34.435300471684933
 20
41.603156818949039
 30
0
 11
43.409085191663678
 21
41.603156818949039
 31
0
  0
LINE
  5
4BE
  8
0
  6
CONTINUOUS
 62
7
 10
34.435300471684933
 20
41.688939696531762
 30
0
 11
43.409085191663678
 21
41.688939696531762
 31
0
  0
LINE
  5
4BF
  8
0
  6
CONTINUOUS
 62
7
 10
34.435300471684933
 20
41.815546955614693
 30
0
 11
43.409085191663678
 21
41.815546955614693
 31
0
  0
LINE
  5
4C0
  8
0
  6
CONTINUOUS
 62
7
 10
34.435300471684933
 20
41.899607285454778
 30
0
 11
43.409085191663678
 21
41.899607285454778
 31
0
  0
LINE
  5
4C1
  8
0
  6
CONTINUOUS
 62
7
 10
34.435300471684933
 20
41.984873398714718
 30
0
 11
43.409085191663678
 21
41.984873398714718
 31
0
  0
LINE
  5
4C2
  8
0
  6
CONTINUOUS
 62
7
 10
34.435300471684933
 20
42.111825167346169
 30
0
 11
43.409085191663678
 21
42.111825167346169
 31
0
  0
LINE
  5
4C3
  8
0
  6
CONTINUOUS
 62
7
 10
34.435300471684933
 20
42.195885497186282
 30
0
 11
43.409085191663678
 21
42.195885497186282
 31
0
  0
LINE
  5
4C4
  8
0
  6
CONTINUOUS
 62
7
 10
34.435300471684933
 20
42.281151610446209
 30
0
 11
43.409085191663678
 21
42.281151610446209
 31
0
  0
LINE
  5
4C5
  8
0
  6
CONTINUOUS
 62
7
 10
34.435300471684933
 20
42.408275633851922
 30
0
 11
43.409085191663678
 21
42.408275633851922
 31
0
  0
LINE
  5
4C6
  8
0
  6
CONTINUOUS
 62
7
 10
34.435300471684933
 20
42.492163708917751
 30
0
 11
43.409085191663678
 21
42.492163708917751
 31
0
  0
LINE
  5
4C7
  8
0
  6
CONTINUOUS
 62
7
 10
34.435300471684933
 20
42.61877096800071
 30
0
 11
43.409085191663678
 21
42.61877096800071
 31
0
  0
LINE
  5
4C8
  8
0
  6
CONTINUOUS
 62
7
 10
34.435300471684933
 20
42.704553845583384
 30
0
 11
43.409085191663678
 21
42.704553845583384
 31
0
  0
LINE
  5
4C9
  8
0
  6
CONTINUOUS
 62
7
 10
34.435300471684933
 20
42.78844192064922
 30
0
 11
43.409085191663678
 21
42.78844192064922
 31
0
  0
LINE
  5
4CA
  8
0
  6
CONTINUOUS
 62
7
 10
34.435300471684933
 20
42.915221434506449
 30
0
 11
43.409085191663678
 21
42.915221434506449
 31
0
  0
LINE
  5
4CB
  8
0
  6
CONTINUOUS
 62
7
 10
34.435300471684933
 20
43.000487547766383
 30
0
 11
43.409085191663678
 21
43.000487547766383
 31
0
  0
LINE
  5
4CC
  8
0
  6
CONTINUOUS
 62
7
 10
34.435300471684933
 20
43.084892387154973
 30
0
 11
43.409085191663678
 21
43.084892387154973
 31
0
  0
LINE
  5
4CD
  8
0
  6
CONTINUOUS
 62
7
 10
34.435300471684933
 20
43.21287768443203
 30
0
 11
43.409085191663678
 21
43.21287768443203
 31
0
  0
LINE
  5
4CE
  8
0
  6
CONTINUOUS
 62
7
 10
34.435300471684933
 20
43.296938014272143
 30
0
 11
43.409085191663678
 21
43.296938014272143
 31
0
  0
LINE
  5
4CF
  8
0
  6
CONTINUOUS
 62
7
 10
34.435300471684933
 20
43.380826089337937
 30
0
 11
43.409085191663678
 21
43.380826089337937
 31
0
  0
LINE
  5
4D0
  8
0
  6
CONTINUOUS
 62
7
 10
34.435300471684933
 20
43.509155896163513
 30
0
 11
43.409085191663678
 21
43.509155896163513
 31
0
  0
LINE
  5
4D1
  8
0
  6
CONTINUOUS
 62
7
 10
34.435300471684933
 20
43.593216226003612
 30
0
 11
43.409085191663678
 21
43.593216226003612
 31
0
  0
LINE
  5
4D2
  8
0
  6
CONTINUOUS
 62
7
 10
34.435300471684933
 20
43.719823485086572
 30
0
 11
43.409085191663678
 21
43.719823485086572
 31
0
  0
LINE
  5
4D3
  8
0
  6
CONTINUOUS
 62
7
 10
34.435300471684933
 20
43.80560636266928
 30
0
 11
43.409085191663678
 21
43.80560636266928
 31
0
  0
LINE
  5
4D4
  8
0
  6
CONTINUOUS
 62
7
 10
34.435300471684933
 20
43.889494437735067
 30
0
 11
43.409085191663678
 21
43.889494437735067
 31
0
  0
LINE
  5
4D5
  8
0
  6
CONTINUOUS
 62
7
 10
34.435300471684933
 20
44.016273951592311
 30
0
 11
43.409085191663678
 21
44.016273951592311
 31
0
  0
LINE
  5
4D6
  8
0
  6
CONTINUOUS
 62
7
 10
34.435300471684933
 20
44.101540064852237
 30
0
 11
43.409085191663678
 21
44.101540064852237
 31
0
  0
LINE
  5
4D7
  8
0
  6
CONTINUOUS
 62
7
 10
34.435300471684933
 20
44.185944904240849
 30
0
 11
43.409085191663678
 21
44.185944904240849
 31
0
  0
LINE
  5
4D8
  8
0
  6
CONTINUOUS
 62
7
 10
34.476641617507937
 20
44.31255216332378
 30
0
 11
43.409085191663678
 21
44.31255216332378
 31
0
  0
LINE
  5
4D9
  8
0
  6
CONTINUOUS
 62
7
 10
34.604799169559243
 20
44.397818276583713
 30
0
 11
43.409085191663678
 21
44.397818276583713
 31
0
  0
LINE
  5
4DA
  8
0
  6
CONTINUOUS
 62
7
 10
34.731578683416423
 20
44.48222311597231
 30
0
 11
43.409085191663678
 21
44.48222311597231
 31
0
  0
LINE
  5
4DB
  8
0
  6
CONTINUOUS
 62
7
 10
34.85835819727361
 20
44.60883037505527
 30
0
 11
43.409085191663678
 21
44.60883037505527
 31
0
  0
LINE
  5
4DC
  8
0
  6
CONTINUOUS
 62
7
 10
34.94241852711373
 20
44.694268743089459
 30
0
 11
43.409085191663678
 21
44.694268743089459
 31
0
  0
LINE
  5
4DD
  8
0
  6
CONTINUOUS
 62
7
 10
35.070576079165008
 20
44.778156818155288
 30
0
 11
43.409085191663678
 21
44.778156818155288
 31
0
  0
LINE
  5
4DE
  8
0
  6
CONTINUOUS
 62
7
 10
35.197355593022188
 20
44.905108586786739
 30
0
 11
43.409085191663678
 21
44.905108586786739
 31
0
  0
LINE
  5
4DF
  8
0
  6
CONTINUOUS
 62
7
 10
35.3241351068794
 20
44.990546954820957
 30
0
 11
43.409085191663678
 21
44.990546954820957
 31
0
  0
LINE
  5
4E0
  8
0
  6
CONTINUOUS
 62
7
 10
35.4509146207366
 20
45.117154213903859
 30
0
 11
43.409085191663678
 21
45.117154213903859
 31
0
  0
LINE
  5
4E1
  8
0
  6
CONTINUOUS
 62
7
 10
35.577694134593791
 20
45.201559053292492
 30
0
 11
43.409085191663678
 21
45.201559053292492
 31
0
  0
LINE
  5
4E2
  8
0
  6
CONTINUOUS
 62
7
 10
35.704473648450971
 20
45.286825166552418
 30
0
 11
43.409085191663678
 21
45.286825166552418
 31
0
  0
LINE
  5
4E3
  8
0
  6
CONTINUOUS
 62
7
 10
35.789912016485168
 20
45.413604680409662
 30
0
 11
43.409085191663678
 21
45.413604680409662
 31
0
  0
LINE
  5
4E4
  8
0
  6
CONTINUOUS
 62
7
 10
35.916691530342391
 20
45.497492755475491
 30
0
 11
43.409085191663678
 21
45.497492755475491
 31
0
  0
LINE
  5
4E5
  8
0
  6
CONTINUOUS
 62
7
 10
36.043471044199542
 20
45.583275633058179
 30
0
 11
43.409085191663678
 21
45.583275633058179
 31
0
  0
LINE
  5
4E6
  8
0
  6
CONTINUOUS
 62
7
 10
36.170250558056743
 20
45.70988289214111
 30
0
 11
43.409085191663678
 21
45.70988289214111
 31
0
  0
LINE
  5
4E7
  8
0
  6
CONTINUOUS
 62
7
 10
36.297030071913937
 20
45.793770967206967
 30
0
 11
43.409085191663678
 21
45.793770967206967
 31
0
  0
LINE
  5
4E8
  8
0
  6
CONTINUOUS
 62
7
 10
36.425187623965243
 20
45.879553844789662
 30
0
 11
43.409085191663678
 21
45.879553844789662
 31
0
  0
LINE
  5
4E9
  8
0
  6
CONTINUOUS
 62
7
 10
36.551967137822423
 20
46.0061611038726
 30
0
 11
43.409085191663678
 21
46.0061611038726
 31
0
  0
LINE
  5
4EA
  8
0
  6
CONTINUOUS
 62
7
 10
36.636027467662522
 20
46.090221433712713
 30
0
 11
43.409085191663678
 21
46.090221433712713
 31
0
  0
LINE
  5
4EB
  8
0
  6
CONTINUOUS
 62
7
 10
36.762806981519731
 20
46.218206730989714
 30
0
 11
43.409085191663678
 21
46.218206730989714
 31
0
  0
LINE
  5
4EC
  8
0
  6
CONTINUOUS
 62
7
 10
36.889586495376932
 20
46.302611570378353
 30
0
 11
43.409085191663678
 21
46.302611570378353
 31
0
  0
LINE
  5
4ED
  8
0
  6
CONTINUOUS
 62
7
 10
37.0177440474282
 20
46.387877683638287
 30
0
 11
43.409085191663678
 21
46.387877683638287
 31
0
  0
LINE
  5
4EE
  8
0
  6
CONTINUOUS
 62
7
 10
37.1445235612854
 20
46.514484942721182
 30
0
 11
43.409085191663678
 21
46.514484942721182
 31
0
  0
LINE
  5
4EF
  8
0
  6
CONTINUOUS
 62
7
 10
37.27130307514259
 20
46.598889782109822
 30
0
 11
43.409085191663678
 21
46.598889782109822
 31
0
  0
LINE
  5
4F0
  8
0
  6
CONTINUOUS
 62
7
 10
37.398082588999813
 20
46.684155895369763
 30
0
 11
43.409085191663678
 21
46.684155895369763
 31
0
  0
LINE
  5
4F1
  8
0
  6
CONTINUOUS
 62
7
 10
37.524862102856993
 20
46.810935409226943
 30
0
 11
43.409085191663678
 21
46.810935409226943
 31
0
  0
LINE
  5
4F2
  8
0
  6
CONTINUOUS
 62
7
 10
37.61030047089119
 20
46.894823484292822
 30
0
 11
43.409085191663678
 21
46.894823484292822
 31
0
  0
LINE
  5
4F3
  8
0
  6
CONTINUOUS
 62
7
 10
37.737079984748391
 20
46.980606361875523
 30
0
 11
43.409085191663678
 21
46.980606361875523
 31
0
  0
LINE
  5
4F4
  8
0
  6
CONTINUOUS
 62
7
 10
37.863859498605549
 20
47.107213620958461
 30
0
 11
43.409085191663678
 21
47.107213620958461
 31
0
  0
LINE
  5
4F5
  8
0
  6
CONTINUOUS
 62
7
 10
37.990639012462751
 20
47.191273950798582
 30
0
 11
43.409085191663678
 21
47.191273950798582
 31
0
  0
LINE
  5
4F6
  8
0
  6
CONTINUOUS
 62
7
 10
38.11741852631998
 20
47.318225719430011
 30
0
 11
43.409085191663678
 21
47.318225719430011
 31
0
  0
LINE
  5
4F7
  8
0
  6
CONTINUOUS
 62
7
 10
38.245576078371272
 20
47.40349183268993
 30
0
 11
43.409085191663678
 21
47.40349183268993
 31
0
  0
LINE
  5
4F8
  8
0
  6
CONTINUOUS
 62
7
 10
38.372355592228452
 20
47.487552162530037
 30
0
 11
43.409085191663678
 21
47.487552162530037
 31
0
  0
LINE
  5
4F9
  8
0
  6
CONTINUOUS
 62
7
 10
38.456415922068551
 20
47.614159421612953
 30
0
 11
43.409085191663678
 21
47.614159421612953
 31
0
  0
LINE
  5
4FA
  8
0
  6
CONTINUOUS
 62
7
 10
38.583195435925752
 20
47.699942299195691
 30
0
 11
43.409085191663678
 21
47.699942299195691
 31
0
  0
LINE
  5
4FB
  8
0
  6
CONTINUOUS
 62
7
 10
38.709974949782961
 20
47.7838303742615
 30
0
 11
43.409085191663678
 21
47.7838303742615
 31
0
  0
LINE
  5
4FC
  8
0
  6
CONTINUOUS
 62
7
 10
38.838132501834217
 20
47.910437633344422
 30
0
 11
43.409085191663678
 21
47.910437633344422
 31
0
  0
LINE
  5
4FD
  8
0
  6
CONTINUOUS
 62
7
 10
38.964912015691432
 20
47.996220510927152
 30
0
 11
43.409085191663678
 21
47.996220510927152
 31
0
  0
LINE
  5
4FE
  8
0
  6
CONTINUOUS
 62
7
 10
39.091691529548633
 20
48.080108585993
 30
0
 11
43.409085191663678
 21
48.080108585993
 31
0
  0
LINE
  5
4FF
  8
0
  6
CONTINUOUS
 62
7
 10
39.175751859388718
 20
48.206888099850183
 30
0
 11
43.409085191663678
 21
48.206888099850183
 31
0
  0
LINE
  5
500
  8
0
  6
CONTINUOUS
 62
7
 10
39.30390941144001
 20
48.2921542131101
 30
0
 11
43.409085191663678
 21
48.2921542131101
 31
0
  0
LINE
  5
501
  8
0
  6
CONTINUOUS
 62
7
 10
39.43068892529719
 20
48.419278236515858
 30
0
 11
43.409085191663678
 21
48.419278236515858
 31
0
  0
LINE
  5
502
  8
0
  6
CONTINUOUS
 62
7
 10
39.557468439154391
 20
48.504544349775813
 30
0
 11
43.409085191663678
 21
48.504544349775813
 31
0
  0
LINE
  5
503
  8
0
  6
CONTINUOUS
 62
7
 10
39.684247953011571
 20
48.588604679615912
 30
0
 11
43.409085191663678
 21
48.588604679615912
 31
0
  0
LINE
  5
504
  8
0
  6
CONTINUOUS
 62
7
 10
39.811027466868772
 20
48.715556448247327
 30
0
 11
43.409085191663678
 21
48.715556448247327
 31
0
  0
LINE
  5
505
  8
0
  6
CONTINUOUS
 62
7
 10
39.937806980725988
 20
48.800822561507282
 30
0
 11
43.409085191663678
 21
48.800822561507282
 31
0
  0
LINE
  5
506
  8
0
  6
CONTINUOUS
 62
7
 10
40.064586494583189
 20
48.884882891347381
 30
0
 11
43.409085191663678
 21
48.884882891347381
 31
0
  0
LINE
  5
507
  8
0
  6
CONTINUOUS
 62
7
 10
40.150024862617343
 20
49.011490150430291
 30
0
 11
43.409085191663678
 21
49.011490150430291
 31
0
  0
LINE
  5
508
  8
0
  6
CONTINUOUS
 62
7
 10
40.276804376474537
 20
49.097273028013042
 30
0
 11
43.409085191663678
 21
49.097273028013042
 31
0
  0
LINE
  5
509
  8
0
  6
CONTINUOUS
 62
7
 10
40.403583890331753
 20
49.181161103078843
 30
0
 11
43.409085191663678
 21
49.181161103078843
 31
0
  0
LINE
  5
50A
  8
0
  6
CONTINUOUS
 62
7
 10
40.530363404188961
 20
49.307940616936023
 30
0
 11
43.409085191663678
 21
49.307940616936023
 31
0
  0
LINE
  5
50B
  8
0
  6
CONTINUOUS
 62
7
 10
40.658520956240238
 20
49.393206730195963
 30
0
 11
43.409085191663678
 21
49.393206730195963
 31
0
  0
LINE
  5
50C
  8
0
  6
CONTINUOUS
 62
7
 10
40.785300470097418
 20
49.520158498827413
 30
0
 11
43.409085191663678
 21
49.520158498827413
 31
0
  0
LINE
  5
50D
  8
0
  6
CONTINUOUS
 62
7
 10
40.912079983954627
 20
49.604218828667491
 30
0
 11
43.409085191663678
 21
49.604218828667491
 31
0
  0
LINE
  5
50E
  8
0
  6
CONTINUOUS
 62
7
 10
40.996140313794733
 20
49.689484941927432
 30
0
 11
43.409085191663678
 21
49.689484941927432
 31
0
  0
LINE
  5
50F
  8
0
  6
CONTINUOUS
 62
7
 10
41.1229198276519
 20
49.816608965333216
 30
0
 11
43.409085191663678
 21
49.816608965333216
 31
0
  0
LINE
  5
510
  8
0
  6
CONTINUOUS
 62
7
 10
41.251077379703212
 20
49.900497040399038
 30
0
 11
43.409085191663678
 21
49.900497040399038
 31
0
  0
LINE
  5
511
  8
0
  6
CONTINUOUS
 62
7
 10
41.37785689356042
 20
49.985935408433193
 30
0
 11
43.409085191663678
 21
49.985935408433193
 31
0
  0
LINE
  5
512
  8
0
  6
CONTINUOUS
 62
7
 10
41.504636407417593
 20
50.112887177064678
 30
0
 11
43.409085191663678
 21
50.112887177064678
 31
0
  0
LINE
  5
513
  8
0
  6
CONTINUOUS
 62
7
 10
41.63141592127478
 20
50.196775252130507
 30
0
 11
43.409085191663678
 21
50.196775252130507
 31
0
  0
LINE
  5
514
  8
0
  6
CONTINUOUS
 62
7
 10
41.758195435131988
 20
50.282213620164718
 30
0
 11
43.409085191663678
 21
50.282213620164718
 31
0
  0
LINE
  5
515
  8
0
  6
CONTINUOUS
 62
7
 10
41.843633803166192
 20
50.4088208792476
 30
0
 11
43.409085191663678
 21
50.4088208792476
 31
0
  0
LINE
  5
516
  8
0
  6
CONTINUOUS
 62
7
 10
41.970413317023358
 20
50.493225718636232
 30
0
 11
43.409085191663678
 21
50.493225718636232
 31
0
  0
LINE
  5
517
  8
0
  6
CONTINUOUS
 62
7
 10
42.097192830880573
 20
50.621211015913268
 30
0
 11
43.409085191663678
 21
50.621211015913268
 31
0
  0
LINE
  5
518
  8
0
  6
CONTINUOUS
 62
7
 10
42.223972344737767
 20
50.705271345753381
 30
0
 11
43.409085191663678
 21
50.705271345753381
 31
0
  0
LINE
  5
519
  8
0
  6
CONTINUOUS
 62
7
 10
42.350751858594968
 20
50.7891594208192
 30
0
 11
43.409085191663678
 21
50.7891594208192
 31
0
  0
LINE
  5
51A
  8
0
  6
CONTINUOUS
 62
7
 10
42.478909410646239
 20
50.91748922764473
 30
0
 11
43.409085191663678
 21
50.91748922764473
 31
0
  0
LINE
  5
51B
  8
0
  6
CONTINUOUS
 62
7
 10
42.605688924503433
 20
51.001549557484843
 30
0
 11
43.409085191663678
 21
51.001549557484843
 31
0
  0
LINE
  5
51C
  8
0
  6
CONTINUOUS
 62
7
 10
42.732468438360641
 20
51.085437632550672
 30
0
 11
43.409085191663678
 21
51.085437632550672
 31
0
  0
LINE
  5
51D
  8
0
  6
CONTINUOUS
 62
7
 10
42.816528768200719
 20
51.21393969415049
 30
0
 11
43.409085191663678
 21
51.21393969415049
 31
0
  0
LINE
  5
51E
  8
0
  6
CONTINUOUS
 62
7
 10
42.9433082820579
 20
51.297827769216383
 30
0
 11
43.409085191663678
 21
51.297827769216383
 31
0
  0
LINE
  5
51F
  8
0
  6
CONTINUOUS
 62
7
 10
43.071465834109212
 20
51.381888099056418
 30
0
 11
43.409085191663678
 21
51.381888099056418
 31
0
  0
LINE
  5
520
  8
0
  6
CONTINUOUS
 62
7
 10
43.1982453479664
 20
51.509873396333468
 30
0
 11
43.409085191663678
 21
51.509873396333468
 31
0
  0
LINE
  5
521
  8
0
  6
CONTINUOUS
 62
7
 10
43.3250248618236
 20
51.594278235722122
 30
0
 11
43.409085191663678
 21
51.594278235722122
 31
0
  0
LINE
  5
522
  8
0
  6
CONTINUOUS
 62
7
 10
58.818308278089162
 20
27.0402214384752
 30
0
 11
58.776967132266158
 21
27.0402214384752
 31
0
  0
LINE
  5
523
  8
0
  6
CONTINUOUS
 62
7
 10
58.776967132266158
 20
27.0402214384752
 30
0
 11
58.776967132266158
 21
27.082940622492281
 31
0
  0
LINE
  5
524
  8
0
  6
CONTINUOUS
 62
7
 10
58.776967132266158
 20
27.082940622492281
 30
0
 11
58.734247948249113
 21
27.125487551735119
 31
0
  0
LINE
  5
525
  8
0
  6
CONTINUOUS
 62
7
 10
58.734247948249113
 20
27.125487551735119
 30
0
 11
58.691528764231968
 21
27.168206735752211
 31
0
  0
LINE
  5
526
  8
0
  6
CONTINUOUS
 62
7
 10
58.691528764231968
 20
27.168206735752211
 30
0
 11
58.607468434391883
 21
27.168206735752211
 31
0
  0
LINE
  5
527
  8
0
  6
CONTINUOUS
 62
7
 10
58.607468434391883
 20
27.168206735752211
 30
0
 11
58.564749250374788
 21
27.168206735752211
 31
0
  0
LINE
  5
528
  8
0
  6
CONTINUOUS
 62
7
 10
58.564749250374788
 20
27.168206735752211
 30
0
 11
58.5220300663577
 21
27.168206735752211
 31
0
  0
LINE
  5
529
  8
0
  6
CONTINUOUS
 62
7
 10
58.5220300663577
 20
27.168206735752211
 30
0
 11
58.4379697365176
 21
27.209892391123748
 31
0
  0
LINE
  5
52A
  8
0
  6
CONTINUOUS
 62
7
 10
58.4379697365176
 20
27.209892391123748
 30
0
 11
58.395250552500492
 21
27.168206735752211
 31
0
  0
LINE
  5
52B
  8
0
  6
CONTINUOUS
 62
7
 10
58.395250552500492
 20
27.168206735752211
 30
0
 11
58.311190222660379
 21
27.168206735752211
 31
0
  0
LINE
  5
52C
  8
0
  6
CONTINUOUS
 62
7
 10
58.311190222660379
 20
27.168206735752211
 30
0
 11
58.26847103864332
 21
27.168206735752211
 31
0
  0
LINE
  5
52D
  8
0
  6
CONTINUOUS
 62
7
 10
58.26847103864332
 20
27.168206735752211
 30
0
 11
58.225751854626218
 21
27.168206735752211
 31
0
  0
LINE
  5
52E
  8
0
  6
CONTINUOUS
 62
7
 10
58.225751854626218
 20
27.168206735752211
 30
0
 11
58.18441070880322
 21
27.125487551735119
 31
0
  0
LINE
  5
52F
  8
0
  6
CONTINUOUS
 62
7
 10
58.18441070880322
 20
27.125487551735119
 30
0
 11
58.141691524786111
 21
27.125487551735119
 31
0
  0
LINE
  5
530
  8
0
  6
CONTINUOUS
 62
7
 10
58.141691524786111
 20
27.125487551735119
 30
0
 11
58.098972340769031
 21
27.082940622492281
 31
0
  0
LINE
  5
531
  8
0
  6
CONTINUOUS
 62
7
 10
58.098972340769031
 20
27.082940622492281
 30
0
 11
58.098972340769031
 21
27.0402214384752
 31
0
  0
LINE
  5
532
  8
0
  6
CONTINUOUS
 62
7
 10
58.098972340769031
 20
27.0402214384752
 30
0
 11
58.098972340769031
 21
26.9988802926522
 31
0
  0
LINE
  5
533
  8
0
  6
CONTINUOUS
 62
7
 10
58.098972340769031
 20
26.9988802926522
 30
0
 11
58.098972340769031
 21
26.95616110863509
 31
0
  0
LINE
  5
534
  8
0
  6
CONTINUOUS
 62
7
 10
58.098972340769031
 20
26.95616110863509
 30
0
 11
58.141691524786111
 21
26.95616110863509
 31
0
  0
LINE
  5
535
  8
0
  6
CONTINUOUS
 62
7
 10
58.141691524786111
 20
26.95616110863509
 30
0
 11
58.18441070880322
 21
26.913441924618009
 31
0
  0
LINE
  5
536
  8
0
  6
CONTINUOUS
 62
7
 10
58.18441070880322
 20
26.913441924618009
 30
0
 11
58.225751854626218
 21
26.913441924618009
 31
0
  0
LINE
  5
537
  8
0
  6
CONTINUOUS
 62
7
 10
58.225751854626218
 20
26.913441924618009
 30
0
 11
58.26847103864332
 21
26.87227303356925
 31
0
  0
LINE
  5
538
  8
0
  6
CONTINUOUS
 62
7
 10
58.26847103864332
 20
26.87227303356925
 30
0
 11
58.311190222660379
 21
26.87227303356925
 31
0
  0
LINE
  5
539
  8
0
  6
CONTINUOUS
 62
7
 10
58.311190222660379
 20
26.87227303356925
 30
0
 11
58.395250552500492
 21
26.87227303356925
 31
0
  0
LINE
  5
53A
  8
0
  6
CONTINUOUS
 62
7
 10
58.395250552500492
 20
26.87227303356925
 30
0
 11
58.4379697365176
 21
26.87227303356925
 31
0
  0
LINE
  5
53B
  8
0
  6
CONTINUOUS
 62
7
 10
58.4379697365176
 20
26.87227303356925
 30
0
 11
58.5220300663577
 21
26.87227303356925
 31
0
  0
LINE
  5
53C
  8
0
  6
CONTINUOUS
 62
7
 10
58.5220300663577
 20
26.87227303356925
 30
0
 11
58.564749250374788
 21
26.87227303356925
 31
0
  0
LINE
  5
53D
  8
0
  6
CONTINUOUS
 62
7
 10
58.564749250374788
 20
26.87227303356925
 30
0
 11
58.607468434391883
 21
26.87227303356925
 31
0
  0
LINE
  5
53E
  8
0
  6
CONTINUOUS
 62
7
 10
58.607468434391883
 20
26.87227303356925
 30
0
 11
58.691528764231968
 21
26.913441924618009
 31
0
  0
LINE
  5
53F
  8
0
  6
CONTINUOUS
 62
7
 10
58.691528764231968
 20
26.913441924618009
 30
0
 11
58.734247948249113
 21
26.913441924618009
 31
0
  0
LINE
  5
540
  8
0
  6
CONTINUOUS
 62
7
 10
58.734247948249113
 20
26.913441924618009
 30
0
 11
58.734247948249113
 21
26.95616110863509
 31
0
  0
LINE
  5
541
  8
0
  6
CONTINUOUS
 62
7
 10
58.734247948249113
 20
26.95616110863509
 30
0
 11
58.776967132266158
 21
26.95616110863509
 31
0
  0
LINE
  5
542
  8
0
  6
CONTINUOUS
 62
7
 10
58.776967132266158
 20
26.95616110863509
 30
0
 11
58.776967132266158
 21
26.9988802926522
 31
0
  0
LINE
  5
543
  8
0
  6
CONTINUOUS
 62
7
 10
58.776967132266158
 20
26.9988802926522
 30
0
 11
58.818308278089162
 21
27.0402214384752
 31
0
  0
LINE
  5
544
  8
0
  6
CONTINUOUS
 62
7
 10
57.675914615180332
 20
30.08844192382421
 30
0
 11
56.9138594938431
 21
30.25794062169853
 31
0
  0
LINE
  5
545
  8
0
  6
CONTINUOUS
 62
7
 10
61.951967131472422
 20
28.946220515689649
 30
0
 11
58.225751854626218
 21
29.918770971175711
 31
0
  0
LINE
  5
546
  8
0
  6
CONTINUOUS
 62
7
 10
51.199135102910653
 20
24.712887183414669
 30
0
 11
57.675914615180332
 21
30.08844192382421
 31
0
  0
LINE
  5
547
  8
0
  6
CONTINUOUS
 62
7
 10
51.199135102910653
 20
24.712887183414669
 30
0
 11
51.199135102910653
 21
25.558830379817771
 31
0
  0
LINE
  5
548
  8
0
  6
CONTINUOUS
 62
7
 10
55.812806976757223
 20
23.86522143926895
 30
0
 11
52.08796973810508
 21
24.882213626514691
 31
0
  0
LINE
  5
549
  8
0
  6
CONTINUOUS
 62
7
 10
51.5381324986592
 20
24.712887183414669
 30
0
 11
51.5381324986592
 21
24.585935414783211
 31
0
  0
LINE
  5
54A
  8
0
  6
CONTINUOUS
 62
7
 10
51.241854286927719
 20
24.627104305831949
 30
0
 11
51.241854286927719
 21
24.500497046749011
 31
0
  0
LINE
  5
54B
  8
0
  6
CONTINUOUS
 62
7
 10
50.86013770716206
 20
23.950487552528891
 30
0
 11
51.409974946607932
 21
24.416608971683178
 31
0
  0
LINE
  5
54C
  8
0
  6
CONTINUOUS
 62
7
 10
51.409974946607932
 20
24.416608971683178
 30
0
 11
55.262969737311352
 21
23.358275638614419
 31
0
  0
LINE
  5
54D
  8
0
  6
CONTINUOUS
 62
7
 10
55.347030067151437
 20
23.568770972763179
 30
0
 11
51.5381324986592
 21
24.585935414783211
 31
0
  0
LINE
  5
54E
  8
0
  6
CONTINUOUS
 62
7
 10
50.776077377321961
 20
24.12015850517745
 30
0
 11
51.241854286927719
 21
24.500497046749011
 31
0
  0
LINE
  5
54F
  8
0
  6
CONTINUOUS
 62
7
 10
50.902856891179148
 20
24.459155900926021
 30
0
 11
50.902856891179148
 21
24.96627395635479
 31
0
  0
LINE
  5
550
  8
0
  6
CONTINUOUS
 62
7
 10
52.08796973810508
 20
24.882213626514691
 30
0
 11
58.225751854626218
 21
29.918770971175711
 31
0
  0
LINE
  5
551
  8
0
  6
CONTINUOUS
 62
7
 10
50.902856891179148
 20
24.459155900926021
 30
0
 11
51.029636405036342
 21
24.585935414783211
 31
0
  0
LINE
  5
552
  8
0
  6
CONTINUOUS
 62
7
 10
50.4797991655905
 20
23.73844192541176
 30
0
 11
55.00941070959697
 21
22.510437639694452
 31
0
  0
LINE
  5
553
  8
0
  6
CONTINUOUS
 62
7
 10
50.4797991655905
 20
25.26255216808627
 30
0
 11
50.4797991655905
 21
23.73844192541176
 31
0
  0
LINE
  5
554
  8
0
  6
CONTINUOUS
 62
7
 10
36.000751860182483
 20
27.209892391123748
 30
0
 11
44.213859497018049
 21
34.025497044367768
 31
0
  0
LINE
  5
555
  8
0
  6
CONTINUOUS
 62
7
 10
35.28141592286228
 20
26.61716371288648
 30
0
 11
54.797192827705572
 21
21.36821623155986
 31
0
  0
LINE
  5
556
  8
0
  6
CONTINUOUS
 62
7
 10
36.000751860182483
 20
27.209892391123748
 30
0
 11
55.00941070959697
 21
22.08755216888002
 31
0
  0
LINE
  5
557
  8
0
  6
CONTINUOUS
 62
7
 10
43.960300469303682
 20
34.068216228384863
 30
0
 11
43.705363403395182
 21
34.152104303450677
 31
0
  0
LINE
  5
558
  8
0
  6
CONTINUOUS
 62
7
 10
35.28141592286228
 20
26.61716371288648
 30
0
 11
35.534974950576689
 21
26.829553849552159
 31
0
  0
LINE
  5
559
  8
0
  6
CONTINUOUS
 62
7
 10
34.772919829239413
 20
26.74377097196944
 30
0
 11
43.705363403395182
 21
34.152104303450677
 31
0
  0
LINE
  5
55A
  8
0
  6
CONTINUOUS
 62
7
 10
34.435300471684933
 20
27.125487551735119
 30
0
 11
43.409085191663678
 21
34.533820883216372
 31
0
  0
LINE
  5
55B
  8
0
  6
CONTINUOUS
 62
7
 10
63.98319542957573
 20
29.1996072886298
 30
0
 11
44.426077378909433
 21
34.491273953973568
 31
0
  0
LINE
  5
55C
  8
0
  6
CONTINUOUS
 62
7
 10
44.426077378909433
 20
34.491273953973568
 30
0
 11
44.426077378909433
 21
51.67954434898207
 31
0
  0
LINE
  5
55D
  8
0
  6
CONTINUOUS
 62
7
 10
43.917581285286559
 20
34.364494440116353
 30
0
 11
43.917581285286559
 21
51.806151608064958
 31
0
  0
LINE
  5
55E
  8
0
  6
CONTINUOUS
 62
7
 10
43.409085191663678
 20
34.533820883216372
 30
0
 11
43.409085191663678
 21
51.67954434898207
 31
0
  0
LINE
  5
55F
  8
0
  6
CONTINUOUS
 62
7
 10
58.395250552500492
 20
27.168206735752211
 30
0
 11
58.4379697365176
 21
27.168206735752211
 31
0
  0
LINE
  5
560
  8
0
  6
CONTINUOUS
 62
7
 10
58.4379697365176
 20
27.168206735752211
 30
0
 11
58.5220300663577
 21
27.168206735752211
 31
0
  0
LINE
  5
561
  8
0
  6
CONTINUOUS
 62
7
 10
53.569360796762531
 20
27.548889786872319
 30
0
 11
53.696140310619739
 21
27.634155900132249
 31
0
  0
LINE
  5
562
  8
0
  6
CONTINUOUS
 62
7
 10
53.696140310619739
 20
27.634155900132249
 30
0
 11
53.9083581925111
 21
27.760935413989451
 31
0
  0
LINE
  5
563
  8
0
  6
CONTINUOUS
 62
7
 10
53.9083581925111
 20
27.760935413989451
 30
0
 11
54.1205760744025
 21
27.97177525768673
 31
0
  0
LINE
  5
564
  8
0
  6
CONTINUOUS
 62
7
 10
54.1205760744025
 20
27.97177525768673
 30
0
 11
54.458195431956959
 21
28.22654006882097
 31
0
  0
LINE
  5
565
  8
0
  6
CONTINUOUS
 62
7
 10
54.458195431956959
 20
28.22654006882097
 30
0
 11
54.754473643688463
 21
28.43755216729252
 31
0
  0
LINE
  5
566
  8
0
  6
CONTINUOUS
 62
7
 10
54.754473643688463
 20
28.43755216729252
 30
0
 11
55.00941070959697
 21
28.692489233201
 31
0
  0
LINE
  5
567
  8
0
  6
CONTINUOUS
 62
7
 10
55.00941070959697
 20
28.692489233201
 30
0
 11
55.262969737311352
 21
28.903156822124028
 31
0
  0
LINE
  5
568
  8
0
  6
CONTINUOUS
 62
7
 10
55.262969737311352
 20
28.903156822124028
 30
0
 11
55.559247949042842
 21
29.15688810461268
 31
0
  0
LINE
  5
569
  8
0
  6
CONTINUOUS
 62
7
 10
55.559247949042842
 20
29.15688810461268
 30
0
 11
55.64330827888292
 21
29.1996072886298
 31
0
  0
LINE
  5
56A
  8
0
  6
CONTINUOUS
 62
7
 10
55.812806976757223
 20
29.369278241278369
 30
0
 11
55.516528765025733
 21
29.072827774772581
 31
0
  0
LINE
  5
56B
  8
0
  6
CONTINUOUS
 62
7
 10
55.516528765025733
 20
29.072827774772581
 30
0
 11
55.220250553294242
 21
28.7765495630411
 31
0
  0
LINE
  5
56C
  8
0
  6
CONTINUOUS
 62
7
 10
55.220250553294242
 20
28.7765495630411
 30
0
 11
54.923972341562759
 21
28.56415942637544
 31
0
  0
LINE
  5
56D
  8
0
  6
CONTINUOUS
 62
7
 10
54.923972341562759
 20
28.56415942637544
 30
0
 11
54.627694129831283
 21
28.353491837452449
 31
0
  0
LINE
  5
56E
  8
0
  6
CONTINUOUS
 62
7
 10
56.3213030703801
 20
29.79216371209273
 30
0
 11
56.278583886363
 21
29.665556453009842
 31
0
  0
LINE
  5
56F
  8
0
  6
CONTINUOUS
 62
7
 10
56.278583886363
 20
29.665556453009842
 30
0
 11
56.0250248586486
 21
29.326559057261221
 31
0
  0
LINE
  5
570
  8
0
  6
CONTINUOUS
 62
7
 10
53.865639008493993
 20
27.71821622997237
 30
0
 11
54.035137706368317
 21
27.760935413989451
 31
0
  0
LINE
  5
571
  8
0
  6
CONTINUOUS
 62
7
 10
54.035137706368317
 20
27.760935413989451
 30
0
 11
54.288696734082691
 21
27.84482348905528
 31
0
  0
LINE
  5
572
  8
0
  6
CONTINUOUS
 62
7
 10
54.288696734082691
 20
27.84482348905528
 30
0
 11
54.5436337999912
 21
27.97177525768673
 31
0
  0
LINE
  5
573
  8
0
  6
CONTINUOUS
 62
7
 10
54.5436337999912
 20
27.97177525768673
 30
0
 11
54.797192827705572
 21
28.14127395556104
 31
0
  0
LINE
  5
574
  8
0
  6
CONTINUOUS
 62
7
 10
54.797192827705572
 20
28.14127395556104
 30
0
 11
55.050751855419954
 21
28.310944908209589
 31
0
  0
LINE
  5
575
  8
0
  6
CONTINUOUS
 62
7
 10
55.050751855419954
 20
28.310944908209589
 30
0
 11
55.305688921328432
 21
28.56415942637544
 31
0
  0
LINE
  5
576
  8
0
  6
CONTINUOUS
 62
7
 10
55.305688921328432
 20
28.56415942637544
 30
0
 11
55.559247949042842
 21
28.819268747058221
 31
0
  0
LINE
  5
577
  8
0
  6
CONTINUOUS
 62
7
 10
55.559247949042842
 20
28.819268747058221
 30
0
 11
55.812806976757223
 21
29.072827774772581
 31
0
  0
LINE
  5
578
  8
0
  6
CONTINUOUS
 62
7
 10
55.812806976757223
 20
29.072827774772581
 30
0
 11
56.0250248586486
 21
29.326559057261221
 31
0
  0
LINE
  5
579
  8
0
  6
CONTINUOUS
 62
7
 10
62.798082582649812
 20
37.921211019088261
 30
0
 11
62.3750248570611
 21
37.582213623339733
 31
0
  0
LINE
  5
57A
  8
0
  6
CONTINUOUS
 62
7
 10
62.162806975169708
 20
38.724607286248542
 30
0
 11
61.739749249581052
 21
38.385437635725673
 31
0
  0
LINE
  5
57B
  8
0
  6
CONTINUOUS
 62
7
 10
61.739749249581052
 20
38.385437635725673
 30
0
 11
61.697030065563929
 21
38.301549560659844
 31
0
  0
LINE
  5
57C
  8
0
  6
CONTINUOUS
 62
7
 10
61.697030065563929
 20
38.301549560659844
 30
0
 11
61.655688919740953
 21
38.258830376642777
 31
0
  0
LINE
  5
57D
  8
0
  6
CONTINUOUS
 62
7
 10
61.655688919740953
 20
38.258830376642777
 30
0
 11
61.655688919740953
 21
38.217489230819737
 31
0
  0
LINE
  5
57E
  8
0
  6
CONTINUOUS
 62
7
 10
61.655688919740953
 20
38.217489230819737
 30
0
 11
61.655688919740953
 21
38.132223117559818
 31
0
  0
LINE
  5
57F
  8
0
  6
CONTINUOUS
 62
7
 10
61.655688919740953
 20
38.132223117559818
 30
0
 11
61.655688919740953
 21
38.047818278171221
 31
0
  0
LINE
  5
580
  8
0
  6
CONTINUOUS
 62
7
 10
61.655688919740953
 20
38.047818278171221
 30
0
 11
61.655688919740953
 21
37.9625521649113
 31
0
  0
LINE
  5
581
  8
0
  6
CONTINUOUS
 62
7
 10
61.655688919740953
 20
37.9625521649113
 30
0
 11
61.697030065563929
 21
37.8784918350712
 31
0
  0
LINE
  5
582
  8
0
  6
CONTINUOUS
 62
7
 10
61.697030065563929
 20
37.8784918350712
 30
0
 11
61.739749249581052
 21
37.835944905828342
 31
0
  0
LINE
  5
583
  8
0
  6
CONTINUOUS
 62
7
 10
61.739749249581052
 20
37.835944905828342
 30
0
 11
61.78246843359814
 21
37.751540066439752
 31
0
  0
LINE
  5
584
  8
0
  6
CONTINUOUS
 62
7
 10
61.78246843359814
 20
37.751540066439752
 30
0
 11
61.866528763438239
 21
37.666273953179811
 31
0
  0
LINE
  5
585
  8
0
  6
CONTINUOUS
 62
7
 10
61.866528763438239
 20
37.666273953179811
 30
0
 11
61.909247947455349
 21
37.623554769162681
 31
0
  0
LINE
  5
586
  8
0
  6
CONTINUOUS
 62
7
 10
61.909247947455349
 20
37.623554769162681
 30
0
 11
61.9933082772954
 21
37.582213623339733
 31
0
  0
LINE
  5
587
  8
0
  6
CONTINUOUS
 62
7
 10
61.9933082772954
 20
37.582213623339733
 30
0
 11
62.078746645329637
 21
37.5394944393226
 31
0
  0
LINE
  5
588
  8
0
  6
CONTINUOUS
 62
7
 10
62.078746645329637
 20
37.5394944393226
 30
0
 11
62.121465829346718
 21
37.5394944393226
 31
0
  0
LINE
  5
589
  8
0
  6
CONTINUOUS
 62
7
 10
62.121465829346718
 20
37.5394944393226
 30
0
 11
62.205526159186817
 21
37.5394944393226
 31
0
  0
LINE
  5
58A
  8
0
  6
CONTINUOUS
 62
7
 10
62.205526159186817
 20
37.5394944393226
 30
0
 11
62.289586489026931
 21
37.5394944393226
 31
0
  0
LINE
  5
58B
  8
0
  6
CONTINUOUS
 62
7
 10
62.289586489026931
 20
37.5394944393226
 30
0
 11
62.332305673044033
 21
37.5394944393226
 31
0
  0
LINE
  5
58C
  8
0
  6
CONTINUOUS
 62
7
 10
62.332305673044033
 20
37.5394944393226
 30
0
 11
62.3750248570611
 21
37.582213623339733
 31
0
  0
LINE
  5
58D
  8
0
  6
CONTINUOUS
 62
7
 10
62.162806975169708
 20
38.724607286248542
 30
0
 11
62.121465829346718
 21
38.6818881022314
 31
0
  0
LINE
  5
58E
  8
0
  6
CONTINUOUS
 62
7
 10
62.121465829346718
 20
38.6818881022314
 30
0
 11
62.078746645329637
 21
38.640546956408443
 31
0
  0
LINE
  5
58F
  8
0
  6
CONTINUOUS
 62
7
 10
62.078746645329637
 20
38.640546956408443
 30
0
 11
62.078746645329637
 21
38.555108588374253
 31
0
  0
LINE
  5
590
  8
0
  6
CONTINUOUS
 62
7
 10
62.078746645329637
 20
38.555108588374253
 30
0
 11
62.078746645329637
 21
38.4712205133084
 31
0
  0
LINE
  5
591
  8
0
  6
CONTINUOUS
 62
7
 10
62.078746645329637
 20
38.4712205133084
 30
0
 11
62.078746645329637
 21
38.428156819742789
 31
0
  0
LINE
  5
592
  8
0
  6
CONTINUOUS
 62
7
 10
62.078746645329637
 20
38.428156819742789
 30
0
 11
62.078746645329637
 21
38.344268744676967
 31
0
  0
LINE
  5
593
  8
0
  6
CONTINUOUS
 62
7
 10
62.078746645329637
 20
38.344268744676967
 30
0
 11
62.121465829346718
 21
38.258830376642777
 31
0
  0
LINE
  5
594
  8
0
  6
CONTINUOUS
 62
7
 10
62.121465829346718
 20
38.258830376642777
 30
0
 11
62.162806975169708
 21
38.174942301576941
 31
0
  0
LINE
  5
595
  8
0
  6
CONTINUOUS
 62
7
 10
62.162806975169708
 20
38.174942301576941
 30
0
 11
62.205526159186817
 21
38.089159423994211
 31
0
  0
LINE
  5
596
  8
0
  6
CONTINUOUS
 62
7
 10
62.205526159186817
 20
38.089159423994211
 30
0
 11
62.289586489026931
 21
38.047818278171221
 31
0
  0
LINE
  5
597
  8
0
  6
CONTINUOUS
 62
7
 10
62.289586489026931
 20
38.047818278171221
 30
0
 11
62.332305673044033
 21
37.9625521649113
 31
0
  0
LINE
  5
598
  8
0
  6
CONTINUOUS
 62
7
 10
62.332305673044033
 20
37.9625521649113
 30
0
 11
62.41774404107818
 21
37.921211019088261
 31
0
  0
LINE
  5
599
  8
0
  6
CONTINUOUS
 62
7
 10
62.41774404107818
 20
37.921211019088261
 30
0
 11
62.501804370918293
 21
37.8784918350712
 31
0
  0
LINE
  5
59A
  8
0
  6
CONTINUOUS
 62
7
 10
62.501804370918293
 20
37.8784918350712
 30
0
 11
62.5445235549354
 21
37.8784918350712
 31
0
  0
LINE
  5
59B
  8
0
  6
CONTINUOUS
 62
7
 10
62.5445235549354
 20
37.8784918350712
 30
0
 11
62.6285838847755
 21
37.8784918350712
 31
0
  0
LINE
  5
59C
  8
0
  6
CONTINUOUS
 62
7
 10
62.6285838847755
 20
37.8784918350712
 30
0
 11
62.7140222528097
 21
37.8784918350712
 31
0
  0
LINE
  5
59D
  8
0
  6
CONTINUOUS
 62
7
 10
62.7140222528097
 20
37.8784918350712
 30
0
 11
62.75536339863271
 21
37.8784918350712
 31
0
  0
LINE
  5
59E
  8
0
  6
CONTINUOUS
 62
7
 10
62.75536339863271
 20
37.8784918350712
 30
0
 11
62.798082582649812
 21
37.921211019088261
 31
0
  0
LINE
  5
59F
  8
0
  6
CONTINUOUS
 62
7
 10
62.798082582649812
 20
37.921211019088261
 30
0
 11
62.840801766666893
 21
37.9625521649113
 31
0
  0
LINE
  5
5A0
  8
0
  6
CONTINUOUS
 62
7
 10
62.840801766666893
 20
37.9625521649113
 30
0
 11
62.883520950683973
 21
38.047818278171221
 31
0
  0
LINE
  5
5A1
  8
0
  6
CONTINUOUS
 62
7
 10
62.883520950683973
 20
38.047818278171221
 30
0
 11
62.883520950683973
 21
38.089159423994211
 31
0
  0
LINE
  5
5A2
  8
0
  6
CONTINUOUS
 62
7
 10
62.883520950683973
 20
38.089159423994211
 30
0
 11
62.924862096507
 21
38.174942301576941
 31
0
  0
LINE
  5
5A3
  8
0
  6
CONTINUOUS
 62
7
 10
62.924862096507
 20
38.174942301576941
 30
0
 11
62.883520950683973
 21
38.258830376642777
 31
0
  0
LINE
  5
5A4
  8
0
  6
CONTINUOUS
 62
7
 10
62.883520950683973
 20
38.258830376642777
 30
0
 11
62.883520950683973
 21
38.301549560659844
 31
0
  0
LINE
  5
5A5
  8
0
  6
CONTINUOUS
 62
7
 10
62.883520950683973
 20
38.301549560659844
 30
0
 11
62.840801766666893
 21
38.385437635725673
 31
0
  0
LINE
  5
5A6
  8
0
  6
CONTINUOUS
 62
7
 10
62.840801766666893
 20
38.385437635725673
 30
0
 11
62.798082582649812
 21
38.4712205133084
 31
0
  0
LINE
  5
5A7
  8
0
  6
CONTINUOUS
 62
7
 10
62.798082582649812
 20
38.4712205133084
 30
0
 11
62.75536339863271
 21
38.555108588374253
 31
0
  0
LINE
  5
5A8
  8
0
  6
CONTINUOUS
 62
7
 10
62.75536339863271
 20
38.555108588374253
 30
0
 11
62.7140222528097
 21
38.597827772391383
 31
0
  0
LINE
  5
5A9
  8
0
  6
CONTINUOUS
 62
7
 10
62.7140222528097
 20
38.597827772391383
 30
0
 11
62.6285838847755
 21
38.6818881022314
 31
0
  0
LINE
  5
5AA
  8
0
  6
CONTINUOUS
 62
7
 10
62.6285838847755
 20
38.6818881022314
 30
0
 11
62.5445235549354
 21
38.724607286248542
 31
0
  0
LINE
  5
5AB
  8
0
  6
CONTINUOUS
 62
7
 10
62.5445235549354
 20
38.724607286248542
 30
0
 11
62.501804370918293
 21
38.767154215491352
 31
0
  0
LINE
  5
5AC
  8
0
  6
CONTINUOUS
 62
7
 10
62.501804370918293
 20
38.767154215491352
 30
0
 11
62.41774404107818
 21
38.767154215491352
 31
0
  0
LINE
  5
5AD
  8
0
  6
CONTINUOUS
 62
7
 10
62.41774404107818
 20
38.767154215491352
 30
0
 11
62.332305673044033
 21
38.767154215491352
 31
0
  0
LINE
  5
5AE
  8
0
  6
CONTINUOUS
 62
7
 10
62.332305673044033
 20
38.767154215491352
 30
0
 11
62.289586489026931
 21
38.767154215491352
 31
0
  0
LINE
  5
5AF
  8
0
  6
CONTINUOUS
 62
7
 10
62.289586489026931
 20
38.767154215491352
 30
0
 11
62.205526159186817
 21
38.767154215491352
 31
0
  0
LINE
  5
5B0
  8
0
  6
CONTINUOUS
 62
7
 10
62.205526159186817
 20
38.767154215491352
 30
0
 11
62.162806975169708
 21
38.724607286248542
 31
0
  0
LINE
  5
5B1
  8
0
  6
CONTINUOUS
 62
7
 10
34.9851377111308
 20
26.7026020809207
 30
0
 11
43.960300469303682
 21
34.068216228384863
 31
0
  0
LINE
  5
5B2
  8
0
  6
CONTINUOUS
 62
7
 10
44.171140313000969
 20
34.2806063650505
 30
0
 11
44.171140313000969
 21
51.763604678822148
 31
0
  0
LINE
  5
5B3
  8
0
  6
CONTINUOUS
 62
7
 10
43.917581285286559
 20
51.806151608064958
 30
0
 11
44.171140313000969
 21
51.763604678822148
 31
0
  0
LINE
  5
5B4
  8
0
  6
CONTINUOUS
 62
7
 10
43.917581285286559
 20
34.364494440116353
 30
0
 11
44.171140313000969
 21
34.2806063650505
 31
0
  0
LINE
  5
5B5
  8
0
  6
CONTINUOUS
 62
7
 10
43.409085191663678
 20
51.67954434898207
 30
0
 11
34.435300471684933
 21
44.271211017500768
 31
0
  0
LINE
  5
5B6
  8
0
  6
CONTINUOUS
 62
7
 10
34.435300471684933
 20
44.271211017500768
 30
0
 11
34.435300471684933
 21
27.125487551735119
 31
0
  0
LINE
  5
5B7
  8
0
  6
CONTINUOUS
 62
7
 10
51.029636405036342
 20
24.459155900926021
 30
0
 11
51.241854286927719
 21
24.627104305831949
 31
0
  0
LINE
  5
5B8
  8
0
  6
CONTINUOUS
 62
7
 10
51.029636405036342
 20
24.459155900926021
 30
0
 11
51.029636405036342
 21
24.585935414783211
 31
0
  0
LINE
  5
5B9
  8
0
  6
CONTINUOUS
 62
7
 10
50.902856891179148
 20
24.96627395635479
 30
0
 11
50.776077377321961
 21
24.839494442497589
 31
0
  0
LINE
  5
5BA
  8
0
  6
CONTINUOUS
 62
7
 10
54.713132497865459
 20
22.934873403477241
 30
0
 11
55.262969737311352
 21
23.358275638614419
 31
0
  0
LINE
  5
5BB
  8
0
  6
CONTINUOUS
 62
7
 10
55.347030067151437
 20
23.568770972763179
 30
0
 11
55.347030067151437
 21
23.65455385034592
 31
0
  0
LINE
  5
5BC
  8
0
  6
CONTINUOUS
 62
7
 10
55.347030067151437
 20
23.65455385034592
 30
0
 11
51.5381324986592
 21
24.712887183414669
 31
0
  0
LINE
  5
5BD
  8
0
  6
CONTINUOUS
 62
7
 10
34.772919829239413
 20
26.74377097196944
 30
0
 11
34.9851377111308
 21
26.7026020809207
 31
0
  0
LINE
  5
5BE
  8
0
  6
CONTINUOUS
 62
7
 10
55.00941070959697
 20
21.580606368225521
 30
0
 11
54.797192827705572
 21
21.36821623155986
 31
0
  0
LINE
  5
5BF
  8
0
  6
CONTINUOUS
 62
7
 10
55.00941070959697
 20
22.08755216888002
 30
0
 11
55.00941070959697
 21
22.510437639694452
 31
0
  0
LINE
  5
5C0
  8
0
  6
CONTINUOUS
 62
7
 10
35.534974950576689
 20
26.829553849552159
 30
0
 11
55.00941070959697
 21
21.580606368225521
 31
0
  0
LINE
  5
5C1
  8
0
  6
CONTINUOUS
 62
7
 10
50.86013770716206
 20
23.950487552528891
 30
0
 11
54.713132497865459
 21
22.934873403477241
 31
0
  0
LINE
  5
5C2
  8
0
  6
CONTINUOUS
 62
7
 10
50.776077377321961
 20
24.839494442497589
 30
0
 11
50.776077377321961
 21
24.12015850517745
 31
0
  0
LINE
  5
5C3
  8
0
  6
CONTINUOUS
 62
7
 10
44.426077378909433
 20
51.67954434898207
 30
0
 11
63.98319542957573
 21
46.429218829461263
 31
0
  0
LINE
  5
5C4
  8
0
  6
CONTINUOUS
 62
7
 10
63.98319542957573
 20
46.429218829461263
 30
0
 11
63.98319542957573
 21
29.1996072886298
 31
0
  0
LINE
  5
5C5
  8
0
  6
CONTINUOUS
 62
7
 10
63.98319542957573
 20
28.946220515689649
 30
0
 11
44.171140313000969
 21
34.2806063650505
 31
0
  0
LINE
  5
5C6
  8
0
  6
CONTINUOUS
 62
7
 10
63.729636401861363
 20
28.7765495630411
 30
0
 11
44.171140313000969
 21
34.025497044367768
 31
0
  0
LINE
  5
5C7
  8
0
  6
CONTINUOUS
 62
7
 10
63.729636401861363
 20
28.7765495630411
 30
0
 11
63.98319542957573
 21
28.946220515689649
 31
0
  0
LINE
  5
5C8
  8
0
  6
CONTINUOUS
 62
7
 10
44.171140313000969
 20
34.025497044367768
 30
0
 11
44.171140313000969
 21
34.2806063650505
 31
0
  0
LINE
  5
5C9
  8
0
  6
CONTINUOUS
 62
7
 10
55.812806976757223
 20
23.86522143926895
 30
0
 11
61.951967131472422
 21
28.946220515689649
 31
0
  0
LINE
  5
5CA
  8
0
  6
CONTINUOUS
 62
7
 10
55.347030067151437
 20
23.527602081714459
 30
0
 11
55.389749251168539
 21
23.527602081714459
 31
0
  0
LINE
  5
5CB
  8
0
  6
CONTINUOUS
 62
7
 10
51.029636405036342
 20
24.459155900926021
 30
0
 11
51.072355589053423
 21
24.459155900926021
 31
0
  0
LINE
  5
5CC
  8
0
  6
CONTINUOUS
 62
7
 10
50.140801769841872
 20
25.305271352103372
 30
0
 11
50.521140311413468
 21
25.26255216808627
 31
0
  0
LINE
  5
5CD
  8
0
  6
CONTINUOUS
 62
7
 10
50.521140311413468
 20
25.26255216808627
 30
0
 11
50.86013770716206
 21
25.3478182813462
 31
0
  0
LINE
  5
5CE
  8
0
  6
CONTINUOUS
 62
7
 10
50.86013770716206
 20
25.3478182813462
 30
0
 11
51.199135102910653
 21
25.558830379817771
 31
0
  0
LINE
  5
5CF
  8
0
  6
CONTINUOUS
 62
7
 10
51.199135102910653
 20
25.558830379817771
 30
0
 11
53.612079980779619
 21
27.548889786872319
 31
0
  0
LINE
  5
5D0
  8
0
  6
CONTINUOUS
 62
7
 10
38.160137710337061
 20
28.56415942637544
 30
0
 11
50.140801769841872
 21
25.305271352103372
 31
0
  0
LINE
  5
5D1
  8
0
  6
CONTINUOUS
 62
7
 10
37.8211403145885
 20
28.692489233201
 30
0
 11
38.160137710337061
 21
28.56415942637544
 31
0
  0
LINE
  5
5D2
  8
0
  6
CONTINUOUS
 62
7
 10
54.035137706368317
 20
27.8878871826209
 30
0
 11
54.204636404242592
 21
27.84482348905528
 31
0
  0
LINE
  5
5D3
  8
0
  6
CONTINUOUS
 62
7
 10
55.64330827888292
 20
29.1996072886298
 30
0
 11
57.21013770557456
 21
30.51287768760703
 31
0
  0
INSERT
  5
5E2
  8
0
  2
SPECEL-WVE1707CH
 10
99.570070505020055
 20
1.6221315119440476
 30
0
 41
1
 42
1
 43
1
 50
0
  0
ENDSEC
999
Created By CadLib version 4.0.36.7
999
CadLib website: www.woutware.com
  0
EOF
