  0
SECTION
  2
HEADER
  9
$ACADVER
  1
AC1009
  9
$DWGCODEPAGE
  3
dos932
  9
$INSBASE
 10
0
 20
0
 30
0
  9
$EXTMIN
 10
98.044550331796032
 20
69.878550095777726
 30
0
  9
$EXTMAX
 10
260.04801773672403
 20
160.19941777860666
 30
0
  9
$LIMMIN
 10
0
 20
0
  9
$LIMMAX
 10
297
 20
210
  9
$SNAPMODE
 70
0
  9
$SNAPUNIT
 10
1
 20
1
  9
$SNAPBASE
 10
0
 20
0
  9
$SNAPANG
 50
0
  9
$SNAPSTYLE
 70
0
  9
$SNAPISOPAIR
 70
0
  9
$ORTHOMODE
 70
0
  9
$REGENMODE
 70
1
  9
$FILLMODE
 70
1
  9
$QTEXTMODE
 70
0
  9
$MIRRTEXT
 70
1
  9
$LTSCALE
 40
1
  9
$OSMODE
 70
37
  9
$ATTMODE
 70
1
  9
$TEXTSIZE
 40
0.2
  9
$TRACEWID
 40
0.05
  9
$TEXTSTYLE
  7
STANDARD
  9
$CLAYER
  8
0
  9
$CELTYPE
  6
CONTINUOUS
  9
$CECOLOR
 62
256
  9
$DIMSCALE
 40
1
  9
$DIMASZ
 40
0.18
  9
$DIMEXO
 40
0.0625
  9
$DIMDLI
 40
0.38
  9
$DIMRND
 40
0
  9
$DIMDLE
 40
0
  9
$DIMEXE
 40
0.18
  9
$DIMTP
 40
0
  9
$DIMTM
 40
0
  9
$DIMTXT
 40
0.18
  9
$DIMCEN
 40
0.09
  9
$DIMTSZ
 40
0
  9
$DIMTOL
 70
0
  9
$DIMLIM
 70
0
  9
$DIMTIH
 70
1
  9
$DIMTOH
 70
1
  9
$DIMSE1
 70
0
  9
$DIMSE2
 70
0
  9
$DIMTAD
 70
0
  9
$DIMZIN
 70
0
  9
$DIMBLK
  1

  9
$DIMASO
 70
1
  9
$DIMSHO
 70
1
  9
$DIMPOST
  1

  9
$DIMAPOST
  1

  9
$DIMALT
 70
0
  9
$DIMALTD
 70
2
  9
$DIMALTF
 40
25.4
  9
$DIMLFAC
 40
1
  9
$DIMTOFL
 70
0
  9
$DIMTVP
 40
0
  9
$DIMTIX
 70
0
  9
$DIMSOXD
 70
0
  9
$DIMSAH
 70
0
  9
$DIMBLK1
  1

  9
$DIMBLK2
  1

  9
$DIMSTYLE
  2
STANDARD
  9
$DIMCLRD
 70
0
  9
$DIMCLRE
 70
0
  9
$DIMCLRT
 70
0
  9
$DIMTFAC
 40
1
  9
$DIMGAP
 40
0.09
  9
$LUNITS
 70
2
  9
$LUPREC
 70
4
  9
$SKETCHINC
 40
0.1
  9
$FILLETRAD
 40
0
  9
$AUNITS
 70
0
  9
$AUPREC
 70
0
  9
$MENU
  1
.
  9
$ELEVATION
 40
0
  9
$PELEVATION
 40
0
  9
$THICKNESS
 40
0
  9
$LIMCHECK
 70
0
  9
$CHAMFERA
 40
0
  9
$CHAMFERB
 40
0
  9
$SKPOLY
 70
0
  9
$TDCREATE
 40
2453958.433210359
  9
$TDUPDATE
 40
2456573.4619492013
  9
$TDINDWG
 40
0.18330591435185184
  9
$TDUSRTIMER
 40
0.18330203703703704
  9
$USRTIMER
 70
1
  9
$ANGBASE
 50
0
  9
$ANGDIR
 70
0
  9
$PDMODE
 70
0
  9
$PDSIZE
 40
0
  9
$PLINEWID
 40
0
  9
$SPLFRAME
 70
0
  9
$SPLINETYPE
 70
6
  9
$SPLINESEGS
 70
8
  9
$HANDLING
 70
1
  9
$HANDSEED
  5
50F34
  9
$SURFTAB1
 70
6
  9
$SURFTAB2
 70
6
  9
$SURFTYPE
 70
6
  9
$SURFU
 70
6
  9
$SURFV
 70
6
  9
$UCSORG
 10
0
 20
0
 30
0
  9
$UCSXDIR
 10
1
 20
0
 30
0
  9
$UCSYDIR
 10
0
 20
1
 30
0
  9
$PUCSORG
 10
0
 20
0
 30
0
  9
$PUCSXDIR
 10
1
 20
0
 30
0
  9
$PUCSYDIR
 10
0
 20
1
 30
0
  9
$USERI1
 70
0
  9
$USERI2
 70
0
  9
$USERI3
 70
0
  9
$USERI4
 70
0
  9
$USERI5
 70
0
  9
$USERR1
 40
0
  9
$USERR2
 40
0
  9
$USERR3
 40
0
  9
$USERR4
 40
0
  9
$USERR5
 40
0
  9
$WORLDVIEW
 70
1
  9
$SHADEDGE
 70
3
  9
$SHADEDIF
 70
70
  9
$TILEMODE
 70
1
  9
$MAXACTVP
 70
64
  9
$PINSBASE
 10
0
 20
0
 30
0
  9
$PLIMCHECK
 70
0
  9
$PEXTMIN
 10
1E+20
 20
1E+20
 30
1E+20
  9
$PEXTMAX
 10
-1E+20
 20
-1E+20
 30
-1E+20
  9
$PLIMMAX
 10
12
 20
9
  9
$PLIMMIN
 10
0
 20
0
  9
$UNITMODE
 70
0
  9
$VISRETAIN
 70
1
  9
$PLINEGEN
 70
0
  9
$PSLTSCALE
 70
1
  9
$TREEDEPTH
 70
3020
  9
$DRAGMODE
 70
     2
  9
$BLIPMODE
 70
     0
  9
$COORDS
 70
     1
  9
$ATTDIA
 70
     0
  9
$ATTREQ
 70
     1
  0
ENDSEC
  0
SECTION
  2
TABLES
  0
TABLE
  2
VPORT
  5
50F26
 70
1
  0
VPORT
  5
50EFA
  2
*ACTIVE
 70
0
 10
0
 20
0
 11
1
 21
1
 12
157.1797548434983
 22
111.8531556753006
 13
0
 23
0
 14
1
 24
1
 15
0
 25
0
 16
0
 26
0
 36
1
 17
0
 27
0
 37
0
 40
134.4805699694773
 41
1.84933774834437
 42
50
 43
0
 44
0
 50
0
 51
0
 71
0
 72
100
 73
1
 74
1
 75
0
 76
0
 77
0
 78
0
  0
ENDTAB
  0
TABLE
  2
LTYPE
  5
50F27
 70
22
  0
LTYPE
  5
50EE2
  2
CONTINUOUS
  3
実線
 70
0
 72
65
 73
0
 40
0
  0
LTYPE
  5
50EE3
  2
DASHED1
  3
--  --  --  --  --  --  --  --  
 70
0
 72
65
 73
2
 40
2.5
 49
1.25
 49
-1.25
  0
LTYPE
  5
50EE4
  2
DASHED2
  3
----    ----    ----    ----    
 70
0
 72
65
 73
2
 40
5
 49
2.5
 49
-2.5
  0
LTYPE
  5
50EE5
  2
DASHED3
  3
------  ------  ------  ------  
 70
0
 72
65
 73
2
 40
5
 49
3.75
 49
-1.25
  0
LTYPE
  5
50EE6
  2
CENTER1
  3
----- - ----- - ----- - ----- - 
 70
0
 72
65
 73
4
 40
10
 49
6.25
 49
-1.25
 49
1.25
 49
-1.25
  0
LTYPE
  5
50EE7
  2
CENTER2
  3
----------  --  ----------  --  
 70
0
 72
65
 73
4
 40
20
 49
12.5
 49
-2.5
 49
2.5
 49
-2.5
  0
LTYPE
  5
50EE8
  2
PHANTOM1
  3
--- - - --- - - --- - - --- - - 
 70
0
 72
65
 73
6
 40
9.5
 49
3.25
 49
-1.25
 49
1.25
 49
-1.25
 49
1.25
 49
-1.25
  0
LTYPE
  5
50EE9
  2
PHANTOM2
  3
--------  -  -  --------  -  -  
 70
0
 72
65
 73
6
 40
20
 49
10
 49
-2.5
 49
1.25
 49
-2.5
 49
1.25
 49
-2.5
  0
LTYPE
  5
50EEA
  2
DOT
  3
-   -   -   -   -   -   -   -   
 70
0
 72
65
 73
2
 40
2.5
 49
0.625
 49
-1.875
  0
LTYPE
  5
50EEB
  2
DUMMY
  3
ダミー
 70
0
 72
65
 73
0
 40
0
  0
LTYPE
  5
50EEC
  2
RAND1
  3
----- - ----- - ----- - ----- - 
 70
0
 72
65
 73
4
 40
10
 49
6.25
 49
-1.25
 49
1.25
 49
-1.25
  0
LTYPE
  5
50EED
  2
RAND2
  3
----------  --  ----------  --  
 70
0
 72
65
 73
4
 40
20
 49
12.5
 49
-2.5
 49
2.5
 49
-2.5
  0
LTYPE
  5
50EEE
  2
RAND3
  3
--- - - --- - - --- - - --- - - 
 70
0
 72
65
 73
6
 40
9.5
 49
3.25
 49
-1.25
 49
1.25
 49
-1.25
 49
1.25
 49
-1.25
  0
LTYPE
  5
50EEF
  2
RAND4
  3
--------  -  -  --------  -  -  
 70
0
 72
65
 73
6
 40
20
 49
10
 49
-2.5
 49
1.25
 49
-2.5
 49
1.25
 49
-2.5
  0
LTYPE
  5
50EF0
  2
RAND5
  3
----- - ----- - ----- - ----- - 
 70
0
 72
65
 73
4
 40
10
 49
6.25
 49
-1.25
 49
1.25
 49
-1.25
  0
LTYPE
  5
50EF1
  2
LONG1
  3
----------  --  ----------  --  
 70
0
 72
65
 73
4
 40
20
 49
12.5
 49
-2.5
 49
2.5
 49
-2.5
  0
LTYPE
  5
50EF2
  2
LONG2
  3
--- - - --- - - --- - - --- - - 
 70
0
 72
65
 73
6
 40
9.5
 49
3.25
 49
-1.25
 49
1.25
 49
-1.25
 49
1.25
 49
-1.25
  0
LTYPE
  5
50EF3
  2
LONG3
  3
--------  -  -  --------  -  -  
 70
0
 72
65
 73
6
 40
20
 49
10
 49
-2.5
 49
1.25
 49
-2.5
 49
1.25
 49
-2.5
  0
LTYPE
  5
50EF4
  2
LONG4
  3
----- - ----- - ----- - ----- - 
 70
0
 72
65
 73
4
 40
10
 49
6.25
 49
-1.25
 49
1.25
 49
-1.25
  0
LTYPE
  5
50EF5
  2
LONG5
  3
----------  --  ----------  --  
 70
0
 72
65
 73
4
 40
20
 49
12.5
 49
-2.5
 49
2.5
 49
-2.5
  0
LTYPE
  5
50EF6
  2
ByBlock
  3

 70
64
 72
65
 73
0
 40
0
  0
LTYPE
  5
50EF7
  2
ByLayer
  3

 70
64
 72
65
 73
0
 40
0
  0
ENDTAB
  0
TABLE
  2
LAYER
  5
50F28
 70
3
  0
LAYER
  5
50EC8
 70
0
  2
0
 62
7
  6
CONTINUOUS
  0
LAYER
  5
50EC9
 70
0
  2
2
 62
3
  6
CONTINUOUS
  0
LAYER
  5
50ECA
 70
0
  2
SPEC
 62
7
  6
CONTINUOUS
  0
ENDTAB
  0
TABLE
  2
STYLE
  5
50F29
 70
3
  0
STYLE
  5
50EDF
  2
STANDARD
 70
0
 40
0
 41
1
 50
0
 71
0
 42
0.2
  3
txt.shx
  4
extfont2.shx
  0
STYLE
  5
50EE0
  2
ANNOTATIVE
 70
0
 40
0
 41
1
 50
0
 71
0
 42
0.2
  3
txt
  0
STYLE
  5
50EE1
  2
STANDARD1
 70
0
 40
0
 41
1
 50
0
 71
0
 42
5
  3
MONOTXT
  4
BIGFONT
  0
ENDTAB
  0
TABLE
  2
APPID
  5
50F2C
 70
4
  0
APPID
  5
50F2D
  2
ACAD
 70
0
  0
APPID
  5
50F30
  2
ACADANNOTATIVE
 70
0
  0
APPID
  5
50F31
  2
ACAD_MLEADERVER
 70
0
  0
APPID
  5
50F32
  2
ACAD_EXEMPT_FROM_CAD_STANDARDS
 70
0
  0
ENDTAB
  0
TABLE
  2
DIMSTYLE
  5
50F2E
 70
2
  0
DIMSTYLE
105
50EF8
  2
STANDARD
 70
0
  3

  4

  5

  6

  7

 40
1
 41
0.18
 42
0.0625
 43
0.38
 44
0.18
 45
0
 46
0
 47
0
 48
0
140
0.18
141
0.09
142
0
143
25.4
144
1
145
0
146
1
147
0.09
 71
0
 72
0
 73
1
 74
1
 75
0
 76
0
 77
0
 78
0
170
0
171
2
172
0
173
0
174
0
175
0
176
0
177
0
178
0
  0
DIMSTYLE
105
50EF9
  2
ANNOTATIVE
 70
0
  3

  4

  5

  6

  7

 40
1
 41
0.18
 42
0.0625
 43
0.38
 44
0.18
 45
0
 46
0
 47
0
 48
0
140
0.18
141
0.09
142
0
143
25.4
144
1
145
0
146
1
147
0.09
 71
0
 72
0
 73
1
 74
1
 75
0
 76
0
 77
0
 78
0
170
0
171
2
172
0
173
0
174
0
175
0
176
0
177
0
178
0
  0
ENDTAB
  0
ENDSEC
  0
SECTION
  2
BLOCKS
  0
BLOCK
  5
50ECC
  8
0
  2
$MODEL_SPACE
 70
0
 10
0
 20
0
 30
0
  3
$MODEL_SPACE
  0
ENDBLK
  5
331E
  8
0
  0
BLOCK
  5
50ECE
  8
0
 67
1
  2
$PAPER_SPACE
 70
0
 10
0
 20
0
 30
0
  3
$PAPER_SPACE
  0
ENDBLK
  5
331A
  8
0
  0
BLOCK
  5
50ED0
  8
0
  2
A$C45162AFB
 70
0
 10
0
 20
0
 30
0
  3
A$C45162AFB
  0
ARC
  5
7C1
  8
2
  6
CONTINUOUS
 10
42.410659518756987
 20
7.58589301118809
 30
0
 40
0.9048759999999999
 50
349.36801600000013
 51
39.59114099999978
  0
ARC
  5
7C2
  8
2
  6
CONTINUOUS
 10
42.039967518757
 20
7.549750011188106
 30
0
 40
1.266804
 50
330.2360869999996
 51
354.0732339999999
  0
ARC
  5
7C3
  8
2
  6
CONTINUOUS
 10
39.726084518757
 20
5.365719011188089
 30
0
 40
4.388569
 50
39.59114099999978
 51
64.764300000000418
  0
ARC
  5
7C4
  8
2
  6
CONTINUOUS
 10
34.459830518757
 20
-5.8075639888118911
 30
0
 40
16.740722
 50
64.764300000000418
 51
75.052727999999732
  0
ARC
  5
7C5
  8
2
  6
CONTINUOUS
 10
35.966031518757013
 20
5.1004630111881113
 30
0
 40
6.1274969999999991
 50
55.726640000000309
 51
71.182098000000138
  0
ARC
  5
7C6
  8
2
  6
CONTINUOUS
 10
28.204602518757
 20
-29.238626988811891
 30
0
 40
40.992373
 50
75.052727999999732
 51
80.654869000000218
  0
ARC
  5
7C7
  8
2
  6
CONTINUOUS
 10
35.239276518757009
 20
14.089261011188111
 30
0
 40
10.777801
 50
304.90083300000009
 51
312.39801500000038
  0
ARC
  5
7C8
  8
2
  6
CONTINUOUS
 10
27.438837518757008
 20
25.270582011188111
 30
0
 40
24.411172
 50
290.91874199999972
 51
304.90083300000009
  0
ARC
  5
7C9
  8
2
  6
CONTINUOUS
 10
40.303614518757
 20
8.5427170111881132
 30
0
 40
3.267030999999998
 50
312.39801500000038
 51
330.2360869999996
  0
ARC
  5
7CA
  8
2
  6
CONTINUOUS
 10
23.545053518757
 20
-52.716654988811911
 30
0
 40
65.417651
 50
80.421058000000372
 51
86.3304450000003
  0
ARC
  5
7CB
  8
2
  6
CONTINUOUS
 10
21.737565518757
 20
-81.701536988811881
 30
0
 40
93.888654
 50
84.915808999999925
 51
90.051384000000212
  0
ARC
  5
7CC
  8
2
  6
CONTINUOUS
 10
21.70641151875699
 20
-81.3856259888119
 30
0
 40
94.145520999999988
 50
86.3304450000003
 51
90.03228399999999
  0
ARC
  5
7CD
  8
2
  6
CONTINUOUS
 10
21.891118518757011
 20
44.5456870111881
 30
0
 40
44.544178
 50
275.88700400000027
 51
281.46199599999971
  0
ARC
  5
7CE
  8
2
  6
CONTINUOUS
 10
21.948826518757
 20
54.982047011188079
 30
0
 40
54.98284
 50
264.675742
 51
269.69210699999968
  0
ARC
  5
7CF
  8
2
  6
CONTINUOUS
 10
21.70698051875701
 20
47.885418011188086
 30
0
 40
47.88544799999999
 50
269.93584700000031
 51
275.696304
  0
ARC
  5
7D0
  8
2
  6
CONTINUOUS
 10
19.96618051875701
 20
-55.905408988811892
 30
0
 40
68.612956000000011
 50
93.669554999999718
 51
98.047648999999751
  0
ARC
  5
7D1
  8
2
  6
CONTINUOUS
 10
6.846133518757
 20
5.6822740111880972
 30
0
 40
5.3897599999999981
 50
115.19545299999989
 51
124.17689199999971
  0
ARC
  5
7D2
  8
2
  6
CONTINUOUS
 10
1.7957505187570031
 20
7.2586240111881022
 30
0
 40
1.817291999999999
 50
124.080478
 51
171.1689930000002
  0
ARC
  5
7D3
  8
2
  6
CONTINUOUS
 10
1.787848518756999
 20
7.6831620111881129
 30
0
 40
1.793763
 50
184.6540839999997
 51
225.81164199999961
  0
ARC
  5
7D4
  8
2
  6
CONTINUOUS
 10
6.2205335187570041
 20
0.71844801118810175
 30
0
 40
9.713659
 50
109.5571779999996
 51
124.080478
  0
ARC
  5
7D5
  8
2
  6
CONTINUOUS
 10
9.1291635187569948
 20
0.82958601118811237
 30
0
 40
10.75267
 50
104.8992099999997
 51
115.19545299999989
  0
ARC
  5
7D6
  8
2
  6
CONTINUOUS
 10
11.35446151875699
 20
-13.733468988811881
 30
0
 40
25.050384
 50
101.4926470000002
 51
109.5571779999996
  0
ARC
  5
7D7
  8
2
  6
CONTINUOUS
 10
15.137193518757
 20
-21.751501988811881
 30
0
 40
34.119355
 50
98.047648999999751
 51
104.8992099999997
  0
ARC
  5
7D8
  8
2
  6
CONTINUOUS
 10
18.764694518757
 20
-50.179864988811893
 30
0
 40
62.242472
 50
95.084191000000075
 51
101.4926470000002
  0
ARC
  5
7D9
  8
2
  6
CONTINUOUS
 10
14.501628518757
 20
22.901464011188121
 30
0
 40
21.688817
 50
235.08965500000022
 51
245.84147999999993
  0
ARC
  5
7DA
  8
2
  6
CONTINUOUS
 10
19.002526518757
 20
32.93583801118811
 30
0
 40
32.686396
 50
245.84147999999993
 51
258.6394489999999
  0
ARC
  5
7DB
  8
2
  6
CONTINUOUS
 10
9.2090625187569941
 20
15.317666011188111
 30
0
 40
12.440831
 50
225.81164199999961
 51
235.08965500000022
  0
ARC
  5
7DC
  8
2
  6
CONTINUOUS
 10
20.975827518757
 20
41.663120011188063
 30
0
 40
41.631948999999992
 50
258.34284300000041
 51
264.30815699999982
  0
ARC
  5
7DD
  8
2
  6
CONTINUOUS
 10
21.569161518757
 20
-81.701536988811881
 30
0
 40
93.888654
 50
89.948615999999774
 51
95.084191000000075
  0
ARC
  5
7DE
  8
2
  6
CONTINUOUS
 10
21.600316518757008
 20
-81.3856259888119
 30
0
 40
94.145520999999988
 50
89.967715999999982
 51
93.669554999999718
  0
ARC
  5
7DF
  8
2
  6
CONTINUOUS
 10
24.047727518757
 20
33.909509011188121
 30
0
 40
33.691564
 50
281.46199599999971
 51
291.060098
  0
ARC
  5
7E0
  8
2
  6
CONTINUOUS
 10
24.287384518757
 20
-53.0420629888119
 30
0
 40
65.115975
 50
80.654869000000218
 51
84.915808999999925
  0
ARC
  5
7E1
  8
2
  6
CONTINUOUS
 10
30.688879518757009
 20
-10.3852079888119
 30
0
 40
22.487642
 50
71.182098000000138
 51
80.421058000000372
  0
ENDBLK
  5
7E3
  8
0
  0
BLOCK
  5
50ED2
  8
0
  2
SPECEL-X0057
 70
64
 10
0
 20
0
 30
0
  3
SPECEL-X0057
  0
TEXT
  5
50ED3
  8
SPEC
 10
0
 20
0
 30
0
 40
1.5
  1
MILCO.S制御機器
  7
STANDARD
  0
TEXT
  5
50ED4
  8
SPEC
 10
0
 20
-3
 30
0
 40
1.5
  1
本体:鋼板 白色塗装仕上
  7
STANDARD
  0
TEXT
  5
50ED5
  8
SPEC
 10
0
 20
-6
 30
0
 40
1.5
  1
埋込穴:100
  7
STANDARD
  0
ENDBLK
  5
50ED6
  8
0
  0
BLOCK
  5
50ED8
  8
0
  2
*MODEL_SPACE
 70
64
 10
0
 20
0
 30
0
  3
*MODEL_SPACE
  0
ENDBLK
  5
50EDB
  8
0
  0
BLOCK
  5
50EDD
  8
0
 67
1
  2
*PAPER_SPACE
 70
64
 10
0
 20
0
 30
0
  3
*PAPER_SPACE
  0
ENDBLK
  5
50EDE
  8
0
  0
ENDSEC
  0
SECTION
  2
ENTITIES
  0
TEXT
  5
4F6
  8
0
 62
7
 10
97.520606
 20
154.52683999999991
 30
0
 40
4.5
  1
リニューアルプレート
 41
0.96982639999999987
  7
STANDARD
  0
TEXT
  5
4F7
  8
0
 62
7
 10
97.520606
 20
70.526845
 30
0
 40
4.5
  1
三菱　ＥＬ－Ｘ００５７
 41
0.9893333
  7
STANDARD
  0
POLYLINE
  5
50A3D
  8
0
 62
7
 66
1
 70
0
 10
0
 20
0
 30
0
  0
VERTEX
  5
50A3E
  8
0
 62
7
 10
141.82339208220711
 20
117.9587816115973
 70
0
  0
VERTEX
  5
50A3F
  8
0
 62
7
 10
141.86611126622421
 20
118.0857333802288
 70
0
  0
SEQEND
  5
50A40
  8
0
  0
POLYLINE
  5
50A41
  8
0
 62
7
 66
1
 70
0
 10
0
 20
0
 30
0
  0
VERTEX
  5
50A42
  8
0
 62
7
 10
141.61117420031579
 20
117.9160624275802
 70
0
  0
VERTEX
  5
50A43
  8
0
 62
7
 10
141.61117420031579
 20
118.0857333802288
 70
0
  0
SEQEND
  5
50A44
  8
0
  0
POLYLINE
  5
50A45
  8
0
 62
7
 66
1
 70
0
 10
0
 20
0
 30
0
  0
VERTEX
  5
50A46
  8
0
 62
7
 10
140.8491190789785
 20
122.6566860700582
 70
0
  0
VERTEX
  5
50A47
  8
0
 62
7
 10
140.8491190789785
 20
122.6994052540753
 70
0
  0
SEQEND
  5
50A48
  8
0
  0
POLYLINE
  5
50A49
  8
0
 62
7
 66
1
 70
0
 10
0
 20
0
 30
0
  0
VERTEX
  5
50A4A
  8
0
 62
7
 10
140.4687805374069
 20
115.0800598241225
 70
0
  0
VERTEX
  5
50A4B
  8
0
 62
7
 10
140.4687805374069
 20
115.1227790081396
 70
0
  0
SEQEND
  5
50A4C
  8
0
  0
POLYLINE
  5
50A4D
  8
0
 62
7
 66
1
 70
0
 10
0
 20
0
 30
0
  0
VERTEX
  5
50A4E
  8
0
 62
7
 10
140.89183826299561
 20
122.95261977224121
 70
0
  0
VERTEX
  5
50A4F
  8
0
 62
7
 10
140.8491190789785
 20
122.6994052540753
 70
0
  0
SEQEND
  5
50A50
  8
0
  0
POLYLINE
  5
50A51
  8
0
 62
7
 66
1
 70
0
 10
0
 20
0
 30
0
  0
VERTEX
  5
50A52
  8
0
 62
7
 10
142.45866768968719
 20
118.0857333802288
 70
0
  0
VERTEX
  5
50A53
  8
0
 62
7
 10
141.18811647472711
 20
121.9373501327381
 70
0
  0
SEQEND
  5
50A54
  8
0
  0
POLYLINE
  5
50A55
  8
0
 62
7
 66
1
 70
0
 10
0
 20
0
 30
0
  0
VERTEX
  5
50A56
  8
0
 62
7
 10
143.0512241131502
 20
118.3816670824117
 70
0
  0
VERTEX
  5
50A57
  8
0
 62
7
 10
143.0925652589732
 20
119.1013475292804
 70
0
  0
SEQEND
  5
50A58
  8
0
  0
POLYLINE
  5
50A59
  8
0
 62
7
 66
1
 70
0
 10
0
 20
0
 30
0
  0
VERTEX
  5
50A5A
  8
0
 62
7
 10
141.44167550244151
 20
122.022616245998
 70
0
  0
VERTEX
  5
50A5B
  8
0
 62
7
 10
141.01861777685281
 20
123.5040073046554
 70
0
  0
SEQEND
  5
50A5C
  8
0
  0
POLYLINE
  5
50A5D
  8
0
 62
7
 66
1
 70
0
 10
0
 20
0
 30
0
  0
VERTEX
  5
50A5E
  8
0
 62
7
 10
140.89183826299561
 20
122.95261977224121
 70
0
  0
VERTEX
  5
50A5F
  8
0
 62
7
 10
141.18811647472711
 20
121.9373501327381
 70
0
  0
SEQEND
  5
50A60
  8
0
  0
POLYLINE
  5
50A61
  8
0
 62
7
 66
1
 70
0
 10
0
 20
0
 30
0
  0
VERTEX
  5
50A62
  8
0
 62
7
 10
140.7650587491384
 20
123.4185689366212
 70
0
  0
VERTEX
  5
50A63
  8
0
 62
7
 10
140.8491190789785
 20
123.12229072488979
 70
0
  0
SEQEND
  5
50A64
  8
0
  0
POLYLINE
  5
50A65
  8
0
 62
7
 66
1
 70
0
 10
0
 20
0
 30
0
  0
VERTEX
  5
50A66
  8
0
 62
7
 10
140.7223395651213
 20
122.6566860700582
 70
0
  0
VERTEX
  5
50A67
  8
0
 62
7
 10
140.7223395651213
 20
122.74195218331821
 70
0
  0
VERTEX
  5
50A68
  8
0
 62
7
 10
140.68099841929831
 20
122.7832933291412
 70
0
  0
VERTEX
  5
50A69
  8
0
 62
7
 10
140.68099841929831
 20
123.2916171679898
 70
0
  0
VERTEX
  5
50A6A
  8
0
 62
7
 10
140.7223395651213
 20
123.3774000455725
 70
0
  0
VERTEX
  5
50A6B
  8
0
 62
7
 10
140.7223395651213
 20
123.4185689366212
 70
0
  0
VERTEX
  5
50A6C
  8
0
 62
7
 10
140.7650587491384
 20
123.5040073046554
 70
0
  0
SEQEND
  5
50A6D
  8
0
  0
POLYLINE
  5
50A6E
  8
0
 62
7
 66
1
 70
0
 10
0
 20
0
 30
0
  0
VERTEX
  5
50A6F
  8
0
 62
7
 10
140.7223395651213
 20
123.4612881206383
 70
0
  0
VERTEX
  5
50A70
  8
0
 62
7
 10
140.7223395651213
 20
123.4185689366212
 70
0
  0
SEQEND
  5
50A71
  8
0
  0
POLYLINE
  5
50A72
  8
0
 62
7
 66
1
 70
0
 10
0
 20
0
 30
0
  0
VERTEX
  5
50A73
  8
0
 62
7
 10
141.01861777685281
 20
123.5040073046554
 70
0
  0
VERTEX
  5
50A74
  8
0
 62
7
 10
141.01861777685281
 20
123.5880676344955
 70
0
  0
VERTEX
  5
50A75
  8
0
 62
7
 10
140.93455744701271
 20
123.67333374775551
 70
0
  0
VERTEX
  5
50A76
  8
0
 62
7
 10
140.89183826299561
 20
123.7577385871441
 70
0
  0
VERTEX
  5
50A77
  8
0
 62
7
 10
140.80777793315551
 20
123.80028551638689
 70
0
  0
VERTEX
  5
50A78
  8
0
 62
7
 10
140.7223395651213
 20
123.80028551638689
 70
0
  0
SEQEND
  5
50A79
  8
0
  0
POLYLINE
  5
50A7A
  8
0
 62
7
 66
1
 70
0
 10
0
 20
0
 30
0
  0
VERTEX
  5
50A7B
  8
0
 62
7
 10
140.8491190789785
 20
123.0809495790668
 70
0
  0
VERTEX
  5
50A7C
  8
0
 62
7
 10
140.8491190789785
 20
123.12229072488979
 70
0
  0
SEQEND
  5
50A7D
  8
0
  0
POLYLINE
  5
50A7E
  8
0
 62
7
 66
1
 70
0
 10
0
 20
0
 30
0
  0
VERTEX
  5
50A7F
  8
0
 62
7
 10
142.75494590141869
 20
118.12845256424581
 70
0
  0
VERTEX
  5
50A80
  8
0
 62
7
 10
141.44167550244151
 20
122.022616245998
 70
0
  0
SEQEND
  5
50A81
  8
0
  0
POLYLINE
  5
50A82
  8
0
 62
7
 66
1
 70
0
 10
0
 20
0
 30
0
  0
VERTEX
  5
50A83
  8
0
 62
7
 10
147.91845501471121
 20
114.4020650326254
 70
0
  0
VERTEX
  5
50A84
  8
0
 62
7
 10
147.91845501471121
 20
114.2752855187682
 70
0
  0
SEQEND
  5
50A85
  8
0
  0
POLYLINE
  5
50A86
  8
0
 62
7
 66
1
 70
0
 10
0
 20
0
 30
0
  0
VERTEX
  5
50A87
  8
0
 62
7
 10
147.87711386888819
 20
115.2066670832055
 70
0
  0
VERTEX
  5
50A88
  8
0
 62
7
 10
147.91845501471121
 20
114.69834324435681
 70
0
  0
SEQEND
  5
50A89
  8
0
  0
POLYLINE
  5
50A8A
  8
0
 62
7
 66
1
 70
0
 10
0
 20
0
 30
0
  0
VERTEX
  5
50A8B
  8
0
 62
7
 10
146.43706395605369
 20
114.6570020985338
 70
0
  0
VERTEX
  5
50A8C
  8
0
 62
7
 10
147.0723395635338
 20
114.1056145661196
 70
0
  0
SEQEND
  5
50A8D
  8
0
  0
POLYLINE
  5
50A8E
  8
0
 62
7
 66
1
 70
0
 10
0
 20
0
 30
0
  0
VERTEX
  5
50A8F
  8
0
 62
7
 10
142.58544720354439
 20
117.57706503183159
 70
0
  0
VERTEX
  5
50A90
  8
0
 62
7
 10
142.2037306237788
 20
117.9160624275802
 70
0
  0
SEQEND
  5
50A91
  8
0
  0
POLYLINE
  5
50A92
  8
0
 62
7
 66
1
 70
0
 10
0
 20
0
 30
0
  0
VERTEX
  5
50A93
  8
0
 62
7
 10
143.2620639568475
 20
119.3133931563975
 70
0
  0
VERTEX
  5
50A94
  8
0
 62
7
 10
143.0925652589732
 20
119.1013475292804
 70
0
  0
SEQEND
  5
50A95
  8
0
  0
POLYLINE
  5
50A96
  8
0
 62
7
 66
1
 70
0
 10
0
 20
0
 30
0
  0
VERTEX
  5
50A97
  8
0
 62
7
 10
146.1835049283394
 20
114.783781612391
 70
0
  0
VERTEX
  5
50A98
  8
0
 62
7
 10
146.22622411235651
 20
114.783781612391
 70
0
  0
SEQEND
  5
50A99
  8
0
  0
POLYLINE
  5
50A9A
  8
0
 62
7
 66
1
 70
0
 10
0
 20
0
 30
0
  0
VERTEX
  5
50A9B
  8
0
 62
7
 10
148.38423192431691
 20
113.8951192319709
 70
0
  0
VERTEX
  5
50A9C
  8
0
 62
7
 10
148.34151274029989
 20
113.9376661612137
 70
0
  0
VERTEX
  5
50A9D
  8
0
 62
7
 10
148.34151274029989
 20
113.9790073070367
 70
0
  0
VERTEX
  5
50A9E
  8
0
 62
7
 10
148.30017159447681
 20
114.0644456750709
 70
0
  0
VERTEX
  5
50A9F
  8
0
 62
7
 10
148.25745241045971
 20
114.1913974437023
 70
0
  0
VERTEX
  5
50AA0
  8
0
 62
7
 10
148.25745241045971
 20
114.2752855187682
 70
0
  0
SEQEND
  5
50AA1
  8
0
  0
POLYLINE
  5
50AA2
  8
0
 62
7
 66
1
 70
0
 10
0
 20
0
 30
0
  0
VERTEX
  5
50AA3
  8
0
 62
7
 10
143.0512241131502
 20
118.3816670824117
 70
0
  0
VERTEX
  5
50AA4
  8
0
 62
7
 10
143.4315626547218
 20
118.0430141962117
 70
0
  0
SEQEND
  5
50AA5
  8
0
  0
POLYLINE
  5
50AA6
  8
0
 62
7
 66
1
 70
0
 10
0
 20
0
 30
0
  0
VERTEX
  5
50AA7
  8
0
 62
7
 10
147.91845501471121
 20
114.2752855187682
 70
0
  0
VERTEX
  5
50AA8
  8
0
 62
7
 10
147.96117419872829
 20
114.1483337501367
 70
0
  0
VERTEX
  5
50AA9
  8
0
 62
7
 10
148.00389338274539
 20
114.0217264910538
 70
0
  0
SEQEND
  5
50AAA
  8
0
  0
POLYLINE
  5
50AAB
  8
0
 62
7
 66
1
 70
0
 10
0
 20
0
 30
0
  0
VERTEX
  5
50AAC
  8
0
 62
7
 10
148.21473322644269
 20
114.5717359852739
 70
0
  0
VERTEX
  5
50AAD
  8
0
 62
7
 10
148.25745241045971
 20
114.2752855187682
 70
0
  0
SEQEND
  5
50AAE
  8
0
  0
POLYLINE
  5
50AAF
  8
0
 62
7
 66
1
 70
0
 10
0
 20
0
 30
0
  0
VERTEX
  5
50AB0
  8
0
 62
7
 10
148.17339208061961
 20
115.2497307767711
 70
0
  0
VERTEX
  5
50AB1
  8
0
 62
7
 10
148.21473322644269
 20
114.9107333810225
 70
0
  0
SEQEND
  5
50AB2
  8
0
  0
POLYLINE
  5
50AB3
  8
0
 62
7
 66
1
 70
0
 10
0
 20
0
 30
0
  0
VERTEX
  5
50AB4
  8
0
 62
7
 10
148.38423192431691
 20
114.6570020985338
 70
0
  0
VERTEX
  5
50AB5
  8
0
 62
7
 10
148.38423192431691
 20
114.0644456750709
 70
0
  0
VERTEX
  5
50AB6
  8
0
 62
7
 10
148.34151274029989
 20
114.0217264910538
 70
0
  0
VERTEX
  5
50AB7
  8
0
 62
7
 10
148.34151274029989
 20
113.9790073070367
 70
0
  0
SEQEND
  5
50AB8
  8
0
  0
POLYLINE
  5
50AB9
  8
0
 62
7
 66
1
 70
0
 10
0
 20
0
 30
0
  0
VERTEX
  5
50ABA
  8
0
 62
7
 10
168.9142449400178
 20
115.8846618747026
 70
0
  0
VERTEX
  5
50ABB
  8
0
 62
7
 10
168.999683308052
 20
115.8846618747026
 70
0
  0
VERTEX
  5
50ABC
  8
0
 62
7
 10
169.041024453875
 20
115.9263475300742
 70
0
  0
VERTEX
  5
50ABD
  8
0
 62
7
 10
169.0837436378921
 20
116.0117858981083
 70
0
  0
VERTEX
  5
50ABE
  8
0
 62
7
 10
169.0837436378921
 20
116.6039978120228
 70
0
  0
VERTEX
  5
50ABF
  8
0
 62
7
 10
169.041024453875
 20
116.7309495806543
 70
0
  0
VERTEX
  5
50AC0
  8
0
 62
7
 10
169.041024453875
 20
116.8577290945115
 70
0
  0
VERTEX
  5
50AC1
  8
0
 62
7
 10
168.999683308052
 20
116.9846808631429
 70
0
  0
VERTEX
  5
50AC2
  8
0
 62
7
 10
168.9142449400178
 20
117.0701192311771
 70
0
  0
VERTEX
  5
50AC3
  8
0
 62
7
 10
168.9142449400178
 20
117.1112881222258
 70
0
  0
SEQEND
  5
50AC4
  8
0
  0
POLYLINE
  5
50AC5
  8
0
 62
7
 66
1
 70
0
 10
0
 20
0
 30
0
  0
VERTEX
  5
50AC6
  8
0
 62
7
 10
148.59644980620831
 20
113.7679952085651
 70
0
  0
VERTEX
  5
50AC7
  8
0
 62
7
 10
148.6377909520314
 20
113.85240004795379
 70
0
  0
VERTEX
  5
50AC8
  8
0
 62
7
 10
148.6377909520314
 20
113.9376661612137
 70
0
  0
VERTEX
  5
50AC9
  8
0
 62
7
 10
148.68051013604841
 20
114.0644456750709
 70
0
  0
VERTEX
  5
50ACA
  8
0
 62
7
 10
148.68051013604841
 20
114.1913974437023
 70
0
  0
VERTEX
  5
50ACB
  8
0
 62
7
 10
148.72322932006551
 20
114.3180047027853
 70
0
  0
VERTEX
  5
50ACC
  8
0
 62
7
 10
148.72322932006551
 20
114.53005032990239
 70
0
  0
VERTEX
  5
50ACD
  8
0
 62
7
 10
148.68051013604841
 20
114.6570020985338
 70
0
  0
VERTEX
  5
50ACE
  8
0
 62
7
 10
148.68051013604841
 20
114.74106242837389
 70
0
  0
VERTEX
  5
50ACF
  8
0
 62
7
 10
148.6377909520314
 20
114.8263285416339
 70
0
  0
VERTEX
  5
50AD0
  8
0
 62
7
 10
148.6377909520314
 20
114.86801419700539
 70
0
  0
VERTEX
  5
50AD1
  8
0
 62
7
 10
148.59644980620831
 20
114.9534525650396
 70
0
  0
VERTEX
  5
50AD2
  8
0
 62
7
 10
148.59644980620831
 20
114.9946214560883
 70
0
  0
VERTEX
  5
50AD3
  8
0
 62
7
 10
148.51101143817419
 20
115.0373406401054
 70
0
  0
VERTEX
  5
50AD4
  8
0
 62
7
 10
148.426951108334
 20
115.0373406401054
 70
0
  0
SEQEND
  5
50AD5
  8
0
  0
POLYLINE
  5
50AD6
  8
0
 62
7
 66
1
 70
0
 10
0
 20
0
 30
0
  0
VERTEX
  5
50AD7
  8
0
 62
7
 10
159.30518461255889
 20
120.03272909371771
 70
0
  0
VERTEX
  5
50AD8
  8
0
 62
7
 10
158.96618721681031
 20
119.9059495798605
 70
0
  0
SEQEND
  5
50AD9
  8
0
  0
POLYLINE
  5
50ADA
  8
0
 62
7
 66
1
 70
0
 10
0
 20
0
 30
0
  0
VERTEX
  5
50ADB
  8
0
 62
7
 10
148.426951108334
 20
115.0373406401054
 70
0
  0
VERTEX
  5
50ADC
  8
0
 62
7
 10
148.46967029235111
 20
115.0373406401054
 70
0
  0
SEQEND
  5
50ADD
  8
0
  0
POLYLINE
  5
50ADE
  8
0
 62
7
 66
1
 70
0
 10
0
 20
0
 30
0
  0
VERTEX
  5
50ADF
  8
0
 62
7
 10
148.00389338274539
 20
114.44461196186821
 70
0
  0
VERTEX
  5
50AE0
  8
0
 62
7
 10
148.51101143817419
 20
114.74106242837389
 70
0
  0
SEQEND
  5
50AE1
  8
0
  0
POLYLINE
  5
50AE2
  8
0
 62
7
 66
1
 70
0
 10
0
 20
0
 30
0
  0
VERTEX
  5
50AE3
  8
0
 62
7
 10
148.34151274029989
 20
114.9946214560883
 70
0
  0
VERTEX
  5
50AE4
  8
0
 62
7
 10
147.87711386888819
 20
114.69834324435681
 70
0
  0
SEQEND
  5
50AE5
  8
0
  0
POLYLINE
  5
50AE6
  8
0
 62
7
 66
1
 70
0
 10
0
 20
0
 30
0
  0
VERTEX
  5
50AE7
  8
0
 62
7
 10
153.5063998917864
 20
111.86234064089921
 70
0
  0
VERTEX
  5
50AE8
  8
0
 62
7
 10
153.5063998917864
 20
111.9904981929505
 70
0
  0
SEQEND
  5
50AE9
  8
0
  0
POLYLINE
  5
50AEA
  8
0
 62
7
 66
1
 70
0
 10
0
 20
0
 30
0
  0
VERTEX
  5
50AEB
  8
0
 62
7
 10
141.86611126622421
 20
118.0857333802288
 70
0
  0
VERTEX
  5
50AEC
  8
0
 62
7
 10
142.2037306237788
 20
118.0857333802288
 70
0
  0
SEQEND
  5
50AED
  8
0
  0
POLYLINE
  5
50AEE
  8
0
 62
7
 66
1
 70
0
 10
0
 20
0
 30
0
  0
VERTEX
  5
50AEF
  8
0
 62
7
 10
141.82339208220711
 20
117.9587816115973
 70
0
  0
VERTEX
  5
50AF0
  8
0
 62
7
 10
142.2037306237788
 20
117.9160624275802
 70
0
  0
SEQEND
  5
50AF1
  8
0
  0
POLYLINE
  5
50AF2
  8
0
 62
7
 66
1
 70
0
 10
0
 20
0
 30
0
  0
VERTEX
  5
50AF3
  8
0
 62
7
 10
148.426951108334
 20
115.0373406401054
 70
0
  0
VERTEX
  5
50AF4
  8
0
 62
7
 10
148.46967029235111
 20
115.0373406401054
 70
0
  0
SEQEND
  5
50AF5
  8
0
  0
POLYLINE
  5
50AF6
  8
0
 62
7
 66
1
 70
0
 10
0
 20
0
 30
0
  0
VERTEX
  5
50AF7
  8
0
 62
7
 10
147.87711386888819
 20
114.69834324435681
 70
0
  0
VERTEX
  5
50AF8
  8
0
 62
7
 10
147.91845501471121
 20
114.69834324435681
 70
0
  0
SEQEND
  5
50AF9
  8
0
  0
POLYLINE
  5
50AFA
  8
0
 62
7
 66
1
 70
0
 10
0
 20
0
 30
0
  0
VERTEX
  5
50AFB
  8
0
 62
7
 10
159.30518461255889
 20
119.8634026506177
 70
0
  0
VERTEX
  5
50AFC
  8
0
 62
7
 10
158.9248460709874
 20
119.778997811229
 70
0
  0
VERTEX
  5
50AFD
  8
0
 62
7
 10
157.69701404004431
 20
119.651012513952
 70
0
  0
SEQEND
  5
50AFE
  8
0
  0
POLYLINE
  5
50AFF
  8
0
 62
7
 66
1
 70
0
 10
0
 20
0
 30
0
  0
VERTEX
  5
50B00
  8
0
 62
7
 10
145.7604472027507
 20
118.6779452941432
 70
0
  0
VERTEX
  5
50B01
  8
0
 62
7
 10
143.0512241131502
 20
118.3816670824117
 70
0
  0
SEQEND
  5
50B02
  8
0
  0
POLYLINE
  5
50B03
  8
0
 62
7
 66
1
 70
0
 10
0
 20
0
 30
0
  0
VERTEX
  5
50B04
  8
0
 62
7
 10
157.3152974602786
 20
119.9472907256835
 70
0
  0
VERTEX
  5
50B05
  8
0
 62
7
 10
152.6602844406091
 20
119.4400004154805
 70
0
  0
SEQEND
  5
50B06
  8
0
  0
POLYLINE
  5
50B07
  8
0
 62
7
 66
1
 70
0
 10
0
 20
0
 30
0
  0
VERTEX
  5
50B08
  8
0
 62
7
 10
142.2037306237788
 20
118.0857333802288
 70
0
  0
VERTEX
  5
50B09
  8
0
 62
7
 10
143.3047831408646
 20
118.1696214552946
 70
0
  0
SEQEND
  5
50B0A
  8
0
  0
POLYLINE
  5
50B0B
  8
0
 62
7
 66
1
 70
0
 10
0
 20
0
 30
0
  0
VERTEX
  5
50B0C
  8
0
 62
7
 10
158.96618721681031
 20
119.9059495798605
 70
0
  0
VERTEX
  5
50B0D
  8
0
 62
7
 10
157.69701404004431
 20
119.778997811229
 70
0
  0
SEQEND
  5
50B0E
  8
0
  0
POLYLINE
  5
50B0F
  8
0
 62
7
 66
1
 70
0
 10
0
 20
0
 30
0
  0
VERTEX
  5
50B10
  8
0
 62
7
 10
142.2037306237788
 20
117.9160624275802
 70
0
  0
VERTEX
  5
50B11
  8
0
 62
7
 10
143.4315626547218
 20
118.0430141962117
 70
0
  0
SEQEND
  5
50B12
  8
0
  0
POLYLINE
  5
50B13
  8
0
 62
7
 66
1
 70
0
 10
0
 20
0
 30
0
  0
VERTEX
  5
50B14
  8
0
 62
7
 10
147.96117419872829
 20
114.4020650326254
 70
0
  0
VERTEX
  5
50B15
  8
0
 62
7
 10
148.00389338274539
 20
114.44461196186821
 70
0
  0
SEQEND
  5
50B16
  8
0
  0
POLYLINE
  5
50B17
  8
0
 62
7
 66
1
 70
0
 10
0
 20
0
 30
0
  0
VERTEX
  5
50B18
  8
0
 62
7
 10
143.2620639568475
 20
119.3133931563975
 70
0
  0
VERTEX
  5
50B19
  8
0
 62
7
 10
157.1885179464214
 20
120.8359531061037
 70
0
  0
SEQEND
  5
50B1A
  8
0
  0
POLYLINE
  5
50B1B
  8
0
 62
7
 66
1
 70
0
 10
0
 20
0
 30
0
  0
VERTEX
  5
50B1C
  8
0
 62
7
 10
147.49539728912251
 20
114.2752855187682
 70
0
  0
VERTEX
  5
50B1D
  8
0
 62
7
 10
147.96117419872829
 20
114.4020650326254
 70
0
  0
SEQEND
  5
50B1E
  8
0
  0
POLYLINE
  5
50B1F
  8
0
 62
7
 66
1
 70
0
 10
0
 20
0
 30
0
  0
VERTEX
  5
50B20
  8
0
 62
7
 10
147.87711386888819
 20
114.69834324435681
 70
0
  0
VERTEX
  5
50B21
  8
0
 62
7
 10
147.1563998933739
 20
114.48733114588531
 70
0
  0
SEQEND
  5
50B22
  8
0
  0
POLYLINE
  5
50B23
  8
0
 62
7
 66
1
 70
0
 10
0
 20
0
 30
0
  0
VERTEX
  5
50B24
  8
0
 62
7
 10
157.69701404004431
 20
119.651012513952
 70
0
  0
VERTEX
  5
50B25
  8
0
 62
7
 10
157.3152974602786
 20
119.9472907256835
 70
0
  0
VERTEX
  5
50B26
  8
0
 62
7
 10
157.3580166442957
 20
120.6680047011978
 70
0
  0
SEQEND
  5
50B27
  8
0
  0
POLYLINE
  5
50B28
  8
0
 62
7
 66
1
 70
0
 10
0
 20
0
 30
0
  0
VERTEX
  5
50B29
  8
0
 62
7
 10
157.4007358283128
 20
120.03272909371771
 70
0
  0
VERTEX
  5
50B2A
  8
0
 62
7
 10
157.4007358283128
 20
120.6252855171807
 70
0
  0
SEQEND
  5
50B2B
  8
0
  0
POLYLINE
  5
50B2C
  8
0
 62
7
 66
1
 70
0
 10
0
 20
0
 30
0
  0
VERTEX
  5
50B2D
  8
0
 62
7
 10
157.69701404004431
 20
119.651012513952
 70
0
  0
VERTEX
  5
50B2E
  8
0
 62
7
 10
157.69701404004431
 20
119.778997811229
 70
0
  0
VERTEX
  5
50B2F
  8
0
 62
7
 10
157.4007358283128
 20
120.03272909371771
 70
0
  0
SEQEND
  5
50B30
  8
0
  0
POLYLINE
  5
50B31
  8
0
 62
7
 66
1
 70
0
 10
0
 20
0
 30
0
  0
VERTEX
  5
50B32
  8
0
 62
7
 10
157.2312371304385
 20
120.7946119602807
 70
0
  0
VERTEX
  5
50B33
  8
0
 62
7
 10
157.4007358283128
 20
120.6252855171807
 70
0
  0
SEQEND
  5
50B34
  8
0
  0
POLYLINE
  5
50B35
  8
0
 62
7
 66
1
 70
0
 10
0
 20
0
 30
0
  0
VERTEX
  5
50B36
  8
0
 62
7
 10
157.3580166442957
 20
120.6680047011978
 70
0
  0
VERTEX
  5
50B37
  8
0
 62
7
 10
157.1885179464214
 20
120.8359531061037
 70
0
  0
SEQEND
  5
50B38
  8
0
  0
POLYLINE
  5
50B39
  8
0
 62
7
 66
1
 70
0
 10
0
 20
0
 30
0
  0
VERTEX
  5
50B3A
  8
0
 62
7
 10
160.0672397338962
 20
118.8050693175489
 70
0
  0
VERTEX
  5
50B3B
  8
0
 62
7
 10
158.9248460709874
 20
119.778997811229
 70
0
  0
SEQEND
  5
50B3C
  8
0
  0
POLYLINE
  5
50B3D
  8
0
 62
7
 66
1
 70
0
 10
0
 20
0
 30
0
  0
VERTEX
  5
50B3E
  8
0
 62
7
 10
157.1885179464214
 20
120.8359531061037
 70
0
  0
VERTEX
  5
50B3F
  8
0
 62
7
 10
157.2312371304385
 20
120.7946119602807
 70
0
  0
SEQEND
  5
50B40
  8
0
  0
POLYLINE
  5
50B41
  8
0
 62
7
 66
1
 70
0
 10
0
 20
0
 30
0
  0
VERTEX
  5
50B42
  8
0
 62
7
 10
157.3580166442957
 20
120.6680047011978
 70
0
  0
VERTEX
  5
50B43
  8
0
 62
7
 10
157.4007358283128
 20
120.6252855171807
 70
0
  0
SEQEND
  5
50B44
  8
0
  0
POLYLINE
  5
50B45
  8
0
 62
7
 66
1
 70
0
 10
0
 20
0
 30
0
  0
VERTEX
  5
50B46
  8
0
 62
7
 10
161.25235258082211
 20
124.6036817835472
 70
0
  0
VERTEX
  5
50B47
  8
0
 62
7
 10
161.37913209467931
 20
124.6464009675643
 70
0
  0
VERTEX
  5
50B48
  8
0
 62
7
 10
161.42185127869641
 20
124.7306335521786
 70
0
  0
VERTEX
  5
50B49
  8
0
 62
7
 10
161.50728964673061
 20
124.81607192021281
 70
0
  0
VERTEX
  5
50B4A
  8
0
 62
7
 10
161.50728964673061
 20
124.89995999527871
 70
0
  0
SEQEND
  5
50B4B
  8
0
  0
POLYLINE
  5
50B4C
  8
0
 62
7
 66
1
 70
0
 10
0
 20
0
 30
0
  0
VERTEX
  5
50B4D
  8
0
 62
7
 10
161.29507176483921
 20
125.2389573910273
 70
0
  0
VERTEX
  5
50B4E
  8
0
 62
7
 10
161.21101143499911
 20
124.9853983633129
 70
0
  0
SEQEND
  5
50B4F
  8
0
  0
POLYLINE
  5
50B50
  8
0
 62
7
 66
1
 70
0
 10
0
 20
0
 30
0
  0
VERTEX
  5
50B51
  8
0
 62
7
 10
161.37913209467931
 20
125.66201511661591
 70
0
  0
VERTEX
  5
50B52
  8
0
 62
7
 10
161.33779094885631
 20
125.4082838341273
 70
0
  0
SEQEND
  5
50B53
  8
0
  0
POLYLINE
  5
50B54
  8
0
 62
7
 66
1
 70
0
 10
0
 20
0
 30
0
  0
VERTEX
  5
50B55
  8
0
 62
7
 10
159.30518461255889
 20
119.8634026506177
 70
0
  0
VERTEX
  5
50B56
  8
0
 62
7
 10
159.30518461255889
 20
120.03272909371771
 70
0
  0
SEQEND
  5
50B57
  8
0
  0
POLYLINE
  5
50B58
  8
0
 62
7
 66
1
 70
0
 10
0
 20
0
 30
0
  0
VERTEX
  5
50B59
  8
0
 62
7
 10
161.67541030641081
 20
125.57795478677581
 70
0
  0
VERTEX
  5
50B5A
  8
0
 62
7
 10
161.50728964673061
 20
124.89995999527871
 70
0
  0
SEQEND
  5
50B5B
  8
0
  0
POLYLINE
  5
50B5C
  8
0
 62
7
 66
1
 70
0
 10
0
 20
0
 30
0
  0
VERTEX
  5
50B5D
  8
0
 62
7
 10
140.6382792352812
 20
122.4029547875696
 70
0
  0
VERTEX
  5
50B5E
  8
0
 62
7
 10
140.7223395651213
 20
122.4456739715867
 70
0
  0
VERTEX
  5
50B5F
  8
0
 62
7
 10
140.7650587491384
 20
122.4870151174097
 70
0
  0
VERTEX
  5
50B60
  8
0
 62
7
 10
140.80777793315551
 20
122.5297343014268
 70
0
  0
VERTEX
  5
50B61
  8
0
 62
7
 10
140.80777793315551
 20
122.5722812306696
 70
0
  0
VERTEX
  5
50B62
  8
0
 62
7
 10
140.8491190789785
 20
122.6566860700582
 70
0
  0
SEQEND
  5
50B63
  8
0
  0
POLYLINE
  5
50B64
  8
0
 62
7
 66
1
 70
0
 10
0
 20
0
 30
0
  0
VERTEX
  5
50B65
  8
0
 62
7
 10
161.168292250982
 20
112.70966187549639
 70
0
  0
VERTEX
  5
50B66
  8
0
 62
7
 10
161.21101143499911
 20
112.83678589890209
 70
0
  0
SEQEND
  5
50B67
  8
0
  0
POLYLINE
  5
50B68
  8
0
 62
7
 66
1
 70
0
 10
0
 20
0
 30
0
  0
VERTEX
  5
50B69
  8
0
 62
7
 10
159.6441820083075
 20
119.9059495798605
 70
0
  0
VERTEX
  5
50B6A
  8
0
 62
7
 10
159.6441820083075
 20
120.07544827773479
 70
0
  0
SEQEND
  5
50B6B
  8
0
  0
POLYLINE
  5
50B6C
  8
0
 62
7
 66
1
 70
0
 10
0
 20
0
 30
0
  0
VERTEX
  5
50B6D
  8
0
 62
7
 10
160.9987935531077
 20
126.0437316963816
 70
0
  0
VERTEX
  5
50B6E
  8
0
 62
7
 10
160.91335518507361
 20
126.0010125123645
 70
0
  0
VERTEX
  5
50B6F
  8
0
 62
7
 10
160.87201403925059
 20
125.9582933283474
 70
0
  0
VERTEX
  5
50B70
  8
0
 62
7
 10
160.82929485523351
 20
125.9169521825244
 70
0
  0
VERTEX
  5
50B71
  8
0
 62
7
 10
160.82929485523351
 20
125.83168606926451
 70
0
  0
VERTEX
  5
50B72
  8
0
 62
7
 10
160.78657567121641
 20
125.78896688524741
 70
0
  0
VERTEX
  5
50B73
  8
0
 62
7
 10
160.78657567121641
 20
125.4082838341273
 70
0
  0
VERTEX
  5
50B74
  8
0
 62
7
 10
160.82929485523351
 20
125.3243957590614
 70
0
  0
VERTEX
  5
50B75
  8
0
 62
7
 10
160.82929485523351
 20
125.1962382070102
 70
0
  0
VERTEX
  5
50B76
  8
0
 62
7
 10
160.87201403925059
 20
125.0692864383787
 70
0
  0
VERTEX
  5
50B77
  8
0
 62
7
 10
160.87201403925059
 20
124.9853983633129
 70
0
  0
VERTEX
  5
50B78
  8
0
 62
7
 10
160.91335518507361
 20
124.8586188494557
 70
0
  0
VERTEX
  5
50B79
  8
0
 62
7
 10
160.9987935531077
 20
124.7733527361957
 70
0
  0
VERTEX
  5
50B7A
  8
0
 62
7
 10
161.04151273712481
 20
124.68894789680709
 70
0
  0
VERTEX
  5
50B7B
  8
0
 62
7
 10
161.1255730669649
 20
124.6464009675643
 70
0
  0
VERTEX
  5
50B7C
  8
0
 62
7
 10
161.21101143499911
 20
124.6036817835472
 70
0
  0
VERTEX
  5
50B7D
  8
0
 62
7
 10
161.25235258082211
 20
124.6036817835472
 70
0
  0
SEQEND
  5
50B7E
  8
0
  0
POLYLINE
  5
50B7F
  8
0
 62
7
 66
1
 70
0
 10
0
 20
0
 30
0
  0
VERTEX
  5
50B80
  8
0
 62
7
 10
140.7223395651213
 20
123.80028551638689
 70
0
  0
VERTEX
  5
50B81
  8
0
 62
7
 10
140.68099841929831
 20
123.80028551638689
 70
0
  0
VERTEX
  5
50B82
  8
0
 62
7
 10
140.5955600512641
 20
123.7577385871441
 70
0
  0
VERTEX
  5
50B83
  8
0
 62
7
 10
140.511499721424
 20
123.715019403127
 70
0
  0
VERTEX
  5
50B84
  8
0
 62
7
 10
140.4687805374069
 20
123.63061456373841
 70
0
  0
VERTEX
  5
50B85
  8
0
 62
7
 10
140.4260613533898
 20
123.5040073046554
 70
0
  0
VERTEX
  5
50B86
  8
0
 62
7
 10
140.3847202075668
 20
123.4185689366212
 70
0
  0
VERTEX
  5
50B87
  8
0
 62
7
 10
140.3847202075668
 20
122.74195218331821
 70
0
  0
VERTEX
  5
50B88
  8
0
 62
7
 10
140.4260613533898
 20
122.6566860700582
 70
0
  0
VERTEX
  5
50B89
  8
0
 62
7
 10
140.4260613533898
 20
122.5722812306696
 70
0
  0
VERTEX
  5
50B8A
  8
0
 62
7
 10
140.4687805374069
 20
122.5297343014268
 70
0
  0
VERTEX
  5
50B8B
  8
0
 62
7
 10
140.511499721424
 20
122.4870151174097
 70
0
  0
VERTEX
  5
50B8C
  8
0
 62
7
 10
140.552840867247
 20
122.4456739715867
 70
0
  0
VERTEX
  5
50B8D
  8
0
 62
7
 10
140.6382792352812
 20
122.4029547875696
 70
0
  0
SEQEND
  5
50B8E
  8
0
  0
POLYLINE
  5
50B8F
  8
0
 62
7
 66
1
 70
0
 10
0
 20
0
 30
0
  0
VERTEX
  5
50B90
  8
0
 62
7
 10
161.67541030641081
 20
124.2233432419756
 70
0
  0
VERTEX
  5
50B91
  8
0
 62
7
 10
161.50728964673061
 20
124.81607192021281
 70
0
  0
SEQEND
  5
50B92
  8
0
  0
POLYLINE
  5
50B93
  8
0
 62
7
 66
1
 70
0
 10
0
 20
0
 30
0
  0
VERTEX
  5
50B94
  8
0
 62
7
 10
161.25235258082211
 20
124.6036817835472
 70
0
  0
VERTEX
  5
50B95
  8
0
 62
7
 10
161.37913209467931
 20
124.1379048739414
 70
0
  0
SEQEND
  5
50B96
  8
0
  0
POLYLINE
  5
50B97
  8
0
 62
7
 66
1
 70
0
 10
0
 20
0
 30
0
  0
VERTEX
  5
50B98
  8
0
 62
7
 10
161.67541030641081
 20
124.2233432419756
 70
0
  0
VERTEX
  5
50B99
  8
0
 62
7
 10
161.71812949042791
 20
124.2233432419756
 70
0
  0
SEQEND
  5
50B9A
  8
0
  0
POLYLINE
  5
50B9B
  8
0
 62
7
 66
1
 70
0
 10
0
 20
0
 30
0
  0
VERTEX
  5
50B9C
  8
0
 62
7
 10
161.37913209467931
 20
124.1379048739414
 70
0
  0
VERTEX
  5
50B9D
  8
0
 62
7
 10
161.42185127869641
 20
124.1379048739414
 70
0
  0
SEQEND
  5
50B9E
  8
0
  0
POLYLINE
  5
50B9F
  8
0
 62
7
 66
1
 70
0
 10
0
 20
0
 30
0
  0
VERTEX
  5
50BA0
  8
0
 62
7
 10
163.19952054908529
 20
119.609671368129
 70
0
  0
VERTEX
  5
50BA1
  8
0
 62
7
 10
161.67541030641081
 20
124.2233432419756
 70
0
  0
SEQEND
  5
50BA2
  8
0
  0
POLYLINE
  5
50BA3
  8
0
 62
7
 66
1
 70
0
 10
0
 20
0
 30
0
  0
VERTEX
  5
50BA4
  8
0
 62
7
 10
161.37913209467931
 20
124.1379048739414
 70
0
  0
VERTEX
  5
50BA5
  8
0
 62
7
 10
162.86052315333669
 20
119.6937316979691
 70
0
  0
SEQEND
  5
50BA6
  8
0
  0
POLYLINE
  5
50BA7
  8
0
 62
7
 66
1
 70
0
 10
0
 20
0
 30
0
  0
VERTEX
  5
50BA8
  8
0
 62
7
 10
168.57524754426919
 20
117.23944567427711
 70
0
  0
VERTEX
  5
50BA9
  8
0
 62
7
 10
168.61796672828629
 20
117.23944567427711
 70
0
  0
SEQEND
  5
50BAA
  8
0
  0
POLYLINE
  5
50BAB
  8
0
 62
7
 66
1
 70
0
 10
0
 20
0
 30
0
  0
VERTEX
  5
50BAC
  8
0
 62
7
 10
161.33779094885631
 20
125.4082838341273
 70
0
  0
VERTEX
  5
50BAD
  8
0
 62
7
 10
161.25235258082211
 20
125.704734300633
 70
0
  0
VERTEX
  5
50BAE
  8
0
 62
7
 10
161.25235258082211
 20
125.7472812298759
 70
0
  0
VERTEX
  5
50BAF
  8
0
 62
7
 10
161.21101143499911
 20
125.83168606926451
 70
0
  0
VERTEX
  5
50BB0
  8
0
 62
7
 10
161.168292250982
 20
125.9169521825244
 70
0
  0
VERTEX
  5
50BB1
  8
0
 62
7
 10
161.168292250982
 20
125.9582933283474
 70
0
  0
VERTEX
  5
50BB2
  8
0
 62
7
 10
161.0828538829478
 20
126.0010125123645
 70
0
  0
VERTEX
  5
50BB3
  8
0
 62
7
 10
161.04151273712481
 20
126.0437316963816
 70
0
  0
VERTEX
  5
50BB4
  8
0
 62
7
 10
160.9987935531077
 20
126.0437316963816
 70
0
  0
SEQEND
  5
50BB5
  8
0
  0
POLYLINE
  5
50BB6
  8
0
 62
7
 66
1
 70
0
 10
0
 20
0
 30
0
  0
VERTEX
  5
50BB7
  8
0
 62
7
 10
168.27896933253771
 20
116.68840265141139
 70
0
  0
VERTEX
  5
50BB8
  8
0
 62
7
 10
168.61796672828629
 20
116.9004482785285
 70
0
  0
SEQEND
  5
50BB9
  8
0
  0
POLYLINE
  5
50BBA
  8
0
 62
7
 66
1
 70
0
 10
0
 20
0
 30
0
  0
VERTEX
  5
50BBB
  8
0
 62
7
 10
168.53390639844619
 20
117.19672649026
 70
0
  0
VERTEX
  5
50BBC
  8
0
 62
7
 10
168.15218981868051
 20
116.9416171695773
 70
0
  0
SEQEND
  5
50BBD
  8
0
  0
POLYLINE
  5
50BBE
  8
0
 62
7
 66
1
 70
0
 10
0
 20
0
 30
0
  0
VERTEX
  5
50BBF
  8
0
 62
7
 10
161.25235258082211
 20
124.89995999527871
 70
0
  0
VERTEX
  5
50BC0
  8
0
 62
7
 10
161.25235258082211
 20
124.94267917929579
 70
0
  0
VERTEX
  5
50BC1
  8
0
 62
7
 10
161.21101143499911
 20
124.9853983633129
 70
0
  0
VERTEX
  5
50BC2
  8
0
 62
7
 10
161.168292250982
 20
125.0692864383787
 70
0
  0
VERTEX
  5
50BC3
  8
0
 62
7
 10
161.168292250982
 20
125.1550693159614
 70
0
  0
VERTEX
  5
50BC4
  8
0
 62
7
 10
161.1255730669649
 20
125.2389573910273
 70
0
  0
VERTEX
  5
50BC5
  8
0
 62
7
 10
161.1255730669649
 20
125.4513475276929
 70
0
  0
VERTEX
  5
50BC6
  8
0
 62
7
 10
161.0828538829478
 20
125.5352356027588
 70
0
  0
VERTEX
  5
50BC7
  8
0
 62
7
 10
161.0828538829478
 20
125.66201511661591
 70
0
  0
VERTEX
  5
50BC8
  8
0
 62
7
 10
161.1255730669649
 20
125.704734300633
 70
0
  0
VERTEX
  5
50BC9
  8
0
 62
7
 10
161.1255730669649
 20
125.78896688524741
 70
0
  0
SEQEND
  5
50BCA
  8
0
  0
POLYLINE
  5
50BCB
  8
0
 62
7
 66
1
 70
0
 10
0
 20
0
 30
0
  0
VERTEX
  5
50BCC
  8
0
 62
7
 10
168.999683308052
 20
116.1383931571913
 70
0
  0
VERTEX
  5
50BCD
  8
0
 62
7
 10
168.9569641240349
 20
116.1811123412084
 70
0
  0
VERTEX
  5
50BCE
  8
0
 62
7
 10
168.9569641240349
 20
116.5612786280057
 70
0
  0
SEQEND
  5
50BCF
  8
0
  0
POLYLINE
  5
50BD0
  8
0
 62
7
 66
1
 70
0
 10
0
 20
0
 30
0
  0
VERTEX
  5
50BD1
  8
0
 62
7
 10
168.87152575600069
 20
117.4930047019915
 70
0
  0
VERTEX
  5
50BD2
  8
0
 62
7
 10
168.9569641240349
 20
116.5612786280057
 70
0
  0
SEQEND
  5
50BD3
  8
0
  0
POLYLINE
  5
50BD4
  8
0
 62
7
 66
1
 70
0
 10
0
 20
0
 30
0
  0
VERTEX
  5
50BD5
  8
0
 62
7
 10
168.57524754426919
 20
117.4930047019915
 70
0
  0
VERTEX
  5
50BD6
  8
0
 62
7
 10
168.57524754426919
 20
117.1112881222258
 70
0
  0
SEQEND
  5
50BD7
  8
0
  0
POLYLINE
  5
50BD8
  8
0
 62
7
 66
1
 70
0
 10
0
 20
0
 30
0
  0
VERTEX
  5
50BD9
  8
0
 62
7
 10
168.61796672828629
 20
116.9004482785285
 70
0
  0
VERTEX
  5
50BDA
  8
0
 62
7
 10
168.61796672828629
 20
116.51873169876291
 70
0
  0
SEQEND
  5
50BDB
  8
0
  0
POLYLINE
  5
50BDC
  8
0
 62
7
 66
1
 70
0
 10
0
 20
0
 30
0
  0
VERTEX
  5
50BDD
  8
0
 62
7
 10
168.61796672828629
 20
116.51873169876291
 70
0
  0
VERTEX
  5
50BDE
  8
0
 62
7
 10
168.61796672828629
 20
116.43467136892281
 70
0
  0
VERTEX
  5
50BDF
  8
0
 62
7
 10
168.66068591230339
 20
116.30806410983981
 70
0
  0
VERTEX
  5
50BE0
  8
0
 62
7
 10
168.66068591230339
 20
116.1383931571913
 70
0
  0
VERTEX
  5
50BE1
  8
0
 62
7
 10
168.70202705812639
 20
116.0529547891571
 70
0
  0
VERTEX
  5
50BE2
  8
0
 62
7
 10
168.70202705812639
 20
115.9690667140912
 70
0
  0
VERTEX
  5
50BE3
  8
0
 62
7
 10
168.74474624214349
 20
115.9263475300742
 70
0
  0
VERTEX
  5
50BE4
  8
0
 62
7
 10
168.8301846101777
 20
115.8846618747026
 70
0
  0
VERTEX
  5
50BE5
  8
0
 62
7
 10
168.9142449400178
 20
115.8846618747026
 70
0
  0
SEQEND
  5
50BE6
  8
0
  0
POLYLINE
  5
50BE7
  8
0
 62
7
 66
1
 70
0
 10
0
 20
0
 30
0
  0
VERTEX
  5
50BE8
  8
0
 62
7
 10
168.61796672828629
 20
116.51873169876291
 70
0
  0
VERTEX
  5
50BE9
  8
0
 62
7
 10
168.66068591230339
 20
116.51873169876291
 70
0
  0
SEQEND
  5
50BEA
  8
0
  0
POLYLINE
  5
50BEB
  8
0
 62
7
 66
1
 70
0
 10
0
 20
0
 30
0
  0
VERTEX
  5
50BEC
  8
0
 62
7
 10
168.57524754426919
 20
113.8951192319709
 70
0
  0
VERTEX
  5
50BED
  8
0
 62
7
 10
168.57524754426919
 20
113.9376661612137
 70
0
  0
SEQEND
  5
50BEE
  8
0
  0
POLYLINE
  5
50BEF
  8
0
 62
7
 66
1
 70
0
 10
0
 20
0
 30
0
  0
VERTEX
  5
50BF0
  8
0
 62
7
 10
168.57524754426919
 20
113.8951192319709
 70
0
  0
VERTEX
  5
50BF1
  8
0
 62
7
 10
168.57524754426919
 20
113.9376661612137
 70
0
  0
SEQEND
  5
50BF2
  8
0
  0
POLYLINE
  5
50BF3
  8
0
 62
7
 66
1
 70
0
 10
0
 20
0
 30
0
  0
VERTEX
  5
50BF4
  8
0
 62
7
 10
162.90324233735379
 20
114.53005032990239
 70
0
  0
VERTEX
  5
50BF5
  8
0
 62
7
 10
162.81918200751369
 20
114.61428291451681
 70
0
  0
SEQEND
  5
50BF6
  8
0
  0
POLYLINE
  5
50BF7
  8
0
 62
7
 66
1
 70
0
 10
0
 20
0
 30
0
  0
VERTEX
  5
50BF8
  8
0
 62
7
 10
146.22622411235651
 20
115.3336188518369
 70
0
  0
VERTEX
  5
50BF9
  8
0
 62
7
 10
146.26756525817939
 20
115.3336188518369
 70
0
  0
SEQEND
  5
50BFA
  8
0
  0
POLYLINE
  5
50BFB
  8
0
 62
7
 66
1
 70
0
 10
0
 20
0
 30
0
  0
VERTEX
  5
50BFC
  8
0
 62
7
 10
168.57524754426919
 20
115.8421149454598
 70
0
  0
VERTEX
  5
50BFD
  8
0
 62
7
 10
168.53390639844619
 20
115.9690667140912
 70
0
  0
SEQEND
  5
50BFE
  8
0
  0
POLYLINE
  5
50BFF
  8
0
 62
7
 66
1
 70
0
 10
0
 20
0
 30
0
  0
VERTEX
  5
50C00
  8
0
 62
7
 10
146.7333421677852
 20
114.6570020985338
 70
0
  0
VERTEX
  5
50C01
  8
0
 62
7
 10
146.8187805358194
 20
114.5717359852739
 70
0
  0
SEQEND
  5
50C02
  8
0
  0
POLYLINE
  5
50C03
  8
0
 62
7
 66
1
 70
0
 10
0
 20
0
 30
0
  0
VERTEX
  5
50C04
  8
0
 62
7
 10
141.61117420031579
 20
118.0857333802288
 70
0
  0
VERTEX
  5
50C05
  8
0
 62
7
 10
141.52711387047569
 20
117.999950502646
 70
0
  0
SEQEND
  5
50C06
  8
0
  0
POLYLINE
  5
50C07
  8
0
 62
7
 66
1
 70
0
 10
0
 20
0
 30
0
  0
VERTEX
  5
50C08
  8
0
 62
7
 10
162.4801846117652
 20
114.9534525650396
 70
0
  0
VERTEX
  5
50C09
  8
0
 62
7
 10
162.31068591389089
 20
115.0800598241225
 70
0
  0
SEQEND
  5
50C0A
  8
0
  0
POLYLINE
  5
50C0B
  8
0
 62
7
 66
1
 70
0
 10
0
 20
0
 30
0
  0
VERTEX
  5
50C0C
  8
0
 62
7
 10
159.940460220039
 20
109.6190667156788
 70
0
  0
VERTEX
  5
50C0D
  8
0
 62
7
 10
160.82929485523351
 20
109.74705201295581
 70
0
  0
SEQEND
  5
50C0E
  8
0
  0
POLYLINE
  5
50C0F
  8
0
 62
7
 66
1
 70
0
 10
0
 20
0
 30
0
  0
VERTEX
  5
50C10
  8
0
 62
7
 10
140.4687805374069
 20
115.0800598241225
 70
0
  0
VERTEX
  5
50C11
  8
0
 62
7
 10
140.4687805374069
 20
115.2066670832055
 70
0
  0
SEQEND
  5
50C12
  8
0
  0
POLYLINE
  5
50C13
  8
0
 62
7
 66
1
 70
0
 10
0
 20
0
 30
0
  0
VERTEX
  5
50C14
  8
0
 62
7
 10
168.53390639844619
 20
117.19672649026
 70
0
  0
VERTEX
  5
50C15
  8
0
 62
7
 10
168.57524754426919
 20
117.19672649026
 70
0
  0
SEQEND
  5
50C16
  8
0
  0
POLYLINE
  5
50C17
  8
0
 62
7
 66
1
 70
0
 10
0
 20
0
 30
0
  0
VERTEX
  5
50C18
  8
0
 62
7
 10
148.34151274029989
 20
114.9946214560883
 70
0
  0
VERTEX
  5
50C19
  8
0
 62
7
 10
148.30017159447681
 20
114.9946214560883
 70
0
  0
SEQEND
  5
50C1A
  8
0
  0
POLYLINE
  5
50C1B
  8
0
 62
7
 66
1
 70
0
 10
0
 20
0
 30
0
  0
VERTEX
  5
50C1C
  8
0
 62
7
 10
168.57524754426919
 20
117.23944567427711
 70
0
  0
VERTEX
  5
50C1D
  8
0
 62
7
 10
168.53390639844619
 20
117.19672649026
 70
0
  0
SEQEND
  5
50C1E
  8
0
  0
POLYLINE
  5
50C1F
  8
0
 62
7
 66
1
 70
0
 10
0
 20
0
 30
0
  0
VERTEX
  5
50C20
  8
0
 62
7
 10
148.34151274029989
 20
115.0373406401054
 70
0
  0
VERTEX
  5
50C21
  8
0
 62
7
 10
148.34151274029989
 20
114.9946214560883
 70
0
  0
SEQEND
  5
50C22
  8
0
  0
POLYLINE
  5
50C23
  8
0
 62
7
 66
1
 70
0
 10
0
 20
0
 30
0
  0
VERTEX
  5
50C24
  8
0
 62
7
 10
147.96117419872829
 20
114.4020650326254
 70
0
  0
VERTEX
  5
50C25
  8
0
 62
7
 10
148.00389338274539
 20
114.4020650326254
 70
0
  0
SEQEND
  5
50C26
  8
0
  0
POLYLINE
  5
50C27
  8
0
 62
7
 66
1
 70
0
 10
0
 20
0
 30
0
  0
VERTEX
  5
50C28
  8
0
 62
7
 10
168.57524754426919
 20
117.23944567427711
 70
0
  0
VERTEX
  5
50C29
  8
0
 62
7
 10
168.53390639844619
 20
117.19672649026
 70
0
  0
SEQEND
  5
50C2A
  8
0
  0
POLYLINE
  5
50C2B
  8
0
 62
7
 66
1
 70
0
 10
0
 20
0
 30
0
  0
VERTEX
  5
50C2C
  8
0
 62
7
 10
148.34151274029989
 20
115.0373406401054
 70
0
  0
VERTEX
  5
50C2D
  8
0
 62
7
 10
148.34151274029989
 20
114.9946214560883
 70
0
  0
SEQEND
  5
50C2E
  8
0
  0
POLYLINE
  5
50C2F
  8
0
 62
7
 66
1
 70
0
 10
0
 20
0
 30
0
  0
VERTEX
  5
50C30
  8
0
 62
7
 10
148.46967029235111
 20
114.74106242837389
 70
0
  0
VERTEX
  5
50C31
  8
0
 62
7
 10
148.51101143817419
 20
114.74106242837389
 70
0
  0
SEQEND
  5
50C32
  8
0
  0
POLYLINE
  5
50C33
  8
0
 62
7
 66
1
 70
0
 10
0
 20
0
 30
0
  0
VERTEX
  5
50C34
  8
0
 62
7
 10
168.57524754426919
 20
117.23944567427711
 70
0
  0
VERTEX
  5
50C35
  8
0
 62
7
 10
168.61796672828629
 20
117.23944567427711
 70
0
  0
SEQEND
  5
50C36
  8
0
  0
POLYLINE
  5
50C37
  8
0
 62
7
 66
1
 70
0
 10
0
 20
0
 30
0
  0
VERTEX
  5
50C38
  8
0
 62
7
 10
148.00389338274539
 20
114.4020650326254
 70
0
  0
VERTEX
  5
50C39
  8
0
 62
7
 10
148.04523452856839
 20
114.44461196186821
 70
0
  0
SEQEND
  5
50C3A
  8
0
  0
POLYLINE
  5
50C3B
  8
0
 62
7
 66
1
 70
0
 10
0
 20
0
 30
0
  0
VERTEX
  5
50C3C
  8
0
 62
7
 10
140.6382792352812
 20
116.9846808631429
 70
0
  0
VERTEX
  5
50C3D
  8
0
 62
7
 10
140.5955600512641
 20
116.8577290945115
 70
0
  0
SEQEND
  5
50C3E
  8
0
  0
POLYLINE
  5
50C3F
  8
0
 62
7
 66
1
 70
0
 10
0
 20
0
 30
0
  0
VERTEX
  5
50C40
  8
0
 62
7
 10
148.426951108334
 20
115.0373406401054
 70
0
  0
VERTEX
  5
50C41
  8
0
 62
7
 10
148.46967029235111
 20
115.0373406401054
 70
0
  0
SEQEND
  5
50C42
  8
0
  0
POLYLINE
  5
50C43
  8
0
 62
7
 66
1
 70
0
 10
0
 20
0
 30
0
  0
VERTEX
  5
50C44
  8
0
 62
7
 10
147.87711386888819
 20
115.2066670832055
 70
0
  0
VERTEX
  5
50C45
  8
0
 62
7
 10
148.04523452856839
 20
115.2497307767711
 70
0
  0
SEQEND
  5
50C46
  8
0
  0
POLYLINE
  5
50C47
  8
0
 62
7
 66
1
 70
0
 10
0
 20
0
 30
0
  0
VERTEX
  5
50C48
  8
0
 62
7
 10
147.1150587475509
 20
113.9790073070367
 70
0
  0
VERTEX
  5
50C49
  8
0
 62
7
 10
147.0723395635338
 20
114.1056145661196
 70
0
  0
SEQEND
  5
50C4A
  8
0
  0
POLYLINE
  5
50C4B
  8
0
 62
7
 66
1
 70
0
 10
0
 20
0
 30
0
  0
VERTEX
  5
50C4C
  8
0
 62
7
 10
141.44167550244151
 20
122.022616245998
 70
0
  0
VERTEX
  5
50C4D
  8
0
 62
7
 10
141.48439468645859
 20
122.022616245998
 70
0
  0
SEQEND
  5
50C4E
  8
0
  0
POLYLINE
  5
50C4F
  8
0
 62
7
 66
1
 70
0
 10
0
 20
0
 30
0
  0
VERTEX
  5
50C50
  8
0
 62
7
 10
140.8491190789785
 20
123.3774000455725
 70
0
  0
VERTEX
  5
50C51
  8
0
 62
7
 10
141.01861777685281
 20
123.4612881206383
 70
0
  0
VERTEX
  5
50C52
  8
0
 62
7
 10
141.06133696086991
 20
123.5040073046554
 70
0
  0
VERTEX
  5
50C53
  8
0
 62
7
 10
141.01861777685281
 20
123.5040073046554
 70
0
  0
SEQEND
  5
50C54
  8
0
  0
POLYLINE
  5
50C55
  8
0
 62
7
 66
1
 70
0
 10
0
 20
0
 30
0
  0
VERTEX
  5
50C56
  8
0
 62
7
 10
148.04523452856839
 20
115.2497307767711
 70
0
  0
VERTEX
  5
50C57
  8
0
 62
7
 10
148.17339208061961
 20
115.2497307767711
 70
0
  0
SEQEND
  5
50C58
  8
0
  0
POLYLINE
  5
50C59
  8
0
 62
7
 66
1
 70
0
 10
0
 20
0
 30
0
  0
VERTEX
  5
50C5A
  8
0
 62
7
 10
148.55373062219121
 20
114.783781612391
 70
0
  0
VERTEX
  5
50C5B
  8
0
 62
7
 10
148.51101143817419
 20
114.74106242837389
 70
0
  0
SEQEND
  5
50C5C
  8
0
  0
POLYLINE
  5
50C5D
  8
0
 62
7
 66
1
 70
0
 10
0
 20
0
 30
0
  0
VERTEX
  5
50C5E
  8
0
 62
7
 10
140.7223395651213
 20
123.4185689366212
 70
0
  0
VERTEX
  5
50C5F
  8
0
 62
7
 10
140.7650587491384
 20
123.4185689366212
 70
0
  0
VERTEX
  5
50C60
  8
0
 62
7
 10
140.80777793315551
 20
123.3774000455725
 70
0
  0
VERTEX
  5
50C61
  8
0
 62
7
 10
140.8491190789785
 20
123.3774000455725
 70
0
  0
SEQEND
  5
50C62
  8
0
  0
POLYLINE
  5
50C63
  8
0
 62
7
 66
1
 70
0
 10
0
 20
0
 30
0
  0
VERTEX
  5
50C64
  8
0
 62
7
 10
148.25745241045971
 20
114.2752855187682
 70
0
  0
VERTEX
  5
50C65
  8
0
 62
7
 10
148.04523452856839
 20
114.2752855187682
 70
0
  0
SEQEND
  5
50C66
  8
0
  0
POLYLINE
  5
50C67
  8
0
 62
7
 66
1
 70
0
 10
0
 20
0
 30
0
  0
VERTEX
  5
50C68
  8
0
 62
7
 10
147.87711386888819
 20
114.69834324435681
 70
0
  0
VERTEX
  5
50C69
  8
0
 62
7
 10
147.91845501471121
 20
114.69834324435681
 70
0
  0
SEQEND
  5
50C6A
  8
0
  0
POLYLINE
  5
50C6B
  8
0
 62
7
 66
1
 70
0
 10
0
 20
0
 30
0
  0
VERTEX
  5
50C6C
  8
0
 62
7
 10
141.27355484276131
 20
121.8942864391725
 70
0
  0
VERTEX
  5
50C6D
  8
0
 62
7
 10
141.44167550244151
 20
121.9373501327381
 70
0
  0
VERTEX
  5
50C6E
  8
0
 62
7
 10
141.44167550244151
 20
122.022616245998
 70
0
  0
SEQEND
  5
50C6F
  8
0
  0
POLYLINE
  5
50C70
  8
0
 62
7
 66
1
 70
0
 10
0
 20
0
 30
0
  0
VERTEX
  5
50C71
  8
0
 62
7
 10
148.34151274029989
 20
115.0373406401054
 70
0
  0
VERTEX
  5
50C72
  8
0
 62
7
 10
148.426951108334
 20
115.0373406401054
 70
0
  0
SEQEND
  5
50C73
  8
0
  0
POLYLINE
  5
50C74
  8
0
 62
7
 66
1
 70
0
 10
0
 20
0
 30
0
  0
VERTEX
  5
50C75
  8
0
 62
7
 10
147.91845501471121
 20
114.69834324435681
 70
0
  0
VERTEX
  5
50C76
  8
0
 62
7
 10
148.04523452856839
 20
114.61428291451681
 70
0
  0
VERTEX
  5
50C77
  8
0
 62
7
 10
148.04523452856839
 20
114.44461196186821
 70
0
  0
SEQEND
  5
50C78
  8
0
  0
POLYLINE
  5
50C79
  8
0
 62
7
 66
1
 70
0
 10
0
 20
0
 30
0
  0
VERTEX
  5
50C7A
  8
0
 62
7
 10
148.17339208061961
 20
115.2497307767711
 70
0
  0
VERTEX
  5
50C7B
  8
0
 62
7
 10
147.96117419872829
 20
115.2066670832055
 70
0
  0
SEQEND
  5
50C7C
  8
0
  0
POLYLINE
  5
50C7D
  8
0
 62
7
 66
1
 70
0
 10
0
 20
0
 30
0
  0
VERTEX
  5
50C7E
  8
0
 62
7
 10
140.89183826299561
 20
122.95261977224121
 70
0
  0
VERTEX
  5
50C7F
  8
0
 62
7
 10
140.8491190789785
 20
123.0809495790668
 70
0
  0
SEQEND
  5
50C80
  8
0
  0
POLYLINE
  5
50C81
  8
0
 62
7
 66
1
 70
0
 10
0
 20
0
 30
0
  0
VERTEX
  5
50C82
  8
0
 62
7
 10
140.8491190789785
 20
122.6994052540753
 70
0
  0
VERTEX
  5
50C83
  8
0
 62
7
 10
140.80777793315551
 20
122.74195218331821
 70
0
  0
VERTEX
  5
50C84
  8
0
 62
7
 10
140.68099841929831
 20
122.8260125131583
 70
0
  0
SEQEND
  5
50C85
  8
0
  0
POLYLINE
  5
50C86
  8
0
 62
7
 66
1
 70
0
 10
0
 20
0
 30
0
  0
VERTEX
  5
50C87
  8
0
 62
7
 10
148.426951108334
 20
115.0373406401054
 70
0
  0
VERTEX
  5
50C88
  8
0
 62
7
 10
148.55373062219121
 20
114.9107333810225
 70
0
  0
VERTEX
  5
50C89
  8
0
 62
7
 10
148.51101143817419
 20
114.74106242837389
 70
0
  0
SEQEND
  5
50C8A
  8
0
  0
POLYLINE
  5
50C8B
  8
0
 62
7
 66
1
 70
0
 10
0
 20
0
 30
0
  0
VERTEX
  5
50C8C
  8
0
 62
7
 10
147.91845501471121
 20
114.69834324435681
 70
0
  0
VERTEX
  5
50C8D
  8
0
 62
7
 10
148.04523452856839
 20
114.61428291451681
 70
0
  0
VERTEX
  5
50C8E
  8
0
 62
7
 10
148.00389338274539
 20
114.44461196186821
 70
0
  0
SEQEND
  5
50C8F
  8
0
  0
POLYLINE
  5
50C90
  8
0
 62
7
 66
1
 70
0
 10
0
 20
0
 30
0
  0
VERTEX
  5
50C91
  8
0
 62
7
 10
141.18811647472711
 20
121.9373501327381
 70
0
  0
VERTEX
  5
50C92
  8
0
 62
7
 10
141.18811647472711
 20
121.8942864391725
 70
0
  0
VERTEX
  5
50C93
  8
0
 62
7
 10
141.27355484276131
 20
121.8942864391725
 70
0
  0
SEQEND
  5
50C94
  8
0
  0
POLYLINE
  5
50C95
  8
0
 62
7
 66
1
 70
0
 10
0
 20
0
 30
0
  0
VERTEX
  5
50C96
  8
0
 62
7
 10
141.18811647472711
 20
121.9373501327381
 70
0
  0
VERTEX
  5
50C97
  8
0
 62
7
 10
141.31489598858431
 20
121.85294529334951
 70
0
  0
SEQEND
  5
50C98
  8
0
  0
POLYLINE
  5
50C99
  8
0
 62
7
 66
1
 70
0
 10
0
 20
0
 30
0
  0
VERTEX
  5
50C9A
  8
0
 62
7
 10
148.426951108334
 20
115.0373406401054
 70
0
  0
VERTEX
  5
50C9B
  8
0
 62
7
 10
148.55373062219121
 20
114.9534525650396
 70
0
  0
VERTEX
  5
50C9C
  8
0
 62
7
 10
148.55373062219121
 20
114.783781612391
 70
0
  0
SEQEND
  5
50C9D
  8
0
  0
POLYLINE
  5
50C9E
  8
0
 62
7
 66
1
 70
0
 10
0
 20
0
 30
0
  0
VERTEX
  5
50C9F
  8
0
 62
7
 10
147.96117419872829
 20
115.2066670832055
 70
0
  0
VERTEX
  5
50CA0
  8
0
 62
7
 10
147.87711386888819
 20
115.2066670832055
 70
0
  0
SEQEND
  5
50CA1
  8
0
  0
POLYLINE
  5
50CA2
  8
0
 62
7
 66
1
 70
0
 10
0
 20
0
 30
0
  0
VERTEX
  5
50CA3
  8
0
 62
7
 10
148.34151274029989
 20
115.0373406401054
 70
0
  0
VERTEX
  5
50CA4
  8
0
 62
7
 10
148.426951108334
 20
115.0373406401054
 70
0
  0
SEQEND
  5
50CA5
  8
0
  0
POLYLINE
  5
50CA6
  8
0
 62
7
 66
1
 70
0
 10
0
 20
0
 30
0
  0
VERTEX
  5
50CA7
  8
0
 62
7
 10
148.04523452856839
 20
114.2752855187682
 70
0
  0
VERTEX
  5
50CA8
  8
0
 62
7
 10
147.96117419872829
 20
114.2752855187682
 70
0
  0
SEQEND
  5
50CA9
  8
0
  0
POLYLINE
  5
50CAA
  8
0
 62
7
 66
1
 70
0
 10
0
 20
0
 30
0
  0
VERTEX
  5
50CAB
  8
0
 62
7
 10
141.31489598858431
 20
121.85294529334951
 70
0
  0
VERTEX
  5
50CAC
  8
0
 62
7
 10
141.40033435661849
 20
121.8942864391725
 70
0
  0
VERTEX
  5
50CAD
  8
0
 62
7
 10
141.44167550244151
 20
122.022616245998
 70
0
  0
SEQEND
  5
50CAE
  8
0
  0
POLYLINE
  5
50CAF
  8
0
 62
7
 66
1
 70
0
 10
0
 20
0
 30
0
  0
VERTEX
  5
50CB0
  8
0
 62
7
 10
161.67541030641081
 20
125.57795478677581
 70
0
  0
VERTEX
  5
50CB1
  8
0
 62
7
 10
161.59134997657071
 20
125.704734300633
 70
0
  0
VERTEX
  5
50CB2
  8
0
 62
7
 10
161.46457046271351
 20
125.704734300633
 70
0
  0
SEQEND
  5
50CB3
  8
0
  0
POLYLINE
  5
50CB4
  8
0
 62
7
 66
1
 70
0
 10
0
 20
0
 30
0
  0
VERTEX
  5
50CB5
  8
0
 62
7
 10
168.57524754426919
 20
117.4930047019915
 70
0
  0
VERTEX
  5
50CB6
  8
0
 62
7
 10
168.74474624214349
 20
117.4930047019915
 70
0
  0
SEQEND
  5
50CB7
  8
0
  0
POLYLINE
  5
50CB8
  8
0
 62
7
 66
1
 70
0
 10
0
 20
0
 30
0
  0
VERTEX
  5
50CB9
  8
0
 62
7
 10
161.0828538829478
 20
125.57795478677581
 70
0
  0
VERTEX
  5
50CBA
  8
0
 62
7
 10
161.25235258082211
 20
125.66201511661591
 70
0
  0
VERTEX
  5
50CBB
  8
0
 62
7
 10
161.25235258082211
 20
125.704734300633
 70
0
  0
SEQEND
  5
50CBC
  8
0
  0
POLYLINE
  5
50CBD
  8
0
 62
7
 66
1
 70
0
 10
0
 20
0
 30
0
  0
VERTEX
  5
50CBE
  8
0
 62
7
 10
161.46457046271351
 20
125.704734300633
 70
0
  0
VERTEX
  5
50CBF
  8
0
 62
7
 10
161.37913209467931
 20
125.66201511661591
 70
0
  0
SEQEND
  5
50CC0
  8
0
  0
POLYLINE
  5
50CC1
  8
0
 62
7
 66
1
 70
0
 10
0
 20
0
 30
0
  0
VERTEX
  5
50CC2
  8
0
 62
7
 10
168.74474624214349
 20
117.4930047019915
 70
0
  0
VERTEX
  5
50CC3
  8
0
 62
7
 10
168.87152575600069
 20
117.4930047019915
 70
0
  0
SEQEND
  5
50CC4
  8
0
  0
POLYLINE
  5
50CC5
  8
0
 62
7
 66
1
 70
0
 10
0
 20
0
 30
0
  0
VERTEX
  5
50CC6
  8
0
 62
7
 10
161.67541030641081
 20
124.2233432419756
 70
0
  0
VERTEX
  5
50CC7
  8
0
 62
7
 10
161.59134997657071
 20
124.2660624259927
 70
0
  0
SEQEND
  5
50CC8
  8
0
  0
POLYLINE
  5
50CC9
  8
0
 62
7
 66
1
 70
0
 10
0
 20
0
 30
0
  0
VERTEX
  5
50CCA
  8
0
 62
7
 10
168.57524754426919
 20
117.0701192311771
 70
0
  0
VERTEX
  5
50CCB
  8
0
 62
7
 10
168.61796672828629
 20
116.9004482785285
 70
0
  0
SEQEND
  5
50CCC
  8
0
  0
POLYLINE
  5
50CCD
  8
0
 62
7
 66
1
 70
0
 10
0
 20
0
 30
0
  0
VERTEX
  5
50CCE
  8
0
 62
7
 10
168.87152575600069
 20
117.4930047019915
 70
0
  0
VERTEX
  5
50CCF
  8
0
 62
7
 10
168.66068591230339
 20
117.4930047019915
 70
0
  0
SEQEND
  5
50CD0
  8
0
  0
POLYLINE
  5
50CD1
  8
0
 62
7
 66
1
 70
0
 10
0
 20
0
 30
0
  0
VERTEX
  5
50CD2
  8
0
 62
7
 10
168.19490900269761
 20
116.9004482785285
 70
0
  0
VERTEX
  5
50CD3
  8
0
 62
7
 10
168.27896933253771
 20
116.7309495806543
 70
0
  0
SEQEND
  5
50CD4
  8
0
  0
POLYLINE
  5
50CD5
  8
0
 62
7
 66
1
 70
0
 10
0
 20
0
 30
0
  0
VERTEX
  5
50CD6
  8
0
 62
7
 10
161.50728964673061
 20
124.89995999527871
 70
0
  0
VERTEX
  5
50CD7
  8
0
 62
7
 10
161.46457046271351
 20
124.9853983633129
 70
0
  0
VERTEX
  5
50CD8
  8
0
 62
7
 10
161.33779094885631
 20
125.0279452925557
 70
0
  0
SEQEND
  5
50CD9
  8
0
  0
POLYLINE
  5
50CDA
  8
0
 62
7
 66
1
 70
0
 10
0
 20
0
 30
0
  0
VERTEX
  5
50CDB
  8
0
 62
7
 10
161.50728964673061
 20
124.05401679887559
 70
0
  0
VERTEX
  5
50CDC
  8
0
 62
7
 10
161.63406916058781
 20
124.0967359828927
 70
0
  0
VERTEX
  5
50CDD
  8
0
 62
7
 10
161.67541030641081
 20
124.2233432419756
 70
0
  0
SEQEND
  5
50CDE
  8
0
  0
POLYLINE
  5
50CDF
  8
0
 62
7
 66
1
 70
0
 10
0
 20
0
 30
0
  0
VERTEX
  5
50CE0
  8
0
 62
7
 10
168.57524754426919
 20
117.1112881222258
 70
0
  0
VERTEX
  5
50CE1
  8
0
 62
7
 10
168.57524754426919
 20
117.0701192311771
 70
0
  0
SEQEND
  5
50CE2
  8
0
  0
POLYLINE
  5
50CE3
  8
0
 62
7
 66
1
 70
0
 10
0
 20
0
 30
0
  0
VERTEX
  5
50CE4
  8
0
 62
7
 10
161.50728964673061
 20
124.0967359828927
 70
0
  0
VERTEX
  5
50CE5
  8
0
 62
7
 10
161.59134997657071
 20
124.1379048739414
 70
0
  0
VERTEX
  5
50CE6
  8
0
 62
7
 10
161.67541030641081
 20
124.2233432419756
 70
0
  0
SEQEND
  5
50CE7
  8
0
  0
POLYLINE
  5
50CE8
  8
0
 62
7
 66
1
 70
0
 10
0
 20
0
 30
0
  0
VERTEX
  5
50CE9
  8
0
 62
7
 10
168.74474624214349
 20
116.51873169876291
 70
0
  0
VERTEX
  5
50CEA
  8
0
 62
7
 10
168.61796672828629
 20
116.51873169876291
 70
0
  0
SEQEND
  5
50CEB
  8
0
  0
POLYLINE
  5
50CEC
  8
0
 62
7
 66
1
 70
0
 10
0
 20
0
 30
0
  0
VERTEX
  5
50CED
  8
0
 62
7
 10
161.33779094885631
 20
125.0279452925557
 70
0
  0
VERTEX
  5
50CEE
  8
0
 62
7
 10
161.29507176483921
 20
125.0279452925557
 70
0
  0
VERTEX
  5
50CEF
  8
0
 62
7
 10
161.21101143499911
 20
124.9853983633129
 70
0
  0
SEQEND
  5
50CF0
  8
0
  0
POLYLINE
  5
50CF1
  8
0
 62
7
 66
1
 70
0
 10
0
 20
0
 30
0
  0
VERTEX
  5
50CF2
  8
0
 62
7
 10
168.9569641240349
 20
116.5612786280057
 70
0
  0
VERTEX
  5
50CF3
  8
0
 62
7
 10
168.74474624214349
 20
116.51873169876291
 70
0
  0
SEQEND
  5
50CF4
  8
0
  0
POLYLINE
  5
50CF5
  8
0
 62
7
 66
1
 70
0
 10
0
 20
0
 30
0
  0
VERTEX
  5
50CF6
  8
0
 62
7
 10
161.33779094885631
 20
125.4082838341273
 70
0
  0
VERTEX
  5
50CF7
  8
0
 62
7
 10
161.29507176483921
 20
125.2389573910273
 70
0
  0
SEQEND
  5
50CF8
  8
0
  0
POLYLINE
  5
50CF9
  8
0
 62
7
 66
1
 70
0
 10
0
 20
0
 30
0
  0
VERTEX
  5
50CFA
  8
0
 62
7
 10
168.66068591230339
 20
117.4930047019915
 70
0
  0
VERTEX
  5
50CFB
  8
0
 62
7
 10
168.57524754426919
 20
117.4930047019915
 70
0
  0
SEQEND
  5
50CFC
  8
0
  0
POLYLINE
  5
50CFD
  8
0
 62
7
 66
1
 70
0
 10
0
 20
0
 30
0
  0
VERTEX
  5
50CFE
  8
0
 62
7
 10
161.37913209467931
 20
124.1379048739414
 70
0
  0
VERTEX
  5
50CFF
  8
0
 62
7
 10
161.42185127869641
 20
124.0967359828927
 70
0
  0
VERTEX
  5
50D00
  8
0
 62
7
 10
161.50728964673061
 20
124.0967359828927
 70
0
  0
SEQEND
  5
50D01
  8
0
  0
POLYLINE
  5
50D02
  8
0
 62
7
 66
1
 70
0
 10
0
 20
0
 30
0
  0
VERTEX
  5
50D03
  8
0
 62
7
 10
161.37913209467931
 20
124.1379048739414
 70
0
  0
VERTEX
  5
50D04
  8
0
 62
7
 10
161.50728964673061
 20
124.05401679887559
 70
0
  0
SEQEND
  5
50D05
  8
0
  0
POLYLINE
  5
50D06
  8
0
 62
7
 66
1
 70
0
 10
0
 20
0
 30
0
  0
VERTEX
  5
50D07
  8
0
 62
7
 10
146.8187805358194
 20
114.74106242837389
 70
0
  0
VERTEX
  5
50D08
  8
0
 62
7
 10
147.66489598699681
 20
114.1483337501367
 70
0
  0
VERTEX
  5
50D09
  8
0
 62
7
 10
148.6377909520314
 20
113.72544827932229
 70
0
  0
VERTEX
  5
50D0A
  8
0
 62
7
 10
150.6276781043116
 20
113.1330641106336
 70
0
  0
VERTEX
  5
50D0B
  8
0
 62
7
 10
152.701625586432
 20
112.794066714885
 70
0
  0
VERTEX
  5
50D0C
  8
0
 62
7
 10
154.7755730685524
 20
112.66711494625361
 70
0
  0
VERTEX
  5
50D0D
  8
0
 62
7
 10
156.8508985888669
 20
112.66711494625361
 70
0
  0
VERTEX
  5
50D0E
  8
0
 62
7
 10
158.9248460709874
 20
112.92067397396789
 70
0
  0
VERTEX
  5
50D0F
  8
0
 62
7
 10
159.940460220039
 20
113.1330641106336
 70
0
  0
VERTEX
  5
50D10
  8
0
 62
7
 10
160.95607436909069
 20
113.42899781281651
 70
0
  0
VERTEX
  5
50D11
  8
0
 62
7
 10
161.88762818830219
 20
113.85240004795379
 70
0
  0
VERTEX
  5
50D12
  8
0
 62
7
 10
162.31068591389089
 20
114.1483337501367
 70
0
  0
VERTEX
  5
50D13
  8
0
 62
7
 10
162.6924024936566
 20
114.53005032990239
 70
0
  0
SEQEND
  5
50D14
  8
0
  0
POLYLINE
  5
50D15
  8
0
 62
7
 66
1
 70
0
 10
0
 20
0
 30
0
  0
VERTEX
  5
50D16
  8
0
 62
7
 10
168.53390639844619
 20
115.9690667140912
 70
0
  0
VERTEX
  5
50D17
  8
0
 62
7
 10
168.36440770057189
 20
116.6039978120228
 70
0
  0
VERTEX
  5
50D18
  8
0
 62
7
 10
168.02541030482331
 20
117.1540073062429
 70
0
  0
VERTEX
  5
50D19
  8
0
 62
7
 10
167.60235257923461
 20
117.6623311450915
 70
0
  0
VERTEX
  5
50D1A
  8
0
 62
7
 10
167.09385648561181
 20
118.0857333802288
 70
0
  0
VERTEX
  5
50D1B
  8
0
 62
7
 10
165.99418200672
 20
118.7206644781603
 70
0
  0
VERTEX
  5
50D1C
  8
0
 62
7
 10
164.766349975777
 20
119.18678589731461
 70
0
  0
VERTEX
  5
50D1D
  8
0
 62
7
 10
163.4957987608168
 20
119.5244052548691
 70
0
  0
VERTEX
  5
50D1E
  8
0
 62
7
 10
162.22662558405079
 20
119.778997811229
 70
0
  0
VERTEX
  5
50D1F
  8
0
 62
7
 10
159.6441820083075
 20
120.07544827773479
 70
0
  0
SEQEND
  5
50D20
  8
0
  0
POLYLINE
  5
50D21
  8
0
 62
7
 66
1
 70
0
 10
0
 20
0
 30
0
  0
VERTEX
  5
50D22
  8
0
 62
7
 10
140.6382792352812
 20
116.9846808631429
 70
0
  0
VERTEX
  5
50D23
  8
0
 62
7
 10
140.7650587491384
 20
117.323333749343
 70
0
  0
VERTEX
  5
50D24
  8
0
 62
7
 10
140.97727663102981
 20
117.6196119610744
 70
0
  0
VERTEX
  5
50D25
  8
0
 62
7
 10
141.52711387047569
 20
117.999950502646
 70
0
  0
SEQEND
  5
50D26
  8
0
  0
POLYLINE
  5
50D27
  8
0
 62
7
 66
1
 70
0
 10
0
 20
0
 30
0
  0
VERTEX
  5
50D28
  8
0
 62
7
 10
146.35300362621371
 20
115.2066670832055
 70
0
  0
VERTEX
  5
50D29
  8
0
 62
7
 10
146.8187805358194
 20
114.74106242837389
 70
0
  0
SEQEND
  5
50D2A
  8
0
  0
POLYLINE
  5
50D2B
  8
0
 62
7
 66
1
 70
0
 10
0
 20
0
 30
0
  0
VERTEX
  5
50D2C
  8
0
 62
7
 10
140.7223395651213
 20
116.0117858981083
 70
0
  0
VERTEX
  5
50D2D
  8
0
 62
7
 10
140.5955600512641
 20
116.43467136892281
 70
0
  0
VERTEX
  5
50D2E
  8
0
 62
7
 10
140.5955600512641
 20
116.8577290945115
 70
0
  0
SEQEND
  5
50D2F
  8
0
  0
POLYLINE
  5
50D30
  8
0
 62
7
 66
1
 70
0
 10
0
 20
0
 30
0
  0
VERTEX
  5
50D31
  8
0
 62
7
 10
141.61117420031579
 20
118.0857333802288
 70
0
  0
VERTEX
  5
50D32
  8
0
 62
7
 10
141.86611126622421
 20
118.0857333802288
 70
0
  0
SEQEND
  5
50D33
  8
0
  0
POLYLINE
  5
50D34
  8
0
 62
7
 66
1
 70
0
 10
0
 20
0
 30
0
  0
VERTEX
  5
50D35
  8
0
 62
7
 10
159.6441820083075
 20
120.07544827773479
 70
0
  0
VERTEX
  5
50D36
  8
0
 62
7
 10
159.30518461255889
 20
120.03272909371771
 70
0
  0
SEQEND
  5
50D37
  8
0
  0
POLYLINE
  5
50D38
  8
0
 62
7
 66
1
 70
0
 10
0
 20
0
 30
0
  0
VERTEX
  5
50D39
  8
0
 62
7
 10
168.448468030412
 20
114.69834324435681
 70
0
  0
VERTEX
  5
50D3A
  8
0
 62
7
 10
168.57524754426919
 20
115.2497307767711
 70
0
  0
VERTEX
  5
50D3B
  8
0
 62
7
 10
168.57524754426919
 20
115.8421149454598
 70
0
  0
SEQEND
  5
50D3C
  8
0
  0
POLYLINE
  5
50D3D
  8
0
 62
7
 66
1
 70
0
 10
0
 20
0
 30
0
  0
VERTEX
  5
50D3E
  8
0
 62
7
 10
146.3102844421966
 20
115.1639478991884
 70
0
  0
VERTEX
  5
50D3F
  8
0
 62
7
 10
146.7333421677852
 20
114.6570020985338
 70
0
  0
SEQEND
  5
50D40
  8
0
  0
POLYLINE
  5
50D41
  8
0
 62
7
 66
1
 70
0
 10
0
 20
0
 30
0
  0
VERTEX
  5
50D42
  8
0
 62
7
 10
141.61117420031579
 20
117.9160624275802
 70
0
  0
VERTEX
  5
50D43
  8
0
 62
7
 10
141.82339208220711
 20
117.9587816115973
 70
0
  0
SEQEND
  5
50D44
  8
0
  0
POLYLINE
  5
50D45
  8
0
 62
7
 66
1
 70
0
 10
0
 20
0
 30
0
  0
VERTEX
  5
50D46
  8
0
 62
7
 10
146.8187805358194
 20
114.5717359852739
 70
0
  0
VERTEX
  5
50D47
  8
0
 62
7
 10
147.66489598699681
 20
114.0217264910538
 70
0
  0
VERTEX
  5
50D48
  8
0
 62
7
 10
148.6377909520314
 20
113.59866876546511
 70
0
  0
VERTEX
  5
50D49
  8
0
 62
7
 10
150.6276781043116
 20
113.0061123420021
 70
0
  0
VERTEX
  5
50D4A
  8
0
 62
7
 10
152.701625586432
 20
112.66711494625361
 70
0
  0
VERTEX
  5
50D4B
  8
0
 62
7
 10
154.81829225256951
 20
112.4976162483793
 70
0
  0
VERTEX
  5
50D4C
  8
0
 62
7
 10
156.8922397346899
 20
112.5403354323964
 70
0
  0
VERTEX
  5
50D4D
  8
0
 62
7
 10
158.96618721681031
 20
112.794066714885
 70
0
  0
VERTEX
  5
50D4E
  8
0
 62
7
 10
160.0245205498791
 20
113.0061123420021
 70
0
  0
VERTEX
  5
50D4F
  8
0
 62
7
 10
160.9987935531077
 20
113.3023905537336
 70
0
  0
VERTEX
  5
50D50
  8
0
 62
7
 10
161.97168851814229
 20
113.7679952085651
 70
0
  0
VERTEX
  5
50D51
  8
0
 62
7
 10
162.3961242819251
 20
114.0644456750709
 70
0
  0
VERTEX
  5
50D52
  8
0
 62
7
 10
162.7337436394796
 20
114.44461196186821
 70
0
  0
SEQEND
  5
50D53
  8
0
  0
POLYLINE
  5
50D54
  8
0
 62
7
 66
1
 70
0
 10
0
 20
0
 30
0
  0
VERTEX
  5
50D55
  8
0
 62
7
 10
168.53390639844619
 20
115.9690667140912
 70
0
  0
VERTEX
  5
50D56
  8
0
 62
7
 10
168.32168851655479
 20
116.5612786280057
 70
0
  0
VERTEX
  5
50D57
  8
0
 62
7
 10
167.98269112080621
 20
117.1112881222258
 70
0
  0
VERTEX
  5
50D58
  8
0
 62
7
 10
167.5596333952175
 20
117.57706503183159
 70
0
  0
VERTEX
  5
50D59
  8
0
 62
7
 10
167.0525153397887
 20
117.999950502646
 70
0
  0
VERTEX
  5
50D5A
  8
0
 62
7
 10
165.90874363868579
 20
118.6353983649004
 70
0
  0
VERTEX
  5
50D5B
  8
0
 62
7
 10
164.72363079175989
 20
119.0582838357148
 70
0
  0
VERTEX
  5
50D5C
  8
0
 62
7
 10
163.4544576149938
 20
119.3972812314634
 70
0
  0
VERTEX
  5
50D5D
  8
0
 62
7
 10
162.22662558405079
 20
119.651012513952
 70
0
  0
VERTEX
  5
50D5E
  8
0
 62
7
 10
159.6441820083075
 20
119.9059495798605
 70
0
  0
SEQEND
  5
50D5F
  8
0
  0
POLYLINE
  5
50D60
  8
0
 62
7
 66
1
 70
0
 10
0
 20
0
 30
0
  0
VERTEX
  5
50D61
  8
0
 62
7
 10
140.6382792352812
 20
116.9846808631429
 70
0
  0
VERTEX
  5
50D62
  8
0
 62
7
 10
141.01861777685281
 20
117.5357238860086
 70
0
  0
VERTEX
  5
50D63
  8
0
 62
7
 10
141.61117420031579
 20
117.9160624275802
 70
0
  0
SEQEND
  5
50D64
  8
0
  0
POLYLINE
  5
50D65
  8
0
 62
7
 66
1
 70
0
 10
0
 20
0
 30
0
  0
VERTEX
  5
50D66
  8
0
 62
7
 10
159.6441820083075
 20
119.9059495798605
 70
0
  0
VERTEX
  5
50D67
  8
0
 62
7
 10
159.30518461255889
 20
119.8634026506177
 70
0
  0
SEQEND
  5
50D68
  8
0
  0
POLYLINE
  5
50D69
  8
0
 62
7
 66
1
 70
0
 10
0
 20
0
 30
0
  0
VERTEX
  5
50D6A
  8
0
 62
7
 10
149.019507531797
 20
119.22795478836331
 70
0
  0
VERTEX
  5
50D6B
  8
0
 62
7
 10
151.68601143738039
 20
119.4400004154805
 70
0
  0
VERTEX
  5
50D6C
  8
0
 62
7
 10
154.35251534296381
 20
119.4400004154805
 70
0
  0
VERTEX
  5
50D6D
  8
0
 62
7
 10
157.0617384325642
 20
119.22795478836331
 70
0
  0
VERTEX
  5
50D6E
  8
0
 62
7
 10
159.7282423381476
 20
118.8889573926148
 70
0
  0
VERTEX
  5
50D6F
  8
0
 62
7
 10
162.31068591389089
 20
118.2964009691518
 70
0
  0
VERTEX
  5
50D70
  8
0
 62
7
 10
163.622578274674
 20
117.9160624275802
 70
0
  0
VERTEX
  5
50D71
  8
0
 62
7
 10
164.89312948963419
 20
117.45028551797439
 70
0
  0
VERTEX
  5
50D72
  8
0
 62
7
 10
166.0782423365601
 20
116.8577290945115
 70
0
  0
VERTEX
  5
50D73
  8
0
 62
7
 10
167.220635999469
 20
116.1383931571913
 70
0
  0
VERTEX
  5
50D74
  8
0
 62
7
 10
167.72913209309181
 20
115.7153354316026
 70
0
  0
VERTEX
  5
50D75
  8
0
 62
7
 10
168.15218981868051
 20
115.2066670832055
 70
0
  0
VERTEX
  5
50D76
  8
0
 62
7
 10
168.448468030412
 20
114.61428291451681
 70
0
  0
VERTEX
  5
50D77
  8
0
 62
7
 10
168.57524754426919
 20
113.9376661612137
 70
0
  0
SEQEND
  5
50D78
  8
0
  0
POLYLINE
  5
50D79
  8
0
 62
7
 66
1
 70
0
 10
0
 20
0
 30
0
  0
VERTEX
  5
50D7A
  8
0
 62
7
 10
149.019507531797
 20
119.22795478836331
 70
0
  0
VERTEX
  5
50D7B
  8
0
 62
7
 10
148.97678834777989
 20
119.22795478836331
 70
0
  0
VERTEX
  5
50D7C
  8
0
 62
7
 10
146.5225023240879
 20
118.8476162467917
 70
0
  0
VERTEX
  5
50D7D
  8
0
 62
7
 10
144.1095574462189
 20
118.21234063931171
 70
0
  0
VERTEX
  5
50D7E
  8
0
 62
7
 10
142.924444599293
 20
117.7467359844801
 70
0
  0
VERTEX
  5
50D7F
  8
0
 62
7
 10
141.86611126622421
 20
117.1112881222258
 70
0
  0
VERTEX
  5
50D80
  8
0
 62
7
 10
141.35761517260141
 20
116.7309495806543
 70
0
  0
VERTEX
  5
50D81
  8
0
 62
7
 10
140.93455744701271
 20
116.26500041627421
 70
0
  0
VERTEX
  5
50D82
  8
0
 62
7
 10
140.5955600512641
 20
115.75667657742559
 70
0
  0
VERTEX
  5
50D83
  8
0
 62
7
 10
140.4687805374069
 20
115.1227790081396
 70
0
  0
SEQEND
  5
50D84
  8
0
  0
POLYLINE
  5
50D85
  8
0
 62
7
 66
1
 70
0
 10
0
 20
0
 30
0
  0
VERTEX
  5
50D86
  8
0
 62
7
 10
161.29507176483921
 20
113.0472812330509
 70
0
  0
VERTEX
  5
50D87
  8
0
 62
7
 10
161.21101143499911
 20
112.83678589890209
 70
0
  0
SEQEND
  5
50D88
  8
0
  0
POLYLINE
  5
50D89
  8
0
 62
7
 66
1
 70
0
 10
0
 20
0
 30
0
  0
VERTEX
  5
50D8A
  8
0
 62
7
 10
153.5063998917864
 20
111.9904981929505
 70
0
  0
VERTEX
  5
50D8B
  8
0
 62
7
 10
153.4636807077693
 20
112.1174499615819
 70
0
  0
VERTEX
  5
50D8C
  8
0
 62
7
 10
153.3369011939121
 20
112.1586188526307
 70
0
  0
SEQEND
  5
50D8D
  8
0
  0
POLYLINE
  5
50D8E
  8
0
 62
7
 66
1
 70
0
 10
0
 20
0
 30
0
  0
VERTEX
  5
50D8F
  8
0
 62
7
 10
161.04151273712481
 20
112.4976162483793
 70
0
  0
VERTEX
  5
50D90
  8
0
 62
7
 10
159.26246542854179
 20
111.9904981929505
 70
0
  0
VERTEX
  5
50D91
  8
0
 62
7
 10
157.44345501232991
 20
111.7357333818163
 70
0
  0
VERTEX
  5
50D92
  8
0
 62
7
 10
155.58034737390679
 20
111.6087816131848
 70
0
  0
VERTEX
  5
50D93
  8
0
 62
7
 10
153.71861777367781
 20
111.69404772644469
 70
0
  0
SEQEND
  5
50D94
  8
0
  0
POLYLINE
  5
50D95
  8
0
 62
7
 66
1
 70
0
 10
0
 20
0
 30
0
  0
VERTEX
  5
50D96
  8
0
 62
7
 10
146.1835049283394
 20
114.783781612391
 70
0
  0
VERTEX
  5
50D97
  8
0
 62
7
 10
146.39434477203659
 20
115.2497307767711
 70
0
  0
VERTEX
  5
50D98
  8
0
 62
7
 10
146.7760613518023
 20
115.63006931834271
 70
0
  0
VERTEX
  5
50D99
  8
0
 62
7
 10
147.70761517101391
 20
116.1383931571913
 70
0
  0
VERTEX
  5
50D9A
  8
0
 62
7
 10
148.72322932006551
 20
116.51873169876291
 70
0
  0
VERTEX
  5
50D9B
  8
0
 62
7
 10
149.7815626531343
 20
116.7736687646714
 70
0
  0
VERTEX
  5
50D9C
  8
0
 62
7
 10
151.89822931927179
 20
117.02740004716
 70
0
  0
VERTEX
  5
50D9D
  8
0
 62
7
 10
154.05623713123231
 20
117.0701192311771
 70
0
  0
VERTEX
  5
50D9E
  8
0
 62
7
 10
156.1729037973698
 20
116.9416171695773
 70
0
  0
VERTEX
  5
50D9F
  8
0
 62
7
 10
158.33228964752439
 20
116.6039978120228
 70
0
  0
VERTEX
  5
50DA0
  8
0
 62
7
 10
160.36351794562771
 20
116.0529547891571
 70
0
  0
VERTEX
  5
50DA1
  8
0
 62
7
 10
161.37913209467931
 20
115.63006931834271
 70
0
  0
VERTEX
  5
50DA2
  8
0
 62
7
 10
162.26796672987379
 20
115.0373406401054
 70
0
  0
VERTEX
  5
50DA3
  8
0
 62
7
 10
162.3961242819251
 20
114.9107333810225
 70
0
  0
VERTEX
  5
50DA4
  8
0
 62
7
 10
162.7337436394796
 20
114.53005032990239
 70
0
  0
VERTEX
  5
50DA5
  8
0
 62
7
 10
162.86052315333669
 20
114.0644456750709
 70
0
  0
SEQEND
  5
50DA6
  8
0
  0
POLYLINE
  5
50DA7
  8
0
 62
7
 66
1
 70
0
 10
0
 20
0
 30
0
  0
VERTEX
  5
50DA8
  8
0
 62
7
 10
153.3369011939121
 20
112.1586188526307
 70
0
  0
VERTEX
  5
50DA9
  8
0
 62
7
 10
151.64329225336331
 20
112.3706644797478
 70
0
  0
VERTEX
  5
50DAA
  8
0
 62
7
 10
149.95106135100861
 20
112.7513475308679
 70
0
  0
VERTEX
  5
50DAB
  8
0
 62
7
 10
148.34151274029989
 20
113.3023905537336
 70
0
  0
VERTEX
  5
50DAC
  8
0
 62
7
 10
147.57945761896261
 20
113.64138794948219
 70
0
  0
VERTEX
  5
50DAD
  8
0
 62
7
 10
146.8601216816424
 20
114.1483337501367
 70
0
  0
VERTEX
  5
50DAE
  8
0
 62
7
 10
146.35300362621371
 20
114.69834324435681
 70
0
  0
VERTEX
  5
50DAF
  8
0
 62
7
 10
146.26756525817939
 20
114.9946214560883
 70
0
  0
SEQEND
  5
50DB0
  8
0
  0
POLYLINE
  5
50DB1
  8
0
 62
7
 66
1
 70
0
 10
0
 20
0
 30
0
  0
VERTEX
  5
50DB2
  8
0
 62
7
 10
168.57524754426919
 20
113.8951192319709
 70
0
  0
VERTEX
  5
50DB3
  8
0
 62
7
 10
168.448468030412
 20
113.2596713697165
 70
0
  0
VERTEX
  5
50DB4
  8
0
 62
7
 10
168.10947063466341
 20
112.70966187549639
 70
0
  0
VERTEX
  5
50DB5
  8
0
 62
7
 10
167.6864129090747
 20
112.2013380366478
 70
0
  0
VERTEX
  5
50DB6
  8
0
 62
7
 10
167.220635999469
 20
111.82099949507619
 70
0
  0
VERTEX
  5
50DB7
  8
0
 62
7
 10
166.1209615205772
 20
111.1857238875961
 70
0
  0
VERTEX
  5
50DB8
  8
0
 62
7
 10
164.93584867365129
 20
110.6774000487475
 70
0
  0
VERTEX
  5
50DB9
  8
0
 62
7
 10
163.7080166427082
 20
110.2967169976274
 70
0
  0
VERTEX
  5
50DBA
  8
0
 62
7
 10
162.4801846117652
 20
110.00078329544441
 70
0
  0
VERTEX
  5
50DBB
  8
0
 62
7
 10
159.940460220039
 20
109.6190667156788
 70
0
  0
VERTEX
  5
50DBC
  8
0
 62
7
 10
157.2312371304385
 20
109.4080546172072
 70
0
  0
VERTEX
  5
50DBD
  8
0
 62
7
 10
154.56473322485519
 20
109.4507738012243
 70
0
  0
VERTEX
  5
50DBE
  8
0
 62
7
 10
151.89822931927179
 20
109.6190667156788
 70
0
  0
VERTEX
  5
50DBF
  8
0
 62
7
 10
149.23034737549429
 20
110.00078329544441
 70
0
  0
VERTEX
  5
50DC0
  8
0
 62
7
 10
146.606562653928
 20
110.5929952093589
 70
0
  0
VERTEX
  5
50DC1
  8
0
 62
7
 10
145.29467029314489
 20
110.97333375093049
 70
0
  0
VERTEX
  5
50DC2
  8
0
 62
7
 10
144.06683826220191
 20
111.4820020993276
 70
0
  0
VERTEX
  5
50DC3
  8
0
 62
7
 10
142.83900623125879
 20
112.0747307775648
 70
0
  0
VERTEX
  5
50DC4
  8
0
 62
7
 10
141.737953714173
 20
112.794066714885
 70
0
  0
VERTEX
  5
50DC5
  8
0
 62
7
 10
141.23083565874421
 20
113.2596713697165
 70
0
  0
VERTEX
  5
50DC6
  8
0
 62
7
 10
140.8491190789785
 20
113.80968086393671
 70
0
  0
VERTEX
  5
50DC7
  8
0
 62
7
 10
140.552840867247
 20
114.4020650326254
 70
0
  0
VERTEX
  5
50DC8
  8
0
 62
7
 10
140.4687805374069
 20
115.0800598241225
 70
0
  0
SEQEND
  5
50DC9
  8
0
  0
POLYLINE
  5
50DCA
  8
0
 62
7
 66
1
 70
0
 10
0
 20
0
 30
0
  0
VERTEX
  5
50DCB
  8
0
 62
7
 10
162.81918200751369
 20
114.3180047027853
 70
0
  0
VERTEX
  5
50DCC
  8
0
 62
7
 10
162.5642449416053
 20
113.8951192319709
 70
0
  0
VERTEX
  5
50DCD
  8
0
 62
7
 10
162.18390640003369
 20
113.555949581448
 70
0
  0
VERTEX
  5
50DCE
  8
0
 62
7
 10
161.29507176483921
 20
113.0472812330509
 70
0
  0
SEQEND
  5
50DCF
  8
0
  0
POLYLINE
  5
50DD0
  8
0
 62
7
 66
1
 70
0
 10
0
 20
0
 30
0
  0
VERTEX
  5
50DD1
  8
0
 62
7
 10
153.71861777367781
 20
111.69404772644469
 70
0
  0
VERTEX
  5
50DD2
  8
0
 62
7
 10
153.5904602216265
 20
111.7357333818163
 70
0
  0
VERTEX
  5
50DD3
  8
0
 62
7
 10
153.5063998917864
 20
111.86234064089921
 70
0
  0
SEQEND
  5
50DD4
  8
0
  0
POLYLINE
  5
50DD5
  8
0
 62
7
 66
1
 70
0
 10
0
 20
0
 30
0
  0
VERTEX
  5
50DD6
  8
0
 62
7
 10
161.168292250982
 20
112.70966187549639
 70
0
  0
VERTEX
  5
50DD7
  8
0
 62
7
 10
161.04151273712481
 20
112.4976162483793
 70
0
  0
SEQEND
  5
50DD8
  8
0
  0
POLYLINE
  5
50DD9
  8
0
 62
7
 66
1
 70
0
 10
0
 20
0
 30
0
  0
VERTEX
  5
50DDA
  8
0
 62
7
 10
146.8601216816424
 20
113.555949581448
 70
0
  0
VERTEX
  5
50DDB
  8
0
 62
7
 10
146.39434477203659
 20
114.1056145661196
 70
0
  0
VERTEX
  5
50DDC
  8
0
 62
7
 10
146.22622411235651
 20
114.4020650326254
 70
0
  0
VERTEX
  5
50DDD
  8
0
 62
7
 10
146.1835049283394
 20
114.783781612391
 70
0
  0
SEQEND
  5
50DDE
  8
0
  0
POLYLINE
  5
50DDF
  8
0
 62
7
 66
1
 70
0
 10
0
 20
0
 30
0
  0
VERTEX
  5
50DE0
  8
0
 62
7
 10
149.06222671581409
 20
118.8476162467917
 70
0
  0
VERTEX
  5
50DE1
  8
0
 62
7
 10
150.96667550006021
 20
119.017114944666
 70
0
  0
VERTEX
  5
50DE2
  8
0
 62
7
 10
152.82840510028919
 20
119.0582838357148
 70
0
  0
VERTEX
  5
50DE3
  8
0
 62
7
 10
154.73423192272941
 20
119.017114944666
 70
0
  0
VERTEX
  5
50DE4
  8
0
 62
7
 10
156.59596152295839
 20
118.8889573926148
 70
0
  0
VERTEX
  5
50DE5
  8
0
 62
7
 10
158.45906916138159
 20
118.6779452941432
 70
0
  0
VERTEX
  5
50DE6
  8
0
 62
7
 10
160.3207987616106
 20
118.3816670824117
 70
0
  0
VERTEX
  5
50DE7
  8
0
 62
7
 10
162.14118721601659
 20
117.9587816115973
 70
0
  0
VERTEX
  5
50DE8
  8
0
 62
7
 10
163.9188564864055
 20
117.4077385887316
 70
0
  0
VERTEX
  5
50DE9
  8
0
 62
7
 10
165.65518461097139
 20
116.64568346739431
 70
0
  0
VERTEX
  5
50DEA
  8
0
 62
7
 10
166.4585808781317
 20
116.1811123412084
 70
0
  0
VERTEX
  5
50DEB
  8
0
 62
7
 10
167.220635999469
 20
115.63006931834271
 70
0
  0
VERTEX
  5
50DEC
  8
0
 62
7
 10
167.89863079096611
 20
114.9534525650396
 70
0
  0
VERTEX
  5
50DED
  8
0
 62
7
 10
168.10947063466341
 20
114.53005032990239
 70
0
  0
VERTEX
  5
50DEE
  8
0
 62
7
 10
168.27896933253771
 20
114.1056145661196
 70
0
  0
VERTEX
  5
50DEF
  8
0
 62
7
 10
168.32168851655479
 20
113.64138794948219
 70
0
  0
VERTEX
  5
50DF0
  8
0
 62
7
 10
168.23762818671469
 20
113.1757832946507
 70
0
  0
VERTEX
  5
50DF1
  8
0
 62
7
 10
168.02541030482331
 20
112.7513475308679
 70
0
  0
VERTEX
  5
50DF2
  8
0
 62
7
 10
167.77185127710891
 20
112.3706644797478
 70
0
  0
VERTEX
  5
50DF3
  8
0
 62
7
 10
167.0525153397887
 20
111.7357333818163
 70
0
  0
VERTEX
  5
50DF4
  8
0
 62
7
 10
166.2477410344344
 20
111.2696119626619
 70
0
  0
VERTEX
  5
50DF5
  8
0
 62
7
 10
164.51141290986851
 20
110.550448280116
 70
0
  0
VERTEX
  5
50DF6
  8
0
 62
7
 10
162.6924024936566
 20
110.08467137051031
 70
0
  0
VERTEX
  5
50DF7
  8
0
 62
7
 10
160.82929485523351
 20
109.74705201295581
 70
0
  0
SEQEND
  5
50DF8
  8
0
  0
POLYLINE
  5
50DF9
  8
0
 62
7
 66
1
 70
0
 10
0
 20
0
 30
0
  0
VERTEX
  5
50DFA
  8
0
 62
7
 10
159.940460220039
 20
109.6190667156788
 70
0
  0
VERTEX
  5
50DFB
  8
0
 62
7
 10
159.9831794040561
 20
109.6190667156788
 70
0
  0
SEQEND
  5
50DFC
  8
0
  0
POLYLINE
  5
50DFD
  8
0
 62
7
 66
1
 70
0
 10
0
 20
0
 30
0
  0
VERTEX
  5
50DFE
  8
0
 62
7
 10
149.019507531797
 20
119.18678589731461
 70
0
  0
VERTEX
  5
50DFF
  8
0
 62
7
 10
151.68601143738039
 20
119.35473430222051
 70
0
  0
VERTEX
  5
50E00
  8
0
 62
7
 10
154.35251534296381
 20
119.35473430222051
 70
0
  0
VERTEX
  5
50E01
  8
0
 62
7
 10
157.0190192485471
 20
119.18678589731461
 70
0
  0
VERTEX
  5
50E02
  8
0
 62
7
 10
159.6869011923246
 20
118.8050693175489
 70
0
  0
VERTEX
  5
50E03
  8
0
 62
7
 10
162.31068591389089
 20
118.25505982332881
 70
0
  0
VERTEX
  5
50E04
  8
0
 62
7
 10
163.581237128851
 20
117.8733432435631
 70
0
  0
VERTEX
  5
50E05
  8
0
 62
7
 10
164.85041030561709
 20
117.4077385887316
 70
0
  0
VERTEX
  5
50E06
  8
0
 62
7
 10
166.035523152543
 20
116.8150099104944
 70
0
  0
VERTEX
  5
50E07
  8
0
 62
7
 10
167.179294853646
 20
116.1383931571913
 70
0
  0
VERTEX
  5
50E08
  8
0
 62
7
 10
167.6864129090747
 20
115.6726162475855
 70
0
  0
VERTEX
  5
50E09
  8
0
 62
7
 10
168.10947063466341
 20
115.1639478991884
 70
0
  0
VERTEX
  5
50E0A
  8
0
 62
7
 10
168.448468030412
 20
114.5717359852739
 70
0
  0
VERTEX
  5
50E0B
  8
0
 62
7
 10
168.57524754426919
 20
113.9376661612137
 70
0
  0
SEQEND
  5
50E0C
  8
0
  0
POLYLINE
  5
50E0D
  8
0
 62
7
 66
1
 70
0
 10
0
 20
0
 30
0
  0
VERTEX
  5
50E0E
  8
0
 62
7
 10
149.7388434691172
 20
118.12845256424581
 70
0
  0
VERTEX
  5
50E0F
  8
0
 62
7
 10
151.432452409666
 20
118.25505982332881
 70
0
  0
VERTEX
  5
50E10
  8
0
 62
7
 10
153.12468331202069
 20
118.2964009691518
 70
0
  0
VERTEX
  5
50E11
  8
0
 62
7
 10
156.51190119311841
 20
118.12845256424581
 70
0
  0
VERTEX
  5
50E12
  8
0
 62
7
 10
158.20551013366719
 20
117.9587816115973
 70
0
  0
VERTEX
  5
50E13
  8
0
 62
7
 10
159.8563998901989
 20
117.6623311450915
 70
0
  0
VERTEX
  5
50E14
  8
0
 62
7
 10
161.50728964673061
 20
117.23944567427711
 70
0
  0
VERTEX
  5
50E15
  8
0
 62
7
 10
163.11546021924519
 20
116.68840265141139
 70
0
  0
VERTEX
  5
50E16
  8
0
 62
7
 10
164.68091160774279
 20
115.9690667140912
 70
0
  0
VERTEX
  5
50E17
  8
0
 62
7
 10
165.35890639924
 20
115.502945294937
 70
0
  0
VERTEX
  5
50E18
  8
0
 62
7
 10
165.99418200672
 20
114.9534525650396
 70
0
  0
VERTEX
  5
50E19
  8
0
 62
7
 10
166.4585808781317
 20
114.2341166277194
 70
0
  0
VERTEX
  5
50E1A
  8
0
 62
7
 10
166.586738430183
 20
113.85240004795379
 70
0
  0
VERTEX
  5
50E1B
  8
0
 62
7
 10
166.586738430183
 20
113.42899781281651
 70
0
  0
VERTEX
  5
50E1C
  8
0
 62
7
 10
166.4585808781317
 20
113.0061123420021
 70
0
  0
VERTEX
  5
50E1D
  8
0
 62
7
 10
166.2477410344344
 20
112.6243957622365
 70
0
  0
VERTEX
  5
50E1E
  8
0
 62
7
 10
165.65518461097139
 20
112.0316670839992
 70
0
  0
VERTEX
  5
50E1F
  8
0
 62
7
 10
164.93584867365129
 20
111.5660624291677
 70
0
  0
VERTEX
  5
50E20
  8
0
 62
7
 10
164.173793552314
 20
111.1857238875961
 70
0
  0
VERTEX
  5
50E21
  8
0
 62
7
 10
162.5642449416053
 20
110.635714393376
 70
0
  0
VERTEX
  5
50E22
  8
0
 62
7
 10
160.91335518507361
 20
110.2967169976274
 70
0
  0
VERTEX
  5
50E23
  8
0
 62
7
 10
159.22112428271879
 20
110.0435024794615
 70
0
  0
VERTEX
  5
50E24
  8
0
 62
7
 10
157.57023452618711
 20
109.91500041786171
 70
0
  0
VERTEX
  5
50E25
  8
0
 62
7
 10
155.87662558563829
 20
109.873831526813
 70
0
  0
VERTEX
  5
50E26
  8
0
 62
7
 10
152.4907857427348
 20
110.00078329544441
 70
0
  0
VERTEX
  5
50E27
  8
0
 62
7
 10
150.7971768021859
 20
110.2112786295932
 70
0
  0
VERTEX
  5
50E28
  8
0
 62
7
 10
149.10356786163709
 20
110.507729096099
 70
0
  0
VERTEX
  5
50E29
  8
0
 62
7
 10
147.45267810510541
 20
110.9321648598817
 70
0
  0
VERTEX
  5
50E2A
  8
0
 62
7
 10
145.8445075325908
 20
111.4820020993276
 70
0
  0
VERTEX
  5
50E2B
  8
0
 62
7
 10
144.3203972899162
 20
112.2013380366478
 70
0
  0
VERTEX
  5
50E2C
  8
0
 62
7
 10
143.64378053661309
 20
112.66711494625361
 70
0
  0
VERTEX
  5
50E2D
  8
0
 62
7
 10
143.0085049291331
 20
113.2169521856994
 70
0
  0
VERTEX
  5
50E2E
  8
0
 62
7
 10
142.54272801952729
 20
113.9376661612137
 70
0
  0
VERTEX
  5
50E2F
  8
0
 62
7
 10
142.41594850567009
 20
114.3180047027853
 70
0
  0
VERTEX
  5
50E30
  8
0
 62
7
 10
142.41594850567009
 20
114.74106242837389
 70
0
  0
VERTEX
  5
50E31
  8
0
 62
7
 10
142.54272801952729
 20
115.1639478991884
 70
0
  0
VERTEX
  5
50E32
  8
0
 62
7
 10
142.75494590141869
 20
115.5456644789541
 70
0
  0
VERTEX
  5
50E33
  8
0
 62
7
 10
143.3475023248817
 20
116.1383931571913
 70
0
  0
VERTEX
  5
50E34
  8
0
 62
7
 10
144.06683826220191
 20
116.6039978120228
 70
0
  0
VERTEX
  5
50E35
  8
0
 62
7
 10
144.82889338353911
 20
116.9846808631429
 70
0
  0
VERTEX
  5
50E36
  8
0
 62
7
 10
146.43706395605369
 20
117.4930047019915
 70
0
  0
VERTEX
  5
50E37
  8
0
 62
7
 10
148.08795371258549
 20
117.8733432435631
 70
0
  0
VERTEX
  5
50E38
  8
0
 62
7
 10
149.7388434691172
 20
118.12845256424581
 70
0
  0
SEQEND
  5
50E39
  8
0
  0
POLYLINE
  5
50E3A
  8
0
 62
7
 66
1
 70
0
 10
0
 20
0
 30
0
  0
VERTEX
  5
50E3B
  8
0
 62
7
 10
146.5225023240879
 20
113.2169521856994
 70
0
  0
VERTEX
  5
50E3C
  8
0
 62
7
 10
146.09806656030511
 20
113.64138794948219
 70
0
  0
VERTEX
  5
50E3D
  8
0
 62
7
 10
145.8445075325908
 20
114.1913974437023
 70
0
  0
VERTEX
  5
50E3E
  8
0
 62
7
 10
145.8017883485737
 20
114.53005032990239
 70
0
  0
VERTEX
  5
50E3F
  8
0
 62
7
 10
145.8872267166079
 20
114.8263285416339
 70
0
  0
VERTEX
  5
50E40
  8
0
 62
7
 10
146.22622411235651
 20
115.3336188518369
 70
0
  0
VERTEX
  5
50E41
  8
0
 62
7
 10
147.0723395635338
 20
115.9263475300742
 70
0
  0
VERTEX
  5
50E42
  8
0
 62
7
 10
148.04523452856839
 20
116.3494052556629
 70
0
  0
VERTEX
  5
50E43
  8
0
 62
7
 10
149.06222671581409
 20
116.64568346739431
 70
0
  0
VERTEX
  5
50E44
  8
0
 62
7
 10
150.07784086486569
 20
116.8577290945115
 70
0
  0
VERTEX
  5
50E45
  8
0
 62
7
 10
152.1945075310033
 20
117.0701192311771
 70
0
  0
VERTEX
  5
50E46
  8
0
 62
7
 10
154.26845501312371
 20
117.1112881222258
 70
0
  0
VERTEX
  5
50E47
  8
0
 62
7
 10
156.3851216792612
 20
116.9416171695773
 70
0
  0
VERTEX
  5
50E48
  8
0
 62
7
 10
158.45906916138159
 20
116.6039978120228
 70
0
  0
VERTEX
  5
50E49
  8
0
 62
7
 10
160.44895631366191
 20
116.0529547891571
 70
0
  0
VERTEX
  5
50E4A
  8
0
 62
7
 10
161.42185127869641
 20
115.63006931834271
 70
0
  0
VERTEX
  5
50E4B
  8
0
 62
7
 10
162.31068591389089
 20
115.0800598241225
 70
0
  0
SEQEND
  5
50E4C
  8
0
  0
POLYLINE
  5
50E4D
  8
0
 62
7
 66
1
 70
0
 10
0
 20
0
 30
0
  0
VERTEX
  5
50E4E
  8
0
 62
7
 10
140.4687805374069
 20
115.2066670832055
 70
0
  0
VERTEX
  5
50E4F
  8
0
 62
7
 10
140.6382792352812
 20
115.7993957614427
 70
0
  0
VERTEX
  5
50E50
  8
0
 62
7
 10
141.01861777685281
 20
116.30806410983981
 70
0
  0
VERTEX
  5
50E51
  8
0
 62
7
 10
141.44167550244151
 20
116.7736687646714
 70
0
  0
VERTEX
  5
50E52
  8
0
 62
7
 10
141.95017159606439
 20
117.1112881222258
 70
0
  0
VERTEX
  5
50E53
  8
0
 62
7
 10
143.0085049291331
 20
117.70401680046309
 70
0
  0
VERTEX
  5
50E54
  8
0
 62
7
 10
144.1508985920419
 20
118.1696214552946
 70
0
  0
VERTEX
  5
50E55
  8
0
 62
7
 10
146.56384346991089
 20
118.8050693175489
 70
0
  0
VERTEX
  5
50E56
  8
0
 62
7
 10
149.019507531797
 20
119.18678589731461
 70
0
  0
SEQEND
  5
50E57
  8
0
  0
POLYLINE
  5
50E58
  8
0
 62
7
 66
1
 70
0
 10
0
 20
0
 30
0
  0
VERTEX
  5
50E59
  8
0
 62
7
 10
162.4801846117652
 20
114.9534525650396
 70
0
  0
VERTEX
  5
50E5A
  8
0
 62
7
 10
162.81918200751369
 20
114.61428291451681
 70
0
  0
SEQEND
  5
50E5B
  8
0
  0
POLYLINE
  5
50E5C
  8
0
 62
7
 66
1
 70
0
 10
0
 20
0
 30
0
  0
VERTEX
  5
50E5D
  8
0
 62
7
 10
162.90324233735379
 20
114.53005032990239
 70
0
  0
VERTEX
  5
50E5E
  8
0
 62
7
 10
163.15817940326241
 20
114.0217264910538
 70
0
  0
VERTEX
  5
50E5F
  8
0
 62
7
 10
163.11546021924519
 20
113.42899781281651
 70
0
  0
VERTEX
  5
50E60
  8
0
 62
7
 10
162.81918200751369
 20
112.92067397396789
 70
0
  0
VERTEX
  5
50E61
  8
0
 62
7
 10
162.3961242819251
 20
112.5403354323964
 70
0
  0
VERTEX
  5
50E62
  8
0
 62
7
 10
161.33779094885631
 20
111.9904981929505
 70
0
  0
VERTEX
  5
50E63
  8
0
 62
7
 10
160.23673843177051
 20
111.6087816131848
 70
0
  0
VERTEX
  5
50E64
  8
0
 62
7
 10
159.0943447688617
 20
111.3550503306961
 70
0
  0
VERTEX
  5
50E65
  8
0
 62
7
 10
157.90923192193571
 20
111.1857238875961
 70
0
  0
VERTEX
  5
50E66
  8
0
 62
7
 10
155.53762818988969
 20
111.0591166285132
 70
0
  0
VERTEX
  5
50E67
  8
0
 62
7
 10
153.2101216800549
 20
111.143004703579
 70
0
  0
VERTEX
  5
50E68
  8
0
 62
7
 10
150.881237132026
 20
111.4820020993276
 70
0
  0
VERTEX
  5
50E69
  8
0
 62
7
 10
149.6961242851001
 20
111.7357333818163
 70
0
  0
VERTEX
  5
50E6A
  8
0
 62
7
 10
148.59644980620831
 20
112.1174499615819
 70
0
  0
VERTEX
  5
50E6B
  8
0
 62
7
 10
147.49539728912251
 20
112.5403354323964
 70
0
  0
VERTEX
  5
50E6C
  8
0
 62
7
 10
146.5225023240879
 20
113.2169521856994
 70
0
  0
SEQEND
  5
50E6D
  8
0
  0
POLYLINE
  5
50E6E
  8
0
 62
7
 66
1
 70
0
 10
0
 20
0
 30
0
  0
VERTEX
  5
50E6F
  8
0
 62
7
 10
159.26246542854179
 20
110.0435024794615
 70
0
  0
VERTEX
  5
50E70
  8
0
 62
7
 10
157.57023452618711
 20
109.873831526813
 70
0
  0
VERTEX
  5
50E71
  8
0
 62
7
 10
155.87662558563829
 20
109.83111234279591
 70
0
  0
VERTEX
  5
50E72
  8
0
 62
7
 10
152.44806655871761
 20
110.00078329544441
 70
0
  0
VERTEX
  5
50E73
  8
0
 62
7
 10
150.7971768021859
 20
110.2112786295932
 70
0
  0
VERTEX
  5
50E74
  8
0
 62
7
 10
149.10356786163709
 20
110.507729096099
 70
0
  0
VERTEX
  5
50E75
  8
0
 62
7
 10
147.45267810510541
 20
110.9321648598817
 70
0
  0
VERTEX
  5
50E76
  8
0
 62
7
 10
145.8445075325908
 20
111.4392829153105
 70
0
  0
VERTEX
  5
50E77
  8
0
 62
7
 10
144.3203972899162
 20
112.2013380366478
 70
0
  0
VERTEX
  5
50E78
  8
0
 62
7
 10
143.60106135259611
 20
112.66711494625361
 70
0
  0
VERTEX
  5
50E79
  8
0
 62
7
 10
142.965785745116
 20
113.2169521856994
 70
0
  0
VERTEX
  5
50E7A
  8
0
 62
7
 10
142.50000883551019
 20
113.9376661612137
 70
0
  0
VERTEX
  5
50E7B
  8
0
 62
7
 10
142.373229321653
 20
114.3180047027853
 70
0
  0
VERTEX
  5
50E7C
  8
0
 62
7
 10
142.373229321653
 20
114.74106242837389
 70
0
  0
VERTEX
  5
50E7D
  8
0
 62
7
 10
142.50000883551019
 20
115.1639478991884
 70
0
  0
VERTEX
  5
50E7E
  8
0
 62
7
 10
142.71222671740159
 20
115.5456644789541
 70
0
  0
VERTEX
  5
50E7F
  8
0
 62
7
 10
143.3047831408646
 20
116.1383931571913
 70
0
  0
VERTEX
  5
50E80
  8
0
 62
7
 10
144.0241190781847
 20
116.6039978120228
 70
0
  0
VERTEX
  5
50E81
  8
0
 62
7
 10
144.786174199522
 20
116.9846808631429
 70
0
  0
VERTEX
  5
50E82
  8
0
 62
7
 10
146.39434477203659
 20
117.5357238860086
 70
0
  0
VERTEX
  5
50E83
  8
0
 62
7
 10
148.04523452856839
 20
117.9160624275802
 70
0
  0
VERTEX
  5
50E84
  8
0
 62
7
 10
149.7388434691172
 20
118.12845256424581
 70
0
  0
SEQEND
  5
50E85
  8
0
  0
POLYLINE
  5
50E86
  8
0
 62
7
 66
1
 70
0
 10
0
 20
0
 30
0
  0
VERTEX
  5
50E87
  8
0
 62
7
 10
159.940460220039
 20
109.6190667156788
 70
0
  0
VERTEX
  5
50E88
  8
0
 62
7
 10
157.99329225177581
 20
109.4507738012243
 70
0
  0
VERTEX
  5
50E89
  8
0
 62
7
 10
156.0461242835126
 20
109.4080546172072
 70
0
  0
VERTEX
  5
50E8A
  8
0
 62
7
 10
154.14167549926651
 20
109.4507738012243
 70
0
  0
VERTEX
  5
50E8B
  8
0
 62
7
 10
152.1945075310033
 20
109.5773810603072
 70
0
  0
VERTEX
  5
50E8C
  8
0
 62
7
 10
150.288680708563
 20
109.83111234279591
 70
0
  0
VERTEX
  5
50E8D
  8
0
 62
7
 10
148.34151274029989
 20
110.1701097385445
 70
0
  0
VERTEX
  5
50E8E
  8
0
 62
7
 10
146.47978314007079
 20
110.635714393376
 70
0
  0
VERTEX
  5
50E8F
  8
0
 62
7
 10
144.65939468566481
 20
111.2284430716132
 70
0
  0
VERTEX
  5
50E90
  8
0
 62
7
 10
142.8817254152759
 20
112.0747307775648
 70
0
  0
VERTEX
  5
50E91
  8
0
 62
7
 10
142.0769511099216
 20
112.6243957622365
 70
0
  0
VERTEX
  5
50E92
  8
0
 62
7
 10
141.35761517260141
 20
113.2596713697165
 70
0
  0
VERTEX
  5
50E93
  8
0
 62
7
 10
140.80777793315551
 20
114.0644456750709
 70
0
  0
VERTEX
  5
50E94
  8
0
 62
7
 10
140.68099841929831
 20
114.53005032990239
 70
0
  0
VERTEX
  5
50E95
  8
0
 62
7
 10
140.68099841929831
 20
114.9946214560883
 70
0
  0
VERTEX
  5
50E96
  8
0
 62
7
 10
140.8491190789785
 20
115.4603983656941
 70
0
  0
VERTEX
  5
50E97
  8
0
 62
7
 10
141.06133696086991
 20
115.8846618747026
 70
0
  0
VERTEX
  5
50E98
  8
0
 62
7
 10
141.78067289819009
 20
116.6039978120228
 70
0
  0
VERTEX
  5
50E99
  8
0
 62
7
 10
142.58544720354439
 20
117.1112881222258
 70
0
  0
VERTEX
  5
50E9A
  8
0
 62
7
 10
143.4315626547218
 20
117.5357238860086
 70
0
  0
VERTEX
  5
50E9B
  8
0
 62
7
 10
145.29467029314489
 20
118.1696214552946
 70
0
  0
VERTEX
  5
50E9C
  8
0
 62
7
 10
147.1563998933739
 20
118.5926791808833
 70
0
  0
VERTEX
  5
50E9D
  8
0
 62
7
 10
149.06222671581409
 20
118.8476162467917
 70
0
  0
SEQEND
  5
50E9E
  8
0
  0
POLYLINE
  5
50E9F
  8
0
 62
7
 66
1
 70
0
 10
0
 20
0
 30
0
  0
VERTEX
  5
50EA0
  8
0
 62
7
 10
149.7388434691172
 20
118.12845256424581
 70
0
  0
VERTEX
  5
50EA1
  8
0
 62
7
 10
151.432452409666
 20
118.25505982332881
 70
0
  0
VERTEX
  5
50EA2
  8
0
 62
7
 10
153.12468331202069
 20
118.33894789839459
 70
0
  0
VERTEX
  5
50EA3
  8
0
 62
7
 10
156.51190119311841
 20
118.1696214552946
 70
0
  0
VERTEX
  5
50EA4
  8
0
 62
7
 10
158.20551013366719
 20
117.9587816115973
 70
0
  0
VERTEX
  5
50EA5
  8
0
 62
7
 10
159.8977410360219
 20
117.6623311450915
 70
0
  0
VERTEX
  5
50EA6
  8
0
 62
7
 10
161.54863079255361
 20
117.23944567427711
 70
0
  0
VERTEX
  5
50EA7
  8
0
 62
7
 10
163.15817940326241
 20
116.68840265141139
 70
0
  0
VERTEX
  5
50EA8
  8
0
 62
7
 10
164.68091160774279
 20
115.9690667140912
 70
0
  0
VERTEX
  5
50EA9
  8
0
 62
7
 10
165.4016255832571
 20
115.502945294937
 70
0
  0
VERTEX
  5
50EAA
  8
0
 62
7
 10
166.035523152543
 20
114.9534525650396
 70
0
  0
VERTEX
  5
50EAB
  8
0
 62
7
 10
166.5013000621488
 20
114.2341166277194
 70
0
  0
VERTEX
  5
50EAC
  8
0
 62
7
 10
166.628079576006
 20
113.85240004795379
 70
0
  0
VERTEX
  5
50EAD
  8
0
 62
7
 10
166.628079576006
 20
113.42899781281651
 70
0
  0
VERTEX
  5
50EAE
  8
0
 62
7
 10
166.5013000621488
 20
113.0061123420021
 70
0
  0
VERTEX
  5
50EAF
  8
0
 62
7
 10
166.2904602184515
 20
112.6243957622365
 70
0
  0
VERTEX
  5
50EB0
  8
0
 62
7
 10
165.69790379498849
 20
112.0316670839992
 70
0
  0
VERTEX
  5
50EB1
  8
0
 62
7
 10
164.97718981947429
 20
111.5660624291677
 70
0
  0
VERTEX
  5
50EB2
  8
0
 62
7
 10
164.215134698137
 20
111.1857238875961
 70
0
  0
VERTEX
  5
50EB3
  8
0
 62
7
 10
162.6069641256224
 20
110.635714393376
 70
0
  0
VERTEX
  5
50EB4
  8
0
 62
7
 10
160.95607436909069
 20
110.2539978136103
 70
0
  0
VERTEX
  5
50EB5
  8
0
 62
7
 10
159.26246542854179
 20
110.0435024794615
 70
0
  0
SEQEND
  5
50EB6
  8
0
  0
POLYLINE
  5
50EB7
  8
0
 62
7
 66
1
 70
0
 10
0
 20
0
 30
0
  0
VERTEX
  5
50EB8
  8
0
 62
7
 10
162.86052315333669
 20
114.0644456750709
 70
0
  0
VERTEX
  5
50EB9
  8
0
 62
7
 10
162.7764628234967
 20
113.72544827932229
 70
0
  0
VERTEX
  5
50EBA
  8
0
 62
7
 10
162.6496833096395
 20
113.47171699683361
 70
0
  0
VERTEX
  5
50EBB
  8
0
 62
7
 10
162.18390640003369
 20
113.0061123420021
 70
0
  0
VERTEX
  5
50EBC
  8
0
 62
7
 10
161.67541030641081
 20
112.66711494625361
 70
0
  0
VERTEX
  5
50EBD
  8
0
 62
7
 10
161.0828538829478
 20
112.3706644797478
 70
0
  0
VERTEX
  5
50EBE
  8
0
 62
7
 10
159.347903796576
 20
111.86234064089921
 70
0
  0
VERTEX
  5
50EBF
  8
0
 62
7
 10
157.52751534217
 20
111.6087816131848
 70
0
  0
VERTEX
  5
50EC0
  8
0
 62
7
 10
155.665785741941
 20
111.4820020993276
 70
0
  0
VERTEX
  5
50EC1
  8
0
 62
7
 10
153.845397287535
 20
111.5660624291677
 70
0
  0
VERTEX
  5
50EC2
  8
0
 62
7
 10
152.025008833129
 20
111.7357333818163
 70
0
  0
VERTEX
  5
50EC3
  8
0
 62
7
 10
150.20462037872289
 20
112.1174499615819
 70
0
  0
VERTEX
  5
50EC4
  8
0
 62
7
 10
148.426951108334
 20
112.66711494625361
 70
0
  0
VERTEX
  5
50EC5
  8
0
 62
7
 10
147.62217680297971
 20
113.0472812330509
 70
0
  0
VERTEX
  5
50EC6
  8
0
 62
7
 10
146.8601216816424
 20
113.555949581448
 70
0
  0
SEQEND
  5
50EC7
  8
0
  0
INSERT
  5
50ED9
  8
0
  2
SPECEL-X0057
 10
236.0293959910442
 20
79.526845000000023
 30
0
 41
1
 42
1
 43
1
 50
0
  0
ENDSEC
999
Created By CadLib version 4.0.36.7
999
CadLib website: www.woutware.com
  0
EOF
