  0
SECTION
  2
HEADER
  9
$ACADVER
  1
AC1009
  9
$DWGCODEPAGE
  3
dos932
  9
$INSBASE
 10
0
 20
0
 30
0
  9
$EXTMIN
 10
3.4581618513648134
 20
6.3517050957777332
 30
0
  9
$EXTMAX
 10
71.669618796774117
 20
96.7536151464444
 30
0
  9
$LIMMIN
 10
0
 20
0
  9
$LIMMAX
 10
297
 20
210
  9
$SNAPMODE
 70
0
  9
$SNAPUNIT
 10
1
 20
1
  9
$SNAPBASE
 10
0
 20
0
  9
$SNAPANG
 50
0
  9
$SNAPSTYLE
 70
0
  9
$SNAPISOPAIR
 70
0
  9
$ORTHOMODE
 70
0
  9
$REGENMODE
 70
1
  9
$FILLMODE
 70
1
  9
$QTEXTMODE
 70
0
  9
$MIRRTEXT
 70
0
  9
$LTSCALE
 40
1
  9
$OSMODE
 70
37
  9
$ATTMODE
 70
1
  9
$TEXTSIZE
 40
0.2
  9
$TRACEWID
 40
0.05
  9
$TEXTSTYLE
  7
STANDARD
  9
$CLAYER
  8
0
  9
$CELTYPE
  6
CONTINUOUS
  9
$CECOLOR
 62
256
  9
$DIMSCALE
 40
1
  9
$DIMASZ
 40
0.18
  9
$DIMEXO
 40
0.0625
  9
$DIMDLI
 40
0.38
  9
$DIMRND
 40
0
  9
$DIMDLE
 40
0
  9
$DIMEXE
 40
0.18
  9
$DIMTP
 40
0
  9
$DIMTM
 40
0
  9
$DIMTXT
 40
0.18
  9
$DIMCEN
 40
0.09
  9
$DIMTSZ
 40
0
  9
$DIMTOL
 70
0
  9
$DIMLIM
 70
0
  9
$DIMTIH
 70
1
  9
$DIMTOH
 70
1
  9
$DIMSE1
 70
0
  9
$DIMSE2
 70
0
  9
$DIMTAD
 70
0
  9
$DIMZIN
 70
0
  9
$DIMBLK
  1

  9
$DIMASO
 70
1
  9
$DIMSHO
 70
1
  9
$DIMPOST
  1

  9
$DIMAPOST
  1

  9
$DIMALT
 70
0
  9
$DIMALTD
 70
2
  9
$DIMALTF
 40
25.4
  9
$DIMLFAC
 40
1
  9
$DIMTOFL
 70
0
  9
$DIMTVP
 40
0
  9
$DIMTIX
 70
0
  9
$DIMSOXD
 70
0
  9
$DIMSAH
 70
0
  9
$DIMBLK1
  1

  9
$DIMBLK2
  1

  9
$DIMSTYLE
  2
STANDARD
  9
$DIMCLRD
 70
0
  9
$DIMCLRE
 70
0
  9
$DIMCLRT
 70
0
  9
$DIMTFAC
 40
1
  9
$DIMGAP
 40
0.09
  9
$LUNITS
 70
2
  9
$LUPREC
 70
4
  9
$SKETCHINC
 40
0.1
  9
$FILLETRAD
 40
0
  9
$AUNITS
 70
0
  9
$AUPREC
 70
0
  9
$MENU
  1
.
  9
$ELEVATION
 40
0
  9
$PELEVATION
 40
0
  9
$THICKNESS
 40
0
  9
$LIMCHECK
 70
0
  9
$CHAMFERA
 40
0
  9
$CHAMFERB
 40
0
  9
$SKPOLY
 70
0
  9
$TDCREATE
 40
2450971.7456035186
  9
$TDUPDATE
 40
2455652.6639763424
  9
$TDINDWG
 40
0.039457685185185186
  9
$TDUSRTIMER
 40
0.039457685185185186
  9
$USRTIMER
 70
1
  9
$ANGBASE
 50
0
  9
$ANGDIR
 70
0
  9
$PDMODE
 70
0
  9
$PDSIZE
 40
0
  9
$PLINEWID
 40
0
  9
$SPLFRAME
 70
0
  9
$SPLINETYPE
 70
6
  9
$SPLINESEGS
 70
8
  9
$HANDLING
 70
1
  9
$HANDSEED
  5
6B9
  9
$SURFTAB1
 70
6
  9
$SURFTAB2
 70
6
  9
$SURFTYPE
 70
6
  9
$SURFU
 70
6
  9
$SURFV
 70
6
  9
$UCSORG
 10
0
 20
0
 30
0
  9
$UCSXDIR
 10
1
 20
0
 30
0
  9
$UCSYDIR
 10
0
 20
1
 30
0
  9
$PUCSORG
 10
0
 20
0
 30
0
  9
$PUCSXDIR
 10
1
 20
0
 30
0
  9
$PUCSYDIR
 10
0
 20
1
 30
0
  9
$USERI1
 70
0
  9
$USERI2
 70
0
  9
$USERI3
 70
0
  9
$USERI4
 70
0
  9
$USERI5
 70
0
  9
$USERR1
 40
0
  9
$USERR2
 40
0
  9
$USERR3
 40
0
  9
$USERR4
 40
0
  9
$USERR5
 40
0
  9
$WORLDVIEW
 70
1
  9
$SHADEDGE
 70
3
  9
$SHADEDIF
 70
70
  9
$TILEMODE
 70
1
  9
$MAXACTVP
 70
64
  9
$PINSBASE
 10
0
 20
0
 30
0
  9
$PLIMCHECK
 70
0
  9
$PEXTMIN
 10
1E+20
 20
1E+20
 30
1E+20
  9
$PEXTMAX
 10
-1E+20
 20
-1E+20
 30
-1E+20
  9
$PLIMMAX
 10
12
 20
9
  9
$PLIMMIN
 10
0
 20
0
  9
$UNITMODE
 70
0
  9
$VISRETAIN
 70
1
  9
$PLINEGEN
 70
0
  9
$PSLTSCALE
 70
1
  9
$TREEDEPTH
 70
3020
  9
$DRAGMODE
 70
     2
  9
$BLIPMODE
 70
     0
  9
$COORDS
 70
     1
  9
$ATTDIA
 70
     0
  9
$ATTREQ
 70
     1
  0
ENDSEC
  0
SECTION
  2
TABLES
  0
TABLE
  2
VPORT
  5
6AB
 70
1
  0
VPORT
  5
67F
  2
*ACTIVE
 70
0
 10
0
 20
0
 11
1
 21
1
 12
49.162998949319537
 22
40.848796925017382
 13
0
 23
0
 14
1
 24
1
 15
0
 25
0
 16
0
 26
0
 36
1
 17
0
 27
0
 37
0
 40
149.80850940590091
 41
1.4461538461538459
 42
50
 43
0
 44
0
 50
0
 51
0
 71
0
 72
100
 73
1
 74
1
 75
0
 76
0
 77
0
 78
0
  0
ENDTAB
  0
TABLE
  2
LTYPE
  5
6AC
 70
8
  0
LTYPE
  5
675
  2
CONTINUOUS
  3
実線
 70
0
 72
65
 73
0
 40
0
  0
LTYPE
  5
676
  2
DASHED
  3
破線
 70
0
 72
65
 73
2
 40
3.8
 49
3
 49
-0.8
  0
LTYPE
  5
677
  2
DOT
  3
点線
 70
0
 72
65
 73
2
 40
2
 49
1
 49
-1
  0
LTYPE
  5
678
  2
DASHDOT
  3
一点鎖線
 70
0
 72
65
 73
4
 40
25.6
 49
20
 49
-2
 49
1.6
 49
-2
  0
LTYPE
  5
679
  2
DIVIDE
  3
二点鎖線
 70
0
 72
65
 73
6
 40
31.199999999999996
 49
20
 49
-2.399999999999999
 49
2
 49
-2.399999999999999
 49
2
 49
-2.399999999999999
  0
LTYPE
  5
67A
  2
CENTER
  3
Center ____ _ ____ _ ____ _ ____ _ ____ _ ____
 70
0
 72
65
 73
4
 40
1
 49
0.5
 49
-0.25
 49
0
 49
-0.25
  0
LTYPE
  5
67B
  2
ByBlock
  3

 70
64
 72
65
 73
0
 40
0
  0
LTYPE
  5
67C
  2
ByLayer
  3

 70
64
 72
65
 73
0
 40
0
  0
ENDTAB
  0
TABLE
  2
LAYER
  5
6AD
 70
2
  0
LAYER
  5
660
 70
0
  2
0
 62
7
  6
CONTINUOUS
  0
LAYER
  5
661
 70
0
  2
SPEC
 62
7
  6
CONTINUOUS
  0
ENDTAB
  0
TABLE
  2
STYLE
  5
6AE
 70
4
  0
STYLE
  5
671
  2
STANDARD
 70
0
 40
0
 41
1
 50
0
 71
0
 42
0.2
  3
txt.shx
  4
extfont2.shx
  0
STYLE
  5
672
  2
ANNOTATIVE
 70
0
 40
0
 41
1
 50
0
 71
0
 42
0.2
  3
txt
  0
STYLE
  5
673
  2
EXCADSTD
 70
0
 40
0
 41
1
 50
0
 71
0
 42
0.2
  3
monotxt
  4
bigfont
  0
STYLE
  5
674
  2
EXCADVERT
 70
4
 40
0
 41
1
 50
0
 71
0
 42
0.286885
  3
monotxt
  4
bigfont
  0
ENDTAB
  0
TABLE
  2
APPID
  5
6B1
 70
4
  0
APPID
  5
6B2
  2
ACAD
 70
0
  0
APPID
  5
6B5
  2
ACADANNOTATIVE
 70
0
  0
APPID
  5
6B6
  2
ACAD_MLEADERVER
 70
0
  0
APPID
  5
6B7
  2
ACAD_EXEMPT_FROM_CAD_STANDARDS
 70
0
  0
ENDTAB
  0
TABLE
  2
DIMSTYLE
  5
6B3
 70
2
  0
DIMSTYLE
105
67D
  2
STANDARD
 70
0
  3

  4

  5

  6

  7

 40
1
 41
0.18
 42
0.0625
 43
0.38
 44
0.18
 45
0
 46
0
 47
0
 48
0
140
0.18
141
0.09
142
0
143
25.4
144
1
145
0
146
1
147
0.09
 71
0
 72
0
 73
1
 74
1
 75
0
 76
0
 77
0
 78
0
170
0
171
2
172
0
173
0
174
0
175
0
176
0
177
0
178
0
  0
DIMSTYLE
105
67E
  2
ANNOTATIVE
 70
0
  3

  4

  5

  6

  7

 40
1
 41
0.18
 42
0.0625
 43
0.38
 44
0.18
 45
0
 46
0
 47
0
 48
0
140
0.18
141
0.09
142
0
143
25.4
144
1
145
0
146
1
147
0.09
 71
0
 72
0
 73
1
 74
1
 75
0
 76
0
 77
0
 78
0
170
0
171
2
172
0
173
0
174
0
175
0
176
0
177
0
178
0
  0
ENDTAB
  0
ENDSEC
  0
SECTION
  2
BLOCKS
  0
BLOCK
  5
663
  8
0
  2
$MODEL_SPACE
 70
0
 10
0
 20
0
 30
0
  3
$MODEL_SPACE
  0
ENDBLK
  5
76
  8
0
  0
BLOCK
  5
665
  8
0
 67
1
  2
$PAPER_SPACE
 70
0
 10
0
 20
0
 30
0
  3
$PAPER_SPACE
  0
ENDBLK
  5
72
  8
0
  0
BLOCK
  5
667
  8
0
  2
SPECLC505C
 70
64
 10
0
 20
0
 30
0
  3
SPECLC505C
  0
ENDBLK
  5
668
  8
0
  0
BLOCK
  5
66A
  8
0
  2
*MODEL_SPACE
 70
64
 10
0
 20
0
 30
0
  3
*MODEL_SPACE
  0
ENDBLK
  5
66D
  8
0
  0
BLOCK
  5
66F
  8
0
 67
1
  2
*PAPER_SPACE
 70
64
 10
0
 20
0
 30
0
  3
*PAPER_SPACE
  0
ENDBLK
  5
670
  8
0
  0
ENDSEC
  0
SECTION
  2
ENTITIES
  0
TEXT
  5
84
  8
0
  6
CONTINUOUS
 62
7
 10
3
 20
91
 30
0
 40
4.5
  1
小型白熱灯　シーリング
 41
1.0600779114325221
 72
5
 11
71.900002479553208
 21
91
 31
0
  7
EXCADSTD
  0
TEXT
  5
85
  8
0
  6
CONTINUOUS
 62
7
 10
3
 20
7
 30
0
 40
4.5
  1
三菱　ＬＣ５０５Ｃ
 41
1.0101801052613031
 72
5
 11
50.7000017166138
 21
7
 31
0
  7
EXCADSTD
  0
POLYLINE
  5
332
  8
0
  6
CONTINUOUS
 66
1
 70
8
  0
VERTEX
  5
354
  8
0
 10
44.4107
 20
54.1765
 30
0
 70
32
  0
VERTEX
  5
355
  8
0
 10
44.4821
 20
54.2128
 30
0
 70
32
  0
VERTEX
  5
356
  8
0
 10
44.5494
 20
54.2497
 30
0
 70
32
  0
VERTEX
  5
357
  8
0
 10
44.6123
 20
54.2872
 30
0
 70
32
  0
VERTEX
  5
358
  8
0
 10
44.671
 20
54.3253
 30
0
 70
32
  0
VERTEX
  5
359
  8
0
 10
44.7252
 20
54.364
 30
0
 70
32
  0
VERTEX
  5
35A
  8
0
 10
44.775
 20
54.4031
 30
0
 70
32
  0
VERTEX
  5
35B
  8
0
 10
44.8203
 20
54.4427
 30
0
 70
32
  0
VERTEX
  5
35C
  8
0
 10
44.861
 20
54.4826
 30
0
 70
32
  0
VERTEX
  5
35D
  8
0
 10
44.8971
 20
54.523
 30
0
 70
32
  0
VERTEX
  5
35E
  8
0
 10
44.9286
 20
54.5636
 30
0
 70
32
  0
VERTEX
  5
35F
  8
0
 10
44.9554
 20
54.6046
 30
0
 70
32
  0
VERTEX
  5
360
  8
0
 10
44.9774
 20
54.6457
 30
0
 70
32
  0
VERTEX
  5
361
  8
0
 10
44.9948
 20
54.6871
 30
0
 70
32
  0
VERTEX
  5
362
  8
0
 10
45.0074
 20
54.7286
 30
0
 70
32
  0
VERTEX
  5
363
  8
0
 10
45.0152
 20
54.7701
 30
0
 70
32
  0
VERTEX
  5
364
  8
0
 10
45.0183
 20
54.8118
 30
0
 70
32
  0
VERTEX
  5
365
  8
0
 10
45.0165
 20
54.8534
 30
0
 70
32
  0
VERTEX
  5
366
  8
0
 10
45.01
 20
54.895
 30
0
 70
32
  0
VERTEX
  5
367
  8
0
 10
44.9988
 20
54.9365
 30
0
 70
32
  0
VERTEX
  5
368
  8
0
 10
44.9828
 20
54.9779
 30
0
 70
32
  0
VERTEX
  5
369
  8
0
 10
44.962
 20
55.0191
 30
0
 70
32
  0
VERTEX
  5
36A
  8
0
 10
44.9366
 20
55.0601
 30
0
 70
32
  0
VERTEX
  5
36B
  8
0
 10
44.9064
 20
55.1009
 30
0
 70
32
  0
VERTEX
  5
36C
  8
0
 10
44.8716
 20
55.1413
 30
0
 70
32
  0
VERTEX
  5
36D
  8
0
 10
44.8322
 20
55.1814
 30
0
 70
32
  0
VERTEX
  5
36E
  8
0
 10
44.7882
 20
55.2211
 30
0
 70
32
  0
VERTEX
  5
36F
  8
0
 10
44.7397
 20
55.2603
 30
0
 70
32
  0
VERTEX
  5
370
  8
0
 10
44.6867
 20
55.2991
 30
0
 70
32
  0
VERTEX
  5
371
  8
0
 10
44.6293
 20
55.3374
 30
0
 70
32
  0
VERTEX
  5
372
  8
0
 10
44.5675
 20
55.3751
 30
0
 70
32
  0
VERTEX
  5
373
  8
0
 10
44.5014
 20
55.4122
 30
0
 70
32
  0
VERTEX
  5
374
  8
0
 10
44.4311
 20
55.4487
 30
0
 70
32
  0
VERTEX
  5
375
  8
0
 10
44.3567
 20
55.4844
 30
0
 70
32
  0
VERTEX
  5
376
  8
0
 10
44.2782
 20
55.5195
 30
0
 70
32
  0
VERTEX
  5
377
  8
0
 10
44.1958
 20
55.5538
 30
0
 70
32
  0
VERTEX
  5
378
  8
0
 10
44.1094
 20
55.5873
 30
0
 70
32
  0
VERTEX
  5
379
  8
0
 10
44.0193
 20
55.62
 30
0
 70
32
  0
VERTEX
  5
37A
  8
0
 10
43.9254
 20
55.6518
 30
0
 70
32
  0
VERTEX
  5
37B
  8
0
 10
43.828
 20
55.6828
 30
0
 70
32
  0
VERTEX
  5
37C
  8
0
 10
43.727
 20
55.7127
 30
0
 70
32
  0
VERTEX
  5
37D
  8
0
 10
43.6227
 20
55.7418
 30
0
 70
32
  0
VERTEX
  5
37E
  8
0
 10
43.5151
 20
55.7698
 30
0
 70
32
  0
VERTEX
  5
37F
  8
0
 10
43.4043
 20
55.7968
 30
0
 70
32
  0
VERTEX
  5
380
  8
0
 10
43.2906
 20
55.8228
 30
0
 70
32
  0
VERTEX
  5
381
  8
0
 10
43.1739
 20
55.8476
 30
0
 70
32
  0
VERTEX
  5
382
  8
0
 10
43.0544
 20
55.8714
 30
0
 70
32
  0
VERTEX
  5
383
  8
0
 10
42.9322
 20
55.894
 30
0
 70
32
  0
VERTEX
  5
384
  8
0
 10
42.8075
 20
55.9155
 30
0
 70
32
  0
VERTEX
  5
385
  8
0
 10
42.6805
 20
55.9358
 30
0
 70
32
  0
VERTEX
  5
386
  8
0
 10
42.5511
 20
55.9548
 30
0
 70
32
  0
VERTEX
  5
387
  8
0
 10
42.4197
 20
55.9727
 30
0
 70
32
  0
VERTEX
  5
388
  8
0
 10
42.2863
 20
55.9893
 30
0
 70
32
  0
VERTEX
  5
389
  8
0
 10
42.151
 20
56.0046
 30
0
 70
32
  0
VERTEX
  5
38A
  8
0
 10
42.014
 20
56.0187
 30
0
 70
32
  0
VERTEX
  5
38B
  8
0
 10
41.8756
 20
56.0315
 30
0
 70
32
  0
VERTEX
  5
38C
  8
0
 10
41.7357
 20
56.043
 30
0
 70
32
  0
VERTEX
  5
38D
  8
0
 10
41.5946
 20
56.0531
 30
0
 70
32
  0
VERTEX
  5
38E
  8
0
 10
41.4524
 20
56.0619
 30
0
 70
32
  0
VERTEX
  5
38F
  8
0
 10
41.3092
 20
56.0694
 30
0
 70
32
  0
VERTEX
  5
390
  8
0
 10
41.1653
 20
56.0755
 30
0
 70
32
  0
VERTEX
  5
391
  8
0
 10
41.0208
 20
56.0803
 30
0
 70
32
  0
VERTEX
  5
392
  8
0
 10
40.8758
 20
56.0837
 30
0
 70
32
  0
VERTEX
  5
393
  8
0
 10
40.7304
 20
56.0858
 30
0
 70
32
  0
VERTEX
  5
394
  8
0
 10
40.585
 20
56.0864
 30
0
 70
32
  0
VERTEX
  5
395
  8
0
 10
40.4395
 20
56.0858
 30
0
 70
32
  0
VERTEX
  5
396
  8
0
 10
40.2942
 20
56.0837
 30
0
 70
32
  0
VERTEX
  5
397
  8
0
 10
40.1492
 20
56.0803
 30
0
 70
32
  0
VERTEX
  5
398
  8
0
 10
40.0046
 20
56.0755
 30
0
 70
32
  0
VERTEX
  5
399
  8
0
 10
39.8607
 20
56.0694
 30
0
 70
32
  0
VERTEX
  5
39A
  8
0
 10
39.7176
 20
56.0619
 30
0
 70
32
  0
VERTEX
  5
39B
  8
0
 10
39.5754
 20
56.0531
 30
0
 70
32
  0
VERTEX
  5
39C
  8
0
 10
39.4343
 20
56.043
 30
0
 70
32
  0
VERTEX
  5
39D
  8
0
 10
39.2944
 20
56.0315
 30
0
 70
32
  0
VERTEX
  5
39E
  8
0
 10
39.1559
 20
56.0187
 30
0
 70
32
  0
VERTEX
  5
39F
  8
0
 10
39.0189
 20
56.0046
 30
0
 70
32
  0
VERTEX
  5
3A0
  8
0
 10
38.8837
 20
55.9893
 30
0
 70
32
  0
VERTEX
  5
3A1
  8
0
 10
38.7503
 20
55.9727
 30
0
 70
32
  0
VERTEX
  5
3A2
  8
0
 10
38.6188
 20
55.9548
 30
0
 70
32
  0
VERTEX
  5
3A3
  8
0
 10
38.4895
 20
55.9358
 30
0
 70
32
  0
VERTEX
  5
3A4
  8
0
 10
38.3624
 20
55.9155
 30
0
 70
32
  0
VERTEX
  5
3A5
  8
0
 10
38.2377
 20
55.894
 30
0
 70
32
  0
VERTEX
  5
3A6
  8
0
 10
38.1156
 20
55.8714
 30
0
 70
32
  0
VERTEX
  5
3A7
  8
0
 10
37.9961
 20
55.8476
 30
0
 70
32
  0
VERTEX
  5
3A8
  8
0
 10
37.8794
 20
55.8228
 30
0
 70
32
  0
VERTEX
  5
3A9
  8
0
 10
37.7656
 20
55.7968
 30
0
 70
32
  0
VERTEX
  5
3AA
  8
0
 10
37.6548
 20
55.7698
 30
0
 70
32
  0
VERTEX
  5
3AB
  8
0
 10
37.5472
 20
55.7418
 30
0
 70
32
  0
VERTEX
  5
3AC
  8
0
 10
37.4429
 20
55.7127
 30
0
 70
32
  0
VERTEX
  5
3AD
  8
0
 10
37.342
 20
55.6828
 30
0
 70
32
  0
VERTEX
  5
3AE
  8
0
 10
37.2445
 20
55.6518
 30
0
 70
32
  0
VERTEX
  5
3AF
  8
0
 10
37.1507
 20
55.62
 30
0
 70
32
  0
VERTEX
  5
3B0
  8
0
 10
37.0605
 20
55.5873
 30
0
 70
32
  0
VERTEX
  5
3B1
  8
0
 10
36.9742
 20
55.5538
 30
0
 70
32
  0
VERTEX
  5
3B2
  8
0
 10
36.8917
 20
55.5195
 30
0
 70
32
  0
VERTEX
  5
3B3
  8
0
 10
36.8132
 20
55.4844
 30
0
 70
32
  0
VERTEX
  5
3B4
  8
0
 10
36.7388
 20
55.4487
 30
0
 70
32
  0
VERTEX
  5
3B5
  8
0
 10
36.6685
 20
55.4122
 30
0
 70
32
  0
VERTEX
  5
3B6
  8
0
 10
36.6025
 20
55.3751
 30
0
 70
32
  0
VERTEX
  5
3B7
  8
0
 10
36.5407
 20
55.3374
 30
0
 70
32
  0
VERTEX
  5
3B8
  8
0
 10
36.4833
 20
55.2991
 30
0
 70
32
  0
VERTEX
  5
3B9
  8
0
 10
36.4303
 20
55.2603
 30
0
 70
32
  0
VERTEX
  5
3BA
  8
0
 10
36.3817
 20
55.2211
 30
0
 70
32
  0
VERTEX
  5
3BB
  8
0
 10
36.3377
 20
55.1814
 30
0
 70
32
  0
VERTEX
  5
3BC
  8
0
 10
36.2983
 20
55.1413
 30
0
 70
32
  0
VERTEX
  5
3BD
  8
0
 10
36.2635
 20
55.1009
 30
0
 70
32
  0
VERTEX
  5
3BE
  8
0
 10
36.2334
 20
55.0601
 30
0
 70
32
  0
VERTEX
  5
3BF
  8
0
 10
36.2079
 20
55.0191
 30
0
 70
32
  0
VERTEX
  5
3C0
  8
0
 10
36.1872
 20
54.9779
 30
0
 70
32
  0
VERTEX
  5
3C1
  8
0
 10
36.1711
 20
54.9365
 30
0
 70
32
  0
VERTEX
  5
3C2
  8
0
 10
36.1599
 20
54.895
 30
0
 70
32
  0
VERTEX
  5
3C3
  8
0
 10
36.1534
 20
54.8534
 30
0
 70
32
  0
VERTEX
  5
3C4
  8
0
 10
36.1517
 20
54.8118
 30
0
 70
32
  0
VERTEX
  5
3C5
  8
0
 10
36.1547
 20
54.7701
 30
0
 70
32
  0
VERTEX
  5
3C6
  8
0
 10
36.1626
 20
54.7286
 30
0
 70
32
  0
VERTEX
  5
3C7
  8
0
 10
36.1752
 20
54.6871
 30
0
 70
32
  0
VERTEX
  5
3C8
  8
0
 10
36.1925
 20
54.6457
 30
0
 70
32
  0
VERTEX
  5
3C9
  8
0
 10
36.2146
 20
54.6046
 30
0
 70
32
  0
VERTEX
  5
3CA
  8
0
 10
36.2414
 20
54.5636
 30
0
 70
32
  0
VERTEX
  5
3CB
  8
0
 10
36.2728
 20
54.523
 30
0
 70
32
  0
VERTEX
  5
3CC
  8
0
 10
36.3089
 20
54.4826
 30
0
 70
32
  0
VERTEX
  5
3CD
  8
0
 10
36.3496
 20
54.4427
 30
0
 70
32
  0
VERTEX
  5
3CE
  8
0
 10
36.3949
 20
54.4031
 30
0
 70
32
  0
VERTEX
  5
3CF
  8
0
 10
36.4447
 20
54.364
 30
0
 70
32
  0
VERTEX
  5
3D0
  8
0
 10
36.4989
 20
54.3253
 30
0
 70
32
  0
VERTEX
  5
3D1
  8
0
 10
36.5576
 20
54.2872
 30
0
 70
32
  0
VERTEX
  5
3D2
  8
0
 10
36.6206
 20
54.2497
 30
0
 70
32
  0
VERTEX
  5
3D3
  8
0
 10
36.6878
 20
54.2128
 30
0
 70
32
  0
VERTEX
  5
3D4
  8
0
 10
36.7593
 20
54.1765
 30
0
 70
32
  0
SEQEND
  5
3D5
  8
0
  0
POLYLINE
  5
333
  8
0
  6
CONTINUOUS
 66
1
 70
8
  0
VERTEX
  5
3D6
  8
0
 10
45.2702
 20
53.6748
 30
0
 70
32
  0
VERTEX
  5
3D7
  8
0
 10
45.3706
 20
53.7225
 30
0
 70
32
  0
VERTEX
  5
3D8
  8
0
 10
45.4656
 20
53.7713
 30
0
 70
32
  0
VERTEX
  5
3D9
  8
0
 10
45.5551
 20
53.8209
 30
0
 70
32
  0
VERTEX
  5
3DA
  8
0
 10
45.6389
 20
53.8715
 30
0
 70
32
  0
VERTEX
  5
3DB
  8
0
 10
45.7171
 20
53.9228
 30
0
 70
32
  0
VERTEX
  5
3DC
  8
0
 10
45.7895
 20
53.9749
 30
0
 70
32
  0
VERTEX
  5
3DD
  8
0
 10
45.856
 20
54.0277
 30
0
 70
32
  0
VERTEX
  5
3DE
  8
0
 10
45.9166
 20
54.0811
 30
0
 70
32
  0
VERTEX
  5
3DF
  8
0
 10
45.9711
 20
54.1352
 30
0
 70
32
  0
VERTEX
  5
3E0
  8
0
 10
46.0196
 20
54.1897
 30
0
 70
32
  0
VERTEX
  5
3E1
  8
0
 10
46.0619
 20
54.2447
 30
0
 70
32
  0
VERTEX
  5
3E2
  8
0
 10
46.098
 20
54.3001
 30
0
 70
32
  0
VERTEX
  5
3E3
  8
0
 10
46.1279
 20
54.3558
 30
0
 70
32
  0
VERTEX
  5
3E4
  8
0
 10
46.1516
 20
54.4118
 30
0
 70
32
  0
VERTEX
  5
3E5
  8
0
 10
46.169
 20
54.468
 30
0
 70
32
  0
VERTEX
  5
3E6
  8
0
 10
46.18
 20
54.5244
 30
0
 70
32
  0
VERTEX
  5
3E7
  8
0
 10
46.1848
 20
54.5808
 30
0
 70
32
  0
VERTEX
  5
3E8
  8
0
 10
46.1832
 20
54.6373
 30
0
 70
32
  0
VERTEX
  5
3E9
  8
0
 10
46.1753
 20
54.6937
 30
0
 70
32
  0
VERTEX
  5
3EA
  8
0
 10
46.1611
 20
54.75
 30
0
 70
32
  0
VERTEX
  5
3EB
  8
0
 10
46.1406
 20
54.8061
 30
0
 70
32
  0
VERTEX
  5
3EC
  8
0
 10
46.1138
 20
54.8619
 30
0
 70
32
  0
VERTEX
  5
3ED
  8
0
 10
46.0808
 20
54.9175
 30
0
 70
32
  0
VERTEX
  5
3EE
  8
0
 10
46.0416
 20
54.9727
 30
0
 70
32
  0
VERTEX
  5
3EF
  8
0
 10
45.9962
 20
55.0275
 30
0
 70
32
  0
VERTEX
  5
3F0
  8
0
 10
45.9448
 20
55.0818
 30
0
 70
32
  0
VERTEX
  5
3F1
  8
0
 10
45.8872
 20
55.1355
 30
0
 70
32
  0
VERTEX
  5
3F2
  8
0
 10
45.8237
 20
55.1887
 30
0
 70
32
  0
VERTEX
  5
3F3
  8
0
 10
45.7543
 20
55.2411
 30
0
 70
32
  0
VERTEX
  5
3F4
  8
0
 10
45.679
 20
55.2929
 30
0
 70
32
  0
VERTEX
  5
3F5
  8
0
 10
45.598
 20
55.3438
 30
0
 70
32
  0
VERTEX
  5
3F6
  8
0
 10
45.5113
 20
55.3939
 30
0
 70
32
  0
VERTEX
  5
3F7
  8
0
 10
45.4191
 20
55.4431
 30
0
 70
32
  0
VERTEX
  5
3F8
  8
0
 10
45.3214
 20
55.4913
 30
0
 70
32
  0
VERTEX
  5
3F9
  8
0
 10
45.2183
 20
55.5386
 30
0
 70
32
  0
VERTEX
  5
3FA
  8
0
 10
45.11
 20
55.5847
 30
0
 70
32
  0
VERTEX
  5
3FB
  8
0
 10
44.9966
 20
55.6298
 30
0
 70
32
  0
VERTEX
  5
3FC
  8
0
 10
44.8783
 20
55.6737
 30
0
 70
32
  0
VERTEX
  5
3FD
  8
0
 10
44.7551
 20
55.7163
 30
0
 70
32
  0
VERTEX
  5
3FE
  8
0
 10
44.6271
 20
55.7577
 30
0
 70
32
  0
VERTEX
  5
3FF
  8
0
 10
44.4947
 20
55.7978
 30
0
 70
32
  0
VERTEX
  5
400
  8
0
 10
44.3578
 20
55.8365
 30
0
 70
32
  0
VERTEX
  5
401
  8
0
 10
44.2166
 20
55.8739
 30
0
 70
32
  0
VERTEX
  5
402
  8
0
 10
44.0714
 20
55.9097
 30
0
 70
32
  0
VERTEX
  5
403
  8
0
 10
43.9222
 20
55.9441
 30
0
 70
32
  0
VERTEX
  5
404
  8
0
 10
43.7692
 20
55.977
 30
0
 70
32
  0
VERTEX
  5
405
  8
0
 10
43.6126
 20
56.0083
 30
0
 70
32
  0
VERTEX
  5
406
  8
0
 10
43.4527
 20
56.038
 30
0
 70
32
  0
VERTEX
  5
407
  8
0
 10
43.2895
 20
56.0661
 30
0
 70
32
  0
VERTEX
  5
408
  8
0
 10
43.1232
 20
56.0925
 30
0
 70
32
  0
VERTEX
  5
409
  8
0
 10
42.9541
 20
56.1173
 30
0
 70
32
  0
VERTEX
  5
40A
  8
0
 10
42.7823
 20
56.1403
 30
0
 70
32
  0
VERTEX
  5
40B
  8
0
 10
42.608
 20
56.1616
 30
0
 70
32
  0
VERTEX
  5
40C
  8
0
 10
42.4314
 20
56.1811
 30
0
 70
32
  0
VERTEX
  5
40D
  8
0
 10
42.2528
 20
56.1988
 30
0
 70
32
  0
VERTEX
  5
40E
  8
0
 10
42.0722
 20
56.2147
 30
0
 70
32
  0
VERTEX
  5
40F
  8
0
 10
41.89
 20
56.2288
 30
0
 70
32
  0
VERTEX
  5
410
  8
0
 10
41.7063
 20
56.241
 30
0
 70
32
  0
VERTEX
  5
411
  8
0
 10
41.5214
 20
56.2514
 30
0
 70
32
  0
VERTEX
  5
412
  8
0
 10
41.3354
 20
56.2599
 30
0
 70
32
  0
VERTEX
  5
413
  8
0
 10
41.1485
 20
56.2665
 30
0
 70
32
  0
VERTEX
  5
414
  8
0
 10
40.961
 20
56.2712
 30
0
 70
32
  0
VERTEX
  5
415
  8
0
 10
40.7731
 20
56.2741
 30
0
 70
32
  0
VERTEX
  5
416
  8
0
 10
40.585
 20
56.275
 30
0
 70
32
  0
VERTEX
  5
417
  8
0
 10
40.3968
 20
56.2741
 30
0
 70
32
  0
VERTEX
  5
418
  8
0
 10
40.2089
 20
56.2712
 30
0
 70
32
  0
VERTEX
  5
419
  8
0
 10
40.0214
 20
56.2665
 30
0
 70
32
  0
VERTEX
  5
41A
  8
0
 10
39.8346
 20
56.2599
 30
0
 70
32
  0
VERTEX
  5
41B
  8
0
 10
39.6486
 20
56.2514
 30
0
 70
32
  0
VERTEX
  5
41C
  8
0
 10
39.4636
 20
56.241
 30
0
 70
32
  0
VERTEX
  5
41D
  8
0
 10
39.2799
 20
56.2288
 30
0
 70
32
  0
VERTEX
  5
41E
  8
0
 10
39.0977
 20
56.2147
 30
0
 70
32
  0
VERTEX
  5
41F
  8
0
 10
38.9172
 20
56.1988
 30
0
 70
32
  0
VERTEX
  5
420
  8
0
 10
38.7385
 20
56.1811
 30
0
 70
32
  0
VERTEX
  5
421
  8
0
 10
38.562
 20
56.1616
 30
0
 70
32
  0
VERTEX
  5
422
  8
0
 10
38.3877
 20
56.1403
 30
0
 70
32
  0
VERTEX
  5
423
  8
0
 10
38.2159
 20
56.1173
 30
0
 70
32
  0
VERTEX
  5
424
  8
0
 10
38.0467
 20
56.0925
 30
0
 70
32
  0
VERTEX
  5
425
  8
0
 10
37.8805
 20
56.0661
 30
0
 70
32
  0
VERTEX
  5
426
  8
0
 10
37.7173
 20
56.038
 30
0
 70
32
  0
VERTEX
  5
427
  8
0
 10
37.5573
 20
56.0083
 30
0
 70
32
  0
VERTEX
  5
428
  8
0
 10
37.4007
 20
55.977
 30
0
 70
32
  0
VERTEX
  5
429
  8
0
 10
37.2478
 20
55.9441
 30
0
 70
32
  0
VERTEX
  5
42A
  8
0
 10
37.0986
 20
55.9097
 30
0
 70
32
  0
VERTEX
  5
42B
  8
0
 10
36.9533
 20
55.8739
 30
0
 70
32
  0
VERTEX
  5
42C
  8
0
 10
36.8122
 20
55.8365
 30
0
 70
32
  0
VERTEX
  5
42D
  8
0
 10
36.6753
 20
55.7978
 30
0
 70
32
  0
VERTEX
  5
42E
  8
0
 10
36.5428
 20
55.7577
 30
0
 70
32
  0
VERTEX
  5
42F
  8
0
 10
36.4149
 20
55.7163
 30
0
 70
32
  0
VERTEX
  5
430
  8
0
 10
36.2917
 20
55.6737
 30
0
 70
32
  0
VERTEX
  5
431
  8
0
 10
36.1733
 20
55.6298
 30
0
 70
32
  0
VERTEX
  5
432
  8
0
 10
36.0599
 20
55.5847
 30
0
 70
32
  0
VERTEX
  5
433
  8
0
 10
35.9516
 20
55.5386
 30
0
 70
32
  0
VERTEX
  5
434
  8
0
 10
35.8486
 20
55.4913
 30
0
 70
32
  0
VERTEX
  5
435
  8
0
 10
35.7509
 20
55.4431
 30
0
 70
32
  0
VERTEX
  5
436
  8
0
 10
35.6586
 20
55.3939
 30
0
 70
32
  0
VERTEX
  5
437
  8
0
 10
35.572
 20
55.3438
 30
0
 70
32
  0
VERTEX
  5
438
  8
0
 10
35.4909
 20
55.2929
 30
0
 70
32
  0
VERTEX
  5
439
  8
0
 10
35.4157
 20
55.2411
 30
0
 70
32
  0
VERTEX
  5
43A
  8
0
 10
35.3462
 20
55.1887
 30
0
 70
32
  0
VERTEX
  5
43B
  8
0
 10
35.2827
 20
55.1355
 30
0
 70
32
  0
VERTEX
  5
43C
  8
0
 10
35.2252
 20
55.0818
 30
0
 70
32
  0
VERTEX
  5
43D
  8
0
 10
35.1737
 20
55.0275
 30
0
 70
32
  0
VERTEX
  5
43E
  8
0
 10
35.1283
 20
54.9727
 30
0
 70
32
  0
VERTEX
  5
43F
  8
0
 10
35.0891
 20
54.9175
 30
0
 70
32
  0
VERTEX
  5
440
  8
0
 10
35.0561
 20
54.8619
 30
0
 70
32
  0
VERTEX
  5
441
  8
0
 10
35.0293
 20
54.8061
 30
0
 70
32
  0
VERTEX
  5
442
  8
0
 10
35.0088
 20
54.75
 30
0
 70
32
  0
VERTEX
  5
443
  8
0
 10
34.9946
 20
54.6937
 30
0
 70
32
  0
VERTEX
  5
444
  8
0
 10
34.9867
 20
54.6373
 30
0
 70
32
  0
VERTEX
  5
445
  8
0
 10
34.9852
 20
54.5808
 30
0
 70
32
  0
VERTEX
  5
446
  8
0
 10
34.9899
 20
54.5244
 30
0
 70
32
  0
VERTEX
  5
447
  8
0
 10
35.001
 20
54.468
 30
0
 70
32
  0
VERTEX
  5
448
  8
0
 10
35.0184
 20
54.4118
 30
0
 70
32
  0
VERTEX
  5
449
  8
0
 10
35.042
 20
54.3558
 30
0
 70
32
  0
VERTEX
  5
44A
  8
0
 10
35.0719
 20
54.3001
 30
0
 70
32
  0
VERTEX
  5
44B
  8
0
 10
35.1081
 20
54.2447
 30
0
 70
32
  0
VERTEX
  5
44C
  8
0
 10
35.1504
 20
54.1897
 30
0
 70
32
  0
VERTEX
  5
44D
  8
0
 10
35.1988
 20
54.1352
 30
0
 70
32
  0
VERTEX
  5
44E
  8
0
 10
35.2534
 20
54.0811
 30
0
 70
32
  0
VERTEX
  5
44F
  8
0
 10
35.3139
 20
54.0277
 30
0
 70
32
  0
VERTEX
  5
450
  8
0
 10
35.3804
 20
53.9749
 30
0
 70
32
  0
VERTEX
  5
451
  8
0
 10
35.4528
 20
53.9228
 30
0
 70
32
  0
VERTEX
  5
452
  8
0
 10
35.531
 20
53.8715
 30
0
 70
32
  0
VERTEX
  5
453
  8
0
 10
35.6149
 20
53.8209
 30
0
 70
32
  0
VERTEX
  5
454
  8
0
 10
35.7044
 20
53.7713
 30
0
 70
32
  0
VERTEX
  5
455
  8
0
 10
35.7994
 20
53.7225
 30
0
 70
32
  0
VERTEX
  5
456
  8
0
 10
35.8998
 20
53.6748
 30
0
 70
32
  0
SEQEND
  5
457
  8
0
  0
ARC
  5
334
  8
0
  6
DIVIDE
 10
40.58496980371131
 20
43.576324620380753
 30
0
 40
11.083333
 50
120.2706910000004
 51
59.72930899999956
  0
ARC
  5
335
  8
0
  6
DIVIDE
 10
36.37238380371133
 20
54.962156620380753
 30
0
 40
0.873586
 50
300.27069100000051
 51
0
  0
LINE
  5
336
  8
0
  6
DIVIDE
 10
34.998017803711321
 20
53.148484620380749
 30
0
 11
36.81274680371132
 21
54.207680620380749
 31
0
  0
LINE
  5
337
  8
0
  6
DIVIDE
 10
37.245969803711318
 20
54.962156620380753
 30
0
 11
37.245969803711318
 21
55.151524620380769
 31
0
  0
POLYLINE
  5
338
  8
0
  6
DIVIDE
 66
1
 70
8
  0
VERTEX
  5
458
  8
0
 10
38.5402
 20
55.9434
 30
0
 70
32
  0
VERTEX
  5
459
  8
0
 10
38.5215
 20
55.939
 30
0
 70
32
  0
VERTEX
  5
45A
  8
0
 10
38.5028
 20
55.9346
 30
0
 70
32
  0
VERTEX
  5
45B
  8
0
 10
38.4843
 20
55.9301
 30
0
 70
32
  0
VERTEX
  5
45C
  8
0
 10
38.4659
 20
55.9256
 30
0
 70
32
  0
VERTEX
  5
45D
  8
0
 10
38.4475
 20
55.9211
 30
0
 70
32
  0
VERTEX
  5
45E
  8
0
 10
38.4293
 20
55.9165
 30
0
 70
32
  0
VERTEX
  5
45F
  8
0
 10
38.4112
 20
55.9119
 30
0
 70
32
  0
VERTEX
  5
460
  8
0
 10
38.3932
 20
55.9072
 30
0
 70
32
  0
VERTEX
  5
461
  8
0
 10
38.3753
 20
55.9025
 30
0
 70
32
  0
VERTEX
  5
462
  8
0
 10
38.3575
 20
55.8978
 30
0
 70
32
  0
VERTEX
  5
463
  8
0
 10
38.3399
 20
55.893
 30
0
 70
32
  0
VERTEX
  5
464
  8
0
 10
38.3223
 20
55.8882
 30
0
 70
32
  0
VERTEX
  5
465
  8
0
 10
38.3049
 20
55.8833
 30
0
 70
32
  0
VERTEX
  5
466
  8
0
 10
38.2876
 20
55.8784
 30
0
 70
32
  0
VERTEX
  5
467
  8
0
 10
38.2704
 20
55.8735
 30
0
 70
32
  0
VERTEX
  5
468
  8
0
 10
38.2533
 20
55.8685
 30
0
 70
32
  0
VERTEX
  5
469
  8
0
 10
38.2363
 20
55.8635
 30
0
 70
32
  0
VERTEX
  5
46A
  8
0
 10
38.2195
 20
55.8585
 30
0
 70
32
  0
VERTEX
  5
46B
  8
0
 10
38.2028
 20
55.8534
 30
0
 70
32
  0
VERTEX
  5
46C
  8
0
 10
38.1862
 20
55.8483
 30
0
 70
32
  0
VERTEX
  5
46D
  8
0
 10
38.1697
 20
55.8432
 30
0
 70
32
  0
VERTEX
  5
46E
  8
0
 10
38.1533
 20
55.838
 30
0
 70
32
  0
VERTEX
  5
46F
  8
0
 10
38.1371
 20
55.8328
 30
0
 70
32
  0
VERTEX
  5
470
  8
0
 10
38.121
 20
55.8275
 30
0
 70
32
  0
VERTEX
  5
471
  8
0
 10
38.105
 20
55.8223
 30
0
 70
32
  0
VERTEX
  5
472
  8
0
 10
38.0891
 20
55.8169
 30
0
 70
32
  0
VERTEX
  5
473
  8
0
 10
38.0734
 20
55.8116
 30
0
 70
32
  0
VERTEX
  5
474
  8
0
 10
38.0578
 20
55.8062
 30
0
 70
32
  0
VERTEX
  5
475
  8
0
 10
38.0423
 20
55.8008
 30
0
 70
32
  0
VERTEX
  5
476
  8
0
 10
38.0269
 20
55.7953
 30
0
 70
32
  0
VERTEX
  5
477
  8
0
 10
38.0117
 20
55.7899
 30
0
 70
32
  0
VERTEX
  5
478
  8
0
 10
37.9966
 20
55.7843
 30
0
 70
32
  0
VERTEX
  5
479
  8
0
 10
37.9817
 20
55.7788
 30
0
 70
32
  0
VERTEX
  5
47A
  8
0
 10
37.9669
 20
55.7732
 30
0
 70
32
  0
VERTEX
  5
47B
  8
0
 10
37.9522
 20
55.7676
 30
0
 70
32
  0
VERTEX
  5
47C
  8
0
 10
37.9376
 20
55.762
 30
0
 70
32
  0
VERTEX
  5
47D
  8
0
 10
37.9232
 20
55.7563
 30
0
 70
32
  0
VERTEX
  5
47E
  8
0
 10
37.9089
 20
55.7506
 30
0
 70
32
  0
VERTEX
  5
47F
  8
0
 10
37.8947
 20
55.7449
 30
0
 70
32
  0
VERTEX
  5
480
  8
0
 10
37.8807
 20
55.7391
 30
0
 70
32
  0
VERTEX
  5
481
  8
0
 10
37.8668
 20
55.7333
 30
0
 70
32
  0
VERTEX
  5
482
  8
0
 10
37.8531
 20
55.7275
 30
0
 70
32
  0
VERTEX
  5
483
  8
0
 10
37.8395
 20
55.7216
 30
0
 70
32
  0
VERTEX
  5
484
  8
0
 10
37.826
 20
55.7157
 30
0
 70
32
  0
VERTEX
  5
485
  8
0
 10
37.8127
 20
55.7098
 30
0
 70
32
  0
VERTEX
  5
486
  8
0
 10
37.7995
 20
55.7039
 30
0
 70
32
  0
VERTEX
  5
487
  8
0
 10
37.7865
 20
55.6979
 30
0
 70
32
  0
VERTEX
  5
488
  8
0
 10
37.7736
 20
55.6919
 30
0
 70
32
  0
VERTEX
  5
489
  8
0
 10
37.7608
 20
55.6859
 30
0
 70
32
  0
VERTEX
  5
48A
  8
0
 10
37.7482
 20
55.6799
 30
0
 70
32
  0
VERTEX
  5
48B
  8
0
 10
37.7357
 20
55.6738
 30
0
 70
32
  0
VERTEX
  5
48C
  8
0
 10
37.7234
 20
55.6677
 30
0
 70
32
  0
VERTEX
  5
48D
  8
0
 10
37.7112
 20
55.6616
 30
0
 70
32
  0
VERTEX
  5
48E
  8
0
 10
37.6992
 20
55.6554
 30
0
 70
32
  0
VERTEX
  5
48F
  8
0
 10
37.6873
 20
55.6492
 30
0
 70
32
  0
VERTEX
  5
490
  8
0
 10
37.6755
 20
55.643
 30
0
 70
32
  0
VERTEX
  5
491
  8
0
 10
37.6639
 20
55.6368
 30
0
 70
32
  0
VERTEX
  5
492
  8
0
 10
37.6525
 20
55.6305
 30
0
 70
32
  0
VERTEX
  5
493
  8
0
 10
37.6412
 20
55.6243
 30
0
 70
32
  0
VERTEX
  5
494
  8
0
 10
37.63
 20
55.618
 30
0
 70
32
  0
VERTEX
  5
495
  8
0
 10
37.619
 20
55.6116
 30
0
 70
32
  0
VERTEX
  5
496
  8
0
 10
37.6082
 20
55.6053
 30
0
 70
32
  0
VERTEX
  5
497
  8
0
 10
37.5975
 20
55.5989
 30
0
 70
32
  0
VERTEX
  5
498
  8
0
 10
37.5869
 20
55.5925
 30
0
 70
32
  0
VERTEX
  5
499
  8
0
 10
37.5765
 20
55.5861
 30
0
 70
32
  0
VERTEX
  5
49A
  8
0
 10
37.5663
 20
55.5797
 30
0
 70
32
  0
VERTEX
  5
49B
  8
0
 10
37.5562
 20
55.5732
 30
0
 70
32
  0
VERTEX
  5
49C
  8
0
 10
37.5463
 20
55.5667
 30
0
 70
32
  0
VERTEX
  5
49D
  8
0
 10
37.5365
 20
55.5602
 30
0
 70
32
  0
VERTEX
  5
49E
  8
0
 10
37.5269
 20
55.5537
 30
0
 70
32
  0
VERTEX
  5
49F
  8
0
 10
37.5174
 20
55.5471
 30
0
 70
32
  0
VERTEX
  5
4A0
  8
0
 10
37.5081
 20
55.5406
 30
0
 70
32
  0
VERTEX
  5
4A1
  8
0
 10
37.4989
 20
55.534
 30
0
 70
32
  0
VERTEX
  5
4A2
  8
0
 10
37.4899
 20
55.5274
 30
0
 70
32
  0
VERTEX
  5
4A3
  8
0
 10
37.4811
 20
55.5208
 30
0
 70
32
  0
VERTEX
  5
4A4
  8
0
 10
37.4724
 20
55.5141
 30
0
 70
32
  0
VERTEX
  5
4A5
  8
0
 10
37.4639
 20
55.5075
 30
0
 70
32
  0
VERTEX
  5
4A6
  8
0
 10
37.4555
 20
55.5008
 30
0
 70
32
  0
VERTEX
  5
4A7
  8
0
 10
37.4473
 20
55.4941
 30
0
 70
32
  0
VERTEX
  5
4A8
  8
0
 10
37.4392
 20
55.4874
 30
0
 70
32
  0
VERTEX
  5
4A9
  8
0
 10
37.4313
 20
55.4806
 30
0
 70
32
  0
VERTEX
  5
4AA
  8
0
 10
37.4236
 20
55.4739
 30
0
 70
32
  0
VERTEX
  5
4AB
  8
0
 10
37.416
 20
55.4671
 30
0
 70
32
  0
VERTEX
  5
4AC
  8
0
 10
37.4086
 20
55.4603
 30
0
 70
32
  0
VERTEX
  5
4AD
  8
0
 10
37.4014
 20
55.4536
 30
0
 70
32
  0
VERTEX
  5
4AE
  8
0
 10
37.3943
 20
55.4467
 30
0
 70
32
  0
VERTEX
  5
4AF
  8
0
 10
37.3873
 20
55.4399
 30
0
 70
32
  0
VERTEX
  5
4B0
  8
0
 10
37.3806
 20
55.4331
 30
0
 70
32
  0
VERTEX
  5
4B1
  8
0
 10
37.374
 20
55.4262
 30
0
 70
32
  0
VERTEX
  5
4B2
  8
0
 10
37.3675
 20
55.4194
 30
0
 70
32
  0
VERTEX
  5
4B3
  8
0
 10
37.3613
 20
55.4125
 30
0
 70
32
  0
VERTEX
  5
4B4
  8
0
 10
37.3551
 20
55.4056
 30
0
 70
32
  0
VERTEX
  5
4B5
  8
0
 10
37.3492
 20
55.3987
 30
0
 70
32
  0
VERTEX
  5
4B6
  8
0
 10
37.3434
 20
55.3917
 30
0
 70
32
  0
VERTEX
  5
4B7
  8
0
 10
37.3378
 20
55.3848
 30
0
 70
32
  0
VERTEX
  5
4B8
  8
0
 10
37.3323
 20
55.3779
 30
0
 70
32
  0
VERTEX
  5
4B9
  8
0
 10
37.327
 20
55.3709
 30
0
 70
32
  0
VERTEX
  5
4BA
  8
0
 10
37.3219
 20
55.3639
 30
0
 70
32
  0
VERTEX
  5
4BB
  8
0
 10
37.317
 20
55.357
 30
0
 70
32
  0
VERTEX
  5
4BC
  8
0
 10
37.3122
 20
55.35
 30
0
 70
32
  0
VERTEX
  5
4BD
  8
0
 10
37.3075
 20
55.343
 30
0
 70
32
  0
VERTEX
  5
4BE
  8
0
 10
37.3031
 20
55.336
 30
0
 70
32
  0
VERTEX
  5
4BF
  8
0
 10
37.2988
 20
55.329
 30
0
 70
32
  0
VERTEX
  5
4C0
  8
0
 10
37.2946
 20
55.3219
 30
0
 70
32
  0
VERTEX
  5
4C1
  8
0
 10
37.2907
 20
55.3149
 30
0
 70
32
  0
VERTEX
  5
4C2
  8
0
 10
37.2869
 20
55.3079
 30
0
 70
32
  0
VERTEX
  5
4C3
  8
0
 10
37.2833
 20
55.3008
 30
0
 70
32
  0
VERTEX
  5
4C4
  8
0
 10
37.2798
 20
55.2937
 30
0
 70
32
  0
VERTEX
  5
4C5
  8
0
 10
37.2765
 20
55.2867
 30
0
 70
32
  0
VERTEX
  5
4C6
  8
0
 10
37.2734
 20
55.2796
 30
0
 70
32
  0
VERTEX
  5
4C7
  8
0
 10
37.2704
 20
55.2725
 30
0
 70
32
  0
VERTEX
  5
4C8
  8
0
 10
37.2676
 20
55.2654
 30
0
 70
32
  0
VERTEX
  5
4C9
  8
0
 10
37.265
 20
55.2583
 30
0
 70
32
  0
VERTEX
  5
4CA
  8
0
 10
37.2626
 20
55.2512
 30
0
 70
32
  0
VERTEX
  5
4CB
  8
0
 10
37.2603
 20
55.2441
 30
0
 70
32
  0
VERTEX
  5
4CC
  8
0
 10
37.2582
 20
55.237
 30
0
 70
32
  0
VERTEX
  5
4CD
  8
0
 10
37.2562
 20
55.2299
 30
0
 70
32
  0
VERTEX
  5
4CE
  8
0
 10
37.2544
 20
55.2228
 30
0
 70
32
  0
VERTEX
  5
4CF
  8
0
 10
37.2528
 20
55.2157
 30
0
 70
32
  0
VERTEX
  5
4D0
  8
0
 10
37.2514
 20
55.2086
 30
0
 70
32
  0
VERTEX
  5
4D1
  8
0
 10
37.2501
 20
55.2014
 30
0
 70
32
  0
VERTEX
  5
4D2
  8
0
 10
37.249
 20
55.1943
 30
0
 70
32
  0
VERTEX
  5
4D3
  8
0
 10
37.2481
 20
55.1872
 30
0
 70
32
  0
VERTEX
  5
4D4
  8
0
 10
37.2473
 20
55.1801
 30
0
 70
32
  0
VERTEX
  5
4D5
  8
0
 10
37.2467
 20
55.1729
 30
0
 70
32
  0
VERTEX
  5
4D6
  8
0
 10
37.2463
 20
55.1658
 30
0
 70
32
  0
VERTEX
  5
4D7
  8
0
 10
37.2461
 20
55.1587
 30
0
 70
32
  0
VERTEX
  5
4D8
  8
0
 10
37.246
 20
55.1515
 30
0
 70
32
  0
SEQEND
  5
4D9
  8
0
  0
POLYLINE
  5
339
  8
0
  6
DIVIDE
 66
1
 70
8
  0
VERTEX
  5
4DA
  8
0
 10
43.924
 20
55.1515
 30
0
 70
32
  0
VERTEX
  5
4DB
  8
0
 10
43.9239
 20
55.1587
 30
0
 70
32
  0
VERTEX
  5
4DC
  8
0
 10
43.9236
 20
55.1658
 30
0
 70
32
  0
VERTEX
  5
4DD
  8
0
 10
43.9232
 20
55.1729
 30
0
 70
32
  0
VERTEX
  5
4DE
  8
0
 10
43.9226
 20
55.1801
 30
0
 70
32
  0
VERTEX
  5
4DF
  8
0
 10
43.9219
 20
55.1872
 30
0
 70
32
  0
VERTEX
  5
4E0
  8
0
 10
43.9209
 20
55.1943
 30
0
 70
32
  0
VERTEX
  5
4E1
  8
0
 10
43.9198
 20
55.2014
 30
0
 70
32
  0
VERTEX
  5
4E2
  8
0
 10
43.9186
 20
55.2086
 30
0
 70
32
  0
VERTEX
  5
4E3
  8
0
 10
43.9171
 20
55.2157
 30
0
 70
32
  0
VERTEX
  5
4E4
  8
0
 10
43.9155
 20
55.2228
 30
0
 70
32
  0
VERTEX
  5
4E5
  8
0
 10
43.9137
 20
55.2299
 30
0
 70
32
  0
VERTEX
  5
4E6
  8
0
 10
43.9118
 20
55.237
 30
0
 70
32
  0
VERTEX
  5
4E7
  8
0
 10
43.9097
 20
55.2441
 30
0
 70
32
  0
VERTEX
  5
4E8
  8
0
 10
43.9074
 20
55.2512
 30
0
 70
32
  0
VERTEX
  5
4E9
  8
0
 10
43.9049
 20
55.2583
 30
0
 70
32
  0
VERTEX
  5
4EA
  8
0
 10
43.9023
 20
55.2654
 30
0
 70
32
  0
VERTEX
  5
4EB
  8
0
 10
43.8995
 20
55.2725
 30
0
 70
32
  0
VERTEX
  5
4EC
  8
0
 10
43.8966
 20
55.2796
 30
0
 70
32
  0
VERTEX
  5
4ED
  8
0
 10
43.8934
 20
55.2867
 30
0
 70
32
  0
VERTEX
  5
4EE
  8
0
 10
43.8901
 20
55.2937
 30
0
 70
32
  0
VERTEX
  5
4EF
  8
0
 10
43.8867
 20
55.3008
 30
0
 70
32
  0
VERTEX
  5
4F0
  8
0
 10
43.8831
 20
55.3079
 30
0
 70
32
  0
VERTEX
  5
4F1
  8
0
 10
43.8793
 20
55.3149
 30
0
 70
32
  0
VERTEX
  5
4F2
  8
0
 10
43.8753
 20
55.3219
 30
0
 70
32
  0
VERTEX
  5
4F3
  8
0
 10
43.8712
 20
55.329
 30
0
 70
32
  0
VERTEX
  5
4F4
  8
0
 10
43.8669
 20
55.336
 30
0
 70
32
  0
VERTEX
  5
4F5
  8
0
 10
43.8624
 20
55.343
 30
0
 70
32
  0
VERTEX
  5
4F6
  8
0
 10
43.8578
 20
55.35
 30
0
 70
32
  0
VERTEX
  5
4F7
  8
0
 10
43.853
 20
55.357
 30
0
 70
32
  0
VERTEX
  5
4F8
  8
0
 10
43.848
 20
55.3639
 30
0
 70
32
  0
VERTEX
  5
4F9
  8
0
 10
43.8429
 20
55.3709
 30
0
 70
32
  0
VERTEX
  5
4FA
  8
0
 10
43.8376
 20
55.3779
 30
0
 70
32
  0
VERTEX
  5
4FB
  8
0
 10
43.8322
 20
55.3848
 30
0
 70
32
  0
VERTEX
  5
4FC
  8
0
 10
43.8265
 20
55.3917
 30
0
 70
32
  0
VERTEX
  5
4FD
  8
0
 10
43.8207
 20
55.3987
 30
0
 70
32
  0
VERTEX
  5
4FE
  8
0
 10
43.8148
 20
55.4056
 30
0
 70
32
  0
VERTEX
  5
4FF
  8
0
 10
43.8087
 20
55.4125
 30
0
 70
32
  0
VERTEX
  5
500
  8
0
 10
43.8024
 20
55.4194
 30
0
 70
32
  0
VERTEX
  5
501
  8
0
 10
43.796
 20
55.4262
 30
0
 70
32
  0
VERTEX
  5
502
  8
0
 10
43.7894
 20
55.4331
 30
0
 70
32
  0
VERTEX
  5
503
  8
0
 10
43.7826
 20
55.4399
 30
0
 70
32
  0
VERTEX
  5
504
  8
0
 10
43.7757
 20
55.4467
 30
0
 70
32
  0
VERTEX
  5
505
  8
0
 10
43.7686
 20
55.4536
 30
0
 70
32
  0
VERTEX
  5
506
  8
0
 10
43.7613
 20
55.4603
 30
0
 70
32
  0
VERTEX
  5
507
  8
0
 10
43.7539
 20
55.4671
 30
0
 70
32
  0
VERTEX
  5
508
  8
0
 10
43.7463
 20
55.4739
 30
0
 70
32
  0
VERTEX
  5
509
  8
0
 10
43.7386
 20
55.4806
 30
0
 70
32
  0
VERTEX
  5
50A
  8
0
 10
43.7307
 20
55.4874
 30
0
 70
32
  0
VERTEX
  5
50B
  8
0
 10
43.7227
 20
55.4941
 30
0
 70
32
  0
VERTEX
  5
50C
  8
0
 10
43.7144
 20
55.5008
 30
0
 70
32
  0
VERTEX
  5
50D
  8
0
 10
43.7061
 20
55.5075
 30
0
 70
32
  0
VERTEX
  5
50E
  8
0
 10
43.6975
 20
55.5141
 30
0
 70
32
  0
VERTEX
  5
50F
  8
0
 10
43.6889
 20
55.5208
 30
0
 70
32
  0
VERTEX
  5
510
  8
0
 10
43.68
 20
55.5274
 30
0
 70
32
  0
VERTEX
  5
511
  8
0
 10
43.671
 20
55.534
 30
0
 70
32
  0
VERTEX
  5
512
  8
0
 10
43.6618
 20
55.5406
 30
0
 70
32
  0
VERTEX
  5
513
  8
0
 10
43.6525
 20
55.5471
 30
0
 70
32
  0
VERTEX
  5
514
  8
0
 10
43.6431
 20
55.5537
 30
0
 70
32
  0
VERTEX
  5
515
  8
0
 10
43.6334
 20
55.5602
 30
0
 70
32
  0
VERTEX
  5
516
  8
0
 10
43.6237
 20
55.5667
 30
0
 70
32
  0
VERTEX
  5
517
  8
0
 10
43.6137
 20
55.5732
 30
0
 70
32
  0
VERTEX
  5
518
  8
0
 10
43.6036
 20
55.5797
 30
0
 70
32
  0
VERTEX
  5
519
  8
0
 10
43.5934
 20
55.5861
 30
0
 70
32
  0
VERTEX
  5
51A
  8
0
 10
43.583
 20
55.5925
 30
0
 70
32
  0
VERTEX
  5
51B
  8
0
 10
43.5725
 20
55.5989
 30
0
 70
32
  0
VERTEX
  5
51C
  8
0
 10
43.5618
 20
55.6053
 30
0
 70
32
  0
VERTEX
  5
51D
  8
0
 10
43.5509
 20
55.6116
 30
0
 70
32
  0
VERTEX
  5
51E
  8
0
 10
43.5399
 20
55.618
 30
0
 70
32
  0
VERTEX
  5
51F
  8
0
 10
43.5288
 20
55.6243
 30
0
 70
32
  0
VERTEX
  5
520
  8
0
 10
43.5175
 20
55.6305
 30
0
 70
32
  0
VERTEX
  5
521
  8
0
 10
43.506
 20
55.6368
 30
0
 70
32
  0
VERTEX
  5
522
  8
0
 10
43.4944
 20
55.643
 30
0
 70
32
  0
VERTEX
  5
523
  8
0
 10
43.4827
 20
55.6492
 30
0
 70
32
  0
VERTEX
  5
524
  8
0
 10
43.4708
 20
55.6554
 30
0
 70
32
  0
VERTEX
  5
525
  8
0
 10
43.4587
 20
55.6616
 30
0
 70
32
  0
VERTEX
  5
526
  8
0
 10
43.4466
 20
55.6677
 30
0
 70
32
  0
VERTEX
  5
527
  8
0
 10
43.4342
 20
55.6738
 30
0
 70
32
  0
VERTEX
  5
528
  8
0
 10
43.4218
 20
55.6799
 30
0
 70
32
  0
VERTEX
  5
529
  8
0
 10
43.4091
 20
55.6859
 30
0
 70
32
  0
VERTEX
  5
52A
  8
0
 10
43.3964
 20
55.6919
 30
0
 70
32
  0
VERTEX
  5
52B
  8
0
 10
43.3835
 20
55.6979
 30
0
 70
32
  0
VERTEX
  5
52C
  8
0
 10
43.3704
 20
55.7039
 30
0
 70
32
  0
VERTEX
  5
52D
  8
0
 10
43.3573
 20
55.7098
 30
0
 70
32
  0
VERTEX
  5
52E
  8
0
 10
43.3439
 20
55.7157
 30
0
 70
32
  0
VERTEX
  5
52F
  8
0
 10
43.3305
 20
55.7216
 30
0
 70
32
  0
VERTEX
  5
530
  8
0
 10
43.3169
 20
55.7275
 30
0
 70
32
  0
VERTEX
  5
531
  8
0
 10
43.3031
 20
55.7333
 30
0
 70
32
  0
VERTEX
  5
532
  8
0
 10
43.2892
 20
55.7391
 30
0
 70
32
  0
VERTEX
  5
533
  8
0
 10
43.2752
 20
55.7449
 30
0
 70
32
  0
VERTEX
  5
534
  8
0
 10
43.2611
 20
55.7506
 30
0
 70
32
  0
VERTEX
  5
535
  8
0
 10
43.2468
 20
55.7563
 30
0
 70
32
  0
VERTEX
  5
536
  8
0
 10
43.2323
 20
55.762
 30
0
 70
32
  0
VERTEX
  5
537
  8
0
 10
43.2178
 20
55.7676
 30
0
 70
32
  0
VERTEX
  5
538
  8
0
 10
43.2031
 20
55.7732
 30
0
 70
32
  0
VERTEX
  5
539
  8
0
 10
43.1883
 20
55.7788
 30
0
 70
32
  0
VERTEX
  5
53A
  8
0
 10
43.1733
 20
55.7843
 30
0
 70
32
  0
VERTEX
  5
53B
  8
0
 10
43.1582
 20
55.7899
 30
0
 70
32
  0
VERTEX
  5
53C
  8
0
 10
43.143
 20
55.7953
 30
0
 70
32
  0
VERTEX
  5
53D
  8
0
 10
43.1276
 20
55.8008
 30
0
 70
32
  0
VERTEX
  5
53E
  8
0
 10
43.1122
 20
55.8062
 30
0
 70
32
  0
VERTEX
  5
53F
  8
0
 10
43.0966
 20
55.8116
 30
0
 70
32
  0
VERTEX
  5
540
  8
0
 10
43.0808
 20
55.8169
 30
0
 70
32
  0
VERTEX
  5
541
  8
0
 10
43.065
 20
55.8223
 30
0
 70
32
  0
VERTEX
  5
542
  8
0
 10
43.049
 20
55.8275
 30
0
 70
32
  0
VERTEX
  5
543
  8
0
 10
43.0329
 20
55.8328
 30
0
 70
32
  0
VERTEX
  5
544
  8
0
 10
43.0166
 20
55.838
 30
0
 70
32
  0
VERTEX
  5
545
  8
0
 10
43.0003
 20
55.8432
 30
0
 70
32
  0
VERTEX
  5
546
  8
0
 10
42.9838
 20
55.8483
 30
0
 70
32
  0
VERTEX
  5
547
  8
0
 10
42.9672
 20
55.8534
 30
0
 70
32
  0
VERTEX
  5
548
  8
0
 10
42.9504
 20
55.8585
 30
0
 70
32
  0
VERTEX
  5
549
  8
0
 10
42.9336
 20
55.8635
 30
0
 70
32
  0
VERTEX
  5
54A
  8
0
 10
42.9166
 20
55.8685
 30
0
 70
32
  0
VERTEX
  5
54B
  8
0
 10
42.8996
 20
55.8735
 30
0
 70
32
  0
VERTEX
  5
54C
  8
0
 10
42.8824
 20
55.8784
 30
0
 70
32
  0
VERTEX
  5
54D
  8
0
 10
42.865
 20
55.8833
 30
0
 70
32
  0
VERTEX
  5
54E
  8
0
 10
42.8476
 20
55.8882
 30
0
 70
32
  0
VERTEX
  5
54F
  8
0
 10
42.8301
 20
55.893
 30
0
 70
32
  0
VERTEX
  5
550
  8
0
 10
42.8124
 20
55.8978
 30
0
 70
32
  0
VERTEX
  5
551
  8
0
 10
42.7946
 20
55.9025
 30
0
 70
32
  0
VERTEX
  5
552
  8
0
 10
42.7767
 20
55.9072
 30
0
 70
32
  0
VERTEX
  5
553
  8
0
 10
42.7587
 20
55.9119
 30
0
 70
32
  0
VERTEX
  5
554
  8
0
 10
42.7406
 20
55.9165
 30
0
 70
32
  0
VERTEX
  5
555
  8
0
 10
42.7224
 20
55.9211
 30
0
 70
32
  0
VERTEX
  5
556
  8
0
 10
42.7041
 20
55.9256
 30
0
 70
32
  0
VERTEX
  5
557
  8
0
 10
42.6857
 20
55.9301
 30
0
 70
32
  0
VERTEX
  5
558
  8
0
 10
42.6671
 20
55.9346
 30
0
 70
32
  0
VERTEX
  5
559
  8
0
 10
42.6485
 20
55.939
 30
0
 70
32
  0
VERTEX
  5
55A
  8
0
 10
42.6297
 20
55.9434
 30
0
 70
32
  0
SEQEND
  5
55B
  8
0
  0
LINE
  5
33A
  8
0
  6
DIVIDE
 10
43.923969803711309
 20
54.962156620380753
 30
0
 11
43.923969803711309
 21
55.151524620380769
 31
0
  0
LINE
  5
33B
  8
0
  6
DIVIDE
 10
46.171921803711307
 20
53.148484620380749
 30
0
 11
44.357193803711311
 21
54.207680620380749
 31
0
  0
ARC
  5
33C
  8
0
  6
DIVIDE
 10
44.797555803711319
 20
54.962156620380753
 30
0
 40
0.873586
 50
180
 51
239.72930899999949
  0
POLYLINE
  5
33D
  8
0
  6
CONTINUOUS
 66
1
 70
8
  0
VERTEX
  5
55C
  8
0
 10
51.0971
 20
65.7426
 30
0
 70
32
  0
VERTEX
  5
55D
  8
0
 10
51.3419
 20
65.8514
 30
0
 70
32
  0
VERTEX
  5
55E
  8
0
 10
51.5741
 20
65.9626
 30
0
 70
32
  0
VERTEX
  5
55F
  8
0
 10
51.7937
 20
66.0761
 30
0
 70
32
  0
VERTEX
  5
560
  8
0
 10
52.0002
 20
66.1918
 30
0
 70
32
  0
VERTEX
  5
561
  8
0
 10
52.1934
 20
66.3095
 30
0
 70
32
  0
VERTEX
  5
562
  8
0
 10
52.3731
 20
66.4292
 30
0
 70
32
  0
VERTEX
  5
563
  8
0
 10
52.5392
 20
66.5506
 30
0
 70
32
  0
VERTEX
  5
564
  8
0
 10
52.6913
 20
66.6736
 30
0
 70
32
  0
VERTEX
  5
565
  8
0
 10
52.8294
 20
66.7982
 30
0
 70
32
  0
VERTEX
  5
566
  8
0
 10
52.9533
 20
66.924
 30
0
 70
32
  0
VERTEX
  5
567
  8
0
 10
53.0628
 20
67.0511
 30
0
 70
32
  0
VERTEX
  5
568
  8
0
 10
53.1578
 20
67.1792
 30
0
 70
32
  0
VERTEX
  5
569
  8
0
 10
53.2382
 20
67.3082
 30
0
 70
32
  0
VERTEX
  5
56A
  8
0
 10
53.3038
 20
67.438
 30
0
 70
32
  0
VERTEX
  5
56B
  8
0
 10
53.3547
 20
67.5683
 30
0
 70
32
  0
VERTEX
  5
56C
  8
0
 10
53.3908
 20
67.6991
 30
0
 70
32
  0
VERTEX
  5
56D
  8
0
 10
53.412
 20
67.8302
 30
0
 70
32
  0
VERTEX
  5
56E
  8
0
 10
53.4183
 20
67.9614
 30
0
 70
32
  0
VERTEX
  5
56F
  8
0
 10
53.4096
 20
68.0926
 30
0
 70
32
  0
VERTEX
  5
570
  8
0
 10
53.3861
 20
68.2237
 30
0
 70
32
  0
VERTEX
  5
571
  8
0
 10
53.3477
 20
68.3544
 30
0
 70
32
  0
VERTEX
  5
572
  8
0
 10
53.2944
 20
68.4846
 30
0
 70
32
  0
VERTEX
  5
573
  8
0
 10
53.2264
 20
68.6143
 30
0
 70
32
  0
VERTEX
  5
574
  8
0
 10
53.1437
 20
68.7432
 30
0
 70
32
  0
VERTEX
  5
575
  8
0
 10
53.0464
 20
68.8711
 30
0
 70
32
  0
VERTEX
  5
576
  8
0
 10
52.9347
 20
68.998
 30
0
 70
32
  0
VERTEX
  5
577
  8
0
 10
52.8086
 20
69.1237
 30
0
 70
32
  0
VERTEX
  5
578
  8
0
 10
52.6682
 20
69.248
 30
0
 70
32
  0
VERTEX
  5
579
  8
0
 10
52.5139
 20
69.3707
 30
0
 70
32
  0
VERTEX
  5
57A
  8
0
 10
52.3456
 20
69.4919
 30
0
 70
32
  0
VERTEX
  5
57B
  8
0
 10
52.1638
 20
69.6112
 30
0
 70
32
  0
VERTEX
  5
57C
  8
0
 10
51.9684
 20
69.7287
 30
0
 70
32
  0
VERTEX
  5
57D
  8
0
 10
51.7598
 20
69.844
 30
0
 70
32
  0
VERTEX
  5
57E
  8
0
 10
51.5383
 20
69.9572
 30
0
 70
32
  0
VERTEX
  5
57F
  8
0
 10
51.304
 20
70.068
 30
0
 70
32
  0
VERTEX
  5
580
  8
0
 10
51.0573
 20
70.1764
 30
0
 70
32
  0
VERTEX
  5
581
  8
0
 10
50.7984
 20
70.2822
 30
0
 70
32
  0
VERTEX
  5
582
  8
0
 10
50.5276
 20
70.3853
 30
0
 70
32
  0
VERTEX
  5
583
  8
0
 10
50.2453
 20
70.4855
 30
0
 70
32
  0
VERTEX
  5
584
  8
0
 10
49.9517
 20
70.5828
 30
0
 70
32
  0
VERTEX
  5
585
  8
0
 10
49.6473
 20
70.677
 30
0
 70
32
  0
VERTEX
  5
586
  8
0
 10
49.3323
 20
70.7681
 30
0
 70
32
  0
VERTEX
  5
587
  8
0
 10
49.0072
 20
70.8559
 30
0
 70
32
  0
VERTEX
  5
588
  8
0
 10
48.6723
 20
70.9404
 30
0
 70
32
  0
VERTEX
  5
589
  8
0
 10
48.328
 20
71.0213
 30
0
 70
32
  0
VERTEX
  5
58A
  8
0
 10
47.9746
 20
71.0987
 30
0
 70
32
  0
VERTEX
  5
58B
  8
0
 10
47.6128
 20
71.1724
 30
0
 70
32
  0
VERTEX
  5
58C
  8
0
 10
47.2427
 20
71.2424
 30
0
 70
32
  0
VERTEX
  5
58D
  8
0
 10
46.8649
 20
71.3086
 30
0
 70
32
  0
VERTEX
  5
58E
  8
0
 10
46.4798
 20
71.3708
 30
0
 70
32
  0
VERTEX
  5
58F
  8
0
 10
46.0879
 20
71.4291
 30
0
 70
32
  0
VERTEX
  5
590
  8
0
 10
45.6895
 20
71.4834
 30
0
 70
32
  0
VERTEX
  5
591
  8
0
 10
45.2852
 20
71.5335
 30
0
 70
32
  0
VERTEX
  5
592
  8
0
 10
44.8755
 20
71.5795
 30
0
 70
32
  0
VERTEX
  5
593
  8
0
 10
44.4608
 20
71.6212
 30
0
 70
32
  0
VERTEX
  5
594
  8
0
 10
44.0416
 20
71.6587
 30
0
 70
32
  0
VERTEX
  5
595
  8
0
 10
43.6183
 20
71.6919
 30
0
 70
32
  0
VERTEX
  5
596
  8
0
 10
43.1916
 20
71.7208
 30
0
 70
32
  0
VERTEX
  5
597
  8
0
 10
42.7618
 20
71.7452
 30
0
 70
32
  0
VERTEX
  5
598
  8
0
 10
42.3295
 20
71.7653
 30
0
 70
32
  0
VERTEX
  5
599
  8
0
 10
41.8951
 20
71.7809
 30
0
 70
32
  0
VERTEX
  5
59A
  8
0
 10
41.4592
 20
71.7921
 30
0
 70
32
  0
VERTEX
  5
59B
  8
0
 10
41.0224
 20
71.7988
 30
0
 70
32
  0
VERTEX
  5
59C
  8
0
 10
40.585
 20
71.801
 30
0
 70
32
  0
VERTEX
  5
59D
  8
0
 10
40.1476
 20
71.7988
 30
0
 70
32
  0
VERTEX
  5
59E
  8
0
 10
39.7107
 20
71.7921
 30
0
 70
32
  0
VERTEX
  5
59F
  8
0
 10
39.2748
 20
71.7809
 30
0
 70
32
  0
VERTEX
  5
5A0
  8
0
 10
38.8405
 20
71.7653
 30
0
 70
32
  0
VERTEX
  5
5A1
  8
0
 10
38.4082
 20
71.7452
 30
0
 70
32
  0
VERTEX
  5
5A2
  8
0
 10
37.9784
 20
71.7208
 30
0
 70
32
  0
VERTEX
  5
5A3
  8
0
 10
37.5516
 20
71.6919
 30
0
 70
32
  0
VERTEX
  5
5A4
  8
0
 10
37.1284
 20
71.6587
 30
0
 70
32
  0
VERTEX
  5
5A5
  8
0
 10
36.7091
 20
71.6212
 30
0
 70
32
  0
VERTEX
  5
5A6
  8
0
 10
36.2944
 20
71.5795
 30
0
 70
32
  0
VERTEX
  5
5A7
  8
0
 10
35.8847
 20
71.5335
 30
0
 70
32
  0
VERTEX
  5
5A8
  8
0
 10
35.4804
 20
71.4834
 30
0
 70
32
  0
VERTEX
  5
5A9
  8
0
 10
35.0821
 20
71.4291
 30
0
 70
32
  0
VERTEX
  5
5AA
  8
0
 10
34.6901
 20
71.3708
 30
0
 70
32
  0
VERTEX
  5
5AB
  8
0
 10
34.305
 20
71.3086
 30
0
 70
32
  0
VERTEX
  5
5AC
  8
0
 10
33.9272
 20
71.2424
 30
0
 70
32
  0
VERTEX
  5
5AD
  8
0
 10
33.5572
 20
71.1724
 30
0
 70
32
  0
VERTEX
  5
5AE
  8
0
 10
33.1953
 20
71.0987
 30
0
 70
32
  0
VERTEX
  5
5AF
  8
0
 10
32.842
 20
71.0213
 30
0
 70
32
  0
VERTEX
  5
5B0
  8
0
 10
32.4977
 20
70.9404
 30
0
 70
32
  0
VERTEX
  5
5B1
  8
0
 10
32.1628
 20
70.8559
 30
0
 70
32
  0
VERTEX
  5
5B2
  8
0
 10
31.8376
 20
70.7681
 30
0
 70
32
  0
VERTEX
  5
5B3
  8
0
 10
31.5227
 20
70.677
 30
0
 70
32
  0
VERTEX
  5
5B4
  8
0
 10
31.2182
 20
70.5828
 30
0
 70
32
  0
VERTEX
  5
5B5
  8
0
 10
30.9247
 20
70.4855
 30
0
 70
32
  0
VERTEX
  5
5B6
  8
0
 10
30.6423
 20
70.3853
 30
0
 70
32
  0
VERTEX
  5
5B7
  8
0
 10
30.3716
 20
70.2822
 30
0
 70
32
  0
VERTEX
  5
5B8
  8
0
 10
30.1127
 20
70.1764
 30
0
 70
32
  0
VERTEX
  5
5B9
  8
0
 10
29.8659
 20
70.068
 30
0
 70
32
  0
VERTEX
  5
5BA
  8
0
 10
29.6316
 20
69.9572
 30
0
 70
32
  0
VERTEX
  5
5BB
  8
0
 10
29.4101
 20
69.844
 30
0
 70
32
  0
VERTEX
  5
5BC
  8
0
 10
29.2015
 20
69.7287
 30
0
 70
32
  0
VERTEX
  5
5BD
  8
0
 10
29.0062
 20
69.6112
 30
0
 70
32
  0
VERTEX
  5
5BE
  8
0
 10
28.8243
 20
69.4919
 30
0
 70
32
  0
VERTEX
  5
5BF
  8
0
 10
28.6561
 20
69.3707
 30
0
 70
32
  0
VERTEX
  5
5C0
  8
0
 10
28.5017
 20
69.248
 30
0
 70
32
  0
VERTEX
  5
5C1
  8
0
 10
28.3614
 20
69.1237
 30
0
 70
32
  0
VERTEX
  5
5C2
  8
0
 10
28.2353
 20
68.998
 30
0
 70
32
  0
VERTEX
  5
5C3
  8
0
 10
28.1235
 20
68.8711
 30
0
 70
32
  0
VERTEX
  5
5C4
  8
0
 10
28.0262
 20
68.7432
 30
0
 70
32
  0
VERTEX
  5
5C5
  8
0
 10
27.9435
 20
68.6143
 30
0
 70
32
  0
VERTEX
  5
5C6
  8
0
 10
27.8755
 20
68.4846
 30
0
 70
32
  0
VERTEX
  5
5C7
  8
0
 10
27.8223
 20
68.3544
 30
0
 70
32
  0
VERTEX
  5
5C8
  8
0
 10
27.7839
 20
68.2237
 30
0
 70
32
  0
VERTEX
  5
5C9
  8
0
 10
27.7603
 20
68.0926
 30
0
 70
32
  0
VERTEX
  5
5CA
  8
0
 10
27.7517
 20
67.9614
 30
0
 70
32
  0
VERTEX
  5
5CB
  8
0
 10
27.758
 20
67.8302
 30
0
 70
32
  0
VERTEX
  5
5CC
  8
0
 10
27.7791
 20
67.6991
 30
0
 70
32
  0
VERTEX
  5
5CD
  8
0
 10
27.8152
 20
67.5683
 30
0
 70
32
  0
VERTEX
  5
5CE
  8
0
 10
27.8661
 20
67.438
 30
0
 70
32
  0
VERTEX
  5
5CF
  8
0
 10
27.9318
 20
67.3082
 30
0
 70
32
  0
VERTEX
  5
5D0
  8
0
 10
28.0122
 20
67.1792
 30
0
 70
32
  0
VERTEX
  5
5D1
  8
0
 10
28.1072
 20
67.0511
 30
0
 70
32
  0
VERTEX
  5
5D2
  8
0
 10
28.2166
 20
66.924
 30
0
 70
32
  0
VERTEX
  5
5D3
  8
0
 10
28.3405
 20
66.7982
 30
0
 70
32
  0
VERTEX
  5
5D4
  8
0
 10
28.4786
 20
66.6736
 30
0
 70
32
  0
VERTEX
  5
5D5
  8
0
 10
28.6308
 20
66.5506
 30
0
 70
32
  0
VERTEX
  5
5D6
  8
0
 10
28.7968
 20
66.4292
 30
0
 70
32
  0
VERTEX
  5
5D7
  8
0
 10
28.9765
 20
66.3095
 30
0
 70
32
  0
VERTEX
  5
5D8
  8
0
 10
29.1698
 20
66.1918
 30
0
 70
32
  0
VERTEX
  5
5D9
  8
0
 10
29.3763
 20
66.0761
 30
0
 70
32
  0
VERTEX
  5
5DA
  8
0
 10
29.5958
 20
65.9626
 30
0
 70
32
  0
VERTEX
  5
5DB
  8
0
 10
29.8281
 20
65.8514
 30
0
 70
32
  0
VERTEX
  5
5DC
  8
0
 10
30.0729
 20
65.7426
 30
0
 70
32
  0
SEQEND
  5
5DD
  8
0
  0
ARC
  5
33E
  8
0
  6
CONTINUOUS
 10
15.36192680371132
 20
52.604301620380753
 30
0
 40
19.723762
 50
5.7927360000001968
 51
41.767960000000372
  0
ARC
  5
33F
  8
0
  6
CONTINUOUS
 10
65.808013803711319
 20
52.604301620380753
 30
0
 40
19.723762
 50
138.2320399999995
 51
174.20726399999981
  0
LINE
  5
340
  8
0
  6
CONTINUOUS
 10
27.751636803711321
 20
67.95102462038075
 30
0
 11
27.751636803711321
 21
69.064024620380749
 31
0
  0
LINE
  5
341
  8
0
  6
CONTINUOUS
 10
53.418303803711318
 20
67.95102462038075
 30
0
 11
53.418303803711318
 21
69.064024620380749
 31
0
  0
POLYLINE
  5
342
  8
0
  6
CONTINUOUS
 66
1
 70
8
  0
VERTEX
  5
5DE
  8
0
 10
53.4183
 20
69.064
 30
0
 70
32
  0
VERTEX
  5
5DF
  8
0
 10
53.4144
 20
69.1585
 30
0
 70
32
  0
VERTEX
  5
5E0
  8
0
 10
53.4028
 20
69.2529
 30
0
 70
32
  0
VERTEX
  5
5E1
  8
0
 10
53.3835
 20
69.3472
 30
0
 70
32
  0
VERTEX
  5
5E2
  8
0
 10
53.3565
 20
69.4414
 30
0
 70
32
  0
VERTEX
  5
5E3
  8
0
 10
53.3218
 20
69.5353
 30
0
 70
32
  0
VERTEX
  5
5E4
  8
0
 10
53.2794
 20
69.6289
 30
0
 70
32
  0
VERTEX
  5
5E5
  8
0
 10
53.2294
 20
69.7222
 30
0
 70
32
  0
VERTEX
  5
5E6
  8
0
 10
53.1717
 20
69.8151
 30
0
 70
32
  0
VERTEX
  5
5E7
  8
0
 10
53.1065
 20
69.9076
 30
0
 70
32
  0
VERTEX
  5
5E8
  8
0
 10
53.0337
 20
69.9995
 30
0
 70
32
  0
VERTEX
  5
5E9
  8
0
 10
52.9534
 20
70.0909
 30
0
 70
32
  0
VERTEX
  5
5EA
  8
0
 10
52.8657
 20
70.1816
 30
0
 70
32
  0
VERTEX
  5
5EB
  8
0
 10
52.7706
 20
70.2717
 30
0
 70
32
  0
VERTEX
  5
5EC
  8
0
 10
52.6681
 20
70.3611
 30
0
 70
32
  0
VERTEX
  5
5ED
  8
0
 10
52.5584
 20
70.4496
 30
0
 70
32
  0
VERTEX
  5
5EE
  8
0
 10
52.4414
 20
70.5374
 30
0
 70
32
  0
VERTEX
  5
5EF
  8
0
 10
52.3173
 20
70.6242
 30
0
 70
32
  0
VERTEX
  5
5F0
  8
0
 10
52.1862
 20
70.7101
 30
0
 70
32
  0
VERTEX
  5
5F1
  8
0
 10
52.048
 20
70.795
 30
0
 70
32
  0
VERTEX
  5
5F2
  8
0
 10
51.903
 20
70.8789
 30
0
 70
32
  0
VERTEX
  5
5F3
  8
0
 10
51.7511
 20
70.9617
 30
0
 70
32
  0
VERTEX
  5
5F4
  8
0
 10
51.5925
 20
71.0433
 30
0
 70
32
  0
VERTEX
  5
5F5
  8
0
 10
51.4273
 20
71.1238
 30
0
 70
32
  0
VERTEX
  5
5F6
  8
0
 10
51.2555
 20
71.203
 30
0
 70
32
  0
VERTEX
  5
5F7
  8
0
 10
51.0773
 20
71.2809
 30
0
 70
32
  0
VERTEX
  5
5F8
  8
0
 10
50.8928
 20
71.3575
 30
0
 70
32
  0
VERTEX
  5
5F9
  8
0
 10
50.7021
 20
71.4327
 30
0
 70
32
  0
VERTEX
  5
5FA
  8
0
 10
50.5053
 20
71.5064
 30
0
 70
32
  0
VERTEX
  5
5FB
  8
0
 10
50.3025
 20
71.5787
 30
0
 70
32
  0
VERTEX
  5
5FC
  8
0
 10
50.0938
 20
71.6495
 30
0
 70
32
  0
VERTEX
  5
5FD
  8
0
 10
49.8795
 20
71.7188
 30
0
 70
32
  0
VERTEX
  5
5FE
  8
0
 10
49.6595
 20
71.7864
 30
0
 70
32
  0
VERTEX
  5
5FF
  8
0
 10
49.4341
 20
71.8524
 30
0
 70
32
  0
VERTEX
  5
600
  8
0
 10
49.2033
 20
71.9167
 30
0
 70
32
  0
VERTEX
  5
601
  8
0
 10
48.9674
 20
71.9793
 30
0
 70
32
  0
VERTEX
  5
602
  8
0
 10
48.7264
 20
72.0401
 30
0
 70
32
  0
VERTEX
  5
603
  8
0
 10
48.4804
 20
72.0992
 30
0
 70
32
  0
VERTEX
  5
604
  8
0
 10
48.2298
 20
72.1564
 30
0
 70
32
  0
VERTEX
  5
605
  8
0
 10
47.9745
 20
72.2117
 30
0
 70
32
  0
VERTEX
  5
606
  8
0
 10
47.7148
 20
72.2652
 30
0
 70
32
  0
VERTEX
  5
607
  8
0
 10
47.4508
 20
72.3167
 30
0
 70
32
  0
VERTEX
  5
608
  8
0
 10
47.1826
 20
72.3663
 30
0
 70
32
  0
VERTEX
  5
609
  8
0
 10
46.9105
 20
72.4139
 30
0
 70
32
  0
VERTEX
  5
60A
  8
0
 10
46.6346
 20
72.4594
 30
0
 70
32
  0
VERTEX
  5
60B
  8
0
 10
46.355
 20
72.5029
 30
0
 70
32
  0
VERTEX
  5
60C
  8
0
 10
46.0719
 20
72.5444
 30
0
 70
32
  0
VERTEX
  5
60D
  8
0
 10
45.7856
 20
72.5837
 30
0
 70
32
  0
VERTEX
  5
60E
  8
0
 10
45.4961
 20
72.621
 30
0
 70
32
  0
VERTEX
  5
60F
  8
0
 10
45.2036
 20
72.656
 30
0
 70
32
  0
VERTEX
  5
610
  8
0
 10
44.9084
 20
72.689
 30
0
 70
32
  0
VERTEX
  5
611
  8
0
 10
44.6106
 20
72.7197
 30
0
 70
32
  0
VERTEX
  5
612
  8
0
 10
44.3103
 20
72.7482
 30
0
 70
32
  0
VERTEX
  5
613
  8
0
 10
44.0078
 20
72.7746
 30
0
 70
32
  0
VERTEX
  5
614
  8
0
 10
43.7032
 20
72.7986
 30
0
 70
32
  0
VERTEX
  5
615
  8
0
 10
43.3968
 20
72.8205
 30
0
 70
32
  0
VERTEX
  5
616
  8
0
 10
43.0886
 20
72.84
 30
0
 70
32
  0
VERTEX
  5
617
  8
0
 10
42.779
 20
72.8573
 30
0
 70
32
  0
VERTEX
  5
618
  8
0
 10
42.468
 20
72.8724
 30
0
 70
32
  0
VERTEX
  5
619
  8
0
 10
42.1559
 20
72.8851
 30
0
 70
32
  0
VERTEX
  5
61A
  8
0
 10
41.8429
 20
72.8955
 30
0
 70
32
  0
VERTEX
  5
61B
  8
0
 10
41.529
 20
72.9036
 30
0
 70
32
  0
VERTEX
  5
61C
  8
0
 10
41.2147
 20
72.9094
 30
0
 70
32
  0
VERTEX
  5
61D
  8
0
 10
40.8999
 20
72.9129
 30
0
 70
32
  0
VERTEX
  5
61E
  8
0
 10
40.585
 20
72.914
 30
0
 70
32
  0
VERTEX
  5
61F
  8
0
 10
40.27
 20
72.9129
 30
0
 70
32
  0
VERTEX
  5
620
  8
0
 10
39.9553
 20
72.9094
 30
0
 70
32
  0
VERTEX
  5
621
  8
0
 10
39.6409
 20
72.9036
 30
0
 70
32
  0
VERTEX
  5
622
  8
0
 10
39.3271
 20
72.8955
 30
0
 70
32
  0
VERTEX
  5
623
  8
0
 10
39.014
 20
72.8851
 30
0
 70
32
  0
VERTEX
  5
624
  8
0
 10
38.7019
 20
72.8724
 30
0
 70
32
  0
VERTEX
  5
625
  8
0
 10
38.391
 20
72.8573
 30
0
 70
32
  0
VERTEX
  5
626
  8
0
 10
38.0813
 20
72.84
 30
0
 70
32
  0
VERTEX
  5
627
  8
0
 10
37.7732
 20
72.8205
 30
0
 70
32
  0
VERTEX
  5
628
  8
0
 10
37.4667
 20
72.7986
 30
0
 70
32
  0
VERTEX
  5
629
  8
0
 10
37.1622
 20
72.7746
 30
0
 70
32
  0
VERTEX
  5
62A
  8
0
 10
36.8596
 20
72.7482
 30
0
 70
32
  0
VERTEX
  5
62B
  8
0
 10
36.5594
 20
72.7197
 30
0
 70
32
  0
VERTEX
  5
62C
  8
0
 10
36.2616
 20
72.689
 30
0
 70
32
  0
VERTEX
  5
62D
  8
0
 10
35.9663
 20
72.656
 30
0
 70
32
  0
VERTEX
  5
62E
  8
0
 10
35.6739
 20
72.621
 30
0
 70
32
  0
VERTEX
  5
62F
  8
0
 10
35.3844
 20
72.5837
 30
0
 70
32
  0
VERTEX
  5
630
  8
0
 10
35.098
 20
72.5444
 30
0
 70
32
  0
VERTEX
  5
631
  8
0
 10
34.815
 20
72.5029
 30
0
 70
32
  0
VERTEX
  5
632
  8
0
 10
34.5354
 20
72.4594
 30
0
 70
32
  0
VERTEX
  5
633
  8
0
 10
34.2594
 20
72.4139
 30
0
 70
32
  0
VERTEX
  5
634
  8
0
 10
33.9873
 20
72.3663
 30
0
 70
32
  0
VERTEX
  5
635
  8
0
 10
33.7192
 20
72.3167
 30
0
 70
32
  0
VERTEX
  5
636
  8
0
 10
33.4552
 20
72.2652
 30
0
 70
32
  0
VERTEX
  5
637
  8
0
 10
33.1954
 20
72.2117
 30
0
 70
32
  0
VERTEX
  5
638
  8
0
 10
32.9402
 20
72.1564
 30
0
 70
32
  0
VERTEX
  5
639
  8
0
 10
32.6895
 20
72.0992
 30
0
 70
32
  0
VERTEX
  5
63A
  8
0
 10
32.4436
 20
72.0401
 30
0
 70
32
  0
VERTEX
  5
63B
  8
0
 10
32.2026
 20
71.9793
 30
0
 70
32
  0
VERTEX
  5
63C
  8
0
 10
31.9666
 20
71.9167
 30
0
 70
32
  0
VERTEX
  5
63D
  8
0
 10
31.7359
 20
71.8524
 30
0
 70
32
  0
VERTEX
  5
63E
  8
0
 10
31.5104
 20
71.7864
 30
0
 70
32
  0
VERTEX
  5
63F
  8
0
 10
31.2905
 20
71.7188
 30
0
 70
32
  0
VERTEX
  5
640
  8
0
 10
31.0761
 20
71.6495
 30
0
 70
32
  0
VERTEX
  5
641
  8
0
 10
30.8675
 20
71.5787
 30
0
 70
32
  0
VERTEX
  5
642
  8
0
 10
30.6647
 20
71.5064
 30
0
 70
32
  0
VERTEX
  5
643
  8
0
 10
30.4679
 20
71.4327
 30
0
 70
32
  0
VERTEX
  5
644
  8
0
 10
30.2771
 20
71.3575
 30
0
 70
32
  0
VERTEX
  5
645
  8
0
 10
30.0926
 20
71.2809
 30
0
 70
32
  0
VERTEX
  5
646
  8
0
 10
29.9144
 20
71.203
 30
0
 70
32
  0
VERTEX
  5
647
  8
0
 10
29.7427
 20
71.1238
 30
0
 70
32
  0
VERTEX
  5
648
  8
0
 10
29.5775
 20
71.0433
 30
0
 70
32
  0
VERTEX
  5
649
  8
0
 10
29.4189
 20
70.9617
 30
0
 70
32
  0
VERTEX
  5
64A
  8
0
 10
29.267
 20
70.8789
 30
0
 70
32
  0
VERTEX
  5
64B
  8
0
 10
29.1219
 20
70.795
 30
0
 70
32
  0
VERTEX
  5
64C
  8
0
 10
28.9838
 20
70.7101
 30
0
 70
32
  0
VERTEX
  5
64D
  8
0
 10
28.8526
 20
70.6242
 30
0
 70
32
  0
VERTEX
  5
64E
  8
0
 10
28.7285
 20
70.5374
 30
0
 70
32
  0
VERTEX
  5
64F
  8
0
 10
28.6116
 20
70.4496
 30
0
 70
32
  0
VERTEX
  5
650
  8
0
 10
28.5018
 20
70.3611
 30
0
 70
32
  0
VERTEX
  5
651
  8
0
 10
28.3994
 20
70.2717
 30
0
 70
32
  0
VERTEX
  5
652
  8
0
 10
28.3042
 20
70.1816
 30
0
 70
32
  0
VERTEX
  5
653
  8
0
 10
28.2165
 20
70.0909
 30
0
 70
32
  0
VERTEX
  5
654
  8
0
 10
28.1362
 20
69.9995
 30
0
 70
32
  0
VERTEX
  5
655
  8
0
 10
28.0635
 20
69.9076
 30
0
 70
32
  0
VERTEX
  5
656
  8
0
 10
27.9982
 20
69.8151
 30
0
 70
32
  0
VERTEX
  5
657
  8
0
 10
27.9406
 20
69.7222
 30
0
 70
32
  0
VERTEX
  5
658
  8
0
 10
27.8905
 20
69.6289
 30
0
 70
32
  0
VERTEX
  5
659
  8
0
 10
27.8481
 20
69.5353
 30
0
 70
32
  0
VERTEX
  5
65A
  8
0
 10
27.8134
 20
69.4414
 30
0
 70
32
  0
VERTEX
  5
65B
  8
0
 10
27.7864
 20
69.3472
 30
0
 70
32
  0
VERTEX
  5
65C
  8
0
 10
27.7671
 20
69.2529
 30
0
 70
32
  0
VERTEX
  5
65D
  8
0
 10
27.7555
 20
69.1585
 30
0
 70
32
  0
VERTEX
  5
65E
  8
0
 10
27.7516
 20
69.064
 30
0
 70
32
  0
SEQEND
  5
65F
  8
0
  0
INSERT
  5
66B
  8
0
  2
SPECLC505C
 10
116.91994126538241
 20
7
 30
0
 41
1
 42
1
 43
1
 50
0
  0
ENDSEC
999
Created By CadLib version 4.0.36.7
999
CadLib website: www.woutware.com
  0
EOF
