  0
SECTION
  2
HEADER
  9
$ACADVER
  1
AC1009
  9
$DWGCODEPAGE
  3
dos932
  9
$INSBASE
 10
0
 20
0
 30
0
  9
$EXTMIN
 10
97.782578057848923
 20
69.878550095777726
 30
0
  9
$EXTMAX
 10
199.98132990654844
 20
160.14539375490278
 30
0
  9
$LIMMIN
 10
0
 20
0
  9
$LIMMAX
 10
297
 20
210
  9
$SNAPMODE
 70
0
  9
$SNAPUNIT
 10
1
 20
1
  9
$SNAPBASE
 10
0
 20
0
  9
$SNAPANG
 50
0
  9
$SNAPSTYLE
 70
0
  9
$SNAPISOPAIR
 70
0
  9
$ORTHOMODE
 70
0
  9
$REGENMODE
 70
1
  9
$FILLMODE
 70
1
  9
$QTEXTMODE
 70
0
  9
$MIRRTEXT
 70
1
  9
$LTSCALE
 40
1
  9
$OSMODE
 70
37
  9
$ATTMODE
 70
1
  9
$TEXTSIZE
 40
0.2
  9
$TRACEWID
 40
0.05
  9
$TEXTSTYLE
  7
STANDARD
  9
$CLAYER
  8
0
  9
$CELTYPE
  6
CONTINUOUS
  9
$CECOLOR
 62
256
  9
$DIMSCALE
 40
1
  9
$DIMASZ
 40
0.18
  9
$DIMEXO
 40
0.0625
  9
$DIMDLI
 40
0.38
  9
$DIMRND
 40
0
  9
$DIMDLE
 40
0
  9
$DIMEXE
 40
0.18
  9
$DIMTP
 40
0
  9
$DIMTM
 40
0
  9
$DIMTXT
 40
0.18
  9
$DIMCEN
 40
0.09
  9
$DIMTSZ
 40
0
  9
$DIMTOL
 70
0
  9
$DIMLIM
 70
0
  9
$DIMTIH
 70
1
  9
$DIMTOH
 70
1
  9
$DIMSE1
 70
0
  9
$DIMSE2
 70
0
  9
$DIMTAD
 70
0
  9
$DIMZIN
 70
0
  9
$DIMBLK
  1

  9
$DIMASO
 70
1
  9
$DIMSHO
 70
1
  9
$DIMPOST
  1

  9
$DIMAPOST
  1

  9
$DIMALT
 70
0
  9
$DIMALTD
 70
2
  9
$DIMALTF
 40
25.4
  9
$DIMLFAC
 40
1
  9
$DIMTOFL
 70
0
  9
$DIMTVP
 40
0
  9
$DIMTIX
 70
0
  9
$DIMSOXD
 70
0
  9
$DIMSAH
 70
0
  9
$DIMBLK1
  1

  9
$DIMBLK2
  1

  9
$DIMSTYLE
  2
STANDARD
  9
$DIMCLRD
 70
0
  9
$DIMCLRE
 70
0
  9
$DIMCLRT
 70
0
  9
$DIMTFAC
 40
1
  9
$DIMGAP
 40
0.09
  9
$LUNITS
 70
2
  9
$LUPREC
 70
4
  9
$SKETCHINC
 40
0.1
  9
$FILLETRAD
 40
0
  9
$AUNITS
 70
0
  9
$AUPREC
 70
0
  9
$MENU
  1
.
  9
$ELEVATION
 40
0
  9
$PELEVATION
 40
0
  9
$THICKNESS
 40
0
  9
$LIMCHECK
 70
0
  9
$CHAMFERA
 40
0
  9
$CHAMFERB
 40
0
  9
$SKPOLY
 70
0
  9
$TDCREATE
 40
2453293.5827240045
  9
$TDUPDATE
 40
2453294.605275
  9
$TDINDWG
 40
0.0029269907407407409
  9
$TDUSRTIMER
 40
0.0029249884259259259
  9
$USRTIMER
 70
1
  9
$ANGBASE
 50
0
  9
$ANGDIR
 70
0
  9
$PDMODE
 70
0
  9
$PDSIZE
 40
0
  9
$PLINEWID
 40
0
  9
$SPLFRAME
 70
0
  9
$SPLINETYPE
 70
6
  9
$SPLINESEGS
 70
8
  9
$HANDLING
 70
1
  9
$HANDSEED
  5
705
  9
$SURFTAB1
 70
6
  9
$SURFTAB2
 70
6
  9
$SURFTYPE
 70
6
  9
$SURFU
 70
6
  9
$SURFV
 70
6
  9
$UCSORG
 10
0
 20
0
 30
0
  9
$UCSXDIR
 10
1
 20
0
 30
0
  9
$UCSYDIR
 10
0
 20
1
 30
0
  9
$PUCSORG
 10
0
 20
0
 30
0
  9
$PUCSXDIR
 10
1
 20
0
 30
0
  9
$PUCSYDIR
 10
0
 20
1
 30
0
  9
$USERI1
 70
0
  9
$USERI2
 70
0
  9
$USERI3
 70
0
  9
$USERI4
 70
0
  9
$USERI5
 70
0
  9
$USERR1
 40
0
  9
$USERR2
 40
0
  9
$USERR3
 40
0
  9
$USERR4
 40
0
  9
$USERR5
 40
0
  9
$WORLDVIEW
 70
1
  9
$SHADEDGE
 70
3
  9
$SHADEDIF
 70
70
  9
$TILEMODE
 70
1
  9
$MAXACTVP
 70
48
  9
$PINSBASE
 10
0
 20
0
 30
0
  9
$PLIMCHECK
 70
0
  9
$PEXTMIN
 10
1E+20
 20
1E+20
 30
1E+20
  9
$PEXTMAX
 10
-1E+20
 20
-1E+20
 30
-1E+20
  9
$PLIMMAX
 10
12
 20
9
  9
$PLIMMIN
 10
0
 20
0
  9
$UNITMODE
 70
0
  9
$VISRETAIN
 70
1
  9
$PLINEGEN
 70
0
  9
$PSLTSCALE
 70
1
  9
$TREEDEPTH
 70
3020
  9
$DRAGMODE
 70
     2
  9
$BLIPMODE
 70
     0
  9
$COORDS
 70
     1
  9
$ATTDIA
 70
     0
  9
$ATTREQ
 70
     1
  0
ENDSEC
  0
SECTION
  2
TABLES
  0
TABLE
  2
VPORT
  5
6F9
 70
1
  0
VPORT
  5
6CD
  2
*ACTIVE
 70
0
 10
0
 20
0
 11
1
 21
1
 12
133.60151
 22
114.781266
 13
0
 23
0
 14
1
 24
1
 15
0
 25
0
 16
0
 26
0
 36
1
 17
0
 27
0
 37
0
 40
90.509265
 41
3.327068
 42
50
 43
0
 44
0
 50
0
 51
0
 71
0
 72
100
 73
1
 74
1
 75
0
 76
0
 77
0
 78
0
  0
ENDTAB
  0
TABLE
  2
LTYPE
  5
6FA
 70
22
  0
LTYPE
  5
6B6
  2
CONTINUOUS
  3
実線
 70
0
 72
65
 73
0
 40
0
  0
LTYPE
  5
6B7
  2
DASHED1
  3
--  --  --  --  --  --  --  --  
 70
0
 72
65
 73
2
 40
2.5
 49
1.25
 49
-1.25
  0
LTYPE
  5
6B8
  2
DASHED2
  3
----    ----    ----    ----    
 70
0
 72
65
 73
2
 40
5
 49
2.5
 49
-2.5
  0
LTYPE
  5
6B9
  2
DASHED3
  3
------  ------  ------  ------  
 70
0
 72
65
 73
2
 40
5
 49
3.75
 49
-1.25
  0
LTYPE
  5
6BA
  2
CENTER1
  3
----- - ----- - ----- - ----- - 
 70
0
 72
65
 73
4
 40
10
 49
6.25
 49
-1.25
 49
1.25
 49
-1.25
  0
LTYPE
  5
6BB
  2
CENTER2
  3
----------  --  ----------  --  
 70
0
 72
65
 73
4
 40
20
 49
12.5
 49
-2.5
 49
2.5
 49
-2.5
  0
LTYPE
  5
6BC
  2
PHANTOM1
  3
--- - - --- - - --- - - --- - - 
 70
0
 72
65
 73
6
 40
9.5
 49
3.25
 49
-1.25
 49
1.25
 49
-1.25
 49
1.25
 49
-1.25
  0
LTYPE
  5
6BD
  2
PHANTOM2
  3
--------  -  -  --------  -  -  
 70
0
 72
65
 73
6
 40
20
 49
10
 49
-2.5
 49
1.25
 49
-2.5
 49
1.25
 49
-2.5
  0
LTYPE
  5
6BE
  2
DOT
  3
-   -   -   -   -   -   -   -   
 70
0
 72
65
 73
2
 40
2.5
 49
0.625
 49
-1.875
  0
LTYPE
  5
6BF
  2
DUMMY
  3
ダミー
 70
0
 72
65
 73
0
 40
0
  0
LTYPE
  5
6C0
  2
RAND1
  3
----- - ----- - ----- - ----- - 
 70
0
 72
65
 73
4
 40
10
 49
6.25
 49
-1.25
 49
1.25
 49
-1.25
  0
LTYPE
  5
6C1
  2
RAND2
  3
----------  --  ----------  --  
 70
0
 72
65
 73
4
 40
20
 49
12.5
 49
-2.5
 49
2.5
 49
-2.5
  0
LTYPE
  5
6C2
  2
RAND3
  3
--- - - --- - - --- - - --- - - 
 70
0
 72
65
 73
6
 40
9.5
 49
3.25
 49
-1.25
 49
1.25
 49
-1.25
 49
1.25
 49
-1.25
  0
LTYPE
  5
6C3
  2
RAND4
  3
--------  -  -  --------  -  -  
 70
0
 72
65
 73
6
 40
20
 49
10
 49
-2.5
 49
1.25
 49
-2.5
 49
1.25
 49
-2.5
  0
LTYPE
  5
6C4
  2
RAND5
  3
----- - ----- - ----- - ----- - 
 70
0
 72
65
 73
4
 40
10
 49
6.25
 49
-1.25
 49
1.25
 49
-1.25
  0
LTYPE
  5
6C5
  2
LONG1
  3
----------  --  ----------  --  
 70
0
 72
65
 73
4
 40
20
 49
12.5
 49
-2.5
 49
2.5
 49
-2.5
  0
LTYPE
  5
6C6
  2
LONG2
  3
--- - - --- - - --- - - --- - - 
 70
0
 72
65
 73
6
 40
9.5
 49
3.25
 49
-1.25
 49
1.25
 49
-1.25
 49
1.25
 49
-1.25
  0
LTYPE
  5
6C7
  2
LONG3
  3
--------  -  -  --------  -  -  
 70
0
 72
65
 73
6
 40
20
 49
10
 49
-2.5
 49
1.25
 49
-2.5
 49
1.25
 49
-2.5
  0
LTYPE
  5
6C8
  2
LONG4
  3
----- - ----- - ----- - ----- - 
 70
0
 72
65
 73
4
 40
10
 49
6.25
 49
-1.25
 49
1.25
 49
-1.25
  0
LTYPE
  5
6C9
  2
LONG5
  3
----------  --  ----------  --  
 70
0
 72
65
 73
4
 40
20
 49
12.5
 49
-2.5
 49
2.5
 49
-2.5
  0
LTYPE
  5
6CA
  2
ByBlock
  3

 70
64
 72
65
 73
0
 40
0
  0
LTYPE
  5
6CB
  2
ByLayer
  3

 70
64
 72
65
 73
0
 40
0
  0
ENDTAB
  0
TABLE
  2
LAYER
  5
6FB
 70
5
  0
LAYER
  5
69D
 70
0
  2
0
 62
7
  6
CONTINUOUS
  0
LAYER
  5
69E
 70
0
  2
_0-0_0
 62
7
  6
CONTINUOUS
  0
LAYER
  5
69F
 70
0
  2
_0-4_LAY-4
 62
7
  6
CONTINUOUS
  0
LAYER
  5
6A0
 70
0
  2
ADD_LINE
 62
7
  6
CONTINUOUS
  0
LAYER
  5
6A1
 70
0
  2
SPEC
 62
7
  6
CONTINUOUS
  0
ENDTAB
  0
TABLE
  2
STYLE
  5
6FC
 70
2
  0
STYLE
  5
6B4
  2
STANDARD
 70
0
 40
0
 41
1
 50
0
 71
0
 42
0.2
  3
txt.shx
  4
extfont2.shx
  0
STYLE
  5
6B5
  2
STANDARD1
 70
0
 40
0
 41
1
 50
0
 71
0
 42
4
  3
MONOTXT
  4
BIGFONT
  0
ENDTAB
  0
TABLE
  2
APPID
  5
6FF
 70
2
  0
APPID
  5
700
  2
ACAD
 70
0
  0
APPID
  5
703
  2
ACAD_MLEADERVER
 70
64
  0
ENDTAB
  0
TABLE
  2
DIMSTYLE
  5
701
 70
1
  0
DIMSTYLE
105
6CC
  2
STANDARD
 70
0
  3

  4

  5

  6

  7

 40
1
 41
0.18
 42
0.0625
 43
0.38
 44
0.18
 45
0
 46
0
 47
0
 48
0
140
0.18
141
0.09
142
0
143
25.4
144
1
145
0
146
1
147
0.09
 71
0
 72
0
 73
1
 74
1
 75
0
 76
0
 77
0
 78
0
170
0
171
2
172
0
173
0
174
0
175
0
176
0
177
0
178
0
  0
ENDTAB
  0
ENDSEC
  0
SECTION
  2
BLOCKS
  0
BLOCK
  5
6A3
  8
0
  2
$MODEL_SPACE
 70
0
 10
0
 20
0
 30
0
  3
$MODEL_SPACE
  0
ENDBLK
  5
69C
  8
0
  0
BLOCK
  5
6A5
  8
0
 67
1
  2
$PAPER_SPACE
 70
0
 10
0
 20
0
 30
0
  3
$PAPER_SPACE
  0
ENDBLK
  5
699
  8
0
  0
BLOCK
  5
6A7
  8
0
  2
SPECLCB21001
 70
64
 10
0
 20
0
 30
0
  3
SPECLCB21001
  0
TEXT
  5
6A8
  8
SPEC
 10
0
 20
0
 30
0
 40
1.5
  1
蓄電池内蔵形･白熱灯 13W×1
  7
STANDARD
  0
TEXT
  5
6A9
  8
SPEC
 10
0
 20
-3
 30
0
 40
1.5
  1
反射板:ｱﾙﾐ･鏡面仕上
  7
STANDARD
  0
TEXT
  5
6AA
  8
SPEC
 10
0
 20
-6
 30
0
 40
1.5
  1
けい素ｺﾞﾑ絶縁電線 ﾆｶﾄﾞ蓄電池
  7
STANDARD
  0
ENDBLK
  5
6AB
  8
0
  0
BLOCK
  5
6AD
  8
0
  2
*MODEL_SPACE
 70
64
 10
0
 20
0
 30
0
  3
*MODEL_SPACE
  0
ENDBLK
  5
6B0
  8
0
  0
BLOCK
  5
6B2
  8
0
 67
1
  2
*PAPER_SPACE
 70
64
 10
0
 20
0
 30
0
  3
*PAPER_SPACE
  0
ENDBLK
  5
6B3
  8
0
  0
ENDSEC
  0
SECTION
  2
ENTITIES
  0
TEXT
  5
515
  8
_0-4_LAY-4
 62
7
 10
97.520606
 20
154.52684
 30
0
 40
4.5
  1
Ｊ１３ｘ１　直付非常灯ＢＴ付
 41
0.969826
  7
STANDARD
  0
TEXT
  5
516
  8
_0-4_LAY-4
 62
7
 10
97.520606
 20
70.526845
 30
0
 40
4.5
  1
三菱　ＬＣＢ２１００１
 41
0.989333
  7
STANDARD
  0
POLYLINE
  5
517
  8
0
  6
CONTINUOUS
 62
3
 66
1
 70
0
 10
0
 20
0
 30
0
  0
VERTEX
  5
5DA
  8
0
  6
CONTINUOUS
 62
3
 10
162.494163
 20
119.584453
 70
0
  0
VERTEX
  5
5DB
  8
0
  6
CONTINUOUS
 62
3
 10
162.143974
 20
120.65111
 70
0
  0
VERTEX
  5
5DC
  8
0
  6
CONTINUOUS
 62
3
 10
161.106867
 20
121.676775
 70
0
  0
VERTEX
  5
5DD
  8
0
  6
CONTINUOUS
 62
3
 10
159.422696
 20
122.622033
 70
0
  0
VERTEX
  5
5DE
  8
0
  6
CONTINUOUS
 62
3
 10
157.156184
 20
123.45056
 70
0
  0
VERTEX
  5
5DF
  8
0
  6
CONTINUOUS
 62
3
 10
154.39443
 20
124.130513
 70
0
  0
VERTEX
  5
5E0
  8
0
  6
CONTINUOUS
 62
3
 10
151.243568
 20
124.635765
 70
0
  0
VERTEX
  5
5E1
  8
0
  6
CONTINUOUS
 62
3
 10
147.824684
 20
124.946897
 70
0
  0
VERTEX
  5
5E2
  8
0
  6
CONTINUOUS
 62
3
 10
144.269163
 20
125.051953
 70
0
  0
VERTEX
  5
5E3
  8
0
  6
CONTINUOUS
 62
3
 10
140.713641
 20
124.946897
 70
0
  0
VERTEX
  5
5E4
  8
0
  6
CONTINUOUS
 62
3
 10
137.294757
 20
124.635765
 70
0
  0
VERTEX
  5
5E5
  8
0
  6
CONTINUOUS
 62
3
 10
134.143895
 20
124.130513
 70
0
  0
VERTEX
  5
5E6
  8
0
  6
CONTINUOUS
 62
3
 10
131.382141
 20
123.45056
 70
0
  0
VERTEX
  5
5E7
  8
0
  6
CONTINUOUS
 62
3
 10
129.115629
 20
122.622033
 70
0
  0
VERTEX
  5
5E8
  8
0
  6
CONTINUOUS
 62
3
 10
127.431458
 20
121.676775
 70
0
  0
VERTEX
  5
5E9
  8
0
  6
CONTINUOUS
 62
3
 10
126.394351
 20
120.65111
 70
0
  0
VERTEX
  5
5EA
  8
0
  6
CONTINUOUS
 62
3
 10
126.044163
 20
119.584453
 70
0
  0
SEQEND
  5
5EB
  8
0
  0
POLYLINE
  5
52A
  8
0
  6
CONTINUOUS
 62
3
 66
1
 70
0
 10
0
 20
0
 30
0
  0
VERTEX
  5
5EC
  8
0
  6
CONTINUOUS
 62
3
 10
126.044163
 20
108.649453
 70
0
  0
VERTEX
  5
5ED
  8
0
  6
CONTINUOUS
 62
3
 10
126.394351
 20
107.725018
 70
0
  0
VERTEX
  5
5EE
  8
0
  6
CONTINUOUS
 62
3
 10
127.431458
 20
106.836108
 70
0
  0
VERTEX
  5
5EF
  8
0
  6
CONTINUOUS
 62
3
 10
129.115629
 20
106.016884
 70
0
  0
VERTEX
  5
5F0
  8
0
  6
CONTINUOUS
 62
3
 10
131.382141
 20
105.298828
 70
0
  0
VERTEX
  5
5F1
  8
0
  6
CONTINUOUS
 62
3
 10
134.143895
 20
104.709534
 70
0
  0
VERTEX
  5
5F2
  8
0
  6
CONTINUOUS
 62
3
 10
137.294757
 20
104.27165
 70
0
  0
VERTEX
  5
5F3
  8
0
  6
CONTINUOUS
 62
3
 10
140.713641
 20
104.002002
 70
0
  0
VERTEX
  5
5F4
  8
0
  6
CONTINUOUS
 62
3
 10
144.269163
 20
103.910953
 70
0
  0
VERTEX
  5
5F5
  8
0
  6
CONTINUOUS
 62
3
 10
147.824684
 20
104.002002
 70
0
  0
VERTEX
  5
5F6
  8
0
  6
CONTINUOUS
 62
3
 10
151.243568
 20
104.27165
 70
0
  0
VERTEX
  5
5F7
  8
0
  6
CONTINUOUS
 62
3
 10
154.39443
 20
104.709534
 70
0
  0
VERTEX
  5
5F8
  8
0
  6
CONTINUOUS
 62
3
 10
157.156184
 20
105.298828
 70
0
  0
VERTEX
  5
5F9
  8
0
  6
CONTINUOUS
 62
3
 10
159.422696
 20
106.016884
 70
0
  0
VERTEX
  5
5FA
  8
0
  6
CONTINUOUS
 62
3
 10
161.106867
 20
106.836108
 70
0
  0
VERTEX
  5
5FB
  8
0
  6
CONTINUOUS
 62
3
 10
162.143974
 20
107.725018
 70
0
  0
VERTEX
  5
5FC
  8
0
  6
CONTINUOUS
 62
3
 10
162.494163
 20
108.649453
 70
0
  0
SEQEND
  5
5FD
  8
0
  0
POLYLINE
  5
53D
  8
0
  6
CONTINUOUS
 62
4
 66
1
 70
0
 10
0
 20
0
 30
0
  0
VERTEX
  5
5FE
  8
0
  6
CONTINUOUS
 62
4
 10
162.494163
 20
108.649453
 70
0
  0
VERTEX
  5
5FF
  8
0
  6
CONTINUOUS
 62
4
 10
162.143974
 20
109.573889
 70
0
  0
VERTEX
  5
600
  8
0
  6
CONTINUOUS
 62
4
 10
161.106867
 20
110.462799
 70
0
  0
VERTEX
  5
601
  8
0
  6
CONTINUOUS
 62
4
 10
159.422696
 20
111.282023
 70
0
  0
VERTEX
  5
602
  8
0
  6
CONTINUOUS
 62
4
 10
157.156184
 20
112.000079
 70
0
  0
VERTEX
  5
603
  8
0
  6
CONTINUOUS
 62
4
 10
154.39443
 20
112.589372
 70
0
  0
VERTEX
  5
604
  8
0
  6
CONTINUOUS
 62
4
 10
151.243568
 20
113.027256
 70
0
  0
VERTEX
  5
605
  8
0
  6
CONTINUOUS
 62
4
 10
147.824684
 20
113.296904
 70
0
  0
VERTEX
  5
606
  8
0
  6
CONTINUOUS
 62
4
 10
144.269163
 20
113.387953
 70
0
  0
VERTEX
  5
607
  8
0
  6
CONTINUOUS
 62
4
 10
140.713641
 20
113.296904
 70
0
  0
VERTEX
  5
608
  8
0
  6
CONTINUOUS
 62
4
 10
137.294757
 20
113.027256
 70
0
  0
VERTEX
  5
609
  8
0
  6
CONTINUOUS
 62
4
 10
134.143895
 20
112.589372
 70
0
  0
VERTEX
  5
60A
  8
0
  6
CONTINUOUS
 62
4
 10
131.382141
 20
112.000079
 70
0
  0
VERTEX
  5
60B
  8
0
  6
CONTINUOUS
 62
4
 10
129.115629
 20
111.282023
 70
0
  0
VERTEX
  5
60C
  8
0
  6
CONTINUOUS
 62
4
 10
127.431458
 20
110.462799
 70
0
  0
VERTEX
  5
60D
  8
0
  6
CONTINUOUS
 62
4
 10
126.394351
 20
109.573889
 70
0
  0
VERTEX
  5
60E
  8
0
  6
CONTINUOUS
 62
4
 10
126.044163
 20
108.649453
 70
0
  0
SEQEND
  5
60F
  8
0
  0
LINE
  5
550
  8
0
  6
CONTINUOUS
 62
3
 10
126.044163
 20
108.649453
 30
0
 11
126.044163
 21
119.584453
 31
0
  0
ARC
  5
551
  8
0
  6
CONTINUOUS
 62
4
 10
144.269163
 20
109.013953
 30
0
 40
0.5832
 50
180
 51
0
  0
POLYLINE
  5
552
  8
0
  6
CONTINUOUS
 62
4
 66
1
 70
1
 10
0
 20
0
 30
0
  0
VERTEX
  5
610
  8
0
  6
CONTINUOUS
 62
4
 10
151.559163
 20
107.920453
 70
0
  0
VERTEX
  5
611
  8
0
  6
CONTINUOUS
 62
4
 10
151.419087
 20
108.276005
 70
0
  0
VERTEX
  5
612
  8
0
  6
CONTINUOUS
 62
4
 10
151.004244
 20
108.617894
 70
0
  0
VERTEX
  5
613
  8
0
  6
CONTINUOUS
 62
4
 10
150.330576
 20
108.93298
 70
0
  0
VERTEX
  5
614
  8
0
  6
CONTINUOUS
 62
4
 10
149.423971
 20
109.209155
 70
0
  0
VERTEX
  5
615
  8
0
  6
CONTINUOUS
 62
4
 10
148.31927
 20
109.435807
 70
0
  0
VERTEX
  5
616
  8
0
  6
CONTINUOUS
 62
4
 10
147.058925
 20
109.604224
 70
0
  0
VERTEX
  5
617
  8
0
  6
CONTINUOUS
 62
4
 10
145.691371
 20
109.707934
 70
0
  0
VERTEX
  5
618
  8
0
  6
CONTINUOUS
 62
4
 10
144.269163
 20
109.742953
 70
0
  0
VERTEX
  5
619
  8
0
  6
CONTINUOUS
 62
4
 10
142.846954
 20
109.707934
 70
0
  0
VERTEX
  5
61A
  8
0
  6
CONTINUOUS
 62
4
 10
141.4794
 20
109.604224
 70
0
  0
VERTEX
  5
61B
  8
0
  6
CONTINUOUS
 62
4
 10
140.219056
 20
109.435807
 70
0
  0
VERTEX
  5
61C
  8
0
  6
CONTINUOUS
 62
4
 10
139.114354
 20
109.209155
 70
0
  0
VERTEX
  5
61D
  8
0
  6
CONTINUOUS
 62
4
 10
138.207749
 20
108.93298
 70
0
  0
VERTEX
  5
61E
  8
0
  6
CONTINUOUS
 62
4
 10
137.534081
 20
108.617894
 70
0
  0
VERTEX
  5
61F
  8
0
  6
CONTINUOUS
 62
4
 10
137.119238
 20
108.276005
 70
0
  0
VERTEX
  5
620
  8
0
  6
CONTINUOUS
 62
4
 10
136.979163
 20
107.920453
 70
0
  0
VERTEX
  5
621
  8
0
  6
CONTINUOUS
 62
4
 10
137.119238
 20
107.564901
 70
0
  0
VERTEX
  5
622
  8
0
  6
CONTINUOUS
 62
4
 10
137.534081
 20
107.223013
 70
0
  0
VERTEX
  5
623
  8
0
  6
CONTINUOUS
 62
4
 10
138.207749
 20
106.907926
 70
0
  0
VERTEX
  5
624
  8
0
  6
CONTINUOUS
 62
4
 10
139.114354
 20
106.631751
 70
0
  0
VERTEX
  5
625
  8
0
  6
CONTINUOUS
 62
4
 10
140.219056
 20
106.4051
 70
0
  0
VERTEX
  5
626
  8
0
  6
CONTINUOUS
 62
4
 10
141.4794
 20
106.236683
 70
0
  0
VERTEX
  5
627
  8
0
  6
CONTINUOUS
 62
4
 10
142.846954
 20
106.132972
 70
0
  0
VERTEX
  5
628
  8
0
  6
CONTINUOUS
 62
4
 10
144.269163
 20
106.097953
 70
0
  0
VERTEX
  5
629
  8
0
  6
CONTINUOUS
 62
4
 10
145.691371
 20
106.132972
 70
0
  0
VERTEX
  5
62A
  8
0
  6
CONTINUOUS
 62
4
 10
147.058925
 20
106.236683
 70
0
  0
VERTEX
  5
62B
  8
0
  6
CONTINUOUS
 62
4
 10
148.31927
 20
106.4051
 70
0
  0
VERTEX
  5
62C
  8
0
  6
CONTINUOUS
 62
4
 10
149.423971
 20
106.631751
 70
0
  0
VERTEX
  5
62D
  8
0
  6
CONTINUOUS
 62
4
 10
150.330576
 20
106.907926
 70
0
  0
VERTEX
  5
62E
  8
0
  6
CONTINUOUS
 62
4
 10
151.004244
 20
107.223013
 70
0
  0
VERTEX
  5
62F
  8
0
  6
CONTINUOUS
 62
4
 10
151.419087
 20
107.564901
 70
0
  0
SEQEND
  5
630
  8
0
  0
POLYLINE
  5
574
  8
0
  6
CONTINUOUS
 62
4
 66
1
 70
0
 10
0
 20
0
 30
0
  0
VERTEX
  5
631
  8
0
  6
CONTINUOUS
 62
4
 10
137.12645
 20
108.284953
 70
0
  0
VERTEX
  5
632
  8
0
  6
CONTINUOUS
 62
4
 10
137.546119
 20
107.944791
 70
0
  0
VERTEX
  5
633
  8
0
  6
CONTINUOUS
 62
4
 10
138.222277
 20
107.631512
 70
0
  0
VERTEX
  5
634
  8
0
  6
CONTINUOUS
 62
4
 10
139.129128
 20
107.357068
 70
0
  0
VERTEX
  5
635
  8
0
  6
CONTINUOUS
 62
4
 10
140.232075
 20
107.13193
 70
0
  0
VERTEX
  5
636
  8
0
  6
CONTINUOUS
 62
4
 10
141.489041
 20
106.964686
 70
0
  0
VERTEX
  5
637
  8
0
  6
CONTINUOUS
 62
4
 10
142.85207
 20
106.861718
 70
0
  0
VERTEX
  5
638
  8
0
  6
CONTINUOUS
 62
4
 10
144.269163
 20
106.826953
 70
0
  0
VERTEX
  5
639
  8
0
  6
CONTINUOUS
 62
4
 10
145.686255
 20
106.861718
 70
0
  0
VERTEX
  5
63A
  8
0
  6
CONTINUOUS
 62
4
 10
147.049284
 20
106.964686
 70
0
  0
VERTEX
  5
63B
  8
0
  6
CONTINUOUS
 62
4
 10
148.30625
 20
107.13193
 70
0
  0
VERTEX
  5
63C
  8
0
  6
CONTINUOUS
 62
4
 10
149.409197
 20
107.357068
 70
0
  0
VERTEX
  5
63D
  8
0
  6
CONTINUOUS
 62
4
 10
150.316048
 20
107.631512
 70
0
  0
VERTEX
  5
63E
  8
0
  6
CONTINUOUS
 62
4
 10
150.992206
 20
107.944791
 70
0
  0
VERTEX
  5
63F
  8
0
  6
CONTINUOUS
 62
4
 10
151.411875
 20
108.284953
 70
0
  0
SEQEND
  5
640
  8
0
  0
POLYLINE
  5
585
  8
0
  6
CONTINUOUS
 62
4
 66
1
 70
1
 10
0
 20
0
 30
0
  0
VERTEX
  5
641
  8
0
  6
CONTINUOUS
 62
4
 10
138.49375
 20
111.153968
 70
0
  0
VERTEX
  5
642
  8
0
  6
CONTINUOUS
 62
4
 10
138.482613
 20
111.210505
 70
0
  0
VERTEX
  5
643
  8
0
  6
CONTINUOUS
 62
4
 10
138.449631
 20
111.264869
 70
0
  0
VERTEX
  5
644
  8
0
  6
CONTINUOUS
 62
4
 10
138.39607
 20
111.314971
 70
0
  0
VERTEX
  5
645
  8
0
  6
CONTINUOUS
 62
4
 10
138.32399
 20
111.358886
 70
0
  0
VERTEX
  5
646
  8
0
  6
CONTINUOUS
 62
4
 10
138.23616
 20
111.394926
 70
0
  0
VERTEX
  5
647
  8
0
  6
CONTINUOUS
 62
4
 10
138.135955
 20
111.421706
 70
0
  0
VERTEX
  5
648
  8
0
  6
CONTINUOUS
 62
4
 10
138.027227
 20
111.438198
 70
0
  0
VERTEX
  5
649
  8
0
  6
CONTINUOUS
 62
4
 10
137.914153
 20
111.443766
 70
0
  0
VERTEX
  5
64A
  8
0
  6
CONTINUOUS
 62
4
 10
137.801079
 20
111.438198
 70
0
  0
VERTEX
  5
64B
  8
0
  6
CONTINUOUS
 62
4
 10
137.692351
 20
111.421706
 70
0
  0
VERTEX
  5
64C
  8
0
  6
CONTINUOUS
 62
4
 10
137.592146
 20
111.394926
 70
0
  0
VERTEX
  5
64D
  8
0
  6
CONTINUOUS
 62
4
 10
137.504316
 20
111.358886
 70
0
  0
VERTEX
  5
64E
  8
0
  6
CONTINUOUS
 62
4
 10
137.432236
 20
111.314971
 70
0
  0
VERTEX
  5
64F
  8
0
  6
CONTINUOUS
 62
4
 10
137.378676
 20
111.264869
 70
0
  0
VERTEX
  5
650
  8
0
  6
CONTINUOUS
 62
4
 10
137.345693
 20
111.210505
 70
0
  0
VERTEX
  5
651
  8
0
  6
CONTINUOUS
 62
4
 10
137.334556
 20
111.153968
 70
0
  0
VERTEX
  5
652
  8
0
  6
CONTINUOUS
 62
4
 10
137.345693
 20
111.097431
 70
0
  0
VERTEX
  5
653
  8
0
  6
CONTINUOUS
 62
4
 10
137.378676
 20
111.043067
 70
0
  0
VERTEX
  5
654
  8
0
  6
CONTINUOUS
 62
4
 10
137.432236
 20
110.992964
 70
0
  0
VERTEX
  5
655
  8
0
  6
CONTINUOUS
 62
4
 10
137.504316
 20
110.949049
 70
0
  0
VERTEX
  5
656
  8
0
  6
CONTINUOUS
 62
4
 10
137.592146
 20
110.913009
 70
0
  0
VERTEX
  5
657
  8
0
  6
CONTINUOUS
 62
4
 10
137.692351
 20
110.886229
 70
0
  0
VERTEX
  5
658
  8
0
  6
CONTINUOUS
 62
4
 10
137.801079
 20
110.869738
 70
0
  0
VERTEX
  5
659
  8
0
  6
CONTINUOUS
 62
4
 10
137.914153
 20
110.864169
 70
0
  0
VERTEX
  5
65A
  8
0
  6
CONTINUOUS
 62
4
 10
138.027227
 20
110.869738
 70
0
  0
VERTEX
  5
65B
  8
0
  6
CONTINUOUS
 62
4
 10
138.135955
 20
110.886229
 70
0
  0
VERTEX
  5
65C
  8
0
  6
CONTINUOUS
 62
4
 10
138.23616
 20
110.913009
 70
0
  0
VERTEX
  5
65D
  8
0
  6
CONTINUOUS
 62
4
 10
138.32399
 20
110.949049
 70
0
  0
VERTEX
  5
65E
  8
0
  6
CONTINUOUS
 62
4
 10
138.39607
 20
110.992964
 70
0
  0
VERTEX
  5
65F
  8
0
  6
CONTINUOUS
 62
4
 10
138.449631
 20
111.043067
 70
0
  0
VERTEX
  5
660
  8
0
  6
CONTINUOUS
 62
4
 10
138.482613
 20
111.097431
 70
0
  0
SEQEND
  5
661
  8
0
  0
POLYLINE
  5
5A7
  8
0
  6
CONTINUOUS
 62
4
 66
1
 70
1
 10
0
 20
0
 30
0
  0
VERTEX
  5
662
  8
0
  6
CONTINUOUS
 62
4
 10
138.350477
 20
111.132798
 70
0
  0
VERTEX
  5
663
  8
0
  6
CONTINUOUS
 62
4
 10
138.34191
 20
111.176287
 70
0
  0
VERTEX
  5
664
  8
0
  6
CONTINUOUS
 62
4
 10
138.316539
 20
111.218106
 70
0
  0
VERTEX
  5
665
  8
0
  6
CONTINUOUS
 62
4
 10
138.275339
 20
111.256646
 70
0
  0
VERTEX
  5
666
  8
0
  6
CONTINUOUS
 62
4
 10
138.219892
 20
111.290427
 70
0
  0
VERTEX
  5
667
  8
0
  6
CONTINUOUS
 62
4
 10
138.152331
 20
111.31815
 70
0
  0
VERTEX
  5
668
  8
0
  6
CONTINUOUS
 62
4
 10
138.07525
 20
111.33875
 70
0
  0
VERTEX
  5
669
  8
0
  6
CONTINUOUS
 62
4
 10
137.991613
 20
111.351436
 70
0
  0
VERTEX
  5
66A
  8
0
  6
CONTINUOUS
 62
4
 10
137.904633
 20
111.355719
 70
0
  0
VERTEX
  5
66B
  8
0
  6
CONTINUOUS
 62
4
 10
137.817653
 20
111.351436
 70
0
  0
VERTEX
  5
66C
  8
0
  6
CONTINUOUS
 62
4
 10
137.734016
 20
111.33875
 70
0
  0
VERTEX
  5
66D
  8
0
  6
CONTINUOUS
 62
4
 10
137.656936
 20
111.31815
 70
0
  0
VERTEX
  5
66E
  8
0
  6
CONTINUOUS
 62
4
 10
137.589374
 20
111.290427
 70
0
  0
VERTEX
  5
66F
  8
0
  6
CONTINUOUS
 62
4
 10
137.533928
 20
111.256646
 70
0
  0
VERTEX
  5
670
  8
0
  6
CONTINUOUS
 62
4
 10
137.492727
 20
111.218106
 70
0
  0
VERTEX
  5
671
  8
0
  6
CONTINUOUS
 62
4
 10
137.467356
 20
111.176287
 70
0
  0
VERTEX
  5
672
  8
0
  6
CONTINUOUS
 62
4
 10
137.45879
 20
111.132798
 70
0
  0
VERTEX
  5
673
  8
0
  6
CONTINUOUS
 62
4
 10
137.467356
 20
111.089308
 70
0
  0
VERTEX
  5
674
  8
0
  6
CONTINUOUS
 62
4
 10
137.492727
 20
111.047489
 70
0
  0
VERTEX
  5
675
  8
0
  6
CONTINUOUS
 62
4
 10
137.533928
 20
111.008949
 70
0
  0
VERTEX
  5
676
  8
0
  6
CONTINUOUS
 62
4
 10
137.589374
 20
110.975168
 70
0
  0
VERTEX
  5
677
  8
0
  6
CONTINUOUS
 62
4
 10
137.656936
 20
110.947445
 70
0
  0
VERTEX
  5
678
  8
0
  6
CONTINUOUS
 62
4
 10
137.734016
 20
110.926845
 70
0
  0
VERTEX
  5
679
  8
0
  6
CONTINUOUS
 62
4
 10
137.817653
 20
110.914159
 70
0
  0
VERTEX
  5
67A
  8
0
  6
CONTINUOUS
 62
4
 10
137.904633
 20
110.909876
 70
0
  0
VERTEX
  5
67B
  8
0
  6
CONTINUOUS
 62
4
 10
137.991613
 20
110.914159
 70
0
  0
VERTEX
  5
67C
  8
0
  6
CONTINUOUS
 62
4
 10
138.07525
 20
110.926845
 70
0
  0
VERTEX
  5
67D
  8
0
  6
CONTINUOUS
 62
4
 10
138.152331
 20
110.947445
 70
0
  0
VERTEX
  5
67E
  8
0
  6
CONTINUOUS
 62
4
 10
138.219892
 20
110.975168
 70
0
  0
VERTEX
  5
67F
  8
0
  6
CONTINUOUS
 62
4
 10
138.275339
 20
111.008949
 70
0
  0
VERTEX
  5
680
  8
0
  6
CONTINUOUS
 62
4
 10
138.316539
 20
111.047489
 70
0
  0
VERTEX
  5
681
  8
0
  6
CONTINUOUS
 62
4
 10
138.34191
 20
111.089308
 70
0
  0
SEQEND
  5
682
  8
0
  0
LINE
  5
5C9
  8
0
  6
CONTINUOUS
 62
4
 10
139.51538
 20
110.139346
 30
0
 11
138.103678
 21
110.139346
 31
0
  0
LINE
  5
5CA
  8
0
  6
CONTINUOUS
 62
4
 10
137.842401
 20
110.139346
 30
0
 11
137.716029
 21
110.139346
 31
0
  0
ARC
  5
5CB
  8
0
  6
CONTINUOUS
 62
4
 10
138.809529
 20
109.957096
 30
0
 40
0.98415
 50
155.957924
 51
24.042076
  0
ARC
  5
5CC
  8
0
  6
CONTINUOUS
 62
4
 10
138.809529
 20
109.957096
 30
0
 40
0.729
 50
146.632987
 51
33.367013
  0
LINE
  5
5CD
  8
0
  6
CONTINUOUS
 62
4
 10
139.903029
 20
110.139346
 30
0
 11
139.776657
 21
110.139346
 31
0
  0
LINE
  5
5CE
  8
0
  6
CONTINUOUS
 62
4
 10
139.903029
 20
110.358046
 30
0
 11
137.716029
 21
110.358046
 31
0
  0
LINE
  5
5CF
  8
0
  6
CONTINUOUS
 62
4
 10
137.716029
 20
110.139346
 30
0
 11
137.716029
 21
110.358046
 31
0
  0
LINE
  5
5D0
  8
0
  6
CONTINUOUS
 62
4
 10
139.903029
 20
110.139346
 30
0
 11
139.903029
 21
110.358046
 31
0
  0
LINE
  5
5D1
  8
0
  6
CONTINUOUS
 62
4
 10
143.685963
 20
109.013953
 30
0
 11
143.685963
 21
109.737112
 31
0
  0
LINE
  5
5D2
  8
0
  6
CONTINUOUS
 62
4
 10
144.852363
 20
109.013953
 30
0
 11
144.852363
 21
109.737112
 31
0
  0
LINE
  5
5D3
  8
0
  6
CONTINUOUS
 62
3
 10
162.494163
 20
108.649453
 30
0
 11
162.494163
 21
119.584453
 31
0
  0
INSERT
  5
6AE
  8
0
  2
SPECLCB21001
 10
169.686448
 20
79.521241
 30
0
 41
1
 42
1
 43
1
 50
0
  0
ENDSEC
999
Created By CadLib version 4.0.36.7
999
CadLib website: www.woutware.com
  0
EOF
