  0
SECTION
  2
HEADER
  9
$ACADVER
  1
AC1015
  9
$ACADMAINTVER
 70
     6
  9
$DWGCODEPAGE
  3
ANSI_932
  9
$INSBASE
 10
0.0
 20
0.0
 30
0.0
  9
$EXTMIN
 10
-17.34860168526109
 20
220.1458013981541
 30
0.0
  9
$EXTMAX
 10
87.65135753374176
 20
362.6456258484101
 30
0.0
  9
$LIMMIN
 10
0.0
 20
0.0
  9
$LIMMAX
 10
420.0
 20
297.0
  9
$ORTHOMODE
 70
     0
  9
$REGENMODE
 70
     1
  9
$FILLMODE
 70
     1
  9
$QTEXTMODE
 70
     0
  9
$MIRRTEXT
 70
     1
  9
$LTSCALE
 40
1.0
  9
$ATTMODE
 70
     1
  9
$TEXTSIZE
 40
2.5
  9
$TRACEWID
 40
1.0
  9
$TEXTSTYLE
  7
Standard
  9
$CLAYER
  8
0
  9
$CELTYPE
  6
ByLayer
  9
$CECOLOR
 62
   256
  9
$CELTSCALE
 40
1.0
  9
$DISPSILH
 70
     0
  9
$DIMSCALE
 40
1.0
  9
$DIMASZ
 40
2.5
  9
$DIMEXO
 40
0.625
  9
$DIMDLI
 40
3.75
  9
$DIMRND
 40
0.0
  9
$DIMDLE
 40
0.0
  9
$DIMEXE
 40
1.25
  9
$DIMTP
 40
0.0
  9
$DIMTM
 40
0.0
  9
$DIMTXT
 40
2.5
  9
$DIMCEN
 40
2.5
  9
$DIMTSZ
 40
0.0
  9
$DIMTOL
 70
     0
  9
$DIMLIM
 70
     0
  9
$DIMTIH
 70
     0
  9
$DIMTOH
 70
     0
  9
$DIMSE1
 70
     0
  9
$DIMSE2
 70
     0
  9
$DIMTAD
 70
     1
  9
$DIMZIN
 70
     8
  9
$DIMBLK
  1

  9
$DIMASO
 70
     1
  9
$DIMSHO
 70
     1
  9
$DIMPOST
  1

  9
$DIMAPOST
  1

  9
$DIMALT
 70
     0
  9
$DIMALTD
 70
     3
  9
$DIMALTF
 40
0.03937007874016
  9
$DIMLFAC
 40
1.0
  9
$DIMTOFL
 70
     1
  9
$DIMTVP
 40
0.0
  9
$DIMTIX
 70
     0
  9
$DIMSOXD
 70
     0
  9
$DIMSAH
 70
     0
  9
$DIMBLK1
  1

  9
$DIMBLK2
  1

  9
$DIMSTYLE
  2
ISO-25
  9
$DIMCLRD
 70
     0
  9
$DIMCLRE
 70
     0
  9
$DIMCLRT
 70
     0
  9
$DIMTFAC
 40
1.0
  9
$DIMGAP
 40
0.625
  9
$DIMJUST
 70
     0
  9
$DIMSD1
 70
     0
  9
$DIMSD2
 70
     0
  9
$DIMTOLJ
 70
     0
  9
$DIMTZIN
 70
     8
  9
$DIMALTZ
 70
     0
  9
$DIMALTTZ
 70
     0
  9
$DIMUPT
 70
     0
  9
$DIMDEC
 70
     2
  9
$DIMTDEC
 70
     2
  9
$DIMALTU
 70
     2
  9
$DIMALTTD
 70
     3
  9
$DIMTXSTY
  7
Standard
  9
$DIMAUNIT
 70
     0
  9
$DIMADEC
 70
     0
  9
$DIMALTRND
 40
0.0
  9
$DIMAZIN
 70
     0
  9
$DIMDSEP
 70
    44
  9
$DIMATFIT
 70
     3
  9
$DIMFRAC
 70
     0
  9
$DIMLDRBLK
  1

  9
$DIMLUNIT
 70
     2
  9
$DIMLWD
 70
    -2
  9
$DIMLWE
 70
    -2
  9
$DIMTMOVE
 70
     0
  9
$LUNITS
 70
     2
  9
$LUPREC
 70
     4
  9
$SKETCHINC
 40
1.0
  9
$FILLETRAD
 40
10.0
  9
$AUNITS
 70
     0
  9
$AUPREC
 70
     0
  9
$MENU
  1
.
  9
$ELEVATION
 40
0.0
  9
$PELEVATION
 40
0.0
  9
$THICKNESS
 40
0.0
  9
$LIMCHECK
 70
     0
  9
$CHAMFERA
 40
0.0
  9
$CHAMFERB
 40
0.0
  9
$CHAMFERC
 40
0.0
  9
$CHAMFERD
 40
0.0
  9
$SKPOLY
 70
     0
  9
$TDCREATE
 40
2458393.652257489
  9
$TDUCREATE
 40
2458393.277257489
  9
$TDUPDATE
 40
2458393.652524028
  9
$TDUUPDATE
 40
2458393.277524028
  9
$TDINDWG
 40
0.0002670949
  9
$TDUSRTIMER
 40
0.000266713
  9
$USRTIMER
 70
     1
  9
$ANGBASE
 50
0.0
  9
$ANGDIR
 70
     0
  9
$PDMODE
 70
     0
  9
$PDSIZE
 40
0.0
  9
$PLINEWID
 40
0.0
  9
$SPLFRAME
 70
     0
  9
$SPLINETYPE
 70
     6
  9
$SPLINESEGS
 70
     8
  9
$HANDSEED
  5
1A2EA
  9
$SURFTAB1
 70
     6
  9
$SURFTAB2
 70
     6
  9
$SURFTYPE
 70
     6
  9
$SURFU
 70
     6
  9
$SURFV
 70
     6
  9
$UCSBASE
  2

  9
$UCSNAME
  2

  9
$UCSORG
 10
0.0
 20
0.0
 30
0.0
  9
$UCSXDIR
 10
1.0
 20
0.0
 30
0.0
  9
$UCSYDIR
 10
0.0
 20
1.0
 30
0.0
  9
$UCSORTHOREF
  2

  9
$UCSORTHOVIEW
 70
     0
  9
$UCSORGTOP
 10
0.0
 20
0.0
 30
0.0
  9
$UCSORGBOTTOM
 10
0.0
 20
0.0
 30
0.0
  9
$UCSORGLEFT
 10
0.0
 20
0.0
 30
0.0
  9
$UCSORGRIGHT
 10
0.0
 20
0.0
 30
0.0
  9
$UCSORGFRONT
 10
0.0
 20
0.0
 30
0.0
  9
$UCSORGBACK
 10
0.0
 20
0.0
 30
0.0
  9
$PUCSBASE
  2

  9
$PUCSNAME
  2

  9
$PUCSORG
 10
0.0
 20
0.0
 30
0.0
  9
$PUCSXDIR
 10
1.0
 20
0.0
 30
0.0
  9
$PUCSYDIR
 10
0.0
 20
1.0
 30
0.0
  9
$PUCSORTHOREF
  2

  9
$PUCSORTHOVIEW
 70
     0
  9
$PUCSORGTOP
 10
0.0
 20
0.0
 30
0.0
  9
$PUCSORGBOTTOM
 10
0.0
 20
0.0
 30
0.0
  9
$PUCSORGLEFT
 10
0.0
 20
0.0
 30
0.0
  9
$PUCSORGRIGHT
 10
0.0
 20
0.0
 30
0.0
  9
$PUCSORGFRONT
 10
0.0
 20
0.0
 30
0.0
  9
$PUCSORGBACK
 10
0.0
 20
0.0
 30
0.0
  9
$USERI1
 70
     0
  9
$USERI2
 70
     0
  9
$USERI3
 70
     0
  9
$USERI4
 70
     0
  9
$USERI5
 70
     0
  9
$USERR1
 40
0.0
  9
$USERR2
 40
0.0
  9
$USERR3
 40
0.0
  9
$USERR4
 40
0.0
  9
$USERR5
 40
0.0
  9
$WORLDVIEW
 70
     1
  9
$SHADEDGE
 70
     3
  9
$SHADEDIF
 70
    70
  9
$TILEMODE
 70
     1
  9
$MAXACTVP
 70
    64
  9
$PINSBASE
 10
0.0
 20
0.0
 30
0.0
  9
$PLIMCHECK
 70
     0
  9
$PEXTMIN
 10
1.000000000000000E+20
 20
1.000000000000000E+20
 30
1.000000000000000E+20
  9
$PEXTMAX
 10
-1.000000000000000E+20
 20
-1.000000000000000E+20
 30
-1.000000000000000E+20
  9
$PLIMMIN
 10
0.0
 20
0.0
  9
$PLIMMAX
 10
420.0
 20
297.0
  9
$UNITMODE
 70
     0
  9
$VISRETAIN
 70
     1
  9
$PLINEGEN
 70
     0
  9
$PSLTSCALE
 70
     1
  9
$TREEDEPTH
 70
  3020
  9
$CMLSTYLE
  2
Standard
  9
$CMLJUST
 70
     0
  9
$CMLSCALE
 40
20.0
  9
$PROXYGRAPHICS
 70
     1
  9
$MEASUREMENT
 70
     1
  9
$CELWEIGHT
370
    -1
  9
$ENDCAPS
280
     0
  9
$JOINSTYLE
280
     0
  9
$LWDISPLAY
290
     0
  9
$INSUNITS
 70
     4
  9
$HYPERLINKBASE
  1

  9
$STYLESHEET
  1

  9
$XEDIT
290
     1
  9
$CEPSNTYPE
380
     0
  9
$PSTYLEMODE
290
     1
  9
$FINGERPRINTGUID
  2
{33A685FE-AC4A-453B-81F7-85FA890E7132}
  9
$VERSIONGUID
  2
{FAEB1C32-E019-11D5-929B-00C0DF256EC4}
  9
$EXTNAMES
290
     1
  9
$PSVPSCALE
 40
0.0
  9
$OLESTARTUP
290
     0
  0
ENDSEC
  0
SECTION
  2
CLASSES
  0
CLASS
  1
ACDBDICTIONARYWDFLT
  2
AcDbDictionaryWithDefault
  3
ObjectDBX Classes
 90
        0
280
     0
281
     0
  0
CLASS
  1
VISUALSTYLE
  2
AcDbVisualStyle
  3
ObjectDBX Classes
 90
     4095
280
     0
281
     0
  0
CLASS
  1
MATERIAL
  2
AcDbMaterial
  3
ObjectDBX Classes
 90
     1153
280
     0
281
     0
  0
CLASS
  1
SCALE
  2
AcDbScale
  3
ObjectDBX Classes
 90
     1153
280
     0
281
     0
  0
CLASS
  1
SORTENTSTABLE
  2
AcDbSortentsTable
  3
ObjectDBX Classes
 90
        0
280
     0
281
     0
  0
CLASS
  1
DICTIONARYVAR
  2
AcDbDictionaryVar
  3
ObjectDBX Classes
 90
        0
280
     0
281
     0
  0
CLASS
  1
ACDBPLACEHOLDER
  2
AcDbPlaceHolder
  3
ObjectDBX Classes
 90
        0
280
     0
281
     0
  0
CLASS
  1
LAYOUT
  2
AcDbLayout
  3
ObjectDBX Classes
 90
        0
280
     0
281
     0
  0
ENDSEC
  0
SECTION
  2
TABLES
  0
TABLE
  2
VPORT
  5
8
330
0
100
AcDbSymbolTable
 70
     1
  0
VPORT
  5
29
330
8
100
AcDbSymbolTableRecord
100
AcDbViewportTableRecord
  2
*Active
 70
     0
 10
0.0
 20
0.0
 11
1.0
 21
1.0
 12
63.43664197492001
 22
273.0686970522226
 13
0.0
 23
0.0
 14
10.0
 24
10.0
 15
10.0
 25
10.0
 16
0.0
 26
0.0
 36
1.0
 17
0.0
 27
0.0
 37
0.0
 40
245.313186914153
 41
1.036802030456853
 42
50.0
 43
0.0
 44
0.0
 50
0.0
 51
0.0
 71
     0
 72
   100
 73
     1
 74
     3
 75
     0
 76
     0
 77
     0
 78
     0
281
     0
 65
     1
110
0.0
120
0.0
130
0.0
111
1.0
121
0.0
131
0.0
112
0.0
122
1.0
132
0.0
 79
     0
146
0.0
  0
ENDTAB
  0
TABLE
  2
LTYPE
  5
5
330
0
100
AcDbSymbolTable
 70
     4
  0
LTYPE
  5
14
330
5
100
AcDbSymbolTableRecord
100
AcDbLinetypeTableRecord
  2
ByBlock
 70
     0
  3

 72
    65
 73
     0
 40
0.0
  0
LTYPE
  5
15
330
5
100
AcDbSymbolTableRecord
100
AcDbLinetypeTableRecord
  2
ByLayer
 70
     0
  3

 72
    65
 73
     0
 40
0.0
  0
LTYPE
  5
16
330
5
100
AcDbSymbolTableRecord
100
AcDbLinetypeTableRecord
  2
Continuous
 70
     0
  3
Solid line
 72
    65
 73
     0
 40
0.0
  0
LTYPE
  5
6D
330
5
100
AcDbSymbolTableRecord
100
AcDbLinetypeTableRecord
  2
CENTER
 70
     0
  3
____ _ ____ _ ____ _ ____ _ ____ _ ____ _ ____
 72
    65
 73
     4
 40
0.6
 49
0.375
 74
     0
 49
-0.075
 74
     0
 49
0.075
 74
     0
 49
-0.075
 74
     0
  0
LTYPE
  5
6E
330
5
100
AcDbSymbolTableRecord
100
AcDbLinetypeTableRecord
  2
PHANTOM
 70
     0
  3
_____ _ _ _____ _ _ _____ _ _ _____
 72
    65
 73
     6
 40
0.8
 49
0.45
 74
     0
 49
-0.05
 74
     0
 49
0.1
 74
     0
 49
-0.05
 74
     0
 49
0.1
 74
     0
 49
-0.05
 74
     0
  0
LTYPE
  5
6F
330
5
100
AcDbSymbolTableRecord
100
AcDbLinetypeTableRecord
  2
CONTINOUS
 70
     0
  3
Solid line
 72
    65
 73
     0
 40
0.0
  0
ENDTAB
  0
TABLE
  2
LAYER
  5
2
330
0
100
AcDbSymbolTable
 70
     1
  0
LAYER
  5
10
330
2
100
AcDbSymbolTableRecord
100
AcDbLayerTableRecord
  2
0
 70
     0
 62
     7
  6
Continuous
370
    -3
390
F
  0
ENDTAB
  0
TABLE
  2
STYLE
  5
3
330
0
100
AcDbSymbolTable
 70
     1
  0
STYLE
  5
11
330
3
100
AcDbSymbolTableRecord
100
AcDbTextStyleTableRecord
  2
Standard
 70
     0
 40
0.0
 41
1.0
 50
0.0
 71
     0
 42
2.5
  3
txt.shx
  4
extfont2.shx
  0
ENDTAB
  0
TABLE
  2
VIEW
  5
6
330
0
100
AcDbSymbolTable
 70
     0
  0
ENDTAB
  0
TABLE
  2
UCS
  5
7
330
0
100
AcDbSymbolTable
 70
     0
  0
ENDTAB
  0
TABLE
  2
APPID
  5
9
330
0
100
AcDbSymbolTable
 70
     7
  0
APPID
  5
12
330
9
100
AcDbSymbolTableRecord
100
AcDbRegAppTableRecord
  2
ACAD
 70
     0
  0
APPID
  5
72
330
9
100
AcDbSymbolTableRecord
100
AcDbRegAppTableRecord
  2
ACAD_PSEXT
 70
     0
  0
APPID
  5
73
330
9
100
AcDbSymbolTableRecord
100
AcDbRegAppTableRecord
  2
ACAECLAYERSTANDARD
 70
     0
  0
APPID
  5
74
330
9
100
AcDbSymbolTableRecord
100
AcDbRegAppTableRecord
  2
ACAD_SPLINE_DATA
 70
     0
  0
APPID
  5
75
330
9
100
AcDbSymbolTableRecord
100
AcDbRegAppTableRecord
  2
ACAD_SPLINE_DATA2
 70
     0
  0
APPID
  5
19FA0
330
9
100
AcDbSymbolTableRecord
100
AcDbRegAppTableRecord
  2
AcadAnnotative
 70
     0
  0
APPID
  5
19FA1
330
9
100
AcDbSymbolTableRecord
100
AcDbRegAppTableRecord
  2
AcadAnnoPO
 70
     0
  0
ENDTAB
  0
TABLE
  2
DIMSTYLE
  5
A
330
0
100
AcDbSymbolTable
 70
     1
100
AcDbDimStyleTable
  0
DIMSTYLE
105
27
330
A
100
AcDbSymbolTableRecord
100
AcDbDimStyleTableRecord
  2
ISO-25
 70
     0
 41
2.5
 42
0.625
 43
3.75
 44
1.25
 73
     0
 74
     0
 77
     1
 78
     8
140
2.5
141
2.5
143
0.03937007874016
147
0.625
171
     3
172
     1
178
     0
271
     2
272
     2
274
     3
278
    44
283
     0
284
     8
340
11
  0
ENDTAB
  0
TABLE
  2
BLOCK_RECORD
  5
1
330
0
100
AcDbSymbolTable
 70
     4
  0
BLOCK_RECORD
  5
1F
330
1
100
AcDbSymbolTableRecord
100
AcDbBlockTableRecord
  2
*Model_Space
340
22
  0
BLOCK_RECORD
  5
1B
330
1
100
AcDbSymbolTableRecord
100
AcDbBlockTableRecord
  2
*Paper_Space
340
1E
  0
BLOCK_RECORD
  5
23
330
1
100
AcDbSymbolTableRecord
100
AcDbBlockTableRecord
  2
*Paper_Space0
340
26
  0
BLOCK_RECORD
  5
2158
330
1
100
AcDbSymbolTableRecord
100
AcDbBlockTableRecord
  2
_OPEN
340
0
  0
BLOCK_RECORD
  5
323C
330
1
100
AcDbSymbolTableRecord
100
AcDbBlockTableRecord
  2
_OPEN30
340
0
102
{BLKREFS
331
1A1EA
331
1A1EB
331
1A1F0
331
1A1F1
331
1A1F6
331
1A1F7
331
1A29C
331
1A29D
331
1A2A2
331
1A2A3
331
1A2A8
331
1A2A9
102
}
  0
ENDTAB
  0
ENDSEC
  0
SECTION
  2
BLOCKS
  0
BLOCK
  5
20
330
1F
100
AcDbEntity
  8
0
100
AcDbBlockBegin
  2
*Model_Space
 70
     0
 10
0.0
 20
0.0
 30
0.0
  3
*Model_Space
  1
Acad:XRef
  0
ENDBLK
  5
21
330
1F
100
AcDbEntity
  8
0
100
AcDbBlockEnd
  0
BLOCK
  5
1C
330
1B
100
AcDbEntity
 67
     1
  8
0
100
AcDbBlockBegin
  2
*Paper_Space
 70
     0
 10
0.0
 20
0.0
 30
0.0
  3
*Paper_Space
  1
Acad:XRef
  0
ENDBLK
  5
1D
330
1B
100
AcDbEntity
 67
     1
  8
0
100
AcDbBlockEnd
  0
BLOCK
  5
24
330
23
100
AcDbEntity
  8
0
100
AcDbBlockBegin
  2
*Paper_Space0
 70
     0
 10
0.0
 20
0.0
 30
0.0
  3
*Paper_Space0
  1
Acad:XRef
  0
ENDBLK
  5
25
330
23
100
AcDbEntity
  8
0
100
AcDbBlockEnd
  0
BLOCK
  5
2159
330
2158
100
AcDbEntity
  8
0
100
AcDbBlockBegin
  2
_OPEN
 70
     0
 10
0.0
 20
0.0
 30
0.0
  3
_OPEN
  1

  0
LINE
  5
215A
330
2158
100
AcDbEntity
  8
0
  6
ByBlock
 62
     0
100
AcDbLine
 10
-1.0
 20
0.1666666666666667
 30
0.0
 11
0.0
 21
0.0
 31
0.0
  0
LINE
  5
215B
330
2158
100
AcDbEntity
  8
0
  6
ByBlock
 62
     0
100
AcDbLine
 10
0.0
 20
0.0
 30
0.0
 11
-1.0
 21
-0.1666666666666667
 31
0.0
  0
LINE
  5
215C
330
2158
100
AcDbEntity
  8
0
  6
ByBlock
 62
     0
100
AcDbLine
 10
0.0
 20
0.0
 30
0.0
 11
-1.0
 21
0.0
 31
0.0
  0
ENDBLK
  5
215D
330
2158
100
AcDbEntity
  8
0
100
AcDbBlockEnd
  0
BLOCK
  5
323D
330
323C
100
AcDbEntity
  8
0
100
AcDbBlockBegin
  2
_OPEN30
 70
     0
 10
0.0
 20
0.0
 30
0.0
  3
_OPEN30
  1

  0
LINE
  5
323E
330
323C
100
AcDbEntity
  8
0
 62
     0
100
AcDbLine
 10
-1.0
 20
0.26794919
 30
0.0
 11
0.0
 21
0.0
 31
0.0
  0
LINE
  5
323F
330
323C
100
AcDbEntity
  8
0
 62
     0
100
AcDbLine
 10
0.0
 20
0.0
 30
0.0
 11
-1.0
 21
-0.26794919
 31
0.0
  0
LINE
  5
3240
330
323C
100
AcDbEntity
  8
0
 62
     0
100
AcDbLine
 10
0.0
 20
0.0
 30
0.0
 11
-1.0
 21
0.0
 31
0.0
  0
ENDBLK
  5
3241
330
323C
100
AcDbEntity
  8
0
100
AcDbBlockEnd
  0
ENDSEC
  0
SECTION
  2
ENTITIES
  0
TEXT
  5
1A1FC
330
1F
100
AcDbEntity
  8
0
 62
     7
370
     0
100
AcDbText
 10
21.23137792424008
 20
359.1656258484101
 30
0.0
 40
4.0
  1
センサ設定器
 72
     1
 11
35.15137792424008
 21
361.1656258484101
 31
0.0
100
AcDbText
 73
     2
  0
TEXT
  5
1A1FD
330
1F
100
AcDbEntity
  8
0
 62
     7
370
     0
100
AcDbText
 10
-16.34860168526109
 20
226.1458013981541
 30
0.0
 40
3.0
  1
通信方式
 11
-16.34860168526109
 21
227.6458013981541
 31
0.0
100
AcDbText
 73
     2
  0
TEXT
  5
1A1FE
330
1F
100
AcDbEntity
  8
0
 62
     7
370
     0
100
AcDbText
 10
18.65138472107321
 20
226.1458013981541
 30
0.0
 40
3.0
  1
IR通信（赤外線通信）
 11
18.65138472107321
 21
227.6458013981541
 31
0.0
100
AcDbText
 73
     2
  0
TEXT
  5
1A1FF
330
1F
100
AcDbEntity
  8
0
 62
     7
370
     0
100
AcDbText
 10
-16.34860168526109
 20
236.1458013981541
 30
0.0
 40
3.0
  1
形名
 11
-16.34860168526109
 21
237.6458013981541
 31
0.0
100
AcDbText
 73
     2
  0
TEXT
  5
1A200
330
1F
100
AcDbEntity
  8
0
 62
     7
370
     0
100
AcDbText
 10
18.65138472107321
 20
236.1458013981541
 30
0.0
 40
3.0
  1
MN3061
 11
18.65138472107321
 21
237.6458013981541
 31
0.0
100
AcDbText
 73
     2
  0
TEXT
  5
1A201
330
1F
100
AcDbEntity
  8
0
 62
     7
370
     0
100
AcDbText
 10
-16.34860168526109
 20
231.1458013981541
 30
0.0
 40
3.0
  1
電源電圧
 11
-16.34860168526109
 21
232.6458013981541
 31
0.0
100
AcDbText
 73
     2
  0
TEXT
  5
1A202
330
1F
100
AcDbEntity
  8
0
 62
     7
370
     0
100
AcDbText
 10
18.65138472107321
 20
231.1458013981541
 30
0.0
 40
3.0
  1
DC3V　単3アルカリ乾電池2本使用
 11
18.65138472107321
 21
232.6458013981541
 31
0.0
100
AcDbText
 73
     2
  0
TEXT
  5
1A203
330
1F
100
AcDbEntity
  8
0
 62
     7
370
     0
100
AcDbText
 10
-16.34860168526109
 20
221.1458013981541
 30
0.0
 40
3.0
  1
通信距離
 11
-16.34860168526109
 21
222.6458013981541
 31
0.0
100
AcDbText
 73
     2
  0
TEXT
  5
1A204
330
1F
100
AcDbEntity
  8
0
 62
     7
370
     0
100
AcDbText
 10
18.65138472107321
 20
221.1458013981541
 30
0.0
 40
3.0
  1
3m
 11
18.65138472107321
 21
222.6458013981541
 31
0.0
100
AcDbText
 73
     2
  0
LWPOLYLINE
  5
1A205
330
1F
100
AcDbEntity
  8
0
 62
     7
370
     0
100
AcDbPolyline
 90
        4
 70
     1
 43
0.0
 10
-17.34860168526109
 20
225.1458013981541
 10
17.65138472107321
 20
225.1458013981541
 10
17.65138472107321
 20
220.1458013981541
 10
-17.34860168526109
 20
220.1458013981541
  0
LWPOLYLINE
  5
1A206
330
1F
100
AcDbEntity
  8
0
 62
     7
370
     0
100
AcDbPolyline
 90
        4
 70
     1
 43
0.0
 10
17.65138472107321
 20
225.1458013981541
 10
87.65135753374176
 20
225.1458013981541
 10
87.65135753374176
 20
220.1458013981541
 10
17.65138472107321
 20
220.1458013981541
  0
LWPOLYLINE
  5
1A207
330
1F
100
AcDbEntity
  8
0
 62
     7
370
     0
100
AcDbPolyline
 90
        4
 70
     1
 43
0.0
 10
-17.34860168526109
 20
230.1458013981541
 10
17.65138472107321
 20
230.1458013981541
 10
17.65138472107321
 20
225.1458013981541
 10
-17.34860168526109
 20
225.1458013981541
  0
LWPOLYLINE
  5
1A208
330
1F
100
AcDbEntity
  8
0
 62
     7
370
     0
100
AcDbPolyline
 90
        4
 70
     1
 43
0.0
 10
17.65138472107321
 20
230.1458013981541
 10
87.65135753374176
 20
230.1458013981541
 10
87.65135753374176
 20
225.1458013981541
 10
17.65138472107321
 20
225.1458013981541
  0
LWPOLYLINE
  5
1A209
330
1F
100
AcDbEntity
  8
0
 62
     7
370
     0
100
AcDbPolyline
 90
        4
 70
     1
 43
0.0
 10
-17.34860168526109
 20
235.1458013981541
 10
17.65138472107321
 20
235.1458013981541
 10
17.65138472107321
 20
230.1458013981541
 10
-17.34860168526109
 20
230.1458013981541
  0
LWPOLYLINE
  5
1A20A
330
1F
100
AcDbEntity
  8
0
 62
     7
370
     0
100
AcDbPolyline
 90
        4
 70
     1
 43
0.0
 10
17.65138472107321
 20
235.1458013981541
 10
87.65135753374176
 20
235.1458013981541
 10
87.65135753374176
 20
230.1458013981541
 10
17.65138472107321
 20
230.1458013981541
  0
LWPOLYLINE
  5
1A20B
330
1F
100
AcDbEntity
  8
0
 62
     7
370
     0
100
AcDbPolyline
 90
        4
 70
     1
 43
0.0
 10
-17.34860168526109
 20
240.1458013981541
 10
17.65138472107321
 20
240.1458013981541
 10
17.65138472107321
 20
235.1458013981541
 10
-17.34860168526109
 20
235.1458013981541
  0
LWPOLYLINE
  5
1A20C
330
1F
100
AcDbEntity
  8
0
 62
     7
370
     0
100
AcDbPolyline
 90
        4
 70
     1
 43
0.0
 10
17.65138472107321
 20
240.1458013981541
 10
87.65135753374176
 20
240.1458013981541
 10
87.65135753374176
 20
235.1458013981541
 10
17.65138472107321
 20
235.1458013981541
  0
LINE
  5
1A20D
330
1F
100
AcDbEntity
  8
0
  6
Continuous
 62
     7
370
     0
100
AcDbLine
 10
42.41193682606041
 20
330.255726032393
 30
0.0
 11
45.97228807048987
 21
330.255726032393
 31
0.0
  0
LINE
  5
1A20E
330
1F
100
AcDbEntity
  8
0
  6
Continuous
 62
     7
370
     0
100
AcDbLine
 10
42.41193682606041
 20
266.0557023161301
 30
0.0
 11
45.97228807048987
 21
266.0557023161301
 31
0.0
  0
ARC
  5
1A20F
330
1F
100
AcDbEntity
  8
0
  6
Continuous
 62
     7
370
     0
100
AcDbCircle
 10
45.97228807048987
 20
266.6645811161301
 30
0.0
 40
0.6088788
100
AcDbArc
 50
270.0
 51
287.3540246362409
  0
LINE
  5
1A210
330
1F
100
AcDbEntity
  8
0
  6
Continuous
 62
     7
370
     0
100
AcDbLine
 10
42.41193682606041
 20
330.255726032393
 30
0.0
 11
42.41193682606041
 21
266.0557023161301
 31
0.0
  0
LINE
  5
1A211
330
1F
100
AcDbEntity
  8
0
  6
Continuous
 62
     7
370
     0
100
AcDbLine
 10
43.9341338260607
 20
330.255726032393
 30
0.0
 11
43.93413382605968
 21
265.8972368723941
 31
0.0
  0
LINE
  5
1A212
330
1F
100
AcDbEntity
  8
0
  6
Continuous
 62
     7
370
     0
100
AcDbLine
 10
50.93624002606032
 20
328.2858868712771
 30
0.0
 11
50.93624002606032
 21
301.677973375059
 31
0.0
  0
ARC
  5
1A213
330
1F
100
AcDbEntity
  8
0
  6
Continuous
 62
     7
370
     0
100
AcDbCircle
 10
50.32736122606048
 20
328.2858868712771
 30
0.0
 40
0.6088788
100
AcDbArc
 50
0.0
 51
72.6459753637607
  0
LINE
  5
1A214
330
1F
100
AcDbEntity
  8
0
  6
Continuous
 62
     7
370
     0
100
AcDbLine
 10
46.06520962606061
 20
328.733529032393
 30
0.0
 11
46.06520962606061
 21
267.577899316129
 31
0.0
  0
LINE
  5
1A215
330
1F
100
AcDbEntity
  8
0
  6
Continuous
 62
     7
370
     0
100
AcDbLine
 10
46.15390139038027
 20
330.2280098560431
 30
0.0
 11
50.50897454595139
 21
328.867049494928
 31
0.0
  0
ARC
  5
1A216
330
1F
100
AcDbEntity
  8
0
  6
Continuous
 62
     7
370
     0
100
AcDbCircle
 10
45.97228807048987
 20
329.646847232393
 30
0.0
 40
0.6088788
100
AcDbArc
 50
72.6459753637607
 51
90.0
  0
LINE
  5
1A217
330
1F
100
AcDbEntity
  8
0
  6
Continuous
 62
     7
370
     0
100
AcDbLine
 10
50.50897454595139
 20
267.4443788535961
 30
0.0
 11
46.15390139038027
 21
266.0834184924801
 31
0.0
  0
ARC
  5
1A218
330
1F
100
AcDbEntity
  8
0
  6
Continuous
 62
     7
370
     0
100
AcDbCircle
 10
50.32736122606048
 20
268.0255414772461
 30
0.0
 40
0.6088788
100
AcDbArc
 50
287.354024636285
 51
0.0
  0
ARC
  5
1A219
330
1F
100
AcDbEntity
  8
0
  6
Continuous
 62
     7
370
     0
100
AcDbCircle
 10
52.86586352805676
 20
298.3152630778251
 30
0.0
 40
3.604411420286507
100
AcDbArc
 50
127.0490714240174
 51
232.9509285759819
  0
ARC
  5
1A21A
330
1F
100
AcDbEntity
  8
0
  6
Continuous
 62
     7
370
     0
100
AcDbCircle
 10
50.32736122606048
 20
294.952552780591
 30
0.0
 40
0.6088788
100
AcDbArc
 50
0.0
 51
52.95092857599639
  0
ARC
  5
1A21B
330
1F
100
AcDbEntity
  8
0
  6
Continuous
 62
     7
370
     0
100
AcDbCircle
 10
50.32736122606048
 20
301.677973375059
 30
0.0
 40
0.6088788
100
AcDbArc
 50
307.0490714240036
 51
0.0
  0
LINE
  5
1A21C
330
1F
100
AcDbEntity
  8
0
  6
Continuous
 62
     7
370
     0
100
AcDbLine
 10
50.93624002606072
 20
294.952552780591
 30
0.0
 11
50.93624002606032
 21
268.0255414772461
 31
0.0
  0
ARC
  5
1A21D
330
1F
100
AcDbEntity
  8
0
  6
Continuous
 62
     7
370
     0
100
AcDbCircle
 10
44.10195146178967
 20
328.237819162414
 30
0.0
 40
2.024873056458026
100
AcDbArc
 50
14.17062594325616
 51
94.75401847280399
  0
ARC
  5
1A21E
330
1F
100
AcDbEntity
  8
0
  6
Continuous
 62
     7
370
     0
100
AcDbCircle
 10
44.10195146178967
 20
268.073609186108
 30
0.0
 40
2.024873056458026
100
AcDbArc
 50
265.245981527196
 51
345.8293740567705
  0
LINE
  5
1A21F
330
1F
100
AcDbEntity
  8
0
  6
Continuous
 62
     7
370
     0
100
AcDbLine
 10
50.93624002606072
 20
290.9938824083571
 30
0.0
 11
49.44661122615031
 21
290.9938824083571
 31
0.0
  0
LINE
  5
1A220
330
1F
100
AcDbEntity
  8
0
  6
Continuous
 62
     7
370
     0
100
AcDbLine
 10
50.93624002606072
 20
268.65184987952
 30
0.0
 11
49.44661122615031
 21
268.65184987952
 31
0.0
  0
LINE
  5
1A221
330
1F
100
AcDbEntity
  8
0
  6
Continuous
 62
     7
370
     0
100
AcDbLine
 10
49.44661122615031
 20
290.9938824083571
 30
0.0
 11
49.44661122615031
 21
268.65184987952
 31
0.0
  0
SPLINE
  5
1A222
330
1F
100
AcDbEntity
  8
0
 62
     7
370
     0
100
AcDbSpline
210
0.0
220
0.0
230
1.0
 70
     9
 71
     3
 72
    41
 73
    37
 74
     0
 42
0.000000001
 43
0.0000000001
 40
0.0
 40
0.0
 40
0.0
 40
0.0
 40
1.0
 40
1.0
 40
1.0
 40
2.0
 40
2.0
 40
2.0
 40
3.0
 40
3.0
 40
3.0
 40
4.0
 40
4.0
 40
4.0
 40
5.0
 40
5.0
 40
5.0
 40
6.0
 40
6.0
 40
6.0
 40
7.0
 40
7.0
 40
7.0
 40
8.0
 40
8.0
 40
8.0
 40
9.0
 40
9.0
 40
9.0
 40
10.0
 40
10.0
 40
10.0
 40
11.0
 40
11.0
 40
11.0
 40
12.0
 40
12.0
 40
12.0
 40
12.0
 10
26.39432897236389
 20
327.0765841061001
 30
0.0
 10
26.29238541227829
 20
327.178527666185
 30
0.0
 10
26.15120883228246
 20
327.237060367666
 30
0.0
 10
26.00689618828079
 20
327.237060367666
 30
0.0
 10
26.00689618828079
 20
327.237060367666
 30
0.0
 10
12.29531551769747
 20
327.237060367666
 30
0.0
 10
12.29531551769747
 20
327.237060367666
 30
0.0
 10
12.15105657342161
 20
327.237060367666
 30
0.0
 10
12.00982629369997
 20
327.178527666185
 30
0.0
 10
11.90788338058428
 20
327.0765841061001
 30
0.0
 10
11.80577807435117
 20
326.974694245741
 30
0.0
 10
11.7472561128148
 20
326.8333673065121
 30
0.0
 10
11.7472561128148
 20
326.6889902228392
 30
0.0
 10
11.7472561128148
 20
326.6889902228392
 30
0.0
 10
11.7472561128148
 20
302.201496249692
 30
0.0
 10
11.7472561128148
 20
302.201496249692
 30
0.0
 10
11.7472561128148
 20
302.0559807318251
 30
0.0
 10
11.80651913057227
 20
301.914073835554
 30
0.0
 10
11.90573539148511
 20
301.816157754928
 30
0.0
 10
12.00789310355918
 20
301.712957621252
 30
0.0
 10
12.14974695318421
 20
301.6534368448091
 30
0.0
 10
12.29531551769747
 20
301.6534368448091
 30
0.0
 10
12.29531551769747
 20
301.6534368448091
 30
0.0
 10
26.00689618828079
 20
301.6534368448091
 30
0.0
 10
26.00689618828079
 20
301.6534368448091
 30
0.0
 10
26.15246540587401
 20
301.6534368448091
 30
0.0
 10
26.2942756426383
 20
301.712957621252
 30
0.0
 10
26.39243874200389
 20
301.8119691762901
 30
0.0
 10
26.49564961562561
 20
301.914073835554
 30
0.0
 10
26.55500929288979
 20
302.0559807318251
 30
0.0
 10
26.55500929288979
 20
302.201496249692
 30
0.0
 10
26.55500929288979
 20
302.201496249692
 30
0.0
 10
26.55500929288979
 20
326.6889902228392
 30
0.0
 10
26.55500929288979
 20
326.6889902228392
 30
0.0
 10
26.55500929288979
 20
326.8333673065121
 30
0.0
 10
26.49648834686201
 20
326.974694245741
 30
0.0
 10
26.39432897236389
 20
327.0765841061001
 30
0.0
  0
SPLINE
  5
1A223
330
1F
100
AcDbEntity
  8
0
 62
     7
370
     0
100
AcDbSpline
210
0.0
220
0.0
230
1.0
 70
     9
 71
     3
 72
    41
 73
    37
 74
     0
 42
0.000000001
 43
0.0000000001
 40
0.0
 40
0.0
 40
0.0
 40
0.0
 40
1.0
 40
1.0
 40
1.0
 40
2.0
 40
2.0
 40
2.0
 40
3.0
 40
3.0
 40
3.0
 40
4.0
 40
4.0
 40
4.0
 40
5.0
 40
5.0
 40
5.0
 40
6.0
 40
6.0
 40
6.0
 40
7.0
 40
7.0
 40
7.0
 40
8.0
 40
8.0
 40
8.0
 40
9.0
 40
9.0
 40
9.0
 40
10.0
 40
10.0
 40
10.0
 40
11.0
 40
11.0
 40
11.0
 40
12.0
 40
12.0
 40
12.0
 40
12.0
 10
24.31619253091327
 20
302.201496249692
 30
0.0
 10
24.31619253091327
 20
302.177535431893
 30
0.0
 10
24.30633326119602
 20
302.153939772231
 30
0.0
 10
24.28934266784842
 20
302.1368417794321
 30
0.0
 10
24.27255613346011
 20
302.120108944769
 30
0.0
 10
24.248649015387
 20
302.1101959753261
 30
0.0
 10
24.22473115736926
 20
302.1101959753261
 30
0.0
 10
24.22473115736926
 20
302.1101959753261
 30
0.0
 10
12.29531551769747
 20
302.1101959753261
 30
0.0
 10
12.29531551769747
 20
302.1101959753261
 30
0.0
 10
12.27146209935017
 20
302.1101959753261
 30
0.0
 10
12.24749054160617
 20
302.120108944769
 30
0.0
 10
12.23076844688927
 20
302.1368417794321
 30
0.0
 10
12.21377785354167
 20
302.153939772231
 30
0.0
 10
12.20391858382396
 20
302.177535431893
 30
0.0
 10
12.20391858382396
 20
302.201496249692
 30
0.0
 10
12.20391858382396
 20
302.201496249692
 30
0.0
 10
12.20391858382396
 20
326.6892050217431
 30
0.0
 10
12.20391858382396
 20
326.6892050217431
 30
0.0
 10
12.20391858382396
 20
326.7131658395421
 30
0.0
 10
12.21377785354167
 20
326.736827826547
 30
0.0
 10
12.23076844688927
 20
326.7537628324961
 30
0.0
 10
12.24749054160617
 20
326.7705923266661
 30
0.0
 10
12.27146209935017
 20
326.7803978966571
 30
0.0
 10
12.29531551769747
 20
326.7803978966571
 30
0.0
 10
12.29531551769747
 20
326.7803978966571
 30
0.0
 10
24.22473115736926
 20
326.7803978966571
 30
0.0
 10
24.22473115736926
 20
326.7803978966571
 30
0.0
 10
24.248649015387
 20
326.7803978966571
 30
0.0
 10
24.27255613346011
 20
326.7705923266661
 30
0.0
 10
24.28934266784842
 20
326.7537628324961
 30
0.0
 10
24.30633326119602
 20
326.736827826547
 30
0.0
 10
24.31619253091327
 20
326.7131658395421
 30
0.0
 10
24.31619253091327
 20
326.6892050217431
 30
0.0
 10
24.31619253091327
 20
326.6892050217431
 30
0.0
 10
24.31619253091327
 20
302.201496249692
 30
0.0
 10
24.31619253091327
 20
302.201496249692
 30
0.0
  0
SPLINE
  5
1A224
330
1F
100
AcDbEntity
  8
0
 62
     7
370
     0
100
AcDbSpline
210
0.0
220
0.0
230
1.0
 70
     9
 71
     3
 72
    17
 73
    13
 74
     0
 42
0.000000001
 43
0.0000000001
 40
0.0
 40
0.0
 40
0.0
 40
0.0
 40
1.0
 40
1.0
 40
1.0
 40
2.0
 40
2.0
 40
2.0
 40
3.0
 40
3.0
 40
3.0
 40
4.0
 40
4.0
 40
4.0
 40
4.0
 10
14.06416301652916
 20
272.8540804022731
 30
0.0
 10
13.1323868486125
 20
272.8540804022731
 30
0.0
 10
12.37455483357468
 20
273.611955377091
 30
0.0
 10
12.37455483357468
 20
274.5434093466521
 30
0.0
 10
12.37455483357468
 20
275.475292914021
 30
0.0
 10
13.1323868486125
 20
276.233275288292
 30
0.0
 10
14.06416301652916
 20
276.233275288292
 30
0.0
 10
14.99572511051707
 20
276.233275288292
 30
0.0
 10
15.75365306008649
 20
275.475292914021
 30
0.0
 10
15.75365306008649
 20
274.5434093466521
 30
0.0
 10
15.75365306008649
 20
273.611955377091
 30
0.0
 10
14.99572511051707
 20
272.8540804022731
 30
0.0
 10
14.06416301652916
 20
272.8540804022731
 30
0.0
  0
SPLINE
  5
1A225
330
1F
100
AcDbEntity
  8
0
 62
     7
370
     0
100
AcDbSpline
210
0.0
220
0.0
230
1.0
 70
     9
 71
     3
 72
    17
 73
    13
 74
     0
 42
0.000000001
 43
0.0000000001
 40
0.0
 40
0.0
 40
0.0
 40
0.0
 40
1.0
 40
1.0
 40
1.0
 40
2.0
 40
2.0
 40
2.0
 40
3.0
 40
3.0
 40
3.0
 40
4.0
 40
4.0
 40
4.0
 40
4.0
 10
14.06416301652916
 20
272.8540804022731
 30
0.0
 10
13.1323868486125
 20
272.8540804022731
 30
0.0
 10
12.37455483357468
 20
273.611955377091
 30
0.0
 10
12.37455483357468
 20
274.5434093466521
 30
0.0
 10
12.37455483357468
 20
275.475292914021
 30
0.0
 10
13.1323868486125
 20
276.233275288292
 30
0.0
 10
14.06416301652916
 20
276.233275288292
 30
0.0
 10
14.99572511051707
 20
276.233275288292
 30
0.0
 10
15.75365306008649
 20
275.475292914021
 30
0.0
 10
15.75365306008649
 20
274.5434093466521
 30
0.0
 10
15.75365306008649
 20
273.611955377091
 30
0.0
 10
14.99572511051707
 20
272.8540804022731
 30
0.0
 10
14.06416301652916
 20
272.8540804022731
 30
0.0
  0
SPLINE
  5
1A226
330
1F
100
AcDbEntity
  8
0
 62
     7
370
     0
100
AcDbSpline
210
0.0
220
0.0
230
1.0
 70
     9
 71
     3
 72
    29
 73
    25
 74
     0
 42
0.000000001
 43
0.0000000001
 40
0.0
 40
0.0
 40
0.0
 40
0.0
 40
1.0
 40
1.0
 40
1.0
 40
2.0
 40
2.0
 40
2.0
 40
3.0
 40
3.0
 40
3.0
 40
4.0
 40
4.0
 40
4.0
 40
5.0
 40
5.0
 40
5.0
 40
6.0
 40
6.0
 40
6.0
 40
7.0
 40
7.0
 40
7.0
 40
8.0
 40
8.0
 40
8.0
 40
8.0
 10
18.03667543661328
 20
271.5764994779692
 30
0.0
 10
18.03667543661328
 20
271.5764994779692
 30
0.0
 10
12.70913634720097
 20
271.5764994779692
 30
0.0
 10
12.70913634720097
 20
271.5764994779692
 30
0.0
 10
12.40702168799316
 20
271.5764994779692
 30
0.0
 10
12.161173601825
 20
271.3307695311981
 30
0.0
 10
12.161173601825
 20
271.0284937728121
 30
0.0
 10
12.161173601825
 20
271.0284937728121
 30
0.0
 10
12.161173601825
 20
269.2016510039701
 30
0.0
 10
12.161173601825
 20
269.2016510039701
 30
0.0
 10
12.161173601825
 20
268.8994929507711
 30
0.0
 10
12.40702168799316
 20
268.653752264055
 30
0.0
 10
12.70913634720097
 20
268.653752264055
 30
0.0
 10
12.70913634720097
 20
268.653752264055
 30
0.0
 10
18.03667543661328
 20
268.653752264055
 30
0.0
 10
18.03667543661328
 20
268.653752264055
 30
0.0
 10
18.33889749527322
 20
268.653752264055
 30
0.0
 10
18.5847455814411
 20
268.8994929507711
 30
0.0
 10
18.5847455814411
 20
269.2016510039701
 30
0.0
 10
18.5847455814411
 20
269.2016510039701
 30
0.0
 10
18.5847455814411
 20
271.0284937728121
 30
0.0
 10
18.5847455814411
 20
271.0284937728121
 30
0.0
 10
18.5847455814411
 20
271.3307695311981
 30
0.0
 10
18.33889749527322
 20
271.5764994779692
 30
0.0
 10
18.03667543661328
 20
271.5764994779692
 30
0.0
  0
SPLINE
  5
1A227
330
1F
100
AcDbEntity
  8
0
 62
     7
370
     0
100
AcDbSpline
210
0.0
220
0.0
230
1.0
 70
     9
 71
     3
 72
    29
 73
    25
 74
     0
 42
0.000000001
 43
0.0000000001
 40
0.0
 40
0.0
 40
0.0
 40
0.0
 40
1.0
 40
1.0
 40
1.0
 40
2.0
 40
2.0
 40
2.0
 40
3.0
 40
3.0
 40
3.0
 40
4.0
 40
4.0
 40
4.0
 40
5.0
 40
5.0
 40
5.0
 40
6.0
 40
6.0
 40
6.0
 40
7.0
 40
7.0
 40
7.0
 40
8.0
 40
8.0
 40
8.0
 40
8.0
 10
18.03667543661328
 20
271.5764994779692
 30
0.0
 10
18.03667543661328
 20
271.5764994779692
 30
0.0
 10
12.70913634720097
 20
271.5764994779692
 30
0.0
 10
12.70913634720097
 20
271.5764994779692
 30
0.0
 10
12.40702168799316
 20
271.5764994779692
 30
0.0
 10
12.161173601825
 20
271.3307695311981
 30
0.0
 10
12.161173601825
 20
271.0284937728121
 30
0.0
 10
12.161173601825
 20
271.0284937728121
 30
0.0
 10
12.161173601825
 20
269.2016510039701
 30
0.0
 10
12.161173601825
 20
269.2016510039701
 30
0.0
 10
12.161173601825
 20
268.8994929507711
 30
0.0
 10
12.40702168799316
 20
268.653752264055
 30
0.0
 10
12.70913634720097
 20
268.653752264055
 30
0.0
 10
12.70913634720097
 20
268.653752264055
 30
0.0
 10
18.03667543661328
 20
268.653752264055
 30
0.0
 10
18.03667543661328
 20
268.653752264055
 30
0.0
 10
18.33889749527322
 20
268.653752264055
 30
0.0
 10
18.5847455814411
 20
268.8994929507711
 30
0.0
 10
18.5847455814411
 20
269.2016510039701
 30
0.0
 10
18.5847455814411
 20
269.2016510039701
 30
0.0
 10
18.5847455814411
 20
271.0284937728121
 30
0.0
 10
18.5847455814411
 20
271.0284937728121
 30
0.0
 10
18.5847455814411
 20
271.3307695311981
 30
0.0
 10
18.33889749527322
 20
271.5764994779692
 30
0.0
 10
18.03667543661328
 20
271.5764994779692
 30
0.0
  0
SPLINE
  5
1A228
330
1F
100
AcDbEntity
  8
0
 62
     7
370
     0
100
AcDbSpline
210
0.0
220
0.0
230
1.0
 70
     9
 71
     3
 72
    29
 73
    25
 74
     0
 42
0.000000001
 43
0.0000000001
 40
0.0
 40
0.0
 40
0.0
 40
0.0
 40
1.0
 40
1.0
 40
1.0
 40
2.0
 40
2.0
 40
2.0
 40
3.0
 40
3.0
 40
3.0
 40
4.0
 40
4.0
 40
4.0
 40
5.0
 40
5.0
 40
5.0
 40
6.0
 40
6.0
 40
6.0
 40
7.0
 40
7.0
 40
7.0
 40
8.0
 40
8.0
 40
8.0
 40
8.0
 10
25.7611555015647
 20
271.5764994779692
 30
0.0
 10
25.7611555015647
 20
271.5764994779692
 30
0.0
 10
20.43355197248098
 20
271.5764994779692
 30
0.0
 10
20.43355197248098
 20
271.5764994779692
 30
0.0
 10
20.13138361354692
 20
271.5764994779692
 30
0.0
 10
19.88554626732372
 20
271.3307695311981
 30
0.0
 10
19.88554626732372
 20
271.0284937728121
 30
0.0
 10
19.88554626732372
 20
271.0284937728121
 30
0.0
 10
19.88554626732372
 20
269.2016510039701
 30
0.0
 10
19.88554626732372
 20
269.2016510039701
 30
0.0
 10
19.88554626732372
 20
268.8994929507711
 30
0.0
 10
20.13138361354692
 20
268.653752264055
 30
0.0
 10
20.43355197248098
 20
268.653752264055
 30
0.0
 10
20.43355197248098
 20
268.653752264055
 30
0.0
 10
25.7611555015647
 20
268.653752264055
 30
0.0
 10
25.7611555015647
 20
268.653752264055
 30
0.0
 10
26.06342052000588
 20
268.653752264055
 30
0.0
 10
26.3093760056264
 20
268.8994929507711
 30
0.0
 10
26.3093760056264
 20
269.2016510039701
 30
0.0
 10
26.3093760056264
 20
269.2016510039701
 30
0.0
 10
26.3093760056264
 20
271.0284937728121
 30
0.0
 10
26.3093760056264
 20
271.0284937728121
 30
0.0
 10
26.3093760056264
 20
271.3307695311981
 30
0.0
 10
26.06342052000588
 20
271.5764994779692
 30
0.0
 10
25.7611555015647
 20
271.5764994779692
 30
0.0
  0
SPLINE
  5
1A229
330
1F
100
AcDbEntity
  8
0
 62
     7
370
     0
100
AcDbSpline
210
0.0
220
0.0
230
1.0
 70
     9
 71
     3
 72
    29
 73
    25
 74
     0
 42
0.000000001
 43
0.0000000001
 40
0.0
 40
0.0
 40
0.0
 40
0.0
 40
1.0
 40
1.0
 40
1.0
 40
2.0
 40
2.0
 40
2.0
 40
3.0
 40
3.0
 40
3.0
 40
4.0
 40
4.0
 40
4.0
 40
5.0
 40
5.0
 40
5.0
 40
6.0
 40
6.0
 40
6.0
 40
7.0
 40
7.0
 40
7.0
 40
8.0
 40
8.0
 40
8.0
 40
8.0
 10
25.7611555015647
 20
271.5764994779692
 30
0.0
 10
25.7611555015647
 20
271.5764994779692
 30
0.0
 10
20.43355197248098
 20
271.5764994779692
 30
0.0
 10
20.43355197248098
 20
271.5764994779692
 30
0.0
 10
20.13138361354692
 20
271.5764994779692
 30
0.0
 10
19.88554626732372
 20
271.3307695311981
 30
0.0
 10
19.88554626732372
 20
271.0284937728121
 30
0.0
 10
19.88554626732372
 20
271.0284937728121
 30
0.0
 10
19.88554626732372
 20
269.2016510039701
 30
0.0
 10
19.88554626732372
 20
269.2016510039701
 30
0.0
 10
19.88554626732372
 20
268.8994929507711
 30
0.0
 10
20.13138361354692
 20
268.653752264055
 30
0.0
 10
20.43355197248098
 20
268.653752264055
 30
0.0
 10
20.43355197248098
 20
268.653752264055
 30
0.0
 10
25.7611555015647
 20
268.653752264055
 30
0.0
 10
25.7611555015647
 20
268.653752264055
 30
0.0
 10
26.06342052000588
 20
268.653752264055
 30
0.0
 10
26.3093760056264
 20
268.8994929507711
 30
0.0
 10
26.3093760056264
 20
269.2016510039701
 30
0.0
 10
26.3093760056264
 20
269.2016510039701
 30
0.0
 10
26.3093760056264
 20
271.0284937728121
 30
0.0
 10
26.3093760056264
 20
271.0284937728121
 30
0.0
 10
26.3093760056264
 20
271.3307695311981
 30
0.0
 10
26.06342052000588
 20
271.5764994779692
 30
0.0
 10
25.7611555015647
 20
271.5764994779692
 30
0.0
  0
SPLINE
  5
1A22A
330
1F
100
AcDbEntity
  8
0
 62
     7
370
     0
100
AcDbSpline
210
0.0
220
0.0
230
1.0
 70
     9
 71
     3
 72
    44
 73
    40
 74
     0
 42
0.000000001
 43
0.0000000001
 40
0.0
 40
0.0
 40
0.0
 40
0.0
 40
1.0
 40
1.0
 40
1.0
 40
2.0
 40
2.0
 40
2.0
 40
3.0
 40
3.0
 40
3.0
 40
4.0
 40
4.0
 40
4.0
 40
5.0
 40
5.0
 40
5.0
 40
6.0
 40
6.0
 40
6.0
 40
7.0
 40
7.0
 40
7.0
 40
8.0
 40
8.0
 40
8.0
 40
9.0
 40
9.0
 40
9.0
 40
10.0
 40
10.0
 40
10.0
 40
11.0
 40
11.0
 40
11.0
 40
12.0
 40
12.0
 40
12.0
 40
13.0
 40
13.0
 40
13.0
 40
13.0
 10
17.56345197006527
 20
283.828532332284
 30
0.0
 10
17.45101548349442
 20
283.828532332284
 30
0.0
 10
17.33899785478667
 20
283.871953930833
 30
0.0
 10
17.25598881813499
 20
283.9475738851689
 30
0.0
 10
17.17281946227837
 20
284.0233012389571
 30
0.0
 10
17.11926931540808
 20
284.13080809067
 30
0.0
 10
17.10884082859417
 20
284.24250352102
 30
0.0
 10
17.09829420238208
 20
284.354317907767
 30
0.0
 10
17.1311799146643
 20
284.469997040797
 30
0.0
 10
17.19872343019011
 20
284.5598804645859
 30
0.0
 10
17.19872343019011
 20
284.5598804645859
 30
0.0
 10
18.86934338998532
 20
286.7793976010611
 30
0.0
 10
18.86934338998532
 20
286.7793976010611
 30
0.0
 10
18.92571736247652
 20
286.8543937603121
 30
0.0
 10
19.0060521527667
 20
286.9113369499011
 30
0.0
 10
19.09562329595161
 20
286.9398729843659
 30
0.0
 10
19.14009740913298
 20
286.954029114847
 30
0.0
 10
19.18655924302448
 20
286.9612669552561
 30
0.0
 10
19.23427598881977
 20
286.9612669552561
 30
0.0
 10
19.28184320622552
 20
286.9612669552561
 30
0.0
 10
19.32841160872528
 20
286.954029114847
 30
0.0
 10
19.37287498196122
 20
286.9398729843659
 30
0.0
 10
19.46234946563897
 20
286.9113369499011
 30
0.0
 10
19.5426842559292
 20
286.8543937603121
 30
0.0
 10
19.59900452869448
 20
286.7793976010611
 30
0.0
 10
19.59900452869448
 20
286.7793976010611
 30
0.0
 10
21.2696790716837
 20
284.559773065131
 30
0.0
 10
21.2696790716837
 20
284.559773065131
 30
0.0
 10
21.33732910319401
 20
284.469997040797
 30
0.0
 10
21.37004297635218
 20
284.354317907767
 30
0.0
 10
21.3595607898115
 20
284.2426109204731
 30
0.0
 10
21.34906786332618
 20
284.1307006912169
 30
0.0
 10
21.29547553664821
 20
284.0233012389571
 30
0.0
 10
21.21241280027067
 20
283.9475738851689
 30
0.0
 10
21.12933932394759
 20
283.871953930833
 30
0.0
 10
21.01733243518538
 20
283.828532332284
 30
0.0
 10
20.90489594861447
 20
283.828532332284
 30
0.0
 10
20.90489594861447
 20
283.828532332284
 30
0.0
 10
17.56345197006527
 20
283.828532332284
 30
0.0
 10
17.56345197006527
 20
283.828532332284
 30
0.0
  0
SPLINE
  5
1A22B
330
1F
100
AcDbEntity
  8
0
 62
     7
370
     0
100
AcDbSpline
210
0.0
220
0.0
230
1.0
 70
     9
 71
     3
 72
    44
 73
    40
 74
     0
 42
0.000000001
 43
0.0000000001
 40
0.0
 40
0.0
 40
0.0
 40
0.0
 40
1.0
 40
1.0
 40
1.0
 40
2.0
 40
2.0
 40
2.0
 40
3.0
 40
3.0
 40
3.0
 40
4.0
 40
4.0
 40
4.0
 40
5.0
 40
5.0
 40
5.0
 40
6.0
 40
6.0
 40
6.0
 40
7.0
 40
7.0
 40
7.0
 40
8.0
 40
8.0
 40
8.0
 40
9.0
 40
9.0
 40
9.0
 40
10.0
 40
10.0
 40
10.0
 40
11.0
 40
11.0
 40
11.0
 40
12.0
 40
12.0
 40
12.0
 40
13.0
 40
13.0
 40
13.0
 40
13.0
 10
17.56345197006527
 20
283.828532332284
 30
0.0
 10
17.45101548349442
 20
283.828532332284
 30
0.0
 10
17.33899785478667
 20
283.871953930833
 30
0.0
 10
17.25598881813499
 20
283.9475738851689
 30
0.0
 10
17.17281946227837
 20
284.0233012389571
 30
0.0
 10
17.11926931540808
 20
284.13080809067
 30
0.0
 10
17.10884082859417
 20
284.24250352102
 30
0.0
 10
17.09829420238208
 20
284.354317907767
 30
0.0
 10
17.1311799146643
 20
284.469997040797
 30
0.0
 10
17.19872343019011
 20
284.5598804645859
 30
0.0
 10
17.19872343019011
 20
284.5598804645859
 30
0.0
 10
18.86934338998532
 20
286.7793976010611
 30
0.0
 10
18.86934338998532
 20
286.7793976010611
 30
0.0
 10
18.92571736247652
 20
286.8543937603121
 30
0.0
 10
19.0060521527667
 20
286.9113369499011
 30
0.0
 10
19.09562329595161
 20
286.9398729843659
 30
0.0
 10
19.14009740913298
 20
286.954029114847
 30
0.0
 10
19.18655924302448
 20
286.9612669552561
 30
0.0
 10
19.23427598881977
 20
286.9612669552561
 30
0.0
 10
19.28184320622552
 20
286.9612669552561
 30
0.0
 10
19.32841160872528
 20
286.954029114847
 30
0.0
 10
19.37287498196122
 20
286.9398729843659
 30
0.0
 10
19.46234946563897
 20
286.9113369499011
 30
0.0
 10
19.5426842559292
 20
286.8543937603121
 30
0.0
 10
19.59900452869448
 20
286.7793976010611
 30
0.0
 10
19.59900452869448
 20
286.7793976010611
 30
0.0
 10
21.2696790716837
 20
284.559773065131
 30
0.0
 10
21.2696790716837
 20
284.559773065131
 30
0.0
 10
21.33732910319401
 20
284.469997040797
 30
0.0
 10
21.37004297635218
 20
284.354317907767
 30
0.0
 10
21.3595607898115
 20
284.2426109204731
 30
0.0
 10
21.34906786332618
 20
284.1307006912169
 30
0.0
 10
21.29547553664821
 20
284.0233012389571
 30
0.0
 10
21.21241280027067
 20
283.9475738851689
 30
0.0
 10
21.12933932394759
 20
283.871953930833
 30
0.0
 10
21.01733243518538
 20
283.828532332284
 30
0.0
 10
20.90489594861447
 20
283.828532332284
 30
0.0
 10
20.90489594861447
 20
283.828532332284
 30
0.0
 10
17.56345197006527
 20
283.828532332284
 30
0.0
 10
17.56345197006527
 20
283.828532332284
 30
0.0
  0
SPLINE
  5
1A22C
330
1F
100
AcDbEntity
  8
0
 62
     7
370
     0
100
AcDbSpline
210
0.0
220
0.0
230
1.0
 70
     9
 71
     3
 72
    44
 73
    40
 74
     0
 42
0.000000001
 43
0.0000000001
 40
0.0
 40
0.0
 40
0.0
 40
0.0
 40
1.0
 40
1.0
 40
1.0
 40
2.0
 40
2.0
 40
2.0
 40
3.0
 40
3.0
 40
3.0
 40
4.0
 40
4.0
 40
4.0
 40
5.0
 40
5.0
 40
5.0
 40
6.0
 40
6.0
 40
6.0
 40
7.0
 40
7.0
 40
7.0
 40
8.0
 40
8.0
 40
8.0
 40
9.0
 40
9.0
 40
9.0
 40
10.0
 40
10.0
 40
10.0
 40
11.0
 40
11.0
 40
11.0
 40
12.0
 40
12.0
 40
12.0
 40
13.0
 40
13.0
 40
13.0
 40
13.0
 10
17.56345197006527
 20
276.82460593249
 30
0.0
 10
17.45101548349442
 20
276.82460593249
 30
0.0
 10
17.33899785478667
 20
276.781184333941
 30
0.0
 10
17.25598881813499
 20
276.7055643796051
 30
0.0
 10
17.17281946227837
 20
276.6298370258161
 30
0.0
 10
17.11926931540808
 20
276.5222227746521
 30
0.0
 10
17.10884082859417
 20
276.4105273443009
 30
0.0
 10
17.09829420238208
 20
276.298724514499
 30
0.0
 10
17.1311799146643
 20
276.183141223977
 30
0.0
 10
17.19872343019011
 20
276.0932592306871
 30
0.0
 10
17.19872343019011
 20
276.0932592306871
 30
0.0
 10
18.86934338998532
 20
273.873634694757
 30
0.0
 10
18.86934338998532
 20
273.873634694757
 30
0.0
 10
18.92571736247652
 20
273.7987552444071
 30
0.0
 10
19.0060521527667
 20
273.741801314873
 30
0.0
 10
19.09562329595161
 20
273.713276020353
 30
0.0
 10
19.14009740913298
 20
273.699110580426
 30
0.0
 10
19.18655924302448
 20
273.6918713095171
 30
0.0
 10
19.23427598881977
 20
273.6918713095171
 30
0.0
 10
19.28184320622552
 20
273.6918713095171
 30
0.0
 10
19.32841160872528
 20
273.699110580426
 30
0.0
 10
19.37287498196122
 20
273.713276020353
 30
0.0
 10
19.46234946563897
 20
273.741801314873
 30
0.0
 10
19.5426842559292
 20
273.7987552444071
 30
0.0
 10
19.59900452869448
 20
273.873634694757
 30
0.0
 10
19.59900452869448
 20
273.873634694757
 30
0.0
 10
21.2696790716837
 20
276.0932592306871
 30
0.0
 10
21.2696790716837
 20
276.0932592306871
 30
0.0
 10
21.33732910319401
 20
276.183141223977
 30
0.0
 10
21.37004297635218
 20
276.298724514499
 30
0.0
 10
21.3595607898115
 20
276.410419944849
 30
0.0
 10
21.34906786332618
 20
276.522330174104
 30
0.0
 10
21.29547553664821
 20
276.6298370258161
 30
0.0
 10
21.21241280027067
 20
276.7055643796051
 30
0.0
 10
21.12933932394759
 20
276.781184333941
 30
0.0
 10
21.01733243518538
 20
276.82460593249
 30
0.0
 10
20.90489594861447
 20
276.82460593249
 30
0.0
 10
20.90489594861447
 20
276.82460593249
 30
0.0
 10
17.56345197006527
 20
276.82460593249
 30
0.0
 10
17.56345197006527
 20
276.82460593249
 30
0.0
  0
SPLINE
  5
1A22D
330
1F
100
AcDbEntity
  8
0
 62
     7
370
     0
100
AcDbSpline
210
0.0
220
0.0
230
1.0
 70
     9
 71
     3
 72
    44
 73
    40
 74
     0
 42
0.000000001
 43
0.0000000001
 40
0.0
 40
0.0
 40
0.0
 40
0.0
 40
1.0
 40
1.0
 40
1.0
 40
2.0
 40
2.0
 40
2.0
 40
3.0
 40
3.0
 40
3.0
 40
4.0
 40
4.0
 40
4.0
 40
5.0
 40
5.0
 40
5.0
 40
6.0
 40
6.0
 40
6.0
 40
7.0
 40
7.0
 40
7.0
 40
8.0
 40
8.0
 40
8.0
 40
9.0
 40
9.0
 40
9.0
 40
10.0
 40
10.0
 40
10.0
 40
11.0
 40
11.0
 40
11.0
 40
12.0
 40
12.0
 40
12.0
 40
13.0
 40
13.0
 40
13.0
 40
13.0
 10
17.56345197006527
 20
276.82460593249
 30
0.0
 10
17.45101548349442
 20
276.82460593249
 30
0.0
 10
17.33899785478667
 20
276.781184333941
 30
0.0
 10
17.25598881813499
 20
276.7055643796051
 30
0.0
 10
17.17281946227837
 20
276.6298370258161
 30
0.0
 10
17.11926931540808
 20
276.5222227746521
 30
0.0
 10
17.10884082859417
 20
276.4105273443009
 30
0.0
 10
17.09829420238208
 20
276.298724514499
 30
0.0
 10
17.1311799146643
 20
276.183141223977
 30
0.0
 10
17.19872343019011
 20
276.0932592306871
 30
0.0
 10
17.19872343019011
 20
276.0932592306871
 30
0.0
 10
18.86934338998532
 20
273.873634694757
 30
0.0
 10
18.86934338998532
 20
273.873634694757
 30
0.0
 10
18.92571736247652
 20
273.7987552444071
 30
0.0
 10
19.0060521527667
 20
273.741801314873
 30
0.0
 10
19.09562329595161
 20
273.713276020353
 30
0.0
 10
19.14009740913298
 20
273.699110580426
 30
0.0
 10
19.18655924302448
 20
273.6918713095171
 30
0.0
 10
19.23427598881977
 20
273.6918713095171
 30
0.0
 10
19.28184320622552
 20
273.6918713095171
 30
0.0
 10
19.32841160872528
 20
273.699110580426
 30
0.0
 10
19.37287498196122
 20
273.713276020353
 30
0.0
 10
19.46234946563897
 20
273.741801314873
 30
0.0
 10
19.5426842559292
 20
273.7987552444071
 30
0.0
 10
19.59900452869448
 20
273.873634694757
 30
0.0
 10
19.59900452869448
 20
273.873634694757
 30
0.0
 10
21.2696790716837
 20
276.0932592306871
 30
0.0
 10
21.2696790716837
 20
276.0932592306871
 30
0.0
 10
21.33732910319401
 20
276.183141223977
 30
0.0
 10
21.37004297635218
 20
276.298724514499
 30
0.0
 10
21.3595607898115
 20
276.410419944849
 30
0.0
 10
21.34906786332618
 20
276.522330174104
 30
0.0
 10
21.29547553664821
 20
276.6298370258161
 30
0.0
 10
21.21241280027067
 20
276.7055643796051
 30
0.0
 10
21.12933932394759
 20
276.781184333941
 30
0.0
 10
21.01733243518538
 20
276.82460593249
 30
0.0
 10
20.90489594861447
 20
276.82460593249
 30
0.0
 10
20.90489594861447
 20
276.82460593249
 30
0.0
 10
17.56345197006527
 20
276.82460593249
 30
0.0
 10
17.56345197006527
 20
276.82460593249
 30
0.0
  0
SPLINE
  5
1A22E
330
1F
100
AcDbEntity
  8
0
 62
     7
370
     0
100
AcDbSpline
210
0.0
220
0.0
230
1.0
 70
     9
 71
     3
 72
    23
 73
    19
 74
     0
 42
0.000000001
 43
0.0000000001
 40
0.0
 40
0.0
 40
0.0
 40
0.0
 40
1.0
 40
1.0
 40
1.0
 40
2.0
 40
2.0
 40
2.0
 40
3.0
 40
3.0
 40
3.0
 40
4.0
 40
4.0
 40
4.0
 40
5.0
 40
5.0
 40
5.0
 40
6.0
 40
6.0
 40
6.0
 40
6.0
 10
24.33318312426127
 20
298.182512086615
 30
0.0
 10
24.33318312426127
 20
298.182512086615
 30
0.0
 10
14.13443447814291
 20
298.182512086615
 30
0.0
 10
14.13443447814291
 20
298.182512086615
 30
0.0
 10
13.20260461049941
 20
298.182512086615
 30
0.0
 10
12.44482629518882
 20
297.4247445112491
 30
0.0
 10
12.44482629518882
 20
296.4928609438802
 30
0.0
 10
12.44482629518882
 20
295.5614069743191
 30
0.0
 10
13.20260461049941
 20
294.8035212595561
 30
0.0
 10
14.13443447814291
 20
294.8035212595561
 30
0.0
 10
14.13443447814291
 20
294.8035212595561
 30
0.0
 10
24.33318312426127
 20
294.8035212595561
 30
0.0
 10
24.33318312426127
 20
294.8035212595561
 30
0.0
 10
25.26474449327367
 20
294.8035212595561
 30
0.0
 10
26.0228342669962
 20
295.5614069743191
 30
0.0
 10
26.0228342669962
 20
296.493172402291
 30
0.0
 10
26.0228342669962
 20
297.4247445112491
 30
0.0
 10
25.26474449327367
 20
298.182512086615
 30
0.0
 10
24.33318312426127
 20
298.182512086615
 30
0.0
  0
SPLINE
  5
1A22F
330
1F
100
AcDbEntity
  8
0
 62
     7
370
     0
100
AcDbSpline
210
0.0
220
0.0
230
1.0
 70
     9
 71
     3
 72
    17
 73
    13
 74
     0
 42
0.000000001
 43
0.0000000001
 40
0.0
 40
0.0
 40
0.0
 40
0.0
 40
1.0
 40
1.0
 40
1.0
 40
2.0
 40
2.0
 40
2.0
 40
3.0
 40
3.0
 40
3.0
 40
4.0
 40
4.0
 40
4.0
 40
4.0
 10
19.2343296885457
 20
278.5009402122761
 30
0.0
 10
18.22704096574398
 20
278.5009402122761
 30
0.0
 10
17.40759467084911
 20
279.3202792244921
 30
0.0
 10
17.40759467084911
 20
280.3272564888811
 30
0.0
 10
17.40759467084911
 20
281.33464187119
 30
0.0
 10
18.22704096574398
 20
282.1543037508931
 30
0.0
 10
19.2343296885457
 20
282.1543037508931
 30
0.0
 10
20.24141435238749
 20
282.1543037508931
 30
0.0
 10
21.06085069324126
 20
281.33464187119
 30
0.0
 10
21.06085069324126
 20
280.3272564888811
 30
0.0
 10
21.06085069324126
 20
279.3202792244921
 30
0.0
 10
20.24141435238749
 20
278.5009402122761
 30
0.0
 10
19.2343296885457
 20
278.5009402122761
 30
0.0
  0
SPLINE
  5
1A230
330
1F
100
AcDbEntity
  8
0
 62
     7
370
     0
100
AcDbSpline
210
0.0
220
0.0
230
1.0
 70
     9
 71
     3
 72
    17
 73
    13
 74
     0
 42
0.000000001
 43
0.0000000001
 40
0.0
 40
0.0
 40
0.0
 40
0.0
 40
1.0
 40
1.0
 40
1.0
 40
2.0
 40
2.0
 40
2.0
 40
3.0
 40
3.0
 40
3.0
 40
4.0
 40
4.0
 40
4.0
 40
4.0
 10
19.2343296885457
 20
278.5009402122761
 30
0.0
 10
18.22704096574398
 20
278.5009402122761
 30
0.0
 10
17.40759467084911
 20
279.3202792244921
 30
0.0
 10
17.40759467084911
 20
280.3272564888811
 30
0.0
 10
17.40759467084911
 20
281.33464187119
 30
0.0
 10
18.22704096574398
 20
282.1543037508931
 30
0.0
 10
19.2343296885457
 20
282.1543037508931
 30
0.0
 10
20.24141435238749
 20
282.1543037508931
 30
0.0
 10
21.06085069324126
 20
281.33464187119
 30
0.0
 10
21.06085069324126
 20
280.3272564888811
 30
0.0
 10
21.06085069324126
 20
279.3202792244921
 30
0.0
 10
20.24141435238749
 20
278.5009402122761
 30
0.0
 10
19.2343296885457
 20
278.5009402122761
 30
0.0
  0
SPLINE
  5
1A231
330
1F
100
AcDbEntity
  8
0
 62
     7
370
     0
100
AcDbSpline
210
0.0
220
0.0
230
1.0
 70
     9
 71
     3
 72
    17
 73
    13
 74
     0
 42
0.000000001
 43
0.0000000001
 40
0.0
 40
0.0
 40
0.0
 40
0.0
 40
1.0
 40
1.0
 40
1.0
 40
2.0
 40
2.0
 40
2.0
 40
3.0
 40
3.0
 40
3.0
 40
4.0
 40
4.0
 40
4.0
 40
4.0
 10
26.1538293789182
 20
274.5423675719641
 30
0.0
 10
26.1538293789182
 20
275.509274100716
 30
0.0
 10
25.3699422567625
 20
276.292957163913
 30
0.0
 10
24.40303572801076
 20
276.292957163913
 30
0.0
 10
23.43633325821889
 20
276.292957163913
 30
0.0
 10
22.6523396550084
 20
275.509274100716
 30
0.0
 10
22.6523396550084
 20
274.5423675719641
 30
0.0
 10
22.6523396550084
 20
273.57555770272
 30
0.0
 10
23.43633325821889
 20
272.7918853794691
 30
0.0
 10
24.40303572801076
 20
272.7918853794691
 30
0.0
 10
25.3699422567625
 20
272.7918853794691
 30
0.0
 10
26.1538293789182
 20
273.57555770272
 30
0.0
 10
26.1538293789182
 20
274.5423675719641
 30
0.0
  0
SPLINE
  5
1A232
330
1F
100
AcDbEntity
  8
0
 62
     7
370
     0
100
AcDbSpline
210
0.0
220
0.0
230
1.0
 70
     9
 71
     3
 72
    17
 73
    13
 74
     0
 42
0.000000001
 43
0.0000000001
 40
0.0
 40
0.0
 40
0.0
 40
0.0
 40
1.0
 40
1.0
 40
1.0
 40
2.0
 40
2.0
 40
2.0
 40
3.0
 40
3.0
 40
3.0
 40
4.0
 40
4.0
 40
4.0
 40
4.0
 10
26.1538293789182
 20
274.5423675719641
 30
0.0
 10
26.1538293789182
 20
275.509274100716
 30
0.0
 10
25.3699422567625
 20
276.292957163913
 30
0.0
 10
24.40303572801076
 20
276.292957163913
 30
0.0
 10
23.43633325821889
 20
276.292957163913
 30
0.0
 10
22.6523396550084
 20
275.509274100716
 30
0.0
 10
22.6523396550084
 20
274.5423675719641
 30
0.0
 10
22.6523396550084
 20
273.57555770272
 30
0.0
 10
23.43633325821889
 20
272.7918853794691
 30
0.0
 10
24.40303572801076
 20
272.7918853794691
 30
0.0
 10
25.3699422567625
 20
272.7918853794691
 30
0.0
 10
26.1538293789182
 20
273.57555770272
 30
0.0
 10
26.1538293789182
 20
274.5423675719641
 30
0.0
  0
SPLINE
  5
1A233
330
1F
100
AcDbEntity
  8
0
 62
     7
370
     0
100
AcDbSpline
210
0.0
220
0.0
230
1.0
 70
     9
 71
     3
 72
    17
 73
    13
 74
     0
 42
0.000000001
 43
0.0000000001
 40
0.0
 40
0.0
 40
0.0
 40
0.0
 40
1.0
 40
1.0
 40
1.0
 40
2.0
 40
2.0
 40
2.0
 40
3.0
 40
3.0
 40
3.0
 40
4.0
 40
4.0
 40
4.0
 40
4.0
 10
14.06416301652916
 20
272.7931419530611
 30
0.0
 10
13.0988782195073
 20
272.7931419530611
 30
0.0
 10
12.3135734245817
 20
273.5783935930361
 30
0.0
 10
12.3135734245817
 20
274.5435167461041
 30
0.0
 10
12.3135734245817
 20
275.5088552428521
 30
0.0
 10
13.0988782195073
 20
276.294213737504
 30
0.0
 10
14.06416301652916
 20
276.294213737504
 30
0.0
 10
15.02934113992438
 20
276.294213737504
 30
0.0
 10
15.81464595468788
 20
275.5088552428521
 30
0.0
 10
15.81464595468788
 20
274.5435167461041
 30
0.0
 10
15.81464595468788
 20
273.5783935930361
 30
0.0
 10
15.02934113992438
 20
272.7931419530611
 30
0.0
 10
14.06416301652916
 20
272.7931419530611
 30
0.0
  0
SPLINE
  5
1A234
330
1F
100
AcDbEntity
  8
0
 62
     7
370
     0
100
AcDbSpline
210
0.0
220
0.0
230
1.0
 70
     9
 71
     3
 72
    17
 73
    13
 74
     0
 42
0.000000001
 43
0.0000000001
 40
0.0
 40
0.0
 40
0.0
 40
0.0
 40
1.0
 40
1.0
 40
1.0
 40
2.0
 40
2.0
 40
2.0
 40
3.0
 40
3.0
 40
3.0
 40
4.0
 40
4.0
 40
4.0
 40
4.0
 10
14.06416301652916
 20
272.7931419530611
 30
0.0
 10
13.0988782195073
 20
272.7931419530611
 30
0.0
 10
12.3135734245817
 20
273.5783935930361
 30
0.0
 10
12.3135734245817
 20
274.5435167461041
 30
0.0
 10
12.3135734245817
 20
275.5088552428521
 30
0.0
 10
13.0988782195073
 20
276.294213737504
 30
0.0
 10
14.06416301652916
 20
276.294213737504
 30
0.0
 10
15.02934113992438
 20
276.294213737504
 30
0.0
 10
15.81464595468788
 20
275.5088552428521
 30
0.0
 10
15.81464595468788
 20
274.5435167461041
 30
0.0
 10
15.81464595468788
 20
273.5783935930361
 30
0.0
 10
15.02934113992438
 20
272.7931419530611
 30
0.0
 10
14.06416301652916
 20
272.7931419530611
 30
0.0
  0
SPLINE
  5
1A235
330
1F
100
AcDbEntity
  8
0
 62
     7
370
     0
100
AcDbSpline
210
0.0
220
0.0
230
1.0
 70
     9
 71
     3
 72
    29
 73
    25
 74
     0
 42
0.000000001
 43
0.0000000001
 40
0.0
 40
0.0
 40
0.0
 40
0.0
 40
1.0
 40
1.0
 40
1.0
 40
2.0
 40
2.0
 40
2.0
 40
3.0
 40
3.0
 40
3.0
 40
4.0
 40
4.0
 40
4.0
 40
5.0
 40
5.0
 40
5.0
 40
6.0
 40
6.0
 40
6.0
 40
7.0
 40
7.0
 40
7.0
 40
8.0
 40
8.0
 40
8.0
 40
8.0
 10
18.03599882006438
 20
271.789622951033
 30
0.0
 10
18.03599882006438
 20
271.789622951033
 30
0.0
 10
12.708341591254
 20
271.789622951033
 30
0.0
 10
12.708341591254
 20
271.789622951033
 30
0.0
 10
12.28860305193132
 20
271.789622951033
 30
0.0
 10
11.94721241303262
 20
271.4482328030991
 30
0.0
 10
11.94721241303262
 20
271.0286011722641
 30
0.0
 10
11.94721241303262
 20
271.0286011722641
 30
0.0
 10
11.94721241303262
 20
269.2016510039701
 30
0.0
 10
11.94721241303262
 20
269.2016510039701
 30
0.0
 10
11.94721241303262
 20
268.7820194298892
 30
0.0
 10
12.28860305193132
 20
268.4406287909911
 30
0.0
 10
12.708341591254
 20
268.4406287909911
 30
0.0
 10
12.708341591254
 20
268.4406287909911
 30
0.0
 10
18.03599882006438
 20
268.4406287909911
 30
0.0
 10
18.03599882006438
 20
268.4406287909911
 30
0.0
 10
18.45573735938621
 20
268.4406287909911
 30
0.0
 10
18.7971288192922
 20
268.7820194298892
 30
0.0
 10
18.7971288192922
 20
269.2016510039701
 30
0.0
 10
18.7971288192922
 20
269.2016510039701
 30
0.0
 10
18.7971288192922
 20
271.0286011722641
 30
0.0
 10
18.7971288192922
 20
271.0286011722641
 30
0.0
 10
18.7971288192922
 20
271.4482328030991
 30
0.0
 10
18.45573735938621
 20
271.789622951033
 30
0.0
 10
18.03599882006438
 20
271.789622951033
 30
0.0
  0
SPLINE
  5
1A236
330
1F
100
AcDbEntity
  8
0
 62
     7
370
     0
100
AcDbSpline
210
0.0
220
0.0
230
1.0
 70
     9
 71
     3
 72
    29
 73
    25
 74
     0
 42
0.000000001
 43
0.0000000001
 40
0.0
 40
0.0
 40
0.0
 40
0.0
 40
1.0
 40
1.0
 40
1.0
 40
2.0
 40
2.0
 40
2.0
 40
3.0
 40
3.0
 40
3.0
 40
4.0
 40
4.0
 40
4.0
 40
5.0
 40
5.0
 40
5.0
 40
6.0
 40
6.0
 40
6.0
 40
7.0
 40
7.0
 40
7.0
 40
8.0
 40
8.0
 40
8.0
 40
8.0
 10
18.58405822494672
 20
269.2016510039701
 30
0.0
 10
18.58405822494672
 20
268.8994929507711
 30
0.0
 10
18.33822087872352
 20
268.653752264055
 30
0.0
 10
18.03599882006438
 20
268.653752264055
 30
0.0
 10
18.03599882006438
 20
268.653752264055
 30
0.0
 10
12.708341591254
 20
268.653752264055
 30
0.0
 10
12.708341591254
 20
268.653752264055
 30
0.0
 10
12.40622693204671
 20
268.653752264055
 30
0.0
 10
12.16038958582351
 20
268.8994929507711
 30
0.0
 10
12.16038958582351
 20
269.2016510039701
 30
0.0
 10
12.16038958582351
 20
269.2016510039701
 30
0.0
 10
12.16038958582351
 20
271.0286011722641
 30
0.0
 10
12.16038958582351
 20
271.0286011722641
 30
0.0
 10
12.16038958582351
 20
271.3307695311981
 30
0.0
 10
12.40622693204671
 20
271.5764994779692
 30
0.0
 10
12.708341591254
 20
271.5764994779692
 30
0.0
 10
12.708341591254
 20
271.5764994779692
 30
0.0
 10
18.03599882006438
 20
271.5764994779692
 30
0.0
 10
18.03599882006438
 20
271.5764994779692
 30
0.0
 10
18.33822087872352
 20
271.5764994779692
 30
0.0
 10
18.58405822494672
 20
271.3307695311981
 30
0.0
 10
18.58405822494672
 20
271.0286011722641
 30
0.0
 10
18.58405822494672
 20
271.0286011722641
 30
0.0
 10
18.58405822494672
 20
269.2016510039701
 30
0.0
 10
18.58405822494672
 20
269.2016510039701
 30
0.0
  0
SPLINE
  5
1A237
330
1F
100
AcDbEntity
  8
0
 62
     7
370
     0
100
AcDbSpline
210
0.0
220
0.0
230
1.0
 70
     9
 71
     3
 72
    29
 73
    25
 74
     0
 42
0.000000001
 43
0.0000000001
 40
0.0
 40
0.0
 40
0.0
 40
0.0
 40
1.0
 40
1.0
 40
1.0
 40
2.0
 40
2.0
 40
2.0
 40
3.0
 40
3.0
 40
3.0
 40
4.0
 40
4.0
 40
4.0
 40
5.0
 40
5.0
 40
5.0
 40
6.0
 40
6.0
 40
6.0
 40
7.0
 40
7.0
 40
7.0
 40
8.0
 40
8.0
 40
8.0
 40
8.0
 10
18.03599882006438
 20
271.789622951033
 30
0.0
 10
18.03599882006438
 20
271.789622951033
 30
0.0
 10
12.708341591254
 20
271.789622951033
 30
0.0
 10
12.708341591254
 20
271.789622951033
 30
0.0
 10
12.28860305193132
 20
271.789622951033
 30
0.0
 10
11.94721241303262
 20
271.4482328030991
 30
0.0
 10
11.94721241303262
 20
271.0286011722641
 30
0.0
 10
11.94721241303262
 20
271.0286011722641
 30
0.0
 10
11.94721241303262
 20
269.2016510039701
 30
0.0
 10
11.94721241303262
 20
269.2016510039701
 30
0.0
 10
11.94721241303262
 20
268.7820194298892
 30
0.0
 10
12.28860305193132
 20
268.4406287909911
 30
0.0
 10
12.708341591254
 20
268.4406287909911
 30
0.0
 10
12.708341591254
 20
268.4406287909911
 30
0.0
 10
18.03599882006438
 20
268.4406287909911
 30
0.0
 10
18.03599882006438
 20
268.4406287909911
 30
0.0
 10
18.45573735938621
 20
268.4406287909911
 30
0.0
 10
18.7971288192922
 20
268.7820194298892
 30
0.0
 10
18.7971288192922
 20
269.2016510039701
 30
0.0
 10
18.7971288192922
 20
269.2016510039701
 30
0.0
 10
18.7971288192922
 20
271.0286011722641
 30
0.0
 10
18.7971288192922
 20
271.0286011722641
 30
0.0
 10
18.7971288192922
 20
271.4482328030991
 30
0.0
 10
18.45573735938621
 20
271.789622951033
 30
0.0
 10
18.03599882006438
 20
271.789622951033
 30
0.0
  0
SPLINE
  5
1A238
330
1F
100
AcDbEntity
  8
0
 62
     7
370
     0
100
AcDbSpline
210
0.0
220
0.0
230
1.0
 70
     9
 71
     3
 72
    29
 73
    25
 74
     0
 42
0.000000001
 43
0.0000000001
 40
0.0
 40
0.0
 40
0.0
 40
0.0
 40
1.0
 40
1.0
 40
1.0
 40
2.0
 40
2.0
 40
2.0
 40
3.0
 40
3.0
 40
3.0
 40
4.0
 40
4.0
 40
4.0
 40
5.0
 40
5.0
 40
5.0
 40
6.0
 40
6.0
 40
6.0
 40
7.0
 40
7.0
 40
7.0
 40
8.0
 40
8.0
 40
8.0
 40
8.0
 10
18.58405822494672
 20
269.2016510039701
 30
0.0
 10
18.58405822494672
 20
268.8994929507711
 30
0.0
 10
18.33822087872352
 20
268.653752264055
 30
0.0
 10
18.03599882006438
 20
268.653752264055
 30
0.0
 10
18.03599882006438
 20
268.653752264055
 30
0.0
 10
12.708341591254
 20
268.653752264055
 30
0.0
 10
12.708341591254
 20
268.653752264055
 30
0.0
 10
12.40622693204671
 20
268.653752264055
 30
0.0
 10
12.16038958582351
 20
268.8994929507711
 30
0.0
 10
12.16038958582351
 20
269.2016510039701
 30
0.0
 10
12.16038958582351
 20
269.2016510039701
 30
0.0
 10
12.16038958582351
 20
271.0286011722641
 30
0.0
 10
12.16038958582351
 20
271.0286011722641
 30
0.0
 10
12.16038958582351
 20
271.3307695311981
 30
0.0
 10
12.40622693204671
 20
271.5764994779692
 30
0.0
 10
12.708341591254
 20
271.5764994779692
 30
0.0
 10
12.708341591254
 20
271.5764994779692
 30
0.0
 10
18.03599882006438
 20
271.5764994779692
 30
0.0
 10
18.03599882006438
 20
271.5764994779692
 30
0.0
 10
18.33822087872352
 20
271.5764994779692
 30
0.0
 10
18.58405822494672
 20
271.3307695311981
 30
0.0
 10
18.58405822494672
 20
271.0286011722641
 30
0.0
 10
18.58405822494672
 20
271.0286011722641
 30
0.0
 10
18.58405822494672
 20
269.2016510039701
 30
0.0
 10
18.58405822494672
 20
269.2016510039701
 30
0.0
  0
SPLINE
  5
1A239
330
1F
100
AcDbEntity
  8
0
 62
     7
370
     0
100
AcDbSpline
210
0.0
220
0.0
230
1.0
 70
     9
 71
     3
 72
    17
 73
    13
 74
     0
 42
0.000000001
 43
0.0000000001
 40
0.0
 40
0.0
 40
0.0
 40
0.0
 40
1.0
 40
1.0
 40
1.0
 40
2.0
 40
2.0
 40
2.0
 40
3.0
 40
3.0
 40
3.0
 40
4.0
 40
4.0
 40
4.0
 40
4.0
 10
19.2343296885457
 20
278.5009402122761
 30
0.0
 10
18.22704096574398
 20
278.5009402122761
 30
0.0
 10
17.40759467084911
 20
279.3202792244921
 30
0.0
 10
17.40759467084911
 20
280.3272564888811
 30
0.0
 10
17.40759467084911
 20
281.33464187119
 30
0.0
 10
18.22704096574398
 20
282.1543037508931
 30
0.0
 10
19.2343296885457
 20
282.1543037508931
 30
0.0
 10
20.24141435238749
 20
282.1543037508931
 30
0.0
 10
21.06085069324126
 20
281.33464187119
 30
0.0
 10
21.06085069324126
 20
280.3272564888811
 30
0.0
 10
21.06085069324126
 20
279.3202792244921
 30
0.0
 10
20.24141435238749
 20
278.5009402122761
 30
0.0
 10
19.2343296885457
 20
278.5009402122761
 30
0.0
  0
SPLINE
  5
1A23A
330
1F
100
AcDbEntity
  8
0
 62
     7
370
     0
100
AcDbSpline
210
0.0
220
0.0
230
1.0
 70
     9
 71
     3
 72
    17
 73
    13
 74
     0
 42
0.000000001
 43
0.0000000001
 40
0.0
 40
0.0
 40
0.0
 40
0.0
 40
1.0
 40
1.0
 40
1.0
 40
2.0
 40
2.0
 40
2.0
 40
3.0
 40
3.0
 40
3.0
 40
4.0
 40
4.0
 40
4.0
 40
4.0
 10
19.2343296885457
 20
278.5009402122761
 30
0.0
 10
18.22704096574398
 20
278.5009402122761
 30
0.0
 10
17.40759467084911
 20
279.3202792244921
 30
0.0
 10
17.40759467084911
 20
280.3272564888811
 30
0.0
 10
17.40759467084911
 20
281.33464187119
 30
0.0
 10
18.22704096574398
 20
282.1543037508931
 30
0.0
 10
19.2343296885457
 20
282.1543037508931
 30
0.0
 10
20.24141435238749
 20
282.1543037508931
 30
0.0
 10
21.06085069324126
 20
281.33464187119
 30
0.0
 10
21.06085069324126
 20
280.3272564888811
 30
0.0
 10
21.06085069324126
 20
279.3202792244921
 30
0.0
 10
20.24141435238749
 20
278.5009402122761
 30
0.0
 10
19.2343296885457
 20
278.5009402122761
 30
0.0
  0
SPLINE
  5
1A23B
330
1F
100
AcDbEntity
  8
0
 62
     7
370
     0
100
AcDbSpline
210
0.0
220
0.0
230
1.0
 70
     9
 71
     3
 72
    44
 73
    40
 74
     0
 42
0.000000001
 43
0.0000000001
 40
0.0
 40
0.0
 40
0.0
 40
0.0
 40
1.0
 40
1.0
 40
1.0
 40
2.0
 40
2.0
 40
2.0
 40
3.0
 40
3.0
 40
3.0
 40
4.0
 40
4.0
 40
4.0
 40
5.0
 40
5.0
 40
5.0
 40
6.0
 40
6.0
 40
6.0
 40
7.0
 40
7.0
 40
7.0
 40
8.0
 40
8.0
 40
8.0
 40
9.0
 40
9.0
 40
9.0
 40
10.0
 40
10.0
 40
10.0
 40
11.0
 40
11.0
 40
11.0
 40
12.0
 40
12.0
 40
12.0
 40
13.0
 40
13.0
 40
13.0
 40
13.0
 10
21.21241280027067
 20
283.9475738851689
 30
0.0
 10
21.12933932394759
 20
283.871953930833
 30
0.0
 10
21.01733243518538
 20
283.828532332284
 30
0.0
 10
20.90489594861447
 20
283.828532332284
 30
0.0
 10
20.90489594861447
 20
283.828532332284
 30
0.0
 10
17.56339827033941
 20
283.828532332284
 30
0.0
 10
17.56339827033941
 20
283.828532332284
 30
0.0
 10
17.45096178376849
 20
283.828532332284
 30
0.0
 10
17.33895489500628
 20
283.871953930833
 30
0.0
 10
17.25593511840907
 20
283.9475738851689
 30
0.0
 10
17.17292686173278
 20
284.0233012389571
 30
0.0
 10
17.1193230151344
 20
284.130915490122
 30
0.0
 10
17.10878712886739
 20
284.2426109204731
 30
0.0
 10
17.09824050265621
 20
284.3544137502751
 30
0.0
 10
17.13112621493747
 20
284.469997040797
 30
0.0
 10
17.19866973046379
 20
284.5598804645859
 30
0.0
 10
17.19866973046379
 20
284.5598804645859
 30
0.0
 10
18.86939708971119
 20
286.7793976010611
 30
0.0
 10
18.86939708971119
 20
286.7793976010611
 30
0.0
 10
18.92566366275071
 20
286.8543937603121
 30
0.0
 10
19.00599845304077
 20
286.9113369499011
 30
0.0
 10
19.0955695962258
 20
286.9398729843659
 30
0.0
 10
19.14004370940631
 20
286.954029114847
 30
0.0
 10
19.18666664247951
 20
286.9611595558041
 30
0.0
 10
19.234222289093
 20
286.9611595558041
 30
0.0
 10
19.28184320622552
 20
286.9611595558041
 30
0.0
 10
19.32841160872528
 20
286.954029114847
 30
0.0
 10
19.37287498196122
 20
286.9398729843659
 30
0.0
 10
19.46234946563897
 20
286.9113369499011
 30
0.0
 10
19.5426842559292
 20
286.8543937603121
 30
0.0
 10
19.59889712924229
 20
286.7793976010611
 30
0.0
 10
19.59889712924229
 20
286.7793976010611
 30
0.0
 10
21.2696790716837
 20
284.559773065131
 30
0.0
 10
21.2696790716837
 20
284.559773065131
 30
0.0
 10
21.33732910319401
 20
284.469997040797
 30
0.0
 10
21.37004297635218
 20
284.3544137502751
 30
0.0
 10
21.3595607898115
 20
284.2427183199239
 30
0.0
 10
21.34906786332618
 20
284.13080809067
 30
0.0
 10
21.29547553664821
 20
284.0233012389571
 30
0.0
 10
21.21241280027067
 20
283.9475738851689
 30
0.0
  0
SPLINE
  5
1A23C
330
1F
100
AcDbEntity
  8
0
 62
     7
370
     0
100
AcDbSpline
210
0.0
220
0.0
230
1.0
 70
     9
 71
     3
 72
    44
 73
    40
 74
     0
 42
0.000000001
 43
0.0000000001
 40
0.0
 40
0.0
 40
0.0
 40
0.0
 40
1.0
 40
1.0
 40
1.0
 40
2.0
 40
2.0
 40
2.0
 40
3.0
 40
3.0
 40
3.0
 40
4.0
 40
4.0
 40
4.0
 40
5.0
 40
5.0
 40
5.0
 40
6.0
 40
6.0
 40
6.0
 40
7.0
 40
7.0
 40
7.0
 40
8.0
 40
8.0
 40
8.0
 40
9.0
 40
9.0
 40
9.0
 40
10.0
 40
10.0
 40
10.0
 40
11.0
 40
11.0
 40
11.0
 40
12.0
 40
12.0
 40
12.0
 40
13.0
 40
13.0
 40
13.0
 40
13.0
 10
21.21241280027067
 20
283.9475738851689
 30
0.0
 10
21.12933932394759
 20
283.871953930833
 30
0.0
 10
21.01733243518538
 20
283.828532332284
 30
0.0
 10
20.90489594861447
 20
283.828532332284
 30
0.0
 10
20.90489594861447
 20
283.828532332284
 30
0.0
 10
17.56339827033941
 20
283.828532332284
 30
0.0
 10
17.56339827033941
 20
283.828532332284
 30
0.0
 10
17.45096178376849
 20
283.828532332284
 30
0.0
 10
17.33895489500628
 20
283.871953930833
 30
0.0
 10
17.25593511840907
 20
283.9475738851689
 30
0.0
 10
17.17292686173278
 20
284.0233012389571
 30
0.0
 10
17.1193230151344
 20
284.130915490122
 30
0.0
 10
17.10878712886739
 20
284.2426109204731
 30
0.0
 10
17.09824050265621
 20
284.3544137502751
 30
0.0
 10
17.13112621493747
 20
284.469997040797
 30
0.0
 10
17.19866973046379
 20
284.5598804645859
 30
0.0
 10
17.19866973046379
 20
284.5598804645859
 30
0.0
 10
18.86939708971119
 20
286.7793976010611
 30
0.0
 10
18.86939708971119
 20
286.7793976010611
 30
0.0
 10
18.92566366275071
 20
286.8543937603121
 30
0.0
 10
19.00599845304077
 20
286.9113369499011
 30
0.0
 10
19.0955695962258
 20
286.9398729843659
 30
0.0
 10
19.14004370940631
 20
286.954029114847
 30
0.0
 10
19.18666664247951
 20
286.9611595558041
 30
0.0
 10
19.234222289093
 20
286.9611595558041
 30
0.0
 10
19.28184320622552
 20
286.9611595558041
 30
0.0
 10
19.32841160872528
 20
286.954029114847
 30
0.0
 10
19.37287498196122
 20
286.9398729843659
 30
0.0
 10
19.46234946563897
 20
286.9113369499011
 30
0.0
 10
19.5426842559292
 20
286.8543937603121
 30
0.0
 10
19.59889712924229
 20
286.7793976010611
 30
0.0
 10
19.59889712924229
 20
286.7793976010611
 30
0.0
 10
21.2696790716837
 20
284.559773065131
 30
0.0
 10
21.2696790716837
 20
284.559773065131
 30
0.0
 10
21.33732910319401
 20
284.469997040797
 30
0.0
 10
21.37004297635218
 20
284.3544137502751
 30
0.0
 10
21.3595607898115
 20
284.2427183199239
 30
0.0
 10
21.34906786332618
 20
284.13080809067
 30
0.0
 10
21.29547553664821
 20
284.0233012389571
 30
0.0
 10
21.21241280027067
 20
283.9475738851689
 30
0.0
  0
SPLINE
  5
1A23D
330
1F
100
AcDbEntity
  8
0
 62
     7
370
     0
100
AcDbSpline
210
0.0
220
0.0
230
1.0
 70
     9
 71
     3
 72
    44
 73
    40
 74
     0
 42
0.000000001
 43
0.0000000001
 40
0.0
 40
0.0
 40
0.0
 40
0.0
 40
1.0
 40
1.0
 40
1.0
 40
2.0
 40
2.0
 40
2.0
 40
3.0
 40
3.0
 40
3.0
 40
4.0
 40
4.0
 40
4.0
 40
5.0
 40
5.0
 40
5.0
 40
6.0
 40
6.0
 40
6.0
 40
7.0
 40
7.0
 40
7.0
 40
8.0
 40
8.0
 40
8.0
 40
9.0
 40
9.0
 40
9.0
 40
10.0
 40
10.0
 40
10.0
 40
11.0
 40
11.0
 40
11.0
 40
12.0
 40
12.0
 40
12.0
 40
13.0
 40
13.0
 40
13.0
 40
13.0
 10
21.2696790716837
 20
276.094837394328
 30
0.0
 10
21.2696790716837
 20
276.094837394328
 30
0.0
 10
19.59900452869448
 20
273.875212914471
 30
0.0
 10
19.59900452869448
 20
273.875212914471
 30
0.0
 10
19.5426842559292
 20
273.8002158769581
 30
0.0
 10
19.46234946563897
 20
273.7431652879171
 30
0.0
 10
19.37287498196122
 20
273.714736652904
 30
0.0
 10
19.32841160872528
 20
273.7005814050959
 30
0.0
 10
19.28184320622552
 20
273.6933426820141
 30
0.0
 10
19.234222289093
 20
273.6933426820141
 30
0.0
 10
19.18655924302448
 20
273.6933426820141
 30
0.0
 10
19.14004370940631
 20
273.7005814050959
 30
0.0
 10
19.0955695962258
 20
273.714736652904
 30
0.0
 10
19.00599845304077
 20
273.7431652879171
 30
0.0
 10
18.92566366275071
 20
273.8002158769581
 30
0.0
 10
18.86928969025848
 20
273.875212914471
 30
0.0
 10
18.86928969025848
 20
273.875212914471
 30
0.0
 10
17.19872343019011
 20
276.0947299948761
 30
0.0
 10
17.19872343019011
 20
276.0947299948761
 30
0.0
 10
17.13112621493747
 20
276.1846125964731
 30
0.0
 10
17.09829420238208
 20
276.3001958869951
 30
0.0
 10
17.10878712886739
 20
276.411998716797
 30
0.0
 10
17.11922713424622
 20
276.5236941471482
 30
0.0
 10
17.17281946227837
 20
276.6313083983119
 30
0.0
 10
17.25593511840907
 20
276.707035752101
 30
0.0
 10
17.33895489500628
 20
276.7826563321599
 30
0.0
 10
17.45096178376849
 20
276.8260773049861
 30
0.0
 10
17.56345197006527
 20
276.8260773049861
 30
0.0
 10
17.56345197006527
 20
276.8260773049861
 30
0.0
 10
20.90478854916188
 20
276.8260773049861
 30
0.0
 10
20.90478854916188
 20
276.8260773049861
 30
0.0
 10
21.01733243518538
 20
276.8260773049861
 30
0.0
 10
21.12933932394759
 20
276.7826563321599
 30
0.0
 10
21.21241280027067
 20
276.707035752101
 30
0.0
 10
21.29547553664821
 20
276.6313083983119
 30
0.0
 10
21.34906786332618
 20
276.5238015466001
 30
0.0
 10
21.3595607898115
 20
276.4118913173451
 30
0.0
 10
21.36994631684598
 20
276.3001958869951
 30
0.0
 10
21.33732910319401
 20
276.1846125964731
 30
0.0
 10
21.2696790716837
 20
276.094837394328
 30
0.0
  0
SPLINE
  5
1A23E
330
1F
100
AcDbEntity
  8
0
 62
     7
370
     0
100
AcDbSpline
210
0.0
220
0.0
230
1.0
 70
     9
 71
     3
 72
    44
 73
    40
 74
     0
 42
0.000000001
 43
0.0000000001
 40
0.0
 40
0.0
 40
0.0
 40
0.0
 40
1.0
 40
1.0
 40
1.0
 40
2.0
 40
2.0
 40
2.0
 40
3.0
 40
3.0
 40
3.0
 40
4.0
 40
4.0
 40
4.0
 40
5.0
 40
5.0
 40
5.0
 40
6.0
 40
6.0
 40
6.0
 40
7.0
 40
7.0
 40
7.0
 40
8.0
 40
8.0
 40
8.0
 40
9.0
 40
9.0
 40
9.0
 40
10.0
 40
10.0
 40
10.0
 40
11.0
 40
11.0
 40
11.0
 40
12.0
 40
12.0
 40
12.0
 40
13.0
 40
13.0
 40
13.0
 40
13.0
 10
21.2696790716837
 20
276.094837394328
 30
0.0
 10
21.2696790716837
 20
276.094837394328
 30
0.0
 10
19.59900452869448
 20
273.875212914471
 30
0.0
 10
19.59900452869448
 20
273.875212914471
 30
0.0
 10
19.5426842559292
 20
273.8002158769581
 30
0.0
 10
19.46234946563897
 20
273.7431652879171
 30
0.0
 10
19.37287498196122
 20
273.714736652904
 30
0.0
 10
19.32841160872528
 20
273.7005814050959
 30
0.0
 10
19.28184320622552
 20
273.6933426820141
 30
0.0
 10
19.234222289093
 20
273.6933426820141
 30
0.0
 10
19.18655924302448
 20
273.6933426820141
 30
0.0
 10
19.14004370940631
 20
273.7005814050959
 30
0.0
 10
19.0955695962258
 20
273.714736652904
 30
0.0
 10
19.00599845304077
 20
273.7431652879171
 30
0.0
 10
18.92566366275071
 20
273.8002158769581
 30
0.0
 10
18.86928969025848
 20
273.875212914471
 30
0.0
 10
18.86928969025848
 20
273.875212914471
 30
0.0
 10
17.19872343019011
 20
276.0947299948761
 30
0.0
 10
17.19872343019011
 20
276.0947299948761
 30
0.0
 10
17.13112621493747
 20
276.1846125964731
 30
0.0
 10
17.09829420238208
 20
276.3001958869951
 30
0.0
 10
17.10878712886739
 20
276.411998716797
 30
0.0
 10
17.11922713424622
 20
276.5236941471482
 30
0.0
 10
17.17281946227837
 20
276.6313083983119
 30
0.0
 10
17.25593511840907
 20
276.707035752101
 30
0.0
 10
17.33895489500628
 20
276.7826563321599
 30
0.0
 10
17.45096178376849
 20
276.8260773049861
 30
0.0
 10
17.56345197006527
 20
276.8260773049861
 30
0.0
 10
17.56345197006527
 20
276.8260773049861
 30
0.0
 10
20.90478854916188
 20
276.8260773049861
 30
0.0
 10
20.90478854916188
 20
276.8260773049861
 30
0.0
 10
21.01733243518538
 20
276.8260773049861
 30
0.0
 10
21.12933932394759
 20
276.7826563321599
 30
0.0
 10
21.21241280027067
 20
276.707035752101
 30
0.0
 10
21.29547553664821
 20
276.6313083983119
 30
0.0
 10
21.34906786332618
 20
276.5238015466001
 30
0.0
 10
21.3595607898115
 20
276.4118913173451
 30
0.0
 10
21.36994631684598
 20
276.3001958869951
 30
0.0
 10
21.33732910319401
 20
276.1846125964731
 30
0.0
 10
21.2696790716837
 20
276.094837394328
 30
0.0
  0
SPLINE
  5
1A23F
330
1F
100
AcDbEntity
  8
0
 62
     7
370
     0
100
AcDbSpline
210
0.0
220
0.0
230
1.0
 70
     9
 71
     3
 72
    29
 73
    25
 74
     0
 42
0.000000001
 43
0.0000000001
 40
0.0
 40
0.0
 40
0.0
 40
0.0
 40
1.0
 40
1.0
 40
1.0
 40
2.0
 40
2.0
 40
2.0
 40
3.0
 40
3.0
 40
3.0
 40
4.0
 40
4.0
 40
4.0
 40
5.0
 40
5.0
 40
5.0
 40
6.0
 40
6.0
 40
6.0
 40
7.0
 40
7.0
 40
7.0
 40
8.0
 40
8.0
 40
8.0
 40
8.0
 10
25.76052184479619
 20
271.789622951033
 30
0.0
 10
25.76052184479619
 20
271.789622951033
 30
0.0
 10
20.43292991798808
 20
271.789622951033
 30
0.0
 10
20.43292991798808
 20
271.789622951033
 30
0.0
 10
20.01319051633527
 20
271.789622951033
 30
0.0
 10
19.67169247798398
 20
271.4482328030991
 30
0.0
 10
19.67169247798398
 20
271.0286011722641
 30
0.0
 10
19.67169247798398
 20
271.0286011722641
 30
0.0
 10
19.67169247798398
 20
269.2016510039701
 30
0.0
 10
19.67169247798398
 20
269.2016510039701
 30
0.0
 10
19.67169247798398
 20
268.7820194298892
 30
0.0
 10
20.01319051633527
 20
268.4406287909911
 30
0.0
 10
20.43292991798808
 20
268.4406287909911
 30
0.0
 10
20.43292991798808
 20
268.4406287909911
 30
0.0
 10
25.76052184479619
 20
268.4406287909911
 30
0.0
 10
25.76052184479619
 20
268.4406287909911
 30
0.0
 10
26.18026038411887
 20
268.4406287909911
 30
0.0
 10
26.52165102301797
 20
268.7820194298892
 30
0.0
 10
26.52165102301797
 20
269.2016510039701
 30
0.0
 10
26.52165102301797
 20
269.2016510039701
 30
0.0
 10
26.52165102301797
 20
271.0286011722641
 30
0.0
 10
26.52165102301797
 20
271.0286011722641
 30
0.0
 10
26.52165102301797
 20
271.4482328030991
 30
0.0
 10
26.18026038411887
 20
271.789622951033
 30
0.0
 10
25.76052184479619
 20
271.789622951033
 30
0.0
  0
SPLINE
  5
1A240
330
1F
100
AcDbEntity
  8
0
 62
     7
370
     0
100
AcDbSpline
210
0.0
220
0.0
230
1.0
 70
     9
 71
     3
 72
    29
 73
    25
 74
     0
 42
0.000000001
 43
0.0000000001
 40
0.0
 40
0.0
 40
0.0
 40
0.0
 40
1.0
 40
1.0
 40
1.0
 40
2.0
 40
2.0
 40
2.0
 40
3.0
 40
3.0
 40
3.0
 40
4.0
 40
4.0
 40
4.0
 40
5.0
 40
5.0
 40
5.0
 40
6.0
 40
6.0
 40
6.0
 40
7.0
 40
7.0
 40
7.0
 40
8.0
 40
8.0
 40
8.0
 40
8.0
 10
26.30853930065911
 20
269.2016510039701
 30
0.0
 10
26.30853930065911
 20
268.8994929507711
 30
0.0
 10
26.06269020373031
 20
268.653752264055
 30
0.0
 10
25.76052184479619
 20
268.653752264055
 30
0.0
 10
25.76052184479619
 20
268.653752264055
 30
0.0
 10
20.43292991798808
 20
268.653752264055
 30
0.0
 10
20.43292991798808
 20
268.653752264055
 30
0.0
 10
20.13054589781962
 20
268.653752264055
 30
0.0
 10
19.88480521110347
 20
268.8994929507711
 30
0.0
 10
19.88480521110347
 20
269.2016510039701
 30
0.0
 10
19.88480521110347
 20
269.2016510039701
 30
0.0
 10
19.88480521110347
 20
271.0286011722641
 30
0.0
 10
19.88480521110347
 20
271.0286011722641
 30
0.0
 10
19.88480521110347
 20
271.3307695311981
 30
0.0
 10
20.13054589781962
 20
271.5764994779692
 30
0.0
 10
20.43292991798808
 20
271.5764994779692
 30
0.0
 10
20.43292991798808
 20
271.5764994779692
 30
0.0
 10
25.76052184479619
 20
271.5764994779692
 30
0.0
 10
25.76052184479619
 20
271.5764994779692
 30
0.0
 10
26.06269020373031
 20
271.5764994779692
 30
0.0
 10
26.30853930065911
 20
271.3307695311981
 30
0.0
 10
26.30853930065911
 20
271.0286011722641
 30
0.0
 10
26.30853930065911
 20
271.0286011722641
 30
0.0
 10
26.30853930065911
 20
269.2016510039701
 30
0.0
 10
26.30853930065911
 20
269.2016510039701
 30
0.0
  0
SPLINE
  5
1A241
330
1F
100
AcDbEntity
  8
0
 62
     7
370
     0
100
AcDbSpline
210
0.0
220
0.0
230
1.0
 70
     9
 71
     3
 72
    29
 73
    25
 74
     0
 42
0.000000001
 43
0.0000000001
 40
0.0
 40
0.0
 40
0.0
 40
0.0
 40
1.0
 40
1.0
 40
1.0
 40
2.0
 40
2.0
 40
2.0
 40
3.0
 40
3.0
 40
3.0
 40
4.0
 40
4.0
 40
4.0
 40
5.0
 40
5.0
 40
5.0
 40
6.0
 40
6.0
 40
6.0
 40
7.0
 40
7.0
 40
7.0
 40
8.0
 40
8.0
 40
8.0
 40
8.0
 10
25.76052184479619
 20
271.789622951033
 30
0.0
 10
25.76052184479619
 20
271.789622951033
 30
0.0
 10
20.43292991798808
 20
271.789622951033
 30
0.0
 10
20.43292991798808
 20
271.789622951033
 30
0.0
 10
20.01319051633527
 20
271.789622951033
 30
0.0
 10
19.67169247798398
 20
271.4482328030991
 30
0.0
 10
19.67169247798398
 20
271.0286011722641
 30
0.0
 10
19.67169247798398
 20
271.0286011722641
 30
0.0
 10
19.67169247798398
 20
269.2016510039701
 30
0.0
 10
19.67169247798398
 20
269.2016510039701
 30
0.0
 10
19.67169247798398
 20
268.7820194298892
 30
0.0
 10
20.01319051633527
 20
268.4406287909911
 30
0.0
 10
20.43292991798808
 20
268.4406287909911
 30
0.0
 10
20.43292991798808
 20
268.4406287909911
 30
0.0
 10
25.76052184479619
 20
268.4406287909911
 30
0.0
 10
25.76052184479619
 20
268.4406287909911
 30
0.0
 10
26.18026038411887
 20
268.4406287909911
 30
0.0
 10
26.52165102301797
 20
268.7820194298892
 30
0.0
 10
26.52165102301797
 20
269.2016510039701
 30
0.0
 10
26.52165102301797
 20
269.2016510039701
 30
0.0
 10
26.52165102301797
 20
271.0286011722641
 30
0.0
 10
26.52165102301797
 20
271.0286011722641
 30
0.0
 10
26.52165102301797
 20
271.4482328030991
 30
0.0
 10
26.18026038411887
 20
271.789622951033
 30
0.0
 10
25.76052184479619
 20
271.789622951033
 30
0.0
  0
SPLINE
  5
1A242
330
1F
100
AcDbEntity
  8
0
 62
     7
370
     0
100
AcDbSpline
210
0.0
220
0.0
230
1.0
 70
     9
 71
     3
 72
    29
 73
    25
 74
     0
 42
0.000000001
 43
0.0000000001
 40
0.0
 40
0.0
 40
0.0
 40
0.0
 40
1.0
 40
1.0
 40
1.0
 40
2.0
 40
2.0
 40
2.0
 40
3.0
 40
3.0
 40
3.0
 40
4.0
 40
4.0
 40
4.0
 40
5.0
 40
5.0
 40
5.0
 40
6.0
 40
6.0
 40
6.0
 40
7.0
 40
7.0
 40
7.0
 40
8.0
 40
8.0
 40
8.0
 40
8.0
 10
26.30853930065911
 20
269.2016510039701
 30
0.0
 10
26.30853930065911
 20
268.8994929507711
 30
0.0
 10
26.06269020373031
 20
268.653752264055
 30
0.0
 10
25.76052184479619
 20
268.653752264055
 30
0.0
 10
25.76052184479619
 20
268.653752264055
 30
0.0
 10
20.43292991798808
 20
268.653752264055
 30
0.0
 10
20.43292991798808
 20
268.653752264055
 30
0.0
 10
20.13054589781962
 20
268.653752264055
 30
0.0
 10
19.88480521110347
 20
268.8994929507711
 30
0.0
 10
19.88480521110347
 20
269.2016510039701
 30
0.0
 10
19.88480521110347
 20
269.2016510039701
 30
0.0
 10
19.88480521110347
 20
271.0286011722641
 30
0.0
 10
19.88480521110347
 20
271.0286011722641
 30
0.0
 10
19.88480521110347
 20
271.3307695311981
 30
0.0
 10
20.13054589781962
 20
271.5764994779692
 30
0.0
 10
20.43292991798808
 20
271.5764994779692
 30
0.0
 10
20.43292991798808
 20
271.5764994779692
 30
0.0
 10
25.76052184479619
 20
271.5764994779692
 30
0.0
 10
25.76052184479619
 20
271.5764994779692
 30
0.0
 10
26.06269020373031
 20
271.5764994779692
 30
0.0
 10
26.30853930065911
 20
271.3307695311981
 30
0.0
 10
26.30853930065911
 20
271.0286011722641
 30
0.0
 10
26.30853930065911
 20
271.0286011722641
 30
0.0
 10
26.30853930065911
 20
269.2016510039701
 30
0.0
 10
26.30853930065911
 20
269.2016510039701
 30
0.0
  0
SPLINE
  5
1A243
330
1F
100
AcDbEntity
  8
0
 62
     7
370
     0
100
AcDbSpline
210
0.0
220
0.0
230
1.0
 70
     9
 71
     3
 72
    17
 73
    13
 74
     0
 42
0.000000001
 43
0.0000000001
 40
0.0
 40
0.0
 40
0.0
 40
0.0
 40
1.0
 40
1.0
 40
1.0
 40
2.0
 40
2.0
 40
2.0
 40
3.0
 40
3.0
 40
3.0
 40
4.0
 40
4.0
 40
4.0
 40
4.0
 10
14.2865121025435
 20
289.8717501081031
 30
0.0
 10
13.1533619616385
 20
289.8717501081031
 30
0.0
 10
12.23165986234301
 20
290.793559630138
 30
0.0
 10
12.23165986234301
 20
291.926601391922
 30
0.0
 10
12.23165986234301
 20
293.0596441333749
 30
0.0
 10
13.1533619616385
 20
293.981453632122
 30
0.0
 10
14.2865121025435
 20
293.981453632122
 30
0.0
 10
15.41966224344839
 20
293.981453632122
 30
0.0
 10
16.34162210142961
 20
293.0596441333749
 30
0.0
 10
16.34162210142961
 20
291.926601391922
 30
0.0
 10
16.34162210142961
 20
290.793559630138
 30
0.0
 10
15.41966224344839
 20
289.8717501081031
 30
0.0
 10
14.2865121025435
 20
289.8717501081031
 30
0.0
  0
SPLINE
  5
1A244
330
1F
100
AcDbEntity
  8
0
 62
     7
370
     0
100
AcDbSpline
210
0.0
220
0.0
230
1.0
 70
     9
 71
     3
 72
    17
 73
    13
 74
     0
 42
0.000000001
 43
0.0000000001
 40
0.0
 40
0.0
 40
0.0
 40
0.0
 40
1.0
 40
1.0
 40
1.0
 40
2.0
 40
2.0
 40
2.0
 40
3.0
 40
3.0
 40
3.0
 40
4.0
 40
4.0
 40
4.0
 40
4.0
 10
14.2865121025435
 20
293.7683408990021
 30
0.0
 10
13.27103954147981
 20
293.7683408990021
 30
0.0
 10
12.44482629518882
 20
292.9421813524381
 30
0.0
 10
12.44482629518882
 20
291.926601391922
 30
0.0
 10
12.44482629518882
 20
290.910924771899
 30
0.0
 10
13.27103954147981
 20
290.084872624786
 30
0.0
 10
14.2865121025435
 20
290.084872624786
 30
0.0
 10
15.30218872256637
 20
290.084872624786
 30
0.0
 10
16.12840196885742
 20
290.910924771899
 30
0.0
 10
16.12840196885742
 20
291.926601391922
 30
0.0
 10
16.12840196885742
 20
292.9421813524381
 30
0.0
 10
15.30218872256637
 20
293.7683408990021
 30
0.0
 10
14.2865121025435
 20
293.7683408990021
 30
0.0
  0
SPLINE
  5
1A245
330
1F
100
AcDbEntity
  8
0
 62
     7
370
     0
100
AcDbSpline
210
0.0
220
0.0
230
1.0
 70
     9
 71
     3
 72
    17
 73
    13
 74
     0
 42
0.000000001
 43
0.0000000001
 40
0.0
 40
0.0
 40
0.0
 40
0.0
 40
1.0
 40
1.0
 40
1.0
 40
2.0
 40
2.0
 40
2.0
 40
3.0
 40
3.0
 40
3.0
 40
4.0
 40
4.0
 40
4.0
 40
4.0
 10
14.2865121025435
 20
289.8717501081031
 30
0.0
 10
13.1533619616385
 20
289.8717501081031
 30
0.0
 10
12.23165986234301
 20
290.793559630138
 30
0.0
 10
12.23165986234301
 20
291.926601391922
 30
0.0
 10
12.23165986234301
 20
293.0596441333749
 30
0.0
 10
13.1533619616385
 20
293.981453632122
 30
0.0
 10
14.2865121025435
 20
293.981453632122
 30
0.0
 10
15.41966224344839
 20
293.981453632122
 30
0.0
 10
16.34162210142961
 20
293.0596441333749
 30
0.0
 10
16.34162210142961
 20
291.926601391922
 30
0.0
 10
16.34162210142961
 20
290.793559630138
 30
0.0
 10
15.41966224344839
 20
289.8717501081031
 30
0.0
 10
14.2865121025435
 20
289.8717501081031
 30
0.0
  0
SPLINE
  5
1A246
330
1F
100
AcDbEntity
  8
0
 62
     7
370
     0
100
AcDbSpline
210
0.0
220
0.0
230
1.0
 70
     9
 71
     3
 72
    17
 73
    13
 74
     0
 42
0.000000001
 43
0.0000000001
 40
0.0
 40
0.0
 40
0.0
 40
0.0
 40
1.0
 40
1.0
 40
1.0
 40
2.0
 40
2.0
 40
2.0
 40
3.0
 40
3.0
 40
3.0
 40
4.0
 40
4.0
 40
4.0
 40
4.0
 10
14.2865121025435
 20
293.7683408990021
 30
0.0
 10
13.27103954147981
 20
293.7683408990021
 30
0.0
 10
12.44482629518882
 20
292.9421813524381
 30
0.0
 10
12.44482629518882
 20
291.926601391922
 30
0.0
 10
12.44482629518882
 20
290.910924771899
 30
0.0
 10
13.27103954147981
 20
290.084872624786
 30
0.0
 10
14.2865121025435
 20
290.084872624786
 30
0.0
 10
15.30218872256637
 20
290.084872624786
 30
0.0
 10
16.12840196885742
 20
290.910924771899
 30
0.0
 10
16.12840196885742
 20
291.926601391922
 30
0.0
 10
16.12840196885742
 20
292.9421813524381
 30
0.0
 10
15.30218872256637
 20
293.7683408990021
 30
0.0
 10
14.2865121025435
 20
293.7683408990021
 30
0.0
  0
SPLINE
  5
1A247
330
1F
100
AcDbEntity
  8
0
 62
     7
370
     0
100
AcDbSpline
210
0.0
220
0.0
230
1.0
 70
     9
 71
     3
 72
    17
 73
    13
 74
     0
 42
0.000000001
 43
0.0000000001
 40
0.0
 40
0.0
 40
0.0
 40
0.0
 40
1.0
 40
1.0
 40
1.0
 40
2.0
 40
2.0
 40
2.0
 40
3.0
 40
3.0
 40
3.0
 40
4.0
 40
4.0
 40
4.0
 40
4.0
 10
19.23443708799778
 20
289.871642708648
 30
0.0
 10
18.10128775052101
 20
289.871642708648
 30
0.0
 10
17.17958562794138
 20
290.7934522306831
 30
0.0
 10
17.17958562794138
 20
291.926601391922
 30
0.0
 10
17.17958562794138
 20
293.0597515328271
 30
0.0
 10
18.10128775052101
 20
293.9815610315751
 30
0.0
 10
19.23443708799778
 20
293.9815610315751
 30
0.0
 10
20.36758722890318
 20
293.9815610315751
 30
0.0
 10
21.28949338715756
 20
293.0597515328271
 30
0.0
 10
21.28949338715756
 20
291.926601391922
 30
0.0
 10
21.28949338715756
 20
290.7934522306831
 30
0.0
 10
20.36758722890318
 20
289.871642708648
 30
0.0
 10
19.23443708799778
 20
289.871642708648
 30
0.0
  0
SPLINE
  5
1A248
330
1F
100
AcDbEntity
  8
0
 62
     7
370
     0
100
AcDbSpline
210
0.0
220
0.0
230
1.0
 70
     9
 71
     3
 72
    17
 73
    13
 74
     0
 42
0.000000001
 43
0.0000000001
 40
0.0
 40
0.0
 40
0.0
 40
0.0
 40
1.0
 40
1.0
 40
1.0
 40
2.0
 40
2.0
 40
2.0
 40
3.0
 40
3.0
 40
3.0
 40
4.0
 40
4.0
 40
4.0
 40
4.0
 10
19.23443708799778
 20
293.7684375585101
 30
0.0
 10
18.2189645269342
 20
293.7684375585101
 30
0.0
 10
17.39275128064321
 20
292.942278011945
 30
0.0
 10
17.39275128064321
 20
291.926601391922
 30
0.0
 10
17.39275128064321
 20
290.9110321713509
 30
0.0
 10
18.2189645269342
 20
290.0847652253341
 30
0.0
 10
19.23443708799778
 20
290.0847652253341
 30
0.0
 10
20.25011370802076
 20
290.0847652253341
 30
0.0
 10
21.07638065403808
 20
290.9110321713509
 30
0.0
 10
21.07638065403808
 20
291.926601391922
 30
0.0
 10
21.07638065403808
 20
292.942278011945
 30
0.0
 10
20.25011370802076
 20
293.7684375585101
 30
0.0
 10
19.23443708799778
 20
293.7684375585101
 30
0.0
  0
SPLINE
  5
1A249
330
1F
100
AcDbEntity
  8
0
 62
     7
370
     0
100
AcDbSpline
210
0.0
220
0.0
230
1.0
 70
     9
 71
     3
 72
    17
 73
    13
 74
     0
 42
0.000000001
 43
0.0000000001
 40
0.0
 40
0.0
 40
0.0
 40
0.0
 40
1.0
 40
1.0
 40
1.0
 40
2.0
 40
2.0
 40
2.0
 40
3.0
 40
3.0
 40
3.0
 40
4.0
 40
4.0
 40
4.0
 40
4.0
 10
19.23443708799778
 20
289.871642708648
 30
0.0
 10
18.10128775052101
 20
289.871642708648
 30
0.0
 10
17.17958562794138
 20
290.7934522306831
 30
0.0
 10
17.17958562794138
 20
291.926601391922
 30
0.0
 10
17.17958562794138
 20
293.0597515328271
 30
0.0
 10
18.10128775052101
 20
293.9815610315751
 30
0.0
 10
19.23443708799778
 20
293.9815610315751
 30
0.0
 10
20.36758722890318
 20
293.9815610315751
 30
0.0
 10
21.28949338715756
 20
293.0597515328271
 30
0.0
 10
21.28949338715756
 20
291.926601391922
 30
0.0
 10
21.28949338715756
 20
290.7934522306831
 30
0.0
 10
20.36758722890318
 20
289.871642708648
 30
0.0
 10
19.23443708799778
 20
289.871642708648
 30
0.0
  0
SPLINE
  5
1A24A
330
1F
100
AcDbEntity
  8
0
 62
     7
370
     0
100
AcDbSpline
210
0.0
220
0.0
230
1.0
 70
     9
 71
     3
 72
    17
 73
    13
 74
     0
 42
0.000000001
 43
0.0000000001
 40
0.0
 40
0.0
 40
0.0
 40
0.0
 40
1.0
 40
1.0
 40
1.0
 40
2.0
 40
2.0
 40
2.0
 40
3.0
 40
3.0
 40
3.0
 40
4.0
 40
4.0
 40
4.0
 40
4.0
 10
19.23443708799778
 20
293.7684375585101
 30
0.0
 10
18.2189645269342
 20
293.7684375585101
 30
0.0
 10
17.39275128064321
 20
292.942278011945
 30
0.0
 10
17.39275128064321
 20
291.926601391922
 30
0.0
 10
17.39275128064321
 20
290.9110321713509
 30
0.0
 10
18.2189645269342
 20
290.0847652253341
 30
0.0
 10
19.23443708799778
 20
290.0847652253341
 30
0.0
 10
20.25011370802076
 20
290.0847652253341
 30
0.0
 10
21.07638065403808
 20
290.9110321713509
 30
0.0
 10
21.07638065403808
 20
291.926601391922
 30
0.0
 10
21.07638065403808
 20
292.942278011945
 30
0.0
 10
20.25011370802076
 20
293.7684375585101
 30
0.0
 10
19.23443708799778
 20
293.7684375585101
 30
0.0
  0
SPLINE
  5
1A24B
330
1F
100
AcDbEntity
  8
0
 62
     7
370
     0
100
AcDbSpline
210
0.0
220
0.0
230
1.0
 70
     9
 71
     3
 72
    17
 73
    13
 74
     0
 42
0.000000001
 43
0.0000000001
 40
0.0
 40
0.0
 40
0.0
 40
0.0
 40
1.0
 40
1.0
 40
1.0
 40
2.0
 40
2.0
 40
2.0
 40
3.0
 40
3.0
 40
3.0
 40
4.0
 40
4.0
 40
4.0
 40
4.0
 10
24.18089070095641
 20
289.871642708648
 30
0.0
 10
23.04774056005141
 20
289.871642708648
 30
0.0
 10
22.12603846075586
 20
290.7934522306831
 30
0.0
 10
22.12603846075586
 20
291.926601391922
 30
0.0
 10
22.12603846075586
 20
293.0597515328271
 30
0.0
 10
23.04774056005141
 20
293.9815610315751
 30
0.0
 10
24.18089070095641
 20
293.9815610315751
 30
0.0
 10
25.3140408418613
 20
293.9815610315751
 30
0.0
 10
26.23595774006117
 20
293.0597515328271
 30
0.0
 10
26.23595774006117
 20
291.926601391922
 30
0.0
 10
26.23595774006117
 20
290.7934522306831
 30
0.0
 10
25.3140408418613
 20
289.871642708648
 30
0.0
 10
24.18089070095641
 20
289.871642708648
 30
0.0
  0
SPLINE
  5
1A24C
330
1F
100
AcDbEntity
  8
0
 62
     7
370
     0
100
AcDbSpline
210
0.0
220
0.0
230
1.0
 70
     9
 71
     3
 72
    17
 73
    13
 74
     0
 42
0.000000001
 43
0.0000000001
 40
0.0
 40
0.0
 40
0.0
 40
0.0
 40
1.0
 40
1.0
 40
1.0
 40
2.0
 40
2.0
 40
2.0
 40
3.0
 40
3.0
 40
3.0
 40
4.0
 40
4.0
 40
4.0
 40
4.0
 10
24.18089070095641
 20
293.7684375585101
 30
0.0
 10
23.16521408093337
 20
293.7684375585101
 30
0.0
 10
22.33916284430649
 20
292.942278011945
 30
0.0
 10
22.33916284430649
 20
291.926601391922
 30
0.0
 10
22.33916284430649
 20
290.9110321713509
 30
0.0
 10
23.16521408093337
 20
290.0847652253341
 30
0.0
 10
24.18089070095641
 20
290.0847652253341
 30
0.0
 10
25.19657806092437
 20
290.0847652253341
 30
0.0
 10
26.0228342669962
 20
290.9110321713509
 30
0.0
 10
26.0228342669962
 20
291.926601391922
 30
0.0
 10
26.0228342669962
 20
292.942278011945
 30
0.0
 10
25.19657806092437
 20
293.7684375585101
 30
0.0
 10
24.18089070095641
 20
293.7684375585101
 30
0.0
  0
SPLINE
  5
1A24D
330
1F
100
AcDbEntity
  8
0
 62
     7
370
     0
100
AcDbSpline
210
0.0
220
0.0
230
1.0
 70
     9
 71
     3
 72
    17
 73
    13
 74
     0
 42
0.000000001
 43
0.0000000001
 40
0.0
 40
0.0
 40
0.0
 40
0.0
 40
1.0
 40
1.0
 40
1.0
 40
2.0
 40
2.0
 40
2.0
 40
3.0
 40
3.0
 40
3.0
 40
4.0
 40
4.0
 40
4.0
 40
4.0
 10
24.18089070095641
 20
289.871642708648
 30
0.0
 10
23.04774056005141
 20
289.871642708648
 30
0.0
 10
22.12603846075586
 20
290.7934522306831
 30
0.0
 10
22.12603846075586
 20
291.926601391922
 30
0.0
 10
22.12603846075586
 20
293.0597515328271
 30
0.0
 10
23.04774056005141
 20
293.9815610315751
 30
0.0
 10
24.18089070095641
 20
293.9815610315751
 30
0.0
 10
25.3140408418613
 20
293.9815610315751
 30
0.0
 10
26.23595774006117
 20
293.0597515328271
 30
0.0
 10
26.23595774006117
 20
291.926601391922
 30
0.0
 10
26.23595774006117
 20
290.7934522306831
 30
0.0
 10
25.3140408418613
 20
289.871642708648
 30
0.0
 10
24.18089070095641
 20
289.871642708648
 30
0.0
  0
SPLINE
  5
1A24E
330
1F
100
AcDbEntity
  8
0
 62
     7
370
     0
100
AcDbSpline
210
0.0
220
0.0
230
1.0
 70
     9
 71
     3
 72
    17
 73
    13
 74
     0
 42
0.000000001
 43
0.0000000001
 40
0.0
 40
0.0
 40
0.0
 40
0.0
 40
1.0
 40
1.0
 40
1.0
 40
2.0
 40
2.0
 40
2.0
 40
3.0
 40
3.0
 40
3.0
 40
4.0
 40
4.0
 40
4.0
 40
4.0
 10
24.18089070095641
 20
293.7684375585101
 30
0.0
 10
23.16521408093337
 20
293.7684375585101
 30
0.0
 10
22.33916284430649
 20
292.942278011945
 30
0.0
 10
22.33916284430649
 20
291.926601391922
 30
0.0
 10
22.33916284430649
 20
290.9110321713509
 30
0.0
 10
23.16521408093337
 20
290.0847652253341
 30
0.0
 10
24.18089070095641
 20
290.0847652253341
 30
0.0
 10
25.19657806092437
 20
290.0847652253341
 30
0.0
 10
26.0228342669962
 20
290.9110321713509
 30
0.0
 10
26.0228342669962
 20
291.926601391922
 30
0.0
 10
26.0228342669962
 20
292.942278011945
 30
0.0
 10
25.19657806092437
 20
293.7684375585101
 30
0.0
 10
24.18089070095641
 20
293.7684375585101
 30
0.0
  0
SPLINE
  5
1A24F
330
1F
100
AcDbEntity
  8
0
 62
     7
370
     0
100
AcDbSpline
210
0.0
220
0.0
230
1.0
 70
     9
 71
     3
 72
    23
 73
    19
 74
     0
 42
0.000000001
 43
0.0000000001
 40
0.0
 40
0.0
 40
0.0
 40
0.0
 40
1.0
 40
1.0
 40
1.0
 40
2.0
 40
2.0
 40
2.0
 40
3.0
 40
3.0
 40
3.0
 40
4.0
 40
4.0
 40
4.0
 40
5.0
 40
5.0
 40
5.0
 40
6.0
 40
6.0
 40
6.0
 40
6.0
 10
24.33318312426127
 20
294.5903977864911
 30
0.0
 10
24.33318312426127
 20
294.5903977864911
 30
0.0
 10
14.13443447814291
 20
294.5903977864911
 30
0.0
 10
14.13443447814291
 20
294.5903977864911
 30
0.0
 10
13.08523848906998
 20
294.5903977864911
 30
0.0
 10
12.23160616261708
 20
295.4439334534371
 30
0.0
 10
12.23160616261708
 20
296.4930757427841
 30
0.0
 10
12.23160616261708
 20
297.542314691639
 30
0.0
 10
13.08523848906998
 20
298.395796658859
 30
0.0
 10
14.13443447814291
 20
298.395796658859
 30
0.0
 10
14.13443447814291
 20
298.395796658859
 30
0.0
 10
24.33318312426127
 20
298.395796658859
 30
0.0
 10
24.33318312426127
 20
298.395796658859
 30
0.0
 10
25.38231467366319
 20
298.395796658859
 30
0.0
 10
26.23595774006117
 20
297.542314691639
 30
0.0
 10
26.23595774006117
 20
296.493172402291
 30
0.0
 10
26.23595774006117
 20
295.4439334534371
 30
0.0
 10
25.38231467366319
 20
294.5903977864911
 30
0.0
 10
24.33318312426127
 20
294.5903977864911
 30
0.0
  0
SPLINE
  5
1A250
330
1F
100
AcDbEntity
  8
0
 62
     7
370
     0
100
AcDbSpline
210
0.0
220
0.0
230
1.0
 70
     9
 71
     3
 72
    23
 73
    19
 74
     0
 42
0.000000001
 43
0.0000000001
 40
0.0
 40
0.0
 40
0.0
 40
0.0
 40
1.0
 40
1.0
 40
1.0
 40
2.0
 40
2.0
 40
2.0
 40
3.0
 40
3.0
 40
3.0
 40
4.0
 40
4.0
 40
4.0
 40
5.0
 40
5.0
 40
5.0
 40
6.0
 40
6.0
 40
6.0
 40
6.0
 10
14.13443447814291
 20
298.1827268855201
 30
0.0
 10
13.20260461049941
 20
298.1827268855201
 30
0.0
 10
12.44482629518882
 20
297.424637111798
 30
0.0
 10
12.44482629518882
 20
296.4930757427841
 30
0.0
 10
12.44482629518882
 20
295.5614069743191
 30
0.0
 10
13.20260461049941
 20
294.8035212595561
 30
0.0
 10
14.13443447814291
 20
294.8035212595561
 30
0.0
 10
14.13443447814291
 20
294.8035212595561
 30
0.0
 10
24.33318312426127
 20
294.8035212595561
 30
0.0
 10
24.33318312426127
 20
294.8035212595561
 30
0.0
 10
25.26474449327367
 20
294.8035212595561
 30
0.0
 10
26.0228342669962
 20
295.561503633826
 30
0.0
 10
26.0228342669962
 20
296.493172402291
 30
0.0
 10
26.0228342669962
 20
297.4248411707571
 30
0.0
 10
25.26474449327367
 20
298.1827268855201
 30
0.0
 10
24.33318312426127
 20
298.1827268855201
 30
0.0
 10
24.33318312426127
 20
298.1827268855201
 30
0.0
 10
14.13443447814291
 20
298.1827268855201
 30
0.0
 10
14.13443447814291
 20
298.1827268855201
 30
0.0
  0
SPLINE
  5
1A251
330
1F
100
AcDbEntity
  8
0
 62
     7
370
     0
100
AcDbSpline
210
0.0
220
0.0
230
1.0
 70
     9
 71
     3
 72
    23
 73
    19
 74
     0
 42
0.000000001
 43
0.0000000001
 40
0.0
 40
0.0
 40
0.0
 40
0.0
 40
1.0
 40
1.0
 40
1.0
 40
2.0
 40
2.0
 40
2.0
 40
3.0
 40
3.0
 40
3.0
 40
4.0
 40
4.0
 40
4.0
 40
5.0
 40
5.0
 40
5.0
 40
6.0
 40
6.0
 40
6.0
 40
6.0
 10
24.33318312426127
 20
294.5903977864911
 30
0.0
 10
24.33318312426127
 20
294.5903977864911
 30
0.0
 10
14.13443447814291
 20
294.5903977864911
 30
0.0
 10
14.13443447814291
 20
294.5903977864911
 30
0.0
 10
13.08523848906998
 20
294.5903977864911
 30
0.0
 10
12.23160616261708
 20
295.4439334534371
 30
0.0
 10
12.23160616261708
 20
296.4930757427841
 30
0.0
 10
12.23160616261708
 20
297.542314691639
 30
0.0
 10
13.08523848906998
 20
298.395796658859
 30
0.0
 10
14.13443447814291
 20
298.395796658859
 30
0.0
 10
14.13443447814291
 20
298.395796658859
 30
0.0
 10
24.33318312426127
 20
298.395796658859
 30
0.0
 10
24.33318312426127
 20
298.395796658859
 30
0.0
 10
25.38231467366319
 20
298.395796658859
 30
0.0
 10
26.23595774006117
 20
297.542314691639
 30
0.0
 10
26.23595774006117
 20
296.493172402291
 30
0.0
 10
26.23595774006117
 20
295.4439334534371
 30
0.0
 10
25.38231467366319
 20
294.5903977864911
 30
0.0
 10
24.33318312426127
 20
294.5903977864911
 30
0.0
  0
SPLINE
  5
1A252
330
1F
100
AcDbEntity
  8
0
 62
     7
370
     0
100
AcDbSpline
210
0.0
220
0.0
230
1.0
 70
     9
 71
     3
 72
    23
 73
    19
 74
     0
 42
0.000000001
 43
0.0000000001
 40
0.0
 40
0.0
 40
0.0
 40
0.0
 40
1.0
 40
1.0
 40
1.0
 40
2.0
 40
2.0
 40
2.0
 40
3.0
 40
3.0
 40
3.0
 40
4.0
 40
4.0
 40
4.0
 40
5.0
 40
5.0
 40
5.0
 40
6.0
 40
6.0
 40
6.0
 40
6.0
 10
14.13443447814291
 20
298.1827268855201
 30
0.0
 10
13.20260461049941
 20
298.1827268855201
 30
0.0
 10
12.44482629518882
 20
297.424637111798
 30
0.0
 10
12.44482629518882
 20
296.4930757427841
 30
0.0
 10
12.44482629518882
 20
295.5614069743191
 30
0.0
 10
13.20260461049941
 20
294.8035212595561
 30
0.0
 10
14.13443447814291
 20
294.8035212595561
 30
0.0
 10
14.13443447814291
 20
294.8035212595561
 30
0.0
 10
24.33318312426127
 20
294.8035212595561
 30
0.0
 10
24.33318312426127
 20
294.8035212595561
 30
0.0
 10
25.26474449327367
 20
294.8035212595561
 30
0.0
 10
26.0228342669962
 20
295.561503633826
 30
0.0
 10
26.0228342669962
 20
296.493172402291
 30
0.0
 10
26.0228342669962
 20
297.4248411707571
 30
0.0
 10
25.26474449327367
 20
298.1827268855201
 30
0.0
 10
24.33318312426127
 20
298.1827268855201
 30
0.0
 10
24.33318312426127
 20
298.1827268855201
 30
0.0
 10
14.13443447814291
 20
298.1827268855201
 30
0.0
 10
14.13443447814291
 20
298.1827268855201
 30
0.0
  0
SPLINE
  5
1A253
330
1F
100
AcDbEntity
  8
0
 62
     7
370
     0
100
AcDbSpline
210
0.0
220
0.0
230
1.0
 70
     9
 71
     3
 72
    17
 73
    13
 74
     0
 42
0.000000001
 43
0.0000000001
 40
0.0
 40
0.0
 40
0.0
 40
0.0
 40
1.0
 40
1.0
 40
1.0
 40
2.0
 40
2.0
 40
2.0
 40
3.0
 40
3.0
 40
3.0
 40
4.0
 40
4.0
 40
4.0
 40
4.0
 10
14.06416301652916
 20
272.6409569292081
 30
0.0
 10
13.01485962800422
 20
272.6409569292081
 30
0.0
 10
12.16138840072927
 20
273.4944818562091
 30
0.0
 10
12.16138840072927
 20
274.5435167461041
 30
0.0
 10
12.16138840072927
 20
275.592766434903
 30
0.0
 10
13.01485962800422
 20
276.4463987613561
 30
0.0
 10
14.06416301652916
 20
276.4463987613561
 30
0.0
 10
15.11324086620522
 20
276.4463987613561
 30
0.0
 10
15.96693838183961
 20
275.592766434903
 30
0.0
 10
15.96693838183961
 20
274.5435167461041
 30
0.0
 10
15.96693838183961
 20
273.4944818562091
 30
0.0
 10
15.11324086620522
 20
272.6409569292081
 30
0.0
 10
14.06416301652916
 20
272.6409569292081
 30
0.0
  0
SPLINE
  5
1A254
330
1F
100
AcDbEntity
  8
0
 62
     7
370
     0
100
AcDbSpline
210
0.0
220
0.0
230
1.0
 70
     9
 71
     3
 72
    17
 73
    13
 74
     0
 42
0.000000001
 43
0.0000000001
 40
0.0
 40
0.0
 40
0.0
 40
0.0
 40
1.0
 40
1.0
 40
1.0
 40
2.0
 40
2.0
 40
2.0
 40
3.0
 40
3.0
 40
3.0
 40
4.0
 40
4.0
 40
4.0
 40
4.0
 10
14.06416301652916
 20
276.233275288292
 30
0.0
 10
13.1323868486125
 20
276.233275288292
 30
0.0
 10
12.37455483357468
 20
275.475292914021
 30
0.0
 10
12.37455483357468
 20
274.5435167461041
 30
0.0
 10
12.37455483357468
 20
273.611955377091
 30
0.0
 10
13.1323868486125
 20
272.8540804022731
 30
0.0
 10
14.06416301652916
 20
272.8540804022731
 30
0.0
 10
14.99572511051707
 20
272.8540804022731
 30
0.0
 10
15.75376045953908
 20
273.611955377091
 30
0.0
 10
15.75376045953908
 20
274.5435167461041
 30
0.0
 10
15.75376045953908
 20
275.475292914021
 30
0.0
 10
14.99572511051707
 20
276.233275288292
 30
0.0
 10
14.06416301652916
 20
276.233275288292
 30
0.0
  0
SPLINE
  5
1A255
330
1F
100
AcDbEntity
  8
0
 62
     7
370
     0
100
AcDbSpline
210
0.0
220
0.0
230
1.0
 70
     9
 71
     3
 72
    17
 73
    13
 74
     0
 42
0.000000001
 43
0.0000000001
 40
0.0
 40
0.0
 40
0.0
 40
0.0
 40
1.0
 40
1.0
 40
1.0
 40
2.0
 40
2.0
 40
2.0
 40
3.0
 40
3.0
 40
3.0
 40
4.0
 40
4.0
 40
4.0
 40
4.0
 10
14.06416301652916
 20
272.6409569292081
 30
0.0
 10
13.01485962800422
 20
272.6409569292081
 30
0.0
 10
12.16138840072927
 20
273.4944818562091
 30
0.0
 10
12.16138840072927
 20
274.5435167461041
 30
0.0
 10
12.16138840072927
 20
275.592766434903
 30
0.0
 10
13.01485962800422
 20
276.4463987613561
 30
0.0
 10
14.06416301652916
 20
276.4463987613561
 30
0.0
 10
15.11324086620522
 20
276.4463987613561
 30
0.0
 10
15.96693838183961
 20
275.592766434903
 30
0.0
 10
15.96693838183961
 20
274.5435167461041
 30
0.0
 10
15.96693838183961
 20
273.4944818562091
 30
0.0
 10
15.11324086620522
 20
272.6409569292081
 30
0.0
 10
14.06416301652916
 20
272.6409569292081
 30
0.0
  0
SPLINE
  5
1A256
330
1F
100
AcDbEntity
  8
0
 62
     7
370
     0
100
AcDbSpline
210
0.0
220
0.0
230
1.0
 70
     9
 71
     3
 72
    17
 73
    13
 74
     0
 42
0.000000001
 43
0.0000000001
 40
0.0
 40
0.0
 40
0.0
 40
0.0
 40
1.0
 40
1.0
 40
1.0
 40
2.0
 40
2.0
 40
2.0
 40
3.0
 40
3.0
 40
3.0
 40
4.0
 40
4.0
 40
4.0
 40
4.0
 10
14.06416301652916
 20
276.233275288292
 30
0.0
 10
13.1323868486125
 20
276.233275288292
 30
0.0
 10
12.37455483357468
 20
275.475292914021
 30
0.0
 10
12.37455483357468
 20
274.5435167461041
 30
0.0
 10
12.37455483357468
 20
273.611955377091
 30
0.0
 10
13.1323868486125
 20
272.8540804022731
 30
0.0
 10
14.06416301652916
 20
272.8540804022731
 30
0.0
 10
14.99572511051707
 20
272.8540804022731
 30
0.0
 10
15.75376045953908
 20
273.611955377091
 30
0.0
 10
15.75376045953908
 20
274.5435167461041
 30
0.0
 10
15.75376045953908
 20
275.475292914021
 30
0.0
 10
14.99572511051707
 20
276.233275288292
 30
0.0
 10
14.06416301652916
 20
276.233275288292
 30
0.0
  0
SPLINE
  5
1A257
330
1F
100
AcDbEntity
  8
0
 62
     7
370
     0
100
AcDbSpline
210
0.0
220
0.0
230
1.0
 70
     9
 71
     3
 72
    95
 73
    91
 74
     0
 42
0.000000001
 43
0.0000000001
 40
0.0
 40
0.0
 40
0.0
 40
0.0
 40
1.0
 40
1.0
 40
1.0
 40
2.0
 40
2.0
 40
2.0
 40
3.0
 40
3.0
 40
3.0
 40
4.0
 40
4.0
 40
4.0
 40
5.0
 40
5.0
 40
5.0
 40
6.0
 40
6.0
 40
6.0
 40
7.0
 40
7.0
 40
7.0
 40
8.0
 40
8.0
 40
8.0
 40
9.0
 40
9.0
 40
9.0
 40
10.0
 40
10.0
 40
10.0
 40
11.0
 40
11.0
 40
11.0
 40
12.0
 40
12.0
 40
12.0
 40
13.0
 40
13.0
 40
13.0
 40
14.0
 40
14.0
 40
14.0
 40
15.0
 40
15.0
 40
15.0
 40
16.0
 40
16.0
 40
16.0
 40
17.0
 40
17.0
 40
17.0
 40
18.0
 40
18.0
 40
18.0
 40
19.0
 40
19.0
 40
19.0
 40
20.0
 40
20.0
 40
20.0
 40
21.0
 40
21.0
 40
21.0
 40
22.0
 40
22.0
 40
22.0
 40
23.0
 40
23.0
 40
23.0
 40
24.0
 40
24.0
 40
24.0
 40
25.0
 40
25.0
 40
25.0
 40
26.0
 40
26.0
 40
26.0
 40
27.0
 40
27.0
 40
27.0
 40
28.0
 40
28.0
 40
28.0
 40
29.0
 40
29.0
 40
29.0
 40
30.0
 40
30.0
 40
30.0
 40
30.0
 10
25.92047184904737
 20
310.05340576475
 30
0.0
 10
25.92047184904737
 20
310.05340576475
 30
0.0
 10
25.9129216675538
 20
310.1099960037881
 30
0.0
 10
25.9129216675538
 20
310.1099960037881
 30
0.0
 10
25.945012623889
 20
310.116547370542
 30
0.0
 10
25.96829782730407
 20
310.1276095144041
 30
0.0
 10
25.98235541343956
 20
310.143182435375
 30
0.0
 10
25.99661806069992
 20
310.1588627558011
 30
0.0
 10
26.00353458542492
 20
310.1780106092621
 30
0.0
 10
26.00353458542492
 20
310.2004570947842
 30
0.0
 10
26.00353458542492
 20
310.2270921589451
 30
0.0
 10
25.99430897247618
 20
310.249538644467
 30
0.0
 10
25.9758470066327
 20
310.267785811406
 30
0.0
 10
25.95738504078918
 20
310.28624777725
 30
0.0
 10
25.93451969740278
 20
310.2954748625269
 30
0.0
 10
25.9072509764743
 20
310.2954748625269
 30
0.0
 10
25.88124956908177
 20
310.2954748625269
 30
0.0
 10
25.85984485824662
 20
310.2868706940729
 30
0.0
 10
25.84307006280557
 20
310.269933800451
 30
0.0
 10
25.82607847045631
 20
310.252837278903
 30
0.0
 10
25.81769057323442
 20
310.231237777802
 30
0.0
 10
25.81769057323442
 20
310.2050645312871
 30
0.0
 10
25.81769057323442
 20
310.1943138461151
 30
0.0
 10
25.81978486255372
 20
310.181103713487
 30
0.0
 10
25.82398418113701
 20
310.1652085945531
 30
0.0
 10
25.82398418113701
 20
310.1652085945531
 30
0.0
 10
25.77426897468558
 20
310.171555902181
 30
0.0
 10
25.77426897468558
 20
310.171555902181
 30
0.0
 10
25.77468783254977
 20
310.1752826631752
 30
0.0
 10
25.77489189150862
 20
310.1782146682211
 30
0.0
 10
25.77489189150862
 20
310.1805774561711
 30
0.0
 10
25.77489189150862
 20
310.2046456734221
 30
0.0
 10
25.76859828360648
 20
310.22640480245
 30
0.0
 10
25.75601106780147
 20
310.2457581837481
 30
0.0
 10
25.74343459194188
 20
310.2650578653191
 30
0.0
 10
25.72392011146627
 20
310.2747560358581
 30
0.0
 10
25.69770390516987
 20
310.2747560358581
 30
0.0
 10
25.67693285110278
 20
310.2747560358581
 30
0.0
 10
25.6597391931665
 20
310.267581752447
 30
0.0
 10
25.64609946238488
 20
310.2534694644199
 30
0.0
 10
25.63245973160338
 20
310.2394123470311
 30
0.0
 10
25.6257462721552
 20
310.221378508085
 30
0.0
 10
25.6257462721552
 20
310.1991375514161
 30
0.0
 10
25.6257462721552
 20
310.1771206631471
 30
0.0
 10
25.63267453051327
 20
310.1586572279651
 30
0.0
 10
25.64651732622229
 20
310.1440294225671
 30
0.0
 10
25.66036111561891
 20
310.1293371774981
 30
0.0
 10
25.68122882919312
 20
310.1199075055901
 30
0.0
 10
25.70882074408928
 20
310.1157081870061
 30
0.0
 10
25.70882074408928
 20
310.1157081870061
 30
0.0
 10
25.6987456798571
 20
310.059065715884
 30
0.0
 10
25.6987456798571
 20
310.059065715884
 30
0.0
 10
25.66077997348299
 20
310.0659929805551
 30
0.0
 10
25.63141696323521
 20
310.0817270003109
 30
0.0
 10
25.61044284333371
 20
310.106267775153
 30
0.0
 10
25.58967079614109
 20
310.130808549994
 30
0.0
 10
25.57918960193638
 20
310.1614403427201
 30
0.0
 10
25.57918960193638
 20
310.1979332076561
 30
0.0
 10
25.57918960193638
 20
310.223107639266
 30
0.0
 10
25.5846337618305
 20
310.246178512694
 30
0.0
 10
25.59533074727557
 20
310.2673669535431
 30
0.0
 10
25.60624253162501
 20
310.288503165748
 30
0.0
 10
25.62092403674887
 20
310.304711215655
 30
0.0
 10
25.63960080149718
 20
310.3159759456349
 30
0.0
 10
25.65826682630001
 20
310.32714548867
 30
0.0
 10
25.67798536573451
 20
310.3328698794761
 30
0.0
 10
25.69896047876136
 20
310.3328698794761
 30
0.0
 10
25.71888307715568
 20
310.3328698794761
 30
0.0
 10
25.73714098403991
 20
310.3275643465341
 30
0.0
 10
25.75349891735777
 20
310.3168673610891
 30
0.0
 10
25.76985485719797
 20
310.3062240753701
 30
0.0
 10
25.78286093086626
 20
310.2902322969291
 30
0.0
 10
25.79251614162519
 20
310.2692571839021
 30
0.0
 10
25.79880974952727
 20
310.2965259048311
 30
0.0
 10
25.81181682140868
 20
310.317706549706
 30
0.0
 10
25.83173842158982
 20
310.3328698794761
 30
0.0
 10
25.85145696102518
 20
310.3479165427381
 30
0.0
 10
25.8762125347713
 20
310.3555204239571
 30
0.0
 10
25.9059944028823
 20
310.3555204239571
 30
0.0
 10
25.94626919748049
 20
310.3555204239571
 30
0.0
 10
25.98046518308007
 20
310.340785219107
 30
0.0
 10
26.00857262291908
 20
310.3113699818631
 30
0.0
 10
26.03647399743352
 20
310.282049930655
 30
0.0
 10
26.05052184578926
 20
310.24492046802
 30
0.0
 10
26.05052184578926
 20
310.1999845371951
 30
0.0
 10
26.05052184578926
 20
310.159494943693
 30
0.0
 10
26.03835348784747
 20
310.1259863145871
 30
0.0
 10
26.01423157087038
 20
310.099136451522
 30
0.0
 10
25.990109653893
 20
310.0724906474171
 30
0.0
 10
25.9588564132851
 20
310.05718622547
 30
0.0
 10
25.92047184904737
 20
310.05340576475
 30
0.0
  0
LWPOLYLINE
  5
1A258
330
1F
100
AcDbEntity
  8
0
 62
     7
370
     0
100
AcDbPolyline
 90
        5
 70
     0
 43
0.0
 10
26.04234874747186
 20
310.4433639120251
 10
25.97762983754006
 20
310.4433639120251
 10
25.97762983754006
 20
310.507812847262
 10
26.04234874747186
 20
310.507812847262
 10
26.04234874747186
 20
310.4433639120251
  0
SPLINE
  5
1A259
330
1F
100
AcDbEntity
  8
0
 62
     7
370
     0
100
AcDbSpline
210
0.0
220
0.0
230
1.0
 70
     9
 71
     3
 72
    71
 73
    67
 74
     0
 42
0.000000001
 43
0.0000000001
 40
0.0
 40
0.0
 40
0.0
 40
0.0
 40
1.0
 40
1.0
 40
1.0
 40
2.0
 40
2.0
 40
2.0
 40
3.0
 40
3.0
 40
3.0
 40
4.0
 40
4.0
 40
4.0
 40
5.0
 40
5.0
 40
5.0
 40
6.0
 40
6.0
 40
6.0
 40
7.0
 40
7.0
 40
7.0
 40
8.0
 40
8.0
 40
8.0
 40
9.0
 40
9.0
 40
9.0
 40
10.0
 40
10.0
 40
10.0
 40
11.0
 40
11.0
 40
11.0
 40
12.0
 40
12.0
 40
12.0
 40
13.0
 40
13.0
 40
13.0
 40
14.0
 40
14.0
 40
14.0
 40
15.0
 40
15.0
 40
15.0
 40
16.0
 40
16.0
 40
16.0
 40
17.0
 40
17.0
 40
17.0
 40
18.0
 40
18.0
 40
18.0
 40
19.0
 40
19.0
 40
19.0
 40
20.0
 40
20.0
 40
20.0
 40
21.0
 40
21.0
 40
21.0
 40
22.0
 40
22.0
 40
22.0
 40
22.0
 10
25.92152436367957
 20
310.5906178249551
 30
0.0
 10
25.92152436367957
 20
310.5906178249551
 30
0.0
 10
25.91648732936846
 20
310.649977502219
 30
0.0
 10
25.91648732936846
 20
310.649977502219
 30
0.0
 10
25.94543148175217
 20
310.6543808797611
 30
0.0
 10
25.96724431050649
 20
310.6646067892701
 30
0.0
 10
25.98172275917568
 20
310.680609308061
 30
0.0
 10
25.99640326179548
 20
310.6967070038971
 30
0.0
 10
26.00353458542492
 20
310.7160511282021
 30
0.0
 10
26.00353458542492
 20
310.7387124132011
 30
0.0
 10
26.00353458542492
 20
310.7659796506051
 30
0.0
 10
25.99325645784398
 20
310.789102752677
 30
0.0
 10
25.97270120495801
 20
310.8078776622041
 30
0.0
 10
25.95214394751838
 20
310.8267570006391
 30
0.0
 10
25.92487522659042
 20
310.8362511122181
 30
0.0
 10
25.89089403989522
 20
310.8362511122181
 30
0.0
 10
25.85858828465558
 20
310.8362511122181
 30
0.0
 10
25.8332097940866
 20
310.8272295582291
 30
0.0
 10
25.81454376928338
 20
310.80898239129
 30
0.0
 10
25.79586700453547
 20
310.7908855835841
 30
0.0
 10
25.78642659268201
 20
310.7671825244701
 30
0.0
 10
25.78642659268201
 20
310.7378732139481
 30
0.0
 10
25.78642659268201
 20
310.7196153070642
 30
0.0
 10
25.79062591126518
 20
310.7030435715811
 30
0.0
 10
25.79901380848611
 20
310.688362066457
 30
0.0
 10
25.8071986448445
 20
310.6736283434881
 30
0.0
 10
25.81789463219417
 20
310.66214586016
 30
0.0
 10
25.8311155047669
 20
310.653759444317
 30
0.0
 10
25.8311155047669
 20
310.653759444317
 30
0.0
 10
25.8241882400963
 20
310.6006811536309
 30
0.0
 10
25.8241882400963
 20
310.6006811536309
 30
0.0
 10
25.8241882400963
 20
310.6006811536309
 30
0.0
 10
25.58736170791786
 20
310.6453593257721
 30
0.0
 10
25.58736170791786
 20
310.6453593257721
 30
0.0
 10
25.58736170791786
 20
310.6453593257721
 30
0.0
 10
25.58736170791786
 20
310.8745819767302
 30
0.0
 10
25.58736170791786
 20
310.8745819767302
 30
0.0
 10
25.58736170791786
 20
310.8745819767302
 30
0.0
 10
25.64148128582121
 20
310.8745819767302
 30
0.0
 10
25.64148128582121
 20
310.8745819767302
 30
0.0
 10
25.64148128582121
 20
310.8745819767302
 30
0.0
 10
25.64148128582121
 20
310.6907248544061
 30
0.0
 10
25.64148128582121
 20
310.6907248544061
 30
0.0
 10
25.64148128582121
 20
310.6907248544061
 30
0.0
 10
25.7654514796551
 20
310.665657822249
 30
0.0
 10
25.7654514796551
 20
310.665657822249
 30
0.0
 10
25.74615179808382
 20
310.6933991007671
 30
0.0
 10
25.73650732727128
 20
310.72250435233
 30
0.0
 10
25.73650732727128
 20
310.7529735769361
 30
0.0
 10
25.73650732727128
 20
310.7932483715341
 30
0.0
 10
25.7503511166679
 20
310.8272295582291
 30
0.0
 10
25.77825349436449
 20
310.8549186234822
 30
0.0
 10
25.80614513211651
 20
310.882604715814
 30
0.0
 10
25.84201654917172
 20
310.8965022049371
 30
0.0
 10
25.88585700558372
 20
310.8965022049371
 30
0.0
 10
25.92760317267766
 20
310.8965022049371
 30
0.0
 10
25.96367965074029
 20
310.884226447543
 30
0.0
 10
25.9940941735714
 20
310.859954171333
 30
0.0
 10
26.03143696312242
 20
310.830324148293
 30
0.0
 10
26.05010298792519
 20
310.789834553768
 30
0.0
 10
26.05010298792519
 20
310.7387124132011
 30
0.0
 10
26.05010298792519
 20
310.6967070038971
 30
0.0
 10
26.03835348784747
 20
310.6625661996251
 30
0.0
 10
26.0148652276385
 20
310.6359189139181
 30
0.0
 10
25.99136622748398
 20
310.6094879087171
 30
0.0
 10
25.96032778578137
 20
310.5943875457291
 30
0.0
 10
25.92152436367957
 20
310.5906178249551
 30
0.0
  0
LWPOLYLINE
  5
1A25A
330
1F
100
AcDbEntity
  8
0
 62
     7
370
     0
100
AcDbPolyline
 90
        5
 70
     0
 43
0.0
 10
26.04234874747186
 20
311.1613292685209
 10
25.58097144050816
 20
311.1613292685209
 10
25.58097144050816
 20
311.2223199232579
 10
26.04234874747186
 20
311.2223199232579
 10
26.04234874747186
 20
311.1613292685209
  0
LWPOLYLINE
  5
1A25B
330
1F
100
AcDbEntity
  8
0
 62
     7
370
     0
100
AcDbPolyline
 90
       11
 70
     0
 43
0.0
 10
26.04234874747186
 20
311.329409415553
 10
25.58106810001527
 20
311.329409415553
 10
25.58106810001527
 20
311.391915898348
 10
25.94312239352899
 20
311.6341968226751
 10
25.58106810001527
 20
311.6341968226751
 10
25.58106810001527
 20
311.692718784211
 10
26.04234874747186
 20
311.692718784211
 10
26.04234874747186
 20
311.630212302996
 10
25.67987559609452
 20
311.387929878642
 10
26.04234874747186
 20
311.387929878642
 10
26.04234874747186
 20
311.329409415553
  0
SPLINE
  5
1A25C
330
1F
100
AcDbEntity
  8
0
 62
     7
370
     0
100
AcDbSpline
210
0.0
220
0.0
230
1.0
 70
     9
 71
     3
 72
    71
 73
    67
 74
     0
 42
0.000000001
 43
0.0000000001
 40
0.0
 40
0.0
 40
0.0
 40
0.0
 40
1.0
 40
1.0
 40
1.0
 40
2.0
 40
2.0
 40
2.0
 40
3.0
 40
3.0
 40
3.0
 40
4.0
 40
4.0
 40
4.0
 40
5.0
 40
5.0
 40
5.0
 40
6.0
 40
6.0
 40
6.0
 40
7.0
 40
7.0
 40
7.0
 40
8.0
 40
8.0
 40
8.0
 40
9.0
 40
9.0
 40
9.0
 40
10.0
 40
10.0
 40
10.0
 40
11.0
 40
11.0
 40
11.0
 40
12.0
 40
12.0
 40
12.0
 40
13.0
 40
13.0
 40
13.0
 40
14.0
 40
14.0
 40
14.0
 40
15.0
 40
15.0
 40
15.0
 40
16.0
 40
16.0
 40
16.0
 40
17.0
 40
17.0
 40
17.0
 40
18.0
 40
18.0
 40
18.0
 40
19.0
 40
19.0
 40
19.0
 40
20.0
 40
20.0
 40
20.0
 40
21.0
 40
21.0
 40
21.0
 40
22.0
 40
22.0
 40
22.0
 40
22.0
 10
25.88061591231417
 20
312.12441088257
 30
0.0
 10
25.88061591231417
 20
312.12441088257
 30
0.0
 10
25.89593107420581
 20
312.1854030315091
 30
0.0
 10
25.89593107420581
 20
312.1854030315091
 30
0.0
 10
25.94606614012451
 20
312.1726547165262
 30
0.0
 10
25.98444970275887
 20
312.1495316144541
 30
0.0
 10
26.01066590905526
 20
312.116441843213
 30
0.0
 10
26.03709691425638
 20
312.083083573341
 30
0.0
 10
26.05010298792519
 20
312.0425510200581
 30
0.0
 10
26.05010298792519
 20
311.9945649447881
 30
0.0
 10
26.05010298792519
 20
311.944849738337
 30
0.0
 10
26.04004066322619
 20
311.90437088478
 30
0.0
 10
26.01990226194999
 20
311.873117644173
 30
0.0
 10
25.99955106870141
 20
311.842068462524
 30
0.0
 10
25.97018705549817
 20
311.8183117036841
 30
0.0
 10
25.93180249126101
 20
311.8020084668311
 30
0.0
 10
25.89340718707808
 20
311.785909288937
 30
0.0
 10
25.85229467675259
 20
311.7776180512229
 30
0.0
 10
25.80825016138078
 20
311.7776180512229
 30
0.0
 10
25.76021038638521
 20
311.7776180512229
 30
0.0
 10
25.7182601603327
 20
311.7868436641721
 30
0.0
 10
25.6825928022364
 20
311.8051015710561
 30
0.0
 10
25.64673212512668
 20
311.823606496681
 30
0.0
 10
25.6196674631575
 20
311.849564944292
 30
0.0
 10
25.60100143835467
 20
311.883599830713
 30
0.0
 10
25.5825394725112
 20
311.9173769584492
 30
0.0
 10
25.57309906065757
 20
311.954709008054
 30
0.0
 10
25.57309906065757
 20
311.9954026605161
 30
0.0
 10
25.57309906065757
 20
312.0416059048781
 30
0.0
 10
25.58484856073488
 20
312.0803663671981
 30
0.0
 10
25.60833682094392
 20
312.111823666765
 30
0.0
 10
25.63183582109838
 20
312.1432917062781
 30
0.0
 10
25.66497929206616
 20
312.1653193339361
 30
0.0
 10
25.70756317488718
 20
312.1776917508361
 30
0.0
 10
25.70756317488718
 20
312.1776917508361
 30
0.0
 10
25.7216110232431
 20
312.117537317626
 30
0.0
 10
25.7216110232431
 20
312.117537317626
 30
0.0
 10
25.68804869441146
 20
312.106797372399
 30
0.0
 10
25.66372271847467
 20
312.091213711877
 30
0.0
 10
25.6484075565823
 20
312.0709259553449
 30
0.0
 10
25.63309239468987
 20
312.050627458868
 30
0.0
 10
25.62532741429192
 20
312.0249804696681
 30
0.0
 10
25.62532741429192
 20
311.9941460869239
 30
0.0
 10
25.62532741429192
 20
311.9586935277331
 30
0.0
 10
25.63393011041717
 20
311.929169418307
 30
0.0
 10
25.65092070376528
 20
311.905208600508
 30
0.0
 10
25.66791129711237
 20
311.8814518416681
 30
0.0
 10
25.69077763565389
 20
311.8647190070061
 30
0.0
 10
25.7193019350189
 20
311.855074536193
 30
0.0
 10
25.74804202844376
 20
311.845376365654
 30
0.0
 10
25.77741577863708
 20
311.8405433903021
 30
0.0
 10
25.80783130351671
 20
311.8405433903021
 30
0.0
 10
25.84705358348231
 20
311.8405433903021
 30
0.0
 10
25.88145362804158
 20
311.846267781107
 30
0.0
 10
25.91061257932967
 20
311.857856182006
 30
0.0
 10
25.9399755895775
 20
311.8691331244939
 30
0.0
 10
25.9617991582773
 20
311.8869614335691
 30
0.0
 10
25.97626586449678
 20
311.911137050272
 30
0.0
 10
25.99074431339346
 20
311.935151567798
 30
0.0
 10
25.99787463429141
 20
311.961367774095
 30
0.0
 10
25.99787463429141
 20
311.9895386504221
 30
0.0
 10
25.99787463429141
 20
312.0237775958032
 30
0.0
 10
25.9880153645737
 20
312.0526680484601
 30
0.0
 10
25.96829782730407
 20
312.0763726248921
 30
0.0
 10
25.94857828570372
 20
312.1000312069072
 30
0.0
 10
25.91941933441518
 20
312.1160229853491
 30
0.0
 10
25.88061591231417
 20
312.12441088257
 30
0.0
  0
LWPOLYLINE
  5
1A25D
330
1F
100
AcDbEntity
  8
0
 62
     7
370
     0
100
AcDbPolyline
 90
       13
 70
     0
 43
0.0
 10
26.04234874747186
 20
312.2626447175741
 10
25.58106810001527
 20
312.2626447175741
 10
25.58106810001527
 20
312.3236368665131
 10
25.7704885139666
 20
312.3236368665131
 10
25.7704885139666
 20
312.563449103464
 10
25.58106810001527
 20
312.563449103464
 10
25.58106810001527
 20
312.6244949521291
 10
26.04234874747186
 20
312.6244949521291
 10
26.04234874747186
 20
312.563449103464
 10
25.82482189686482
 20
312.563449103464
 10
25.82482189686482
 20
312.3236368665131
 10
26.04234874747186
 20
312.3236368665131
 10
26.04234874747186
 20
312.2626447175741
  0
LWPOLYLINE
  5
1A25E
330
1F
100
AcDbEntity
  8
0
 62
     7
370
     0
100
AcDbPolyline
 90
       11
 70
     0
 43
0.0
 10
26.04234874747186
 20
312.9082980047261
 10
25.58106810001527
 20
312.9082980047261
 10
25.58106810001527
 20
313.2193268184711
 10
25.63540148291401
 20
313.2193268184711
 10
25.63540148291401
 20
312.9692916935381
 10
25.77825349436449
 20
312.9692916935381
 10
25.77825349436449
 20
313.185818189365
 10
25.83279093622247
 20
313.185818189365
 10
25.83279093622247
 20
312.9692916935381
 10
26.04234874747186
 20
312.9692916935381
 10
26.04234874747186
 20
312.9082980047261
  0
SPLINE
  5
1A25F
330
1F
100
AcDbEntity
  8
0
 62
     7
370
     0
100
AcDbSpline
210
0.0
220
0.0
230
1.0
 70
     9
 71
     3
 72
    56
 73
    52
 74
     0
 42
0.000000001
 43
0.0000000001
 40
0.0
 40
0.0
 40
0.0
 40
0.0
 40
1.0
 40
1.0
 40
1.0
 40
2.0
 40
2.0
 40
2.0
 40
3.0
 40
3.0
 40
3.0
 40
4.0
 40
4.0
 40
4.0
 40
5.0
 40
5.0
 40
5.0
 40
6.0
 40
6.0
 40
6.0
 40
7.0
 40
7.0
 40
7.0
 40
8.0
 40
8.0
 40
8.0
 40
9.0
 40
9.0
 40
9.0
 40
10.0
 40
10.0
 40
10.0
 40
11.0
 40
11.0
 40
11.0
 40
12.0
 40
12.0
 40
12.0
 40
13.0
 40
13.0
 40
13.0
 40
14.0
 40
14.0
 40
14.0
 40
15.0
 40
15.0
 40
15.0
 40
16.0
 40
16.0
 40
16.0
 40
17.0
 40
17.0
 40
17.0
 40
17.0
 10
25.58106810001527
 20
313.60136815005
 30
0.0
 10
25.58106810001527
 20
313.60136815005
 30
0.0
 10
25.58106810001527
 20
313.662349559043
 30
0.0
 10
25.58106810001527
 20
313.662349559043
 30
0.0
 10
25.58106810001527
 20
313.662349559043
 30
0.0
 10
25.84747344045951
 20
313.662349559043
 30
0.0
 10
25.84747344045951
 20
313.662349559043
 30
0.0
 10
25.89382604494136
 20
313.662349559043
 30
0.0
 10
25.93074997662831
 20
313.6571084657732
 30
0.0
 10
25.95801869755729
 20
313.646669239013
 30
0.0
 10
25.98528741848628
 20
313.6361349094669
 30
0.0
 10
26.00751910510377
 20
313.61725252904
 30
0.0
 10
26.02450969845177
 20
313.5898764086581
 30
0.0
 10
26.0417150907038
 20
313.5625539880031
 30
0.0
 10
26.05010298792519
 20
313.526694864849
 30
0.0
 10
26.05010298792519
 20
313.482272897439
 30
0.0
 10
26.05010298792519
 20
313.4389586983431
 30
0.0
 10
26.042767605336
 20
313.4035598388781
 30
0.0
 10
26.0278713013077
 20
313.376022619318
 30
0.0
 10
26.01286860111861
 20
313.3485498394301
 30
0.0
 10
25.99136622748398
 20
313.329089058681
 30
0.0
 10
25.96325979082758
 20
313.317285858877
 30
0.0
 10
25.9349492952125
 20
313.3056007984711
 30
0.0
 10
25.89634993206988
 20
313.2996723487059
 30
0.0
 10
25.84747344045951
 20
313.2996723487059
 30
0.0
 10
25.84747344045951
 20
313.2996723487059
 30
0.0
 10
25.58106810001527
 20
313.2996723487059
 30
0.0
 10
25.58106810001527
 20
313.2996723487059
 30
0.0
 10
25.58106810001527
 20
313.2996723487059
 30
0.0
 10
25.58106810001527
 20
313.360762706916
 30
0.0
 10
25.58106810001527
 20
313.360762706916
 30
0.0
 10
25.58106810001527
 20
313.360762706916
 30
0.0
 10
25.84716098293489
 20
313.360762706916
 30
0.0
 10
25.84716098293489
 20
313.360762706916
 30
0.0
 10
25.88732837807999
 20
313.360762706916
 30
0.0
 10
25.91690618723271
 20
313.364326818967
 30
0.0
 10
25.9357870109398
 20
313.37183404068
 30
0.0
 10
25.9548728954324
 20
313.3792768227221
 30
0.0
 10
25.96934933977087
 20
313.3920159483131
 30
0.0
 10
25.9796274673518
 20
313.4102738556582
 30
0.0
 10
25.9899055949337
 20
313.4283046726781
 30
0.0
 10
25.99514769104741
 20
313.4505486512732
 30
0.0
 10
25.99514769104741
 20
313.4767633055382
 30
0.0
 10
25.99514769104741
 20
313.521656276583
 30
0.0
 10
25.9848685606226
 20
313.5538009326441
 30
0.0
 10
25.96451636441907
 20
313.5727891558041
 30
0.0
 10
25.94417490816068
 20
313.591927738196
 30
0.0
 10
25.905156687155
 20
313.60136815005
 30
0.0
 10
25.84716098293489
 20
313.60136815005
 30
0.0
 10
25.84716098293489
 20
313.60136815005
 30
0.0
 10
25.58106810001527
 20
313.60136815005
 30
0.0
 10
25.58106810001527
 20
313.60136815005
 30
0.0
  0
LWPOLYLINE
  5
1A260
330
1F
100
AcDbEntity
  8
0
 62
     7
370
     0
100
AcDbPolyline
 90
        7
 70
     0
 43
0.0
 10
26.04234874747186
 20
313.761629612712
 10
25.58106810001527
 20
313.761629612712
 10
25.58106810001527
 20
313.8226110217059
 10
25.98780056566932
 20
313.8226110217059
 10
25.98780056566932
 20
314.0498897425781
 10
26.04234874747186
 20
314.0498897425781
 10
26.04234874747186
 20
313.761629612712
  0
LWPOLYLINE
  5
1A261
330
1F
100
AcDbEntity
  8
0
 62
     7
370
     0
100
AcDbPolyline
 90
        7
 70
     0
 43
0.0
 10
26.04234874747186
 20
314.119903445507
 10
25.58106810001527
 20
314.119903445507
 10
25.58106810001527
 20
314.1808955944451
 10
25.98780056566932
 20
314.1808955944451
 10
25.98780056566932
 20
314.4081743153171
 10
26.04234874747186
 20
314.4081743153171
 10
26.04234874747186
 20
314.119903445507
  0
SPLINE
  5
1A262
330
1F
100
AcDbEntity
  8
0
 62
     7
370
     0
100
AcDbSpline
210
0.0
220
0.0
230
1.0
 70
     9
 71
     3
 72
    41
 73
    37
 74
     0
 42
0.000000001
 43
0.0000000001
 40
0.0
 40
0.0
 40
0.0
 40
0.0
 40
1.0
 40
1.0
 40
1.0
 40
2.0
 40
2.0
 40
2.0
 40
3.0
 40
3.0
 40
3.0
 40
4.0
 40
4.0
 40
4.0
 40
5.0
 40
5.0
 40
5.0
 40
6.0
 40
6.0
 40
6.0
 40
7.0
 40
7.0
 40
7.0
 40
8.0
 40
8.0
 40
8.0
 40
9.0
 40
9.0
 40
9.0
 40
10.0
 40
10.0
 40
10.0
 40
11.0
 40
11.0
 40
11.0
 40
12.0
 40
12.0
 40
12.0
 40
12.0
 10
26.04234874747186
 20
314.65988641158
 30
0.0
 10
26.04234874747186
 20
314.65988641158
 30
0.0
 10
25.58106810001527
 20
314.65988641158
 30
0.0
 10
25.58106810001527
 20
314.65988641158
 30
0.0
 10
25.58106810001527
 20
314.65988641158
 30
0.0
 10
25.58106810001527
 20
314.818837600924
 30
0.0
 10
25.58106810001527
 20
314.818837600924
 30
0.0
 10
25.58106810001527
 20
314.854709017979
 30
0.0
 10
25.58327078122517
 20
314.881977738908
 30
0.0
 10
25.5875765068223
 20
314.9008585626151
 30
0.0
 10
25.59365531582
 20
314.9272911571539
 30
0.0
 10
25.6047711591292
 20
314.9499401122981
 30
0.0
 10
25.62071997779009
 20
314.968659836827
 30
0.0
 10
25.64127623295201
 20
314.992942852983
 30
0.0
 10
25.6674924392492
 20
315.010985960963
 30
0.0
 10
25.69958439096126
 20
315.0231988704451
 30
0.0
 10
25.7314702929599
 20
315.0351078779401
 30
0.0
 10
25.76797536678362
 20
315.0411345794261
 30
0.0
 10
25.8090878771082
 20
315.0411345794261
 30
0.0
 10
25.8441215784361
 20
315.0411345794261
 30
0.0
 10
25.87516002013911
 20
315.037148467533
 30
0.0
 10
25.90222468210868
 20
315.029018328997
 30
0.0
 10
25.92927860413238
 20
315.02084523068
 30
0.0
 10
25.95172508965521
 20
315.010298604468
 30
0.0
 10
25.96955339873017
 20
314.9975610294301
 30
0.0
 10
25.98717764884628
 20
314.9847590147211
 30
0.0
 10
26.00122549720169
 20
314.9707111663651
 30
0.0
 10
26.01129956582378
 20
314.9554497041989
 30
0.0
 10
26.02157769340471
 20
314.940295641485
 30
0.0
 10
26.02912787489868
 20
314.921833675642
 30
0.0
 10
26.03436896816908
 20
314.9004412934111
 30
0.0
 10
26.03971846486189
 20
314.8788309349571
 30
0.0
 10
26.04234874747186
 20
314.8542901601151
 30
0.0
 10
26.04234874747186
 20
314.8263356694791
 30
0.0
 10
26.04234874747186
 20
314.8263356694791
 30
0.0
 10
26.04234874747186
 20
314.65988641158
 30
0.0
 10
26.04234874747186
 20
314.65988641158
 30
0.0
  0
SPLINE
  5
1A263
330
1F
100
AcDbEntity
  8
0
 62
     7
370
     0
100
AcDbSpline
210
0.0
220
0.0
230
1.0
 70
     9
 71
     3
 72
    35
 73
    31
 74
     0
 42
0.000000001
 43
0.0000000001
 40
0.0
 40
0.0
 40
0.0
 40
0.0
 40
1.0
 40
1.0
 40
1.0
 40
2.0
 40
2.0
 40
2.0
 40
3.0
 40
3.0
 40
3.0
 40
4.0
 40
4.0
 40
4.0
 40
5.0
 40
5.0
 40
5.0
 40
6.0
 40
6.0
 40
6.0
 40
7.0
 40
7.0
 40
7.0
 40
8.0
 40
8.0
 40
8.0
 40
9.0
 40
9.0
 40
9.0
 40
10.0
 40
10.0
 40
10.0
 40
10.0
 10
25.98780056566932
 20
314.7208785605181
 30
0.0
 10
25.98780056566932
 20
314.7208785605181
 30
0.0
 10
25.98780056566932
 20
314.819471257693
 30
0.0
 10
25.98780056566932
 20
314.819471257693
 30
0.0
 10
25.98780056566932
 20
314.849886782573
 30
0.0
 10
25.98508335952738
 20
314.873591429667
 30
0.0
 10
25.97941266844737
 20
314.8909992928981
 30
0.0
 10
25.97375271731391
 20
314.9081939452041
 30
0.0
 10
25.96578367795621
 20
314.9220377346011
 30
0.0
 10
25.95550555037431
 20
314.932315862182
 30
0.0
 10
25.9410281042102
 20
314.946847008073
 30
0.0
 10
25.92152436367957
 20
314.95812395056
 30
0.0
 10
25.89718764779718
 20
314.9660929899181
 30
0.0
 10
25.87264687295561
 20
314.9742247189771
 30
0.0
 10
25.84307006280557
 20
314.978207648133
 30
0.0
 10
25.80825016138078
 20
314.978207648133
 30
0.0
 10
25.75999558748032
 20
314.978207648133
 30
0.0
 10
25.72286759683448
 20
314.9702386087751
 30
0.0
 10
25.69707024840142
 20
314.954558288745
 30
0.0
 10
25.67105810106386
 20
314.9385557703591
 30
0.0
 10
25.6536486498527
 20
314.919578287144
 30
0.0
 10
25.64484189476707
 20
314.896874042936
 30
0.0
 10
25.63854828686459
 20
314.880452666686
 30
0.0
 10
25.63540148291401
 20
314.854021661485
 30
0.0
 10
25.63540148291401
 20
314.8177313865662
 30
0.0
 10
25.63540148291401
 20
314.8177313865662
 30
0.0
 10
25.63540148291401
 20
314.7208785605181
 30
0.0
 10
25.63540148291401
 20
314.7208785605181
 30
0.0
 10
25.63540148291401
 20
314.7208785605181
 30
0.0
 10
25.98780056566932
 20
314.7208785605181
 30
0.0
 10
25.98780056566932
 20
314.7208785605181
 30
0.0
  0
SPLINE
  5
1A264
330
1F
100
AcDbEntity
  8
0
 62
     7
370
     0
100
AcDbSpline
210
0.0
220
0.0
230
1.0
 70
     9
 71
     3
 72
    38
 73
    34
 74
     0
 42
0.000000001
 43
0.0000000001
 40
0.0
 40
0.0
 40
0.0
 40
0.0
 40
1.0
 40
1.0
 40
1.0
 40
2.0
 40
2.0
 40
2.0
 40
3.0
 40
3.0
 40
3.0
 40
4.0
 40
4.0
 40
4.0
 40
5.0
 40
5.0
 40
5.0
 40
6.0
 40
6.0
 40
6.0
 40
7.0
 40
7.0
 40
7.0
 40
8.0
 40
8.0
 40
8.0
 40
9.0
 40
9.0
 40
9.0
 40
10.0
 40
10.0
 40
10.0
 40
11.0
 40
11.0
 40
11.0
 40
11.0
 10
25.81769057323442
 20
315.1066359131461
 30
0.0
 10
25.74112550371871
 20
315.1066359131461
 30
0.0
 10
25.68113216968601
 20
315.1271384685821
 30
0.0
 10
25.63791463009647
 20
315.1682509789069
 30
0.0
 10
25.59449303154781
 20
315.209417188959
 30
0.0
 10
25.57289500169827
 20
315.262440298539
 30
0.0
 10
25.57289500169827
 20
315.3275136266631
 30
0.0
 10
25.57289500169827
 20
315.370099110008
 30
0.0
 10
25.58295833037488
 20
315.4085357734481
 30
0.0
 10
25.60331052657881
 20
315.442678059322
 30
0.0
 10
25.62354557684017
 20
315.4768203451951
 30
0.0
 10
25.65217727735677
 20
315.5029291520401
 30
0.0
 10
25.6884675522752
 20
315.520864860567
 30
0.0
 10
25.72497262609846
 20
315.5388005690951
 30
0.0
 10
25.76608513642361
 20
315.5477147236321
 30
0.0
 10
25.81223468105969
 20
315.5477147236321
 30
0.0
 10
25.85900714251881
 20
315.5477147236321
 30
0.0
 10
25.9008607090646
 20
315.538381711231
 30
0.0
 10
25.93788130025871
 20
315.519447187797
 30
0.0
 10
25.97479449200051
 20
315.500577104035
 30
0.0
 10
26.00269686969762
 20
315.4739312999301
 30
0.0
 10
26.02168509285741
 20
315.4393164564661
 30
0.0
 10
26.04066257607161
 20
315.4046586532221
 30
0.0
 10
26.05010298792519
 20
315.3673695633971
 30
0.0
 10
26.05010298792519
 20
315.327309567704
 30
0.0
 10
26.05010298792519
 20
315.2838342694291
 30
0.0
 10
26.0396208013845
 20
315.24508614442
 30
0.0
 10
26.0186456883585
 20
315.210888561454
 30
0.0
 10
25.99765983538697
 20
315.176638876129
 30
0.0
 10
25.96913454086649
 20
315.150637468737
 30
0.0
 10
25.93284426594806
 20
315.133068512882
 30
0.0
 10
25.896554991382
 20
315.1154426682311
 30
0.0
 10
25.85816942679151
 20
315.1066359131461
 30
0.0
 10
25.81769057323442
 20
315.1066359131461
 30
0.0
  0
SPLINE
  5
1A265
330
1F
100
AcDbEntity
  8
0
 62
     7
370
     0
100
AcDbSpline
210
0.0
220
0.0
230
1.0
 70
     9
 71
     3
 72
    32
 73
    28
 74
     0
 42
0.000000001
 43
0.0000000001
 40
0.0
 40
0.0
 40
0.0
 40
0.0
 40
1.0
 40
1.0
 40
1.0
 40
2.0
 40
2.0
 40
2.0
 40
3.0
 40
3.0
 40
3.0
 40
4.0
 40
4.0
 40
4.0
 40
5.0
 40
5.0
 40
5.0
 40
6.0
 40
6.0
 40
6.0
 40
7.0
 40
7.0
 40
7.0
 40
8.0
 40
8.0
 40
8.0
 40
9.0
 40
9.0
 40
9.0
 40
9.0
 10
25.81852828896177
 20
315.1695612522241
 30
0.0
 10
25.87401084599981
 20
315.1695612522241
 30
0.0
 10
25.91795870186439
 20
315.1844575562531
 30
0.0
 10
25.95004965819959
 20
315.2144542232689
 30
0.0
 10
25.98193755808597
 20
315.2441931316001
 30
0.0
 10
25.99787463429141
 20
315.2817936798361
 30
0.0
 10
25.99787463429141
 20
315.3268907098401
 30
0.0
 10
25.99787463429141
 20
315.3728791552979
 30
0.0
 10
25.98172275917568
 20
315.4105887045331
 30
0.0
 10
25.94941600143108
 20
315.440315271372
 30
0.0
 10
25.9171102461915
 20
315.469946780251
 30
0.0
 10
25.87139029936458
 20
315.484789384553
 30
0.0
 10
25.81201988215531
 20
315.484789384553
 30
0.0
 10
25.77447303364539
 20
315.484789384553
 30
0.0
 10
25.74174842054168
 20
315.4785494763761
 30
0.0
 10
25.71364198388528
 20
315.4657474616671
 30
0.0
 10
25.68573960618778
 20
315.4532139455881
 30
0.0
 10
25.66382037245518
 20
315.4344942210599
 30
0.0
 10
25.6486116155412
 20
315.4101145453971
 30
0.0
 10
25.63309239468987
 20
315.385616730336
 30
0.0
 10
25.62532741429192
 20
315.358348009407
 30
0.0
 10
25.62532741429192
 20
315.3279861842531
 30
0.0
 10
25.62532741429192
 20
315.2846719851569
 30
0.0
 10
25.64022371832021
 20
315.2474365950581
 30
0.0
 10
25.67001632637681
 20
315.2162907539031
 30
0.0
 10
25.69948673607729
 20
315.1851341728021
 30
0.0
 10
25.7490955397044
 20
315.1695612522241
 30
0.0
 10
25.81852828896177
 20
315.1695612522241
 30
0.0
  0
LWPOLYLINE
  5
1A266
330
1F
100
AcDbEntity
  8
0
 62
     7
370
     0
100
AcDbPolyline
 90
        9
 70
     0
 43
0.0
 10
26.04234874747186
 20
315.743901303075
 10
25.63540148291401
 20
315.743901303075
 10
25.63540148291401
 20
315.591823678675
 10
25.58106810001527
 20
315.591823678675
 10
25.58106810001527
 20
315.957389934278
 10
25.63540148291401
 20
315.957389934278
 10
25.63540148291401
 20
315.804893452014
 10
26.04234874747186
 20
315.804893452014
 10
26.04234874747186
 20
315.743901303075
  0
SPLINE
  5
1A267
330
1F
100
AcDbEntity
  8
0
 62
     7
370
     0
100
AcDbSpline
210
0.0
220
0.0
230
1.0
 70
     9
 71
     3
 72
    41
 73
    37
 74
     0
 42
0.000000001
 43
0.0000000001
 40
0.0
 40
0.0
 40
0.0
 40
0.0
 40
1.0
 40
1.0
 40
1.0
 40
2.0
 40
2.0
 40
2.0
 40
3.0
 40
3.0
 40
3.0
 40
4.0
 40
4.0
 40
4.0
 40
5.0
 40
5.0
 40
5.0
 40
6.0
 40
6.0
 40
6.0
 40
7.0
 40
7.0
 40
7.0
 40
8.0
 40
8.0
 40
8.0
 40
9.0
 40
9.0
 40
9.0
 40
10.0
 40
10.0
 40
10.0
 40
11.0
 40
11.0
 40
11.0
 40
12.0
 40
12.0
 40
12.0
 40
12.0
 10
26.04234874747186
 20
316.199146101315
 30
0.0
 10
26.04234874747186
 20
316.199146101315
 30
0.0
 10
25.58106810001527
 20
316.199146101315
 30
0.0
 10
25.58106810001527
 20
316.199146101315
 30
0.0
 10
25.58106810001527
 20
316.199146101315
 30
0.0
 10
25.58106810001527
 20
316.358086550715
 30
0.0
 10
25.58106810001527
 20
316.358086550715
 30
0.0
 10
25.58106810001527
 20
316.39395796777
 30
0.0
 10
25.58327078122517
 20
316.4212266886981
 30
0.0
 10
25.5875765068223
 20
316.4401075124061
 30
0.0
 10
25.59365531582
 20
316.4665401458291
 30
0.0
 10
25.6047711591292
 20
316.489189062088
 30
0.0
 10
25.62071997779009
 20
316.5079195265631
 30
0.0
 10
25.64127623295201
 20
316.532191802774
 30
0.0
 10
25.6674924392492
 20
316.5502349107532
 30
0.0
 10
25.69958439096126
 20
316.562349568968
 30
0.0
 10
25.7314702929599
 20
316.5743568277311
 30
0.0
 10
25.76797536678362
 20
316.580392676948
 30
0.0
 10
25.8090878771082
 20
316.580392676948
 30
0.0
 10
25.8441215784361
 20
316.580392676948
 30
0.0
 10
25.87516002013911
 20
316.5763974173241
 30
0.0
 10
25.90222468210868
 20
316.5682780187329
 30
0.0
 10
25.92927860413238
 20
316.5600941804711
 30
0.0
 10
25.95172508965521
 20
316.549547554259
 30
0.0
 10
25.96955339873017
 20
316.53680997922
 30
0.0
 10
25.98717764884628
 20
316.524018704457
 30
0.0
 10
26.00122549720169
 20
316.5099601161561
 30
0.0
 10
26.01129956582378
 20
316.4946986539891
 30
0.0
 10
26.02157769340471
 20
316.4795445912761
 30
0.0
 10
26.02912787489868
 20
316.4610826254321
 30
0.0
 10
26.03436896816908
 20
316.439690282086
 30
0.0
 10
26.03971846486189
 20
316.418079884747
 30
0.0
 10
26.04234874747186
 20
316.3935391099061
 30
0.0
 10
26.04234874747186
 20
316.365593772428
 30
0.0
 10
26.04234874747186
 20
316.365593772428
 30
0.0
 10
26.04234874747186
 20
316.199146101315
 30
0.0
 10
26.04234874747186
 20
316.199146101315
 30
0.0
  0
SPLINE
  5
1A268
330
1F
100
AcDbEntity
  8
0
 62
     7
370
     0
100
AcDbSpline
210
0.0
220
0.0
230
1.0
 70
     9
 71
     3
 72
    35
 73
    31
 74
     0
 42
0.000000001
 43
0.0000000001
 40
0.0
 40
0.0
 40
0.0
 40
0.0
 40
1.0
 40
1.0
 40
1.0
 40
2.0
 40
2.0
 40
2.0
 40
3.0
 40
3.0
 40
3.0
 40
4.0
 40
4.0
 40
4.0
 40
5.0
 40
5.0
 40
5.0
 40
6.0
 40
6.0
 40
6.0
 40
7.0
 40
7.0
 40
7.0
 40
8.0
 40
8.0
 40
8.0
 40
9.0
 40
9.0
 40
9.0
 40
10.0
 40
10.0
 40
10.0
 40
10.0
 10
25.98780056566932
 20
316.2601275103081
 30
0.0
 10
25.98780056566932
 20
316.2601275103081
 30
0.0
 10
25.98780056566932
 20
316.3587202074831
 30
0.0
 10
25.98780056566932
 20
316.3587202074831
 30
0.0
 10
25.98780056566932
 20
316.3891357323631
 30
0.0
 10
25.98508335952738
 20
316.4128404183431
 30
0.0
 10
25.97941266844737
 20
316.430248242688
 30
0.0
 10
25.97375271731391
 20
316.44745363494
 30
0.0
 10
25.96578367795621
 20
316.4612974243361
 30
0.0
 10
25.95550555037431
 20
316.4715755519181
 30
0.0
 10
25.9410281042102
 20
316.4860959578631
 30
0.0
 10
25.92152436367957
 20
316.497372900351
 30
0.0
 10
25.89718764779718
 20
316.505341939709
 30
0.0
 10
25.87264687295561
 20
316.513473707652
 30
0.0
 10
25.84307006280557
 20
316.5174565979231
 30
0.0
 10
25.80825016138078
 20
316.5174565979231
 30
0.0
 10
25.75999558748032
 20
316.5174565979231
 30
0.0
 10
25.72286759683448
 20
316.5094875585661
 30
0.0
 10
25.69707024840142
 20
316.4938072385361
 30
0.0
 10
25.67105810106386
 20
316.477817088601
 30
0.0
 10
25.6536486498527
 20
316.458827236935
 30
0.0
 10
25.64484189476707
 20
316.4361229927271
 30
0.0
 10
25.63854828686459
 20
316.4197139834611
 30
0.0
 10
25.63540148291401
 20
316.39328135122
 30
0.0
 10
25.63540148291401
 20
316.3569927017571
 30
0.0
 10
25.63540148291401
 20
316.3569927017571
 30
0.0
 10
25.63540148291401
 20
316.2601275103081
 30
0.0
 10
25.63540148291401
 20
316.2601275103081
 30
0.0
 10
25.63540148291401
 20
316.2601275103081
 30
0.0
 10
25.98780056566932
 20
316.2601275103081
 30
0.0
 10
25.98780056566932
 20
316.2601275103081
 30
0.0
  0
LWPOLYLINE
  5
1A269
330
1F
100
AcDbEntity
  8
0
 62
     7
370
     0
100
AcDbPolyline
 90
        5
 70
     0
 43
0.0
 10
26.04234874747186
 20
316.6747876890221
 10
25.58097144050816
 20
316.6747876890221
 10
25.58097144050816
 20
316.7357674645319
 10
26.04234874747186
 20
316.7357674645319
 10
26.04234874747186
 20
316.6747876890221
  0
SPLINE
  5
1A26A
330
1F
100
AcDbEntity
  8
0
 62
     7
370
     0
100
AcDbSpline
210
0.0
220
0.0
230
1.0
 70
     9
 71
     3
 72
   110
 73
   106
 74
     0
 42
0.000000001
 43
0.0000000001
 40
0.0
 40
0.0
 40
0.0
 40
0.0
 40
1.0
 40
1.0
 40
1.0
 40
2.0
 40
2.0
 40
2.0
 40
3.0
 40
3.0
 40
3.0
 40
4.0
 40
4.0
 40
4.0
 40
5.0
 40
5.0
 40
5.0
 40
6.0
 40
6.0
 40
6.0
 40
7.0
 40
7.0
 40
7.0
 40
8.0
 40
8.0
 40
8.0
 40
9.0
 40
9.0
 40
9.0
 40
10.0
 40
10.0
 40
10.0
 40
11.0
 40
11.0
 40
11.0
 40
12.0
 40
12.0
 40
12.0
 40
13.0
 40
13.0
 40
13.0
 40
14.0
 40
14.0
 40
14.0
 40
15.0
 40
15.0
 40
15.0
 40
16.0
 40
16.0
 40
16.0
 40
17.0
 40
17.0
 40
17.0
 40
18.0
 40
18.0
 40
18.0
 40
19.0
 40
19.0
 40
19.0
 40
20.0
 40
20.0
 40
20.0
 40
21.0
 40
21.0
 40
21.0
 40
22.0
 40
22.0
 40
22.0
 40
23.0
 40
23.0
 40
23.0
 40
24.0
 40
24.0
 40
24.0
 40
25.0
 40
25.0
 40
25.0
 40
26.0
 40
26.0
 40
26.0
 40
27.0
 40
27.0
 40
27.0
 40
28.0
 40
28.0
 40
28.0
 40
29.0
 40
29.0
 40
29.0
 40
30.0
 40
30.0
 40
30.0
 40
31.0
 40
31.0
 40
31.0
 40
32.0
 40
32.0
 40
32.0
 40
33.0
 40
33.0
 40
33.0
 40
34.0
 40
34.0
 40
34.0
 40
35.0
 40
35.0
 40
35.0
 40
35.0
 10
25.8940408438458
 20
316.8227180610821
 30
0.0
 10
25.8940408438458
 20
316.8227180610821
 30
0.0
 10
25.88900380953521
 20
316.8804023068911
 30
0.0
 10
25.88900380953521
 20
316.8804023068911
 30
0.0
 10
25.91208395182548
 20
316.883076553252
 30
0.0
 10
25.93116883449238
 20
316.889423860881
 30
0.0
 10
25.94585134121468
 20
316.8992831305981
 30
0.0
 10
25.96074664364471
 20
316.9094001590009
 30
0.0
 10
25.97270120495801
 20
316.9248764200721
 30
0.0
 10
25.98172275917568
 20
316.945797833372
 30
0.0
 10
25.99094736962081
 20
316.966826646125
 30
0.0
 10
25.9953624899573
 20
316.990271946553
 30
0.0
 10
25.9953624899573
 20
317.016595552302
 30
0.0
 10
25.9953624899573
 20
317.039772354099
 30
0.0
 10
25.99199988425249
 20
317.0603823089881
 30
0.0
 10
25.98508335952738
 20
317.0782106180631
 30
0.0
 10
25.97815609485588
 20
317.0960389271392
 30
0.0
 10
25.96871568300242
 20
317.1092597997121
 30
0.0
 10
25.95654732506136
 20
317.1180665547971
 30
0.0
 10
25.94459376602487
 20
317.1266692509231
 30
0.0
 10
25.93138363339676
 20
317.1310726284661
 30
0.0
 10
25.9171102461915
 20
317.1310726284661
 30
0.0
 10
25.90264353997242
 20
317.1310726284661
 30
0.0
 10
25.8900563241674
 20
317.1268733098819
 30
0.0
 10
25.8791445398175
 20
317.118485412661
 30
0.0
 10
25.86844755437238
 20
317.1100975154401
 30
0.0
 10
25.85922194142319
 20
317.0962537260431
 30
0.0
 10
25.851876818113
 20
317.076954044472
 30
0.0
 10
25.84705358348231
 20
317.064581627572
 30
0.0
 10
25.83970746094798
 20
317.037312906643
 30
0.0
 10
25.82943033202412
 20
316.994879383055
 30
0.0
 10
25.81936600468998
 20
316.9525639988641
 30
0.0
 10
25.80971079393117
 20
316.9228250905341
 30
0.0
 10
25.80069997988727
 20
316.9057378376791
 30
0.0
 10
25.78915553640911
 20
316.8837102100212
 30
0.0
 10
25.77489189150862
 20
316.8673962332219
 30
0.0
 10
25.75769723920172
 20
316.8564414890919
 30
0.0
 10
25.74070664585457
 20
316.845798203373
 30
0.0
 10
25.72140696428329
 20
316.840342311198
 30
0.0
 10
25.70021705235251
 20
316.840342311198
 30
0.0
 10
25.67682545165007
 20
316.840342311198
 30
0.0
 10
25.65532408130827
 20
316.8471084766901
 30
0.0
 10
25.63498262504987
 20
316.8603186093181
 30
0.0
 10
25.61484622098772
 20
316.873539481891
 30
0.0
 10
25.5993260068991
 20
316.8927317640101
 30
0.0
 10
25.58883308041368
 20
316.918217654032
 30
0.0
 10
25.57824349442092
 20
316.943542444874
 30
0.0
 10
25.57309906065757
 20
316.9717025812571
 30
0.0
 10
25.57309906065757
 20
317.0026980631791
 30
0.0
 10
25.57309906065757
 20
317.036883308834
 30
0.0
 10
25.57876000411682
 20
317.067041075028
 30
0.0
 10
25.58967079614109
 20
317.0930532223659
 30
0.0
 10
25.60078663945029
 20
317.1193768281152
 30
0.0
 10
25.61693951707008
 20
317.139460525687
 30
0.0
 10
25.63833348796021
 20
317.153519113988
 30
0.0
 10
25.6597391931665
 20
317.167566962344
 30
0.0
 10
25.68386011577337
 20
317.1751278837832
 30
0.0
 10
25.71091403779798
 20
317.17616965847
 30
0.0
 10
25.71091403779798
 20
317.17616965847
 30
0.0
 10
25.71531741534011
 20
317.117647696933
 30
0.0
 10
25.71531741534011
 20
317.117647696933
 30
0.0
 10
25.68615945909011
 20
317.1145008929819
 30
0.0
 10
25.66414257082039
 20
317.1038039075371
 30
0.0
 10
25.64924527230971
 20
317.085556740598
 30
0.0
 10
25.63434896828142
 20
317.0674599328921
 30
0.0
 10
25.62701358569217
 20
317.040610069827
 30
0.0
 10
25.62701358569217
 20
317.0052112103621
 30
0.0
 10
25.62701358569217
 20
316.968244318895
 30
0.0
 10
25.63372605145838
 20
316.941394455829
 30
0.0
 10
25.64735504195062
 20
316.924457562208
 30
0.0
 10
25.66077997348299
 20
316.9076710278201
 30
0.0
 10
25.67714765000721
 20
316.8992831305981
 30
0.0
 10
25.69623253267412
 20
316.8992831305981
 30
0.0
 10
25.71280426815707
 20
316.8992831305981
 30
0.0
 10
25.7264342547042
 20
316.9051041809111
 30
0.0
 10
25.73714098403991
 20
316.917111439673
 30
0.0
 10
25.74783796948486
 20
316.9288072400251
 30
0.0
 10
25.75873901388877
 20
316.9594375638091
 30
0.0
 10
25.77006965610241
 20
317.0091420303151
 30
0.0
 10
25.78118549941161
 20
317.0587068775332
 30
0.0
 10
25.7910447691284
 20
317.0929458229131
 30
0.0
 10
25.7994326663503
 20
317.111407788757
 30
0.0
 10
25.81181682140868
 20
317.1382576518221
 30
0.0
 10
25.82754984295207
 20
317.1579224915309
 30
0.0
 10
25.84641992671368
 20
317.1707137662951
 30
0.0
 10
25.8655165488945
 20
317.183462081278
 30
0.0
 10
25.88732837807999
 20
317.1900134478661
 30
0.0
 10
25.91208395182548
 20
317.1900134478661
 30
0.0
 10
25.93662472666716
 20
317.1900134478661
 30
0.0
 10
25.95969412901292
 20
317.1828284245102
 30
0.0
 10
25.9815079602659
 20
317.1688879756069
 30
0.0
 10
26.00311572756169
 20
317.154775687579
 30
0.0
 10
26.02010632090878
 20
317.1345845905549
 30
0.0
 10
26.03207061989087
 20
317.1082072850801
 30
0.0
 10
26.0442292419703
 20
317.0819910787831
 30
0.0
 10
26.05010298792519
 20
317.0524669693569
 30
0.0
 10
26.05010298792519
 20
317.0194738576221
 30
0.0
 10
26.05010298792519
 20
316.9776847307481
 30
0.0
 10
26.04402417892749
 20
316.9427047291471
 30
0.0
 10
26.03185582098661
 20
316.91432979386
 30
0.0
 10
26.01968746304561
 20
316.8862770569291
 30
0.0
 10
26.00144029610607
 20
316.8640453703121
 30
0.0
 10
25.97710458261201
 20
316.848042851925
 30
0.0
 10
25.95256280538257
 20
316.8319436740311
 30
0.0
 10
25.92487522659042
 20
316.8235557768099
 30
0.0
 10
25.8940408438458
 20
316.8227180610821
 30
0.0
  0
SPLINE
  5
1A26B
330
1F
100
AcDbEntity
  8
0
 62
     7
370
     0
100
AcDbSpline
210
0.0
220
0.0
230
1.0
 70
     9
 71
     3
 72
    38
 73
    34
 74
     0
 42
0.000000001
 43
0.0000000001
 40
0.0
 40
0.0
 40
0.0
 40
0.0
 40
1.0
 40
1.0
 40
1.0
 40
2.0
 40
2.0
 40
2.0
 40
3.0
 40
3.0
 40
3.0
 40
4.0
 40
4.0
 40
4.0
 40
5.0
 40
5.0
 40
5.0
 40
6.0
 40
6.0
 40
6.0
 40
7.0
 40
7.0
 40
7.0
 40
8.0
 40
8.0
 40
8.0
 40
9.0
 40
9.0
 40
9.0
 40
10.0
 40
10.0
 40
10.0
 40
11.0
 40
11.0
 40
11.0
 40
11.0
 10
26.04234874747186
 20
317.2733446828751
 30
0.0
 10
26.04234874747186
 20
317.2733446828751
 30
0.0
 10
25.58106810001527
 20
317.2733446828751
 30
0.0
 10
25.58106810001527
 20
317.2733446828751
 30
0.0
 10
25.58106810001527
 20
317.2733446828751
 30
0.0
 10
25.58106810001527
 20
317.4473962352071
 30
0.0
 10
25.58106810001527
 20
317.4473962352071
 30
0.0
 10
25.58106810001527
 20
317.4780282127659
 30
0.0
 10
25.5825394725112
 20
317.5013107602421
 30
0.0
 10
25.58547147755792
 20
317.5174636378621
 30
0.0
 10
25.58925193827787
 20
317.540114182343
 30
0.0
 10
25.59638326190731
 20
317.5591990650102
 30
0.0
 10
25.60708024735237
 20
317.574460527176
 30
0.0
 10
25.61757317383859
 20
317.589831045393
 30
0.0
 10
25.63245973160338
 20
317.601997746735
 30
0.0
 10
25.65155436053379
 20
317.6114381585891
 30
0.0
 10
25.67063924319979
 20
317.620663771538
 30
0.0
 10
25.69161435622669
 20
317.625487664444
 30
0.0
 10
25.7144796996127
 20
317.625487664444
 30
0.0
 10
25.75371371626807
 20
317.625487664444
 30
0.0
 10
25.78684545054517
 20
317.6128987911401
 30
0.0
 10
25.8141249114197
 20
317.5878854587091
 30
0.0
 10
25.84117883344339
 20
317.5629811816501
 30
0.0
 10
25.85481856388111
 20
317.5178824957251
 30
0.0
 10
25.85481856388111
 20
317.4526910282031
 30
0.0
 10
25.85481856388111
 20
317.4526910282031
 30
0.0
 10
25.85481856388111
 20
317.334336831813
 30
0.0
 10
25.85481856388111
 20
317.334336831813
 30
0.0
 10
25.85481856388111
 20
317.334336831813
 30
0.0
 10
26.04234874747186
 20
317.334336831813
 30
0.0
 10
26.04234874747186
 20
317.334336831813
 30
0.0
 10
26.04234874747186
 20
317.334336831813
 30
0.0
 10
26.04234874747186
 20
317.2733446828751
 30
0.0
 10
26.04234874747186
 20
317.2733446828751
 30
0.0
  0
SPLINE
  5
1A26C
330
1F
100
AcDbEntity
  8
0
 62
     7
370
     0
100
AcDbSpline
210
0.0
220
0.0
230
1.0
 70
     9
 71
     3
 72
    29
 73
    25
 74
     0
 42
0.000000001
 43
0.0000000001
 40
0.0
 40
0.0
 40
0.0
 40
0.0
 40
1.0
 40
1.0
 40
1.0
 40
2.0
 40
2.0
 40
2.0
 40
3.0
 40
3.0
 40
3.0
 40
4.0
 40
4.0
 40
4.0
 40
5.0
 40
5.0
 40
5.0
 40
6.0
 40
6.0
 40
6.0
 40
7.0
 40
7.0
 40
7.0
 40
8.0
 40
8.0
 40
8.0
 40
8.0
 10
25.80027038207811
 20
317.334336831813
 30
0.0
 10
25.80027038207811
 20
317.334336831813
 30
0.0
 10
25.80027038207811
 20
317.4536361433831
 30
0.0
 10
25.80027038207811
 20
317.4536361433831
 30
0.0
 10
25.80027038207811
 20
317.4931806217061
 30
0.0
 10
25.79293499948841
 20
317.52097559995
 30
0.0
 10
25.77825349436449
 20
317.5376439949411
 30
0.0
 10
25.76357198924057
 20
317.554174426342
 30
0.0
 10
25.74300499413317
 20
317.562560667866
 30
0.0
 10
25.7163699299727
 20
317.562560667866
 30
0.0
 10
25.69707024840142
 20
317.562560667866
 30
0.0
 10
25.6804985129175
 20
317.5575236335541
 30
0.0
 10
25.66686952242532
 20
317.547825463016
 30
0.0
 10
25.65302573302966
 20
317.53807359275
 30
0.0
 10
25.64400417903931
 20
317.5251641785891
 30
0.0
 10
25.63960080149718
 20
317.509281454163
 30
0.0
 10
25.63687285540988
 20
317.4990016720182
 30
0.0
 10
25.63540148291401
 20
317.480068802411
 30
0.0
 10
25.63540148291401
 20
317.452486969244
 30
0.0
 10
25.63540148291401
 20
317.452486969244
 30
0.0
 10
25.63540148291401
 20
317.334336831813
 30
0.0
 10
25.63540148291401
 20
317.334336831813
 30
0.0
 10
25.63540148291401
 20
317.334336831813
 30
0.0
 10
25.80027038207811
 20
317.334336831813
 30
0.0
 10
25.80027038207811
 20
317.334336831813
 30
0.0
  0
LWPOLYLINE
  5
1A26D
330
1F
100
AcDbEntity
  8
0
 62
     7
370
     0
100
AcDbPolyline
 90
        7
 70
     0
 43
0.0
 10
26.04234874747186
 20
317.700579703965
 10
25.58106810001527
 20
317.700579703965
 10
25.58106810001527
 20
317.761571852904
 10
25.98780056566932
 20
317.761571852904
 10
25.98780056566932
 20
317.988850573776
 10
26.04234874747186
 20
317.988850573776
 10
26.04234874747186
 20
317.700579703965
  0
LWPOLYLINE
  5
1A26E
330
1F
100
AcDbEntity
  8
0
 62
     7
370
     0
100
AcDbPolyline
 90
        9
 70
     0
 43
0.0
 10
26.04234874747186
 20
318.010824501708
 10
25.58106810001527
 20
318.188076557719
 10
25.58106810001527
 20
318.2536761431589
 10
26.04234874747186
 20
318.442462900341
 10
26.04234874747186
 20
318.373095270512
 10
25.90264353997242
 20
318.3191807441161
 10
25.90264353997242
 20
318.1264077922311
 10
26.04234874747186
 20
318.0755863714211
 10
26.04234874747186
 20
318.010824501708
  0
SPLINE
  5
1A26F
330
1F
100
AcDbEntity
  8
0
 62
     7
370
     0
100
AcDbSpline
210
0.0
220
0.0
230
1.0
 70
     9
 71
     3
 72
    20
 73
    16
 74
     0
 42
0.000000001
 43
0.0000000001
 40
0.0
 40
0.0
 40
0.0
 40
0.0
 40
1.0
 40
1.0
 40
1.0
 40
2.0
 40
2.0
 40
2.0
 40
3.0
 40
3.0
 40
3.0
 40
4.0
 40
4.0
 40
4.0
 40
5.0
 40
5.0
 40
5.0
 40
5.0
 10
25.85292833352111
 20
318.144021302401
 30
0.0
 10
25.85292833352111
 20
318.144021302401
 30
0.0
 10
25.85292833352111
 20
318.3002982453851
 30
0.0
 10
25.85292833352111
 20
318.3002982453851
 30
0.0
 10
25.85292833352111
 20
318.3002982453851
 30
0.0
 10
25.72517668505782
 20
318.2522708836681
 30
0.0
 10
25.72517668505782
 20
318.2522708836681
 30
0.0
 10
25.686374258
 20
318.237576965265
 30
0.0
 10
25.65448636558
 20
318.2266222211341
 30
0.0
 10
25.62952673287521
 20
318.219544597231
 30
0.0
 10
25.65910454202736
 20
318.213616147466
 30
0.0
 10
25.6884675522752
 20
318.20522992239
 30
0.0
 10
25.71762749939717
 20
318.1945742245802
 30
0.0
 10
25.71762749939717
 20
318.1945742245802
 30
0.0
 10
25.85292833352111
 20
318.144021302401
 30
0.0
 10
25.85292833352111
 20
318.144021302401
 30
0.0
  0
SPLINE
  5
1A270
330
1F
100
AcDbEntity
  8
0
 62
     7
370
     0
100
AcDbSpline
210
0.0
220
0.0
230
1.0
 70
     9
 71
     3
 72
    38
 73
    34
 74
     0
 42
0.000000001
 43
0.0000000001
 40
0.0
 40
0.0
 40
0.0
 40
0.0
 40
1.0
 40
1.0
 40
1.0
 40
2.0
 40
2.0
 40
2.0
 40
3.0
 40
3.0
 40
3.0
 40
4.0
 40
4.0
 40
4.0
 40
5.0
 40
5.0
 40
5.0
 40
6.0
 40
6.0
 40
6.0
 40
7.0
 40
7.0
 40
7.0
 40
8.0
 40
8.0
 40
8.0
 40
9.0
 40
9.0
 40
9.0
 40
10.0
 40
10.0
 40
10.0
 40
11.0
 40
11.0
 40
11.0
 40
11.0
 10
26.04234874747186
 20
318.6212400285741
 30
0.0
 10
26.04234874747186
 20
318.6212400285741
 30
0.0
 10
25.84683878457787
 20
318.6212400285741
 30
0.0
 10
25.84683878457787
 20
318.6212400285741
 30
0.0
 10
25.84683878457787
 20
318.6212400285741
 30
0.0
 10
25.58106810001527
 20
318.4435691147002
 30
0.0
 10
25.58106810001527
 20
318.4435691147002
 30
0.0
 10
25.58106810001527
 20
318.4435691147002
 30
0.0
 10
25.58106810001527
 20
318.517825095992
 30
0.0
 10
25.58106810001527
 20
318.517825095992
 30
0.0
 10
25.58106810001527
 20
318.517825095992
 30
0.0
 10
25.7201503906918
 20
318.608652812769
 30
0.0
 10
25.7201503906918
 20
318.608652812769
 30
0.0
 10
25.74615179808382
 20
318.6254393471571
 30
0.0
 10
25.77216394542131
 20
318.641216326694
 30
0.0
 10
25.79817709062718
 20
318.655586373406
 30
0.0
 10
25.77405417578132
 20
318.6694301628021
 30
0.0
 10
25.74678545485227
 20
318.686324096643
 30
0.0
 10
25.71658472887708
 20
318.7059889363521
 30
0.0
 10
25.71658472887708
 20
318.7059889363521
 30
0.0
 10
25.58106810001527
 20
318.795345280632
 30
0.0
 10
25.58106810001527
 20
318.795345280632
 30
0.0
 10
25.58106810001527
 20
318.795345280632
 30
0.0
 10
25.58106810001527
 20
318.866400758248
 30
0.0
 10
25.58106810001527
 20
318.866400758248
 30
0.0
 10
25.58106810001527
 20
318.866400758248
 30
0.0
 10
25.84683878457787
 20
318.682232177512
 30
0.0
 10
25.84683878457787
 20
318.682232177512
 30
0.0
 10
25.84683878457787
 20
318.682232177512
 30
0.0
 10
26.04234874747186
 20
318.682232177512
 30
0.0
 10
26.04234874747186
 20
318.682232177512
 30
0.0
 10
26.04234874747186
 20
318.682232177512
 30
0.0
 10
26.04234874747186
 20
318.6212400285741
 30
0.0
 10
26.04234874747186
 20
318.6212400285741
 30
0.0
  0
LWPOLYLINE
  5
1A271
330
1F
100
AcDbEntity
  8
0
 62
     7
370
     0
100
AcDbPolyline
 90
        5
 70
     0
 43
0.0
 10
25.61526408561537
 20
309.306012976473
 10
25.66916787070392
 20
309.306012976473
 10
25.66916787070392
 20
302.1102496750519
 10
25.61526408561537
 20
302.1102496750519
 10
25.61526408561537
 20
309.306012976473
  0
LWPOLYLINE
  5
1A272
330
1F
100
AcDbEntity
  8
0
 62
     7
370
     0
100
AcDbPolyline
 90
        5
 70
     0
 43
0.0
 10
25.97668472236006
 20
309.306012976473
 10
26.03038444849068
 20
309.306012976473
 10
26.03038444849068
 20
302.1102496750519
 10
25.97668472236006
 20
302.1102496750519
 10
25.97668472236006
 20
309.306012976473
  0
LWPOLYLINE
  5
1A273
330
1F
100
AcDbEntity
  8
0
 62
     7
370
     0
100
AcDbPolyline
 90
        5
 70
     0
 43
0.0
 10
25.7960818034399
 20
309.306012976473
 10
25.84978152956961
 20
309.306012976473
 10
25.84978152956961
 20
302.1102496750519
 10
25.7960818034399
 20
302.1102496750519
 10
25.7960818034399
 20
309.306012976473
  0
LWPOLYLINE
  5
1A274
330
1F
100
AcDbEntity
  8
0
 62
     7
370
     0
100
AcDbPolyline
 90
        5
 70
     0
 43
0.0
 10
25.61526408561537
 20
326.7804515963829
 10
25.66896381174507
 20
326.7804515963829
 10
25.66896381174507
 20
319.5847956944141
 10
25.61526408561537
 20
319.5847956944141
 10
25.61526408561537
 20
326.7804515963829
  0
LWPOLYLINE
  5
1A275
330
1F
100
AcDbEntity
  8
0
 62
     7
370
     0
100
AcDbPolyline
 90
        5
 70
     0
 43
0.0
 10
25.79586700453547
 20
326.7804515963829
 10
25.84988892902231
 20
326.7804515963829
 10
25.84988892902231
 20
319.5847956944141
 10
25.79586700453547
 20
319.5847956944141
 10
25.79586700453547
 20
326.7804515963829
  0
LWPOLYLINE
  5
1A276
330
1F
100
AcDbEntity
  8
0
 62
     7
370
     0
100
AcDbPolyline
 90
        5
 70
     0
 43
0.0
 10
25.97648066340122
 20
326.7804515963829
 10
26.03038444849068
 20
326.7804515963829
 10
26.03038444849068
 20
319.5847956944141
 10
25.97648066340122
 20
319.5847956944141
 10
25.97648066340122
 20
326.7804515963829
  0
LWPOLYLINE
  5
1A277
330
1F
100
AcDbEntity
  8
0
 62
     7
370
     0
100
AcDbPolyline
 90
        2
 70
     0
 43
0.0
 10
17.56418307620021
 20
276.9786704467571
 10
20.90584106379447
 20
276.9786704467571
  0
SPLINE
  5
1A278
330
1F
100
AcDbEntity
  8
0
 62
     7
370
     0
100
AcDbSpline
210
0.0
220
0.0
230
1.0
 70
     8
 71
     3
 72
    14
 73
    10
 74
     0
 42
0.000000001
 43
0.0000000001
 40
0.0
 40
0.0
 40
0.0
 40
0.0
 40
1.0
 40
1.0
 40
1.0
 40
2.0
 40
2.0
 40
2.0
 40
3.0
 40
3.0
 40
3.0
 40
3.0
 10
18.62685690667251
 20
273.692504966286
 30
0.0
 10
18.7210354863592
 20
273.5674812639101
 30
0.0
 10
18.85465114491586
 20
273.472669027455
 30
0.0
 10
19.00390416372198
 20
273.4250588502681
 30
0.0
 10
19.15310348280127
 20
273.3776527320412
 30
0.0
 10
19.31687690755291
 20
273.3776527320412
 30
0.0
 10
19.46601262486462
 20
273.4250588502681
 30
0.0
 10
19.61515740631427
 20
273.472669027455
 30
0.0
 10
19.74888046432358
 20
273.5674812639101
 30
0.0
 10
19.84296238450321
 20
273.692504966286
 30
0.0
  0
SPLINE
  5
1A279
330
1F
100
AcDbEntity
  8
0
 62
     7
370
     0
100
AcDbSpline
210
0.0
220
0.0
230
1.0
 70
     9
 71
     3
 72
    29
 73
    25
 74
     0
 42
0.000000001
 43
0.0000000001
 40
0.0
 40
0.0
 40
0.0
 40
0.0
 40
1.0
 40
1.0
 40
1.0
 40
2.0
 40
2.0
 40
2.0
 40
3.0
 40
3.0
 40
3.0
 40
4.0
 40
4.0
 40
4.0
 40
5.0
 40
5.0
 40
5.0
 40
6.0
 40
6.0
 40
6.0
 40
7.0
 40
7.0
 40
7.0
 40
8.0
 40
8.0
 40
8.0
 40
8.0
 10
21.36480188308178
 20
280.327567947293
 30
0.0
 10
21.36480188308178
 20
280.885540321619
 30
0.0
 10
21.13510755460271
 20
281.439947034131
 30
0.0
 10
20.74054256682081
 20
281.8345118951871
 30
0.0
 10
20.34608585856051
 20
282.228871190597
 30
0.0
 10
19.79157174659667
 20
282.458566399146
 30
0.0
 10
19.23369603177707
 20
282.458566399146
 30
0.0
 10
18.67583105690306
 20
282.458566399146
 30
0.0
 10
18.12131694493928
 20
282.228871190597
 30
0.0
 10
17.72686023667848
 20
281.8345118951871
 30
0.0
 10
17.33228538902051
 20
281.439947034131
 30
0.0
 10
17.10265462014377
 20
280.885540321619
 30
0.0
 10
17.10265462014377
 20
280.327567947293
 30
0.0
 10
17.10265462014377
 20
279.7695955729661
 30
0.0
 10
17.33228538902051
 20
279.215188860455
 30
0.0
 10
17.72686023667848
 20
278.8206140127971
 30
0.0
 10
18.12131694493928
 20
278.426264703989
 30
0.0
 10
18.67583105690306
 20
278.1965701568821
 30
0.0
 10
19.23369603177707
 20
278.1965701568821
 30
0.0
 10
19.79157174659667
 20
278.1965701568821
 30
0.0
 10
20.34608585856051
 20
278.426264703989
 30
0.0
 10
20.74054256682081
 20
278.8206140127971
 30
0.0
 10
21.13510755460271
 20
279.215188860455
 30
0.0
 10
21.36480188308178
 20
279.7695955729661
 30
0.0
 10
21.36480188308178
 20
280.327567947293
 30
0.0
  0
SPLINE
  5
1A27A
330
1F
100
AcDbEntity
  8
0
 62
     7
370
     0
100
AcDbSpline
210
0.0
220
0.0
230
1.0
 70
     9
 71
     3
 72
    29
 73
    25
 74
     0
 42
0.000000001
 43
0.0000000001
 40
0.0
 40
0.0
 40
0.0
 40
0.0
 40
1.0
 40
1.0
 40
1.0
 40
2.0
 40
2.0
 40
2.0
 40
3.0
 40
3.0
 40
3.0
 40
4.0
 40
4.0
 40
4.0
 40
5.0
 40
5.0
 40
5.0
 40
6.0
 40
6.0
 40
6.0
 40
7.0
 40
7.0
 40
7.0
 40
8.0
 40
8.0
 40
8.0
 40
8.0
 10
19.23369603177707
 20
278.348862584034
 30
0.0
 10
18.71279794837079
 20
278.348862584034
 30
0.0
 10
18.20275794958798
 20
278.5599877619981
 30
0.0
 10
17.83446374789821
 20
278.9282282639621
 30
0.0
 10
17.46611584648241
 20
279.29668356483
 30
0.0
 10
17.25488260377648
 20
279.806723563613
 30
0.0
 10
17.25488260377648
 20
280.327567947293
 30
0.0
 10
17.25488260377648
 20
280.848412330973
 30
0.0
 10
17.46611584648241
 20
281.358559729208
 30
0.0
 10
17.83446374789821
 20
281.7269076306239
 30
0.0
 10
18.20275794958798
 20
282.095148132588
 30
0.0
 10
18.71279794837079
 20
282.306273975841
 30
0.0
 10
19.23369603177707
 20
282.306273975841
 30
0.0
 10
19.75455115540268
 20
282.306273975841
 30
0.0
 10
20.26459115418589
 20
282.095148132588
 30
0.0
 10
20.63293905560158
 20
281.7269076306239
 30
0.0
 10
21.00128783370661
 20
281.358559729208
 30
0.0
 10
21.21252019972241
 20
280.848412330973
 30
0.0
 10
21.21252019972241
 20
280.327567947293
 30
0.0
 10
21.21252019972241
 20
279.806723563613
 30
0.0
 10
21.00128783370661
 20
279.29668356483
 30
0.0
 10
20.63293905560158
 20
278.9282282639621
 30
0.0
 10
20.26459115418589
 20
278.5599877619981
 30
0.0
 10
19.75455115540268
 20
278.348862584034
 30
0.0
 10
19.23369603177707
 20
278.348862584034
 30
0.0
  0
SPLINE
  5
1A27B
330
1F
100
AcDbEntity
  8
0
 62
     7
370
     0
100
AcDbSpline
210
0.0
220
0.0
230
1.0
 70
     9
 71
     3
 72
    29
 73
    25
 74
     0
 42
0.000000001
 43
0.0000000001
 40
0.0
 40
0.0
 40
0.0
 40
0.0
 40
1.0
 40
1.0
 40
1.0
 40
2.0
 40
2.0
 40
2.0
 40
3.0
 40
3.0
 40
3.0
 40
4.0
 40
4.0
 40
4.0
 40
5.0
 40
5.0
 40
5.0
 40
6.0
 40
6.0
 40
6.0
 40
7.0
 40
7.0
 40
7.0
 40
8.0
 40
8.0
 40
8.0
 40
8.0
 10
21.04512741343029
 20
291.9267087913742
 30
0.0
 10
21.04512741343029
 20
292.4007807135951
 30
0.0
 10
20.84993964889327
 20
292.8722213492362
 30
0.0
 10
20.51462781899227
 20
293.2075331791369
 30
0.0
 10
20.17921932958421
 20
293.542941668545
 30
0.0
 10
19.70787619746449
 20
293.738023087681
 30
0.0
 10
19.23369603177707
 20
293.738023087681
 30
0.0
 10
18.75942005059687
 20
293.738023087681
 30
0.0
 10
18.28818347391558
 20
293.542941668545
 30
0.0
 10
17.95277498450747
 20
293.2075331791369
 30
0.0
 10
17.61746315460647
 20
292.8722213492362
 30
0.0
 10
17.42232908979537
 20
292.4007807135951
 30
0.0
 10
17.42232908979537
 20
291.9267087913742
 30
0.0
 10
17.42232908979537
 20
291.452432810194
 30
0.0
 10
17.61746315460647
 20
290.98108883406
 30
0.0
 10
17.95277498450747
 20
290.6456803446521
 30
0.0
 10
18.28818347391558
 20
290.310476881668
 30
0.0
 10
18.75942005059687
 20
290.1151807502141
 30
0.0
 10
19.23369603177707
 20
290.1151807502141
 30
0.0
 10
19.70787619746449
 20
290.1151807502141
 30
0.0
 10
20.17921932958421
 20
290.310476881668
 30
0.0
 10
20.51462781899227
 20
290.6456803446521
 30
0.0
 10
20.84993964889327
 20
290.98108883406
 30
0.0
 10
21.04512741343029
 20
291.452432810194
 30
0.0
 10
21.04512741343029
 20
291.9267087913742
 30
0.0
  0
LWPOLYLINE
  5
1A27C
330
1F
100
AcDbEntity
  8
0
 62
     7
370
     0
100
AcDbPolyline
 90
        2
 70
     0
 43
0.0
 10
19.23506000482126
 20
282.3064887747449
 10
19.23506000482126
 20
282.3064887747449
  0
SPLINE
  5
1A27D
330
1F
100
AcDbEntity
  8
0
 62
     7
370
     0
100
AcDbSpline
210
0.0
220
0.0
230
1.0
 70
     9
 71
     3
 72
    29
 73
    25
 74
     0
 42
0.000000001
 43
0.0000000001
 40
0.0
 40
0.0
 40
0.0
 40
0.0
 40
1.0
 40
1.0
 40
1.0
 40
2.0
 40
2.0
 40
2.0
 40
3.0
 40
3.0
 40
3.0
 40
4.0
 40
4.0
 40
4.0
 40
5.0
 40
5.0
 40
5.0
 40
6.0
 40
6.0
 40
6.0
 40
7.0
 40
7.0
 40
7.0
 40
8.0
 40
8.0
 40
8.0
 40
8.0
 10
15.81464595468788
 20
274.5433126871441
 30
0.0
 10
15.81464595468788
 20
275.00143637143
 30
0.0
 10
15.62595511134901
 20
275.4570457470821
 30
0.0
 10
15.30193096388081
 20
275.781134334222
 30
0.0
 10
14.977789401537
 20
276.105008122457
 30
0.0
 10
14.52239351954177
 20
276.2937948796401
 30
0.0
 10
14.06405561707749
 20
276.2937948796401
 30
0.0
 10
13.60587881379081
 20
276.2937948796401
 30
0.0
 10
13.15026885741378
 20
276.105008122457
 30
0.0
 10
12.82623396999958
 20
275.781134334222
 30
0.0
 10
12.50225278231221
 20
275.4570457470821
 30
0.0
 10
12.31351972485578
 20
275.00143637143
 30
0.0
 10
12.31351972485578
 20
274.5433126871441
 30
0.0
 10
12.31351972485578
 20
274.0848673852271
 30
0.0
 10
12.50225278231221
 20
273.6293648283021
 30
0.0
 10
12.82623396999958
 20
273.3054915779491
 30
0.0
 10
13.15026885741378
 20
272.981402452927
 30
0.0
 10
13.60587881379081
 20
272.7926156957441
 30
0.0
 10
14.06405561707749
 20
272.7926156957441
 30
0.0
 10
14.52239351954177
 20
272.7926156957441
 30
0.0
 10
14.977789401537
 20
272.981402452927
 30
0.0
 10
15.30193096388081
 20
273.3054915779491
 30
0.0
 10
15.62595511134901
 20
273.6293648283021
 30
0.0
 10
15.81464595468788
 20
274.0848673852271
 30
0.0
 10
15.81464595468788
 20
274.5433126871441
 30
0.0
  0
SPLINE
  5
1A27E
330
1F
100
AcDbEntity
  8
0
 62
     7
370
     0
100
AcDbSpline
210
0.0
220
0.0
230
1.0
 70
     9
 71
     3
 72
    29
 73
    25
 74
     0
 42
0.000000001
 43
0.0000000001
 40
0.0
 40
0.0
 40
0.0
 40
0.0
 40
1.0
 40
1.0
 40
1.0
 40
2.0
 40
2.0
 40
2.0
 40
3.0
 40
3.0
 40
3.0
 40
4.0
 40
4.0
 40
4.0
 40
5.0
 40
5.0
 40
5.0
 40
6.0
 40
6.0
 40
6.0
 40
7.0
 40
7.0
 40
7.0
 40
8.0
 40
8.0
 40
8.0
 40
8.0
 10
25.99221468315687
 20
291.9267087913742
 30
0.0
 10
25.99221468315687
 20
292.4007807135951
 30
0.0
 10
25.79702691861991
 20
292.8722213492362
 30
0.0
 10
25.4617150887189
 20
293.2075331791369
 30
0.0
 10
25.12630659931079
 20
293.542941668545
 30
0.0
 10
24.6550700226299
 20
293.738023087681
 30
0.0
 10
24.18078330150371
 20
293.738023087681
 30
0.0
 10
23.7066147197757
 20
293.738023087681
 30
0.0
 10
23.23527074364262
 20
293.542941668545
 30
0.0
 10
22.8999696536867
 20
293.2075331791369
 30
0.0
 10
22.56465782378569
 20
292.8722213492362
 30
0.0
 10
22.36936265979608
 20
292.4007807135951
 30
0.0
 10
22.36936265979608
 20
291.9267087913742
 30
0.0
 10
22.36936265979608
 20
291.452432810194
 30
0.0
 10
22.56465782378569
 20
290.98108883406
 30
0.0
 10
22.8999696536867
 20
290.6456803446521
 30
0.0
 10
23.23527074364262
 20
290.310476881668
 30
0.0
 10
23.7066147197757
 20
290.1151807502141
 30
0.0
 10
24.18078330150371
 20
290.1151807502141
 30
0.0
 10
24.6550700226299
 20
290.1151807502141
 30
0.0
 10
25.12630659931079
 20
290.310476881668
 30
0.0
 10
25.4617150887189
 20
290.6456803446521
 30
0.0
 10
25.79702691861991
 20
290.98108883406
 30
0.0
 10
25.99221468315687
 20
291.452432810194
 30
0.0
 10
25.99221468315687
 20
291.9267087913742
 30
0.0
  0
SPLINE
  5
1A27F
330
1F
100
AcDbEntity
  8
0
 62
     7
370
     0
100
AcDbSpline
210
0.0
220
0.0
230
1.0
 70
     9
 71
     3
 72
    29
 73
    25
 74
     0
 42
0.000000001
 43
0.0000000001
 40
0.0
 40
0.0
 40
0.0
 40
0.0
 40
1.0
 40
1.0
 40
1.0
 40
2.0
 40
2.0
 40
2.0
 40
3.0
 40
3.0
 40
3.0
 40
4.0
 40
4.0
 40
4.0
 40
5.0
 40
5.0
 40
5.0
 40
6.0
 40
6.0
 40
6.0
 40
7.0
 40
7.0
 40
7.0
 40
8.0
 40
8.0
 40
8.0
 40
8.0
 10
26.06248714931559
 20
274.5433126871441
 30
0.0
 10
26.06248714931559
 20
274.977517932687
 30
0.0
 10
25.88376271626481
 20
275.4092207709911
 30
0.0
 10
25.57655732302021
 20
275.7165228237421
 30
0.0
 10
25.26936266972098
 20
276.0236208175351
 30
0.0
 10
24.8376705713618
 20
276.202333506095
 30
0.0
 10
24.40334718642231
 20
276.202333506095
 30
0.0
 10
23.96892714197571
 20
276.202333506095
 30
0.0
 10
23.53723504361648
 20
276.0236208175351
 30
0.0
 10
23.23002965037182
 20
275.7165228237421
 30
0.0
 10
22.92293165657981
 20
275.4092207709911
 30
0.0
 10
22.74411156856701
 20
274.977517932687
 30
0.0
 10
22.74411156856701
 20
274.5433126871441
 30
0.0
 10
22.74411156856701
 20
274.1088819027531
 30
0.0
 10
22.92293165657981
 20
273.6771898043941
 30
0.0
 10
23.23002965037182
 20
273.3700918106021
 30
0.0
 10
23.53723504361648
 20
273.0627897578501
 30
0.0
 10
23.96892714197571
 20
272.8840663293441
 30
0.0
 10
24.40334718642231
 20
272.8840663293441
 30
0.0
 10
24.8376705713618
 20
272.8840663293441
 30
0.0
 10
25.26936266972098
 20
273.0627897578501
 30
0.0
 10
25.57655732302021
 20
273.3700918106021
 30
0.0
 10
25.88376271626481
 20
273.6771898043941
 30
0.0
 10
26.06248714931559
 20
274.1088819027531
 30
0.0
 10
26.06248714931559
 20
274.5433126871441
 30
0.0
  0
SPLINE
  5
1A280
330
1F
100
AcDbEntity
  8
0
 62
     7
370
     0
100
AcDbSpline
210
0.0
220
0.0
230
1.0
 70
     9
 71
     3
 72
    29
 73
    25
 74
     0
 42
0.000000001
 43
0.0000000001
 40
0.0
 40
0.0
 40
0.0
 40
0.0
 40
1.0
 40
1.0
 40
1.0
 40
2.0
 40
2.0
 40
2.0
 40
3.0
 40
3.0
 40
3.0
 40
4.0
 40
4.0
 40
4.0
 40
5.0
 40
5.0
 40
5.0
 40
6.0
 40
6.0
 40
6.0
 40
7.0
 40
7.0
 40
7.0
 40
8.0
 40
8.0
 40
8.0
 40
8.0
 10
26.1538293789182
 20
274.5433126871441
 30
0.0
 10
26.1538293789182
 20
275.00143637143
 30
0.0
 10
25.96515002118758
 20
275.4570457470821
 30
0.0
 10
25.64106143404757
 20
275.781134334222
 30
0.0
 10
25.31708024636021
 20
276.105008122457
 30
0.0
 10
24.86157768943491
 20
276.2937948796401
 30
0.0
 10
24.40334718642231
 20
276.2937948796401
 30
0.0
 10
23.94500928395752
 20
276.2937948796401
 30
0.0
 10
23.48950672703268
 20
276.105008122457
 30
0.0
 10
23.16552553934491
 20
275.781134334222
 30
0.0
 10
22.8414369522053
 20
275.4570457470821
 30
0.0
 10
22.65275759447468
 20
275.00143637143
 30
0.0
 10
22.65275759447468
 20
274.5433126871441
 30
0.0
 10
22.65275759447468
 20
274.0848673852271
 30
0.0
 10
22.8414369522053
 20
273.6293648283021
 30
0.0
 10
23.16552553934491
 20
273.3054915779491
 30
0.0
 10
23.48950672703268
 20
272.981402452927
 30
0.0
 10
23.94500928395752
 20
272.7926156957441
 30
0.0
 10
24.40334718642231
 20
272.7926156957441
 30
0.0
 10
24.86157768943491
 20
272.7926156957441
 30
0.0
 10
25.31708024636021
 20
272.981402452927
 30
0.0
 10
25.64106143404757
 20
273.3054915779491
 30
0.0
 10
25.96515002118758
 20
273.6293648283021
 30
0.0
 10
26.1538293789182
 20
274.0848673852271
 30
0.0
 10
26.1538293789182
 20
274.5433126871441
 30
0.0
  0
SPLINE
  5
1A281
330
1F
100
AcDbEntity
  8
0
 62
     7
370
     0
100
AcDbSpline
210
0.0
220
0.0
230
1.0
 70
     8
 71
     3
 72
    38
 73
    34
 74
     0
 42
0.000000001
 43
0.0000000001
 40
0.0
 40
0.0
 40
0.0
 40
0.0
 40
1.0
 40
1.0
 40
1.0
 40
2.0
 40
2.0
 40
2.0
 40
3.0
 40
3.0
 40
3.0
 40
4.0
 40
4.0
 40
4.0
 40
5.0
 40
5.0
 40
5.0
 40
6.0
 40
6.0
 40
6.0
 40
7.0
 40
7.0
 40
7.0
 40
8.0
 40
8.0
 40
8.0
 40
9.0
 40
9.0
 40
9.0
 40
10.0
 40
10.0
 40
10.0
 40
11.0
 40
11.0
 40
11.0
 40
11.0
 10
17.56418307620021
 20
276.9786704467571
 30
0.0
 10
17.41425343705771
 20
276.9786704467571
 30
0.0
 10
17.26506407185121
 20
276.920986830166
 30
0.0
 10
17.1542493170092
 20
276.8199877560431
 30
0.0
 10
17.04339160238681
 20
276.7189893111371
 30
0.0
 10
16.97197096663336
 20
276.575922500782
 30
0.0
 10
16.95791315287721
 20
276.426572822469
 30
0.0
 10
16.94406858893677
 20
276.277437943061
 30
0.0
 10
16.98765128666361
 20
276.1234700883011
 30
0.0
 10
17.07779164694517
 20
276.00368808524
 30
0.0
 10
17.07779164694517
 20
276.00368808524
 30
0.0
 10
18.7484653064667
 20
273.7841709487651
 30
0.0
 10
18.7484653064667
 20
273.7841709487651
 30
0.0
 10
18.82377380239092
 20
273.684117069064
 30
0.0
 10
18.93074365684248
 20
273.608174916371
 30
0.0
 10
19.0500545357537
 20
273.570209209997
 30
0.0
 10
19.16935301992817
 20
273.5320394446641
 30
0.0
 10
19.30051006475156
 20
273.5320394446641
 30
0.0
 10
19.41986224232471
 20
273.570209209997
 30
0.0
 10
19.53911859411437
 20
273.608174916371
 30
0.0
 10
19.64609918851062
 20
273.6839022701601
 30
0.0
 10
19.72140852879062
 20
273.783966339831
 30
0.0
 10
19.72140852879062
 20
273.783966339831
 30
0.0
 10
21.39228540291521
 20
276.00368808524
 30
0.0
 10
21.39228540291521
 20
276.00368808524
 30
0.0
 10
21.4824794629231
 20
276.1234700883011
 30
0.0
 10
21.52600846092452
 20
276.277437943061
 30
0.0
 10
21.51205727207577
 20
276.426572822469
 30
0.0
 10
21.49801031295698
 20
276.575922500782
 30
0.0
 10
21.4265780480219
 20
276.7189893111371
 30
0.0
 10
21.3157203333995
 20
276.8199877560431
 30
0.0
 10
21.2049592782833
 20
276.920986830166
 30
0.0
 10
21.05571699942271
 20
276.9786704467571
 30
0.0
 10
20.90584106379447
 20
276.9786704467571
 30
0.0
  0
SPLINE
  5
1A282
330
1F
100
AcDbEntity
  8
0
 62
     7
370
     0
100
AcDbSpline
210
0.0
220
0.0
230
1.0
 70
     8
 71
     3
 72
    32
 73
    28
 74
     0
 42
0.000000001
 43
0.0000000001
 40
0.0
 40
0.0
 40
0.0
 40
0.0
 40
1.0
 40
1.0
 40
1.0
 40
2.0
 40
2.0
 40
2.0
 40
3.0
 40
3.0
 40
3.0
 40
4.0
 40
4.0
 40
4.0
 40
5.0
 40
5.0
 40
5.0
 40
6.0
 40
6.0
 40
6.0
 40
7.0
 40
7.0
 40
7.0
 40
8.0
 40
8.0
 40
8.0
 40
9.0
 40
9.0
 40
9.0
 40
9.0
 10
18.62685690667251
 20
273.692504966286
 30
0.0
 10
18.62685690667251
 20
273.692504966286
 30
0.0
 10
16.95612954742506
 20
275.9122368455961
 30
0.0
 10
16.95612954742506
 20
275.9122368455961
 30
0.0
 10
16.84348900189531
 20
276.0617911903811
 30
0.0
 10
16.7890052597632
 20
276.2543584131471
 30
0.0
 10
16.80641471097448
 20
276.440835469729
 30
0.0
 10
16.82392082169287
 20
276.6275279375931
 30
0.0
 10
16.91318050646629
 20
276.8064554250581
 30
0.0
 10
17.05172579988181
 20
276.932531642066
 30
0.0
 10
17.19028183324286
 20
277.058801178088
 30
0.0
 10
17.3767058024751
 20
277.130962870062
 30
0.0
 10
17.56412858661457
 20
277.130962870062
 30
0.0
 10
17.56412858661457
 20
277.130962870062
 30
0.0
 10
20.90584106379447
 20
277.130962870062
 30
0.0
 10
20.90584106379447
 20
277.130962870062
 30
0.0
 10
21.0931564484809
 20
277.130962870062
 30
0.0
 10
21.27964485738551
 20
277.058801178088
 30
0.0
 10
21.4182975502527
 20
276.932531642066
 30
0.0
 10
21.55684284366816
 20
276.8064554250581
 30
0.0
 10
21.6461025284417
 20
276.6275279375931
 30
0.0
 10
21.66360863915997
 20
276.440835469729
 30
0.0
 10
21.6809214308642
 20
276.2543584131471
 30
0.0
 10
21.62658804796598
 20
276.0617911903811
 30
0.0
 10
21.51384010298358
 20
275.9120220466911
 30
0.0
 10
21.51384010298358
 20
275.9120220466911
 30
0.0
 10
19.84296238450321
 20
273.692504966286
 30
0.0
 10
19.84296238450321
 20
273.692504966286
 30
0.0
  0
SPLINE
  5
1A283
330
1F
100
AcDbEntity
  8
0
 62
     7
370
     0
100
AcDbSpline
210
0.0
220
0.0
230
1.0
 70
     9
 71
     3
 72
    41
 73
    37
 74
     0
 42
0.000000001
 43
0.0000000001
 40
0.0
 40
0.0
 40
0.0
 40
0.0
 40
1.0
 40
1.0
 40
1.0
 40
2.0
 40
2.0
 40
2.0
 40
3.0
 40
3.0
 40
3.0
 40
4.0
 40
4.0
 40
4.0
 40
5.0
 40
5.0
 40
5.0
 40
6.0
 40
6.0
 40
6.0
 40
7.0
 40
7.0
 40
7.0
 40
8.0
 40
8.0
 40
8.0
 40
9.0
 40
9.0
 40
9.0
 40
10.0
 40
10.0
 40
10.0
 40
11.0
 40
11.0
 40
11.0
 40
12.0
 40
12.0
 40
12.0
 40
12.0
 10
20.43208059998511
 20
271.6359772946302
 30
0.0
 10
20.27266759299528
 20
271.6359772946302
 30
0.0
 10
20.11418896124047
 20
271.570313269519
 30
0.0
 10
20.00154841571032
 20
271.457457925084
 30
0.0
 10
19.88880047072792
 20
271.3448173795531
 30
0.0
 10
19.82324384506779
 20
271.186338747798
 30
0.0
 10
19.82324384506779
 20
271.027022400316
 30
0.0
 10
19.82324384506779
 20
271.027022400316
 30
0.0
 10
19.82324384506779
 20
269.2003939961681
 30
0.0
 10
19.82324384506779
 20
269.2003939961681
 30
0.0
 10
19.82324384506779
 20
269.0409702492331
 30
0.0
 10
19.88880047072792
 20
268.8825990169311
 30
0.0
 10
20.00154841571032
 20
268.7697544124411
 30
0.0
 10
20.11418896124047
 20
268.657103126966
 30
0.0
 10
20.27266759299528
 20
268.5914498417991
 30
0.0
 10
20.43208059998511
 20
268.5914498417991
 30
0.0
 10
20.43208059998511
 20
268.5914498417991
 30
0.0
 10
25.75979152852096
 20
268.5914498417991
 30
0.0
 10
25.75979152852096
 20
268.5914498417991
 30
0.0
 10
25.91921627638118
 20
268.5914498417991
 30
0.0
 10
26.07758650775861
 20
268.657103126966
 30
0.0
 10
26.19033445274101
 20
268.7697544124411
 30
0.0
 10
26.30308239772341
 20
268.8825990169311
 30
0.0
 10
26.36862828343789
 20
269.0409702492331
 30
0.0
 10
26.36862828343789
 20
269.2003939961681
 30
0.0
 10
26.36862828343789
 20
269.2003939961681
 30
0.0
 10
26.36862828343789
 20
271.027022400316
 30
0.0
 10
26.36862828343789
 20
271.027022400316
 30
0.0
 10
26.36862828343789
 20
271.186338747798
 30
0.0
 10
26.30308239772341
 20
271.3448173795531
 30
0.0
 10
26.19033445274101
 20
271.457457925084
 30
0.0
 10
26.07758650775861
 20
271.570313269519
 30
0.0
 10
25.91921627638118
 20
271.6359772946302
 30
0.0
 10
25.75979152852096
 20
271.6359772946302
 30
0.0
 10
25.75979152852096
 20
271.6359772946302
 30
0.0
 10
20.43208059998511
 20
271.6359772946302
 30
0.0
 10
20.43208059998511
 20
271.6359772946302
 30
0.0
  0
SPLINE
  5
1A284
330
1F
100
AcDbEntity
  8
0
 62
     7
370
     0
100
AcDbSpline
210
0.0
220
0.0
230
1.0
 70
     9
 71
     3
 72
    41
 73
    37
 74
     0
 42
0.000000001
 43
0.0000000001
 40
0.0
 40
0.0
 40
0.0
 40
0.0
 40
1.0
 40
1.0
 40
1.0
 40
2.0
 40
2.0
 40
2.0
 40
3.0
 40
3.0
 40
3.0
 40
4.0
 40
4.0
 40
4.0
 40
5.0
 40
5.0
 40
5.0
 40
6.0
 40
6.0
 40
6.0
 40
7.0
 40
7.0
 40
7.0
 40
8.0
 40
8.0
 40
8.0
 40
9.0
 40
9.0
 40
9.0
 40
10.0
 40
10.0
 40
10.0
 40
11.0
 40
11.0
 40
11.0
 40
12.0
 40
12.0
 40
12.0
 40
12.0
 10
19.72140852879062
 20
286.8711695547551
 30
0.0
 10
19.64609918851062
 20
286.971233624426
 30
0.0
 10
19.53911859411437
 20
287.046950238269
 30
0.0
 10
19.41986224232471
 20
287.0849266845881
 30
0.0
 10
19.30051006475156
 20
287.123096449921
 30
0.0
 10
19.16935301992817
 20
287.123096449921
 30
0.0
 10
19.0500545357537
 20
287.0849266845881
 30
0.0
 10
18.93074365684248
 20
287.046950238269
 30
0.0
 10
18.82377380239092
 20
286.9710188255211
 30
0.0
 10
18.7484653064667
 20
286.870965495796
 30
0.0
 10
18.7484653064667
 20
286.870965495796
 30
0.0
 10
17.07779164694517
 20
284.6514484153901
 30
0.0
 10
17.07779164694517
 20
284.6514484153901
 30
0.0
 10
16.98765128666361
 20
284.5316658062851
 30
0.0
 10
16.94406858893677
 20
284.377697951525
 30
0.0
 10
16.95802055233167
 20
284.228563072117
 30
0.0
 10
16.97197096663336
 20
284.0792026538589
 30
0.0
 10
17.04339160238681
 20
283.936146583448
 30
0.0
 10
17.1542493170092
 20
283.8350415429721
 30
0.0
 10
17.26506407185121
 20
283.734138953692
 30
0.0
 10
17.41425343705771
 20
283.6764547078841
 30
0.0
 10
17.56418307620021
 20
283.6764547078841
 30
0.0
 10
17.56418307620021
 20
283.6764547078841
 30
0.0
 10
20.90584106379447
 20
283.6764547078841
 30
0.0
 10
20.90584106379447
 20
283.6764547078841
 30
0.0
 10
21.05571699942271
 20
283.6764547078841
 30
0.0
 10
21.2049592782833
 20
283.734138953692
 30
0.0
 10
21.3157203333995
 20
283.8350415429721
 30
0.0
 10
21.4265780480219
 20
283.936146583448
 30
0.0
 10
21.49801031295698
 20
284.0792026538589
 30
0.0
 10
21.51205727207577
 20
284.228563072117
 30
0.0
 10
21.52600846092452
 20
284.377697951525
 30
0.0
 10
21.4824794629231
 20
284.5316658062851
 30
0.0
 10
21.39228540291521
 20
284.6514484153901
 30
0.0
 10
21.39228540291521
 20
284.6514484153901
 30
0.0
 10
19.72140852879062
 20
286.8711695547551
 30
0.0
 10
19.72140852879062
 20
286.8711695547551
 30
0.0
  0
SPLINE
  5
1A285
330
1F
100
AcDbEntity
  8
0
 62
     7
370
     0
100
AcDbSpline
210
0.0
220
0.0
230
1.0
 70
     9
 71
     3
 72
    41
 73
    37
 74
     0
 42
0.000000001
 43
0.0000000001
 40
0.0
 40
0.0
 40
0.0
 40
0.0
 40
1.0
 40
1.0
 40
1.0
 40
2.0
 40
2.0
 40
2.0
 40
3.0
 40
3.0
 40
3.0
 40
4.0
 40
4.0
 40
4.0
 40
5.0
 40
5.0
 40
5.0
 40
6.0
 40
6.0
 40
6.0
 40
7.0
 40
7.0
 40
7.0
 40
8.0
 40
8.0
 40
8.0
 40
9.0
 40
9.0
 40
9.0
 40
10.0
 40
10.0
 40
10.0
 40
11.0
 40
11.0
 40
11.0
 40
12.0
 40
12.0
 40
12.0
 40
12.0
 10
19.84296238450321
 20
286.9626309283
 30
0.0
 10
19.74888046432358
 20
287.08764389073
 30
0.0
 10
19.61515740631427
 20
287.182467755575
 30
0.0
 10
19.46601262486462
 20
287.2300770443181
 30
0.0
 10
19.31687690755291
 20
287.2774831625451
 30
0.0
 10
19.15305061307311
 20
287.2774831625451
 30
0.0
 10
19.00395786344791
 20
287.2300770443181
 30
0.0
 10
18.85465114491586
 20
287.182467755575
 30
0.0
 10
18.7210900051715
 20
287.08764389073
 30
0.0
 10
18.62685690667251
 20
286.9626309283
 30
0.0
 10
18.62685690667251
 20
286.9626309283
 30
0.0
 10
16.9561832471519
 20
284.7428990489901
 30
0.0
 10
16.9561832471519
 20
284.7428990489901
 30
0.0
 10
16.84338160244272
 20
284.593334571773
 30
0.0
 10
16.78895156003728
 20
284.400778093816
 30
0.0
 10
16.80645767075566
 20
284.214289684911
 30
0.0
 10
16.8239745214197
 20
284.0276087657391
 30
0.0
 10
16.91323497960826
 20
283.8486697295831
 30
0.0
 10
17.05172579988181
 20
283.72260425252
 30
0.0
 10
17.19028183324286
 20
283.5963239765521
 30
0.0
 10
17.37675950220188
 20
283.524173024524
 30
0.0
 10
17.56418307620021
 20
283.524173024524
 30
0.0
 10
17.56418307620021
 20
283.524173024524
 30
0.0
 10
20.90584106379447
 20
283.524173024524
 30
0.0
 10
20.90584106379447
 20
283.524173024524
 30
0.0
 10
21.0931564484809
 20
283.524173024524
 30
0.0
 10
21.27964485738551
 20
283.5963239765521
 30
0.0
 10
21.4182975502527
 20
283.72260425252
 30
0.0
 10
21.55684284366816
 20
283.8486697295831
 30
0.0
 10
21.6461025284417
 20
284.0276087657391
 30
0.0
 10
21.66360863915997
 20
284.214289684911
 30
0.0
 10
21.6810288303169
 20
284.400778093816
 30
0.0
 10
21.62658804796598
 20
284.593334571773
 30
0.0
 10
21.51384010298358
 20
284.7431138478941
 30
0.0
 10
21.51384010298358
 20
284.7431138478941
 30
0.0
 10
19.84296238450321
 20
286.9626309283
 30
0.0
 10
19.84296238450321
 20
286.9626309283
 30
0.0
  0
SPLINE
  5
1A286
330
1F
100
AcDbEntity
  8
0
 62
     7
370
     0
100
AcDbSpline
210
0.0
220
0.0
230
1.0
 70
     9
 71
     3
 72
    41
 73
    37
 74
     0
 42
0.000000001
 43
0.0000000001
 40
0.0
 40
0.0
 40
0.0
 40
0.0
 40
1.0
 40
1.0
 40
1.0
 40
2.0
 40
2.0
 40
2.0
 40
3.0
 40
3.0
 40
3.0
 40
4.0
 40
4.0
 40
4.0
 40
5.0
 40
5.0
 40
5.0
 40
6.0
 40
6.0
 40
6.0
 40
7.0
 40
7.0
 40
7.0
 40
8.0
 40
8.0
 40
8.0
 40
9.0
 40
9.0
 40
9.0
 40
10.0
 40
10.0
 40
10.0
 40
11.0
 40
11.0
 40
11.0
 40
12.0
 40
12.0
 40
12.0
 40
12.0
 10
18.0353114635692
 20
271.6359772946302
 30
0.0
 10
18.19468151077859
 20
271.6359772946302
 30
0.0
 10
18.35310644280707
 20
271.570313269519
 30
0.0
 10
18.46585438778948
 20
271.457457925084
 30
0.0
 10
18.57865603249832
 20
271.3448173795531
 30
0.0
 10
18.644158958432
 20
271.186338747798
 30
0.0
 10
18.644158958432
 20
271.027022400316
 30
0.0
 10
18.644158958432
 20
271.027022400316
 30
0.0
 10
18.644158958432
 20
269.2003939961681
 30
0.0
 10
18.644158958432
 20
269.2003939961681
 30
0.0
 10
18.644158958432
 20
269.0409702492331
 30
0.0
 10
18.57865603249832
 20
268.8825990169311
 30
0.0
 10
18.46585438778948
 20
268.7697544124411
 30
0.0
 10
18.35310644280707
 20
268.657103126966
 30
0.0
 10
18.19468151077859
 20
268.5914498417991
 30
0.0
 10
18.0353114635692
 20
268.5914498417991
 30
0.0
 10
18.0353114635692
 20
268.5914498417991
 30
0.0
 10
12.7076649747051
 20
268.5914498417991
 30
0.0
 10
12.7076649747051
 20
268.5914498417991
 30
0.0
 10
12.54818752804391
 20
268.5914498417991
 30
0.0
 10
12.38986999546711
 20
268.657103126966
 30
0.0
 10
12.27706835075878
 20
268.7697544124411
 30
0.0
 10
12.16432040577638
 20
268.8825990169311
 30
0.0
 10
12.09881747984218
 20
269.0409702492331
 30
0.0
 10
12.09881747984218
 20
269.2003939961681
 30
0.0
 10
12.09881747984218
 20
269.2003939961681
 30
0.0
 10
12.09881747984218
 20
271.027022400316
 30
0.0
 10
12.09881747984218
 20
271.027022400316
 30
0.0
 10
12.09881747984218
 20
271.186338747798
 30
0.0
 10
12.16432040577638
 20
271.3448173795531
 30
0.0
 10
12.27706835075878
 20
271.457457925084
 30
0.0
 10
12.38986999546711
 20
271.570313269519
 30
0.0
 10
12.54818752804391
 20
271.6359772946302
 30
0.0
 10
12.7076649747051
 20
271.6359772946302
 30
0.0
 10
12.7076649747051
 20
271.6359772946302
 30
0.0
 10
18.0353114635692
 20
271.6359772946302
 30
0.0
 10
18.0353114635692
 20
271.6359772946302
 30
0.0
  0
SPLINE
  5
1A287
330
1F
100
AcDbEntity
  8
0
 62
     7
370
     0
100
AcDbSpline
210
0.0
220
0.0
230
1.0
 70
     9
 71
     3
 72
    41
 73
    37
 74
     0
 42
0.000000001
 43
0.0000000001
 40
0.0
 40
0.0
 40
0.0
 40
0.0
 40
1.0
 40
1.0
 40
1.0
 40
2.0
 40
2.0
 40
2.0
 40
3.0
 40
3.0
 40
3.0
 40
4.0
 40
4.0
 40
4.0
 40
5.0
 40
5.0
 40
5.0
 40
6.0
 40
6.0
 40
6.0
 40
7.0
 40
7.0
 40
7.0
 40
8.0
 40
8.0
 40
8.0
 40
9.0
 40
9.0
 40
9.0
 40
10.0
 40
10.0
 40
10.0
 40
11.0
 40
11.0
 40
11.0
 40
12.0
 40
12.0
 40
12.0
 40
12.0
 10
12.29542291714966
 20
326.780193837698
 30
0.0
 10
12.29542291714966
 20
326.780193837698
 30
0.0
 10
24.2249459562737
 20
326.780193837698
 30
0.0
 10
24.2249459562737
 20
326.780193837698
 30
0.0
 10
24.24885307434681
 20
326.780193837698
 30
0.0
 10
24.27255613346011
 20
326.7703882677062
 30
0.0
 10
24.28945006730061
 20
326.75344063414
 30
0.0
 10
24.30633326119602
 20
326.7365574402442
 30
0.0
 10
24.31619253091327
 20
326.712854381131
 30
0.0
 10
24.31619253091327
 20
326.688893563332
 30
0.0
 10
24.31619253091327
 20
326.688893563332
 30
0.0
 10
24.31619253091327
 20
302.2012921907329
 30
0.0
 10
24.31619253091327
 20
302.2012921907329
 30
0.0
 10
24.31619253091327
 20
302.177320632988
 30
0.0
 10
24.30633326119602
 20
302.1535638741481
 30
0.0
 10
24.28945006730061
 20
302.136734379979
 30
0.0
 10
24.27255613346011
 20
302.1197437866321
 30
0.0
 10
24.24885307434681
 20
302.1098845169141
 30
0.0
 10
24.2249459562737
 20
302.1098845169141
 30
0.0
 10
24.2249459562737
 20
302.1098845169141
 30
0.0
 10
12.29542291714966
 20
302.1098845169141
 30
0.0
 10
12.29542291714966
 20
302.1098845169141
 30
0.0
 10
12.27146209935017
 20
302.1098845169141
 30
0.0
 10
12.24785569974398
 20
302.1197437866321
 30
0.0
 10
12.23076844688927
 20
302.136734379979
 30
0.0
 10
12.2139282127747
 20
302.1535638741481
 30
0.0
 10
12.20412264278372
 20
302.177320632988
 30
0.0
 10
12.20412264278372
 20
302.2012921907329
 30
0.0
 10
12.20412264278372
 20
302.2012921907329
 30
0.0
 10
12.20412264278372
 20
326.688893563332
 30
0.0
 10
12.20412264278372
 20
326.688893563332
 30
0.0
 10
12.20412264278372
 20
326.712854381131
 30
0.0
 10
12.2139282127747
 20
326.7365574402442
 30
0.0
 10
12.23076844688927
 20
326.75344063414
 30
0.0
 10
12.24785569974398
 20
326.7703882677062
 30
0.0
 10
12.27146209935017
 20
326.780193837698
 30
0.0
 10
12.29542291714966
 20
326.780193837698
 30
0.0
  0
SPLINE
  5
1A288
330
1F
100
AcDbEntity
  8
0
 62
     7
370
     0
100
AcDbSpline
210
0.0
220
0.0
230
1.0
 70
     9
 71
     3
 72
    29
 73
    25
 74
     0
 42
0.000000001
 43
0.0000000001
 40
0.0
 40
0.0
 40
0.0
 40
0.0
 40
1.0
 40
1.0
 40
1.0
 40
2.0
 40
2.0
 40
2.0
 40
3.0
 40
3.0
 40
3.0
 40
4.0
 40
4.0
 40
4.0
 40
5.0
 40
5.0
 40
5.0
 40
6.0
 40
6.0
 40
6.0
 40
7.0
 40
7.0
 40
7.0
 40
8.0
 40
8.0
 40
8.0
 40
8.0
 10
26.32572795902257
 20
274.5423675719641
 30
0.0
 10
26.32572795902257
 20
275.0405614111631
 30
0.0
 10
26.1206809247679
 20
275.53560844641
 30
0.0
 10
25.76848590097148
 20
275.8878040704911
 30
0.0
 10
25.41619421766796
 20
276.2399984940031
 30
0.0
 10
24.92114718242021
 20
276.4451421877651
 30
0.0
 10
24.42295334322176
 20
276.4451421877651
 30
0.0
 10
23.92486690347602
 20
276.4451421877651
 30
0.0
 10
23.42972320872201
 20
276.2399984940031
 30
0.0
 10
23.0775281849256
 20
275.8878040704911
 30
0.0
 10
22.72522668369089
 20
275.53560844641
 30
0.0
 10
22.52017872742186
 20
275.0405614111631
 30
0.0
 10
22.52017872742186
 20
274.5423675719641
 30
0.0
 10
22.52017872742186
 20
274.044185026422
 30
0.0
 10
22.72522668369089
 20
273.5491374374641
 30
0.0
 10
23.0775281849256
 20
273.1967276147631
 30
0.0
 10
23.42972320872201
 20
272.844533114372
 30
0.0
 10
23.92486690347602
 20
272.6395929561651
 30
0.0
 10
24.42295334322176
 20
272.6395929561651
 30
0.0
 10
24.92114718242021
 20
272.6395929561651
 30
0.0
 10
25.41619421766796
 20
272.844533114372
 30
0.0
 10
25.76848590097148
 20
273.1967276147631
 30
0.0
 10
26.1206809247679
 20
273.5491374374641
 30
0.0
 10
26.32572795902257
 20
274.044185026422
 30
0.0
 10
26.32572795902257
 20
274.5423675719641
 30
0.0
  0
SPLINE
  5
1A289
330
1F
100
AcDbEntity
  8
0
 62
     7
370
     0
100
AcDbSpline
210
0.0
220
0.0
230
1.0
 70
     9
 71
     3
 72
    44
 73
    40
 74
     0
 42
0.000000001
 43
0.0000000001
 40
0.0
 40
0.0
 40
0.0
 40
0.0
 40
1.0
 40
1.0
 40
1.0
 40
2.0
 40
2.0
 40
2.0
 40
3.0
 40
3.0
 40
3.0
 40
4.0
 40
4.0
 40
4.0
 40
5.0
 40
5.0
 40
5.0
 40
6.0
 40
6.0
 40
6.0
 40
7.0
 40
7.0
 40
7.0
 40
8.0
 40
8.0
 40
8.0
 40
9.0
 40
9.0
 40
9.0
 40
10.0
 40
10.0
 40
10.0
 40
11.0
 40
11.0
 40
11.0
 40
12.0
 40
12.0
 40
12.0
 40
13.0
 40
13.0
 40
13.0
 40
13.0
 10
14.0508347445039
 20
287.761618413443
 30
0.0
 10
14.0508347445039
 20
287.761618413443
 30
0.0
 10
12.49705464882311
 20
286.5920813381121
 30
0.0
 10
12.49705464882311
 20
286.5920813381121
 30
0.0
 10
12.41671985853196
 20
286.5315617467639
 30
0.0
 10
12.35563170836758
 20
286.4454596058871
 30
0.0
 10
12.32478592739801
 20
286.349380055895
 30
0.0
 10
12.30963186468398
 20
286.301555079804
 30
0.0
 10
12.30193198088097
 20
286.2515292798681
 30
0.0
 10
12.30193198088097
 20
286.2004492354459
 30
0.0
 10
12.30193198088097
 20
286.149584854856
 30
0.0
 10
12.30963186468398
 20
286.0994516516261
 30
0.0
 10
12.32478592739801
 20
286.0517224739571
 30
0.0
 10
12.35563170836758
 20
285.9556536639101
 30
0.0
 10
12.41671985853196
 20
285.8693367241291
 30
0.0
 10
12.49705464882311
 20
285.808924532232
 30
0.0
 10
12.49705464882311
 20
285.808924532232
 30
0.0
 10
14.0508347445039
 20
284.6394841164091
 30
0.0
 10
14.0508347445039
 20
284.6394841164091
 30
0.0
 10
14.14706465372922
 20
284.566903566572
 30
0.0
 10
14.27119694065101
 20
284.5317732057371
 30
0.0
 10
14.39138837738398
 20
284.542996448498
 30
0.0
 10
14.51132063601386
 20
284.554327090712
 30
0.0
 10
14.62679652708357
 20
284.611796537616
 30
0.0
 10
14.70797977304761
 20
284.7010562223901
 30
0.0
 10
14.78920597879187
 20
284.7901977677651
 30
0.0
 10
14.83567772178418
 20
284.9105066341871
 30
0.0
 10
14.83567772178418
 20
285.031008819623
 30
0.0
 10
14.83567772178418
 20
285.031008819623
 30
0.0
 10
14.83567772178418
 20
287.369997050722
 30
0.0
 10
14.83567772178418
 20
287.369997050722
 30
0.0
 10
14.83567772178418
 20
287.4906066356101
 30
0.0
 10
14.78920597879187
 20
287.6107973626341
 30
0.0
 10
14.70797977304761
 20
287.7000570474071
 30
0.0
 10
14.62679652708357
 20
287.7891019332761
 30
0.0
 10
14.51132063601386
 20
287.846678779633
 30
0.0
 10
14.39138837738398
 20
287.8580103273561
 30
0.0
 10
14.27130434010371
 20
287.8691252651551
 30
0.0
 10
14.14717205318141
 20
287.8341989632801
 30
0.0
 10
14.0508347445039
 20
287.761618413443
 30
0.0
  0
SPLINE
  5
1A28A
330
1F
100
AcDbEntity
  8
0
 62
     7
370
     0
100
AcDbSpline
210
0.0
220
0.0
230
1.0
 70
     9
 71
     3
 72
    44
 73
    40
 74
     0
 42
0.000000001
 43
0.0000000001
 40
0.0
 40
0.0
 40
0.0
 40
0.0
 40
1.0
 40
1.0
 40
1.0
 40
2.0
 40
2.0
 40
2.0
 40
3.0
 40
3.0
 40
3.0
 40
4.0
 40
4.0
 40
4.0
 40
5.0
 40
5.0
 40
5.0
 40
6.0
 40
6.0
 40
6.0
 40
7.0
 40
7.0
 40
7.0
 40
8.0
 40
8.0
 40
8.0
 40
9.0
 40
9.0
 40
9.0
 40
10.0
 40
10.0
 40
10.0
 40
11.0
 40
11.0
 40
11.0
 40
12.0
 40
12.0
 40
12.0
 40
13.0
 40
13.0
 40
13.0
 40
13.0
 10
14.58201095549157
 20
287.5853114726129
 30
0.0
 10
14.63498036534617
 20
287.5271009694881
 30
0.0
 10
14.66534219050027
 20
287.4487638090101
 30
0.0
 10
14.66534219050027
 20
287.369997050722
 30
0.0
 10
14.66534219050027
 20
287.369997050722
 30
0.0
 10
14.66534219050027
 20
285.031008819623
 30
0.0
 10
14.66534219050027
 20
285.031008819623
 30
0.0
 10
14.66534219050027
 20
284.952349460788
 30
0.0
 10
14.63498036534617
 20
284.8738941609109
 30
0.0
 10
14.58201095549157
 20
284.8157910572392
 30
0.0
 10
14.52894488612998
 20
284.757580554114
 30
0.0
 10
14.45369008993117
 20
284.7201411050561
 30
0.0
 10
14.37550328868571
 20
284.712794982522
 30
0.0
 10
14.29720908798851
 20
284.7054595999319
 30
0.0
 10
14.21633730043686
 20
284.728432342771
 30
0.0
 10
14.15335826163118
 20
284.7756236620941
 30
0.0
 10
14.15335826163118
 20
284.7756236620941
 30
0.0
 10
12.5997392651289
 20
285.9451714773701
 30
0.0
 10
12.5997392651289
 20
285.9451714773701
 30
0.0
 10
12.54724241286391
 20
285.984597816294
 30
0.0
 10
12.50738713824467
 20
286.040821429552
 30
0.0
 10
12.48741083961977
 20
286.1035427096721
 30
0.0
 10
12.47749720856621
 20
286.1345811513751
 30
0.0
 10
12.47236351474851
 20
286.1671983650271
 30
0.0
 10
12.47236351474851
 20
286.2004492354459
 30
0.0
 10
12.47236351474851
 20
286.2339041648251
 30
0.0
 10
12.47749720856621
 20
286.266521378477
 30
0.0
 10
12.48741083961977
 20
286.2975705601251
 30
0.0
 10
12.50738713824467
 20
286.3602918402449
 30
0.0
 10
12.54724241286391
 20
286.4165047135581
 30
0.0
 10
12.5997392651289
 20
286.455941792428
 30
0.0
 10
12.5997392651289
 20
286.455941792428
 30
0.0
 10
14.15346566108389
 20
287.625383107884
 30
0.0
 10
14.15346566108389
 20
287.625383107884
 30
0.0
 10
14.21633730043686
 20
287.672680927027
 30
0.0
 10
14.29720908798851
 20
287.695653669865
 30
0.0
 10
14.37539588923397
 20
287.6883075473301
 30
0.0
 10
14.45379748938382
 20
287.6809721647411
 30
0.0
 10
14.52894488612998
 20
287.6434262163201
 30
0.0
 10
14.58201095549157
 20
287.5853114726129
 30
0.0
  0
SPLINE
  5
1A28B
330
1F
100
AcDbEntity
  8
0
 62
     7
370
     0
100
AcDbSpline
210
0.0
220
0.0
230
1.0
 70
     9
 71
     3
 72
    44
 73
    40
 74
     0
 42
0.000000001
 43
0.0000000001
 40
0.0
 40
0.0
 40
0.0
 40
0.0
 40
1.0
 40
1.0
 40
1.0
 40
2.0
 40
2.0
 40
2.0
 40
3.0
 40
3.0
 40
3.0
 40
4.0
 40
4.0
 40
4.0
 40
5.0
 40
5.0
 40
5.0
 40
6.0
 40
6.0
 40
6.0
 40
7.0
 40
7.0
 40
7.0
 40
8.0
 40
8.0
 40
8.0
 40
9.0
 40
9.0
 40
9.0
 40
10.0
 40
10.0
 40
10.0
 40
11.0
 40
11.0
 40
11.0
 40
12.0
 40
12.0
 40
12.0
 40
13.0
 40
13.0
 40
13.0
 40
13.0
 10
14.0508347445039
 20
287.761618413443
 30
0.0
 10
14.0508347445039
 20
287.761618413443
 30
0.0
 10
12.49705464882311
 20
286.5920813381121
 30
0.0
 10
12.49705464882311
 20
286.5920813381121
 30
0.0
 10
12.41671985853196
 20
286.5315617467639
 30
0.0
 10
12.35563170836758
 20
286.4454596058871
 30
0.0
 10
12.32478592739801
 20
286.349380055895
 30
0.0
 10
12.30963186468398
 20
286.301555079804
 30
0.0
 10
12.30193198088097
 20
286.2515292798681
 30
0.0
 10
12.30193198088097
 20
286.2004492354459
 30
0.0
 10
12.30193198088097
 20
286.149584854856
 30
0.0
 10
12.30963186468398
 20
286.0994516516261
 30
0.0
 10
12.32478592739801
 20
286.0517224739571
 30
0.0
 10
12.35563170836758
 20
285.9556536639101
 30
0.0
 10
12.41671985853196
 20
285.8693367241291
 30
0.0
 10
12.49705464882311
 20
285.808924532232
 30
0.0
 10
12.49705464882311
 20
285.808924532232
 30
0.0
 10
14.0508347445039
 20
284.6394841164091
 30
0.0
 10
14.0508347445039
 20
284.6394841164091
 30
0.0
 10
14.14706465372922
 20
284.566903566572
 30
0.0
 10
14.27119694065101
 20
284.5317732057371
 30
0.0
 10
14.39138837738398
 20
284.542996448498
 30
0.0
 10
14.51132063601386
 20
284.554327090712
 30
0.0
 10
14.62679652708357
 20
284.611796537616
 30
0.0
 10
14.70797977304761
 20
284.7010562223901
 30
0.0
 10
14.78920597879187
 20
284.7901977677651
 30
0.0
 10
14.83567772178418
 20
284.9105066341871
 30
0.0
 10
14.83567772178418
 20
285.031008819623
 30
0.0
 10
14.83567772178418
 20
285.031008819623
 30
0.0
 10
14.83567772178418
 20
287.369997050722
 30
0.0
 10
14.83567772178418
 20
287.369997050722
 30
0.0
 10
14.83567772178418
 20
287.4906066356101
 30
0.0
 10
14.78920597879187
 20
287.6107973626341
 30
0.0
 10
14.70797977304761
 20
287.7000570474071
 30
0.0
 10
14.62679652708357
 20
287.7891019332761
 30
0.0
 10
14.51132063601386
 20
287.846678779633
 30
0.0
 10
14.39138837738398
 20
287.8580103273561
 30
0.0
 10
14.27130434010371
 20
287.8691252651551
 30
0.0
 10
14.14717205318141
 20
287.8341989632801
 30
0.0
 10
14.0508347445039
 20
287.761618413443
 30
0.0
  0
SPLINE
  5
1A28C
330
1F
100
AcDbEntity
  8
0
 62
     7
370
     0
100
AcDbSpline
210
0.0
220
0.0
230
1.0
 70
     9
 71
     3
 72
    44
 73
    40
 74
     0
 42
0.000000001
 43
0.0000000001
 40
0.0
 40
0.0
 40
0.0
 40
0.0
 40
1.0
 40
1.0
 40
1.0
 40
2.0
 40
2.0
 40
2.0
 40
3.0
 40
3.0
 40
3.0
 40
4.0
 40
4.0
 40
4.0
 40
5.0
 40
5.0
 40
5.0
 40
6.0
 40
6.0
 40
6.0
 40
7.0
 40
7.0
 40
7.0
 40
8.0
 40
8.0
 40
8.0
 40
9.0
 40
9.0
 40
9.0
 40
10.0
 40
10.0
 40
10.0
 40
11.0
 40
11.0
 40
11.0
 40
12.0
 40
12.0
 40
12.0
 40
13.0
 40
13.0
 40
13.0
 40
13.0
 10
14.58201095549157
 20
287.5853114726129
 30
0.0
 10
14.63498036534617
 20
287.5271009694881
 30
0.0
 10
14.66534219050027
 20
287.4487638090101
 30
0.0
 10
14.66534219050027
 20
287.369997050722
 30
0.0
 10
14.66534219050027
 20
287.369997050722
 30
0.0
 10
14.66534219050027
 20
285.031008819623
 30
0.0
 10
14.66534219050027
 20
285.031008819623
 30
0.0
 10
14.66534219050027
 20
284.952349460788
 30
0.0
 10
14.63498036534617
 20
284.8738941609109
 30
0.0
 10
14.58201095549157
 20
284.8157910572392
 30
0.0
 10
14.52894488612998
 20
284.757580554114
 30
0.0
 10
14.45369008993117
 20
284.7201411050561
 30
0.0
 10
14.37550328868571
 20
284.712794982522
 30
0.0
 10
14.29720908798851
 20
284.7054595999319
 30
0.0
 10
14.21633730043686
 20
284.728432342771
 30
0.0
 10
14.15335826163118
 20
284.7756236620941
 30
0.0
 10
14.15335826163118
 20
284.7756236620941
 30
0.0
 10
12.5997392651289
 20
285.9451714773701
 30
0.0
 10
12.5997392651289
 20
285.9451714773701
 30
0.0
 10
12.54724241286391
 20
285.984597816294
 30
0.0
 10
12.50738713824467
 20
286.040821429552
 30
0.0
 10
12.48741083961977
 20
286.1035427096721
 30
0.0
 10
12.47749720856621
 20
286.1345811513751
 30
0.0
 10
12.47236351474851
 20
286.1671983650271
 30
0.0
 10
12.47236351474851
 20
286.2004492354459
 30
0.0
 10
12.47236351474851
 20
286.2339041648251
 30
0.0
 10
12.47749720856621
 20
286.266521378477
 30
0.0
 10
12.48741083961977
 20
286.2975705601251
 30
0.0
 10
12.50738713824467
 20
286.3602918402449
 30
0.0
 10
12.54724241286391
 20
286.4165047135581
 30
0.0
 10
12.5997392651289
 20
286.455941792428
 30
0.0
 10
12.5997392651289
 20
286.455941792428
 30
0.0
 10
14.15346566108389
 20
287.625383107884
 30
0.0
 10
14.15346566108389
 20
287.625383107884
 30
0.0
 10
14.21633730043686
 20
287.672680927027
 30
0.0
 10
14.29720908798851
 20
287.695653669865
 30
0.0
 10
14.37539588923397
 20
287.6883075473301
 30
0.0
 10
14.45379748938382
 20
287.6809721647411
 30
0.0
 10
14.52894488612998
 20
287.6434262163201
 30
0.0
 10
14.58201095549157
 20
287.5853114726129
 30
0.0
  0
SPLINE
  5
1A28D
330
1F
100
AcDbEntity
  8
0
 62
     7
370
     0
100
AcDbSpline
210
0.0
220
0.0
230
1.0
 70
     9
 71
     3
 72
    44
 73
    40
 74
     0
 42
0.000000001
 43
0.0000000001
 40
0.0
 40
0.0
 40
0.0
 40
0.0
 40
1.0
 40
1.0
 40
1.0
 40
2.0
 40
2.0
 40
2.0
 40
3.0
 40
3.0
 40
3.0
 40
4.0
 40
4.0
 40
4.0
 40
5.0
 40
5.0
 40
5.0
 40
6.0
 40
6.0
 40
6.0
 40
7.0
 40
7.0
 40
7.0
 40
8.0
 40
8.0
 40
8.0
 40
9.0
 40
9.0
 40
9.0
 40
10.0
 40
10.0
 40
10.0
 40
11.0
 40
11.0
 40
11.0
 40
12.0
 40
12.0
 40
12.0
 40
13.0
 40
13.0
 40
13.0
 40
13.0
 10
24.202918328615
 20
284.612634253344
 30
0.0
 10
24.202918328615
 20
284.612634253344
 30
0.0
 10
25.75653732511728
 20
285.78218206862
 30
0.0
 10
25.75653732511728
 20
285.78218206862
 30
0.0
 10
25.83697951486022
 20
285.8427016599682
 30
0.0
 10
25.89802536352511
 20
285.928911200297
 30
0.0
 10
25.92875234681657
 20
286.024872610892
 30
0.0
 10
25.94396010925641
 20
286.0727091873381
 30
0.0
 10
25.95172508965521
 20
286.1227349917909
 30
0.0
 10
25.95172508965521
 20
286.1737067718331
 30
0.0
 10
25.95172508965521
 20
286.2247868155799
 30
0.0
 10
25.94396010925641
 20
286.2748126161911
 30
0.0
 10
25.92875234681657
 20
286.32253019283
 30
0.0
 10
25.89802536352511
 20
286.418609742822
 30
0.0
 10
25.83697951486022
 20
286.5048192831511
 30
0.0
 10
25.75653732511728
 20
286.5653388745001
 30
0.0
 10
25.75653732511728
 20
286.5653388745001
 30
0.0
 10
24.202918328615
 20
287.7347685503781
 30
0.0
 10
24.202918328615
 20
287.7347685503781
 30
0.0
 10
24.10652827534437
 20
287.807349100215
 30
0.0
 10
23.98245947296078
 20
287.842490200995
 30
0.0
 10
23.86225800599146
 20
287.8312678630681
 30
0.0
 10
23.74227133792647
 20
287.8199363160201
 30
0.0
 10
23.62679544685682
 20
287.762359469663
 30
0.0
 10
23.54562294083831
 20
287.6733145837951
 30
0.0
 10
23.46433229542259
 20
287.584054899021
 30
0.0
 10
23.41787129237497
 20
287.463756772545
 30
0.0
 10
23.41787129237497
 20
287.34324473967
 30
0.0
 10
23.41787129237497
 20
287.34324473967
 30
0.0
 10
23.41787129237497
 20
285.0042663560101
 30
0.0
 10
23.41787129237497
 20
285.0042663560101
 30
0.0
 10
23.41787129237497
 20
284.883656771122
 30
0.0
 10
23.46433229542259
 20
284.7634553041531
 30
0.0
 10
23.54562294083831
 20
284.6742063593241
 30
0.0
 10
23.62679544685682
 20
284.5850540740031
 30
0.0
 10
23.74227133792647
 20
284.5275738871541
 30
0.0
 10
23.86225800599146
 20
284.516253984886
 30
0.0
 10
23.9822446740564
 20
284.505030742124
 30
0.0
 10
24.10652827534437
 20
284.5400537035069
 30
0.0
 10
24.202918328615
 20
284.612634253344
 30
0.0
  0
SPLINE
  5
1A28E
330
1F
100
AcDbEntity
  8
0
 62
     7
370
     0
100
AcDbSpline
210
0.0
220
0.0
230
1.0
 70
     9
 71
     3
 72
    44
 73
    40
 74
     0
 42
0.000000001
 43
0.0000000001
 40
0.0
 40
0.0
 40
0.0
 40
0.0
 40
1.0
 40
1.0
 40
1.0
 40
2.0
 40
2.0
 40
2.0
 40
3.0
 40
3.0
 40
3.0
 40
4.0
 40
4.0
 40
4.0
 40
5.0
 40
5.0
 40
5.0
 40
6.0
 40
6.0
 40
6.0
 40
7.0
 40
7.0
 40
7.0
 40
8.0
 40
8.0
 40
8.0
 40
9.0
 40
9.0
 40
9.0
 40
10.0
 40
10.0
 40
10.0
 40
11.0
 40
11.0
 40
11.0
 40
12.0
 40
12.0
 40
12.0
 40
13.0
 40
13.0
 40
13.0
 40
13.0
 10
23.67158101844876
 20
284.7889411941741
 30
0.0
 10
23.61871995085681
 20
284.847151697299
 30
0.0
 10
23.58830348316678
 20
284.9256069971751
 30
0.0
 10
23.58830348316678
 20
285.0042663560101
 30
0.0
 10
23.58830348316678
 20
285.0042663560101
 30
0.0
 10
23.58830348316678
 20
287.34324473967
 30
0.0
 10
23.58830348316678
 20
287.34324473967
 30
0.0
 10
23.58830348316678
 20
287.4219139459441
 30
0.0
 10
23.61871995085681
 20
287.5003585058749
 30
0.0
 10
23.67158101844876
 20
287.5584616095481
 30
0.0
 10
23.72465782775549
 20
287.616672112673
 30
0.0
 10
23.79995558373508
 20
287.6542189611831
 30
0.0
 10
23.87820682465201
 20
287.6615650837181
 30
0.0
 10
23.95644732562329
 20
287.6689112062521
 30
0.0
 10
24.03741577268198
 20
287.6458310639611
 30
0.0
 10
24.10013705280198
 20
287.598640643596
 30
0.0
 10
24.10013705280198
 20
287.598640643596
 30
0.0
 10
25.65386344875697
 20
286.4291993288151
 30
0.0
 10
25.65386344875697
 20
286.4291993288151
 30
0.0
 10
25.7064032608024
 20
286.389654850493
 30
0.0
 10
25.7462591975364
 20
286.3334419771801
 30
0.0
 10
25.76628919538331
 20
286.27072069706
 30
0.0
 10
25.77614846510011
 20
286.239671515411
 30
0.0
 10
25.78118549941161
 20
286.20705430176
 30
0.0
 10
25.78118549941161
 20
286.1737067718331
 30
0.0
 10
25.78118549941161
 20
286.1403485019611
 30
0.0
 10
25.77614846510011
 20
286.10773128831
 30
0.0
 10
25.76628919538331
 20
286.076692846607
 30
0.0
 10
25.7462591975364
 20
286.01407896594
 30
0.0
 10
25.7064032608024
 20
285.9577479532289
 30
0.0
 10
25.65386344875697
 20
285.9183216143041
 30
0.0
 10
25.65386344875697
 20
285.9183216143041
 30
0.0
 10
24.10013705280198
 20
284.7488811984809
 30
0.0
 10
24.10013705280198
 20
284.7488811984809
 30
0.0
 10
24.03741577268198
 20
284.7015824797051
 30
0.0
 10
23.95644732562329
 20
284.6786097368671
 30
0.0
 10
23.87820682465201
 20
284.6859451194561
 30
0.0
 10
23.79995558373508
 20
284.693291241991
 30
0.0
 10
23.72465782775549
 20
284.7308380905012
 30
0.0
 10
23.67158101844876
 20
284.7889411941741
 30
0.0
  0
SPLINE
  5
1A28F
330
1F
100
AcDbEntity
  8
0
 62
     7
370
     0
100
AcDbSpline
210
0.0
220
0.0
230
1.0
 70
     9
 71
     3
 72
    44
 73
    40
 74
     0
 42
0.000000001
 43
0.0000000001
 40
0.0
 40
0.0
 40
0.0
 40
0.0
 40
1.0
 40
1.0
 40
1.0
 40
2.0
 40
2.0
 40
2.0
 40
3.0
 40
3.0
 40
3.0
 40
4.0
 40
4.0
 40
4.0
 40
5.0
 40
5.0
 40
5.0
 40
6.0
 40
6.0
 40
6.0
 40
7.0
 40
7.0
 40
7.0
 40
8.0
 40
8.0
 40
8.0
 40
9.0
 40
9.0
 40
9.0
 40
10.0
 40
10.0
 40
10.0
 40
11.0
 40
11.0
 40
11.0
 40
12.0
 40
12.0
 40
12.0
 40
13.0
 40
13.0
 40
13.0
 40
13.0
 10
24.202918328615
 20
284.612634253344
 30
0.0
 10
24.202918328615
 20
284.612634253344
 30
0.0
 10
25.75653732511728
 20
285.78218206862
 30
0.0
 10
25.75653732511728
 20
285.78218206862
 30
0.0
 10
25.83697951486022
 20
285.8427016599682
 30
0.0
 10
25.89802536352511
 20
285.928911200297
 30
0.0
 10
25.92875234681657
 20
286.024872610892
 30
0.0
 10
25.94396010925641
 20
286.0727091873381
 30
0.0
 10
25.95172508965521
 20
286.1227349917909
 30
0.0
 10
25.95172508965521
 20
286.1737067718331
 30
0.0
 10
25.95172508965521
 20
286.2247868155799
 30
0.0
 10
25.94396010925641
 20
286.2748126161911
 30
0.0
 10
25.92875234681657
 20
286.32253019283
 30
0.0
 10
25.89802536352511
 20
286.418609742822
 30
0.0
 10
25.83697951486022
 20
286.5048192831511
 30
0.0
 10
25.75653732511728
 20
286.5653388745001
 30
0.0
 10
25.75653732511728
 20
286.5653388745001
 30
0.0
 10
24.202918328615
 20
287.7347685503781
 30
0.0
 10
24.202918328615
 20
287.7347685503781
 30
0.0
 10
24.10652827534437
 20
287.807349100215
 30
0.0
 10
23.98245947296078
 20
287.842490200995
 30
0.0
 10
23.86225800599146
 20
287.8312678630681
 30
0.0
 10
23.74227133792647
 20
287.8199363160201
 30
0.0
 10
23.62679544685682
 20
287.762359469663
 30
0.0
 10
23.54562294083831
 20
287.6733145837951
 30
0.0
 10
23.46433229542259
 20
287.584054899021
 30
0.0
 10
23.41787129237497
 20
287.463756772545
 30
0.0
 10
23.41787129237497
 20
287.34324473967
 30
0.0
 10
23.41787129237497
 20
287.34324473967
 30
0.0
 10
23.41787129237497
 20
285.0042663560101
 30
0.0
 10
23.41787129237497
 20
285.0042663560101
 30
0.0
 10
23.41787129237497
 20
284.883656771122
 30
0.0
 10
23.46433229542259
 20
284.7634553041531
 30
0.0
 10
23.54562294083831
 20
284.6742063593241
 30
0.0
 10
23.62679544685682
 20
284.5850540740031
 30
0.0
 10
23.74227133792647
 20
284.5275738871541
 30
0.0
 10
23.86225800599146
 20
284.516253984886
 30
0.0
 10
23.9822446740564
 20
284.505030742124
 30
0.0
 10
24.10652827534437
 20
284.5400537035069
 30
0.0
 10
24.202918328615
 20
284.612634253344
 30
0.0
  0
SPLINE
  5
1A290
330
1F
100
AcDbEntity
  8
0
 62
     7
370
     0
100
AcDbSpline
210
0.0
220
0.0
230
1.0
 70
     9
 71
     3
 72
    44
 73
    40
 74
     0
 42
0.000000001
 43
0.0000000001
 40
0.0
 40
0.0
 40
0.0
 40
0.0
 40
1.0
 40
1.0
 40
1.0
 40
2.0
 40
2.0
 40
2.0
 40
3.0
 40
3.0
 40
3.0
 40
4.0
 40
4.0
 40
4.0
 40
5.0
 40
5.0
 40
5.0
 40
6.0
 40
6.0
 40
6.0
 40
7.0
 40
7.0
 40
7.0
 40
8.0
 40
8.0
 40
8.0
 40
9.0
 40
9.0
 40
9.0
 40
10.0
 40
10.0
 40
10.0
 40
11.0
 40
11.0
 40
11.0
 40
12.0
 40
12.0
 40
12.0
 40
13.0
 40
13.0
 40
13.0
 40
13.0
 10
23.67158101844876
 20
284.7889411941741
 30
0.0
 10
23.61871995085681
 20
284.847151697299
 30
0.0
 10
23.58830348316678
 20
284.9256069971751
 30
0.0
 10
23.58830348316678
 20
285.0042663560101
 30
0.0
 10
23.58830348316678
 20
285.0042663560101
 30
0.0
 10
23.58830348316678
 20
287.34324473967
 30
0.0
 10
23.58830348316678
 20
287.34324473967
 30
0.0
 10
23.58830348316678
 20
287.4219139459441
 30
0.0
 10
23.61871995085681
 20
287.5003585058749
 30
0.0
 10
23.67158101844876
 20
287.5584616095481
 30
0.0
 10
23.72465782775549
 20
287.616672112673
 30
0.0
 10
23.79995558373508
 20
287.6542189611831
 30
0.0
 10
23.87820682465201
 20
287.6615650837181
 30
0.0
 10
23.95644732562329
 20
287.6689112062521
 30
0.0
 10
24.03741577268198
 20
287.6458310639611
 30
0.0
 10
24.10013705280198
 20
287.598640643596
 30
0.0
 10
24.10013705280198
 20
287.598640643596
 30
0.0
 10
25.65386344875697
 20
286.4291993288151
 30
0.0
 10
25.65386344875697
 20
286.4291993288151
 30
0.0
 10
25.7064032608024
 20
286.389654850493
 30
0.0
 10
25.7462591975364
 20
286.3334419771801
 30
0.0
 10
25.76628919538331
 20
286.27072069706
 30
0.0
 10
25.77614846510011
 20
286.239671515411
 30
0.0
 10
25.78118549941161
 20
286.20705430176
 30
0.0
 10
25.78118549941161
 20
286.1737067718331
 30
0.0
 10
25.78118549941161
 20
286.1403485019611
 30
0.0
 10
25.77614846510011
 20
286.10773128831
 30
0.0
 10
25.76628919538331
 20
286.076692846607
 30
0.0
 10
25.7462591975364
 20
286.01407896594
 30
0.0
 10
25.7064032608024
 20
285.9577479532289
 30
0.0
 10
25.65386344875697
 20
285.9183216143041
 30
0.0
 10
25.65386344875697
 20
285.9183216143041
 30
0.0
 10
24.10013705280198
 20
284.7488811984809
 30
0.0
 10
24.10013705280198
 20
284.7488811984809
 30
0.0
 10
24.03741577268198
 20
284.7015824797051
 30
0.0
 10
23.95644732562329
 20
284.6786097368671
 30
0.0
 10
23.87820682465201
 20
284.6859451194561
 30
0.0
 10
23.79995558373508
 20
284.693291241991
 30
0.0
 10
23.72465782775549
 20
284.7308380905012
 30
0.0
 10
23.67158101844876
 20
284.7889411941741
 30
0.0
  0
LINE
  5
1A291
330
1F
100
AcDbEntity
  8
0
  6
Continuous
 62
     7
370
     0
100
AcDbLine
 10
27.8908190224102
 20
328.855304792393
 30
0.0
 11
27.8908190224102
 21
267.4561235561301
 31
0.0
  0
LINE
  5
1A292
330
1F
100
AcDbEntity
  8
0
  6
Continuous
 62
     7
370
     0
100
AcDbLine
 10
10.57652613021588
 20
267.4561235561301
 30
0.0
 11
10.57652613021588
 21
328.855304792393
 31
0.0
  0
ARC
  5
1A293
330
1F
100
AcDbEntity
  8
0
  6
Continuous
 62
     7
370
     0
100
AcDbCircle
 10
26.49039778241058
 20
267.4561235561301
 30
0.0
 40
1.400421239999946
100
AcDbArc
 50
270.0
 51
0.0
  0
ARC
  5
1A294
330
1F
100
AcDbEntity
  8
0
  6
Continuous
 62
     7
370
     0
100
AcDbCircle
 10
11.97694737021641
 20
267.4561235561301
 30
0.0
 40
1.40042123999999
100
AcDbArc
 50
180.0
 51
270.0
  0
ARC
  5
1A295
330
1F
100
AcDbEntity
  8
0
  6
Continuous
 62
     7
370
     0
100
AcDbCircle
 10
26.49039778241058
 20
328.855304792393
 30
0.0
 40
1.400421240000007
100
AcDbArc
 50
0.0
 51
90.0
  0
ARC
  5
1A296
330
1F
100
AcDbEntity
  8
0
  6
Continuous
 62
     7
370
     0
100
AcDbCircle
 10
11.97694737021641
 20
328.855304792393
 30
0.0
 40
1.40042123999999
100
AcDbArc
 50
90.0
 51
180.0
  0
LINE
  5
1A297
330
1F
100
AcDbEntity
  8
0
  6
Continuous
 62
     7
370
     0
100
AcDbLine
 10
11.97694737021641
 20
330.255726032393
 30
0.0
 11
26.49039778241058
 21
330.255726032393
 31
0.0
  0
LINE
  5
1A298
330
1F
100
AcDbEntity
  8
0
  6
Continuous
 62
     7
370
     0
100
AcDbLine
 10
11.97694737021641
 20
266.0557023161301
 30
0.0
 11
26.49039778241058
 21
266.0557023161301
 31
0.0
  0
LINE
  5
1A299
330
1F
100
AcDbEntity
  8
0
  6
Continuous
 62
     7
370
     0
100
AcDbLine
 10
10.57652613021588
 20
329.3528047923929
 30
0.0
 11
10.57652613021588
 21
336.096162467902
 31
0.0
1001
ACAD
1000
DSTYLE
1002
{
1070
   342
1005
0
1070
   343
1005
323C
1070
   344
1005
323C
1070
   173
1070
     1
1002
}
  0
LINE
  5
1A29A
330
1F
100
AcDbEntity
  8
0
  6
Continuous
 62
     7
370
     0
100
AcDbLine
 10
27.8908190224102
 20
329.3528047923929
 30
0.0
 11
27.8908190224102
 21
336.096162467902
 31
0.0
1001
ACAD
1000
DSTYLE
1002
{
1070
   342
1005
0
1070
   343
1005
323C
1070
   344
1005
323C
1070
   173
1070
     1
1002
}
  0
LINE
  5
1A29B
330
1F
100
AcDbEntity
  8
0
  6
Continuous
 62
     7
370
     0
100
AcDbLine
 10
12.57652613021588
 20
335.9161624679022
 30
0.0
 11
25.8908190224102
 21
335.9161624679022
 31
0.0
1001
ACAD
1000
DSTYLE
1002
{
1070
   342
1005
0
1070
   343
1005
323C
1070
   344
1005
323C
1070
   173
1070
     1
1002
}
  0
INSERT
  5
1A29C
330
1F
100
AcDbEntity
  8
0
 62
     7
370
     0
100
AcDbBlockReference
  2
_OPEN30
 10
10.57652613021588
 20
335.9161624679022
 30
0.0
 41
2.0
 42
2.0
 43
2.0
 50
180.0
1001
ACAD
1000
DSTYLE
1002
{
1070
   342
1005
0
1070
   343
1005
323C
1070
   344
1005
323C
1070
   173
1070
     1
1002
}
  0
INSERT
  5
1A29D
330
1F
100
AcDbEntity
  8
0
 62
     7
370
     0
100
AcDbBlockReference
  2
_OPEN30
 10
27.8908190224102
 20
335.9161624679022
 30
0.0
 41
2.0
 42
2.0
 43
2.0
1001
ACAD
1000
DSTYLE
1002
{
1070
   342
1005
0
1070
   343
1005
323C
1070
   344
1005
323C
1070
   173
1070
     1
1002
}
  0
MTEXT
  5
1A29E
330
1F
100
AcDbEntity
  8
0
 62
     7
370
     0
100
AcDbMText
 10
19.2336725763135
 20
337.8122441420461
 30
0.0
 40
3.0
 41
0.0
 71
     5
 72
     1
  1
\A1;60
 73
     1
 44
1.0
1001
ACAD
1000
DSTYLE
1002
{
1070
   342
1005
0
1070
   343
1005
323C
1070
   344
1005
323C
1070
   173
1070
     1
1002
}
  0
LINE
  5
1A29F
330
1F
100
AcDbEntity
  8
0
  6
Continuous
 62
     7
370
     0
100
AcDbLine
 10
11.47944737021601
 20
330.255726032393
 30
0.0
 11
2.717621609028413
 21
330.255726032393
 31
0.0
1001
ACAD
1000
DSTYLE
1002
{
1070
   140
1040
3.0
1070
   342
1005
0
1070
   343
1005
323C
1070
   344
1005
323C
1070
   173
1070
     1
1002
}
  0
LINE
  5
1A2A0
330
1F
100
AcDbEntity
  8
0
  6
Continuous
 62
     7
370
     0
100
AcDbLine
 10
11.47944737021601
 20
266.0557023161301
 30
0.0
 11
2.717621609028413
 21
266.0557023161301
 31
0.0
1001
ACAD
1000
DSTYLE
1002
{
1070
   140
1040
3.0
1070
   342
1005
0
1070
   343
1005
323C
1070
   344
1005
323C
1070
   173
1070
     1
1002
}
  0
LINE
  5
1A2A1
330
1F
100
AcDbEntity
  8
0
  6
Continuous
 62
     7
370
     0
100
AcDbLine
 10
2.897621609028704
 20
328.255726032393
 30
0.0
 11
2.897621609028704
 21
268.0557023161301
 31
0.0
1001
ACAD
1000
DSTYLE
1002
{
1070
   140
1040
3.0
1070
   342
1005
0
1070
   343
1005
323C
1070
   344
1005
323C
1070
   173
1070
     1
1002
}
  0
INSERT
  5
1A2A2
330
1F
100
AcDbEntity
  8
0
 62
     7
370
     0
100
AcDbBlockReference
  2
_OPEN30
 10
2.897621609028704
 20
330.255726032393
 30
0.0
 41
2.0
 42
2.0
 43
2.0
 50
90.0
1001
ACAD
1000
DSTYLE
1002
{
1070
   140
1040
3.0
1070
   342
1005
0
1070
   343
1005
323C
1070
   344
1005
323C
1070
   173
1070
     1
1002
}
  0
INSERT
  5
1A2A3
330
1F
100
AcDbEntity
  8
0
 62
     7
370
     0
100
AcDbBlockReference
  2
_OPEN30
 10
2.897621609028704
 20
266.0557023161301
 30
0.0
 41
2.0
 42
2.0
 43
2.0
 50
270.0
1001
ACAD
1000
DSTYLE
1002
{
1070
   140
1040
3.0
1070
   342
1005
0
1070
   343
1005
323C
1070
   344
1005
323C
1070
   173
1070
     1
1002
}
  0
MTEXT
  5
1A2A4
330
1F
100
AcDbEntity
  8
0
 62
     7
370
     0
100
AcDbMText
 10
1.140519336301679
 20
298.155714174262
 30
0.0
 40
3.0
 41
0.0
 71
     5
 72
     1
  1
\A1;214
 11
0.0
 21
1.0
 31
0.0
 73
     1
 44
1.0
1001
ACAD
1000
DSTYLE
1002
{
1070
   140
1040
3.0
1070
   342
1005
0
1070
   343
1005
323C
1070
   344
1005
323C
1070
   173
1070
     1
1002
}
  0
LINE
  5
1A2A5
330
1F
100
AcDbEntity
  8
0
  6
Continuous
 62
     7
370
     0
100
AcDbLine
 10
42.41193682606041
 20
330.7532260323929
 30
0.0
 11
42.41193682606041
 21
335.587591714166
 31
0.0
  0
LINE
  5
1A2A6
330
1F
100
AcDbEntity
  8
0
  6
Continuous
 62
     7
370
     0
100
AcDbLine
 10
50.93624002606032
 20
328.783386871277
 30
0.0
 11
50.93624002606032
 21
335.587591714166
 31
0.0
  0
LINE
  5
1A2A7
330
1F
100
AcDbEntity
  8
0
  6
Continuous
 62
     7
370
     0
100
AcDbLine
 10
44.41193682606041
 20
335.407591714166
 30
0.0
 11
48.93624002606032
 21
335.407591714166
 31
0.0
  0
INSERT
  5
1A2A8
330
1F
100
AcDbEntity
  8
0
 62
     7
370
     0
100
AcDbBlockReference
  2
_OPEN30
 10
42.41193682606041
 20
335.407591714166
 30
0.0
 41
2.0
 42
2.0
 43
2.0
 50
180.0
  0
INSERT
  5
1A2A9
330
1F
100
AcDbEntity
  8
0
 62
     7
370
     0
100
AcDbBlockReference
  2
_OPEN30
 10
50.93624002606032
 20
335.407591714166
 30
0.0
 41
2.0
 42
2.0
 43
2.0
  0
MTEXT
  5
1A2AA
330
1F
100
AcDbEntity
  8
0
 62
     7
370
     0
100
AcDbMText
 10
46.67408842606028
 20
337.296571115582
 30
0.0
 40
3.0
 41
0.0
 71
     5
 72
     1
  1
\A1;28
 73
     1
 44
1.0
  0
ENDSEC
  0
SECTION
  2
OBJECTS
  0
DICTIONARY
  5
C
330
0
100
AcDbDictionary
281
     1
  3
ACAD_COLOR
350
6B
  3
ACAD_GROUP
350
D
  3
ACAD_LAYOUT
350
1A
  3
ACAD_MATERIAL
350
43
  3
ACAD_MLEADERSTYLE
350
69
  3
ACAD_MLINESTYLE
350
17
  3
ACAD_PLOTSETTINGS
350
19
  3
ACAD_PLOTSTYLENAME
350
E
  3
ACAD_SCALELIST
350
47
  3
ACAD_VISUALSTYLE
350
2A
  3
ACDBHEADERROUNDTRIPXREC
350
1A2AF
  3
AcDbVariableDictionary
350
19F5B
  3
DWGPROPS
350
1A2B2
  0
DICTIONARY
  5
6B
102
{ACAD_REACTORS
330
C
102
}
330
C
100
AcDbDictionary
281
     1
  0
DICTIONARY
  5
D
102
{ACAD_REACTORS
330
C
102
}
330
C
100
AcDbDictionary
281
     1
  0
DICTIONARY
  5
1A
102
{ACAD_REACTORS
330
C
102
}
330
C
100
AcDbDictionary
281
     1
  3
Model
350
22
  3
レイアウト 1
350
1E
  3
レイアウト 2
350
26
  0
DICTIONARY
  5
43
102
{ACAD_REACTORS
330
C
102
}
330
C
100
AcDbDictionary
281
     1
  3
ByBlock
350
45
  3
ByLayer
350
44
  3
Global
350
46
  0
DICTIONARY
  5
69
102
{ACAD_REACTORS
330
C
102
}
330
C
100
AcDbDictionary
281
     1
  0
DICTIONARY
  5
17
102
{ACAD_REACTORS
330
C
102
}
330
C
100
AcDbDictionary
281
     1
  3
Standard
350
18
  0
DICTIONARY
  5
19
102
{ACAD_REACTORS
330
C
102
}
330
C
100
AcDbDictionary
281
     1
  0
ACDBDICTIONARYWDFLT
  5
E
102
{ACAD_REACTORS
330
C
102
}
330
C
100
AcDbDictionary
281
     1
  3
Normal
350
F
100
AcDbDictionaryWithDefault
340
F
  0
DICTIONARY
  5
47
102
{ACAD_REACTORS
330
C
102
}
330
C
100
AcDbDictionary
281
     1
  3
A0
350
48
  3
A1
350
49
  3
A2
350
4A
  3
A3
350
4B
  3
A4
350
4C
  3
A5
350
4D
  3
A6
350
4E
  3
A7
350
4F
  3
A8
350
50
  3
A9
350
51
  3
B0
350
52
  3
B1
350
53
  3
B2
350
54
  3
B3
350
55
  3
B4
350
56
  3
B5
350
57
  3
B6
350
58
  3
B7
350
59
  3
B8
350
5A
  3
B9
350
5B
  3
C0
350
5C
  3
C1
350
5D
  3
C2
350
5E
  3
C3
350
5F
  3
C4
350
60
  3
C5
350
61
  3
C6
350
62
  3
C7
350
63
  3
C8
350
64
  3
C9
350
65
  3
D0
350
66
  3
D1
350
67
  3
D2
350
68
  0
DICTIONARY
  5
2A
102
{ACAD_REACTORS
330
C
102
}
330
C
100
AcDbDictionary
281
     1
  3
2dWireframe
350
2F
  3
Basic
350
32
  3
Brighten
350
36
  3
ColorChange
350
3A
  3
Conceptual
350
34
  3
Dim
350
35
  3
EdgeColorOff
350
3D
  3
Facepattern
350
39
  3
Flat
350
2B
  3
FlatWithEdges
350
2C
  3
Gouraud
350
2D
  3
GouraudWithEdges
350
2E
  3
Hidden
350
31
  3
JitterOff
350
3B
  3
Linepattern
350
38
  3
OverhangOff
350
3C
  3
Realistic
350
33
  3
Shaded
350
42
  3
Shaded with edges
350
41
  3
Shades of Gray
350
3E
  3
Sketchy
350
3F
  3
Thicken
350
37
  3
Wireframe
350
30
  3
X-Ray
350
40
  0
DICTIONARY
  5
1A2AF
102
{ACAD_REACTORS
330
C
102
}
330
C
100
AcDbDictionary
281
     1
  3
COLORDICT
350
1A2B0
  3
MATERIALDICT
350
1A2B1
  0
DICTIONARY
  5
19F5B
102
{ACAD_REACTORS
330
C
102
}
330
C
100
AcDbDictionary
281
     1
  3
CANNOSCALE
350
1A2B3
  3
DIMASSOC
350
19F60
  3
HIDETEXT
350
19F61
  3
MSLTSCALE
350
19F67
  3
PSOLHEIGHT
350
1A2AC
  3
PSOLWIDTH
350
1A2AB
  0
XRECORD
  5
1A2B2
102
{ACAD_REACTORS
330
C
102
}
330
C
100
AcDbXrecord
280
     1
  1
DWGPROPS COOKIE
  2

  3

  4

  6

  7

  8
4980607
  9

300
=
301
=
302
=
303
=
304
=
305
=
306
=
307
=
308
=
309
=
 40
0.0
 41
2458393.277257489
 42
2458393.277524028
  1

 90
        0
  0
LAYOUT
  5
22
102
{ACAD_REACTORS
330
1A
102
}
330
1A
100
AcDbPlotSettings
  1

  2
none_device
  4
ISO_A4_(210.00_x_297.00_MM)
  6

 40
0.0
 41
0.0
 42
0.0
 43
0.0
 44
0.0
 45
0.0
 46
0.0
 47
0.0
 48
0.0
 49
0.0
140
0.0
141
0.0
142
1.0
143
1.0
 70
  1712
 72
     1
 73
     1
 74
     0
  7

 75
     0
147
1.0
148
0.0
149
0.0
100
AcDbLayout
  1
Model
 70
     1
 71
     0
 10
0.0
 20
0.0
 11
420.0
 21
297.0
 12
0.0
 22
0.0
 32
0.0
 14
-17.34860168526109
 24
220.1458013981541
 34
0.0
 15
87.65135753374176
 25
362.6456258484101
 35
0.0
146
0.0
 13
0.0
 23
0.0
 33
0.0
 16
1.0
 26
0.0
 36
0.0
 17
0.0
 27
1.0
 37
0.0
 76
     0
330
1F
331
29
  0
LAYOUT
  5
1E
102
{ACAD_REACTORS
330
1A
102
}
330
1A
100
AcDbPlotSettings
  1

  2
none_device
  4
ISO_A4_(210.00_x_297.00_MM)
  6

 40
0.0
 41
0.0
 42
0.0
 43
0.0
 44
0.0
 45
0.0
 46
0.0
 47
0.0
 48
0.0
 49
0.0
140
0.0
141
0.0
142
1.0
143
1.0
 70
   688
 72
     1
 73
     1
 74
     5
  7

 75
    16
147
1.0
148
0.0
149
0.0
100
AcDbLayout
  1
レイアウト 1
 70
     1
 71
     1
 10
0.0
 20
0.0
 11
420.0
 21
297.0
 12
0.0
 22
0.0
 32
0.0
 14
1.000000000000000E+20
 24
1.000000000000000E+20
 34
1.000000000000000E+20
 15
-1.000000000000000E+20
 25
-1.000000000000000E+20
 35
-1.000000000000000E+20
146
0.0
 13
0.0
 23
0.0
 33
0.0
 16
1.0
 26
0.0
 36
0.0
 17
0.0
 27
1.0
 37
0.0
 76
     0
330
1B
  0
LAYOUT
  5
26
102
{ACAD_REACTORS
330
1A
102
}
330
1A
100
AcDbPlotSettings
  1

  2
none_device
  4
ISO_A4_(210.00_x_297.00_MM)
  6

 40
0.0
 41
0.0
 42
0.0
 43
0.0
 44
0.0
 45
0.0
 46
0.0
 47
0.0
 48
0.0
 49
0.0
140
0.0
141
0.0
142
1.0
143
1.0
 70
   688
 72
     1
 73
     1
 74
     5
  7

 75
    16
147
1.0
148
0.0
149
0.0
100
AcDbLayout
  1
レイアウト 2
 70
     1
 71
     2
 10
0.0
 20
0.0
 11
0.0
 21
0.0
 12
0.0
 22
0.0
 32
0.0
 14
0.0
 24
0.0
 34
0.0
 15
0.0
 25
0.0
 35
0.0
146
0.0
 13
0.0
 23
0.0
 33
0.0
 16
1.0
 26
0.0
 36
0.0
 17
0.0
 27
1.0
 37
0.0
 76
     0
330
23
  0
MATERIAL
  5
45
102
{ACAD_REACTORS
330
43
102
}
102
{ACAD_XDICTIONARY
360
1A2B4
102
}
330
43
100
AcDbMaterial
  1
ByBlock
  0
MATERIAL
  5
44
102
{ACAD_REACTORS
330
43
102
}
102
{ACAD_XDICTIONARY
360
1A2B6
102
}
330
43
100
AcDbMaterial
  1
ByLayer
  0
MATERIAL
  5
46
102
{ACAD_REACTORS
330
43
102
}
102
{ACAD_XDICTIONARY
360
1A2B8
102
}
330
43
100
AcDbMaterial
  1
Global
1001
ACAD
1070
    -1
1070
     3
1070
     0
1000

1071
        0
  0
MLINESTYLE
  5
18
102
{ACAD_REACTORS
330
17
102
}
330
17
100
AcDbMlineStyle
  2
Standard
 70
     0
  3

 62
   256
 51
90.0
 52
90.0
 71
     2
 49
0.5
 62
   256
  6
BYLAYER
 49
-0.5
 62
   256
  6
BYLAYER
  0
ACDBPLACEHOLDER
  5
F
102
{ACAD_REACTORS
330
E
102
}
330
E
  0
SCALE
  5
48
102
{ACAD_REACTORS
330
47
102
}
330
47
100
AcDbScale
 70
     0
300
1:1
140
1.0
141
1.0
290
     1
  0
SCALE
  5
49
102
{ACAD_REACTORS
330
47
102
}
330
47
100
AcDbScale
 70
     0
300
1:2
140
1.0
141
2.0
290
     0
  0
SCALE
  5
4A
102
{ACAD_REACTORS
330
47
102
}
330
47
100
AcDbScale
 70
     0
300
1:4
140
1.0
141
4.0
290
     0
  0
SCALE
  5
4B
102
{ACAD_REACTORS
330
47
102
}
330
47
100
AcDbScale
 70
     0
300
1:5
140
1.0
141
5.0
290
     0
  0
SCALE
  5
4C
102
{ACAD_REACTORS
330
47
102
}
330
47
100
AcDbScale
 70
     0
300
1:8
140
1.0
141
8.0
290
     0
  0
SCALE
  5
4D
102
{ACAD_REACTORS
330
47
102
}
330
47
100
AcDbScale
 70
     0
300
1:10
140
1.0
141
10.0
290
     0
  0
SCALE
  5
4E
102
{ACAD_REACTORS
330
47
102
}
330
47
100
AcDbScale
 70
     0
300
1:16
140
1.0
141
16.0
290
     0
  0
SCALE
  5
4F
102
{ACAD_REACTORS
330
47
102
}
330
47
100
AcDbScale
 70
     0
300
1:20
140
1.0
141
20.0
290
     0
  0
SCALE
  5
50
102
{ACAD_REACTORS
330
47
102
}
330
47
100
AcDbScale
 70
     0
300
1:30
140
1.0
141
30.0
290
     0
  0
SCALE
  5
51
102
{ACAD_REACTORS
330
47
102
}
330
47
100
AcDbScale
 70
     0
300
1:40
140
1.0
141
40.0
290
     0
  0
SCALE
  5
52
102
{ACAD_REACTORS
330
47
102
}
330
47
100
AcDbScale
 70
     0
300
1:50
140
1.0
141
50.0
290
     0
  0
SCALE
  5
53
102
{ACAD_REACTORS
330
47
102
}
330
47
100
AcDbScale
 70
     0
300
1:100
140
1.0
141
100.0
290
     0
  0
SCALE
  5
54
102
{ACAD_REACTORS
330
47
102
}
330
47
100
AcDbScale
 70
     0
300
2:1
140
2.0
141
1.0
290
     0
  0
SCALE
  5
55
102
{ACAD_REACTORS
330
47
102
}
330
47
100
AcDbScale
 70
     0
300
4:1
140
4.0
141
1.0
290
     0
  0
SCALE
  5
56
102
{ACAD_REACTORS
330
47
102
}
330
47
100
AcDbScale
 70
     0
300
8:1
140
8.0
141
1.0
290
     0
  0
SCALE
  5
57
102
{ACAD_REACTORS
330
47
102
}
330
47
100
AcDbScale
 70
     0
300
10:1
140
10.0
141
1.0
290
     0
  0
SCALE
  5
58
102
{ACAD_REACTORS
330
47
102
}
330
47
100
AcDbScale
 70
     0
300
100:1
140
100.0
141
1.0
290
     0
  0
SCALE
  5
59
102
{ACAD_REACTORS
330
47
102
}
330
47
100
AcDbScale
 70
     0
300
1/128" = 1'-0"
140
0.0078125
141
12.0
290
     0
  0
SCALE
  5
5A
102
{ACAD_REACTORS
330
47
102
}
330
47
100
AcDbScale
 70
     0
300
1/64" = 1'-0"
140
0.015625
141
12.0
290
     0
  0
SCALE
  5
5B
102
{ACAD_REACTORS
330
47
102
}
330
47
100
AcDbScale
 70
     0
300
1/32" = 1'-0"
140
0.03125
141
12.0
290
     0
  0
SCALE
  5
5C
102
{ACAD_REACTORS
330
47
102
}
330
47
100
AcDbScale
 70
     0
300
1/16" = 1'-0"
140
0.0625
141
12.0
290
     0
  0
SCALE
  5
5D
102
{ACAD_REACTORS
330
47
102
}
330
47
100
AcDbScale
 70
     0
300
3/32" = 1'-0"
140
0.09375
141
12.0
290
     0
  0
SCALE
  5
5E
102
{ACAD_REACTORS
330
47
102
}
330
47
100
AcDbScale
 70
     0
300
1/8" = 1'-0"
140
0.125
141
12.0
290
     0
  0
SCALE
  5
5F
102
{ACAD_REACTORS
330
47
102
}
330
47
100
AcDbScale
 70
     0
300
3/16" = 1'-0"
140
0.1875
141
12.0
290
     0
  0
SCALE
  5
60
102
{ACAD_REACTORS
330
47
102
}
330
47
100
AcDbScale
 70
     0
300
1/4" = 1'-0"
140
0.25
141
12.0
290
     0
  0
SCALE
  5
61
102
{ACAD_REACTORS
330
47
102
}
330
47
100
AcDbScale
 70
     0
300
3/8" = 1'-0"
140
0.375
141
12.0
290
     0
  0
SCALE
  5
62
102
{ACAD_REACTORS
330
47
102
}
330
47
100
AcDbScale
 70
     0
300
1/2" = 1'-0"
140
0.5
141
12.0
290
     0
  0
SCALE
  5
63
102
{ACAD_REACTORS
330
47
102
}
330
47
100
AcDbScale
 70
     0
300
3/4" = 1'-0"
140
0.75
141
12.0
290
     0
  0
SCALE
  5
64
102
{ACAD_REACTORS
330
47
102
}
330
47
100
AcDbScale
 70
     0
300
1" = 1'-0"
140
1.0
141
12.0
290
     0
  0
SCALE
  5
65
102
{ACAD_REACTORS
330
47
102
}
330
47
100
AcDbScale
 70
     0
300
1-1/2" = 1'-0"
140
1.5
141
12.0
290
     0
  0
SCALE
  5
66
102
{ACAD_REACTORS
330
47
102
}
330
47
100
AcDbScale
 70
     0
300
3" = 1'-0"
140
3.0
141
12.0
290
     0
  0
SCALE
  5
67
102
{ACAD_REACTORS
330
47
102
}
330
47
100
AcDbScale
 70
     0
300
6" = 1'-0"
140
6.0
141
12.0
290
     0
  0
SCALE
  5
68
102
{ACAD_REACTORS
330
47
102
}
330
47
100
AcDbScale
 70
     0
300
1'-0" = 1'-0"
140
12.0
141
12.0
290
     0
  0
VISUALSTYLE
  5
2F
102
{ACAD_REACTORS
330
2A
102
}
102
{ACAD_XDICTIONARY
360
1A2BA
102
}
330
2A
100
AcDbVisualStyle
  2
2dWireframe
 70
     4
 71
     0
 72
     2
 73
     0
 90
        0
 40
0.6
 41
30.0
 62
     5
 63
     7
 74
     1
 91
        4
 64
     7
 65
   257
 75
     1
175
     1
 42
1.0
 92
        0
 66
   257
 43
1.0
 76
     1
 77
     6
 78
     2
 67
     7
 79
     5
170
     0
171
     0
290
     0
174
     0
 93
        1
 44
0.0
173
     0
291
     0
 45
0.0
1001
ACAD
1000
AcDbSavedByObjectVersion
1070
     0
  0
VISUALSTYLE
  5
32
102
{ACAD_REACTORS
330
2A
102
}
102
{ACAD_XDICTIONARY
360
1A2BC
102
}
330
2A
100
AcDbVisualStyle
  2
Basic
 70
     7
 71
     1
 72
     0
 73
     1
 90
        0
 40
0.6
 41
30.0
 62
     5
 63
     7
 74
     0
 91
        4
 64
     7
 65
   257
 75
     1
175
     1
 42
1.0
 92
        8
 66
     7
 43
1.0
 76
     1
 77
     6
 78
     2
 67
     7
 79
     5
170
     0
171
     0
290
     0
174
     0
 93
        1
 44
0.0
173
     0
291
     1
 45
0.0
1001
ACAD
1000
AcDbSavedByObjectVersion
1070
     0
  0
VISUALSTYLE
  5
36
102
{ACAD_REACTORS
330
2A
102
}
102
{ACAD_XDICTIONARY
360
1A2BE
102
}
330
2A
100
AcDbVisualStyle
  2
Brighten
 70
    12
 71
     2
 72
     2
 73
     0
 90
        0
 40
0.6
 41
30.0
 62
     5
 63
     7
 74
     1
 91
        4
 64
     7
 65
   257
 75
     1
175
     1
 42
1.0
 92
        8
 66
     7
 43
1.0
 76
     1
 77
     6
 78
     2
 67
     7
 79
     5
170
     0
171
     0
290
     0
174
     0
 93
        1
 44
50.0
173
     0
291
     1
 45
0.0
1001
ACAD
1000
AcDbSavedByObjectVersion
1070
     0
  0
VISUALSTYLE
  5
3A
102
{ACAD_REACTORS
330
2A
102
}
102
{ACAD_XDICTIONARY
360
1A2C0
102
}
330
2A
100
AcDbVisualStyle
  2
ColorChange
 70
    16
 71
     2
 72
     2
 73
     3
 90
        0
 40
0.6
 41
30.0
 62
     5
 63
     8
 74
     1
 91
        4
 64
     7
 65
   257
 75
     1
175
     1
 42
1.0
 92
        8
 66
     8
 43
1.0
 76
     1
 77
     6
 78
     2
 67
     7
 79
     5
170
     0
171
     0
290
     0
174
     0
 93
        1
 44
0.0
173
     0
291
     1
 45
0.0
1001
ACAD
1000
AcDbSavedByObjectVersion
1070
     0
  0
VISUALSTYLE
  5
34
102
{ACAD_REACTORS
330
2A
102
}
102
{ACAD_XDICTIONARY
360
1A2C2
102
}
330
2A
100
AcDbVisualStyle
  2
Conceptual
 70
     9
 71
     3
 72
     2
 73
     0
 90
        0
 40
0.6
 41
30.0
 62
     5
 63
     7
 74
     2
 91
        2
 64
     7
 65
   257
 75
     1
175
     1
 42
40.0
 92
        8
 66
     7
 43
1.0
 76
     1
 77
     6
 78
     2
 67
     7
 79
     3
170
     0
171
     0
290
     0
174
     0
 93
        1
 44
0.0
173
     0
291
     0
 45
0.0
1001
ACAD
1000
AcDbSavedByObjectVersion
1070
     0
  0
VISUALSTYLE
  5
35
102
{ACAD_REACTORS
330
2A
102
}
102
{ACAD_XDICTIONARY
360
1A2C4
102
}
330
2A
100
AcDbVisualStyle
  2
Dim
 70
    11
 71
     2
 72
     2
 73
     0
 90
        0
 40
0.6
 41
30.0
 62
     5
 63
     7
 74
     1
 91
        4
 64
     7
 65
   257
 75
     1
175
     1
 42
1.0
 92
        8
 66
     7
 43
1.0
 76
     1
 77
     6
 78
     2
 67
     7
 79
     5
170
     0
171
     0
290
     0
174
     0
 93
        1
 44
-50.0
173
     0
291
     1
 45
0.0
1001
ACAD
1000
AcDbSavedByObjectVersion
1070
     0
  0
VISUALSTYLE
  5
3D
102
{ACAD_REACTORS
330
2A
102
}
102
{ACAD_XDICTIONARY
360
1A2C6
102
}
330
2A
100
AcDbVisualStyle
  2
EdgeColorOff
 70
    22
 71
     2
 72
     2
 73
     0
 90
        0
 40
0.6
 41
30.0
 62
     5
 63
     7
 74
     1
 91
        4
 64
     7
 65
   257
 75
     1
175
     1
 42
1.0
 92
        8
 66
     7
 43
1.0
 76
     1
 77
     6
 78
     2
 67
     7
 79
     5
170
     0
171
     0
290
     0
174
     0
 93
        1
 44
0.0
173
     0
291
     1
 45
0.0
1001
ACAD
1000
AcDbSavedByObjectVersion
1070
     0
  0
VISUALSTYLE
  5
39
102
{ACAD_REACTORS
330
2A
102
}
102
{ACAD_XDICTIONARY
360
1A2C8
102
}
330
2A
100
AcDbVisualStyle
  2
Facepattern
 70
    15
 71
     2
 72
     2
 73
     0
 90
        0
 40
0.6
 41
30.0
 62
     5
 63
     7
 74
     1
 91
        4
 64
     7
 65
   257
 75
     1
175
     1
 42
1.0
 92
        8
 66
     7
 43
1.0
 76
     1
 77
     6
 78
     2
 67
     7
 79
     5
170
     0
171
     0
290
     0
174
     0
 93
        1
 44
0.0
173
     0
291
     1
 45
0.0
1001
ACAD
1000
AcDbSavedByObjectVersion
1070
     0
  0
VISUALSTYLE
  5
2B
102
{ACAD_REACTORS
330
2A
102
}
102
{ACAD_XDICTIONARY
360
1A2CA
102
}
330
2A
100
AcDbVisualStyle
  2
Flat
 70
     0
 71
     2
 72
     1
 73
     1
 90
        2
 40
0.6
 41
30.0
 62
     5
 63
     7
 74
     0
 91
        4
 64
     7
 65
   257
 75
     1
175
     1
 42
1.0
 92
        8
 66
     7
 43
1.0
 76
     1
 77
     6
 78
     2
 67
     7
 79
     5
170
     0
171
     0
290
     0
174
     0
 93
       13
 44
0.0
173
     0
291
     1
 45
0.0
1001
ACAD
1000
AcDbSavedByObjectVersion
1070
     0
  0
VISUALSTYLE
  5
2C
102
{ACAD_REACTORS
330
2A
102
}
102
{ACAD_XDICTIONARY
360
1A2CC
102
}
330
2A
100
AcDbVisualStyle
  2
FlatWithEdges
 70
     1
 71
     2
 72
     1
 73
     1
 90
        2
 40
0.6
 41
30.0
 62
     5
 63
     7
 74
     1
 91
        4
 64
     7
 65
   257
 75
     1
175
     1
 42
1.0
 92
        0
 66
   257
 43
1.0
 76
     1
 77
     6
 78
     2
 67
     7
 79
     5
170
     0
171
     0
290
     0
174
     0
 93
       13
 44
0.0
173
     0
291
     1
 45
0.0
1001
ACAD
1000
AcDbSavedByObjectVersion
1070
     0
  0
VISUALSTYLE
  5
2D
102
{ACAD_REACTORS
330
2A
102
}
102
{ACAD_XDICTIONARY
360
1A2CE
102
}
330
2A
100
AcDbVisualStyle
  2
Gouraud
 70
     2
 71
     2
 72
     2
 73
     1
 90
        2
 40
0.6
 41
30.0
 62
     5
 63
     7
 74
     0
 91
        4
 64
     7
 65
   257
 75
     1
175
     1
 42
1.0
 92
        0
 66
     7
 43
1.0
 76
     1
 77
     6
 78
     2
 67
     7
 79
     5
170
     0
171
     0
290
     0
174
     0
 93
       13
 44
0.0
173
     0
291
     1
 45
0.0
1001
ACAD
1000
AcDbSavedByObjectVersion
1070
     0
  0
VISUALSTYLE
  5
2E
102
{ACAD_REACTORS
330
2A
102
}
102
{ACAD_XDICTIONARY
360
1A2D0
102
}
330
2A
100
AcDbVisualStyle
  2
GouraudWithEdges
 70
     3
 71
     2
 72
     2
 73
     1
 90
        2
 40
0.6
 41
30.0
 62
     5
 63
     7
 74
     1
 91
        4
 64
     7
 65
   257
 75
     1
175
     1
 42
1.0
 92
        0
 66
   257
 43
1.0
 76
     1
 77
     6
 78
     2
 67
     7
 79
     5
170
     0
171
     0
290
     0
174
     0
 93
       13
 44
0.0
173
     0
291
     1
 45
0.0
1001
ACAD
1000
AcDbSavedByObjectVersion
1070
     0
  0
VISUALSTYLE
  5
31
102
{ACAD_REACTORS
330
2A
102
}
102
{ACAD_XDICTIONARY
360
1A2D2
102
}
330
2A
100
AcDbVisualStyle
  2
Hidden
 70
     6
 71
     1
 72
     2
 73
     2
 90
        0
 40
0.6
 41
30.0
 62
     5
 63
     7
 74
     2
 91
        2
 64
     7
 65
   257
 75
     2
175
     1
 42
40.0
 92
        0
 66
   257
 43
1.0
 76
     1
 77
     6
 78
     2
 67
     7
 79
     3
170
     0
171
     0
290
     0
174
     0
 93
        1
 44
0.0
173
     0
291
     0
 45
0.0
1001
ACAD
1000
AcDbSavedByObjectVersion
1070
     0
  0
VISUALSTYLE
  5
3B
102
{ACAD_REACTORS
330
2A
102
}
102
{ACAD_XDICTIONARY
360
1A2D4
102
}
330
2A
100
AcDbVisualStyle
  2
JitterOff
 70
    20
 71
     2
 72
     2
 73
     0
 90
        0
 40
0.6
 41
30.0
 62
     5
 63
     7
 74
     1
 91
        4
 64
     7
 65
   257
 75
     1
175
     1
 42
1.0
 92
       10
 66
     7
 43
1.0
 76
     1
 77
     6
 78
     2
 67
     7
 79
     5
170
     0
171
     0
290
     0
174
     0
 93
        1
 44
0.0
173
     0
291
     1
 45
0.0
1001
ACAD
1000
AcDbSavedByObjectVersion
1070
     0
  0
VISUALSTYLE
  5
38
102
{ACAD_REACTORS
330
2A
102
}
102
{ACAD_XDICTIONARY
360
1A2D6
102
}
330
2A
100
AcDbVisualStyle
  2
Linepattern
 70
    14
 71
     2
 72
     2
 73
     0
 90
        0
 40
0.6
 41
30.0
 62
     5
 63
     7
 74
     1
 91
        4
 64
     7
 65
   257
 75
     7
175
     7
 42
1.0
 92
        8
 66
     7
 43
1.0
 76
     1
 77
     6
 78
     2
 67
     7
 79
     5
170
     0
171
     0
290
     0
174
     0
 93
        1
 44
0.0
173
     0
291
     1
 45
0.0
1001
ACAD
1000
AcDbSavedByObjectVersion
1070
     0
  0
VISUALSTYLE
  5
3C
102
{ACAD_REACTORS
330
2A
102
}
102
{ACAD_XDICTIONARY
360
1A2D8
102
}
330
2A
100
AcDbVisualStyle
  2
OverhangOff
 70
    21
 71
     2
 72
     2
 73
     0
 90
        0
 40
0.6
 41
30.0
 62
     5
 63
     7
 74
     1
 91
        4
 64
     7
 65
   257
 75
     1
175
     1
 42
1.0
 92
        9
 66
     7
 43
1.0
 76
     1
 77
     6
 78
     2
 67
     7
 79
     5
170
     0
171
     0
290
     0
174
     0
 93
        1
 44
0.0
173
     0
291
     1
 45
0.0
1001
ACAD
1000
AcDbSavedByObjectVersion
1070
     0
  0
VISUALSTYLE
  5
33
102
{ACAD_REACTORS
330
2A
102
}
102
{ACAD_XDICTIONARY
360
1A2DA
102
}
330
2A
100
AcDbVisualStyle
  2
Realistic
 70
     8
 71
     2
 72
     3
 73
     0
 90
        2
 40
0.6
 41
30.0
 62
     5
 63
     7
 74
     0
 91
        0
 64
     7
 65
   257
 75
     1
175
     1
 42
1.0
 92
        8
 66
   257
 43
1.0
 76
     1
 77
     6
 78
     2
 67
     7
 79
     3
170
     0
171
     0
290
     0
174
     0
 93
       13
 44
0.0
173
     0
291
     0
 45
0.0
1001
ACAD
1000
AcDbSavedByObjectVersion
1070
     0
  0
VISUALSTYLE
  5
42
102
{ACAD_REACTORS
330
2A
102
}
102
{ACAD_XDICTIONARY
360
1A2DC
102
}
330
2A
100
AcDbVisualStyle
  2
Shaded
 70
    27
 71
     2
 72
     2
 73
     1
 90
        2
 40
0.6
 41
30.0
 62
     5
 63
     7
 74
     0
 91
        4
 64
     7
 65
   257
 75
     1
175
     1
 42
1.0
 92
        8
 66
   257
 43
1.0
 76
     1
 77
     6
 78
     2
 67
   251
 79
     3
170
     0
171
     0
290
     0
174
     0
 93
        5
 44
0.0
173
     0
291
     0
 45
0.0
1001
ACAD
1000
AcDbSavedByObjectVersion
1070
     0
  0
VISUALSTYLE
  5
41
102
{ACAD_REACTORS
330
2A
102
}
102
{ACAD_XDICTIONARY
360
1A2DE
102
}
330
2A
100
AcDbVisualStyle
  2
Shaded with edges
 70
    26
 71
     2
 72
     2
 73
     1
 90
        2
 40
0.6
 41
30.0
 62
     5
 63
     7
 74
     1
 91
       10
 64
     7
 65
   257
 75
     2
175
     1
 42
1.0
 92
        8
 66
   257
 43
1.0
 76
     1
 77
     6
 78
     2
 67
     7
 79
     3
170
     0
171
     0
290
     0
174
     0
 93
        5
 44
0.0
173
     0
291
     0
 45
0.0
1001
ACAD
1000
AcDbSavedByObjectVersion
1070
     0
  0
VISUALSTYLE
  5
3E
102
{ACAD_REACTORS
330
2A
102
}
102
{ACAD_XDICTIONARY
360
1A2E0
102
}
330
2A
100
AcDbVisualStyle
  2
Shades of Gray
 70
    23
 71
     2
 72
     2
 73
     3
 90
        0
 40
0.6
 41
30.0
 62
     5
 63
     7
 74
     2
 91
        2
 64
     7
 65
     7
 75
     1
175
     1
 42
40.0
 92
        8
 66
     7
 43
1.0
 76
     1
 77
     6
 78
     2
 67
     7
 79
     3
170
     0
171
     0
290
     0
174
     0
 93
        1
 44
0.0
173
     0
291
     0
 45
0.0
1001
ACAD
1000
AcDbSavedByObjectVersion
1070
     0
  0
VISUALSTYLE
  5
3F
102
{ACAD_REACTORS
330
2A
102
}
102
{ACAD_XDICTIONARY
360
1A2E2
102
}
330
2A
100
AcDbVisualStyle
  2
Sketchy
 70
    24
 71
     1
 72
     2
 73
     2
 90
        0
 40
0.6
 41
30.0
 62
     5
 63
     7
 74
     2
 91
        2
 64
     7
 65
     7
 75
     1
175
     1
 42
40.0
 92
       11
 66
     7
 43
1.0
 76
     1
 77
     6
 78
     2
 67
     7
 79
     6
170
     0
171
     0
290
     0
174
     0
 93
        1
 44
0.0
173
     0
291
     0
 45
0.0
1001
ACAD
1000
AcDbSavedByObjectVersion
1070
     0
  0
VISUALSTYLE
  5
37
102
{ACAD_REACTORS
330
2A
102
}
102
{ACAD_XDICTIONARY
360
1A2E4
102
}
330
2A
100
AcDbVisualStyle
  2
Thicken
 70
    13
 71
     2
 72
     2
 73
     0
 90
        0
 40
0.6
 41
30.0
 62
     5
 63
     7
 74
     1
 91
        4
 64
     7
 65
   257
 75
     1
175
     1
 42
1.0
 92
       12
 66
     7
 43
1.0
 76
     1
 77
     6
 78
     2
 67
     7
 79
     5
170
     0
171
     0
290
     0
174
     0
 93
        1
 44
0.0
173
     0
291
     1
 45
0.0
1001
ACAD
1000
AcDbSavedByObjectVersion
1070
     0
  0
VISUALSTYLE
  5
30
102
{ACAD_REACTORS
330
2A
102
}
102
{ACAD_XDICTIONARY
360
1A2E6
102
}
330
2A
100
AcDbVisualStyle
  2
Wireframe
 70
     5
 71
     0
 72
     2
 73
     0
 90
        0
 40
0.6
 41
30.0
 62
     5
 63
     7
 74
     1
 91
        4
 64
     7
 65
   257
 75
     1
175
     1
 42
1.0
 92
        0
 66
   257
 43
1.0
 76
     1
 77
     6
 78
     2
 67
     7
 79
     5
170
     0
171
     0
290
     0
174
     0
 93
        1
 44
0.0
173
     0
291
     0
 45
0.0
1001
ACAD
1000
AcDbSavedByObjectVersion
1070
     0
  0
VISUALSTYLE
  5
40
102
{ACAD_REACTORS
330
2A
102
}
102
{ACAD_XDICTIONARY
360
1A2E8
102
}
330
2A
100
AcDbVisualStyle
  2
X-Ray
 70
    25
 71
     2
 72
     2
 73
     1
 90
        1
 40
0.5
 41
30.0
 62
     5
 63
     7
 74
     1
 91
        0
 64
     7
 65
   257
 75
     1
175
     1
 42
1.0
 92
        8
 66
     7
 43
1.0
 76
     1
 77
     6
 78
     2
 67
     7
 79
     3
170
     0
171
     0
290
     0
174
     0
 93
       13
 44
0.0
173
     0
291
     0
 45
0.0
1001
ACAD
1000
AcDbSavedByObjectVersion
1070
     0
  0
XRECORD
  5
1A2B0
102
{ACAD_REACTORS
330
1A2AF
102
}
330
1A2AF
100
AcDbXrecord
280
     1
340
6B
  0
XRECORD
  5
1A2B1
102
{ACAD_REACTORS
330
1A2AF
102
}
330
1A2AF
100
AcDbXrecord
280
     1
340
43
  0
DICTIONARYVAR
  5
1A2B3
102
{ACAD_REACTORS
330
19F5B
102
}
330
19F5B
100
DictionaryVariables
280
     0
  1
1:1
  0
DICTIONARYVAR
  5
19F60
102
{ACAD_REACTORS
330
19F5B
102
}
330
19F5B
100
DictionaryVariables
280
     0
  1
2
  0
DICTIONARYVAR
  5
19F61
102
{ACAD_REACTORS
330
19F5B
102
}
330
19F5B
100
DictionaryVariables
280
     0
  1
1
  0
DICTIONARYVAR
  5
19F67
102
{ACAD_REACTORS
330
19F5B
102
}
330
19F5B
100
DictionaryVariables
280
     0
  1
1
  0
DICTIONARYVAR
  5
1A2AC
102
{ACAD_REACTORS
330
19F5B
102
}
330
19F5B
100
DictionaryVariables
280
     0
  1
80.000000
  0
DICTIONARYVAR
  5
1A2AB
102
{ACAD_REACTORS
330
19F5B
102
}
330
19F5B
100
DictionaryVariables
280
     0
  1
5.000000
  0
DICTIONARY
  5
1A2B4
330
45
100
AcDbDictionary
280
     1
281
     1
  3
ACAD_XREC_ROUNDTRIP
360
1A2B5
  0
DICTIONARY
  5
1A2B6
330
44
100
AcDbDictionary
280
     1
281
     1
  3
ACAD_XREC_ROUNDTRIP
360
1A2B7
  0
DICTIONARY
  5
1A2B8
330
46
100
AcDbDictionary
280
     1
281
     1
  3
ACAD_XREC_ROUNDTRIP
360
1A2B9
  0
DICTIONARY
  5
1A2BA
330
2F
100
AcDbDictionary
280
     1
281
     1
  3
ACAD_XREC_ROUNDTRIP
360
1A2BB
  0
DICTIONARY
  5
1A2BC
330
32
100
AcDbDictionary
280
     1
281
     1
  3
ACAD_XREC_ROUNDTRIP
360
1A2BD
  0
DICTIONARY
  5
1A2BE
330
36
100
AcDbDictionary
280
     1
281
     1
  3
ACAD_XREC_ROUNDTRIP
360
1A2BF
  0
DICTIONARY
  5
1A2C0
330
3A
100
AcDbDictionary
280
     1
281
     1
  3
ACAD_XREC_ROUNDTRIP
360
1A2C1
  0
DICTIONARY
  5
1A2C2
330
34
100
AcDbDictionary
280
     1
281
     1
  3
ACAD_XREC_ROUNDTRIP
360
1A2C3
  0
DICTIONARY
  5
1A2C4
330
35
100
AcDbDictionary
280
     1
281
     1
  3
ACAD_XREC_ROUNDTRIP
360
1A2C5
  0
DICTIONARY
  5
1A2C6
330
3D
100
AcDbDictionary
280
     1
281
     1
  3
ACAD_XREC_ROUNDTRIP
360
1A2C7
  0
DICTIONARY
  5
1A2C8
330
39
100
AcDbDictionary
280
     1
281
     1
  3
ACAD_XREC_ROUNDTRIP
360
1A2C9
  0
DICTIONARY
  5
1A2CA
330
2B
100
AcDbDictionary
280
     1
281
     1
  3
ACAD_XREC_ROUNDTRIP
360
1A2CB
  0
DICTIONARY
  5
1A2CC
330
2C
100
AcDbDictionary
280
     1
281
     1
  3
ACAD_XREC_ROUNDTRIP
360
1A2CD
  0
DICTIONARY
  5
1A2CE
330
2D
100
AcDbDictionary
280
     1
281
     1
  3
ACAD_XREC_ROUNDTRIP
360
1A2CF
  0
DICTIONARY
  5
1A2D0
330
2E
100
AcDbDictionary
280
     1
281
     1
  3
ACAD_XREC_ROUNDTRIP
360
1A2D1
  0
DICTIONARY
  5
1A2D2
330
31
100
AcDbDictionary
280
     1
281
     1
  3
ACAD_XREC_ROUNDTRIP
360
1A2D3
  0
DICTIONARY
  5
1A2D4
330
3B
100
AcDbDictionary
280
     1
281
     1
  3
ACAD_XREC_ROUNDTRIP
360
1A2D5
  0
DICTIONARY
  5
1A2D6
330
38
100
AcDbDictionary
280
     1
281
     1
  3
ACAD_XREC_ROUNDTRIP
360
1A2D7
  0
DICTIONARY
  5
1A2D8
330
3C
100
AcDbDictionary
280
     1
281
     1
  3
ACAD_XREC_ROUNDTRIP
360
1A2D9
  0
DICTIONARY
  5
1A2DA
330
33
100
AcDbDictionary
280
     1
281
     1
  3
ACAD_XREC_ROUNDTRIP
360
1A2DB
  0
DICTIONARY
  5
1A2DC
330
42
100
AcDbDictionary
280
     1
281
     1
  3
ACAD_XREC_ROUNDTRIP
360
1A2DD
  0
DICTIONARY
  5
1A2DE
330
41
100
AcDbDictionary
280
     1
281
     1
  3
ACAD_XREC_ROUNDTRIP
360
1A2DF
  0
DICTIONARY
  5
1A2E0
330
3E
100
AcDbDictionary
280
     1
281
     1
  3
ACAD_XREC_ROUNDTRIP
360
1A2E1
  0
DICTIONARY
  5
1A2E2
330
3F
100
AcDbDictionary
280
     1
281
     1
  3
ACAD_XREC_ROUNDTRIP
360
1A2E3
  0
DICTIONARY
  5
1A2E4
330
37
100
AcDbDictionary
280
     1
281
     1
  3
ACAD_XREC_ROUNDTRIP
360
1A2E5
  0
DICTIONARY
  5
1A2E6
330
30
100
AcDbDictionary
280
     1
281
     1
  3
ACAD_XREC_ROUNDTRIP
360
1A2E7
  0
DICTIONARY
  5
1A2E8
330
40
100
AcDbDictionary
280
     1
281
     1
  3
ACAD_XREC_ROUNDTRIP
360
1A2E9
  0
XRECORD
  5
1A2B5
102
{ACAD_REACTORS
330
1A2B4
102
}
330
1A2B4
100
AcDbXrecord
280
     1
102
MATERIAL
148
0.0
149
0.0
149
0.0
 93
        0
 94
      127
282
     0
 72
     1
 77
     1
171
     1
175
     1
179
     1
273
     0
  0
XRECORD
  5
1A2B7
102
{ACAD_REACTORS
330
1A2B6
102
}
330
1A2B6
100
AcDbXrecord
280
     1
102
MATERIAL
148
0.0
149
0.0
149
0.0
 93
        0
 94
      127
282
     0
 72
     1
 77
     1
171
     1
175
     1
179
     1
273
     0
  0
XRECORD
  5
1A2B9
102
{ACAD_REACTORS
330
1A2B8
102
}
330
1A2B8
100
AcDbXrecord
280
     1
102
MATERIAL
148
0.0
149
0.0
149
0.0
 93
        0
 94
      127
282
     0
 72
     1
 77
     1
171
     1
175
     1
179
     1
273
     0
  0
XRECORD
  5
1A2BB
102
{ACAD_REACTORS
330
1A2BA
102
}
330
1A2BA
100
AcDbXrecord
280
     1
102
RTVSPropertyOp0
 70
     1
102
RTVSPropertyOp1
 70
     1
102
RTVSPropertyOp2
 70
     1
102
RTVSPropertyOp3
 70
     1
102
RTVSPropertyOp4
 70
     1
102
RTVSPropertyOp5
 70
     1
102
RTVSPropertyOp6
 70
     1
102
RTVSPropertyOp7
 70
     1
102
RTVSPropertyOp8
 70
     1
102
RTVSPropertyOp9
 70
     1
102
RTVSPropertyOp10
 70
     1
102
RTVSPropertyOp11
 70
     1
102
RTVSPropertyOp12
 70
     1
102
RTVSPropertyOp13
 70
     1
102
RTVSPropertyOp14
 70
     1
102
RTVSPropertyOp15
 70
     1
102
RTVSPropertyOp16
 70
     1
102
RTVSPropertyOp17
 70
     1
102
RTVSPropertyOp18
 70
     1
102
RTVSPropertyOp19
 70
     1
102
RTVSPropertyOp20
 70
     1
102
RTVSPropertyOp21
 70
     1
102
RTVSPropertyOp22
 70
     1
102
RTVSPropertyOp23
 70
     1
102
RTVSPropertyOp24
 70
     1
102
RTVSPropertyOp25
 70
     1
102
RTVSPropertyOp26
 70
     1
102
RTVSPropertyOp27
 70
     1
102
RTVSPropertyOp28
 70
     1
102
RTVSPropertyOp29
 70
     1
102
RTVSPropertyOp30
 70
     1
102
RTVSPropertyOp31
 70
     1
102
RTVSPropertyOp32
 70
     1
102
RTVSPropertyOp33
 70
     1
102
RTVSPropertyOp34
 70
     1
102
RTVSPropertyOp35
 70
     1
102
RTVSPropertyOp36
 70
     1
102
RTVSPropertyOp37
 70
     1
102
RTVSPropertyOp38
 70
     1
102
RTVSPropertyOp39
 70
     1
102
RTVSPropertyOp40
 70
     1
102
RTVSPropertyOp41
 70
     1
102
RTVSPropertyOp42
 70
     1
102
RTVSPropertyOp43
 70
     1
102
RTVSPropertyOp44
 70
     1
102
RTVSPropertyOp45
 70
     1
102
RTVSPropertyOp46
 70
     1
102
RTVSPropertyOp47
 70
     1
102
RTVSPropertyOp48
 70
     1
102
RTVSPropertyOp49
 70
     1
102
RTVSPropertyOp50
 70
     1
102
RTVSPropertyOp51
 70
     0
102
RTVSPropertyOp52
 70
     0
102
RTVSPropertyOp53
 70
     1
102
RTVSPropertyOp54
 70
     1
102
RTVSPropertyOp55
 70
     1
102
RTVSPropertyOp56
 70
     1
102
RTVSPropertyOp57
 70
     1
102
RTVSPost2010Prop28
280
     1
102
RTVSPost2010PropOp28
 70
     1
102
RTVSPost2010Prop29
280
     1
102
RTVSPost2010PropOp29
 70
     1
102
RTVSPost2010Prop30
280
     0
102
RTVSPost2010PropOp30
 70
     1
102
RTVSPost2010Prop31
280
     0
102
RTVSPost2010PropOp31
 70
     1
102
RTVSPost2010Prop32
280
     0
102
RTVSPost2010PropOp32
 70
     1
102
RTVSPost2010Prop33
280
     0
102
RTVSPost2010PropOp33
 70
     1
102
RTVSPost2010Prop34
280
     0
102
RTVSPost2010PropOp34
 70
     1
102
RTVSPost2010Prop35
280
     0
102
RTVSPost2010PropOp35
 70
     1
102
RTVSPost2010Prop36
280
     0
102
RTVSPost2010PropOp36
 70
     1
102
RTVSPost2010Prop37
 90
       50
102
RTVSPost2010PropOp37
 70
     1
102
RTVSPost2010Prop38
140
0.0
102
RTVSPost2010PropOp38
 70
     1
102
RTVSPost2010Prop39
140
1.0
102
RTVSPost2010PropOp39
 70
     1
102
RTVSPost2010Prop40
 90
        0
102
RTVSPost2010PropOp40
 70
     1
102
RTVSPost2010Prop41ColorIndex
 90
       18
102
RTVSPost2010Prop41ColorRGB
 90
        0
102
RTVSPost2010PropOp41
 70
     1
102
RTVSPost2010Prop42
 90
       50
102
RTVSPost2010PropOp42
 70
     1
102
RTVSPost2010Prop43
 90
        3
102
RTVSPost2010PropOp43
 70
     1
102
RTVSPost2010Prop44ColorIndex
 90
        5
102
RTVSPost2010Prop44ColorRGB
 90
      255
102
RTVSPost2010PropOp44
 70
     1
102
RTVSPost2010Prop45
280
     0
102
RTVSPost2010PropOp45
 70
     1
102
RTVSPost2010Prop46
 90
       50
102
RTVSPost2010PropOp46
 70
     1
102
RTVSPost2010Prop47
 90
       50
102
RTVSPost2010PropOp47
 70
     1
102
RTVSPost2010Prop48
 90
       50
102
RTVSPost2010PropOp48
 70
     1
102
RTVSPost2010Prop49
280
     0
102
RTVSPost2010PropOp49
 70
     1
102
RTVSPost2010Prop50
 90
       50
102
RTVSPost2010PropOp50
 70
     1
102
RTVSPost2010Prop51ColorIndex
 90
      256
102
RTVSPost2010Prop51ColorRGB
 90
-16777216
102
RTVSPost2010PropOp51
 70
     0
102
RTVSPost2010Prop52
140
1.0
102
RTVSPost2010PropOp52
 70
     0
102
RTVSPost2010Prop53
 90
        2
102
RTVSPost2010PropOp53
 70
     1
102
RTVSPost2010Prop54
  1
strokes_ogs.tif
102
RTVSPost2010PropOp54
 70
     1
102
RTVSPost2010Prop55
280
     0
102
RTVSPost2010PropOp55
 70
     1
102
RTVSPost2010Prop56
140
1.0
102
RTVSPost2010PropOp56
 70
     1
102
RTVSPost2010Prop57
140
1.0
102
RTVSPost2010PropOp57
 70
     1
  0
XRECORD
  5
1A2BD
102
{ACAD_REACTORS
330
1A2BC
102
}
330
1A2BC
100
AcDbXrecord
280
     1
102
RTVSPropertyOp0
 70
     1
102
RTVSPropertyOp1
 70
     1
102
RTVSPropertyOp2
 70
     1
102
RTVSPropertyOp3
 70
     1
102
RTVSPropertyOp4
 70
     1
102
RTVSPropertyOp5
 70
     1
102
RTVSPropertyOp6
 70
     1
102
RTVSPropertyOp7
 70
     1
102
RTVSPropertyOp8
 70
     1
102
RTVSPropertyOp9
 70
     1
102
RTVSPropertyOp10
 70
     1
102
RTVSPropertyOp11
 70
     1
102
RTVSPropertyOp12
 70
     1
102
RTVSPropertyOp13
 70
     1
102
RTVSPropertyOp14
 70
     1
102
RTVSPropertyOp15
 70
     1
102
RTVSPropertyOp16
 70
     1
102
RTVSPropertyOp17
 70
     1
102
RTVSPropertyOp18
 70
     1
102
RTVSPropertyOp19
 70
     1
102
RTVSPropertyOp20
 70
     1
102
RTVSPropertyOp21
 70
     1
102
RTVSPropertyOp22
 70
     1
102
RTVSPropertyOp23
 70
     1
102
RTVSPropertyOp24
 70
     1
102
RTVSPropertyOp25
 70
     1
102
RTVSPropertyOp26
 70
     1
102
RTVSPropertyOp27
 70
     1
102
RTVSPropertyOp28
 70
     1
102
RTVSPropertyOp29
 70
     1
102
RTVSPropertyOp30
 70
     1
102
RTVSPropertyOp31
 70
     1
102
RTVSPropertyOp32
 70
     1
102
RTVSPropertyOp33
 70
     1
102
RTVSPropertyOp34
 70
     1
102
RTVSPropertyOp35
 70
     1
102
RTVSPropertyOp36
 70
     1
102
RTVSPropertyOp37
 70
     1
102
RTVSPropertyOp38
 70
     1
102
RTVSPropertyOp39
 70
     1
102
RTVSPropertyOp40
 70
     1
102
RTVSPropertyOp41
 70
     1
102
RTVSPropertyOp42
 70
     1
102
RTVSPropertyOp43
 70
     1
102
RTVSPropertyOp44
 70
     1
102
RTVSPropertyOp45
 70
     1
102
RTVSPropertyOp46
 70
     1
102
RTVSPropertyOp47
 70
     1
102
RTVSPropertyOp48
 70
     1
102
RTVSPropertyOp49
 70
     1
102
RTVSPropertyOp50
 70
     1
102
RTVSPropertyOp51
 70
     0
102
RTVSPropertyOp52
 70
     0
102
RTVSPropertyOp53
 70
     1
102
RTVSPropertyOp54
 70
     1
102
RTVSPropertyOp55
 70
     1
102
RTVSPropertyOp56
 70
     1
102
RTVSPropertyOp57
 70
     1
102
RTVSPost2010Prop28
280
     0
102
RTVSPost2010PropOp28
 70
     1
102
RTVSPost2010Prop29
280
     1
102
RTVSPost2010PropOp29
 70
     1
102
RTVSPost2010Prop30
280
     1
102
RTVSPost2010PropOp30
 70
     1
102
RTVSPost2010Prop31
280
     0
102
RTVSPost2010PropOp31
 70
     1
102
RTVSPost2010Prop32
280
     0
102
RTVSPost2010PropOp32
 70
     1
102
RTVSPost2010Prop33
280
     0
102
RTVSPost2010PropOp33
 70
     1
102
RTVSPost2010Prop34
280
     0
102
RTVSPost2010PropOp34
 70
     1
102
RTVSPost2010Prop35
280
     0
102
RTVSPost2010PropOp35
 70
     1
102
RTVSPost2010Prop36
280
     0
102
RTVSPost2010PropOp36
 70
     1
102
RTVSPost2010Prop37
 90
       50
102
RTVSPost2010PropOp37
 70
     1
102
RTVSPost2010Prop38
140
0.0
102
RTVSPost2010PropOp38
 70
     1
102
RTVSPost2010Prop39
140
1.0
102
RTVSPost2010PropOp39
 70
     1
102
RTVSPost2010Prop40
 90
        0
102
RTVSPost2010PropOp40
 70
     1
102
RTVSPost2010Prop41ColorIndex
 90
       18
102
RTVSPost2010Prop41ColorRGB
 90
        0
102
RTVSPost2010PropOp41
 70
     1
102
RTVSPost2010Prop42
 90
       50
102
RTVSPost2010PropOp42
 70
     1
102
RTVSPost2010Prop43
 90
        3
102
RTVSPost2010PropOp43
 70
     1
102
RTVSPost2010Prop44ColorIndex
 90
        5
102
RTVSPost2010Prop44ColorRGB
 90
      255
102
RTVSPost2010PropOp44
 70
     1
102
RTVSPost2010Prop45
280
     0
102
RTVSPost2010PropOp45
 70
     1
102
RTVSPost2010Prop46
 90
       50
102
RTVSPost2010PropOp46
 70
     1
102
RTVSPost2010Prop47
 90
       50
102
RTVSPost2010PropOp47
 70
     1
102
RTVSPost2010Prop48
 90
       50
102
RTVSPost2010PropOp48
 70
     1
102
RTVSPost2010Prop49
280
     0
102
RTVSPost2010PropOp49
 70
     1
102
RTVSPost2010Prop50
 90
       50
102
RTVSPost2010PropOp50
 70
     1
102
RTVSPost2010Prop51ColorIndex
 90
      256
102
RTVSPost2010Prop51ColorRGB
 90
-16777216
102
RTVSPost2010PropOp51
 70
     0
102
RTVSPost2010Prop52
140
1.0
102
RTVSPost2010PropOp52
 70
     0
102
RTVSPost2010Prop53
 90
        2
102
RTVSPost2010PropOp53
 70
     1
102
RTVSPost2010Prop54
  1
strokes_ogs.tif
102
RTVSPost2010PropOp54
 70
     1
102
RTVSPost2010Prop55
280
     0
102
RTVSPost2010PropOp55
 70
     1
102
RTVSPost2010Prop56
140
1.0
102
RTVSPost2010PropOp56
 70
     1
102
RTVSPost2010Prop57
140
1.0
102
RTVSPost2010PropOp57
 70
     1
  0
XRECORD
  5
1A2BF
102
{ACAD_REACTORS
330
1A2BE
102
}
330
1A2BE
100
AcDbXrecord
280
     1
102
RTVSPropertyOp0
 70
     1
102
RTVSPropertyOp1
 70
     1
102
RTVSPropertyOp2
 70
     1
102
RTVSPropertyOp3
 70
     1
102
RTVSPropertyOp4
 70
     1
102
RTVSPropertyOp5
 70
     1
102
RTVSPropertyOp6
 70
     1
102
RTVSPropertyOp7
 70
     1
102
RTVSPropertyOp8
 70
     1
102
RTVSPropertyOp9
 70
     1
102
RTVSPropertyOp10
 70
     1
102
RTVSPropertyOp11
 70
     1
102
RTVSPropertyOp12
 70
     1
102
RTVSPropertyOp13
 70
     1
102
RTVSPropertyOp14
 70
     1
102
RTVSPropertyOp15
 70
     1
102
RTVSPropertyOp16
 70
     1
102
RTVSPropertyOp17
 70
     1
102
RTVSPropertyOp18
 70
     1
102
RTVSPropertyOp19
 70
     1
102
RTVSPropertyOp20
 70
     1
102
RTVSPropertyOp21
 70
     1
102
RTVSPropertyOp22
 70
     1
102
RTVSPropertyOp23
 70
     1
102
RTVSPropertyOp24
 70
     1
102
RTVSPropertyOp25
 70
     1
102
RTVSPropertyOp26
 70
     1
102
RTVSPropertyOp27
 70
     1
102
RTVSPropertyOp28
 70
     1
102
RTVSPropertyOp29
 70
     1
102
RTVSPropertyOp30
 70
     1
102
RTVSPropertyOp31
 70
     1
102
RTVSPropertyOp32
 70
     1
102
RTVSPropertyOp33
 70
     1
102
RTVSPropertyOp34
 70
     1
102
RTVSPropertyOp35
 70
     1
102
RTVSPropertyOp36
 70
     1
102
RTVSPropertyOp37
 70
     1
102
RTVSPropertyOp38
 70
     1
102
RTVSPropertyOp39
 70
     1
102
RTVSPropertyOp40
 70
     1
102
RTVSPropertyOp41
 70
     1
102
RTVSPropertyOp42
 70
     1
102
RTVSPropertyOp43
 70
     1
102
RTVSPropertyOp44
 70
     1
102
RTVSPropertyOp45
 70
     1
102
RTVSPropertyOp46
 70
     1
102
RTVSPropertyOp47
 70
     1
102
RTVSPropertyOp48
 70
     1
102
RTVSPropertyOp49
 70
     1
102
RTVSPropertyOp50
 70
     1
102
RTVSPropertyOp51
 70
     0
102
RTVSPropertyOp52
 70
     0
102
RTVSPropertyOp53
 70
     1
102
RTVSPropertyOp54
 70
     1
102
RTVSPropertyOp55
 70
     1
102
RTVSPropertyOp56
 70
     1
102
RTVSPropertyOp57
 70
     1
102
RTVSPost2010Prop28
280
     0
102
RTVSPost2010PropOp28
 70
     1
102
RTVSPost2010Prop29
280
     1
102
RTVSPost2010PropOp29
 70
     1
102
RTVSPost2010Prop30
280
     1
102
RTVSPost2010PropOp30
 70
     1
102
RTVSPost2010Prop31
280
     0
102
RTVSPost2010PropOp31
 70
     1
102
RTVSPost2010Prop32
280
     0
102
RTVSPost2010PropOp32
 70
     1
102
RTVSPost2010Prop33
280
     0
102
RTVSPost2010PropOp33
 70
     1
102
RTVSPost2010Prop34
280
     0
102
RTVSPost2010PropOp34
 70
     1
102
RTVSPost2010Prop35
280
     0
102
RTVSPost2010PropOp35
 70
     1
102
RTVSPost2010Prop36
280
     0
102
RTVSPost2010PropOp36
 70
     1
102
RTVSPost2010Prop37
 90
       50
102
RTVSPost2010PropOp37
 70
     1
102
RTVSPost2010Prop38
140
0.0
102
RTVSPost2010PropOp38
 70
     1
102
RTVSPost2010Prop39
140
1.0
102
RTVSPost2010PropOp39
 70
     1
102
RTVSPost2010Prop40
 90
        0
102
RTVSPost2010PropOp40
 70
     1
102
RTVSPost2010Prop41ColorIndex
 90
       18
102
RTVSPost2010Prop41ColorRGB
 90
        0
102
RTVSPost2010PropOp41
 70
     1
102
RTVSPost2010Prop42
 90
       50
102
RTVSPost2010PropOp42
 70
     1
102
RTVSPost2010Prop43
 90
        3
102
RTVSPost2010PropOp43
 70
     1
102
RTVSPost2010Prop44ColorIndex
 90
        5
102
RTVSPost2010Prop44ColorRGB
 90
      255
102
RTVSPost2010PropOp44
 70
     1
102
RTVSPost2010Prop45
280
     0
102
RTVSPost2010PropOp45
 70
     1
102
RTVSPost2010Prop46
 90
       50
102
RTVSPost2010PropOp46
 70
     1
102
RTVSPost2010Prop47
 90
       50
102
RTVSPost2010PropOp47
 70
     1
102
RTVSPost2010Prop48
 90
       50
102
RTVSPost2010PropOp48
 70
     1
102
RTVSPost2010Prop49
280
     0
102
RTVSPost2010PropOp49
 70
     1
102
RTVSPost2010Prop50
 90
       50
102
RTVSPost2010PropOp50
 70
     1
102
RTVSPost2010Prop51ColorIndex
 90
      256
102
RTVSPost2010Prop51ColorRGB
 90
-16777216
102
RTVSPost2010PropOp51
 70
     0
102
RTVSPost2010Prop52
140
1.0
102
RTVSPost2010PropOp52
 70
     0
102
RTVSPost2010Prop53
 90
        2
102
RTVSPost2010PropOp53
 70
     1
102
RTVSPost2010Prop54
  1
strokes_ogs.tif
102
RTVSPost2010PropOp54
 70
     1
102
RTVSPost2010Prop55
280
     0
102
RTVSPost2010PropOp55
 70
     1
102
RTVSPost2010Prop56
140
1.0
102
RTVSPost2010PropOp56
 70
     1
102
RTVSPost2010Prop57
140
1.0
102
RTVSPost2010PropOp57
 70
     1
  0
XRECORD
  5
1A2C1
102
{ACAD_REACTORS
330
1A2C0
102
}
330
1A2C0
100
AcDbXrecord
280
     1
102
RTVSPropertyOp0
 70
     1
102
RTVSPropertyOp1
 70
     1
102
RTVSPropertyOp2
 70
     1
102
RTVSPropertyOp3
 70
     1
102
RTVSPropertyOp4
 70
     1
102
RTVSPropertyOp5
 70
     1
102
RTVSPropertyOp6
 70
     1
102
RTVSPropertyOp7
 70
     1
102
RTVSPropertyOp8
 70
     1
102
RTVSPropertyOp9
 70
     1
102
RTVSPropertyOp10
 70
     1
102
RTVSPropertyOp11
 70
     1
102
RTVSPropertyOp12
 70
     1
102
RTVSPropertyOp13
 70
     1
102
RTVSPropertyOp14
 70
     1
102
RTVSPropertyOp15
 70
     1
102
RTVSPropertyOp16
 70
     1
102
RTVSPropertyOp17
 70
     1
102
RTVSPropertyOp18
 70
     1
102
RTVSPropertyOp19
 70
     1
102
RTVSPropertyOp20
 70
     1
102
RTVSPropertyOp21
 70
     1
102
RTVSPropertyOp22
 70
     1
102
RTVSPropertyOp23
 70
     1
102
RTVSPropertyOp24
 70
     1
102
RTVSPropertyOp25
 70
     1
102
RTVSPropertyOp26
 70
     1
102
RTVSPropertyOp27
 70
     1
102
RTVSPropertyOp28
 70
     1
102
RTVSPropertyOp29
 70
     1
102
RTVSPropertyOp30
 70
     1
102
RTVSPropertyOp31
 70
     1
102
RTVSPropertyOp32
 70
     1
102
RTVSPropertyOp33
 70
     1
102
RTVSPropertyOp34
 70
     1
102
RTVSPropertyOp35
 70
     1
102
RTVSPropertyOp36
 70
     1
102
RTVSPropertyOp37
 70
     1
102
RTVSPropertyOp38
 70
     1
102
RTVSPropertyOp39
 70
     1
102
RTVSPropertyOp40
 70
     1
102
RTVSPropertyOp41
 70
     1
102
RTVSPropertyOp42
 70
     1
102
RTVSPropertyOp43
 70
     1
102
RTVSPropertyOp44
 70
     1
102
RTVSPropertyOp45
 70
     1
102
RTVSPropertyOp46
 70
     1
102
RTVSPropertyOp47
 70
     1
102
RTVSPropertyOp48
 70
     1
102
RTVSPropertyOp49
 70
     1
102
RTVSPropertyOp50
 70
     1
102
RTVSPropertyOp51
 70
     0
102
RTVSPropertyOp52
 70
     0
102
RTVSPropertyOp53
 70
     1
102
RTVSPropertyOp54
 70
     1
102
RTVSPropertyOp55
 70
     1
102
RTVSPropertyOp56
 70
     1
102
RTVSPropertyOp57
 70
     1
102
RTVSPost2010Prop28
280
     0
102
RTVSPost2010PropOp28
 70
     1
102
RTVSPost2010Prop29
280
     1
102
RTVSPost2010PropOp29
 70
     1
102
RTVSPost2010Prop30
280
     1
102
RTVSPost2010PropOp30
 70
     1
102
RTVSPost2010Prop31
280
     0
102
RTVSPost2010PropOp31
 70
     1
102
RTVSPost2010Prop32
280
     0
102
RTVSPost2010PropOp32
 70
     1
102
RTVSPost2010Prop33
280
     0
102
RTVSPost2010PropOp33
 70
     1
102
RTVSPost2010Prop34
280
     0
102
RTVSPost2010PropOp34
 70
     1
102
RTVSPost2010Prop35
280
     0
102
RTVSPost2010PropOp35
 70
     1
102
RTVSPost2010Prop36
280
     0
102
RTVSPost2010PropOp36
 70
     1
102
RTVSPost2010Prop37
 90
       50
102
RTVSPost2010PropOp37
 70
     1
102
RTVSPost2010Prop38
140
0.0
102
RTVSPost2010PropOp38
 70
     1
102
RTVSPost2010Prop39
140
1.0
102
RTVSPost2010PropOp39
 70
     1
102
RTVSPost2010Prop40
 90
        0
102
RTVSPost2010PropOp40
 70
     1
102
RTVSPost2010Prop41ColorIndex
 90
       18
102
RTVSPost2010Prop41ColorRGB
 90
        0
102
RTVSPost2010PropOp41
 70
     1
102
RTVSPost2010Prop42
 90
       50
102
RTVSPost2010PropOp42
 70
     1
102
RTVSPost2010Prop43
 90
        3
102
RTVSPost2010PropOp43
 70
     1
102
RTVSPost2010Prop44ColorIndex
 90
        5
102
RTVSPost2010Prop44ColorRGB
 90
      255
102
RTVSPost2010PropOp44
 70
     1
102
RTVSPost2010Prop45
280
     0
102
RTVSPost2010PropOp45
 70
     1
102
RTVSPost2010Prop46
 90
       50
102
RTVSPost2010PropOp46
 70
     1
102
RTVSPost2010Prop47
 90
       50
102
RTVSPost2010PropOp47
 70
     1
102
RTVSPost2010Prop48
 90
       50
102
RTVSPost2010PropOp48
 70
     1
102
RTVSPost2010Prop49
280
     0
102
RTVSPost2010PropOp49
 70
     1
102
RTVSPost2010Prop50
 90
       50
102
RTVSPost2010PropOp50
 70
     1
102
RTVSPost2010Prop51ColorIndex
 90
      256
102
RTVSPost2010Prop51ColorRGB
 90
-16777216
102
RTVSPost2010PropOp51
 70
     0
102
RTVSPost2010Prop52
140
1.0
102
RTVSPost2010PropOp52
 70
     0
102
RTVSPost2010Prop53
 90
        2
102
RTVSPost2010PropOp53
 70
     1
102
RTVSPost2010Prop54
  1
strokes_ogs.tif
102
RTVSPost2010PropOp54
 70
     1
102
RTVSPost2010Prop55
280
     0
102
RTVSPost2010PropOp55
 70
     1
102
RTVSPost2010Prop56
140
1.0
102
RTVSPost2010PropOp56
 70
     1
102
RTVSPost2010Prop57
140
1.0
102
RTVSPost2010PropOp57
 70
     1
  0
XRECORD
  5
1A2C3
102
{ACAD_REACTORS
330
1A2C2
102
}
330
1A2C2
100
AcDbXrecord
280
     1
102
RTVSPropertyOp0
 70
     1
102
RTVSPropertyOp1
 70
     1
102
RTVSPropertyOp2
 70
     1
102
RTVSPropertyOp3
 70
     1
102
RTVSPropertyOp4
 70
     1
102
RTVSPropertyOp5
 70
     1
102
RTVSPropertyOp6
 70
     1
102
RTVSPropertyOp7
 70
     1
102
RTVSPropertyOp8
 70
     1
102
RTVSPropertyOp9
 70
     1
102
RTVSPropertyOp10
 70
     1
102
RTVSPropertyOp11
 70
     1
102
RTVSPropertyOp12
 70
     1
102
RTVSPropertyOp13
 70
     1
102
RTVSPropertyOp14
 70
     1
102
RTVSPropertyOp15
 70
     1
102
RTVSPropertyOp16
 70
     1
102
RTVSPropertyOp17
 70
     1
102
RTVSPropertyOp18
 70
     1
102
RTVSPropertyOp19
 70
     1
102
RTVSPropertyOp20
 70
     1
102
RTVSPropertyOp21
 70
     1
102
RTVSPropertyOp22
 70
     1
102
RTVSPropertyOp23
 70
     1
102
RTVSPropertyOp24
 70
     1
102
RTVSPropertyOp25
 70
     1
102
RTVSPropertyOp26
 70
     1
102
RTVSPropertyOp27
 70
     1
102
RTVSPropertyOp28
 70
     1
102
RTVSPropertyOp29
 70
     1
102
RTVSPropertyOp30
 70
     1
102
RTVSPropertyOp31
 70
     1
102
RTVSPropertyOp32
 70
     1
102
RTVSPropertyOp33
 70
     1
102
RTVSPropertyOp34
 70
     1
102
RTVSPropertyOp35
 70
     1
102
RTVSPropertyOp36
 70
     1
102
RTVSPropertyOp37
 70
     1
102
RTVSPropertyOp38
 70
     1
102
RTVSPropertyOp39
 70
     1
102
RTVSPropertyOp40
 70
     1
102
RTVSPropertyOp41
 70
     1
102
RTVSPropertyOp42
 70
     1
102
RTVSPropertyOp43
 70
     1
102
RTVSPropertyOp44
 70
     1
102
RTVSPropertyOp45
 70
     1
102
RTVSPropertyOp46
 70
     1
102
RTVSPropertyOp47
 70
     1
102
RTVSPropertyOp48
 70
     1
102
RTVSPropertyOp49
 70
     1
102
RTVSPropertyOp50
 70
     1
102
RTVSPropertyOp51
 70
     0
102
RTVSPropertyOp52
 70
     0
102
RTVSPropertyOp53
 70
     1
102
RTVSPropertyOp54
 70
     1
102
RTVSPropertyOp55
 70
     1
102
RTVSPropertyOp56
 70
     1
102
RTVSPropertyOp57
 70
     1
102
RTVSPost2010Prop28
280
     0
102
RTVSPost2010PropOp28
 70
     1
102
RTVSPost2010Prop29
280
     1
102
RTVSPost2010PropOp29
 70
     1
102
RTVSPost2010Prop30
280
     1
102
RTVSPost2010PropOp30
 70
     1
102
RTVSPost2010Prop31
280
     0
102
RTVSPost2010PropOp31
 70
     1
102
RTVSPost2010Prop32
280
     0
102
RTVSPost2010PropOp32
 70
     1
102
RTVSPost2010Prop33
280
     0
102
RTVSPost2010PropOp33
 70
     1
102
RTVSPost2010Prop34
280
     0
102
RTVSPost2010PropOp34
 70
     1
102
RTVSPost2010Prop35
280
     0
102
RTVSPost2010PropOp35
 70
     1
102
RTVSPost2010Prop36
280
     0
102
RTVSPost2010PropOp36
 70
     1
102
RTVSPost2010Prop37
 90
       50
102
RTVSPost2010PropOp37
 70
     1
102
RTVSPost2010Prop38
140
0.0
102
RTVSPost2010PropOp38
 70
     1
102
RTVSPost2010Prop39
140
1.0
102
RTVSPost2010PropOp39
 70
     1
102
RTVSPost2010Prop40
 90
        0
102
RTVSPost2010PropOp40
 70
     1
102
RTVSPost2010Prop41ColorIndex
 90
       18
102
RTVSPost2010Prop41ColorRGB
 90
        0
102
RTVSPost2010PropOp41
 70
     1
102
RTVSPost2010Prop42
 90
       50
102
RTVSPost2010PropOp42
 70
     1
102
RTVSPost2010Prop43
 90
        3
102
RTVSPost2010PropOp43
 70
     1
102
RTVSPost2010Prop44ColorIndex
 90
        5
102
RTVSPost2010Prop44ColorRGB
 90
      255
102
RTVSPost2010PropOp44
 70
     1
102
RTVSPost2010Prop45
280
     0
102
RTVSPost2010PropOp45
 70
     1
102
RTVSPost2010Prop46
 90
       50
102
RTVSPost2010PropOp46
 70
     1
102
RTVSPost2010Prop47
 90
       50
102
RTVSPost2010PropOp47
 70
     1
102
RTVSPost2010Prop48
 90
       50
102
RTVSPost2010PropOp48
 70
     1
102
RTVSPost2010Prop49
280
     0
102
RTVSPost2010PropOp49
 70
     1
102
RTVSPost2010Prop50
 90
       50
102
RTVSPost2010PropOp50
 70
     1
102
RTVSPost2010Prop51ColorIndex
 90
      256
102
RTVSPost2010Prop51ColorRGB
 90
-16777216
102
RTVSPost2010PropOp51
 70
     0
102
RTVSPost2010Prop52
140
1.0
102
RTVSPost2010PropOp52
 70
     0
102
RTVSPost2010Prop53
 90
        2
102
RTVSPost2010PropOp53
 70
     1
102
RTVSPost2010Prop54
  1
strokes_ogs.tif
102
RTVSPost2010PropOp54
 70
     1
102
RTVSPost2010Prop55
280
     0
102
RTVSPost2010PropOp55
 70
     1
102
RTVSPost2010Prop56
140
1.0
102
RTVSPost2010PropOp56
 70
     1
102
RTVSPost2010Prop57
140
1.0
102
RTVSPost2010PropOp57
 70
     1
  0
XRECORD
  5
1A2C5
102
{ACAD_REACTORS
330
1A2C4
102
}
330
1A2C4
100
AcDbXrecord
280
     1
102
RTVSPropertyOp0
 70
     1
102
RTVSPropertyOp1
 70
     1
102
RTVSPropertyOp2
 70
     1
102
RTVSPropertyOp3
 70
     1
102
RTVSPropertyOp4
 70
     1
102
RTVSPropertyOp5
 70
     1
102
RTVSPropertyOp6
 70
     1
102
RTVSPropertyOp7
 70
     1
102
RTVSPropertyOp8
 70
     1
102
RTVSPropertyOp9
 70
     1
102
RTVSPropertyOp10
 70
     1
102
RTVSPropertyOp11
 70
     1
102
RTVSPropertyOp12
 70
     1
102
RTVSPropertyOp13
 70
     1
102
RTVSPropertyOp14
 70
     1
102
RTVSPropertyOp15
 70
     1
102
RTVSPropertyOp16
 70
     1
102
RTVSPropertyOp17
 70
     1
102
RTVSPropertyOp18
 70
     1
102
RTVSPropertyOp19
 70
     1
102
RTVSPropertyOp20
 70
     1
102
RTVSPropertyOp21
 70
     1
102
RTVSPropertyOp22
 70
     1
102
RTVSPropertyOp23
 70
     1
102
RTVSPropertyOp24
 70
     1
102
RTVSPropertyOp25
 70
     1
102
RTVSPropertyOp26
 70
     1
102
RTVSPropertyOp27
 70
     1
102
RTVSPropertyOp28
 70
     1
102
RTVSPropertyOp29
 70
     1
102
RTVSPropertyOp30
 70
     1
102
RTVSPropertyOp31
 70
     1
102
RTVSPropertyOp32
 70
     1
102
RTVSPropertyOp33
 70
     1
102
RTVSPropertyOp34
 70
     1
102
RTVSPropertyOp35
 70
     1
102
RTVSPropertyOp36
 70
     1
102
RTVSPropertyOp37
 70
     1
102
RTVSPropertyOp38
 70
     1
102
RTVSPropertyOp39
 70
     1
102
RTVSPropertyOp40
 70
     1
102
RTVSPropertyOp41
 70
     1
102
RTVSPropertyOp42
 70
     1
102
RTVSPropertyOp43
 70
     1
102
RTVSPropertyOp44
 70
     1
102
RTVSPropertyOp45
 70
     1
102
RTVSPropertyOp46
 70
     1
102
RTVSPropertyOp47
 70
     1
102
RTVSPropertyOp48
 70
     1
102
RTVSPropertyOp49
 70
     1
102
RTVSPropertyOp50
 70
     1
102
RTVSPropertyOp51
 70
     0
102
RTVSPropertyOp52
 70
     0
102
RTVSPropertyOp53
 70
     1
102
RTVSPropertyOp54
 70
     1
102
RTVSPropertyOp55
 70
     1
102
RTVSPropertyOp56
 70
     1
102
RTVSPropertyOp57
 70
     1
102
RTVSPost2010Prop28
280
     0
102
RTVSPost2010PropOp28
 70
     1
102
RTVSPost2010Prop29
280
     1
102
RTVSPost2010PropOp29
 70
     1
102
RTVSPost2010Prop30
280
     1
102
RTVSPost2010PropOp30
 70
     1
102
RTVSPost2010Prop31
280
     0
102
RTVSPost2010PropOp31
 70
     1
102
RTVSPost2010Prop32
280
     0
102
RTVSPost2010PropOp32
 70
     1
102
RTVSPost2010Prop33
280
     0
102
RTVSPost2010PropOp33
 70
     1
102
RTVSPost2010Prop34
280
     0
102
RTVSPost2010PropOp34
 70
     1
102
RTVSPost2010Prop35
280
     0
102
RTVSPost2010PropOp35
 70
     1
102
RTVSPost2010Prop36
280
     0
102
RTVSPost2010PropOp36
 70
     1
102
RTVSPost2010Prop37
 90
       50
102
RTVSPost2010PropOp37
 70
     1
102
RTVSPost2010Prop38
140
0.0
102
RTVSPost2010PropOp38
 70
     1
102
RTVSPost2010Prop39
140
1.0
102
RTVSPost2010PropOp39
 70
     1
102
RTVSPost2010Prop40
 90
        0
102
RTVSPost2010PropOp40
 70
     1
102
RTVSPost2010Prop41ColorIndex
 90
       18
102
RTVSPost2010Prop41ColorRGB
 90
        0
102
RTVSPost2010PropOp41
 70
     1
102
RTVSPost2010Prop42
 90
       50
102
RTVSPost2010PropOp42
 70
     1
102
RTVSPost2010Prop43
 90
        3
102
RTVSPost2010PropOp43
 70
     1
102
RTVSPost2010Prop44ColorIndex
 90
        5
102
RTVSPost2010Prop44ColorRGB
 90
      255
102
RTVSPost2010PropOp44
 70
     1
102
RTVSPost2010Prop45
280
     0
102
RTVSPost2010PropOp45
 70
     1
102
RTVSPost2010Prop46
 90
       50
102
RTVSPost2010PropOp46
 70
     1
102
RTVSPost2010Prop47
 90
       50
102
RTVSPost2010PropOp47
 70
     1
102
RTVSPost2010Prop48
 90
       50
102
RTVSPost2010PropOp48
 70
     1
102
RTVSPost2010Prop49
280
     0
102
RTVSPost2010PropOp49
 70
     1
102
RTVSPost2010Prop50
 90
       50
102
RTVSPost2010PropOp50
 70
     1
102
RTVSPost2010Prop51ColorIndex
 90
      256
102
RTVSPost2010Prop51ColorRGB
 90
-16777216
102
RTVSPost2010PropOp51
 70
     0
102
RTVSPost2010Prop52
140
1.0
102
RTVSPost2010PropOp52
 70
     0
102
RTVSPost2010Prop53
 90
        2
102
RTVSPost2010PropOp53
 70
     1
102
RTVSPost2010Prop54
  1
strokes_ogs.tif
102
RTVSPost2010PropOp54
 70
     1
102
RTVSPost2010Prop55
280
     0
102
RTVSPost2010PropOp55
 70
     1
102
RTVSPost2010Prop56
140
1.0
102
RTVSPost2010PropOp56
 70
     1
102
RTVSPost2010Prop57
140
1.0
102
RTVSPost2010PropOp57
 70
     1
  0
XRECORD
  5
1A2C7
102
{ACAD_REACTORS
330
1A2C6
102
}
330
1A2C6
100
AcDbXrecord
280
     1
102
RTVSPropertyOp0
 70
     0
102
RTVSPropertyOp1
 70
     0
102
RTVSPropertyOp2
 70
     0
102
RTVSPropertyOp3
 70
     0
102
RTVSPropertyOp4
 70
     0
102
RTVSPropertyOp5
 70
     0
102
RTVSPropertyOp6
 70
     0
102
RTVSPropertyOp7
 70
     0
102
RTVSPropertyOp8
 70
     0
102
RTVSPropertyOp9
 70
     0
102
RTVSPropertyOp10
 70
     0
102
RTVSPropertyOp11
 70
     0
102
RTVSPropertyOp12
 70
     0
102
RTVSPropertyOp13
 70
     0
102
RTVSPropertyOp14
 70
     0
102
RTVSPropertyOp15
 70
     0
102
RTVSPropertyOp16
 70
     0
102
RTVSPropertyOp17
 70
     0
102
RTVSPropertyOp18
 70
     0
102
RTVSPropertyOp19
 70
     0
102
RTVSPropertyOp20
 70
     0
102
RTVSPropertyOp21
 70
     0
102
RTVSPropertyOp22
 70
     0
102
RTVSPropertyOp23
 70
     0
102
RTVSPropertyOp24
 70
     0
102
RTVSPropertyOp25
 70
     0
102
RTVSPropertyOp26
 70
     0
102
RTVSPropertyOp27
 70
     0
102
RTVSPropertyOp28
 70
     1
102
RTVSPropertyOp29
 70
     1
102
RTVSPropertyOp30
 70
     1
102
RTVSPropertyOp31
 70
     1
102
RTVSPropertyOp32
 70
     1
102
RTVSPropertyOp33
 70
     1
102
RTVSPropertyOp34
 70
     1
102
RTVSPropertyOp35
 70
     1
102
RTVSPropertyOp36
 70
     1
102
RTVSPropertyOp37
 70
     1
102
RTVSPropertyOp38
 70
     1
102
RTVSPropertyOp39
 70
     1
102
RTVSPropertyOp40
 70
     1
102
RTVSPropertyOp41
 70
     1
102
RTVSPropertyOp42
 70
     1
102
RTVSPropertyOp43
 70
     1
102
RTVSPropertyOp44
 70
     1
102
RTVSPropertyOp45
 70
     1
102
RTVSPropertyOp46
 70
     1
102
RTVSPropertyOp47
 70
     1
102
RTVSPropertyOp48
 70
     1
102
RTVSPropertyOp49
 70
     1
102
RTVSPropertyOp50
 70
     1
102
RTVSPropertyOp51
 70
     0
102
RTVSPropertyOp52
 70
     0
102
RTVSPropertyOp53
 70
     1
102
RTVSPropertyOp54
 70
     1
102
RTVSPropertyOp55
 70
     1
102
RTVSPropertyOp56
 70
     1
102
RTVSPropertyOp57
 70
     1
102
RTVSPost2010Prop28
280
     0
102
RTVSPost2010PropOp28
 70
     1
102
RTVSPost2010Prop29
280
     1
102
RTVSPost2010PropOp29
 70
     1
102
RTVSPost2010Prop30
280
     1
102
RTVSPost2010PropOp30
 70
     1
102
RTVSPost2010Prop31
280
     0
102
RTVSPost2010PropOp31
 70
     1
102
RTVSPost2010Prop32
280
     0
102
RTVSPost2010PropOp32
 70
     1
102
RTVSPost2010Prop33
280
     0
102
RTVSPost2010PropOp33
 70
     1
102
RTVSPost2010Prop34
280
     0
102
RTVSPost2010PropOp34
 70
     1
102
RTVSPost2010Prop35
280
     0
102
RTVSPost2010PropOp35
 70
     1
102
RTVSPost2010Prop36
280
     0
102
RTVSPost2010PropOp36
 70
     1
102
RTVSPost2010Prop37
 90
       50
102
RTVSPost2010PropOp37
 70
     1
102
RTVSPost2010Prop38
140
0.0
102
RTVSPost2010PropOp38
 70
     1
102
RTVSPost2010Prop39
140
1.0
102
RTVSPost2010PropOp39
 70
     1
102
RTVSPost2010Prop40
 90
        0
102
RTVSPost2010PropOp40
 70
     1
102
RTVSPost2010Prop41ColorIndex
 90
       18
102
RTVSPost2010Prop41ColorRGB
 90
        0
102
RTVSPost2010PropOp41
 70
     1
102
RTVSPost2010Prop42
 90
       50
102
RTVSPost2010PropOp42
 70
     1
102
RTVSPost2010Prop43
 90
        3
102
RTVSPost2010PropOp43
 70
     1
102
RTVSPost2010Prop44ColorIndex
 90
        5
102
RTVSPost2010Prop44ColorRGB
 90
      255
102
RTVSPost2010PropOp44
 70
     1
102
RTVSPost2010Prop45
280
     0
102
RTVSPost2010PropOp45
 70
     1
102
RTVSPost2010Prop46
 90
       50
102
RTVSPost2010PropOp46
 70
     1
102
RTVSPost2010Prop47
 90
       50
102
RTVSPost2010PropOp47
 70
     1
102
RTVSPost2010Prop48
 90
       50
102
RTVSPost2010PropOp48
 70
     1
102
RTVSPost2010Prop49
280
     0
102
RTVSPost2010PropOp49
 70
     1
102
RTVSPost2010Prop50
 90
       50
102
RTVSPost2010PropOp50
 70
     1
102
RTVSPost2010Prop51ColorIndex
 90
      256
102
RTVSPost2010Prop51ColorRGB
 90
-16777216
102
RTVSPost2010PropOp51
 70
     0
102
RTVSPost2010Prop52
140
1.0
102
RTVSPost2010PropOp52
 70
     0
102
RTVSPost2010Prop53
 90
        2
102
RTVSPost2010PropOp53
 70
     1
102
RTVSPost2010Prop54
  1
strokes_ogs.tif
102
RTVSPost2010PropOp54
 70
     1
102
RTVSPost2010Prop55
280
     0
102
RTVSPost2010PropOp55
 70
     1
102
RTVSPost2010Prop56
140
1.0
102
RTVSPost2010PropOp56
 70
     1
102
RTVSPost2010Prop57
140
1.0
102
RTVSPost2010PropOp57
 70
     1
  0
XRECORD
  5
1A2C9
102
{ACAD_REACTORS
330
1A2C8
102
}
330
1A2C8
100
AcDbXrecord
280
     1
102
RTVSPropertyOp0
 70
     1
102
RTVSPropertyOp1
 70
     1
102
RTVSPropertyOp2
 70
     1
102
RTVSPropertyOp3
 70
     1
102
RTVSPropertyOp4
 70
     1
102
RTVSPropertyOp5
 70
     1
102
RTVSPropertyOp6
 70
     1
102
RTVSPropertyOp7
 70
     1
102
RTVSPropertyOp8
 70
     1
102
RTVSPropertyOp9
 70
     1
102
RTVSPropertyOp10
 70
     1
102
RTVSPropertyOp11
 70
     1
102
RTVSPropertyOp12
 70
     1
102
RTVSPropertyOp13
 70
     1
102
RTVSPropertyOp14
 70
     1
102
RTVSPropertyOp15
 70
     1
102
RTVSPropertyOp16
 70
     1
102
RTVSPropertyOp17
 70
     1
102
RTVSPropertyOp18
 70
     1
102
RTVSPropertyOp19
 70
     1
102
RTVSPropertyOp20
 70
     1
102
RTVSPropertyOp21
 70
     1
102
RTVSPropertyOp22
 70
     1
102
RTVSPropertyOp23
 70
     1
102
RTVSPropertyOp24
 70
     1
102
RTVSPropertyOp25
 70
     1
102
RTVSPropertyOp26
 70
     1
102
RTVSPropertyOp27
 70
     1
102
RTVSPropertyOp28
 70
     1
102
RTVSPropertyOp29
 70
     1
102
RTVSPropertyOp30
 70
     1
102
RTVSPropertyOp31
 70
     1
102
RTVSPropertyOp32
 70
     1
102
RTVSPropertyOp33
 70
     1
102
RTVSPropertyOp34
 70
     1
102
RTVSPropertyOp35
 70
     1
102
RTVSPropertyOp36
 70
     1
102
RTVSPropertyOp37
 70
     1
102
RTVSPropertyOp38
 70
     1
102
RTVSPropertyOp39
 70
     1
102
RTVSPropertyOp40
 70
     1
102
RTVSPropertyOp41
 70
     1
102
RTVSPropertyOp42
 70
     1
102
RTVSPropertyOp43
 70
     1
102
RTVSPropertyOp44
 70
     1
102
RTVSPropertyOp45
 70
     1
102
RTVSPropertyOp46
 70
     1
102
RTVSPropertyOp47
 70
     1
102
RTVSPropertyOp48
 70
     1
102
RTVSPropertyOp49
 70
     1
102
RTVSPropertyOp50
 70
     1
102
RTVSPropertyOp51
 70
     0
102
RTVSPropertyOp52
 70
     0
102
RTVSPropertyOp53
 70
     1
102
RTVSPropertyOp54
 70
     1
102
RTVSPropertyOp55
 70
     1
102
RTVSPropertyOp56
 70
     1
102
RTVSPropertyOp57
 70
     1
102
RTVSPost2010Prop28
280
     0
102
RTVSPost2010PropOp28
 70
     1
102
RTVSPost2010Prop29
280
     1
102
RTVSPost2010PropOp29
 70
     1
102
RTVSPost2010Prop30
280
     1
102
RTVSPost2010PropOp30
 70
     1
102
RTVSPost2010Prop31
280
     0
102
RTVSPost2010PropOp31
 70
     1
102
RTVSPost2010Prop32
280
     0
102
RTVSPost2010PropOp32
 70
     1
102
RTVSPost2010Prop33
280
     0
102
RTVSPost2010PropOp33
 70
     1
102
RTVSPost2010Prop34
280
     0
102
RTVSPost2010PropOp34
 70
     1
102
RTVSPost2010Prop35
280
     0
102
RTVSPost2010PropOp35
 70
     1
102
RTVSPost2010Prop36
280
     0
102
RTVSPost2010PropOp36
 70
     1
102
RTVSPost2010Prop37
 90
       50
102
RTVSPost2010PropOp37
 70
     1
102
RTVSPost2010Prop38
140
0.0
102
RTVSPost2010PropOp38
 70
     1
102
RTVSPost2010Prop39
140
1.0
102
RTVSPost2010PropOp39
 70
     1
102
RTVSPost2010Prop40
 90
        0
102
RTVSPost2010PropOp40
 70
     1
102
RTVSPost2010Prop41ColorIndex
 90
       18
102
RTVSPost2010Prop41ColorRGB
 90
        0
102
RTVSPost2010PropOp41
 70
     1
102
RTVSPost2010Prop42
 90
       50
102
RTVSPost2010PropOp42
 70
     1
102
RTVSPost2010Prop43
 90
        3
102
RTVSPost2010PropOp43
 70
     1
102
RTVSPost2010Prop44ColorIndex
 90
        5
102
RTVSPost2010Prop44ColorRGB
 90
      255
102
RTVSPost2010PropOp44
 70
     1
102
RTVSPost2010Prop45
280
     0
102
RTVSPost2010PropOp45
 70
     1
102
RTVSPost2010Prop46
 90
       50
102
RTVSPost2010PropOp46
 70
     1
102
RTVSPost2010Prop47
 90
       50
102
RTVSPost2010PropOp47
 70
     1
102
RTVSPost2010Prop48
 90
       50
102
RTVSPost2010PropOp48
 70
     1
102
RTVSPost2010Prop49
280
     0
102
RTVSPost2010PropOp49
 70
     1
102
RTVSPost2010Prop50
 90
       50
102
RTVSPost2010PropOp50
 70
     1
102
RTVSPost2010Prop51ColorIndex
 90
      256
102
RTVSPost2010Prop51ColorRGB
 90
-16777216
102
RTVSPost2010PropOp51
 70
     0
102
RTVSPost2010Prop52
140
1.0
102
RTVSPost2010PropOp52
 70
     0
102
RTVSPost2010Prop53
 90
        2
102
RTVSPost2010PropOp53
 70
     1
102
RTVSPost2010Prop54
  1
strokes_ogs.tif
102
RTVSPost2010PropOp54
 70
     1
102
RTVSPost2010Prop55
280
     0
102
RTVSPost2010PropOp55
 70
     1
102
RTVSPost2010Prop56
140
1.0
102
RTVSPost2010PropOp56
 70
     1
102
RTVSPost2010Prop57
140
1.0
102
RTVSPost2010PropOp57
 70
     1
  0
XRECORD
  5
1A2CB
102
{ACAD_REACTORS
330
1A2CA
102
}
330
1A2CA
100
AcDbXrecord
280
     1
102
RTVSPropertyOp0
 70
     1
102
RTVSPropertyOp1
 70
     1
102
RTVSPropertyOp2
 70
     1
102
RTVSPropertyOp3
 70
     1
102
RTVSPropertyOp4
 70
     1
102
RTVSPropertyOp5
 70
     1
102
RTVSPropertyOp6
 70
     1
102
RTVSPropertyOp7
 70
     1
102
RTVSPropertyOp8
 70
     1
102
RTVSPropertyOp9
 70
     1
102
RTVSPropertyOp10
 70
     1
102
RTVSPropertyOp11
 70
     1
102
RTVSPropertyOp12
 70
     1
102
RTVSPropertyOp13
 70
     1
102
RTVSPropertyOp14
 70
     1
102
RTVSPropertyOp15
 70
     1
102
RTVSPropertyOp16
 70
     1
102
RTVSPropertyOp17
 70
     1
102
RTVSPropertyOp18
 70
     1
102
RTVSPropertyOp19
 70
     1
102
RTVSPropertyOp20
 70
     1
102
RTVSPropertyOp21
 70
     1
102
RTVSPropertyOp22
 70
     1
102
RTVSPropertyOp23
 70
     1
102
RTVSPropertyOp24
 70
     1
102
RTVSPropertyOp25
 70
     1
102
RTVSPropertyOp26
 70
     1
102
RTVSPropertyOp27
 70
     1
102
RTVSPropertyOp28
 70
     1
102
RTVSPropertyOp29
 70
     1
102
RTVSPropertyOp30
 70
     1
102
RTVSPropertyOp31
 70
     1
102
RTVSPropertyOp32
 70
     1
102
RTVSPropertyOp33
 70
     1
102
RTVSPropertyOp34
 70
     1
102
RTVSPropertyOp35
 70
     1
102
RTVSPropertyOp36
 70
     1
102
RTVSPropertyOp37
 70
     1
102
RTVSPropertyOp38
 70
     1
102
RTVSPropertyOp39
 70
     1
102
RTVSPropertyOp40
 70
     1
102
RTVSPropertyOp41
 70
     1
102
RTVSPropertyOp42
 70
     1
102
RTVSPropertyOp43
 70
     1
102
RTVSPropertyOp44
 70
     1
102
RTVSPropertyOp45
 70
     1
102
RTVSPropertyOp46
 70
     1
102
RTVSPropertyOp47
 70
     1
102
RTVSPropertyOp48
 70
     1
102
RTVSPropertyOp49
 70
     1
102
RTVSPropertyOp50
 70
     1
102
RTVSPropertyOp51
 70
     0
102
RTVSPropertyOp52
 70
     0
102
RTVSPropertyOp53
 70
     1
102
RTVSPropertyOp54
 70
     1
102
RTVSPropertyOp55
 70
     1
102
RTVSPropertyOp56
 70
     1
102
RTVSPropertyOp57
 70
     1
102
RTVSPost2010Prop28
280
     0
102
RTVSPost2010PropOp28
 70
     1
102
RTVSPost2010Prop29
280
     1
102
RTVSPost2010PropOp29
 70
     1
102
RTVSPost2010Prop30
280
     1
102
RTVSPost2010PropOp30
 70
     1
102
RTVSPost2010Prop31
280
     0
102
RTVSPost2010PropOp31
 70
     1
102
RTVSPost2010Prop32
280
     0
102
RTVSPost2010PropOp32
 70
     1
102
RTVSPost2010Prop33
280
     0
102
RTVSPost2010PropOp33
 70
     1
102
RTVSPost2010Prop34
280
     0
102
RTVSPost2010PropOp34
 70
     1
102
RTVSPost2010Prop35
280
     0
102
RTVSPost2010PropOp35
 70
     1
102
RTVSPost2010Prop36
280
     0
102
RTVSPost2010PropOp36
 70
     1
102
RTVSPost2010Prop37
 90
       50
102
RTVSPost2010PropOp37
 70
     1
102
RTVSPost2010Prop38
140
0.0
102
RTVSPost2010PropOp38
 70
     1
102
RTVSPost2010Prop39
140
1.0
102
RTVSPost2010PropOp39
 70
     1
102
RTVSPost2010Prop40
 90
        0
102
RTVSPost2010PropOp40
 70
     1
102
RTVSPost2010Prop41ColorIndex
 90
       18
102
RTVSPost2010Prop41ColorRGB
 90
        0
102
RTVSPost2010PropOp41
 70
     1
102
RTVSPost2010Prop42
 90
       50
102
RTVSPost2010PropOp42
 70
     1
102
RTVSPost2010Prop43
 90
        3
102
RTVSPost2010PropOp43
 70
     1
102
RTVSPost2010Prop44ColorIndex
 90
        5
102
RTVSPost2010Prop44ColorRGB
 90
      255
102
RTVSPost2010PropOp44
 70
     1
102
RTVSPost2010Prop45
280
     0
102
RTVSPost2010PropOp45
 70
     1
102
RTVSPost2010Prop46
 90
       50
102
RTVSPost2010PropOp46
 70
     1
102
RTVSPost2010Prop47
 90
       50
102
RTVSPost2010PropOp47
 70
     1
102
RTVSPost2010Prop48
 90
       50
102
RTVSPost2010PropOp48
 70
     1
102
RTVSPost2010Prop49
280
     0
102
RTVSPost2010PropOp49
 70
     1
102
RTVSPost2010Prop50
 90
       50
102
RTVSPost2010PropOp50
 70
     1
102
RTVSPost2010Prop51ColorIndex
 90
      256
102
RTVSPost2010Prop51ColorRGB
 90
-16777216
102
RTVSPost2010PropOp51
 70
     0
102
RTVSPost2010Prop52
140
1.0
102
RTVSPost2010PropOp52
 70
     0
102
RTVSPost2010Prop53
 90
        2
102
RTVSPost2010PropOp53
 70
     1
102
RTVSPost2010Prop54
  1
strokes_ogs.tif
102
RTVSPost2010PropOp54
 70
     1
102
RTVSPost2010Prop55
280
     0
102
RTVSPost2010PropOp55
 70
     1
102
RTVSPost2010Prop56
140
1.0
102
RTVSPost2010PropOp56
 70
     1
102
RTVSPost2010Prop57
140
1.0
102
RTVSPost2010PropOp57
 70
     1
  0
XRECORD
  5
1A2CD
102
{ACAD_REACTORS
330
1A2CC
102
}
330
1A2CC
100
AcDbXrecord
280
     1
102
RTVSPropertyOp0
 70
     1
102
RTVSPropertyOp1
 70
     1
102
RTVSPropertyOp2
 70
     1
102
RTVSPropertyOp3
 70
     1
102
RTVSPropertyOp4
 70
     1
102
RTVSPropertyOp5
 70
     1
102
RTVSPropertyOp6
 70
     1
102
RTVSPropertyOp7
 70
     1
102
RTVSPropertyOp8
 70
     1
102
RTVSPropertyOp9
 70
     1
102
RTVSPropertyOp10
 70
     1
102
RTVSPropertyOp11
 70
     1
102
RTVSPropertyOp12
 70
     1
102
RTVSPropertyOp13
 70
     1
102
RTVSPropertyOp14
 70
     1
102
RTVSPropertyOp15
 70
     1
102
RTVSPropertyOp16
 70
     1
102
RTVSPropertyOp17
 70
     1
102
RTVSPropertyOp18
 70
     1
102
RTVSPropertyOp19
 70
     1
102
RTVSPropertyOp20
 70
     1
102
RTVSPropertyOp21
 70
     1
102
RTVSPropertyOp22
 70
     1
102
RTVSPropertyOp23
 70
     1
102
RTVSPropertyOp24
 70
     1
102
RTVSPropertyOp25
 70
     1
102
RTVSPropertyOp26
 70
     1
102
RTVSPropertyOp27
 70
     1
102
RTVSPropertyOp28
 70
     1
102
RTVSPropertyOp29
 70
     1
102
RTVSPropertyOp30
 70
     1
102
RTVSPropertyOp31
 70
     1
102
RTVSPropertyOp32
 70
     1
102
RTVSPropertyOp33
 70
     1
102
RTVSPropertyOp34
 70
     1
102
RTVSPropertyOp35
 70
     1
102
RTVSPropertyOp36
 70
     1
102
RTVSPropertyOp37
 70
     1
102
RTVSPropertyOp38
 70
     1
102
RTVSPropertyOp39
 70
     1
102
RTVSPropertyOp40
 70
     1
102
RTVSPropertyOp41
 70
     1
102
RTVSPropertyOp42
 70
     1
102
RTVSPropertyOp43
 70
     1
102
RTVSPropertyOp44
 70
     1
102
RTVSPropertyOp45
 70
     1
102
RTVSPropertyOp46
 70
     1
102
RTVSPropertyOp47
 70
     1
102
RTVSPropertyOp48
 70
     1
102
RTVSPropertyOp49
 70
     1
102
RTVSPropertyOp50
 70
     1
102
RTVSPropertyOp51
 70
     0
102
RTVSPropertyOp52
 70
     0
102
RTVSPropertyOp53
 70
     1
102
RTVSPropertyOp54
 70
     1
102
RTVSPropertyOp55
 70
     1
102
RTVSPropertyOp56
 70
     1
102
RTVSPropertyOp57
 70
     1
102
RTVSPost2010Prop28
280
     0
102
RTVSPost2010PropOp28
 70
     1
102
RTVSPost2010Prop29
280
     1
102
RTVSPost2010PropOp29
 70
     1
102
RTVSPost2010Prop30
280
     1
102
RTVSPost2010PropOp30
 70
     1
102
RTVSPost2010Prop31
280
     0
102
RTVSPost2010PropOp31
 70
     1
102
RTVSPost2010Prop32
280
     0
102
RTVSPost2010PropOp32
 70
     1
102
RTVSPost2010Prop33
280
     0
102
RTVSPost2010PropOp33
 70
     1
102
RTVSPost2010Prop34
280
     0
102
RTVSPost2010PropOp34
 70
     1
102
RTVSPost2010Prop35
280
     0
102
RTVSPost2010PropOp35
 70
     1
102
RTVSPost2010Prop36
280
     0
102
RTVSPost2010PropOp36
 70
     1
102
RTVSPost2010Prop37
 90
       50
102
RTVSPost2010PropOp37
 70
     1
102
RTVSPost2010Prop38
140
0.0
102
RTVSPost2010PropOp38
 70
     1
102
RTVSPost2010Prop39
140
1.0
102
RTVSPost2010PropOp39
 70
     1
102
RTVSPost2010Prop40
 90
        0
102
RTVSPost2010PropOp40
 70
     1
102
RTVSPost2010Prop41ColorIndex
 90
       18
102
RTVSPost2010Prop41ColorRGB
 90
        0
102
RTVSPost2010PropOp41
 70
     1
102
RTVSPost2010Prop42
 90
       50
102
RTVSPost2010PropOp42
 70
     1
102
RTVSPost2010Prop43
 90
        3
102
RTVSPost2010PropOp43
 70
     1
102
RTVSPost2010Prop44ColorIndex
 90
        5
102
RTVSPost2010Prop44ColorRGB
 90
      255
102
RTVSPost2010PropOp44
 70
     1
102
RTVSPost2010Prop45
280
     0
102
RTVSPost2010PropOp45
 70
     1
102
RTVSPost2010Prop46
 90
       50
102
RTVSPost2010PropOp46
 70
     1
102
RTVSPost2010Prop47
 90
       50
102
RTVSPost2010PropOp47
 70
     1
102
RTVSPost2010Prop48
 90
       50
102
RTVSPost2010PropOp48
 70
     1
102
RTVSPost2010Prop49
280
     0
102
RTVSPost2010PropOp49
 70
     1
102
RTVSPost2010Prop50
 90
       50
102
RTVSPost2010PropOp50
 70
     1
102
RTVSPost2010Prop51ColorIndex
 90
      256
102
RTVSPost2010Prop51ColorRGB
 90
-16777216
102
RTVSPost2010PropOp51
 70
     0
102
RTVSPost2010Prop52
140
1.0
102
RTVSPost2010PropOp52
 70
     0
102
RTVSPost2010Prop53
 90
        2
102
RTVSPost2010PropOp53
 70
     1
102
RTVSPost2010Prop54
  1
strokes_ogs.tif
102
RTVSPost2010PropOp54
 70
     1
102
RTVSPost2010Prop55
280
     0
102
RTVSPost2010PropOp55
 70
     1
102
RTVSPost2010Prop56
140
1.0
102
RTVSPost2010PropOp56
 70
     1
102
RTVSPost2010Prop57
140
1.0
102
RTVSPost2010PropOp57
 70
     1
  0
XRECORD
  5
1A2CF
102
{ACAD_REACTORS
330
1A2CE
102
}
330
1A2CE
100
AcDbXrecord
280
     1
102
RTVSPropertyOp0
 70
     1
102
RTVSPropertyOp1
 70
     1
102
RTVSPropertyOp2
 70
     1
102
RTVSPropertyOp3
 70
     1
102
RTVSPropertyOp4
 70
     1
102
RTVSPropertyOp5
 70
     1
102
RTVSPropertyOp6
 70
     1
102
RTVSPropertyOp7
 70
     1
102
RTVSPropertyOp8
 70
     1
102
RTVSPropertyOp9
 70
     1
102
RTVSPropertyOp10
 70
     1
102
RTVSPropertyOp11
 70
     1
102
RTVSPropertyOp12
 70
     1
102
RTVSPropertyOp13
 70
     1
102
RTVSPropertyOp14
 70
     1
102
RTVSPropertyOp15
 70
     1
102
RTVSPropertyOp16
 70
     1
102
RTVSPropertyOp17
 70
     1
102
RTVSPropertyOp18
 70
     1
102
RTVSPropertyOp19
 70
     1
102
RTVSPropertyOp20
 70
     1
102
RTVSPropertyOp21
 70
     1
102
RTVSPropertyOp22
 70
     1
102
RTVSPropertyOp23
 70
     1
102
RTVSPropertyOp24
 70
     1
102
RTVSPropertyOp25
 70
     1
102
RTVSPropertyOp26
 70
     1
102
RTVSPropertyOp27
 70
     1
102
RTVSPropertyOp28
 70
     1
102
RTVSPropertyOp29
 70
     1
102
RTVSPropertyOp30
 70
     1
102
RTVSPropertyOp31
 70
     1
102
RTVSPropertyOp32
 70
     1
102
RTVSPropertyOp33
 70
     1
102
RTVSPropertyOp34
 70
     1
102
RTVSPropertyOp35
 70
     1
102
RTVSPropertyOp36
 70
     1
102
RTVSPropertyOp37
 70
     1
102
RTVSPropertyOp38
 70
     1
102
RTVSPropertyOp39
 70
     1
102
RTVSPropertyOp40
 70
     1
102
RTVSPropertyOp41
 70
     1
102
RTVSPropertyOp42
 70
     1
102
RTVSPropertyOp43
 70
     1
102
RTVSPropertyOp44
 70
     1
102
RTVSPropertyOp45
 70
     1
102
RTVSPropertyOp46
 70
     1
102
RTVSPropertyOp47
 70
     1
102
RTVSPropertyOp48
 70
     1
102
RTVSPropertyOp49
 70
     1
102
RTVSPropertyOp50
 70
     1
102
RTVSPropertyOp51
 70
     0
102
RTVSPropertyOp52
 70
     0
102
RTVSPropertyOp53
 70
     1
102
RTVSPropertyOp54
 70
     1
102
RTVSPropertyOp55
 70
     1
102
RTVSPropertyOp56
 70
     1
102
RTVSPropertyOp57
 70
     1
102
RTVSPost2010Prop28
280
     0
102
RTVSPost2010PropOp28
 70
     1
102
RTVSPost2010Prop29
280
     1
102
RTVSPost2010PropOp29
 70
     1
102
RTVSPost2010Prop30
280
     1
102
RTVSPost2010PropOp30
 70
     1
102
RTVSPost2010Prop31
280
     0
102
RTVSPost2010PropOp31
 70
     1
102
RTVSPost2010Prop32
280
     0
102
RTVSPost2010PropOp32
 70
     1
102
RTVSPost2010Prop33
280
     0
102
RTVSPost2010PropOp33
 70
     1
102
RTVSPost2010Prop34
280
     0
102
RTVSPost2010PropOp34
 70
     1
102
RTVSPost2010Prop35
280
     0
102
RTVSPost2010PropOp35
 70
     1
102
RTVSPost2010Prop36
280
     0
102
RTVSPost2010PropOp36
 70
     1
102
RTVSPost2010Prop37
 90
       50
102
RTVSPost2010PropOp37
 70
     1
102
RTVSPost2010Prop38
140
0.0
102
RTVSPost2010PropOp38
 70
     1
102
RTVSPost2010Prop39
140
1.0
102
RTVSPost2010PropOp39
 70
     1
102
RTVSPost2010Prop40
 90
        0
102
RTVSPost2010PropOp40
 70
     1
102
RTVSPost2010Prop41ColorIndex
 90
       18
102
RTVSPost2010Prop41ColorRGB
 90
        0
102
RTVSPost2010PropOp41
 70
     1
102
RTVSPost2010Prop42
 90
       50
102
RTVSPost2010PropOp42
 70
     1
102
RTVSPost2010Prop43
 90
        3
102
RTVSPost2010PropOp43
 70
     1
102
RTVSPost2010Prop44ColorIndex
 90
        5
102
RTVSPost2010Prop44ColorRGB
 90
      255
102
RTVSPost2010PropOp44
 70
     1
102
RTVSPost2010Prop45
280
     0
102
RTVSPost2010PropOp45
 70
     1
102
RTVSPost2010Prop46
 90
       50
102
RTVSPost2010PropOp46
 70
     1
102
RTVSPost2010Prop47
 90
       50
102
RTVSPost2010PropOp47
 70
     1
102
RTVSPost2010Prop48
 90
       50
102
RTVSPost2010PropOp48
 70
     1
102
RTVSPost2010Prop49
280
     0
102
RTVSPost2010PropOp49
 70
     1
102
RTVSPost2010Prop50
 90
       50
102
RTVSPost2010PropOp50
 70
     1
102
RTVSPost2010Prop51ColorIndex
 90
      256
102
RTVSPost2010Prop51ColorRGB
 90
-16777216
102
RTVSPost2010PropOp51
 70
     0
102
RTVSPost2010Prop52
140
1.0
102
RTVSPost2010PropOp52
 70
     0
102
RTVSPost2010Prop53
 90
        2
102
RTVSPost2010PropOp53
 70
     1
102
RTVSPost2010Prop54
  1
strokes_ogs.tif
102
RTVSPost2010PropOp54
 70
     1
102
RTVSPost2010Prop55
280
     0
102
RTVSPost2010PropOp55
 70
     1
102
RTVSPost2010Prop56
140
1.0
102
RTVSPost2010PropOp56
 70
     1
102
RTVSPost2010Prop57
140
1.0
102
RTVSPost2010PropOp57
 70
     1
  0
XRECORD
  5
1A2D1
102
{ACAD_REACTORS
330
1A2D0
102
}
330
1A2D0
100
AcDbXrecord
280
     1
102
RTVSPropertyOp0
 70
     1
102
RTVSPropertyOp1
 70
     1
102
RTVSPropertyOp2
 70
     1
102
RTVSPropertyOp3
 70
     1
102
RTVSPropertyOp4
 70
     1
102
RTVSPropertyOp5
 70
     1
102
RTVSPropertyOp6
 70
     1
102
RTVSPropertyOp7
 70
     1
102
RTVSPropertyOp8
 70
     1
102
RTVSPropertyOp9
 70
     1
102
RTVSPropertyOp10
 70
     1
102
RTVSPropertyOp11
 70
     1
102
RTVSPropertyOp12
 70
     1
102
RTVSPropertyOp13
 70
     1
102
RTVSPropertyOp14
 70
     1
102
RTVSPropertyOp15
 70
     1
102
RTVSPropertyOp16
 70
     1
102
RTVSPropertyOp17
 70
     1
102
RTVSPropertyOp18
 70
     1
102
RTVSPropertyOp19
 70
     1
102
RTVSPropertyOp20
 70
     1
102
RTVSPropertyOp21
 70
     1
102
RTVSPropertyOp22
 70
     1
102
RTVSPropertyOp23
 70
     1
102
RTVSPropertyOp24
 70
     1
102
RTVSPropertyOp25
 70
     1
102
RTVSPropertyOp26
 70
     1
102
RTVSPropertyOp27
 70
     1
102
RTVSPropertyOp28
 70
     1
102
RTVSPropertyOp29
 70
     1
102
RTVSPropertyOp30
 70
     1
102
RTVSPropertyOp31
 70
     1
102
RTVSPropertyOp32
 70
     1
102
RTVSPropertyOp33
 70
     1
102
RTVSPropertyOp34
 70
     1
102
RTVSPropertyOp35
 70
     1
102
RTVSPropertyOp36
 70
     1
102
RTVSPropertyOp37
 70
     1
102
RTVSPropertyOp38
 70
     1
102
RTVSPropertyOp39
 70
     1
102
RTVSPropertyOp40
 70
     1
102
RTVSPropertyOp41
 70
     1
102
RTVSPropertyOp42
 70
     1
102
RTVSPropertyOp43
 70
     1
102
RTVSPropertyOp44
 70
     1
102
RTVSPropertyOp45
 70
     1
102
RTVSPropertyOp46
 70
     1
102
RTVSPropertyOp47
 70
     1
102
RTVSPropertyOp48
 70
     1
102
RTVSPropertyOp49
 70
     1
102
RTVSPropertyOp50
 70
     1
102
RTVSPropertyOp51
 70
     0
102
RTVSPropertyOp52
 70
     0
102
RTVSPropertyOp53
 70
     1
102
RTVSPropertyOp54
 70
     1
102
RTVSPropertyOp55
 70
     1
102
RTVSPropertyOp56
 70
     1
102
RTVSPropertyOp57
 70
     1
102
RTVSPost2010Prop28
280
     0
102
RTVSPost2010PropOp28
 70
     1
102
RTVSPost2010Prop29
280
     1
102
RTVSPost2010PropOp29
 70
     1
102
RTVSPost2010Prop30
280
     1
102
RTVSPost2010PropOp30
 70
     1
102
RTVSPost2010Prop31
280
     0
102
RTVSPost2010PropOp31
 70
     1
102
RTVSPost2010Prop32
280
     0
102
RTVSPost2010PropOp32
 70
     1
102
RTVSPost2010Prop33
280
     0
102
RTVSPost2010PropOp33
 70
     1
102
RTVSPost2010Prop34
280
     0
102
RTVSPost2010PropOp34
 70
     1
102
RTVSPost2010Prop35
280
     0
102
RTVSPost2010PropOp35
 70
     1
102
RTVSPost2010Prop36
280
     0
102
RTVSPost2010PropOp36
 70
     1
102
RTVSPost2010Prop37
 90
       50
102
RTVSPost2010PropOp37
 70
     1
102
RTVSPost2010Prop38
140
0.0
102
RTVSPost2010PropOp38
 70
     1
102
RTVSPost2010Prop39
140
1.0
102
RTVSPost2010PropOp39
 70
     1
102
RTVSPost2010Prop40
 90
        0
102
RTVSPost2010PropOp40
 70
     1
102
RTVSPost2010Prop41ColorIndex
 90
       18
102
RTVSPost2010Prop41ColorRGB
 90
        0
102
RTVSPost2010PropOp41
 70
     1
102
RTVSPost2010Prop42
 90
       50
102
RTVSPost2010PropOp42
 70
     1
102
RTVSPost2010Prop43
 90
        3
102
RTVSPost2010PropOp43
 70
     1
102
RTVSPost2010Prop44ColorIndex
 90
        5
102
RTVSPost2010Prop44ColorRGB
 90
      255
102
RTVSPost2010PropOp44
 70
     1
102
RTVSPost2010Prop45
280
     0
102
RTVSPost2010PropOp45
 70
     1
102
RTVSPost2010Prop46
 90
       50
102
RTVSPost2010PropOp46
 70
     1
102
RTVSPost2010Prop47
 90
       50
102
RTVSPost2010PropOp47
 70
     1
102
RTVSPost2010Prop48
 90
       50
102
RTVSPost2010PropOp48
 70
     1
102
RTVSPost2010Prop49
280
     0
102
RTVSPost2010PropOp49
 70
     1
102
RTVSPost2010Prop50
 90
       50
102
RTVSPost2010PropOp50
 70
     1
102
RTVSPost2010Prop51ColorIndex
 90
      256
102
RTVSPost2010Prop51ColorRGB
 90
-16777216
102
RTVSPost2010PropOp51
 70
     0
102
RTVSPost2010Prop52
140
1.0
102
RTVSPost2010PropOp52
 70
     0
102
RTVSPost2010Prop53
 90
        2
102
RTVSPost2010PropOp53
 70
     1
102
RTVSPost2010Prop54
  1
strokes_ogs.tif
102
RTVSPost2010PropOp54
 70
     1
102
RTVSPost2010Prop55
280
     0
102
RTVSPost2010PropOp55
 70
     1
102
RTVSPost2010Prop56
140
1.0
102
RTVSPost2010PropOp56
 70
     1
102
RTVSPost2010Prop57
140
1.0
102
RTVSPost2010PropOp57
 70
     1
  0
XRECORD
  5
1A2D3
102
{ACAD_REACTORS
330
1A2D2
102
}
330
1A2D2
100
AcDbXrecord
280
     1
102
RTVSPropertyOp0
 70
     1
102
RTVSPropertyOp1
 70
     1
102
RTVSPropertyOp2
 70
     1
102
RTVSPropertyOp3
 70
     1
102
RTVSPropertyOp4
 70
     1
102
RTVSPropertyOp5
 70
     1
102
RTVSPropertyOp6
 70
     1
102
RTVSPropertyOp7
 70
     1
102
RTVSPropertyOp8
 70
     1
102
RTVSPropertyOp9
 70
     1
102
RTVSPropertyOp10
 70
     1
102
RTVSPropertyOp11
 70
     1
102
RTVSPropertyOp12
 70
     1
102
RTVSPropertyOp13
 70
     1
102
RTVSPropertyOp14
 70
     1
102
RTVSPropertyOp15
 70
     1
102
RTVSPropertyOp16
 70
     1
102
RTVSPropertyOp17
 70
     1
102
RTVSPropertyOp18
 70
     1
102
RTVSPropertyOp19
 70
     1
102
RTVSPropertyOp20
 70
     1
102
RTVSPropertyOp21
 70
     1
102
RTVSPropertyOp22
 70
     1
102
RTVSPropertyOp23
 70
     1
102
RTVSPropertyOp24
 70
     1
102
RTVSPropertyOp25
 70
     1
102
RTVSPropertyOp26
 70
     1
102
RTVSPropertyOp27
 70
     1
102
RTVSPropertyOp28
 70
     1
102
RTVSPropertyOp29
 70
     1
102
RTVSPropertyOp30
 70
     1
102
RTVSPropertyOp31
 70
     1
102
RTVSPropertyOp32
 70
     1
102
RTVSPropertyOp33
 70
     1
102
RTVSPropertyOp34
 70
     1
102
RTVSPropertyOp35
 70
     1
102
RTVSPropertyOp36
 70
     1
102
RTVSPropertyOp37
 70
     1
102
RTVSPropertyOp38
 70
     1
102
RTVSPropertyOp39
 70
     1
102
RTVSPropertyOp40
 70
     1
102
RTVSPropertyOp41
 70
     1
102
RTVSPropertyOp42
 70
     1
102
RTVSPropertyOp43
 70
     1
102
RTVSPropertyOp44
 70
     1
102
RTVSPropertyOp45
 70
     1
102
RTVSPropertyOp46
 70
     1
102
RTVSPropertyOp47
 70
     1
102
RTVSPropertyOp48
 70
     1
102
RTVSPropertyOp49
 70
     1
102
RTVSPropertyOp50
 70
     1
102
RTVSPropertyOp51
 70
     0
102
RTVSPropertyOp52
 70
     0
102
RTVSPropertyOp53
 70
     1
102
RTVSPropertyOp54
 70
     1
102
RTVSPropertyOp55
 70
     1
102
RTVSPropertyOp56
 70
     1
102
RTVSPropertyOp57
 70
     1
102
RTVSPost2010Prop28
280
     0
102
RTVSPost2010PropOp28
 70
     1
102
RTVSPost2010Prop29
280
     1
102
RTVSPost2010PropOp29
 70
     1
102
RTVSPost2010Prop30
280
     1
102
RTVSPost2010PropOp30
 70
     1
102
RTVSPost2010Prop31
280
     0
102
RTVSPost2010PropOp31
 70
     1
102
RTVSPost2010Prop32
280
     0
102
RTVSPost2010PropOp32
 70
     1
102
RTVSPost2010Prop33
280
     0
102
RTVSPost2010PropOp33
 70
     1
102
RTVSPost2010Prop34
280
     0
102
RTVSPost2010PropOp34
 70
     1
102
RTVSPost2010Prop35
280
     0
102
RTVSPost2010PropOp35
 70
     1
102
RTVSPost2010Prop36
280
     0
102
RTVSPost2010PropOp36
 70
     1
102
RTVSPost2010Prop37
 90
       50
102
RTVSPost2010PropOp37
 70
     1
102
RTVSPost2010Prop38
140
0.0
102
RTVSPost2010PropOp38
 70
     1
102
RTVSPost2010Prop39
140
1.0
102
RTVSPost2010PropOp39
 70
     1
102
RTVSPost2010Prop40
 90
        0
102
RTVSPost2010PropOp40
 70
     1
102
RTVSPost2010Prop41ColorIndex
 90
       18
102
RTVSPost2010Prop41ColorRGB
 90
        0
102
RTVSPost2010PropOp41
 70
     1
102
RTVSPost2010Prop42
 90
       50
102
RTVSPost2010PropOp42
 70
     1
102
RTVSPost2010Prop43
 90
        3
102
RTVSPost2010PropOp43
 70
     1
102
RTVSPost2010Prop44ColorIndex
 90
        5
102
RTVSPost2010Prop44ColorRGB
 90
      255
102
RTVSPost2010PropOp44
 70
     1
102
RTVSPost2010Prop45
280
     0
102
RTVSPost2010PropOp45
 70
     1
102
RTVSPost2010Prop46
 90
       50
102
RTVSPost2010PropOp46
 70
     1
102
RTVSPost2010Prop47
 90
       50
102
RTVSPost2010PropOp47
 70
     1
102
RTVSPost2010Prop48
 90
       50
102
RTVSPost2010PropOp48
 70
     1
102
RTVSPost2010Prop49
280
     0
102
RTVSPost2010PropOp49
 70
     1
102
RTVSPost2010Prop50
 90
       50
102
RTVSPost2010PropOp50
 70
     1
102
RTVSPost2010Prop51ColorIndex
 90
      256
102
RTVSPost2010Prop51ColorRGB
 90
-16777216
102
RTVSPost2010PropOp51
 70
     0
102
RTVSPost2010Prop52
140
1.0
102
RTVSPost2010PropOp52
 70
     0
102
RTVSPost2010Prop53
 90
        2
102
RTVSPost2010PropOp53
 70
     1
102
RTVSPost2010Prop54
  1
strokes_ogs.tif
102
RTVSPost2010PropOp54
 70
     1
102
RTVSPost2010Prop55
280
     0
102
RTVSPost2010PropOp55
 70
     1
102
RTVSPost2010Prop56
140
1.0
102
RTVSPost2010PropOp56
 70
     1
102
RTVSPost2010Prop57
140
1.0
102
RTVSPost2010PropOp57
 70
     1
  0
XRECORD
  5
1A2D5
102
{ACAD_REACTORS
330
1A2D4
102
}
330
1A2D4
100
AcDbXrecord
280
     1
102
RTVSPropertyOp0
 70
     0
102
RTVSPropertyOp1
 70
     0
102
RTVSPropertyOp2
 70
     0
102
RTVSPropertyOp3
 70
     0
102
RTVSPropertyOp4
 70
     0
102
RTVSPropertyOp5
 70
     0
102
RTVSPropertyOp6
 70
     0
102
RTVSPropertyOp7
 70
     0
102
RTVSPropertyOp8
 70
     0
102
RTVSPropertyOp9
 70
     0
102
RTVSPropertyOp10
 70
     0
102
RTVSPropertyOp11
 70
     0
102
RTVSPropertyOp12
 70
     0
102
RTVSPropertyOp13
 70
     0
102
RTVSPropertyOp14
 70
     0
102
RTVSPropertyOp15
 70
     0
102
RTVSPropertyOp16
 70
     0
102
RTVSPropertyOp17
 70
     0
102
RTVSPropertyOp18
 70
     0
102
RTVSPropertyOp19
 70
     0
102
RTVSPropertyOp20
 70
     0
102
RTVSPropertyOp21
 70
     0
102
RTVSPropertyOp22
 70
     0
102
RTVSPropertyOp23
 70
     0
102
RTVSPropertyOp24
 70
     0
102
RTVSPropertyOp25
 70
     0
102
RTVSPropertyOp26
 70
     0
102
RTVSPropertyOp27
 70
     0
102
RTVSPropertyOp28
 70
     1
102
RTVSPropertyOp29
 70
     1
102
RTVSPropertyOp30
 70
     1
102
RTVSPropertyOp31
 70
     1
102
RTVSPropertyOp32
 70
     1
102
RTVSPropertyOp33
 70
     1
102
RTVSPropertyOp34
 70
     1
102
RTVSPropertyOp35
 70
     1
102
RTVSPropertyOp36
 70
     1
102
RTVSPropertyOp37
 70
     1
102
RTVSPropertyOp38
 70
     1
102
RTVSPropertyOp39
 70
     1
102
RTVSPropertyOp40
 70
     1
102
RTVSPropertyOp41
 70
     1
102
RTVSPropertyOp42
 70
     1
102
RTVSPropertyOp43
 70
     1
102
RTVSPropertyOp44
 70
     1
102
RTVSPropertyOp45
 70
     1
102
RTVSPropertyOp46
 70
     1
102
RTVSPropertyOp47
 70
     1
102
RTVSPropertyOp48
 70
     1
102
RTVSPropertyOp49
 70
     1
102
RTVSPropertyOp50
 70
     1
102
RTVSPropertyOp51
 70
     0
102
RTVSPropertyOp52
 70
     0
102
RTVSPropertyOp53
 70
     1
102
RTVSPropertyOp54
 70
     1
102
RTVSPropertyOp55
 70
     1
102
RTVSPropertyOp56
 70
     1
102
RTVSPropertyOp57
 70
     1
102
RTVSPost2010Prop28
280
     0
102
RTVSPost2010PropOp28
 70
     1
102
RTVSPost2010Prop29
280
     1
102
RTVSPost2010PropOp29
 70
     1
102
RTVSPost2010Prop30
280
     1
102
RTVSPost2010PropOp30
 70
     1
102
RTVSPost2010Prop31
280
     0
102
RTVSPost2010PropOp31
 70
     1
102
RTVSPost2010Prop32
280
     0
102
RTVSPost2010PropOp32
 70
     1
102
RTVSPost2010Prop33
280
     0
102
RTVSPost2010PropOp33
 70
     1
102
RTVSPost2010Prop34
280
     0
102
RTVSPost2010PropOp34
 70
     1
102
RTVSPost2010Prop35
280
     0
102
RTVSPost2010PropOp35
 70
     1
102
RTVSPost2010Prop36
280
     0
102
RTVSPost2010PropOp36
 70
     1
102
RTVSPost2010Prop37
 90
       50
102
RTVSPost2010PropOp37
 70
     1
102
RTVSPost2010Prop38
140
0.0
102
RTVSPost2010PropOp38
 70
     1
102
RTVSPost2010Prop39
140
1.0
102
RTVSPost2010PropOp39
 70
     1
102
RTVSPost2010Prop40
 90
        0
102
RTVSPost2010PropOp40
 70
     1
102
RTVSPost2010Prop41ColorIndex
 90
       18
102
RTVSPost2010Prop41ColorRGB
 90
        0
102
RTVSPost2010PropOp41
 70
     1
102
RTVSPost2010Prop42
 90
       50
102
RTVSPost2010PropOp42
 70
     1
102
RTVSPost2010Prop43
 90
        3
102
RTVSPost2010PropOp43
 70
     1
102
RTVSPost2010Prop44ColorIndex
 90
        5
102
RTVSPost2010Prop44ColorRGB
 90
      255
102
RTVSPost2010PropOp44
 70
     1
102
RTVSPost2010Prop45
280
     0
102
RTVSPost2010PropOp45
 70
     1
102
RTVSPost2010Prop46
 90
       50
102
RTVSPost2010PropOp46
 70
     1
102
RTVSPost2010Prop47
 90
       50
102
RTVSPost2010PropOp47
 70
     1
102
RTVSPost2010Prop48
 90
       50
102
RTVSPost2010PropOp48
 70
     1
102
RTVSPost2010Prop49
280
     0
102
RTVSPost2010PropOp49
 70
     1
102
RTVSPost2010Prop50
 90
       50
102
RTVSPost2010PropOp50
 70
     1
102
RTVSPost2010Prop51ColorIndex
 90
      256
102
RTVSPost2010Prop51ColorRGB
 90
-16777216
102
RTVSPost2010PropOp51
 70
     0
102
RTVSPost2010Prop52
140
1.0
102
RTVSPost2010PropOp52
 70
     0
102
RTVSPost2010Prop53
 90
        2
102
RTVSPost2010PropOp53
 70
     1
102
RTVSPost2010Prop54
  1
strokes_ogs.tif
102
RTVSPost2010PropOp54
 70
     1
102
RTVSPost2010Prop55
280
     0
102
RTVSPost2010PropOp55
 70
     1
102
RTVSPost2010Prop56
140
1.0
102
RTVSPost2010PropOp56
 70
     1
102
RTVSPost2010Prop57
140
1.0
102
RTVSPost2010PropOp57
 70
     1
  0
XRECORD
  5
1A2D7
102
{ACAD_REACTORS
330
1A2D6
102
}
330
1A2D6
100
AcDbXrecord
280
     1
102
RTVSPropertyOp0
 70
     1
102
RTVSPropertyOp1
 70
     1
102
RTVSPropertyOp2
 70
     1
102
RTVSPropertyOp3
 70
     1
102
RTVSPropertyOp4
 70
     1
102
RTVSPropertyOp5
 70
     1
102
RTVSPropertyOp6
 70
     1
102
RTVSPropertyOp7
 70
     1
102
RTVSPropertyOp8
 70
     1
102
RTVSPropertyOp9
 70
     1
102
RTVSPropertyOp10
 70
     1
102
RTVSPropertyOp11
 70
     1
102
RTVSPropertyOp12
 70
     1
102
RTVSPropertyOp13
 70
     1
102
RTVSPropertyOp14
 70
     1
102
RTVSPropertyOp15
 70
     1
102
RTVSPropertyOp16
 70
     1
102
RTVSPropertyOp17
 70
     1
102
RTVSPropertyOp18
 70
     1
102
RTVSPropertyOp19
 70
     1
102
RTVSPropertyOp20
 70
     1
102
RTVSPropertyOp21
 70
     1
102
RTVSPropertyOp22
 70
     1
102
RTVSPropertyOp23
 70
     1
102
RTVSPropertyOp24
 70
     1
102
RTVSPropertyOp25
 70
     1
102
RTVSPropertyOp26
 70
     1
102
RTVSPropertyOp27
 70
     1
102
RTVSPropertyOp28
 70
     1
102
RTVSPropertyOp29
 70
     1
102
RTVSPropertyOp30
 70
     1
102
RTVSPropertyOp31
 70
     1
102
RTVSPropertyOp32
 70
     1
102
RTVSPropertyOp33
 70
     1
102
RTVSPropertyOp34
 70
     1
102
RTVSPropertyOp35
 70
     1
102
RTVSPropertyOp36
 70
     1
102
RTVSPropertyOp37
 70
     1
102
RTVSPropertyOp38
 70
     1
102
RTVSPropertyOp39
 70
     1
102
RTVSPropertyOp40
 70
     1
102
RTVSPropertyOp41
 70
     1
102
RTVSPropertyOp42
 70
     1
102
RTVSPropertyOp43
 70
     1
102
RTVSPropertyOp44
 70
     1
102
RTVSPropertyOp45
 70
     1
102
RTVSPropertyOp46
 70
     1
102
RTVSPropertyOp47
 70
     1
102
RTVSPropertyOp48
 70
     1
102
RTVSPropertyOp49
 70
     1
102
RTVSPropertyOp50
 70
     1
102
RTVSPropertyOp51
 70
     0
102
RTVSPropertyOp52
 70
     0
102
RTVSPropertyOp53
 70
     1
102
RTVSPropertyOp54
 70
     1
102
RTVSPropertyOp55
 70
     1
102
RTVSPropertyOp56
 70
     1
102
RTVSPropertyOp57
 70
     1
102
RTVSPost2010Prop28
280
     0
102
RTVSPost2010PropOp28
 70
     1
102
RTVSPost2010Prop29
280
     1
102
RTVSPost2010PropOp29
 70
     1
102
RTVSPost2010Prop30
280
     1
102
RTVSPost2010PropOp30
 70
     1
102
RTVSPost2010Prop31
280
     0
102
RTVSPost2010PropOp31
 70
     1
102
RTVSPost2010Prop32
280
     0
102
RTVSPost2010PropOp32
 70
     1
102
RTVSPost2010Prop33
280
     0
102
RTVSPost2010PropOp33
 70
     1
102
RTVSPost2010Prop34
280
     0
102
RTVSPost2010PropOp34
 70
     1
102
RTVSPost2010Prop35
280
     0
102
RTVSPost2010PropOp35
 70
     1
102
RTVSPost2010Prop36
280
     0
102
RTVSPost2010PropOp36
 70
     1
102
RTVSPost2010Prop37
 90
       50
102
RTVSPost2010PropOp37
 70
     1
102
RTVSPost2010Prop38
140
0.0
102
RTVSPost2010PropOp38
 70
     1
102
RTVSPost2010Prop39
140
1.0
102
RTVSPost2010PropOp39
 70
     1
102
RTVSPost2010Prop40
 90
        0
102
RTVSPost2010PropOp40
 70
     1
102
RTVSPost2010Prop41ColorIndex
 90
       18
102
RTVSPost2010Prop41ColorRGB
 90
        0
102
RTVSPost2010PropOp41
 70
     1
102
RTVSPost2010Prop42
 90
       50
102
RTVSPost2010PropOp42
 70
     1
102
RTVSPost2010Prop43
 90
        3
102
RTVSPost2010PropOp43
 70
     1
102
RTVSPost2010Prop44ColorIndex
 90
        5
102
RTVSPost2010Prop44ColorRGB
 90
      255
102
RTVSPost2010PropOp44
 70
     1
102
RTVSPost2010Prop45
280
     0
102
RTVSPost2010PropOp45
 70
     1
102
RTVSPost2010Prop46
 90
       50
102
RTVSPost2010PropOp46
 70
     1
102
RTVSPost2010Prop47
 90
       50
102
RTVSPost2010PropOp47
 70
     1
102
RTVSPost2010Prop48
 90
       50
102
RTVSPost2010PropOp48
 70
     1
102
RTVSPost2010Prop49
280
     0
102
RTVSPost2010PropOp49
 70
     1
102
RTVSPost2010Prop50
 90
       50
102
RTVSPost2010PropOp50
 70
     1
102
RTVSPost2010Prop51ColorIndex
 90
      256
102
RTVSPost2010Prop51ColorRGB
 90
-16777216
102
RTVSPost2010PropOp51
 70
     0
102
RTVSPost2010Prop52
140
1.0
102
RTVSPost2010PropOp52
 70
     0
102
RTVSPost2010Prop53
 90
        2
102
RTVSPost2010PropOp53
 70
     1
102
RTVSPost2010Prop54
  1
strokes_ogs.tif
102
RTVSPost2010PropOp54
 70
     1
102
RTVSPost2010Prop55
280
     0
102
RTVSPost2010PropOp55
 70
     1
102
RTVSPost2010Prop56
140
1.0
102
RTVSPost2010PropOp56
 70
     1
102
RTVSPost2010Prop57
140
1.0
102
RTVSPost2010PropOp57
 70
     1
  0
XRECORD
  5
1A2D9
102
{ACAD_REACTORS
330
1A2D8
102
}
330
1A2D8
100
AcDbXrecord
280
     1
102
RTVSPropertyOp0
 70
     0
102
RTVSPropertyOp1
 70
     0
102
RTVSPropertyOp2
 70
     0
102
RTVSPropertyOp3
 70
     0
102
RTVSPropertyOp4
 70
     0
102
RTVSPropertyOp5
 70
     0
102
RTVSPropertyOp6
 70
     0
102
RTVSPropertyOp7
 70
     0
102
RTVSPropertyOp8
 70
     0
102
RTVSPropertyOp9
 70
     0
102
RTVSPropertyOp10
 70
     0
102
RTVSPropertyOp11
 70
     0
102
RTVSPropertyOp12
 70
     0
102
RTVSPropertyOp13
 70
     0
102
RTVSPropertyOp14
 70
     0
102
RTVSPropertyOp15
 70
     0
102
RTVSPropertyOp16
 70
     0
102
RTVSPropertyOp17
 70
     0
102
RTVSPropertyOp18
 70
     0
102
RTVSPropertyOp19
 70
     0
102
RTVSPropertyOp20
 70
     0
102
RTVSPropertyOp21
 70
     0
102
RTVSPropertyOp22
 70
     0
102
RTVSPropertyOp23
 70
     0
102
RTVSPropertyOp24
 70
     0
102
RTVSPropertyOp25
 70
     0
102
RTVSPropertyOp26
 70
     0
102
RTVSPropertyOp27
 70
     0
102
RTVSPropertyOp28
 70
     1
102
RTVSPropertyOp29
 70
     1
102
RTVSPropertyOp30
 70
     1
102
RTVSPropertyOp31
 70
     1
102
RTVSPropertyOp32
 70
     1
102
RTVSPropertyOp33
 70
     1
102
RTVSPropertyOp34
 70
     1
102
RTVSPropertyOp35
 70
     1
102
RTVSPropertyOp36
 70
     1
102
RTVSPropertyOp37
 70
     1
102
RTVSPropertyOp38
 70
     1
102
RTVSPropertyOp39
 70
     1
102
RTVSPropertyOp40
 70
     1
102
RTVSPropertyOp41
 70
     1
102
RTVSPropertyOp42
 70
     1
102
RTVSPropertyOp43
 70
     1
102
RTVSPropertyOp44
 70
     1
102
RTVSPropertyOp45
 70
     1
102
RTVSPropertyOp46
 70
     1
102
RTVSPropertyOp47
 70
     1
102
RTVSPropertyOp48
 70
     1
102
RTVSPropertyOp49
 70
     1
102
RTVSPropertyOp50
 70
     1
102
RTVSPropertyOp51
 70
     0
102
RTVSPropertyOp52
 70
     0
102
RTVSPropertyOp53
 70
     1
102
RTVSPropertyOp54
 70
     1
102
RTVSPropertyOp55
 70
     1
102
RTVSPropertyOp56
 70
     1
102
RTVSPropertyOp57
 70
     1
102
RTVSPost2010Prop28
280
     0
102
RTVSPost2010PropOp28
 70
     1
102
RTVSPost2010Prop29
280
     1
102
RTVSPost2010PropOp29
 70
     1
102
RTVSPost2010Prop30
280
     1
102
RTVSPost2010PropOp30
 70
     1
102
RTVSPost2010Prop31
280
     0
102
RTVSPost2010PropOp31
 70
     1
102
RTVSPost2010Prop32
280
     0
102
RTVSPost2010PropOp32
 70
     1
102
RTVSPost2010Prop33
280
     0
102
RTVSPost2010PropOp33
 70
     1
102
RTVSPost2010Prop34
280
     0
102
RTVSPost2010PropOp34
 70
     1
102
RTVSPost2010Prop35
280
     0
102
RTVSPost2010PropOp35
 70
     1
102
RTVSPost2010Prop36
280
     0
102
RTVSPost2010PropOp36
 70
     1
102
RTVSPost2010Prop37
 90
       50
102
RTVSPost2010PropOp37
 70
     1
102
RTVSPost2010Prop38
140
0.0
102
RTVSPost2010PropOp38
 70
     1
102
RTVSPost2010Prop39
140
1.0
102
RTVSPost2010PropOp39
 70
     1
102
RTVSPost2010Prop40
 90
        0
102
RTVSPost2010PropOp40
 70
     1
102
RTVSPost2010Prop41ColorIndex
 90
       18
102
RTVSPost2010Prop41ColorRGB
 90
        0
102
RTVSPost2010PropOp41
 70
     1
102
RTVSPost2010Prop42
 90
       50
102
RTVSPost2010PropOp42
 70
     1
102
RTVSPost2010Prop43
 90
        3
102
RTVSPost2010PropOp43
 70
     1
102
RTVSPost2010Prop44ColorIndex
 90
        5
102
RTVSPost2010Prop44ColorRGB
 90
      255
102
RTVSPost2010PropOp44
 70
     1
102
RTVSPost2010Prop45
280
     0
102
RTVSPost2010PropOp45
 70
     1
102
RTVSPost2010Prop46
 90
       50
102
RTVSPost2010PropOp46
 70
     1
102
RTVSPost2010Prop47
 90
       50
102
RTVSPost2010PropOp47
 70
     1
102
RTVSPost2010Prop48
 90
       50
102
RTVSPost2010PropOp48
 70
     1
102
RTVSPost2010Prop49
280
     0
102
RTVSPost2010PropOp49
 70
     1
102
RTVSPost2010Prop50
 90
       50
102
RTVSPost2010PropOp50
 70
     1
102
RTVSPost2010Prop51ColorIndex
 90
      256
102
RTVSPost2010Prop51ColorRGB
 90
-16777216
102
RTVSPost2010PropOp51
 70
     0
102
RTVSPost2010Prop52
140
1.0
102
RTVSPost2010PropOp52
 70
     0
102
RTVSPost2010Prop53
 90
        2
102
RTVSPost2010PropOp53
 70
     1
102
RTVSPost2010Prop54
  1
strokes_ogs.tif
102
RTVSPost2010PropOp54
 70
     1
102
RTVSPost2010Prop55
280
     0
102
RTVSPost2010PropOp55
 70
     1
102
RTVSPost2010Prop56
140
1.0
102
RTVSPost2010PropOp56
 70
     1
102
RTVSPost2010Prop57
140
1.0
102
RTVSPost2010PropOp57
 70
     1
  0
XRECORD
  5
1A2DB
102
{ACAD_REACTORS
330
1A2DA
102
}
330
1A2DA
100
AcDbXrecord
280
     1
102
RTVSPropertyOp0
 70
     1
102
RTVSPropertyOp1
 70
     1
102
RTVSPropertyOp2
 70
     1
102
RTVSPropertyOp3
 70
     1
102
RTVSPropertyOp4
 70
     1
102
RTVSPropertyOp5
 70
     1
102
RTVSPropertyOp6
 70
     1
102
RTVSPropertyOp7
 70
     1
102
RTVSPropertyOp8
 70
     1
102
RTVSPropertyOp9
 70
     1
102
RTVSPropertyOp10
 70
     1
102
RTVSPropertyOp11
 70
     1
102
RTVSPropertyOp12
 70
     1
102
RTVSPropertyOp13
 70
     1
102
RTVSPropertyOp14
 70
     1
102
RTVSPropertyOp15
 70
     1
102
RTVSPropertyOp16
 70
     1
102
RTVSPropertyOp17
 70
     1
102
RTVSPropertyOp18
 70
     1
102
RTVSPropertyOp19
 70
     1
102
RTVSPropertyOp20
 70
     1
102
RTVSPropertyOp21
 70
     1
102
RTVSPropertyOp22
 70
     1
102
RTVSPropertyOp23
 70
     1
102
RTVSPropertyOp24
 70
     1
102
RTVSPropertyOp25
 70
     1
102
RTVSPropertyOp26
 70
     1
102
RTVSPropertyOp27
 70
     1
102
RTVSPropertyOp28
 70
     1
102
RTVSPropertyOp29
 70
     1
102
RTVSPropertyOp30
 70
     1
102
RTVSPropertyOp31
 70
     1
102
RTVSPropertyOp32
 70
     1
102
RTVSPropertyOp33
 70
     1
102
RTVSPropertyOp34
 70
     1
102
RTVSPropertyOp35
 70
     1
102
RTVSPropertyOp36
 70
     1
102
RTVSPropertyOp37
 70
     1
102
RTVSPropertyOp38
 70
     1
102
RTVSPropertyOp39
 70
     1
102
RTVSPropertyOp40
 70
     1
102
RTVSPropertyOp41
 70
     1
102
RTVSPropertyOp42
 70
     1
102
RTVSPropertyOp43
 70
     1
102
RTVSPropertyOp44
 70
     1
102
RTVSPropertyOp45
 70
     1
102
RTVSPropertyOp46
 70
     1
102
RTVSPropertyOp47
 70
     1
102
RTVSPropertyOp48
 70
     1
102
RTVSPropertyOp49
 70
     1
102
RTVSPropertyOp50
 70
     1
102
RTVSPropertyOp51
 70
     0
102
RTVSPropertyOp52
 70
     0
102
RTVSPropertyOp53
 70
     1
102
RTVSPropertyOp54
 70
     1
102
RTVSPropertyOp55
 70
     1
102
RTVSPropertyOp56
 70
     1
102
RTVSPropertyOp57
 70
     1
102
RTVSPost2010Prop28
280
     0
102
RTVSPost2010PropOp28
 70
     1
102
RTVSPost2010Prop29
280
     1
102
RTVSPost2010PropOp29
 70
     1
102
RTVSPost2010Prop30
280
     1
102
RTVSPost2010PropOp30
 70
     1
102
RTVSPost2010Prop31
280
     0
102
RTVSPost2010PropOp31
 70
     1
102
RTVSPost2010Prop32
280
     0
102
RTVSPost2010PropOp32
 70
     1
102
RTVSPost2010Prop33
280
     0
102
RTVSPost2010PropOp33
 70
     1
102
RTVSPost2010Prop34
280
     0
102
RTVSPost2010PropOp34
 70
     1
102
RTVSPost2010Prop35
280
     0
102
RTVSPost2010PropOp35
 70
     1
102
RTVSPost2010Prop36
280
     0
102
RTVSPost2010PropOp36
 70
     1
102
RTVSPost2010Prop37
 90
       50
102
RTVSPost2010PropOp37
 70
     1
102
RTVSPost2010Prop38
140
0.0
102
RTVSPost2010PropOp38
 70
     1
102
RTVSPost2010Prop39
140
1.0
102
RTVSPost2010PropOp39
 70
     1
102
RTVSPost2010Prop40
 90
        0
102
RTVSPost2010PropOp40
 70
     1
102
RTVSPost2010Prop41ColorIndex
 90
       18
102
RTVSPost2010Prop41ColorRGB
 90
        0
102
RTVSPost2010PropOp41
 70
     1
102
RTVSPost2010Prop42
 90
       50
102
RTVSPost2010PropOp42
 70
     1
102
RTVSPost2010Prop43
 90
        3
102
RTVSPost2010PropOp43
 70
     1
102
RTVSPost2010Prop44ColorIndex
 90
        5
102
RTVSPost2010Prop44ColorRGB
 90
      255
102
RTVSPost2010PropOp44
 70
     1
102
RTVSPost2010Prop45
280
     0
102
RTVSPost2010PropOp45
 70
     1
102
RTVSPost2010Prop46
 90
       50
102
RTVSPost2010PropOp46
 70
     1
102
RTVSPost2010Prop47
 90
       50
102
RTVSPost2010PropOp47
 70
     1
102
RTVSPost2010Prop48
 90
       50
102
RTVSPost2010PropOp48
 70
     1
102
RTVSPost2010Prop49
280
     0
102
RTVSPost2010PropOp49
 70
     1
102
RTVSPost2010Prop50
 90
       50
102
RTVSPost2010PropOp50
 70
     1
102
RTVSPost2010Prop51ColorIndex
 90
      256
102
RTVSPost2010Prop51ColorRGB
 90
-16777216
102
RTVSPost2010PropOp51
 70
     0
102
RTVSPost2010Prop52
140
1.0
102
RTVSPost2010PropOp52
 70
     0
102
RTVSPost2010Prop53
 90
        2
102
RTVSPost2010PropOp53
 70
     1
102
RTVSPost2010Prop54
  1
strokes_ogs.tif
102
RTVSPost2010PropOp54
 70
     1
102
RTVSPost2010Prop55
280
     0
102
RTVSPost2010PropOp55
 70
     1
102
RTVSPost2010Prop56
140
1.0
102
RTVSPost2010PropOp56
 70
     1
102
RTVSPost2010Prop57
140
1.0
102
RTVSPost2010PropOp57
 70
     1
  0
XRECORD
  5
1A2DD
102
{ACAD_REACTORS
330
1A2DC
102
}
330
1A2DC
100
AcDbXrecord
280
     1
102
RTVSPropertyOp0
 70
     1
102
RTVSPropertyOp1
 70
     1
102
RTVSPropertyOp2
 70
     1
102
RTVSPropertyOp3
 70
     1
102
RTVSPropertyOp4
 70
     1
102
RTVSPropertyOp5
 70
     1
102
RTVSPropertyOp6
 70
     1
102
RTVSPropertyOp7
 70
     1
102
RTVSPropertyOp8
 70
     1
102
RTVSPropertyOp9
 70
     1
102
RTVSPropertyOp10
 70
     1
102
RTVSPropertyOp11
 70
     1
102
RTVSPropertyOp12
 70
     1
102
RTVSPropertyOp13
 70
     1
102
RTVSPropertyOp14
 70
     1
102
RTVSPropertyOp15
 70
     1
102
RTVSPropertyOp16
 70
     1
102
RTVSPropertyOp17
 70
     1
102
RTVSPropertyOp18
 70
     1
102
RTVSPropertyOp19
 70
     1
102
RTVSPropertyOp20
 70
     1
102
RTVSPropertyOp21
 70
     1
102
RTVSPropertyOp22
 70
     1
102
RTVSPropertyOp23
 70
     1
102
RTVSPropertyOp24
 70
     1
102
RTVSPropertyOp25
 70
     1
102
RTVSPropertyOp26
 70
     1
102
RTVSPropertyOp27
 70
     1
102
RTVSPropertyOp28
 70
     1
102
RTVSPropertyOp29
 70
     1
102
RTVSPropertyOp30
 70
     1
102
RTVSPropertyOp31
 70
     1
102
RTVSPropertyOp32
 70
     1
102
RTVSPropertyOp33
 70
     1
102
RTVSPropertyOp34
 70
     1
102
RTVSPropertyOp35
 70
     1
102
RTVSPropertyOp36
 70
     1
102
RTVSPropertyOp37
 70
     1
102
RTVSPropertyOp38
 70
     1
102
RTVSPropertyOp39
 70
     1
102
RTVSPropertyOp40
 70
     1
102
RTVSPropertyOp41
 70
     1
102
RTVSPropertyOp42
 70
     1
102
RTVSPropertyOp43
 70
     1
102
RTVSPropertyOp44
 70
     1
102
RTVSPropertyOp45
 70
     1
102
RTVSPropertyOp46
 70
     1
102
RTVSPropertyOp47
 70
     1
102
RTVSPropertyOp48
 70
     1
102
RTVSPropertyOp49
 70
     1
102
RTVSPropertyOp50
 70
     1
102
RTVSPropertyOp51
 70
     0
102
RTVSPropertyOp52
 70
     0
102
RTVSPropertyOp53
 70
     1
102
RTVSPropertyOp54
 70
     1
102
RTVSPropertyOp55
 70
     1
102
RTVSPropertyOp56
 70
     1
102
RTVSPropertyOp57
 70
     1
102
RTVSPost2010Prop28
280
     0
102
RTVSPost2010PropOp28
 70
     1
102
RTVSPost2010Prop29
280
     1
102
RTVSPost2010PropOp29
 70
     1
102
RTVSPost2010Prop30
280
     1
102
RTVSPost2010PropOp30
 70
     1
102
RTVSPost2010Prop31
280
     0
102
RTVSPost2010PropOp31
 70
     1
102
RTVSPost2010Prop32
280
     0
102
RTVSPost2010PropOp32
 70
     1
102
RTVSPost2010Prop33
280
     0
102
RTVSPost2010PropOp33
 70
     1
102
RTVSPost2010Prop34
280
     0
102
RTVSPost2010PropOp34
 70
     1
102
RTVSPost2010Prop35
280
     0
102
RTVSPost2010PropOp35
 70
     1
102
RTVSPost2010Prop36
280
     0
102
RTVSPost2010PropOp36
 70
     1
102
RTVSPost2010Prop37
 90
       50
102
RTVSPost2010PropOp37
 70
     1
102
RTVSPost2010Prop38
140
0.0
102
RTVSPost2010PropOp38
 70
     1
102
RTVSPost2010Prop39
140
1.0
102
RTVSPost2010PropOp39
 70
     1
102
RTVSPost2010Prop40
 90
        0
102
RTVSPost2010PropOp40
 70
     1
102
RTVSPost2010Prop41ColorIndex
 90
       18
102
RTVSPost2010Prop41ColorRGB
 90
        0
102
RTVSPost2010PropOp41
 70
     1
102
RTVSPost2010Prop42
 90
       50
102
RTVSPost2010PropOp42
 70
     1
102
RTVSPost2010Prop43
 90
        3
102
RTVSPost2010PropOp43
 70
     1
102
RTVSPost2010Prop44ColorIndex
 90
        5
102
RTVSPost2010Prop44ColorRGB
 90
      255
102
RTVSPost2010PropOp44
 70
     1
102
RTVSPost2010Prop45
280
     0
102
RTVSPost2010PropOp45
 70
     1
102
RTVSPost2010Prop46
 90
       50
102
RTVSPost2010PropOp46
 70
     1
102
RTVSPost2010Prop47
 90
       50
102
RTVSPost2010PropOp47
 70
     1
102
RTVSPost2010Prop48
 90
       50
102
RTVSPost2010PropOp48
 70
     1
102
RTVSPost2010Prop49
280
     0
102
RTVSPost2010PropOp49
 70
     1
102
RTVSPost2010Prop50
 90
       50
102
RTVSPost2010PropOp50
 70
     1
102
RTVSPost2010Prop51ColorIndex
 90
      256
102
RTVSPost2010Prop51ColorRGB
 90
-16777216
102
RTVSPost2010PropOp51
 70
     0
102
RTVSPost2010Prop52
140
1.0
102
RTVSPost2010PropOp52
 70
     0
102
RTVSPost2010Prop53
 90
        2
102
RTVSPost2010PropOp53
 70
     1
102
RTVSPost2010Prop54
  1
strokes_ogs.tif
102
RTVSPost2010PropOp54
 70
     1
102
RTVSPost2010Prop55
280
     0
102
RTVSPost2010PropOp55
 70
     1
102
RTVSPost2010Prop56
140
1.0
102
RTVSPost2010PropOp56
 70
     1
102
RTVSPost2010Prop57
140
1.0
102
RTVSPost2010PropOp57
 70
     1
  0
XRECORD
  5
1A2DF
102
{ACAD_REACTORS
330
1A2DE
102
}
330
1A2DE
100
AcDbXrecord
280
     1
102
RTVSPropertyOp0
 70
     1
102
RTVSPropertyOp1
 70
     1
102
RTVSPropertyOp2
 70
     1
102
RTVSPropertyOp3
 70
     1
102
RTVSPropertyOp4
 70
     1
102
RTVSPropertyOp5
 70
     1
102
RTVSPropertyOp6
 70
     1
102
RTVSPropertyOp7
 70
     1
102
RTVSPropertyOp8
 70
     1
102
RTVSPropertyOp9
 70
     1
102
RTVSPropertyOp10
 70
     1
102
RTVSPropertyOp11
 70
     1
102
RTVSPropertyOp12
 70
     1
102
RTVSPropertyOp13
 70
     1
102
RTVSPropertyOp14
 70
     1
102
RTVSPropertyOp15
 70
     1
102
RTVSPropertyOp16
 70
     1
102
RTVSPropertyOp17
 70
     1
102
RTVSPropertyOp18
 70
     1
102
RTVSPropertyOp19
 70
     1
102
RTVSPropertyOp20
 70
     1
102
RTVSPropertyOp21
 70
     1
102
RTVSPropertyOp22
 70
     1
102
RTVSPropertyOp23
 70
     1
102
RTVSPropertyOp24
 70
     1
102
RTVSPropertyOp25
 70
     1
102
RTVSPropertyOp26
 70
     1
102
RTVSPropertyOp27
 70
     1
102
RTVSPropertyOp28
 70
     1
102
RTVSPropertyOp29
 70
     1
102
RTVSPropertyOp30
 70
     1
102
RTVSPropertyOp31
 70
     1
102
RTVSPropertyOp32
 70
     1
102
RTVSPropertyOp33
 70
     1
102
RTVSPropertyOp34
 70
     1
102
RTVSPropertyOp35
 70
     1
102
RTVSPropertyOp36
 70
     1
102
RTVSPropertyOp37
 70
     1
102
RTVSPropertyOp38
 70
     1
102
RTVSPropertyOp39
 70
     1
102
RTVSPropertyOp40
 70
     1
102
RTVSPropertyOp41
 70
     1
102
RTVSPropertyOp42
 70
     1
102
RTVSPropertyOp43
 70
     1
102
RTVSPropertyOp44
 70
     1
102
RTVSPropertyOp45
 70
     1
102
RTVSPropertyOp46
 70
     1
102
RTVSPropertyOp47
 70
     1
102
RTVSPropertyOp48
 70
     1
102
RTVSPropertyOp49
 70
     1
102
RTVSPropertyOp50
 70
     1
102
RTVSPropertyOp51
 70
     0
102
RTVSPropertyOp52
 70
     0
102
RTVSPropertyOp53
 70
     1
102
RTVSPropertyOp54
 70
     1
102
RTVSPropertyOp55
 70
     1
102
RTVSPropertyOp56
 70
     1
102
RTVSPropertyOp57
 70
     1
102
RTVSPost2010Prop28
280
     0
102
RTVSPost2010PropOp28
 70
     1
102
RTVSPost2010Prop29
280
     1
102
RTVSPost2010PropOp29
 70
     1
102
RTVSPost2010Prop30
280
     1
102
RTVSPost2010PropOp30
 70
     1
102
RTVSPost2010Prop31
280
     0
102
RTVSPost2010PropOp31
 70
     1
102
RTVSPost2010Prop32
280
     0
102
RTVSPost2010PropOp32
 70
     1
102
RTVSPost2010Prop33
280
     0
102
RTVSPost2010PropOp33
 70
     1
102
RTVSPost2010Prop34
280
     0
102
RTVSPost2010PropOp34
 70
     1
102
RTVSPost2010Prop35
280
     0
102
RTVSPost2010PropOp35
 70
     1
102
RTVSPost2010Prop36
280
     0
102
RTVSPost2010PropOp36
 70
     1
102
RTVSPost2010Prop37
 90
       50
102
RTVSPost2010PropOp37
 70
     1
102
RTVSPost2010Prop38
140
0.0
102
RTVSPost2010PropOp38
 70
     1
102
RTVSPost2010Prop39
140
1.0
102
RTVSPost2010PropOp39
 70
     1
102
RTVSPost2010Prop40
 90
        0
102
RTVSPost2010PropOp40
 70
     1
102
RTVSPost2010Prop41ColorIndex
 90
       18
102
RTVSPost2010Prop41ColorRGB
 90
        0
102
RTVSPost2010PropOp41
 70
     1
102
RTVSPost2010Prop42
 90
       50
102
RTVSPost2010PropOp42
 70
     1
102
RTVSPost2010Prop43
 90
        3
102
RTVSPost2010PropOp43
 70
     1
102
RTVSPost2010Prop44ColorIndex
 90
        5
102
RTVSPost2010Prop44ColorRGB
 90
      255
102
RTVSPost2010PropOp44
 70
     1
102
RTVSPost2010Prop45
280
     0
102
RTVSPost2010PropOp45
 70
     1
102
RTVSPost2010Prop46
 90
       50
102
RTVSPost2010PropOp46
 70
     1
102
RTVSPost2010Prop47
 90
       50
102
RTVSPost2010PropOp47
 70
     1
102
RTVSPost2010Prop48
 90
       50
102
RTVSPost2010PropOp48
 70
     1
102
RTVSPost2010Prop49
280
     0
102
RTVSPost2010PropOp49
 70
     1
102
RTVSPost2010Prop50
 90
       50
102
RTVSPost2010PropOp50
 70
     1
102
RTVSPost2010Prop51ColorIndex
 90
      256
102
RTVSPost2010Prop51ColorRGB
 90
-16777216
102
RTVSPost2010PropOp51
 70
     0
102
RTVSPost2010Prop52
140
1.0
102
RTVSPost2010PropOp52
 70
     0
102
RTVSPost2010Prop53
 90
        2
102
RTVSPost2010PropOp53
 70
     1
102
RTVSPost2010Prop54
  1
strokes_ogs.tif
102
RTVSPost2010PropOp54
 70
     1
102
RTVSPost2010Prop55
280
     0
102
RTVSPost2010PropOp55
 70
     1
102
RTVSPost2010Prop56
140
1.0
102
RTVSPost2010PropOp56
 70
     1
102
RTVSPost2010Prop57
140
1.0
102
RTVSPost2010PropOp57
 70
     1
  0
XRECORD
  5
1A2E1
102
{ACAD_REACTORS
330
1A2E0
102
}
330
1A2E0
100
AcDbXrecord
280
     1
102
RTVSPropertyOp0
 70
     1
102
RTVSPropertyOp1
 70
     1
102
RTVSPropertyOp2
 70
     1
102
RTVSPropertyOp3
 70
     1
102
RTVSPropertyOp4
 70
     1
102
RTVSPropertyOp5
 70
     1
102
RTVSPropertyOp6
 70
     1
102
RTVSPropertyOp7
 70
     1
102
RTVSPropertyOp8
 70
     1
102
RTVSPropertyOp9
 70
     1
102
RTVSPropertyOp10
 70
     1
102
RTVSPropertyOp11
 70
     1
102
RTVSPropertyOp12
 70
     1
102
RTVSPropertyOp13
 70
     1
102
RTVSPropertyOp14
 70
     1
102
RTVSPropertyOp15
 70
     1
102
RTVSPropertyOp16
 70
     1
102
RTVSPropertyOp17
 70
     1
102
RTVSPropertyOp18
 70
     1
102
RTVSPropertyOp19
 70
     1
102
RTVSPropertyOp20
 70
     1
102
RTVSPropertyOp21
 70
     1
102
RTVSPropertyOp22
 70
     1
102
RTVSPropertyOp23
 70
     1
102
RTVSPropertyOp24
 70
     1
102
RTVSPropertyOp25
 70
     1
102
RTVSPropertyOp26
 70
     1
102
RTVSPropertyOp27
 70
     1
102
RTVSPropertyOp28
 70
     1
102
RTVSPropertyOp29
 70
     1
102
RTVSPropertyOp30
 70
     1
102
RTVSPropertyOp31
 70
     1
102
RTVSPropertyOp32
 70
     1
102
RTVSPropertyOp33
 70
     1
102
RTVSPropertyOp34
 70
     1
102
RTVSPropertyOp35
 70
     1
102
RTVSPropertyOp36
 70
     1
102
RTVSPropertyOp37
 70
     1
102
RTVSPropertyOp38
 70
     1
102
RTVSPropertyOp39
 70
     1
102
RTVSPropertyOp40
 70
     1
102
RTVSPropertyOp41
 70
     1
102
RTVSPropertyOp42
 70
     1
102
RTVSPropertyOp43
 70
     1
102
RTVSPropertyOp44
 70
     1
102
RTVSPropertyOp45
 70
     1
102
RTVSPropertyOp46
 70
     1
102
RTVSPropertyOp47
 70
     1
102
RTVSPropertyOp48
 70
     1
102
RTVSPropertyOp49
 70
     1
102
RTVSPropertyOp50
 70
     1
102
RTVSPropertyOp51
 70
     0
102
RTVSPropertyOp52
 70
     0
102
RTVSPropertyOp53
 70
     1
102
RTVSPropertyOp54
 70
     1
102
RTVSPropertyOp55
 70
     1
102
RTVSPropertyOp56
 70
     1
102
RTVSPropertyOp57
 70
     1
102
RTVSPost2010Prop28
280
     0
102
RTVSPost2010PropOp28
 70
     1
102
RTVSPost2010Prop29
280
     1
102
RTVSPost2010PropOp29
 70
     1
102
RTVSPost2010Prop30
280
     1
102
RTVSPost2010PropOp30
 70
     1
102
RTVSPost2010Prop31
280
     0
102
RTVSPost2010PropOp31
 70
     1
102
RTVSPost2010Prop32
280
     0
102
RTVSPost2010PropOp32
 70
     1
102
RTVSPost2010Prop33
280
     0
102
RTVSPost2010PropOp33
 70
     1
102
RTVSPost2010Prop34
280
     0
102
RTVSPost2010PropOp34
 70
     1
102
RTVSPost2010Prop35
280
     0
102
RTVSPost2010PropOp35
 70
     1
102
RTVSPost2010Prop36
280
     0
102
RTVSPost2010PropOp36
 70
     1
102
RTVSPost2010Prop37
 90
       50
102
RTVSPost2010PropOp37
 70
     1
102
RTVSPost2010Prop38
140
0.0
102
RTVSPost2010PropOp38
 70
     1
102
RTVSPost2010Prop39
140
1.0
102
RTVSPost2010PropOp39
 70
     1
102
RTVSPost2010Prop40
 90
        0
102
RTVSPost2010PropOp40
 70
     1
102
RTVSPost2010Prop41ColorIndex
 90
       18
102
RTVSPost2010Prop41ColorRGB
 90
        0
102
RTVSPost2010PropOp41
 70
     1
102
RTVSPost2010Prop42
 90
       50
102
RTVSPost2010PropOp42
 70
     1
102
RTVSPost2010Prop43
 90
        3
102
RTVSPost2010PropOp43
 70
     1
102
RTVSPost2010Prop44ColorIndex
 90
        5
102
RTVSPost2010Prop44ColorRGB
 90
      255
102
RTVSPost2010PropOp44
 70
     1
102
RTVSPost2010Prop45
280
     0
102
RTVSPost2010PropOp45
 70
     1
102
RTVSPost2010Prop46
 90
       50
102
RTVSPost2010PropOp46
 70
     1
102
RTVSPost2010Prop47
 90
       50
102
RTVSPost2010PropOp47
 70
     1
102
RTVSPost2010Prop48
 90
       50
102
RTVSPost2010PropOp48
 70
     1
102
RTVSPost2010Prop49
280
     0
102
RTVSPost2010PropOp49
 70
     1
102
RTVSPost2010Prop50
 90
       50
102
RTVSPost2010PropOp50
 70
     1
102
RTVSPost2010Prop51ColorIndex
 90
      256
102
RTVSPost2010Prop51ColorRGB
 90
-16777216
102
RTVSPost2010PropOp51
 70
     0
102
RTVSPost2010Prop52
140
1.0
102
RTVSPost2010PropOp52
 70
     0
102
RTVSPost2010Prop53
 90
        2
102
RTVSPost2010PropOp53
 70
     1
102
RTVSPost2010Prop54
  1
strokes_ogs.tif
102
RTVSPost2010PropOp54
 70
     1
102
RTVSPost2010Prop55
280
     0
102
RTVSPost2010PropOp55
 70
     1
102
RTVSPost2010Prop56
140
1.0
102
RTVSPost2010PropOp56
 70
     1
102
RTVSPost2010Prop57
140
1.0
102
RTVSPost2010PropOp57
 70
     1
  0
XRECORD
  5
1A2E3
102
{ACAD_REACTORS
330
1A2E2
102
}
330
1A2E2
100
AcDbXrecord
280
     1
102
RTVSPropertyOp0
 70
     1
102
RTVSPropertyOp1
 70
     1
102
RTVSPropertyOp2
 70
     1
102
RTVSPropertyOp3
 70
     1
102
RTVSPropertyOp4
 70
     1
102
RTVSPropertyOp5
 70
     1
102
RTVSPropertyOp6
 70
     1
102
RTVSPropertyOp7
 70
     1
102
RTVSPropertyOp8
 70
     1
102
RTVSPropertyOp9
 70
     1
102
RTVSPropertyOp10
 70
     1
102
RTVSPropertyOp11
 70
     1
102
RTVSPropertyOp12
 70
     1
102
RTVSPropertyOp13
 70
     1
102
RTVSPropertyOp14
 70
     1
102
RTVSPropertyOp15
 70
     1
102
RTVSPropertyOp16
 70
     1
102
RTVSPropertyOp17
 70
     1
102
RTVSPropertyOp18
 70
     1
102
RTVSPropertyOp19
 70
     1
102
RTVSPropertyOp20
 70
     1
102
RTVSPropertyOp21
 70
     1
102
RTVSPropertyOp22
 70
     1
102
RTVSPropertyOp23
 70
     1
102
RTVSPropertyOp24
 70
     1
102
RTVSPropertyOp25
 70
     1
102
RTVSPropertyOp26
 70
     1
102
RTVSPropertyOp27
 70
     1
102
RTVSPropertyOp28
 70
     1
102
RTVSPropertyOp29
 70
     1
102
RTVSPropertyOp30
 70
     1
102
RTVSPropertyOp31
 70
     1
102
RTVSPropertyOp32
 70
     1
102
RTVSPropertyOp33
 70
     1
102
RTVSPropertyOp34
 70
     1
102
RTVSPropertyOp35
 70
     1
102
RTVSPropertyOp36
 70
     1
102
RTVSPropertyOp37
 70
     1
102
RTVSPropertyOp38
 70
     1
102
RTVSPropertyOp39
 70
     1
102
RTVSPropertyOp40
 70
     1
102
RTVSPropertyOp41
 70
     1
102
RTVSPropertyOp42
 70
     1
102
RTVSPropertyOp43
 70
     1
102
RTVSPropertyOp44
 70
     1
102
RTVSPropertyOp45
 70
     1
102
RTVSPropertyOp46
 70
     1
102
RTVSPropertyOp47
 70
     1
102
RTVSPropertyOp48
 70
     1
102
RTVSPropertyOp49
 70
     1
102
RTVSPropertyOp50
 70
     1
102
RTVSPropertyOp51
 70
     0
102
RTVSPropertyOp52
 70
     0
102
RTVSPropertyOp53
 70
     1
102
RTVSPropertyOp54
 70
     1
102
RTVSPropertyOp55
 70
     1
102
RTVSPropertyOp56
 70
     1
102
RTVSPropertyOp57
 70
     1
102
RTVSPost2010Prop28
280
     0
102
RTVSPost2010PropOp28
 70
     1
102
RTVSPost2010Prop29
280
     1
102
RTVSPost2010PropOp29
 70
     1
102
RTVSPost2010Prop30
280
     1
102
RTVSPost2010PropOp30
 70
     1
102
RTVSPost2010Prop31
280
     0
102
RTVSPost2010PropOp31
 70
     1
102
RTVSPost2010Prop32
280
     0
102
RTVSPost2010PropOp32
 70
     1
102
RTVSPost2010Prop33
280
     0
102
RTVSPost2010PropOp33
 70
     1
102
RTVSPost2010Prop34
280
     0
102
RTVSPost2010PropOp34
 70
     1
102
RTVSPost2010Prop35
280
     0
102
RTVSPost2010PropOp35
 70
     1
102
RTVSPost2010Prop36
280
     0
102
RTVSPost2010PropOp36
 70
     1
102
RTVSPost2010Prop37
 90
       50
102
RTVSPost2010PropOp37
 70
     1
102
RTVSPost2010Prop38
140
0.0
102
RTVSPost2010PropOp38
 70
     1
102
RTVSPost2010Prop39
140
1.0
102
RTVSPost2010PropOp39
 70
     1
102
RTVSPost2010Prop40
 90
        0
102
RTVSPost2010PropOp40
 70
     1
102
RTVSPost2010Prop41ColorIndex
 90
       18
102
RTVSPost2010Prop41ColorRGB
 90
        0
102
RTVSPost2010PropOp41
 70
     1
102
RTVSPost2010Prop42
 90
       50
102
RTVSPost2010PropOp42
 70
     1
102
RTVSPost2010Prop43
 90
        3
102
RTVSPost2010PropOp43
 70
     1
102
RTVSPost2010Prop44ColorIndex
 90
        5
102
RTVSPost2010Prop44ColorRGB
 90
      255
102
RTVSPost2010PropOp44
 70
     1
102
RTVSPost2010Prop45
280
     0
102
RTVSPost2010PropOp45
 70
     1
102
RTVSPost2010Prop46
 90
       50
102
RTVSPost2010PropOp46
 70
     1
102
RTVSPost2010Prop47
 90
       50
102
RTVSPost2010PropOp47
 70
     1
102
RTVSPost2010Prop48
 90
       50
102
RTVSPost2010PropOp48
 70
     1
102
RTVSPost2010Prop49
280
     0
102
RTVSPost2010PropOp49
 70
     1
102
RTVSPost2010Prop50
 90
       50
102
RTVSPost2010PropOp50
 70
     1
102
RTVSPost2010Prop51ColorIndex
 90
      256
102
RTVSPost2010Prop51ColorRGB
 90
-16777216
102
RTVSPost2010PropOp51
 70
     0
102
RTVSPost2010Prop52
140
1.0
102
RTVSPost2010PropOp52
 70
     0
102
RTVSPost2010Prop53
 90
        2
102
RTVSPost2010PropOp53
 70
     1
102
RTVSPost2010Prop54
  1
strokes_ogs.tif
102
RTVSPost2010PropOp54
 70
     1
102
RTVSPost2010Prop55
280
     0
102
RTVSPost2010PropOp55
 70
     1
102
RTVSPost2010Prop56
140
1.0
102
RTVSPost2010PropOp56
 70
     1
102
RTVSPost2010Prop57
140
1.0
102
RTVSPost2010PropOp57
 70
     1
  0
XRECORD
  5
1A2E5
102
{ACAD_REACTORS
330
1A2E4
102
}
330
1A2E4
100
AcDbXrecord
280
     1
102
RTVSPropertyOp0
 70
     1
102
RTVSPropertyOp1
 70
     1
102
RTVSPropertyOp2
 70
     1
102
RTVSPropertyOp3
 70
     1
102
RTVSPropertyOp4
 70
     1
102
RTVSPropertyOp5
 70
     1
102
RTVSPropertyOp6
 70
     1
102
RTVSPropertyOp7
 70
     1
102
RTVSPropertyOp8
 70
     1
102
RTVSPropertyOp9
 70
     1
102
RTVSPropertyOp10
 70
     1
102
RTVSPropertyOp11
 70
     1
102
RTVSPropertyOp12
 70
     1
102
RTVSPropertyOp13
 70
     1
102
RTVSPropertyOp14
 70
     1
102
RTVSPropertyOp15
 70
     1
102
RTVSPropertyOp16
 70
     1
102
RTVSPropertyOp17
 70
     1
102
RTVSPropertyOp18
 70
     1
102
RTVSPropertyOp19
 70
     1
102
RTVSPropertyOp20
 70
     1
102
RTVSPropertyOp21
 70
     1
102
RTVSPropertyOp22
 70
     1
102
RTVSPropertyOp23
 70
     1
102
RTVSPropertyOp24
 70
     1
102
RTVSPropertyOp25
 70
     1
102
RTVSPropertyOp26
 70
     1
102
RTVSPropertyOp27
 70
     1
102
RTVSPropertyOp28
 70
     1
102
RTVSPropertyOp29
 70
     1
102
RTVSPropertyOp30
 70
     1
102
RTVSPropertyOp31
 70
     1
102
RTVSPropertyOp32
 70
     1
102
RTVSPropertyOp33
 70
     1
102
RTVSPropertyOp34
 70
     1
102
RTVSPropertyOp35
 70
     1
102
RTVSPropertyOp36
 70
     1
102
RTVSPropertyOp37
 70
     1
102
RTVSPropertyOp38
 70
     1
102
RTVSPropertyOp39
 70
     1
102
RTVSPropertyOp40
 70
     1
102
RTVSPropertyOp41
 70
     1
102
RTVSPropertyOp42
 70
     1
102
RTVSPropertyOp43
 70
     1
102
RTVSPropertyOp44
 70
     1
102
RTVSPropertyOp45
 70
     1
102
RTVSPropertyOp46
 70
     1
102
RTVSPropertyOp47
 70
     1
102
RTVSPropertyOp48
 70
     1
102
RTVSPropertyOp49
 70
     1
102
RTVSPropertyOp50
 70
     1
102
RTVSPropertyOp51
 70
     0
102
RTVSPropertyOp52
 70
     0
102
RTVSPropertyOp53
 70
     1
102
RTVSPropertyOp54
 70
     1
102
RTVSPropertyOp55
 70
     1
102
RTVSPropertyOp56
 70
     1
102
RTVSPropertyOp57
 70
     1
102
RTVSPost2010Prop28
280
     0
102
RTVSPost2010PropOp28
 70
     1
102
RTVSPost2010Prop29
280
     1
102
RTVSPost2010PropOp29
 70
     1
102
RTVSPost2010Prop30
280
     1
102
RTVSPost2010PropOp30
 70
     1
102
RTVSPost2010Prop31
280
     0
102
RTVSPost2010PropOp31
 70
     1
102
RTVSPost2010Prop32
280
     0
102
RTVSPost2010PropOp32
 70
     1
102
RTVSPost2010Prop33
280
     0
102
RTVSPost2010PropOp33
 70
     1
102
RTVSPost2010Prop34
280
     0
102
RTVSPost2010PropOp34
 70
     1
102
RTVSPost2010Prop35
280
     0
102
RTVSPost2010PropOp35
 70
     1
102
RTVSPost2010Prop36
280
     0
102
RTVSPost2010PropOp36
 70
     1
102
RTVSPost2010Prop37
 90
       50
102
RTVSPost2010PropOp37
 70
     1
102
RTVSPost2010Prop38
140
0.0
102
RTVSPost2010PropOp38
 70
     1
102
RTVSPost2010Prop39
140
1.0
102
RTVSPost2010PropOp39
 70
     1
102
RTVSPost2010Prop40
 90
        0
102
RTVSPost2010PropOp40
 70
     1
102
RTVSPost2010Prop41ColorIndex
 90
       18
102
RTVSPost2010Prop41ColorRGB
 90
        0
102
RTVSPost2010PropOp41
 70
     1
102
RTVSPost2010Prop42
 90
       50
102
RTVSPost2010PropOp42
 70
     1
102
RTVSPost2010Prop43
 90
        3
102
RTVSPost2010PropOp43
 70
     1
102
RTVSPost2010Prop44ColorIndex
 90
        5
102
RTVSPost2010Prop44ColorRGB
 90
      255
102
RTVSPost2010PropOp44
 70
     1
102
RTVSPost2010Prop45
280
     0
102
RTVSPost2010PropOp45
 70
     1
102
RTVSPost2010Prop46
 90
       50
102
RTVSPost2010PropOp46
 70
     1
102
RTVSPost2010Prop47
 90
       50
102
RTVSPost2010PropOp47
 70
     1
102
RTVSPost2010Prop48
 90
       50
102
RTVSPost2010PropOp48
 70
     1
102
RTVSPost2010Prop49
280
     0
102
RTVSPost2010PropOp49
 70
     1
102
RTVSPost2010Prop50
 90
       50
102
RTVSPost2010PropOp50
 70
     1
102
RTVSPost2010Prop51ColorIndex
 90
      256
102
RTVSPost2010Prop51ColorRGB
 90
-16777216
102
RTVSPost2010PropOp51
 70
     0
102
RTVSPost2010Prop52
140
1.0
102
RTVSPost2010PropOp52
 70
     0
102
RTVSPost2010Prop53
 90
        2
102
RTVSPost2010PropOp53
 70
     1
102
RTVSPost2010Prop54
  1
strokes_ogs.tif
102
RTVSPost2010PropOp54
 70
     1
102
RTVSPost2010Prop55
280
     0
102
RTVSPost2010PropOp55
 70
     1
102
RTVSPost2010Prop56
140
1.0
102
RTVSPost2010PropOp56
 70
     1
102
RTVSPost2010Prop57
140
1.0
102
RTVSPost2010PropOp57
 70
     1
  0
XRECORD
  5
1A2E7
102
{ACAD_REACTORS
330
1A2E6
102
}
330
1A2E6
100
AcDbXrecord
280
     1
102
RTVSPropertyOp0
 70
     1
102
RTVSPropertyOp1
 70
     1
102
RTVSPropertyOp2
 70
     1
102
RTVSPropertyOp3
 70
     1
102
RTVSPropertyOp4
 70
     1
102
RTVSPropertyOp5
 70
     1
102
RTVSPropertyOp6
 70
     1
102
RTVSPropertyOp7
 70
     1
102
RTVSPropertyOp8
 70
     1
102
RTVSPropertyOp9
 70
     1
102
RTVSPropertyOp10
 70
     1
102
RTVSPropertyOp11
 70
     1
102
RTVSPropertyOp12
 70
     1
102
RTVSPropertyOp13
 70
     1
102
RTVSPropertyOp14
 70
     1
102
RTVSPropertyOp15
 70
     1
102
RTVSPropertyOp16
 70
     1
102
RTVSPropertyOp17
 70
     1
102
RTVSPropertyOp18
 70
     1
102
RTVSPropertyOp19
 70
     1
102
RTVSPropertyOp20
 70
     1
102
RTVSPropertyOp21
 70
     1
102
RTVSPropertyOp22
 70
     1
102
RTVSPropertyOp23
 70
     1
102
RTVSPropertyOp24
 70
     1
102
RTVSPropertyOp25
 70
     1
102
RTVSPropertyOp26
 70
     1
102
RTVSPropertyOp27
 70
     1
102
RTVSPropertyOp28
 70
     1
102
RTVSPropertyOp29
 70
     1
102
RTVSPropertyOp30
 70
     1
102
RTVSPropertyOp31
 70
     1
102
RTVSPropertyOp32
 70
     1
102
RTVSPropertyOp33
 70
     1
102
RTVSPropertyOp34
 70
     1
102
RTVSPropertyOp35
 70
     1
102
RTVSPropertyOp36
 70
     1
102
RTVSPropertyOp37
 70
     1
102
RTVSPropertyOp38
 70
     1
102
RTVSPropertyOp39
 70
     1
102
RTVSPropertyOp40
 70
     1
102
RTVSPropertyOp41
 70
     1
102
RTVSPropertyOp42
 70
     1
102
RTVSPropertyOp43
 70
     1
102
RTVSPropertyOp44
 70
     1
102
RTVSPropertyOp45
 70
     1
102
RTVSPropertyOp46
 70
     1
102
RTVSPropertyOp47
 70
     1
102
RTVSPropertyOp48
 70
     1
102
RTVSPropertyOp49
 70
     1
102
RTVSPropertyOp50
 70
     1
102
RTVSPropertyOp51
 70
     0
102
RTVSPropertyOp52
 70
     0
102
RTVSPropertyOp53
 70
     1
102
RTVSPropertyOp54
 70
     1
102
RTVSPropertyOp55
 70
     1
102
RTVSPropertyOp56
 70
     1
102
RTVSPropertyOp57
 70
     1
102
RTVSPost2010Prop28
280
     0
102
RTVSPost2010PropOp28
 70
     1
102
RTVSPost2010Prop29
280
     1
102
RTVSPost2010PropOp29
 70
     1
102
RTVSPost2010Prop30
280
     1
102
RTVSPost2010PropOp30
 70
     1
102
RTVSPost2010Prop31
280
     0
102
RTVSPost2010PropOp31
 70
     1
102
RTVSPost2010Prop32
280
     0
102
RTVSPost2010PropOp32
 70
     1
102
RTVSPost2010Prop33
280
     0
102
RTVSPost2010PropOp33
 70
     1
102
RTVSPost2010Prop34
280
     0
102
RTVSPost2010PropOp34
 70
     1
102
RTVSPost2010Prop35
280
     0
102
RTVSPost2010PropOp35
 70
     1
102
RTVSPost2010Prop36
280
     0
102
RTVSPost2010PropOp36
 70
     1
102
RTVSPost2010Prop37
 90
       50
102
RTVSPost2010PropOp37
 70
     1
102
RTVSPost2010Prop38
140
0.0
102
RTVSPost2010PropOp38
 70
     1
102
RTVSPost2010Prop39
140
1.0
102
RTVSPost2010PropOp39
 70
     1
102
RTVSPost2010Prop40
 90
        0
102
RTVSPost2010PropOp40
 70
     1
102
RTVSPost2010Prop41ColorIndex
 90
       18
102
RTVSPost2010Prop41ColorRGB
 90
        0
102
RTVSPost2010PropOp41
 70
     1
102
RTVSPost2010Prop42
 90
       50
102
RTVSPost2010PropOp42
 70
     1
102
RTVSPost2010Prop43
 90
        3
102
RTVSPost2010PropOp43
 70
     1
102
RTVSPost2010Prop44ColorIndex
 90
        5
102
RTVSPost2010Prop44ColorRGB
 90
      255
102
RTVSPost2010PropOp44
 70
     1
102
RTVSPost2010Prop45
280
     0
102
RTVSPost2010PropOp45
 70
     1
102
RTVSPost2010Prop46
 90
       50
102
RTVSPost2010PropOp46
 70
     1
102
RTVSPost2010Prop47
 90
       50
102
RTVSPost2010PropOp47
 70
     1
102
RTVSPost2010Prop48
 90
       50
102
RTVSPost2010PropOp48
 70
     1
102
RTVSPost2010Prop49
280
     0
102
RTVSPost2010PropOp49
 70
     1
102
RTVSPost2010Prop50
 90
       50
102
RTVSPost2010PropOp50
 70
     1
102
RTVSPost2010Prop51ColorIndex
 90
      256
102
RTVSPost2010Prop51ColorRGB
 90
-16777216
102
RTVSPost2010PropOp51
 70
     0
102
RTVSPost2010Prop52
140
1.0
102
RTVSPost2010PropOp52
 70
     0
102
RTVSPost2010Prop53
 90
        2
102
RTVSPost2010PropOp53
 70
     1
102
RTVSPost2010Prop54
  1
strokes_ogs.tif
102
RTVSPost2010PropOp54
 70
     1
102
RTVSPost2010Prop55
280
     0
102
RTVSPost2010PropOp55
 70
     1
102
RTVSPost2010Prop56
140
1.0
102
RTVSPost2010PropOp56
 70
     1
102
RTVSPost2010Prop57
140
1.0
102
RTVSPost2010PropOp57
 70
     1
  0
XRECORD
  5
1A2E9
102
{ACAD_REACTORS
330
1A2E8
102
}
330
1A2E8
100
AcDbXrecord
280
     1
102
RTVSPropertyOp0
 70
     1
102
RTVSPropertyOp1
 70
     1
102
RTVSPropertyOp2
 70
     1
102
RTVSPropertyOp3
 70
     1
102
RTVSPropertyOp4
 70
     1
102
RTVSPropertyOp5
 70
     1
102
RTVSPropertyOp6
 70
     1
102
RTVSPropertyOp7
 70
     1
102
RTVSPropertyOp8
 70
     1
102
RTVSPropertyOp9
 70
     1
102
RTVSPropertyOp10
 70
     1
102
RTVSPropertyOp11
 70
     1
102
RTVSPropertyOp12
 70
     1
102
RTVSPropertyOp13
 70
     1
102
RTVSPropertyOp14
 70
     1
102
RTVSPropertyOp15
 70
     1
102
RTVSPropertyOp16
 70
     1
102
RTVSPropertyOp17
 70
     1
102
RTVSPropertyOp18
 70
     1
102
RTVSPropertyOp19
 70
     1
102
RTVSPropertyOp20
 70
     1
102
RTVSPropertyOp21
 70
     1
102
RTVSPropertyOp22
 70
     1
102
RTVSPropertyOp23
 70
     1
102
RTVSPropertyOp24
 70
     1
102
RTVSPropertyOp25
 70
     1
102
RTVSPropertyOp26
 70
     1
102
RTVSPropertyOp27
 70
     1
102
RTVSPropertyOp28
 70
     1
102
RTVSPropertyOp29
 70
     1
102
RTVSPropertyOp30
 70
     1
102
RTVSPropertyOp31
 70
     1
102
RTVSPropertyOp32
 70
     1
102
RTVSPropertyOp33
 70
     1
102
RTVSPropertyOp34
 70
     1
102
RTVSPropertyOp35
 70
     1
102
RTVSPropertyOp36
 70
     1
102
RTVSPropertyOp37
 70
     1
102
RTVSPropertyOp38
 70
     1
102
RTVSPropertyOp39
 70
     1
102
RTVSPropertyOp40
 70
     1
102
RTVSPropertyOp41
 70
     1
102
RTVSPropertyOp42
 70
     1
102
RTVSPropertyOp43
 70
     1
102
RTVSPropertyOp44
 70
     1
102
RTVSPropertyOp45
 70
     1
102
RTVSPropertyOp46
 70
     1
102
RTVSPropertyOp47
 70
     1
102
RTVSPropertyOp48
 70
     1
102
RTVSPropertyOp49
 70
     1
102
RTVSPropertyOp50
 70
     1
102
RTVSPropertyOp51
 70
     0
102
RTVSPropertyOp52
 70
     0
102
RTVSPropertyOp53
 70
     1
102
RTVSPropertyOp54
 70
     1
102
RTVSPropertyOp55
 70
     1
102
RTVSPropertyOp56
 70
     1
102
RTVSPropertyOp57
 70
     1
102
RTVSPost2010Prop28
280
     0
102
RTVSPost2010PropOp28
 70
     1
102
RTVSPost2010Prop29
280
     1
102
RTVSPost2010PropOp29
 70
     1
102
RTVSPost2010Prop30
280
     1
102
RTVSPost2010PropOp30
 70
     1
102
RTVSPost2010Prop31
280
     0
102
RTVSPost2010PropOp31
 70
     1
102
RTVSPost2010Prop32
280
     0
102
RTVSPost2010PropOp32
 70
     1
102
RTVSPost2010Prop33
280
     0
102
RTVSPost2010PropOp33
 70
     1
102
RTVSPost2010Prop34
280
     0
102
RTVSPost2010PropOp34
 70
     1
102
RTVSPost2010Prop35
280
     0
102
RTVSPost2010PropOp35
 70
     1
102
RTVSPost2010Prop36
280
     0
102
RTVSPost2010PropOp36
 70
     1
102
RTVSPost2010Prop37
 90
       50
102
RTVSPost2010PropOp37
 70
     1
102
RTVSPost2010Prop38
140
0.0
102
RTVSPost2010PropOp38
 70
     1
102
RTVSPost2010Prop39
140
1.0
102
RTVSPost2010PropOp39
 70
     1
102
RTVSPost2010Prop40
 90
        0
102
RTVSPost2010PropOp40
 70
     1
102
RTVSPost2010Prop41ColorIndex
 90
       18
102
RTVSPost2010Prop41ColorRGB
 90
        0
102
RTVSPost2010PropOp41
 70
     1
102
RTVSPost2010Prop42
 90
       50
102
RTVSPost2010PropOp42
 70
     1
102
RTVSPost2010Prop43
 90
        3
102
RTVSPost2010PropOp43
 70
     1
102
RTVSPost2010Prop44ColorIndex
 90
        5
102
RTVSPost2010Prop44ColorRGB
 90
      255
102
RTVSPost2010PropOp44
 70
     1
102
RTVSPost2010Prop45
280
     0
102
RTVSPost2010PropOp45
 70
     1
102
RTVSPost2010Prop46
 90
       50
102
RTVSPost2010PropOp46
 70
     1
102
RTVSPost2010Prop47
 90
       50
102
RTVSPost2010PropOp47
 70
     1
102
RTVSPost2010Prop48
 90
       50
102
RTVSPost2010PropOp48
 70
     1
102
RTVSPost2010Prop49
280
     0
102
RTVSPost2010PropOp49
 70
     1
102
RTVSPost2010Prop50
 90
       50
102
RTVSPost2010PropOp50
 70
     1
102
RTVSPost2010Prop51ColorIndex
 90
      256
102
RTVSPost2010Prop51ColorRGB
 90
-16777216
102
RTVSPost2010PropOp51
 70
     0
102
RTVSPost2010Prop52
140
1.0
102
RTVSPost2010PropOp52
 70
     0
102
RTVSPost2010Prop53
 90
        2
102
RTVSPost2010PropOp53
 70
     1
102
RTVSPost2010Prop54
  1
strokes_ogs.tif
102
RTVSPost2010PropOp54
 70
     1
102
RTVSPost2010Prop55
280
     0
102
RTVSPost2010PropOp55
 70
     1
102
RTVSPost2010Prop56
140
1.0
102
RTVSPost2010PropOp56
 70
     1
102
RTVSPost2010Prop57
140
1.0
102
RTVSPost2010PropOp57
 70
     1
  0
ENDSEC
  0
EOF
