  0
SECTION
  2
HEADER
  9
$ACADVER
  1
AC1009
  9
$DWGCODEPAGE
  3
dos932
  9
$INSBASE
 10
0.0
 20
0.0
 30
0.0
  9
$EXTMIN
 10
-42.37801821812627
 20
217.3695917649602
 30
0.0
  9
$EXTMAX
 10
76.07234252170338
 20
356.1863951629516
 30
0.0
  9
$LIMMIN
 10
0.0
 20
0.0
  9
$LIMMAX
 10
12.0
 20
9.0
  9
$ORTHOMODE
 70
     0
  9
$REGENMODE
 70
     1
  9
$FILLMODE
 70
     1
  9
$QTEXTMODE
 70
     0
  9
$MIRRTEXT
 70
     1
  9
$DRAGMODE
 70
     2
  9
$LTSCALE
 40
0.9999999999999999
  9
$OSMODE
 70
    37
  9
$ATTMODE
 70
     1
  9
$TEXTSIZE
 40
0.2
  9
$TRACEWID
 40
1.0
  9
$TEXTSTYLE
  7
STANDARD
  9
$CLAYER
  8
__
  9
$CELTYPE
  6
BYLAYER
  9
$CECOLOR
 62
   256
  9
$DIMSCALE
 40
1.0
  9
$DIMASZ
 40
0.18
  9
$DIMEXO
 40
0.0625
  9
$DIMDLI
 40
0.38
  9
$DIMRND
 40
0.0
  9
$DIMDLE
 40
0.0
  9
$DIMEXE
 40
0.18
  9
$DIMTP
 40
0.0
  9
$DIMTM
 40
0.0
  9
$DIMTXT
 40
0.18
  9
$DIMCEN
 40
0.09
  9
$DIMTSZ
 40
0.0
  9
$DIMTOL
 70
     0
  9
$DIMLIM
 70
     0
  9
$DIMTIH
 70
     1
  9
$DIMTOH
 70
     1
  9
$DIMSE1
 70
     0
  9
$DIMSE2
 70
     0
  9
$DIMTAD
 70
     0
  9
$DIMZIN
 70
     0
  9
$DIMBLK
  1

  9
$DIMASO
 70
     1
  9
$DIMSHO
 70
     1
  9
$DIMPOST
  1

  9
$DIMAPOST
  1

  9
$DIMALT
 70
     0
  9
$DIMALTD
 70
     2
  9
$DIMALTF
 40
25.4
  9
$DIMLFAC
 40
1.0
  9
$DIMTOFL
 70
     0
  9
$DIMTVP
 40
0.0
  9
$DIMTIX
 70
     0
  9
$DIMSOXD
 70
     0
  9
$DIMSAH
 70
     0
  9
$DIMBLK1
  1

  9
$DIMBLK2
  1

  9
$DIMSTYLE
  2
STANDARD
  9
$DIMCLRD
 70
     0
  9
$DIMCLRE
 70
     0
  9
$DIMCLRT
 70
     0
  9
$DIMTFAC
 40
1.0
  9
$DIMGAP
 40
0.09
  9
$LUNITS
 70
     2
  9
$LUPREC
 70
     2
  9
$SKETCHINC
 40
0.1
  9
$FILLETRAD
 40
0.5
  9
$AUNITS
 70
     0
  9
$AUPREC
 70
     2
  9
$MENU
  1
.
  9
$ELEVATION
 40
0.0
  9
$PELEVATION
 40
0.0
  9
$THICKNESS
 40
0.0
  9
$LIMCHECK
 70
     0
  9
$CHAMFERA
 40
0.0
  9
$CHAMFERB
 40
0.0
  9
$SKPOLY
 70
     0
  9
$TDCREATE
 40
2459089.576065197
  9
$TDUPDATE
 40
2459089.576097674
  9
$TDINDWG
 40
0.0000000116
  9
$TDUSRTIMER
 40
0.0000000116
  9
$USRTIMER
 70
     1
  9
$ANGBASE
 50
0.0
  9
$ANGDIR
 70
     0
  9
$PDMODE
 70
     1
  9
$PDSIZE
 40
-2.0
  9
$PLINEWID
 40
0.0
  9
$COORDS
 70
     1
  9
$SPLFRAME
 70
     0
  9
$SPLINETYPE
 70
     6
  9
$SPLINESEGS
 70
     8
  9
$ATTDIA
 70
     0
  9
$ATTREQ
 70
     1
  9
$HANDLING
 70
     1
  9
$HANDSEED
  5
91A
  9
$SURFTAB1
 70
     6
  9
$SURFTAB2
 70
     6
  9
$SURFTYPE
 70
     6
  9
$SURFU
 70
     6
  9
$SURFV
 70
     6
  9
$UCSNAME
  2

  9
$UCSORG
 10
0.0
 20
0.0
 30
0.0
  9
$UCSXDIR
 10
1.0
 20
0.0
 30
0.0
  9
$UCSYDIR
 10
0.0
 20
1.0
 30
0.0
  9
$PUCSNAME
  2

  9
$PUCSORG
 10
0.0
 20
0.0
 30
0.0
  9
$PUCSXDIR
 10
1.0
 20
0.0
 30
0.0
  9
$PUCSYDIR
 10
0.0
 20
1.0
 30
0.0
  9
$USERI1
 70
     0
  9
$USERI2
 70
     0
  9
$USERI3
 70
     0
  9
$USERI4
 70
     0
  9
$USERI5
 70
     0
  9
$USERR1
 40
0.0
  9
$USERR2
 40
0.0
  9
$USERR3
 40
0.0
  9
$USERR4
 40
0.0
  9
$USERR5
 40
0.0
  9
$WORLDVIEW
 70
     1
  9
$SHADEDGE
 70
     3
  9
$SHADEDIF
 70
    70
  9
$TILEMODE
 70
     1
  9
$MAXACTVP
 70
    64
  9
$PLIMCHECK
 70
     0
  9
$PEXTMIN
 10
1.000000000000000E+20
 20
1.000000000000000E+20
 30
1.000000000000000E+20
  9
$PEXTMAX
 10
-1.000000000000000E+20
 20
-1.000000000000000E+20
 30
-1.000000000000000E+20
  9
$PLIMMIN
 10
-20.0
 20
-7.5
  9
$PLIMMAX
 10
277.0
 20
202.5
  9
$UNITMODE
 70
     0
  9
$VISRETAIN
 70
     1
  9
$PLINEGEN
 70
     0
  9
$PSLTSCALE
 70
     1
  0
ENDSEC
  0
SECTION
  2
TABLES
  0
TABLE
  2
VPORT
 70
     1
  0
VPORT
  2
*ACTIVE
 70
     0
 10
0.0
 20
0.0
 11
1.0
 21
1.0
 12
16.84716215178855
 22
286.7779934639559
 13
0.0
 23
0.0
 14
0.5
 24
0.5
 15
0.5
 25
0.5
 16
0.0
 26
0.0
 36
1.0
 17
0.0
 27
0.0
 37
0.0
 40
138.8168033979914
 41
0.8532854657388225
 42
2000.0
 43
0.0
 44
0.0
 50
0.0
 51
0.0
 71
     0
 72
   100
 73
     1
 74
     3
 75
     0
 76
     0
 77
     0
 78
     0
  0
ENDTAB
  0
TABLE
  2
LTYPE
 70
     1
  0
LTYPE
  2
CONTINUOUS
 70
     0
  3
Solid line
 72
    65
 73
     0
 40
0.0
  0
ENDTAB
  0
TABLE
  2
LAYER
 70
     4
  0
LAYER
  2
0
 70
     0
 62
     7
  6
CONTINUOUS
  0
LAYER
  2
__
 70
     0
 62
     7
  6
CONTINUOUS
  0
LAYER
  2
_____1
 70
     0
 62
     7
  6
CONTINUOUS
  0
ENDTAB
  0
TABLE
  2
STYLE
 70
     2
  0
STYLE
  2
STANDARD
 70
     0
 40
0.0
 41
1.0
 50
0.0
 71
     0
 42
0.2
  3
txt
  4
BIGFONT.SHX
  0
STYLE
  2
_______
 70
     0
 40
0.0
 41
1.0
 50
0.0
 71
     0
 42
0.2
  3

  4
ＭＳ ゴシック
  0
ENDTAB
  0
TABLE
  2
VIEW
 70
     0
  0
ENDTAB
  0
TABLE
  2
UCS
 70
     0
  0
ENDTAB
  0
TABLE
  2
APPID
 70
     3
  0
APPID
  2
ACAD
 70
     0
  0
APPID
  2
ACCMTRANSPARENCY
 70
     0
  0
APPID
  2
ACAECLAYERSTANDARD
 70
     0
  0
ENDTAB
  0
TABLE
  2
DIMSTYLE
 70
     1
  0
DIMSTYLE
  2
STANDARD
 70
     0
  3

  4

  5

  6

  7

 40
1.0
 41
0.18
 42
0.0625
 43
0.38
 44
0.18
 45
0.0
 46
0.0
 47
0.0
 48
0.0
140
0.18
141
0.09
142
0.0
143
25.4
144
1.0
145
0.0
146
1.0
147
0.09
 71
     0
 72
     0
 73
     1
 74
     1
 75
     0
 76
     0
 77
     0
 78
     0
170
     0
171
     2
172
     0
173
     0
174
     0
175
     0
176
     0
177
     0
178
     0
  0
ENDTAB
  0
ENDSEC
  0
SECTION
  2
BLOCKS
  0
BLOCK
  8
0
  2
$MODEL_SPACE
 70
     0
 10
0.0
 20
0.0
 30
0.0
  3
$MODEL_SPACE
  1

  0
ENDBLK
  5
21
  8
0
  0
BLOCK
 67
     1
  8
0
  2
$PAPER_SPACE
 70
     0
 10
0.0
 20
0.0
 30
0.0
  3
$PAPER_SPACE
  1

  0
ENDBLK
  5
1D
 67
     1
  8
0
  0
ENDSEC
  0
SECTION
  2
ENTITIES
  0
TEXT
  5
76
  8
0
 62
     2
 10
-14.45881067757088
 20
346.7448942385719
 30
0.0
 40
3.249414062499999
  1
(misola,一般調光 切替タイプ)
  7
_______
 72
     1
 11
15.12195007646187
 21
348.3696012698219
 31
0.0
 73
     2
  0
TEXT
  5
77
  8
0
 62
     2
 10
52.62196242950631
 20
336.8696023717853
 30
0.0
 40
3.0
  1
天井取付
  7
_______
 11
52.62196242950631
 21
338.3696023717853
 31
0.0
 73
     2
  0
TEXT
  5
78
  8
0
 62
     2
 10
52.62196242950631
 20
331.8696023717853
 30
0.0
 40
3.0
  1
埋込穴：Φ75
  7
_______
 11
52.62196242950631
 21
333.3696023717853
 31
0.0
 73
     2
  0
TEXT
  5
79
  8
0
 62
     2
 10
-41.37801821812627
 20
228.3695917649602
 30
0.0
 40
3.0
  1
形名
  7
_______
 11
-41.37801821812627
 21
229.8695917649602
 31
0.0
 73
     2
  0
TEXT
  5
7A
  8
0
 62
     2
 10
-41.37801821812627
 20
223.3695917649602
 30
0.0
 40
3.0
  1
電源電圧
  7
_______
 11
-41.37801821812627
 21
224.8695917649602
 31
0.0
 73
     2
  0
TEXT
  5
7B
  8
0
 62
     2
 10
-41.37801821812627
 20
218.3695917649602
 30
0.0
 40
3.0
  1
入力通信電流
  7
_______
 11
-41.37801821812627
 21
219.8695917649602
 31
0.0
 73
     2
  0
TEXT
  5
7C
  8
0
 62
     2
 10
-11.37803181179197
 20
218.3695917649602
 30
0.0
 40
3.0
  1
2.4mA
  7
_______
 11
-11.37803181179197
 21
219.8695917649602
 31
0.0
 73
     2
  0
TEXT
  5
7D
  8
0
 62
     2
 10
-11.37803181179197
 20
228.3695917649602
 30
0.0
 40
3.0
  1
MN3801B
  7
_______
 11
-11.37803181179197
 21
229.8695917649602
 31
0.0
 73
     2
  0
TEXT
  5
7E
  8
0
 62
     2
 10
-11.37803181179197
 20
223.3695917649602
 30
0.0
 40
3.0
  1
AC100V～254V 50/60Hz 4W
  7
_______
 11
-11.37803181179197
 21
224.8695917649602
 31
0.0
 73
     2
  0
POLYLINE
  5
7F
  8
0
 62
     2
 66
     1
 10
0.0
 20
0.0
 30
0.0
 70
   129
  0
VERTEX
  5
80
  8
0
 62
     2
 10
-42.37801821812627
 20
222.3695917649602
 30
0.0
  0
VERTEX
  5
81
  8
0
 62
     2
 10
-12.37803181179197
 20
222.3695917649602
 30
0.0
  0
VERTEX
  5
82
  8
0
 62
     2
 10
-12.37803181179197
 20
217.3695917649602
 30
0.0
  0
VERTEX
  5
83
  8
0
 62
     2
 10
-42.37801821812627
 20
217.3695917649602
 30
0.0
  0
SEQEND
  5
84
  8
0
 62
     2
  0
POLYLINE
  5
85
  8
0
 62
     2
 66
     1
 10
0.0
 20
0.0
 30
0.0
 70
   129
  0
VERTEX
  5
86
  8
0
 62
     2
 10
-42.37801821812627
 20
227.3695917649602
 30
0.0
  0
VERTEX
  5
87
  8
0
 62
     2
 10
-12.37803181179197
 20
227.3695917649602
 30
0.0
  0
VERTEX
  5
88
  8
0
 62
     2
 10
-12.37803181179197
 20
222.3695917649602
 30
0.0
  0
VERTEX
  5
89
  8
0
 62
     2
 10
-42.37801821812627
 20
222.3695917649602
 30
0.0
  0
SEQEND
  5
8A
  8
0
 62
     2
  0
POLYLINE
  5
8B
  8
0
 62
     2
 66
     1
 10
0.0
 20
0.0
 30
0.0
 70
   129
  0
VERTEX
  5
8C
  8
0
 62
     2
 10
-42.37801821812627
 20
232.3695917649602
 30
0.0
  0
VERTEX
  5
8D
  8
0
 62
     2
 10
-12.37803181179197
 20
232.3695917649602
 30
0.0
  0
VERTEX
  5
8E
  8
0
 62
     2
 10
-12.37803181179197
 20
227.3695917649602
 30
0.0
  0
VERTEX
  5
8F
  8
0
 62
     2
 10
-42.37801821812627
 20
227.3695917649602
 30
0.0
  0
SEQEND
  5
90
  8
0
 62
     2
  0
POLYLINE
  5
91
  8
0
 62
     2
 66
     1
 10
0.0
 20
0.0
 30
0.0
 70
   129
  0
VERTEX
  5
92
  8
0
 62
     2
 10
-12.37803181179197
 20
222.3695917649602
 30
0.0
  0
VERTEX
  5
93
  8
0
 62
     2
 10
72.62191837104956
 20
222.3695917649602
 30
0.0
  0
VERTEX
  5
94
  8
0
 62
     2
 10
72.62191837104956
 20
217.3695917649602
 30
0.0
  0
VERTEX
  5
95
  8
0
 62
     2
 10
-12.37803181179197
 20
217.3695917649602
 30
0.0
  0
SEQEND
  5
96
  8
0
 62
     2
  0
POLYLINE
  5
97
  8
0
 62
     2
 66
     1
 10
0.0
 20
0.0
 30
0.0
 70
   129
  0
VERTEX
  5
98
  8
0
 62
     2
 10
-12.37803181179197
 20
227.3695917649602
 30
0.0
  0
VERTEX
  5
99
  8
0
 62
     2
 10
72.62191837104956
 20
227.3695917649602
 30
0.0
  0
VERTEX
  5
9A
  8
0
 62
     2
 10
72.62191837104956
 20
222.3695917649602
 30
0.0
  0
VERTEX
  5
9B
  8
0
 62
     2
 10
-12.37803181179197
 20
222.3695917649602
 30
0.0
  0
SEQEND
  5
9C
  8
0
 62
     2
  0
POLYLINE
  5
9D
  8
0
 62
     2
 66
     1
 10
0.0
 20
0.0
 30
0.0
 70
   129
  0
VERTEX
  5
9E
  8
0
 62
     2
 10
-12.37803181179197
 20
232.3695917649602
 30
0.0
  0
VERTEX
  5
9F
  8
0
 62
     2
 10
72.62191837104956
 20
232.3695917649602
 30
0.0
  0
VERTEX
  5
A0
  8
0
 62
     2
 10
72.62191837104956
 20
227.3695917649602
 30
0.0
  0
VERTEX
  5
A1
  8
0
 62
     2
 10
-12.37803181179197
 20
227.3695917649602
 30
0.0
  0
SEQEND
  5
A2
  8
0
 62
     2
  0
LINE
  5
A3
  8
_____1
 62
     1
 10
1.391993252047087
 20
289.8154230839095
 30
0.0
 11
-0.1878352624930812
 21
290.772865395742
 31
0.0
  0
LINE
  5
A4
  8
_____1
 62
     1
 10
-15.55541746761583
 20
307.1937315439113
 30
0.0
 11
-15.26828217409638
 21
307.6246292842525
 31
0.0
  0
LINE
  5
A5
  8
_____1
 62
     1
 10
-15.36392900524879
 20
307.0980847127612
 30
0.0
 11
-15.12471452733689
 21
307.5287876530379
 31
0.0
  0
LINE
  5
A6
  8
_____1
 62
     1
 10
-14.88530524936277
 20
307.6246292842525
 30
0.0
 11
-14.78946361814815
 21
307.768196931012
 31
0.0
  0
LINE
  5
A7
  8
_____1
 62
     1
 10
1.679128545564254
 20
289.7197762527571
 30
0.0
 11
28.68017053962831
 21
289.7197762527571
 31
0.0
  0
LINE
  5
A8
  8
_____1
 62
     1
 10
1.391993252047087
 20
289.8154230839095
 30
0.0
 11
28.96730583314775
 21
289.8154230839095
 31
0.0
  0
LINE
  5
A9
  8
_____1
 62
     1
 10
-7.608354079307901
 20
303.4596091277326
 30
0.0
 11
-7.368944801333782
 21
302.5500876315073
 31
0.0
  0
LINE
  5
AA
  8
_____1
 62
     1
 10
-7.464786432548408
 20
303.5075299433397
 30
0.0
 11
-7.225377154574289
 21
302.6936552782672
 31
0.0
  0
LINE
  5
AB
  8
_____1
 62
     1
 10
27.48331894982221
 20
292.7835916506228
 30
0.0
 11
27.67480741218878
 21
292.7835916506228
 31
0.0
  0
LINE
  5
AC
  8
_____1
 62
     1
 10
25.4246718793338
 20
292.1614002479791
 30
0.0
 11
25.47259269494089
 21
292.2091262635226
 31
0.0
  0
LINE
  5
AD
  8
_____1
 62
     1
 10
-0.1878352624930812
 20
290.772865395742
 30
0.0
 11
30.54713434768792
 21
290.772865395742
 31
0.0
  0
LINE
  5
AE
  8
_____1
 62
     1
 10
-0.5230861716818254
 20
291.2996047672973
 30
0.0
 11
30.88238525687666
 21
291.2996047672973
 31
0.0
  0
LINE
  5
AF
  8
_____1
 62
     1
 10
-0.5710069872889108
 20
292.0176378011574
 30
0.0
 11
30.93030607248375
 21
292.0176378011574
 31
0.0
  0
LINE
  5
B0
  8
_____1
 62
     1
 10
-0.5230861716818254
 20
292.0176378011574
 30
0.0
 11
30.88238525687666
 21
292.0176378011574
 31
0.0
  0
LINE
  5
B1
  8
_____1
 62
     1
 10
-0.3793237248601145
 20
292.1614002479791
 30
0.0
 11
30.73881761011671
 21
292.1614002479791
 31
0.0
  0
LINE
  5
B2
  8
_____1
 62
     1
 10
1.00901632731302
 20
292.1614002479791
 30
0.0
 11
13.93497453721375
 21
292.1614002479791
 31
0.0
  0
LINE
  5
B3
  8
_____1
 62
     1
 10
16.42432454797881
 20
292.1614002479791
 30
0.0
 11
25.4246718793338
 21
292.1614002479791
 31
0.0
  0
LINE
  5
B4
  8
_____1
 62
     1
 10
25.47259269494089
 20
292.1614002479791
 30
0.0
 11
25.95141125088912
 21
292.1614002479791
 31
0.0
  0
LINE
  5
B5
  8
_____1
 62
     1
 10
26.19062572880102
 20
292.1614002479791
 30
0.0
 11
29.35028275787954
 21
292.1614002479791
 31
0.0
  0
LINE
  5
B6
  8
_____1
 62
     1
 10
1.200504789680053
 20
292.3528887103462
 30
0.0
 11
29.15879429551478
 21
292.3528887103462
 31
0.0
  0
LINE
  5
B7
  8
_____1
 62
     1
 10
26.14289971325616
 20
292.6879448194709
 30
0.0
 11
4.216399371938678
 21
292.6879448194709
 31
0.0
  0
LINE
  5
B8
  8
_____1
 62
     1
 10
2.875980135370355
 20
292.7835916506228
 30
0.0
 11
2.732412488613136
 21
292.7835916506228
 31
0.0
  0
LINE
  5
B9
  8
_____1
 62
     1
 10
-15.36392900524879
 20
307.0980847127612
 30
0.0
 11
-15.55541746761583
 21
307.1937315439113
 31
0.0
  0
LINE
  5
BA
  8
_____1
 62
     1
 10
0.0036531998734972
 20
297.331783531939
 30
0.0
 11
2.110026285904951
 21
292.6400240038633
 31
0.0
  0
LINE
  5
BB
  8
_____1
 62
     1
 10
-15.2203613584893
 20
307.3852200062784
 30
0.0
 11
-15.36392900524879
 21
307.4810616374925
 31
0.0
  0
LINE
  5
BC
  8
_____1
 62
     1
 10
-15.12471452733689
 20
307.5287876530379
 30
0.0
 11
-15.26828217409638
 21
307.6246292842525
 31
0.0
  0
LINE
  5
BD
  8
_____1
 62
     1
 10
-14.88530524936277
 20
307.6246292842525
 30
0.0
 11
-7.704195710522526
 21
303.555255958885
 31
0.0
  0
LINE
  5
BE
  8
_____1
 62
     1
 10
-14.78946361814815
 20
307.768196931012
 30
0.0
 11
-7.608354079307901
 21
303.6990184057067
 31
0.0
  0
LINE
  5
BF
  8
_____1
 62
     1
 10
0.147220846633445
 20
297.4274303630909
 30
0.0
 11
2.253593932664899
 21
292.735865635078
 31
0.0
  0
LINE
  5
C0
  8
_____1
 62
     1
 10
-0.5710069872889108
 20
292.0176378011574
 30
0.0
 11
-0.5230861716818254
 21
291.2996047672973
 31
0.0
  0
LINE
  5
C1
  8
_____1
 62
     1
 10
-0.5230861716818254
 20
292.0176378011574
 30
0.0
 11
-0.47516535607474
 21
292.0176378011574
 31
0.0
  0
LINE
  5
C2
  8
_____1
 62
     1
 10
-7.704195710522526
 20
303.555255958885
 30
0.0
 11
-7.608354079307901
 21
303.6990184057067
 31
0.0
  0
LINE
  5
C3
  8
_____1
 62
     1
 10
9.913522027453382
 20
336.0140113304901
 30
0.0
 11
9.961442843060922
 21
336.0140113304901
 31
0.0
  0
LINE
  5
C4
  8
_____1
 62
     1
 10
26.04705808204153
 20
298.1456581970133
 30
0.0
 11
27.43539813421467
 21
298.1933842125563
 31
0.0
  0
LINE
  5
C5
  8
_____1
 62
     1
 10
15.84985916088044
 20
296.3741464200425
 30
0.0
 11
14.50943992431439
 21
296.3741464200425
 31
0.0
  0
LINE
  5
C6
  8
_____1
 62
     1
 10
15.84985916088044
 20
296.7093973292331
 30
0.0
 11
14.50943992431439
 21
296.7093973292331
 31
0.0
  0
LINE
  5
C7
  8
_____1
 62
     1
 10
14.55736073992148
 20
296.9008857915996
 30
0.0
 11
15.8019383452729
 21
296.9008857915996
 31
0.0
  0
LINE
  5
C8
  8
_____1
 62
     1
 10
14.3658722775549
 20
296.9008857915996
 30
0.0
 11
14.41359829309977
 21
296.9008857915996
 31
0.0
  0
LINE
  5
C9
  8
_____1
 62
     1
 10
15.99342680763993
 20
296.9008857915996
 30
0.0
 11
16.04134762324702
 21
296.9008857915996
 31
0.0
  0
LINE
  5
CA
  8
_____1
 62
     1
 10
2.923900950979714
 20
298.1933842125563
 30
0.0
 11
4.312241003153304
 21
298.1456581970133
 31
0.0
  0
LINE
  5
CB
  8
_____1
 62
     1
 10
8.381614328520754
 20
298.480714306138
 30
0.0
 11
13.93497453721375
 21
298.480714306138
 31
0.0
  0
LINE
  5
CC
  8
_____1
 62
     1
 10
16.42432454797881
 20
298.480714306138
 30
0.0
 11
21.97768475667226
 21
298.480714306138
 31
0.0
  0
LINE
  5
CD
  8
_____1
 62
     1
 10
14.50943992431439
 20
298.8157704152645
 30
0.0
 11
15.84985916088044
 21
298.8157704152645
 31
0.0
  0
LINE
  5
CE
  8
_____1
 62
     1
 10
10.72739669252633
 20
299.1987473399981
 30
0.0
 11
19.63190239266669
 21
299.1987473399981
 31
0.0
  0
LINE
  5
CF
  8
_____1
 62
     1
 10
10.72739669252633
 20
299.8690543583111
 30
0.0
 11
19.63190239266669
 21
299.8690543583111
 31
0.0
  0
LINE
  5
D0
  8
_____1
 62
     1
 10
28.2971936148947
 20
292.6400240038633
 30
0.0
 11
28.10570515252994
 21
292.735865635078
 31
0.0
  0
LINE
  5
D1
  8
_____1
 62
     1
 10
2.923900950979714
 20
292.3528887103462
 30
0.0
 11
2.923900950979714
 21
304.1299161460474
 31
0.0
  0
LINE
  5
D2
  8
_____1
 62
     1
 10
3.258957060104422
 20
304.5608138863886
 30
0.0
 11
3.258957060104422
 21
298.1933842125563
 31
0.0
  0
LINE
  5
D3
  8
_____1
 62
     1
 10
3.641933984838033
 20
304.9915168266652
 30
0.0
 11
3.641933984838033
 21
305.0394376422728
 31
0.0
  0
LINE
  5
D4
  8
_____1
 62
     1
 10
4.12075254078627
 20
298.1456581970133
 30
0.0
 11
4.312241003153304
 21
305.1830052890323
 31
0.0
  0
LINE
  5
D5
  8
_____1
 62
     1
 10
3.977184894026777
 20
292.4006147258892
 30
0.0
 11
4.12075254078627
 21
298.1456581970133
 31
0.0
  0
LINE
  5
D6
  8
_____1
 62
     1
 10
5.269683314985286
 20
334.1947735379758
 30
0.0
 11
4.168673356393356
 21
292.6879448194709
 31
0.0
  0
LINE
  5
D7
  8
_____1
 62
     1
 10
13.45615598126551
 20
336.3011466240073
 30
0.0
 11
13.12109987214126
 21
335.583113590149
 31
0.0
  0
LINE
  5
D8
  8
_____1
 62
     1
 10
20.11072094861493
 20
336.4449090708308
 30
0.0
 11
20.35013022658904
 21
336.6841235487409
 31
0.0
  0
LINE
  5
D9
  8
_____1
 62
     1
 10
20.39785624213209
 20
336.6841235487409
 30
0.0
 11
20.15864176422201
 21
336.4449090708308
 31
0.0
  0
LINE
  5
DA
  8
_____1
 62
     1
 10
9.386977455960277
 20
301.4009620572442
 30
0.0
 11
20.97232162923274
 21
301.4009620572442
 31
0.0
  0
LINE
  5
DB
  8
_____1
 62
     1
 10
5.892069517693471
 20
324.9072909131037
 30
0.0
 11
5.892069517693471
 21
335.2480574810247
 31
0.0
  0
LINE
  5
DC
  8
_____1
 62
     1
 10
6.993274276347165
 20
323.3272675984995
 30
0.0
 11
6.993274276347165
 21
323.9975746168143
 31
0.0
  0
LINE
  5
DD
  8
_____1
 62
     1
 10
2.732412488613136
 20
292.7835916506228
 30
0.0
 11
2.923900950979714
 21
294.076284871644
 31
0.0
  0
LINE
  5
DE
  8
_____1
 62
     1
 10
2.875980135370355
 20
292.7835916506228
 30
0.0
 11
2.923900950979714
 21
293.023000928597
 31
0.0
  0
LINE
  5
DF
  8
_____1
 62
     1
 10
-4.113640941102858
 20
301.0179851325101
 30
0.0
 11
-4.209287772253447
 21
300.8744174857529
 31
0.0
  0
LINE
  5
E0
  8
_____1
 62
     1
 10
21.83411710991459
 20
336.0140113304901
 30
0.0
 11
21.88203792552167
 21
336.0140113304901
 31
0.0
  0
LINE
  5
E1
  8
_____1
 62
     1
 10
-3.251845460421009
 20
300.3955989298047
 30
0.0
 11
-3.347687091635635
 21
300.2520312830447
 31
0.0
  0
LINE
  5
E2
  8
_____1
 62
     1
 10
3.785696431659744
 20
305.1830052890323
 30
0.0
 11
4.503729465519882
 21
305.1830052890323
 31
0.0
  0
LINE
  5
E3
  8
_____1
 62
     1
 10
25.8555696196745
 20
305.1830052890323
 30
0.0
 11
26.57360265353282
 21
305.1830052890323
 31
0.0
  0
LINE
  5
E4
  8
_____1
 62
     1
 10
7.998637403786688
 20
335.2480574810247
 30
0.0
 11
7.998637403786688
 21
335.3916251277819
 31
0.0
  0
LINE
  5
E5
  8
_____1
 62
     1
 10
7.998637403786688
 20
327.3487201082617
 30
0.0
 11
7.998637403786688
 21
335.2480574810247
 31
0.0
  0
LINE
  5
E6
  8
_____1
 62
     1
 10
8.525181975280248
 20
323.3272675984995
 30
0.0
 11
8.525181975280248
 21
324.1890630791813
 31
0.0
  0
LINE
  5
E7
  8
_____1
 62
     1
 10
8.573102790887333
 20
323.3272675984995
 30
0.0
 11
8.573102790887333
 21
322.6571553802482
 31
0.0
  0
LINE
  5
E8
  8
_____1
 62
     1
 10
8.812317268797415
 20
327.5402085706264
 30
0.0
 11
8.812317268797415
 21
331.7531495427556
 31
0.0
  0
LINE
  5
E9
  8
_____1
 62
     1
 10
8.860238084406774
 20
299.5817242647299
 30
0.0
 11
8.860238084406774
 21
322.4656669178817
 31
0.0
  0
LINE
  5
EA
  8
_____1
 62
     1
 10
9.051726546771533
 20
322.0347691775428
 30
0.0
 11
9.051726546771533
 21
301.7362129664325
 31
0.0
  0
LINE
  5
EB
  8
_____1
 62
     1
 10
9.099647362378619
 20
336.0140113304901
 30
0.0
 11
9.099647362378619
 21
336.1096581616425
 31
0.0
  0
LINE
  5
EC
  8
_____1
 62
     1
 10
9.339056640352737
 20
329.1200370851666
 30
0.0
 11
9.339056640352737
 21
328.2105155889417
 31
0.0
  0
LINE
  5
ED
  8
_____1
 62
     1
 10
9.386977455960277
 20
336.0140113304901
 30
0.0
 11
9.386977455960277
 21
336.1096581616425
 31
0.0
  0
LINE
  5
EE
  8
_____1
 62
     1
 10
9.386977455960277
 20
301.4009620572442
 30
0.0
 11
9.434703471505145
 21
301.4009620572442
 31
0.0
  0
LINE
  5
EF
  8
_____1
 62
     1
 10
10.20065732097055
 20
328.2105155889417
 30
0.0
 11
10.20065732097055
 21
329.1200370851666
 31
0.0
  0
LINE
  5
F0
  8
_____1
 62
     1
 10
8.237851881699044
 20
323.3272675984995
 30
0.0
 11
8.237851881699044
 21
324.1890630791813
 31
0.0
  0
LINE
  5
F1
  8
_____1
 62
     1
 10
8.333693512913214
 20
327.3487201082617
 30
0.0
 11
8.429340344065622
 21
331.5616610803886
 31
0.0
  0
LINE
  5
F2
  8
_____1
 62
     1
 10
-7.225377154574289
 20
302.6936552782672
 30
0.0
 11
-7.368944801333782
 21
302.5498928314432
 31
0.0
  0
LINE
  5
F3
  8
_____1
 62
     1
 10
30.25999905416847
 20
297.4274303630909
 30
0.0
 11
30.40356670092842
 21
297.331783531939
 31
0.0
  0
LINE
  5
F4
  8
_____1
 62
     1
 10
13.93497453721375
 20
292.1614002479791
 30
0.0
 11
13.93497453721375
 21
292.3528887103462
 31
0.0
  0
LINE
  5
F5
  8
_____1
 62
     1
 10
10.44006659894467
 20
335.2480574810247
 30
0.0
 11
10.44006659894467
 21
335.3916251277819
 31
0.0
  0
LINE
  5
F6
  8
_____1
 62
     1
 10
10.53590823016157
 20
329.1200370851666
 30
0.0
 11
10.53590823016157
 21
328.2105155889417
 31
0.0
  0
LINE
  5
F7
  8
_____1
 62
     1
 10
10.72739669252633
 20
299.1987473399981
 30
0.0
 11
10.72739669252633
 21
299.8690543583111
 31
0.0
  0
LINE
  5
F8
  8
_____1
 62
     1
 10
11.39750891077938
 20
328.2105155889417
 30
0.0
 11
11.39750891077938
 21
329.1200370851666
 31
0.0
  0
LINE
  5
F9
  8
_____1
 62
     1
 10
11.78068063557521
 20
329.1200370851666
 30
0.0
 11
11.78068063557521
 21
328.2105155889417
 31
0.0
  0
LINE
  5
FA
  8
_____1
 62
     1
 10
12.64228131619302
 20
328.2105155889417
 30
0.0
 11
12.64228131619302
 21
329.1200370851666
 31
0.0
  0
LINE
  5
FB
  8
_____1
 62
     1
 10
2.923900950979714
 20
304.1299161460474
 30
0.0
 11
3.737775616052659
 21
305.1350844734252
 31
0.0
  0
LINE
  5
FC
  8
_____1
 62
     1
 10
-1.576175314666671
 20
298.8636912308716
 30
0.0
 11
-1.432607667906723
 21
298.9595328620862
 31
0.0
  0
LINE
  5
FD
  8
_____1
 62
     1
 10
3.785696431659744
 20
305.1830052890323
 30
0.0
 11
3.641933984838033
 21
305.0394376422728
 31
0.0
  0
LINE
  5
FE
  8
_____1
 62
     1
 10
-7.608354079307901
 20
303.4596091277326
 30
0.0
 11
-7.464786432548408
 21
303.5075299433397
 31
0.0
  0
LINE
  5
FF
  8
_____1
 62
     1
 10
37.96765316450274
 20
303.4596091277326
 30
0.0
 11
37.82408551774279
 21
303.5075299433397
 31
0.0
  0
LINE
  5
100
  8
_____1
 62
     1
 10
12.97753222538131
 20
329.1200370851666
 30
0.0
 11
12.97753222538131
 21
328.2105155889417
 31
0.0
  0
LINE
  5
101
  8
_____1
 62
     1
 10
13.12109987214126
 20
335.2480574810247
 30
0.0
 11
13.12109987214126
 21
335.583113590149
 31
0.0
  0
LINE
  5
102
  8
_____1
 62
     1
 10
13.88705372160666
 20
328.2105155889417
 30
0.0
 11
13.88705372160666
 21
329.1200370851666
 31
0.0
  0
LINE
  5
103
  8
_____1
 62
     1
 10
14.22210983073319
 20
329.1200370851666
 30
0.0
 11
14.22210983073319
 21
328.2105155889417
 31
0.0
  0
LINE
  5
104
  8
_____1
 62
     1
 10
14.79657521783156
 20
335.2480574810247
 30
0.0
 11
14.79657521783156
 21
335.583113590149
 31
0.0
  0
LINE
  5
105
  8
_____1
 62
     1
 10
15.08390531141276
 20
328.2105155889417
 30
0.0
 11
15.08390531141276
 21
329.1200370851666
 31
0.0
  0
LINE
  5
106
  8
_____1
 62
     1
 10
15.46688223614683
 20
329.1200370851666
 30
0.0
 11
15.46688223614683
 21
328.2105155889417
 31
0.0
  0
LINE
  5
107
  8
_____1
 62
     1
 10
23.74919653364304
 20
324.1890630791813
 30
0.0
 11
24.46722956750136
 21
324.9070961130396
 31
0.0
  0
LINE
  5
108
  8
_____1
 62
     1
 10
16.32867771682868
 20
328.2105155889417
 30
0.0
 11
16.32867771682868
 21
329.1200370851666
 31
0.0
  0
LINE
  5
109
  8
_____1
 62
     1
 10
16.5680869948028
 20
335.2480574810247
 30
0.0
 11
16.5680869948028
 21
336.5884767175908
 31
0.0
  0
LINE
  5
10A
  8
_____1
 62
     1
 10
16.66373382595293
 20
329.1200370851666
 30
0.0
 11
16.66373382595293
 21
328.2105155889417
 31
0.0
  0
LINE
  5
10B
  8
_____1
 62
     1
 10
17.52552930663524
 20
328.2105155889417
 30
0.0
 11
17.52552930663524
 21
329.1200370851666
 31
0.0
  0
LINE
  5
10C
  8
_____1
 62
     1
 10
17.62117613778537
 20
335.2480574810247
 30
0.0
 11
17.62117613778537
 21
336.5884767175908
 31
0.0
  0
LINE
  5
10D
  8
_____1
 62
     1
 10
17.90850623136885
 20
329.1200370851666
 30
0.0
 11
17.90850623136885
 21
328.2105155889417
 31
0.0
  0
LINE
  5
10E
  8
_____1
 62
     1
 10
16.42432454797881
 20
292.1614002479791
 30
0.0
 11
16.42432454797881
 21
292.3528887103462
 31
0.0
  0
LINE
  5
10F
  8
_____1
 62
     1
 10
5.892069517693471
 20
324.9072909131037
 30
0.0
 11
6.610102551551336
 21
324.1890630791813
 31
0.0
  0
LINE
  5
110
  8
_____1
 62
     1
 10
26.7173651003568
 20
305.0394376422728
 30
0.0
 11
26.57360265353282
 21
305.1830052890323
 31
0.0
  0
LINE
  5
111
  8
_____1
 62
     1
 10
18.77030171204888
 20
328.2105155889417
 30
0.0
 11
18.77030171204888
 21
329.1200370851666
 31
0.0
  0
LINE
  5
112
  8
_____1
 62
     1
 10
19.10535782117495
 20
329.1200370851666
 30
0.0
 11
19.10535782117495
 21
328.2105155889417
 31
0.0
  0
LINE
  5
113
  8
_____1
 62
     1
 10
19.63190239266669
 20
299.1987473399981
 30
0.0
 11
19.63190239266669
 21
299.8690543583111
 31
0.0
  0
LINE
  5
114
  8
_____1
 62
     1
 10
19.91923248624789
 20
335.2480574810247
 30
0.0
 11
19.91923248624789
 21
335.3916251277819
 31
0.0
  0
LINE
  5
115
  8
_____1
 62
     1
 10
20.0148793174003
 20
328.2105155889417
 30
0.0
 11
20.0148793174003
 21
329.1200370851666
 31
0.0
  0
LINE
  5
116
  8
_____1
 62
     1
 10
20.06280013300739
 20
336.3490674396166
 30
0.0
 11
20.06280013300739
 21
335.774602052516
 31
0.0
  0
LINE
  5
117
  8
_____1
 62
     1
 10
20.11072094861493
 20
336.3490674396166
 30
0.0
 11
20.11072094861493
 21
335.8225228681231
 31
0.0
  0
LINE
  5
118
  8
_____1
 62
     1
 10
20.35013022658904
 20
329.1200370851666
 30
0.0
 11
20.35013022658904
 21
328.2105155889417
 31
0.0
  0
LINE
  5
119
  8
_____1
 62
     1
 10
20.58934470449867
 20
336.732044364348
 30
0.0
 11
20.58934470449867
 21
336.0617373460332
 31
0.0
  0
LINE
  5
11A
  8
_____1
 62
     1
 10
20.63726552010803
 20
336.732044364348
 30
0.0
 11
20.63726552010803
 21
336.0617373460332
 31
0.0
  0
LINE
  5
11B
  8
_____1
 62
     1
 10
0.147220846633445
 20
297.4274303630909
 30
0.0
 11
0.0036531998734972
 21
297.331783531939
 31
0.0
  0
LINE
  5
11C
  8
_____1
 62
     1
 10
31.93566919992327
 20
298.8636912308716
 30
0.0
 11
31.83982756870864
 21
298.9595328620862
 31
0.0
  0
LINE
  5
11D
  8
_____1
 62
     1
 10
27.43539813421467
 20
304.1299161460474
 30
0.0
 11
26.62152346914036
 21
305.1350844734252
 31
0.0
  0
LINE
  5
11E
  8
_____1
 62
     1
 10
22.12144720349579
 20
323.3272675984995
 30
0.0
 11
22.12144720349579
 21
324.1890630791813
 31
0.0
  0
LINE
  5
11F
  8
_____1
 62
     1
 10
22.02560557228117
 20
327.3487201082617
 30
0.0
 11
21.92995874112921
 21
331.5616610803886
 31
0.0
  0
LINE
  5
120
  8
_____1
 62
     1
 10
20.97232162923274
 20
301.4009620572442
 30
0.0
 11
21.02024244483982
 21
301.4009620572442
 31
0.0
  0
LINE
  5
121
  8
_____1
 62
     1
 10
20.97232162923274
 20
336.0140113304901
 30
0.0
 11
20.97232162923274
 21
336.1096581616425
 31
0.0
  0
LINE
  5
122
  8
_____1
 62
     1
 10
21.21173090720686
 20
328.2105155889417
 30
0.0
 11
21.21173090720686
 21
329.1200370851666
 31
0.0
  0
LINE
  5
123
  8
_____1
 62
     1
 10
21.25965172281394
 20
336.0140113304901
 30
0.0
 11
21.25965172281394
 21
336.1096581616425
 31
0.0
  0
LINE
  5
124
  8
_____1
 62
     1
 10
21.30757253842103
 20
301.7362129664325
 30
0.0
 11
21.30757253842103
 21
322.0347691775428
 31
0.0
  0
LINE
  5
125
  8
_____1
 62
     1
 10
21.49906100078806
 20
322.4656669178817
 30
0.0
 11
21.49906100078806
 21
299.5817242647299
 31
0.0
  0
LINE
  5
126
  8
_____1
 62
     1
 10
21.59470783194047
 20
327.5402085706264
 30
0.0
 11
21.59470783194047
 21
331.7531495427556
 31
0.0
  0
LINE
  5
127
  8
_____1
 62
     1
 10
21.78619629430705
 20
323.3272675984995
 30
0.0
 11
21.78619629430705
 21
322.6571553802482
 31
0.0
  0
LINE
  5
128
  8
_____1
 62
     1
 10
21.83411710991459
 20
323.3272675984995
 30
0.0
 11
21.83411710991459
 21
324.1890630791813
 31
0.0
  0
LINE
  5
129
  8
_____1
 62
     1
 10
22.36085648146991
 20
335.2480574810247
 30
0.0
 11
22.36085648146991
 21
335.3916251277819
 31
0.0
  0
LINE
  5
12A
  8
_____1
 62
     1
 10
22.36085648146991
 20
327.3487201082617
 30
0.0
 11
22.36085648146991
 21
335.2480574810247
 31
0.0
  0
LINE
  5
12B
  8
_____1
 62
     1
 10
37.58467623976867
 20
302.6936552782672
 30
0.0
 11
37.72824388652862
 21
302.5498928314432
 31
0.0
  0
LINE
  5
12C
  8
_____1
 62
     1
 10
33.61114454561584
 20
300.3955989298047
 30
0.0
 11
33.70698617683047
 21
300.2520312830447
 31
0.0
  0
LINE
  5
12D
  8
_____1
 62
     1
 10
8.525181975280248
 20
336.0140113304901
 30
0.0
 11
8.573102790887333
 21
336.0140113304901
 31
0.0
  0
LINE
  5
12E
  8
_____1
 62
     1
 10
25.47259269494089
 20
292.1614002479791
 30
0.0
 11
25.47259269494089
 21
292.2091262635226
 31
0.0
  0
LINE
  5
12F
  8
_____1
 62
     1
 10
26.19062572880102
 20
292.6879448194709
 30
0.0
 11
25.13753658581663
 21
334.1947735379758
 31
0.0
  0
LINE
  5
130
  8
_____1
 62
     1
 10
26.23854654440856
 20
298.1456581970133
 30
0.0
 11
26.38211419116806
 21
292.4006147258892
 31
0.0
  0
LINE
  5
131
  8
_____1
 62
     1
 10
26.04705808204153
 20
305.1830052890323
 30
0.0
 11
26.23854654440856
 21
298.1456581970133
 31
0.0
  0
LINE
  5
132
  8
_____1
 62
     1
 10
23.3660248088454
 20
323.3272675984995
 30
0.0
 11
23.3660248088454
 21
323.9975746168143
 31
0.0
  0
LINE
  5
133
  8
_____1
 62
     1
 10
24.46722956750136
 20
324.9072909131037
 30
0.0
 11
24.46722956750136
 21
335.2480574810247
 31
0.0
  0
LINE
  5
134
  8
_____1
 62
     1
 10
20.97232162923274
 20
322.369825286667
 30
0.0
 11
9.386977455960277
 21
322.369825286667
 31
0.0
  0
LINE
  5
135
  8
_____1
 62
     1
 10
8.142205050546636
 20
322.4656669178817
 30
0.0
 11
8.860238084406774
 21
322.4656669178817
 31
0.0
  0
LINE
  5
136
  8
_____1
 62
     1
 10
21.49906100078806
 20
322.4656669178817
 30
0.0
 11
22.21709403464638
 21
322.4656669178817
 31
0.0
  0
LINE
  5
137
  8
_____1
 62
     1
 10
5.413250961745234
 20
322.6571553802482
 30
0.0
 11
8.142205050546636
 21
322.6571553802482
 31
0.0
  0
LINE
  5
138
  8
_____1
 62
     1
 10
8.573102790887333
 20
322.6571553802482
 30
0.0
 11
21.78619629430705
 21
322.6571553802482
 31
0.0
  0
LINE
  5
139
  8
_____1
 62
     1
 10
22.21709403464638
 20
322.6571553802482
 30
0.0
 11
24.9460481234496
 21
322.6571553802482
 31
0.0
  0
LINE
  5
13A
  8
_____1
 62
     1
 10
6.993274276347165
 20
323.3272675984995
 30
0.0
 11
23.3660248088454
 21
323.3272675984995
 31
0.0
  0
LINE
  5
13B
  8
_____1
 62
     1
 10
8.525181975280248
 20
323.471030045323
 30
0.0
 11
21.83411710991459
 21
323.471030045323
 31
0.0
  0
LINE
  5
13C
  8
_____1
 62
     1
 10
34.47294002629587
 20
301.0179851325101
 30
0.0
 11
34.56858685744828
 21
300.8744174857529
 31
0.0
  0
LINE
  5
13D
  8
_____1
 62
     1
 10
14.46151910870731
 20
336.3011466240073
 30
0.0
 11
14.79657521783156
 21
335.583113590149
 31
0.0
  0
LINE
  5
13E
  8
_____1
 62
     1
 10
27.48331894982221
 20
292.7835916506228
 30
0.0
 11
27.43539813421467
 21
293.023000928597
 31
0.0
  0
LINE
  5
13F
  8
_____1
 62
     1
 10
27.67480741218878
 20
292.7835916506228
 30
0.0
 11
27.43539813421467
 21
294.076284871644
 31
0.0
  0
LINE
  5
140
  8
_____1
 62
     1
 10
26.7173651003568
 20
304.9915168266652
 30
0.0
 11
26.7173651003568
 21
305.0394376422728
 31
0.0
  0
LINE
  5
141
  8
_____1
 62
     1
 10
27.10034202508859
 20
304.5608138863886
 30
0.0
 11
27.10034202508859
 21
298.1933842125563
 31
0.0
  0
LINE
  5
142
  8
_____1
 62
     1
 10
27.43539813421467
 20
292.3528887103462
 30
0.0
 11
27.43539813421467
 21
304.1299161460474
 31
0.0
  0
LINE
  5
143
  8
_____1
 62
     1
 10
6.993274276347165
 20
323.9975746168143
 30
0.0
 11
8.237851881699044
 21
323.9975746168143
 31
0.0
  0
LINE
  5
144
  8
_____1
 62
     1
 10
22.12144720349579
 20
323.9975746168143
 30
0.0
 11
23.3660248088454
 21
323.9975746168143
 31
0.0
  0
LINE
  5
145
  8
_____1
 62
     1
 10
23.74919653364304
 20
324.1890630791813
 30
0.0
 11
21.83411710991459
 21
324.1890630791813
 31
0.0
  0
LINE
  5
146
  8
_____1
 62
     1
 10
6.610102551551336
 20
324.1890630791813
 30
0.0
 11
8.525181975280248
 21
324.1890630791813
 31
0.0
  0
LINE
  5
147
  8
_____1
 62
     1
 10
30.88238525687666
 20
292.0176378011574
 30
0.0
 11
30.93030607248375
 21
292.0176378011574
 31
0.0
  0
LINE
  5
148
  8
_____1
 62
     1
 10
2.110026285904951
 20
292.6400240038633
 30
0.0
 11
2.253593932664899
 21
292.735865635078
 31
0.0
  0
LINE
  5
149
  8
_____1
 62
     1
 10
22.36085648146991
 20
327.3487201082617
 30
0.0
 11
7.998637403786688
 21
327.3487201082617
 31
0.0
  0
LINE
  5
14A
  8
_____1
 62
     1
 10
8.812317268797415
 20
327.5402085706264
 30
0.0
 11
21.59470783194047
 21
327.5402085706264
 31
0.0
  0
LINE
  5
14B
  8
_____1
 62
     1
 10
9.339056640352737
 20
328.2105155889417
 30
0.0
 11
10.20065732097055
 21
328.2105155889417
 31
0.0
  0
LINE
  5
14C
  8
_____1
 62
     1
 10
10.53590823016157
 20
328.2105155889417
 30
0.0
 11
11.39750891077938
 21
328.2105155889417
 31
0.0
  0
LINE
  5
14D
  8
_____1
 62
     1
 10
11.78068063557521
 20
328.2105155889417
 30
0.0
 11
12.64228131619302
 21
328.2105155889417
 31
0.0
  0
LINE
  5
14E
  8
_____1
 62
     1
 10
12.97753222538131
 20
328.2105155889417
 30
0.0
 11
13.88705372160666
 21
328.2105155889417
 31
0.0
  0
LINE
  5
14F
  8
_____1
 62
     1
 10
14.22210983073319
 20
328.2105155889417
 30
0.0
 11
15.08390531141276
 21
328.2105155889417
 31
0.0
  0
LINE
  5
150
  8
_____1
 62
     1
 10
15.46688223614683
 20
328.2105155889417
 30
0.0
 11
16.32867771682868
 21
328.2105155889417
 31
0.0
  0
LINE
  5
151
  8
_____1
 62
     1
 10
16.66373382595293
 20
328.2105155889417
 30
0.0
 11
17.52552930663524
 21
328.2105155889417
 31
0.0
  0
LINE
  5
152
  8
_____1
 62
     1
 10
17.90850623136885
 20
328.2105155889417
 30
0.0
 11
18.77030171204888
 21
328.2105155889417
 31
0.0
  0
LINE
  5
153
  8
_____1
 62
     1
 10
19.10535782117495
 20
328.2105155889417
 30
0.0
 11
20.0148793174003
 21
328.2105155889417
 31
0.0
  0
LINE
  5
154
  8
_____1
 62
     1
 10
20.35013022658904
 20
328.2105155889417
 30
0.0
 11
21.21173090720686
 21
328.2105155889417
 31
0.0
  0
LINE
  5
155
  8
_____1
 62
     1
 10
38.06349479571691
 20
303.555255958885
 30
0.0
 11
37.96765316450274
 21
303.6990184057067
 31
0.0
  0
LINE
  5
156
  8
_____1
 62
     1
 10
30.93030607248375
 20
292.0176378011574
 30
0.0
 11
30.88238525687666
 21
291.2996047672973
 31
0.0
  0
LINE
  5
157
  8
_____1
 62
     1
 10
21.21173090720686
 20
329.1200370851666
 30
0.0
 11
20.35013022658904
 21
329.1200370851666
 31
0.0
  0
LINE
  5
158
  8
_____1
 62
     1
 10
20.0148793174003
 20
329.1200370851666
 30
0.0
 11
19.10535782117495
 21
329.1200370851666
 31
0.0
  0
LINE
  5
159
  8
_____1
 62
     1
 10
18.77030171204888
 20
329.1200370851666
 30
0.0
 11
17.90850623136885
 21
329.1200370851666
 31
0.0
  0
LINE
  5
15A
  8
_____1
 62
     1
 10
17.52552930663524
 20
329.1200370851666
 30
0.0
 11
16.66373382595293
 21
329.1200370851666
 31
0.0
  0
LINE
  5
15B
  8
_____1
 62
     1
 10
16.32867771682868
 20
329.1200370851666
 30
0.0
 11
15.46688223614683
 21
329.1200370851666
 31
0.0
  0
LINE
  5
15C
  8
_____1
 62
     1
 10
15.08390531141276
 20
329.1200370851666
 30
0.0
 11
14.22210983073319
 21
329.1200370851666
 31
0.0
  0
LINE
  5
15D
  8
_____1
 62
     1
 10
13.88705372160666
 20
329.1200370851666
 30
0.0
 11
12.97753222538131
 21
329.1200370851666
 31
0.0
  0
LINE
  5
15E
  8
_____1
 62
     1
 10
12.64228131619302
 20
329.1200370851666
 30
0.0
 11
11.78068063557521
 21
329.1200370851666
 31
0.0
  0
LINE
  5
15F
  8
_____1
 62
     1
 10
11.39750891077938
 20
329.1200370851666
 30
0.0
 11
10.53590823016157
 21
329.1200370851666
 31
0.0
  0
LINE
  5
160
  8
_____1
 62
     1
 10
10.20065732097055
 20
329.1200370851666
 30
0.0
 11
9.339056640352737
 21
329.1200370851666
 31
0.0
  0
LINE
  5
161
  8
_____1
 62
     1
 10
21.59470783194047
 20
330.3168886749731
 30
0.0
 11
21.11608407605445
 21
330.3168886749731
 31
0.0
  0
LINE
  5
162
  8
_____1
 62
     1
 10
20.445777057741
 20
330.3168886749731
 30
0.0
 11
19.91923248624789
 21
330.3168886749731
 31
0.0
  0
LINE
  5
163
  8
_____1
 62
     1
 10
19.20100465232554
 20
330.3168886749731
 30
0.0
 11
18.67446008083425
 21
330.3168886749731
 31
0.0
  0
LINE
  5
164
  8
_____1
 62
     1
 10
18.00415306251898
 20
330.3168886749731
 30
0.0
 11
17.42968767542061
 21
330.3168886749731
 31
0.0
  0
LINE
  5
165
  8
_____1
 62
     1
 10
16.75957545716938
 20
330.3168886749731
 30
0.0
 11
16.23283608561223
 21
330.3168886749731
 31
0.0
  0
LINE
  5
166
  8
_____1
 62
     1
 10
15.562723867361
 20
330.3168886749731
 30
0.0
 11
14.98806368019859
 21
330.3168886749731
 31
0.0
  0
LINE
  5
167
  8
_____1
 62
     1
 10
14.31795146194736
 20
330.3168886749731
 30
0.0
 11
13.79121209039204
 21
330.3168886749731
 31
0.0
  0
LINE
  5
168
  8
_____1
 62
     1
 10
13.07317905653372
 20
330.3168886749731
 30
0.0
 11
12.54663448504061
 21
330.3168886749731
 31
0.0
  0
LINE
  5
169
  8
_____1
 62
     1
 10
11.87632746672534
 20
330.3168886749731
 30
0.0
 11
11.30186207962697
 21
330.3168886749731
 31
0.0
  0
LINE
  5
16A
  8
_____1
 62
     1
 10
10.6315550613117
 20
330.3168886749731
 30
0.0
 11
10.10501048982042
 21
330.3168886749731
 31
0.0
  0
LINE
  5
16B
  8
_____1
 62
     1
 10
9.434703471505145
 20
330.3168886749731
 30
0.0
 11
8.812317268797415
 21
330.3168886749731
 31
0.0
  0
LINE
  5
16C
  8
_____1
 62
     1
 10
20.445777057741
 20
336.0140113304901
 30
0.0
 11
20.49369787334854
 21
336.0140113304901
 31
0.0
  0
LINE
  5
16D
  8
_____1
 62
     1
 10
20.63726552010803
 20
336.1096581616425
 30
0.0
 11
20.68518633571512
 21
336.0617373460332
 31
0.0
  0
LINE
  5
16E
  8
_____1
 62
     1
 10
20.82875398247279
 20
336.1096581616425
 30
0.0
 11
20.63726552010803
 21
336.3969882552237
 31
0.0
  0
LINE
  5
16F
  8
_____1
 62
     1
 10
30.25999905416847
 20
297.4274303630909
 30
0.0
 11
28.10570515252994
 21
292.735865635078
 31
0.0
  0
LINE
  5
170
  8
_____1
 62
     1
 10
30.40356670092842
 20
297.331783531939
 30
0.0
 11
28.2971936148947
 21
292.6400240038633
 31
0.0
  0
LINE
  5
171
  8
_____1
 62
     1
 10
45.14876270334298
 20
307.768196931012
 30
0.0
 11
37.96765316450274
 21
303.6990184057067
 31
0.0
  0
LINE
  5
172
  8
_____1
 62
     1
 10
45.24460433455761
 20
307.6246292842525
 30
0.0
 11
38.06349479571691
 21
303.555255958885
 31
0.0
  0
LINE
  5
173
  8
_____1
 62
     1
 10
45.48401361253173
 20
307.5287876530379
 30
0.0
 11
45.62758125929122
 21
307.6246292842525
 31
0.0
  0
LINE
  5
174
  8
_____1
 62
     1
 10
45.57966044368413
 20
307.3852200062784
 30
0.0
 11
45.72322809044181
 21
307.4810616374925
 31
0.0
  0
LINE
  5
175
  8
_____1
 62
     1
 10
45.77114890604889
 20
307.0980847127612
 30
0.0
 11
45.91471655280839
 21
307.1937315439113
 31
0.0
  0
LINE
  5
176
  8
_____1
 62
     1
 10
8.812317268797415
 20
331.7531495427556
 30
0.0
 11
21.59470783194047
 21
331.7531495427556
 31
0.0
  0
LINE
  5
177
  8
_____1
 62
     1
 10
21.54698181639515
 20
331.8967171895133
 30
0.0
 11
8.812317268797415
 21
331.8967171895133
 31
0.0
  0
LINE
  5
178
  8
_____1
 62
     1
 10
5.317604130592827
 20
334.1947735379758
 30
0.0
 11
5.557013408566945
 21
334.1947735379758
 31
0.0
  0
LINE
  5
179
  8
_____1
 62
     1
 10
7.998637403786688
 20
334.1947735379758
 30
0.0
 11
22.36085648146991
 21
334.1947735379758
 31
0.0
  0
LINE
  5
17A
  8
_____1
 62
     1
 10
24.80228567662789
 20
334.1947735379758
 30
0.0
 11
25.04169495460201
 21
334.1947735379758
 31
0.0
  0
LINE
  5
17B
  8
_____1
 62
     1
 10
5.892069517693471
 20
334.7213181094689
 30
0.0
 11
7.998637403786688
 21
334.7213181094689
 31
0.0
  0
LINE
  5
17C
  8
_____1
 62
     1
 10
22.36085648146991
 20
334.7213181094689
 30
0.0
 11
24.46722956750136
 21
334.7213181094689
 31
0.0
  0
LINE
  5
17D
  8
_____1
 62
     1
 10
7.998637403786688
 20
334.8650805562906
 30
0.0
 11
22.36085648146991
 21
334.8650805562906
 31
0.0
  0
LINE
  5
17E
  8
_____1
 62
     1
 10
5.892069517693471
 20
335.2480574810247
 30
0.0
 11
24.46722956750136
 21
335.2480574810247
 31
0.0
  0
LINE
  5
17F
  8
_____1
 62
     1
 10
7.998637403786688
 20
335.3916251277819
 30
0.0
 11
10.44006659894467
 21
335.3916251277819
 31
0.0
  0
LINE
  5
180
  8
_____1
 62
     1
 10
19.91923248624789
 20
335.3916251277819
 30
0.0
 11
22.36085648146991
 21
335.3916251277819
 31
0.0
  0
LINE
  5
181
  8
_____1
 62
     1
 10
13.12109987214126
 20
335.583113590149
 30
0.0
 11
14.79657521783156
 21
335.583113590149
 31
0.0
  0
LINE
  5
182
  8
_____1
 62
     1
 10
8.237851881699044
 20
335.8225228681231
 30
0.0
 11
10.24857813657991
 21
335.8225228681231
 31
0.0
  0
LINE
  5
183
  8
_____1
 62
     1
 10
20.11072094861493
 20
335.8225228681231
 30
0.0
 11
22.12144720349579
 21
335.8225228681231
 31
0.0
  0
LINE
  5
184
  8
_____1
 62
     1
 10
13.45615598126551
 20
336.3011466240073
 30
0.0
 11
14.46151910870731
 21
336.3011466240073
 31
0.0
  0
LINE
  5
185
  8
_____1
 62
     1
 10
20.11072094861493
 20
336.3490674396166
 30
0.0
 11
20.06280013300739
 21
336.3490674396166
 31
0.0
  0
LINE
  5
186
  8
_____1
 62
     1
 10
20.15864176422201
 20
336.4449090708308
 30
0.0
 11
20.11072094861493
 21
336.4449090708308
 31
0.0
  0
LINE
  5
187
  8
_____1
 62
     1
 10
16.5680869948028
 20
336.5884767175908
 30
0.0
 11
17.62117613778537
 21
336.5884767175908
 31
0.0
  0
LINE
  5
188
  8
_____1
 62
     1
 10
20.35013022658904
 20
336.6841235487409
 30
0.0
 11
20.39785624213209
 21
336.6841235487409
 31
0.0
  0
LINE
  5
189
  8
_____1
 62
     1
 10
20.39785624213209
 20
336.732044364348
 30
0.0
 11
20.63726552010803
 21
336.732044364348
 31
0.0
  0
LINE
  5
18A
  8
_____1
 62
     1
 10
45.24460433455761
 20
307.6246292842525
 30
0.0
 11
45.14876270334298
 21
307.768196931012
 31
0.0
  0
LINE
  5
18B
  8
_____1
 62
     1
 10
37.82408551774279
 20
303.5075299433397
 30
0.0
 11
37.58467623976867
 21
302.6936552782672
 31
0.0
  0
LINE
  5
18C
  8
_____1
 62
     1
 10
37.96765316450274
 20
303.4596091277326
 30
0.0
 11
37.72824388652862
 21
302.5500876315073
 31
0.0
  0
LINE
  5
18D
  8
_____1
 62
     1
 10
45.77114890604889
 20
307.0980847127612
 30
0.0
 11
45.48401361253173
 21
307.5287876530379
 31
0.0
  0
LINE
  5
18E
  8
_____1
 62
     1
 10
45.91471655280839
 20
307.1937315439113
 30
0.0
 11
45.62758125929122
 21
307.6246292842525
 31
0.0
  0
LINE
  5
18F
  8
_____1
 62
     1
 10
28.96730583314775
 20
289.8154230839095
 30
0.0
 11
30.54713434768792
 21
290.772865395742
 31
0.0
  0
LINE
  5
190
  8
_____1
 62
     1
 10
-10.82580797455603
 20
260.7269678342041
 30
0.0
 11
-10.82580797455603
 21
266.3282488585046
 31
0.0
  0
LINE
  5
191
  8
_____1
 62
     1
 10
-10.63431951218899
 20
260.7269678342041
 30
0.0
 11
-10.63431951218899
 21
266.3282488585046
 31
0.0
  0
LINE
  5
192
  8
_____1
 62
     1
 10
-10.39510503427891
 20
260.3919117250775
 30
0.0
 11
-10.39510503427891
 21
266.7112257832382
 31
0.0
  0
LINE
  5
193
  8
_____1
 62
     1
 10
-10.15569575630479
 20
260.3919117250775
 30
0.0
 11
-10.15569575630479
 21
266.7112257832382
 31
0.0
  0
LINE
  5
194
  8
_____1
 62
     1
 10
-7.761992576690318
 20
260.3919117250775
 30
0.0
 11
-7.761992576690318
 21
266.7112257832382
 31
0.0
  0
LINE
  5
195
  8
_____1
 62
     1
 10
-7.666150945475692
 20
260.3919117250775
 30
0.0
 11
-7.666150945475692
 21
266.7112257832382
 31
0.0
  0
LINE
  5
196
  8
_____1
 62
     1
 10
-7.426741667501574
 20
260.3919117250775
 30
0.0
 11
-7.426741667501574
 21
266.7112257832382
 31
0.0
  0
LINE
  5
197
  8
_____1
 62
     1
 10
-10.4907518654295
 20
260.3919117250775
 30
0.0
 11
-10.63431951218899
 21
260.3919117250775
 31
0.0
  0
LINE
  5
198
  8
_____1
 62
     1
 10
-15.27815822465709
 20
260.3919117250775
 30
0.0
 11
-4.267084638421238
 21
260.3919117250775
 31
0.0
  0
LINE
  5
199
  8
_____1
 62
     1
 10
34.51078999128049
 20
260.3919117250775
 30
0.0
 11
45.52186357751634
 21
260.3919117250775
 31
0.0
  0
LINE
  5
19A
  8
_____1
 62
     1
 10
45.52186357751634
 20
260.3919117250775
 30
0.0
 11
45.66543122427402
 21
260.3919117250775
 31
0.0
  0
LINE
  5
19B
  8
_____1
 62
     1
 10
-3.309642326588801
 20
260.5356741718997
 30
0.0
 11
-3.405483957803426
 21
260.5356741718997
 31
0.0
  0
LINE
  5
19C
  8
_____1
 62
     1
 10
33.55334767944805
 20
260.5356741718997
 30
0.0
 11
33.64918931066268
 21
260.5356741718997
 31
0.0
  0
LINE
  5
19D
  8
_____1
 62
     1
 10
-10.63431951218899
 20
260.7269678342041
 30
0.0
 11
-10.82580797455603
 21
260.7269678342041
 31
0.0
  0
LINE
  5
19E
  8
_____1
 62
     1
 10
45.7133520398811
 20
260.7269678342041
 30
0.0
 11
45.85691968664059
 21
260.7269678342041
 31
0.0
  0
LINE
  5
19F
  8
_____1
 62
     1
 10
-0.4371205910279059
 20
261.2537072057598
 30
0.0
 11
-1.633972180834462
 21
261.2537072057598
 31
0.0
  0
LINE
  5
1A0
  8
_____1
 62
     1
 10
30.72874675949197
 20
261.2537072057598
 30
0.0
 11
31.87787233375548
 21
261.2537072057598
 31
0.0
  0
LINE
  5
1A1
  8
_____1
 62
     1
 10
7.605589628430607
 20
263.2165126450313
 30
0.0
 11
8.61095275587195
 21
263.2165126450313
 31
0.0
  0
LINE
  5
1A2
  8
_____1
 62
     1
 10
-0.4371205910279059
 20
265.801704287011
 30
0.0
 11
-1.633972180834462
 21
265.801704287011
 31
0.0
  0
LINE
  5
1A3
  8
_____1
 62
     1
 10
30.72874675949197
 20
265.801704287011
 30
0.0
 11
31.87787233375548
 21
265.801704287011
 31
0.0
  0
LINE
  5
1A4
  8
_____1
 62
     1
 10
-10.63431951218899
 20
266.3282488585046
 30
0.0
 11
-10.82580797455603
 21
266.3282488585046
 31
0.0
  0
LINE
  5
1A5
  8
_____1
 62
     1
 10
45.7133520398811
 20
266.3282488585046
 30
0.0
 11
45.85691968664059
 21
266.3282488585046
 31
0.0
  0
LINE
  5
1A6
  8
_____1
 62
     1
 10
-3.309642326588801
 20
266.5197373208716
 30
0.0
 11
-3.405483957803426
 21
266.5197373208716
 31
0.0
  0
LINE
  5
1A7
  8
_____1
 62
     1
 10
33.55334767944805
 20
266.5197373208716
 30
0.0
 11
33.64918931066268
 21
266.5197373208716
 31
0.0
  0
LINE
  5
1A8
  8
_____1
 62
     1
 10
-10.4907518654295
 20
266.7112257832382
 30
0.0
 11
-10.63431951218899
 21
266.7112257832382
 31
0.0
  0
LINE
  5
1A9
  8
_____1
 62
     1
 10
-15.27815822465709
 20
266.7112257832382
 30
0.0
 11
-4.267084638421238
 21
266.7112257832382
 31
0.0
  0
LINE
  5
1AA
  8
_____1
 62
     1
 10
34.51078999128049
 20
266.7112257832382
 30
0.0
 11
45.52186357751634
 21
266.7112257832382
 31
0.0
  0
LINE
  5
1AB
  8
_____1
 62
     1
 10
45.52186357751634
 20
266.7112257832382
 30
0.0
 11
45.66543122427402
 21
266.7112257832382
 31
0.0
  0
LINE
  5
1AC
  8
_____1
 62
     1
 10
11.05257675109215
 20
270.0146452591403
 30
0.0
 11
11.81853060055755
 21
270.0146452591403
 31
0.0
  0
LINE
  5
1AD
  8
_____1
 62
     1
 10
14.73877835166377
 20
270.0146452591403
 30
0.0
 11
15.50492700119321
 21
270.0146452591403
 31
0.0
  0
LINE
  5
1AE
  8
_____1
 62
     1
 10
10.66959982635854
 20
270.4453481994174
 30
0.0
 11
10.81316747311803
 21
270.4453481994174
 31
0.0
  0
LINE
  5
1AF
  8
_____1
 62
     1
 10
12.10586069414103
 20
270.4453481994174
 30
0.0
 11
12.20150752529116
 21
270.4453481994174
 31
0.0
  0
LINE
  5
1B0
  8
_____1
 62
     1
 10
14.35580142693198
 20
270.4453481994174
 30
0.0
 11
14.4516430581466
 21
270.4453481994174
 31
0.0
  0
LINE
  5
1B1
  8
_____1
 62
     1
 10
15.79206229471265
 20
270.4453481994174
 30
0.0
 11
15.88790392592728
 21
270.4453481994174
 31
0.0
  0
LINE
  5
1B2
  8
_____1
 62
     1
 10
10.66959982635854
 20
270.6368366617839
 30
0.0
 11
10.81316747311803
 21
270.6368366617839
 31
0.0
  0
LINE
  5
1B3
  8
_____1
 62
     1
 10
12.10586069414103
 20
270.6368366617839
 30
0.0
 11
12.20150752529116
 21
270.6368366617839
 31
0.0
  0
LINE
  5
1B4
  8
_____1
 62
     1
 10
14.35580142693198
 20
270.6368366617839
 30
0.0
 11
14.4516430581466
 21
270.6368366617839
 31
0.0
  0
LINE
  5
1B5
  8
_____1
 62
     1
 10
15.79206229471265
 20
270.6368366617839
 30
0.0
 11
15.88790392592728
 21
270.6368366617839
 31
0.0
  0
LINE
  5
1B6
  8
_____1
 62
     1
 10
37.67044702036083
 20
266.7112257832382
 30
0.0
 11
37.67044702036083
 21
260.3919117250775
 31
0.0
  0
LINE
  5
1B7
  8
_____1
 62
     1
 10
37.90985629833494
 20
266.7112257832382
 30
0.0
 11
37.90985629833494
 21
260.3919117250775
 31
0.0
  0
LINE
  5
1B8
  8
_____1
 62
     1
 10
38.00569792954911
 20
266.7112257832382
 30
0.0
 11
38.00569792954911
 21
260.3919117250775
 31
0.0
  0
LINE
  5
1B9
  8
_____1
 62
     1
 10
45.18680746838982
 20
266.7112257832382
 30
0.0
 11
45.18680746838982
 21
260.3919117250775
 31
0.0
  0
LINE
  5
1BA
  8
_____1
 62
     1
 10
45.42621674636393
 20
266.7112257832382
 30
0.0
 11
45.42621674636393
 21
260.3919117250775
 31
0.0
  0
LINE
  5
1BB
  8
_____1
 62
     1
 10
45.7133520398811
 20
266.3282488585046
 30
0.0
 11
45.7133520398811
 21
260.7269678342041
 31
0.0
  0
LINE
  5
1BC
  8
_____1
 62
     1
 10
45.85691968664059
 20
266.3282488585046
 30
0.0
 11
45.85691968664059
 21
260.7269678342041
 31
0.0
  0
LINE
  5
1BD
  8
_____1
 62
     1
 10
-5.597627824426581
 20
301.8797806131925
 30
0.0
 11
-7.225377154574289
 21
302.6936552782672
 31
0.0
  0
LINE
  5
1BE
  8
_____1
 62
     1
 10
-4.017799309886414
 20
300.92233830136
 30
0.0
 11
-5.597627824426581
 21
301.8797806131925
 31
0.0
  0
LINE
  5
1BF
  8
_____1
 62
     1
 10
-2.533812426563145
 20
299.8690543583111
 30
0.0
 11
-4.017799309886414
 21
300.92233830136
 31
0.0
  0
LINE
  5
1C0
  8
_____1
 62
     1
 10
-1.145472374389556
 20
298.7201235841121
 30
0.0
 11
-2.533812426563145
 21
299.8690543583111
 31
0.0
  0
LINE
  5
1C1
  8
_____1
 62
     1
 10
0.147220846633445
 20
297.4274303630909
 30
0.0
 11
-1.145472374389556
 21
298.7201235841121
 31
0.0
  0
LINE
  5
1C2
  8
_____1
 62
     1
 10
-5.741390271250566
 20
301.7362129664325
 30
0.0
 11
-7.368944801333782
 21
302.5498928314432
 31
0.0
  0
LINE
  5
1C3
  8
_____1
 62
     1
 10
-4.161561756710398
 20
300.8264966701454
 30
0.0
 11
-5.741390271250566
 21
301.7362129664325
 31
0.0
  0
LINE
  5
1C4
  8
_____1
 62
     1
 10
-2.677380073322638
 20
299.7732127270965
 30
0.0
 11
-4.161561756710398
 21
300.8264966701454
 31
0.0
  0
LINE
  5
1C5
  8
_____1
 62
     1
 10
-1.289040021149049
 20
298.6242819528975
 30
0.0
 11
-2.677380073322638
 21
299.7732127270965
 31
0.0
  0
LINE
  5
1C6
  8
_____1
 62
     1
 10
0.0036531998734972
 20
297.331783531939
 30
0.0
 11
-1.289040021149049
 21
298.6242819528975
 31
0.0
  0
LINE
  5
1C7
  8
_____1
 62
     1
 10
21.69054946315509
 20
298.9116120464787
 30
0.0
 11
21.73847027876218
 21
298.9116120464787
 31
0.0
  0
LINE
  5
1C8
  8
_____1
 62
     1
 10
8.66874962203974
 20
298.9116120464787
 30
0.0
 11
8.525181975280248
 21
298.8157704152645
 31
0.0
  0
LINE
  5
1C9
  8
_____1
 62
     1
 10
-0.4272445404671998
 20
291.0122746737161
 30
0.0
 11
-0.1878352624930812
 21
290.772865395742
 31
0.0
  0
LINE
  5
1CA
  8
_____1
 62
     1
 10
-0.5230861716818254
 20
291.2996047672973
 30
0.0
 11
-0.4272445404671998
 21
291.0122746737161
 31
0.0
  0
LINE
  5
1CB
  8
_____1
 62
     1
 10
1.391993252047087
 20
289.8154230839095
 30
0.0
 11
1.679128545564254
 21
289.7197762527571
 31
0.0
  0
LINE
  5
1CC
  8
_____1
 62
     1
 10
8.525181975280248
 20
298.8157704152645
 30
0.0
 11
8.573102790887333
 21
298.8157704152645
 31
0.0
  0
LINE
  5
1CD
  8
_____1
 62
     1
 10
2.780333304220221
 20
292.5443771727132
 30
0.0
 11
2.875980135370355
 21
292.7835916506228
 31
0.0
  0
LINE
  5
1CE
  8
_____1
 62
     1
 10
2.540924026246103
 20
292.4006147258892
 30
0.0
 11
2.780333304220221
 21
292.5443771727132
 31
0.0
  0
LINE
  5
1CF
  8
_____1
 62
     1
 10
2.253593932664899
 20
292.4485355414968
 30
0.0
 11
2.540924026246103
 21
292.4006147258892
 31
0.0
  0
LINE
  5
1D0
  8
_____1
 62
     1
 10
2.110026285904951
 20
292.6400240038633
 30
0.0
 11
2.253593932664899
 21
292.4485355414968
 31
0.0
  0
LINE
  5
1D1
  8
_____1
 62
     1
 10
-15.17244054288221
 20
307.768196931012
 30
0.0
 11
-15.26828217409638
 21
307.6246292842525
 31
0.0
  0
LINE
  5
1D2
  8
_____1
 62
     1
 10
-14.98095208051518
 20
307.8161177466191
 30
0.0
 11
-15.17244054288221
 21
307.768196931012
 31
0.0
  0
LINE
  5
1D3
  8
_____1
 62
     1
 10
-14.78946361814815
 20
307.768196931012
 30
0.0
 11
-14.98095208051518
 21
307.8161177466191
 31
0.0
  0
LINE
  5
1D4
  8
_____1
 62
     1
 10
-7.464786432548408
 20
303.5075299433397
 30
0.0
 11
-7.608354079307901
 21
303.6990184057067
 31
0.0
  0
LINE
  5
1D5
  8
_____1
 62
     1
 10
4.12075254078627
 20
292.4964563571039
 30
0.0
 11
4.168673356393356
 21
292.6879448194709
 31
0.0
  0
LINE
  5
1D6
  8
_____1
 62
     1
 10
3.833422447205066
 20
292.3528887103462
 30
0.0
 11
4.12075254078627
 21
292.4964563571039
 31
0.0
  0
LINE
  5
1D7
  8
_____1
 62
     1
 10
9.099647362378619
 20
301.5445297040037
 30
0.0
 11
9.386977455960277
 21
301.4009620572442
 31
0.0
  0
LINE
  5
1D8
  8
_____1
 62
     1
 10
9.051726546771533
 20
301.7362129664325
 30
0.0
 11
9.099647362378619
 21
301.5445297040037
 31
0.0
  0
LINE
  5
1D9
  8
_____1
 62
     1
 10
2.63657085739851
 20
292.6400240038633
 30
0.0
 11
2.732412488613136
 21
292.7835916506228
 31
0.0
  0
LINE
  5
1DA
  8
_____1
 62
     1
 10
2.493003210639017
 20
292.5921031882563
 30
0.0
 11
2.63657085739851
 21
292.6400240038633
 31
0.0
  0
LINE
  5
1DB
  8
_____1
 62
     1
 10
2.253593932664899
 20
292.735865635078
 30
0.0
 11
2.493003210639017
 21
292.5921031882563
 31
0.0
  0
LINE
  5
1DC
  8
_____1
 62
     1
 10
-0.3793237248601145
 20
292.1614002479791
 30
0.0
 11
-0.5230861716818254
 21
292.0176378011574
 31
0.0
  0
LINE
  5
1DD
  8
_____1
 62
     1
 10
3.881343262812152
 20
305.1830052890323
 30
0.0
 11
3.737775616052659
 21
305.1350844734252
 31
0.0
  0
LINE
  5
1DE
  8
_____1
 62
     1
 10
-15.02887289612227
 20
307.6246292842525
 30
0.0
 11
-15.12471452733689
 21
307.5287876530379
 31
0.0
  0
LINE
  5
1DF
  8
_____1
 62
     1
 10
-14.88530524936277
 20
307.6246292842525
 30
0.0
 11
-15.02887289612227
 21
307.6246292842525
 31
0.0
  0
LINE
  5
1E0
  8
_____1
 62
     1
 10
-7.608354079307901
 20
303.4596091277326
 30
0.0
 11
-7.704195710522526
 21
303.555255958885
 31
0.0
  0
LINE
  5
1E1
  8
_____1
 62
     1
 10
14.41359829309977
 20
296.7571233447761
 30
0.0
 11
14.50943992431439
 21
296.7093973292331
 31
0.0
  0
LINE
  5
1E2
  8
_____1
 62
     1
 10
14.3658722775549
 20
296.9008857915996
 30
0.0
 11
14.41359829309977
 21
296.7571233447761
 31
0.0
  0
LINE
  5
1E3
  8
_____1
 62
     1
 10
14.50943992431439
 20
296.7093973292331
 30
0.0
 11
14.55736073992148
 21
296.7093973292331
 31
0.0
  0
LINE
  5
1E4
  8
_____1
 62
     1
 10
9.386977455960277
 20
336.0140113304901
 30
0.0
 11
9.099647362378619
 21
336.0140113304901
 31
0.0
  0
LINE
  5
1E5
  8
_____1
 62
     1
 10
10.24857813657991
 20
335.8225228681231
 30
0.0
 11
9.913522027453382
 21
336.0140113304901
 31
0.0
  0
LINE
  5
1E6
  8
_____1
 62
     1
 10
8.525181975280248
 20
336.0140113304901
 30
0.0
 11
8.237851881699044
 21
335.8225228681231
 31
0.0
  0
LINE
  5
1E7
  8
_____1
 62
     1
 10
9.913522027453382
 20
336.0140113304901
 30
0.0
 11
9.386977455960277
 21
336.1096581616425
 31
0.0
  0
LINE
  5
1E8
  8
_____1
 62
     1
 10
9.099647362378619
 20
336.1096581616425
 30
0.0
 11
8.525181975280248
 21
336.0140113304901
 31
0.0
  0
LINE
  5
1E9
  8
_____1
 62
     1
 10
5.365524946199912
 20
334.5298296471024
 30
0.0
 11
5.269683314985286
 21
334.1947735379758
 31
0.0
  0
LINE
  5
1EA
  8
_____1
 62
     1
 10
5.604934224174031
 20
334.7692389250765
 30
0.0
 11
5.365524946199912
 21
334.5298296471024
 31
0.0
  0
LINE
  5
1EB
  8
_____1
 62
     1
 10
5.892069517693471
 20
334.8650805562906
 30
0.0
 11
5.604934224174031
 21
334.7692389250765
 31
0.0
  0
LINE
  5
1EC
  8
_____1
 62
     1
 10
5.892069517693471
 20
334.8650805562906
 30
0.0
 11
5.939990333300557
 21
334.8650805562906
 31
0.0
  0
LINE
  5
1ED
  8
_____1
 62
     1
 10
8.04636341933201
 20
335.6310344057561
 30
0.0
 11
7.998637403786688
 21
335.3916251277819
 31
0.0
  0
LINE
  5
1EE
  8
_____1
 62
     1
 10
8.237851881699044
 20
335.8225228681231
 30
0.0
 11
8.04636341933201
 21
335.6310344057561
 31
0.0
  0
LINE
  5
1EF
  8
_____1
 62
     1
 10
10.39234058340162
 20
335.6310344057561
 30
0.0
 11
10.24857813657991
 21
335.8225228681231
 31
0.0
  0
LINE
  5
1F0
  8
_____1
 62
     1
 10
10.44006659894467
 20
335.3916251277819
 30
0.0
 11
10.39234058340162
 21
335.6310344057561
 31
0.0
  0
LINE
  5
1F1
  8
_____1
 62
     1
 10
11.39750891077938
 20
329.7424232878743
 30
0.0
 11
11.49335054199355
 21
329.9818325658484
 31
0.0
  0
LINE
  5
1F2
  8
_____1
 62
     1
 10
11.20602044841235
 20
329.5509348255077
 30
0.0
 11
11.39750891077938
 21
329.7424232878743
 31
0.0
  0
LINE
  5
1F3
  8
_____1
 62
     1
 10
10.96680597050045
 20
329.5030140099002
 30
0.0
 11
11.20602044841235
 21
329.5509348255077
 31
0.0
  0
LINE
  5
1F4
  8
_____1
 62
     1
 10
10.72739669252633
 20
329.5509348255077
 30
0.0
 11
10.96680597050045
 21
329.5030140099002
 31
0.0
  0
LINE
  5
1F5
  8
_____1
 62
     1
 10
10.53590823016157
 20
329.7424232878743
 30
0.0
 11
10.72739669252633
 21
329.5509348255077
 31
0.0
  0
LINE
  5
1F6
  8
_____1
 62
     1
 10
10.48798741455221
 20
329.9818325658484
 30
0.0
 11
10.53590823016157
 21
329.7424232878743
 31
0.0
  0
LINE
  5
1F7
  8
_____1
 62
     1
 10
10.20065732097055
 20
329.7424232878743
 30
0.0
 11
10.24857813657991
 21
329.9818325658484
 31
0.0
  0
LINE
  5
1F8
  8
_____1
 62
     1
 10
10.00916885860397
 20
329.5509348255077
 30
0.0
 11
10.20065732097055
 21
329.7424232878743
 31
0.0
  0
LINE
  5
1F9
  8
_____1
 62
     1
 10
9.769954380693889
 20
329.5030140099002
 30
0.0
 11
10.00916885860397
 21
329.5509348255077
 31
0.0
  0
LINE
  5
1FA
  8
_____1
 62
     1
 10
9.53054510271977
 20
329.5509348255077
 30
0.0
 11
9.769954380693889
 21
329.5030140099002
 31
0.0
  0
LINE
  5
1FB
  8
_____1
 62
     1
 10
9.339056640352737
 20
329.7424232878743
 30
0.0
 11
9.53054510271977
 21
329.5509348255077
 31
0.0
  0
LINE
  5
1FC
  8
_____1
 62
     1
 10
9.291135824745652
 20
329.9818325658484
 30
0.0
 11
9.339056640352737
 21
329.7424232878743
 31
0.0
  0
LINE
  5
1FD
  8
_____1
 62
     1
 10
15.08390531141276
 20
329.7424232878743
 30
0.0
 11
15.1318261270203
 21
329.9818325658484
 31
0.0
  0
LINE
  5
1FE
  8
_____1
 62
     1
 10
14.892416849048
 20
329.5509348255077
 30
0.0
 11
15.08390531141276
 21
329.7424232878743
 31
0.0
  0
LINE
  5
1FF
  8
_____1
 62
     1
 10
14.65300757107389
 20
329.5030140099002
 30
0.0
 11
14.892416849048
 21
329.5509348255077
 31
0.0
  0
LINE
  5
200
  8
_____1
 62
     1
 10
14.41359829309977
 20
329.5509348255077
 30
0.0
 11
14.65300757107389
 21
329.5030140099002
 31
0.0
  0
LINE
  5
201
  8
_____1
 62
     1
 10
14.22210983073319
 20
329.7424232878743
 30
0.0
 11
14.41359829309977
 21
329.5509348255077
 31
0.0
  0
LINE
  5
202
  8
_____1
 62
     1
 10
14.17438381518787
 20
329.9818325658484
 30
0.0
 11
14.22210983073319
 21
329.7424232878743
 31
0.0
  0
LINE
  5
203
  8
_____1
 62
     1
 10
13.69556525923963
 20
329.5509348255077
 30
0.0
 11
13.93497453721375
 21
329.9818325658484
 31
0.0
  0
LINE
  5
204
  8
_____1
 62
     1
 10
13.45615598126551
 20
329.5030140099002
 30
0.0
 11
13.69556525923963
 21
329.5509348255077
 31
0.0
  0
LINE
  5
205
  8
_____1
 62
     1
 10
13.16902068774834
 20
329.5509348255077
 30
0.0
 11
13.45615598126551
 21
329.5030140099002
 31
0.0
  0
LINE
  5
206
  8
_____1
 62
     1
 10
12.92961140977422
 20
329.9818325658484
 30
0.0
 11
13.16902068774834
 21
329.5509348255077
 31
0.0
  0
LINE
  5
207
  8
_____1
 62
     1
 10
12.64228131619302
 20
329.7424232878743
 30
0.0
 11
12.69020213180011
 21
329.9818325658484
 31
0.0
  0
LINE
  5
208
  8
_____1
 62
     1
 10
12.45079285382599
 20
329.5509348255077
 30
0.0
 11
12.64228131619302
 21
329.7424232878743
 31
0.0
  0
LINE
  5
209
  8
_____1
 62
     1
 10
12.21138357585187
 20
329.5030140099002
 30
0.0
 11
12.45079285382599
 21
329.5509348255077
 31
0.0
  0
LINE
  5
20A
  8
_____1
 62
     1
 10
11.97216909794179
 20
329.5509348255077
 30
0.0
 11
12.21138357585187
 21
329.5030140099002
 31
0.0
  0
LINE
  5
20B
  8
_____1
 62
     1
 10
11.78068063557521
 20
329.7424232878743
 30
0.0
 11
11.97216909794179
 21
329.5509348255077
 31
0.0
  0
LINE
  5
20C
  8
_____1
 62
     1
 10
11.73275981996767
 20
329.9818325658484
 30
0.0
 11
11.78068063557521
 21
329.7424232878743
 31
0.0
  0
LINE
  5
20D
  8
_____1
 62
     1
 10
14.22210983073319
 20
330.2212418438226
 30
0.0
 11
14.17438381518787
 21
329.9818325658484
 31
0.0
  0
LINE
  5
20E
  8
_____1
 62
     1
 10
14.41359829309977
 20
330.4127303061896
 30
0.0
 11
14.22210983073319
 21
330.2212418438226
 31
0.0
  0
LINE
  5
20F
  8
_____1
 62
     1
 10
14.65300757107389
 20
330.4606511217967
 30
0.0
 11
14.41359829309977
 21
330.4127303061896
 31
0.0
  0
LINE
  5
210
  8
_____1
 62
     1
 10
14.892416849048
 20
330.4127303061896
 30
0.0
 11
14.65300757107389
 21
330.4606511217967
 31
0.0
  0
LINE
  5
211
  8
_____1
 62
     1
 10
15.08390531141276
 20
330.2212418438226
 30
0.0
 11
14.892416849048
 21
330.4127303061896
 31
0.0
  0
LINE
  5
212
  8
_____1
 62
     1
 10
15.1318261270203
 20
329.9818325658484
 30
0.0
 11
15.08390531141276
 21
330.2212418438226
 31
0.0
  0
LINE
  5
213
  8
_____1
 62
     1
 10
13.16902068774834
 20
330.4127303061896
 30
0.0
 11
12.92961140977422
 21
329.9818325658484
 31
0.0
  0
LINE
  5
214
  8
_____1
 62
     1
 10
13.45615598126551
 20
330.4606511217967
 30
0.0
 11
13.16902068774834
 21
330.4127303061896
 31
0.0
  0
LINE
  5
215
  8
_____1
 62
     1
 10
13.69556525923963
 20
330.4127303061896
 30
0.0
 11
13.45615598126551
 21
330.4606511217967
 31
0.0
  0
LINE
  5
216
  8
_____1
 62
     1
 10
13.93497453721375
 20
329.9818325658484
 30
0.0
 11
13.69556525923963
 21
330.4127303061896
 31
0.0
  0
LINE
  5
217
  8
_____1
 62
     1
 10
11.78068063557521
 20
330.2212418438226
 30
0.0
 11
11.73275981996767
 21
329.9818325658484
 31
0.0
  0
LINE
  5
218
  8
_____1
 62
     1
 10
11.97216909794179
 20
330.4127303061896
 30
0.0
 11
11.78068063557521
 21
330.2212418438226
 31
0.0
  0
LINE
  5
219
  8
_____1
 62
     1
 10
12.21138357585187
 20
330.4606511217967
 30
0.0
 11
11.97216909794179
 21
330.4127303061896
 31
0.0
  0
LINE
  5
21A
  8
_____1
 62
     1
 10
12.45079285382599
 20
330.4127303061896
 30
0.0
 11
12.21138357585187
 21
330.4606511217967
 31
0.0
  0
LINE
  5
21B
  8
_____1
 62
     1
 10
12.64228131619302
 20
330.2212418438226
 30
0.0
 11
12.45079285382599
 21
330.4127303061896
 31
0.0
  0
LINE
  5
21C
  8
_____1
 62
     1
 10
12.69020213180011
 20
329.9818325658484
 30
0.0
 11
12.64228131619302
 21
330.2212418438226
 31
0.0
  0
LINE
  5
21D
  8
_____1
 62
     1
 10
10.53590823016157
 20
330.2212418438226
 30
0.0
 11
10.48798741455221
 21
329.9818325658484
 31
0.0
  0
LINE
  5
21E
  8
_____1
 62
     1
 10
10.72739669252633
 20
330.4127303061896
 30
0.0
 11
10.53590823016157
 21
330.2212418438226
 31
0.0
  0
LINE
  5
21F
  8
_____1
 62
     1
 10
10.96680597050045
 20
330.4606511217967
 30
0.0
 11
10.72739669252633
 21
330.4127303061896
 31
0.0
  0
LINE
  5
220
  8
_____1
 62
     1
 10
11.20602044841235
 20
330.4127303061896
 30
0.0
 11
10.96680597050045
 21
330.4606511217967
 31
0.0
  0
LINE
  5
221
  8
_____1
 62
     1
 10
11.39750891077938
 20
330.2212418438226
 30
0.0
 11
11.20602044841235
 21
330.4127303061896
 31
0.0
  0
LINE
  5
222
  8
_____1
 62
     1
 10
11.49335054199355
 20
329.9818325658484
 30
0.0
 11
11.39750891077938
 21
330.2212418438226
 31
0.0
  0
LINE
  5
223
  8
_____1
 62
     1
 10
9.339056640352737
 20
330.2212418438226
 30
0.0
 11
9.291135824745652
 21
329.9818325658484
 31
0.0
  0
LINE
  5
224
  8
_____1
 62
     1
 10
9.53054510271977
 20
330.4127303061896
 30
0.0
 11
9.339056640352737
 21
330.2212418438226
 31
0.0
  0
LINE
  5
225
  8
_____1
 62
     1
 10
9.769954380693889
 20
330.4606511217967
 30
0.0
 11
9.53054510271977
 21
330.4127303061896
 31
0.0
  0
LINE
  5
226
  8
_____1
 62
     1
 10
10.00916885860397
 20
330.4127303061896
 30
0.0
 11
9.769954380693889
 21
330.4606511217967
 31
0.0
  0
LINE
  5
227
  8
_____1
 62
     1
 10
10.20065732097055
 20
330.2212418438226
 30
0.0
 11
10.00916885860397
 21
330.4127303061896
 31
0.0
  0
LINE
  5
228
  8
_____1
 62
     1
 10
10.24857813657991
 20
329.9818325658484
 30
0.0
 11
10.20065732097055
 21
330.2212418438226
 31
0.0
  0
LINE
  5
229
  8
_____1
 62
     1
 10
8.620828806430382
 20
331.8487963739058
 30
0.0
 11
8.429340344065622
 21
331.5616610803886
 31
0.0
  0
LINE
  5
22A
  8
_____1
 62
     1
 10
8.812317268797415
 20
331.8967171895133
 30
0.0
 11
8.620828806430382
 21
331.8487963739058
 31
0.0
  0
LINE
  5
22B
  8
_____1
 62
     1
 10
9.099647362378619
 20
322.2262576399075
 30
0.0
 11
9.051726546771533
 21
322.0347691775428
 31
0.0
  0
LINE
  5
22C
  8
_____1
 62
     1
 10
9.386977455960277
 20
322.369825286667
 30
0.0
 11
9.099647362378619
 21
322.2262576399075
 31
0.0
  0
LINE
  5
22D
  8
_____1
 62
     1
 10
31.50477145958212
 20
298.7201235841121
 30
0.0
 11
30.25999905416847
 21
297.4274303630909
 31
0.0
  0
LINE
  5
22E
  8
_____1
 62
     1
 10
32.89311151175752
 20
299.8690543583111
 30
0.0
 11
31.50477145958212
 21
298.7201235841121
 31
0.0
  0
LINE
  5
22F
  8
_____1
 62
     1
 10
34.37709839508125
 20
300.92233830136
 30
0.0
 11
32.89311151175752
 21
299.8690543583111
 31
0.0
  0
LINE
  5
230
  8
_____1
 62
     1
 10
35.95692690962142
 20
301.8797806131925
 30
0.0
 11
34.37709839508125
 21
300.92233830136
 31
0.0
  0
LINE
  5
231
  8
_____1
 62
     1
 10
37.58467623976867
 20
302.6936552782672
 30
0.0
 11
35.95692690962142
 21
301.8797806131925
 31
0.0
  0
LINE
  5
232
  8
_____1
 62
     1
 10
31.64833910634206
 20
298.6242819528975
 30
0.0
 11
30.40356670092842
 21
297.331783531939
 31
0.0
  0
LINE
  5
233
  8
_____1
 62
     1
 10
33.0366791585152
 20
299.7732127270965
 30
0.0
 11
31.64833910634206
 21
298.6242819528975
 31
0.0
  0
LINE
  5
234
  8
_____1
 62
     1
 10
34.52086084190296
 20
300.8264966701454
 30
0.0
 11
33.0366791585152
 21
299.7732127270965
 31
0.0
  0
LINE
  5
235
  8
_____1
 62
     1
 10
36.10068935644313
 20
301.7362129664325
 30
0.0
 11
34.52086084190296
 21
300.8264966701454
 31
0.0
  0
LINE
  5
236
  8
_____1
 62
     1
 10
37.72824388652862
 20
302.5500876315073
 30
0.0
 11
36.10068935644313
 21
301.7362129664325
 31
0.0
  0
LINE
  5
237
  8
_____1
 62
     1
 10
8.66874962203974
 20
298.9116120464787
 30
0.0
 11
8.71667043764728
 21
298.9116120464787
 31
0.0
  0
LINE
  5
238
  8
_____1
 62
     1
 10
21.83411710991459
 20
298.8157704152645
 30
0.0
 11
21.69054946315509
 21
298.9116120464787
 31
0.0
  0
LINE
  5
239
  8
_____1
 62
     1
 10
30.78654362565976
 20
291.0122746737161
 30
0.0
 11
30.88238525687666
 21
291.2996047672973
 31
0.0
  0
LINE
  5
23A
  8
_____1
 62
     1
 10
30.54713434768792
 20
290.772865395742
 30
0.0
 11
30.78654362565976
 21
291.0122746737161
 31
0.0
  0
LINE
  5
23B
  8
_____1
 62
     1
 10
28.68017053962831
 20
289.7197762527571
 30
0.0
 11
28.96730583314775
 21
289.8154230839095
 31
0.0
  0
LINE
  5
23C
  8
_____1
 62
     1
 10
21.83411710991459
 20
298.8157704152645
 30
0.0
 11
21.88203792552167
 21
298.8157704152645
 31
0.0
  0
LINE
  5
23D
  8
_____1
 62
     1
 10
28.10570515252994
 20
292.4485355414968
 30
0.0
 11
28.2971936148947
 21
292.6400240038633
 31
0.0
  0
LINE
  5
23E
  8
_____1
 62
     1
 10
27.81837505894873
 20
292.4006147258892
 30
0.0
 11
28.10570515252994
 21
292.4485355414968
 31
0.0
  0
LINE
  5
23F
  8
_____1
 62
     1
 10
27.57896578097461
 20
292.5443771727132
 30
0.0
 11
27.81837505894873
 21
292.4006147258892
 31
0.0
  0
LINE
  5
240
  8
_____1
 62
     1
 10
27.48331894982221
 20
292.7835916506228
 30
0.0
 11
27.57896578097461
 21
292.5443771727132
 31
0.0
  0
LINE
  5
241
  8
_____1
 62
     1
 10
45.34025116571001
 20
307.8161177466191
 30
0.0
 11
45.14876270334298
 21
307.768196931012
 31
0.0
  0
LINE
  5
242
  8
_____1
 62
     1
 10
45.53173962807477
 20
307.768196931012
 30
0.0
 11
45.34025116571001
 21
307.8161177466191
 31
0.0
  0
LINE
  5
243
  8
_____1
 62
     1
 10
45.62758125929122
 20
307.6246292842525
 30
0.0
 11
45.53173962807477
 21
307.768196931012
 31
0.0
  0
LINE
  5
244
  8
_____1
 62
     1
 10
37.96765316450274
 20
303.6990184057067
 30
0.0
 11
37.82408551774279
 21
303.5075299433397
 31
0.0
  0
LINE
  5
245
  8
_____1
 62
     1
 10
26.23854654440856
 20
292.4964563571039
 30
0.0
 11
26.57360265353282
 21
292.3528887103462
 31
0.0
  0
LINE
  5
246
  8
_____1
 62
     1
 10
26.19062572880102
 20
292.6879448194709
 30
0.0
 11
26.23854654440856
 21
292.4964563571039
 31
0.0
  0
LINE
  5
247
  8
_____1
 62
     1
 10
21.25965172281394
 20
301.5445297040037
 30
0.0
 11
21.30757253842103
 21
301.7362129664325
 31
0.0
  0
LINE
  5
248
  8
_____1
 62
     1
 10
20.97232162923274
 20
301.4009620572442
 30
0.0
 11
21.25965172281394
 21
301.5445297040037
 31
0.0
  0
LINE
  5
249
  8
_____1
 62
     1
 10
21.30757253842103
 20
301.7362129664325
 30
0.0
 11
21.35549335402857
 21
301.7362129664325
 31
0.0
  0
LINE
  5
24A
  8
_____1
 62
     1
 10
27.86629587455582
 20
292.5921031882563
 30
0.0
 11
28.10570515252994
 21
292.735865635078
 31
0.0
  0
LINE
  5
24B
  8
_____1
 62
     1
 10
27.72272822779632
 20
292.6400240038633
 30
0.0
 11
27.86629587455582
 21
292.5921031882563
 31
0.0
  0
LINE
  5
24C
  8
_____1
 62
     1
 10
27.67480741218878
 20
292.7835916506228
 30
0.0
 11
27.72272822779632
 21
292.6400240038633
 31
0.0
  0
LINE
  5
24D
  8
_____1
 62
     1
 10
25.4246718793338
 20
292.3049678947391
 30
0.0
 11
25.28110423257613
 21
292.3528887103462
 31
0.0
  0
LINE
  5
24E
  8
_____1
 62
     1
 10
25.47259269494089
 20
292.2091262635226
 30
0.0
 11
25.4246718793338
 21
292.3049678947391
 31
0.0
  0
LINE
  5
24F
  8
_____1
 62
     1
 10
30.88238525687666
 20
292.0176378011574
 30
0.0
 11
30.73881761011671
 21
292.1614002479791
 31
0.0
  0
LINE
  5
250
  8
_____1
 62
     1
 10
26.62152346914036
 20
305.1350844734252
 30
0.0
 11
26.47795582238268
 21
305.1830052890323
 31
0.0
  0
LINE
  5
251
  8
_____1
 62
     1
 10
45.3881719813171
 20
307.6246292842525
 30
0.0
 11
45.24460433455761
 21
307.6246292842525
 31
0.0
  0
LINE
  5
252
  8
_____1
 62
     1
 10
45.48401361253173
 20
307.5287876530379
 30
0.0
 11
45.3881719813171
 21
307.6246292842525
 31
0.0
  0
LINE
  5
253
  8
_____1
 62
     1
 10
38.06349479571691
 20
303.555255958885
 30
0.0
 11
37.96765316450274
 21
303.4596091277326
 31
0.0
  0
LINE
  5
254
  8
_____1
 62
     1
 10
15.94570079209507
 20
296.7571233447761
 30
0.0
 11
15.99342680763993
 21
296.9008857915996
 31
0.0
  0
LINE
  5
255
  8
_____1
 62
     1
 10
15.84985916088044
 20
296.7093973292331
 30
0.0
 11
15.94570079209507
 21
296.7571233447761
 31
0.0
  0
LINE
  5
256
  8
_____1
 62
     1
 10
15.8019383452729
 20
296.7093973292331
 30
0.0
 11
15.84985916088044
 21
296.7093973292331
 31
0.0
  0
LINE
  5
257
  8
_____1
 62
     1
 10
25.32902504818321
 20
292.3528887103462
 30
0.0
 11
25.37675106372626
 21
292.3528887103462
 31
0.0
  0
LINE
  5
258
  8
_____1
 62
     1
 10
21.25965172281394
 20
336.0140113304901
 30
0.0
 11
20.97232162923274
 21
336.0140113304901
 31
0.0
  0
LINE
  5
259
  8
_____1
 62
     1
 10
22.12144720349579
 20
335.8225228681231
 30
0.0
 11
21.83411710991459
 21
336.0140113304901
 31
0.0
  0
LINE
  5
25A
  8
_____1
 62
     1
 10
20.445777057741
 20
336.0140113304901
 30
0.0
 11
20.11072094861493
 21
335.8225228681231
 31
0.0
  0
LINE
  5
25B
  8
_____1
 62
     1
 10
21.83411710991459
 20
336.0140113304901
 30
0.0
 11
21.25965172281394
 21
336.1096581616425
 31
0.0
  0
LINE
  5
25C
  8
_____1
 62
     1
 10
20.97232162923274
 20
336.1096581616425
 30
0.0
 11
20.445777057741
 21
336.0140113304901
 31
0.0
  0
LINE
  5
25D
  8
_____1
 62
     1
 10
24.80228567662789
 20
334.7692389250765
 30
0.0
 11
24.46722956750136
 21
334.8650805562906
 31
0.0
  0
LINE
  5
25E
  8
_____1
 62
     1
 10
25.04169495460201
 20
334.5298296471024
 30
0.0
 11
24.80228567662789
 21
334.7692389250765
 31
0.0
  0
LINE
  5
25F
  8
_____1
 62
     1
 10
25.13753658581663
 20
334.1947735379758
 30
0.0
 11
25.04169495460201
 21
334.5298296471024
 31
0.0
  0
LINE
  5
260
  8
_____1
 62
     1
 10
19.96715330185498
 20
335.6310344057561
 30
0.0
 11
19.91923248624789
 21
335.3916251277819
 31
0.0
  0
LINE
  5
261
  8
_____1
 62
     1
 10
20.11072094861493
 20
335.8225228681231
 30
0.0
 11
19.96715330185498
 21
335.6310344057561
 31
0.0
  0
LINE
  5
262
  8
_____1
 62
     1
 10
22.31293566586282
 20
335.6310344057561
 30
0.0
 11
22.12144720349579
 21
335.8225228681231
 31
0.0
  0
LINE
  5
263
  8
_____1
 62
     1
 10
22.36085648146991
 20
335.3916251277819
 30
0.0
 11
22.31293566586282
 21
335.6310344057561
 31
0.0
  0
LINE
  5
264
  8
_____1
 62
     1
 10
21.21173090720686
 20
329.7424232878743
 30
0.0
 11
21.25965172281394
 21
329.9818325658484
 31
0.0
  0
LINE
  5
265
  8
_____1
 62
     1
 10
21.02024244483982
 20
329.5509348255077
 30
0.0
 11
21.21173090720686
 21
329.7424232878743
 31
0.0
  0
LINE
  5
266
  8
_____1
 62
     1
 10
20.7808331668657
 20
329.5030140099002
 30
0.0
 11
21.02024244483982
 21
329.5509348255077
 31
0.0
  0
LINE
  5
267
  8
_____1
 62
     1
 10
20.54161868895562
 20
329.5509348255077
 30
0.0
 11
20.7808331668657
 21
329.5030140099002
 31
0.0
  0
LINE
  5
268
  8
_____1
 62
     1
 10
20.35013022658904
 20
329.7424232878743
 30
0.0
 11
20.54161868895562
 21
329.5509348255077
 31
0.0
  0
LINE
  5
269
  8
_____1
 62
     1
 10
20.3022094109815
 20
329.9818325658484
 30
0.0
 11
20.35013022658904
 21
329.7424232878743
 31
0.0
  0
LINE
  5
26A
  8
_____1
 62
     1
 10
19.82339085503327
 20
329.5509348255077
 30
0.0
 11
20.06280013300739
 21
329.9818325658484
 31
0.0
  0
LINE
  5
26B
  8
_____1
 62
     1
 10
19.5362555615161
 20
329.5030140099002
 30
0.0
 11
19.82339085503327
 21
329.5509348255077
 31
0.0
  0
LINE
  5
26C
  8
_____1
 62
     1
 10
19.29684628354198
 20
329.5509348255077
 30
0.0
 11
19.5362555615161
 21
329.5030140099002
 31
0.0
  0
LINE
  5
26D
  8
_____1
 62
     1
 10
19.05743700556786
 20
329.9818325658484
 30
0.0
 11
19.29684628354198
 21
329.5509348255077
 31
0.0
  0
LINE
  5
26E
  8
_____1
 62
     1
 10
18.77030171204888
 20
329.7424232878743
 30
0.0
 11
18.81802772759374
 21
329.9818325658484
 31
0.0
  0
LINE
  5
26F
  8
_____1
 62
     1
 10
18.57861844961963
 20
329.5509348255077
 30
0.0
 11
18.77030171204888
 21
329.7424232878743
 31
0.0
  0
LINE
  5
270
  8
_____1
 62
     1
 10
18.33940397170772
 20
329.5030140099002
 30
0.0
 11
18.57861844961963
 21
329.5509348255077
 31
0.0
  0
LINE
  5
271
  8
_____1
 62
     1
 10
18.09999469373361
 20
329.5509348255077
 30
0.0
 11
18.33940397170772
 21
329.5030140099002
 31
0.0
  0
LINE
  5
272
  8
_____1
 62
     1
 10
17.90850623136885
 20
329.7424232878743
 30
0.0
 11
18.09999469373361
 21
329.5509348255077
 31
0.0
  0
LINE
  5
273
  8
_____1
 62
     1
 10
17.86058541575949
 20
329.9818325658484
 30
0.0
 11
17.90850623136885
 21
329.7424232878743
 31
0.0
  0
LINE
  5
274
  8
_____1
 62
     1
 10
17.52552930663524
 20
329.7424232878743
 30
0.0
 11
17.62117613778537
 21
329.9818325658484
 31
0.0
  0
LINE
  5
275
  8
_____1
 62
     1
 10
17.3340408442682
 20
329.5509348255077
 30
0.0
 11
17.52552930663524
 21
329.7424232878743
 31
0.0
  0
LINE
  5
276
  8
_____1
 62
     1
 10
17.09463156629408
 20
329.5030140099002
 30
0.0
 11
17.3340408442682
 21
329.5509348255077
 31
0.0
  0
LINE
  5
277
  8
_____1
 62
     1
 10
16.85522228831996
 20
329.5509348255077
 30
0.0
 11
17.09463156629408
 21
329.5030140099002
 31
0.0
  0
LINE
  5
278
  8
_____1
 62
     1
 10
16.66373382595293
 20
329.7424232878743
 30
0.0
 11
16.85522228831996
 21
329.5509348255077
 31
0.0
  0
LINE
  5
279
  8
_____1
 62
     1
 10
16.61581301034585
 20
329.9818325658484
 30
0.0
 11
16.66373382595293
 21
329.7424232878743
 31
0.0
  0
LINE
  5
27A
  8
_____1
 62
     1
 10
16.32867771682868
 20
329.7424232878743
 30
0.0
 11
16.37659853243576
 21
329.9818325658484
 31
0.0
  0
LINE
  5
27B
  8
_____1
 62
     1
 10
16.13718925446165
 20
329.5509348255077
 30
0.0
 11
16.32867771682868
 21
329.7424232878743
 31
0.0
  0
LINE
  5
27C
  8
_____1
 62
     1
 10
15.89777997648753
 20
329.5030140099002
 30
0.0
 11
16.13718925446165
 21
329.5509348255077
 31
0.0
  0
LINE
  5
27D
  8
_____1
 62
     1
 10
15.65837069851341
 20
329.5509348255077
 30
0.0
 11
15.89777997648753
 21
329.5030140099002
 31
0.0
  0
LINE
  5
27E
  8
_____1
 62
     1
 10
15.46688223614683
 20
329.7424232878743
 30
0.0
 11
15.65837069851341
 21
329.5509348255077
 31
0.0
  0
LINE
  5
27F
  8
_____1
 62
     1
 10
15.37123540499624
 20
329.9818325658484
 30
0.0
 11
15.46688223614683
 21
329.7424232878743
 31
0.0
  0
LINE
  5
280
  8
_____1
 62
     1
 10
19.29684628354198
 20
330.4127303061896
 30
0.0
 11
19.05743700556786
 21
329.9818325658484
 31
0.0
  0
LINE
  5
281
  8
_____1
 62
     1
 10
19.5362555615161
 20
330.4606511217967
 30
0.0
 11
19.29684628354198
 21
330.4127303061896
 31
0.0
  0
LINE
  5
282
  8
_____1
 62
     1
 10
19.82339085503327
 20
330.4127303061896
 30
0.0
 11
19.5362555615161
 21
330.4606511217967
 31
0.0
  0
LINE
  5
283
  8
_____1
 62
     1
 10
20.06280013300739
 20
329.9818325658484
 30
0.0
 11
19.82339085503327
 21
330.4127303061896
 31
0.0
  0
LINE
  5
284
  8
_____1
 62
     1
 10
17.90850623136885
 20
330.2212418438226
 30
0.0
 11
17.86058541575949
 21
329.9818325658484
 31
0.0
  0
LINE
  5
285
  8
_____1
 62
     1
 10
18.09999469373361
 20
330.4127303061896
 30
0.0
 11
17.90850623136885
 21
330.2212418438226
 31
0.0
  0
LINE
  5
286
  8
_____1
 62
     1
 10
18.33940397170772
 20
330.4606511217967
 30
0.0
 11
18.09999469373361
 21
330.4127303061896
 31
0.0
  0
LINE
  5
287
  8
_____1
 62
     1
 10
18.57861844961963
 20
330.4127303061896
 30
0.0
 11
18.33940397170772
 21
330.4606511217967
 31
0.0
  0
LINE
  5
288
  8
_____1
 62
     1
 10
18.77030171204888
 20
330.2212418438226
 30
0.0
 11
18.57861844961963
 21
330.4127303061896
 31
0.0
  0
LINE
  5
289
  8
_____1
 62
     1
 10
18.81802772759374
 20
329.9818325658484
 30
0.0
 11
18.77030171204888
 21
330.2212418438226
 31
0.0
  0
LINE
  5
28A
  8
_____1
 62
     1
 10
16.66373382595293
 20
330.2212418438226
 30
0.0
 11
16.61581301034585
 21
329.9818325658484
 31
0.0
  0
LINE
  5
28B
  8
_____1
 62
     1
 10
16.85522228831996
 20
330.4127303061896
 30
0.0
 11
16.66373382595293
 21
330.2212418438226
 31
0.0
  0
LINE
  5
28C
  8
_____1
 62
     1
 10
17.09463156629408
 20
330.4606511217967
 30
0.0
 11
16.85522228831996
 21
330.4127303061896
 31
0.0
  0
LINE
  5
28D
  8
_____1
 62
     1
 10
17.3340408442682
 20
330.4127303061896
 30
0.0
 11
17.09463156629408
 21
330.4606511217967
 31
0.0
  0
LINE
  5
28E
  8
_____1
 62
     1
 10
17.52552930663524
 20
330.2212418438226
 30
0.0
 11
17.3340408442682
 21
330.4127303061896
 31
0.0
  0
LINE
  5
28F
  8
_____1
 62
     1
 10
17.62117613778537
 20
329.9818325658484
 30
0.0
 11
17.52552930663524
 21
330.2212418438226
 31
0.0
  0
LINE
  5
290
  8
_____1
 62
     1
 10
15.46688223614683
 20
330.2212418438226
 30
0.0
 11
15.37123540499624
 21
329.9818325658484
 31
0.0
  0
LINE
  5
291
  8
_____1
 62
     1
 10
15.65837069851341
 20
330.4127303061896
 30
0.0
 11
15.46688223614683
 21
330.2212418438226
 31
0.0
  0
LINE
  5
292
  8
_____1
 62
     1
 10
15.89777997648753
 20
330.4606511217967
 30
0.0
 11
15.65837069851341
 21
330.4127303061896
 31
0.0
  0
LINE
  5
293
  8
_____1
 62
     1
 10
16.13718925446165
 20
330.4127303061896
 30
0.0
 11
15.89777997648753
 21
330.4606511217967
 31
0.0
  0
LINE
  5
294
  8
_____1
 62
     1
 10
16.32867771682868
 20
330.2212418438226
 30
0.0
 11
16.13718925446165
 21
330.4127303061896
 31
0.0
  0
LINE
  5
295
  8
_____1
 62
     1
 10
16.37659853243576
 20
329.9818325658484
 30
0.0
 11
16.32867771682868
 21
330.2212418438226
 31
0.0
  0
LINE
  5
296
  8
_____1
 62
     1
 10
20.35013022658904
 20
330.2212418438226
 30
0.0
 11
20.3022094109815
 21
329.9818325658484
 31
0.0
  0
LINE
  5
297
  8
_____1
 62
     1
 10
20.54161868895562
 20
330.4127303061896
 30
0.0
 11
20.35013022658904
 21
330.2212418438226
 31
0.0
  0
LINE
  5
298
  8
_____1
 62
     1
 10
20.7808331668657
 20
330.4606511217967
 30
0.0
 11
20.54161868895562
 21
330.4127303061896
 31
0.0
  0
LINE
  5
299
  8
_____1
 62
     1
 10
21.02024244483982
 20
330.4127303061896
 30
0.0
 11
20.7808331668657
 21
330.4606511217967
 31
0.0
  0
LINE
  5
29A
  8
_____1
 62
     1
 10
21.21173090720686
 20
330.2212418438226
 30
0.0
 11
21.02024244483982
 21
330.4127303061896
 31
0.0
  0
LINE
  5
29B
  8
_____1
 62
     1
 10
21.25965172281394
 20
329.9818325658484
 30
0.0
 11
21.21173090720686
 21
330.2212418438226
 31
0.0
  0
LINE
  5
29C
  8
_____1
 62
     1
 10
21.88203792552167
 20
331.7531495427556
 30
0.0
 11
21.54698181639515
 21
331.8967171895133
 31
0.0
  0
LINE
  5
29D
  8
_____1
 62
     1
 10
21.92995874112921
 20
331.5616610803886
 30
0.0
 11
21.88203792552167
 21
331.7531495427556
 31
0.0
  0
LINE
  5
29E
  8
_____1
 62
     1
 10
21.25965172281394
 20
322.2262576399075
 30
0.0
 11
20.97232162923274
 21
322.369825286667
 31
0.0
  0
LINE
  5
29F
  8
_____1
 62
     1
 10
21.30757253842103
 20
322.0347691775428
 30
0.0
 11
21.25965172281394
 21
322.2262576399075
 31
0.0
  0
LINE
  5
2A0
  8
_____1
 62
     1
 10
-1.58624616528914
 20
265.8494303025564
 30
0.0
 11
-3.309642326588801
 21
266.5197373208716
 31
0.0
  0
LINE
  5
2A1
  8
_____1
 62
     1
 10
-1.633972180834462
 20
265.801704287011
 30
0.0
 11
-3.309642326588801
 21
266.5197373208716
 31
0.0
  0
LINE
  5
2A2
  8
_____1
 62
     1
 10
-4.267084638421238
 20
260.3919117250775
 30
0.0
 11
-4.17143780727065
 21
260.3919117250775
 31
0.0
  0
LINE
  5
2A3
  8
_____1
 62
     1
 10
-4.17143780727065
 20
260.3919117250775
 30
0.0
 11
-3.405483957803426
 21
260.5356741718997
 31
0.0
  0
LINE
  5
2A4
  8
_____1
 62
     1
 10
-3.309642326588801
 20
260.5356741718997
 30
0.0
 11
-1.58624616528914
 21
261.2057863901505
 31
0.0
  0
LINE
  5
2A5
  8
_____1
 62
     1
 10
-3.309642326588801
 20
260.5832053873805
 30
0.0
 11
-1.633972180834462
 21
261.2537072057598
 31
0.0
  0
LINE
  5
2A6
  8
_____1
 62
     1
 10
-3.405483957803426
 20
266.5676581364787
 30
0.0
 11
-4.17143780727065
 21
266.7112257832382
 31
0.0
  0
LINE
  5
2A7
  8
_____1
 62
     1
 10
-4.17143780727065
 20
266.7112257832382
 30
0.0
 11
-4.267084638421238
 21
266.7112257832382
 31
0.0
  0
LINE
  5
2A8
  8
_____1
 62
     1
 10
-3.309642326588801
 20
266.5197373208716
 30
0.0
 11
-3.405483957803426
 21
266.5676581364787
 31
0.0
  0
LINE
  5
2A9
  8
_____1
 62
     1
 10
-3.788460882537038
 20
266.6633049676288
 30
0.0
 11
-4.17143780727065
 21
266.7112257832382
 31
0.0
  0
LINE
  5
2AA
  8
_____1
 62
     1
 10
-3.405483957803426
 20
266.5197373208716
 30
0.0
 11
-3.788460882537038
 21
266.6633049676288
 31
0.0
  0
LINE
  5
2AB
  8
_____1
 62
     1
 10
9.568395067704387
 20
263.5994895697654
 30
0.0
 11
9.616315883311472
 21
264.0781133256492
 31
0.0
  0
LINE
  5
2AC
  8
_____1
 62
     1
 10
9.329180589792486
 20
263.1685918294243
 30
0.0
 11
9.568395067704387
 21
263.5994895697654
 31
0.0
  0
LINE
  5
2AD
  8
_____1
 62
     1
 10
8.993929680603742
 20
262.8333409202355
 30
0.0
 11
9.329180589792486
 21
263.1685918294243
 31
0.0
  0
LINE
  5
2AE
  8
_____1
 62
     1
 10
8.61095275587195
 20
262.6418524578689
 30
0.0
 11
8.993929680603742
 21
262.8333409202355
 31
0.0
  0
LINE
  5
2AF
  8
_____1
 62
     1
 10
8.13232899998593
 20
262.5460108266543
 30
0.0
 11
8.61095275587195
 21
262.6418524578689
 31
0.0
  0
LINE
  5
2B0
  8
_____1
 62
     1
 10
7.653510444037693
 20
262.6418524578689
 30
0.0
 11
8.13232899998593
 21
262.5460108266543
 31
0.0
  0
LINE
  5
2B1
  8
_____1
 62
     1
 10
7.222612703698815
 20
262.8333409202355
 30
0.0
 11
7.653510444037693
 21
262.6418524578689
 31
0.0
  0
LINE
  5
2B2
  8
_____1
 62
     1
 10
6.887556594572288
 20
263.1685918294243
 30
0.0
 11
7.222612703698815
 21
262.8333409202355
 31
0.0
  0
LINE
  5
2B3
  8
_____1
 62
     1
 10
6.696068132205255
 20
263.5994895697654
 30
0.0
 11
6.887556594572288
 21
263.1685918294243
 31
0.0
  0
LINE
  5
2B4
  8
_____1
 62
     1
 10
6.600226500991084
 20
264.0781133256492
 30
0.0
 11
6.696068132205255
 21
263.5994895697654
 31
0.0
  0
LINE
  5
2B5
  8
_____1
 62
     1
 10
6.696068132205255
 20
264.5090110659903
 30
0.0
 11
6.600226500991084
 21
264.0781133256492
 31
0.0
  0
LINE
  5
2B6
  8
_____1
 62
     1
 10
6.887556594572288
 20
264.9399088063315
 30
0.0
 11
6.696068132205255
 21
264.5090110659903
 31
0.0
  0
LINE
  5
2B7
  8
_____1
 62
     1
 10
7.222612703698815
 20
265.2749649154557
 30
0.0
 11
6.887556594572288
 21
264.9399088063315
 31
0.0
  0
LINE
  5
2B8
  8
_____1
 62
     1
 10
7.653510444037693
 20
265.5143741934298
 30
0.0
 11
7.222612703698815
 21
265.2749649154557
 31
0.0
  0
LINE
  5
2B9
  8
_____1
 62
     1
 10
8.13232899998593
 20
265.5622950090369
 30
0.0
 11
7.653510444037693
 21
265.5143741934298
 31
0.0
  0
LINE
  5
2BA
  8
_____1
 62
     1
 10
8.61095275587195
 20
265.5143741934298
 30
0.0
 11
8.13232899998593
 21
265.5622950090369
 31
0.0
  0
LINE
  5
2BB
  8
_____1
 62
     1
 10
8.993929680603742
 20
265.2749649154557
 30
0.0
 11
8.61095275587195
 21
265.5143741934298
 31
0.0
  0
LINE
  5
2BC
  8
_____1
 62
     1
 10
9.329180589792486
 20
264.9399088063315
 30
0.0
 11
8.993929680603742
 21
265.2749649154557
 31
0.0
  0
LINE
  5
2BD
  8
_____1
 62
     1
 10
9.568395067704387
 20
264.5090110659903
 30
0.0
 11
9.329180589792486
 21
264.9399088063315
 31
0.0
  0
LINE
  5
2BE
  8
_____1
 62
     1
 10
9.616315883311472
 20
264.0781133256492
 30
0.0
 11
9.568395067704387
 21
264.5090110659903
 31
0.0
  0
LINE
  5
2BF
  8
_____1
 62
     1
 10
9.472748236551979
 20
263.6472155853085
 30
0.0
 11
9.520669052159064
 21
264.0781133256492
 31
0.0
  0
LINE
  5
2C0
  8
_____1
 62
     1
 10
8.946008864996656
 20
262.9291825514501
 30
0.0
 11
9.472748236551979
 21
263.6472155853085
 31
0.0
  0
LINE
  5
2C1
  8
_____1
 62
     1
 10
8.56303194026259
 20
262.7376940890831
 30
0.0
 11
8.946008864996656
 21
262.9291825514501
 31
0.0
  0
LINE
  5
2C2
  8
_____1
 62
     1
 10
8.13232899998593
 20
262.689773273476
 30
0.0
 11
8.56303194026259
 21
262.7376940890831
 31
0.0
  0
LINE
  5
2C3
  8
_____1
 62
     1
 10
7.701431259647052
 20
262.7376940890831
 30
0.0
 11
8.13232899998593
 21
262.689773273476
 31
0.0
  0
LINE
  5
2C4
  8
_____1
 62
     1
 10
7.31845433491344
 20
262.9291825514501
 30
0.0
 11
7.701431259647052
 21
262.7376940890831
 31
0.0
  0
LINE
  5
2C5
  8
_____1
 62
     1
 10
6.983203425724696
 20
263.2642386605767
 30
0.0
 11
7.31845433491344
 21
262.9291825514501
 31
0.0
  0
LINE
  5
2C6
  8
_____1
 62
     1
 10
6.791714963357663
 20
263.6472155853085
 30
0.0
 11
6.983203425724696
 21
263.2642386605767
 31
0.0
  0
LINE
  5
2C7
  8
_____1
 62
     1
 10
6.743988947812795
 20
264.0781133256492
 30
0.0
 11
6.791714963357663
 21
263.6472155853085
 31
0.0
  0
LINE
  5
2C8
  8
_____1
 62
     1
 10
6.791714963357663
 20
264.5090110659903
 30
0.0
 11
6.743988947812795
 21
264.0781133256492
 31
0.0
  0
LINE
  5
2C9
  8
_____1
 62
     1
 10
6.983203425724696
 20
264.8919879907239
 30
0.0
 11
6.791714963357663
 21
264.5090110659903
 31
0.0
  0
LINE
  5
2CA
  8
_____1
 62
     1
 10
7.701431259647052
 20
265.4185325622152
 30
0.0
 11
6.983203425724696
 21
264.8919879907239
 31
0.0
  0
LINE
  5
2CB
  8
_____1
 62
     1
 10
8.13232899998593
 20
265.4664533778227
 30
0.0
 11
7.701431259647052
 21
265.4185325622152
 31
0.0
  0
LINE
  5
2CC
  8
_____1
 62
     1
 10
8.56303194026259
 20
265.4185325622152
 30
0.0
 11
8.13232899998593
 21
265.4664533778227
 31
0.0
  0
LINE
  5
2CD
  8
_____1
 62
     1
 10
8.946008864996656
 20
265.1793180843056
 30
0.0
 11
8.56303194026259
 21
265.4185325622152
 31
0.0
  0
LINE
  5
2CE
  8
_____1
 62
     1
 10
9.23333895857786
 20
264.8919879907239
 30
0.0
 11
8.946008864996656
 21
265.1793180843056
 31
0.0
  0
LINE
  5
2CF
  8
_____1
 62
     1
 10
9.472748236551979
 20
264.5090110659903
 30
0.0
 11
9.23333895857786
 21
264.8919879907239
 31
0.0
  0
LINE
  5
2D0
  8
_____1
 62
     1
 10
9.520669052159064
 20
264.0781133256492
 30
0.0
 11
9.472748236551979
 21
264.5090110659903
 31
0.0
  0
LINE
  5
2D1
  8
_____1
 62
     1
 10
12.72824689684694
 20
270.1102920902908
 30
0.0
 11
12.77597291239181
 21
270.5411898306315
 31
0.0
  0
LINE
  5
2D2
  8
_____1
 62
     1
 10
12.53656363441769
 20
269.7752359811661
 30
0.0
 11
12.72824689684694
 21
270.1102920902908
 31
0.0
  0
LINE
  5
2D3
  8
_____1
 62
     1
 10
12.2494283408987
 20
269.4879058875849
 30
0.0
 11
12.53656363441769
 21
269.7752359811661
 31
0.0
  0
LINE
  5
2D4
  8
_____1
 62
     1
 10
11.86645141616691
 20
269.2964174252179
 30
0.0
 11
12.2494283408987
 21
269.4879058875849
 31
0.0
  0
LINE
  5
2D5
  8
_____1
 62
     1
 10
11.43555367582576
 20
269.2007705940655
 30
0.0
 11
11.86645141616691
 21
269.2964174252179
 31
0.0
  0
LINE
  5
2D6
  8
_____1
 62
     1
 10
11.05257675109215
 20
269.2964174252179
 30
0.0
 11
11.43555367582576
 21
269.2007705940655
 31
0.0
  0
LINE
  5
2D7
  8
_____1
 62
     1
 10
10.66959982635854
 20
269.4879058875849
 30
0.0
 11
11.05257675109215
 21
269.2964174252179
 31
0.0
  0
LINE
  5
2D8
  8
_____1
 62
     1
 10
10.38226973277688
 20
269.7752359811661
 30
0.0
 11
10.66959982635854
 21
269.4879058875849
 31
0.0
  0
LINE
  5
2D9
  8
_____1
 62
     1
 10
10.19078127041212
 20
270.1102920902908
 30
0.0
 11
10.38226973277688
 21
269.7752359811661
 31
0.0
  0
LINE
  5
2DA
  8
_____1
 62
     1
 10
10.14286045480276
 20
270.5411898306315
 30
0.0
 11
10.19078127041212
 21
270.1102920902908
 31
0.0
  0
LINE
  5
2DB
  8
_____1
 62
     1
 10
10.19078127041212
 20
270.9720875709727
 30
0.0
 11
10.14286045480276
 21
270.5411898306315
 31
0.0
  0
LINE
  5
2DC
  8
_____1
 62
     1
 10
10.66959982635854
 20
271.6421997892235
 30
0.0
 11
10.19078127041212
 21
270.9720875709727
 31
0.0
  0
LINE
  5
2DD
  8
_____1
 62
     1
 10
11.43555367582576
 20
271.8816090671976
 30
0.0
 11
10.66959982635854
 21
271.6421997892235
 31
0.0
  0
LINE
  5
2DE
  8
_____1
 62
     1
 10
12.2494283408987
 20
271.6421997892235
 30
0.0
 11
11.43555367582576
 21
271.8816090671976
 31
0.0
  0
LINE
  5
2DF
  8
_____1
 62
     1
 10
12.72824689684694
 20
270.9720875709727
 30
0.0
 11
12.2494283408987
 21
271.6421997892235
 31
0.0
  0
LINE
  5
2E0
  8
_____1
 62
     1
 10
12.77597291239181
 20
270.5411898306315
 30
0.0
 11
12.72824689684694
 21
270.9720875709727
 31
0.0
  0
LINE
  5
2E1
  8
_____1
 62
     1
 10
12.58448445002523
 20
270.0623712746833
 30
0.0
 11
12.6803260812394
 21
270.5411898306315
 31
0.0
  0
LINE
  5
2E2
  8
_____1
 62
     1
 10
12.29734915650579
 20
269.6793943499497
 30
0.0
 11
12.58448445002523
 21
270.0623712746833
 31
0.0
  0
LINE
  5
2E3
  8
_____1
 62
     1
 10
11.914372231774
 20
269.3922590564325
 30
0.0
 11
12.29734915650579
 21
269.6793943499497
 31
0.0
  0
LINE
  5
2E4
  8
_____1
 62
     1
 10
11.43555367582576
 20
269.2964174252179
 30
0.0
 11
11.914372231774
 21
269.3922590564325
 31
0.0
  0
LINE
  5
2E5
  8
_____1
 62
     1
 10
11.00465593548506
 20
269.3922590564325
 30
0.0
 11
11.43555367582576
 21
269.2964174252179
 31
0.0
  0
LINE
  5
2E6
  8
_____1
 62
     1
 10
10.57375819514391
 20
269.6793943499497
 30
0.0
 11
11.00465593548506
 21
269.3922590564325
 31
0.0
  0
LINE
  5
2E7
  8
_____1
 62
     1
 10
10.33454371723383
 20
270.0623712746833
 30
0.0
 11
10.57375819514391
 21
269.6793943499497
 31
0.0
  0
LINE
  5
2E8
  8
_____1
 62
     1
 10
10.23870208601966
 20
270.5411898306315
 30
0.0
 11
10.33454371723383
 21
270.0623712746833
 31
0.0
  0
LINE
  5
2E9
  8
_____1
 62
     1
 10
10.33454371723383
 20
271.0198135865157
 30
0.0
 11
10.23870208601966
 21
270.5411898306315
 31
0.0
  0
LINE
  5
2EA
  8
_____1
 62
     1
 10
10.57375819514391
 20
271.4027905112493
 30
0.0
 11
10.33454371723383
 21
271.0198135865157
 31
0.0
  0
LINE
  5
2EB
  8
_____1
 62
     1
 10
11.00465593548506
 20
271.690120604831
 30
0.0
 11
10.57375819514391
 21
271.4027905112493
 31
0.0
  0
LINE
  5
2EC
  8
_____1
 62
     1
 10
11.43555367582576
 20
271.7859622360452
 30
0.0
 11
11.00465593548506
 21
271.690120604831
 31
0.0
  0
LINE
  5
2ED
  8
_____1
 62
     1
 10
11.914372231774
 20
271.690120604831
 30
0.0
 11
11.43555367582576
 21
271.7859622360452
 31
0.0
  0
LINE
  5
2EE
  8
_____1
 62
     1
 10
12.29734915650579
 20
271.4027905112493
 30
0.0
 11
11.914372231774
 21
271.690120604831
 31
0.0
  0
LINE
  5
2EF
  8
_____1
 62
     1
 10
12.58448445002523
 20
271.0198135865157
 30
0.0
 11
12.29734915650579
 21
271.4027905112493
 31
0.0
  0
LINE
  5
2F0
  8
_____1
 62
     1
 10
12.6803260812394
 20
270.5411898306315
 30
0.0
 11
12.58448445002523
 21
271.0198135865157
 31
0.0
  0
LINE
  5
2F1
  8
_____1
 62
     1
 10
9.089771311820186
 20
263.6472155853085
 30
0.0
 11
9.185418142970775
 21
264.0781133256492
 31
0.0
  0
LINE
  5
2F2
  8
_____1
 62
     1
 10
8.850362033846068
 20
263.3121594761838
 30
0.0
 11
9.089771311820186
 21
263.6472155853085
 31
0.0
  0
LINE
  5
2F3
  8
_____1
 62
     1
 10
8.515305924719542
 20
263.0727501982096
 30
0.0
 11
8.850362033846068
 21
263.3121594761838
 31
0.0
  0
LINE
  5
2F4
  8
_____1
 62
     1
 10
8.13232899998593
 20
263.0248293826025
 30
0.0
 11
8.515305924719542
 21
263.0727501982096
 31
0.0
  0
LINE
  5
2F5
  8
_____1
 62
     1
 10
7.701431259647052
 20
263.0727501982096
 30
0.0
 11
8.13232899998593
 21
263.0248293826025
 31
0.0
  0
LINE
  5
2F6
  8
_____1
 62
     1
 10
7.366180350456489
 20
263.3121594761838
 30
0.0
 11
7.701431259647052
 21
263.0727501982096
 31
0.0
  0
LINE
  5
2F7
  8
_____1
 62
     1
 10
7.126965872546407
 20
263.6472155853085
 30
0.0
 11
7.366180350456489
 21
263.3121594761838
 31
0.0
  0
LINE
  5
2F8
  8
_____1
 62
     1
 10
7.079045056939322
 20
264.0781133256492
 30
0.0
 11
7.126965872546407
 21
263.6472155853085
 31
0.0
  0
LINE
  5
2F9
  8
_____1
 62
     1
 10
7.126965872546407
 20
264.4610902503832
 30
0.0
 11
7.079045056939322
 21
264.0781133256492
 31
0.0
  0
LINE
  5
2FA
  8
_____1
 62
     1
 10
7.366180350456489
 20
264.7963411595715
 30
0.0
 11
7.126965872546407
 21
264.4610902503832
 31
0.0
  0
LINE
  5
2FB
  8
_____1
 62
     1
 10
7.701431259647052
 20
265.0355556374816
 30
0.0
 11
7.366180350456489
 21
264.7963411595715
 31
0.0
  0
LINE
  5
2FC
  8
_____1
 62
     1
 10
8.13232899998593
 20
265.131397268698
 30
0.0
 11
7.701431259647052
 21
265.0355556374816
 31
0.0
  0
LINE
  5
2FD
  8
_____1
 62
     1
 10
8.515305924719542
 20
265.0355556374816
 30
0.0
 11
8.13232899998593
 21
265.131397268698
 31
0.0
  0
LINE
  5
2FE
  8
_____1
 62
     1
 10
8.850362033846068
 20
264.7963411595715
 30
0.0
 11
8.515305924719542
 21
265.0355556374816
 31
0.0
  0
LINE
  5
2FF
  8
_____1
 62
     1
 10
9.089771311820186
 20
264.4610902503832
 30
0.0
 11
8.850362033846068
 21
264.7963411595715
 31
0.0
  0
LINE
  5
300
  8
_____1
 62
     1
 10
9.185418142970775
 20
264.0781133256492
 30
0.0
 11
9.089771311820186
 21
264.4610902503832
 31
0.0
  0
LINE
  5
301
  8
_____1
 62
     1
 10
7.174691888089455
 20
263.6472155853085
 30
0.0
 11
7.366180350456489
 21
263.3121594761838
 31
0.0
  0
LINE
  5
302
  8
_____1
 62
     1
 10
7.079045056939322
 20
264.0781133256492
 30
0.0
 11
7.174691888089455
 21
263.6472155853085
 31
0.0
  0
LINE
  5
303
  8
_____1
 62
     1
 10
7.174691888089455
 20
264.4610902503832
 30
0.0
 11
7.079045056939322
 21
264.0781133256492
 31
0.0
  0
LINE
  5
304
  8
_____1
 62
     1
 10
7.366180350456489
 20
264.7963411595715
 30
0.0
 11
7.174691888089455
 21
264.4610902503832
 31
0.0
  0
LINE
  5
305
  8
_____1
 62
     1
 10
7.31845433491344
 20
263.5036479385508
 30
0.0
 11
7.605589628430607
 21
263.2165126450313
 31
0.0
  0
LINE
  5
306
  8
_____1
 62
     1
 10
7.174691888089455
 20
263.8866248632826
 30
0.0
 11
7.31845433491344
 21
263.5036479385508
 31
0.0
  0
LINE
  5
307
  8
_____1
 62
     1
 10
7.174691888089455
 20
264.3175226036233
 30
0.0
 11
7.174691888089455
 21
263.8866248632826
 31
0.0
  0
LINE
  5
308
  8
_____1
 62
     1
 10
7.366180350456489
 20
264.7004995283573
 30
0.0
 11
7.174691888089455
 21
264.3175226036233
 31
0.0
  0
LINE
  5
309
  8
_____1
 62
     1
 10
7.701431259647052
 20
264.9399088063315
 30
0.0
 11
7.366180350456489
 21
264.7004995283573
 31
0.0
  0
LINE
  5
30A
  8
_____1
 62
     1
 10
8.13232899998593
 20
265.0355556374816
 30
0.0
 11
7.701431259647052
 21
264.9399088063315
 31
0.0
  0
LINE
  5
30B
  8
_____1
 62
     1
 10
8.515305924719542
 20
264.9399088063315
 30
0.0
 11
8.13232899998593
 21
265.0355556374816
 31
0.0
  0
LINE
  5
30C
  8
_____1
 62
     1
 10
8.850362033846068
 20
264.7004995283573
 30
0.0
 11
8.515305924719542
 21
264.9399088063315
 31
0.0
  0
LINE
  5
30D
  8
_____1
 62
     1
 10
9.089771311820186
 20
264.3175226036233
 30
0.0
 11
8.850362033846068
 21
264.7004995283573
 31
0.0
  0
LINE
  5
30E
  8
_____1
 62
     1
 10
9.089771311820186
 20
263.8866248632826
 30
0.0
 11
9.089771311820186
 21
264.3175226036233
 31
0.0
  0
LINE
  5
30F
  8
_____1
 62
     1
 10
8.946008864996656
 20
263.5036479385508
 30
0.0
 11
9.089771311820186
 21
263.8866248632826
 31
0.0
  0
LINE
  5
310
  8
_____1
 62
     1
 10
8.61095275587195
 20
263.2165126450313
 30
0.0
 11
8.946008864996656
 21
263.5036479385508
 31
0.0
  0
LINE
  5
311
  8
_____1
 62
     1
 10
8.898282849453608
 20
263.7430572165249
 30
0.0
 11
8.946008864996656
 21
264.0781133256492
 31
0.0
  0
LINE
  5
312
  8
_____1
 62
     1
 10
8.706794387086575
 20
263.4557271229437
 30
0.0
 11
8.898282849453608
 21
263.7430572165249
 31
0.0
  0
LINE
  5
313
  8
_____1
 62
     1
 10
8.13232899998593
 20
263.2165126450313
 30
0.0
 11
8.706794387086575
 21
263.4557271229437
 31
0.0
  0
LINE
  5
314
  8
_____1
 62
     1
 10
7.509942797280019
 20
263.4557271229437
 30
0.0
 11
8.13232899998593
 21
263.2165126450313
 31
0.0
  0
LINE
  5
315
  8
_____1
 62
     1
 10
7.2705335193059
 20
264.0781133256492
 30
0.0
 11
7.509942797280019
 21
263.4557271229437
 31
0.0
  0
LINE
  5
316
  8
_____1
 62
     1
 10
7.509942797280019
 20
264.6525787127498
 30
0.0
 11
7.2705335193059
 21
264.0781133256492
 31
0.0
  0
LINE
  5
317
  8
_____1
 62
     1
 10
7.797078090797186
 20
264.8440671751168
 30
0.0
 11
7.509942797280019
 21
264.6525787127498
 31
0.0
  0
LINE
  5
318
  8
_____1
 62
     1
 10
8.13232899998593
 20
264.8919879907239
 30
0.0
 11
7.797078090797186
 21
264.8440671751168
 31
0.0
  0
LINE
  5
319
  8
_____1
 62
     1
 10
8.467385109112456
 20
264.8440671751168
 30
0.0
 11
8.13232899998593
 21
264.8919879907239
 31
0.0
  0
LINE
  5
31A
  8
_____1
 62
     1
 10
8.706794387086575
 20
264.6525787127498
 30
0.0
 11
8.467385109112456
 21
264.8440671751168
 31
0.0
  0
LINE
  5
31B
  8
_____1
 62
     1
 10
8.898282849453608
 20
264.3654434192308
 30
0.0
 11
8.706794387086575
 21
264.6525787127498
 31
0.0
  0
LINE
  5
31C
  8
_____1
 62
     1
 10
8.946008864996656
 20
264.0781133256492
 30
0.0
 11
8.898282849453608
 21
264.3654434192308
 31
0.0
  0
LINE
  5
31D
  8
_____1
 62
     1
 10
12.15358670968408
 20
270.2538597370503
 30
0.0
 11
12.2494283408987
 21
270.5411898306315
 31
0.0
  0
LINE
  5
31E
  8
_____1
 62
     1
 10
12.01001906292458
 20
270.0146452591403
 30
0.0
 11
12.15358670968408
 21
270.2538597370503
 31
0.0
  0
LINE
  5
31F
  8
_____1
 62
     1
 10
11.77060978495047
 20
269.8229619967092
 30
0.0
 11
12.01001906292458
 21
270.0146452591403
 31
0.0
  0
LINE
  5
320
  8
_____1
 62
     1
 10
11.43555367582576
 20
269.7752359811661
 30
0.0
 11
11.77060978495047
 21
269.8229619967092
 31
0.0
  0
LINE
  5
321
  8
_____1
 62
     1
 10
11.14822358224455
 20
269.8229619967092
 30
0.0
 11
11.43555367582576
 21
269.7752359811661
 31
0.0
  0
LINE
  5
322
  8
_____1
 62
     1
 10
10.71752064196789
 20
270.2538597370503
 30
0.0
 11
11.14822358224455
 21
269.8229619967092
 31
0.0
  0
LINE
  5
323
  8
_____1
 62
     1
 10
10.66959982635854
 20
270.5411898306315
 30
0.0
 11
10.71752064196789
 21
270.2538597370503
 31
0.0
  0
LINE
  5
324
  8
_____1
 62
     1
 10
10.71752064196789
 20
270.8283251241487
 30
0.0
 11
10.66959982635854
 21
270.5411898306315
 31
0.0
  0
LINE
  5
325
  8
_____1
 62
     1
 10
10.90900910433265
 20
271.1156552177322
 30
0.0
 11
10.71752064196789
 21
270.8283251241487
 31
0.0
  0
LINE
  5
326
  8
_____1
 62
     1
 10
11.14822358224455
 20
271.2592228644899
 30
0.0
 11
10.90900910433265
 21
271.1156552177322
 31
0.0
  0
LINE
  5
327
  8
_____1
 62
     1
 10
11.43555367582576
 20
271.3071436800969
 30
0.0
 11
11.14822358224455
 21
271.2592228644899
 31
0.0
  0
LINE
  5
328
  8
_____1
 62
     1
 10
11.77060978495047
 20
271.2592228644899
 30
0.0
 11
11.43555367582576
 21
271.3071436800969
 31
0.0
  0
LINE
  5
329
  8
_____1
 62
     1
 10
12.01001906292458
 20
271.1156552177322
 30
0.0
 11
11.77060978495047
 21
271.2592228644899
 31
0.0
  0
LINE
  5
32A
  8
_____1
 62
     1
 10
12.2494283408987
 20
270.5411898306315
 30
0.0
 11
12.01001906292458
 21
271.1156552177322
 31
0.0
  0
LINE
  5
32B
  8
_____1
 62
     1
 10
12.15358670968408
 20
270.2538597370503
 30
0.0
 11
12.20150752529116
 21
270.5411898306315
 31
0.0
  0
LINE
  5
32C
  8
_____1
 62
     1
 10
11.72288376940742
 20
269.8229619967092
 30
0.0
 11
12.01001906292458
 21
270.0146452591403
 31
0.0
  0
LINE
  5
32D
  8
_____1
 62
     1
 10
11.43555367582576
 20
269.7752359811661
 30
0.0
 11
11.72288376940742
 21
269.8229619967092
 31
0.0
  0
LINE
  5
32E
  8
_____1
 62
     1
 10
10.90900910433265
 20
271.0677344021228
 30
0.0
 11
10.71752064196789
 21
270.8283251241487
 31
0.0
  0
LINE
  5
32F
  8
_____1
 62
     1
 10
11.14822358224455
 20
271.2592228644899
 30
0.0
 11
10.90900910433265
 21
271.0677344021228
 31
0.0
  0
LINE
  5
330
  8
_____1
 62
     1
 10
11.72288376940742
 20
271.2592228644899
 30
0.0
 11
11.43555367582576
 21
271.3071436800969
 31
0.0
  0
LINE
  5
331
  8
_____1
 62
     1
 10
12.01001906292458
 20
271.0677344021228
 30
0.0
 11
11.72288376940742
 21
271.2592228644899
 31
0.0
  0
LINE
  5
332
  8
_____1
 62
     1
 10
12.15358670968408
 20
270.8283251241487
 30
0.0
 11
12.01001906292458
 21
271.0677344021228
 31
0.0
  0
LINE
  5
333
  8
_____1
 62
     1
 10
12.20150752529116
 20
270.5411898306315
 30
0.0
 11
12.15358670968408
 21
270.8283251241487
 31
0.0
  0
LINE
  5
334
  8
_____1
 62
     1
 10
10.86108828872511
 20
270.2538597370503
 30
0.0
 11
11.05257675109215
 21
270.0146452591403
 31
0.0
  0
LINE
  5
335
  8
_____1
 62
     1
 10
10.76524665751094
 20
270.5891106462391
 30
0.0
 11
10.86108828872511
 21
270.2538597370503
 31
0.0
  0
LINE
  5
336
  8
_____1
 62
     1
 10
10.90900910433265
 20
270.8762459397581
 30
0.0
 11
10.76524665751094
 21
270.5891106462391
 31
0.0
  0
LINE
  5
337
  8
_____1
 62
     1
 10
11.14822358224455
 20
271.1156552177322
 30
0.0
 11
10.90900910433265
 21
270.8762459397581
 31
0.0
  0
LINE
  5
338
  8
_____1
 62
     1
 10
11.43555367582576
 20
271.2114968489468
 30
0.0
 11
11.14822358224455
 21
271.1156552177322
 31
0.0
  0
LINE
  5
339
  8
_____1
 62
     1
 10
11.77060978495047
 20
271.1156552177322
 30
0.0
 11
11.43555367582576
 21
271.2114968489468
 31
0.0
  0
LINE
  5
33A
  8
_____1
 62
     1
 10
12.01001906292458
 20
270.8762459397581
 30
0.0
 11
11.77060978495047
 21
271.1156552177322
 31
0.0
  0
LINE
  5
33B
  8
_____1
 62
     1
 10
12.10586069414103
 20
270.5891106462391
 30
0.0
 11
12.01001906292458
 21
270.8762459397581
 31
0.0
  0
LINE
  5
33C
  8
_____1
 62
     1
 10
12.05793987853394
 20
270.2538597370503
 30
0.0
 11
12.10586069414103
 21
270.5891106462391
 31
0.0
  0
LINE
  5
33D
  8
_____1
 62
     1
 10
11.81853060055755
 20
270.0146452591403
 30
0.0
 11
12.05793987853394
 21
270.2538597370503
 31
0.0
  0
LINE
  5
33E
  8
_____1
 62
     1
 10
11.914372231774
 20
270.2538597370503
 30
0.0
 11
12.01001906292458
 21
270.5411898306315
 31
0.0
  0
LINE
  5
33F
  8
_____1
 62
     1
 10
11.72288376940742
 20
270.0623712746833
 30
0.0
 11
11.914372231774
 21
270.2538597370503
 31
0.0
  0
LINE
  5
340
  8
_____1
 62
     1
 10
11.43555367582576
 20
270.0146452591403
 30
0.0
 11
11.72288376940742
 21
270.0623712746833
 31
0.0
  0
LINE
  5
341
  8
_____1
 62
     1
 10
11.19614439785164
 20
270.0623712746833
 30
0.0
 11
11.43555367582576
 21
270.0146452591403
 31
0.0
  0
LINE
  5
342
  8
_____1
 62
     1
 10
10.95673511987752
 20
270.2538597370503
 30
0.0
 11
11.19614439785164
 21
270.0623712746833
 31
0.0
  0
LINE
  5
343
  8
_____1
 62
     1
 10
10.90900910433265
 20
270.5411898306315
 30
0.0
 11
10.95673511987752
 21
270.2538597370503
 31
0.0
  0
LINE
  5
344
  8
_____1
 62
     1
 10
10.95673511987752
 20
270.8283251241487
 30
0.0
 11
10.90900910433265
 21
270.5411898306315
 31
0.0
  0
LINE
  5
345
  8
_____1
 62
     1
 10
11.19614439785164
 20
271.0198135865157
 30
0.0
 11
10.95673511987752
 21
270.8283251241487
 31
0.0
  0
LINE
  5
346
  8
_____1
 62
     1
 10
11.43555367582576
 20
271.0677344021228
 30
0.0
 11
11.19614439785164
 21
271.0198135865157
 31
0.0
  0
LINE
  5
347
  8
_____1
 62
     1
 10
11.72288376940742
 20
271.0198135865157
 30
0.0
 11
11.43555367582576
 21
271.0677344021228
 31
0.0
  0
LINE
  5
348
  8
_____1
 62
     1
 10
11.914372231774
 20
270.8283251241487
 30
0.0
 11
11.72288376940742
 21
271.0198135865157
 31
0.0
  0
LINE
  5
349
  8
_____1
 62
     1
 10
12.01001906292458
 20
270.5411898306315
 30
0.0
 11
11.914372231774
 21
270.8283251241487
 31
0.0
  0
LINE
  5
34A
  8
_____1
 62
     1
 10
33.64918931066268
 20
260.5356741718997
 30
0.0
 11
34.41514316012808
 21
260.3919117250775
 31
0.0
  0
LINE
  5
34B
  8
_____1
 62
     1
 10
34.41514316012808
 20
260.3919117250775
 30
0.0
 11
34.51078999128049
 21
260.3919117250775
 31
0.0
  0
LINE
  5
34C
  8
_____1
 62
     1
 10
33.55334767944805
 20
266.5197373208716
 30
0.0
 11
31.87787233375548
 21
265.8494303025564
 31
0.0
  0
LINE
  5
34D
  8
_____1
 62
     1
 10
33.55334767944805
 20
266.5197373208716
 30
0.0
 11
31.87787233375548
 21
265.801704287011
 31
0.0
  0
LINE
  5
34E
  8
_____1
 62
     1
 10
30.77666757510133
 20
261.8758986084035
 30
0.0
 11
30.87250920631595
 21
263.5515687541579
 31
0.0
  0
LINE
  5
34F
  8
_____1
 62
     1
 10
30.53725829712721
 20
260.2481492782558
 30
0.0
 11
30.77666757510133
 21
261.8758986084035
 31
0.0
  0
LINE
  5
350
  8
_____1
 62
     1
 10
30.10636055678651
 20
258.6683207637157
 30
0.0
 11
30.53725829712721
 21
260.2481492782558
 31
0.0
  0
LINE
  5
351
  8
_____1
 62
     1
 10
29.53189516968587
 20
257.136413064783
 30
0.0
 11
30.10636055678651
 21
258.6683207637157
 31
0.0
  0
LINE
  5
352
  8
_____1
 62
     1
 10
28.76594132022046
 20
255.6524261814575
 30
0.0
 11
29.53189516968587
 21
257.136413064783
 31
0.0
  0
LINE
  5
353
  8
_____1
 62
     1
 10
27.85641982399511
 20
254.2638913292217
 30
0.0
 11
28.76594132022046
 21
255.6524261814575
 31
0.0
  0
LINE
  5
354
  8
_____1
 62
     1
 10
26.85105669655377
 20
253.0191189238062
 30
0.0
 11
27.85641982399511
 21
254.2638913292217
 31
0.0
  0
LINE
  5
355
  8
_____1
 62
     1
 10
25.65420510674721
 20
251.8222673339997
 30
0.0
 11
26.85105669655377
 21
253.0191189238062
 31
0.0
  0
LINE
  5
356
  8
_____1
 62
     1
 10
24.36151188572649
 20
250.8170990066224
 30
0.0
 11
25.65420510674721
 21
251.8222673339997
 31
0.0
  0
LINE
  5
357
  8
_____1
 62
     1
 10
23.02109264916044
 20
249.9073827103352
 30
0.0
 11
24.36151188572649
 21
250.8170990066224
 31
0.0
  0
LINE
  5
358
  8
_____1
 62
     1
 10
21.53691096577268
 20
249.1414288608676
 30
0.0
 11
23.02109264916044
 21
249.9073827103352
 31
0.0
  0
LINE
  5
359
  8
_____1
 62
     1
 10
20.00500326683959
 20
248.5671582738332
 30
0.0
 11
21.53691096577268
 21
249.1414288608676
 31
0.0
  0
LINE
  5
35A
  8
_____1
 62
     1
 10
18.37725393669234
 20
248.1362605334921
 30
0.0
 11
20.00500326683959
 21
248.5671582738332
 31
0.0
  0
LINE
  5
35B
  8
_____1
 62
     1
 10
16.74950460654509
 20
247.8966564554539
 30
0.0
 11
18.37725393669234
 21
248.1362605334921
 31
0.0
  0
LINE
  5
35C
  8
_____1
 62
     1
 10
15.12195007646187
 20
247.8008148242393
 30
0.0
 11
16.74950460654509
 21
247.8966564554539
 31
0.0
  0
LINE
  5
35D
  8
_____1
 62
     1
 10
13.49420074631416
 20
247.8966564554539
 30
0.0
 11
15.12195007646187
 21
247.8008148242393
 31
0.0
  0
LINE
  5
35E
  8
_____1
 62
     1
 10
11.86645141616691
 20
248.1362605334921
 30
0.0
 11
13.49420074631416
 21
247.8966564554539
 31
0.0
  0
LINE
  5
35F
  8
_____1
 62
     1
 10
10.23870208601966
 20
248.5671582738332
 30
0.0
 11
11.86645141616691
 21
248.1362605334921
 31
0.0
  0
LINE
  5
360
  8
_____1
 62
     1
 10
8.706794387086575
 20
249.1414288608676
 30
0.0
 11
10.23870208601966
 21
248.5671582738332
 31
0.0
  0
LINE
  5
361
  8
_____1
 62
     1
 10
7.2705335193059
 20
249.9073827103352
 30
0.0
 11
8.706794387086575
 21
249.1414288608676
 31
0.0
  0
LINE
  5
362
  8
_____1
 62
     1
 10
5.882193467132765
 20
250.8170990066224
 30
0.0
 11
7.2705335193059
 21
249.9073827103352
 31
0.0
  0
LINE
  5
363
  8
_____1
 62
     1
 10
4.589500246109765
 20
251.8222673339997
 30
0.0
 11
5.882193467132765
 21
250.8170990066224
 31
0.0
  0
LINE
  5
364
  8
_____1
 62
     1
 10
3.440569471910749
 20
253.0191189238062
 30
0.0
 11
4.589500246109765
 21
251.8222673339997
 31
0.0
  0
LINE
  5
365
  8
_____1
 62
     1
 10
2.387285528863686
 20
254.2638913292217
 30
0.0
 11
3.440569471910749
 21
253.0191189238062
 31
0.0
  0
LINE
  5
366
  8
_____1
 62
     1
 10
1.477764032638788
 20
255.6524261814575
 30
0.0
 11
2.387285528863686
 21
254.2638913292217
 31
0.0
  0
LINE
  5
367
  8
_____1
 62
     1
 10
0.7118101831711101
 20
257.136413064783
 30
0.0
 11
1.477764032638788
 21
255.6524261814575
 31
0.0
  0
LINE
  5
368
  8
_____1
 62
     1
 10
0.137344796072739
 20
258.6683207637157
 30
0.0
 11
0.7118101831711101
 21
257.136413064783
 31
0.0
  0
LINE
  5
369
  8
_____1
 62
     1
 10
-0.2935529442684128
 20
260.2481492782558
 30
0.0
 11
0.137344796072739
 21
258.6683207637157
 31
0.0
  0
LINE
  5
36A
  8
_____1
 62
     1
 10
-0.5329622222425314
 20
261.8758986084035
 30
0.0
 11
-0.2935529442684128
 21
260.2481492782558
 31
0.0
  0
LINE
  5
36B
  8
_____1
 62
     1
 10
-0.6288038534567022
 20
263.5515687541579
 30
0.0
 11
-0.5329622222425314
 21
261.8758986084035
 31
0.0
  0
LINE
  5
36C
  8
_____1
 62
     1
 10
-0.5329622222425314
 20
265.1793180843056
 30
0.0
 11
-0.6288038534567022
 21
263.5515687541579
 31
0.0
  0
LINE
  5
36D
  8
_____1
 62
     1
 10
-0.2935529442684128
 20
266.8070674144528
 30
0.0
 11
-0.5329622222425314
 21
265.1793180843056
 31
0.0
  0
LINE
  5
36E
  8
_____1
 62
     1
 10
0.137344796072739
 20
268.386895928993
 30
0.0
 11
-0.2935529442684128
 21
266.8070674144528
 31
0.0
  0
LINE
  5
36F
  8
_____1
 62
     1
 10
0.7118101831711101
 20
269.9667244435332
 30
0.0
 11
0.137344796072739
 21
268.386895928993
 31
0.0
  0
LINE
  5
370
  8
_____1
 62
     1
 10
1.477764032638788
 20
271.4029853113138
 30
0.0
 11
0.7118101831711101
 21
269.9667244435332
 31
0.0
  0
LINE
  5
371
  8
_____1
 62
     1
 10
2.387285528863686
 20
272.791325363487
 30
0.0
 11
1.477764032638788
 21
271.4029853113138
 31
0.0
  0
LINE
  5
372
  8
_____1
 62
     1
 10
3.440569471910749
 20
274.0838237844437
 30
0.0
 11
2.387285528863686
 21
272.791325363487
 31
0.0
  0
LINE
  5
373
  8
_____1
 62
     1
 10
4.589500246109765
 20
275.232754558645
 30
0.0
 11
3.440569471910749
 21
274.0838237844437
 31
0.0
  0
LINE
  5
374
  8
_____1
 62
     1
 10
5.882193467132765
 20
276.2860385016916
 30
0.0
 11
4.589500246109765
 21
275.232754558645
 31
0.0
  0
LINE
  5
375
  8
_____1
 62
     1
 10
7.2705335193059
 20
277.195754797981
 30
0.0
 11
5.882193467132765
 21
276.2860385016916
 31
0.0
  0
LINE
  5
376
  8
_____1
 62
     1
 10
8.706794387086575
 20
277.9137878318388
 30
0.0
 11
7.2705335193059
 21
277.195754797981
 31
0.0
  0
LINE
  5
377
  8
_____1
 62
     1
 10
10.23870208601966
 20
278.536174034547
 30
0.0
 11
8.706794387086575
 21
277.9137878318388
 31
0.0
  0
LINE
  5
378
  8
_____1
 62
     1
 10
11.86645141616691
 20
278.9670717748877
 30
0.0
 11
10.23870208601966
 21
278.536174034547
 31
0.0
  0
LINE
  5
379
  8
_____1
 62
     1
 10
13.49420074631416
 20
279.2062862527978
 30
0.0
 11
11.86645141616691
 21
278.9670717748877
 31
0.0
  0
LINE
  5
37A
  8
_____1
 62
     1
 10
15.12195007646187
 20
279.3021278840124
 30
0.0
 11
13.49420074631416
 21
279.2062862527978
 31
0.0
  0
LINE
  5
37B
  8
_____1
 62
     1
 10
16.74950460654509
 20
279.2062862527978
 30
0.0
 11
15.12195007646187
 21
279.3021278840124
 31
0.0
  0
LINE
  5
37C
  8
_____1
 62
     1
 10
18.37725393669234
 20
278.9670717748877
 30
0.0
 11
16.74950460654509
 21
279.2062862527978
 31
0.0
  0
LINE
  5
37D
  8
_____1
 62
     1
 10
20.00500326683959
 20
278.536174034547
 30
0.0
 11
18.37725393669234
 21
278.9670717748877
 31
0.0
  0
LINE
  5
37E
  8
_____1
 62
     1
 10
21.53691096577268
 20
277.9137878318388
 30
0.0
 11
20.00500326683959
 21
278.536174034547
 31
0.0
  0
LINE
  5
37F
  8
_____1
 62
     1
 10
23.02109264916044
 20
277.195754797981
 30
0.0
 11
21.53691096577268
 21
277.9137878318388
 31
0.0
  0
LINE
  5
380
  8
_____1
 62
     1
 10
24.36151188572649
 20
276.2860385016916
 30
0.0
 11
23.02109264916044
 21
277.195754797981
 31
0.0
  0
LINE
  5
381
  8
_____1
 62
     1
 10
25.65420510674721
 20
275.232754558645
 30
0.0
 11
24.36151188572649
 21
276.2860385016916
 31
0.0
  0
LINE
  5
382
  8
_____1
 62
     1
 10
26.85105669655377
 20
274.0838237844437
 30
0.0
 11
25.65420510674721
 21
275.232754558645
 31
0.0
  0
LINE
  5
383
  8
_____1
 62
     1
 10
27.85641982399511
 20
272.791325363487
 30
0.0
 11
26.85105669655377
 21
274.0838237844437
 31
0.0
  0
LINE
  5
384
  8
_____1
 62
     1
 10
28.76594132022046
 20
271.4029853113138
 30
0.0
 11
27.85641982399511
 21
272.791325363487
 31
0.0
  0
LINE
  5
385
  8
_____1
 62
     1
 10
29.53189516968587
 20
269.9667244435332
 30
0.0
 11
28.76594132022046
 21
271.4029853113138
 31
0.0
  0
LINE
  5
386
  8
_____1
 62
     1
 10
30.10636055678651
 20
268.386895928993
 30
0.0
 11
29.53189516968587
 21
269.9667244435332
 31
0.0
  0
LINE
  5
387
  8
_____1
 62
     1
 10
30.53725829712721
 20
266.8070674144528
 30
0.0
 11
30.10636055678651
 21
268.386895928993
 31
0.0
  0
LINE
  5
388
  8
_____1
 62
     1
 10
30.77666757510133
 20
265.1793180843056
 30
0.0
 11
30.53725829712721
 21
266.8070674144528
 31
0.0
  0
LINE
  5
389
  8
_____1
 62
     1
 10
30.87250920631595
 20
263.5515687541579
 30
0.0
 11
30.77666757510133
 21
265.1793180843056
 31
0.0
  0
LINE
  5
38A
  8
_____1
 62
     1
 10
30.77666757510133
 20
261.8758986084035
 30
0.0
 11
30.82458839070887
 21
263.5515687541579
 31
0.0
  0
LINE
  5
38B
  8
_____1
 62
     1
 10
30.48933748152012
 20
260.2960700938634
 30
0.0
 11
30.77666757510133
 21
261.8758986084035
 31
0.0
  0
LINE
  5
38C
  8
_____1
 62
     1
 10
30.05863454124119
 20
258.6683207637157
 30
0.0
 11
30.48933748152012
 21
260.2960700938634
 31
0.0
  0
LINE
  5
38D
  8
_____1
 62
     1
 10
29.48416915414282
 20
257.136413064783
 30
0.0
 11
30.05863454124119
 21
258.6683207637157
 31
0.0
  0
LINE
  5
38E
  8
_____1
 62
     1
 10
28.71802050461292
 20
255.7003469970664
 30
0.0
 11
29.48416915414282
 21
257.136413064783
 31
0.0
  0
LINE
  5
38F
  8
_____1
 62
     1
 10
27.85641982399511
 20
254.3118121448292
 30
0.0
 11
28.71802050461292
 21
255.7003469970664
 31
0.0
  0
LINE
  5
390
  8
_____1
 62
     1
 10
26.80313588094668
 20
253.0191189238062
 30
0.0
 11
27.85641982399511
 21
254.3118121448292
 31
0.0
  0
LINE
  5
391
  8
_____1
 62
     1
 10
25.65420510674721
 20
251.8701881496072
 30
0.0
 11
26.80313588094668
 21
253.0191189238062
 31
0.0
  0
LINE
  5
392
  8
_____1
 62
     1
 10
24.36151188572649
 20
250.8170990066224
 30
0.0
 11
25.65420510674721
 21
251.8701881496072
 31
0.0
  0
LINE
  5
393
  8
_____1
 62
     1
 10
22.9731718335529
 20
249.9073827103352
 30
0.0
 11
24.36151188572649
 21
250.8170990066224
 31
0.0
  0
LINE
  5
394
  8
_____1
 62
     1
 10
21.53691096577268
 20
249.1893496764769
 30
0.0
 11
22.9731718335529
 21
249.9073827103352
 31
0.0
  0
LINE
  5
395
  8
_____1
 62
     1
 10
20.00500326683959
 20
248.6146894893122
 30
0.0
 11
21.53691096577268
 21
249.1893496764769
 31
0.0
  0
LINE
  5
396
  8
_____1
 62
     1
 10
18.37725393669234
 20
248.1837917489734
 30
0.0
 11
20.00500326683959
 21
248.6146894893122
 31
0.0
  0
LINE
  5
397
  8
_____1
 62
     1
 10
16.74950460654509
 20
247.8966564554539
 30
0.0
 11
18.37725393669234
 21
248.1837917489734
 31
0.0
  0
LINE
  5
398
  8
_____1
 62
     1
 10
11.86645141616691
 20
248.1837917489734
 30
0.0
 11
13.49420074631416
 21
247.8966564554539
 31
0.0
  0
LINE
  5
399
  8
_____1
 62
     1
 10
10.28662290162674
 20
248.6146894893122
 30
0.0
 11
11.86645141616691
 21
248.1837917489734
 31
0.0
  0
LINE
  5
39A
  8
_____1
 62
     1
 10
8.754520402629623
 20
249.1893496764769
 30
0.0
 11
10.28662290162674
 21
248.6146894893122
 31
0.0
  0
LINE
  5
39B
  8
_____1
 62
     1
 10
7.2705335193059
 20
249.9073827103352
 30
0.0
 11
8.754520402629623
 21
249.1893496764769
 31
0.0
  0
LINE
  5
39C
  8
_____1
 62
     1
 10
4.589500246109765
 20
251.8701881496072
 30
0.0
 11
5.882193467132765
 21
250.8170990066224
 31
0.0
  0
LINE
  5
39D
  8
_____1
 62
     1
 10
3.440569471910749
 20
253.0191189238062
 30
0.0
 11
4.589500246109765
 21
251.8701881496072
 31
0.0
  0
LINE
  5
39E
  8
_____1
 62
     1
 10
2.387285528863686
 20
254.3118121448292
 30
0.0
 11
3.440569471910749
 21
253.0191189238062
 31
0.0
  0
LINE
  5
39F
  8
_____1
 62
     1
 10
1.525684848245874
 20
255.7003469970664
 30
0.0
 11
2.387285528863686
 21
254.3118121448292
 31
0.0
  0
LINE
  5
3A0
  8
_____1
 62
     1
 10
0.7597309987786502
 20
257.136413064783
 30
0.0
 11
1.525684848245874
 21
255.7003469970664
 31
0.0
  0
LINE
  5
3A1
  8
_____1
 62
     1
 10
0.1850708116157875
 20
258.6683207637157
 30
0.0
 11
0.7597309987786502
 21
257.136413064783
 31
0.0
  0
LINE
  5
3A2
  8
_____1
 62
     1
 10
-0.2456321286608727
 20
260.2960700938634
 30
0.0
 11
0.1850708116157875
 21
258.6683207637157
 31
0.0
  0
LINE
  5
3A3
  8
_____1
 62
     1
 10
-0.4850414066349913
 20
261.8758986084035
 30
0.0
 11
-0.2456321286608727
 21
260.2960700938634
 31
0.0
  0
LINE
  5
3A4
  8
_____1
 62
     1
 10
-0.5808830378496168
 20
263.5515687541579
 30
0.0
 11
-0.4850414066349913
 21
261.8758986084035
 31
0.0
  0
LINE
  5
3A5
  8
_____1
 62
     1
 10
-0.4850414066349913
 20
265.1793180843056
 30
0.0
 11
-0.5808830378496168
 21
263.5515687541579
 31
0.0
  0
LINE
  5
3A6
  8
_____1
 62
     1
 10
-0.2456321286608727
 20
266.8070674144528
 30
0.0
 11
-0.4850414066349913
 21
265.1793180843056
 31
0.0
  0
LINE
  5
3A7
  8
_____1
 62
     1
 10
0.1850708116157875
 20
268.386895928993
 30
0.0
 11
-0.2456321286608727
 21
266.8070674144528
 31
0.0
  0
LINE
  5
3A8
  8
_____1
 62
     1
 10
0.7597309987786502
 20
269.9188036279238
 30
0.0
 11
0.1850708116157875
 21
268.386895928993
 31
0.0
  0
LINE
  5
3A9
  8
_____1
 62
     1
 10
1.525684848245874
 20
271.4029853113138
 30
0.0
 11
0.7597309987786502
 21
269.9188036279238
 31
0.0
  0
LINE
  5
3AA
  8
_____1
 62
     1
 10
2.387285528863686
 20
272.791325363487
 30
0.0
 11
1.525684848245874
 21
271.4029853113138
 31
0.0
  0
LINE
  5
3AB
  8
_____1
 62
     1
 10
3.440569471910749
 20
274.0359029688366
 30
0.0
 11
2.387285528863686
 21
272.791325363487
 31
0.0
  0
LINE
  5
3AC
  8
_____1
 62
     1
 10
4.589500246109765
 20
275.232754558645
 30
0.0
 11
3.440569471910749
 21
274.0359029688366
 31
0.0
  0
LINE
  5
3AD
  8
_____1
 62
     1
 10
5.882193467132765
 20
276.2381176860845
 30
0.0
 11
4.589500246109765
 21
275.232754558645
 31
0.0
  0
LINE
  5
3AE
  8
_____1
 62
     1
 10
7.2705335193059
 20
277.1478339823734
 30
0.0
 11
5.882193467132765
 21
276.2381176860845
 31
0.0
  0
LINE
  5
3AF
  8
_____1
 62
     1
 10
8.754520402629623
 20
277.9137878318388
 30
0.0
 11
7.2705335193059
 21
277.1478339823734
 31
0.0
  0
LINE
  5
3B0
  8
_____1
 62
     1
 10
10.28662290162674
 20
278.4882532189395
 30
0.0
 11
8.754520402629623
 21
277.9137878318388
 31
0.0
  0
LINE
  5
3B1
  8
_____1
 62
     1
 10
11.86645141616691
 20
278.9191509592788
 30
0.0
 11
10.28662290162674
 21
278.4882532189395
 31
0.0
  0
LINE
  5
3B2
  8
_____1
 62
     1
 10
13.49420074631416
 20
279.1585602372529
 30
0.0
 11
11.86645141616691
 21
278.9191509592788
 31
0.0
  0
LINE
  5
3B3
  8
_____1
 62
     1
 10
15.12195007646187
 20
279.2542070684049
 30
0.0
 11
13.49420074631416
 21
279.1585602372529
 31
0.0
  0
LINE
  5
3B4
  8
_____1
 62
     1
 10
16.74950460654509
 20
279.1585602372529
 30
0.0
 11
15.12195007646187
 21
279.2542070684049
 31
0.0
  0
LINE
  5
3B5
  8
_____1
 62
     1
 10
18.37725393669234
 20
278.9191509592788
 30
0.0
 11
16.74950460654509
 21
279.1585602372529
 31
0.0
  0
LINE
  5
3B6
  8
_____1
 62
     1
 10
20.00500326683959
 20
278.4882532189395
 30
0.0
 11
18.37725393669234
 21
278.9191509592788
 31
0.0
  0
LINE
  5
3B7
  8
_____1
 62
     1
 10
21.53691096577268
 20
277.9137878318388
 30
0.0
 11
20.00500326683959
 21
278.4882532189395
 31
0.0
  0
LINE
  5
3B8
  8
_____1
 62
     1
 10
22.9731718335529
 20
277.1478339823734
 30
0.0
 11
21.53691096577268
 21
277.9137878318388
 31
0.0
  0
LINE
  5
3B9
  8
_____1
 62
     1
 10
24.36151188572649
 20
276.2381176860845
 30
0.0
 11
22.9731718335529
 21
277.1478339823734
 31
0.0
  0
LINE
  5
3BA
  8
_____1
 62
     1
 10
25.65420510674721
 20
275.232754558645
 30
0.0
 11
24.36151188572649
 21
276.2381176860845
 31
0.0
  0
LINE
  5
3BB
  8
_____1
 62
     1
 10
26.80313588094668
 20
274.0359029688366
 30
0.0
 11
25.65420510674721
 21
275.232754558645
 31
0.0
  0
LINE
  5
3BC
  8
_____1
 62
     1
 10
27.85641982399511
 20
272.791325363487
 30
0.0
 11
26.80313588094668
 21
274.0359029688366
 31
0.0
  0
LINE
  5
3BD
  8
_____1
 62
     1
 10
28.71802050461292
 20
271.4029853113138
 30
0.0
 11
27.85641982399511
 21
272.791325363487
 31
0.0
  0
LINE
  5
3BE
  8
_____1
 62
     1
 10
29.48416915414282
 20
269.9188036279238
 30
0.0
 11
28.71802050461292
 21
271.4029853113138
 31
0.0
  0
LINE
  5
3BF
  8
_____1
 62
     1
 10
30.05863454124119
 20
268.386895928993
 30
0.0
 11
29.48416915414282
 21
269.9188036279238
 31
0.0
  0
LINE
  5
3C0
  8
_____1
 62
     1
 10
30.48933748152012
 20
266.8070674144528
 30
0.0
 11
30.05863454124119
 21
268.386895928993
 31
0.0
  0
LINE
  5
3C1
  8
_____1
 62
     1
 10
30.77666757510133
 20
265.1793180843056
 30
0.0
 11
30.48933748152012
 21
266.8070674144528
 31
0.0
  0
LINE
  5
3C2
  8
_____1
 62
     1
 10
30.82458839070887
 20
263.5515687541579
 30
0.0
 11
30.77666757510133
 21
265.1793180843056
 31
0.0
  0
LINE
  5
3C3
  8
_____1
 62
     1
 10
30.4416114659748
 20
261.9238194240106
 30
0.0
 11
30.48933748152012
 21
263.5515687541579
 31
0.0
  0
LINE
  5
3C4
  8
_____1
 62
     1
 10
30.1542813723936
 20
260.3439909094704
 30
0.0
 11
30.4416114659748
 21
261.9238194240106
 31
0.0
  0
LINE
  5
3C5
  8
_____1
 62
     1
 10
29.77130444765999
 20
258.8120832105374
 30
0.0
 11
30.1542813723936
 21
260.3439909094704
 31
0.0
  0
LINE
  5
3C6
  8
_____1
 62
     1
 10
29.19683906056116
 20
257.2801755116047
 30
0.0
 11
29.77130444765999
 21
258.8120832105374
 31
0.0
  0
LINE
  5
3C7
  8
_____1
 62
     1
 10
28.43088521109394
 20
255.8437198437618
 30
0.0
 11
29.19683906056116
 21
257.2801755116047
 31
0.0
  0
LINE
  5
3C8
  8
_____1
 62
     1
 10
27.56908973041391
 20
254.503495407258
 30
0.0
 11
28.43088521109394
 21
255.8437198437618
 31
0.0
  0
LINE
  5
3C9
  8
_____1
 62
     1
 10
26.56372660297257
 20
253.2587230018444
 30
0.0
 11
27.56908973041391
 21
254.503495407258
 31
0.0
  0
LINE
  5
3CA
  8
_____1
 62
     1
 10
25.41479582877309
 20
252.1097922276454
 30
0.0
 11
26.56372660297257
 21
253.2587230018444
 31
0.0
  0
LINE
  5
3CB
  8
_____1
 62
     1
 10
24.17002342335945
 20
251.1042343001413
 30
0.0
 11
25.41479582877309
 21
252.1097922276454
 31
0.0
  0
LINE
  5
3CC
  8
_____1
 62
     1
 10
22.8296041867934
 20
250.2424388194595
 30
0.0
 11
24.17002342335945
 21
251.1042343001413
 31
0.0
  0
LINE
  5
3CD
  8
_____1
 62
     1
 10
21.39334331901318
 20
249.4764849699941
 30
0.0
 11
22.8296041867934
 21
250.2424388194595
 31
0.0
  0
LINE
  5
3CE
  8
_____1
 62
     1
 10
19.8614356200801
 20
248.9022143829579
 30
0.0
 11
21.39334331901318
 21
249.4764849699941
 31
0.0
  0
LINE
  5
3CF
  8
_____1
 62
     1
 10
18.3293331210848
 20
248.5192374582239
 30
0.0
 11
19.8614356200801
 21
248.9022143829579
 31
0.0
  0
LINE
  5
3D0
  8
_____1
 62
     1
 10
16.74950460654509
 20
248.2317125645804
 30
0.0
 11
18.3293331210848
 21
248.5192374582239
 31
0.0
  0
LINE
  5
3D1
  8
_____1
 62
     1
 10
15.12195007646187
 20
248.1837917489734
 30
0.0
 11
16.74950460654509
 21
248.2317125645804
 31
0.0
  0
LINE
  5
3D2
  8
_____1
 62
     1
 10
13.49420074631416
 20
248.2317125645804
 30
0.0
 11
15.12195007646187
 21
248.1837917489734
 31
0.0
  0
LINE
  5
3D3
  8
_____1
 62
     1
 10
11.914372231774
 20
248.5192374582239
 30
0.0
 11
13.49420074631416
 21
248.2317125645804
 31
0.0
  0
LINE
  5
3D4
  8
_____1
 62
     1
 10
10.38226973277688
 20
248.9022143829579
 30
0.0
 11
11.914372231774
 21
248.5192374582239
 31
0.0
  0
LINE
  5
3D5
  8
_____1
 62
     1
 10
8.850362033846068
 20
249.4764849699941
 30
0.0
 11
10.38226973277688
 21
248.9022143829579
 31
0.0
  0
LINE
  5
3D6
  8
_____1
 62
     1
 10
7.414101166063574
 20
250.2424388194595
 30
0.0
 11
8.850362033846068
 21
249.4764849699941
 31
0.0
  0
LINE
  5
3D7
  8
_____1
 62
     1
 10
6.073681929497525
 20
251.1042343001413
 30
0.0
 11
7.414101166063574
 21
250.2424388194595
 31
0.0
  0
LINE
  5
3D8
  8
_____1
 62
     1
 10
4.828909524083883
 20
252.1097922276454
 30
0.0
 11
6.073681929497525
 21
251.1042343001413
 31
0.0
  0
LINE
  5
3D9
  8
_____1
 62
     1
 10
3.679978749884867
 20
253.2587230018444
 30
0.0
 11
4.828909524083883
 21
252.1097922276454
 31
0.0
  0
LINE
  5
3DA
  8
_____1
 62
     1
 10
2.674615622445344
 20
254.503495407258
 30
0.0
 11
3.679978749884867
 21
253.2587230018444
 31
0.0
  0
LINE
  5
3DB
  8
_____1
 62
     1
 10
1.812820141763041
 20
255.8437198437618
 30
0.0
 11
2.674615622445344
 21
254.503495407258
 31
0.0
  0
LINE
  5
3DC
  8
_____1
 62
     1
 10
1.094787107905177
 20
257.2801755116047
 30
0.0
 11
1.812820141763041
 21
255.8437198437618
 31
0.0
  0
LINE
  5
3DD
  8
_____1
 62
     1
 10
0.5203217208045317
 20
258.8120832105374
 30
0.0
 11
1.094787107905177
 21
257.2801755116047
 31
0.0
  0
LINE
  5
3DE
  8
_____1
 62
     1
 10
0.0894239804656536
 20
260.3439909094704
 30
0.0
 11
0.5203217208045317
 21
258.8120832105374
 31
0.0
  0
LINE
  5
3DF
  8
_____1
 62
     1
 10
-0.149985297508465
 20
261.9238194240106
 30
0.0
 11
0.0894239804656536
 21
260.3439909094704
 31
0.0
  0
LINE
  5
3E0
  8
_____1
 62
     1
 10
-0.2456321286608727
 20
263.5515687541579
 30
0.0
 11
-0.149985297508465
 21
261.9238194240106
 31
0.0
  0
LINE
  5
3E1
  8
_____1
 62
     1
 10
-0.149985297508465
 20
265.131397268698
 30
0.0
 11
-0.2456321286608727
 21
263.5515687541579
 31
0.0
  0
LINE
  5
3E2
  8
_____1
 62
     1
 10
0.0894239804656536
 20
266.7591465988457
 30
0.0
 11
-0.149985297508465
 21
265.131397268698
 31
0.0
  0
LINE
  5
3E3
  8
_____1
 62
     1
 10
0.5203217208045317
 20
268.2910542977766
 30
0.0
 11
0.0894239804656536
 21
266.7591465988457
 31
0.0
  0
LINE
  5
3E4
  8
_____1
 62
     1
 10
1.094787107905177
 20
269.7752359811661
 30
0.0
 11
0.5203217208045317
 21
268.2910542977766
 31
0.0
  0
LINE
  5
3E5
  8
_____1
 62
     1
 10
1.812820141763041
 20
271.2114968489468
 30
0.0
 11
1.094787107905177
 21
269.7752359811661
 31
0.0
  0
LINE
  5
3E6
  8
_____1
 62
     1
 10
2.674615622445344
 20
272.5998369011199
 30
0.0
 11
1.812820141763041
 21
271.2114968489468
 31
0.0
  0
LINE
  5
3E7
  8
_____1
 62
     1
 10
3.679978749884867
 20
273.8444145064714
 30
0.0
 11
2.674615622445344
 21
272.5998369011199
 31
0.0
  0
LINE
  5
3E8
  8
_____1
 62
     1
 10
4.828909524083883
 20
274.9935400807331
 30
0.0
 11
3.679978749884867
 21
273.8444145064714
 31
0.0
  0
LINE
  5
3E9
  8
_____1
 62
     1
 10
6.073681929497525
 20
275.9989032081744
 30
0.0
 11
4.828909524083883
 21
274.9935400807331
 31
0.0
  0
LINE
  5
3EA
  8
_____1
 62
     1
 10
7.414101166063574
 20
276.8605038887904
 30
0.0
 11
6.073681929497525
 21
275.9989032081744
 31
0.0
  0
LINE
  5
3EB
  8
_____1
 62
     1
 10
8.850362033846068
 20
277.5787317227127
 30
0.0
 11
7.414101166063574
 21
276.8605038887904
 31
0.0
  0
LINE
  5
3EC
  8
_____1
 62
     1
 10
10.38226973277688
 20
278.1531971098129
 30
0.0
 11
8.850362033846068
 21
277.5787317227127
 31
0.0
  0
LINE
  5
3ED
  8
_____1
 62
     1
 10
11.914372231774
 20
278.5840948501541
 30
0.0
 11
10.38226973277688
 21
278.1531971098129
 31
0.0
  0
LINE
  5
3EE
  8
_____1
 62
     1
 10
13.49420074631416
 20
278.8233093280642
 30
0.0
 11
11.914372231774
 21
278.5840948501541
 31
0.0
  0
LINE
  5
3EF
  8
_____1
 62
     1
 10
15.12195007646187
 20
278.9191509592788
 30
0.0
 11
13.49420074631416
 21
278.8233093280642
 31
0.0
  0
LINE
  5
3F0
  8
_____1
 62
     1
 10
16.74950460654509
 20
278.8233093280642
 30
0.0
 11
15.12195007646187
 21
278.9191509592788
 31
0.0
  0
LINE
  5
3F1
  8
_____1
 62
     1
 10
18.3293331210848
 20
278.5840948501541
 30
0.0
 11
16.74950460654509
 21
278.8233093280642
 31
0.0
  0
LINE
  5
3F2
  8
_____1
 62
     1
 10
19.8614356200801
 20
278.1531971098129
 30
0.0
 11
18.3293331210848
 21
278.5840948501541
 31
0.0
  0
LINE
  5
3F3
  8
_____1
 62
     1
 10
21.39334331901318
 20
277.5787317227127
 30
0.0
 11
19.8614356200801
 21
278.1531971098129
 31
0.0
  0
LINE
  5
3F4
  8
_____1
 62
     1
 10
22.8296041867934
 20
276.8605038887904
 30
0.0
 11
21.39334331901318
 21
277.5787317227127
 31
0.0
  0
LINE
  5
3F5
  8
_____1
 62
     1
 10
24.17002342335945
 20
275.9989032081744
 30
0.0
 11
22.8296041867934
 21
276.8605038887904
 31
0.0
  0
LINE
  5
3F6
  8
_____1
 62
     1
 10
25.41479582877309
 20
274.9935400807331
 30
0.0
 11
24.17002342335945
 21
275.9989032081744
 31
0.0
  0
LINE
  5
3F7
  8
_____1
 62
     1
 10
26.56372660297257
 20
273.8444145064714
 30
0.0
 11
25.41479582877309
 21
274.9935400807331
 31
0.0
  0
LINE
  5
3F8
  8
_____1
 62
     1
 10
27.56908973041391
 20
272.5998369011199
 30
0.0
 11
26.56372660297257
 21
273.8444145064714
 31
0.0
  0
LINE
  5
3F9
  8
_____1
 62
     1
 10
28.43088521109394
 20
271.2114968489468
 30
0.0
 11
27.56908973041391
 21
272.5998369011199
 31
0.0
  0
LINE
  5
3FA
  8
_____1
 62
     1
 10
29.19683906056116
 20
269.7752359811661
 30
0.0
 11
28.43088521109394
 21
271.2114968489468
 31
0.0
  0
LINE
  5
3FB
  8
_____1
 62
     1
 10
29.77130444765999
 20
268.2910542977766
 30
0.0
 11
29.19683906056116
 21
269.7752359811661
 31
0.0
  0
LINE
  5
3FC
  8
_____1
 62
     1
 10
30.1542813723936
 20
266.7591465988457
 30
0.0
 11
29.77130444765999
 21
268.2910542977766
 31
0.0
  0
LINE
  5
3FD
  8
_____1
 62
     1
 10
30.4416114659748
 20
265.131397268698
 30
0.0
 11
30.1542813723936
 21
266.7591465988457
 31
0.0
  0
LINE
  5
3FE
  8
_____1
 62
     1
 10
30.48933748152012
 20
263.5515687541579
 30
0.0
 11
30.4416114659748
 21
265.131397268698
 31
0.0
  0
LINE
  5
3FF
  8
_____1
 62
     1
 10
18.99964013940007
 20
263.4557271229437
 30
0.0
 11
19.0954817706147
 21
264.2218757724731
 31
0.0
  0
LINE
  5
400
  8
_____1
 62
     1
 10
18.76023086142595
 20
262.7376940890831
 30
0.0
 11
18.99964013940007
 21
263.4557271229437
 31
0.0
  0
LINE
  5
401
  8
_____1
 62
     1
 10
18.42517475229943
 20
262.0675818708323
 30
0.0
 11
18.76023086142595
 21
262.7376940890831
 31
0.0
  0
LINE
  5
402
  8
_____1
 62
     1
 10
17.94635619635119
 20
261.4450008680624
 30
0.0
 11
18.42517475229943
 21
262.0675818708323
 31
0.0
  0
LINE
  5
403
  8
_____1
 62
     1
 10
17.32396999364528
 20
260.9661823121141
 30
0.0
 11
17.94635619635119
 21
261.4450008680624
 31
0.0
  0
LINE
  5
404
  8
_____1
 62
     1
 10
16.65385777539268
 20
260.5832053873805
 30
0.0
 11
17.32396999364528
 21
260.9661823121141
 31
0.0
  0
LINE
  5
405
  8
_____1
 62
     1
 10
15.88790392592728
 20
260.3439909094704
 30
0.0
 11
16.65385777539268
 21
260.5832053873805
 31
0.0
  0
LINE
  5
406
  8
_____1
 62
     1
 10
15.12195007646187
 20
260.2960700938634
 30
0.0
 11
15.88790392592728
 21
260.3439909094704
 31
0.0
  0
LINE
  5
407
  8
_____1
 62
     1
 10
14.35580142693198
 20
260.3439909094704
 30
0.0
 11
15.12195007646187
 21
260.2960700938634
 31
0.0
  0
LINE
  5
408
  8
_____1
 62
     1
 10
13.58984757746475
 20
260.5832053873805
 30
0.0
 11
14.35580142693198
 21
260.3439909094704
 31
0.0
  0
LINE
  5
409
  8
_____1
 62
     1
 10
12.91973535921352
 20
260.9661823121141
 30
0.0
 11
13.58984757746475
 21
260.5832053873805
 31
0.0
  0
LINE
  5
40A
  8
_____1
 62
     1
 10
12.34507517205111
 20
261.4450008680624
 30
0.0
 11
12.91973535921352
 21
260.9661823121141
 31
0.0
  0
LINE
  5
40B
  8
_____1
 62
     1
 10
11.81853060055755
 20
262.0675818708323
 30
0.0
 11
12.34507517205111
 21
261.4450008680624
 31
0.0
  0
LINE
  5
40C
  8
_____1
 62
     1
 10
11.4834744914333
 20
262.7376940890831
 30
0.0
 11
11.81853060055755
 21
262.0675818708323
 31
0.0
  0
LINE
  5
40D
  8
_____1
 62
     1
 10
11.24406521345918
 20
263.4557271229437
 30
0.0
 11
11.4834744914333
 21
262.7376940890831
 31
0.0
  0
LINE
  5
40E
  8
_____1
 62
     1
 10
11.14822358224455
 20
264.2218757724731
 30
0.0
 11
11.24406521345918
 21
263.4557271229437
 31
0.0
  0
LINE
  5
40F
  8
_____1
 62
     1
 10
11.24406521345918
 20
265.0355556374816
 30
0.0
 11
11.14822358224455
 21
264.2218757724731
 31
0.0
  0
LINE
  5
410
  8
_____1
 62
     1
 10
11.4834744914333
 20
265.7537834714039
 30
0.0
 11
11.24406521345918
 21
265.0355556374816
 31
0.0
  0
LINE
  5
411
  8
_____1
 62
     1
 10
11.81853060055755
 20
266.4240904897192
 30
0.0
 11
11.4834744914333
 21
265.7537834714039
 31
0.0
  0
LINE
  5
412
  8
_____1
 62
     1
 10
12.34507517205111
 20
267.0462818923629
 30
0.0
 11
11.81853060055755
 21
266.4240904897192
 31
0.0
  0
LINE
  5
413
  8
_____1
 62
     1
 10
12.91973535921352
 20
267.5251004483112
 30
0.0
 11
12.34507517205111
 21
267.0462818923629
 31
0.0
  0
LINE
  5
414
  8
_____1
 62
     1
 10
13.58984757746475
 20
267.9080773730448
 30
0.0
 11
12.91973535921352
 21
267.5251004483112
 31
0.0
  0
LINE
  5
415
  8
_____1
 62
     1
 10
14.35580142693198
 20
268.0995658354113
 30
0.0
 11
13.58984757746475
 21
267.9080773730448
 31
0.0
  0
LINE
  5
416
  8
_____1
 62
     1
 10
15.12195007646187
 20
268.195407466626
 30
0.0
 11
14.35580142693198
 21
268.0995658354113
 31
0.0
  0
LINE
  5
417
  8
_____1
 62
     1
 10
15.88790392592728
 20
268.0995658354113
 30
0.0
 11
15.12195007646187
 21
268.195407466626
 31
0.0
  0
LINE
  5
418
  8
_____1
 62
     1
 10
16.65385777539268
 20
267.9080773730448
 30
0.0
 11
15.88790392592728
 21
268.0995658354113
 31
0.0
  0
LINE
  5
419
  8
_____1
 62
     1
 10
17.32396999364528
 20
267.5251004483112
 30
0.0
 11
16.65385777539268
 21
267.9080773730448
 31
0.0
  0
LINE
  5
41A
  8
_____1
 62
     1
 10
17.94635619635119
 20
267.0462818923629
 30
0.0
 11
17.32396999364528
 21
267.5251004483112
 31
0.0
  0
LINE
  5
41B
  8
_____1
 62
     1
 10
18.42517475229943
 20
266.4240904897192
 30
0.0
 11
17.94635619635119
 21
267.0462818923629
 31
0.0
  0
LINE
  5
41C
  8
_____1
 62
     1
 10
18.76023086142595
 20
265.7537834714039
 30
0.0
 11
18.42517475229943
 21
266.4240904897192
 31
0.0
  0
LINE
  5
41D
  8
_____1
 62
     1
 10
18.99964013940007
 20
265.0355556374816
 30
0.0
 11
18.76023086142595
 21
265.7537834714039
 31
0.0
  0
LINE
  5
41E
  8
_____1
 62
     1
 10
19.0954817706147
 20
264.2218757724731
 30
0.0
 11
18.99964013940007
 21
265.0355556374816
 31
0.0
  0
LINE
  5
41F
  8
_____1
 62
     1
 10
18.90399330824766
 20
263.5036479385508
 30
0.0
 11
18.99964013940007
 21
264.2218757724731
 31
0.0
  0
LINE
  5
420
  8
_____1
 62
     1
 10
18.66458403027355
 20
262.7856149046906
 30
0.0
 11
18.90399330824766
 21
263.5036479385508
 31
0.0
  0
LINE
  5
421
  8
_____1
 62
     1
 10
18.3293331210848
 20
262.1155026864394
 30
0.0
 11
18.66458403027355
 21
262.7856149046906
 31
0.0
  0
LINE
  5
422
  8
_____1
 62
     1
 10
17.85070936520106
 20
261.540842499277
 30
0.0
 11
18.3293331210848
 21
262.1155026864394
 31
0.0
  0
LINE
  5
423
  8
_____1
 62
     1
 10
17.27624397810041
 20
261.0141031277212
 30
0.0
 11
17.85070936520106
 21
261.540842499277
 31
0.0
  0
LINE
  5
424
  8
_____1
 62
     1
 10
16.60593695978514
 20
260.679047018597
 30
0.0
 11
17.27624397810041
 21
261.0141031277212
 31
0.0
  0
LINE
  5
425
  8
_____1
 62
     1
 10
15.88790392592728
 20
260.4398325406851
 30
0.0
 11
16.60593695978514
 21
260.679047018597
 31
0.0
  0
LINE
  5
426
  8
_____1
 62
     1
 10
15.12195007646187
 20
260.3919117250775
 30
0.0
 11
15.88790392592728
 21
260.4398325406851
 31
0.0
  0
LINE
  5
427
  8
_____1
 62
     1
 10
14.35580142693198
 20
260.4398325406851
 30
0.0
 11
15.12195007646187
 21
260.3919117250775
 31
0.0
  0
LINE
  5
428
  8
_____1
 62
     1
 10
13.63776839307184
 20
260.679047018597
 30
0.0
 11
14.35580142693198
 21
260.4398325406851
 31
0.0
  0
LINE
  5
429
  8
_____1
 62
     1
 10
12.96746137475884
 20
261.0141031277212
 30
0.0
 11
13.63776839307184
 21
260.679047018597
 31
0.0
  0
LINE
  5
42A
  8
_____1
 62
     1
 10
12.3929959876582
 20
261.540842499277
 30
0.0
 11
12.96746137475884
 21
261.0141031277212
 31
0.0
  0
LINE
  5
42B
  8
_____1
 62
     1
 10
11.914372231774
 20
262.1155026864394
 30
0.0
 11
12.3929959876582
 21
261.540842499277
 31
0.0
  0
LINE
  5
42C
  8
_____1
 62
     1
 10
11.57912132258571
 20
262.7856149046906
 30
0.0
 11
11.914372231774
 21
262.1155026864394
 31
0.0
  0
LINE
  5
42D
  8
_____1
 62
     1
 10
11.33971204461159
 20
263.5036479385508
 30
0.0
 11
11.57912132258571
 21
262.7856149046906
 31
0.0
  0
LINE
  5
42E
  8
_____1
 62
     1
 10
11.29198602906627
 20
264.2218757724731
 30
0.0
 11
11.33971204461159
 21
263.5036479385508
 31
0.0
  0
LINE
  5
42F
  8
_____1
 62
     1
 10
11.33971204461159
 20
264.9878296219385
 30
0.0
 11
11.29198602906627
 21
264.2218757724731
 31
0.0
  0
LINE
  5
430
  8
_____1
 62
     1
 10
11.57912132258571
 20
265.7058626557969
 30
0.0
 11
11.33971204461159
 21
264.9878296219385
 31
0.0
  0
LINE
  5
431
  8
_____1
 62
     1
 10
11.914372231774
 20
266.3761696741117
 30
0.0
 11
11.57912132258571
 21
265.7058626557969
 31
0.0
  0
LINE
  5
432
  8
_____1
 62
     1
 10
12.3929959876582
 20
266.9506350612105
 30
0.0
 11
11.914372231774
 21
266.3761696741117
 31
0.0
  0
LINE
  5
433
  8
_____1
 62
     1
 10
12.96746137475884
 20
267.4292588170965
 30
0.0
 11
12.3929959876582
 21
266.9506350612105
 31
0.0
  0
LINE
  5
434
  8
_____1
 62
     1
 10
13.63776839307184
 20
267.8124305418924
 30
0.0
 11
12.96746137475884
 21
267.4292588170965
 31
0.0
  0
LINE
  5
435
  8
_____1
 62
     1
 10
14.35580142693198
 20
268.0039190042594
 30
0.0
 11
13.63776839307184
 21
267.8124305418924
 31
0.0
  0
LINE
  5
436
  8
_____1
 62
     1
 10
15.12195007646187
 20
268.0995658354113
 30
0.0
 11
14.35580142693198
 21
268.0039190042594
 31
0.0
  0
LINE
  5
437
  8
_____1
 62
     1
 10
15.88790392592728
 20
268.0039190042594
 30
0.0
 11
15.12195007646187
 21
268.0995658354113
 31
0.0
  0
LINE
  5
438
  8
_____1
 62
     1
 10
16.60593695978514
 20
267.8124305418924
 30
0.0
 11
15.88790392592728
 21
268.0039190042594
 31
0.0
  0
LINE
  5
439
  8
_____1
 62
     1
 10
17.27624397810041
 20
267.4292588170965
 30
0.0
 11
16.60593695978514
 21
267.8124305418924
 31
0.0
  0
LINE
  5
43A
  8
_____1
 62
     1
 10
17.85070936520106
 20
266.9506350612105
 30
0.0
 11
17.27624397810041
 21
267.4292588170965
 31
0.0
  0
LINE
  5
43B
  8
_____1
 62
     1
 10
18.3293331210848
 20
266.3761696741117
 30
0.0
 11
17.85070936520106
 21
266.9506350612105
 31
0.0
  0
LINE
  5
43C
  8
_____1
 62
     1
 10
18.66458403027355
 20
265.7058626557969
 30
0.0
 11
18.3293331210848
 21
266.3761696741117
 31
0.0
  0
LINE
  5
43D
  8
_____1
 62
     1
 10
18.90399330824766
 20
264.9878296219385
 30
0.0
 11
18.66458403027355
 21
265.7058626557969
 31
0.0
  0
LINE
  5
43E
  8
_____1
 62
     1
 10
18.99964013940007
 20
264.2218757724731
 30
0.0
 11
18.90399330824766
 21
264.9878296219385
 31
0.0
  0
LINE
  5
43F
  8
_____1
 62
     1
 10
17.85070936520106
 20
263.5994895697654
 30
0.0
 11
17.94635619635119
 21
264.2218757724731
 31
0.0
  0
LINE
  5
440
  8
_____1
 62
     1
 10
17.65922090283402
 20
263.0250241826648
 30
0.0
 11
17.85070936520106
 21
263.5994895697654
 31
0.0
  0
LINE
  5
441
  8
_____1
 62
     1
 10
17.32396999364528
 20
262.4984796111735
 30
0.0
 11
17.65922090283402
 21
263.0250241826648
 31
0.0
  0
LINE
  5
442
  8
_____1
 62
     1
 10
16.8932670533668
 20
262.0675818708323
 30
0.0
 11
17.32396999364528
 21
262.4984796111735
 31
0.0
  0
LINE
  5
443
  8
_____1
 62
     1
 10
15.74414147910511
 20
261.4929216836695
 30
0.0
 11
16.8932670533668
 21
262.0675818708323
 31
0.0
  0
LINE
  5
444
  8
_____1
 62
     1
 10
15.12195007646187
 20
261.4450008680624
 30
0.0
 11
15.74414147910511
 21
261.4929216836695
 31
0.0
  0
LINE
  5
445
  8
_____1
 62
     1
 10
14.49956387375369
 20
261.4929216836695
 30
0.0
 11
15.12195007646187
 21
261.4450008680624
 31
0.0
  0
LINE
  5
446
  8
_____1
 62
     1
 10
13.92509848665304
 20
261.7325257617081
 30
0.0
 11
14.49956387375369
 21
261.4929216836695
 31
0.0
  0
LINE
  5
447
  8
_____1
 62
     1
 10
13.39835911509772
 20
262.0675818708323
 30
0.0
 11
13.92509848665304
 21
261.7325257617081
 31
0.0
  0
LINE
  5
448
  8
_____1
 62
     1
 10
12.91973535921352
 20
262.4984796111735
 30
0.0
 11
13.39835911509772
 21
262.0675818708323
 31
0.0
  0
LINE
  5
449
  8
_____1
 62
     1
 10
12.58448445002523
 20
263.0250241826648
 30
0.0
 11
12.91973535921352
 21
262.4984796111735
 31
0.0
  0
LINE
  5
44A
  8
_____1
 62
     1
 10
12.3929959876582
 20
263.5994895697654
 30
0.0
 11
12.58448445002523
 21
263.0250241826648
 31
0.0
  0
LINE
  5
44B
  8
_____1
 62
     1
 10
12.34507517205111
 20
264.2218757724731
 30
0.0
 11
12.3929959876582
 21
263.5994895697654
 31
0.0
  0
LINE
  5
44C
  8
_____1
 62
     1
 10
12.3929959876582
 20
264.8440671751168
 30
0.0
 11
12.34507517205111
 21
264.2218757724731
 31
0.0
  0
LINE
  5
44D
  8
_____1
 62
     1
 10
12.58448445002523
 20
265.4664533778227
 30
0.0
 11
12.3929959876582
 21
264.8440671751168
 31
0.0
  0
LINE
  5
44E
  8
_____1
 62
     1
 10
12.91973535921352
 20
265.9931927493781
 30
0.0
 11
12.58448445002523
 21
265.4664533778227
 31
0.0
  0
LINE
  5
44F
  8
_____1
 62
     1
 10
13.39835911509772
 20
266.4240904897192
 30
0.0
 11
12.91973535921352
 21
265.9931927493781
 31
0.0
  0
LINE
  5
450
  8
_____1
 62
     1
 10
13.92509848665304
 20
266.7591465988457
 30
0.0
 11
13.39835911509772
 21
266.4240904897192
 31
0.0
  0
LINE
  5
451
  8
_____1
 62
     1
 10
14.49956387375369
 20
266.9985558768199
 30
0.0
 11
13.92509848665304
 21
266.7591465988457
 31
0.0
  0
LINE
  5
452
  8
_____1
 62
     1
 10
15.12195007646187
 20
267.0462818923629
 30
0.0
 11
14.49956387375369
 21
266.9985558768199
 31
0.0
  0
LINE
  5
453
  8
_____1
 62
     1
 10
15.74414147910511
 20
266.9985558768199
 30
0.0
 11
15.12195007646187
 21
267.0462818923629
 31
0.0
  0
LINE
  5
454
  8
_____1
 62
     1
 10
16.8932670533668
 20
266.4240904897192
 30
0.0
 11
15.74414147910511
 21
266.9985558768199
 31
0.0
  0
LINE
  5
455
  8
_____1
 62
     1
 10
17.32396999364528
 20
265.9931927493781
 30
0.0
 11
16.8932670533668
 21
266.4240904897192
 31
0.0
  0
LINE
  5
456
  8
_____1
 62
     1
 10
17.65922090283402
 20
265.4664533778227
 30
0.0
 11
17.32396999364528
 21
265.9931927493781
 31
0.0
  0
LINE
  5
457
  8
_____1
 62
     1
 10
17.85070936520106
 20
264.8440671751168
 30
0.0
 11
17.65922090283402
 21
265.4664533778227
 31
0.0
  0
LINE
  5
458
  8
_____1
 62
     1
 10
17.94635619635119
 20
264.2218757724731
 30
0.0
 11
17.85070936520106
 21
264.8440671751168
 31
0.0
  0
LINE
  5
459
  8
_____1
 62
     1
 10
14.49956387375369
 20
266.9506350612105
 30
0.0
 11
13.92509848665304
 21
266.7591465988457
 31
0.0
  0
LINE
  5
45A
  8
_____1
 62
     1
 10
15.12195007646187
 20
267.0462818923629
 30
0.0
 11
14.49956387375369
 21
266.9506350612105
 31
0.0
  0
LINE
  5
45B
  8
_____1
 62
     1
 10
15.74414147910511
 20
266.9506350612105
 30
0.0
 11
15.12195007646187
 21
267.0462818923629
 31
0.0
  0
LINE
  5
45C
  8
_____1
 62
     1
 10
16.31880166626797
 20
266.7591465988457
 30
0.0
 11
15.74414147910511
 21
266.9506350612105
 31
0.0
  0
LINE
  5
45D
  8
_____1
 62
     1
 10
16.8932670533668
 20
266.4240904897192
 30
0.0
 11
16.31880166626797
 21
266.7591465988457
 31
0.0
  0
LINE
  5
45E
  8
_____1
 62
     1
 10
23.40406957389405
 20
266.7591465988457
 30
0.0
 11
23.45199038950113
 21
267.2377703547295
 31
0.0
  0
LINE
  5
45F
  8
_____1
 62
     1
 10
23.16466029591993
 20
266.3282488585046
 30
0.0
 11
23.40406957389405
 21
266.7591465988457
 31
0.0
  0
LINE
  5
460
  8
_____1
 62
     1
 10
22.8296041867934
 20
265.9931927493781
 30
0.0
 11
23.16466029591993
 21
266.3282488585046
 31
0.0
  0
LINE
  5
461
  8
_____1
 62
     1
 10
22.39870644645271
 20
265.801704287011
 30
0.0
 11
22.8296041867934
 21
265.9931927493781
 31
0.0
  0
LINE
  5
462
  8
_____1
 62
     1
 10
21.96780870611337
 20
265.7058626557969
 30
0.0
 11
22.39870644645271
 21
265.801704287011
 31
0.0
  0
LINE
  5
463
  8
_____1
 62
     1
 10
21.48918495022735
 20
265.801704287011
 30
0.0
 11
21.96780870611337
 21
265.7058626557969
 31
0.0
  0
LINE
  5
464
  8
_____1
 62
     1
 10
21.05828720988666
 20
265.9931927493781
 30
0.0
 11
21.48918495022735
 21
265.801704287011
 31
0.0
  0
LINE
  5
465
  8
_____1
 62
     1
 10
20.72303630069791
 20
266.3282488585046
 30
0.0
 11
21.05828720988666
 21
265.9931927493781
 31
0.0
  0
LINE
  5
466
  8
_____1
 62
     1
 10
20.53154783833088
 20
266.7591465988457
 30
0.0
 11
20.72303630069791
 21
266.3282488585046
 31
0.0
  0
LINE
  5
467
  8
_____1
 62
     1
 10
20.43590100718075
 20
267.2377703547295
 30
0.0
 11
20.53154783833088
 21
266.7591465988457
 31
0.0
  0
LINE
  5
468
  8
_____1
 62
     1
 10
20.53154783833088
 20
267.6686680950706
 30
0.0
 11
20.43590100718075
 21
267.2377703547295
 31
0.0
  0
LINE
  5
469
  8
_____1
 62
     1
 10
20.72303630069791
 20
268.0995658354113
 30
0.0
 11
20.53154783833088
 21
267.6686680950706
 31
0.0
  0
LINE
  5
46A
  8
_____1
 62
     1
 10
21.05828720988666
 20
268.434621944536
 30
0.0
 11
20.72303630069791
 21
268.0995658354113
 31
0.0
  0
LINE
  5
46B
  8
_____1
 62
     1
 10
21.48918495022735
 20
268.6261104069031
 30
0.0
 11
21.05828720988666
 21
268.434621944536
 31
0.0
  0
LINE
  5
46C
  8
_____1
 62
     1
 10
21.96780870611337
 20
268.7219520381173
 30
0.0
 11
21.48918495022735
 21
268.6261104069031
 31
0.0
  0
LINE
  5
46D
  8
_____1
 62
     1
 10
22.39870644645271
 20
268.6261104069031
 30
0.0
 11
21.96780870611337
 21
268.7219520381173
 31
0.0
  0
LINE
  5
46E
  8
_____1
 62
     1
 10
22.8296041867934
 20
268.434621944536
 30
0.0
 11
22.39870644645271
 21
268.6261104069031
 31
0.0
  0
LINE
  5
46F
  8
_____1
 62
     1
 10
23.16466029591993
 20
268.0995658354113
 30
0.0
 11
22.8296041867934
 21
268.434621944536
 31
0.0
  0
LINE
  5
470
  8
_____1
 62
     1
 10
23.40406957389405
 20
267.6686680950706
 30
0.0
 11
23.16466029591993
 21
268.0995658354113
 31
0.0
  0
LINE
  5
471
  8
_____1
 62
     1
 10
23.45199038950113
 20
267.2377703547295
 30
0.0
 11
23.40406957389405
 21
267.6686680950706
 31
0.0
  0
LINE
  5
472
  8
_____1
 62
     1
 10
23.26050192713456
 20
266.8070674144528
 30
0.0
 11
23.35614875828696
 21
267.2377703547295
 31
0.0
  0
LINE
  5
473
  8
_____1
 62
     1
 10
23.06901346476752
 20
266.3761696741117
 30
0.0
 11
23.26050192713456
 21
266.8070674144528
 31
0.0
  0
LINE
  5
474
  8
_____1
 62
     1
 10
22.78168337118632
 20
266.0888395805305
 30
0.0
 11
23.06901346476752
 21
266.3761696741117
 31
0.0
  0
LINE
  5
475
  8
_____1
 62
     1
 10
22.39870644645271
 20
265.8973511181634
 30
0.0
 11
22.78168337118632
 21
266.0888395805305
 31
0.0
  0
LINE
  5
476
  8
_____1
 62
     1
 10
21.96780870611337
 20
265.801704287011
 30
0.0
 11
22.39870644645271
 21
265.8973511181634
 31
0.0
  0
LINE
  5
477
  8
_____1
 62
     1
 10
21.53691096577268
 20
265.8973511181634
 30
0.0
 11
21.96780870611337
 21
265.801704287011
 31
0.0
  0
LINE
  5
478
  8
_____1
 62
     1
 10
21.10620802549556
 20
266.0888395805305
 30
0.0
 11
21.53691096577268
 21
265.8973511181634
 31
0.0
  0
LINE
  5
479
  8
_____1
 62
     1
 10
20.81887793191254
 20
266.3761696741117
 30
0.0
 11
21.10620802549556
 21
266.0888395805305
 31
0.0
  0
LINE
  5
47A
  8
_____1
 62
     1
 10
20.62738946954732
 20
266.8070674144528
 30
0.0
 11
20.81887793191254
 21
266.3761696741117
 31
0.0
  0
LINE
  5
47B
  8
_____1
 62
     1
 10
20.53154783833088
 20
267.2377703547295
 30
0.0
 11
20.62738946954732
 21
266.8070674144528
 31
0.0
  0
LINE
  5
47C
  8
_____1
 62
     1
 10
20.62738946954732
 20
267.6686680950706
 30
0.0
 11
20.53154783833088
 21
267.2377703547295
 31
0.0
  0
LINE
  5
47D
  8
_____1
 62
     1
 10
20.81887793191254
 20
268.0516450198024
 30
0.0
 11
20.62738946954732
 21
267.6686680950706
 31
0.0
  0
LINE
  5
47E
  8
_____1
 62
     1
 10
21.10620802549556
 20
268.3389751133836
 30
0.0
 11
20.81887793191254
 21
268.0516450198024
 31
0.0
  0
LINE
  5
47F
  8
_____1
 62
     1
 10
21.53691096577268
 20
268.5304635757507
 30
0.0
 11
21.10620802549556
 21
268.3389751133836
 31
0.0
  0
LINE
  5
480
  8
_____1
 62
     1
 10
21.96780870611337
 20
268.6261104069031
 30
0.0
 11
21.53691096577268
 21
268.5304635757507
 31
0.0
  0
LINE
  5
481
  8
_____1
 62
     1
 10
22.39870644645271
 20
268.5304635757507
 30
0.0
 11
21.96780870611337
 21
268.6261104069031
 31
0.0
  0
LINE
  5
482
  8
_____1
 62
     1
 10
22.78168337118632
 20
268.3389751133836
 30
0.0
 11
22.39870644645271
 21
268.5304635757507
 31
0.0
  0
LINE
  5
483
  8
_____1
 62
     1
 10
23.06901346476752
 20
268.0516450198024
 30
0.0
 11
22.78168337118632
 21
268.3389751133836
 31
0.0
  0
LINE
  5
484
  8
_____1
 62
     1
 10
23.26050192713456
 20
267.6686680950706
 30
0.0
 11
23.06901346476752
 21
268.0516450198024
 31
0.0
  0
LINE
  5
485
  8
_____1
 62
     1
 10
23.35614875828696
 20
267.2377703547295
 30
0.0
 11
23.26050192713456
 21
267.6686680950706
 31
0.0
  0
LINE
  5
486
  8
_____1
 62
     1
 10
16.41444849741856
 20
270.1102920902908
 30
0.0
 11
16.46236931302565
 21
270.5411898306315
 31
0.0
  0
LINE
  5
487
  8
_____1
 62
     1
 10
16.22296003505335
 20
269.7752359811661
 30
0.0
 11
16.41444849741856
 21
270.1102920902908
 31
0.0
  0
LINE
  5
488
  8
_____1
 62
     1
 10
15.88790392592728
 20
269.4879058875849
 30
0.0
 11
16.22296003505335
 21
269.7752359811661
 31
0.0
  0
LINE
  5
489
  8
_____1
 62
     1
 10
15.55265301673853
 20
269.2964174252179
 30
0.0
 11
15.88790392592728
 21
269.4879058875849
 31
0.0
  0
LINE
  5
48A
  8
_____1
 62
     1
 10
15.12195007646187
 20
269.2007705940655
 30
0.0
 11
15.55265301673853
 21
269.2964174252179
 31
0.0
  0
LINE
  5
48B
  8
_____1
 62
     1
 10
14.69105233612072
 20
269.2964174252179
 30
0.0
 11
15.12195007646187
 21
269.2007705940655
 31
0.0
  0
LINE
  5
48C
  8
_____1
 62
     1
 10
14.35580142693198
 20
269.4879058875849
 30
0.0
 11
14.69105233612072
 21
269.2964174252179
 31
0.0
  0
LINE
  5
48D
  8
_____1
 62
     1
 10
14.06866613341299
 20
269.7752359811661
 30
0.0
 11
14.35580142693198
 21
269.4879058875849
 31
0.0
  0
LINE
  5
48E
  8
_____1
 62
     1
 10
13.87717767104596
 20
270.1102920902908
 30
0.0
 11
14.06866613341299
 21
269.7752359811661
 31
0.0
  0
LINE
  5
48F
  8
_____1
 62
     1
 10
13.78133603983133
 20
270.5411898306315
 30
0.0
 11
13.87717767104596
 21
270.1102920902908
 31
0.0
  0
LINE
  5
490
  8
_____1
 62
     1
 10
13.87717767104596
 20
270.9720875709727
 30
0.0
 11
13.78133603983133
 21
270.5411898306315
 31
0.0
  0
LINE
  5
491
  8
_____1
 62
     1
 10
14.35580142693198
 20
271.6421997892235
 30
0.0
 11
13.87717767104596
 21
270.9720875709727
 31
0.0
  0
LINE
  5
492
  8
_____1
 62
     1
 10
15.12195007646187
 20
271.8816090671976
 30
0.0
 11
14.35580142693198
 21
271.6421997892235
 31
0.0
  0
LINE
  5
493
  8
_____1
 62
     1
 10
15.88790392592728
 20
271.6421997892235
 30
0.0
 11
15.12195007646187
 21
271.8816090671976
 31
0.0
  0
LINE
  5
494
  8
_____1
 62
     1
 10
16.22296003505335
 20
271.3071436800969
 30
0.0
 11
15.88790392592728
 21
271.6421997892235
 31
0.0
  0
LINE
  5
495
  8
_____1
 62
     1
 10
16.41444849741856
 20
270.9720875709727
 30
0.0
 11
16.22296003505335
 21
271.3071436800969
 31
0.0
  0
LINE
  5
496
  8
_____1
 62
     1
 10
16.46236931302565
 20
270.5411898306315
 30
0.0
 11
16.41444849741856
 21
270.9720875709727
 31
0.0
  0
LINE
  5
497
  8
_____1
 62
     1
 10
16.27088085066089
 20
270.0623712746833
 30
0.0
 11
16.36652768181102
 21
270.5411898306315
 31
0.0
  0
LINE
  5
498
  8
_____1
 62
     1
 10
15.98355075707923
 20
269.6793943499497
 30
0.0
 11
16.27088085066089
 21
270.0623712746833
 31
0.0
  0
LINE
  5
499
  8
_____1
 62
     1
 10
15.60057383234562
 20
269.3922590564325
 30
0.0
 11
15.98355075707923
 21
269.6793943499497
 31
0.0
  0
LINE
  5
49A
  8
_____1
 62
     1
 10
15.12195007646187
 20
269.2964174252179
 30
0.0
 11
15.60057383234562
 21
269.3922590564325
 31
0.0
  0
LINE
  5
49B
  8
_____1
 62
     1
 10
14.64313152051363
 20
269.3922590564325
 30
0.0
 11
15.12195007646187
 21
269.2964174252179
 31
0.0
  0
LINE
  5
49C
  8
_____1
 62
     1
 10
14.26015459577957
 20
269.6793943499497
 30
0.0
 11
14.64313152051363
 21
269.3922590564325
 31
0.0
  0
LINE
  5
49D
  8
_____1
 62
     1
 10
13.97282450219836
 20
270.0623712746833
 30
0.0
 11
14.26015459577957
 21
269.6793943499497
 31
0.0
  0
LINE
  5
49E
  8
_____1
 62
     1
 10
13.87717767104596
 20
270.5411898306315
 30
0.0
 11
13.97282450219836
 21
270.0623712746833
 31
0.0
  0
LINE
  5
49F
  8
_____1
 62
     1
 10
13.97282450219836
 20
271.0198135865157
 30
0.0
 11
13.87717767104596
 21
270.5411898306315
 31
0.0
  0
LINE
  5
4A0
  8
_____1
 62
     1
 10
14.26015459577957
 20
271.4027905112493
 30
0.0
 11
13.97282450219836
 21
271.0198135865157
 31
0.0
  0
LINE
  5
4A1
  8
_____1
 62
     1
 10
14.64313152051363
 20
271.690120604831
 30
0.0
 11
14.26015459577957
 21
271.4027905112493
 31
0.0
  0
LINE
  5
4A2
  8
_____1
 62
     1
 10
15.12195007646187
 20
271.7859622360452
 30
0.0
 11
14.64313152051363
 21
271.690120604831
 31
0.0
  0
LINE
  5
4A3
  8
_____1
 62
     1
 10
15.60057383234562
 20
271.690120604831
 30
0.0
 11
15.12195007646187
 21
271.7859622360452
 31
0.0
  0
LINE
  5
4A4
  8
_____1
 62
     1
 10
15.98355075707923
 20
271.4027905112493
 30
0.0
 11
15.60057383234562
 21
271.690120604831
 31
0.0
  0
LINE
  5
4A5
  8
_____1
 62
     1
 10
16.27088085066089
 20
271.0198135865157
 30
0.0
 11
15.98355075707923
 21
271.4027905112493
 31
0.0
  0
LINE
  5
4A6
  8
_____1
 62
     1
 10
16.36652768181102
 20
270.5411898306315
 30
0.0
 11
16.27088085066089
 21
271.0198135865157
 31
0.0
  0
LINE
  5
4A7
  8
_____1
 62
     1
 10
22.92525101794581
 20
266.8070674144528
 30
0.0
 11
23.02109264916044
 21
267.2377703547295
 31
0.0
  0
LINE
  5
4A8
  8
_____1
 62
     1
 10
22.68603654003391
 20
266.4718165052641
 30
0.0
 11
22.92525101794581
 21
266.8070674144528
 31
0.0
  0
LINE
  5
4A9
  8
_____1
 62
     1
 10
22.35078563084517
 20
266.23240722729
 30
0.0
 11
22.68603654003391
 21
266.4718165052641
 31
0.0
  0
LINE
  5
4AA
  8
_____1
 62
     1
 10
21.96780870611337
 20
266.1367603961376
 30
0.0
 11
22.35078563084517
 21
266.23240722729
 31
0.0
  0
LINE
  5
4AB
  8
_____1
 62
     1
 10
21.53691096577268
 20
266.23240722729
 30
0.0
 11
21.96780870611337
 21
266.1367603961376
 31
0.0
  0
LINE
  5
4AC
  8
_____1
 62
     1
 10
21.20185485664615
 20
266.4718165052641
 30
0.0
 11
21.53691096577268
 21
266.23240722729
 31
0.0
  0
LINE
  5
4AD
  8
_____1
 62
     1
 10
20.96244557867203
 20
266.8070674144528
 30
0.0
 11
21.20185485664615
 21
266.4718165052641
 31
0.0
  0
LINE
  5
4AE
  8
_____1
 62
     1
 10
20.91452476306495
 20
267.2377703547295
 30
0.0
 11
20.96244557867203
 21
266.8070674144528
 31
0.0
  0
LINE
  5
4AF
  8
_____1
 62
     1
 10
20.96244557867203
 20
267.6209420795253
 30
0.0
 11
20.91452476306495
 21
267.2377703547295
 31
0.0
  0
LINE
  5
4B0
  8
_____1
 62
     1
 10
21.20185485664615
 20
267.9559981886518
 30
0.0
 11
20.96244557867203
 21
267.6209420795253
 31
0.0
  0
LINE
  5
4B1
  8
_____1
 62
     1
 10
21.53691096577268
 20
268.195407466626
 30
0.0
 11
21.20185485664615
 21
267.9559981886518
 31
0.0
  0
LINE
  5
4B2
  8
_____1
 62
     1
 10
21.96780870611337
 20
268.2910542977766
 30
0.0
 11
21.53691096577268
 21
268.195407466626
 31
0.0
  0
LINE
  5
4B3
  8
_____1
 62
     1
 10
22.35078563084517
 20
268.195407466626
 30
0.0
 11
21.96780870611337
 21
268.2910542977766
 31
0.0
  0
LINE
  5
4B4
  8
_____1
 62
     1
 10
22.68603654003391
 20
267.9559981886518
 30
0.0
 11
22.35078563084517
 21
268.195407466626
 31
0.0
  0
LINE
  5
4B5
  8
_____1
 62
     1
 10
22.92525101794581
 20
267.6209420795253
 30
0.0
 11
22.68603654003391
 21
267.9559981886518
 31
0.0
  0
LINE
  5
4B6
  8
_____1
 62
     1
 10
23.02109264916044
 20
267.2377703547295
 30
0.0
 11
22.92525101794581
 21
267.6209420795253
 31
0.0
  0
LINE
  5
4B7
  8
_____1
 62
     1
 10
21.96780870611337
 20
266.1846812117451
 30
0.0
 11
22.35078563084517
 21
266.23240722729
 31
0.0
  0
LINE
  5
4B8
  8
_____1
 62
     1
 10
21.53691096577268
 20
266.23240722729
 30
0.0
 11
21.96780870611337
 21
266.1846812117451
 31
0.0
  0
LINE
  5
4B9
  8
_____1
 62
     1
 10
22.78168337118632
 20
266.902714245603
 30
0.0
 11
22.8296041867934
 21
267.2377703547295
 31
0.0
  0
LINE
  5
4BA
  8
_____1
 62
     1
 10
22.59019490881929
 20
266.6153841520218
 30
0.0
 11
22.78168337118632
 21
266.902714245603
 31
0.0
  0
LINE
  5
4BB
  8
_____1
 62
     1
 10
22.30305961530212
 20
266.4240904897192
 30
0.0
 11
22.59019490881929
 21
266.6153841520218
 31
0.0
  0
LINE
  5
4BC
  8
_____1
 62
     1
 10
21.96780870611337
 20
266.3282488585046
 30
0.0
 11
22.30305961530212
 21
266.4240904897192
 31
0.0
  0
LINE
  5
4BD
  8
_____1
 62
     1
 10
21.6327525969873
 20
266.4240904897192
 30
0.0
 11
21.96780870611337
 21
266.3282488585046
 31
0.0
  0
LINE
  5
4BE
  8
_____1
 62
     1
 10
21.34542250340564
 20
266.6153841520218
 30
0.0
 11
21.6327525969873
 21
266.4240904897192
 31
0.0
  0
LINE
  5
4BF
  8
_____1
 62
     1
 10
21.15393404103907
 20
266.902714245603
 30
0.0
 11
21.34542250340564
 21
266.6153841520218
 31
0.0
  0
LINE
  5
4C0
  8
_____1
 62
     1
 10
21.05828720988666
 20
267.2377703547295
 30
0.0
 11
21.15393404103907
 21
266.902714245603
 31
0.0
  0
LINE
  5
4C1
  8
_____1
 62
     1
 10
21.15393404103907
 20
267.5730212639182
 30
0.0
 11
21.05828720988666
 21
267.2377703547295
 31
0.0
  0
LINE
  5
4C2
  8
_____1
 62
     1
 10
21.34542250340564
 20
267.8601565574372
 30
0.0
 11
21.15393404103907
 21
267.5730212639182
 31
0.0
  0
LINE
  5
4C3
  8
_____1
 62
     1
 10
21.96780870611337
 20
268.0995658354113
 30
0.0
 11
21.34542250340564
 21
267.8601565574372
 31
0.0
  0
LINE
  5
4C4
  8
_____1
 62
     1
 10
22.59019490881929
 20
267.8601565574372
 30
0.0
 11
21.96780870611337
 21
268.0995658354113
 31
0.0
  0
LINE
  5
4C5
  8
_____1
 62
     1
 10
22.78168337118632
 20
267.5730212639182
 30
0.0
 11
22.59019490881929
 21
267.8601565574372
 31
0.0
  0
LINE
  5
4C6
  8
_____1
 62
     1
 10
22.8296041867934
 20
267.2377703547295
 30
0.0
 11
22.78168337118632
 21
267.5730212639182
 31
0.0
  0
LINE
  5
4C7
  8
_____1
 62
     1
 10
15.83998311031974
 20
270.2538597370503
 30
0.0
 11
15.88790392592728
 21
270.5411898306315
 31
0.0
  0
LINE
  5
4C8
  8
_____1
 62
     1
 10
15.69641546356024
 20
270.0146452591403
 30
0.0
 11
15.83998311031974
 21
270.2538597370503
 31
0.0
  0
LINE
  5
4C9
  8
_____1
 62
     1
 10
15.40908536997904
 20
269.8229619967092
 30
0.0
 11
15.69641546356024
 21
270.0146452591403
 31
0.0
  0
LINE
  5
4CA
  8
_____1
 62
     1
 10
15.12195007646187
 20
269.7752359811661
 30
0.0
 11
15.40908536997904
 21
269.8229619967092
 31
0.0
  0
LINE
  5
4CB
  8
_____1
 62
     1
 10
14.83461998288021
 20
269.8229619967092
 30
0.0
 11
15.12195007646187
 21
269.7752359811661
 31
0.0
  0
LINE
  5
4CC
  8
_____1
 62
     1
 10
14.40372224253952
 20
270.2538597370503
 30
0.0
 11
14.83461998288021
 21
269.8229619967092
 31
0.0
  0
LINE
  5
4CD
  8
_____1
 62
     1
 10
14.35580142693198
 20
270.5411898306315
 30
0.0
 11
14.40372224253952
 21
270.2538597370503
 31
0.0
  0
LINE
  5
4CE
  8
_____1
 62
     1
 10
14.40372224253952
 20
270.8283251241487
 30
0.0
 11
14.35580142693198
 21
270.5411898306315
 31
0.0
  0
LINE
  5
4CF
  8
_____1
 62
     1
 10
14.59521070490609
 20
271.1156552177322
 30
0.0
 11
14.40372224253952
 21
270.8283251241487
 31
0.0
  0
LINE
  5
4D0
  8
_____1
 62
     1
 10
14.83461998288021
 20
271.2592228644899
 30
0.0
 11
14.59521070490609
 21
271.1156552177322
 31
0.0
  0
LINE
  5
4D1
  8
_____1
 62
     1
 10
15.12195007646187
 20
271.3071436800969
 30
0.0
 11
14.83461998288021
 21
271.2592228644899
 31
0.0
  0
LINE
  5
4D2
  8
_____1
 62
     1
 10
15.40908536997904
 20
271.2592228644899
 30
0.0
 11
15.12195007646187
 21
271.3071436800969
 31
0.0
  0
LINE
  5
4D3
  8
_____1
 62
     1
 10
15.69641546356024
 20
271.1156552177322
 30
0.0
 11
15.40908536997904
 21
271.2592228644899
 31
0.0
  0
LINE
  5
4D4
  8
_____1
 62
     1
 10
15.83998311031974
 20
270.8283251241487
 30
0.0
 11
15.69641546356024
 21
271.1156552177322
 31
0.0
  0
LINE
  5
4D5
  8
_____1
 62
     1
 10
15.88790392592728
 20
270.5411898306315
 30
0.0
 11
15.83998311031974
 21
270.8283251241487
 31
0.0
  0
LINE
  5
4D6
  8
_____1
 62
     1
 10
15.40908536997904
 20
269.8229619967092
 30
0.0
 11
15.83998311031974
 21
270.2538597370503
 31
0.0
  0
LINE
  5
4D7
  8
_____1
 62
     1
 10
14.59521070490609
 20
271.0677344021228
 30
0.0
 11
14.40372224253952
 21
270.8283251241487
 31
0.0
  0
LINE
  5
4D8
  8
_____1
 62
     1
 10
14.83461998288021
 20
271.2592228644899
 30
0.0
 11
14.59521070490609
 21
271.0677344021228
 31
0.0
  0
LINE
  5
4D9
  8
_____1
 62
     1
 10
15.64849464795316
 20
271.0677344021228
 30
0.0
 11
15.40908536997904
 21
271.2592228644899
 31
0.0
  0
LINE
  5
4DA
  8
_____1
 62
     1
 10
15.83998311031974
 20
270.8283251241487
 30
0.0
 11
15.64849464795316
 21
271.0677344021228
 31
0.0
  0
LINE
  5
4DB
  8
_____1
 62
     1
 10
14.54728988929901
 20
270.2538597370503
 30
0.0
 11
14.73877835166377
 21
270.0146452591403
 31
0.0
  0
LINE
  5
4DC
  8
_____1
 62
     1
 10
14.4516430581466
 20
270.5891106462391
 30
0.0
 11
14.54728988929901
 21
270.2538597370503
 31
0.0
  0
LINE
  5
4DD
  8
_____1
 62
     1
 10
14.54728988929901
 20
270.8762459397581
 30
0.0
 11
14.4516430581466
 21
270.5891106462391
 31
0.0
  0
LINE
  5
4DE
  8
_____1
 62
     1
 10
14.78669916727085
 20
271.1156552177322
 30
0.0
 11
14.54728988929901
 21
270.8762459397581
 31
0.0
  0
LINE
  5
4DF
  8
_____1
 62
     1
 10
15.12195007646187
 20
271.2114968489468
 30
0.0
 11
14.78669916727085
 21
271.1156552177322
 31
0.0
  0
LINE
  5
4E0
  8
_____1
 62
     1
 10
15.45700618558612
 20
271.1156552177322
 30
0.0
 11
15.12195007646187
 21
271.2114968489468
 31
0.0
  0
LINE
  5
4E1
  8
_____1
 62
     1
 10
15.69641546356024
 20
270.8762459397581
 30
0.0
 11
15.45700618558612
 21
271.1156552177322
 31
0.0
  0
LINE
  5
4E2
  8
_____1
 62
     1
 10
15.79206229471265
 20
270.5891106462391
 30
0.0
 11
15.69641546356024
 21
270.8762459397581
 31
0.0
  0
LINE
  5
4E3
  8
_____1
 62
     1
 10
15.74414147910511
 20
270.2538597370503
 30
0.0
 11
15.79206229471265
 21
270.5891106462391
 31
0.0
  0
LINE
  5
4E4
  8
_____1
 62
     1
 10
15.50492700119321
 20
270.0146452591403
 30
0.0
 11
15.74414147910511
 21
270.2538597370503
 31
0.0
  0
LINE
  5
4E5
  8
_____1
 62
     1
 10
15.60057383234562
 20
270.2538597370503
 30
0.0
 11
15.64849464795316
 21
270.5411898306315
 31
0.0
  0
LINE
  5
4E6
  8
_____1
 62
     1
 10
15.40908536997904
 20
270.0623712746833
 30
0.0
 11
15.60057383234562
 21
270.2538597370503
 31
0.0
  0
LINE
  5
4E7
  8
_____1
 62
     1
 10
15.12195007646187
 20
270.0146452591403
 30
0.0
 11
15.40908536997904
 21
270.0623712746833
 31
0.0
  0
LINE
  5
4E8
  8
_____1
 62
     1
 10
14.83461998288021
 20
270.0623712746833
 30
0.0
 11
15.12195007646187
 21
270.0146452591403
 31
0.0
  0
LINE
  5
4E9
  8
_____1
 62
     1
 10
14.64313152051363
 20
270.2538597370503
 30
0.0
 11
14.83461998288021
 21
270.0623712746833
 31
0.0
  0
LINE
  5
4EA
  8
_____1
 62
     1
 10
14.59521070490609
 20
270.5411898306315
 30
0.0
 11
14.64313152051363
 21
270.2538597370503
 31
0.0
  0
LINE
  5
4EB
  8
_____1
 62
     1
 10
14.64313152051363
 20
270.8283251241487
 30
0.0
 11
14.59521070490609
 21
270.5411898306315
 31
0.0
  0
LINE
  5
4EC
  8
_____1
 62
     1
 10
14.83461998288021
 20
271.0198135865157
 30
0.0
 11
14.64313152051363
 21
270.8283251241487
 31
0.0
  0
LINE
  5
4ED
  8
_____1
 62
     1
 10
15.12195007646187
 20
271.0677344021228
 30
0.0
 11
14.83461998288021
 21
271.0198135865157
 31
0.0
  0
LINE
  5
4EE
  8
_____1
 62
     1
 10
15.40908536997904
 20
271.0198135865157
 30
0.0
 11
15.12195007646187
 21
271.0677344021228
 31
0.0
  0
LINE
  5
4EF
  8
_____1
 62
     1
 10
15.60057383234562
 20
270.8283251241487
 30
0.0
 11
15.40908536997904
 21
271.0198135865157
 31
0.0
  0
LINE
  5
4F0
  8
_____1
 62
     1
 10
15.64849464795316
 20
270.5411898306315
 30
0.0
 11
15.60057383234562
 21
270.8283251241487
 31
0.0
  0
LINE
  5
4F1
  8
_____1
 62
     1
 10
22.11137635287105
 20
267.0462818923629
 30
0.0
 11
22.20721798408567
 21
267.2377703547295
 31
0.0
  0
LINE
  5
4F2
  8
_____1
 62
     1
 10
21.96780870611337
 20
266.9506350612105
 30
0.0
 11
22.11137635287105
 21
267.0462818923629
 31
0.0
  0
LINE
  5
4F3
  8
_____1
 62
     1
 10
21.7763202437468
 20
267.0462818923629
 30
0.0
 11
21.96780870611337
 21
266.9506350612105
 31
0.0
  0
LINE
  5
4F4
  8
_____1
 62
     1
 10
21.72839942813926
 20
267.2377703547295
 30
0.0
 11
21.7763202437468
 21
267.0462818923629
 31
0.0
  0
LINE
  5
4F5
  8
_____1
 62
     1
 10
21.7763202437468
 20
267.3815328015512
 30
0.0
 11
21.72839942813926
 21
267.2377703547295
 31
0.0
  0
LINE
  5
4F6
  8
_____1
 62
     1
 10
21.96780870611337
 20
267.4771796327036
 30
0.0
 11
21.7763202437468
 21
267.3815328015512
 31
0.0
  0
LINE
  5
4F7
  8
_____1
 62
     1
 10
22.20721798408567
 20
267.2377703547295
 30
0.0
 11
21.96780870611337
 21
267.4771796327036
 31
0.0
  0
LINE
  5
4F8
  8
_____1
 62
     1
 10
34.51078999128049
 20
266.7112257832382
 30
0.0
 11
34.41514316012808
 21
266.7112257832382
 31
0.0
  0
LINE
  5
4F9
  8
_____1
 62
     1
 10
34.41514316012808
 20
266.7112257832382
 30
0.0
 11
33.64918931066268
 21
266.5676581364787
 31
0.0
  0
LINE
  5
4FA
  8
_____1
 62
     1
 10
33.64918931066268
 20
266.5676581364787
 30
0.0
 11
33.55334767944805
 21
266.5197373208716
 31
0.0
  0
LINE
  5
4FB
  8
_____1
 62
     1
 10
34.03216623539629
 20
266.6633049676288
 30
0.0
 11
33.64918931066268
 21
266.5197373208716
 31
0.0
  0
LINE
  5
4FC
  8
_____1
 62
     1
 10
34.41514316012808
 20
266.7112257832382
 30
0.0
 11
34.03216623539629
 21
266.6633049676288
 31
0.0
  0
LINE
  5
4FD
  8
_____1
 62
     1
 10
31.87787233375548
 20
261.2057863901505
 30
0.0
 11
33.55334767944805
 21
260.5356741718997
 31
0.0
  0
LINE
  5
4FE
  8
_____1
 62
     1
 10
31.87787233375548
 20
261.2537072057598
 30
0.0
 11
33.55334767944805
 21
260.5832053873805
 31
0.0
  0
LINE
  5
4FF
  8
_____1
 62
     1
 10
20.06280013300739
 20
336.3490674396166
 30
0.0
 11
20.11072094861493
 21
336.4449090708308
 31
0.0
  0
LINE
  5
500
  8
_____1
 62
     1
 10
20.35013022658904
 20
336.6841235487409
 30
0.0
 11
20.39785624213209
 21
336.732044364348
 31
0.0
  0
LINE
  5
501
  8
_____1
 62
     1
 10
20.49369787334854
 20
336.732044364348
 30
0.0
 11
20.39785624213209
 21
336.6841235487409
 31
0.0
  0
LINE
  5
502
  8
_____1
 62
     1
 10
20.15864176422201
 20
336.4449090708308
 30
0.0
 11
20.11072094861493
 21
336.3490674396166
 31
0.0
  0
LINE
  5
503
  8
_____1
 62
     1
 10
1.056742342858342
 20
292.3049678947391
 30
0.0
 11
1.00901632731302
 21
292.1614002479791
 31
0.0
  0
LINE
  5
504
  8
_____1
 62
     1
 10
1.200504789680053
 20
292.3528887103462
 30
0.0
 11
1.056742342858342
 21
292.3049678947391
 31
0.0
  0
LINE
  5
505
  8
_____1
 62
     1
 10
29.30255674233649
 20
292.3049678947391
 30
0.0
 11
29.15879429551478
 21
292.3528887103462
 31
0.0
  0
LINE
  5
506
  8
_____1
 62
     1
 10
29.35028275787954
 20
292.1614002479791
 30
0.0
 11
29.30255674233649
 21
292.3049678947391
 31
0.0
  0
LINE
  5
507
  8
_____1
 62
     1
 10
1.00901632731302
 20
292.1614002479791
 30
0.0
 11
1.056742342858342
 21
292.1614002479791
 31
0.0
  0
LINE
  5
508
  8
_____1
 62
     1
 10
29.35028275787954
 20
292.1614002479791
 30
0.0
 11
29.39820357348663
 21
292.1614002479791
 31
0.0
  0
LINE
  5
509
  8
_____1
 62
     1
 10
20.58934470449867
 20
299.821133542704
 30
0.0
 11
21.49906100078806
 21
299.5817242647299
 31
0.0
  0
LINE
  5
50A
  8
_____1
 62
     1
 10
19.63190239266669
 20
299.8690543583111
 30
0.0
 11
20.58934470449867
 21
299.821133542704
 31
0.0
  0
LINE
  5
50B
  8
_____1
 62
     1
 10
9.769954380693889
 20
299.821133542704
 30
0.0
 11
10.72739669252633
 21
299.8690543583111
 31
0.0
  0
LINE
  5
50C
  8
_____1
 62
     1
 10
8.860238084406774
 20
299.5817242647299
 30
0.0
 11
9.769954380693889
 21
299.821133542704
 31
0.0
  0
LINE
  5
50D
  8
_____1
 62
     1
 10
8.573102790887333
 20
322.4656669178817
 30
0.0
 11
8.573102790887333
 21
322.6571553802482
 31
0.0
  0
LINE
  5
50E
  8
_____1
 62
     1
 10
15.8019383452729
 20
296.7093973292331
 30
0.0
 11
15.8019383452729
 21
296.9008857915996
 31
0.0
  0
LINE
  5
50F
  8
_____1
 62
     1
 10
6.610102551551336
 20
323.9975746168143
 30
0.0
 11
6.993274276347165
 21
323.9975746168143
 31
0.0
  0
LINE
  5
510
  8
_____1
 62
     1
 10
6.035637164450691
 20
323.8060861544477
 30
0.0
 11
6.610102551551336
 21
323.9975746168143
 31
0.0
  0
LINE
  5
511
  8
_____1
 62
     1
 10
6.035637164450691
 20
323.8060861544477
 30
0.0
 11
6.035637164450691
 21
324.7635284662797
 31
0.0
  0
LINE
  5
512
  8
_____1
 62
     1
 10
23.98841101155313
 20
323.9496538012072
 30
0.0
 11
24.32366192074187
 21
323.8060861544477
 31
0.0
  0
LINE
  5
513
  8
_____1
 62
     1
 10
23.79692254918655
 20
323.9496538012072
 30
0.0
 11
23.98841101155313
 21
323.9496538012072
 31
0.0
  0
LINE
  5
514
  8
_____1
 62
     1
 10
23.79692254918655
 20
323.9975746168143
 30
0.0
 11
23.79692254918655
 21
323.9496538012072
 31
0.0
  0
LINE
  5
515
  8
_____1
 62
     1
 10
23.3660248088454
 20
323.9975746168143
 30
0.0
 11
23.79692254918655
 21
323.9975746168143
 31
0.0
  0
LINE
  5
516
  8
_____1
 62
     1
 10
14.03062136836616
 20
296.6135556980166
 30
0.0
 11
13.98289535282083
 21
296.9008857915996
 31
0.0
  0
LINE
  5
517
  8
_____1
 62
     1
 10
14.27003064634027
 20
296.4220672356514
 30
0.0
 11
14.03062136836616
 21
296.6135556980166
 31
0.0
  0
LINE
  5
518
  8
_____1
 62
     1
 10
14.50943992431439
 20
296.3741464200425
 30
0.0
 11
14.27003064634027
 21
296.4220672356514
 31
0.0
  0
LINE
  5
519
  8
_____1
 62
     1
 10
26.19062572880102
 20
292.6879448194709
 30
0.0
 11
26.14289971325616
 21
292.6879448194709
 31
0.0
  0
LINE
  5
51A
  8
_____1
 62
     1
 10
25.04169495460201
 20
334.1947735379758
 30
0.0
 11
25.13753658581663
 21
334.1947735379758
 31
0.0
  0
LINE
  5
51B
  8
_____1
 62
     1
 10
16.08926843885456
 20
296.4220672356514
 30
0.0
 11
15.84985916088044
 21
296.3741464200425
 31
0.0
  0
LINE
  5
51C
  8
_____1
 62
     1
 10
16.32867771682868
 20
296.6135556980166
 30
0.0
 11
16.08926843885456
 21
296.4220672356514
 31
0.0
  0
LINE
  5
51D
  8
_____1
 62
     1
 10
16.37659853243576
 20
296.9008857915996
 30
0.0
 11
16.32867771682868
 21
296.6135556980166
 31
0.0
  0
LINE
  5
51E
  8
_____1
 62
     1
 10
21.78619629430705
 20
322.4656669178817
 30
0.0
 11
21.78619629430705
 21
322.6571553802482
 31
0.0
  0
LINE
  5
51F
  8
_____1
 62
     1
 10
21.78619629430705
 20
322.6571553802482
 30
0.0
 11
22.21709403464638
 21
322.6571553802482
 31
0.0
  0
LINE
  5
520
  8
_____1
 62
     1
 10
22.21709403464638
 20
322.6571553802482
 30
0.0
 11
22.21709403464638
 21
322.4656669178817
 31
0.0
  0
LINE
  5
521
  8
_____1
 62
     1
 10
26.14289971325616
 20
292.2091262635226
 30
0.0
 11
25.95141125088912
 21
292.1614002479791
 31
0.0
  0
LINE
  5
522
  8
_____1
 62
     1
 10
26.19062572880102
 20
292.1614002479791
 30
0.0
 11
26.14289971325616
 21
292.2091262635226
 31
0.0
  0
LINE
  5
523
  8
_____1
 62
     1
 10
16.42432454797881
 20
298.480714306138
 30
0.0
 11
16.37659853243576
 21
296.9008857915996
 31
0.0
  0
LINE
  5
524
  8
_____1
 62
     1
 10
4.216399371938678
 20
292.6879448194709
 30
0.0
 11
4.168673356393356
 21
292.6879448194709
 31
0.0
  0
LINE
  5
525
  8
_____1
 62
     1
 10
5.269683314985286
 20
334.1947735379758
 30
0.0
 11
5.317604130592827
 21
334.1947735379758
 31
0.0
  0
LINE
  5
526
  8
_____1
 62
     1
 10
8.142205050546636
 20
322.4656669178817
 30
0.0
 11
8.142205050546636
 21
322.6571553802482
 31
0.0
  0
LINE
  5
527
  8
_____1
 62
     1
 10
8.142205050546636
 20
322.6571553802482
 30
0.0
 11
8.573102790887333
 21
322.6571553802482
 31
0.0
  0
LINE
  5
528
  8
_____1
 62
     1
 10
24.80228567662789
 20
323.1357791361324
 30
0.0
 11
24.9460481234496
 21
322.6571553802482
 31
0.0
  0
LINE
  5
529
  8
_____1
 62
     1
 10
24.5151503831089
 20
323.6145976920807
 30
0.0
 11
24.80228567662789
 21
323.1357791361324
 31
0.0
  0
LINE
  5
52A
  8
_____1
 62
     1
 10
24.32366192074187
 20
323.8060861544477
 30
0.0
 11
24.5151503831089
 21
323.6145976920807
 31
0.0
  0
LINE
  5
52B
  8
_____1
 62
     1
 10
24.32366192074187
 20
323.8060861544477
 30
0.0
 11
24.32366192074187
 21
324.7635284662797
 31
0.0
  0
LINE
  5
52C
  8
_____1
 62
     1
 10
24.46722956750136
 20
334.1947735379758
 30
0.0
 11
24.80228567662789
 21
334.1947735379758
 31
0.0
  0
LINE
  5
52D
  8
_____1
 62
     1
 10
24.80228567662789
 20
334.1947735379758
 30
0.0
 11
24.9460481234496
 21
322.6571553802482
 31
0.0
  0
LINE
  5
52E
  8
_____1
 62
     1
 10
5.700581055326438
 20
323.3751884141066
 30
0.0
 11
6.035637164450691
 21
323.8060861544477
 31
0.0
  0
LINE
  5
52F
  8
_____1
 62
     1
 10
5.413250961745234
 20
322.6571553802482
 30
0.0
 11
5.700581055326438
 21
323.3751884141066
 31
0.0
  0
LINE
  5
530
  8
_____1
 62
     1
 10
5.413250961745234
 20
322.6571553802482
 30
0.0
 11
5.557013408566945
 21
334.1947735379758
 31
0.0
  0
LINE
  5
531
  8
_____1
 62
     1
 10
5.557013408566945
 20
334.1947735379758
 30
0.0
 11
5.892069517693471
 21
334.1947735379758
 31
0.0
  0
LINE
  5
532
  8
_____1
 62
     1
 10
5.652660239719353
 20
334.5777504627094
 30
0.0
 11
5.557013408566945
 21
334.1947735379758
 31
0.0
  0
LINE
  5
533
  8
_____1
 62
     1
 10
5.892069517693471
 20
334.8171597406836
 30
0.0
 11
5.652660239719353
 21
334.5777504627094
 31
0.0
  0
LINE
  5
534
  8
_____1
 62
     1
 10
5.413250961745234
 20
334.5777504627094
 30
0.0
 11
5.317604130592827
 21
334.1947735379758
 31
0.0
  0
LINE
  5
535
  8
_____1
 62
     1
 10
5.652660239719353
 20
334.8171597406836
 30
0.0
 11
5.413250961745234
 21
334.5777504627094
 31
0.0
  0
LINE
  5
536
  8
_____1
 62
     1
 10
5.892069517693471
 20
334.8650805562906
 30
0.0
 11
5.652660239719353
 21
334.8171597406836
 31
0.0
  0
LINE
  5
537
  8
_____1
 62
     1
 10
21.83411710991459
 20
298.8157704152645
 30
0.0
 11
21.73847027876218
 21
298.9116120464787
 31
0.0
  0
LINE
  5
538
  8
_____1
 62
     1
 10
8.381614328520754
 20
298.6242819528975
 30
0.0
 11
8.381614328520754
 21
298.480714306138
 31
0.0
  0
LINE
  5
539
  8
_____1
 62
     1
 10
21.97768475667226
 20
298.480714306138
 30
0.0
 11
21.97768475667226
 21
298.6242819528975
 31
0.0
  0
LINE
  5
53A
  8
_____1
 62
     1
 10
8.573102790887333
 20
298.9595328620862
 30
0.0
 11
8.66874962203974
 21
322.4656669178817
 31
0.0
  0
LINE
  5
53B
  8
_____1
 62
     1
 10
21.69054946315509
 20
322.4656669178817
 30
0.0
 11
21.78619629430705
 21
298.959338062024
 31
0.0
  0
LINE
  5
53C
  8
_____1
 62
     1
 10
8.333693512913214
 20
298.6242819528975
 30
0.0
 11
8.237851881699044
 21
298.6242819528975
 31
0.0
  0
LINE
  5
53D
  8
_____1
 62
     1
 10
8.573102790887333
 20
298.9595328620862
 30
0.0
 11
8.333693512913214
 21
298.6242819528975
 31
0.0
  0
LINE
  5
53E
  8
_____1
 62
     1
 10
22.02560557228117
 20
298.6242819528975
 30
0.0
 11
21.78619629430705
 21
298.9595328620862
 31
0.0
  0
LINE
  5
53F
  8
_____1
 62
     1
 10
22.12144720349579
 20
298.6242819528975
 30
0.0
 11
22.02560557228117
 21
298.6242819528975
 31
0.0
  0
LINE
  5
540
  8
_____1
 62
     1
 10
24.99377413899265
 20
334.4819088314948
 30
0.0
 11
25.04169495460201
 21
334.1947735379758
 31
0.0
  0
LINE
  5
541
  8
_____1
 62
     1
 10
24.85020649223497
 20
334.7213181094689
 30
0.0
 11
24.99377413899265
 21
334.4819088314948
 31
0.0
  0
LINE
  5
542
  8
_____1
 62
     1
 10
24.61079721426086
 20
334.8650805562906
 30
0.0
 11
24.85020649223497
 21
334.7213181094689
 31
0.0
  0
LINE
  5
543
  8
_____1
 62
     1
 10
24.46722956750136
 20
334.8650805562906
 30
0.0
 11
24.61079721426086
 21
334.8650805562906
 31
0.0
  0
LINE
  5
544
  8
_____1
 62
     1
 10
24.70663884547548
 20
334.5777504627094
 30
0.0
 11
24.80228567662789
 21
334.1947735379758
 31
0.0
  0
LINE
  5
545
  8
_____1
 62
     1
 10
24.46722956750136
 20
334.8171597406836
 30
0.0
 11
24.70663884547548
 21
334.5777504627094
 31
0.0
  0
LINE
  5
546
  8
_____1
 62
     1
 10
24.61079721426086
 20
322.9442906737677
 30
0.0
 11
24.9460481234496
 21
322.6571553802482
 31
0.0
  0
LINE
  5
547
  8
_____1
 62
     1
 10
24.03633182716067
 20
323.2316207673489
 30
0.0
 11
24.61079721426086
 21
322.9442906737677
 31
0.0
  0
LINE
  5
548
  8
_____1
 62
     1
 10
22.21709403464638
 20
322.8965646582224
 30
0.0
 11
22.21709403464638
 21
322.6571553802482
 31
0.0
  0
LINE
  5
549
  8
_____1
 62
     1
 10
22.12144720349579
 20
323.1357791361324
 30
0.0
 11
22.21709403464638
 21
322.8965646582224
 31
0.0
  0
LINE
  5
54A
  8
_____1
 62
     1
 10
21.97768475667226
 20
323.2795415829564
 30
0.0
 11
22.12144720349579
 21
323.1357791361324
 31
0.0
  0
LINE
  5
54B
  8
_____1
 62
     1
 10
21.78619629430705
 20
323.3272675984995
 30
0.0
 11
21.97768475667226
 21
323.2795415829564
 31
0.0
  0
LINE
  5
54C
  8
_____1
 62
     1
 10
23.70127571803596
 20
323.3272675984995
 30
0.0
 11
24.03633182716067
 21
323.2316207673489
 31
0.0
  0
LINE
  5
54D
  8
_____1
 62
     1
 10
23.3660248088454
 20
323.3272675984995
 30
0.0
 11
23.70127571803596
 21
323.3272675984995
 31
0.0
  0
LINE
  5
54E
  8
_____1
 62
     1
 10
8.142205050546636
 20
322.8486438426153
 30
0.0
 11
8.142205050546636
 21
322.6571553802482
 31
0.0
  0
LINE
  5
54F
  8
_____1
 62
     1
 10
8.285772697306129
 20
323.18369995174
 30
0.0
 11
8.142205050546636
 21
322.8486438426153
 31
0.0
  0
LINE
  5
550
  8
_____1
 62
     1
 10
8.573102790887333
 20
323.3272675984995
 30
0.0
 11
8.285772697306129
 21
323.18369995174
 31
0.0
  0
LINE
  5
551
  8
_____1
 62
     1
 10
6.658023367158876
 20
323.3272675984995
 30
0.0
 11
6.993274276347165
 21
323.3272675984995
 31
0.0
  0
LINE
  5
552
  8
_____1
 62
     1
 10
6.658023367158876
 20
323.2795415829564
 30
0.0
 11
6.658023367158876
 21
323.3272675984995
 31
0.0
  0
LINE
  5
553
  8
_____1
 62
     1
 10
6.322967258032349
 20
323.2316207673489
 30
0.0
 11
6.658023367158876
 21
323.2795415829564
 31
0.0
  0
LINE
  5
554
  8
_____1
 62
     1
 10
5.748501870933524
 20
322.9442906737677
 30
0.0
 11
6.322967258032349
 21
323.2316207673489
 31
0.0
  0
LINE
  5
555
  8
_____1
 62
     1
 10
5.413250961745234
 20
322.6571553802482
 30
0.0
 11
5.748501870933524
 21
322.9442906737677
 31
0.0
  0
LINE
  5
556
  8
_____1
 62
     1
 10
13.93497453721375
 20
298.480714306138
 30
0.0
 11
13.93497453721375
 21
299.1031005088457
 31
0.0
  0
LINE
  5
557
  8
_____1
 62
     1
 10
8.381614328520754
 20
298.6242819528975
 30
0.0
 11
8.525181975280248
 21
298.8157704152645
 31
0.0
  0
LINE
  5
558
  8
_____1
 62
     1
 10
9.674112749479264
 20
299.1508265243911
 30
0.0
 11
10.72739669252633
 21
299.1987473399981
 31
0.0
  0
LINE
  5
559
  8
_____1
 62
     1
 10
8.66874962203974
 20
298.9116120464787
 30
0.0
 11
9.674112749479264
 21
299.1508265243911
 31
0.0
  0
LINE
  5
55A
  8
_____1
 62
     1
 10
13.93497453721375
 20
299.1031005088457
 30
0.0
 11
14.03062136836616
 21
299.1987473399981
 31
0.0
  0
LINE
  5
55B
  8
_____1
 62
     1
 10
16.37659853243576
 20
299.1987473399981
 30
0.0
 11
16.42432454797881
 21
299.1031005088457
 31
0.0
  0
LINE
  5
55C
  8
_____1
 62
     1
 10
20.68518633571512
 20
299.1508265243911
 30
0.0
 11
21.69054946315509
 21
298.9116120464787
 31
0.0
  0
LINE
  5
55D
  8
_____1
 62
     1
 10
19.63190239266669
 20
299.1987473399981
 30
0.0
 11
20.68518633571512
 21
299.1508265243911
 31
0.0
  0
LINE
  5
55E
  8
_____1
 62
     1
 10
21.97768475667226
 20
298.6722027685046
 30
0.0
 11
21.97768475667226
 21
298.480714306138
 31
0.0
  0
LINE
  5
55F
  8
_____1
 62
     1
 10
21.83411710991459
 20
298.8157704152645
 30
0.0
 11
21.97768475667226
 21
298.6722027685046
 31
0.0
  0
LINE
  5
560
  8
_____1
 62
     1
 10
16.42432454797881
 20
299.1031005088457
 30
0.0
 11
16.42432454797881
 21
298.480714306138
 31
0.0
  0
LINE
  5
561
  8
_____1
 62
     1
 10
25.95141125088912
 20
292.1614002479791
 30
0.0
 11
25.99913726643445
 21
292.1614002479791
 31
0.0
  0
LINE
  5
562
  8
_____1
 62
     1
 10
8.860238084406774
 20
299.3902358023652
 30
0.0
 11
8.860238084406774
 21
299.5817242647299
 31
0.0
  0
LINE
  5
563
  8
_____1
 62
     1
 10
8.573102790887333
 20
298.9595328620862
 30
0.0
 11
8.860238084406774
 21
299.3902358023652
 31
0.0
  0
LINE
  5
564
  8
_____1
 62
     1
 10
21.49906100078806
 20
299.3902358023652
 30
0.0
 11
21.78619629430705
 21
298.959338062024
 31
0.0
  0
LINE
  5
565
  8
_____1
 62
     1
 10
21.49906100078806
 20
299.5817242647299
 30
0.0
 11
21.49906100078806
 21
299.3902358023652
 31
0.0
  0
LINE
  5
566
  8
_____1
 62
     1
 10
21.97768475667226
 20
298.6242819528975
 30
0.0
 11
21.83411710991459
 21
298.8157704152645
 31
0.0
  0
LINE
  5
567
  8
_____1
 62
     1
 10
6.322967258032349
 20
323.2316207673489
 30
0.0
 11
6.035637164450691
 21
323.8060861544477
 31
0.0
  0
LINE
  5
568
  8
_____1
 62
     1
 10
24.03633182716067
 20
323.2316207673489
 30
0.0
 11
24.32366192074187
 21
323.8060861544477
 31
0.0
  0
LINE
  5
569
  8
_____1
 62
     1
 10
21.97768475667226
 20
298.5763611372904
 30
0.0
 11
21.97768475667226
 21
298.6242819528975
 31
0.0
  0
LINE
  5
56A
  8
_____1
 62
     1
 10
22.12144720349579
 20
298.5763611372904
 30
0.0
 11
21.97768475667226
 21
298.5763611372904
 31
0.0
  0
LINE
  5
56B
  8
_____1
 62
     1
 10
22.12144720349579
 20
298.6242819528975
 30
0.0
 11
22.12144720349579
 21
298.5763611372904
 31
0.0
  0
LINE
  5
56C
  8
_____1
 62
     1
 10
15.84985916088044
 20
296.3741464200425
 30
0.0
 11
15.84985916088044
 21
296.7093973292331
 31
0.0
  0
LINE
  5
56D
  8
_____1
 62
     1
 10
16.37659853243576
 20
296.9008857915996
 30
0.0
 11
15.99342680763993
 21
296.9008857915996
 31
0.0
  0
LINE
  5
56E
  8
_____1
 62
     1
 10
16.42432454797881
 20
298.480714306138
 30
0.0
 11
16.04134762324702
 21
298.480714306138
 31
0.0
  0
LINE
  5
56F
  8
_____1
 62
     1
 10
16.18491527000469
 20
299.0551796932386
 30
0.0
 11
16.04134762324702
 21
298.767849599657
 31
0.0
  0
LINE
  5
570
  8
_____1
 62
     1
 10
16.42432454797881
 20
299.1031005088457
 30
0.0
 11
16.18491527000469
 21
299.0551796932386
 31
0.0
  0
LINE
  5
571
  8
_____1
 62
     1
 10
16.08926843885456
 20
299.0551796932386
 30
0.0
 11
16.04134762324702
 21
298.8157704152645
 31
0.0
  0
LINE
  5
572
  8
_____1
 62
     1
 10
16.37659853243576
 20
299.1987473399981
 30
0.0
 11
16.08926843885456
 21
299.0551796932386
 31
0.0
  0
LINE
  5
573
  8
_____1
 62
     1
 10
15.84985916088044
 20
299.1987473399981
 30
0.0
 11
15.84985916088044
 21
298.8157704152645
 31
0.0
  0
LINE
  5
574
  8
_____1
 62
     1
 10
14.50943992431439
 20
299.1987473399981
 30
0.0
 11
14.50943992431439
 21
298.8157704152645
 31
0.0
  0
LINE
  5
575
  8
_____1
 62
     1
 10
14.31795146194736
 20
299.0072588776311
 30
0.0
 11
14.31795146194736
 21
298.8157704152645
 31
0.0
  0
LINE
  5
576
  8
_____1
 62
     1
 10
14.03062136836616
 20
299.1987473399981
 30
0.0
 11
14.31795146194736
 21
299.0072588776311
 31
0.0
  0
LINE
  5
577
  8
_____1
 62
     1
 10
14.31795146194736
 20
298.9116120464787
 30
0.0
 11
14.31795146194736
 21
298.767849599657
 31
0.0
  0
LINE
  5
578
  8
_____1
 62
     1
 10
14.17438381518787
 20
299.0551796932386
 30
0.0
 11
14.31795146194736
 21
298.9116120464787
 31
0.0
  0
LINE
  5
579
  8
_____1
 62
     1
 10
13.93497453721375
 20
299.1031005088457
 30
0.0
 11
14.17438381518787
 21
299.0551796932386
 31
0.0
  0
LINE
  5
57A
  8
_____1
 62
     1
 10
13.93497453721375
 20
298.480714306138
 30
0.0
 11
14.31795146194736
 21
298.480714306138
 31
0.0
  0
LINE
  5
57B
  8
_____1
 62
     1
 10
13.98289535282083
 20
296.9008857915996
 30
0.0
 11
14.3658722775549
 21
296.9008857915996
 31
0.0
  0
LINE
  5
57C
  8
_____1
 62
     1
 10
14.50943992431439
 20
296.3741464200425
 30
0.0
 11
14.50943992431439
 21
296.7093973292331
 31
0.0
  0
LINE
  5
57D
  8
_____1
 62
     1
 10
14.3658722775549
 20
296.8050441603832
 30
0.0
 11
14.3658722775549
 21
296.9008857915996
 31
0.0
  0
LINE
  5
57E
  8
_____1
 62
     1
 10
14.50943992431439
 20
296.7093973292331
 30
0.0
 11
14.3658722775549
 21
296.8050441603832
 31
0.0
  0
LINE
  5
57F
  8
_____1
 62
     1
 10
22.02560557228117
 20
322.4656669178817
 30
0.0
 11
22.12144720349579
 21
298.6242819528975
 31
0.0
  0
LINE
  5
580
  8
_____1
 62
     1
 10
26.19062572880102
 20
292.1614002479791
 30
0.0
 11
26.23854654440856
 21
292.1614002479791
 31
0.0
  0
LINE
  5
581
  8
_____1
 62
     1
 10
25.4246718793338
 20
292.1614002479791
 30
0.0
 11
25.47259269494089
 21
292.1614002479791
 31
0.0
  0
LINE
  5
582
  8
_____1
 62
     1
 10
15.99342680763993
 20
296.8050441603832
 30
0.0
 11
15.84985916088044
 21
296.7093973292331
 31
0.0
  0
LINE
  5
583
  8
_____1
 62
     1
 10
15.99342680763993
 20
296.9008857915996
 30
0.0
 11
15.99342680763993
 21
296.8050441603832
 31
0.0
  0
LINE
  5
584
  8
_____1
 62
     1
 10
26.14289971325616
 20
292.6879448194709
 30
0.0
 11
25.04169495460201
 21
334.1947735379758
 31
0.0
  0
LINE
  5
585
  8
_____1
 62
     1
 10
5.317604130592827
 20
334.1947735379758
 30
0.0
 11
4.216399371938678
 21
292.6879448194709
 31
0.0
  0
LINE
  5
586
  8
_____1
 62
     1
 10
15.8019383452729
 20
296.9008857915996
 30
0.0
 11
15.99342680763993
 21
296.9008857915996
 31
0.0
  0
LINE
  5
587
  8
_____1
 62
     1
 10
16.04134762324702
 20
298.8157704152645
 30
0.0
 11
16.04134762324702
 21
298.767849599657
 31
0.0
  0
LINE
  5
588
  8
_____1
 62
     1
 10
8.237851881699044
 20
298.6242819528975
 30
0.0
 11
8.381614328520754
 21
322.4656669178817
 31
0.0
  0
LINE
  5
589
  8
_____1
 62
     1
 10
15.84985916088044
 20
298.8157704152645
 30
0.0
 11
16.04134762324702
 21
298.8157704152645
 31
0.0
  0
LINE
  5
58A
  8
_____1
 62
     1
 10
26.14289971325616
 20
292.3528887103462
 30
0.0
 11
26.19062572880102
 21
292.1614002479791
 31
0.0
  0
LINE
  5
58B
  8
_____1
 62
     1
 10
26.04705808204153
 20
292.3528887103462
 30
0.0
 11
26.14289971325616
 21
292.3528887103462
 31
0.0
  0
LINE
  5
58C
  8
_____1
 62
     1
 10
14.3658722775549
 20
296.9008857915996
 30
0.0
 11
14.55736073992148
 21
296.9008857915996
 31
0.0
  0
LINE
  5
58D
  8
_____1
 62
     1
 10
14.31795146194736
 20
298.8157704152645
 30
0.0
 11
14.50943992431439
 21
298.8157704152645
 31
0.0
  0
LINE
  5
58E
  8
_____1
 62
     1
 10
25.4246718793338
 20
292.2570470791316
 30
0.0
 11
25.28110423257613
 21
292.3528887103462
 31
0.0
  0
LINE
  5
58F
  8
_____1
 62
     1
 10
25.4246718793338
 20
292.1614002479791
 30
0.0
 11
25.4246718793338
 21
292.2570470791316
 31
0.0
  0
LINE
  5
590
  8
_____1
 62
     1
 10
14.31795146194736
 20
298.767849599657
 30
0.0
 11
14.31795146194736
 21
298.8157704152645
 31
0.0
  0
LINE
  5
591
  8
_____1
 62
     1
 10
14.31795146194736
 20
298.767849599657
 30
0.0
 11
14.3658722775549
 21
296.9008857915996
 31
0.0
  0
LINE
  5
592
  8
_____1
 62
     1
 10
14.31795146194736
 20
298.480714306138
 30
0.0
 11
14.31795146194736
 21
298.767849599657
 31
0.0
  0
LINE
  5
593
  8
_____1
 62
     1
 10
14.3658722775549
 20
296.9008857915996
 30
0.0
 11
14.31795146194736
 21
298.480714306138
 31
0.0
  0
LINE
  5
594
  8
_____1
 62
     1
 10
8.381614328520754
 20
298.5763611372904
 30
0.0
 11
8.237851881699044
 21
298.6242819528975
 31
0.0
  0
LINE
  5
595
  8
_____1
 62
     1
 10
8.381614328520754
 20
298.6242819528975
 30
0.0
 11
8.381614328520754
 21
298.5763611372904
 31
0.0
  0
LINE
  5
596
  8
_____1
 62
     1
 10
26.19062572880102
 20
292.4485355414968
 30
0.0
 11
26.43003500677514
 21
292.3528887103462
 31
0.0
  0
LINE
  5
597
  8
_____1
 62
     1
 10
26.14289971325616
 20
292.6879448194709
 30
0.0
 11
26.19062572880102
 21
292.4485355414968
 31
0.0
  0
LINE
  5
598
  8
_____1
 62
     1
 10
13.98289535282083
 20
296.9008857915996
 30
0.0
 11
13.93497453721375
 21
298.480714306138
 31
0.0
  0
LINE
  5
599
  8
_____1
 62
     1
 10
15.99342680763993
 20
296.9008857915996
 30
0.0
 11
16.04134762324702
 21
298.767849599657
 31
0.0
  0
LINE
  5
59A
  8
_____1
 62
     1
 10
16.04134762324702
 20
298.480714306138
 30
0.0
 11
15.99342680763993
 21
296.9008857915996
 31
0.0
  0
LINE
  5
59B
  8
_____1
 62
     1
 10
4.168673356393356
 20
292.4485355414968
 30
0.0
 11
3.929264078419237
 21
292.3528887103462
 31
0.0
  0
LINE
  5
59C
  8
_____1
 62
     1
 10
4.216399371938678
 20
292.6879448194709
 30
0.0
 11
4.168673356393356
 21
292.4485355414968
 31
0.0
  0
LINE
  5
59D
  8
_____1
 62
     1
 10
16.04134762324702
 20
298.767849599657
 30
0.0
 11
16.04134762324702
 21
298.480714306138
 31
0.0
  0
LINE
  5
59E
  8
_____1
 62
     1
 10
14.50943992431439
 20
298.8157704152645
 30
0.0
 11
14.55736073992148
 21
296.9008857915996
 31
0.0
  0
LINE
  5
59F
  8
_____1
 62
     1
 10
15.8019383452729
 20
296.9008857915996
 30
0.0
 11
15.84985916088044
 21
298.8157704152645
 31
0.0
  0
LINE
  5
5A0
  8
_____1
 62
     1
 10
14.55736073992148
 20
296.7093973292331
 30
0.0
 11
14.55736073992148
 21
296.9008857915996
 31
0.0
  0
LINE
  5
5A1
  8
_____1
 62
     1
 10
25.95141125088912
 20
292.3049678947391
 30
0.0
 11
25.95141125088912
 21
292.1614002479791
 31
0.0
  0
LINE
  5
5A2
  8
_____1
 62
     1
 10
26.04705808204153
 20
292.3528887103462
 30
0.0
 11
25.95141125088912
 21
292.3049678947391
 31
0.0
  0
LINE
  5
5A3
  8
_____1
 62
     1
 10
-10.77808195901071
 20
266.6153841520218
 30
0.0
 11
-10.82580797455603
 21
266.3282488585046
 31
0.0
  0
LINE
  5
5A4
  8
_____1
 62
     1
 10
-10.63431951218899
 20
266.7112257832382
 30
0.0
 11
-10.77808195901071
 21
266.6153841520218
 31
0.0
  0
LINE
  5
5A5
  8
_____1
 62
     1
 10
-10.77808195901071
 20
260.4877533562922
 30
0.0
 11
-10.63431951218899
 21
260.3919117250775
 31
0.0
  0
LINE
  5
5A6
  8
_____1
 62
     1
 10
-10.82580797455603
 20
260.7269678342041
 30
0.0
 11
-10.77808195901071
 21
260.4877533562922
 31
0.0
  0
LINE
  5
5A7
  8
_____1
 62
     1
 10
-1.58624616528914
 20
261.2057863901505
 30
0.0
 11
-1.490404534074514
 21
261.2537072057598
 31
0.0
  0
LINE
  5
5A8
  8
_____1
 62
     1
 10
-1.490404534074514
 20
265.801704287011
 30
0.0
 11
-1.58624616528914
 21
265.8494303025564
 31
0.0
  0
LINE
  5
5A9
  8
_____1
 62
     1
 10
45.80919367109755
 20
260.4877533562922
 30
0.0
 11
45.85691968664059
 21
260.7269678342041
 31
0.0
  0
LINE
  5
5AA
  8
_____1
 62
     1
 10
45.66543122427402
 20
260.3919117250775
 30
0.0
 11
45.80919367109755
 21
260.4877533562922
 31
0.0
  0
LINE
  5
5AB
  8
_____1
 62
     1
 10
45.80919367109755
 20
266.6153841520218
 30
0.0
 11
45.66543122427402
 21
266.7112257832382
 31
0.0
  0
LINE
  5
5AC
  8
_____1
 62
     1
 10
45.85691968664059
 20
266.3282488585046
 30
0.0
 11
45.80919367109755
 21
266.6153841520218
 31
0.0
  0
LINE
  5
5AD
  8
_____1
 62
     1
 10
31.87787233375548
 20
265.8494303025564
 30
0.0
 11
31.78203070254085
 21
265.801704287011
 31
0.0
  0
LINE
  5
5AE
  8
_____1
 62
     1
 10
31.78203070254085
 20
261.2537072057598
 30
0.0
 11
31.87787233375548
 21
261.2057863901505
 31
0.0
  0
LINE
  5
5AF
  8
_____1
 62
     1
 10
-10.4907518654295
 20
266.7112257832382
 30
0.0
 11
-10.58659349664413
 21
266.6633049676288
 31
0.0
  0
LINE
  5
5B0
  8
_____1
 62
     1
 10
-10.58659349664413
 20
266.6633049676288
 30
0.0
 11
-10.63431951218899
 21
266.3282488585046
 31
0.0
  0
LINE
  5
5B1
  8
_____1
 62
     1
 10
-10.63431951218899
 20
260.7269678342041
 30
0.0
 11
-10.58659349664413
 21
260.4398325406851
 31
0.0
  0
LINE
  5
5B2
  8
_____1
 62
     1
 10
-10.58659349664413
 20
260.4398325406851
 30
0.0
 11
-10.4907518654295
 21
260.3919117250775
 31
0.0
  0
LINE
  5
5B3
  8
_____1
 62
     1
 10
-3.405483957803426
 20
260.5356741718997
 30
0.0
 11
-3.309642326588801
 21
260.5832053873805
 31
0.0
  0
LINE
  5
5B4
  8
_____1
 62
     1
 10
33.55334767944805
 20
260.5832053873805
 30
0.0
 11
33.64918931066268
 21
260.5356741718997
 31
0.0
  0
LINE
  5
5B5
  8
_____1
 62
     1
 10
45.52186357751634
 20
260.3919117250775
 30
0.0
 11
45.61770520873097
 21
260.4398325406851
 31
0.0
  0
LINE
  5
5B6
  8
_____1
 62
     1
 10
45.61770520873097
 20
260.4398325406851
 30
0.0
 11
45.7133520398811
 21
260.7269678342041
 31
0.0
  0
LINE
  5
5B7
  8
_____1
 62
     1
 10
45.7133520398811
 20
266.3282488585046
 30
0.0
 11
45.61770520873097
 21
266.6633049676288
 31
0.0
  0
LINE
  5
5B8
  8
_____1
 62
     1
 10
45.61770520873097
 20
266.6633049676288
 30
0.0
 11
45.52186357751634
 21
266.7112257832382
 31
0.0
  0
LINE
  5
5B9
  8
_____1
 62
     1
 10
-0.5710069872889108
 20
290.8687070269584
 30
0.0
 11
-0.5710069872889108
 21
284.405630521976
 31
0.0
  0
LINE
  5
5BA
  8
_____1
 62
     1
 10
30.93030607248375
 20
290.8687070269584
 30
0.0
 11
30.93030607248375
 21
284.405630521976
 31
0.0
  0
LINE
  5
5BB
  8
_____1
 62
     1
 10
1.631207729956714
 20
284.5973137844053
 30
0.0
 11
28.72809135523585
 21
284.5973137844053
 31
0.0
  0
LINE
  5
5BC
  8
_____1
 62
     1
 10
1.631207729956714
 20
284.0226535972424
 30
0.0
 11
-0.5710069872889108
 21
284.5971189843408
 31
0.0
  0
LINE
  5
5BD
  8
_____1
 62
     1
 10
-0.5710069872889108
 20
284.5973137844053
 30
0.0
 11
1.631207729956714
 21
285.1717791715059
 31
0.0
  0
LINE
  5
5BE
  8
_____1
 62
     1
 10
-0.5710069872889108
 20
284.5973137844053
 30
0.0
 11
1.631207729956714
 21
284.5973137844053
 31
0.0
  0
LINE
  5
5BF
  8
_____1
 62
     1
 10
28.72809135523585
 20
285.1717791715059
 30
0.0
 11
30.93030607248375
 21
284.5973137844053
 31
0.0
  0
LINE
  5
5C0
  8
_____1
 62
     1
 10
30.93030607248375
 20
284.5973137844053
 30
0.0
 11
28.72809135523585
 21
284.0226535972424
 31
0.0
  0
LINE
  5
5C1
  8
_____1
 62
     1
 10
30.93030607248375
 20
284.5973137844053
 30
0.0
 11
28.72809135523585
 21
284.5973137844053
 31
0.0
  0
TEXT
  5
5C2
  8
_____1
 62
     1
 10
11.06245280165285
 20
286.7609357624582
 30
0.0
 40
2.409022911009375
  1
φ
  7
_______
 11
11.06245280165285
 21
286.3207099457049
 31
0.0
 73
     1
  0
TEXT
  5
5C3
  8
_____1
 62
     1
 10
14.65300757107389
 20
286.7311907563118
 30
0.0
 40
2.246250991308118
  1
90
  7
_______
 11
14.65300757107389
 21
286.3207099457049
 31
0.0
 73
     1
  0
LINE
  5
5C4
  8
_____1
 62
     1
 10
4.12075254078627
 20
336.732044364348
 30
0.0
 11
-14.16707741544269
 21
336.732044364348
 31
0.0
  0
LINE
  5
5C5
  8
_____1
 62
     1
 10
0.0993000310240859
 20
292.3528887103462
 30
0.0
 11
-14.16707741544269
 21
292.3528887103462
 31
0.0
  0
LINE
  5
5C6
  8
_____1
 62
     1
 10
-13.97558895307566
 20
334.5298296471024
 30
0.0
 11
-13.97558895307566
 21
294.5551034275923
 31
0.0
  0
LINE
  5
5C7
  8
_____1
 62
     1
 10
-14.55005434017403
 20
334.5298296471024
 30
0.0
 11
-13.97558895307566
 21
336.732044364348
 31
0.0
  0
LINE
  5
5C8
  8
_____1
 62
     1
 10
-13.97558895307566
 20
336.732044364348
 30
0.0
 11
-13.35320275036793
 21
334.5298296471024
 31
0.0
  0
LINE
  5
5C9
  8
_____1
 62
     1
 10
-13.97558895307566
 20
336.732044364348
 30
0.0
 11
-13.97558895307566
 21
334.5298296471024
 31
0.0
  0
LINE
  5
5CA
  8
_____1
 62
     1
 10
-13.35320275036793
 20
294.5551034275923
 30
0.0
 11
-13.97558895307566
 21
292.3528887103462
 31
0.0
  0
LINE
  5
5CB
  8
_____1
 62
     1
 10
-13.97558895307566
 20
292.3528887103462
 30
0.0
 11
-14.55005434017403
 21
294.5551034275923
 31
0.0
  0
LINE
  5
5CC
  8
_____1
 62
     1
 10
-13.97558895307566
 20
292.3528887103462
 30
0.0
 11
-13.97558895307566
 21
294.5551034275923
 31
0.0
  0
TEXT
  5
5CD
  8
_____1
 62
     1
 10
-17.6431349351479
 20
312.7697604536428
 30
0.0
 40
2.246254354652963
  1
1
 50
270.0974078322316
  7
_______
 11
-18.05361576716723
 21
312.7690625996843
 31
0.0
 73
     1
  0
TEXT
  5
5CE
  8
_____1
 62
     1
 10
-17.64274533502164
 20
314.8286023241935
 30
0.0
 40
2.246254354652963
  1
2
 50
270.0974078322316
  7
_______
 11
-18.05322616704098
 21
314.8279044702349
 31
0.0
 73
     1
  0
TEXT
  5
5CF
  8
_____1
 62
     1
 10
-17.64274533502164
 20
316.8868597945556
 30
0.0
 40
2.246254354652963
  1
7
 50
270.0974078322316
  7
_______
 11
-18.05322616704098
 21
316.886161940597
 31
0.0
 73
     1
  0
LINE
  5
5D0
  8
_____1
 62
     1
 10
0.0993000310240859
 20
292.3528887103462
 30
0.0
 11
-9.236103409455154
 21
292.3528887103462
 31
0.0
  0
LINE
  5
5D1
  8
_____1
 62
     1
 10
0.530197771364783
 20
289.7197762527571
 30
0.0
 11
-9.236103409455154
 21
289.7197762527571
 31
0.0
  0
LINE
  5
5D2
  8
_____1
 62
     1
 10
-8.996694131481036
 20
287.5175615355115
 30
0.0
 11
-8.996694131481036
 21
278.18215809503
 31
0.0
  0
LINE
  5
5D3
  8
_____1
 62
     1
 10
-8.996694131481036
 20
292.3528887103462
 30
0.0
 11
-8.996694131481036
 21
289.7197762527571
 31
0.0
  0
LINE
  5
5D4
  8
_____1
 62
     1
 10
-8.996694131481036
 20
294.5551034275923
 30
0.0
 11
-8.996694131481036
 21
296.8050441603832
 31
0.0
  0
LINE
  5
5D5
  8
_____1
 62
     1
 10
-8.422228744382664
 20
294.5551034275923
 30
0.0
 11
-8.996694131481036
 21
292.3528887103462
 31
0.0
  0
LINE
  5
5D6
  8
_____1
 62
     1
 10
-8.996694131481036
 20
292.3528887103462
 30
0.0
 11
-9.619080334188766
 21
294.5551034275923
 31
0.0
  0
LINE
  5
5D7
  8
_____1
 62
     1
 10
-8.996694131481036
 20
292.3528887103462
 30
0.0
 11
-8.996694131481036
 21
294.5551034275923
 31
0.0
  0
LINE
  5
5D8
  8
_____1
 62
     1
 10
-9.619080334188766
 20
287.5175615355115
 30
0.0
 11
-8.996694131481036
 21
289.7197762527571
 31
0.0
  0
LINE
  5
5D9
  8
_____1
 62
     1
 10
-8.996694131481036
 20
289.7197762527571
 30
0.0
 11
-8.422228744382664
 21
287.5175615355115
 31
0.0
  0
LINE
  5
5DA
  8
_____1
 62
     1
 10
-8.996694131481036
 20
289.7197762527571
 30
0.0
 11
-8.996694131481036
 21
287.5175615355115
 31
0.0
  0
TEXT
  5
5DB
  8
_____1
 62
     1
 10
-12.7119661290986
 20
280.5508039601381
 30
0.0
 40
2.246254354652963
  1
7
 50
270.0974078322316
  7
_______
 11
-13.12244696111793
 21
280.5501061061796
 31
0.0
 73
     1
  0
TEXT
  5
5DC
  8
_____1
 62
     1
 10
-12.7119661290986
 20
282.6090614304985
 30
0.0
 40
2.246254354652963
  1
.
 50
270.0974078322316
  7
_______
 11
-13.12244696111793
 21
282.6083635765399
 31
0.0
 73
     1
  0
TEXT
  5
5DD
  8
_____1
 62
     1
 10
-12.7119661290986
 20
283.7579922046975
 30
0.0
 40
2.246254354652963
  1
5
 50
270.0974078322316
  7
_______
 11
-13.12244696111793
 21
283.7572943507389
 31
0.0
 73
     1
  0
LINE
  5
5DE
  8
_____1
 62
     1
 10
5.269683314985286
 20
335.583113590149
 30
0.0
 11
5.269683314985286
 21
339.7002129310617
 31
0.0
  0
LINE
  5
5DF
  8
_____1
 62
     1
 10
25.13753658581663
 20
335.583113590149
 30
0.0
 11
25.13753658581663
 21
339.7002129310617
 31
0.0
  0
LINE
  5
5E0
  8
_____1
 62
     1
 10
7.471898032231366
 20
339.4608036530876
 30
0.0
 11
22.8874010529612
 21
339.4608036530876
 31
0.0
  0
LINE
  5
5E1
  8
_____1
 62
     1
 10
7.471898032231366
 20
338.8863382659888
 30
0.0
 11
5.269683314985286
 21
339.4608036530876
 31
0.0
  0
LINE
  5
5E2
  8
_____1
 62
     1
 10
5.269683314985286
 20
339.4608036530876
 30
0.0
 11
7.471898032231366
 21
340.0831898557954
 31
0.0
  0
LINE
  5
5E3
  8
_____1
 62
     1
 10
5.269683314985286
 20
339.4608036530876
 30
0.0
 11
7.471898032231366
 21
339.4608036530876
 31
0.0
  0
LINE
  5
5E4
  8
_____1
 62
     1
 10
22.8874010529612
 20
340.0831898557954
 30
0.0
 11
25.13753658581663
 21
339.4608036530876
 31
0.0
  0
LINE
  5
5E5
  8
_____1
 62
     1
 10
25.13753658581663
 20
339.4608036530876
 30
0.0
 11
22.8874010529612
 21
338.8863382659888
 31
0.0
  0
LINE
  5
5E6
  8
_____1
 62
     1
 10
25.13753658581663
 20
339.4608036530876
 30
0.0
 11
22.8874010529612
 21
339.4608036530876
 31
0.0
  0
TEXT
  5
5E7
  8
_____1
 62
     1
 10
13.26466751889848
 20
341.0681360535006
 30
0.0
 40
2.246250991308118
  1
56
  7
_______
 11
13.26466751889848
 21
340.6576552428937
 31
0.0
 73
     1
  0
LINE
  5
5E8
  8
_____1
 62
     1
 10
2.770262453595478
 20
259.4821954287886
 30
0.0
 11
2.770262453595478
 21
267.6209420795253
 31
0.0
  0
LINE
  5
5E9
  8
_____1
 62
     1
 10
2.914024900419463
 20
267.7165889106777
 30
0.0
 11
2.914024900419463
 21
259.3388225820931
 31
0.0
  0
LINE
  5
5EA
  8
_____1
 62
     1
 10
27.1861128056803
 20
259.3388225820931
 30
0.0
 11
27.1861128056803
 21
267.7165889106777
 31
0.0
  0
LINE
  5
5EB
  8
_____1
 62
     1
 10
27.28195443689492
 20
259.4821954287886
 30
0.0
 11
27.28195443689492
 21
267.6209420795253
 31
0.0
  0
LINE
  5
5EC
  8
_____1
 62
     1
 10
27.32968045243979
 20
267.6209420795253
 30
0.0
 11
27.32968045243979
 21
259.4821954287886
 31
0.0
  0
LINE
  5
5ED
  8
_____1
 62
     1
 10
2.770262453595478
 20
259.4821954287886
 30
0.0
 11
2.818183269202564
 21
259.2429809508785
 31
0.0
  0
LINE
  5
5EE
  8
_____1
 62
     1
 10
2.818183269202564
 20
267.8601565574372
 30
0.0
 11
2.770262453595478
 21
267.6209420795253
 31
0.0
  0
LINE
  5
5EF
  8
_____1
 62
     1
 10
28.76594132022046
 20
262.0196610552252
 30
0.0
 11
28.86178295143463
 21
263.5515687541579
 31
0.0
  0
LINE
  5
5F0
  8
_____1
 62
     1
 10
28.52653204224634
 20
260.4877533562922
 30
0.0
 11
28.76594132022046
 21
262.0196610552252
 31
0.0
  0
LINE
  5
5F1
  8
_____1
 62
     1
 10
28.09563430190519
 20
259.0033768728404
 30
0.0
 11
28.52653204224634
 21
260.4877533562922
 31
0.0
  0
LINE
  5
5F2
  8
_____1
 62
     1
 10
27.4734428992615
 20
257.5673108051237
 30
0.0
 11
28.09563430190519
 21
259.0033768728404
 31
0.0
  0
LINE
  5
5F3
  8
_____1
 62
     1
 10
26.75521506533914
 20
256.1787759528866
 30
0.0
 11
27.4734428992615
 21
257.5673108051237
 31
0.0
  0
LINE
  5
5F4
  8
_____1
 62
     1
 10
25.84569356911425
 20
254.9343931475992
 30
0.0
 11
26.75521506533914
 21
256.1787759528866
 31
0.0
  0
LINE
  5
5F5
  8
_____1
 62
     1
 10
24.79240962606718
 20
253.7850727732734
 30
0.0
 11
25.84569356911425
 21
254.9343931475992
 31
0.0
  0
LINE
  5
5F6
  8
_____1
 62
     1
 10
23.64347885186817
 20
252.7319836302891
 30
0.0
 11
24.79240962606718
 21
253.7850727732734
 31
0.0
  0
LINE
  5
5F7
  8
_____1
 62
     1
 10
22.39870644645271
 20
251.8701881496072
 30
0.0
 11
23.64347885186817
 21
252.7319836302891
 31
0.0
  0
LINE
  5
5F8
  8
_____1
 62
     1
 10
21.05828720988666
 20
251.1042343001413
 30
0.0
 11
22.39870644645271
 21
251.8701881496072
 31
0.0
  0
LINE
  5
5F9
  8
_____1
 62
     1
 10
19.62202634210598
 20
250.5299637131052
 30
0.0
 11
21.05828720988666
 21
251.1042343001413
 31
0.0
  0
LINE
  5
5FA
  8
_____1
 62
     1
 10
18.13784465871822
 20
250.099065972764
 30
0.0
 11
19.62202634210598
 21
250.5299637131052
 31
0.0
  0
LINE
  5
5FB
  8
_____1
 62
     1
 10
16.60593695978514
 20
249.8115410791206
 30
0.0
 11
18.13784465871822
 21
250.099065972764
 31
0.0
  0
LINE
  5
5FC
  8
_____1
 62
     1
 10
15.02610844524497
 20
249.7160890480322
 30
0.0
 11
16.60593695978514
 21
249.8115410791206
 31
0.0
  0
LINE
  5
5FD
  8
_____1
 62
     1
 10
13.49420074631416
 20
249.8115410791206
 30
0.0
 11
15.02610844524497
 21
249.7160890480322
 31
0.0
  0
LINE
  5
5FE
  8
_____1
 62
     1
 10
11.96209824731704
 20
250.099065972764
 30
0.0
 11
13.49420074631416
 21
249.8115410791206
 31
0.0
  0
LINE
  5
5FF
  8
_____1
 62
     1
 10
10.47811136399378
 20
250.5299637131052
 30
0.0
 11
11.96209824731704
 21
250.099065972764
 31
0.0
  0
LINE
  5
600
  8
_____1
 62
     1
 10
9.041850496210827
 20
251.1042343001413
 30
0.0
 11
10.47811136399378
 21
250.5299637131052
 31
0.0
  0
LINE
  5
601
  8
_____1
 62
     1
 10
7.701431259647052
 20
251.8701881496072
 30
0.0
 11
9.041850496210827
 21
251.1042343001413
 31
0.0
  0
LINE
  5
602
  8
_____1
 62
     1
 10
6.456658854231137
 20
252.7319836302891
 30
0.0
 11
7.701431259647052
 21
251.8701881496072
 31
0.0
  0
LINE
  5
603
  8
_____1
 62
     1
 10
5.259807264425035
 20
253.7850727732734
 30
0.0
 11
6.456658854231137
 21
252.7319836302891
 31
0.0
  0
LINE
  5
604
  8
_____1
 62
     1
 10
4.254444136985512
 20
254.9343931475992
 30
0.0
 11
5.259807264425035
 21
253.7850727732734
 31
0.0
  0
LINE
  5
605
  8
_____1
 62
     1
 10
3.34492264076016
 20
256.1787759528866
 30
0.0
 11
4.254444136985512
 21
254.9343931475992
 31
0.0
  0
LINE
  5
606
  8
_____1
 62
     1
 10
2.626694806837804
 20
257.5673108051237
 30
0.0
 11
3.34492264076016
 21
256.1787759528866
 31
0.0
  0
LINE
  5
607
  8
_____1
 62
     1
 10
2.004308604130074
 20
259.0033768728404
 30
0.0
 11
2.626694806837804
 21
257.5673108051237
 31
0.0
  0
LINE
  5
608
  8
_____1
 62
     1
 10
1.573410863788922
 20
260.4877533562922
 30
0.0
 11
2.004308604130074
 21
259.0033768728404
 31
0.0
  0
LINE
  5
609
  8
_____1
 62
     1
 10
1.334196385879295
 20
262.0196610552252
 30
0.0
 11
1.573410863788922
 21
260.4877533562922
 31
0.0
  0
LINE
  5
60A
  8
_____1
 62
     1
 10
1.23835475466467
 20
263.5515687541579
 30
0.0
 11
1.334196385879295
 21
262.0196610552252
 31
0.0
  0
LINE
  5
60B
  8
_____1
 62
     1
 10
1.334196385879295
 20
265.0834764530887
 30
0.0
 11
1.23835475466467
 21
263.5515687541579
 31
0.0
  0
LINE
  5
60C
  8
_____1
 62
     1
 10
1.573410863788922
 20
266.6155789520858
 30
0.0
 11
1.334196385879295
 21
265.0834764530887
 31
0.0
  0
LINE
  5
60D
  8
_____1
 62
     1
 10
2.004308604130074
 20
268.0995658354113
 30
0.0
 11
1.573410863788922
 21
266.6155789520858
 31
0.0
  0
LINE
  5
60E
  8
_____1
 62
     1
 10
2.626694806837804
 20
269.535826703192
 30
0.0
 11
2.004308604130074
 21
268.0995658354113
 31
0.0
  0
LINE
  5
60F
  8
_____1
 62
     1
 10
3.34492264076016
 20
270.8762459397581
 30
0.0
 11
2.626694806837804
 21
269.535826703192
 31
0.0
  0
LINE
  5
610
  8
_____1
 62
     1
 10
4.254444136985512
 20
272.1689391607792
 30
0.0
 11
3.34492264076016
 21
270.8762459397581
 31
0.0
  0
LINE
  5
611
  8
_____1
 62
     1
 10
5.259807264425035
 20
273.3178699349783
 30
0.0
 11
4.254444136985512
 21
272.1689391607792
 31
0.0
  0
LINE
  5
612
  8
_____1
 62
     1
 10
6.456658854231137
 20
274.3232330624178
 30
0.0
 11
5.259807264425035
 21
273.3178699349783
 31
0.0
  0
LINE
  5
613
  8
_____1
 62
     1
 10
7.701431259647052
 20
275.232754558645
 30
0.0
 11
6.456658854231137
 21
274.3232330624178
 31
0.0
  0
LINE
  5
614
  8
_____1
 62
     1
 10
9.041850496210827
 20
275.9989032081744
 30
0.0
 11
7.701431259647052
 21
275.232754558645
 31
0.0
  0
LINE
  5
615
  8
_____1
 62
     1
 10
10.47811136399378
 20
276.5733685952732
 30
0.0
 11
9.041850496210827
 21
275.9989032081744
 31
0.0
  0
LINE
  5
616
  8
_____1
 62
     1
 10
11.96209824731704
 20
277.0040715355499
 30
0.0
 11
10.47811136399378
 21
276.5733685952732
 31
0.0
  0
LINE
  5
617
  8
_____1
 62
     1
 10
13.49420074631416
 20
277.243480813524
 30
0.0
 11
11.96209824731704
 21
277.0040715355499
 31
0.0
  0
LINE
  5
618
  8
_____1
 62
     1
 10
15.02610844524497
 20
277.3393224447386
 30
0.0
 11
13.49420074631416
 21
277.243480813524
 31
0.0
  0
LINE
  5
619
  8
_____1
 62
     1
 10
16.60593695978514
 20
277.243480813524
 30
0.0
 11
15.02610844524497
 21
277.3393224447386
 31
0.0
  0
LINE
  5
61A
  8
_____1
 62
     1
 10
18.13784465871822
 20
277.0040715355499
 30
0.0
 11
16.60593695978514
 21
277.243480813524
 31
0.0
  0
LINE
  5
61B
  8
_____1
 62
     1
 10
19.62202634210598
 20
276.5733685952732
 30
0.0
 11
18.13784465871822
 21
277.0040715355499
 31
0.0
  0
LINE
  5
61C
  8
_____1
 62
     1
 10
21.05828720988666
 20
275.9989032081744
 30
0.0
 11
19.62202634210598
 21
276.5733685952732
 31
0.0
  0
LINE
  5
61D
  8
_____1
 62
     1
 10
22.39870644645271
 20
275.232754558645
 30
0.0
 11
21.05828720988666
 21
275.9989032081744
 31
0.0
  0
LINE
  5
61E
  8
_____1
 62
     1
 10
23.64347885186817
 20
274.3232330624178
 30
0.0
 11
22.39870644645271
 21
275.232754558645
 31
0.0
  0
LINE
  5
61F
  8
_____1
 62
     1
 10
24.79240962606718
 20
273.3178699349783
 30
0.0
 11
23.64347885186817
 21
274.3232330624178
 31
0.0
  0
LINE
  5
620
  8
_____1
 62
     1
 10
25.84569356911425
 20
272.1689391607792
 30
0.0
 11
24.79240962606718
 21
273.3178699349783
 31
0.0
  0
LINE
  5
621
  8
_____1
 62
     1
 10
26.75521506533914
 20
270.8762459397581
 30
0.0
 11
25.84569356911425
 21
272.1689391607792
 31
0.0
  0
LINE
  5
622
  8
_____1
 62
     1
 10
27.4734428992615
 20
269.535826703192
 30
0.0
 11
26.75521506533914
 21
270.8762459397581
 31
0.0
  0
LINE
  5
623
  8
_____1
 62
     1
 10
28.09563430190519
 20
268.0995658354113
 30
0.0
 11
27.4734428992615
 21
269.535826703192
 31
0.0
  0
LINE
  5
624
  8
_____1
 62
     1
 10
28.52653204224634
 20
266.6155789520858
 30
0.0
 11
28.09563430190519
 21
268.0995658354113
 31
0.0
  0
LINE
  5
625
  8
_____1
 62
     1
 10
28.76594132022046
 20
265.0834764530887
 30
0.0
 11
28.52653204224634
 21
266.6155789520858
 31
0.0
  0
LINE
  5
626
  8
_____1
 62
     1
 10
28.86178295143463
 20
263.5515687541579
 30
0.0
 11
28.76594132022046
 21
265.0834764530887
 31
0.0
  0
LINE
  5
627
  8
_____1
 62
     1
 10
3.392648656303209
 20
269.2484966096108
 30
0.0
 11
2.818183269202564
 21
267.8601565574372
 31
0.0
  0
LINE
  5
628
  8
_____1
 62
     1
 10
4.158602505770887
 20
270.5891106462391
 30
0.0
 11
3.392648656303209
 21
269.2484966096108
 31
0.0
  0
LINE
  5
629
  8
_____1
 62
     1
 10
5.068318802058002
 20
271.7859622360452
 30
0.0
 11
4.158602505770887
 21
270.5891106462391
 31
0.0
  0
LINE
  5
62A
  8
_____1
 62
     1
 10
6.073681929497525
 20
272.9348930102447
 30
0.0
 11
5.068318802058002
 21
271.7859622360452
 31
0.0
  0
LINE
  5
62B
  8
_____1
 62
     1
 10
7.2705335193059
 20
273.8923353220789
 30
0.0
 11
6.073681929497525
 21
272.9348930102447
 31
0.0
  0
LINE
  5
62C
  8
_____1
 62
     1
 10
8.515305924719542
 20
274.7541308027589
 30
0.0
 11
7.2705335193059
 21
273.8923353220789
 31
0.0
  0
LINE
  5
62D
  8
_____1
 62
     1
 10
9.85572516128559
 20
275.4242430210097
 30
0.0
 11
8.515305924719542
 21
274.7541308027589
 31
0.0
  0
LINE
  5
62E
  8
_____1
 62
     1
 10
11.29198602906627
 20
275.950982392565
 30
0.0
 11
9.85572516128559
 21
275.4242430210097
 31
0.0
  0
LINE
  5
62F
  8
_____1
 62
     1
 10
12.77597291239181
 20
276.2860385016916
 30
0.0
 11
11.29198602906627
 21
275.950982392565
 31
0.0
  0
LINE
  5
630
  8
_____1
 62
     1
 10
14.30807541138711
 20
276.4775269640586
 30
0.0
 11
12.77597291239181
 21
276.2860385016916
 31
0.0
  0
LINE
  5
631
  8
_____1
 62
     1
 10
15.79206229471265
 20
276.4775269640586
 30
0.0
 11
14.30807541138711
 21
276.4775269640586
 31
0.0
  0
LINE
  5
632
  8
_____1
 62
     1
 10
17.32396999364528
 20
276.2860385016916
 30
0.0
 11
15.79206229471265
 21
276.4775269640586
 31
0.0
  0
LINE
  5
633
  8
_____1
 62
     1
 10
18.80815167703304
 20
275.950982392565
 30
0.0
 11
17.32396999364528
 21
276.2860385016916
 31
0.0
  0
LINE
  5
634
  8
_____1
 62
     1
 10
20.19649172920663
 20
275.4242430210097
 30
0.0
 11
18.80815167703304
 21
275.950982392565
 31
0.0
  0
LINE
  5
635
  8
_____1
 62
     1
 10
21.58483178137976
 20
274.7541308027589
 30
0.0
 11
20.19649172920663
 21
275.4242430210097
 31
0.0
  0
LINE
  5
636
  8
_____1
 62
     1
 10
22.8296041867934
 20
273.8923353220789
 30
0.0
 11
21.58483178137976
 21
274.7541308027589
 31
0.0
  0
LINE
  5
637
  8
_____1
 62
     1
 10
23.97853496099287
 20
272.9348930102447
 30
0.0
 11
22.8296041867934
 21
273.8923353220789
 31
0.0
  0
LINE
  5
638
  8
_____1
 62
     1
 10
25.0318189040413
 20
271.7859622360452
 30
0.0
 11
23.97853496099287
 21
272.9348930102447
 31
0.0
  0
LINE
  5
639
  8
_____1
 62
     1
 10
25.94134040026665
 20
270.5891106462391
 30
0.0
 11
25.0318189040413
 21
271.7859622360452
 31
0.0
  0
LINE
  5
63A
  8
_____1
 62
     1
 10
26.65956823418901
 20
269.2484966096108
 30
0.0
 11
25.94134040026665
 21
270.5891106462391
 31
0.0
  0
LINE
  5
63B
  8
_____1
 62
     1
 10
27.28195443689492
 20
267.8601565574372
 30
0.0
 11
26.65956823418901
 21
269.2484966096108
 31
0.0
  0
LINE
  5
63C
  8
_____1
 62
     1
 10
3.440569471910749
 20
269.2484966096108
 30
0.0
 11
2.818183269202564
 21
267.8601565574372
 31
0.0
  0
LINE
  5
63D
  8
_____1
 62
     1
 10
4.158602505770887
 20
270.5891106462391
 30
0.0
 11
3.440569471910749
 21
269.2484966096108
 31
0.0
  0
LINE
  5
63E
  8
_____1
 62
     1
 10
6.121602745106884
 20
272.9348930102447
 30
0.0
 11
5.068318802058002
 21
271.7859622360452
 31
0.0
  0
LINE
  5
63F
  8
_____1
 62
     1
 10
7.2705335193059
 20
273.8923353220789
 30
0.0
 11
6.121602745106884
 21
272.9348930102447
 31
0.0
  0
LINE
  5
640
  8
_____1
 62
     1
 10
27.23403362128738
 20
267.8601565574372
 30
0.0
 11
26.65956823418901
 21
269.2484966096108
 31
0.0
  0
LINE
  5
641
  8
_____1
 62
     1
 10
26.65956823418901
 20
257.8065252830338
 30
0.0
 11
27.23403362128738
 21
259.2429809508785
 31
0.0
  0
LINE
  5
642
  8
_____1
 62
     1
 10
25.94134040026665
 20
256.5142216621393
 30
0.0
 11
26.65956823418901
 21
257.8065252830338
 31
0.0
  0
LINE
  5
643
  8
_____1
 62
     1
 10
25.0318189040413
 20
255.2694492567257
 30
0.0
 11
25.94134040026665
 21
256.5142216621393
 31
0.0
  0
LINE
  5
644
  8
_____1
 62
     1
 10
23.97853496099287
 20
254.1680496980075
 30
0.0
 11
25.0318189040413
 21
255.2694492567257
 31
0.0
  0
LINE
  5
645
  8
_____1
 62
     1
 10
22.8296041867934
 20
253.2108021862373
 30
0.0
 11
23.97853496099287
 21
254.1680496980075
 31
0.0
  0
LINE
  5
646
  8
_____1
 62
     1
 10
21.58483178137976
 20
252.3490067055554
 30
0.0
 11
22.8296041867934
 21
253.2108021862373
 31
0.0
  0
LINE
  5
647
  8
_____1
 62
     1
 10
20.19649172920663
 20
251.6788944873042
 30
0.0
 11
21.58483178137976
 21
252.3490067055554
 31
0.0
  0
LINE
  5
648
  8
_____1
 62
     1
 10
18.80815167703304
 20
251.1521551157489
 30
0.0
 11
20.19649172920663
 21
251.6788944873042
 31
0.0
  0
LINE
  5
649
  8
_____1
 62
     1
 10
17.32396999364528
 20
250.7691781910153
 30
0.0
 11
18.80815167703304
 21
251.1521551157489
 31
0.0
  0
LINE
  5
64A
  8
_____1
 62
     1
 10
15.79206229471265
 20
250.6254157441931
 30
0.0
 11
17.32396999364528
 21
250.7691781910153
 31
0.0
  0
LINE
  5
64B
  8
_____1
 62
     1
 10
14.30807541138711
 20
250.6254157441931
 30
0.0
 11
15.79206229471265
 21
250.6254157441931
 31
0.0
  0
LINE
  5
64C
  8
_____1
 62
     1
 10
12.77597291239181
 20
250.7691781910153
 30
0.0
 11
14.30807541138711
 21
250.6254157441931
 31
0.0
  0
LINE
  5
64D
  8
_____1
 62
     1
 10
11.29198602906627
 20
251.1521551157489
 30
0.0
 11
12.77597291239181
 21
250.7691781910153
 31
0.0
  0
LINE
  5
64E
  8
_____1
 62
     1
 10
9.85572516128559
 20
251.6788944873042
 30
0.0
 11
11.29198602906627
 21
251.1521551157489
 31
0.0
  0
LINE
  5
64F
  8
_____1
 62
     1
 10
8.515305924719542
 20
252.3490067055554
 30
0.0
 11
9.85572516128559
 21
251.6788944873042
 31
0.0
  0
LINE
  5
650
  8
_____1
 62
     1
 10
7.2705335193059
 20
253.2108021862373
 30
0.0
 11
8.515305924719542
 21
252.3490067055554
 31
0.0
  0
LINE
  5
651
  8
_____1
 62
     1
 10
6.121602745106884
 20
254.1680496980075
 30
0.0
 11
7.2705335193059
 21
253.2108021862373
 31
0.0
  0
LINE
  5
652
  8
_____1
 62
     1
 10
5.068318802058002
 20
255.2694492567257
 30
0.0
 11
6.121602745106884
 21
254.1680496980075
 31
0.0
  0
LINE
  5
653
  8
_____1
 62
     1
 10
4.158602505770887
 20
256.5142216621393
 30
0.0
 11
5.068318802058002
 21
255.2694492567257
 31
0.0
  0
LINE
  5
654
  8
_____1
 62
     1
 10
3.440569471910749
 20
257.8065252830338
 30
0.0
 11
4.158602505770887
 21
256.5142216621393
 31
0.0
  0
LINE
  5
655
  8
_____1
 62
     1
 10
2.818183269202564
 20
259.2429809508785
 30
0.0
 11
3.440569471910749
 21
257.8065252830338
 31
0.0
  0
LINE
  5
656
  8
_____1
 62
     1
 10
26.61164741858147
 20
257.9502877298555
 30
0.0
 11
27.1861128056803
 21
259.3388225820931
 31
0.0
  0
LINE
  5
657
  8
_____1
 62
     1
 10
25.89361438472133
 20
256.6575945088348
 30
0.0
 11
26.61164741858147
 21
257.9502877298555
 31
0.0
  0
LINE
  5
658
  8
_____1
 62
     1
 10
24.98389808843422
 20
255.4128221034211
 30
0.0
 11
25.89361438472133
 21
256.6575945088348
 31
0.0
  0
LINE
  5
659
  8
_____1
 62
     1
 10
23.97853496099287
 20
254.3118121448292
 30
0.0
 11
24.98389808843422
 21
255.4128221034211
 31
0.0
  0
LINE
  5
65A
  8
_____1
 62
     1
 10
22.8296041867934
 20
253.3066438174519
 30
0.0
 11
23.97853496099287
 21
254.3118121448292
 31
0.0
  0
LINE
  5
65B
  8
_____1
 62
     1
 10
21.53691096577268
 20
252.4448483367719
 30
0.0
 11
22.8296041867934
 21
253.3066438174519
 31
0.0
  0
LINE
  5
65C
  8
_____1
 62
     1
 10
20.19649172920663
 20
251.7743465183926
 30
0.0
 11
21.53691096577268
 21
252.4448483367719
 31
0.0
  0
LINE
  5
65D
  8
_____1
 62
     1
 10
18.76023086142595
 20
251.2479967469635
 30
0.0
 11
20.19649172920663
 21
251.7743465183926
 31
0.0
  0
LINE
  5
65E
  8
_____1
 62
     1
 10
17.32396999364528
 20
250.9129406378388
 30
0.0
 11
18.76023086142595
 21
251.2479967469635
 31
0.0
  0
LINE
  5
65F
  8
_____1
 62
     1
 10
15.79206229471265
 20
250.7212573754077
 30
0.0
 11
17.32396999364528
 21
250.9129406378388
 31
0.0
  0
LINE
  5
660
  8
_____1
 62
     1
 10
14.30807541138711
 20
250.7212573754077
 30
0.0
 11
15.79206229471265
 21
250.7212573754077
 31
0.0
  0
LINE
  5
661
  8
_____1
 62
     1
 10
12.77597291239181
 20
250.9129406378388
 30
0.0
 11
14.30807541138711
 21
250.7212573754077
 31
0.0
  0
LINE
  5
662
  8
_____1
 62
     1
 10
11.29198602906627
 20
251.2479967469635
 30
0.0
 11
12.77597291239181
 21
250.9129406378388
 31
0.0
  0
LINE
  5
663
  8
_____1
 62
     1
 10
9.90364597689313
 20
251.7743465183926
 30
0.0
 11
11.29198602906627
 21
251.2479967469635
 31
0.0
  0
LINE
  5
664
  8
_____1
 62
     1
 10
8.515305924719542
 20
252.4448483367719
 30
0.0
 11
9.90364597689313
 21
251.7743465183926
 31
0.0
  0
LINE
  5
665
  8
_____1
 62
     1
 10
7.2705335193059
 20
253.3066438174519
 30
0.0
 11
8.515305924719542
 21
252.4448483367719
 31
0.0
  0
LINE
  5
666
  8
_____1
 62
     1
 10
6.121602745106884
 20
254.3118121448292
 30
0.0
 11
7.2705335193059
 21
253.3066438174519
 31
0.0
  0
LINE
  5
667
  8
_____1
 62
     1
 10
5.116239617665087
 20
255.4128221034211
 30
0.0
 11
6.121602745106884
 21
254.3118121448292
 31
0.0
  0
LINE
  5
668
  8
_____1
 62
     1
 10
4.206523321377972
 20
256.6575945088348
 30
0.0
 11
5.116239617665087
 21
255.4128221034211
 31
0.0
  0
LINE
  5
669
  8
_____1
 62
     1
 10
3.488490287517834
 20
257.9502877298555
 30
0.0
 11
4.206523321377972
 21
256.6575945088348
 31
0.0
  0
LINE
  5
66A
  8
_____1
 62
     1
 10
2.914024900419463
 20
259.3388225820931
 30
0.0
 11
3.488490287517834
 21
257.9502877298555
 31
0.0
  0
LINE
  5
66B
  8
_____1
 62
     1
 10
3.488490287517834
 20
269.1049289628513
 30
0.0
 11
2.914024900419463
 21
267.7165889106777
 31
0.0
  0
LINE
  5
66C
  8
_____1
 62
     1
 10
4.206523321377972
 20
270.4453481994174
 30
0.0
 11
3.488490287517834
 21
269.1049289628513
 31
0.0
  0
LINE
  5
66D
  8
_____1
 62
     1
 10
5.116239617665087
 20
271.690120604831
 30
0.0
 11
4.206523321377972
 21
270.4453481994174
 31
0.0
  0
LINE
  5
66E
  8
_____1
 62
     1
 10
6.121602745106884
 20
272.791325363487
 30
0.0
 11
5.116239617665087
 21
271.690120604831
 31
0.0
  0
LINE
  5
66F
  8
_____1
 62
     1
 10
7.2705335193059
 20
273.7966884909265
 30
0.0
 11
6.121602745106884
 21
272.791325363487
 31
0.0
  0
LINE
  5
670
  8
_____1
 62
     1
 10
8.515305924719542
 20
274.6103683559368
 30
0.0
 11
7.2705335193059
 21
273.7966884909265
 31
0.0
  0
LINE
  5
671
  8
_____1
 62
     1
 10
9.90364597689313
 20
275.3285961898591
 30
0.0
 11
8.515305924719542
 21
274.6103683559368
 31
0.0
  0
LINE
  5
672
  8
_____1
 62
     1
 10
11.29198602906627
 20
275.8551407613509
 30
0.0
 11
9.90364597689313
 21
275.3285961898591
 31
0.0
  0
LINE
  5
673
  8
_____1
 62
     1
 10
12.77597291239181
 20
276.1903916705392
 30
0.0
 11
11.29198602906627
 21
275.8551407613509
 31
0.0
  0
LINE
  5
674
  8
_____1
 62
     1
 10
14.30807541138711
 20
276.3818801329062
 30
0.0
 11
12.77597291239181
 21
276.1903916705392
 31
0.0
  0
LINE
  5
675
  8
_____1
 62
     1
 10
15.79206229471265
 20
276.3818801329062
 30
0.0
 11
14.30807541138711
 21
276.3818801329062
 31
0.0
  0
LINE
  5
676
  8
_____1
 62
     1
 10
17.32396999364528
 20
276.1903916705392
 30
0.0
 11
15.79206229471265
 21
276.3818801329062
 31
0.0
  0
LINE
  5
677
  8
_____1
 62
     1
 10
18.76023086142595
 20
275.8551407613509
 30
0.0
 11
17.32396999364528
 21
276.1903916705392
 31
0.0
  0
LINE
  5
678
  8
_____1
 62
     1
 10
20.19649172920663
 20
275.3285961898591
 30
0.0
 11
18.76023086142595
 21
275.8551407613509
 31
0.0
  0
LINE
  5
679
  8
_____1
 62
     1
 10
21.53691096577268
 20
274.6103683559368
 30
0.0
 11
20.19649172920663
 21
275.3285961898591
 31
0.0
  0
LINE
  5
67A
  8
_____1
 62
     1
 10
22.8296041867934
 20
273.7966884909265
 30
0.0
 11
21.53691096577268
 21
274.6103683559368
 31
0.0
  0
LINE
  5
67B
  8
_____1
 62
     1
 10
23.97853496099287
 20
272.791325363487
 30
0.0
 11
22.8296041867934
 21
273.7966884909265
 31
0.0
  0
LINE
  5
67C
  8
_____1
 62
     1
 10
24.98389808843422
 20
271.690120604831
 30
0.0
 11
23.97853496099287
 21
272.791325363487
 31
0.0
  0
LINE
  5
67D
  8
_____1
 62
     1
 10
25.89361438472133
 20
270.4453481994174
 30
0.0
 11
24.98389808843422
 21
271.690120604831
 31
0.0
  0
LINE
  5
67E
  8
_____1
 62
     1
 10
26.61164741858147
 20
269.1049289628513
 30
0.0
 11
25.89361438472133
 21
270.4453481994174
 31
0.0
  0
LINE
  5
67F
  8
_____1
 62
     1
 10
27.1861128056803
 20
267.7165889106777
 30
0.0
 11
26.61164741858147
 21
269.1049289628513
 31
0.0
  0
LINE
  5
680
  8
_____1
 62
     1
 10
27.23403362128738
 20
259.2429809508785
 30
0.0
 11
27.28195443689492
 21
259.4821954287886
 31
0.0
  0
LINE
  5
681
  8
_____1
 62
     1
 10
27.28195443689492
 20
267.6209420795253
 30
0.0
 11
27.23403362128738
 21
267.8601565574372
 31
0.0
  0
LINE
  5
682
  8
_____1
 62
     1
 10
27.32968045243979
 20
259.4342746131811
 30
0.0
 11
27.28195443689492
 21
259.2429809508785
 31
0.0
  0
LINE
  5
683
  8
_____1
 62
     1
 10
2.818183269202564
 20
259.2429809508785
 30
0.0
 11
2.770262453595478
 21
259.4342746131811
 31
0.0
  0
LINE
  5
684
  8
_____1
 62
     1
 10
27.28195443689492
 20
267.8601565574372
 30
0.0
 11
27.32968045243979
 21
267.6209420795253
 31
0.0
  0
LINE
  5
685
  8
_____1
 62
     1
 10
27.37760126804687
 20
259.3388225820931
 30
0.0
 11
27.61701054602099
 21
259.2429809508785
 31
0.0
  0
LINE
  5
686
  8
_____1
 62
     1
 10
27.32968045243979
 20
259.4821954287886
 30
0.0
 11
27.37760126804687
 21
259.3388225820931
 31
0.0
  0
LINE
  5
687
  8
_____1
 62
     1
 10
27.42552208365441
 20
267.7645097262853
 30
0.0
 11
27.32968045243979
 21
267.6209420795253
 31
0.0
  0
LINE
  5
688
  8
_____1
 62
     1
 10
27.61701054602099
 20
267.8124305418924
 30
0.0
 11
27.42552208365441
 21
267.7645097262853
 31
0.0
  0
LINE
  5
689
  8
_____1
 62
     1
 10
2.674615622445344
 20
267.7645097262853
 30
0.0
 11
2.483127160078311
 21
267.8122357418301
 31
0.0
  0
LINE
  5
68A
  8
_____1
 62
     1
 10
2.770262453595478
 20
267.6209420795253
 30
0.0
 11
2.674615622445344
 21
267.7645097262853
 31
0.0
  0
LINE
  5
68B
  8
_____1
 62
     1
 10
2.578773991230719
 20
259.2429809508785
 30
0.0
 11
2.770262453595478
 21
259.4821954287886
 31
0.0
  0
LINE
  5
68C
  8
_____1
 62
     1
 10
2.483127160078311
 20
259.2429809508785
 30
0.0
 11
2.578773991230719
 21
259.2429809508785
 31
0.0
  0
LINE
  5
68D
  8
_____1
 62
     1
 10
27.90414583953816
 20
266.9506350612105
 30
0.0
 11
27.61701054602099
 21
267.8122357418301
 31
0.0
  0
LINE
  5
68E
  8
_____1
 62
     1
 10
28.19147593311982
 20
265.5622950090369
 30
0.0
 11
27.90414583953816
 21
266.9506350612105
 31
0.0
  0
LINE
  5
68F
  8
_____1
 62
     1
 10
28.33504357987931
 20
264.1739549568638
 30
0.0
 11
28.19147593311982
 21
265.5622950090369
 31
0.0
  0
LINE
  5
690
  8
_____1
 62
     1
 10
28.33504357987931
 20
262.8812617358431
 30
0.0
 11
28.33504357987931
 21
264.1739549568638
 31
0.0
  0
LINE
  5
691
  8
_____1
 62
     1
 10
28.09563430190519
 20
260.9661823121141
 30
0.0
 11
28.33504357987931
 21
262.8812617358431
 31
0.0
  0
LINE
  5
692
  8
_____1
 62
     1
 10
27.90414583953816
 20
260.1047764315604
 30
0.0
 11
28.09563430190519
 21
260.9661823121141
 31
0.0
  0
LINE
  5
693
  8
_____1
 62
     1
 10
27.61701054602099
 20
259.2429809508785
 30
0.0
 11
27.90414583953816
 21
260.1047764315604
 31
0.0
  0
LINE
  5
694
  8
_____1
 62
     1
 10
27.28195443689492
 20
259.2429809508785
 30
0.0
 11
27.61701054602099
 21
259.2429809508785
 31
0.0
  0
LINE
  5
695
  8
_____1
 62
     1
 10
27.28195443689492
 20
267.8124305418924
 30
0.0
 11
27.28195443689492
 21
267.8601565574372
 31
0.0
  0
LINE
  5
696
  8
_____1
 62
     1
 10
27.61701054602099
 20
267.8124305418924
 30
0.0
 11
27.28195443689492
 21
267.8124305418924
 31
0.0
  0
LINE
  5
697
  8
_____1
 62
     1
 10
2.100150235344699
 20
260.4877533562922
 30
0.0
 11
2.483127160078311
 21
259.2429809508785
 31
0.0
  0
LINE
  5
698
  8
_____1
 62
     1
 10
1.812820141763041
 20
262.1155026864394
 30
0.0
 11
2.100150235344699
 21
260.4877533562922
 31
0.0
  0
LINE
  5
699
  8
_____1
 62
     1
 10
1.764899326155955
 20
264.3175226036233
 30
0.0
 11
1.812820141763041
 21
262.1155026864394
 31
0.0
  0
LINE
  5
69A
  8
_____1
 62
     1
 10
2.004308604130074
 20
266.1846812117451
 30
0.0
 11
1.764899326155955
 21
264.3175226036233
 31
0.0
  0
LINE
  5
69B
  8
_____1
 62
     1
 10
2.483127160078311
 20
267.8124305418924
 30
0.0
 11
2.004308604130074
 21
266.1846812117451
 31
0.0
  0
LINE
  5
69C
  8
_____1
 62
     1
 10
2.818183269202564
 20
267.8601565574372
 30
0.0
 11
2.483127160078311
 21
267.8122357418301
 31
0.0
  0
LINE
  5
69D
  8
_____1
 62
     1
 10
2.483127160078311
 20
259.2429809508785
 30
0.0
 11
2.818183269202564
 21
259.2429809508785
 31
0.0
  0
LINE
  5
69E
  8
_____1
 62
     1
 10
27.32968045243979
 20
259.4342746131811
 30
0.0
 11
27.28195443689492
 21
259.4821954287886
 31
0.0
  0
LINE
  5
69F
  8
_____1
 62
     1
 10
27.32968045243979
 20
259.4342746131811
 30
0.0
 11
27.32968045243979
 21
259.4821954287886
 31
0.0
  0
LINE
  5
6A0
  8
_____1
 62
     1
 10
27.32968045243979
 20
267.6209420795253
 30
0.0
 11
27.37760126804687
 21
267.6209420795253
 31
0.0
  0
LINE
  5
6A1
  8
_____1
 62
     1
 10
27.32968045243979
 20
267.6209420795253
 30
0.0
 11
27.28195443689492
 21
267.6209420795253
 31
0.0
  0
LINE
  5
6A2
  8
_____1
 62
     1
 10
2.818183269202564
 20
259.2429809508785
 30
0.0
 11
2.866104084811923
 21
259.2429809508785
 31
0.0
  0
LINE
  5
6A3
  8
_____1
 62
     1
 10
27.28195443689492
 20
259.2429809508785
 30
0.0
 11
27.32968045243979
 21
259.2429809508785
 31
0.0
  0
LINE
  5
6A4
  8
_____1
 62
     1
 10
27.28195443689492
 20
259.2429809508785
 30
0.0
 11
27.23403362128738
 21
259.2429809508785
 31
0.0
  0
LINE
  5
6A5
  8
_____1
 62
     1
 10
2.770262453595478
 20
267.6209420795253
 30
0.0
 11
2.818183269202564
 21
267.6209420795253
 31
0.0
  0
LINE
  5
6A6
  8
_____1
 62
     1
 10
2.770262453595478
 20
259.4821954287886
 30
0.0
 11
2.770262453595478
 21
259.4342746131811
 31
0.0
  0
LINE
  5
6A7
  8
_____1
 62
     1
 10
27.28195443689492
 20
267.8601565574372
 30
0.0
 11
27.32968045243979
 21
267.8601565574372
 31
0.0
  0
LINE
  5
6A8
  8
_____1
 62
     1
 10
2.818183269202564
 20
267.8601565574372
 30
0.0
 11
2.866104084811923
 21
267.8601565574372
 31
0.0
  0
LINE
  5
6A9
  8
_____1
 62
     1
 10
27.28195443689492
 20
267.8601565574372
 30
0.0
 11
27.23403362128738
 21
267.8601565574372
 31
0.0
  0
LINE
  5
6AA
  8
_____1
 62
     1
 10
20.72303630069791
 20
237.1729129627993
 30
0.0
 11
17.37189080925282
 21
237.1729129627993
 31
0.0
  0
LINE
  5
6AB
  8
_____1
 62
     1
 10
16.74950460654509
 20
237.1729129627993
 30
0.0
 11
13.35043829949063
 21
237.1729129627993
 31
0.0
  0
LINE
  5
6AC
  8
_____1
 62
     1
 10
12.77597291239181
 20
237.1729129627993
 30
0.0
 11
9.376906605337354
 21
237.1729129627993
 31
0.0
  0
LINE
  5
6AD
  8
_____1
 62
     1
 10
22.11137635287105
 20
237.2208337784086
 30
0.0
 11
20.81887793191254
 21
237.2208337784086
 31
0.0
  0
LINE
  5
6AE
  8
_____1
 62
     1
 10
17.27624397810041
 20
237.2208337784086
 30
0.0
 11
16.84534623775926
 21
237.2208337784086
 31
0.0
  0
LINE
  5
6AF
  8
_____1
 62
     1
 10
13.25479146834004
 20
237.2208337784086
 30
0.0
 11
12.87181454360643
 21
237.2208337784086
 31
0.0
  0
LINE
  5
6B0
  8
_____1
 62
     1
 10
8.13232899998593
 20
237.2208337784086
 30
0.0
 11
9.281259774184946
 21
237.2208337784086
 31
0.0
  0
LINE
  5
6B1
  8
_____1
 62
     1
 10
21.24977567225324
 20
237.2687545940162
 30
0.0
 11
20.86679874752144
 21
237.2687545940162
 31
0.0
  0
LINE
  5
6B2
  8
_____1
 62
     1
 10
17.22832316249333
 20
237.2687545940162
 30
0.0
 11
16.84534623775926
 21
237.2687545940162
 31
0.0
  0
LINE
  5
6B3
  8
_____1
 62
     1
 10
13.25479146834004
 20
237.2687545940162
 30
0.0
 11
12.87181454360643
 21
237.2687545940162
 31
0.0
  0
LINE
  5
6B4
  8
_____1
 62
     1
 10
9.281259774184946
 20
237.2687545940162
 30
0.0
 11
8.850362033846068
 21
237.2687545940162
 31
0.0
  0
LINE
  5
6B5
  8
_____1
 62
     1
 10
19.0954817706147
 20
237.2687545940162
 30
0.0
 11
18.99964013940007
 21
237.2687545940162
 31
0.0
  0
LINE
  5
6B6
  8
_____1
 62
     1
 10
15.12195007646187
 20
237.2687545940162
 30
0.0
 11
14.97818762963789
 21
237.2687545940162
 31
0.0
  0
LINE
  5
6B7
  8
_____1
 62
     1
 10
11.14822358224455
 20
237.2687545940162
 30
0.0
 11
11.00465593548506
 21
237.2687545940162
 31
0.0
  0
LINE
  5
6B8
  8
_____1
 62
     1
 10
19.14320778615775
 20
237.3166754096233
 30
0.0
 11
18.95171932379071
 21
237.3166754096233
 31
0.0
  0
LINE
  5
6B9
  8
_____1
 62
     1
 10
15.16967609200492
 20
237.3166754096233
 30
0.0
 11
14.97818762963789
 21
237.3166754096233
 31
0.0
  0
LINE
  5
6BA
  8
_____1
 62
     1
 10
11.14822358224455
 20
237.3166754096233
 30
0.0
 11
10.95673511987752
 21
237.3166754096233
 31
0.0
  0
LINE
  5
6BB
  8
_____1
 62
     1
 10
21.34542250340564
 20
237.3645962252303
 30
0.0
 11
20.86679874752144
 21
237.3645962252303
 31
0.0
  0
LINE
  5
6BC
  8
_____1
 62
     1
 10
17.22832316249333
 20
237.3645962252303
 30
0.0
 11
16.84534623775926
 21
237.3645962252303
 31
0.0
  0
LINE
  5
6BD
  8
_____1
 62
     1
 10
13.25479146834004
 20
237.3645962252303
 30
0.0
 11
12.87181454360643
 21
237.3645962252303
 31
0.0
  0
LINE
  5
6BE
  8
_____1
 62
     1
 10
9.281259774184946
 20
237.3645962252303
 30
0.0
 11
8.754520402629623
 21
237.3645962252303
 31
0.0
  0
LINE
  5
6BF
  8
_____1
 62
     1
 10
11.00465593548506
 20
237.3645962252303
 30
0.0
 11
11.14822358224455
 21
237.3645962252303
 31
0.0
  0
LINE
  5
6C0
  8
_____1
 62
     1
 10
14.97818762963789
 20
237.3645962252303
 30
0.0
 11
15.12195007646187
 21
237.3645962252303
 31
0.0
  0
LINE
  5
6C1
  8
_____1
 62
     1
 10
18.99964013940007
 20
237.3645962252303
 30
0.0
 11
19.0954817706147
 21
237.3645962252303
 31
0.0
  0
LINE
  5
6C2
  8
_____1
 62
     1
 10
9.376906605337354
 20
237.4600482563187
 30
0.0
 11
12.77597291239181
 21
237.4600482563187
 31
0.0
  0
LINE
  5
6C3
  8
_____1
 62
     1
 10
13.35043829949063
 20
237.4600482563187
 30
0.0
 11
16.74950460654509
 21
237.4600482563187
 31
0.0
  0
LINE
  5
6C4
  8
_____1
 62
     1
 10
17.37189080925282
 20
237.4600482563187
 30
0.0
 11
20.72303630069791
 21
237.4600482563187
 31
0.0
  0
LINE
  5
6C5
  8
_____1
 62
     1
 10
9.281259774184946
 20
237.6038107031404
 30
0.0
 11
12.87181454360643
 21
237.6038107031404
 31
0.0
  0
LINE
  5
6C6
  8
_____1
 62
     1
 10
13.25479146834004
 20
237.6038107031404
 30
0.0
 11
16.84534623775926
 21
237.6038107031404
 31
0.0
  0
LINE
  5
6C7
  8
_____1
 62
     1
 10
17.22832316249333
 20
237.6038107031404
 30
0.0
 11
20.86679874752144
 21
237.6038107031404
 31
0.0
  0
LINE
  5
6C8
  8
_____1
 62
     1
 10
8.754520402629623
 20
237.938866812267
 30
0.0
 11
9.281259774184946
 21
237.938866812267
 31
0.0
  0
LINE
  5
6C9
  8
_____1
 62
     1
 10
12.87181454360643
 20
237.938866812267
 30
0.0
 11
13.25479146834004
 21
237.938866812267
 31
0.0
  0
LINE
  5
6CA
  8
_____1
 62
     1
 10
16.84534623775926
 20
237.938866812267
 30
0.0
 11
17.22832316249333
 21
237.938866812267
 31
0.0
  0
LINE
  5
6CB
  8
_____1
 62
     1
 10
20.86679874752144
 20
237.938866812267
 30
0.0
 11
21.34542250340564
 21
237.938866812267
 31
0.0
  0
LINE
  5
6CC
  8
_____1
 62
     1
 10
10.621679010751
 20
237.938866812267
 30
0.0
 11
11.53139530704038
 21
237.938866812267
 31
0.0
  0
LINE
  5
6CD
  8
_____1
 62
     1
 10
14.54728988929901
 20
237.938866812267
 30
0.0
 11
14.69105233612072
 21
237.938866812267
 31
0.0
  0
LINE
  5
6CE
  8
_____1
 62
     1
 10
15.31343853882845
 20
237.938866812267
 30
0.0
 11
15.55265301673853
 21
237.938866812267
 31
0.0
  0
LINE
  5
6CF
  8
_____1
 62
     1
 10
21.24977567225324
 20
238.0347084434816
 30
0.0
 11
20.86679874752144
 21
238.0347084434816
 31
0.0
  0
LINE
  5
6D0
  8
_____1
 62
     1
 10
17.22832316249333
 20
238.0347084434816
 30
0.0
 11
16.84534623775926
 21
238.0347084434816
 31
0.0
  0
LINE
  5
6D1
  8
_____1
 62
     1
 10
13.25479146834004
 20
238.0347084434816
 30
0.0
 11
12.87181454360643
 21
238.0347084434816
 31
0.0
  0
LINE
  5
6D2
  8
_____1
 62
     1
 10
9.281259774184946
 20
238.0347084434816
 30
0.0
 11
8.850362033846068
 21
238.0347084434816
 31
0.0
  0
LINE
  5
6D3
  8
_____1
 62
     1
 10
18.71250484588109
 20
238.0347084434816
 30
0.0
 11
19.38261706413186
 21
238.0347084434816
 31
0.0
  0
LINE
  5
6D4
  8
_____1
 62
     1
 10
11.53139530704038
 20
238.1305500746957
 30
0.0
 11
10.76524665751094
 21
238.1305500746957
 31
0.0
  0
LINE
  5
6D5
  8
_____1
 62
     1
 10
21.34542250340564
 20
238.1305500746957
 30
0.0
 11
20.86679874752144
 21
238.1305500746957
 31
0.0
  0
LINE
  5
6D6
  8
_____1
 62
     1
 10
19.38261706413186
 20
238.1305500746957
 30
0.0
 11
18.71250484588109
 21
238.1305500746957
 31
0.0
  0
LINE
  5
6D7
  8
_____1
 62
     1
 10
17.22832316249333
 20
238.1305500746957
 30
0.0
 11
16.84534623775926
 21
238.1305500746957
 31
0.0
  0
LINE
  5
6D8
  8
_____1
 62
     1
 10
13.25479146834004
 20
238.1305500746957
 30
0.0
 11
12.87181454360643
 21
238.1305500746957
 31
0.0
  0
LINE
  5
6D9
  8
_____1
 62
     1
 10
9.281259774184946
 20
238.1305500746957
 30
0.0
 11
8.754520402629623
 21
238.1305500746957
 31
0.0
  0
LINE
  5
6DA
  8
_____1
 62
     1
 10
22.11137635287105
 20
238.2739229213912
 30
0.0
 11
21.7763202437468
 21
238.2739229213912
 31
0.0
  0
LINE
  5
6DB
  8
_____1
 62
     1
 10
8.13232899998593
 20
238.2739229213912
 30
0.0
 11
8.467385109112456
 21
238.2739229213912
 31
0.0
  0
LINE
  5
6DC
  8
_____1
 62
     1
 10
18.56874239905892
 20
238.3218437370006
 30
0.0
 11
19.52618471089136
 21
238.3218437370006
 31
0.0
  0
LINE
  5
6DD
  8
_____1
 62
     1
 10
19.52618471089136
 20
238.4176853682152
 30
0.0
 11
18.56874239905892
 21
238.4176853682152
 31
0.0
  0
LINE
  5
6DE
  8
_____1
 62
     1
 10
18.37725393669234
 20
238.6089790305177
 30
0.0
 11
19.71767317325839
 21
238.6089790305177
 31
0.0
  0
LINE
  5
6DF
  8
_____1
 62
     1
 10
19.71767317325839
 20
238.7048206617324
 30
0.0
 11
19.0954817706147
 21
238.7048206617324
 31
0.0
  0
LINE
  5
6E0
  8
_____1
 62
     1
 10
18.99964013940007
 20
238.7048206617324
 30
0.0
 11
18.37725393669234
 21
238.7048206617324
 31
0.0
  0
LINE
  5
6E1
  8
_____1
 62
     1
 10
8.850362033846068
 20
238.7527414773394
 30
0.0
 11
9.281259774184946
 21
238.7527414773394
 31
0.0
  0
LINE
  5
6E2
  8
_____1
 62
     1
 10
12.87181454360643
 20
238.7527414773394
 30
0.0
 11
13.25479146834004
 21
238.7527414773394
 31
0.0
  0
LINE
  5
6E3
  8
_____1
 62
     1
 10
16.84534623775926
 20
238.7527414773394
 30
0.0
 11
17.22832316249333
 21
238.7527414773394
 31
0.0
  0
LINE
  5
6E4
  8
_____1
 62
     1
 10
20.86679874752144
 20
238.7527414773394
 30
0.0
 11
21.24977567225324
 21
238.7527414773394
 31
0.0
  0
LINE
  5
6E5
  8
_____1
 62
     1
 10
15.55265301673853
 20
239.1836392176806
 30
0.0
 11
15.40908536997904
 21
239.1836392176806
 31
0.0
  0
LINE
  5
6E6
  8
_____1
 62
     1
 10
14.78669916727085
 20
239.1836392176806
 30
0.0
 11
14.54728988929901
 21
239.1836392176806
 31
0.0
  0
LINE
  5
6E7
  8
_____1
 62
     1
 10
10.76524665751094
 20
239.1836392176806
 30
0.0
 11
10.621679010751
 21
239.1836392176806
 31
0.0
  0
LINE
  5
6E8
  8
_____1
 62
     1
 10
19.0954817706147
 20
239.2315600332877
 30
0.0
 11
18.99964013940007
 21
239.2315600332877
 31
0.0
  0
LINE
  5
6E9
  8
_____1
 62
     1
 10
21.24977567225324
 20
239.4228536955925
 30
0.0
 11
20.86679874752144
 21
239.4228536955925
 31
0.0
  0
LINE
  5
6EA
  8
_____1
 62
     1
 10
17.22832316249333
 20
239.4228536955925
 30
0.0
 11
16.84534623775926
 21
239.4228536955925
 31
0.0
  0
LINE
  5
6EB
  8
_____1
 62
     1
 10
13.25479146834004
 20
239.4228536955925
 30
0.0
 11
12.87181454360643
 21
239.4228536955925
 31
0.0
  0
LINE
  5
6EC
  8
_____1
 62
     1
 10
9.281259774184946
 20
239.4228536955925
 30
0.0
 11
8.850362033846068
 21
239.4228536955925
 31
0.0
  0
LINE
  5
6ED
  8
_____1
 62
     1
 10
21.24977567225324
 20
239.4707745112
 30
0.0
 11
20.86679874752144
 21
239.4707745112
 31
0.0
  0
LINE
  5
6EE
  8
_____1
 62
     1
 10
17.22832316249333
 20
239.4707745112
 30
0.0
 11
16.84534623775926
 21
239.4707745112
 31
0.0
  0
LINE
  5
6EF
  8
_____1
 62
     1
 10
13.25479146834004
 20
239.4707745112
 30
0.0
 11
12.87181454360643
 21
239.4707745112
 31
0.0
  0
LINE
  5
6F0
  8
_____1
 62
     1
 10
9.281259774184946
 20
239.4707745112
 30
0.0
 11
8.850362033846068
 21
239.4707745112
 31
0.0
  0
LINE
  5
6F1
  8
_____1
 62
     1
 10
8.754520402629623
 20
239.5666161424142
 30
0.0
 11
9.376906605337354
 21
239.5666161424142
 31
0.0
  0
LINE
  5
6F2
  8
_____1
 62
     1
 10
12.77597291239181
 20
239.5666161424142
 30
0.0
 11
13.35043829949063
 21
239.5666161424142
 31
0.0
  0
LINE
  5
6F3
  8
_____1
 62
     1
 10
16.74950460654509
 20
239.5666161424142
 30
0.0
 11
17.37189080925282
 21
239.5666161424142
 31
0.0
  0
LINE
  5
6F4
  8
_____1
 62
     1
 10
20.72303630069791
 20
239.5666161424142
 30
0.0
 11
21.34542250340564
 21
239.5666161424142
 31
0.0
  0
LINE
  5
6F5
  8
_____1
 62
     1
 10
8.754520402629623
 20
239.6145369580217
 30
0.0
 11
21.34542250340564
 21
239.6145369580217
 31
0.0
  0
LINE
  5
6F6
  8
_____1
 62
     1
 10
8.850362033846068
 20
239.7582994048435
 30
0.0
 11
21.24977567225324
 21
239.7582994048435
 31
0.0
  0
LINE
  5
6F7
  8
_____1
 62
     1
 10
8.754520402629623
 20
239.8537514359314
 30
0.0
 11
21.34542250340564
 21
239.8537514359314
 31
0.0
  0
LINE
  5
6F8
  8
_____1
 62
     1
 10
9.23333895857786
 20
240.1891971451842
 30
0.0
 11
10.19078127041212
 21
240.1891971451842
 31
0.0
  0
LINE
  5
6F9
  8
_____1
 62
     1
 10
10.52603217960086
 20
240.1891971451842
 30
0.0
 11
11.62704213819279
 21
240.1891971451842
 31
0.0
  0
LINE
  5
6FA
  8
_____1
 62
     1
 10
11.914372231774
 20
240.1891971451842
 30
0.0
 11
12.87181454360643
 21
240.1891971451842
 31
0.0
  0
LINE
  5
6FB
  8
_____1
 62
     1
 10
13.25479146834004
 20
240.1891971451842
 30
0.0
 11
14.21223378017248
 21
240.1891971451842
 31
0.0
  0
LINE
  5
6FC
  8
_____1
 62
     1
 10
14.49956387375369
 20
240.1891971451842
 30
0.0
 11
15.60057383234562
 21
240.1891971451842
 31
0.0
  0
LINE
  5
6FD
  8
_____1
 62
     1
 10
15.93562994147214
 20
240.1891971451842
 30
0.0
 11
16.8932670533668
 21
240.1891971451842
 31
0.0
  0
LINE
  5
6FE
  8
_____1
 62
     1
 10
17.22832316249333
 20
240.1891971451842
 30
0.0
 11
18.18576547432531
 21
240.1891971451842
 31
0.0
  0
LINE
  5
6FF
  8
_____1
 62
     1
 10
18.52082158345183
 20
240.1891971451842
 30
0.0
 11
19.5741055264989
 21
240.1891971451842
 31
0.0
  0
LINE
  5
700
  8
_____1
 62
     1
 10
19.90935643568719
 20
240.1891971451842
 30
0.0
 11
20.86679874752144
 21
240.1891971451842
 31
0.0
  0
LINE
  5
701
  8
_____1
 62
     1
 10
9.329180589792486
 20
240.2846491762725
 30
0.0
 11
10.14286045480276
 21
240.2846491762725
 31
0.0
  0
LINE
  5
702
  8
_____1
 62
     1
 10
10.57375819514391
 20
240.2846491762725
 30
0.0
 11
11.53139530704038
 21
240.2846491762725
 31
0.0
  0
LINE
  5
703
  8
_____1
 62
     1
 10
12.01001906292458
 20
240.2846491762725
 30
0.0
 11
12.82389372799935
 21
240.2846491762725
 31
0.0
  0
LINE
  5
704
  8
_____1
 62
     1
 10
13.30271228394759
 20
240.2846491762725
 30
0.0
 11
14.11658694902007
 21
240.2846491762725
 31
0.0
  0
LINE
  5
705
  8
_____1
 62
     1
 10
14.59521070490609
 20
240.2846491762725
 30
0.0
 11
15.50492700119321
 21
240.2846491762725
 31
0.0
  0
LINE
  5
706
  8
_____1
 62
     1
 10
15.98355075707923
 20
240.2846491762725
 30
0.0
 11
16.79742542215217
 21
240.2846491762725
 31
0.0
  0
LINE
  5
707
  8
_____1
 62
     1
 10
17.27624397810041
 20
240.2846491762725
 30
0.0
 11
18.13784465871822
 21
240.2846491762725
 31
0.0
  0
LINE
  5
708
  8
_____1
 62
     1
 10
18.56874239905892
 20
240.2846491762725
 30
0.0
 11
19.52618471089136
 21
240.2846491762725
 31
0.0
  0
LINE
  5
709
  8
_____1
 62
     1
 10
19.95708245123251
 20
240.2846491762725
 30
0.0
 11
20.81887793191254
 21
240.2846491762725
 31
0.0
  0
LINE
  5
70A
  8
_____1
 62
     1
 10
18.52082158345183
 20
240.5721740699182
 30
0.0
 11
18.18576547432531
 21
240.5721740699182
 31
0.0
  0
LINE
  5
70B
  8
_____1
 62
     1
 10
14.49956387375369
 20
240.5721740699182
 30
0.0
 11
14.21223378017248
 21
240.5721740699182
 31
0.0
  0
LINE
  5
70C
  8
_____1
 62
     1
 10
10.52603217960086
 20
240.5721740699182
 30
0.0
 11
10.19078127041212
 21
240.5721740699182
 31
0.0
  0
LINE
  5
70D
  8
_____1
 62
     1
 10
11.62704213819279
 20
240.5721740699182
 30
0.0
 11
11.914372231774
 21
240.5721740699182
 31
0.0
  0
LINE
  5
70E
  8
_____1
 62
     1
 10
15.60057383234562
 20
240.5721740699182
 30
0.0
 11
15.93562994147214
 21
240.5721740699182
 31
0.0
  0
LINE
  5
70F
  8
_____1
 62
     1
 10
19.5741055264989
 20
240.5721740699182
 30
0.0
 11
19.90935643568719
 21
240.5721740699182
 31
0.0
  0
LINE
  5
710
  8
_____1
 62
     1
 10
10.14286045480276
 20
240.6676261010061
 30
0.0
 11
10.57375819514391
 21
240.6676261010061
 31
0.0
  0
LINE
  5
711
  8
_____1
 62
     1
 10
11.53139530704038
 20
240.6676261010061
 30
0.0
 11
12.01001906292458
 21
240.6676261010061
 31
0.0
  0
LINE
  5
712
  8
_____1
 62
     1
 10
14.11658694902007
 20
240.6676261010061
 30
0.0
 11
14.59521070490609
 21
240.6676261010061
 31
0.0
  0
LINE
  5
713
  8
_____1
 62
     1
 10
15.50492700119321
 20
240.6676261010061
 30
0.0
 11
15.98355075707923
 21
240.6676261010061
 31
0.0
  0
LINE
  5
714
  8
_____1
 62
     1
 10
18.13784465871822
 20
240.6676261010061
 30
0.0
 11
18.56874239905892
 21
240.6676261010061
 31
0.0
  0
LINE
  5
715
  8
_____1
 62
     1
 10
19.52618471089136
 20
240.6676261010061
 30
0.0
 11
19.95708245123251
 21
240.6676261010061
 31
0.0
  0
LINE
  5
716
  8
_____1
 62
     1
 10
19.95708245123251
 20
241.3860487349907
 30
0.0
 11
19.52618471089136
 21
241.3860487349907
 31
0.0
  0
LINE
  5
717
  8
_____1
 62
     1
 10
18.56874239905892
 20
241.3860487349907
 30
0.0
 11
18.13784465871822
 21
241.3860487349907
 31
0.0
  0
LINE
  5
718
  8
_____1
 62
     1
 10
15.98355075707923
 20
241.3860487349907
 30
0.0
 11
15.50492700119321
 21
241.3860487349907
 31
0.0
  0
LINE
  5
719
  8
_____1
 62
     1
 10
14.59521070490609
 20
241.3860487349907
 30
0.0
 11
14.11658694902007
 21
241.3860487349907
 31
0.0
  0
LINE
  5
71A
  8
_____1
 62
     1
 10
12.01001906292458
 20
241.3860487349907
 30
0.0
 11
11.53139530704038
 21
241.3860487349907
 31
0.0
  0
LINE
  5
71B
  8
_____1
 62
     1
 10
10.57375819514391
 20
241.3860487349907
 30
0.0
 11
10.14286045480276
 21
241.3860487349907
 31
0.0
  0
LINE
  5
71C
  8
_____1
 62
     1
 10
10.19078127041212
 20
241.4335799504715
 30
0.0
 11
10.52603217960086
 21
241.4335799504715
 31
0.0
  0
LINE
  5
71D
  8
_____1
 62
     1
 10
11.62704213819279
 20
241.4335799504715
 30
0.0
 11
11.914372231774
 21
241.4335799504715
 31
0.0
  0
LINE
  5
71E
  8
_____1
 62
     1
 10
14.21223378017248
 20
241.4335799504715
 30
0.0
 11
14.49956387375369
 21
241.4335799504715
 31
0.0
  0
LINE
  5
71F
  8
_____1
 62
     1
 10
15.60057383234562
 20
241.4335799504715
 30
0.0
 11
15.93562994147214
 21
241.4335799504715
 31
0.0
  0
LINE
  5
720
  8
_____1
 62
     1
 10
18.18576547432531
 20
241.4335799504715
 30
0.0
 11
18.52082158345183
 21
241.4335799504715
 31
0.0
  0
LINE
  5
721
  8
_____1
 62
     1
 10
19.5741055264989
 20
241.4335799504715
 30
0.0
 11
19.90935643568719
 21
241.4335799504715
 31
0.0
  0
LINE
  5
722
  8
_____1
 62
     1
 10
20.81887793191254
 20
241.7690256597243
 30
0.0
 11
19.95708245123251
 21
241.7690256597243
 31
0.0
  0
LINE
  5
723
  8
_____1
 62
     1
 10
19.52618471089136
 20
241.7690256597243
 30
0.0
 11
18.56874239905892
 21
241.7690256597243
 31
0.0
  0
LINE
  5
724
  8
_____1
 62
     1
 10
18.13784465871822
 20
241.7690256597243
 30
0.0
 11
17.27624397810041
 21
241.7690256597243
 31
0.0
  0
LINE
  5
725
  8
_____1
 62
     1
 10
16.79742542215217
 20
241.7690256597243
 30
0.0
 11
15.98355075707923
 21
241.7690256597243
 31
0.0
  0
LINE
  5
726
  8
_____1
 62
     1
 10
15.50492700119321
 20
241.7690256597243
 30
0.0
 11
14.59521070490609
 21
241.7690256597243
 31
0.0
  0
LINE
  5
727
  8
_____1
 62
     1
 10
14.11658694902007
 20
241.7690256597243
 30
0.0
 11
13.30271228394759
 21
241.7690256597243
 31
0.0
  0
LINE
  5
728
  8
_____1
 62
     1
 10
12.82389372799935
 20
241.7690256597243
 30
0.0
 11
12.01001906292458
 21
241.7690256597243
 31
0.0
  0
LINE
  5
729
  8
_____1
 62
     1
 10
11.53139530704038
 20
241.7690256597243
 30
0.0
 11
10.57375819514391
 21
241.7690256597243
 31
0.0
  0
LINE
  5
72A
  8
_____1
 62
     1
 10
10.14286045480276
 20
241.7690256597243
 30
0.0
 11
9.329180589792486
 21
241.7690256597243
 31
0.0
  0
LINE
  5
72B
  8
_____1
 62
     1
 10
20.86679874752144
 20
241.8165568752056
 30
0.0
 11
19.90935643568719
 21
241.8165568752056
 31
0.0
  0
LINE
  5
72C
  8
_____1
 62
     1
 10
18.18576547432531
 20
241.8165568752056
 30
0.0
 11
17.22832316249333
 21
241.8165568752056
 31
0.0
  0
LINE
  5
72D
  8
_____1
 62
     1
 10
16.8932670533668
 20
241.8165568752056
 30
0.0
 11
15.93562994147214
 21
241.8165568752056
 31
0.0
  0
LINE
  5
72E
  8
_____1
 62
     1
 10
14.21223378017248
 20
241.8165568752056
 30
0.0
 11
13.25479146834004
 21
241.8165568752056
 31
0.0
  0
LINE
  5
72F
  8
_____1
 62
     1
 10
12.87181454360643
 20
241.8165568752056
 30
0.0
 11
11.914372231774
 21
241.8165568752056
 31
0.0
  0
LINE
  5
730
  8
_____1
 62
     1
 10
10.19078127041212
 20
241.8165568752056
 30
0.0
 11
9.23333895857786
 21
241.8165568752056
 31
0.0
  0
LINE
  5
731
  8
_____1
 62
     1
 10
10.52603217960086
 20
241.8165568752056
 30
0.0
 11
11.62704213819279
 21
241.8165568752056
 31
0.0
  0
LINE
  5
732
  8
_____1
 62
     1
 10
14.49956387375369
 20
241.8165568752056
 30
0.0
 11
15.60057383234562
 21
241.8165568752056
 31
0.0
  0
LINE
  5
733
  8
_____1
 62
     1
 10
18.52082158345183
 20
241.8165568752056
 30
0.0
 11
19.5741055264989
 21
241.8165568752056
 31
0.0
  0
LINE
  5
734
  8
_____1
 62
     1
 10
8.754520402629623
 20
242.1995337999392
 30
0.0
 11
21.34542250340564
 21
242.1995337999392
 31
0.0
  0
LINE
  5
735
  8
_____1
 62
     1
 10
8.850362033846068
 20
242.2953754311538
 30
0.0
 11
21.24977567225324
 21
242.2953754311538
 31
0.0
  0
LINE
  5
736
  8
_____1
 62
     1
 10
8.754520402629623
 20
242.391217062368
 30
0.0
 11
15.64849464795316
 21
242.391217062368
 31
0.0
  0
LINE
  5
737
  8
_____1
 62
     1
 10
18.47309556790697
 20
242.391217062368
 30
0.0
 11
21.34542250340564
 21
242.391217062368
 31
0.0
  0
LINE
  5
738
  8
_____1
 62
     1
 10
17.56337927161758
 20
244.0668872081228
 30
0.0
 11
16.51029012863501
 21
244.0668872081228
 31
0.0
  0
LINE
  5
739
  8
_____1
 62
     1
 10
17.18040234688578
 20
244.1148080237299
 30
0.0
 11
17.22832316249333
 21
244.1148080237299
 31
0.0
  0
LINE
  5
73A
  8
_____1
 62
     1
 10
16.94099306891167
 20
244.1148080237299
 30
0.0
 11
16.8932670533668
 21
244.1148080237299
 31
0.0
  0
LINE
  5
73B
  8
_____1
 62
     1
 10
21.10620802549556
 20
244.1148080237299
 30
0.0
 11
21.34542250340564
 21
244.1148080237299
 31
0.0
  0
LINE
  5
73C
  8
_____1
 62
     1
 10
21.24977567225324
 20
244.2102600548183
 30
0.0
 11
21.01036639427912
 21
244.2102600548183
 31
0.0
  0
LINE
  5
73D
  8
_____1
 62
     1
 10
8.850362033846068
 20
244.2102600548183
 30
0.0
 11
9.089771311820186
 21
244.2102600548183
 31
0.0
  0
LINE
  5
73E
  8
_____1
 62
     1
 10
20.91452476306495
 20
244.3061016860329
 30
0.0
 11
21.34542250340564
 21
244.3061016860329
 31
0.0
  0
LINE
  5
73F
  8
_____1
 62
     1
 10
17.18040234688578
 20
244.3540225016418
 30
0.0
 11
17.22832316249333
 21
244.3540225016418
 31
0.0
  0
LINE
  5
740
  8
_____1
 62
     1
 10
16.94099306891167
 20
244.3540225016418
 30
0.0
 11
16.8932670533668
 21
244.3540225016418
 31
0.0
  0
LINE
  5
741
  8
_____1
 62
     1
 10
17.56337927161758
 20
244.3540225016418
 30
0.0
 11
16.51029012863501
 21
244.3540225016418
 31
0.0
  0
LINE
  5
742
  8
_____1
 62
     1
 10
20.67531028515486
 20
245.4550324602337
 30
0.0
 11
18.47309556790697
 21
245.4550324602337
 31
0.0
  0
LINE
  5
743
  8
_____1
 62
     1
 10
15.64849464795316
 20
245.4550324602337
 30
0.0
 11
9.472748236551979
 21
245.4550324602337
 31
0.0
  0
LINE
  5
744
  8
_____1
 62
     1
 10
20.67531028515486
 20
245.5029532758413
 30
0.0
 11
21.34542250340564
 21
245.5029532758413
 31
0.0
  0
LINE
  5
745
  8
_____1
 62
     1
 10
8.850362033846068
 20
245.5987949070559
 30
0.0
 11
9.472748236551979
 21
245.5987949070559
 31
0.0
  0
LINE
  5
746
  8
_____1
 62
     1
 10
20.67531028515486
 20
245.5987949070559
 30
0.0
 11
21.24977567225324
 21
245.5987949070559
 31
0.0
  0
LINE
  5
747
  8
_____1
 62
     1
 10
8.754520402629623
 20
245.7425573538776
 30
0.0
 11
9.472748236551979
 21
245.7425573538776
 31
0.0
  0
LINE
  5
748
  8
_____1
 62
     1
 10
20.67531028515486
 20
245.7425573538776
 30
0.0
 11
21.34542250340564
 21
245.7425573538776
 31
0.0
  0
LINE
  5
749
  8
_____1
 62
     1
 10
16.07939238829385
 20
243.6359894677817
 30
0.0
 11
17.03683470012629
 21
243.1092500962263
 31
0.0
  0
LINE
  5
74A
  8
_____1
 62
     1
 10
8.754520402629623
 20
247.2744650528102
 30
0.0
 11
16.98891388451921
 21
247.2744650528102
 31
0.0
  0
LINE
  5
74B
  8
_____1
 62
     1
 10
17.1324815312787
 20
247.2744650528102
 30
0.0
 11
21.34542250340564
 21
247.2744650528102
 31
0.0
  0
LINE
  5
74C
  8
_____1
 62
     1
 10
16.94099306891167
 20
247.2744650528102
 30
0.0
 11
17.1324815312787
 21
247.2744650528102
 31
0.0
  0
LINE
  5
74D
  8
_____1
 62
     1
 10
8.850362033846068
 20
247.3703066840249
 30
0.0
 11
16.8932670533668
 21
247.3703066840249
 31
0.0
  0
LINE
  5
74E
  8
_____1
 62
     1
 10
17.18040234688578
 20
247.3703066840249
 30
0.0
 11
21.24977567225324
 21
247.3703066840249
 31
0.0
  0
LINE
  5
74F
  8
_____1
 62
     1
 10
17.1324815312787
 20
247.3703066840249
 30
0.0
 11
16.98891388451921
 21
247.3703066840249
 31
0.0
  0
LINE
  5
750
  8
_____1
 62
     1
 10
18.28160710553993
 20
247.4178378995057
 30
0.0
 11
19.81351480447302
 21
247.4178378995057
 31
0.0
  0
LINE
  5
751
  8
_____1
 62
     1
 10
16.98891388451921
 20
247.7053627931514
 30
0.0
 11
17.1324815312787
 21
247.7053627931514
 31
0.0
  0
LINE
  5
752
  8
_____1
 62
     1
 10
9.424827420944894
 20
247.9445772710615
 30
0.0
 11
12.72824689684694
 21
247.9445772710615
 31
0.0
  0
LINE
  5
753
  8
_____1
 62
     1
 10
17.46773244046744
 20
247.9445772710615
 30
0.0
 11
20.67531028515486
 21
247.9445772710615
 31
0.0
  0
LINE
  5
754
  8
_____1
 62
     1
 10
9.520669052159064
 20
248.088339717885
 30
0.0
 11
12.15358670968408
 21
248.088339717885
 31
0.0
  0
LINE
  5
755
  8
_____1
 62
     1
 10
18.09011864317517
 20
248.088339717885
 30
0.0
 11
20.57946865394024
 21
248.088339717885
 31
0.0
  0
LINE
  5
756
  8
_____1
 62
     1
 10
9.85572516128559
 20
248.4233958270097
 30
0.0
 11
10.71752064196789
 21
248.4233958270097
 31
0.0
  0
LINE
  5
757
  8
_____1
 62
     1
 10
18.04219782756581
 20
244.7849202419811
 30
0.0
 11
17.03683470012629
 21
245.3595804291458
 31
0.0
  0
LINE
  5
758
  8
_____1
 62
     1
 10
15.40908536997904
 20
238.1305500746957
 30
0.0
 11
14.78669916727085
 21
239.1836392176806
 31
0.0
  0
LINE
  5
759
  8
_____1
 62
     1
 10
14.69105233612072
 20
239.0398767708589
 30
0.0
 11
15.31343853882845
 21
237.938866812267
 31
0.0
  0
LINE
  5
75A
  8
_____1
 62
     1
 10
17.18040234688578
 20
244.1148080237299
 30
0.0
 11
17.18040234688578
 21
244.0668872081228
 31
0.0
  0
LINE
  5
75B
  8
_____1
 62
     1
 10
9.85572516128559
 20
248.7105311205287
 30
0.0
 11
9.85572516128559
 21
248.4233958270097
 31
0.0
  0
LINE
  5
75C
  8
_____1
 62
     1
 10
8.13232899998593
 20
237.2208337784086
 30
0.0
 11
8.13232899998593
 21
249.428564154387
 31
0.0
  0
LINE
  5
75D
  8
_____1
 62
     1
 10
8.467385109112456
 20
237.2208337784086
 30
0.0
 11
8.467385109112456
 21
249.2851913076915
 31
0.0
  0
LINE
  5
75E
  8
_____1
 62
     1
 10
8.65887357147949
 20
237.2208337784086
 30
0.0
 11
8.65887357147949
 21
249.1893496764769
 31
0.0
  0
LINE
  5
75F
  8
_____1
 62
     1
 10
8.754520402629623
 20
237.3645962252303
 30
0.0
 11
8.754520402629623
 21
247.2744650528102
 31
0.0
  0
LINE
  5
760
  8
_____1
 62
     1
 10
8.850362033846068
 20
237.2687545940162
 30
0.0
 11
8.850362033846068
 21
247.3703066840249
 31
0.0
  0
LINE
  5
761
  8
_____1
 62
     1
 10
9.23333895857786
 20
241.8165568752056
 30
0.0
 11
9.23333895857786
 21
240.1891971451842
 31
0.0
  0
LINE
  5
762
  8
_____1
 62
     1
 10
9.281259774184946
 20
237.2687545940162
 30
0.0
 11
9.281259774184946
 21
239.4707745112
 31
0.0
  0
LINE
  5
763
  8
_____1
 62
     1
 10
9.329180589792486
 20
241.7690256597243
 30
0.0
 11
9.329180589792486
 21
240.2846491762725
 31
0.0
  0
LINE
  5
764
  8
_____1
 62
     1
 10
9.376906605337354
 20
237.1729129627993
 30
0.0
 11
9.376906605337354
 21
239.5666161424142
 31
0.0
  0
LINE
  5
765
  8
_____1
 62
     1
 10
9.424827420944894
 20
247.3703066840249
 30
0.0
 11
9.424827420944894
 21
247.9445772710615
 31
0.0
  0
LINE
  5
766
  8
_____1
 62
     1
 10
9.472748236551979
 20
245.7425573538776
 30
0.0
 11
9.472748236551979
 21
244.545705764071
 31
0.0
  0
LINE
  5
767
  8
_____1
 62
     1
 10
9.75988353007142
 20
247.3703066840249
 30
0.0
 11
9.75988353007142
 21
247.9445772710615
 31
0.0
  0
LINE
  5
768
  8
_____1
 62
     1
 10
9.85572516128559
 20
248.4233958270097
 30
0.0
 11
9.85572516128559
 21
248.088339717885
 31
0.0
  0
LINE
  5
769
  8
_____1
 62
     1
 10
10.14286045480276
 20
240.2846491762725
 30
0.0
 11
10.14286045480276
 21
240.6676261010061
 31
0.0
  0
LINE
  5
76A
  8
_____1
 62
     1
 10
10.14286045480276
 20
241.3860487349907
 30
0.0
 11
10.14286045480276
 21
241.7690256597243
 31
0.0
  0
LINE
  5
76B
  8
_____1
 62
     1
 10
10.19078127041212
 20
241.8165568752056
 30
0.0
 11
10.19078127041212
 21
241.4335799504715
 31
0.0
  0
LINE
  5
76C
  8
_____1
 62
     1
 10
10.19078127041212
 20
240.5721740699182
 30
0.0
 11
10.19078127041212
 21
240.1891971451842
 31
0.0
  0
LINE
  5
76D
  8
_____1
 62
     1
 10
10.38226973277688
 20
239.8537514359314
 30
0.0
 11
10.38226973277688
 21
240.5721740699182
 31
0.0
  0
LINE
  5
76E
  8
_____1
 62
     1
 10
10.38226973277688
 20
241.4335799504715
 30
0.0
 11
10.38226973277688
 21
242.1995337999392
 31
0.0
  0
LINE
  5
76F
  8
_____1
 62
     1
 10
21.10620802549556
 20
244.1148080237299
 30
0.0
 11
20.67531028515486
 21
244.545705764071
 31
0.0
  0
LINE
  5
770
  8
_____1
 62
     1
 10
10.52603217960086
 20
240.1891971451842
 30
0.0
 11
10.52603217960086
 21
240.5721740699182
 31
0.0
  0
LINE
  5
771
  8
_____1
 62
     1
 10
10.52603217960086
 20
241.4335799504715
 30
0.0
 11
10.52603217960086
 21
241.8165568752056
 31
0.0
  0
LINE
  5
772
  8
_____1
 62
     1
 10
10.57375819514391
 20
241.7690256597243
 30
0.0
 11
10.57375819514391
 21
241.3860487349907
 31
0.0
  0
LINE
  5
773
  8
_____1
 62
     1
 10
10.57375819514391
 20
240.6676261010061
 30
0.0
 11
10.57375819514391
 21
240.2846491762725
 31
0.0
  0
LINE
  5
774
  8
_____1
 62
     1
 10
10.621679010751
 20
239.1836392176806
 30
0.0
 11
10.621679010751
 21
237.938866812267
 31
0.0
  0
LINE
  5
775
  8
_____1
 62
     1
 10
10.71752064196789
 20
239.8537514359314
 30
0.0
 11
10.71752064196789
 21
240.1891971451842
 31
0.0
  0
LINE
  5
776
  8
_____1
 62
     1
 10
10.71752064196789
 20
241.8165568752056
 30
0.0
 11
10.71752064196789
 21
242.1995337999392
 31
0.0
  0
LINE
  5
777
  8
_____1
 62
     1
 10
10.76524665751094
 20
238.1305500746957
 30
0.0
 11
10.76524665751094
 21
239.1836392176806
 31
0.0
  0
LINE
  5
778
  8
_____1
 62
     1
 10
10.86108828872511
 20
248.088339717885
 30
0.0
 11
10.86108828872511
 21
248.3754750114022
 31
0.0
  0
LINE
  5
779
  8
_____1
 62
     1
 10
10.95673511987752
 20
237.3645962252303
 30
0.0
 11
10.95673511987752
 21
237.3166754096233
 31
0.0
  0
LINE
  5
77A
  8
_____1
 62
     1
 10
10.95673511987752
 20
247.3703066840249
 30
0.0
 11
10.95673511987752
 21
247.9445772710615
 31
0.0
  0
LINE
  5
77B
  8
_____1
 62
     1
 10
11.05257675109215
 20
247.3703066840249
 30
0.0
 11
11.05257675109215
 21
247.9445772710615
 31
0.0
  0
LINE
  5
77C
  8
_____1
 62
     1
 10
11.14822358224455
 20
247.3703066840249
 30
0.0
 11
11.14822358224455
 21
247.9445772710615
 31
0.0
  0
LINE
  5
77D
  8
_____1
 62
     1
 10
11.14822358224455
 20
237.3645962252303
 30
0.0
 11
11.14822358224455
 21
237.3166754096233
 31
0.0
  0
LINE
  5
77E
  8
_____1
 62
     1
 10
11.43555367582576
 20
239.8537514359314
 30
0.0
 11
11.43555367582576
 21
240.1891971451842
 31
0.0
  0
LINE
  5
77F
  8
_____1
 62
     1
 10
11.43555367582576
 20
241.8165568752056
 30
0.0
 11
11.43555367582576
 21
242.1995337999392
 31
0.0
  0
LINE
  5
780
  8
_____1
 62
     1
 10
11.53139530704038
 20
237.938866812267
 30
0.0
 11
11.53139530704038
 21
238.1305500746957
 31
0.0
  0
LINE
  5
781
  8
_____1
 62
     1
 10
11.53139530704038
 20
240.2846491762725
 30
0.0
 11
11.53139530704038
 21
240.6676261010061
 31
0.0
  0
LINE
  5
782
  8
_____1
 62
     1
 10
11.53139530704038
 20
241.3860487349907
 30
0.0
 11
11.53139530704038
 21
241.7690256597243
 31
0.0
  0
LINE
  5
783
  8
_____1
 62
     1
 10
11.62704213819279
 20
241.8165568752056
 30
0.0
 11
11.62704213819279
 21
241.4335799504715
 31
0.0
  0
LINE
  5
784
  8
_____1
 62
     1
 10
11.62704213819279
 20
240.5721740699182
 30
0.0
 11
11.62704213819279
 21
240.1891971451842
 31
0.0
  0
LINE
  5
785
  8
_____1
 62
     1
 10
11.77060978495047
 20
239.8537514359314
 30
0.0
 11
11.77060978495047
 21
240.5721740699182
 31
0.0
  0
LINE
  5
786
  8
_____1
 62
     1
 10
11.77060978495047
 20
241.4335799504715
 30
0.0
 11
11.77060978495047
 21
242.1995337999392
 31
0.0
  0
LINE
  5
787
  8
_____1
 62
     1
 10
11.914372231774
 20
240.1891971451842
 30
0.0
 11
11.914372231774
 21
240.5721740699182
 31
0.0
  0
LINE
  5
788
  8
_____1
 62
     1
 10
11.914372231774
 20
241.4335799504715
 30
0.0
 11
11.914372231774
 21
241.8165568752056
 31
0.0
  0
LINE
  5
789
  8
_____1
 62
     1
 10
12.01001906292458
 20
241.7690256597243
 30
0.0
 11
12.01001906292458
 21
241.3860487349907
 31
0.0
  0
LINE
  5
78A
  8
_____1
 62
     1
 10
12.01001906292458
 20
240.6676261010061
 30
0.0
 11
12.01001906292458
 21
240.2846491762725
 31
0.0
  0
LINE
  5
78B
  8
_____1
 62
     1
 10
12.34507517205111
 20
247.3703066840249
 30
0.0
 11
12.34507517205111
 21
247.9445772710615
 31
0.0
  0
LINE
  5
78C
  8
_____1
 62
     1
 10
12.72824689684694
 20
247.3703066840249
 30
0.0
 11
12.72824689684694
 21
247.9445772710615
 31
0.0
  0
LINE
  5
78D
  8
_____1
 62
     1
 10
12.77597291239181
 20
237.1729129627993
 30
0.0
 11
12.77597291239181
 21
239.5666161424142
 31
0.0
  0
LINE
  5
78E
  8
_____1
 62
     1
 10
12.82389372799935
 20
240.2846491762725
 30
0.0
 11
12.82389372799935
 21
241.7690256597243
 31
0.0
  0
LINE
  5
78F
  8
_____1
 62
     1
 10
12.87181454360643
 20
239.4707745112
 30
0.0
 11
12.87181454360643
 21
237.2687545940162
 31
0.0
  0
LINE
  5
790
  8
_____1
 62
     1
 10
12.87181454360643
 20
240.1891971451842
 30
0.0
 11
12.87181454360643
 21
241.8165568752056
 31
0.0
  0
LINE
  5
791
  8
_____1
 62
     1
 10
13.25479146834004
 20
241.8165568752056
 30
0.0
 11
13.25479146834004
 21
240.1891971451842
 31
0.0
  0
LINE
  5
792
  8
_____1
 62
     1
 10
13.25479146834004
 20
237.2687545940162
 30
0.0
 11
13.25479146834004
 21
239.4707745112
 31
0.0
  0
LINE
  5
793
  8
_____1
 62
     1
 10
13.30271228394759
 20
241.7690256597243
 30
0.0
 11
13.30271228394759
 21
240.2846491762725
 31
0.0
  0
LINE
  5
794
  8
_____1
 62
     1
 10
13.35043829949063
 20
237.1729129627993
 30
0.0
 11
13.35043829949063
 21
239.5666161424142
 31
0.0
  0
LINE
  5
795
  8
_____1
 62
     1
 10
13.39835911509772
 20
247.3703066840249
 30
0.0
 11
13.39835911509772
 21
247.8966564554539
 31
0.0
  0
LINE
  5
796
  8
_____1
 62
     1
 10
13.78133603983133
 20
247.3703066840249
 30
0.0
 11
13.78133603983133
 21
247.8487356398468
 31
0.0
  0
LINE
  5
797
  8
_____1
 62
     1
 10
14.11658694902007
 20
240.2846491762725
 30
0.0
 11
14.11658694902007
 21
240.6676261010061
 31
0.0
  0
LINE
  5
798
  8
_____1
 62
     1
 10
14.11658694902007
 20
241.3860487349907
 30
0.0
 11
14.11658694902007
 21
241.7690256597243
 31
0.0
  0
LINE
  5
799
  8
_____1
 62
     1
 10
14.21223378017248
 20
241.8165568752056
 30
0.0
 11
14.21223378017248
 21
241.4335799504715
 31
0.0
  0
LINE
  5
79A
  8
_____1
 62
     1
 10
14.21223378017248
 20
240.5721740699182
 30
0.0
 11
14.21223378017248
 21
240.1891971451842
 31
0.0
  0
LINE
  5
79B
  8
_____1
 62
     1
 10
14.35580142693198
 20
239.8537514359314
 30
0.0
 11
14.35580142693198
 21
240.5721740699182
 31
0.0
  0
LINE
  5
79C
  8
_____1
 62
     1
 10
14.35580142693198
 20
241.4335799504715
 30
0.0
 11
14.35580142693198
 21
242.1995337999392
 31
0.0
  0
LINE
  5
79D
  8
_____1
 62
     1
 10
14.49956387375369
 20
240.1891971451842
 30
0.0
 11
14.49956387375369
 21
240.5721740699182
 31
0.0
  0
LINE
  5
79E
  8
_____1
 62
     1
 10
14.49956387375369
 20
241.4335799504715
 30
0.0
 11
14.49956387375369
 21
241.8165568752056
 31
0.0
  0
LINE
  5
79F
  8
_____1
 62
     1
 10
14.54728988929901
 20
239.1836392176806
 30
0.0
 11
14.54728988929901
 21
237.938866812267
 31
0.0
  0
LINE
  5
7A0
  8
_____1
 62
     1
 10
14.59521070490609
 20
241.7690256597243
 30
0.0
 11
14.59521070490609
 21
241.3860487349907
 31
0.0
  0
LINE
  5
7A1
  8
_____1
 62
     1
 10
14.59521070490609
 20
240.6676261010061
 30
0.0
 11
14.59521070490609
 21
240.2846491762725
 31
0.0
  0
LINE
  5
7A2
  8
_____1
 62
     1
 10
14.69105233612072
 20
237.938866812267
 30
0.0
 11
14.69105233612072
 21
239.0398767708589
 31
0.0
  0
LINE
  5
7A3
  8
_____1
 62
     1
 10
14.69105233612072
 20
239.8537514359314
 30
0.0
 11
14.69105233612072
 21
240.1891971451842
 31
0.0
  0
LINE
  5
7A4
  8
_____1
 62
     1
 10
14.69105233612072
 20
241.8165568752056
 30
0.0
 11
14.69105233612072
 21
242.1995337999392
 31
0.0
  0
LINE
  5
7A5
  8
_____1
 62
     1
 10
14.9302668140308
 20
237.3645962252303
 30
0.0
 11
14.9302668140308
 21
237.3166754096233
 31
0.0
  0
LINE
  5
7A6
  8
_____1
 62
     1
 10
14.9302668140308
 20
247.3703066840249
 30
0.0
 11
14.9302668140308
 21
247.8008148242393
 31
0.0
  0
LINE
  5
7A7
  8
_____1
 62
     1
 10
15.07402926085251
 20
247.3703066840249
 30
0.0
 11
15.07402926085251
 21
247.8008148242393
 31
0.0
  0
LINE
  5
7A8
  8
_____1
 62
     1
 10
15.16967609200492
 20
247.3703066840249
 30
0.0
 11
15.16967609200492
 21
247.8008148242393
 31
0.0
  0
LINE
  5
7A9
  8
_____1
 62
     1
 10
15.16967609200492
 20
237.3645962252303
 30
0.0
 11
15.16967609200492
 21
237.3166754096233
 31
0.0
  0
LINE
  5
7AA
  8
_____1
 62
     1
 10
15.40908536997904
 20
239.8537514359314
 30
0.0
 11
15.40908536997904
 21
240.1891971451842
 31
0.0
  0
LINE
  5
7AB
  8
_____1
 62
     1
 10
15.40908536997904
 20
241.8165568752056
 30
0.0
 11
15.40908536997904
 21
242.1995337999392
 31
0.0
  0
LINE
  5
7AC
  8
_____1
 62
     1
 10
15.40908536997904
 20
239.1836392176806
 30
0.0
 11
15.40908536997904
 21
238.1305500746957
 31
0.0
  0
LINE
  5
7AD
  8
_____1
 62
     1
 10
15.50492700119321
 20
240.2846491762725
 30
0.0
 11
15.50492700119321
 21
240.6676261010061
 31
0.0
  0
LINE
  5
7AE
  8
_____1
 62
     1
 10
15.50492700119321
 20
241.3860487349907
 30
0.0
 11
15.50492700119321
 21
241.7690256597243
 31
0.0
  0
LINE
  5
7AF
  8
_____1
 62
     1
 10
15.55265301673853
 20
237.938866812267
 30
0.0
 11
15.55265301673853
 21
239.1836392176806
 31
0.0
  0
LINE
  5
7B0
  8
_____1
 62
     1
 10
15.60057383234562
 20
241.8165568752056
 30
0.0
 11
15.60057383234562
 21
241.4335799504715
 31
0.0
  0
LINE
  5
7B1
  8
_____1
 62
     1
 10
15.60057383234562
 20
240.5721740699182
 30
0.0
 11
15.60057383234562
 21
240.1891971451842
 31
0.0
  0
LINE
  5
7B2
  8
_____1
 62
     1
 10
15.64849464795316
 20
245.4550324602337
 30
0.0
 11
15.64849464795316
 21
242.2953754311538
 31
0.0
  0
LINE
  5
7B3
  8
_____1
 62
     1
 10
15.74414147910511
 20
239.8537514359314
 30
0.0
 11
15.74414147910511
 21
240.5721740699182
 31
0.0
  0
LINE
  5
7B4
  8
_____1
 62
     1
 10
15.74414147910511
 20
241.4335799504715
 30
0.0
 11
15.74414147910511
 21
242.1995337999392
 31
0.0
  0
LINE
  5
7B5
  8
_____1
 62
     1
 10
15.93562994147214
 20
240.1891971451842
 30
0.0
 11
15.93562994147214
 21
240.5721740699182
 31
0.0
  0
LINE
  5
7B6
  8
_____1
 62
     1
 10
15.93562994147214
 20
241.4335799504715
 30
0.0
 11
15.93562994147214
 21
241.8165568752056
 31
0.0
  0
LINE
  5
7B7
  8
_____1
 62
     1
 10
15.98355075707923
 20
241.7690256597243
 30
0.0
 11
15.98355075707923
 21
241.3860487349907
 31
0.0
  0
LINE
  5
7B8
  8
_____1
 62
     1
 10
15.98355075707923
 20
240.6676261010061
 30
0.0
 11
15.98355075707923
 21
240.2846491762725
 31
0.0
  0
LINE
  5
7B9
  8
_____1
 62
     1
 10
16.07939238829385
 20
244.7849202419811
 30
0.0
 11
16.07939238829385
 21
243.6359894677817
 31
0.0
  0
LINE
  5
7BA
  8
_____1
 62
     1
 10
16.07939238829385
 20
242.2953754311538
 30
0.0
 11
16.07939238829385
 21
243.2050917274428
 31
0.0
  0
LINE
  5
7BB
  8
_____1
 62
     1
 10
16.36652768181102
 20
247.3703066840249
 30
0.0
 11
16.36652768181102
 21
247.8487356398468
 31
0.0
  0
LINE
  5
7BC
  8
_____1
 62
     1
 10
16.70177859100158
 20
247.3703066840249
 30
0.0
 11
16.70177859100158
 21
247.8487356398468
 31
0.0
  0
LINE
  5
7BD
  8
_____1
 62
     1
 10
16.74950460654509
 20
237.1729129627993
 30
0.0
 11
16.74950460654509
 21
239.5666161424142
 31
0.0
  0
LINE
  5
7BE
  8
_____1
 62
     1
 10
16.79742542215217
 20
240.2846491762725
 30
0.0
 11
16.79742542215217
 21
241.7690256597243
 31
0.0
  0
LINE
  5
7BF
  8
_____1
 62
     1
 10
16.84534623775926
 20
239.4707745112
 30
0.0
 11
16.84534623775926
 21
237.2687545940162
 31
0.0
  0
LINE
  5
7C0
  8
_____1
 62
     1
 10
16.8932670533668
 20
240.1891971451842
 30
0.0
 11
16.8932670533668
 21
241.8165568752056
 31
0.0
  0
LINE
  5
7C1
  8
_____1
 62
     1
 10
16.8932670533668
 20
242.2953754311538
 30
0.0
 11
16.8932670533668
 21
242.8221148027092
 31
0.0
  0
LINE
  5
7C2
  8
_____1
 62
     1
 10
16.8932670533668
 20
247.3703066840249
 30
0.0
 11
16.8932670533668
 21
247.6095211619368
 31
0.0
  0
LINE
  5
7C3
  8
_____1
 62
     1
 10
16.8932670533668
 20
243.6839102833892
 30
0.0
 11
16.8932670533668
 21
244.7369994263736
 31
0.0
  0
LINE
  5
7C4
  8
_____1
 62
     1
 10
16.94099306891167
 20
244.3540225016418
 30
0.0
 11
16.98891388451921
 21
244.3540225016418
 31
0.0
  0
LINE
  5
7C5
  8
_____1
 62
     1
 10
16.94099306891167
 20
244.1148080237299
 30
0.0
 11
16.94099306891167
 21
244.0668872081228
 31
0.0
  0
LINE
  5
7C6
  8
_____1
 62
     1
 10
16.98891388451921
 20
247.2744650528102
 30
0.0
 11
16.98891388451921
 21
247.7053627931514
 31
0.0
  0
LINE
  5
7C7
  8
_____1
 62
     1
 10
17.1324815312787
 20
247.2744650528102
 30
0.0
 11
17.1324815312787
 21
247.7053627931514
 31
0.0
  0
LINE
  5
7C8
  8
_____1
 62
     1
 10
17.18040234688578
 20
243.6839102833892
 30
0.0
 11
17.18040234688578
 21
244.7369994263736
 31
0.0
  0
LINE
  5
7C9
  8
_____1
 62
     1
 10
17.22832316249333
 20
247.6095211619368
 30
0.0
 11
17.22832316249333
 21
247.3703066840249
 31
0.0
  0
LINE
  5
7CA
  8
_____1
 62
     1
 10
17.22832316249333
 20
241.8165568752056
 30
0.0
 11
17.22832316249333
 21
240.1891971451842
 31
0.0
  0
LINE
  5
7CB
  8
_____1
 62
     1
 10
17.22832316249333
 20
242.2953754311538
 30
0.0
 11
17.22832316249333
 21
242.8221148027092
 31
0.0
  0
LINE
  5
7CC
  8
_____1
 62
     1
 10
17.22832316249333
 20
237.2687545940162
 30
0.0
 11
17.22832316249333
 21
239.4707745112
 31
0.0
  0
LINE
  5
7CD
  8
_____1
 62
     1
 10
17.27624397810041
 20
241.7690256597243
 30
0.0
 11
17.27624397810041
 21
240.2846491762725
 31
0.0
  0
LINE
  5
7CE
  8
_____1
 62
     1
 10
17.37189080925282
 20
237.1729129627993
 30
0.0
 11
17.37189080925282
 21
239.5666161424142
 31
0.0
  0
LINE
  5
7CF
  8
_____1
 62
     1
 10
17.4198116248599
 20
247.3703066840249
 30
0.0
 11
17.4198116248599
 21
247.9445772710615
 31
0.0
  0
LINE
  5
7D0
  8
_____1
 62
     1
 10
17.75486773398461
 20
247.3703066840249
 30
0.0
 11
17.75486773398461
 21
247.9445772710615
 31
0.0
  0
LINE
  5
7D1
  8
_____1
 62
     1
 10
18.04219782756581
 20
242.2953754311538
 30
0.0
 11
18.04219782756581
 21
243.2050917274428
 31
0.0
  0
LINE
  5
7D2
  8
_____1
 62
     1
 10
18.04219782756581
 20
243.6359894677817
 30
0.0
 11
18.04219782756581
 21
244.7849202419811
 31
0.0
  0
LINE
  5
7D3
  8
_____1
 62
     1
 10
18.13784465871822
 20
240.2846491762725
 30
0.0
 11
18.13784465871822
 21
240.6676261010061
 31
0.0
  0
LINE
  5
7D4
  8
_____1
 62
     1
 10
18.13784465871822
 20
241.3860487349907
 30
0.0
 11
18.13784465871822
 21
241.7690256597243
 31
0.0
  0
LINE
  5
7D5
  8
_____1
 62
     1
 10
18.18576547432531
 20
241.8165568752056
 30
0.0
 11
18.18576547432531
 21
241.4335799504715
 31
0.0
  0
LINE
  5
7D6
  8
_____1
 62
     1
 10
18.18576547432531
 20
240.5721740699182
 30
0.0
 11
18.18576547432531
 21
240.1891971451842
 31
0.0
  0
LINE
  5
7D7
  8
_____1
 62
     1
 10
18.28160710553993
 20
247.3703066840249
 30
0.0
 11
18.28160710553993
 21
247.4178378995057
 31
0.0
  0
LINE
  5
7D8
  8
_____1
 62
     1
 10
18.3293331210848
 20
239.8537514359314
 30
0.0
 11
18.3293331210848
 21
240.5721740699182
 31
0.0
  0
LINE
  5
7D9
  8
_____1
 62
     1
 10
18.3293331210848
 20
241.4335799504715
 30
0.0
 11
18.3293331210848
 21
242.1995337999392
 31
0.0
  0
LINE
  5
7DA
  8
_____1
 62
     1
 10
18.37725393669234
 20
238.7048206617324
 30
0.0
 11
18.37725393669234
 21
238.6089790305177
 31
0.0
  0
LINE
  5
7DB
  8
_____1
 62
     1
 10
18.47309556790697
 20
242.2953754311538
 30
0.0
 11
18.47309556790697
 21
245.4550324602337
 31
0.0
  0
LINE
  5
7DC
  8
_____1
 62
     1
 10
18.52082158345183
 20
240.1891971451842
 30
0.0
 11
18.52082158345183
 21
240.5721740699182
 31
0.0
  0
LINE
  5
7DD
  8
_____1
 62
     1
 10
18.52082158345183
 20
241.4335799504715
 30
0.0
 11
18.52082158345183
 21
241.8165568752056
 31
0.0
  0
LINE
  5
7DE
  8
_____1
 62
     1
 10
18.56874239905892
 20
238.4176853682152
 30
0.0
 11
18.56874239905892
 21
238.3218437370006
 31
0.0
  0
LINE
  5
7DF
  8
_____1
 62
     1
 10
18.56874239905892
 20
241.7690256597243
 30
0.0
 11
18.56874239905892
 21
241.3860487349907
 31
0.0
  0
LINE
  5
7E0
  8
_____1
 62
     1
 10
18.56874239905892
 20
240.6676261010061
 30
0.0
 11
18.56874239905892
 21
240.2846491762725
 31
0.0
  0
LINE
  5
7E1
  8
_____1
 62
     1
 10
18.71250484588109
 20
239.8537514359314
 30
0.0
 11
18.71250484588109
 21
240.1891971451842
 31
0.0
  0
LINE
  5
7E2
  8
_____1
 62
     1
 10
18.71250484588109
 20
241.8165568752056
 30
0.0
 11
18.71250484588109
 21
242.1995337999392
 31
0.0
  0
LINE
  5
7E3
  8
_____1
 62
     1
 10
18.71250484588109
 20
238.1305500746957
 30
0.0
 11
18.71250484588109
 21
238.0347084434816
 31
0.0
  0
LINE
  5
7E4
  8
_____1
 62
     1
 10
18.95171932379071
 20
237.3645962252303
 30
0.0
 11
18.95171932379071
 21
237.3166754096233
 31
0.0
  0
LINE
  5
7E5
  8
_____1
 62
     1
 10
18.95171932379071
 20
247.4178378995057
 30
0.0
 11
18.95171932379071
 21
247.9445772710615
 31
0.0
  0
LINE
  5
7E6
  8
_____1
 62
     1
 10
18.99964013940007
 20
239.2315600332877
 30
0.0
 11
18.99964013940007
 21
238.7048206617324
 31
0.0
  0
LINE
  5
7E7
  8
_____1
 62
     1
 10
19.04756095500716
 20
247.4178378995057
 30
0.0
 11
19.04756095500716
 21
247.9445772710615
 31
0.0
  0
LINE
  5
7E8
  8
_____1
 62
     1
 10
19.0954817706147
 20
238.7048206617324
 30
0.0
 11
19.0954817706147
 21
239.2315600332877
 31
0.0
  0
LINE
  5
7E9
  8
_____1
 62
     1
 10
19.14320778615775
 20
247.4178378995057
 30
0.0
 11
19.14320778615775
 21
247.9445772710615
 31
0.0
  0
LINE
  5
7EA
  8
_____1
 62
     1
 10
19.14320778615775
 20
237.3645962252303
 30
0.0
 11
19.14320778615775
 21
237.3166754096233
 31
0.0
  0
LINE
  5
7EB
  8
_____1
 62
     1
 10
19.38261706413186
 20
238.0347084434816
 30
0.0
 11
19.38261706413186
 21
238.1305500746957
 31
0.0
  0
LINE
  5
7EC
  8
_____1
 62
     1
 10
19.38261706413186
 20
239.8537514359314
 30
0.0
 11
19.38261706413186
 21
240.1891971451842
 31
0.0
  0
LINE
  5
7ED
  8
_____1
 62
     1
 10
19.38261706413186
 20
241.8165568752056
 30
0.0
 11
19.38261706413186
 21
242.1995337999392
 31
0.0
  0
LINE
  5
7EE
  8
_____1
 62
     1
 10
19.52618471089136
 20
240.2846491762725
 30
0.0
 11
19.52618471089136
 21
240.6676261010061
 31
0.0
  0
LINE
  5
7EF
  8
_____1
 62
     1
 10
19.52618471089136
 20
241.3860487349907
 30
0.0
 11
19.52618471089136
 21
241.7690256597243
 31
0.0
  0
LINE
  5
7F0
  8
_____1
 62
     1
 10
19.52618471089136
 20
238.3218437370006
 30
0.0
 11
19.52618471089136
 21
238.4176853682152
 31
0.0
  0
LINE
  5
7F1
  8
_____1
 62
     1
 10
19.5741055264989
 20
241.8165568752056
 30
0.0
 11
19.5741055264989
 21
241.4335799504715
 31
0.0
  0
LINE
  5
7F2
  8
_____1
 62
     1
 10
19.5741055264989
 20
240.5721740699182
 30
0.0
 11
19.5741055264989
 21
240.1891971451842
 31
0.0
  0
LINE
  5
7F3
  8
_____1
 62
     1
 10
19.71767317325839
 20
238.6089790305177
 30
0.0
 11
19.71767317325839
 21
238.7048206617324
 31
0.0
  0
LINE
  5
7F4
  8
_____1
 62
     1
 10
19.76559398886548
 20
239.8537514359314
 30
0.0
 11
19.76559398886548
 21
240.5721740699182
 31
0.0
  0
LINE
  5
7F5
  8
_____1
 62
     1
 10
19.76559398886548
 20
241.4335799504715
 30
0.0
 11
19.76559398886548
 21
242.1995337999392
 31
0.0
  0
LINE
  5
7F6
  8
_____1
 62
     1
 10
19.81351480447302
 20
247.3703066840249
 30
0.0
 11
19.81351480447302
 21
247.4178378995057
 31
0.0
  0
LINE
  5
7F7
  8
_____1
 62
     1
 10
19.90935643568719
 20
240.1891971451842
 30
0.0
 11
19.90935643568719
 21
240.5721740699182
 31
0.0
  0
LINE
  5
7F8
  8
_____1
 62
     1
 10
19.90935643568719
 20
241.4335799504715
 30
0.0
 11
19.90935643568719
 21
241.8165568752056
 31
0.0
  0
LINE
  5
7F9
  8
_____1
 62
     1
 10
19.95708245123251
 20
241.7690256597243
 30
0.0
 11
19.95708245123251
 21
241.3860487349907
 31
0.0
  0
LINE
  5
7FA
  8
_____1
 62
     1
 10
19.95708245123251
 20
240.6676261010061
 30
0.0
 11
19.95708245123251
 21
240.2846491762725
 31
0.0
  0
LINE
  5
7FB
  8
_____1
 62
     1
 10
20.3400593759643
 20
247.3703066840249
 30
0.0
 11
20.3400593759643
 21
247.9445772710615
 31
0.0
  0
LINE
  5
7FC
  8
_____1
 62
     1
 10
20.67531028515486
 20
244.545705764071
 30
0.0
 11
20.67531028515486
 21
245.7425573538776
 31
0.0
  0
LINE
  5
7FD
  8
_____1
 62
     1
 10
20.67531028515486
 20
247.3703066840249
 30
0.0
 11
20.67531028515486
 21
247.9445772710615
 31
0.0
  0
LINE
  5
7FE
  8
_____1
 62
     1
 10
20.72303630069791
 20
237.1729129627993
 30
0.0
 11
20.72303630069791
 21
239.5666161424142
 31
0.0
  0
LINE
  5
7FF
  8
_____1
 62
     1
 10
20.81887793191254
 20
240.2846491762725
 30
0.0
 11
20.81887793191254
 21
241.7690256597243
 31
0.0
  0
LINE
  5
800
  8
_____1
 62
     1
 10
20.86679874752144
 20
239.4707745112
 30
0.0
 11
20.86679874752144
 21
237.2687545940162
 31
0.0
  0
LINE
  5
801
  8
_____1
 62
     1
 10
20.86679874752144
 20
240.1891971451842
 30
0.0
 11
20.86679874752144
 21
241.8165568752056
 31
0.0
  0
LINE
  5
802
  8
_____1
 62
     1
 10
21.24977567225324
 20
237.2687545940162
 30
0.0
 11
21.24977567225324
 21
247.3703066840249
 31
0.0
  0
LINE
  5
803
  8
_____1
 62
     1
 10
21.34542250340564
 20
237.3645962252303
 30
0.0
 11
21.34542250340564
 21
247.2744650528102
 31
0.0
  0
LINE
  5
804
  8
_____1
 62
     1
 10
21.58483178137976
 20
249.1893496764769
 30
0.0
 11
21.58483178137976
 21
237.2208337784086
 31
0.0
  0
LINE
  5
805
  8
_____1
 62
     1
 10
21.7763202437468
 20
237.2208337784086
 30
0.0
 11
21.7763202437468
 21
249.2851913076915
 31
0.0
  0
LINE
  5
806
  8
_____1
 62
     1
 10
22.11137635287105
 20
237.2208337784086
 30
0.0
 11
22.11137635287105
 21
249.428564154387
 31
0.0
  0
LINE
  5
807
  8
_____1
 62
     1
 10
9.472748236551979
 20
244.545705764071
 30
0.0
 11
9.089771311820186
 21
244.2102600548183
 31
0.0
  0
LINE
  5
808
  8
_____1
 62
     1
 10
16.94099306891167
 20
244.1148080237299
 30
0.0
 11
16.8932670533668
 21
244.0668872081228
 31
0.0
  0
LINE
  5
809
  8
_____1
 62
     1
 10
17.03683470012629
 20
245.3595804291458
 30
0.0
 11
16.07939238829385
 21
244.7849202419811
 31
0.0
  0
LINE
  5
80A
  8
_____1
 62
     1
 10
17.03683470012629
 20
243.1092500962263
 30
0.0
 11
18.04219782756581
 21
243.6359894677817
 31
0.0
  0
LINE
  5
80B
  8
_____1
 62
     1
 10
11.14822358224455
 20
237.3166754096233
 30
0.0
 11
11.14822358224455
 21
237.2687545940162
 31
0.0
  0
LINE
  5
80C
  8
_____1
 62
     1
 10
14.97818762963789
 20
237.2687545940162
 30
0.0
 11
14.97818762963789
 21
237.3166754096233
 31
0.0
  0
LINE
  5
80D
  8
_____1
 62
     1
 10
11.00465593548506
 20
237.2687545940162
 30
0.0
 11
10.95673511987752
 21
237.3166754096233
 31
0.0
  0
LINE
  5
80E
  8
_____1
 62
     1
 10
17.56337927161758
 20
244.0668872081228
 30
0.0
 11
17.56337927161758
 21
244.3540225016418
 31
0.0
  0
LINE
  5
80F
  8
_____1
 62
     1
 10
12.77597291239181
 20
237.1729129627993
 30
0.0
 11
12.87181454360643
 21
237.2687545940162
 31
0.0
  0
LINE
  5
810
  8
_____1
 62
     1
 10
9.281259774184946
 20
237.1729129627993
 30
0.0
 11
9.376906605337354
 21
237.1729129627993
 31
0.0
  0
LINE
  5
811
  8
_____1
 62
     1
 10
9.281259774184946
 20
237.2687545940162
 30
0.0
 11
9.281259774184946
 21
237.1729129627993
 31
0.0
  0
LINE
  5
812
  8
_____1
 62
     1
 10
13.25479146834004
 20
237.2687545940162
 30
0.0
 11
13.35043829949063
 21
237.1729129627993
 31
0.0
  0
LINE
  5
813
  8
_____1
 62
     1
 10
9.520669052159064
 20
248.088339717885
 30
0.0
 11
9.424827420944894
 21
247.9445772710615
 31
0.0
  0
LINE
  5
814
  8
_____1
 62
     1
 10
12.72824689684694
 20
247.9445772710615
 30
0.0
 11
12.72824689684694
 21
247.9924980866685
 31
0.0
  0
LINE
  5
815
  8
_____1
 62
     1
 10
10.95673511987752
 20
247.9445772710615
 30
0.0
 11
10.86108828872511
 21
248.088339717885
 31
0.0
  0
LINE
  5
816
  8
_____1
 62
     1
 10
9.85572516128559
 20
248.088339717885
 30
0.0
 11
9.75988353007142
 21
247.9445772710615
 31
0.0
  0
LINE
  5
817
  8
_____1
 62
     1
 10
12.34507517205111
 20
247.9445772710615
 30
0.0
 11
12.34507517205111
 21
248.0404189022756
 31
0.0
  0
LINE
  5
818
  8
_____1
 62
     1
 10
11.29198602906627
 20
248.088339717885
 30
0.0
 11
11.14822358224455
 21
247.9445772710615
 31
0.0
  0
LINE
  5
819
  8
_____1
 62
     1
 10
8.754520402629623
 20
245.7425573538776
 30
0.0
 11
8.850362033846068
 21
245.5987949070559
 31
0.0
  0
LINE
  5
81A
  8
_____1
 62
     1
 10
8.850362033846068
 20
247.3703066840249
 30
0.0
 11
8.754520402629623
 21
247.2744650528102
 31
0.0
  0
LINE
  5
81B
  8
_____1
 62
     1
 10
8.850362033846068
 20
244.2102600548183
 30
0.0
 11
8.754520402629623
 21
244.1148080237299
 31
0.0
  0
LINE
  5
81C
  8
_____1
 62
     1
 10
8.850362033846068
 20
242.2953754311538
 30
0.0
 11
8.754520402629623
 21
242.1995337999392
 31
0.0
  0
LINE
  5
81D
  8
_____1
 62
     1
 10
8.754520402629623
 20
239.8537514359314
 30
0.0
 11
8.850362033846068
 21
239.7582994048435
 31
0.0
  0
LINE
  5
81E
  8
_____1
 62
     1
 10
8.754520402629623
 20
239.5666161424142
 30
0.0
 11
8.850362033846068
 21
239.4707745112
 31
0.0
  0
LINE
  5
81F
  8
_____1
 62
     1
 10
8.754520402629623
 20
238.1305500746957
 30
0.0
 11
8.850362033846068
 21
238.0347084434816
 31
0.0
  0
LINE
  5
820
  8
_____1
 62
     1
 10
8.754520402629623
 20
237.3645962252303
 30
0.0
 11
8.850362033846068
 21
237.2687545940162
 31
0.0
  0
LINE
  5
821
  8
_____1
 62
     1
 10
12.87181454360643
 20
237.2208337784086
 30
0.0
 11
12.91973535921352
 21
237.2208337784086
 31
0.0
  0
LINE
  5
822
  8
_____1
 62
     1
 10
13.25479146834004
 20
237.2208337784086
 30
0.0
 11
13.30271228394759
 21
237.2208337784086
 31
0.0
  0
LINE
  5
823
  8
_____1
 62
     1
 10
9.281259774184946
 20
237.2208337784086
 30
0.0
 11
9.329180589792486
 21
237.2208337784086
 31
0.0
  0
LINE
  5
824
  8
_____1
 62
     1
 10
13.25479146834004
 20
237.2687545940162
 30
0.0
 11
13.25479146834004
 21
237.2208337784086
 31
0.0
  0
LINE
  5
825
  8
_____1
 62
     1
 10
12.87181454360643
 20
237.2208337784086
 30
0.0
 11
12.87181454360643
 21
237.2687545940162
 31
0.0
  0
LINE
  5
826
  8
_____1
 62
     1
 10
9.281259774184946
 20
237.2687545940162
 30
0.0
 11
9.281259774184946
 21
237.2208337784086
 31
0.0
  0
LINE
  5
827
  8
_____1
 62
     1
 10
15.16967609200492
 20
237.3166754096233
 30
0.0
 11
15.12195007646187
 21
237.2687545940162
 31
0.0
  0
LINE
  5
828
  8
_____1
 62
     1
 10
18.99964013940007
 20
237.2687545940162
 30
0.0
 11
18.95171932379071
 21
237.3166754096233
 31
0.0
  0
LINE
  5
829
  8
_____1
 62
     1
 10
19.81351480447302
 20
238.3218437370006
 30
0.0
 11
19.8614356200801
 21
238.6089790305177
 31
0.0
  0
LINE
  5
82A
  8
_____1
 62
     1
 10
19.62202634210598
 20
238.0347084434816
 30
0.0
 11
19.81351480447302
 21
238.3218437370006
 31
0.0
  0
LINE
  5
82B
  8
_____1
 62
     1
 10
19.38261706413186
 20
237.8430251810523
 30
0.0
 11
19.62202634210598
 21
238.0347084434816
 31
0.0
  0
LINE
  5
82C
  8
_____1
 62
     1
 10
19.04756095500716
 20
237.7954939655715
 30
0.0
 11
19.38261706413186
 21
237.8430251810523
 31
0.0
  0
LINE
  5
82D
  8
_____1
 62
     1
 10
18.71250484588109
 20
237.8430251810523
 30
0.0
 11
19.04756095500716
 21
237.7954939655715
 31
0.0
  0
LINE
  5
82E
  8
_____1
 62
     1
 10
18.47309556790697
 20
238.0347084434816
 30
0.0
 11
18.71250484588109
 21
237.8430251810523
 31
0.0
  0
LINE
  5
82F
  8
_____1
 62
     1
 10
18.28160710553993
 20
238.3218437370006
 30
0.0
 11
18.47309556790697
 21
238.0347084434816
 31
0.0
  0
LINE
  5
830
  8
_____1
 62
     1
 10
18.23368628993285
 20
238.6089790305177
 30
0.0
 11
18.28160710553993
 21
238.3218437370006
 31
0.0
  0
LINE
  5
831
  8
_____1
 62
     1
 10
18.28160710553993
 20
238.9444247397705
 30
0.0
 11
18.23368628993285
 21
238.6089790305177
 31
0.0
  0
LINE
  5
832
  8
_____1
 62
     1
 10
18.71250484588109
 20
239.3753224801117
 30
0.0
 11
18.28160710553993
 21
238.9444247397705
 31
0.0
  0
LINE
  5
833
  8
_____1
 62
     1
 10
19.04756095500716
 20
239.4228536955925
 30
0.0
 11
18.71250484588109
 21
239.3753224801117
 31
0.0
  0
LINE
  5
834
  8
_____1
 62
     1
 10
19.38261706413186
 20
239.3753224801117
 30
0.0
 11
19.04756095500716
 21
239.4228536955925
 31
0.0
  0
LINE
  5
835
  8
_____1
 62
     1
 10
19.81351480447302
 20
238.9444247397705
 30
0.0
 11
19.38261706413186
 21
239.3753224801117
 31
0.0
  0
LINE
  5
836
  8
_____1
 62
     1
 10
19.8614356200801
 20
238.6089790305177
 30
0.0
 11
19.81351480447302
 21
238.9444247397705
 31
0.0
  0
LINE
  5
837
  8
_____1
 62
     1
 10
19.71767317325839
 20
238.3218437370006
 30
0.0
 11
19.81351480447302
 21
238.6089790305177
 31
0.0
  0
LINE
  5
838
  8
_____1
 62
     1
 10
19.5741055264989
 20
238.0826292590887
 30
0.0
 11
19.71767317325839
 21
238.3218437370006
 31
0.0
  0
LINE
  5
839
  8
_____1
 62
     1
 10
19.33469624852478
 20
237.938866812267
 30
0.0
 11
19.5741055264989
 21
238.0826292590887
 31
0.0
  0
LINE
  5
83A
  8
_____1
 62
     1
 10
19.04756095500716
 20
237.8430251810523
 30
0.0
 11
19.33469624852478
 21
237.938866812267
 31
0.0
  0
LINE
  5
83B
  8
_____1
 62
     1
 10
18.76023086142595
 20
237.938866812267
 30
0.0
 11
19.04756095500716
 21
237.8430251810523
 31
0.0
  0
LINE
  5
83C
  8
_____1
 62
     1
 10
18.52082158345183
 20
238.0826292590887
 30
0.0
 11
18.76023086142595
 21
237.938866812267
 31
0.0
  0
LINE
  5
83D
  8
_____1
 62
     1
 10
18.3293331210848
 20
238.3218437370006
 30
0.0
 11
18.52082158345183
 21
238.0826292590887
 31
0.0
  0
LINE
  5
83E
  8
_____1
 62
     1
 10
18.28160710553993
 20
238.6089790305177
 30
0.0
 11
18.3293331210848
 21
238.3218437370006
 31
0.0
  0
LINE
  5
83F
  8
_____1
 62
     1
 10
18.3293331210848
 20
238.8965039241634
 30
0.0
 11
18.28160710553993
 21
238.6089790305177
 31
0.0
  0
LINE
  5
840
  8
_____1
 62
     1
 10
18.76023086142595
 20
239.3274016645046
 30
0.0
 11
18.3293331210848
 21
238.8965039241634
 31
0.0
  0
LINE
  5
841
  8
_____1
 62
     1
 10
19.04756095500716
 20
239.3753224801117
 30
0.0
 11
18.76023086142595
 21
239.3274016645046
 31
0.0
  0
LINE
  5
842
  8
_____1
 62
     1
 10
19.33469624852478
 20
239.3274016645046
 30
0.0
 11
19.04756095500716
 21
239.3753224801117
 31
0.0
  0
LINE
  5
843
  8
_____1
 62
     1
 10
19.5741055264989
 20
239.1357184020735
 30
0.0
 11
19.33469624852478
 21
239.3274016645046
 31
0.0
  0
LINE
  5
844
  8
_____1
 62
     1
 10
19.81351480447302
 20
238.6089790305177
 30
0.0
 11
19.5741055264989
 21
239.1357184020735
 31
0.0
  0
LINE
  5
845
  8
_____1
 62
     1
 10
16.84534623775926
 20
237.1729129627993
 30
0.0
 11
16.84534623775926
 21
237.2687545940162
 31
0.0
  0
LINE
  5
846
  8
_____1
 62
     1
 10
16.74950460654509
 20
237.1729129627993
 30
0.0
 11
16.84534623775926
 21
237.1729129627993
 31
0.0
  0
LINE
  5
847
  8
_____1
 62
     1
 10
17.27624397810041
 20
237.1729129627993
 30
0.0
 11
17.37189080925282
 21
237.1729129627993
 31
0.0
  0
LINE
  5
848
  8
_____1
 62
     1
 10
17.22832316249333
 20
237.2687545940162
 30
0.0
 11
17.27624397810041
 21
237.1729129627993
 31
0.0
  0
LINE
  5
849
  8
_____1
 62
     1
 10
16.84534623775926
 20
237.2208337784086
 30
0.0
 11
16.8932670533668
 21
237.2208337784086
 31
0.0
  0
LINE
  5
84A
  8
_____1
 62
     1
 10
17.22832316249333
 20
237.2208337784086
 30
0.0
 11
17.27624397810041
 21
237.2208337784086
 31
0.0
  0
LINE
  5
84B
  8
_____1
 62
     1
 10
16.84534623775926
 20
237.2208337784086
 30
0.0
 11
16.84534623775926
 21
237.2687545940162
 31
0.0
  0
LINE
  5
84C
  8
_____1
 62
     1
 10
17.22832316249333
 20
237.2687545940162
 30
0.0
 11
17.22832316249333
 21
237.2208337784086
 31
0.0
  0
LINE
  5
84D
  8
_____1
 62
     1
 10
17.03683470012629
 20
243.6839102833892
 30
0.0
 11
17.18040234688578
 21
243.6839102833892
 31
0.0
  0
LINE
  5
84E
  8
_____1
 62
     1
 10
17.18040234688578
 20
244.7369994263736
 30
0.0
 11
17.03683470012629
 21
244.7369994263736
 31
0.0
  0
LINE
  5
84F
  8
_____1
 62
     1
 10
16.8932670533668
 20
243.6839102833892
 30
0.0
 11
17.03683470012629
 21
243.6839102833892
 31
0.0
  0
LINE
  5
850
  8
_____1
 62
     1
 10
17.03683470012629
 20
244.7369994263736
 30
0.0
 11
16.8932670533668
 21
244.7369994263736
 31
0.0
  0
LINE
  5
851
  8
_____1
 62
     1
 10
17.65922090283402
 20
242.9658772495309
 30
0.0
 11
18.04219782756581
 21
243.2050917274428
 31
0.0
  0
LINE
  5
852
  8
_____1
 62
     1
 10
17.22832316249333
 20
242.8221148027092
 30
0.0
 11
17.65922090283402
 21
242.9658772495309
 31
0.0
  0
LINE
  5
853
  8
_____1
 62
     1
 10
16.46236931302565
 20
242.9658772495309
 30
0.0
 11
16.8932670533668
 21
242.8221148027092
 31
0.0
  0
LINE
  5
854
  8
_____1
 62
     1
 10
16.07939238829385
 20
243.2050917274428
 30
0.0
 11
16.46236931302565
 21
242.9658772495309
 31
0.0
  0
LINE
  5
855
  8
_____1
 62
     1
 10
17.89863018080814
 20
243.7318310989986
 30
0.0
 11
18.04219782756581
 21
244.1148080237299
 31
0.0
  0
LINE
  5
856
  8
_____1
 62
     1
 10
17.65922090283402
 20
243.4443062053529
 30
0.0
 11
17.89863018080814
 21
243.7318310989986
 31
0.0
  0
LINE
  5
857
  8
_____1
 62
     1
 10
18.04219782756581
 20
244.3540225016418
 30
0.0
 11
17.65922090283402
 21
245.024134719893
 31
0.0
  0
LINE
  5
858
  8
_____1
 62
     1
 10
17.03683470012629
 20
245.2158179823218
 30
0.0
 11
16.65385777539268
 21
245.1199763511077
 31
0.0
  0
LINE
  5
859
  8
_____1
 62
     1
 10
17.4198116248599
 20
245.1199763511077
 30
0.0
 11
17.03683470012629
 21
245.2158179823218
 31
0.0
  0
LINE
  5
85A
  8
_____1
 62
     1
 10
16.46236931302565
 20
245.024134719893
 30
0.0
 11
16.07939238829385
 21
244.3540225016418
 31
0.0
  0
LINE
  5
85B
  8
_____1
 62
     1
 10
16.22296003505335
 20
243.7318310989986
 30
0.0
 11
16.46236931302565
 21
243.4443062053529
 31
0.0
  0
LINE
  5
85C
  8
_____1
 62
     1
 10
16.07939238829385
 20
244.1148080237299
 30
0.0
 11
16.22296003505335
 21
243.7318310989986
 31
0.0
  0
LINE
  5
85D
  8
_____1
 62
     1
 10
17.03683470012629
 20
243.2530125430503
 30
0.0
 11
17.4198116248599
 21
243.3009333586574
 31
0.0
  0
LINE
  5
85E
  8
_____1
 62
     1
 10
16.65385777539268
 20
243.3009333586574
 30
0.0
 11
17.03683470012629
 21
243.2530125430503
 31
0.0
  0
LINE
  5
85F
  8
_____1
 62
     1
 10
17.61130008722694
 20
243.8752039456936
 30
0.0
 11
17.70714171844156
 21
244.2102600548183
 31
0.0
  0
LINE
  5
860
  8
_____1
 62
     1
 10
17.37189080925282
 20
243.6359894677817
 30
0.0
 11
17.61130008722694
 21
243.8752039456936
 31
0.0
  0
LINE
  5
861
  8
_____1
 62
     1
 10
17.03683470012629
 20
243.5880686521746
 30
0.0
 11
17.37189080925282
 21
243.6359894677817
 31
0.0
  0
LINE
  5
862
  8
_____1
 62
     1
 10
16.74950460654509
 20
243.6359894677817
 30
0.0
 11
17.03683470012629
 21
243.5880686521746
 31
0.0
  0
LINE
  5
863
  8
_____1
 62
     1
 10
16.51029012863501
 20
243.8752039456936
 30
0.0
 11
16.74950460654509
 21
243.6359894677817
 31
0.0
  0
LINE
  5
864
  8
_____1
 62
     1
 10
16.41444849741856
 20
244.2102600548183
 30
0.0
 11
16.51029012863501
 21
243.8752039456936
 31
0.0
  0
LINE
  5
865
  8
_____1
 62
     1
 10
16.51029012863501
 20
244.545705764071
 30
0.0
 11
16.41444849741856
 21
244.2102600548183
 31
0.0
  0
LINE
  5
866
  8
_____1
 62
     1
 10
16.74950460654509
 20
244.7849202419811
 30
0.0
 11
16.51029012863501
 21
244.545705764071
 31
0.0
  0
LINE
  5
867
  8
_____1
 62
     1
 10
17.03683470012629
 20
244.8807618731976
 30
0.0
 11
16.74950460654509
 21
244.7849202419811
 31
0.0
  0
LINE
  5
868
  8
_____1
 62
     1
 10
17.37189080925282
 20
244.7849202419811
 30
0.0
 11
17.03683470012629
 21
244.8807618731976
 31
0.0
  0
LINE
  5
869
  8
_____1
 62
     1
 10
17.61130008722694
 20
244.545705764071
 30
0.0
 11
17.37189080925282
 21
244.7849202419811
 31
0.0
  0
LINE
  5
86A
  8
_____1
 62
     1
 10
17.70714171844156
 20
244.2102600548183
 30
0.0
 11
17.61130008722694
 21
244.545705764071
 31
0.0
  0
LINE
  5
86B
  8
_____1
 62
     1
 10
16.8932670533668
 20
247.7053627931514
 30
0.0
 11
16.8932670533668
 21
247.6095211619368
 31
0.0
  0
LINE
  5
86C
  8
_____1
 62
     1
 10
16.98891388451921
 20
247.7053627931514
 30
0.0
 11
16.8932670533668
 21
247.7053627931514
 31
0.0
  0
LINE
  5
86D
  8
_____1
 62
     1
 10
17.22832316249333
 20
247.6095211619368
 30
0.0
 11
17.1324815312787
 21
247.7053627931514
 31
0.0
  0
LINE
  5
86E
  8
_____1
 62
     1
 10
18.95171932379071
 20
247.9445772710615
 30
0.0
 11
18.85607249264058
 21
248.088339717885
 31
0.0
  0
LINE
  5
86F
  8
_____1
 62
     1
 10
17.75486773398461
 20
247.9924980866685
 30
0.0
 11
17.75486773398461
 21
247.9445772710615
 31
0.0
  0
LINE
  5
870
  8
_____1
 62
     1
 10
19.14320778615775
 20
237.3166754096233
 30
0.0
 11
19.0954817706147
 21
237.2687545940162
 31
0.0
  0
LINE
  5
871
  8
_____1
 62
     1
 10
20.81887793191254
 20
237.1729129627993
 30
0.0
 11
20.86679874752144
 21
237.2687545940162
 31
0.0
  0
LINE
  5
872
  8
_____1
 62
     1
 10
20.72303630069791
 20
237.1729129627993
 30
0.0
 11
20.81887793191254
 21
237.1729129627993
 31
0.0
  0
LINE
  5
873
  8
_____1
 62
     1
 10
21.34542250340564
 20
239.4707745112
 30
0.0
 11
21.34542250340564
 21
239.5666161424142
 31
0.0
  0
LINE
  5
874
  8
_____1
 62
     1
 10
21.24977567225324
 20
239.4707745112
 30
0.0
 11
21.34542250340564
 21
239.4707745112
 31
0.0
  0
LINE
  5
875
  8
_____1
 62
     1
 10
21.34542250340564
 20
239.7582994048435
 30
0.0
 11
21.34542250340564
 21
239.8537514359314
 31
0.0
  0
LINE
  5
876
  8
_____1
 62
     1
 10
21.24977567225324
 20
239.7582994048435
 30
0.0
 11
21.34542250340564
 21
239.7582994048435
 31
0.0
  0
LINE
  5
877
  8
_____1
 62
     1
 10
21.34542250340564
 20
238.0347084434816
 30
0.0
 11
21.34542250340564
 21
238.1305500746957
 31
0.0
  0
LINE
  5
878
  8
_____1
 62
     1
 10
21.24977567225324
 20
238.0347084434816
 30
0.0
 11
21.34542250340564
 21
238.0347084434816
 31
0.0
  0
LINE
  5
879
  8
_____1
 62
     1
 10
21.34542250340564
 20
237.2687545940162
 30
0.0
 11
21.34542250340564
 21
237.3645962252303
 31
0.0
  0
LINE
  5
87A
  8
_____1
 62
     1
 10
21.24977567225324
 20
237.2687545940162
 30
0.0
 11
21.34542250340564
 21
237.2687545940162
 31
0.0
  0
LINE
  5
87B
  8
_____1
 62
     1
 10
20.81887793191254
 20
237.2208337784086
 30
0.0
 11
20.86679874752144
 21
237.2208337784086
 31
0.0
  0
LINE
  5
87C
  8
_____1
 62
     1
 10
20.86679874752144
 20
237.2208337784086
 30
0.0
 11
20.86679874752144
 21
237.2687545940162
 31
0.0
  0
LINE
  5
87D
  8
_____1
 62
     1
 10
16.51029012863501
 20
244.3540225016418
 30
0.0
 11
16.51029012863501
 21
244.0668872081228
 31
0.0
  0
LINE
  5
87E
  8
_____1
 62
     1
 10
20.67531028515486
 20
248.0404189022756
 30
0.0
 11
20.57946865394024
 21
248.088339717885
 31
0.0
  0
LINE
  5
87F
  8
_____1
 62
     1
 10
20.67531028515486
 20
247.9445772710615
 30
0.0
 11
20.67531028515486
 21
248.0404189022756
 31
0.0
  0
LINE
  5
880
  8
_____1
 62
     1
 10
20.3400593759643
 20
247.9445772710615
 30
0.0
 11
20.24441254481371
 21
248.088339717885
 31
0.0
  0
LINE
  5
881
  8
_____1
 62
     1
 10
19.23904941737419
 20
248.088339717885
 30
0.0
 11
19.14320778615775
 21
247.9445772710615
 31
0.0
  0
LINE
  5
882
  8
_____1
 62
     1
 10
21.34542250340564
 20
242.1995337999392
 30
0.0
 11
21.24977567225324
 21
242.2953754311538
 31
0.0
  0
LINE
  5
883
  8
_____1
 62
     1
 10
21.34542250340564
 20
244.2102600548183
 30
0.0
 11
21.24977567225324
 21
244.2102600548183
 31
0.0
  0
LINE
  5
884
  8
_____1
 62
     1
 10
21.34542250340564
 20
244.1148080237299
 30
0.0
 11
21.34542250340564
 21
244.2102600548183
 31
0.0
  0
LINE
  5
885
  8
_____1
 62
     1
 10
21.34542250340564
 20
245.646715722663
 30
0.0
 11
21.34542250340564
 21
245.7425573538776
 31
0.0
  0
LINE
  5
886
  8
_____1
 62
     1
 10
21.24977567225324
 20
245.5987949070559
 30
0.0
 11
21.34542250340564
 21
245.646715722663
 31
0.0
  0
LINE
  5
887
  8
_____1
 62
     1
 10
21.34542250340564
 20
247.2744650528102
 30
0.0
 11
21.24977567225324
 21
247.3703066840249
 31
0.0
  0
LINE
  5
888
  8
_____1
 62
     1
 10
17.18040234688578
 20
244.3540225016418
 30
0.0
 11
17.03683470012629
 21
244.2102600548183
 31
0.0
  0
LINE
  5
889
  8
_____1
 62
     1
 10
17.03683470012629
 20
244.2102600548183
 30
0.0
 11
17.18040234688578
 21
244.1148080237299
 31
0.0
  0
LINE
  5
88A
  8
_____1
 62
     1
 10
16.94099306891167
 20
244.1148080237299
 30
0.0
 11
17.03683470012629
 21
244.2102600548183
 31
0.0
  0
LINE
  5
88B
  8
_____1
 62
     1
 10
17.03683470012629
 20
244.2102600548183
 30
0.0
 11
16.94099306891167
 21
244.3540225016418
 31
0.0
  0
LINE
  5
88C
  8
_____1
 62
     1
 10
17.8027885495917
 20
237.4121274407116
 30
0.0
 11
18.99964013940007
 21
237.3645962252303
 31
0.0
  0
LINE
  5
88D
  8
_____1
 62
     1
 10
17.61130008722694
 20
237.3166754096233
 30
0.0
 11
17.8027885495917
 21
237.4121274407116
 31
0.0
  0
LINE
  5
88E
  8
_____1
 62
     1
 10
9.85572516128559
 20
237.4121274407116
 30
0.0
 11
11.00465593548506
 21
237.3645962252303
 31
0.0
  0
LINE
  5
88F
  8
_____1
 62
     1
 10
9.616315883311472
 20
237.3166754096233
 30
0.0
 11
9.85572516128559
 21
237.4121274407116
 31
0.0
  0
LINE
  5
890
  8
_____1
 62
     1
 10
13.82925685543887
 20
237.4121274407116
 30
0.0
 11
14.97818762963789
 21
237.3645962252303
 31
0.0
  0
LINE
  5
891
  8
_____1
 62
     1
 10
13.63776839307184
 20
237.3166754096233
 30
0.0
 11
13.82925685543887
 21
237.4121274407116
 31
0.0
  0
LINE
  5
892
  8
_____1
 62
     1
 10
16.27088085066089
 20
237.4121274407116
 30
0.0
 11
16.46236931302565
 21
237.3166754096233
 31
0.0
  0
LINE
  5
893
  8
_____1
 62
     1
 10
15.12195007646187
 20
237.3645962252303
 30
0.0
 11
16.27088085066089
 21
237.4121274407116
 31
0.0
  0
LINE
  5
894
  8
_____1
 62
     1
 10
12.29734915650579
 20
237.4121274407116
 30
0.0
 11
12.48883761887282
 21
237.3166754096233
 31
0.0
  0
LINE
  5
895
  8
_____1
 62
     1
 10
11.14822358224455
 20
237.3645962252303
 30
0.0
 11
12.29734915650579
 21
237.4121274407116
 31
0.0
  0
LINE
  5
896
  8
_____1
 62
     1
 10
20.29233336042125
 20
237.4121274407116
 30
0.0
 11
20.48382182278783
 21
237.3166754096233
 31
0.0
  0
LINE
  5
897
  8
_____1
 62
     1
 10
19.0954817706147
 20
237.3645962252303
 30
0.0
 11
20.29233336042125
 21
237.4121274407116
 31
0.0
  0
LINE
  5
898
  8
_____1
 62
     1
 10
16.84534623775926
 20
237.5079690719258
 30
0.0
 11
16.74950460654509
 21
237.4600482563187
 31
0.0
  0
LINE
  5
899
  8
_____1
 62
     1
 10
16.84534623775926
 20
237.6038107031404
 30
0.0
 11
16.84534623775926
 21
237.5079690719258
 31
0.0
  0
LINE
  5
89A
  8
_____1
 62
     1
 10
16.84534623775926
 20
237.2208337784086
 30
0.0
 11
16.74950460654509
 21
237.1729129627993
 31
0.0
  0
LINE
  5
89B
  8
_____1
 62
     1
 10
13.25479146834004
 20
237.2208337784086
 30
0.0
 11
13.35043829949063
 21
237.1729129627993
 31
0.0
  0
LINE
  5
89C
  8
_____1
 62
     1
 10
13.25479146834004
 20
237.5079690719258
 30
0.0
 11
13.35043829949063
 21
237.4600482563187
 31
0.0
  0
LINE
  5
89D
  8
_____1
 62
     1
 10
13.25479146834004
 20
237.6038107031404
 30
0.0
 11
13.25479146834004
 21
237.5079690719258
 31
0.0
  0
LINE
  5
89E
  8
_____1
 62
     1
 10
20.86679874752144
 20
237.6038107031404
 30
0.0
 11
20.72303630069791
 21
237.4600482563187
 31
0.0
  0
LINE
  5
89F
  8
_____1
 62
     1
 10
20.81887793191254
 20
237.2208337784086
 30
0.0
 11
20.72303630069791
 21
237.1729129627993
 31
0.0
  0
LINE
  5
8A0
  8
_____1
 62
     1
 10
17.27624397810041
 20
237.2208337784086
 30
0.0
 11
17.37189080925282
 21
237.1729129627993
 31
0.0
  0
LINE
  5
8A1
  8
_____1
 62
     1
 10
17.22832316249333
 20
237.6038107031404
 30
0.0
 11
17.37189080925282
 21
237.4600482563187
 31
0.0
  0
LINE
  5
8A2
  8
_____1
 62
     1
 10
9.281259774184946
 20
239.4707745112
 30
0.0
 11
9.376906605337354
 21
239.5666161424142
 31
0.0
  0
LINE
  5
8A3
  8
_____1
 62
     1
 10
12.77597291239181
 20
239.5666161424142
 30
0.0
 11
12.87181454360643
 21
239.4707745112
 31
0.0
  0
LINE
  5
8A4
  8
_____1
 62
     1
 10
13.25479146834004
 20
239.4707745112
 30
0.0
 11
13.35043829949063
 21
239.5666161424142
 31
0.0
  0
LINE
  5
8A5
  8
_____1
 62
     1
 10
16.17503921944444
 20
237.2687545940162
 30
0.0
 11
15.16967609200492
 21
237.3166754096233
 31
0.0
  0
LINE
  5
8A6
  8
_____1
 62
     1
 10
16.41444849741856
 20
237.3645962252303
 30
0.0
 11
16.17503921944444
 21
237.2687545940162
 31
0.0
  0
LINE
  5
8A7
  8
_____1
 62
     1
 10
16.74950460654509
 20
239.5666161424142
 30
0.0
 11
16.84534623775926
 21
239.4707745112
 31
0.0
  0
LINE
  5
8A8
  8
_____1
 62
     1
 10
17.22832316249333
 20
239.4707745112
 30
0.0
 11
17.37189080925282
 21
239.5666161424142
 31
0.0
  0
LINE
  5
8A9
  8
_____1
 62
     1
 10
20.72303630069791
 20
239.5666161424142
 30
0.0
 11
20.86679874752144
 21
239.4707745112
 31
0.0
  0
LINE
  5
8AA
  8
_____1
 62
     1
 10
13.92509848665304
 20
237.2687545940162
 30
0.0
 11
13.68568920867892
 21
237.3645962252303
 31
0.0
  0
LINE
  5
8AB
  8
_____1
 62
     1
 10
14.9302668140308
 20
237.3166754096233
 30
0.0
 11
13.92509848665304
 21
237.2687545940162
 31
0.0
  0
LINE
  5
8AC
  8
_____1
 62
     1
 10
9.95137199243618
 20
237.2687545940162
 30
0.0
 11
9.712157514526098
 21
237.3645962252303
 31
0.0
  0
LINE
  5
8AD
  8
_____1
 62
     1
 10
10.95673511987752
 20
237.3166754096233
 30
0.0
 11
9.95137199243618
 21
237.2687545940162
 31
0.0
  0
LINE
  5
8AE
  8
_____1
 62
     1
 10
8.850362033846068
 20
239.4228536955925
 30
0.0
 11
8.754520402629623
 21
239.5186953268071
 31
0.0
  0
LINE
  5
8AF
  8
_____1
 62
     1
 10
17.94635619635119
 20
237.2687545940162
 30
0.0
 11
17.70714171844156
 21
237.3645962252303
 31
0.0
  0
LINE
  5
8B0
  8
_____1
 62
     1
 10
18.95171932379071
 20
237.3166754096233
 30
0.0
 11
17.94635619635119
 21
237.2687545940162
 31
0.0
  0
LINE
  5
8B1
  8
_____1
 62
     1
 10
8.850362033846068
 20
238.7527414773394
 30
0.0
 11
8.754520402629623
 21
238.8006622929488
 31
0.0
  0
LINE
  5
8B2
  8
_____1
 62
     1
 10
20.14857091359909
 20
237.2687545940162
 30
0.0
 11
19.14320778615775
 21
237.3166754096233
 31
0.0
  0
LINE
  5
8B3
  8
_____1
 62
     1
 10
20.38798019157321
 20
237.3645962252303
 30
0.0
 11
20.14857091359909
 21
237.2687545940162
 31
0.0
  0
LINE
  5
8B4
  8
_____1
 62
     1
 10
21.24977567225324
 20
238.7527414773394
 30
0.0
 11
21.34542250340564
 21
238.8006622929488
 31
0.0
  0
LINE
  5
8B5
  8
_____1
 62
     1
 10
21.24977567225324
 20
239.4228536955925
 30
0.0
 11
21.34542250340564
 21
239.5186953268071
 31
0.0
  0
LINE
  5
8B6
  8
_____1
 62
     1
 10
14.9302668140308
 20
237.3166754096233
 30
0.0
 11
14.97818762963789
 21
237.3166754096233
 31
0.0
  0
LINE
  5
8B7
  8
_____1
 62
     1
 10
15.16967609200492
 20
237.3166754096233
 30
0.0
 11
15.21759690761201
 21
237.3166754096233
 31
0.0
  0
LINE
  5
8B8
  8
_____1
 62
     1
 10
11.14822358224455
 20
237.3166754096233
 30
0.0
 11
11.19614439785164
 21
237.3166754096233
 31
0.0
  0
LINE
  5
8B9
  8
_____1
 62
     1
 10
10.95673511987752
 20
237.3166754096233
 30
0.0
 11
11.00465593548506
 21
237.3166754096233
 31
0.0
  0
LINE
  5
8BA
  8
_____1
 62
     1
 10
19.14320778615775
 20
237.3166754096233
 30
0.0
 11
19.1911286017671
 21
237.3166754096233
 31
0.0
  0
LINE
  5
8BB
  8
_____1
 62
     1
 10
18.95171932379071
 20
237.3166754096233
 30
0.0
 11
18.99964013940007
 21
237.3166754096233
 31
0.0
  0
LINE
  5
8BC
  8
_____1
 62
     1
 10
19.76559398886548
 20
242.1995337999392
 30
0.0
 11
19.81351480447302
 21
242.2953754311538
 31
0.0
  0
LINE
  5
8BD
  8
_____1
 62
     1
 10
19.38261706413186
 20
242.1995337999392
 30
0.0
 11
19.43053787973895
 21
242.2953754311538
 31
0.0
  0
LINE
  5
8BE
  8
_____1
 62
     1
 10
18.71250484588109
 20
242.1995337999392
 30
0.0
 11
18.66458403027355
 21
242.2953754311538
 31
0.0
  0
LINE
  5
8BF
  8
_____1
 62
     1
 10
15.74414147910511
 20
242.1995337999392
 30
0.0
 11
15.79206229471265
 21
242.2953754311538
 31
0.0
  0
LINE
  5
8C0
  8
_____1
 62
     1
 10
15.40908536997904
 20
242.1995337999392
 30
0.0
 11
15.45700618558612
 21
242.2953754311538
 31
0.0
  0
LINE
  5
8C1
  8
_____1
 62
     1
 10
14.69105233612072
 20
242.1995337999392
 30
0.0
 11
14.64313152051363
 21
242.2953754311538
 31
0.0
  0
LINE
  5
8C2
  8
_____1
 62
     1
 10
14.30807541138711
 20
242.2953754311538
 30
0.0
 11
14.35580142693198
 21
242.1995337999392
 31
0.0
  0
LINE
  5
8C3
  8
_____1
 62
     1
 10
11.77060978495047
 20
242.1995337999392
 30
0.0
 11
11.81853060055755
 21
242.2953754311538
 31
0.0
  0
LINE
  5
8C4
  8
_____1
 62
     1
 10
11.43555367582576
 20
242.1995337999392
 30
0.0
 11
11.43555367582576
 21
242.2953754311538
 31
0.0
  0
LINE
  5
8C5
  8
_____1
 62
     1
 10
10.71752064196789
 20
242.1995337999392
 30
0.0
 11
10.66959982635854
 21
242.2953754311538
 31
0.0
  0
LINE
  5
8C6
  8
_____1
 62
     1
 10
10.33454371723383
 20
242.2953754311538
 30
0.0
 11
10.38226973277688
 21
242.1995337999392
 31
0.0
  0
LINE
  5
8C7
  8
_____1
 62
     1
 10
19.38261706413186
 20
239.8537514359314
 30
0.0
 11
19.43053787973895
 21
239.7582994048435
 31
0.0
  0
LINE
  5
8C8
  8
_____1
 62
     1
 10
18.71250484588109
 20
239.8537514359314
 30
0.0
 11
18.66458403027355
 21
239.7582994048435
 31
0.0
  0
LINE
  5
8C9
  8
_____1
 62
     1
 10
18.3293331210848
 20
239.8537514359314
 30
0.0
 11
18.28160710553993
 21
239.7582994048435
 31
0.0
  0
LINE
  5
8CA
  8
_____1
 62
     1
 10
15.40908536997904
 20
239.8537514359314
 30
0.0
 11
15.45700618558612
 21
239.7582994048435
 31
0.0
  0
LINE
  5
8CB
  8
_____1
 62
     1
 10
14.69105233612072
 20
239.8537514359314
 30
0.0
 11
14.64313152051363
 21
239.7582994048435
 31
0.0
  0
LINE
  5
8CC
  8
_____1
 62
     1
 10
14.35580142693198
 20
239.8537514359314
 30
0.0
 11
14.30807541138711
 21
239.7582994048435
 31
0.0
  0
LINE
  5
8CD
  8
_____1
 62
     1
 10
11.43555367582576
 20
239.8537514359314
 30
0.0
 11
11.43555367582576
 21
239.7582994048435
 31
0.0
  0
LINE
  5
8CE
  8
_____1
 62
     1
 10
11.81853060055755
 20
239.7582994048435
 30
0.0
 11
11.77060978495047
 21
239.8537514359314
 31
0.0
  0
LINE
  5
8CF
  8
_____1
 62
     1
 10
10.71752064196789
 20
239.8537514359314
 30
0.0
 11
10.66959982635854
 21
239.7582994048435
 31
0.0
  0
LINE
  5
8D0
  8
_____1
 62
     1
 10
10.38226973277688
 20
239.8537514359314
 30
0.0
 11
10.33454371723383
 21
239.7582994048435
 31
0.0
  0
LINE
  5
8D1
  8
_____1
 62
     1
 10
20.48382182278783
 20
237.3166754096233
 30
0.0
 11
20.53154783833088
 21
237.3166754096233
 31
0.0
  0
LINE
  5
8D2
  8
_____1
 62
     1
 10
12.48883761887282
 20
237.3166754096233
 30
0.0
 11
12.53656363441769
 21
237.3166754096233
 31
0.0
  0
LINE
  5
8D3
  8
_____1
 62
     1
 10
13.63776839307184
 20
237.3166754096233
 30
0.0
 11
13.68568920867892
 21
237.3166754096233
 31
0.0
  0
LINE
  5
8D4
  8
_____1
 62
     1
 10
13.78133603983133
 20
237.2208337784086
 30
0.0
 11
13.63776839307184
 21
237.3166754096233
 31
0.0
  0
LINE
  5
8D5
  8
_____1
 62
     1
 10
14.9302668140308
 20
237.2208337784086
 30
0.0
 11
13.78133603983133
 21
237.2208337784086
 31
0.0
  0
LINE
  5
8D6
  8
_____1
 62
     1
 10
14.97818762963789
 20
237.2687545940162
 30
0.0
 11
14.9302668140308
 21
237.2208337784086
 31
0.0
  0
LINE
  5
8D7
  8
_____1
 62
     1
 10
15.16967609200492
 20
237.2208337784086
 30
0.0
 11
15.12195007646187
 21
237.2687545940162
 31
0.0
  0
LINE
  5
8D8
  8
_____1
 62
     1
 10
16.36652768181102
 20
237.2208337784086
 30
0.0
 11
15.16967609200492
 21
237.2208337784086
 31
0.0
  0
LINE
  5
8D9
  8
_____1
 62
     1
 10
16.51029012863501
 20
237.3166754096233
 30
0.0
 11
16.36652768181102
 21
237.2208337784086
 31
0.0
  0
LINE
  5
8DA
  8
_____1
 62
     1
 10
18.28160710553993
 20
242.2953754311538
 30
0.0
 11
18.3293331210848
 21
242.1995337999392
 31
0.0
  0
LINE
  5
8DB
  8
_____1
 62
     1
 10
11.14822358224455
 20
237.2208337784086
 30
0.0
 11
11.14822358224455
 21
237.2687545940162
 31
0.0
  0
LINE
  5
8DC
  8
_____1
 62
     1
 10
12.34507517205111
 20
237.2208337784086
 30
0.0
 11
11.14822358224455
 21
237.2208337784086
 31
0.0
  0
LINE
  5
8DD
  8
_____1
 62
     1
 10
12.48883761887282
 20
237.3166754096233
 30
0.0
 11
12.34507517205111
 21
237.2208337784086
 31
0.0
  0
LINE
  5
8DE
  8
_____1
 62
     1
 10
9.616315883311472
 20
237.3166754096233
 30
0.0
 11
9.664236698919012
 21
237.3166754096233
 31
0.0
  0
LINE
  5
8DF
  8
_____1
 62
     1
 10
9.75988353007142
 20
237.2208337784086
 30
0.0
 11
9.616315883311472
 21
237.3166754096233
 31
0.0
  0
LINE
  5
8E0
  8
_____1
 62
     1
 10
10.95673511987752
 20
237.2208337784086
 30
0.0
 11
9.75988353007142
 21
237.2208337784086
 31
0.0
  0
LINE
  5
8E1
  8
_____1
 62
     1
 10
11.00465593548506
 20
237.2687545940162
 30
0.0
 11
10.95673511987752
 21
237.2208337784086
 31
0.0
  0
LINE
  5
8E2
  8
_____1
 62
     1
 10
19.14320778615775
 20
237.2208337784086
 30
0.0
 11
19.0954817706147
 21
237.2687545940162
 31
0.0
  0
LINE
  5
8E3
  8
_____1
 62
     1
 10
20.3400593759643
 20
237.2208337784086
 30
0.0
 11
19.14320778615775
 21
237.2208337784086
 31
0.0
  0
LINE
  5
8E4
  8
_____1
 62
     1
 10
20.48382182278783
 20
237.3166754096233
 30
0.0
 11
20.3400593759643
 21
237.2208337784086
 31
0.0
  0
LINE
  5
8E5
  8
_____1
 62
     1
 10
17.61130008722694
 20
237.3166754096233
 30
0.0
 11
17.65922090283402
 21
237.3166754096233
 31
0.0
  0
LINE
  5
8E6
  8
_____1
 62
     1
 10
17.75486773398461
 20
237.2208337784086
 30
0.0
 11
17.61130008722694
 21
237.3166754096233
 31
0.0
  0
LINE
  5
8E7
  8
_____1
 62
     1
 10
18.95171932379071
 20
237.2208337784086
 30
0.0
 11
17.75486773398461
 21
237.2208337784086
 31
0.0
  0
LINE
  5
8E8
  8
_____1
 62
     1
 10
18.99964013940007
 20
237.2687545940162
 30
0.0
 11
18.95171932379071
 21
237.2208337784086
 31
0.0
  0
LINE
  5
8E9
  8
_____1
 62
     1
 10
16.46236931302565
 20
237.3166754096233
 30
0.0
 11
16.51029012863501
 21
237.3166754096233
 31
0.0
  0
LINE
  5
8EA
  8
_____1
 62
     1
 10
19.81351480447302
 20
239.7582994048435
 30
0.0
 11
19.76559398886548
 21
239.8537514359314
 31
0.0
  0
LINE
  5
8EB
  8
_____1
 62
     1
 10
12.20150752529116
 20
237.2687545940162
 30
0.0
 11
11.14822358224455
 21
237.3166754096233
 31
0.0
  0
LINE
  5
8EC
  8
_____1
 62
     1
 10
12.44091680326528
 20
237.3645962252303
 30
0.0
 11
12.20150752529116
 21
237.2687545940162
 31
0.0
  0
LINE
  5
8ED
  8
_____1
 62
     1
 10
15.79206229471265
 20
239.7582994048435
 30
0.0
 11
15.74414147910511
 21
239.8537514359314
 31
0.0
  0
LINE
  5
8EE
  8
_____1
 62
     1
 10
16.98891388451921
 20
247.2744650528102
 30
0.0
 11
16.94099306891167
 21
247.2744650528102
 31
0.0
  0
LINE
  5
8EF
  8
_____1
 62
     1
 10
16.94099306891167
 20
247.2744650528102
 30
0.0
 11
16.8932670533668
 21
247.3703066840249
 31
0.0
  0
LINE
  5
8F0
  8
_____1
 62
     1
 10
17.1324815312787
 20
247.2744650528102
 30
0.0
 11
17.18040234688578
 21
247.2744650528102
 31
0.0
  0
LINE
  5
8F1
  8
_____1
 62
     1
 10
17.18040234688578
 20
247.3703066840249
 30
0.0
 11
17.1324815312787
 21
247.2744650528102
 31
0.0
  0
LINE
  5
8F2
  8
_____1
 62
     1
 10
16.8932670533668
 20
247.3703066840249
 30
0.0
 11
16.94099306891167
 21
247.3703066840249
 31
0.0
  0
LINE
  5
8F3
  8
_____1
 62
     1
 10
16.98891388451921
 20
247.3703066840249
 30
0.0
 11
16.8932670533668
 21
247.3703066840249
 31
0.0
  0
LINE
  5
8F4
  8
_____1
 62
     1
 10
17.18040234688578
 20
247.3703066840249
 30
0.0
 11
17.1324815312787
 21
247.3703066840249
 31
0.0
  0
LINE
  5
8F5
  8
_____1
 62
     1
 10
17.18040234688578
 20
247.3703066840249
 30
0.0
 11
17.22832316249333
 21
247.3703066840249
 31
0.0
  0
LINE
  5
8F6
  8
_____1
 62
     1
 10
11.05257675109215
 20
247.9445772710615
 30
0.0
 11
11.05257675109215
 21
248.088339717885
 31
0.0
  0
LINE
  5
8F7
  8
_____1
 62
     1
 10
19.04756095500716
 20
247.9445772710615
 30
0.0
 11
19.04756095500716
 21
248.088339717885
 31
0.0
  0
LINE
  5
8F8
  8
_____1
 62
     1
 10
12.87181454360643
 20
237.5079690719258
 30
0.0
 11
12.77597291239181
 21
237.4600482563187
 31
0.0
  0
LINE
  5
8F9
  8
_____1
 62
     1
 10
12.87181454360643
 20
237.6038107031404
 30
0.0
 11
12.87181454360643
 21
237.5079690719258
 31
0.0
  0
LINE
  5
8FA
  8
_____1
 62
     1
 10
12.87181454360643
 20
237.2208337784086
 30
0.0
 11
12.77597291239181
 21
237.1729129627993
 31
0.0
  0
LINE
  5
8FB
  8
_____1
 62
     1
 10
9.281259774184946
 20
237.2208337784086
 30
0.0
 11
9.376906605337354
 21
237.1729129627993
 31
0.0
  0
LINE
  5
8FC
  8
_____1
 62
     1
 10
9.281259774184946
 20
237.5079690719258
 30
0.0
 11
9.376906605337354
 21
237.4600482563187
 31
0.0
  0
LINE
  5
8FD
  8
_____1
 62
     1
 10
9.281259774184946
 20
237.6038107031404
 30
0.0
 11
9.281259774184946
 21
237.5079690719258
 31
0.0
  0
LINE
  5
8FE
  8
_____1
 62
     1
 10
-15.27815822465709
 20
260.3919117250775
 30
0.0
 11
-15.42172587141658
 21
260.3919117250775
 31
0.0
  0
LINE
  5
8FF
  8
_____1
 62
     1
 10
-15.42172587141658
 20
260.7269678342041
 30
0.0
 11
-15.61321433378362
 21
260.7269678342041
 31
0.0
  0
LINE
  5
900
  8
_____1
 62
     1
 10
-15.42172587141658
 20
266.3282488585046
 30
0.0
 11
-15.61321433378362
 21
266.3282488585046
 31
0.0
  0
LINE
  5
901
  8
_____1
 62
     1
 10
-15.27815822465709
 20
266.7112257832382
 30
0.0
 11
-15.42172587141658
 21
266.7112257832382
 31
0.0
  0
LINE
  5
902
  8
_____1
 62
     1
 10
-14.94310211553056
 20
266.7112257832382
 30
0.0
 11
-14.94310211553056
 21
260.3919117250775
 31
0.0
  0
LINE
  5
903
  8
_____1
 62
     1
 10
-15.18251139350468
 20
266.7112257832382
 30
0.0
 11
-15.18251139350468
 21
260.3919117250775
 31
0.0
  0
LINE
  5
904
  8
_____1
 62
     1
 10
-15.42172587141658
 20
266.3282488585046
 30
0.0
 11
-15.42172587141658
 21
260.7269678342041
 31
0.0
  0
LINE
  5
905
  8
_____1
 62
     1
 10
-15.61321433378362
 20
266.3282488585046
 30
0.0
 11
-15.61321433378362
 21
260.7269678342041
 31
0.0
  0
LINE
  5
906
  8
_____1
 62
     1
 10
-15.56548831823829
 20
260.4877533562922
 30
0.0
 11
-15.61321433378362
 21
260.7269678342041
 31
0.0
  0
LINE
  5
907
  8
_____1
 62
     1
 10
-15.42172587141658
 20
260.3919117250775
 30
0.0
 11
-15.56548831823829
 21
260.4877533562922
 31
0.0
  0
LINE
  5
908
  8
_____1
 62
     1
 10
-15.56548831823829
 20
266.6153841520218
 30
0.0
 11
-15.42172587141658
 21
266.7112257832382
 31
0.0
  0
LINE
  5
909
  8
_____1
 62
     1
 10
-15.61321433378362
 20
266.3282488585046
 30
0.0
 11
-15.56548831823829
 21
266.6153841520218
 31
0.0
  0
LINE
  5
90A
  8
_____1
 62
     1
 10
-15.27815822465709
 20
260.3919117250775
 30
0.0
 11
-15.37399985587172
 21
260.4398325406851
 31
0.0
  0
LINE
  5
90B
  8
_____1
 62
     1
 10
-15.37399985587172
 20
260.4398325406851
 30
0.0
 11
-15.42172587141658
 21
260.7269678342041
 31
0.0
  0
LINE
  5
90C
  8
_____1
 62
     1
 10
-15.42172587141658
 20
266.3282488585046
 30
0.0
 11
-15.37399985587172
 21
266.6633049676288
 31
0.0
  0
LINE
  5
90D
  8
_____1
 62
     1
 10
-15.37399985587172
 20
266.6633049676288
 30
0.0
 11
-15.27815822465709
 21
266.7112257832382
 31
0.0
  0
TEXT
  5
90E
  8
0
 62
     2
 10
-13.48877894692189
 20
351.5807971985751
 30
0.0
 40
4.0
  1
調光コントローラ(照度)
  7
_______
 72
     1
 11
15.12195007646187
 21
353.5807971985751
 31
0.0
 73
     2
  0
VIEWPORT
  5
90F
 67
     1
  8
0
 10
128.5
 20
97.5
 30
0.0
 40
314.226
 41
222.18
 68
     1
 69
     1
1001
ACAD
1000
MVIEW
1002
{
1070
    16
1010
0.0
1020
0.0
1030
0.0
1010
0.0
1020
0.0
1030
1.0
1040
0.0
1040
222.18
1040
128.5
1040
97.5
1040
50.0
1040
0.0
1040
0.0
1070
     0
1070
   100
1070
     0
1070
     3
1070
     0
1070
     0
1070
     0
1070
     0
1040
0.0
1040
0.0
1040
0.0
1040
10.0
1040
10.0
1040
10.0
1040
10.0
1070
     0
1002
{
1002
}
1002
}
  0
ENDSEC
  0
EOF
