  0
SECTION
  2
HEADER
  9
$ACADVER
  1
AC1015
  9
$ACADMAINTVER
 70
     6
  9
$DWGCODEPAGE
  3
ANSI_932
  9
$INSBASE
 10
0.0
 20
0.0
 30
0.0
  9
$EXTMIN
 10
-51.71735274531502
 20
172.1540743744411
 30
0.0
  9
$EXTMAX
 10
66.28262790231759
 20
314.754083879303
 30
0.0
  9
$LIMMIN
 10
0.0
 20
0.0
  9
$LIMMAX
 10
420.0
 20
297.0
  9
$ORTHOMODE
 70
     0
  9
$REGENMODE
 70
     1
  9
$FILLMODE
 70
     1
  9
$QTEXTMODE
 70
     0
  9
$MIRRTEXT
 70
     1
  9
$LTSCALE
 40
1.0
  9
$ATTMODE
 70
     1
  9
$TEXTSIZE
 40
2.5
  9
$TRACEWID
 40
1.0
  9
$TEXTSTYLE
  7
Standard
  9
$CLAYER
  8
0
  9
$CELTYPE
  6
ByLayer
  9
$CECOLOR
 62
   256
  9
$CELTSCALE
 40
1.0
  9
$DISPSILH
 70
     0
  9
$DIMSCALE
 40
1.0
  9
$DIMASZ
 40
2.5
  9
$DIMEXO
 40
0.625
  9
$DIMDLI
 40
3.75
  9
$DIMRND
 40
0.0
  9
$DIMDLE
 40
0.0
  9
$DIMEXE
 40
1.25
  9
$DIMTP
 40
0.0
  9
$DIMTM
 40
0.0
  9
$DIMTXT
 40
2.5
  9
$DIMCEN
 40
2.5
  9
$DIMTSZ
 40
0.0
  9
$DIMTOL
 70
     0
  9
$DIMLIM
 70
     0
  9
$DIMTIH
 70
     0
  9
$DIMTOH
 70
     0
  9
$DIMSE1
 70
     0
  9
$DIMSE2
 70
     0
  9
$DIMTAD
 70
     1
  9
$DIMZIN
 70
     8
  9
$DIMBLK
  1

  9
$DIMASO
 70
     1
  9
$DIMSHO
 70
     1
  9
$DIMPOST
  1

  9
$DIMAPOST
  1

  9
$DIMALT
 70
     0
  9
$DIMALTD
 70
     3
  9
$DIMALTF
 40
0.03937007874016
  9
$DIMLFAC
 40
1.0
  9
$DIMTOFL
 70
     1
  9
$DIMTVP
 40
0.0
  9
$DIMTIX
 70
     0
  9
$DIMSOXD
 70
     0
  9
$DIMSAH
 70
     0
  9
$DIMBLK1
  1

  9
$DIMBLK2
  1

  9
$DIMSTYLE
  2
ISO-25
  9
$DIMCLRD
 70
     0
  9
$DIMCLRE
 70
     0
  9
$DIMCLRT
 70
     0
  9
$DIMTFAC
 40
1.0
  9
$DIMGAP
 40
0.625
  9
$DIMJUST
 70
     0
  9
$DIMSD1
 70
     0
  9
$DIMSD2
 70
     0
  9
$DIMTOLJ
 70
     0
  9
$DIMTZIN
 70
     8
  9
$DIMALTZ
 70
     0
  9
$DIMALTTZ
 70
     0
  9
$DIMUPT
 70
     0
  9
$DIMDEC
 70
     2
  9
$DIMTDEC
 70
     2
  9
$DIMALTU
 70
     2
  9
$DIMALTTD
 70
     3
  9
$DIMTXSTY
  7
Standard
  9
$DIMAUNIT
 70
     0
  9
$DIMADEC
 70
     0
  9
$DIMALTRND
 40
0.0
  9
$DIMAZIN
 70
     0
  9
$DIMDSEP
 70
    44
  9
$DIMATFIT
 70
     3
  9
$DIMFRAC
 70
     0
  9
$DIMLDRBLK
  1

  9
$DIMLUNIT
 70
     2
  9
$DIMLWD
 70
    -2
  9
$DIMLWE
 70
    -2
  9
$DIMTMOVE
 70
     0
  9
$LUNITS
 70
     2
  9
$LUPREC
 70
     4
  9
$SKETCHINC
 40
1.0
  9
$FILLETRAD
 40
10.0
  9
$AUNITS
 70
     0
  9
$AUPREC
 70
     0
  9
$MENU
  1
.
  9
$ELEVATION
 40
0.0
  9
$PELEVATION
 40
0.0
  9
$THICKNESS
 40
0.0
  9
$LIMCHECK
 70
     0
  9
$CHAMFERA
 40
0.0
  9
$CHAMFERB
 40
0.0
  9
$CHAMFERC
 40
0.0
  9
$CHAMFERD
 40
0.0
  9
$SKPOLY
 70
     0
  9
$TDCREATE
 40
2458393.664533843
  9
$TDUCREATE
 40
2458393.289533843
  9
$TDUPDATE
 40
2458393.664768415
  9
$TDUUPDATE
 40
2458393.289768415
  9
$TDINDWG
 40
0.0002351042
  9
$TDUSRTIMER
 40
0.0002347454
  9
$USRTIMER
 70
     1
  9
$ANGBASE
 50
0.0
  9
$ANGDIR
 70
     0
  9
$PDMODE
 70
     0
  9
$PDSIZE
 40
0.0
  9
$PLINEWID
 40
0.0
  9
$SPLFRAME
 70
     0
  9
$SPLINETYPE
 70
     6
  9
$SPLINESEGS
 70
     8
  9
$HANDSEED
  5
1A66A
  9
$SURFTAB1
 70
     6
  9
$SURFTAB2
 70
     6
  9
$SURFTYPE
 70
     6
  9
$SURFU
 70
     6
  9
$SURFV
 70
     6
  9
$UCSBASE
  2

  9
$UCSNAME
  2

  9
$UCSORG
 10
0.0
 20
0.0
 30
0.0
  9
$UCSXDIR
 10
1.0
 20
0.0
 30
0.0
  9
$UCSYDIR
 10
0.0
 20
1.0
 30
0.0
  9
$UCSORTHOREF
  2

  9
$UCSORTHOVIEW
 70
     0
  9
$UCSORGTOP
 10
0.0
 20
0.0
 30
0.0
  9
$UCSORGBOTTOM
 10
0.0
 20
0.0
 30
0.0
  9
$UCSORGLEFT
 10
0.0
 20
0.0
 30
0.0
  9
$UCSORGRIGHT
 10
0.0
 20
0.0
 30
0.0
  9
$UCSORGFRONT
 10
0.0
 20
0.0
 30
0.0
  9
$UCSORGBACK
 10
0.0
 20
0.0
 30
0.0
  9
$PUCSBASE
  2

  9
$PUCSNAME
  2

  9
$PUCSORG
 10
0.0
 20
0.0
 30
0.0
  9
$PUCSXDIR
 10
1.0
 20
0.0
 30
0.0
  9
$PUCSYDIR
 10
0.0
 20
1.0
 30
0.0
  9
$PUCSORTHOREF
  2

  9
$PUCSORTHOVIEW
 70
     0
  9
$PUCSORGTOP
 10
0.0
 20
0.0
 30
0.0
  9
$PUCSORGBOTTOM
 10
0.0
 20
0.0
 30
0.0
  9
$PUCSORGLEFT
 10
0.0
 20
0.0
 30
0.0
  9
$PUCSORGRIGHT
 10
0.0
 20
0.0
 30
0.0
  9
$PUCSORGFRONT
 10
0.0
 20
0.0
 30
0.0
  9
$PUCSORGBACK
 10
0.0
 20
0.0
 30
0.0
  9
$USERI1
 70
     0
  9
$USERI2
 70
     0
  9
$USERI3
 70
     0
  9
$USERI4
 70
     0
  9
$USERI5
 70
     0
  9
$USERR1
 40
0.0
  9
$USERR2
 40
0.0
  9
$USERR3
 40
0.0
  9
$USERR4
 40
0.0
  9
$USERR5
 40
0.0
  9
$WORLDVIEW
 70
     1
  9
$SHADEDGE
 70
     3
  9
$SHADEDIF
 70
    70
  9
$TILEMODE
 70
     1
  9
$MAXACTVP
 70
    64
  9
$PINSBASE
 10
0.0
 20
0.0
 30
0.0
  9
$PLIMCHECK
 70
     0
  9
$PEXTMIN
 10
1.000000000000000E+20
 20
1.000000000000000E+20
 30
1.000000000000000E+20
  9
$PEXTMAX
 10
-1.000000000000000E+20
 20
-1.000000000000000E+20
 30
-1.000000000000000E+20
  9
$PLIMMIN
 10
0.0
 20
0.0
  9
$PLIMMAX
 10
420.0
 20
297.0
  9
$UNITMODE
 70
     0
  9
$VISRETAIN
 70
     1
  9
$PLINEGEN
 70
     0
  9
$PSLTSCALE
 70
     1
  9
$TREEDEPTH
 70
  3020
  9
$CMLSTYLE
  2
Standard
  9
$CMLJUST
 70
     0
  9
$CMLSCALE
 40
20.0
  9
$PROXYGRAPHICS
 70
     1
  9
$MEASUREMENT
 70
     1
  9
$CELWEIGHT
370
    -1
  9
$ENDCAPS
280
     0
  9
$JOINSTYLE
280
     0
  9
$LWDISPLAY
290
     0
  9
$INSUNITS
 70
     4
  9
$HYPERLINKBASE
  1

  9
$STYLESHEET
  1

  9
$XEDIT
290
     1
  9
$CEPSNTYPE
380
     0
  9
$PSTYLEMODE
290
     1
  9
$FINGERPRINTGUID
  2
{33A685FE-AC4A-453B-81F7-85FA890E7132}
  9
$VERSIONGUID
  2
{FAEB1C32-E019-11D5-929B-00C0DF256EC4}
  9
$EXTNAMES
290
     1
  9
$PSVPSCALE
 40
0.0
  9
$OLESTARTUP
290
     0
  0
ENDSEC
  0
SECTION
  2
CLASSES
  0
CLASS
  1
ACDBDICTIONARYWDFLT
  2
AcDbDictionaryWithDefault
  3
ObjectDBX Classes
 90
        0
280
     0
281
     0
  0
CLASS
  1
VISUALSTYLE
  2
AcDbVisualStyle
  3
ObjectDBX Classes
 90
     4095
280
     0
281
     0
  0
CLASS
  1
MATERIAL
  2
AcDbMaterial
  3
ObjectDBX Classes
 90
     1153
280
     0
281
     0
  0
CLASS
  1
SCALE
  2
AcDbScale
  3
ObjectDBX Classes
 90
     1153
280
     0
281
     0
  0
CLASS
  1
SORTENTSTABLE
  2
AcDbSortentsTable
  3
ObjectDBX Classes
 90
        0
280
     0
281
     0
  0
CLASS
  1
DICTIONARYVAR
  2
AcDbDictionaryVar
  3
ObjectDBX Classes
 90
        0
280
     0
281
     0
  0
CLASS
  1
ACDBPLACEHOLDER
  2
AcDbPlaceHolder
  3
ObjectDBX Classes
 90
        0
280
     0
281
     0
  0
CLASS
  1
LAYOUT
  2
AcDbLayout
  3
ObjectDBX Classes
 90
        0
280
     0
281
     0
  0
ENDSEC
  0
SECTION
  2
TABLES
  0
TABLE
  2
VPORT
  5
8
330
0
100
AcDbSymbolTable
 70
     1
  0
VPORT
  5
29
330
8
100
AcDbSymbolTableRecord
100
AcDbViewportTableRecord
  2
*Active
 70
     0
 10
0.0
 20
0.0
 11
1.0
 21
1.0
 12
49.30311572377462
 22
226.6335257830411
 13
0.0
 23
0.0
 14
10.0
 24
10.0
 15
10.0
 25
10.0
 16
0.0
 26
0.0
 36
1.0
 17
0.0
 27
0.0
 37
0.0
 40
245.313186914153
 41
1.036802030456853
 42
50.0
 43
0.0
 44
0.0
 50
0.0
 51
0.0
 71
     0
 72
   100
 73
     1
 74
     3
 75
     0
 76
     0
 77
     0
 78
     0
281
     0
 65
     1
110
0.0
120
0.0
130
0.0
111
1.0
121
0.0
131
0.0
112
0.0
122
1.0
132
0.0
 79
     0
146
0.0
  0
ENDTAB
  0
TABLE
  2
LTYPE
  5
5
330
0
100
AcDbSymbolTable
 70
     4
  0
LTYPE
  5
14
330
5
100
AcDbSymbolTableRecord
100
AcDbLinetypeTableRecord
  2
ByBlock
 70
     0
  3

 72
    65
 73
     0
 40
0.0
  0
LTYPE
  5
15
330
5
100
AcDbSymbolTableRecord
100
AcDbLinetypeTableRecord
  2
ByLayer
 70
     0
  3

 72
    65
 73
     0
 40
0.0
  0
LTYPE
  5
16
330
5
100
AcDbSymbolTableRecord
100
AcDbLinetypeTableRecord
  2
Continuous
 70
     0
  3
Solid line
 72
    65
 73
     0
 40
0.0
  0
LTYPE
  5
6D
330
5
100
AcDbSymbolTableRecord
100
AcDbLinetypeTableRecord
  2
CENTER
 70
     0
  3
____ _ ____ _ ____ _ ____ _ ____ _ ____ _ ____
 72
    65
 73
     4
 40
0.6
 49
0.375
 74
     0
 49
-0.075
 74
     0
 49
0.075
 74
     0
 49
-0.075
 74
     0
  0
LTYPE
  5
6E
330
5
100
AcDbSymbolTableRecord
100
AcDbLinetypeTableRecord
  2
PHANTOM
 70
     0
  3
_____ _ _ _____ _ _ _____ _ _ _____
 72
    65
 73
     6
 40
0.8
 49
0.45
 74
     0
 49
-0.05
 74
     0
 49
0.1
 74
     0
 49
-0.05
 74
     0
 49
0.1
 74
     0
 49
-0.05
 74
     0
  0
LTYPE
  5
6F
330
5
100
AcDbSymbolTableRecord
100
AcDbLinetypeTableRecord
  2
CONTINOUS
 70
     0
  3
Solid line
 72
    65
 73
     0
 40
0.0
  0
ENDTAB
  0
TABLE
  2
LAYER
  5
2
330
0
100
AcDbSymbolTable
 70
     1
  0
LAYER
  5
10
330
2
100
AcDbSymbolTableRecord
100
AcDbLayerTableRecord
  2
0
 70
     0
 62
     7
  6
Continuous
370
    -3
390
F
  0
ENDTAB
  0
TABLE
  2
STYLE
  5
3
330
0
100
AcDbSymbolTable
 70
     1
  0
STYLE
  5
11
330
3
100
AcDbSymbolTableRecord
100
AcDbTextStyleTableRecord
  2
Standard
 70
     0
 40
0.0
 41
1.0
 50
0.0
 71
     0
 42
2.5
  3
txt.shx
  4
extfont2.shx
  0
ENDTAB
  0
TABLE
  2
VIEW
  5
6
330
0
100
AcDbSymbolTable
 70
     0
  0
ENDTAB
  0
TABLE
  2
UCS
  5
7
330
0
100
AcDbSymbolTable
 70
     0
  0
ENDTAB
  0
TABLE
  2
APPID
  5
9
330
0
100
AcDbSymbolTable
 70
     7
  0
APPID
  5
12
330
9
100
AcDbSymbolTableRecord
100
AcDbRegAppTableRecord
  2
ACAD
 70
     0
  0
APPID
  5
72
330
9
100
AcDbSymbolTableRecord
100
AcDbRegAppTableRecord
  2
ACAD_PSEXT
 70
     0
  0
APPID
  5
73
330
9
100
AcDbSymbolTableRecord
100
AcDbRegAppTableRecord
  2
ACAECLAYERSTANDARD
 70
     0
  0
APPID
  5
74
330
9
100
AcDbSymbolTableRecord
100
AcDbRegAppTableRecord
  2
ACAD_SPLINE_DATA
 70
     0
  0
APPID
  5
75
330
9
100
AcDbSymbolTableRecord
100
AcDbRegAppTableRecord
  2
ACAD_SPLINE_DATA2
 70
     0
  0
APPID
  5
19FA0
330
9
100
AcDbSymbolTableRecord
100
AcDbRegAppTableRecord
  2
AcadAnnotative
 70
     0
  0
APPID
  5
19FA1
330
9
100
AcDbSymbolTableRecord
100
AcDbRegAppTableRecord
  2
AcadAnnoPO
 70
     0
  0
ENDTAB
  0
TABLE
  2
DIMSTYLE
  5
A
330
0
100
AcDbSymbolTable
 70
     1
100
AcDbDimStyleTable
  0
DIMSTYLE
105
27
330
A
100
AcDbSymbolTableRecord
100
AcDbDimStyleTableRecord
  2
ISO-25
 70
     0
 41
2.5
 42
0.625
 43
3.75
 44
1.25
 73
     0
 74
     0
 77
     1
 78
     8
140
2.5
141
2.5
143
0.03937007874016
147
0.625
171
     3
172
     1
178
     0
271
     2
272
     2
274
     3
278
    44
283
     0
284
     8
340
11
  0
ENDTAB
  0
TABLE
  2
BLOCK_RECORD
  5
1
330
0
100
AcDbSymbolTable
 70
     4
  0
BLOCK_RECORD
  5
1F
330
1
100
AcDbSymbolTableRecord
100
AcDbBlockTableRecord
  2
*Model_Space
340
22
  0
BLOCK_RECORD
  5
1B
330
1
100
AcDbSymbolTableRecord
100
AcDbBlockTableRecord
  2
*Paper_Space
340
1E
  0
BLOCK_RECORD
  5
23
330
1
100
AcDbSymbolTableRecord
100
AcDbBlockTableRecord
  2
*Paper_Space0
340
26
  0
BLOCK_RECORD
  5
2158
330
1
100
AcDbSymbolTableRecord
100
AcDbBlockTableRecord
  2
_OPEN
340
0
  0
BLOCK_RECORD
  5
323C
330
1
100
AcDbSymbolTableRecord
100
AcDbBlockTableRecord
  2
_OPEN30
340
0
102
{BLKREFS
331
1A3A9
331
1A3B0
331
1A3B5
331
1A3B6
331
1A622
331
1A623
331
1A628
331
1A629
102
}
  0
ENDTAB
  0
ENDSEC
  0
SECTION
  2
BLOCKS
  0
BLOCK
  5
20
330
1F
100
AcDbEntity
  8
0
100
AcDbBlockBegin
  2
*Model_Space
 70
     0
 10
0.0
 20
0.0
 30
0.0
  3
*Model_Space
  1
Acad:XRef
  0
ENDBLK
  5
21
330
1F
100
AcDbEntity
  8
0
100
AcDbBlockEnd
  0
BLOCK
  5
1C
330
1B
100
AcDbEntity
 67
     1
  8
0
100
AcDbBlockBegin
  2
*Paper_Space
 70
     0
 10
0.0
 20
0.0
 30
0.0
  3
*Paper_Space
  1
Acad:XRef
  0
ENDBLK
  5
1D
330
1B
100
AcDbEntity
 67
     1
  8
0
100
AcDbBlockEnd
  0
BLOCK
  5
24
330
23
100
AcDbEntity
  8
0
100
AcDbBlockBegin
  2
*Paper_Space0
 70
     0
 10
0.0
 20
0.0
 30
0.0
  3
*Paper_Space0
  1
Acad:XRef
  0
ENDBLK
  5
25
330
23
100
AcDbEntity
  8
0
100
AcDbBlockEnd
  0
BLOCK
  5
2159
330
2158
100
AcDbEntity
  8
0
100
AcDbBlockBegin
  2
_OPEN
 70
     0
 10
0.0
 20
0.0
 30
0.0
  3
_OPEN
  1

  0
LINE
  5
215A
330
2158
100
AcDbEntity
  8
0
  6
ByBlock
 62
     0
100
AcDbLine
 10
-1.0
 20
0.1666666666666667
 30
0.0
 11
0.0
 21
0.0
 31
0.0
  0
LINE
  5
215B
330
2158
100
AcDbEntity
  8
0
  6
ByBlock
 62
     0
100
AcDbLine
 10
0.0
 20
0.0
 30
0.0
 11
-1.0
 21
-0.1666666666666667
 31
0.0
  0
LINE
  5
215C
330
2158
100
AcDbEntity
  8
0
  6
ByBlock
 62
     0
100
AcDbLine
 10
0.0
 20
0.0
 30
0.0
 11
-1.0
 21
0.0
 31
0.0
  0
ENDBLK
  5
215D
330
2158
100
AcDbEntity
  8
0
100
AcDbBlockEnd
  0
BLOCK
  5
323D
330
323C
100
AcDbEntity
  8
0
100
AcDbBlockBegin
  2
_OPEN30
 70
     0
 10
0.0
 20
0.0
 30
0.0
  3
_OPEN30
  1

  0
LINE
  5
323E
330
323C
100
AcDbEntity
  8
0
 62
     0
100
AcDbLine
 10
-1.0
 20
0.26794919
 30
0.0
 11
0.0
 21
0.0
 31
0.0
  0
LINE
  5
323F
330
323C
100
AcDbEntity
  8
0
 62
     0
100
AcDbLine
 10
0.0
 20
0.0
 30
0.0
 11
-1.0
 21
-0.26794919
 31
0.0
  0
LINE
  5
3240
330
323C
100
AcDbEntity
  8
0
 62
     0
100
AcDbLine
 10
0.0
 20
0.0
 30
0.0
 11
-1.0
 21
0.0
 31
0.0
  0
ENDBLK
  5
3241
330
323C
100
AcDbEntity
  8
0
100
AcDbBlockEnd
  0
ENDSEC
  0
SECTION
  2
ENTITIES
  0
TEXT
  5
1A3BB
330
1F
100
AcDbEntity
  8
0
 62
     7
370
     0
100
AcDbText
 10
-10.53738445072733
 20
311.154083879303
 30
0.0
 40
4.0
  1
照度人感センサ
 72
     1
 11
5.78261554927267
 21
313.154083879303
 31
0.0
100
AcDbText
 73
     2
  0
LINE
  5
1A3BC
330
1F
100
AcDbEntity
  8
0
  6
Continuous
 62
     7
370
     0
100
AcDbLine
 10
-8.020275695531744
 20
255.190521152028
 30
0.0
 11
-9.595129119801548
 21
256.1435280656281
 31
0.0
  0
LINE
  5
1A3BD
330
1F
100
AcDbEntity
  8
0
  6
Continuous
 62
     7
370
     0
100
AcDbLine
 10
-24.93385198745172
 20
272.5564527890681
 30
0.0
 11
-24.67529771882155
 21
273.0133714800382
 31
0.0
  0
LINE
  5
1A3BE
330
1F
100
AcDbEntity
  8
0
  6
Continuous
 62
     7
370
     0
100
AcDbLine
 10
-24.7815457571518
 20
272.4702680328581
 30
0.0
 11
-24.52299148852162
 21
272.9271867238281
 31
0.0
  0
LINE
  5
1A3BF
330
1F
100
AcDbEntity
  8
0
  6
Continuous
 62
     7
370
     0
100
AcDbLine
 10
-24.28450050201163
 20
272.9933081979181
 30
0.0
 11
-24.19831574580157
 21
273.1456144282882
 31
0.0
  0
LINE
  5
1A3C0
330
1F
100
AcDbEntity
  8
0
  6
Continuous
 62
     7
370
     0
100
AcDbLine
 10
-7.733458922421867
 20
255.1104949335181
 30
0.0
 11
19.29869002095811
 21
255.1104949335181
 31
0.0
  0
LINE
  5
1A3C1
330
1F
100
AcDbEntity
  8
0
  6
Continuous
 62
     7
370
     0
100
AcDbLine
 10
-8.020275695531744
 20
255.190521152028
 30
0.0
 11
19.58550679406844
 21
255.190521152028
 31
0.0
  0
LINE
  5
1A3C2
330
1F
100
AcDbEntity
  8
0
  6
Continuous
 62
     7
370
     0
100
AcDbLine
 10
-17.01752222100176
 20
268.822286402138
 30
0.0
 11
-16.7694660173619
 21
267.9275820792481
 31
0.0
  0
LINE
  5
1A3C3
330
1F
100
AcDbEntity
  8
0
  6
Continuous
 62
     7
370
     0
100
AcDbLine
 10
-16.84888362717165
 20
268.8690413448481
 30
0.0
 11
-16.62313079350169
 21
268.0547821840981
 31
0.0
  0
LINE
  5
1A3C4
330
1F
100
AcDbEntity
  8
0
  6
Continuous
 62
     7
370
     0
100
AcDbLine
 10
18.07726252919847
 20
258.1529387462481
 30
0.0
 11
18.24988162766849
 21
258.1817075982481
 31
0.0
  0
LINE
  5
1A3C5
330
1F
100
AcDbEntity
  8
0
  6
Continuous
 62
     7
370
     0
100
AcDbLine
 10
16.01525333183836
 20
257.5696537258179
 30
0.0
 11
16.07078664652827
 21
257.573671870088
 31
0.0
  0
LINE
  5
1A3C6
330
1F
100
AcDbEntity
  8
0
  6
Continuous
 62
     7
370
     0
100
AcDbLine
 10
-9.595129119801548
 20
256.1435280656281
 30
0.0
 11
21.16036021826822
 21
256.1435280656281
 31
0.0
  0
LINE
  5
1A3C7
330
1F
100
AcDbEntity
  8
0
  6
Continuous
 62
     7
370
     0
100
AcDbLine
 10
-9.93176187010149
 20
256.7057756031579
 30
0.0
 11
21.49699296863819
 21
256.7057756031579
 31
0.0
  0
LINE
  5
1A3C8
330
1F
100
AcDbEntity
  8
0
  6
Continuous
 62
     7
370
     0
100
AcDbLine
 10
-9.967383615561538
 20
257.385494933518
 30
0.0
 11
21.53261471402821
 21
257.385494933518
 31
0.0
  0
LINE
  5
1A3C9
330
1F
100
AcDbEntity
  8
0
  6
Continuous
 62
     7
370
     0
100
AcDbLine
 10
-9.932331139991582
 20
257.3885491046381
 30
0.0
 11
21.49756223845825
 21
257.3885491046381
 31
0.0
  0
LINE
  5
1A3CA
330
1F
100
AcDbEntity
  8
0
  6
Continuous
 62
     7
370
     0
100
AcDbLine
 10
-9.766252555711525
 20
257.560494933518
 30
0.0
 11
21.33148365417819
 21
257.560494933518
 31
0.0
  0
LINE
  5
1A3CB
330
1F
100
AcDbEntity
  8
0
  6
Continuous
 62
     7
370
     0
100
AcDbLine
 10
-8.37614476370154
 20
257.5696537258179
 30
0.0
 11
4.536363024268304
 21
257.5696537258179
 31
0.0
  0
LINE
  5
1A3CC
330
1F
100
AcDbEntity
  8
0
  6
Continuous
 62
     7
370
     0
100
AcDbLine
 10
7.028868074198364
 20
257.5696537258179
 30
0.0
 11
16.01525333183836
 21
257.5696537258179
 31
0.0
  0
LINE
  5
1A3CD
330
1F
100
AcDbEntity
  8
0
  6
Continuous
 62
     7
370
     0
100
AcDbLine
 10
16.07108997241821
 20
257.5696537258179
 30
0.0
 11
16.54145162767836
 21
257.5696537258179
 31
0.0
  0
LINE
  5
1A3CE
330
1F
100
AcDbEntity
  8
0
  6
Continuous
 62
     7
370
     0
100
AcDbLine
 10
16.79303854710825
 20
257.5696537258179
 30
0.0
 11
19.94137586216821
 21
257.5696537258179
 31
0.0
  0
LINE
  5
1A3CF
330
1F
100
AcDbEntity
  8
0
  6
Continuous
 62
     7
370
     0
100
AcDbLine
 10
-8.193922841161928
 20
257.7354949335181
 30
0.0
 11
19.75915393962814
 21
257.7354949335181
 31
0.0
  0
LINE
  5
1A3D0
330
1F
100
AcDbEntity
  8
0
  6
Continuous
 62
     7
370
     0
100
AcDbLine
 10
16.72441756432827
 20
258.076333001648
 30
0.0
 11
-5.159186465651963
 21
258.076333001648
 31
0.0
  0
LINE
  5
1A3D1
330
1F
100
AcDbEntity
  8
0
  6
Continuous
 62
     7
370
     0
100
AcDbLine
 10
-6.512031430731803
 20
258.1529387462481
 30
0.0
 11
-6.684650529201825
 21
258.1817075982481
 31
0.0
  0
LINE
  5
1A3D2
330
1F
100
AcDbEntity
  8
0
  6
Continuous
 62
     7
370
     0
100
AcDbLine
 10
-24.7815457571518
 20
272.4702680328581
 30
0.0
 11
-24.93385198745172
 21
272.5564527890681
 31
0.0
  0
LINE
  5
1A3D3
330
1F
100
AcDbEntity
  8
0
  6
Continuous
 62
     7
370
     0
100
AcDbLine
 10
-9.417870943951947
 20
262.7112962292281
 30
0.0
 11
-7.308991929821694
 21
258.0488941230481
 31
0.0
  0
LINE
  5
1A3D4
330
1F
100
AcDbEntity
  8
0
  6
Continuous
 62
     7
370
     0
100
AcDbLine
 10
-24.60917624473168
 20
272.7748804935279
 30
0.0
 11
-24.76148247503161
 21
272.861065249738
 31
0.0
  0
LINE
  5
1A3D5
330
1F
100
AcDbEntity
  8
0
  6
Continuous
 62
     7
370
     0
100
AcDbLine
 10
-24.52299148852162
 20
272.9271867238281
 30
0.0
 11
-24.67529771882155
 21
273.0133714800382
 31
0.0
  0
LINE
  5
1A3D6
330
1F
100
AcDbEntity
  8
0
  6
Continuous
 62
     7
370
     0
100
AcDbLine
 10
-24.28450050201163
 20
272.9933081979181
 30
0.0
 11
-17.09997605862181
 21
268.927837689728
 31
0.0
  0
LINE
  5
1A3D7
330
1F
100
AcDbEntity
  8
0
  6
Continuous
 62
     7
370
     0
100
AcDbLine
 10
-24.19831574580157
 20
273.1456144282882
 30
0.0
 11
-17.01379130241175
 21
269.080143920028
 31
0.0
  0
LINE
  5
1A3D8
330
1F
100
AcDbEntity
  8
0
  6
Continuous
 62
     7
370
     0
100
AcDbLine
 10
-9.27006322116167
 20
262.8091513474981
 30
0.0
 11
-7.149544153641635
 21
258.121014901428
 31
0.0
  0
LINE
  5
1A3D9
330
1F
100
AcDbEntity
  8
0
  6
Continuous
 62
     7
370
     0
100
AcDbLine
 10
-9.967384450731878
 20
257.385494933518
 30
0.0
 11
-9.93176187010149
 21
256.7057756031579
 31
0.0
  0
LINE
  5
1A3DA
330
1F
100
AcDbEntity
  8
0
  6
Continuous
 62
     7
370
     0
100
AcDbLine
 10
-9.932331139991582
 20
257.3885491046381
 30
0.0
 11
-9.932384450731568
 21
257.385494933518
 31
0.0
  0
LINE
  5
1A3DB
330
1F
100
AcDbEntity
  8
0
  6
Continuous
 62
     7
370
     0
100
AcDbLine
 10
-17.09997605862181
 20
268.927837689728
 30
0.0
 11
-17.01379130241175
 21
269.080143920028
 31
0.0
  0
LINE
  5
1A3DC
330
1F
100
AcDbEntity
  8
0
  6
Continuous
 62
     7
370
     0
100
AcDbLine
 10
0.5293331490985125
 20
301.369708673488
 30
0.0
 11
0.5326146342282314
 21
301.3743951199381
 31
0.0
  0
LINE
  5
1A3DD
330
1F
100
AcDbEntity
  8
0
  6
Continuous
 62
     7
370
     0
100
AcDbLine
 10
16.65644741648848
 20
263.508373017708
 30
0.0
 11
18.03261554926812
 21
263.5804949335179
 31
0.0
  0
LINE
  5
1A3DE
330
1F
100
AcDbEntity
  8
0
  6
Continuous
 62
     7
370
     0
100
AcDbLine
 10
6.454567878288437
 20
261.769656865388
 30
0.0
 11
5.110663220178232
 21
261.769656865388
 31
0.0
  0
LINE
  5
1A3DF
330
1F
100
AcDbEntity
  8
0
  6
Continuous
 62
     7
370
     0
100
AcDbLine
 10
6.435208427618456
 20
262.1104949335181
 30
0.0
 11
5.130022671408462
 21
262.1104949335181
 31
0.0
  0
LINE
  5
1A3E0
330
1F
100
AcDbEntity
  8
0
  6
Continuous
 62
     7
370
     0
100
AcDbLine
 10
5.152832595818474
 20
262.2809139675481
 30
0.0
 11
6.412398502648195
 21
262.2809139675481
 31
0.0
  0
LINE
  5
1A3E1
330
1F
100
AcDbEntity
  8
0
  6
Continuous
 62
     7
370
     0
100
AcDbLine
 10
4.956728077628306
 20
262.2809138008081
 30
0.0
 11
4.968680286078417
 21
262.2809139675481
 31
0.0
  0
LINE
  5
1A3E2
330
1F
100
AcDbEntity
  8
0
  6
Continuous
 62
     7
370
     0
100
AcDbLine
 10
6.596550812388251
 20
262.2809139675481
 30
0.0
 11
6.608503020908394
 21
262.2809138013681
 31
0.0
  0
LINE
  5
1A3E3
330
1F
100
AcDbEntity
  8
0
  6
Continuous
 62
     7
370
     0
100
AcDbLine
 10
-6.467384450731878
 20
263.5804949335179
 30
0.0
 11
-5.091216318021814
 21
263.508373017708
 31
0.0
  0
LINE
  5
1A3E4
330
1F
100
AcDbEntity
  8
0
  6
Continuous
 62
     7
370
     0
100
AcDbLine
 10
-1.020974803521675
 20
263.878818797328
 30
0.0
 11
4.532801374428438
 21
263.8788171537281
 31
0.0
  0
LINE
  5
1A3E5
330
1F
100
AcDbEntity
  8
0
  6
Continuous
 62
     7
370
     0
100
AcDbLine
 10
7.032429724038231
 20
263.8788171537281
 30
0.0
 11
12.58620590198834
 21
263.878818797328
 31
0.0
  0
LINE
  5
1A3E6
330
1F
100
AcDbEntity
  8
0
  6
Continuous
 62
     7
370
     0
100
AcDbLine
 10
5.1064417942981
 20
264.2196568653881
 30
0.0
 11
6.45878930360832
 21
264.2196568653881
 31
0.0
  0
LINE
  5
1A3E7
330
1F
100
AcDbEntity
  8
0
  6
Continuous
 62
     7
370
     0
100
AcDbLine
 10
1.327579689938467
 20
264.560494933518
 30
0.0
 11
10.23765140880833
 21
264.560494933518
 31
0.0
  0
LINE
  5
1A3E8
330
1F
100
AcDbEntity
  8
0
  6
Continuous
 62
     7
370
     0
100
AcDbLine
 10
1.327579657458138
 20
265.2421710697081
 30
0.0
 11
10.23765144100808
 21
265.2421710697081
 31
0.0
  0
LINE
  5
1A3E9
330
1F
100
AcDbEntity
  8
0
  6
Continuous
 62
     7
370
     0
100
AcDbLine
 10
18.87422302835839
 20
258.0488941230481
 30
0.0
 11
18.71477525217833
 21
258.121014901428
 31
0.0
  0
LINE
  5
1A3EA
330
1F
100
AcDbEntity
  8
0
  6
Continuous
 62
     7
370
     0
100
AcDbLine
 10
-6.467384450731878
 20
257.7354949335181
 30
0.0
 11
-6.467384450731878
 21
269.537710539958
 31
0.0
  0
LINE
  5
1A3EB
330
1F
100
AcDbEntity
  8
0
  6
Continuous
 62
     7
370
     0
100
AcDbLine
 10
-6.129599274611699
 20
269.940267237158
 30
0.0
 11
-6.129599274611699
 21
263.562792362548
 31
0.0
  0
LINE
  5
1A3EC
330
1F
100
AcDbEntity
  8
0
  6
Continuous
 62
     7
370
     0
100
AcDbLine
 10
-5.767384450731605
 20
270.371938054778
 30
0.0
 11
-5.767384450731605
 21
270.405494933518
 31
0.0
  0
LINE
  5
1A3ED
330
1F
100
AcDbEntity
  8
0
  6
Continuous
 62
     7
370
     0
100
AcDbLine
 10
-5.259937351131519
 20
263.5172153124281
 30
0.0
 11
-5.074978864971762
 21
270.5804949335179
 31
0.0
  0
LINE
  5
1A3EE
330
1F
100
AcDbEntity
  8
0
  6
Continuous
 62
     7
370
     0
100
AcDbLine
 10
-5.407031260401617
 20
257.783398028618
 30
0.0
 11
-5.256890152501818
 21
263.5170556154781
 31
0.0
  0
LINE
  5
1A3EF
330
1F
100
AcDbEntity
  8
0
  6
Continuous
 62
     7
370
     0
100
AcDbLine
 10
-4.146678453891944
 20
299.5788187973282
 30
0.0
 11
-5.233459291831785
 21
258.076333001578
 31
0.0
  0
LINE
  5
1A3F0
330
1F
100
AcDbEntity
  8
0
  6
Continuous
 62
     7
370
     0
100
AcDbLine
 10
0.0076155492684862
 20
266.7729483809881
 30
0.0
 11
11.55761554926821
 21
266.7729483809881
 31
0.0
  0
LINE
  5
1A3F1
330
1F
100
AcDbEntity
  8
0
  6
Continuous
 62
     7
370
     0
100
AcDbLine
 10
0.0076155492684862
 20
266.774780767418
 30
0.0
 11
11.55761554926821
 21
266.774780767418
 31
0.0
  0
LINE
  5
1A3F2
330
1F
100
AcDbEntity
  8
0
  6
Continuous
 62
     7
370
     0
100
AcDbLine
 10
-3.492384450731514
 20
290.2854949335181
 30
0.0
 11
-3.492384450731514
 21
300.6104949335181
 31
0.0
  0
LINE
  5
1A3F3
330
1F
100
AcDbEntity
  8
0
  6
Continuous
 62
     7
370
     0
100
AcDbLine
 10
-2.400634504871867
 20
288.710494933518
 30
0.0
 11
-2.400634504871867
 21
289.392171069708
 31
0.0
  0
LINE
  5
1A3F4
330
1F
100
AcDbEntity
  8
0
  6
Continuous
 62
     7
370
     0
100
AcDbLine
 10
-6.684650529201825
 20
258.1817075982481
 30
0.0
 11
-6.467384450731878
 21
259.4853492775881
 31
0.0
  0
LINE
  5
1A3F5
330
1F
100
AcDbEntity
  8
0
  6
Continuous
 62
     7
370
     0
100
AcDbLine
 10
-6.512031430731803
 20
258.1529387462481
 30
0.0
 11
-6.467384450731878
 21
258.4208299162281
 31
0.0
  0
LINE
  5
1A3F6
330
1F
100
AcDbEntity
  8
0
  6
Continuous
 62
     7
370
     0
100
AcDbLine
 10
12.42933314909815
 20
301.369708673488
 30
0.0
 11
12.43261463422832
 21
301.3743951199381
 31
0.0
  0
LINE
  5
1A3F7
330
1F
100
AcDbEntity
  8
0
  6
Continuous
 62
     7
370
     0
100
AcDbLine
 10
-5.592384450731878
 20
270.5804949335179
 30
0.0
 11
-4.906026288171596
 21
270.5804949335179
 31
0.0
  0
LINE
  5
1A3F8
330
1F
100
AcDbEntity
  8
0
  6
Continuous
 62
     7
370
     0
100
AcDbLine
 10
16.4712573867083
 20
270.5804949335179
 30
0.0
 11
17.15761554926812
 21
270.5804949335179
 31
0.0
  0
LINE
  5
1A3F9
330
1F
100
AcDbEntity
  8
0
  6
Continuous
 62
     7
370
     0
100
AcDbLine
 10
-1.392384450731605
 20
300.6104949335181
 30
0.0
 11
-1.392384450731605
 21
300.775793397128
 31
0.0
  0
LINE
  5
1A3FA
330
1F
100
AcDbEntity
  8
0
  6
Continuous
 62
     7
370
     0
100
AcDbLine
 10
-1.392384450731605
 20
292.7354949335181
 30
0.0
 11
-1.392384450731605
 21
300.6104949335181
 31
0.0
  0
LINE
  5
1A3FB
330
1F
100
AcDbEntity
  8
0
  6
Continuous
 62
     7
370
     0
100
AcDbLine
 10
-0.8673844507315138
 20
288.710494933518
 30
0.0
 11
-0.8673844507315138
 21
289.585494933518
 31
0.0
  0
LINE
  5
1A3FC
330
1F
100
AcDbEntity
  8
0
  6
Continuous
 62
     7
370
     0
100
AcDbLine
 10
-0.8284009000416503
 20
288.710494933518
 30
0.0
 11
-0.8284009000416503
 21
288.0288187973281
 31
0.0
  0
LINE
  5
1A3FD
330
1F
100
AcDbEntity
  8
0
  6
Continuous
 62
     7
370
     0
100
AcDbLine
 10
-0.6048844507316957
 20
292.9104949335181
 30
0.0
 11
-0.6048844507316957
 21
297.1104949335181
 31
0.0
  0
LINE
  5
1A3FE
330
1F
100
AcDbEntity
  8
0
  6
Continuous
 62
     7
370
     0
100
AcDbLine
 10
-0.5173844507316048
 20
264.9572518820781
 30
0.0
 11
-0.5173844507316048
 21
287.835494933518
 31
0.0
  0
LINE
  5
1A3FF
330
1F
100
AcDbEntity
  8
0
  6
Continuous
 62
     7
370
     0
100
AcDbLine
 10
-0.3423844507318776
 20
287.4177045281081
 30
0.0
 11
-0.3423844507318776
 21
267.1246608311681
 31
0.0
  0
LINE
  5
1A400
330
1F
100
AcDbEntity
  8
0
  6
Continuous
 62
     7
370
     0
100
AcDbLine
 10
-0.3073844507315684
 20
301.369708673488
 30
0.0
 11
-0.3073844507315684
 21
301.5092588622381
 31
0.0
  0
LINE
  5
1A401
330
1F
100
AcDbEntity
  8
0
  6
Continuous
 62
     7
370
     0
100
AcDbLine
 10
-0.0798844507316048
 20
294.4854949335181
 30
0.0
 11
-0.0798844507316048
 21
293.6104949335181
 31
0.0
  0
LINE
  5
1A402
330
1F
100
AcDbEntity
  8
0
  6
Continuous
 62
     7
370
     0
100
AcDbLine
 10
-0.0273844507318231
 20
301.369708673488
 30
0.0
 11
-0.0273844507318231
 21
301.5092588622381
 31
0.0
  0
LINE
  5
1A403
330
1F
100
AcDbEntity
  8
0
  6
Continuous
 62
     7
370
     0
100
AcDbLine
 10
0.0076155492684862
 20
266.774780767418
 30
0.0
 11
0.0076155492684862
 21
266.7729483809881
 31
0.0
  0
LINE
  5
1A404
330
1F
100
AcDbEntity
  8
0
  6
Continuous
 62
     7
370
     0
100
AcDbLine
 10
0.7951155492683952
 20
293.6104949335181
 30
0.0
 11
0.7951155492683952
 21
294.4854949335181
 31
0.0
  0
LINE
  5
1A405
330
1F
100
AcDbEntity
  8
0
  6
Continuous
 62
     7
370
     0
100
AcDbLine
 10
-1.161928728241854
 20
288.710494933518
 30
0.0
 11
-1.139016046841697
 21
289.585494933518
 31
0.0
  0
LINE
  5
1A406
330
1F
100
AcDbEntity
  8
0
  6
Continuous
 62
     7
370
     0
100
AcDbLine
 10
-1.056530393871888
 20
292.7354949335181
 30
0.0
 11
-0.9463096097018919
 21
296.944656865388
 31
0.0
  0
LINE
  5
1A407
330
1F
100
AcDbEntity
  8
0
  6
Continuous
 62
     7
370
     0
100
AcDbLine
 10
-16.62313079350169
 20
268.0547821840981
 30
0.0
 11
-16.7694660173619
 21
267.9275820792481
 31
0.0
  0
LINE
  5
1A408
330
1F
100
AcDbEntity
  8
0
  6
Continuous
 62
     7
370
     0
100
AcDbLine
 10
20.83529431969837
 20
262.8091513474981
 30
0.0
 11
20.98310204248819
 21
262.7112962292281
 31
0.0
  0
LINE
  5
1A409
330
1F
100
AcDbEntity
  8
0
  6
Continuous
 62
     7
370
     0
100
AcDbLine
 10
4.5368430162981
 20
257.560494933518
 30
0.0
 11
4.527671654868392
 21
257.7354949335181
 31
0.0
  0
LINE
  5
1A40A
330
1F
100
AcDbEntity
  8
0
  6
Continuous
 62
     7
370
     0
100
AcDbLine
 10
1.057615549268213
 20
300.6104949335181
 30
0.0
 11
1.057615549268213
 21
300.775793397128
 31
0.0
  0
LINE
  5
1A40B
330
1F
100
AcDbEntity
  8
0
  6
Continuous
 62
     7
370
     0
100
AcDbLine
 10
1.145115549268304
 20
294.4854949335181
 30
0.0
 11
1.145115549268304
 21
293.6104949335181
 31
0.0
  0
LINE
  5
1A40C
330
1F
100
AcDbEntity
  8
0
  6
Continuous
 62
     7
370
     0
100
AcDbLine
 10
1.327579657458138
 20
264.560494933518
 30
0.0
 11
1.327579657458138
 21
265.2421710697081
 31
0.0
  0
LINE
  5
1A40D
330
1F
100
AcDbEntity
  8
0
  6
Continuous
 62
     7
370
     0
100
AcDbLine
 10
2.020115549268304
 20
293.6104949335181
 30
0.0
 11
2.020115549268304
 21
294.4854949335181
 31
0.0
  0
LINE
  5
1A40E
330
1F
100
AcDbEntity
  8
0
  6
Continuous
 62
     7
370
     0
100
AcDbLine
 10
2.370115549268213
 20
294.4854949335181
 30
0.0
 11
2.370115549268213
 21
293.6104949335181
 31
0.0
  0
LINE
  5
1A40F
330
1F
100
AcDbEntity
  8
0
  6
Continuous
 62
     7
370
     0
100
AcDbLine
 10
3.245115549268213
 20
293.6104949335181
 30
0.0
 11
3.245115549268213
 21
294.4854949335181
 31
0.0
  0
LINE
  5
1A410
330
1F
100
AcDbEntity
  8
0
  6
Continuous
 62
     7
370
     0
100
AcDbLine
 10
-6.467384450731878
 20
269.537710539958
 30
0.0
 11
-5.644838388141487
 21
270.517982765198
 31
0.0
  0
LINE
  5
1A411
330
1F
100
AcDbEntity
  8
0
  6
Continuous
 62
     7
370
     0
100
AcDbLine
 10
-5.592384450731878
 20
270.5804949335179
 30
0.0
 11
-5.767384450731605
 21
270.405494933518
 31
0.0
  0
LINE
  5
1A412
330
1F
100
AcDbEntity
  8
0
  6
Continuous
 62
     7
370
     0
100
AcDbLine
 10
-17.01752222100176
 20
268.822286402138
 30
0.0
 11
-16.84888362717165
 21
268.8690413448481
 31
0.0
  0
LINE
  5
1A413
330
1F
100
AcDbEntity
  8
0
  6
Continuous
 62
     7
370
     0
100
AcDbLine
 10
28.58275331946843
 20
268.822286402138
 30
0.0
 11
28.41411472563832
 21
268.8690413448481
 31
0.0
  0
LINE
  5
1A414
330
1F
100
AcDbEntity
  8
0
  6
Continuous
 62
     7
370
     0
100
AcDbLine
 10
3.595115549268122
 20
294.4854949335181
 30
0.0
 11
3.595115549268122
 21
293.6104949335181
 31
0.0
  0
LINE
  5
1A415
330
1F
100
AcDbEntity
  8
0
  6
Continuous
 62
     7
370
     0
100
AcDbLine
 10
4.470115549268122
 20
293.6104949335181
 30
0.0
 11
4.470115549268122
 21
294.4854949335181
 31
0.0
  0
LINE
  5
1A416
330
1F
100
AcDbEntity
  8
0
  6
Continuous
 62
     7
370
     0
100
AcDbLine
 10
4.820115549268486
 20
294.4854949335181
 30
0.0
 11
4.820115549268486
 21
293.6104949335181
 31
0.0
  0
LINE
  5
1A417
330
1F
100
AcDbEntity
  8
0
  6
Continuous
 62
     7
370
     0
100
AcDbLine
 10
5.695115549268486
 20
293.6104949335181
 30
0.0
 11
5.695115549268486
 21
294.4854949335181
 31
0.0
  0
LINE
  5
1A418
330
1F
100
AcDbEntity
  8
0
  6
Continuous
 62
     7
370
     0
100
AcDbLine
 10
6.045115549268395
 20
294.4854949335181
 30
0.0
 11
6.045115549268395
 21
293.6104949335181
 31
0.0
  0
LINE
  5
1A419
330
1F
100
AcDbEntity
  8
0
  6
Continuous
 62
     7
370
     0
100
AcDbLine
 10
14.3576155492684
 20
289.585494933518
 30
0.0
 11
15.05761554926821
 21
290.2854949335181
 31
0.0
  0
LINE
  5
1A41A
330
1F
100
AcDbEntity
  8
0
  6
Continuous
 62
     7
370
     0
100
AcDbLine
 10
6.920115549268395
 20
293.6104949335181
 30
0.0
 11
6.920115549268395
 21
294.4854949335181
 31
0.0
  0
LINE
  5
1A41B
330
1F
100
AcDbEntity
  8
0
  6
Continuous
 62
     7
370
     0
100
AcDbLine
 10
7.270115549268304
 20
294.4854949335181
 30
0.0
 11
7.270115549268304
 21
293.6104949335181
 31
0.0
  0
LINE
  5
1A41C
330
1F
100
AcDbEntity
  8
0
  6
Continuous
 62
     7
370
     0
100
AcDbLine
 10
8.145115549268304
 20
293.6104949335181
 30
0.0
 11
8.145115549268304
 21
294.4854949335181
 31
0.0
  0
LINE
  5
1A41D
330
1F
100
AcDbEntity
  8
0
  6
Continuous
 62
     7
370
     0
100
AcDbLine
 10
8.495115549268213
 20
294.4854949335181
 30
0.0
 11
8.495115549268213
 21
293.6104949335181
 31
0.0
  0
LINE
  5
1A41E
330
1F
100
AcDbEntity
  8
0
  6
Continuous
 62
     7
370
     0
100
AcDbLine
 10
7.028388082238145
 20
257.560494933518
 30
0.0
 11
7.037559443598276
 21
257.7354949335181
 31
0.0
  0
LINE
  5
1A41F
330
1F
100
AcDbEntity
  8
0
  6
Continuous
 62
     7
370
     0
100
AcDbLine
 10
-3.492384450731514
 20
290.2854949335181
 30
0.0
 11
-2.792384450731696
 21
289.585494933518
 31
0.0
  0
LINE
  5
1A420
330
1F
100
AcDbEntity
  8
0
  6
Continuous
 62
     7
370
     0
100
AcDbLine
 10
17.3326155492683
 20
270.405494933518
 30
0.0
 11
17.15761554926812
 21
270.5804949335179
 31
0.0
  0
LINE
  5
1A421
330
1F
100
AcDbEntity
  8
0
  6
Continuous
 62
     7
370
     0
100
AcDbLine
 10
9.370115549268213
 20
293.6104949335181
 30
0.0
 11
9.370115549268213
 21
294.4854949335181
 31
0.0
  0
LINE
  5
1A422
330
1F
100
AcDbEntity
  8
0
  6
Continuous
 62
     7
370
     0
100
AcDbLine
 10
9.720115549268122
 20
294.4854949335181
 30
0.0
 11
9.720115549268122
 21
293.6104949335181
 31
0.0
  0
LINE
  5
1A423
330
1F
100
AcDbEntity
  8
0
  6
Continuous
 62
     7
370
     0
100
AcDbLine
 10
10.23765144100808
 20
264.560494933518
 30
0.0
 11
10.23765144100808
 21
265.2421710697081
 31
0.0
  0
LINE
  5
1A424
330
1F
100
AcDbEntity
  8
0
  6
Continuous
 62
     7
370
     0
100
AcDbLine
 10
10.50761554926849
 20
300.6104949335181
 30
0.0
 11
10.50761554926849
 21
300.775793397128
 31
0.0
  0
LINE
  5
1A425
330
1F
100
AcDbEntity
  8
0
  6
Continuous
 62
     7
370
     0
100
AcDbLine
 10
10.59511554926812
 20
293.6104949335181
 30
0.0
 11
10.59511554926812
 21
294.4854949335181
 31
0.0
  0
LINE
  5
1A426
330
1F
100
AcDbEntity
  8
0
  6
Continuous
 62
     7
370
     0
100
AcDbLine
 10
10.94511554926849
 20
294.4854949335181
 30
0.0
 11
10.94511554926849
 21
293.6104949335181
 31
0.0
  0
LINE
  5
1A427
330
1F
100
AcDbEntity
  8
0
  6
Continuous
 62
     7
370
     0
100
AcDbLine
 10
-9.269971946551685
 20
262.8090251934281
 30
0.0
 11
-9.417870943951947
 21
262.7112962292281
 31
0.0
  0
LINE
  5
1A428
330
1F
100
AcDbEntity
  8
0
  6
Continuous
 62
     7
370
     0
100
AcDbLine
 10
18.03261554926812
 20
269.537710539958
 30
0.0
 11
17.21006948660816
 21
270.517982765198
 31
0.0
  0
LINE
  5
1A429
330
1F
100
AcDbEntity
  8
0
  6
Continuous
 62
     7
370
     0
100
AcDbLine
 10
12.72715982670807
 20
288.710494933518
 30
0.0
 11
12.70424714530836
 21
289.585494933518
 31
0.0
  0
LINE
  5
1A42A
330
1F
100
AcDbEntity
  8
0
  6
Continuous
 62
     7
370
     0
100
AcDbLine
 10
12.62176149240813
 20
292.7354949335181
 30
0.0
 11
12.51154070816811
 21
296.944656865388
 31
0.0
  0
LINE
  5
1A42B
330
1F
100
AcDbEntity
  8
0
  6
Continuous
 62
     7
370
     0
100
AcDbLine
 10
11.55761554926821
 20
266.774780767418
 30
0.0
 11
11.55761554926821
 21
266.7729483809881
 31
0.0
  0
LINE
  5
1A42C
330
1F
100
AcDbEntity
  8
0
  6
Continuous
 62
     7
370
     0
100
AcDbLine
 10
11.59261554926807
 20
301.369708673488
 30
0.0
 11
11.59261554926807
 21
301.5092588622381
 31
0.0
  0
LINE
  5
1A42D
330
1F
100
AcDbEntity
  8
0
  6
Continuous
 62
     7
370
     0
100
AcDbLine
 10
11.82011554926849
 20
293.6104949335181
 30
0.0
 11
11.82011554926849
 21
294.4854949335181
 31
0.0
  0
LINE
  5
1A42E
330
1F
100
AcDbEntity
  8
0
  6
Continuous
 62
     7
370
     0
100
AcDbLine
 10
11.87261554926827
 20
301.369708673488
 30
0.0
 11
11.87261554926827
 21
301.5092588622381
 31
0.0
  0
LINE
  5
1A42F
330
1F
100
AcDbEntity
  8
0
  6
Continuous
 62
     7
370
     0
100
AcDbLine
 10
11.90761554926812
 20
267.1246608311681
 30
0.0
 11
11.90761554926812
 21
287.4177045281081
 31
0.0
  0
LINE
  5
1A430
330
1F
100
AcDbEntity
  8
0
  6
Continuous
 62
     7
370
     0
100
AcDbLine
 10
12.0826155492683
 20
287.835494933518
 30
0.0
 11
12.0826155492683
 21
264.957251716528
 31
0.0
  0
LINE
  5
1A431
330
1F
100
AcDbEntity
  8
0
  6
Continuous
 62
     7
370
     0
100
AcDbLine
 10
12.1701155492684
 20
292.9104949335181
 30
0.0
 11
12.1701155492684
 21
297.1104949335181
 31
0.0
  0
LINE
  5
1A432
330
1F
100
AcDbEntity
  8
0
  6
Continuous
 62
     7
370
     0
100
AcDbLine
 10
12.39363200697844
 20
288.710494933518
 30
0.0
 11
12.39363200697844
 21
288.0288187973281
 31
0.0
  0
LINE
  5
1A433
330
1F
100
AcDbEntity
  8
0
  6
Continuous
 62
     7
370
     0
100
AcDbLine
 10
12.43261554926821
 20
288.710494933518
 30
0.0
 11
12.43261554926821
 21
289.585494933518
 31
0.0
  0
LINE
  5
1A434
330
1F
100
AcDbEntity
  8
0
  6
Continuous
 62
     7
370
     0
100
AcDbLine
 10
12.9576155492683
 20
300.6104949335181
 30
0.0
 11
12.9576155492683
 21
300.775793397128
 31
0.0
  0
LINE
  5
1A435
330
1F
100
AcDbEntity
  8
0
  6
Continuous
 62
     7
370
     0
100
AcDbLine
 10
12.9576155492683
 20
292.7354949335181
 30
0.0
 11
12.9576155492683
 21
300.6104949335181
 31
0.0
  0
LINE
  5
1A436
330
1F
100
AcDbEntity
  8
0
  6
Continuous
 62
     7
370
     0
100
AcDbLine
 10
28.18836189196836
 20
268.0547821840981
 30
0.0
 11
28.33469711582811
 21
267.9275820792481
 31
0.0
  0
LINE
  5
1A437
330
1F
100
AcDbEntity
  8
0
  6
Continuous
 62
     7
370
     0
100
AcDbLine
 10
-0.867383535761654
 20
301.3743951199381
 30
0.0
 11
-0.8641020505619039
 21
301.369708673488
 31
0.0
  0
LINE
  5
1A438
330
1F
100
AcDbEntity
  8
0
  6
Continuous
 62
     7
370
     0
100
AcDbLine
 10
16.07178136094817
 20
257.560494933518
 30
0.0
 11
16.07078682593838
 21
257.573669493378
 31
0.0
  0
LINE
  5
1A439
330
1F
100
AcDbEntity
  8
0
  6
Continuous
 62
     7
370
     0
100
AcDbLine
 10
16.79869039029845
 20
258.076333001578
 30
0.0
 11
15.71190955235816
 21
299.5788187973282
 31
0.0
  0
LINE
  5
1A43A
330
1F
100
AcDbEntity
  8
0
  6
Continuous
 62
     7
370
     0
100
AcDbLine
 10
16.82212125103852
 20
263.5170556154781
 30
0.0
 11
16.97226235886829
 21
257.7833980288281
 31
0.0
  0
LINE
  5
1A43B
330
1F
100
AcDbEntity
  8
0
  6
Continuous
 62
     7
370
     0
100
AcDbLine
 10
16.64020996343843
 20
270.5804949335179
 30
0.0
 11
16.82516844959819
 21
263.5172153124281
 31
0.0
  0
LINE
  5
1A43C
330
1F
100
AcDbEntity
  8
0
  6
Continuous
 62
     7
370
     0
100
AcDbLine
 10
13.96586560333808
 20
288.710494933518
 30
0.0
 11
13.96586560333808
 21
289.392171069708
 31
0.0
  0
LINE
  5
1A43D
330
1F
100
AcDbEntity
  8
0
  6
Continuous
 62
     7
370
     0
100
AcDbLine
 10
15.05761554926821
 20
290.2854949335181
 30
0.0
 11
15.05761554926821
 21
300.6104949335181
 31
0.0
  0
LINE
  5
1A43E
330
1F
100
AcDbEntity
  8
0
  6
Continuous
 62
     7
370
     0
100
AcDbLine
 10
11.55761554926821
 20
287.7675845918581
 30
0.0
 11
0.0076155492684862
 21
287.7675845918581
 31
0.0
  0
LINE
  5
1A43F
330
1F
100
AcDbEntity
  8
0
  6
Continuous
 62
     7
370
     0
100
AcDbLine
 10
-1.26010863587171
 20
287.835494933518
 30
0.0
 11
-0.5173844507316048
 21
287.835494933518
 31
0.0
  0
LINE
  5
1A440
330
1F
100
AcDbEntity
  8
0
  6
Continuous
 62
     7
370
     0
100
AcDbLine
 10
12.0826155492683
 20
287.835494933518
 30
0.0
 11
12.82533976142813
 21
287.835494933518
 31
0.0
  0
LINE
  5
1A441
330
1F
100
AcDbEntity
  8
0
  6
Continuous
 62
     7
370
     0
100
AcDbLine
 10
-3.987451537721789
 20
288.0288187973281
 30
0.0
 11
-1.258458886161769
 21
288.0288187963481
 31
0.0
  0
LINE
  5
1A442
330
1F
100
AcDbEntity
  8
0
  6
Continuous
 62
     7
370
     0
100
AcDbLine
 10
-0.8284009000416503
 20
288.0288187973281
 30
0.0
 11
12.39363200697844
 21
288.0288187973281
 31
0.0
  0
LINE
  5
1A443
330
1F
100
AcDbEntity
  8
0
  6
Continuous
 62
     7
370
     0
100
AcDbLine
 10
12.8236899920481
 20
288.0288187959279
 30
0.0
 11
15.55267052282816
 21
288.0288187973281
 31
0.0
  0
LINE
  5
1A444
330
1F
100
AcDbEntity
  8
0
  6
Continuous
 62
     7
370
     0
100
AcDbLine
 10
-2.400634637241545
 20
288.710494933518
 30
0.0
 11
13.96586573150817
 21
288.710494933518
 31
0.0
  0
LINE
  5
1A445
330
1F
100
AcDbEntity
  8
0
  6
Continuous
 62
     7
370
     0
100
AcDbLine
 10
-0.8673844507315138
 20
288.8504949335181
 30
0.0
 11
12.43261554926821
 21
288.8504949335181
 31
0.0
  0
LINE
  5
1A446
330
1F
100
AcDbEntity
  8
0
  6
Continuous
 62
     7
370
     0
100
AcDbLine
 10
18.07726252919847
 20
258.1529387462481
 30
0.0
 11
18.03261554926812
 21
258.4208299162281
 31
0.0
  0
LINE
  5
1A447
330
1F
100
AcDbEntity
  8
0
  6
Continuous
 62
     7
370
     0
100
AcDbLine
 10
18.24988162766849
 20
258.1817075982481
 30
0.0
 11
18.03261554926812
 21
259.4853492775881
 31
0.0
  0
LINE
  5
1A448
330
1F
100
AcDbEntity
  8
0
  6
Continuous
 62
     7
370
     0
100
AcDbLine
 10
17.3326155492683
 20
270.371938054778
 30
0.0
 11
17.3326155492683
 21
270.405494933518
 31
0.0
  0
LINE
  5
1A449
330
1F
100
AcDbEntity
  8
0
  6
Continuous
 62
     7
370
     0
100
AcDbLine
 10
17.69483037307837
 20
269.940267237158
 30
0.0
 11
17.69483037307837
 21
263.562792362548
 31
0.0
  0
LINE
  5
1A44A
330
1F
100
AcDbEntity
  8
0
  6
Continuous
 62
     7
370
     0
100
AcDbLine
 10
18.03261554926812
 20
257.7354949335181
 30
0.0
 11
18.03261554926812
 21
269.537710539958
 31
0.0
  0
LINE
  5
1A44B
330
1F
100
AcDbEntity
  8
0
  6
Continuous
 62
     7
370
     0
100
AcDbLine
 10
-2.400634504871867
 20
289.392171069708
 30
0.0
 11
-1.144078410371456
 21
289.392171069708
 31
0.0
  0
LINE
  5
1A44C
330
1F
100
AcDbEntity
  8
0
  6
Continuous
 62
     7
370
     0
100
AcDbLine
 10
12.70930950883812
 20
289.392171069708
 30
0.0
 11
13.96586560333808
 21
289.392171069708
 31
0.0
  0
LINE
  5
1A44D
330
1F
100
AcDbEntity
  8
0
  6
Continuous
 62
     7
370
     0
100
AcDbLine
 10
14.3576155492684
 20
289.585494933518
 30
0.0
 11
12.43261554926821
 21
289.585494933518
 31
0.0
  0
LINE
  5
1A44E
330
1F
100
AcDbEntity
  8
0
  6
Continuous
 62
     7
370
     0
100
AcDbLine
 10
-2.792384450731696
 20
289.585494933518
 30
0.0
 11
-0.8673844507315138
 21
289.585494933518
 31
0.0
  0
LINE
  5
1A44F
330
1F
100
AcDbEntity
  8
0
  6
Continuous
 62
     7
370
     0
100
AcDbLine
 10
21.49756223845825
 20
257.3885491046381
 30
0.0
 11
21.49761554926827
 21
257.385494933518
 31
0.0
  0
LINE
  5
1A450
330
1F
100
AcDbEntity
  8
0
  6
Continuous
 62
     7
370
     0
100
AcDbLine
 10
-7.308991929821694
 20
258.0488941230481
 30
0.0
 11
-7.149544153641635
 21
258.121014901428
 31
0.0
  0
LINE
  5
1A451
330
1F
100
AcDbEntity
  8
0
  6
Continuous
 62
     7
370
     0
100
AcDbLine
 10
12.9576155492683
 20
292.7354949335181
 30
0.0
 11
-1.392384450731605
 21
292.7354949335181
 31
0.0
  0
LINE
  5
1A452
330
1F
100
AcDbEntity
  8
0
  6
Continuous
 62
     7
370
     0
100
AcDbLine
 10
-0.6048844507316957
 20
292.9104949335181
 30
0.0
 11
12.1701155492684
 21
292.9104949335181
 31
0.0
  0
LINE
  5
1A453
330
1F
100
AcDbEntity
  8
0
  6
Continuous
 62
     7
370
     0
100
AcDbLine
 10
-0.0798844507316048
 20
293.6104949335181
 30
0.0
 11
0.7951155492683952
 21
293.6104949335181
 31
0.0
  0
LINE
  5
1A454
330
1F
100
AcDbEntity
  8
0
  6
Continuous
 62
     7
370
     0
100
AcDbLine
 10
1.145115549268304
 20
293.6104949335181
 30
0.0
 11
2.020115549268304
 21
293.6104949335181
 31
0.0
  0
LINE
  5
1A455
330
1F
100
AcDbEntity
  8
0
  6
Continuous
 62
     7
370
     0
100
AcDbLine
 10
2.370115549268213
 20
293.6104949335181
 30
0.0
 11
3.245115549268213
 21
293.6104949335181
 31
0.0
  0
LINE
  5
1A456
330
1F
100
AcDbEntity
  8
0
  6
Continuous
 62
     7
370
     0
100
AcDbLine
 10
3.595115549268122
 20
293.6104949335181
 30
0.0
 11
4.470115549268122
 21
293.6104949335181
 31
0.0
  0
LINE
  5
1A457
330
1F
100
AcDbEntity
  8
0
  6
Continuous
 62
     7
370
     0
100
AcDbLine
 10
4.820115549268486
 20
293.6104949335181
 30
0.0
 11
5.695115549268486
 21
293.6104949335181
 31
0.0
  0
LINE
  5
1A458
330
1F
100
AcDbEntity
  8
0
  6
Continuous
 62
     7
370
     0
100
AcDbLine
 10
6.045115549268395
 20
293.6104949335181
 30
0.0
 11
6.920115549268395
 21
293.6104949335181
 31
0.0
  0
LINE
  5
1A459
330
1F
100
AcDbEntity
  8
0
  6
Continuous
 62
     7
370
     0
100
AcDbLine
 10
7.270115549268304
 20
293.6104949335181
 30
0.0
 11
8.145115549268304
 21
293.6104949335181
 31
0.0
  0
LINE
  5
1A45A
330
1F
100
AcDbEntity
  8
0
  6
Continuous
 62
     7
370
     0
100
AcDbLine
 10
8.495115549268213
 20
293.6104949335181
 30
0.0
 11
9.370115549268213
 21
293.6104949335181
 31
0.0
  0
LINE
  5
1A45B
330
1F
100
AcDbEntity
  8
0
  6
Continuous
 62
     7
370
     0
100
AcDbLine
 10
9.720115549268122
 20
293.6104949335181
 30
0.0
 11
10.59511554926812
 21
293.6104949335181
 31
0.0
  0
LINE
  5
1A45C
330
1F
100
AcDbEntity
  8
0
  6
Continuous
 62
     7
370
     0
100
AcDbLine
 10
10.94511554926849
 20
293.6104949335181
 30
0.0
 11
11.82011554926849
 21
293.6104949335181
 31
0.0
  0
LINE
  5
1A45D
330
1F
100
AcDbEntity
  8
0
  6
Continuous
 62
     7
370
     0
100
AcDbLine
 10
28.66520715715851
 20
268.927837689728
 30
0.0
 11
28.57902240094845
 21
269.080143920028
 31
0.0
  0
LINE
  5
1A45E
330
1F
100
AcDbEntity
  8
0
  6
Continuous
 62
     7
370
     0
100
AcDbLine
 10
21.53261554926812
 20
257.385494933518
 30
0.0
 11
21.49699296863819
 21
256.7057756031579
 31
0.0
  0
LINE
  5
1A45F
330
1F
100
AcDbEntity
  8
0
  6
Continuous
 62
     7
370
     0
100
AcDbLine
 10
11.82011554926849
 20
294.4854949335181
 30
0.0
 11
10.94511554926849
 21
294.4854949335181
 31
0.0
  0
LINE
  5
1A460
330
1F
100
AcDbEntity
  8
0
  6
Continuous
 62
     7
370
     0
100
AcDbLine
 10
10.59511554926812
 20
294.4854949335181
 30
0.0
 11
9.720115549268122
 21
294.4854949335181
 31
0.0
  0
LINE
  5
1A461
330
1F
100
AcDbEntity
  8
0
  6
Continuous
 62
     7
370
     0
100
AcDbLine
 10
9.370115549268213
 20
294.4854949335181
 30
0.0
 11
8.495115549268213
 21
294.4854949335181
 31
0.0
  0
LINE
  5
1A462
330
1F
100
AcDbEntity
  8
0
  6
Continuous
 62
     7
370
     0
100
AcDbLine
 10
8.145115549268304
 20
294.4854949335181
 30
0.0
 11
7.270115549268304
 21
294.4854949335181
 31
0.0
  0
LINE
  5
1A463
330
1F
100
AcDbEntity
  8
0
  6
Continuous
 62
     7
370
     0
100
AcDbLine
 10
6.920115549268395
 20
294.4854949335181
 30
0.0
 11
6.045115549268395
 21
294.4854949335181
 31
0.0
  0
LINE
  5
1A464
330
1F
100
AcDbEntity
  8
0
  6
Continuous
 62
     7
370
     0
100
AcDbLine
 10
5.695115549268486
 20
294.4854949335181
 30
0.0
 11
4.820115549268486
 21
294.4854949335181
 31
0.0
  0
LINE
  5
1A465
330
1F
100
AcDbEntity
  8
0
  6
Continuous
 62
     7
370
     0
100
AcDbLine
 10
4.470115549268122
 20
294.4854949335181
 30
0.0
 11
3.595115549268122
 21
294.4854949335181
 31
0.0
  0
LINE
  5
1A466
330
1F
100
AcDbEntity
  8
0
  6
Continuous
 62
     7
370
     0
100
AcDbLine
 10
3.245115549268213
 20
294.4854949335181
 30
0.0
 11
2.370115549268213
 21
294.4854949335181
 31
0.0
  0
LINE
  5
1A467
330
1F
100
AcDbEntity
  8
0
  6
Continuous
 62
     7
370
     0
100
AcDbLine
 10
2.020115549268304
 20
294.4854949335181
 30
0.0
 11
1.145115549268304
 21
294.4854949335181
 31
0.0
  0
LINE
  5
1A468
330
1F
100
AcDbEntity
  8
0
  6
Continuous
 62
     7
370
     0
100
AcDbLine
 10
0.7951155492683952
 20
294.4854949335181
 30
0.0
 11
-0.0798844507316048
 21
294.4854949335181
 31
0.0
  0
LINE
  5
1A469
330
1F
100
AcDbEntity
  8
0
  6
Continuous
 62
     7
370
     0
100
AcDbLine
 10
12.1701155492684
 20
295.710494933518
 30
0.0
 11
11.72554411321844
 21
295.710494933518
 31
0.0
  0
LINE
  5
1A46A
330
1F
100
AcDbEntity
  8
0
  6
Continuous
 62
     7
370
     0
100
AcDbLine
 10
11.0396869852485
 20
295.710494933518
 30
0.0
 11
10.50054411321808
 21
295.710494933518
 31
0.0
  0
LINE
  5
1A46B
330
1F
100
AcDbEntity
  8
0
  6
Continuous
 62
     7
370
     0
100
AcDbLine
 10
9.814686985248137
 20
295.710494933518
 30
0.0
 11
9.275544113218167
 21
295.710494933518
 31
0.0
  0
LINE
  5
1A46C
330
1F
100
AcDbEntity
  8
0
  6
Continuous
 62
     7
370
     0
100
AcDbLine
 10
8.589686985248228
 20
295.710494933518
 30
0.0
 11
8.050544113218258
 21
295.710494933518
 31
0.0
  0
LINE
  5
1A46D
330
1F
100
AcDbEntity
  8
0
  6
Continuous
 62
     7
370
     0
100
AcDbLine
 10
7.364686985248319
 20
295.710494933518
 30
0.0
 11
6.825544113218349
 21
295.710494933518
 31
0.0
  0
LINE
  5
1A46E
330
1F
100
AcDbEntity
  8
0
  6
Continuous
 62
     7
370
     0
100
AcDbLine
 10
6.13968698524841
 20
295.710494933518
 30
0.0
 11
5.60054411321844
 21
295.710494933518
 31
0.0
  0
LINE
  5
1A46F
330
1F
100
AcDbEntity
  8
0
  6
Continuous
 62
     7
370
     0
100
AcDbLine
 10
4.914686985248501
 20
295.710494933518
 30
0.0
 11
4.375544113218076
 21
295.710494933518
 31
0.0
  0
LINE
  5
1A470
330
1F
100
AcDbEntity
  8
0
  6
Continuous
 62
     7
370
     0
100
AcDbLine
 10
3.689686985248137
 20
295.710494933518
 30
0.0
 11
3.150544113218167
 21
295.710494933518
 31
0.0
  0
LINE
  5
1A471
330
1F
100
AcDbEntity
  8
0
  6
Continuous
 62
     7
370
     0
100
AcDbLine
 10
2.464686985248228
 20
295.710494933518
 30
0.0
 11
1.925544113218258
 21
295.710494933518
 31
0.0
  0
LINE
  5
1A472
330
1F
100
AcDbEntity
  8
0
  6
Continuous
 62
     7
370
     0
100
AcDbLine
 10
1.239686985248319
 20
295.710494933518
 30
0.0
 11
0.7005441132183492
 21
295.710494933518
 31
0.0
  0
LINE
  5
1A473
330
1F
100
AcDbEntity
  8
0
  6
Continuous
 62
     7
370
     0
100
AcDbLine
 10
0.0146869852484102
 20
295.710494933518
 30
0.0
 11
-0.6048844507316957
 21
295.710494933518
 31
0.0
  0
LINE
  5
1A474
330
1F
100
AcDbEntity
  8
0
  6
Continuous
 62
     7
370
     0
100
AcDbLine
 10
11.03261646423844
 20
301.3743951199381
 30
0.0
 11
11.03589794943819
 21
301.369708673488
 31
0.0
  0
LINE
  5
1A475
330
1F
100
AcDbEntity
  8
0
  6
Continuous
 62
     7
370
     0
100
AcDbLine
 10
20.83529431969837
 20
262.8091513474981
 30
0.0
 11
18.71477525217833
 21
258.121014901428
 31
0.0
  0
LINE
  5
1A476
330
1F
100
AcDbEntity
  8
0
  6
Continuous
 62
     7
370
     0
100
AcDbLine
 10
20.98310204248819
 20
262.7112962292281
 30
0.0
 11
18.87422302835839
 21
258.0488941230481
 31
0.0
  0
LINE
  5
1A477
330
1F
100
AcDbEntity
  8
0
  6
Continuous
 62
     7
370
     0
100
AcDbLine
 10
35.76354684426824
 20
273.1456144282882
 30
0.0
 11
28.57902240094845
 21
269.080143920028
 31
0.0
  0
LINE
  5
1A478
330
1F
100
AcDbEntity
  8
0
  6
Continuous
 62
     7
370
     0
100
AcDbLine
 10
35.8497316004783
 20
272.9933081979181
 30
0.0
 11
28.66520715715851
 21
268.927837689728
 31
0.0
  0
LINE
  5
1A479
330
1F
100
AcDbEntity
  8
0
  6
Continuous
 62
     7
370
     0
100
AcDbLine
 10
36.08822258698829
 20
272.9271867238281
 30
0.0
 11
36.24052881735825
 21
273.0133714800382
 31
0.0
  0
LINE
  5
1A47A
330
1F
100
AcDbEntity
  8
0
  6
Continuous
 62
     7
370
     0
100
AcDbLine
 10
36.17440734319835
 20
272.7748804935279
 30
0.0
 11
36.32671357356831
 21
272.861065249738
 31
0.0
  0
LINE
  5
1A47B
330
1F
100
AcDbEntity
  8
0
  6
Continuous
 62
     7
370
     0
100
AcDbLine
 10
36.34677685561847
 20
272.4702680328581
 30
0.0
 11
36.49908308598842
 21
272.5564527890681
 31
0.0
  0
LINE
  5
1A47C
330
1F
100
AcDbEntity
  8
0
  6
Continuous
 62
     7
370
     0
100
AcDbLine
 10
-0.6048844507316957
 20
297.1104949335181
 30
0.0
 11
12.1701155492684
 21
297.1104949335181
 31
0.0
  0
LINE
  5
1A47D
330
1F
100
AcDbEntity
  8
0
  6
Continuous
 62
     7
370
     0
100
AcDbLine
 10
12.16166064441823
 20
297.2854949335181
 30
0.0
 11
-0.5964295459515583
 21
297.2854949335181
 31
0.0
  0
LINE
  5
1A47E
330
1F
100
AcDbEntity
  8
0
  6
Continuous
 62
     7
370
     0
100
AcDbLine
 10
-4.064684730331827
 20
299.5788187975379
 30
0.0
 11
-3.822230295451753
 21
299.578818799638
 31
0.0
  0
LINE
  5
1A47F
330
1F
100
AcDbEntity
  8
0
  6
Continuous
 62
     7
370
     0
100
AcDbLine
 10
-1.392384450731605
 20
299.5788187973282
 30
0.0
 11
12.9576155492683
 21
299.5788187973282
 31
0.0
  0
LINE
  5
1A480
330
1F
100
AcDbEntity
  8
0
  6
Continuous
 62
     7
370
     0
100
AcDbLine
 10
15.38746139391842
 20
299.578818799708
 30
0.0
 11
15.62991582886807
 21
299.5788187975379
 31
0.0
  0
LINE
  5
1A481
330
1F
100
AcDbEntity
  8
0
  6
Continuous
 62
     7
370
     0
100
AcDbLine
 10
-3.492384450731514
 20
300.085494933518
 30
0.0
 11
-1.392384450731605
 21
300.085494933518
 31
0.0
  0
LINE
  5
1A482
330
1F
100
AcDbEntity
  8
0
  6
Continuous
 62
     7
370
     0
100
AcDbLine
 10
12.9576155492683
 20
300.085494933518
 30
0.0
 11
15.05761554926821
 21
300.085494933518
 31
0.0
  0
LINE
  5
1A483
330
1F
100
AcDbEntity
  8
0
  6
Continuous
 62
     7
370
     0
100
AcDbLine
 10
-1.392384450731605
 20
300.260494933518
 30
0.0
 11
12.9576155492683
 21
300.260494933518
 31
0.0
  0
LINE
  5
1A484
330
1F
100
AcDbEntity
  8
0
  6
Continuous
 62
     7
370
     0
100
AcDbLine
 10
-3.492384450731514
 20
300.6104949335181
 30
0.0
 11
15.05761554926821
 21
300.6104949335181
 31
0.0
  0
LINE
  5
1A485
330
1F
100
AcDbEntity
  8
0
  6
Continuous
 62
     7
370
     0
100
AcDbLine
 10
-1.392384450731605
 20
300.775793397128
 30
0.0
 11
1.057615549268213
 21
300.775793397128
 31
0.0
  0
LINE
  5
1A486
330
1F
100
AcDbEntity
  8
0
  6
Continuous
 62
     7
370
     0
100
AcDbLine
 10
10.50761554926849
 20
300.775793397128
 30
0.0
 11
12.9576155492683
 21
300.775793397128
 31
0.0
  0
LINE
  5
1A487
330
1F
100
AcDbEntity
  8
0
  6
Continuous
 62
     7
370
     0
100
AcDbLine
 10
-1.16738445012188
 20
301.2066355955581
 30
0.0
 11
0.832615548588457
 21
301.2066355955581
 31
0.0
  0
LINE
  5
1A488
330
1F
100
AcDbEntity
  8
0
  6
Continuous
 62
     7
370
     0
100
AcDbLine
 10
10.73261554987821
 20
301.2066355955581
 30
0.0
 11
12.73261554858809
 21
301.2066355955581
 31
0.0
  0
LINE
  5
1A489
330
1F
100
AcDbEntity
  8
0
  6
Continuous
 62
     7
370
     0
100
AcDbLine
 10
35.8497316004783
 20
272.9933081979181
 30
0.0
 11
35.76354684426824
 21
273.1456144282882
 31
0.0
  0
LINE
  5
1A48A
330
1F
100
AcDbEntity
  8
0
  6
Continuous
 62
     7
370
     0
100
AcDbLine
 10
28.41411472563832
 20
268.8690413448481
 30
0.0
 11
28.18836189196836
 21
268.0547821840981
 31
0.0
  0
LINE
  5
1A48B
330
1F
100
AcDbEntity
  8
0
  6
Continuous
 62
     7
370
     0
100
AcDbLine
 10
28.58275331946843
 20
268.822286402138
 30
0.0
 11
28.33469711582811
 21
267.9275820792481
 31
0.0
  0
LINE
  5
1A48C
330
1F
100
AcDbEntity
  8
0
  6
Continuous
 62
     7
370
     0
100
AcDbLine
 10
36.34677685561847
 20
272.4702680328581
 30
0.0
 11
36.08822258698829
 21
272.9271867238281
 31
0.0
  0
LINE
  5
1A48D
330
1F
100
AcDbEntity
  8
0
  6
Continuous
 62
     7
370
     0
100
AcDbLine
 10
36.49908308598842
 20
272.5564527890681
 30
0.0
 11
36.24052881735825
 21
273.0133714800382
 31
0.0
  0
LINE
  5
1A48E
330
1F
100
AcDbEntity
  8
0
  6
Continuous
 62
     7
370
     0
100
AcDbLine
 10
19.58550679406844
 20
255.190521152028
 30
0.0
 11
21.16036021826822
 21
256.1435280656281
 31
0.0
  0
ARC
  5
1A48F
330
1F
100
AcDbEntity
  8
0
  6
Continuous
 62
     7
370
     0
100
AcDbCircle
 10
-25.39777984009188
 20
247.9785864760682
 30
0.0
 40
21.91
100
AcDbArc
 50
42.60030631080283
 51
66.39143355609205
  0
ARC
  5
1A490
330
1F
100
AcDbEntity
  8
0
  6
Continuous
 62
     7
370
     0
100
AcDbCircle
 10
-25.39777984009188
 20
247.9785864760682
 30
0.0
 40
21.735
100
AcDbArc
 50
42.67457127600255
 51
66.61061455100045
  0
ARC
  5
1A491
330
1F
100
AcDbEntity
  8
0
  6
Continuous
 62
     7
370
     0
100
AcDbCircle
 10
0.3675956258081001
 20
273.6986614204779
 30
0.0
 40
15.19939366218
100
AcDbArc
 50
321.686460177602
 51
321.8463241466932
  0
ARC
  5
1A492
330
1F
100
AcDbEntity
  8
0
  6
Continuous
 62
     7
370
     0
100
AcDbCircle
 10
2.248981549568363
 20
257.906708560088
 30
0.0
 40
7.030396586639999
100
AcDbArc
 50
115.0546006089011
 51
116.3310485932041
  0
ARC
  5
1A493
330
1F
100
AcDbEntity
  8
0
  6
Continuous
 62
     7
370
     0
100
AcDbCircle
 10
-9.232721195811699
 20
256.7424107724981
 30
0.0
 40
0.7
100
AcDbArc
 50
183.0000000000056
 51
238.8201870892985
  0
ARC
  5
1A494
330
1F
100
AcDbEntity
  8
0
  6
Continuous
 62
     7
370
     0
100
AcDbCircle
 10
-7.733458922421867
 20
255.6644887284881
 30
0.0
 40
0.5539937950399999
100
AcDbArc
 50
238.8201870893129
 51
270.0
  0
ARC
  5
1A495
330
1F
100
AcDbEntity
  8
0
  6
Continuous
 62
     7
370
     0
100
AcDbCircle
 10
-0.4922373252315069
 20
263.834564139818
 30
0.0
 40
0.53053079058
100
AcDbArc
 50
135.309406205845
 51
137.9056643810181
  0
ARC
  5
1A496
330
1F
100
AcDbEntity
  8
0
  6
Continuous
 62
     7
370
     0
100
AcDbCircle
 10
-6.926317267031571
 20
258.2219839911182
 30
0.0
 40
0.42
100
AcDbArc
 50
204.3380000000085
 51
350.5379999999993
  0
ARC
  5
1A497
330
1F
100
AcDbEntity
  8
0
  6
Continuous
 62
     7
370
     0
100
AcDbCircle
 10
-24.37068525822169
 20
272.841001967618
 30
0.0
 40
0.35
100
AcDbArc
 50
60.49599999998668
 51
150.4959999999956
  0
ARC
  5
1A498
330
1F
100
AcDbEntity
  8
0
  6
Continuous
 62
     7
370
     0
100
AcDbCircle
 10
-17.18616081483187
 20
268.7755314593581
 30
0.0
 40
0.35
100
AcDbArc
 50
15.49600000000735
 51
60.49599999998668
  0
ARC
  5
1A499
330
1F
100
AcDbEntity
  8
0
  6
Continuous
 62
     7
370
     0
100
AcDbCircle
 10
-5.583339355581664
 20
258.085494933518
 30
0.0
 40
0.35
100
AcDbArc
 50
270.0
 51
358.4999999999951
  0
ARC
  5
1A49A
330
1F
100
AcDbEntity
  8
0
  6
Continuous
 62
     7
370
     0
100
AcDbCircle
 10
0.0075487120080666
 20
267.1228952999182
 30
0.0
 40
0.34994004731
100
AcDbArc
 50
180.0109464291784
 51
270.0109430620573
  0
ARC
  5
1A49B
330
1F
100
AcDbEntity
  8
0
  6
Continuous
 62
     7
370
     0
100
AcDbCircle
 10
0.0075487120080666
 20
267.124727686278
 30
0.0
 40
0.34994004731
100
AcDbArc
 50
180.0109464291784
 51
270.0109430620573
  0
ARC
  5
1A49C
330
1F
100
AcDbEntity
  8
0
  6
Continuous
 62
     7
370
     0
100
AcDbCircle
 10
-6.926317267031571
 20
258.2219839911182
 30
0.0
 40
0.245
100
AcDbArc
 50
204.3380000000227
 51
350.5380000000173
  0
ARC
  5
1A49D
330
1F
100
AcDbEntity
  8
0
  6
Continuous
 62
     7
370
     0
100
AcDbCircle
 10
-9.757357793331629
 20
257.385494933518
 30
0.0
 40
0.175
100
AcDbArc
 50
92.9135584663582
 51
179.0000000000242
  0
ARC
  5
1A49E
330
1F
100
AcDbEntity
  8
0
  6
Continuous
 62
     7
370
     0
100
AcDbCircle
 10
-5.510780610581513
 20
270.405494933518
 30
0.0
 40
0.175
100
AcDbArc
 50
90.0
 51
140.0000000000296
  0
ARC
  5
1A49F
330
1F
100
AcDbEntity
  8
0
  6
Continuous
 62
     7
370
     0
100
AcDbCircle
 10
-24.37068525822169
 20
272.841001967618
 30
0.0
 40
0.175
100
AcDbArc
 50
60.49600000007236
 51
150.4960000000724
  0
ARC
  5
1A4A0
330
1F
100
AcDbEntity
  8
0
  6
Continuous
 62
     7
370
     0
100
AcDbCircle
 10
-17.18616081483187
 20
268.7755314593581
 30
0.0
 40
0.175
100
AcDbArc
 50
15.49600000000764
 51
60.49599999990101
  0
ARC
  5
1A4A1
330
1F
100
AcDbEntity
  8
0
  6
Continuous
 62
     7
370
     0
100
AcDbCircle
 10
5.143451084938171
 20
262.2852782309481
 30
0.0
 40
0.1748131875
100
AcDbArc
 50
181.4304558903122
 51
265.6011634111809
  0
ARC
  5
1A4A2
330
1F
100
AcDbEntity
  8
0
  6
Continuous
 62
     7
370
     0
100
AcDbCircle
 10
5.14319911412813
 20
262.284745117388
 30
0.0
 40
0.17425018394
100
AcDbArc
 50
265.6703258320277
 51
269.9983752408705
  0
ARC
  5
1A4A3
330
1F
100
AcDbEntity
  8
0
  6
Continuous
 62
     7
370
     0
100
AcDbCircle
 10
-0.1674032553918536
 20
299.2820604390681
 30
0.0
 40
2.09233598777
100
AcDbArc
 50
86.16393981849892
 51
93.83606018148866
  0
ARC
  5
1A4A4
330
1F
100
AcDbEntity
  8
0
  6
Continuous
 62
     7
370
     0
100
AcDbCircle
 10
-0.1673844507316957
 20
299.770494933518
 30
0.0
 40
1.75
100
AcDbArc
 50
55.15009544629411
 51
66.37912979209726
  0
ARC
  5
1A4A5
330
1F
100
AcDbEntity
  8
0
  6
Continuous
 62
     7
370
     0
100
AcDbCircle
 10
-0.1673844507316957
 20
299.770494933518
 30
0.0
 40
1.75
100
AcDbArc
 50
113.6208702078867
 51
124.8499045537003
  0
ARC
  5
1A4A6
330
1F
100
AcDbEntity
  8
0
  6
Continuous
 62
     7
370
     0
100
AcDbCircle
 10
-0.1673844507316957
 20
299.770494933518
 30
0.0
 40
1.74439101123
100
AcDbArc
 50
66.45904453309757
 51
85.39664821791108
  0
ARC
  5
1A4A7
330
1F
100
AcDbEntity
  8
0
  6
Continuous
 62
     7
370
     0
100
AcDbCircle
 10
-0.1673844507316957
 20
299.770494933518
 30
0.0
 40
1.74439101123
100
AcDbArc
 50
94.60335178208892
 51
113.5409554669024
  0
ARC
  5
1A4A8
330
1F
100
AcDbEntity
  8
0
  6
Continuous
 62
     7
370
     0
100
AcDbCircle
 10
-3.446918326391732
 20
299.560494933518
 30
0.0
 40
0.7
100
AcDbArc
 50
93.71960297929625
 51
178.4999999999951
  0
ARC
  5
1A4A9
330
1F
100
AcDbEntity
  8
0
  6
Continuous
 62
     7
370
     0
100
AcDbCircle
 10
-3.446869928181876
 20
299.7138789826581
 30
0.0
 40
0.5466170497199999
100
AcDbArc
 50
94.7678227118979
 51
95.0091653180625
  0
ARC
  5
1A4AA
330
1F
100
AcDbEntity
  8
0
  6
Continuous
 62
     7
370
     0
100
AcDbCircle
 10
-0.8673844507315138
 20
300.7757933966381
 30
0.0
 40
0.5249999999999999
100
AcDbArc
 50
124.8499044946364
 51
180.0
  0
ARC
  5
1A4AB
330
1F
100
AcDbEntity
  8
0
  6
Continuous
 62
     7
370
     0
100
AcDbCircle
 10
0.5326155492681224
 20
300.7757933966381
 30
0.0
 40
0.5249999999999999
100
AcDbArc
 50
0.0
 51
55.15009550540769
  0
ARC
  5
1A4AC
330
1F
100
AcDbEntity
  8
0
  6
Continuous
 62
     7
370
     0
100
AcDbCircle
 10
1.582615549268304
 20
295.3604949335181
 30
0.0
 40
0.4899999999999999
100
AcDbArc
 50
180.0
 51
0.0
  0
ARC
  5
1A4AD
330
1F
100
AcDbEntity
  8
0
  6
Continuous
 62
     7
370
     0
100
AcDbCircle
 10
0.3576155492683952
 20
295.3604949335181
 30
0.0
 40
0.4899999999999999
100
AcDbArc
 50
180.0
 51
0.0
  0
ARC
  5
1A4AE
330
1F
100
AcDbEntity
  8
0
  6
Continuous
 62
     7
370
     0
100
AcDbCircle
 10
5.257615549268486
 20
295.3604949335181
 30
0.0
 40
0.4899999999999999
100
AcDbArc
 50
180.0
 51
0.0
  0
ARC
  5
1A4AF
330
1F
100
AcDbEntity
  8
0
  6
Continuous
 62
     7
370
     0
100
AcDbCircle
 10
4.032615549268122
 20
295.3604949335181
 30
0.0
 40
0.4899999999999999
100
AcDbArc
 50
180.0
 51
0.0
  0
ARC
  5
1A4B0
330
1F
100
AcDbEntity
  8
0
  6
Continuous
 62
     7
370
     0
100
AcDbCircle
 10
2.807615549268213
 20
295.3604949335181
 30
0.0
 40
0.4899999999999999
100
AcDbArc
 50
180.0
 51
0.0
  0
ARC
  5
1A4B1
330
1F
100
AcDbEntity
  8
0
  6
Continuous
 62
     7
370
     0
100
AcDbCircle
 10
5.257615549268486
 20
295.3604949335181
 30
0.0
 40
0.4899999999999999
100
AcDbArc
 50
0.0
 51
180.0
  0
ARC
  5
1A4B2
330
1F
100
AcDbEntity
  8
0
  6
Continuous
 62
     7
370
     0
100
AcDbCircle
 10
4.032615549268122
 20
295.3604949335181
 30
0.0
 40
0.4899999999999999
100
AcDbArc
 50
0.0
 51
180.0
  0
ARC
  5
1A4B3
330
1F
100
AcDbEntity
  8
0
  6
Continuous
 62
     7
370
     0
100
AcDbCircle
 10
2.807615549268213
 20
295.3604949335181
 30
0.0
 40
0.4899999999999999
100
AcDbArc
 50
0.0
 51
180.0
  0
ARC
  5
1A4B4
330
1F
100
AcDbEntity
  8
0
  6
Continuous
 62
     7
370
     0
100
AcDbCircle
 10
1.582615549268304
 20
295.3604949335181
 30
0.0
 40
0.4899999999999999
100
AcDbArc
 50
0.0
 51
180.0
  0
ARC
  5
1A4B5
330
1F
100
AcDbEntity
  8
0
  6
Continuous
 62
     7
370
     0
100
AcDbCircle
 10
0.3576155492683952
 20
295.3604949335181
 30
0.0
 40
0.4899999999999999
100
AcDbArc
 50
0.0
 51
180.0
  0
ARC
  5
1A4B6
330
1F
100
AcDbEntity
  8
0
  6
Continuous
 62
     7
370
     0
100
AcDbCircle
 10
-0.5964295459515583
 20
296.935494933518
 30
0.0
 40
0.35
100
AcDbArc
 50
90.0
 51
178.4999999999951
  0
ARC
  5
1A4B7
330
1F
100
AcDbEntity
  8
0
  6
Continuous
 62
     7
370
     0
100
AcDbCircle
 10
0.0075487120080666
 20
287.4176376729982
 30
0.0
 40
0.34994004731
100
AcDbArc
 50
89.9890569379427
 51
179.9890535708216
  0
ARC
  5
1A4B8
330
1F
100
AcDbEntity
  8
0
  6
Continuous
 62
     7
370
     0
100
AcDbCircle
 10
36.96301093862812
 20
247.9785864760682
 30
0.0
 40
21.91
100
AcDbArc
 50
113.6085664439067
 51
137.3996936891972
  0
ARC
  5
1A4B9
330
1F
100
AcDbEntity
  8
0
  6
Continuous
 62
     7
370
     0
100
AcDbCircle
 10
36.96301093862812
 20
247.9785864760682
 30
0.0
 40
21.735
100
AcDbArc
 50
113.3893854489983
 51
137.325428723997
  0
ARC
  5
1A4BA
330
1F
100
AcDbEntity
  8
0
  6
Continuous
 62
     7
370
     0
100
AcDbCircle
 10
11.1976069366684
 20
273.698639372858
 30
0.0
 40
15.19935760868
100
AcDbArc
 50
218.153676738599
 51
218.3135411481964
  0
ARC
  5
1A4BB
330
1F
100
AcDbEntity
  8
0
  6
Continuous
 62
     7
370
     0
100
AcDbCircle
 10
9.328212803908265
 20
257.9314694633181
 30
0.0
 40
7.00289935828
100
AcDbArc
 50
63.66679007369861
 51
64.94827759479786
  0
ARC
  5
1A4BC
330
1F
100
AcDbEntity
  8
0
  6
Continuous
 62
     7
370
     0
100
AcDbCircle
 10
20.79795229427837
 20
256.7424107724981
 30
0.0
 40
0.7
100
AcDbArc
 50
301.179812910702
 51
356.9999999999945
  0
ARC
  5
1A4BD
330
1F
100
AcDbEntity
  8
0
  6
Continuous
 62
     7
370
     0
100
AcDbCircle
 10
19.29869002095811
 20
255.6644887284881
 30
0.0
 40
0.5539937950399999
100
AcDbArc
 50
270.0
 51
301.1798129107407
  0
ARC
  5
1A4BE
330
1F
100
AcDbEntity
  8
0
  6
Continuous
 62
     7
370
     0
100
AcDbCircle
 10
12.06474426681834
 20
263.841600438318
 30
0.0
 40
0.52041186351
100
AcDbArc
 50
42.08945415161583
 51
44.70291630060839
  0
ARC
  5
1A4BF
330
1F
100
AcDbEntity
  8
0
  6
Continuous
 62
     7
370
     0
100
AcDbCircle
 10
18.49154836549824
 20
258.2219839911182
 30
0.0
 40
0.42
100
AcDbArc
 50
189.4620000000007
 51
335.6619999999911
  0
ARC
  5
1A4C0
330
1F
100
AcDbEntity
  8
0
  6
Continuous
 62
     7
370
     0
100
AcDbCircle
 10
35.93591635668836
 20
272.841001967618
 30
0.0
 40
0.35
100
AcDbArc
 50
29.50400000000495
 51
119.5040000000133
  0
ARC
  5
1A4C1
330
1F
100
AcDbEntity
  8
0
  6
Continuous
 62
     7
370
     0
100
AcDbCircle
 10
28.75139191336812
 20
268.7755314593581
 30
0.0
 40
0.35
100
AcDbArc
 50
119.5039999999276
 51
164.5039999999924
  0
ARC
  5
1A4C2
330
1F
100
AcDbEntity
  8
0
  6
Continuous
 62
     7
370
     0
100
AcDbCircle
 10
17.14857043101811
 20
258.085494933518
 30
0.0
 40
0.3499999923
100
AcDbArc
 50
181.5000000988051
 51
270.0000037741191
  0
ARC
  5
1A4C3
330
1F
100
AcDbEntity
  8
0
  6
Continuous
 62
     7
370
     0
100
AcDbCircle
 10
11.55768187692829
 20
267.1247284135781
 30
0.0
 40
0.3499407918299999
100
AcDbArc
 50
269.9891403859899
 51
359.6897708180924
  0
ARC
  5
1A4C4
330
1F
100
AcDbEntity
  8
0
  6
Continuous
 62
     7
370
     0
100
AcDbCircle
 10
11.55768234172829
 20
267.122895344648
 30
0.0
 40
0.34994004731
100
AcDbArc
 50
269.9890642617983
 51
359.9890462441108
  0
ARC
  5
1A4C5
330
1F
100
AcDbEntity
  8
0
  6
Continuous
 62
     7
370
     0
100
AcDbCircle
 10
11.55849523513834
 20
267.1246609122981
 30
0.0
 40
0.34912031406
100
AcDbArc
 50
359.7001258571065
 51
359.999986690986
  0
ARC
  5
1A4C6
330
1F
100
AcDbEntity
  8
0
  6
Continuous
 62
     7
370
     0
100
AcDbCircle
 10
18.49154836549824
 20
258.2219839911182
 30
0.0
 40
0.245
100
AcDbArc
 50
189.461999999983
 51
335.6619999999772
  0
ARC
  5
1A4C7
330
1F
100
AcDbEntity
  8
0
  6
Continuous
 62
     7
370
     0
100
AcDbCircle
 10
15.89628336988844
 20
257.5604948564481
 30
0.0
 40
0.17500007707
100
AcDbArc
 50
4.318298074636254
 51
89.99997610063144
  0
ARC
  5
1A4C8
330
1F
100
AcDbEntity
  8
0
  6
Continuous
 62
     7
370
     0
100
AcDbCircle
 10
21.32258889186833
 20
257.385494933518
 30
0.0
 40
0.175
100
AcDbArc
 50
0.9999999999758443
 51
87.08644153364182
  0
ARC
  5
1A4C9
330
1F
100
AcDbEntity
  8
0
  6
Continuous
 62
     7
370
     0
100
AcDbCircle
 10
17.07601170904818
 20
270.405494933518
 30
0.0
 40
0.175
100
AcDbArc
 50
39.99999999996896
 51
90.0
  0
ARC
  5
1A4CA
330
1F
100
AcDbEntity
  8
0
  6
Continuous
 62
     7
370
     0
100
AcDbCircle
 10
35.93591635668836
 20
272.841001967618
 30
0.0
 40
0.175
100
AcDbArc
 50
29.50400000001305
 51
119.5039999999276
  0
ARC
  5
1A4CB
330
1F
100
AcDbEntity
  8
0
  6
Continuous
 62
     7
370
     0
100
AcDbCircle
 10
28.75139191336812
 20
268.7755314593581
 30
0.0
 40
0.175
100
AcDbArc
 50
119.5039999999276
 51
164.5039999999917
  0
ARC
  5
1A4CC
330
1F
100
AcDbEntity
  8
0
  6
Continuous
 62
     7
370
     0
100
AcDbCircle
 10
6.421780005408074
 20
262.2852782387181
 30
0.0
 40
0.1748131875
100
AcDbArc
 50
274.3988392308308
 51
358.5695416408007
  0
ARC
  5
1A4CD
330
1F
100
AcDbEntity
  8
0
  6
Continuous
 62
     7
370
     0
100
AcDbCircle
 10
6.422031984338084
 20
262.284745117388
 30
0.0
 40
0.17425018394
100
AcDbArc
 50
270.0016247592791
 51
274.3296743407207
  0
ARC
  5
1A4CE
330
1F
100
AcDbEntity
  8
0
  6
Continuous
 62
     7
370
     0
100
AcDbCircle
 10
15.92929038938846
 20
257.6473226436481
 30
0.0
 40
0.08817229554
100
AcDbArc
 50
90.02060109529948
 51
98.90837575142574
  0
ARC
  5
1A4CF
330
1F
100
AcDbEntity
  8
0
  6
Continuous
 62
     7
370
     0
100
AcDbCircle
 10
11.73259674460824
 20
299.2820604390681
 30
0.0
 40
2.09233598777
100
AcDbArc
 50
86.16393981849892
 51
93.8360601815011
  0
ARC
  5
1A4D0
330
1F
100
AcDbEntity
  8
0
  6
Continuous
 62
     7
370
     0
100
AcDbCircle
 10
11.7326155492684
 20
299.770494933518
 30
0.0
 40
1.75
100
AcDbArc
 50
55.15009544629411
 51
66.37912979209726
  0
ARC
  5
1A4D1
330
1F
100
AcDbEntity
  8
0
  6
Continuous
 62
     7
370
     0
100
AcDbCircle
 10
11.7326155492684
 20
299.770494933518
 30
0.0
 40
1.75
100
AcDbArc
 50
113.6208702079028
 51
124.8499045537003
  0
ARC
  5
1A4D2
330
1F
100
AcDbEntity
  8
0
  6
Continuous
 62
     7
370
     0
100
AcDbCircle
 10
11.7326155492684
 20
299.770494933518
 30
0.0
 40
1.74439101123
100
AcDbArc
 50
66.45904453311404
 51
85.39664821791108
  0
ARC
  5
1A4D3
330
1F
100
AcDbEntity
  8
0
  6
Continuous
 62
     7
370
     0
100
AcDbCircle
 10
11.7326155492684
 20
299.770494933518
 30
0.0
 40
1.74439101123
100
AcDbArc
 50
94.60335178208892
 51
113.5409554669024
  0
ARC
  5
1A4D4
330
1F
100
AcDbEntity
  8
0
  6
Continuous
 62
     7
370
     0
100
AcDbCircle
 10
15.0121494248584
 20
299.560494933518
 30
0.0
 40
0.7
100
AcDbArc
 50
1.500000000004905
 51
86.27484501821044
  0
ARC
  5
1A4D5
330
1F
100
AcDbEntity
  8
0
  6
Continuous
 62
     7
370
     0
100
AcDbCircle
 10
11.03261554926812
 20
300.7757933966381
 30
0.0
 40
0.5249999999999999
100
AcDbArc
 50
124.8499044945923
 51
180.0
  0
ARC
  5
1A4D6
330
1F
100
AcDbEntity
  8
0
  6
Continuous
 62
     7
370
     0
100
AcDbCircle
 10
12.43261554926821
 20
300.7757933966381
 30
0.0
 40
0.5249999999999999
100
AcDbArc
 50
0.0
 51
55.15009550540832
  0
ARC
  5
1A4D7
330
1F
100
AcDbEntity
  8
0
  6
Continuous
 62
     7
370
     0
100
AcDbCircle
 10
11.38261554926849
 20
295.3604949335181
 30
0.0
 40
0.4899999999999999
100
AcDbArc
 50
180.0
 51
0.0
  0
ARC
  5
1A4D8
330
1F
100
AcDbEntity
  8
0
  6
Continuous
 62
     7
370
     0
100
AcDbCircle
 10
10.15761554926812
 20
295.3604949335181
 30
0.0
 40
0.4899999999999999
100
AcDbArc
 50
180.0
 51
0.0
  0
ARC
  5
1A4D9
330
1F
100
AcDbEntity
  8
0
  6
Continuous
 62
     7
370
     0
100
AcDbCircle
 10
8.932615549268213
 20
295.3604949335181
 30
0.0
 40
0.4899999999999999
100
AcDbArc
 50
180.0
 51
0.0
  0
ARC
  5
1A4DA
330
1F
100
AcDbEntity
  8
0
  6
Continuous
 62
     7
370
     0
100
AcDbCircle
 10
7.707615549268304
 20
295.3604949335181
 30
0.0
 40
0.4899999999999999
100
AcDbArc
 50
180.0
 51
0.0
  0
ARC
  5
1A4DB
330
1F
100
AcDbEntity
  8
0
  6
Continuous
 62
     7
370
     0
100
AcDbCircle
 10
6.482615549268395
 20
295.3604949335181
 30
0.0
 40
0.4899999999999999
100
AcDbArc
 50
180.0
 51
0.0
  0
ARC
  5
1A4DC
330
1F
100
AcDbEntity
  8
0
  6
Continuous
 62
     7
370
     0
100
AcDbCircle
 10
10.15761554926812
 20
295.3604949335181
 30
0.0
 40
0.4899999999999999
100
AcDbArc
 50
0.0
 51
180.0
  0
ARC
  5
1A4DD
330
1F
100
AcDbEntity
  8
0
  6
Continuous
 62
     7
370
     0
100
AcDbCircle
 10
8.932615549268213
 20
295.3604949335181
 30
0.0
 40
0.4899999999999999
100
AcDbArc
 50
0.0
 51
180.0
  0
ARC
  5
1A4DE
330
1F
100
AcDbEntity
  8
0
  6
Continuous
 62
     7
370
     0
100
AcDbCircle
 10
7.707615549268304
 20
295.3604949335181
 30
0.0
 40
0.4899999999999999
100
AcDbArc
 50
0.0
 51
180.0
  0
ARC
  5
1A4DF
330
1F
100
AcDbEntity
  8
0
  6
Continuous
 62
     7
370
     0
100
AcDbCircle
 10
6.482615549268395
 20
295.3604949335181
 30
0.0
 40
0.4899999999999999
100
AcDbArc
 50
0.0
 51
180.0
  0
ARC
  5
1A4E0
330
1F
100
AcDbEntity
  8
0
  6
Continuous
 62
     7
370
     0
100
AcDbCircle
 10
11.38261554926849
 20
295.3604949335181
 30
0.0
 40
0.4899999999999999
100
AcDbArc
 50
0.0
 51
180.0
  0
ARC
  5
1A4E1
330
1F
100
AcDbEntity
  8
0
  6
Continuous
 62
     7
370
     0
100
AcDbCircle
 10
12.16166064441823
 20
296.935494933518
 30
0.0
 40
0.35
100
AcDbArc
 50
1.500000000004418
 51
90.0
  0
ARC
  5
1A4E2
330
1F
100
AcDbEntity
  8
0
  6
Continuous
 62
     7
370
     0
100
AcDbCircle
 10
11.55768235908827
 20
287.417637645558
 30
0.0
 40
0.34994004731
100
AcDbArc
 50
0.0109509186959504
 51
90.01093857549311
  0
SPLINE
  5
1A4E3
330
1F
100
AcDbEntity
  8
0
  6
Continuous
 62
     7
370
     0
100
AcDbSpline
210
0.0
220
0.0
230
1.0
 70
     8
 71
     3
 72
    13
 73
     9
 74
     0
 42
0.000000001
 43
0.0000000001
 40
0.0
 40
0.0
 40
0.0
 40
0.0
 40
0.2494052322
 40
0.4988050309000001
 40
0.6240733021
 40
0.7493651861
 40
0.8746763991
 40
1.0
 40
1.0
 40
1.0
 40
1.0
 10
-8.193922841161928
 20
257.7354949335181
 30
0.0
 10
-8.216424859511697
 20
257.7354949335181
 30
0.0
 10
-8.261825400641463
 20
257.727403184608
 30
0.0
 10
-8.311259630731819
 20
257.697716358138
 30
0.0
 10
-8.3420947327917
 20
257.664466092348
 30
0.0
 10
-8.360072957601822
 20
257.635445079138
 30
0.0
 10
-8.3719936954516
 20
257.6034635839981
 30
0.0
 10
-8.375528128591576
 20
257.5809439351681
 30
0.0
 10
-8.37614476370154
 20
257.5696537258179
 30
0.0
  0
SPLINE
  5
1A4E4
330
1F
100
AcDbEntity
  8
0
  6
Continuous
 62
     7
370
     0
100
AcDbSpline
210
0.0
220
0.0
230
1.0
 70
     8
 71
     3
 72
    13
 73
     9
 74
     0
 42
0.000000001
 43
0.0000000001
 40
0.0
 40
0.0
 40
0.0
 40
0.0
 40
0.1253236009
 40
0.2506348139
 40
0.3759266979
 40
0.5011949690999999
 40
0.7505947678
 40
1.0
 40
1.0
 40
1.0
 40
1.0
 10
19.94137586216821
 20
257.5696537258179
 30
0.0
 10
19.94075922705824
 20
257.5809439351681
 30
0.0
 10
19.93722479391827
 20
257.6034635839981
 30
0.0
 10
19.92530405606849
 20
257.635445079138
 30
0.0
 10
19.90732583125837
 20
257.664466092348
 30
0.0
 10
19.87649072919849
 20
257.697716358138
 30
0.0
 10
19.82705649910813
 20
257.727403184608
 30
0.0
 10
19.78165595797837
 20
257.7354949335181
 30
0.0
 10
19.75915393962814
 20
257.7354949335181
 30
0.0
  0
LINE
  5
1A4E5
330
1F
100
AcDbEntity
  8
0
  6
Continuous
 62
     7
370
     0
100
AcDbLine
 10
-8.37614476370154
 20
257.5696537258179
 30
0.0
 11
-8.376644986921654
 21
257.5604949337281
 31
0.0
  0
LINE
  5
1A4E6
330
1F
100
AcDbEntity
  8
0
  6
Continuous
 62
     7
370
     0
100
AcDbLine
 10
19.94187608538832
 20
257.5604949337281
 30
0.0
 11
19.94137586216821
 21
257.5696537258179
 31
0.0
  0
SPLINE
  5
1A4E7
330
1F
100
AcDbEntity
  8
0
  6
Continuous
 62
     7
370
     0
100
AcDbSpline
210
0.0
220
0.0
230
1.0
 70
     8
 71
     3
 72
    11
 73
     7
 74
     0
 42
0.000000001
 43
0.0000000001
 40
0.0
 40
0.0
 40
0.0
 40
0.0
 40
0.2500660029
 40
0.5001070662
 40
0.7501018288
 40
1.0
 40
1.0
 40
1.0
 40
1.0
 10
10.23765144100808
 20
265.2421710697081
 30
0.0
 10
10.39409809262825
 20
265.2421721768281
 30
0.0
 10
10.70706878996825
 20
265.234186415478
 30
0.0
 10
11.17481459065821
 20
265.1908606367581
 30
0.0
 10
11.63707783671826
 20
265.1068427987281
 30
0.0
 10
11.93733718659823
 20
265.015017707188
 30
0.0
 10
12.0826155492683
 20
264.957251716528
 30
0.0
  0
SPLINE
  5
1A4E8
330
1F
100
AcDbEntity
  8
0
  6
Continuous
 62
     7
370
     0
100
AcDbSpline
210
0.0
220
0.0
230
1.0
 70
     8
 71
     3
 72
    11
 73
     7
 74
     0
 42
0.000000001
 43
0.0000000001
 40
0.0
 40
0.0
 40
0.0
 40
0.0
 40
0.249898176
 40
0.4998929364
 40
0.7499339978
 40
1.0
 40
1.0
 40
1.0
 40
1.0
 10
-0.5173844507316048
 20
264.9572518820781
 30
0.0
 10
-0.3721061565219301
 20
265.0150180422779
 30
0.0
 10
-0.0718466409515699
 20
265.1068426464781
 30
0.0
 10
0.3904165161380675
 20
265.1908607311181
 30
0.0
 10
0.8581623271880758
 20
265.2341864038581
 30
0.0
 10
1.171133010108498
 20
265.242172185438
 30
0.0
 10
1.327579657458138
 20
265.2421710697081
 30
0.0
  0
LINE
  5
1A4E9
330
1F
100
AcDbEntity
  8
0
  6
Continuous
 62
     7
370
     0
100
AcDbLine
 10
-0.8301398959714774
 20
287.835494933518
 30
0.0
 11
-0.8284009000416503
 21
288.0288187973281
 31
0.0
  0
SPLINE
  5
1A4EA
330
1F
100
AcDbEntity
  8
0
  6
Continuous
 62
     7
370
     0
100
AcDbSpline
210
0.0
220
0.0
230
1.0
 70
     8
 71
     3
 72
    18
 73
    14
 74
     0
 42
0.000000001
 43
0.0000000001
 40
0.0
 40
0.0
 40
0.0
 40
0.0
 40
0.0072127065
 40
0.0224148614
 40
0.0465521884
 40
0.0796199804
 40
0.1213898507
 40
0.1715110923
 40
0.2949435337
 40
0.4454336932
 40
0.6174404638000001
 40
0.804605315
 40
1.0
 40
1.0
 40
1.0
 40
1.0
 10
6.42203692563826
 20
262.1104949335181
 30
0.0
 10
6.421624931818407
 20
262.1104949335181
 30
0.0
 10
6.420730427928085
 20
262.1117833829881
 30
0.0
 10
6.420042442028354
 20
262.1141713013182
 30
0.0
 10
6.419124892318088
 20
262.1183014046381
 30
0.0
 10
6.418311358758366
 20
262.123859831778
 30
0.0
 10
6.417478296318315
 20
262.1309636424782
 30
0.0
 10
6.41635573501808
 20
262.143206206378
 30
0.0
 10
6.41514318052814
 20
262.1616825343181
 30
0.0
 10
6.413992409228378
 20
262.1871275810081
 30
0.0
 10
6.413119203188309
 20
262.216228178758
 30
0.0
 10
6.412560338938512
 20
262.247900856858
 30
0.0
 10
6.412414605028154
 20
262.2697529254881
 30
0.0
 10
6.412398502648195
 20
262.2809139675481
 30
0.0
  0
SPLINE
  5
1A4EB
330
1F
100
AcDbEntity
  8
0
  6
Continuous
 62
     7
370
     0
100
AcDbSpline
210
0.0
220
0.0
230
1.0
 70
     8
 71
     3
 72
     9
 73
     5
 74
     0
 42
0.000000001
 43
0.0000000001
 40
0.0
 40
0.0
 40
0.0
 40
0.0
 40
0.4998043051
 40
1.0
 40
1.0
 40
1.0
 40
1.0
 10
-3.373988040221683
 20
289.167028293178
 30
0.0
 10
-3.225294699551704
 20
289.244429849018
 30
0.0
 10
-2.904864858351537
 20
289.3574208796181
 30
0.0
 10
-2.568398440721829
 20
289.3921710673981
 30
0.0
 10
-2.400634504871867
 20
289.392171069708
 30
0.0
  0
LINE
  5
1A4EC
330
1F
100
AcDbEntity
  8
0
  6
Continuous
 62
     7
370
     0
100
AcDbLine
 10
-3.373988040221683
 20
289.167028293178
 30
0.0
 11
-3.359492817381486
 21
290.1525739661081
 31
0.0
  0
SPLINE
  5
1A4ED
330
1F
100
AcDbEntity
  8
0
  6
Continuous
 62
     7
370
     0
100
AcDbSpline
210
0.0
220
0.0
230
1.0
 70
     8
 71
     3
 72
     9
 73
     5
 74
     0
 42
0.000000001
 43
0.0000000001
 40
0.0
 40
0.0
 40
0.0
 40
0.0
 40
0.5001956925
 40
1.0
 40
1.0
 40
1.0
 40
1.0
 10
13.96586560333808
 20
289.392171069708
 30
0.0
 10
14.13362967666817
 20
289.3921710664881
 30
0.0
 10
14.4700963888582
 20
289.357420848258
 30
0.0
 10
14.79052642185807
 20
289.2444295437481
 30
0.0
 10
14.93921988831844
 20
289.1670279285482
 30
0.0
  0
SPLINE
  5
1A4EE
330
1F
100
AcDbEntity
  8
0
  6
Continuous
 62
     7
370
     0
100
AcDbSpline
210
0.0
220
0.0
230
1.0
 70
     8
 71
     3
 72
    15
 73
    11
 74
     0
 42
0.000000001
 43
0.0000000001
 40
0.0
 40
0.0
 40
0.0
 40
0.0
 40
0.1250703379
 40
0.2500495445
 40
0.3749587696
 40
0.499840657
 40
0.6247482422
 40
0.7497300535
 40
0.8748148374
 40
1.0
 40
1.0
 40
1.0
 40
1.0
 10
5.110663220178232
 20
261.769656865388
 30
0.0
 10
5.076466240508218
 20
261.769656958348
 30
0.0
 10
5.007927066938102
 20
261.7760088861681
 30
0.0
 10
4.908809362378271
 20
261.804358349548
 30
0.0
 10
4.816727139558317
 20
261.8507076299379
 30
0.0
 10
4.735090807368216
 20
261.913643612558
 30
0.0
 10
4.667036187028408
 20
261.991117027668
 30
0.0
 10
4.615353560858331
 20
262.0804464858579
 30
0.0
 10
4.582289400008086
 20
262.178263487378
 30
0.0
 10
4.573663806318201
 20
262.2466963138679
 30
0.0
 10
4.572807154858403
 20
262.2809139675481
 30
0.0
  0
SPLINE
  5
1A4EF
330
1F
100
AcDbEntity
  8
0
  6
Continuous
 62
     7
370
     0
100
AcDbSpline
210
0.0
220
0.0
230
1.0
 70
     8
 71
     3
 72
    21
 73
    17
 74
     0
 42
0.000000001
 43
0.0000000001
 40
0.0
 40
0.0
 40
0.0
 40
0.0
 40
0.0010658443
 40
0.0040625951
 40
0.0090352477
 40
0.015989961
 40
0.0358480696
 40
0.063626919
 40
0.0993064249
 40
0.142856521
 40
0.1942422281
 40
0.2534193189
 40
0.3949442957
 40
0.5669540273
 40
0.7688669812000001
 40
1.0
 40
1.0
 40
1.0
 40
1.0
 10
16.79869039022842
 20
258.076333004238
 30
0.0
 10
16.79869107272825
 20
258.076306621308
 30
0.0
 10
16.79854118375815
 20
258.0763001351779
 30
0.0
 10
16.79836640929816
 20
258.0762621145381
 30
0.0
 10
16.79797088815813
 20
258.0762453434479
 30
0.0
 10
16.79720085854851
 20
258.076204916908
 30
0.0
 10
16.79583739378823
 20
258.0761731560881
 30
0.0
 10
16.79378046107841
 20
258.076137812878
 30
0.0
 10
16.79112862426846
 20
258.076112322098
 30
0.0
 10
16.78789527841818
 20
258.0760931938981
 30
0.0
 10
16.78407896059853
 20
258.0760820955379
 30
0.0
 10
16.77783703427813
 20
258.0760772431381
 30
0.0
 10
16.76860809987839
 20
258.0760939275681
 30
0.0
 10
16.75584501870808
 20
258.076143354288
 30
0.0
 10
16.74086319793842
 20
258.0762238498781
 30
0.0
 10
16.73014060332807
 20
258.076293465788
 30
0.0
 10
16.7244175643983
 20
258.076333001648
 30
0.0
  0
SPLINE
  5
1A4F0
330
1F
100
AcDbEntity
  8
0
  6
Continuous
 62
     7
370
     0
100
AcDbSpline
210
0.0
220
0.0
230
1.0
 70
     8
 71
     3
 72
    19
 73
    15
 74
     0
 42
0.000000001
 43
0.0000000001
 40
0.0
 40
0.0
 40
0.0
 40
0.0
 40
0.230608357
 40
0.4322513858
 40
0.6041671232
 40
0.7457243031999999
 40
0.8049492568000001
 40
0.8563959114
 40
0.900019272
 40
0.9357797497
 40
0.9636485506999999
 40
0.9836092951000001
 40
0.9956697013
 40
1.0
 40
1.0
 40
1.0
 40
1.0
 10
15.6299158291482
 20
299.578818797748
 30
0.0
 10
15.63622109125809
 20
299.5789064579781
 30
0.0
 10
15.64803976819812
 20
299.579060861528
 30
0.0
 10
15.66455956365835
 20
299.579239383718
 30
0.0
 10
15.67864449451836
 20
299.5793489304281
 30
0.0
 10
15.68883634765835
 20
299.579386059268
 30
0.0
 10
15.69573240388818
 20
299.579375048688
 30
0.0
 10
15.69995386252831
 20
299.579351002288
 30
0.0
 10
15.70352411312806
 20
299.5793068646281
 30
0.0
 10
15.70647583917853
 20
299.5792550483179
 30
0.0
 10
15.70871034438833
 20
299.5791644180581
 30
0.0
 10
15.71045967532846
 20
299.5791151693479
 30
0.0
 10
15.71124724700812
 20
299.5789536444181
 30
0.0
 10
15.71190645275838
 20
299.5789371666281
 30
0.0
 10
15.71190955235816
 20
299.5788187973282
 30
0.0
  0
SPLINE
  5
1A4F1
330
1F
100
AcDbEntity
  8
0
  6
Continuous
 62
     7
370
     0
100
AcDbSpline
210
0.0
220
0.0
230
1.0
 70
     8
 71
     3
 72
    15
 73
    11
 74
     0
 42
0.000000001
 43
0.0000000001
 40
0.0
 40
0.0
 40
0.0
 40
0.0
 40
0.1251851626
 40
0.2502699465
 40
0.3752517578
 40
0.500159343
 40
0.6250412304
 40
0.7499504555
 40
0.8749296620999999
 40
1.0
 40
1.0
 40
1.0
 40
1.0
 10
6.992423943678297
 20
262.2809139675481
 30
0.0
 10
6.991567291938374
 20
262.2466963138679
 30
0.0
 10
6.982941698528158
 20
262.178263487378
 30
0.0
 10
6.949877537608337
 20
262.0804464858579
 30
0.0
 10
6.89819491143826
 20
261.991117027668
 30
0.0
 10
6.830140291168483
 20
261.913643612558
 30
0.0
 10
6.748503958978382
 20
261.8507076299379
 30
0.0
 10
6.656421736088397
 20
261.804358349478
 30
0.0
 10
6.557304031598143
 20
261.7760088861681
 30
0.0
 10
6.488764857958451
 20
261.7696569582781
 30
0.0
 10
6.454567878288437
 20
261.769656865388
 30
0.0
  0
LINE
  5
1A4F2
330
1F
100
AcDbEntity
  8
0
  6
Continuous
 62
     7
370
     0
100
AcDbLine
 10
12.39537100234802
 20
287.835494933518
 30
0.0
 11
12.39363200697844
 21
288.0288187973281
 31
0.0
  0
SPLINE
  5
1A4F3
330
1F
100
AcDbEntity
  8
0
  6
Continuous
 62
     7
370
     0
100
AcDbSpline
210
0.0
220
0.0
230
1.0
 70
     8
 71
     3
 72
     9
 73
     5
 74
     0
 42
0.000000001
 43
0.0000000001
 40
0.0
 40
0.0
 40
0.0
 40
0.0
 40
0.5286634068
 40
1.0
 40
1.0
 40
1.0
 40
1.0
 10
12.39363200697844
 20
288.0288187973281
 30
0.0
 10
12.4694151586883
 20
288.029500107748
 30
0.0
 10
12.61276952333819
 20
288.0301912101181
 30
0.0
 10
12.75612621583841
 20
288.0295886532681
 30
0.0
 10
12.82368999435821
 20
288.028818796138
 30
0.0
  0
LINE
  5
1A4F4
330
1F
100
AcDbEntity
  8
0
  6
Continuous
 62
     7
370
     0
100
AcDbLine
 10
12.8236899920481
 20
288.0288187959279
 30
0.0
 11
12.8253397613581
 21
287.835494933448
 31
0.0
  0
SPLINE
  5
1A4F5
330
1F
100
AcDbEntity
  8
0
  6
Continuous
 62
     7
370
     0
100
AcDbSpline
210
0.0
220
0.0
230
1.0
 70
     8
 71
     3
 72
    12
 73
     8
 74
     0
 42
0.000000001
 43
0.0000000001
 40
0.0
 40
0.0
 40
0.0
 40
0.0
 40
0.1048355668
 40
0.2257489507
 40
0.4961439941
 40
0.7685523601
 40
1.0
 40
1.0
 40
1.0
 40
1.0
 10
16.79303854710825
 20
257.5696537258179
 30
0.0
 10
16.78426976827823
 20
257.570367845518
 30
0.0
 10
16.7653567366584
 20
257.571520671318
 30
0.0
 10
16.72375385862833
 20
257.573224992188
 30
0.0
 10
16.66804888342822
 20
257.5739795520781
 30
0.0
 10
16.6030718391281
 20
257.5731032578481
 30
0.0
 10
16.5608239008785
 20
257.5710580161881
 30
0.0
 10
16.54145162767836
 20
257.5696537258179
 30
0.0
  0
LINE
  5
1A4F6
330
1F
100
AcDbEntity
  8
0
  6
Continuous
 62
     7
370
     0
100
AcDbLine
 10
7.032429724038231
 20
263.8788171537281
 30
0.0
 11
6.992423943678297
 21
262.2809139675481
 31
0.0
  0
SPLINE
  5
1A4F7
330
1F
100
AcDbEntity
  8
0
  6
Continuous
 62
     7
370
     0
100
AcDbSpline
210
0.0
220
0.0
230
1.0
 70
     8
 71
     3
 72
    21
 73
    17
 74
     0
 42
0.000000001
 43
0.0000000001
 40
0.0
 40
0.0
 40
0.0
 40
0.0
 40
0.2311330192
 40
0.4330459733
 40
0.605055705
 40
0.7465806818
 40
0.8057577726
 40
0.8571434796999999
 40
0.9006935757
 40
0.9363730816
 40
0.9641519309000001
 40
0.9840100393000001
 40
0.9909647525
 40
0.9959374048999999
 40
0.9989341556
 40
1.0
 40
1.0
 40
1.0
 40
1.0
 10
-5.15918646572154
 20
258.076333001648
 30
0.0
 10
-5.164909504651767
 20
258.076293465788
 30
0.0
 10
-5.175632099331686
 20
258.0762238498781
 30
0.0
 10
-5.190613920101804
 20
258.076143354288
 30
0.0
 10
-5.203377001411717
 20
258.0760939275681
 30
0.0
 10
-5.212605935811915
 20
258.0760772431381
 30
0.0
 10
-5.218847862131859
 20
258.0760820955379
 30
0.0
 10
-5.222664179951515
 20
258.0760931938981
 30
0.0
 10
-5.225897525801791
 20
258.076112322098
 30
0.0
 10
-5.228549362681768
 20
258.076137812878
 30
0.0
 10
-5.230606295321557
 20
258.0761731560881
 30
0.0
 10
-5.231969760081846
 20
258.076204916908
 30
0.0
 10
-5.232739789691912
 20
258.0762453434479
 30
0.0
 10
-5.233135310831493
 20
258.0762621145381
 30
0.0
 10
-5.23331008529194
 20
258.0763001351779
 30
0.0
 10
-5.233459974261585
 20
258.076306621308
 30
0.0
 10
-5.233459291761754
 20
258.076333004238
 30
0.0
  0
SPLINE
  5
1A4F8
330
1F
100
AcDbEntity
  8
0
  6
Continuous
 62
     7
370
     0
100
AcDbSpline
210
0.0
220
0.0
230
1.0
 70
     8
 71
     3
 72
    19
 73
    15
 74
     0
 42
0.000000001
 43
0.0000000001
 40
0.0
 40
0.0
 40
0.0
 40
0.0
 40
0.0043302987
 40
0.0163907049
 40
0.0363514493
 40
0.0642202503
 40
0.099980728
 40
0.1436040886
 40
0.1950507432
 40
0.2542756968
 40
0.3958328768
 40
0.5677486143
 40
0.769391643
 40
1.0
 40
1.0
 40
1.0
 40
1.0
 10
-4.146678453891944
 20
299.5788187973282
 30
0.0
 10
-4.146675354221678
 20
299.5789371666281
 30
0.0
 10
-4.146016148541911
 20
299.5789536444181
 30
0.0
 10
-4.14522857686179
 20
299.5791151693479
 30
0.0
 10
-4.143479245921661
 20
299.5791644180581
 30
0.0
 10
-4.141244740711862
 20
299.5792550483179
 30
0.0
 10
-4.138293014591817
 20
299.5793068646281
 30
0.0
 10
-4.134722764061642
 20
299.579351002288
 30
0.0
 10
-4.130501305421511
 20
299.579375048688
 30
0.0
 10
-4.123605249191677
 20
299.579386059268
 30
0.0
 10
-4.113413395981659
 20
299.5793489304281
 30
0.0
 10
-4.099328465191682
 20
299.579239383718
 30
0.0
 10
-4.082808669731456
 20
299.579060861528
 30
0.0
 10
-4.070989992791873
 20
299.578906457768
 30
0.0
 10
-4.064684730681527
 20
299.5788187975379
 30
0.0
  0
LINE
  5
1A4F9
330
1F
100
AcDbEntity
  8
0
  6
Continuous
 62
     7
370
     0
100
AcDbLine
 10
-1.26010865764183
 20
287.835494933448
 30
0.0
 11
-1.258458886161769
 21
288.0288187963481
 31
0.0
  0
SPLINE
  5
1A4FA
330
1F
100
AcDbEntity
  8
0
  6
Continuous
 62
     7
370
     0
100
AcDbSpline
210
0.0
220
0.0
230
1.0
 70
     8
 71
     3
 72
     9
 73
     5
 74
     0
 42
0.000000001
 43
0.0000000001
 40
0.0
 40
0.0
 40
0.0
 40
0.0
 40
0.4713365933
 40
1.0
 40
1.0
 40
1.0
 40
1.0
 10
-1.258458887071718
 20
288.028818795578
 30
0.0
 10
-1.190895108551921
 20
288.029588652568
 30
0.0
 10
-1.047538416191763
 20
288.0301912116581
 30
0.0
 10
-0.9041840516814759
 20
288.0295001079581
 30
0.0
 10
-0.8284009000416503
 20
288.0288187973281
 30
0.0
  0
SPLINE
  5
1A4FB
330
1F
100
AcDbEntity
  8
0
  6
Continuous
 62
     7
370
     0
100
AcDbSpline
210
0.0
220
0.0
230
1.0
 70
     8
 71
     3
 72
    13
 73
     9
 74
     0
 42
0.000000001
 43
0.0000000001
 40
0.0
 40
0.0
 40
0.0
 40
0.0
 40
0.129067709
 40
0.2574416777
 40
0.3846848957
 40
0.51062005
 40
0.7582157967
 40
1.0
 40
1.0
 40
1.0
 40
1.0
 10
14.93921989923829
 20
289.167027182768
 30
0.0
 10
14.97794795790842
 20
289.1264612613579
 30
0.0
 10
15.05074979064839
 20
289.0412529802981
 30
0.0
 10
15.1487568075182
 20
288.9056888162482
 30
0.0
 10
15.23693834459809
 20
288.7651588598981
 30
0.0
 10
15.34201930288837
 20
288.574505642388
 30
0.0
 10
15.45310013351818
 20
288.330816170768
 30
0.0
 10
15.52303476870802
 20
288.1296159834681
 30
0.0
 10
15.5526705912881
 20
288.0288187994281
 30
0.0
  0
LINE
  5
1A4FC
330
1F
100
AcDbEntity
  8
0
  6
Continuous
 62
     7
370
     0
100
AcDbLine
 10
14.93921988831844
 20
289.1670279285482
 30
0.0
 11
14.92472454612844
 21
290.1525744932081
 31
0.0
  0
SPLINE
  5
1A4FD
330
1F
100
AcDbEntity
  8
0
  6
Continuous
 62
     7
370
     0
100
AcDbSpline
210
0.0
220
0.0
230
1.0
 70
     8
 71
     3
 72
     9
 73
     5
 74
     0
 42
0.000000001
 43
0.0000000001
 40
0.0
 40
0.0
 40
0.0
 40
0.0
 40
0.5701687289999999
 40
1.0
 40
1.0
 40
1.0
 40
1.0
 10
15.05779619504811
 20
299.581445085468
 30
0.0
 10
15.12045440583834
 20
299.5816865261081
 30
0.0
 10
15.23034918670837
 20
299.5816157113082
 30
0.0
 10
15.34024544758822
 20
299.5802050335781
 30
0.0
 10
15.38746139755822
 20
299.578818799778
 30
0.0
  0
SPLINE
  5
1A4FE
330
1F
100
AcDbEntity
  8
0
  6
Continuous
 62
     7
370
     0
100
AcDbSpline
210
0.0
220
0.0
230
1.0
 70
     8
 71
     3
 72
     8
 73
     4
 74
     0
 42
0.000000001
 43
0.0000000001
 40
0.0
 40
0.0
 40
0.0
 40
0.0
 40
1.0
 40
1.0
 40
1.0
 40
1.0
 10
15.38746139391842
 20
299.578818799708
 30
0.0
 10
15.44305269807828
 20
295.7288262950281
 30
0.0
 10
15.49811228545841
 20
291.878826080128
 30
0.0
 10
15.55267052282816
 20
288.0288187973281
 30
0.0
  0
SPLINE
  5
1A4FF
330
1F
100
AcDbEntity
  8
0
  6
Continuous
 62
     7
370
     0
100
AcDbSpline
210
0.0
220
0.0
230
1.0
 70
     8
 71
     3
 72
    13
 73
     9
 74
     0
 42
0.000000001
 43
0.0000000001
 40
0.0
 40
0.0
 40
0.0
 40
0.0
 40
0.2417838453
 40
0.4893794684
 40
0.6153146564
 40
0.7425579696
 40
0.8709320933
 40
1.0
 40
1.0
 40
1.0
 40
1.0
 10
-3.987452204681539
 20
288.0287755568579
 30
0.0
 10
-3.957816226981684
 20
288.1295764095981
 30
0.0
 10
-3.887882354721476
 20
288.330784609728
 30
0.0
 10
-3.776799436761756
 20
288.574483409408
 30
0.0
 10
-3.6717160564016
 20
288.765144088638
 30
0.0
 10
-3.583532051821656
 20
288.9056795824081
 30
0.0
 10
-3.485521964121652
 20
289.041249086198
 30
0.0
 10
-3.41271750078149
 20
289.126460549318
 30
0.0
 10
-3.37398804449176
 20
289.167027999948
 30
0.0
  0
SPLINE
  5
1A500
330
1F
100
AcDbEntity
  8
0
  6
Continuous
 62
     7
370
     0
100
AcDbSpline
210
0.0
220
0.0
230
1.0
 70
     8
 71
     3
 72
     8
 73
     4
 74
     0
 42
0.000000001
 43
0.0000000001
 40
0.0
 40
0.0
 40
0.0
 40
0.0
 40
1.0
 40
1.0
 40
1.0
 40
1.0
 10
-3.987451537721789
 20
288.0288187973281
 30
0.0
 10
-3.932893254221561
 20
291.8788261372481
 30
0.0
 10
-3.877821599611615
 20
295.7288262372081
 30
0.0
 10
-3.822230295451753
 20
299.578818799638
 30
0.0
  0
SPLINE
  5
1A501
330
1F
100
AcDbEntity
  8
0
  6
Continuous
 62
     7
370
     0
100
AcDbSpline
210
0.0
220
0.0
230
1.0
 70
     8
 71
     3
 72
     9
 73
     5
 74
     0
 42
0.000000001
 43
0.0000000001
 40
0.0
 40
0.0
 40
0.0
 40
0.0
 40
0.4298312709000001
 40
1.0
 40
1.0
 40
1.0
 40
1.0
 10
-3.822230299091551
 20
299.5788188020881
 30
0.0
 10
-3.775014349121555
 20
299.580205035818
 30
0.0
 10
-3.665118088241705
 20
299.5816157095582
 30
0.0
 10
-3.555223307371669
 20
299.5816865260381
 30
0.0
 10
-3.492565096581892
 20
299.5814450853279
 30
0.0
  0
SPLINE
  5
1A502
330
1F
100
AcDbEntity
  8
0
  6
Continuous
 62
     7
370
     0
100
AcDbSpline
210
0.0
220
0.0
230
1.0
 70
     8
 71
     3
 72
    11
 73
     7
 74
     0
 42
0.000000001
 43
0.0000000001
 40
0.0
 40
0.0
 40
0.0
 40
0.0
 40
0.2372967507
 40
0.484228293
 40
0.7395871248
 40
1.0
 40
1.0
 40
1.0
 40
1.0
 10
-3.492444701201656
 20
300.1847179782081
 30
0.0
 10
-3.541363636371806
 20
300.1558882453882
 30
0.0
 10
-3.632816663911761
 20
300.0818216827481
 30
0.0
 10
-3.736761778821709
 20
299.936272519198
 30
0.0
 10
-3.803789409561794
 20
299.7646722574279
 30
0.0
 10
-3.820825582771612
 20
299.6411165475982
 30
0.0
 10
-3.822230299091551
 20
299.5788188020881
 30
0.0
  0
SPLINE
  5
1A503
330
1F
100
AcDbEntity
  8
0
  6
Continuous
 62
     7
370
     0
100
AcDbSpline
210
0.0
220
0.0
230
1.0
 70
     8
 71
     3
 72
    15
 73
    11
 74
     0
 42
0.000000001
 43
0.0000000001
 40
0.0
 40
0.0
 40
0.0
 40
0.0
 40
0.1173133564
 40
0.236113467
 40
0.3571937237
 40
0.4810100959
 40
0.6076374776
 40
0.7367837355
 40
0.8678469904
 40
1.0
 40
1.0
 40
1.0
 40
1.0
 10
-3.494597849401906
 20
300.258408361618
 30
0.0
 10
-3.532334753431677
 20
300.2551007276379
 30
0.0
 10
-3.607813247361626
 20
300.240457573238
 30
0.0
 10
-3.714895529101703
 20
300.1956326809581
 30
0.0
 10
-3.812831843661932
 20
300.129477065208
 30
0.0
 10
-3.898307309821938
 20
300.044324887328
 30
0.0
 10
-3.968552653101504
 20
299.9430996614082
 30
0.0
 10
-4.02129784504168
 20
299.829198955468
 30
0.0
 10
-4.054851843631603
 20
299.7064575383481
 30
0.0
 10
-4.063698485701842
 20
299.6214808459881
 30
0.0
 10
-4.064684730401858
 20
299.5788187975379
 30
0.0
  0
SPLINE
  5
1A504
330
1F
100
AcDbEntity
  8
0
  6
Continuous
 62
     7
370
     0
100
AcDbSpline
210
0.0
220
0.0
230
1.0
 70
     8
 71
     3
 72
     9
 73
     5
 74
     0
 42
0.000000001
 43
0.0000000001
 40
0.0
 40
0.0
 40
0.0
 40
0.0
 40
0.4999727722
 40
1.0
 40
1.0
 40
1.0
 40
1.0
 10
-0.8691862412118994
 20
264.2079744653581
 30
0.0
 10
-0.8514040838116657
 20
264.2262175511981
 30
0.0
 10
-0.8143610797018468
 20
264.2612953656482
 30
0.0
 10
-0.7747697294415943
 20
264.2934416918881
 30
0.0
 10
-0.7545082500918383
 20
264.308889317718
 30
0.0
  0
SPLINE
  5
1A505
330
1F
100
AcDbEntity
  8
0
  6
Continuous
 62
     7
370
     0
100
AcDbSpline
210
0.0
220
0.0
230
1.0
 70
     8
 71
     3
 72
     9
 73
     5
 74
     0
 42
0.000000001
 43
0.0000000001
 40
0.0
 40
0.0
 40
0.0
 40
0.0
 40
0.4999727556
 40
1.0
 40
1.0
 40
1.0
 40
1.0
 10
12.4344193733883
 20
264.2079764760381
 30
0.0
 10
12.41663580107807
 20
264.2262182089881
 30
0.0
 10
12.37959278954813
 20
264.2612959391581
 30
0.0
 10
12.34000086528849
 20
264.293441671098
 30
0.0
 10
12.31973936325821
 20
264.3088893011279
 30
0.0
  0
LINE
  5
1A506
330
1F
100
AcDbEntity
  8
0
  6
Continuous
 62
     7
370
     0
100
AcDbLine
 10
-1.020106882131493
 20
263.9863874863181
 30
0.0
 11
-1.020974803521675
 21
263.878818797328
 31
0.0
  0
LINE
  5
1A507
330
1F
100
AcDbEntity
  8
0
  6
Continuous
 62
     7
370
     0
100
AcDbLine
 10
12.58620590198834
 20
263.878818797328
 30
0.0
 11
12.58533527320842
 21
263.9867230207481
 31
0.0
  0
SPLINE
  5
1A508
330
1F
100
AcDbEntity
  8
0
  6
Continuous
 62
     7
370
     0
100
AcDbSpline
210
0.0
220
0.0
230
1.0
 70
     8
 71
     3
 72
     8
 73
     4
 74
     0
 42
0.000000001
 43
0.0000000001
 40
0.0
 40
0.0
 40
0.0
 40
0.0
 40
1.0
 40
1.0
 40
1.0
 40
1.0
 10
-0.8407055820815899
 20
264.3340033952379
 30
0.0
 10
-0.7979719552717128
 20
272.167841023708
 30
0.0
 10
-0.7540018228418361
 20
280.001672028568
 30
0.0
 10
-0.7086493553319073
 20
287.835494933518
 30
0.0
  0
SPLINE
  5
1A509
330
1F
100
AcDbEntity
  8
0
  6
Continuous
 62
     7
370
     0
100
AcDbSpline
210
0.0
220
0.0
230
1.0
 70
     8
 71
     3
 72
     8
 73
     4
 74
     0
 42
0.000000001
 43
0.0000000001
 40
0.0
 40
0.0
 40
0.0
 40
0.0
 40
1.0
 40
1.0
 40
1.0
 40
1.0
 10
12.27388045379812
 20
287.835494933518
 30
0.0
 10
12.31923291164831
 20
280.0016720557281
 30
0.0
 10
12.36320304925821
 20
272.1678410780981
 30
0.0
 10
12.40593668012807
 20
264.334003476858
 30
0.0
  0
SPLINE
  5
1A50A
330
1F
100
AcDbEntity
  8
0
  6
Continuous
 62
     7
370
     0
100
AcDbSpline
210
0.0
220
0.0
230
1.0
 70
     8
 71
     3
 72
    24
 73
    20
 74
     0
 42
0.000000001
 43
0.0000000001
 40
0.0
 40
0.0
 40
0.0
 40
0.0
 40
0.1258659463
 40
0.2528981171
 40
0.3807691238000001
 40
0.444870539
 40
0.5089894091
 40
0.5730488998
 40
0.636962141
 40
0.7006191636
 40
0.7638515446999999
 40
0.826325442
 40
0.8570694187000001
 40
0.8872272998
 40
0.9164389939
 40
0.9443862391
 40
0.9581337003
 40
0.9719195376
 40
1.0
 40
1.0
 40
1.0
 40
1.0
 10
-0.8407055820815899
 20
264.334003395798
 30
0.0
 10
-0.8518881175017654
 20
264.316866735488
 30
0.0
 10
-0.875141828891536
 20
264.2829440737781
 30
0.0
 10
-0.9118167594218889
 20
264.2330671844082
 30
0.0
 10
-0.9434219974217726
 20
264.1919452419382
 30
0.0
 10
-0.9691008517414943
 20
264.159173762918
 30
0.0
 10
-0.9885110594817874
 20
264.134670314088
 30
0.0
 10
-1.008035513731464
 20
264.1102968070981
 30
0.0
 10
-1.027700529731554
 20
264.086133510948
 30
0.0
 10
-1.047603982811687
 20
264.0623376473179
 30
0.0
 10
-1.067963787171628
 20
264.039244399728
 30
0.0
 10
-1.085754144511519
 20
264.021019452008
 30
0.0
 10
-1.100993156201547
 20
264.0079494155181
 30
0.0
 10
-1.113023446151509
 20
263.9995269836679
 30
0.0
 10
-1.125905294081711
 20
263.993326333828
 30
0.0
 10
-1.13763469904179
 20
263.9916336645981
 30
0.0
 10
-1.146554214891601
 20
263.9934391582181
 30
0.0
 10
-1.154861396361774
 20
263.997156527608
 30
0.0
 10
-1.160157924451504
 20
264.0016522566081
 30
0.0
 10
-1.163291169111652
 20
264.004972400428
 30
0.0
  0
SPLINE
  5
1A50B
330
1F
100
AcDbEntity
  8
0
  6
Continuous
 62
     7
370
     0
100
AcDbSpline
210
0.0
220
0.0
230
1.0
 70
     8
 71
     3
 72
    24
 73
    20
 74
     0
 42
0.000000001
 43
0.0000000001
 40
0.0
 40
0.0
 40
0.0
 40
0.0
 40
0.0280680613
 40
0.0418504912
 40
0.0555975839
 40
0.0835471325
 40
0.1127559012
 40
0.1429097664
 40
0.1736506511
 40
0.2361216662
 40
0.2993545389
 40
0.3630136865
 40
0.4269295709000001
 40
0.4909917577
 40
0.5551131338
 40
0.6192168054
 40
0.7470921015
 40
0.8741290756
 40
1.0
 40
1.0
 40
1.0
 40
1.0
 10
12.7285205590184
 20
264.0053027773982
 30
0.0
 10
12.72538183615834
 20
264.0019945900681
 30
0.0
 10
12.72007666873842
 20
263.997519849728
 30
0.0
 10
12.71176767181814
 20
263.993828359688
 30
0.0
 10
12.70285229254851
 20
263.9920382572481
 30
0.0
 10
12.6911330836484
 20
263.9937204492981
 30
0.0
 10
12.67824714442813
 20
263.9998891748681
 30
0.0
 10
12.66620791274827
 20
264.0082798718682
 30
0.0
 10
12.65095453264812
 20
264.021311136758
 30
0.0
 10
12.63314748240837
 20
264.0394963790779
 30
0.0
 10
12.61277394250838
 20
264.062551436278
 30
0.0
 10
12.59286240694846
 20
264.0863159821882
 30
0.0
 10
12.57319414910817
 20
264.1104526613981
 30
0.0
 10
12.55367075381819
 20
264.1348032010382
 30
0.0
 10
12.53426485576811
 20
264.1592862421381
 30
0.0
 10
12.50859508751828
 20
264.1920330616281
 30
0.0
 10
12.4770055131381
 20
264.233127792648
 30
0.0
 10
12.44035215030826
 20
264.2829745153781
 30
0.0
 10
12.41711258962832
 20
264.3168770739281
 30
0.0
 10
12.40593668012807
 20
264.334003477348
 30
0.0
  0
SPLINE
  5
1A50C
330
1F
100
AcDbEntity
  8
0
  6
Continuous
 62
     7
370
     0
100
AcDbSpline
210
0.0
220
0.0
230
1.0
 70
     8
 71
     3
 72
    15
 73
    11
 74
     0
 42
0.000000001
 43
0.0000000001
 40
0.0
 40
0.0
 40
0.0
 40
0.0
 40
0.1173138505
 40
0.2361021265
 40
0.3571670073
 40
0.4809717352
 40
0.6075958119
 40
0.7367486108
 40
0.8678269153
 40
1.0
 40
1.0
 40
1.0
 40
1.0
 10
15.05762154826844
 20
300.2585973329881
 30
0.0
 10
15.09545762976823
 20
300.2554354824781
 30
0.0
 10
15.17116281078834
 20
300.2410455679181
 30
0.0
 10
15.27862774850846
 20
300.196462911058
 30
0.0
 10
15.37695175841836
 20
300.130415869228
 30
0.0
 10
15.46278997339832
 20
300.0452472816681
 30
0.0
 10
15.53334773710831
 20
299.9438966227481
 30
0.0
 10
15.58633411992842
 20
299.8297827266981
 30
0.0
 10
15.62004238059817
 20
299.706766336908
 30
0.0
 10
15.62892718953808
 20
299.621584443958
 30
0.0
 10
15.6299158291482
 20
299.578818797748
 30
0.0
  0
SPLINE
  5
1A50D
330
1F
100
AcDbEntity
  8
0
  6
Continuous
 62
     7
370
     0
100
AcDbSpline
210
0.0
220
0.0
230
1.0
 70
     8
 71
     3
 72
    11
 73
     7
 74
     0
 42
0.000000001
 43
0.0000000001
 40
0.0
 40
0.0
 40
0.0
 40
0.0
 40
0.2372967508
 40
0.4842282932
 40
0.7395871248999999
 40
1.0
 40
1.0
 40
1.0
 40
1.0
 10
15.05767579966832
 20
300.1847179763882
 30
0.0
 10
15.10659473462838
 20
300.155888243288
 30
0.0
 10
15.19804776160809
 20
300.081821680298
 30
0.0
 10
15.30199287567812
 20
299.9362725164681
 30
0.0
 10
15.36902050571835
 20
299.7646722547682
 30
0.0
 10
15.3860566784384
 20
299.6411165450779
 30
0.0
 10
15.38746139454825
 20
299.578818799708
 30
0.0
  0
SPLINE
  5
1A50E
330
1F
100
AcDbEntity
  8
0
  6
Continuous
 62
     7
370
     0
100
AcDbSpline
210
0.0
220
0.0
230
1.0
 70
     8
 71
     3
 72
    12
 73
     8
 74
     0
 42
0.000000001
 43
0.0000000001
 40
0.0
 40
0.0
 40
0.0
 40
0.0
 40
0.1458735884
 40
0.2855601715
 40
0.5467423022
 40
0.7847124120000001
 40
1.0
 40
1.0
 40
1.0
 40
1.0
 10
14.63658390837836
 20
288.597923655258
 30
0.0
 10
14.68571963144823
 20
288.5788000109981
 30
0.0
 10
14.7807751376582
 20
288.5383952249681
 30
0.0
 10
14.95840616353835
 20
288.4516556726981
 30
0.0
 10
15.15879771587843
 20
288.336245301608
 30
0.0
 10
15.37084710629833
 20
288.1883606794779
 30
0.0
 10
15.49623634418831
 20
288.0823955533581
 30
0.0
 10
15.55267052282816
 20
288.0288187973281
 30
0.0
  0
SPLINE
  5
1A50F
330
1F
100
AcDbEntity
  8
0
  6
Continuous
 62
     7
370
     0
100
AcDbSpline
210
0.0
220
0.0
230
1.0
 70
     8
 71
     3
 72
    16
 73
    12
 74
     0
 42
0.000000001
 43
0.0000000001
 40
0.0
 40
0.0
 40
0.0
 40
0.0
 40
0.047219419
 40
0.0951492904
 40
0.1954231126
 40
0.3050138253
 40
0.4257506578
 40
0.55757842
 40
0.6990035568999999
 40
0.8475255814
 40
1.0
 40
1.0
 40
1.0
 40
1.0
 10
12.39363200431817
 20
288.710494933518
 30
0.0
 10
12.40749705439848
 20
288.710494933518
 30
0.0
 10
12.43548615875816
 20
288.7082762949281
 30
0.0
 10
12.49148805820833
 20
288.6949019876181
 30
0.0
 10
12.56023431865842
 20
288.660686336078
 30
0.0
 10
12.63397337054821
 20
288.5962933754882
 30
0.0
 10
12.69829561748848
 20
288.510816051248
 30
0.0
 10
12.75120289260813
 20
288.4073981552681
 30
0.0
 10
12.79101049610845
 20
288.289707897058
 30
0.0
 10
12.81635006791848
 20
288.1619653533882
 30
0.0
 10
12.8229695666083
 20
288.073584101968
 30
0.0
 10
12.82368998903812
 20
288.0288187959279
 30
0.0
  0
SPLINE
  5
1A510
330
1F
100
AcDbEntity
  8
0
  6
Continuous
 62
     7
370
     0
100
AcDbSpline
210
0.0
220
0.0
230
1.0
 70
     8
 71
     3
 72
    10
 73
     6
 74
     0
 42
0.000000001
 43
0.0000000001
 40
0.0
 40
0.0
 40
0.0
 40
0.0
 40
0.4981400664
 40
0.7484969334999999
 40
1.0
 40
1.0
 40
1.0
 40
1.0
 10
13.96586578400829
 20
288.710494933518
 30
0.0
 10
14.07934454618826
 20
288.7104949377181
 30
0.0
 10
14.25039247274808
 20
288.6987505141881
 30
0.0
 10
14.47387369714816
 20
288.653277469368
 30
0.0
 10
14.58319102841833
 20
288.6187025226679
 30
0.0
 10
14.63658390837836
 20
288.597923655258
 30
0.0
  0
SPLINE
  5
1A511
330
1F
100
AcDbEntity
  8
0
  6
Continuous
 62
     7
370
     0
100
AcDbSpline
210
0.0
220
0.0
230
1.0
 70
     8
 71
     3
 72
    16
 73
    12
 74
     0
 42
0.000000001
 43
0.0000000001
 40
0.0
 40
0.0
 40
0.0
 40
0.0
 40
0.047219419
 40
0.0951492903
 40
0.1954231125
 40
0.3050138252
 40
0.4257506577
 40
0.5575784198
 40
0.6990035568
 40
0.8475255813
 40
1.0
 40
1.0
 40
1.0
 40
1.0
 10
-0.8284009025618602
 20
288.710494933518
 30
0.0
 10
-0.8422659526417178
 20
288.710494933378
 30
0.0
 10
-0.8702550570018488
 20
288.7082762950681
 30
0.0
 10
-0.9262569564515601
 20
288.6949019876181
 30
0.0
 10
-0.995003216831627
 20
288.660686336148
 30
0.0
 10
-1.06874226872187
 20
288.5962933754882
 30
0.0
 10
-1.13306451566168
 20
288.510816051248
 30
0.0
 10
-1.185971790781785
 20
288.4073981551981
 30
0.0
 10
-1.225779394281652
 20
288.2897078968481
 30
0.0
 10
-1.251118966021657
 20
288.1619653531079
 30
0.0
 10
-1.257738464711927
 20
288.0735841016181
 30
0.0
 10
-1.258458887071718
 20
288.028818795578
 30
0.0
  0
SPLINE
  5
1A512
330
1F
100
AcDbEntity
  8
0
  6
Continuous
 62
     7
370
     0
100
AcDbSpline
210
0.0
220
0.0
230
1.0
 70
     8
 71
     3
 72
    10
 73
     6
 74
     0
 42
0.000000001
 43
0.0000000001
 40
0.0
 40
0.0
 40
0.0
 40
0.0
 40
0.2515030611
 40
0.5018599259000001
 40
1.0
 40
1.0
 40
1.0
 40
1.0
 10
-3.071352797101916
 20
288.5979236601582
 30
0.0
 10
-3.017959916021844
 20
288.6187025165081
 30
0.0
 10
-2.908642593361854
 20
288.6532774699981
 30
0.0
 10
-2.685161373861682
 20
288.6987505092179
 30
0.0
 10
-2.5141134520617
 20
288.7104949378582
 30
0.0
 10
-2.40063469149154
 20
288.710494933518
 30
0.0
  0
SPLINE
  5
1A513
330
1F
100
AcDbEntity
  8
0
  6
Continuous
 62
     7
370
     0
100
AcDbSpline
210
0.0
220
0.0
230
1.0
 70
     8
 71
     3
 72
    12
 73
     8
 74
     0
 42
0.000000001
 43
0.0000000001
 40
0.0
 40
0.0
 40
0.0
 40
0.0
 40
0.2152876011
 40
0.4532577043
 40
0.7144398314
 40
0.8541264126000001
 40
1.0
 40
1.0
 40
1.0
 40
1.0
 10
-3.987439419181918
 20
288.0288187973281
 30
0.0
 10
-3.93100542884158
 20
288.0823957598579
 30
0.0
 10
-3.805615920821673
 20
288.1883606112981
 30
0.0
 10
-3.59356663379176
 20
288.336245341578
 30
0.0
 10
-3.393175051701654
 20
288.4516556804681
 30
0.0
 10
-3.215544026101632
 20
288.538395226718
 30
0.0
 10
-3.120488524931623
 20
288.5788000275182
 30
0.0
 10
-3.071352797101916
 20
288.5979236601582
 30
0.0
  0
SPLINE
  5
1A514
330
1F
100
AcDbEntity
  8
0
  6
Continuous
 62
     7
370
     0
100
AcDbSpline
210
0.0
220
0.0
230
1.0
 70
     8
 71
     3
 72
    12
 73
     8
 74
     0
 42
0.000000001
 43
0.0000000001
 40
0.0
 40
0.0
 40
0.0
 40
0.0
 40
0.2997792748
 40
0.5779324459
 40
0.8164305685
 40
0.9158967343000001
 40
1.0
 40
1.0
 40
1.0
 40
1.0
 10
4.532801352658318
 20
263.8788171537281
 30
0.0
 10
4.532142377838319
 20
263.9378537623379
 30
0.0
 10
4.532088207218386
 20
264.0516874219981
 30
0.0
 10
4.535778976748226
 20
264.2124498959681
 30
0.0
 10
4.541992061528255
 20
264.333664594538
 30
0.0
 10
4.54908157731834
 20
264.4164928976479
 30
0.0
 10
4.553226614718461
 20
264.4524177763581
 30
0.0
 10
4.555514340928404
 20
264.468822819488
 30
0.0
  0
SPLINE
  5
1A515
330
1F
100
AcDbEntity
  8
0
  6
Continuous
 62
     7
370
     0
100
AcDbSpline
210
0.0
220
0.0
230
1.0
 70
     8
 71
     3
 72
    11
 73
     7
 74
     0
 42
0.000000001
 43
0.0000000001
 40
0.0
 40
0.0
 40
0.0
 40
0.0
 40
0.2498576568
 40
0.4997955147
 40
0.7498472167
 40
1.0
 40
1.0
 40
1.0
 40
1.0
 10
-1.020974803521675
 20
263.878818797328
 30
0.0
 10
-1.020741720951627
 20
263.9077084955082
 30
0.0
 10
-1.013806752491654
 20
263.9656365629781
 30
0.0
 10
-0.9853302451318982
 20
264.0481272254281
 30
0.0
 10
-0.9419960159415481
 20
264.123759218018
 30
0.0
 10
-0.9055225135615714
 20
264.1689438568881
 30
0.0
 10
-0.885913516321942
 20
264.190207186108
 30
0.0
  0
SPLINE
  5
1A516
330
1F
100
AcDbEntity
  8
0
  6
Continuous
 62
     7
370
     0
100
AcDbSpline
210
0.0
220
0.0
230
1.0
 70
     8
 71
     3
 72
    15
 73
    11
 74
     0
 42
0.000000001
 43
0.0000000001
 40
0.0
 40
0.0
 40
0.0
 40
0.0
 40
0.062474825
 40
0.1248801718
 40
0.249576459
 40
0.3742932147999999
 40
0.4991054585
 40
0.6240591268
 40
0.7491833073
 40
1.0
 40
1.0
 40
1.0
 40
1.0
 10
-0.7282630660219169
 20
264.2755774286179
 30
0.0
 10
-0.6888487767017963
 20
264.293993702858
 30
0.0
 10
-0.6084065747917506
 20
264.327309053318
 30
0.0
 10
-0.44366935235157
 20
264.3829375708781
 30
0.0
 10
-0.232850026501545
 20
264.436225329388
 30
0.0
 10
0.0237809618884981
 20
264.4822299029682
 30
0.0
 10
0.282592449228197
 20
264.5148982929881
 30
0.0
 10
0.5427411412484631
 20
264.5372684189481
 30
0.0
 10
0.8910680492682346
 20
264.5561873825779
 30
0.0
 10
1.152922651648261
 20
264.5604952772881
 30
0.0
 10
1.327579657458138
 20
264.560494933518
 30
0.0
  0
SPLINE
  5
1A517
330
1F
100
AcDbEntity
  8
0
  6
Continuous
 62
     7
370
     0
100
AcDbSpline
210
0.0
220
0.0
230
1.0
 70
     8
 71
     3
 72
    13
 73
     9
 74
     0
 42
0.000000001
 43
0.0000000001
 40
0.0
 40
0.0
 40
0.0
 40
0.0
 40
0.3446520045000001
 40
0.4870277672
 40
0.6109511742
 40
0.8144274009
 40
0.9060646501
 40
1.0
 40
1.0
 40
1.0
 40
1.0
 10
4.555514340928404
 20
264.468822819488
 30
0.0
 10
4.557380228588137
 20
264.4822031332181
 30
0.0
 10
4.560839497128292
 20
264.501066836888
 30
0.0
 10
4.568622279128341
 20
264.523792519798
 30
0.0
 10
4.57673376355806
 20
264.5403027941379
 30
0.0
 10
4.587891204188146
 20
264.553330212598
 30
0.0
 10
4.602039255518413
 20
264.559598476558
 30
0.0
 10
4.609366165318171
 20
264.5604949006181
 30
0.0
 10
4.613048275148323
 20
264.5604949334482
 30
0.0
  0
SPLINE
  5
1A518
330
1F
100
AcDbEntity
  8
0
  6
Continuous
 62
     7
370
     0
100
AcDbSpline
210
0.0
220
0.0
230
1.0
 70
     8
 71
     3
 72
    13
 73
     9
 74
     0
 42
0.000000001
 43
0.0000000001
 40
0.0
 40
0.0
 40
0.0
 40
0.0
 40
0.0939353495
 40
0.1855726
 40
0.3890488257
 40
0.5129722322
 40
0.6553479947999999
 40
1.0
 40
1.0
 40
1.0
 40
1.0
 10
6.952182822058241
 20
264.5604949334482
 30
0.0
 10
6.955864931888392
 20
264.5604949006181
 30
0.0
 10
6.963191841828213
 20
264.5595984768381
 30
0.0
 10
6.977339893578211
 20
264.5533302132981
 30
0.0
 10
6.988497334488422
 20
264.540302794768
 30
0.0
 10
6.996608819128234
 20
264.5237925204281
 30
0.0
 10
7.004391601268345
 20
264.5010668373079
 30
0.0
 10
7.007850869878077
 20
264.4822031333581
 30
0.0
 10
7.009716757538264
 20
264.468822819488
 30
0.0
  0
SPLINE
  5
1A519
330
1F
100
AcDbEntity
  8
0
  6
Continuous
 62
     7
370
     0
100
AcDbSpline
210
0.0
220
0.0
230
1.0
 70
     8
 71
     3
 72
    15
 73
    11
 74
     0
 42
0.000000001
 43
0.0000000001
 40
0.0
 40
0.0
 40
0.0
 40
0.0
 40
0.2508166911
 40
0.3759408703
 40
0.5008945368
 40
0.6257067787
 40
0.7504235342
 40
0.8751198222
 40
0.9375251693000001
 40
1.0
 40
1.0
 40
1.0
 40
1.0
 10
10.23765144100808
 20
264.560494933518
 30
0.0
 10
10.4123084461181
 20
264.560495274558
 30
0.0
 10
10.6741630473085
 20
264.556187384188
 30
0.0
 10
11.0224899528781
 20
264.5372684240581
 30
0.0
 10
11.28263864426808
 20
264.5148983107681
 30
0.0
 10
11.54145012670833
 20
264.4822299244582
 30
0.0
 10
11.79808113448835
 20
264.436225401978
 30
0.0
 10
12.0089004085381
 20
264.3829375253781
 30
0.0
 10
12.17363774745818
 20
264.327309258488
 30
0.0
 10
12.25407974902837
 20
264.2939934588381
 30
0.0
 10
12.29349415825809
 20
264.2755774315581
 30
0.0
  0
SPLINE
  5
1A51A
330
1F
100
AcDbEntity
  8
0
  6
Continuous
 62
     7
370
     0
100
AcDbSpline
210
0.0
220
0.0
230
1.0
 70
     8
 71
     3
 72
    11
 73
     7
 74
     0
 42
0.000000001
 43
0.0000000001
 40
0.0
 40
0.0
 40
0.0
 40
0.0
 40
0.2501531187
 40
0.5002049761
 40
0.75014271
 40
1.0
 40
1.0
 40
1.0
 40
1.0
 10
12.45094150845816
 20
264.1904273270079
 30
0.0
 10
12.47057710142835
 20
264.169154624158
 30
0.0
 10
12.5071020862184
 20
264.123947107328
 30
0.0
 10
12.55050260666813
 20
264.0482661348981
 30
0.0
 10
12.57902594521838
 20
263.9657114168481
 30
0.0
 10
12.5859726192185
 20
263.9077333079881
 30
0.0
 10
12.58620590198834
 20
263.878818797328
 30
0.0
  0
SPLINE
  5
1A51B
330
1F
100
AcDbEntity
  8
0
  6
Continuous
 62
     7
370
     0
100
AcDbSpline
210
0.0
220
0.0
230
1.0
 70
     8
 71
     3
 72
    12
 73
     8
 74
     0
 42
0.000000001
 43
0.0000000001
 40
0.0
 40
0.0
 40
0.0
 40
0.0
 40
0.0841032657
 40
0.1835694315
 40
0.4220675541
 40
0.7002207252
 40
1.0
 40
1.0
 40
1.0
 40
1.0
 10
7.009716757538264
 20
264.468822819488
 30
0.0
 10
7.012004483818238
 20
264.4524177763581
 30
0.0
 10
7.016149521148328
 20
264.4164928976479
 30
0.0
 10
7.023239037008445
 20
264.333664594538
 30
0.0
 10
7.029452121788474
 20
264.2124498959681
 30
0.0
 10
7.033142891248282
 20
264.051687422068
 30
0.0
 10
7.033088720628349
 20
263.9378537623379
 30
0.0
 10
7.032429745808351
 20
263.8788171537281
 30
0.0
  0
LINE
  5
1A51C
330
1F
100
AcDbEntity
  8
0
  6
Continuous
 62
     7
370
     0
100
AcDbLine
 10
16.54145162767836
 20
257.5696537258179
 30
0.0
 11
16.54146427604847
 21
257.5604949389081
 31
0.0
  0
SPLINE
  5
1A51D
330
1F
100
AcDbEntity
  8
0
  6
Continuous
 62
     7
370
     0
100
AcDbSpline
210
0.0
220
0.0
230
1.0
 70
     8
 71
     3
 72
    11
 73
     7
 74
     0
 42
0.000000001
 43
0.0000000001
 40
0.0
 40
0.0
 40
0.0
 40
0.0
 40
0.2499878935
 40
0.5000003763
 40
0.7499935645999999
 40
1.0
 40
1.0
 40
1.0
 40
1.0
 10
-0.8691862412118994
 20
264.2079744653581
 30
0.0
 10
-0.8602175321615491
 20
264.2170198593381
 30
0.0
 10
-0.8418775796216309
 20
264.2347134426579
 30
0.0
 10
-0.8136474430715666
 20
264.2604774503679
 30
0.0
 10
-0.784623331661713
 20
264.2853516375382
 30
0.0
 10
-0.764638720301626
 20
264.3011656825682
 30
0.0
 10
-0.7545082500918383
 20
264.308889317718
 30
0.0
  0
SPLINE
  5
1A51E
330
1F
100
AcDbEntity
  8
0
  6
Continuous
 62
     7
370
     0
100
AcDbSpline
210
0.0
220
0.0
230
1.0
 70
     8
 71
     3
 72
    11
 73
     7
 74
     0
 42
0.000000001
 43
0.0000000001
 40
0.0
 40
0.0
 40
0.0
 40
0.0
 40
0.2500196404
 40
0.5000346128000001
 40
0.7500191223
 40
1.0
 40
1.0
 40
1.0
 40
1.0
 10
-0.885913516321942
 20
264.190207186108
 30
0.0
 10
-0.8997668661817428
 20
264.1751850850281
 30
0.0
 10
-0.9266115171616534
 20
264.1443075142481
 30
0.0
 10
-0.9626577588618588
 20
264.0946283651481
 30
0.0
 10
-0.9943743828915999
 20
264.0420844680081
 30
0.0
 10
-1.012119114231517
 20
264.0051929353581
 30
0.0
 10
-1.020106882131493
 20
263.9863874863181
 30
0.0
  0
SPLINE
  5
1A51F
330
1F
100
AcDbEntity
  8
0
  6
Continuous
 62
     7
370
     0
100
AcDbSpline
210
0.0
220
0.0
230
1.0
 70
     8
 71
     3
 72
    13
 73
     9
 74
     0
 42
0.000000001
 43
0.0000000001
 40
0.0
 40
0.0
 40
0.0
 40
0.0
 40
0.2485658756
 40
0.4972366785
 40
0.6219840882
 40
0.7472550383
 40
0.8732610837
 40
1.0
 40
1.0
 40
1.0
 40
1.0
 10
-0.8407055820815899
 20
264.3340033952379
 30
0.0
 10
-0.8085223591218877
 20
264.383322515788
 30
0.0
 10
-0.741393440341561
 20
264.4801373554481
 30
0.0
 10
-0.6579748446619291
 20
264.6016837977382
 30
0.0
 10
-0.5972763461717463
 20
264.7031174780579
 30
0.0
 10
-0.5571897984117626
 20
264.782832186628
 30
0.0
 10
-0.5265867045617583
 20
264.867272938408
 30
0.0
 10
-0.5173842496218626
 20
264.927220184718
 30
0.0
 10
-0.5173842495518315
 20
264.9572475004981
 30
0.0
  0
SPLINE
  5
1A520
330
1F
100
AcDbEntity
  8
0
  6
Continuous
 62
     7
370
     0
100
AcDbSpline
210
0.0
220
0.0
230
1.0
 70
     8
 71
     3
 72
    13
 73
     9
 74
     0
 42
0.000000001
 43
0.0000000001
 40
0.0
 40
0.0
 40
0.0
 40
0.0
 40
0.1267388994
 40
0.2527449415
 40
0.3780158906
 40
0.5027633034000001
 40
0.7514341165
 40
1.0
 40
1.0
 40
1.0
 40
1.0
 10
12.0826152992282
 20
264.9572462726281
 30
0.0
 10
12.08261529936826
 20
264.927219015158
 30
0.0
 10
12.09181812530833
 20
264.8672719181581
 30
0.0
 10
12.12242132254833
 20
264.7828314190081
 30
0.0
 10
12.16250776887828
 20
264.703116835178
 30
0.0
 10
12.22320624034828
 20
264.601683384248
 30
0.0
 10
12.30662471205833
 20
264.4801371753381
 30
0.0
 10
12.37375337869808
 20
264.3833224212181
 30
0.0
 10
12.40593668012807
 20
264.334003476858
 30
0.0
  0
SPLINE
  5
1A521
330
1F
100
AcDbEntity
  8
0
  6
Continuous
 62
     7
370
     0
100
AcDbSpline
210
0.0
220
0.0
230
1.0
 70
     8
 71
     3
 72
    11
 73
     7
 74
     0
 42
0.000000001
 43
0.0000000001
 40
0.0
 40
0.0
 40
0.0
 40
0.0
 40
0.2499812163
 40
0.4999656769
 40
0.7499809304
 40
1.0
 40
1.0
 40
1.0
 40
1.0
 10
12.58533527320842
 20
263.9867230207481
 30
0.0
 10
12.57731660142836
 20
264.0055159753481
 30
0.0
 10
12.55952065514848
 20
264.0423834979281
 30
0.0
 10
12.52774919682825
 20
264.094895415778
 30
0.0
 10
12.49167132870807
 20
264.1445536084181
 30
0.0
 10
12.46480206733813
 20
264.1754111494681
 30
0.0
 10
12.45094150845816
 20
264.1904273270079
 30
0.0
  0
SPLINE
  5
1A522
330
1F
100
AcDbEntity
  8
0
  6
Continuous
 62
     7
370
     0
100
AcDbSpline
210
0.0
220
0.0
230
1.0
 70
     8
 71
     3
 72
    11
 73
     7
 74
     0
 42
0.000000001
 43
0.0000000001
 40
0.0
 40
0.0
 40
0.0
 40
0.0
 40
0.2500064525
 40
0.4999994561
 40
0.7500121692
 40
1.0
 40
1.0
 40
1.0
 40
1.0
 10
12.31973936325821
 20
264.3088893011279
 30
0.0
 10
12.32986983815827
 20
264.3011656631082
 30
0.0
 10
12.34985466042836
 20
264.2853518700081
 30
0.0
 10
12.37887809766844
 20
264.2604768631379
 30
0.0
 10
12.40710901121847
 20
264.2347137536681
 30
0.0
 10
12.42545066321836
 20
264.217021870998
 30
0.0
 10
12.4344193733883
 20
264.2079764760381
 30
0.0
  0
SPLINE
  5
1A523
330
1F
100
AcDbEntity
  8
0
  6
Continuous
 62
     7
370
     0
100
AcDbSpline
210
0.0
220
0.0
230
1.0
 70
     8
 71
     3
 72
    12
 73
     8
 74
     0
 42
0.000000001
 43
0.0000000001
 40
0.0
 40
0.0
 40
0.0
 40
0.0
 40
0.0658027007
 40
0.1535492276
 40
0.386399216
 40
0.6773741781
 40
1.0
 40
1.0
 40
1.0
 40
1.0
 10
-3.071352792551714
 20
288.5979236513381
 30
0.0
 10
-3.078310614681776
 20
288.610231580188
 30
0.0
 10
-3.0942937294516
 20
288.639094399488
 30
0.0
 10
-3.133978440671761
 20
288.712018008428
 30
0.0
 10
-3.195914215831543
 20
288.827911049608
 30
0.0
 10
-3.280852376901656
 20
288.988728240058
 30
0.0
 10
-3.341963020621641
 20
289.105549451348
 30
0.0
 10
-3.373987566741924
 20
289.167028522568
 30
0.0
  0
SPLINE
  5
1A524
330
1F
100
AcDbEntity
  8
0
  6
Continuous
 62
     7
370
     0
100
AcDbSpline
210
0.0
220
0.0
230
1.0
 70
     8
 71
     3
 72
    12
 73
     8
 74
     0
 42
0.000000001
 43
0.0000000001
 40
0.0
 40
0.0
 40
0.0
 40
0.0
 40
0.0658027171
 40
0.1535492589
 40
0.3863992627
 40
0.6773742121999999
 40
1.0
 40
1.0
 40
1.0
 40
1.0
 10
14.63658386350844
 20
288.5979235681079
 30
0.0
 10
14.64354168794817
 20
288.610231501858
 30
0.0
 10
14.65952480761835
 20
288.6390943312381
 30
0.0
 10
14.69920952849825
 20
288.7120179591479
 30
0.0
 10
14.76114531429821
 20
288.8279110191579
 30
0.0
 10
14.84608348572838
 20
288.9887282243781
 30
0.0
 10
14.90719413560837
 20
289.1055494412681
 30
0.0
 10
14.93921868431844
 20
289.167028513398
 30
0.0
  0
SPLINE
  5
1A525
330
1F
100
AcDbEntity
  8
0
  6
Continuous
 62
     7
370
     0
100
AcDbSpline
210
0.0
220
0.0
230
1.0
 70
     8
 71
     3
 72
    12
 73
     8
 74
     0
 42
0.000000001
 43
0.0000000001
 40
0.0
 40
0.0
 40
0.0
 40
0.0
 40
0.2572606454
 40
0.3813582796
 40
0.5038785724
 40
0.7493132420999999
 40
1.0
 40
1.0
 40
1.0
 40
1.0
 10
12.72852050441825
 20
264.005307224638
 30
0.0
 10
12.71937514931833
 20
263.9956680974481
 30
0.0
 10
12.7036199184282
 20
263.982968414648
 30
0.0
 10
12.67914371961852
 20
263.9736114858081
 30
0.0
 10
12.65386743592817
 20
263.969630876798
 30
0.0
 10
12.62163289582814
 20
263.9734915384979
 30
0.0
 10
12.59733828695844
 20
263.9818680941681
 30
0.0
 10
12.58533527320842
 20
263.9867230207481
 30
0.0
  0
SPLINE
  5
1A526
330
1F
100
AcDbEntity
  8
0
  6
Continuous
 62
     7
370
     0
100
AcDbSpline
210
0.0
220
0.0
230
1.0
 70
     8
 71
     3
 72
    19
 73
    15
 74
     0
 42
0.000000001
 43
0.0000000001
 40
0.0
 40
0.0
 40
0.0
 40
0.0
 40
0.1953808776
 40
0.3825339881
 40
0.5545299697
 40
0.7050114054000001
 40
0.8284380001999999
 40
0.8785577165999999
 40
0.9203272316
 40
0.9533961556999999
 40
0.9775367615999999
 40
0.9862486592
 40
0.9927703356
 40
1.0
 40
1.0
 40
1.0
 40
1.0
 10
6.454567878288437
 20
261.769656865388
 30
0.0
 10
6.45453553639809
 20
261.7919788773382
 30
0.0
 10
6.454242908818379
 20
261.835682952928
 30
0.0
 10
6.453120057578055
 20
261.899028740678
 30
0.0
 10
6.451367368738467
 20
261.9572288542581
 30
0.0
 10
6.4490524543181
 20
262.0081227964481
 30
0.0
 10
6.446625700408369
 20
262.045066329438
 30
0.0
 10
6.444357156858224
 20
262.0695659343581
 30
0.0
 10
6.442714071358388
 20
262.0837419315081
 30
0.0
 10
6.441000158878161
 20
262.094942927258
 30
0.0
 10
6.439492533318209
 20
262.1022836736782
 30
0.0
 10
6.438114966638388
 20
262.106645206728
 30
0.0
 10
6.437171541988484
 20
262.1088802694881
 30
0.0
 10
6.43603485692811
 20
262.1104949335181
 30
0.0
 10
6.43520887624809
 20
262.1104949335181
 30
0.0
  0
SPLINE
  5
1A527
330
1F
100
AcDbEntity
  8
0
  6
Continuous
 62
     7
370
     0
100
AcDbSpline
210
0.0
220
0.0
230
1.0
 70
     8
 71
     3
 72
    18
 73
    14
 74
     0
 42
0.000000001
 43
0.0000000001
 40
0.0
 40
0.0
 40
0.0
 40
0.0
 40
0.1819427432
 40
0.3602318908
 40
0.5277639423
 40
0.6778664736
 40
0.8045651090000001
 40
0.8575226802
 40
0.9028276231
 40
0.9400334642
 40
0.9687800394
 40
0.9888062763
 40
1.0
 40
1.0
 40
1.0
 40
1.0
 10
6.992423929188227
 20
262.2809139637679
 30
0.0
 10
6.969135560448287
 20
262.281545088948
 30
0.0
 10
6.923022761478116
 20
262.2826618019581
 30
0.0
 10
6.855456290198255
 20
262.2839120901581
 30
0.0
 10
6.791959815548218
 20
262.2846962036981
 30
0.0
 10
6.73506553341813
 20
262.284984223878
 30
0.0
 10
6.692840029328273
 20
262.284809641428
 30
0.0
 10
6.664038967178477
 20
262.2843650721279
 30
0.0
 10
6.646695468978216
 20
262.2839363303881
 30
0.0
 10
6.632466164028394
 20
262.2833805212181
 30
0.0
 10
6.621457221398124
 20
262.282766534418
 30
0.0
 10
6.613847385738246
 20
262.2819903955581
 30
0.0
 10
6.609841596258413
 20
262.281426291318
 30
0.0
 10
6.608502982828306
 20
262.2809139686681
 30
0.0
  0
SPLINE
  5
1A528
330
1F
100
AcDbEntity
  8
0
  6
Continuous
 62
     7
370
     0
100
AcDbSpline
210
0.0
220
0.0
230
1.0
 70
     8
 71
     3
 72
    18
 73
    14
 74
     0
 42
0.000000001
 43
0.0000000001
 40
0.0
 40
0.0
 40
0.0
 40
0.0
 40
0.1817523183
 40
0.3599626932
 40
0.5274982879
 40
0.6776560133
 40
0.8044319545
 40
0.8574281198999999
 40
0.9027677747
 40
0.9400020515
 40
0.9687688535
 40
0.9888057264
 40
1.0
 40
1.0
 40
1.0
 40
1.0
 10
7.032429765128292
 20
263.878818797328
 30
0.0
 10
7.009088291518403
 20
263.8794539268581
 30
0.0
 10
6.962856451668451
 20
263.8805776961481
 30
0.0
 10
6.895098950878129
 20
263.881835680008
 30
0.0
 10
6.831393414438118
 20
263.8826247026479
 30
0.0
 10
6.774292005318422
 20
263.882914507828
 30
0.0
 10
6.731903755428085
 20
263.882738759178
 30
0.0
 10
6.702987365198261
 20
263.8822913334581
 30
0.0
 10
6.685572986888111
 20
263.8818598626981
 30
0.0
 10
6.671285655298199
 20
263.881300499208
 30
0.0
 10
6.660232323148286
 20
263.8806827902982
 30
0.0
 10
6.652593584768148
 20
263.8799017227381
 30
0.0
 10
6.648572753898499
 20
263.879334486068
 30
0.0
 10
6.64723023845827
 20
263.878818797328
 30
0.0
  0
SPLINE
  5
1A529
330
1F
100
AcDbEntity
  8
0
  6
Continuous
 62
     7
370
     0
100
AcDbSpline
210
0.0
220
0.0
230
1.0
 70
     8
 71
     3
 72
    14
 73
    10
 74
     0
 42
0.000000001
 43
0.0000000001
 40
0.0
 40
0.0
 40
0.0
 40
0.0
 40
0.2629336425
 40
0.3931212143
 40
0.5207584349000001
 40
0.6451999632
 40
0.766253266
 40
0.8842433764000001
 40
1.0
 40
1.0
 40
1.0
 40
1.0
 10
7.009716754178136
 20
264.4688227630679
 30
0.0
 10
6.964382969248256
 20
264.4697963096982
 30
0.0
 10
6.895607352688423
 20
264.459574148658
 30
0.0
 10
6.812789209168479
 20
264.4240192284881
 30
0.0
 10
6.757410470858396
 20
264.387543899318
 30
0.0
 10
6.710883335658401
 20
264.3425348744181
 30
0.0
 10
6.674968955688293
 20
264.290626959478
 30
0.0
 10
6.651124261248334
 20
264.2337966012082
 30
0.0
 10
6.643894195888244
 20
264.193740525988
 30
0.0
 10
6.642583145098435
 20
264.173820808408
 30
0.0
  0
SPLINE
  5
1A52A
330
1F
100
AcDbEntity
  8
0
  6
Continuous
 62
     7
370
     0
100
AcDbSpline
210
0.0
220
0.0
230
1.0
 70
     8
 71
     3
 72
    13
 73
     9
 74
     0
 42
0.000000001
 43
0.0000000001
 40
0.0
 40
0.0
 40
0.0
 40
0.0
 40
0.1202253199
 40
0.2412248235
 40
0.3636461818
 40
0.4879122039
 40
0.741152087
 40
1.0
 40
1.0
 40
1.0
 40
1.0
 10
6.952183973348475
 20
264.560494894668
 30
0.0
 10
6.931561536408118
 20
264.560494895298
 30
0.0
 10
6.890055422878142
 20
264.5561376457581
 30
0.0
 10
6.830304785008231
 20
264.536814993528
 30
0.0
 10
6.775086672898489
 20
264.505432854558
 30
0.0
 10
6.709954410668253
 20
264.4489115205281
 30
0.0
 10
6.649852575378283
 20
264.354595611638
 30
0.0
 10
6.631599639138223
 20
264.2664896758181
 30
0.0
 10
6.630243453678396
 20
264.2221098055981
 30
0.0
  0
SPLINE
  5
1A52B
330
1F
100
AcDbEntity
  8
0
  6
Continuous
 62
     7
370
     0
100
AcDbSpline
210
0.0
220
0.0
230
1.0
 70
     8
 71
     3
 72
    19
 73
    15
 74
     0
 42
0.000000001
 43
0.0000000001
 40
0.0
 40
0.0
 40
0.0
 40
0.0
 40
0.0075315619
 40
0.0141336597
 40
0.0229020856
 40
0.0471127587
 40
0.0802173312
 40
0.1219993833
 40
0.1721141317
 40
0.2954901586
 40
0.4458805042
 40
0.6177561481
 40
0.8047693604
 40
1.0
 40
1.0
 40
1.0
 40
1.0
 10
6.43800003104807
 20
264.560494933518
 30
0.0
 10
6.438861168388122
 20
264.560494933518
 30
0.0
 10
6.440093898138549
 20
264.558919959698
 30
0.0
 10
6.441119033298129
 20
264.556646728388
 30
0.0
 10
6.442596755488104
 20
264.552297851968
 30
0.0
 10
6.444218383258068
 20
264.5449479634781
 30
0.0
 10
6.446058785808056
 20
264.533747652888
 30
0.0
 10
6.447823903008249
 20
264.5195685417179
 30
0.0
 10
6.450259787998313
 20
264.4950712565281
 30
0.0
 10
6.452866112698395
 20
264.4581268386681
 30
0.0
 10
6.45535211012848
 20
264.407231427598
 30
0.0
 10
6.457234362108103
 20
264.3490301398381
 30
0.0
 10
6.458440181968491
 20
264.2856836534181
 30
0.0
 10
6.458754436048459
 20
264.2419789534281
 30
0.0
 10
6.458789167248234
 20
264.2196568653881
 30
0.0
  0
SPLINE
  5
1A52C
330
1F
100
AcDbEntity
  8
0
  6
Continuous
 62
     7
370
     0
100
AcDbSpline
210
0.0
220
0.0
230
1.0
 70
     8
 71
     3
 72
    19
 73
    15
 74
     0
 42
0.000000001
 43
0.0000000001
 40
0.0
 40
0.0
 40
0.0
 40
0.0
 40
0.0075315619
 40
0.0141336597
 40
0.0229020856
 40
0.0471127587
 40
0.0802173312
 40
0.1219993833
 40
0.1721141316
 40
0.2954901586
 40
0.4458805041
 40
0.6177561481
 40
0.8047693604
 40
1.0
 40
1.0
 40
1.0
 40
1.0
 10
5.127231067418144
 20
264.560494933518
 30
0.0
 10
5.126369930078091
 20
264.560494933518
 30
0.0
 10
5.125137200328119
 20
264.558919959698
 30
0.0
 10
5.124112065168084
 20
264.556646728388
 30
0.0
 10
5.12263434297811
 20
264.552297851968
 30
0.0
 10
5.121012715208145
 20
264.5449479634781
 30
0.0
 10
5.119172312728189
 20
264.533747652888
 30
0.0
 10
5.117407195458419
 20
264.5195685417179
 30
0.0
 10
5.114971310538387
 20
264.4950712565281
 30
0.0
 10
5.112364985838305
 20
264.4581268386681
 30
0.0
 10
5.109878988408219
 20
264.407231427668
 30
0.0
 10
5.107996736428142
 20
264.3490301398381
 30
0.0
 10
5.106790916498177
 20
264.2856836534181
 30
0.0
 10
5.106476662488241
 20
264.2419789534281
 30
0.0
 10
5.106441931288465
 20
264.2196568653881
 30
0.0
  0
SPLINE
  5
1A52D
330
1F
100
AcDbEntity
  8
0
  6
Continuous
 62
     7
370
     0
100
AcDbSpline
210
0.0
220
0.0
230
1.0
 70
     8
 71
     3
 72
    13
 73
     9
 74
     0
 42
0.000000001
 43
0.0000000001
 40
0.0
 40
0.0
 40
0.0
 40
0.0
 40
0.1202253207
 40
0.241224825
 40
0.3636461838
 40
0.4879122061
 40
0.7411520886
 40
1.0
 40
1.0
 40
1.0
 40
1.0
 10
4.613047125188224
 20
264.560494942408
 30
0.0
 10
4.633669563528294
 20
264.560494941708
 30
0.0
 10
4.675175679648056
 20
264.556137688878
 30
0.0
 10
4.734926319968146
 20
264.5368150301381
 30
0.0
 10
4.790144432778199
 20
264.5054328836781
 30
0.0
 10
4.855276693468205
 20
264.4489115396379
 30
0.0
 10
4.915378523438086
 20
264.3545956197582
 30
0.0
 10
4.933631455338492
 20
264.266489678128
 30
0.0
 10
4.934987639188513
 20
264.2221098053881
 30
0.0
  0
SPLINE
  5
1A52E
330
1F
100
AcDbEntity
  8
0
  6
Continuous
 62
     7
370
     0
100
AcDbSpline
210
0.0
220
0.0
230
1.0
 70
     8
 71
     3
 72
    14
 73
    10
 74
     0
 42
0.000000001
 43
0.0000000001
 40
0.0
 40
0.0
 40
0.0
 40
0.0
 40
0.2629336326
 40
0.3931211981
 40
0.5207584137
 40
0.6451999400999999
 40
0.7662532456000001
 40
0.8842433639
 40
1.0
 40
1.0
 40
1.0
 40
1.0
 10
4.555514344638233
 20
264.4688227572581
 30
0.0
 10
4.600848129358475
 20
264.4697963128481
 30
0.0
 10
4.669623748088362
 20
264.4595741625182
 30
0.0
 10
4.752441893988454
 20
264.4240192485081
 30
0.0
 10
4.807820633418125
 20
264.3875439204581
 30
0.0
 10
4.854347769108337
 20
264.342534893598
 30
0.0
 10
4.890262149078445
 20
264.2906269740381
 30
0.0
 10
4.914106843658466
 20
264.2337966091179
 30
0.0
 10
4.921336909368257
 20
264.193740528998
 30
0.0
 10
4.922647960578253
 20
264.173820808548
 30
0.0
  0
SPLINE
  5
1A52F
330
1F
100
AcDbEntity
  8
0
  6
Continuous
 62
     7
370
     0
100
AcDbSpline
210
0.0
220
0.0
230
1.0
 70
     8
 71
     3
 72
    18
 73
    14
 74
     0
 42
0.000000001
 43
0.0000000001
 40
0.0
 40
0.0
 40
0.0
 40
0.0
 40
0.1817523141
 40
0.3599626853
 40
0.5274982773
 40
0.6776560015
 40
0.8044319433
 40
0.8574281095999999
 40
0.9027677658
 40
0.9400020443000001
 40
0.9687688484999999
 40
0.9888057237000001
 40
1.0
 40
1.0
 40
1.0
 40
1.0
 10
4.532801335018213
 20
263.8788187969081
 30
0.0
 10
4.556142807998278
 20
263.8794539264379
 30
0.0
 10
4.602374646588125
 20
263.8805776957281
 30
0.0
 10
4.670132145698155
 20
263.881835679518
 30
0.0
 10
4.733837680948092
 20
263.882624702228
 30
0.0
 10
4.790939089298355
 20
263.8829145074081
 30
0.0
 10
4.833327339118206
 20
263.8827387588981
 30
0.0
 10
4.862243729558124
 20
263.882291333178
 30
0.0
 10
4.879658108358036
 20
263.881859862488
 30
0.0
 10
4.893945440578229
 20
263.8813004990679
 30
0.0
 10
4.904998773428453
 20
263.8806827900881
 30
0.0
 10
4.912637512718085
 20
263.8799017226679
 30
0.0
 10
4.916658344218469
 20
263.879334485998
 30
0.0
 10
4.918000860078429
 20
263.878818797328
 30
0.0
  0
SPLINE
  5
1A530
330
1F
100
AcDbEntity
  8
0
  6
Continuous
 62
     7
370
     0
100
AcDbSpline
210
0.0
220
0.0
230
1.0
 70
     8
 71
     3
 72
    18
 73
    14
 74
     0
 42
0.000000001
 43
0.0000000001
 40
0.0
 40
0.0
 40
0.0
 40
0.0
 40
0.1819427733
 40
0.3602319374
 40
0.5277639917
 40
0.6778665141
 40
0.8045651337999999
 40
0.8575226965999999
 40
0.9028276318
 40
0.9400334669
 40
0.9687800381999999
 40
0.9888062742
 40
1.0
 40
1.0
 40
1.0
 40
1.0
 10
4.572807154858403
 20
262.2809139675481
 30
0.0
 10
4.596095525768398
 20
262.2815450925179
 30
0.0
 10
4.642208327398386
 20
262.2826618051782
 30
0.0
 10
4.709774800148445
 20
262.2839120926781
 30
0.0
 10
4.773271271578416
 20
262.284696205518
 30
0.0
 10
4.830165546848185
 20
262.2849842248579
 30
0.0
 10
4.872391043658446
 20
262.2848096417081
 30
0.0
 10
4.901192099648235
 20
262.2843650719881
 30
0.0
 10
4.918535593788512
 20
262.2839363298981
 30
0.0
 10
4.932764895448237
 20
262.283380520518
 30
0.0
 10
4.943773835838421
 20
262.2827665335082
 30
0.0
 10
4.95138367065838
 20
262.2819903946481
 30
0.0
 10
4.95538945985809
 20
262.2814262900581
 30
0.0
 10
4.956728073568321
 20
262.2809139675481
 30
0.0
  0
SPLINE
  5
1A531
330
1F
100
AcDbEntity
  8
0
  6
Continuous
 62
     7
370
     0
100
AcDbSpline
210
0.0
220
0.0
230
1.0
 70
     8
 71
     3
 72
    19
 73
    15
 74
     0
 42
0.000000001
 43
0.0000000001
 40
0.0
 40
0.0
 40
0.0
 40
0.0
 40
0.1953808776
 40
0.3825339881
 40
0.5545299697
 40
0.7050114053000001
 40
0.8284380001
 40
0.8785577165
 40
0.9203272315000001
 40
0.9533961556
 40
0.9775367615
 40
0.9862486590999999
 40
0.9927703356
 40
1.0
 40
1.0
 40
1.0
 40
1.0
 10
5.110663220178232
 20
261.769656865388
 30
0.0
 10
5.110695562068123
 20
261.7919788773382
 30
0.0
 10
5.110988189578258
 20
261.835682952998
 30
0.0
 10
5.112111040818128
 20
261.899028740678
 30
0.0
 10
5.11386372958814
 20
261.9572288542581
 30
0.0
 10
5.116178644078083
 20
262.0081227964481
 30
0.0
 10
5.118605397918238
 20
262.045066329438
 30
0.0
 10
5.120873941468382
 20
262.0695659343581
 30
0.0
 10
5.122517026968218
 20
262.0837419315081
 30
0.0
 10
5.124230939518476
 20
262.094942927258
 30
0.0
 10
5.12573856514846
 20
262.1022836736782
 30
0.0
 10
5.12711613175825
 20
262.106645206728
 30
0.0
 10
5.128059556478185
 20
262.1088802694881
 30
0.0
 10
5.129196241608135
 20
262.1104949335181
 30
0.0
 10
5.130022222218123
 20
262.1104949335181
 30
0.0
  0
SPLINE
  5
1A532
330
1F
100
AcDbEntity
  8
0
  6
Continuous
 62
     7
370
     0
100
AcDbSpline
210
0.0
220
0.0
230
1.0
 70
     8
 71
     3
 72
    11
 73
     7
 74
     0
 42
0.000000001
 43
0.0000000001
 40
0.0
 40
0.0
 40
0.0
 40
0.0
 40
0.2510269094
 40
0.5006774565
 40
0.7498606532
 40
1.0
 40
1.0
 40
1.0
 40
1.0
 10
5.1300226716181
 20
262.1104949335181
 30
0.0
 10
5.107623806388439
 20
262.1104949622182
 30
0.0
 10
5.062453833918063
 20
262.1192799411481
 30
0.0
 10
5.005273770978057
 20
262.1571490455681
 30
0.0
 10
4.966754181198304
 20
262.213756858228
 30
0.0
 10
4.957184876278099
 20
262.2585988067781
 30
0.0
 10
4.956728076928449
 20
262.2809138008081
 30
0.0
  0
SPLINE
  5
1A533
330
1F
100
AcDbEntity
  8
0
  6
Continuous
 62
     7
370
     0
100
AcDbSpline
210
0.0
220
0.0
230
1.0
 70
     8
 71
     3
 72
     8
 73
     4
 74
     0
 42
0.000000001
 43
0.0000000001
 40
0.0
 40
0.0
 40
0.0
 40
0.0
 40
1.0
 40
1.0
 40
1.0
 40
1.0
 10
12.60174983619809
 20
287.835494933518
 30
0.0
 10
12.6452879800082
 20
279.892105949848
 30
0.0
 10
12.68749750176821
 20
271.9487095957379
 30
0.0
 10
12.72852050441825
 20
264.005307224638
 30
0.0
  0
LINE
  5
1A534
330
1F
100
AcDbEntity
  8
0
  6
Continuous
 62
     7
370
     0
100
AcDbLine
 10
16.79303854710825
 20
257.5696537258179
 30
0.0
 11
16.79304720848823
 21
257.5604949391179
 31
0.0
  0
LINE
  5
1A535
330
1F
100
AcDbEntity
  8
0
  6
Continuous
 62
     7
370
     0
100
AcDbLine
 10
16.01594908087836
 20
257.5604949391179
 30
0.0
 11
16.01525333183836
 21
257.5696537258179
 31
0.0
  0
SPLINE
  5
1A536
330
1F
100
AcDbEntity
  8
0
  6
Continuous
 62
     7
370
     0
100
AcDbSpline
210
0.0
220
0.0
230
1.0
 70
     8
 71
     3
 72
    11
 73
     7
 74
     0
 42
0.000000001
 43
0.0000000001
 40
0.0
 40
0.0
 40
0.0
 40
0.0
 40
0.2501393468
 40
0.4993225435
 40
0.7489730906000001
 40
1.0
 40
1.0
 40
1.0
 40
1.0
 10
6.608503021538219
 20
262.2809138013681
 30
0.0
 10
6.608046222188115
 20
262.2585988073381
 30
0.0
 10
6.598476917548034
 20
262.213756858788
 30
0.0
 10
6.559957327908343
 20
262.1571490459881
 30
0.0
 10
6.502777265108399
 20
262.1192799413579
 30
0.0
 10
6.457607292638478
 20
262.1104949621481
 30
0.0
 10
6.435208427408362
 20
262.1104949335181
 30
0.0
  0
SPLINE
  5
1A537
330
1F
100
AcDbEntity
  8
0
  6
Continuous
 62
     7
370
     0
100
AcDbSpline
210
0.0
220
0.0
230
1.0
 70
     8
 71
     3
 72
     8
 73
     4
 74
     0
 42
0.000000001
 43
0.0000000001
 40
0.0
 40
0.0
 40
0.0
 40
0.0
 40
1.0
 40
1.0
 40
1.0
 40
1.0
 10
16.72441756432827
 20
258.076333001648
 30
0.0
 10
16.35982582863844
 20
271.9105013181479
 30
0.0
 10
15.99501708167836
 20
285.7446639184481
 30
0.0
 10
15.62991582886807
 20
299.5788187975379
 30
0.0
  0
SPLINE
  5
1A538
330
1F
100
AcDbEntity
  8
0
  6
Continuous
 62
     7
370
     0
100
AcDbSpline
210
0.0
220
0.0
230
1.0
 70
     8
 71
     3
 72
     8
 73
     4
 74
     0
 42
0.000000001
 43
0.0000000001
 40
0.0
 40
0.0
 40
0.0
 40
0.0
 40
1.0
 40
1.0
 40
1.0
 40
1.0
 10
-4.064684730331827
 20
299.5788187975379
 30
0.0
 10
-4.429785983211694
 20
285.7446639184481
 30
0.0
 10
-4.79459472996168
 20
271.9105013181479
 30
0.0
 10
-5.159186465651963
 20
258.076333001648
 30
0.0
  0
SPLINE
  5
1A539
330
1F
100
AcDbEntity
  8
0
  6
Continuous
 62
     7
370
     0
100
AcDbSpline
210
0.0
220
0.0
230
1.0
 70
     8
 71
     3
 72
    18
 73
    14
 74
     0
 42
0.000000001
 43
0.0000000001
 40
0.0
 40
0.0
 40
0.0
 40
0.0
 40
0.1842103237
 40
0.3634298351
 40
0.5309118763
 40
0.680352038
 40
0.80612906
 40
0.8586281542
 40
0.903521888
 40
0.9403922934000001
 40
0.9689020378000001
 40
0.9888068234999999
 40
1.0
 40
1.0
 40
1.0
 40
1.0
 10
6.412398502648195
 20
262.2809139675481
 30
0.0
 10
6.423708247388369
 20
262.2806218974481
 30
0.0
 10
6.446022902338065
 20
262.280104915528
 30
0.0
 10
6.478624529018454
 20
262.2795250946781
 30
0.0
 10
6.509093812408175
 20
262.2791619054181
 30
0.0
 10
6.536282529418351
 20
262.2790284166081
 30
0.0
 10
6.556410282798062
 20
262.2791088848981
 30
0.0
 10
6.570114701848162
 20
262.279314398598
 30
0.0
 10
6.578359430508137
 20
262.279512742688
 30
0.0
 10
6.585124688938414
 20
262.2797697931881
 30
0.0
 10
6.590362060728332
 20
262.2800548597181
 30
0.0
 10
6.593992810368128
 20
262.280413997868
 30
0.0
 10
6.595905275608494
 20
262.2806776188482
 30
0.0
 10
6.596550812388251
 20
262.2809139675481
 30
0.0
  0
SPLINE
  5
1A53A
330
1F
100
AcDbEntity
  8
0
  6
Continuous
 62
     7
370
     0
100
AcDbSpline
210
0.0
220
0.0
230
1.0
 70
     8
 71
     3
 72
    14
 73
    10
 74
     0
 42
0.000000001
 43
0.0000000001
 40
0.0
 40
0.0
 40
0.0
 40
0.0
 40
0.0734127007
 40
0.1606617458
 40
0.2685637193
 40
0.3942155936
 40
0.5332295204999999
 40
0.6820803375
 40
1.0
 40
1.0
 40
1.0
 40
1.0
 10
6.630243456198151
 20
264.2221098055279
 30
0.0
 10
6.631519188208223
 20
264.222005575668
 30
0.0
 10
6.634258067008524
 20
264.220756719808
 30
0.0
 10
6.636946972738407
 20
264.2167816104179
 30
0.0
 10
6.638904460508094
 20
264.211528185248
 30
0.0
 10
6.64032290704845
 20
264.205172555058
 30
0.0
 10
6.641325078218507
 20
264.1980295906282
 30
0.0
 10
6.642238347708464
 20
264.187503369888
 30
0.0
 10
6.642501102788266
 20
264.179363970088
 30
0.0
 10
6.642583132428264
 20
264.1738215075681
 30
0.0
  0
SPLINE
  5
1A53B
330
1F
100
AcDbEntity
  8
0
  6
Continuous
 62
     7
370
     0
100
AcDbSpline
210
0.0
220
0.0
230
1.0
 70
     8
 71
     3
 72
     8
 73
     4
 74
     0
 42
0.000000001
 43
0.0000000001
 40
0.0
 40
0.0
 40
0.0
 40
0.0
 40
1.0
 40
1.0
 40
1.0
 40
1.0
 10
-1.163291104221933
 20
264.0049784335882
 30
0.0
 10
-1.122267571811697
 20
271.948490401868
 30
0.0
 10
-1.0800574894919
 20
279.891996353018
 30
0.0
 10
-1.036518737731875
 20
287.835494933518
 30
0.0
  0
SPLINE
  5
1A53C
330
1F
100
AcDbEntity
  8
0
  6
Continuous
 62
     7
370
     0
100
AcDbSpline
210
0.0
220
0.0
230
1.0
 70
     8
 71
     3
 72
    11
 73
     7
 74
     0
 42
0.000000001
 43
0.0000000001
 40
0.0
 40
0.0
 40
0.0
 40
0.0
 40
0.3108313754
 40
0.5983665315
 40
0.8354954322
 40
1.0
 40
1.0
 40
1.0
 40
1.0
 10
6.458789303748382
 20
264.2196568720381
 30
0.0
 10
6.476539104068344
 20
264.220577044018
 30
0.0
 10
6.510723009418236
 20
264.2220609748581
 30
0.0
 10
6.558486744738367
 20
264.2233336414982
 30
0.0
 10
6.597889312068311
 20
264.2234771461181
 30
0.0
 10
6.620868132408397
 20
264.222875368718
 30
0.0
 10
6.630243456198151
 20
264.2221098055279
 30
0.0
  0
SPLINE
  5
1A53D
330
1F
100
AcDbEntity
  8
0
  6
Continuous
 62
     7
370
     0
100
AcDbSpline
210
0.0
220
0.0
230
1.0
 70
     8
 71
     3
 72
    13
 73
     9
 74
     0
 42
0.000000001
 43
0.0000000001
 40
0.0
 40
0.0
 40
0.0
 40
0.0
 40
0.1061945952
 40
0.2155236886
 40
0.3304501913
 40
0.4523685923
 40
0.7163272867
 40
1.0
 40
1.0
 40
1.0
 40
1.0
 10
16.66502572797808
 20
257.7354949335181
 30
0.0
 10
16.67315519435815
 20
257.7354949335181
 30
0.0
 10
16.68972880511829
 20
257.733310505678
 30
0.0
 10
16.71339092961816
 20
257.7237080981081
 30
0.0
 10
16.73517097909835
 20
257.708230998848
 30
0.0
 10
16.76134557089845
 20
257.679907396268
 30
0.0
 10
16.78492054511808
 20
257.6332578805579
 30
0.0
 10
16.79220551028821
 20
257.591353609828
 30
0.0
 10
16.79303854710825
 20
257.5696537258179
 30
0.0
  0
SPLINE
  5
1A53E
330
1F
100
AcDbEntity
  8
0
  6
Continuous
 62
     7
370
     0
100
AcDbSpline
210
0.0
220
0.0
230
1.0
 70
     8
 71
     3
 72
    18
 73
    14
 74
     0
 42
0.000000001
 43
0.0000000001
 40
0.0
 40
0.0
 40
0.0
 40
0.0
 40
0.0111931765
 40
0.0310979622
 40
0.0596077066
 40
0.096478112
 40
0.1413718458
 40
0.19387094
 40
0.319647962
 40
0.4690881237
 40
0.6365701649000001
 40
0.8157896763
 40
1.0
 40
1.0
 40
1.0
 40
1.0
 10
4.968680286078417
 20
262.2809139675481
 30
0.0
 10
4.969325822858174
 20
262.2806776188482
 30
0.0
 10
4.971238288098085
 20
262.280413997868
 30
0.0
 10
4.974869037738337
 20
262.2800548597181
 30
0.0
 10
4.980106409528254
 20
262.2797697931881
 30
0.0
 10
4.986871667958077
 20
262.279512742688
 30
0.0
 10
4.995116396688083
 20
262.279314398598
 30
0.0
 10
5.008820815668152
 20
262.2791088848981
 30
0.0
 10
5.028948569048318
 20
262.2790284166081
 30
0.0
 10
5.056137286058494
 20
262.2791619054181
 30
0.0
 10
5.086606569448215
 20
262.2795250946781
 30
0.0
 10
5.119208196128149
 20
262.280104915528
 30
0.0
 10
5.1415228510783
 20
262.2806218974481
 30
0.0
 10
5.152832595818474
 20
262.2809139675481
 30
0.0
  0
SPLINE
  5
1A53F
330
1F
100
AcDbEntity
  8
0
  6
Continuous
 62
     7
370
     0
100
AcDbSpline
210
0.0
220
0.0
230
1.0
 70
     8
 71
     3
 72
    11
 73
     7
 74
     0
 42
0.000000001
 43
0.0000000001
 40
0.0
 40
0.0
 40
0.0
 40
0.0
 40
0.1645045678
 40
0.4016334684
 40
0.6891686245
 40
1.0
 40
1.0
 40
1.0
 40
1.0
 10
4.934987642268062
 20
264.2221098055279
 30
0.0
 10
4.944362966058272
 20
264.2228753686479
 30
0.0
 10
4.967341786328326
 20
264.2234771461881
 30
0.0
 10
5.006744353518208
 20
264.2233336414281
 30
0.0
 10
5.054508088628246
 20
264.222060974998
 30
0.0
 10
5.088691993908107
 20
264.2205770437381
 30
0.0
 10
5.106441794158492
 20
264.2196568721081
 30
0.0
  0
SPLINE
  5
1A540
330
1F
100
AcDbEntity
  8
0
  6
Continuous
 62
     7
370
     0
100
AcDbSpline
210
0.0
220
0.0
230
1.0
 70
     8
 71
     3
 72
    13
 73
     9
 74
     0
 42
0.000000001
 43
0.0000000001
 40
0.0
 40
0.0
 40
0.0
 40
0.0
 40
0.2911660555
 40
0.5586582221999999
 40
0.6800146912
 40
0.7927029976000001
 40
0.8983480846999999
 40
1.0
 40
1.0
 40
1.0
 40
1.0
 10
16.01525333183836
 20
257.5696537258179
 30
0.0
 10
16.01448073847823
 20
257.5913088458781
 30
0.0
 10
16.00779762833836
 20
257.6328633765879
 30
0.0
 10
15.98603592340815
 20
257.6795734562282
 30
0.0
 10
15.96161813000808
 20
257.7080928304681
 30
0.0
 10
15.94139041655817
 20
257.7236148992681
 30
0.0
 10
15.91935447346814
 20
257.733284219418
 30
0.0
 10
15.90384849003849
 20
257.7354949334481
 30
0.0
 10
15.89628344289813
 20
257.7354949335181
 30
0.0
  0
SPLINE
  5
1A541
330
1F
100
AcDbEntity
  8
0
  6
Continuous
 62
     7
370
     0
100
AcDbSpline
210
0.0
220
0.0
230
1.0
 70
     8
 71
     3
 72
    14
 73
    10
 74
     0
 42
0.000000001
 43
0.0000000001
 40
0.0
 40
0.0
 40
0.0
 40
0.0
 40
0.3179196622
 40
0.4667704792
 40
0.6057844062
 40
0.7314362808
 40
0.8393382542
 40
0.9265872995000001
 40
1.0
 40
1.0
 40
1.0
 40
1.0
 10
4.922647966038404
 20
264.1738215069381
 30
0.0
 10
4.922729995678402
 20
264.1793639694581
 30
0.0
 10
4.922992750688174
 20
264.187503369398
 30
0.0
 10
4.92390602017813
 20
264.1980295902781
 30
0.0
 10
4.924908191348187
 20
264.2051725547781
 30
0.0
 10
4.926326637888089
 20
264.2115281850381
 30
0.0
 10
4.928284125728261
 20
264.2167816104179
 30
0.0
 10
4.930973031458144
 20
264.2207567195281
 30
0.0
 10
4.933711910258445
 20
264.2220055760882
 30
0.0
 10
4.934987642268062
 20
264.2221098055279
 30
0.0
  0
LINE
  5
1A542
330
1F
100
AcDbEntity
  8
0
  6
Continuous
 62
     7
370
     0
100
AcDbLine
 10
4.922647976538521
 20
264.1738210733581
 30
0.0
 11
4.968680286078417
 21
262.2809139675481
 31
0.0
  0
SPLINE
  5
1A543
330
1F
100
AcDbEntity
  8
0
  6
Continuous
 62
     7
370
     0
100
AcDbSpline
210
0.0
220
0.0
230
1.0
 70
     8
 71
     3
 72
    11
 73
     7
 74
     0
 42
0.000000001
 43
0.0000000001
 40
0.0
 40
0.0
 40
0.0
 40
0.0
 40
0.3001323593
 40
0.5784503149
 40
0.8168654801999999
 40
1.0
 40
1.0
 40
1.0
 40
1.0
 10
4.918000860078429
 20
263.878818797328
 30
0.0
 10
4.917285506628197
 20
263.908339373028
 30
0.0
 10
4.916402903718428
 20
263.9652478088781
 30
0.0
 10
4.916658717108113
 20
264.045624244108
 30
0.0
 10
4.918491797168464
 20
264.1144602158581
 30
0.0
 10
4.920916393468453
 20
264.155886342068
 30
0.0
 10
4.922647976538521
 20
264.1738210733581
 30
0.0
  0
LINE
  5
1A544
330
1F
100
AcDbEntity
  8
0
  6
Continuous
 62
     7
370
     0
100
AcDbLine
 10
4.956728077628306
 20
262.2809138008081
 30
0.0
 11
4.918000860078429
 21
263.878818797328
 31
0.0
  0
SPLINE
  5
1A545
330
1F
100
AcDbEntity
  8
0
  6
Continuous
 62
     7
370
     0
100
AcDbSpline
210
0.0
220
0.0
230
1.0
 70
     8
 71
     3
 72
    12
 73
     8
 74
     0
 42
0.000000001
 43
0.0000000001
 40
0.0
 40
0.0
 40
0.0
 40
0.0
 40
0.2507064588
 40
0.4961017847999999
 40
0.6185942935000001
 40
0.7426828517
 40
1.0
 40
1.0
 40
1.0
 40
1.0
 10
-1.020106882131493
 20
263.9863874863181
 30
0.0
 10
-1.032108703851826
 20
263.9814983275681
 30
0.0
 10
-1.056399596281516
 20
263.9730510193281
 30
0.0
 10
-1.088658408601894
 20
263.969127818928
 30
0.0
 10
-1.113952940031957
 20
263.9731227500081
 30
0.0
 10
-1.138433644461564
 20
263.982539202508
 30
0.0
 10
-1.154161971411575
 20
263.9953047440381
 30
0.0
 10
-1.163291104221933
 20
264.0049784335882
 30
0.0
  0
SPLINE
  5
1A546
330
1F
100
AcDbEntity
  8
0
  6
Continuous
 62
     7
370
     0
100
AcDbSpline
210
0.0
220
0.0
230
1.0
 70
     8
 71
     3
 72
    13
 73
     9
 74
     0
 42
0.000000001
 43
0.0000000001
 40
0.0
 40
0.0
 40
0.0
 40
0.0
 40
0.2621165152
 40
0.5167708035999999
 40
0.6407138886
 40
0.7621360565
 40
0.8816026487
 40
1.0
 40
1.0
 40
1.0
 40
1.0
 10
16.72441755585815
 20
258.076333001648
 30
0.0
 10
16.72546023105824
 20
258.0317866769581
 30
0.0
 10
16.74264012119838
 20
257.9435673855882
 30
0.0
 10
16.80077272817844
 20
257.848354839068
 30
0.0
 10
16.86431084204842
 20
257.791152523268
 30
0.0
 10
16.91813833912838
 20
257.759447460018
 30
0.0
 10
16.9764649981481
 20
257.739905765958
 30
0.0
 10
17.0170342317484
 20
257.7354949335181
 30
0.0
 10
17.03716120245836
 20
257.7354949335181
 30
0.0
  0
LINE
  5
1A547
330
1F
100
AcDbEntity
  8
0
  6
Continuous
 62
     7
370
     0
100
AcDbLine
 10
4.572807154858403
 20
262.2809139675481
 30
0.0
 11
4.532801374428438
 21
263.8788171537281
 31
0.0
  0
LINE
  5
1A548
330
1F
100
AcDbEntity
  8
0
  6
Continuous
 62
     7
370
     0
100
AcDbLine
 10
6.596550812388251
 20
262.2809139675481
 30
0.0
 11
6.642583121928148
 21
264.173821073638
 31
0.0
  0
LINE
  5
1A549
330
1F
100
AcDbEntity
  8
0
  6
Continuous
 62
     7
370
     0
100
AcDbLine
 10
6.64723023845827
 20
263.878818797328
 30
0.0
 11
6.608503020908394
 21
262.2809138013681
 31
0.0
  0
SPLINE
  5
1A54A
330
1F
100
AcDbEntity
  8
0
  6
Continuous
 62
     7
370
     0
100
AcDbSpline
210
0.0
220
0.0
230
1.0
 70
     8
 71
     3
 72
    13
 73
     9
 74
     0
 42
0.000000001
 43
0.0000000001
 40
0.0
 40
0.0
 40
0.0
 40
0.0
 40
0.2621165152
 40
0.5167708035999999
 40
0.6407138885
 40
0.7621360565
 40
0.8816026487
 40
1.0
 40
1.0
 40
1.0
 40
1.0
 10
-5.159186457391932
 20
258.076333001648
 30
0.0
 10
-5.160229132591574
 20
258.0317866769581
 30
0.0
 10
-5.177409022661685
 20
257.9435673856581
 30
0.0
 10
-5.235541629711769
 20
257.848354839068
 30
0.0
 10
-5.299079743511719
 20
257.791152523268
 30
0.0
 10
-5.352907240661715
 20
257.759447460018
 30
0.0
 10
-5.411233899681882
 20
257.739905765958
 30
0.0
 10
-5.451803133281736
 20
257.7354949335181
 30
0.0
 10
-5.471930103921657
 20
257.7354949335181
 30
0.0
  0
SPLINE
  5
1A54B
330
1F
100
AcDbEntity
  8
0
  6
Continuous
 62
     7
370
     0
100
AcDbSpline
210
0.0
220
0.0
230
1.0
 70
     8
 71
     3
 72
    11
 73
     7
 74
     0
 42
0.000000001
 43
0.0000000001
 40
0.0
 40
0.0
 40
0.0
 40
0.0
 40
0.1831345196
 40
0.4215496848
 40
0.6998676406000001
 40
1.0
 40
1.0
 40
1.0
 40
1.0
 10
6.642583121928148
 20
264.173821073638
 30
0.0
 10
6.644314704998216
 20
264.1558863423479
 30
0.0
 10
6.646739301298204
 20
264.114460216068
 30
0.0
 10
6.648572381428131
 20
264.0456242443181
 30
0.0
 10
6.648828194818272
 20
263.9652478089481
 30
0.0
 10
6.647945591838472
 20
263.908339373028
 30
0.0
 10
6.64723023845827
 20
263.878818797328
 30
0.0
  0
LINE
  5
1A54C
330
1F
100
AcDbEntity
  8
0
  6
Continuous
 62
     7
370
     0
100
AcDbLine
 10
5.1064417942981
 20
264.2196568653881
 30
0.0
 11
5.152832595818474
 21
262.2809139675481
 31
0.0
  0
LINE
  5
1A54D
330
1F
100
AcDbEntity
  8
0
  6
Continuous
 62
     7
370
     0
100
AcDbLine
 10
6.412398502648195
 20
262.2809139675481
 30
0.0
 11
6.45878930360832
 21
264.2196568653881
 31
0.0
  0
SPLINE
  5
1A54E
330
1F
100
AcDbEntity
  8
0
  6
Continuous
 62
     7
370
     0
100
AcDbSpline
210
0.0
220
0.0
230
1.0
 70
     8
 71
     3
 72
    18
 73
    14
 74
     0
 42
0.000000001
 43
0.0000000001
 40
0.0
 40
0.0
 40
0.0
 40
0.0
 40
0.0072127065
 40
0.0224148614
 40
0.0465521884
 40
0.0796199803
 40
0.1213898507
 40
0.1715110923
 40
0.2949435336
 40
0.4454336931
 40
0.6174404638000001
 40
0.804605315
 40
1.0
 40
1.0
 40
1.0
 40
1.0
 10
5.143194172828409
 20
262.1104949335181
 30
0.0
 10
5.143606166648262
 20
262.1104949335181
 30
0.0
 10
5.144500670538129
 20
262.1117833829881
 30
0.0
 10
5.145188656508346
 20
262.1141713013182
 30
0.0
 10
5.146106206148126
 20
262.1183014046381
 30
0.0
 10
5.146919739778333
 20
262.123859831778
 30
0.0
 10
5.147752802148354
 20
262.1309636424782
 30
0.0
 10
5.148875363448134
 20
262.143206206378
 30
0.0
 10
5.150087918008104
 20
262.1616825343181
 30
0.0
 10
5.151238689238291
 20
262.1871275810081
 30
0.0
 10
5.15211189527836
 20
262.216228178758
 30
0.0
 10
5.152670759598188
 20
262.247900856858
 30
0.0
 10
5.152816493508091
 20
262.2697529254881
 30
0.0
 10
5.152832595818474
 20
262.2809139675481
 30
0.0
  0
SPLINE
  5
1A54F
330
1F
100
AcDbEntity
  8
0
  6
Continuous
 62
     7
370
     0
100
AcDbSpline
210
0.0
220
0.0
230
1.0
 70
     8
 71
     3
 72
    13
 73
     9
 74
     0
 42
0.000000001
 43
0.0000000001
 40
0.0
 40
0.0
 40
0.0
 40
0.0
 40
0.104004577
 40
0.2115508404
 40
0.3253865078
 40
0.4470228547
 40
0.7126839718000001
 40
1.0
 40
1.0
 40
1.0
 40
1.0
 10
16.66502572797808
 20
257.7354949335181
 30
0.0
 10
16.65717336898806
 20
257.7354949335181
 30
0.0
 10
16.64112457090832
 20
257.733298336528
 30
0.0
 10
16.61825984664811
 20
257.723664145178
 30
0.0
 10
16.59724052755846
 20
257.708164780878
 30
0.0
 10
16.57192541150844
 20
257.6797446090279
 30
0.0
 10
16.54924173671825
 20
257.6330614270981
 30
0.0
 10
16.54225495089813
 20
257.591331243428
 30
0.0
 10
16.54145162767836
 20
257.5696537258179
 30
0.0
  0
LINE
  5
1A550
330
1F
100
AcDbEntity
  8
0
  6
Continuous
 62
     7
370
     0
100
AcDbLine
 10
-24.93385198745172
 20
225.5366104934931
 30
0.0
 11
-24.93385198745172
 21
231.136610493493
 31
0.0
  0
LINE
  5
1A551
330
1F
100
AcDbEntity
  8
0
  6
Continuous
 62
     7
370
     0
100
AcDbLine
 10
-24.7815457571518
 20
225.5366104934931
 30
0.0
 11
-24.7815457571518
 21
231.136610493493
 31
0.0
  0
LINE
  5
1A552
330
1F
100
AcDbEntity
  8
0
  6
Continuous
 62
     7
370
     0
100
AcDbLine
 10
-24.52299148852207
 20
225.1866104934921
 30
0.0
 11
-24.52299148852207
 21
231.4866104934931
 31
0.0
  0
LINE
  5
1A553
330
1F
100
AcDbEntity
  8
0
  6
Continuous
 62
     7
370
     0
100
AcDbLine
 10
-24.28450050201209
 20
225.1866104934921
 30
0.0
 11
-24.28450050201209
 21
231.4866104934931
 31
0.0
  0
LINE
  5
1A554
330
1F
100
AcDbEntity
  8
0
  6
Continuous
 62
     7
370
     0
100
AcDbLine
 10
-17.09997605862181
 20
225.1866104934921
 30
0.0
 11
-17.09997605862181
 21
231.4866104934931
 31
0.0
  0
LINE
  5
1A555
330
1F
100
AcDbEntity
  8
0
  6
Continuous
 62
     7
370
     0
100
AcDbLine
 10
-17.01752222100176
 20
225.1866104934921
 30
0.0
 11
-17.01752222100176
 21
231.4866104934931
 31
0.0
  0
LINE
  5
1A556
330
1F
100
AcDbEntity
  8
0
  6
Continuous
 62
     7
370
     0
100
AcDbLine
 10
-16.7694660173619
 20
225.1866104934921
 30
0.0
 11
-16.7694660173619
 21
231.4866104934931
 31
0.0
  0
LINE
  5
1A557
330
1F
100
AcDbEntity
  8
0
  6
Continuous
 62
     7
370
     0
100
AcDbLine
 10
-5.080224330441887
 20
221.476427809102
 30
0.0
 11
-5.080224347941929
 21
235.196679875043
 31
0.0
  0
LINE
  5
1A558
330
1F
100
AcDbEntity
  8
0
  6
Continuous
 62
     7
370
     0
100
AcDbLine
 10
-5.067384450731787
 20
235.195475499283
 30
0.0
 11
-5.067384450731787
 21
221.4777454877031
 31
0.0
  0
LINE
  5
1A559
330
1F
100
AcDbEntity
  8
0
  6
Continuous
 62
     7
370
     0
100
AcDbLine
 10
-4.962384450731768
 20
235.375005196833
 30
0.0
 11
-4.962384450731768
 21
221.298215790152
 31
0.0
  0
LINE
  5
1A55A
330
1F
100
AcDbEntity
  8
0
  6
Continuous
 62
     7
370
     0
100
AcDbLine
 10
-24.60917624473213
 20
225.1866104934921
 30
0.0
 11
-24.76148247503206
 21
225.1866104934921
 31
0.0
  0
LINE
  5
1A55B
330
1F
100
AcDbEntity
  8
0
  6
Continuous
 62
     7
370
     0
100
AcDbLine
 10
-24.60917624473213
 20
225.1866104934921
 30
0.0
 11
-13.6124678364521
 21
225.1866104934921
 31
0.0
  0
LINE
  5
1A55C
330
1F
100
AcDbEntity
  8
0
  6
Continuous
 62
     7
370
     0
100
AcDbLine
 10
25.17769893491786
 20
225.1866104934921
 30
0.0
 11
36.17440734319789
 21
225.1866104934921
 31
0.0
  0
LINE
  5
1A55D
330
1F
100
AcDbEntity
  8
0
  6
Continuous
 62
     7
370
     0
100
AcDbLine
 10
36.17440734319789
 20
225.1866104934921
 30
0.0
 11
36.32671357356785
 21
225.1866104934921
 31
0.0
  0
LINE
  5
1A55E
330
1F
100
AcDbEntity
  8
0
  6
Continuous
 62
     7
370
     0
100
AcDbLine
 10
-12.64957407847205
 20
225.345930570353
 30
0.0
 11
-12.75139680822203
 21
225.345930570353
 31
0.0
  0
LINE
  5
1A55F
330
1F
100
AcDbEntity
  8
0
  6
Continuous
 62
     7
370
     0
100
AcDbLine
 10
24.21480517693826
 20
225.345930570353
 30
0.0
 11
24.31662790668825
 21
225.345930570353
 31
0.0
  0
LINE
  5
1A560
330
1F
100
AcDbEntity
  8
0
  6
Continuous
 62
     7
370
     0
100
AcDbLine
 10
-24.7815457571518
 20
225.5366104934931
 30
0.0
 11
-24.93385198745172
 21
225.5366104934931
 31
0.0
  0
LINE
  5
1A561
330
1F
100
AcDbEntity
  8
0
  6
Continuous
 62
     7
370
     0
100
AcDbLine
 10
36.34677685561801
 20
225.5366104934931
 30
0.0
 11
36.49908308598797
 21
225.5366104934931
 31
0.0
  0
LINE
  5
1A562
330
1F
100
AcDbEntity
  8
0
  6
Continuous
 62
     7
370
     0
100
AcDbLine
 10
-9.800042804091753
 20
226.0616104934921
 30
0.0
 11
-10.96675604717202
 21
226.0616104934921
 31
0.0
  0
LINE
  5
1A563
330
1F
100
AcDbEntity
  8
0
  6
Continuous
 62
     7
370
     0
100
AcDbLine
 10
21.36527390255797
 20
226.0616104934921
 30
0.0
 11
22.53198714563823
 21
226.0616104934921
 31
0.0
  0
LINE
  5
1A564
330
1F
100
AcDbEntity
  8
0
  6
Continuous
 62
     7
370
     0
100
AcDbLine
 10
-1.722161629302171
 20
228.0216104934921
 30
0.0
 11
-0.7126072721620389
 21
228.0216104934921
 31
0.0
  0
LINE
  5
1A565
330
1F
100
AcDbEntity
  8
0
  6
Continuous
 62
     7
370
     0
100
AcDbLine
 10
-9.800042804091753
 20
230.6116104934931
 30
0.0
 11
-10.96675604717202
 21
230.6116104934931
 31
0.0
  0
LINE
  5
1A566
330
1F
100
AcDbEntity
  8
0
  6
Continuous
 62
     7
370
     0
100
AcDbLine
 10
21.36527390255797
 20
230.6116104934931
 30
0.0
 11
22.53198714563823
 21
230.6116104934931
 31
0.0
  0
LINE
  5
1A567
330
1F
100
AcDbEntity
  8
0
  6
Continuous
 62
     7
370
     0
100
AcDbLine
 10
-24.7815457571518
 20
231.136610493493
 30
0.0
 11
-24.93385198745172
 21
231.136610493493
 31
0.0
  0
LINE
  5
1A568
330
1F
100
AcDbEntity
  8
0
  6
Continuous
 62
     7
370
     0
100
AcDbLine
 10
36.34677685561801
 20
231.136610493493
 30
0.0
 11
36.49908308598797
 21
231.136610493493
 31
0.0
  0
LINE
  5
1A569
330
1F
100
AcDbEntity
  8
0
  6
Continuous
 62
     7
370
     0
100
AcDbLine
 10
-12.64957407847205
 20
231.3272904165631
 30
0.0
 11
-12.75139680822203
 21
231.3272904165631
 31
0.0
  0
LINE
  5
1A56A
330
1F
100
AcDbEntity
  8
0
  6
Continuous
 62
     7
370
     0
100
AcDbLine
 10
24.21480517693826
 20
231.3272904165631
 30
0.0
 11
24.31662790668825
 21
231.3272904165631
 31
0.0
  0
LINE
  5
1A56B
330
1F
100
AcDbEntity
  8
0
  6
Continuous
 62
     7
370
     0
100
AcDbLine
 10
-24.60917624473213
 20
231.4866104934931
 30
0.0
 11
-24.76148247503206
 21
231.4866104934931
 31
0.0
  0
LINE
  5
1A56C
330
1F
100
AcDbEntity
  8
0
  6
Continuous
 62
     7
370
     0
100
AcDbLine
 10
-24.60917624473213
 20
231.4866104934931
 30
0.0
 11
-13.6124678364521
 21
231.4866104934931
 31
0.0
  0
LINE
  5
1A56D
330
1F
100
AcDbEntity
  8
0
  6
Continuous
 62
     7
370
     0
100
AcDbLine
 10
25.17769893491786
 20
231.4866104934931
 30
0.0
 11
36.17440734319789
 21
231.4866104934931
 31
0.0
  0
LINE
  5
1A56E
330
1F
100
AcDbEntity
  8
0
  6
Continuous
 62
     7
370
     0
100
AcDbLine
 10
36.17440734319789
 20
231.4866104934931
 30
0.0
 11
36.32671357356785
 21
231.4866104934931
 31
0.0
  0
LINE
  5
1A56F
330
1F
100
AcDbEntity
  8
0
  6
Continuous
 62
     7
370
     0
100
AcDbLine
 10
12.79461762480796
 20
233.044110493493
 30
0.0
 11
12.42061347365789
 21
233.044110493493
 31
0.0
  0
LINE
  5
1A570
330
1F
100
AcDbEntity
  8
0
  6
Continuous
 62
     7
370
     0
100
AcDbLine
 10
1.723013482188072
 20
234.794110493493
 30
0.0
 11
2.492217616348263
 21
234.794110493493
 31
0.0
  0
LINE
  5
1A571
330
1F
100
AcDbEntity
  8
0
  6
Continuous
 62
     7
370
     0
100
AcDbLine
 10
1.342800227298177
 20
235.2491104934921
 30
0.0
 11
1.448883273247795
 21
235.2491104934921
 31
0.0
  0
LINE
  5
1A572
330
1F
100
AcDbEntity
  8
0
  6
Continuous
 62
     7
370
     0
100
AcDbLine
 10
2.766348515907886
 20
235.2491104934921
 30
0.0
 11
2.872430871238159
 21
235.2491104934921
 31
0.0
  0
LINE
  5
1A573
330
1F
100
AcDbEntity
  8
0
  6
Continuous
 62
     7
370
     0
100
AcDbLine
 10
1.342800227298177
 20
235.4241104934931
 30
0.0
 11
1.449091593668165
 21
235.4241104934931
 31
0.0
  0
LINE
  5
1A574
330
1F
100
AcDbEntity
  8
0
  6
Continuous
 62
     7
370
     0
100
AcDbLine
 10
2.766139796418067
 20
235.4241104934931
 30
0.0
 11
2.872430871238159
 21
235.4241104934931
 31
0.0
  0
LINE
  5
1A575
330
1F
100
AcDbEntity
  8
0
  6
Continuous
 62
     7
370
     0
100
AcDbLine
 10
16.52761554926801
 20
221.298215790152
 30
0.0
 11
16.52761554926801
 21
235.375005196833
 31
0.0
  0
LINE
  5
1A576
330
1F
100
AcDbEntity
  8
0
  6
Continuous
 62
     7
370
     0
100
AcDbLine
 10
16.63261554926803
 20
221.4777454877031
 30
0.0
 11
16.63261554926803
 21
235.195475499283
 31
0.0
  0
LINE
  5
1A577
330
1F
100
AcDbEntity
  8
0
  6
Continuous
 62
     7
370
     0
100
AcDbLine
 10
16.645455433808
 20
235.1966042779129
 30
0.0
 11
16.64545544325811
 21
221.4764240074731
 31
0.0
  0
LINE
  5
1A578
330
1F
100
AcDbEntity
  8
0
  6
Continuous
 62
     7
370
     0
100
AcDbLine
 10
28.33469711582811
 20
231.4866104934931
 30
0.0
 11
28.33469711582811
 21
225.1866104934921
 31
0.0
  0
LINE
  5
1A579
330
1F
100
AcDbEntity
  8
0
  6
Continuous
 62
     7
370
     0
100
AcDbLine
 10
28.58275331946798
 20
231.4866104934931
 30
0.0
 11
28.58275331946798
 21
225.1866104934921
 31
0.0
  0
LINE
  5
1A57A
330
1F
100
AcDbEntity
  8
0
  6
Continuous
 62
     7
370
     0
100
AcDbLine
 10
28.66520715715806
 20
231.4866104934931
 30
0.0
 11
28.66520715715806
 21
225.1866104934921
 31
0.0
  0
LINE
  5
1A57B
330
1F
100
AcDbEntity
  8
0
  6
Continuous
 62
     7
370
     0
100
AcDbLine
 10
35.84973160047785
 20
231.4866104934931
 30
0.0
 11
35.84973160047785
 21
225.1866104934921
 31
0.0
  0
LINE
  5
1A57C
330
1F
100
AcDbEntity
  8
0
  6
Continuous
 62
     7
370
     0
100
AcDbLine
 10
36.08822258698783
 20
231.4866104934931
 30
0.0
 11
36.08822258698783
 21
225.1866104934921
 31
0.0
  0
LINE
  5
1A57D
330
1F
100
AcDbEntity
  8
0
  6
Continuous
 62
     7
370
     0
100
AcDbLine
 10
36.34677685561801
 20
231.136610493493
 30
0.0
 11
36.34677685561801
 21
225.5366104934931
 31
0.0
  0
LINE
  5
1A57E
330
1F
100
AcDbEntity
  8
0
  6
Continuous
 62
     7
370
     0
100
AcDbLine
 10
36.49908308598797
 20
231.136610493493
 30
0.0
 11
36.49908308598797
 21
225.5366104934931
 31
0.0
  0
ARC
  5
1A57F
330
1F
100
AcDbEntity
  8
0
  6
Continuous
 62
     7
370
     0
100
AcDbCircle
 10
-36.1523300934622
 20
169.624221678833
 30
0.0
 40
66.02763233646999
100
AcDbArc
 50
67.56026521069968
 51
69.14811653249963
  0
ARC
  5
1A580
330
1F
100
AcDbEntity
  8
0
  6
Continuous
 62
     7
370
     0
100
AcDbCircle
 10
-35.66899865284213
 20
171.585483820413
 30
0.0
 40
63.98659562575
100
AcDbArc
 50
67.2908479823998
 51
68.9269027268998
  0
ARC
  5
1A581
330
1F
100
AcDbEntity
  8
0
  6
Continuous
 62
     7
370
     0
100
AcDbCircle
 10
-13.61242974777215
 20
227.6200407241932
 30
0.0
 40
2.43343023105
100
AcDbArc
 50
269.9991031909086
 51
272.236066916702
  0
ARC
  5
1A582
330
1F
100
AcDbEntity
  8
0
  6
Continuous
 62
     7
370
     0
100
AcDbCircle
 10
-13.5143314035121
 20
227.6138945163621
 30
0.0
 40
2.4272861942
100
AcDbArc
 50
269.9233634035035
 51
288.5758934842073
  0
ARC
  5
1A583
330
1F
100
AcDbEntity
  8
0
  6
Continuous
 62
     7
370
     0
100
AcDbCircle
 10
-13.5073328467719
 20
227.5905641170321
 30
0.0
 40
2.40294191844
100
AcDbArc
 50
288.5949256450005
 51
290.9137341181968
  0
ARC
  5
1A584
330
1F
100
AcDbEntity
  8
0
  6
Continuous
 62
     7
370
     0
100
AcDbCircle
 10
-13.60991124612192
 20
227.5803919363421
 30
0.0
 40
2.39371356602
100
AcDbArc
 50
272.2128582918044
 51
291.0175435352995
  0
ARC
  5
1A585
330
1F
100
AcDbEntity
  8
0
  6
Continuous
 62
     7
370
     0
100
AcDbCircle
 10
-4.368387634802183
 20
221.477732059393
 30
0.0
 40
0.69899681607
100
AcDbArc
 50
179.9988993033067
 51
214.0474593024144
  0
ARC
  5
1A586
330
1F
100
AcDbEntity
  8
0
  6
Continuous
 62
     7
370
     0
100
AcDbCircle
 10
-37.52331360855205
 20
290.503636121613
 30
0.0
 40
69.74402849652
100
AcDbArc
 50
290.8941912659998
 51
292.3974269907997
  0
ARC
  5
1A587
330
1F
100
AcDbEntity
  8
0
  6
Continuous
 62
     7
370
     0
100
AcDbCircle
 10
-37.02795587778191
 20
288.469763175893
 30
0.0
 40
67.63108499679
100
AcDbArc
 50
291.1171817140001
 51
292.6650675766998
  0
ARC
  5
1A588
330
1F
100
AcDbEntity
  8
0
  6
Continuous
 62
     7
370
     0
100
AcDbCircle
 10
-13.51635841563202
 20
229.0468796406331
 30
0.0
 40
2.43973115764
100
AcDbArc
 50
71.47210075130455
 51
90.02864236110041
  0
ARC
  5
1A589
330
1F
100
AcDbEntity
  8
0
  6
Continuous
 62
     7
370
     0
100
AcDbCircle
 10
-13.61242974777215
 20
229.053180262722
 30
0.0
 40
2.43343023105
100
AcDbArc
 50
87.76393308329808
 51
90.00089680909144
  0
ARC
  5
1A58A
330
1F
100
AcDbEntity
  8
0
  6
Continuous
 62
     7
370
     0
100
AcDbCircle
 10
-13.5073328467719
 20
229.0826568698831
 30
0.0
 40
2.40294191851
100
AcDbArc
 50
69.08626588180249
 51
71.40507435489747
  0
ARC
  5
1A58B
330
1F
100
AcDbEntity
  8
0
  6
Continuous
 62
     7
370
     0
100
AcDbCircle
 10
-13.60991124612192
 20
229.0928290505731
 30
0.0
 40
2.39371356602
100
AcDbArc
 50
68.98245646470049
 51
87.78714170830455
  0
CIRCLE
  5
1A58C
330
1F
100
AcDbEntity
  8
0
  6
Continuous
 62
     7
370
     0
100
AcDbCircle
 10
-1.217384450731878
 20
228.8616104934931
 30
0.0
 40
1.505
  0
CIRCLE
  5
1A58D
330
1F
100
AcDbEntity
  8
0
  6
Continuous
 62
     7
370
     0
100
AcDbCircle
 10
-1.217384450731878
 20
228.8616104934931
 30
0.0
 40
1.4
  0
CIRCLE
  5
1A58E
330
1F
100
AcDbEntity
  8
0
  6
Continuous
 62
     7
370
     0
100
AcDbCircle
 10
2.10761554926794
 20
235.3366104934931
 30
0.0
 40
1.33
  0
CIRCLE
  5
1A58F
330
1F
100
AcDbEntity
  8
0
  6
Continuous
 62
     7
370
     0
100
AcDbCircle
 10
2.10761554926794
 20
235.3366104934931
 30
0.0
 40
1.225
  0
CIRCLE
  5
1A590
330
1F
100
AcDbEntity
  8
0
  6
Continuous
 62
     7
370
     0
100
AcDbCircle
 10
-1.217384450731878
 20
228.8616104934931
 30
0.0
 40
1.05917136136
  0
CIRCLE
  5
1A591
330
1F
100
AcDbEntity
  8
0
  6
Continuous
 62
     7
370
     0
100
AcDbCircle
 10
-1.217384450731878
 20
228.8616104934931
 30
0.0
 40
1.05
  0
ARC
  5
1A592
330
1F
100
AcDbEntity
  8
0
  6
Continuous
 62
     7
370
     0
100
AcDbCircle
 10
-1.217384450731878
 20
228.8616104934931
 30
0.0
 40
0.9799999999999999
100
AcDbArc
 50
301.0027191338966
 51
238.9972808661034
  0
CIRCLE
  5
1A593
330
1F
100
AcDbEntity
  8
0
  6
Continuous
 62
     7
370
     0
100
AcDbCircle
 10
-1.217384450731878
 20
228.8616104934931
 30
0.0
 40
0.84
  0
CIRCLE
  5
1A594
330
1F
100
AcDbEntity
  8
0
  6
Continuous
 62
     7
370
     0
100
AcDbCircle
 10
2.10761554926794
 20
235.3366104934931
 30
0.0
 40
0.7791713613599999
  0
CIRCLE
  5
1A595
330
1F
100
AcDbEntity
  8
0
  6
Continuous
 62
     7
370
     0
100
AcDbCircle
 10
2.10761554926794
 20
235.3366104934931
 30
0.0
 40
0.77
  0
ARC
  5
1A596
330
1F
100
AcDbEntity
  8
0
  6
Continuous
 62
     7
370
     0
100
AcDbCircle
 10
-4.368387634802183
 20
235.195488927523
 30
0.0
 40
0.69899681607
100
AcDbArc
 50
145.9525406975856
 51
180.0011006966933
  0
ARC
  5
1A597
330
1F
100
AcDbEntity
  8
0
  6
Continuous
 62
     7
370
     0
100
AcDbCircle
 10
2.10761554926794
 20
235.3366104934931
 30
0.0
 40
0.6649999999999999
100
AcDbArc
 50
305.3345017918234
 51
234.6654982082227
  0
CIRCLE
  5
1A598
330
1F
100
AcDbEntity
  8
0
  6
Continuous
 62
     7
370
     0
100
AcDbCircle
 10
2.10761554926794
 20
235.3366104934931
 30
0.0
 40
0.5425
  0
ARC
  5
1A599
330
1F
100
AcDbEntity
  8
0
  6
Continuous
 62
     7
370
     0
100
AcDbCircle
 10
49.0885447070883
 20
166.1695848653031
 30
0.0
 40
69.74402849652
100
AcDbArc
 50
110.8941912660002
 51
112.3974269908005
  0
ARC
  5
1A59A
330
1F
100
AcDbEntity
  8
0
  6
Continuous
 62
     7
370
     0
100
AcDbCircle
 10
48.59318697631816
 20
168.2034578110932
 30
0.0
 40
67.63108499679
100
AcDbArc
 50
111.1171817140001
 51
112.6650675766999
  0
ARC
  5
1A59B
330
1F
100
AcDbEntity
  8
0
  6
Continuous
 62
     7
370
     0
100
AcDbCircle
 10
25.08158951416826
 20
227.6263413462821
 30
0.0
 40
2.43973115764
100
AcDbArc
 50
251.4721007512931
 51
270.0286423611004
  0
ARC
  5
1A59C
330
1F
100
AcDbEntity
  8
0
  6
Continuous
 62
     7
370
     0
100
AcDbCircle
 10
25.17766084623791
 20
227.6200407241932
 30
0.0
 40
2.43343023105
100
AcDbArc
 50
267.7639330833088
 51
270.0008968091021
  0
ARC
  5
1A59D
330
1F
100
AcDbEntity
  8
0
  6
Continuous
 62
     7
370
     0
100
AcDbCircle
 10
25.07256394523811
 20
227.5905641170321
 30
0.0
 40
2.40294191844
100
AcDbArc
 50
249.0862658817911
 51
251.4050743549993
  0
ARC
  5
1A59E
330
1F
100
AcDbEntity
  8
0
  6
Continuous
 62
     7
370
     0
100
AcDbCircle
 10
25.17514234458813
 20
227.5803919363421
 30
0.0
 40
2.39371356602
100
AcDbArc
 50
248.9824564647005
 51
267.7871417081956
  0
ARC
  5
1A59F
330
1F
100
AcDbEntity
  8
0
  6
Continuous
 62
     7
370
     0
100
AcDbCircle
 10
15.93361873333797
 20
221.477732059393
 30
0.0
 40
0.69899681607
100
AcDbArc
 50
325.9525406976163
 51
0.0011006966932952
  0
CIRCLE
  5
1A5A0
330
1F
100
AcDbEntity
  8
0
  6
Continuous
 62
     7
370
     0
100
AcDbCircle
 10
5.782615549268122
 20
228.3366104934931
 30
0.0
 40
15.75
  0
CIRCLE
  5
1A5A1
330
1F
100
AcDbEntity
  8
0
  6
Continuous
 62
     7
370
     0
100
AcDbCircle
 10
5.782615549268122
 20
228.3366104934931
 30
0.0
 40
15.71437741937
  0
CIRCLE
  5
1A5A2
330
1F
100
AcDbEntity
  8
0
  6
Continuous
 62
     7
370
     0
100
AcDbCircle
 10
5.782615549268122
 20
228.3366104934931
 30
0.0
 40
15.37774466907
  0
CIRCLE
  5
1A5A3
330
1F
100
AcDbEntity
  8
0
  6
Continuous
 62
     7
370
     0
100
AcDbCircle
 10
5.782615549268122
 20
228.3366104934931
 30
0.0
 40
13.8028912448
  0
ARC
  5
1A5A4
330
1F
100
AcDbEntity
  8
0
  6
Continuous
 62
     7
370
     0
100
AcDbCircle
 10
5.782615549268122
 20
228.3366104934931
 30
0.0
 40
13.40634788066
100
AcDbArc
 50
326.8461640738005
 51
32.98220952580097
  0
ARC
  5
1A5A5
330
1F
100
AcDbEntity
  8
0
  6
Continuous
 62
     7
370
     0
100
AcDbCircle
 10
5.782615549268122
 20
228.3366104934931
 30
0.0
 40
13.40634788066
100
AcDbArc
 50
147.017790474199
 51
213.1538359261996
  0
ARC
  5
1A5A6
330
1F
100
AcDbEntity
  8
0
  6
Continuous
 62
     7
370
     0
100
AcDbCircle
 10
5.782615549268122
 20
228.3366104934931
 30
0.0
 40
12.96283990589
100
AcDbArc
 50
34.06742982640028
 51
145.932570173598
  0
ARC
  5
1A5A7
330
1F
100
AcDbEntity
  8
0
  6
Continuous
 62
     7
370
     0
100
AcDbCircle
 10
5.782615549268122
 20
228.3366104934931
 30
0.0
 40
12.96283990589
100
AcDbArc
 50
214.0673989648986
 51
325.9326010351
  0
ARC
  5
1A5A8
330
1F
100
AcDbEntity
  8
0
  6
Continuous
 62
     7
370
     0
100
AcDbCircle
 10
5.782615549268122
 20
228.3366104934931
 30
0.0
 40
12.95
100
AcDbArc
 50
214.0463586065987
 51
325.9536413934002
  0
ARC
  5
1A5A9
330
1F
100
AcDbEntity
  8
0
  6
Continuous
 62
     7
370
     0
100
AcDbCircle
 10
5.782615549268122
 20
228.3366104934931
 30
0.0
 40
12.95
100
AcDbArc
 50
34.04635860659985
 51
145.9536413934002
  0
ARC
  5
1A5AA
330
1F
100
AcDbEntity
  8
0
  6
Continuous
 62
     7
370
     0
100
AcDbCircle
 10
5.782615549268122
 20
228.3366104934931
 30
0.0
 40
12.845
100
AcDbArc
 50
213.2263648706987
 51
326.7736351293013
  0
ARC
  5
1A5AB
330
1F
100
AcDbEntity
  8
0
  6
Continuous
 62
     7
370
     0
100
AcDbCircle
 10
5.782615549268122
 20
228.3366104934931
 30
0.0
 40
12.845
100
AcDbArc
 50
33.22636487070031
 51
146.7736351293014
  0
CIRCLE
  5
1A5AC
330
1F
100
AcDbEntity
  8
0
  6
Continuous
 62
     7
370
     0
100
AcDbCircle
 10
5.782615549268122
 20
229.0366104934931
 30
0.0
 40
3.955
  0
CIRCLE
  5
1A5AD
330
1F
100
AcDbEntity
  8
0
  6
Continuous
 62
     7
370
     0
100
AcDbCircle
 10
5.782615549268122
 20
229.0366104934931
 30
0.0
 40
3.85305463634
  0
CIRCLE
  5
1A5AE
330
1F
100
AcDbEntity
  8
0
  6
Continuous
 62
     7
370
     0
100
AcDbCircle
 10
5.782615549268122
 20
229.0366104934931
 30
0.0
 40
2.80305463634
  0
CIRCLE
  5
1A5AF
330
1F
100
AcDbEntity
  8
0
  6
Continuous
 62
     7
370
     0
100
AcDbCircle
 10
5.782615549268122
 20
229.0366104934931
 30
0.0
 40
2.8
  0
CIRCLE
  5
1A5B0
330
1F
100
AcDbEntity
  8
0
  6
Continuous
 62
     7
370
     0
100
AcDbCircle
 10
12.60761554926794
 20
232.011610493493
 30
0.0
 40
1.505
  0
CIRCLE
  5
1A5B1
330
1F
100
AcDbEntity
  8
0
  6
Continuous
 62
     7
370
     0
100
AcDbCircle
 10
12.60761554926794
 20
232.011610493493
 30
0.0
 40
1.4
  0
CIRCLE
  5
1A5B2
330
1F
100
AcDbEntity
  8
0
  6
Continuous
 62
     7
370
     0
100
AcDbCircle
 10
12.60761554926794
 20
232.011610493493
 30
0.0
 40
1.05917136136
  0
CIRCLE
  5
1A5B3
330
1F
100
AcDbEntity
  8
0
  6
Continuous
 62
     7
370
     0
100
AcDbCircle
 10
12.60761554926794
 20
232.011610493493
 30
0.0
 40
1.05
  0
CIRCLE
  5
1A5B4
330
1F
100
AcDbEntity
  8
0
  6
Continuous
 62
     7
370
     0
100
AcDbCircle
 10
12.60761554926794
 20
232.011610493493
 30
0.0
 40
0.875
  0
CIRCLE
  5
1A5B5
330
1F
100
AcDbEntity
  8
0
  6
Continuous
 62
     7
370
     0
100
AcDbCircle
 10
12.60761554926794
 20
232.011610493493
 30
0.0
 40
0.24499999909
  0
ARC
  5
1A5B6
330
1F
100
AcDbEntity
  8
0
  6
Continuous
 62
     7
370
     0
100
AcDbCircle
 10
25.17766084623791
 20
229.053180262722
 30
0.0
 40
2.43343023105
100
AcDbArc
 50
89.99910319089786
 51
92.23606691669121
  0
ARC
  5
1A5B7
330
1F
100
AcDbEntity
  8
0
  6
Continuous
 62
     7
370
     0
100
AcDbCircle
 10
25.07956250204789
 20
229.0593264705531
 30
0.0
 40
2.4272861942
100
AcDbArc
 50
89.92336340349277
 51
108.5758934841959
  0
ARC
  5
1A5B8
330
1F
100
AcDbEntity
  8
0
  6
Continuous
 62
     7
370
     0
100
AcDbCircle
 10
25.07256394523811
 20
229.0826568698831
 30
0.0
 40
2.40294191844
100
AcDbArc
 50
108.5949256450007
 51
110.9137341182089
  0
ARC
  5
1A5B9
330
1F
100
AcDbEntity
  8
0
  6
Continuous
 62
     7
370
     0
100
AcDbCircle
 10
25.17514234458813
 20
229.0928290505731
 30
0.0
 40
2.39371356602
100
AcDbArc
 50
92.21285829170635
 51
111.0175435352995
  0
ARC
  5
1A5BA
330
1F
100
AcDbEntity
  8
0
  6
Continuous
 62
     7
370
     0
100
AcDbCircle
 10
15.93361873333797
 20
235.195488927523
 30
0.0
 40
0.69899681607
100
AcDbArc
 50
359.9988993033067
 51
34.04745930241471
  0
ARC
  5
1A5BB
330
1F
100
AcDbEntity
  8
0
  6
Continuous
 62
     7
370
     0
100
AcDbCircle
 10
47.71756119199799
 20
287.048999308362
 30
0.0
 40
66.02763233668
100
AcDbArc
 50
247.5602652106998
 51
249.1481165324998
  0
ARC
  5
1A5BC
330
1F
100
AcDbEntity
  8
0
  6
Continuous
 62
     7
370
     0
100
AcDbCircle
 10
47.23422975137792
 20
285.0877371667121
 30
0.0
 40
63.98659562595999
100
AcDbArc
 50
247.2908479824
 51
248.9269027268998
  0
SPLINE
  5
1A5BD
330
1F
100
AcDbEntity
  8
0
  6
Continuous
 62
     7
370
     0
100
AcDbSpline
210
0.0
220
0.0
230
1.0
 70
     8
 71
     3
 72
    13
 73
     9
 74
     0
 42
0.000000001
 43
0.0000001
 40
0.0
 40
0.0
 40
0.0
 40
0.0
 40
0.0814319365
 40
0.1716108062
 40
0.2760418411
 40
0.396581214
 40
0.6804311482
 40
1.0
 40
1.0
 40
1.0
 40
1.0
 10
-24.76148247503206
 20
231.4866104934931
 30
0.0
 10
-24.77291364464181
 20
231.4866104934931
 30
0.0
 10
-24.79719083324189
 20
231.481462471593
 30
0.0
 10
-24.83021688588214
 20
231.4600404992021
 30
0.0
 10
-24.85988001903197
 20
231.4266979838431
 30
0.0
 10
-24.89603763766208
 20
231.3647057938631
 30
0.0
 10
-24.92599649176181
 20
231.266329197433
 30
0.0
 10
-24.93385198745172
 20
231.1814706048031
 30
0.0
 10
-24.93385198745172
 20
231.136610493493
 30
0.0
  0
SPLINE
  5
1A5BE
330
1F
100
AcDbEntity
  8
0
  6
Continuous
 62
     7
370
     0
100
AcDbSpline
210
0.0
220
0.0
230
1.0
 70
     8
 71
     3
 72
    13
 73
     9
 74
     0
 42
0.000000001
 43
0.0000001
 40
0.0
 40
0.0
 40
0.0
 40
0.0
 40
0.3195688518
 40
0.603418786
 40
0.7239581589
 40
0.8283891938
 40
0.9185680635
 40
1.0
 40
1.0
 40
1.0
 40
1.0
 10
-24.93385198745172
 20
225.5366104934931
 30
0.0
 10
-24.93385198745172
 20
225.4917503821121
 30
0.0
 10
-24.92599649176181
 20
225.406891789482
 30
0.0
 10
-24.89603763766208
 20
225.308515193053
 30
0.0
 10
-24.85988001903197
 20
225.246523003073
 30
0.0
 10
-24.83021688588214
 20
225.2131804877131
 30
0.0
 10
-24.79719083324189
 20
225.1917585153931
 30
0.0
 10
-24.77291364464181
 20
225.1866104934921
 30
0.0
 10
-24.76148247503206
 20
225.1866104934921
 30
0.0
  0
LINE
  5
1A5BF
330
1F
100
AcDbEntity
  8
0
  6
Continuous
 62
     7
370
     0
100
AcDbLine
 10
-10.94882615281212
 20
226.020877748713
 30
0.0
 11
-10.85056422919197
 21
226.0616104934921
 31
0.0
  0
LINE
  5
1A5C0
330
1F
100
AcDbEntity
  8
0
  6
Continuous
 62
     7
370
     0
100
AcDbLine
 10
-10.85056422919197
 20
230.6116104934931
 30
0.0
 11
-10.94882615281212
 21
230.652343238203
 31
0.0
  0
SPLINE
  5
1A5C1
330
1F
100
AcDbEntity
  8
0
  6
Continuous
 62
     7
370
     0
100
AcDbSpline
210
0.0
220
0.0
230
1.0
 70
     8
 71
     3
 72
    13
 73
     9
 74
     0
 42
0.000000001
 43
0.0000001
 40
0.0
 40
0.0
 40
0.0
 40
0.0
 40
0.0814319365
 40
0.1716108062
 40
0.2760418411
 40
0.396581214
 40
0.6804311482
 40
1.0
 40
1.0
 40
1.0
 40
1.0
 10
36.32671357356785
 20
225.1866104934921
 30
0.0
 10
36.33814474310802
 20
225.1866104934921
 30
0.0
 10
36.36242193170811
 20
225.1917585153931
 30
0.0
 10
36.3954479843479
 20
225.2131804877131
 30
0.0
 10
36.42511111749818
 20
225.246523003073
 30
0.0
 10
36.46126873612784
 20
225.308515193053
 30
0.0
 10
36.49122759022803
 20
225.406891789482
 30
0.0
 10
36.49908308598797
 20
225.4917503821121
 30
0.0
 10
36.49908308598797
 20
225.5366104934931
 30
0.0
  0
SPLINE
  5
1A5C2
330
1F
100
AcDbEntity
  8
0
  6
Continuous
 62
     7
370
     0
100
AcDbSpline
210
0.0
220
0.0
230
1.0
 70
     8
 71
     3
 72
    13
 73
     9
 74
     0
 42
0.000000001
 43
0.0000001
 40
0.0
 40
0.0
 40
0.0
 40
0.0
 40
0.3195688518
 40
0.603418786
 40
0.7239581589
 40
0.8283891938
 40
0.9185680635
 40
1.0
 40
1.0
 40
1.0
 40
1.0
 10
36.49908308598797
 20
231.136610493493
 30
0.0
 10
36.49908308598797
 20
231.1814706048031
 30
0.0
 10
36.49122759022803
 20
231.266329197433
 30
0.0
 10
36.46126873612784
 20
231.3647057938631
 30
0.0
 10
36.42511111749818
 20
231.4266979838431
 30
0.0
 10
36.3954479843479
 20
231.4600404992021
 30
0.0
 10
36.36242193170811
 20
231.481462471593
 30
0.0
 10
36.33814474310802
 20
231.4866104934931
 30
0.0
 10
36.32671357356785
 20
231.4866104934931
 30
0.0
  0
LINE
  5
1A5C3
330
1F
100
AcDbEntity
  8
0
  6
Continuous
 62
     7
370
     0
100
AcDbLine
 10
22.51405725127788
 20
230.652343238203
 30
0.0
 11
22.41579532765818
 21
230.6116104934931
 31
0.0
  0
LINE
  5
1A5C4
330
1F
100
AcDbEntity
  8
0
  6
Continuous
 62
     7
370
     0
100
AcDbLine
 10
22.41579532765818
 20
226.0616104934921
 30
0.0
 11
22.51405725127788
 21
226.020877748713
 31
0.0
  0
LINE
  5
1A5C5
330
1F
100
AcDbEntity
  8
0
  6
Continuous
 62
     7
370
     0
100
AcDbLine
 10
16.52518007202807
 20
235.5904213077431
 30
0.0
 11
16.51278938896812
 21
235.586842860072
 31
0.0
  0
LINE
  5
1A5C6
330
1F
100
AcDbEntity
  8
0
  6
Continuous
 62
     7
370
     0
100
AcDbLine
 10
-4.959948876822089
 20
235.590421279813
 30
0.0
 11
-4.947558290431878
 21
235.586842860072
 31
0.0
  0
LINE
  5
1A5C7
330
1F
100
AcDbEntity
  8
0
  6
Continuous
 62
     7
370
     0
100
AcDbLine
 10
-4.955527510921819
 20
235.597981028513
 30
0.0
 11
-4.959948876822089
 21
235.590421279813
 31
0.0
  0
LINE
  5
1A5C8
330
1F
100
AcDbEntity
  8
0
  6
Continuous
 62
     7
370
     0
100
AcDbLine
 10
16.52518007202807
 20
235.5904213077431
 30
0.0
 11
16.52075860938803
 21
235.597981028513
 31
0.0
  0
LINE
  5
1A5C9
330
1F
100
AcDbEntity
  8
0
  6
Continuous
 62
     7
370
     0
100
AcDbLine
 10
-5.080225844471805
 20
221.4738149244932
 30
0.0
 11
-5.067384450731787
 21
221.4777454877031
 31
0.0
  0
LINE
  5
1A5CA
330
1F
100
AcDbEntity
  8
0
  6
Continuous
 62
     7
370
     0
100
AcDbLine
 10
-5.080224330441887
 20
221.476427809102
 30
0.0
 11
-5.080225844471805
 21
221.4738149244932
 31
0.0
  0
LINE
  5
1A5CB
330
1F
100
AcDbEntity
  8
0
  6
Continuous
 62
     7
370
     0
100
AcDbLine
 10
-5.080226033121924
 20
235.1994061201731
 30
0.0
 11
-5.080224347941929
 21
235.196679875043
 31
0.0
  0
LINE
  5
1A5CC
330
1F
100
AcDbEntity
  8
0
  6
Continuous
 62
     7
370
     0
100
AcDbLine
 10
-5.080226033121924
 20
235.1994061201731
 30
0.0
 11
-5.067384450731787
 21
235.195475499283
 31
0.0
  0
LINE
  5
1A5CD
330
1F
100
AcDbEntity
  8
0
  6
Continuous
 62
     7
370
     0
100
AcDbLine
 10
16.64545712479785
 20
235.1994061181431
 30
0.0
 11
16.63261554926803
 21
235.195475499283
 31
0.0
  0
LINE
  5
1A5CE
330
1F
100
AcDbEntity
  8
0
  6
Continuous
 62
     7
370
     0
100
AcDbLine
 10
16.645455433808
 20
235.1966042779129
 30
0.0
 11
16.64545712479785
 21
235.1994061181431
 31
0.0
  0
LINE
  5
1A5CF
330
1F
100
AcDbEntity
  8
0
  6
Continuous
 62
     7
370
     0
100
AcDbLine
 10
16.64545700040808
 20
221.4738149068531
 30
0.0
 11
16.64545544325811
 21
221.4764240074731
 31
0.0
  0
LINE
  5
1A5D0
330
1F
100
AcDbEntity
  8
0
  6
Continuous
 62
     7
370
     0
100
AcDbLine
 10
16.64545700040808
 20
221.4738149068531
 30
0.0
 11
16.63261554926803
 21
221.4777454877031
 31
0.0
  0
SPLINE
  5
1A5D1
330
1F
100
AcDbEntity
  8
0
  6
Continuous
 62
     7
370
     0
100
AcDbSpline
210
0.0
220
0.0
230
1.0
 70
     8
 71
     3
 72
    33
 73
    29
 74
     0
 42
0.000000001
 43
0.0000001
 40
0.0
 40
0.0
 40
0.0
 40
0.0
 40
0.0046971462
 40
0.008413926
 40
0.010283085
 40
0.0118041561
 40
0.0138972197
 40
0.0166351769
 40
0.0232019974
 40
0.0304819521
 40
0.0380826913
 40
0.0458476607
 40
0.0537055176
 40
0.0695702026
 40
0.1015476818
 40
0.1336320124
 40
0.1657421945
 40
0.1978548879
 40
0.2299628398
 40
0.2941561301
 40
0.3583278051
 40
0.4224862484
 40
0.4866388433
 40
0.5507913103
 40
0.6149479156
 40
0.7432595043
 40
0.8716091463
 40
1.0
 40
1.0
 40
1.0
 40
1.0
 10
-4.959945295692158
 20
221.0828007411431
 30
0.0
 10
-4.959610329381938
 20
221.0822271065431
 30
0.0
 10
-4.958955498001977
 20
221.081090406713
 30
0.0
 10
-4.958434837791991
 20
221.0801561258131
 30
0.0
 10
-4.957662637132124
 20
221.078648493462
 30
0.0
 10
-4.95855125066182
 20
221.079492205073
 30
0.0
 10
-4.958982250252028
 20
221.080095846713
 30
0.0
 10
-4.960025798281912
 20
221.0814267740721
 30
0.0
 10
-4.961363928291938
 20
221.0832947685931
 30
0.0
 10
-4.963126723591721
 20
221.085784567862
 30
0.0
 10
-4.964939922951906
 20
221.088418340333
 30
0.0
 10
-4.966782082081771
 20
221.091139068762
 30
0.0
 10
-4.969250238052062
 20
221.094844939043
 30
0.0
 10
-4.973550514382076
 20
221.101445288602
 30
0.0
 10
-4.979549299552126
 20
221.1110264465531
 30
0.0
 10
-4.986514911141875
 20
221.1227092397731
 30
0.0
 10
-4.993243916641767
 20
221.1345517928731
 30
0.0
 10
-4.999731056881863
 20
221.1465323725331
 30
0.0
 10
-5.008054873991931
 20
221.1626739277531
 30
0.0
 10
-5.017850432981867
 20
221.183152417952
 30
0.0
 10
-5.028623215282003
 20
221.2081647503331
 30
0.0
 10
-5.038404833631738
 20
221.2335751116721
 30
0.0
 10
-5.047185702372097
 20
221.2593453003131
 30
0.0
 10
-5.054956327121907
 20
221.2854380693221
 30
0.0
 10
-5.063957099322032
 20
221.320603278773
 30
0.0
 10
-5.072639976532081
 20
221.365186178253
 30
0.0
 10
-5.078886948242051
 20
221.4193317341931
 30
0.0
 10
-5.080248068072159
 20
221.4556578239231
 30
0.0
 10
-5.080225844471805
 20
221.4738149244932
 30
0.0
  0
SPLINE
  5
1A5D2
330
1F
100
AcDbEntity
  8
0
  6
Continuous
 62
     7
370
     0
100
AcDbSpline
210
0.0
220
0.0
230
1.0
 70
     8
 71
     3
 72
    18
 73
    14
 74
     0
 42
0.000000001
 43
0.0000001
 40
0.0
 40
0.0
 40
0.0
 40
0.0
 40
0.0817424169
 40
0.1783496476
 40
0.2878741165
 40
0.408924513
 40
0.5407621155
 40
0.683460116
 40
0.7589498432
 40
0.8370335876
 40
0.9174857735
 40
0.9585156487
 40
1.0
 40
1.0
 40
1.0
 40
1.0
 10
16.64545535799798
 20
221.4764244400031
 30
0.0
 10
16.65279420048828
 20
221.461858498612
 30
0.0
 10
16.66958113162818
 20
221.430470584643
 30
0.0
 10
16.69784128473803
 20
221.380459329363
 30
0.0
 10
16.73137788860786
 20
221.3244398024431
 30
0.0
 10
16.77031487123813
 20
221.2634840795031
 30
0.0
 10
16.81616564165788
 20
221.1991752833431
 30
0.0
 10
16.8603499930583
 20
221.1450221989731
 30
0.0
 10
16.89959240948802
 20
221.100806368853
 30
0.0
 10
16.93202217104781
 20
221.067161132193
 30
0.0
 10
16.96189824762823
 20
221.040777344062
 30
0.0
 10
16.9870943301481
 20
221.020224128512
 30
0.0
 10
16.99995096148823
 20
221.009937554243
 30
0.0
 10
17.00646903381821
 20
221.0048354519932
 30
0.0
  0
SPLINE
  5
1A5D3
330
1F
100
AcDbEntity
  8
0
  6
Continuous
 62
     7
370
     0
100
AcDbSpline
210
0.0
220
0.0
230
1.0
 70
     8
 71
     3
 72
    20
 73
    16
 74
     0
 42
0.000000001
 43
0.0000001
 40
0.0
 40
0.0
 40
0.0
 40
0.0
 40
0.0418043482
 40
0.0831459629
 40
0.1641670697
 40
0.2037619796
 40
0.2427006827
 40
0.31848205
 40
0.4613152784
 40
0.52843372
 40
0.5927831147
 40
0.7131858271
 40
0.8220952262
 40
0.9183397491
 40
1.0
 40
1.0
 40
1.0
 40
1.0
 10
17.02838058242796
 20
235.634732248192
 30
0.0
 10
17.02149408343812
 20
235.6302892603431
 30
0.0
 10
17.00792094210792
 20
235.6212616318731
 30
0.0
 10
16.98124798635818
 20
235.603254241983
 30
0.0
 10
16.95566600804805
 20
235.584399168682
 30
0.0
 10
16.93160711066785
 20
235.5643981278331
 30
0.0
 10
16.9090763294581
 20
235.5442036092232
 30
0.0
 10
16.87250238414808
 20
235.5093841094731
 30
0.0
 10
16.8337940208181
 20
235.4688230039231
 30
0.0
 10
16.79885272155807
 20
235.427933840992
 30
0.0
 10
16.76816807651822
 20
235.389236559643
 30
0.0
 10
16.73442870546805
 20
235.342557368273
 30
0.0
 10
16.69918793668794
 20
235.2893286594531
 30
0.0
 10
16.66990335730825
 20
235.2413191379631
 30
0.0
 10
16.65282481134782
 20
235.210891214213
 30
0.0
 10
16.64545536716796
 20
235.196679545413
 30
0.0
  0
SPLINE
  5
1A5D4
330
1F
100
AcDbEntity
  8
0
  6
Continuous
 62
     7
370
     0
100
AcDbSpline
210
0.0
220
0.0
230
1.0
 70
     8
 71
     3
 72
    20
 73
    16
 74
     0
 42
0.000000001
 43
0.0000001
 40
0.0
 40
0.0
 40
0.0
 40
0.0
 40
0.0816578453
 40
0.1778998924
 40
0.2868100996
 40
0.4072136647
 40
0.4715626809
 40
0.5386816253
 40
0.6815150558
 40
0.7572966146
 40
0.7962352114
 40
0.8358304432
 40
0.9168524883
 40
0.9581949206
 40
1.0
 40
1.0
 40
1.0
 40
1.0
 10
-5.080224284591985
 20
235.196679577123
 30
0.0
 10
-5.087587637931755
 20
235.2108938695931
 30
0.0
 10
-5.10467445754184
 20
235.241316450873
 30
0.0
 10
-5.133955925421922
 20
235.2893265416031
 30
0.0
 10
-5.169196675231795
 20
235.3425551806331
 30
0.0
 10
-5.202934093561815
 20
235.3892361164731
 30
0.0
 10
-5.233620805422014
 20
235.427931996353
 30
0.0
 10
-5.268561302621855
 20
235.4688219388031
 30
0.0
 10
-5.307271205112009
 20
235.509381610962
 30
0.0
 10
-5.343842373801998
 20
235.5442043521321
 30
0.0
 10
-5.366377431871932
 20
235.564394054253
 30
0.0
 10
-5.390431111241831
 20
235.5844018636831
 30
0.0
 10
-5.41601972317212
 20
235.6032482976521
 30
0.0
 10
-5.442683906801811
 20
235.621269952283
 30
0.0
 10
-5.45627447225197
 20
235.6302712439531
 30
0.0
 10
-5.463149483891719
 20
235.634732248192
 30
0.0
  0
SPLINE
  5
1A5D5
330
1F
100
AcDbEntity
  8
0
  6
Continuous
 62
     7
370
     0
100
AcDbSpline
210
0.0
220
0.0
230
1.0
 70
     8
 71
     3
 72
    18
 73
    14
 74
     0
 42
0.000000001
 43
0.0000001
 40
0.0
 40
0.0
 40
0.0
 40
0.0
 40
0.0414836204
 40
0.0825127069
 40
0.1629639926
 40
0.2410472716
 40
0.3165368411
 40
0.4592344362
 40
0.5910712851
 40
0.712121366
 40
0.8216482172
 40
0.9182549601
 40
1.0
 40
1.0
 40
1.0
 40
1.0
 10
-5.441237935352
 20
221.0048354519932
 30
0.0
 10
-5.43470670442175
 20
221.009920465493
 30
0.0
 10
-5.421869766391772
 20
221.0202317664221
 30
0.0
 10
-5.396664092541776
 20
221.0407719929831
 30
0.0
 10
-5.366794366152043
 20
221.067162946523
 30
0.0
 10
-5.33436153684206
 20
221.100804311973
 30
0.0
 10
-5.295120539451908
 20
221.1450213785731
 30
0.0
 10
-5.250935486721936
 20
221.199173451932
 30
0.0
 10
-5.205085405942008
 20
221.2634824237221
 30
0.0
 10
-5.166146890871822
 20
221.324437543123
 30
0.0
 10
-5.132613650081929
 20
221.380459432472
 30
0.0
 10
-5.104349287661897
 20
221.4304693835821
 30
0.0
 10
-5.08756410589185
 20
221.4618587068631
 30
0.0
 10
-5.080224143191934
 20
221.476424675202
 30
0.0
  0
SPLINE
  5
1A5D6
330
1F
100
AcDbEntity
  8
0
  6
Continuous
 62
     7
370
     0
100
AcDbSpline
210
0.0
220
0.0
230
1.0
 70
     8
 71
     3
 72
    20
 73
    16
 74
     0
 42
0.000000001
 43
0.0000001
 40
0.0
 40
0.0
 40
0.0
 40
0.0
 40
0.0729969882
 40
0.158805058
 40
0.2072507744
 40
0.2596704268
 40
0.3161260469
 40
0.3767041967
 40
0.4415024978
 40
0.510484155
 40
0.6602950816
 40
0.8245708101
 40
0.9111871106
 40
0.9553580012
 40
1.0
 40
1.0
 40
1.0
 40
1.0
 10
16.52076252063816
 20
221.0752457424331
 30
0.0
 10
16.52920591307802
 20
221.084761521993
 30
0.0
 10
16.55183607097806
 20
221.1017178120431
 30
0.0
 10
16.58592309814785
 20
221.1146217908932
 30
0.0
 10
16.61781567067792
 20
221.121242102003
 30
0.0
 10
16.64511082996805
 20
221.124240781392
 30
0.0
 10
16.67467364198829
 20
221.1248211266821
 30
0.0
 10
16.70633003955809
 20
221.1227971804231
 30
0.0
 10
16.73991567562789
 20
221.1181861140331
 30
0.0
 10
16.78833733555812
 20
221.1081515784031
 30
0.0
 10
16.85216758070792
 20
221.087629264983
 30
0.0
 10
16.9148555260982
 20
221.0565692336729
 30
0.0
 10
16.96026127242803
 20
221.032448606303
 30
0.0
 10
16.98677938978799
 20
221.017219810133
 30
0.0
 10
16.99991249172817
 20
221.0090235893031
 30
0.0
 10
17.00646906489792
 20
221.004835431693
 30
0.0
  0
SPLINE
  5
1A5D7
330
1F
100
AcDbEntity
  8
0
  6
Continuous
 62
     7
370
     0
100
AcDbSpline
210
0.0
220
0.0
230
1.0
 70
     8
 71
     3
 72
    20
 73
    16
 74
     0
 42
0.000000001
 43
0.0000001
 40
0.0
 40
0.0
 40
0.0
 40
0.0
 40
0.0440280933
 40
0.0876021339
 40
0.1730914319
 40
0.2148631452
 40
0.2558948019
 40
0.3355728108
 40
0.4845659505
 40
0.5535995764
 40
0.6187495113
 40
0.7371765583
 40
0.8399436454
 40
0.9273204847
 40
1.0
 40
1.0
 40
1.0
 40
1.0
 10
17.028380613228
 20
235.6347322685631
 30
0.0
 10
17.0213791640882
 20
235.6311123975532
 30
0.0
 10
17.00738785752819
 20
235.624021249992
 30
0.0
 10
16.97921771713809
 20
235.6111009869731
 30
0.0
 10
16.95104021085817
 20
235.599198859672
 30
0.0
 10
16.92308214533805
 20
235.5879734059231
 30
0.0
 10
16.89597476524805
 20
235.5774207183931
 30
0.0
 10
16.85026094660825
 20
235.561802064223
 30
0.0
 10
16.798131709868
 20
235.549801660143
 30
0.0
 10
16.747811292798
 20
235.5434399846831
 30
0.0
 10
16.70265807489805
 20
235.5405564492731
 30
0.0
 10
16.65124073087791
 20
235.542351625383
 30
0.0
 10
16.59674557414801
 20
235.553035954772
 30
0.0
 10
16.55286733946796
 20
235.570817774423
 30
0.0
 10
16.52941359467795
 20
235.5882662150821
 30
0.0
 10
16.52075860938803
 20
235.597981028513
 30
0.0
  0
SPLINE
  5
1A5D8
330
1F
100
AcDbEntity
  8
0
  6
Continuous
 62
     7
370
     0
100
AcDbSpline
210
0.0
220
0.0
230
1.0
 70
     8
 71
     3
 72
    20
 73
    16
 74
     0
 42
0.000000001
 43
0.0000001
 40
0.0
 40
0.0
 40
0.0
 40
0.0
 40
0.0726753962
 40
0.1600535111
 40
0.2628182544
 40
0.3812453116
 40
0.4463953974
 40
0.51542977
 40
0.664423068
 40
0.7441014215
 40
0.7851333993
 40
0.8269053175
 40
0.9123957356
 40
0.9559706644
 40
1.0
 40
1.0
 40
1.0
 40
1.0
 10
-4.955527510921819
 20
235.597981028513
 30
0.0
 10
-4.964181285421908
 20
235.5882661228921
 30
0.0
 10
-4.987636343202119
 20
235.5708200713321
 30
0.0
 10
-5.031511683801817
 20
235.5530346370231
 30
0.0
 10
-5.08600749986217
 20
235.5423526071332
 30
0.0
 10
-5.137424181541881
 20
235.540556050483
 30
0.0
 10
-5.182577605802088
 20
235.5434398412531
 30
0.0
 10
-5.23289821215203
 20
235.5498012216631
 30
0.0
 10
-5.28502790627217
 20
235.561801119572
 30
0.0
 10
-5.330741510501774
 20
235.5774206139531
 30
0.0
 10
-5.357849975801763
 20
235.587971025783
 30
0.0
 10
-5.385806801481884
 20
235.599200126112
 30
0.0
 10
-5.41398805346207
 20
235.6110955703021
 30
0.0
 10
-5.442151912752159
 20
235.624029301883
 30
0.0
 10
-5.456157112631807
 20
235.631094469363
 30
0.0
 10
-5.463149514761788
 20
235.6347322685631
 30
0.0
  0
SPLINE
  5
1A5D9
330
1F
100
AcDbEntity
  8
0
  6
Continuous
 62
     7
370
     0
100
AcDbSpline
210
0.0
220
0.0
230
1.0
 70
     8
 71
     3
 72
    20
 73
    16
 74
     0
 42
0.000000001
 43
0.0000001
 40
0.0
 40
0.0
 40
0.0
 40
0.0
 40
0.0446407087
 40
0.088810651
 40
0.1754257203
 40
0.3397005394
 40
0.4895111464
 40
0.5584918903
 40
0.623290012
 40
0.6838679798
 40
0.7403238871
 40
0.7927439823
 40
0.8411919241
 40
0.926999128
 40
1.0
 40
1.0
 40
1.0
 40
1.0
 10
-5.441237966432162
 20
221.004835431693
 30
0.0
 10
-5.4346704670319
 20
221.0090060155931
 30
0.0
 10
-5.421553875782045
 20
221.0172274401321
 30
0.0
 10
-5.395028418921719
 20
221.032443568402
 30
0.0
 10
-5.349628014851895
 20
221.0565716436331
 30
0.0
 10
-5.286937890712032
 20
221.0876274206931
 30
0.0
 10
-5.22310879244187
 20
221.108150984943
 30
0.0
 10
-5.174687347831785
 20
221.118185644822
 30
0.0
 10
-5.141101960331888
 20
221.1227967179321
 30
0.0
 10
-5.109445587262051
 20
221.124821158043
 30
0.0
 10
-5.07988272316188
 20
221.1242407729931
 30
0.0
 10
-5.052586857082041
 20
221.1212430635931
 30
0.0
 10
-5.020694545792047
 20
221.114620487142
 30
0.0
 10
-4.986605116711779
 20
221.1017199667831
 30
0.0
 10
-4.963975599382046
 20
221.0847617305931
 30
0.0
 10
-4.95553142210192
 20
221.0752457424331
 30
0.0
  0
SPLINE
  5
1A5DA
330
1F
100
AcDbEntity
  8
0
  6
Continuous
 62
     7
370
     0
100
AcDbSpline
210
0.0
220
0.0
230
1.0
 70
     8
 71
     3
 72
    33
 73
    29
 74
     0
 42
0.000000001
 43
0.0000001
 40
0.0
 40
0.0
 40
0.0
 40
0.0
 40
0.1283912797
 40
0.2567414118
 40
0.3850535324
 40
0.4492103981
 40
0.5133631059
 40
0.5775159211
 40
0.641674637
 40
0.7058466242
 40
0.7700402195
 40
0.802148309
 40
0.8342611297
 40
0.8663714448
 40
0.8984559057
 40
0.9304335239
 40
0.9462982794
 40
0.9541561567
 40
0.9619211447
 40
0.9695219389
 40
0.976802057
 40
0.9833690486
 40
0.9861076936
 40
0.9882015588
 40
0.9897263811
 40
0.9915915372
 40
0.9953053
 40
1.0
 40
1.0
 40
1.0
 40
1.0
 10
16.64545700040808
 20
221.4738149069231
 30
0.0
 10
16.64547921714811
 20
221.455658104833
 30
0.0
 10
16.64411812706803
 20
221.4193326043631
 30
0.0
 10
16.63787133217793
 20
221.365187907393
 30
0.0
 10
16.62918870745816
 20
221.3206056897821
 30
0.0
 10
16.62018820405783
 20
221.2854410014131
 30
0.0
 10
16.61241781821818
 20
221.259348616353
 30
0.0
 10
16.60363722604789
 20
221.2335787925531
 30
0.0
 10
16.59385591940791
 20
221.2081687660921
 30
0.0
 10
16.58308347947796
 20
221.1831567354821
 30
0.0
 10
16.57328823114822
 20
221.162678475723
 30
0.0
 10
16.56496467415818
 20
221.1465370994231
 30
0.0
 10
16.55847773719788
 20
221.134556651853
 30
0.0
 10
16.55174893994818
 20
221.1227142265721
 30
0.0
 10
16.54478353912791
 20
221.1110315542431
 30
0.0
 10
16.53878493280818
 20
221.101450491562
 30
0.0
 10
16.53448478443816
 20
221.094850204863
 30
0.0
 10
16.53201670210783
 20
221.091144373853
 30
0.0
 10
16.53017459820794
 20
221.0884236667021
 30
0.0
 10
16.52836143895784
 20
221.085789915793
 30
0.0
 10
16.52659868509782
 20
221.083300048203
 30
0.0
 10
16.52526049943808
 20
221.081432097712
 30
0.0
 10
16.52421689015828
 20
221.0801007408332
 30
0.0
 10
16.52378550584817
 20
221.0794970636321
 30
0.0
 10
16.52289672214793
 20
221.078651554423
 30
0.0
 10
16.52366673754805
 20
221.080157761362
 30
0.0
 10
16.52418762399802
 20
221.081091465182
 30
0.0
 10
16.52484171071828
 20
221.082227379683
 30
0.0
 10
16.52517647045816
 20
221.0828007190931
 30
0.0
  0
SPLINE
  5
1A5DB
330
1F
100
AcDbEntity
  8
0
  6
Continuous
 62
     7
370
     0
100
AcDbSpline
210
0.0
220
0.0
230
1.0
 70
     8
 71
     3
 72
    33
 73
    29
 74
     0
 42
0.000000001
 43
0.0000001
 40
0.0
 40
0.0
 40
0.0
 40
0.0
 40
0.0047181073
 40
0.0084436917
 40
0.0102960961
 40
0.011860216
 40
0.0139711706
 40
0.0167192738
 40
0.0232917401
 40
0.0305701822
 40
0.0381677987
 40
0.0459295795
 40
0.0537845723
 40
0.0696446598
 40
0.1016162523
 40
0.1336971079
 40
0.1658049225
 40
0.1979157377
 40
0.2300219928
 40
0.2942118668
 40
0.3583797304
 40
0.422533853
 40
0.4866816778
 40
0.5508290637
 40
0.6149803203
 40
0.7432808068
 40
0.8716194813
 40
1.0
 40
1.0
 40
1.0
 40
1.0
 10
16.52518007202807
 20
235.5904213077431
 30
0.0
 10
16.52484329726813
 20
235.590997341033
 30
0.0
 10
16.52418744710813
 20
235.592137380283
 30
0.0
 10
16.52365948372799
 20
235.593074260353
 30
0.0
 10
16.52289583832826
 20
235.594583305372
 30
0.0
 10
16.52379136477803
 20
235.593716839843
 30
0.0
 10
16.52422767288781
 20
235.593110342832
 30
0.0
 10
16.525273199608
 20
235.5917730302831
 30
0.0
 10
16.5266128194281
 20
235.589904492912
 30
0.0
 10
16.52837554395828
 20
235.5874140412421
 30
0.0
 10
16.53018828901813
 20
235.5847812792231
 30
0.0
 10
16.53202986406823
 20
235.5820615835731
 30
0.0
 10
16.53449742636813
 20
235.5783569827431
 30
0.0
 10
16.53879710090823
 20
235.5717582193131
 30
0.0
 10
16.54479540867815
 20
235.562178711612
 30
0.0
 10
16.55176072759796
 20
235.550497219132
 30
0.0
 10
16.55848962725813
 20
235.538655411953
 30
0.0
 10
16.56497668447819
 20
235.5266752980031
 30
0.0
 10
16.57330033043818
 20
235.510534180283
 30
0.0
 10
16.58309545976781
 20
235.490056157892
 30
0.0
 10
16.59386742369825
 20
235.465044398113
 30
0.0
 10
16.60364796222812
 20
235.4396347376831
 30
0.0
 10
16.61242755906787
 20
235.4138654070321
 30
0.0
 10
16.6201967857779
 20
235.3877736494531
 30
0.0
 10
16.62919559517795
 20
235.3526100062529
 30
0.0
 10
16.6378760088779
 20
235.308029253742
 30
0.0
 10
16.64412030805816
 20
235.253886438512
 30
0.0
 10
16.64547996985821
 20
235.217562276793
 30
0.0
 10
16.64545712479785
 20
235.1994061180731
 30
0.0
  0
SPLINE
  5
1A5DC
330
1F
100
AcDbEntity
  8
0
  6
Continuous
 62
     7
370
     0
100
AcDbSpline
210
0.0
220
0.0
230
1.0
 70
     8
 71
     3
 72
    30
 73
    26
 74
     0
 42
0.000000001
 43
0.0000001
 40
0.0
 40
0.0
 40
0.0
 40
0.0
 40
0.12686413
 40
0.2536877985
 40
0.3804743071
 40
0.5072342254
 40
0.6339937492
 40
0.7608003266
 40
0.8242495532
 40
0.8559809199
 40
0.8877030377
 40
0.9193799429
 40
0.9351702106
 40
0.9508821915
 40
0.9664190657
 40
0.9814841533
 40
0.9885404261
 40
0.9917993197
 40
0.9947428718
 40
0.9971951517
 40
0.9981637061
 40
0.9989277657
 40
0.9994675384
 40
0.9997738144
 40
1.0
 40
1.0
 40
1.0
 40
1.0
 10
-5.080226033121924
 20
235.1994061201731
 30
0.0
 10
-5.080248371661945
 20
235.217164542742
 30
0.0
 10
-5.078948726391808
 20
235.252692096482
 30
0.0
 10
-5.072975869221771
 20
235.3056636862021
 30
0.0
 10
-5.063012506442099
 20
235.3580199205531
 30
0.0
 10
-5.049109075151954
 20
235.409460800322
 30
0.0
 10
-5.031331167662209
 20
235.4596963935631
 30
0.0
 10
-5.01334817214174
 20
235.5003174042731
 30
0.0
 10
-4.999131313401811
 20
235.5279562140732
 30
0.0
 10
-4.990539428701958
 20
235.543505290133
 30
0.0
 10
-4.983864829652155
 20
235.555029130363
 30
0.0
 10
-4.978111071151851
 20
235.564504892883
 30
0.0
 10
-4.973397049602134
 20
235.5719877834731
 30
0.0
 10
-4.969823082491892
 20
235.5775181983632
 30
0.0
 10
-4.966235602371761
 20
235.582918233913
 30
0.0
 10
-4.963254870422041
 20
235.5872667230231
 30
0.0
 10
-4.961198312911982
 20
235.5901632094831
 30
0.0
 10
-4.960104300551755
 20
235.591663389703
 30
0.0
 10
-4.959378242701767
 20
235.592630957492
 30
0.0
 10
-4.958831457792165
 20
235.5933401673931
 30
0.0
 10
-4.958458718711789
 20
235.5937833104431
 30
0.0
 10
-4.958247973282049
 20
235.5940392174221
 30
0.0
 10
-4.958092644122097
 20
235.5941632932629
 30
0.0
 10
-4.957973278022017
 20
235.5943310222231
 30
0.0
 10
-4.957903689762041
 20
235.5942349916031
 30
0.0
 10
-4.957910107992028
 20
235.5942039874831
 30
0.0
  0
LINE
  5
1A5DD
330
1F
100
AcDbEntity
  8
0
  6
Continuous
 62
     7
370
     0
100
AcDbLine
 10
-4.959945295692158
 20
221.0828007411431
 30
0.0
 11
-4.947558290431878
 21
221.0863781268431
 31
0.0
  0
LINE
  5
1A5DE
330
1F
100
AcDbEntity
  8
0
  6
Continuous
 62
     7
370
     0
100
AcDbLine
 10
-4.959945295692158
 20
221.0828007411431
 30
0.0
 11
-4.95553142210192
 21
221.0752457424331
 31
0.0
  0
LINE
  5
1A5DF
330
1F
100
AcDbEntity
  8
0
  6
Continuous
 62
     7
370
     0
100
AcDbLine
 10
16.52076252063816
 20
221.0752457424331
 30
0.0
 11
16.52517647045816
 21
221.0828007190931
 31
0.0
  0
LINE
  5
1A5E0
330
1F
100
AcDbEntity
  8
0
  6
Continuous
 62
     7
370
     0
100
AcDbLine
 10
16.52517647045816
 20
221.0828007190931
 30
0.0
 11
16.51278938896812
 21
221.0863781268431
 31
0.0
  0
LINE
  5
1A5E1
330
1F
100
AcDbEntity
  8
0
  6
Continuous
 62
     7
370
     0
100
AcDbLine
 10
-4.957910107992028
 20
235.5942039874831
 30
0.0
 11
-4.959948876822089
 21
235.590421279813
 31
0.0
  0
LINE
  5
1A5E2
330
1F
100
AcDbEntity
  8
0
  6
Continuous
 62
     7
370
     0
100
AcDbLine
 10
-12.66206097695194
 20
231.2928136765732
 30
0.0
 11
-12.75139680822203
 21
231.3272904165631
 31
0.0
  0
SPLINE
  5
1A5E3
330
1F
100
AcDbEntity
  8
0
  6
Continuous
 62
     7
370
     0
100
AcDbSpline
210
0.0
220
0.0
230
1.0
 70
     8
 71
     3
 72
     9
 73
     5
 74
     0
 42
0.000000001
 43
0.0000001
 40
0.0
 40
0.0
 40
0.0
 40
0.0
 40
0.4594910498
 40
1.0
 40
1.0
 40
1.0
 40
1.0
 10
-24.60917624473213
 20
231.4866104934931
 30
0.0
 10
-24.62456926202176
 20
231.4866104934931
 30
0.0
 10
-24.65829831402188
 20
231.476676153203
 30
0.0
 10
-24.68361130655185
 20
231.4534966411821
 30
0.0
 10
-24.69536100094174
 20
231.4397193848231
 30
0.0
  0
SPLINE
  5
1A5E4
330
1F
100
AcDbEntity
  8
0
  6
Continuous
 62
     7
370
     0
100
AcDbSpline
210
0.0
220
0.0
230
1.0
 70
     8
 71
     3
 72
     9
 73
     5
 74
     0
 42
0.000000001
 43
0.0000001
 40
0.0
 40
0.0
 40
0.0
 40
0.0
 40
0.4472079775
 40
1.0
 40
1.0
 40
1.0
 40
1.0
 10
-24.69536100094174
 20
231.4397193848231
 30
0.0
 10
-24.72624903945179
 20
231.4035012151431
 30
0.0
 10
-24.7690148244018
 20
231.3018046414232
 30
0.0
 10
-24.7815457571518
 20
231.195449532773
 30
0.0
 10
-24.7815457571518
 20
231.136610493493
 30
0.0
  0
SPLINE
  5
1A5E5
330
1F
100
AcDbEntity
  8
0
  6
Continuous
 62
     7
370
     0
100
AcDbSpline
210
0.0
220
0.0
230
1.0
 70
     8
 71
     3
 72
     9
 73
     5
 74
     0
 42
0.000000001
 43
0.0000001
 40
0.0
 40
0.0
 40
0.0
 40
0.0
 40
0.5527920225
 40
1.0
 40
1.0
 40
1.0
 40
1.0
 10
-24.7815457571518
 20
225.5366104934931
 30
0.0
 10
-24.7815457571518
 20
225.477771454142
 30
0.0
 10
-24.7690148244018
 20
225.371416345492
 30
0.0
 10
-24.72624903945179
 20
225.269719771773
 30
0.0
 10
-24.69536100094174
 20
225.2335016021621
 30
0.0
  0
SPLINE
  5
1A5E6
330
1F
100
AcDbEntity
  8
0
  6
Continuous
 62
     7
370
     0
100
AcDbSpline
210
0.0
220
0.0
230
1.0
 70
     8
 71
     3
 72
     9
 73
     5
 74
     0
 42
0.000000001
 43
0.0000001
 40
0.0
 40
0.0
 40
0.0
 40
0.0
 40
0.5405089502
 40
1.0
 40
1.0
 40
1.0
 40
1.0
 10
-24.69536100094174
 20
225.2335016021621
 30
0.0
 10
-24.68361130655185
 20
225.2197243458031
 30
0.0
 10
-24.65829831402188
 20
225.196544833713
 30
0.0
 10
-24.62456926202176
 20
225.1866104934921
 30
0.0
 10
-24.60917624473213
 20
225.1866104934921
 30
0.0
  0
LINE
  5
1A5E7
330
1F
100
AcDbEntity
  8
0
  6
Continuous
 62
     7
370
     0
100
AcDbLine
 10
-12.75139680822203
 20
225.345930570353
 30
0.0
 11
-12.66206097695194
 21
225.380407310412
 31
0.0
  0
LINE
  5
1A5E8
330
1F
100
AcDbEntity
  8
0
  6
Continuous
 62
     7
370
     0
100
AcDbLine
 10
24.22729207541816
 20
225.380407310412
 30
0.0
 11
24.31662790668825
 21
225.345930570353
 31
0.0
  0
SPLINE
  5
1A5E9
330
1F
100
AcDbEntity
  8
0
  6
Continuous
 62
     7
370
     0
100
AcDbSpline
210
0.0
220
0.0
230
1.0
 70
     8
 71
     3
 72
     9
 73
     5
 74
     0
 42
0.000000001
 43
0.0000001
 40
0.0
 40
0.0
 40
0.0
 40
0.0
 40
0.4594910498
 40
1.0
 40
1.0
 40
1.0
 40
1.0
 10
36.17440734319789
 20
225.1866104934921
 30
0.0
 10
36.18980036048797
 20
225.1866104934921
 30
0.0
 10
36.2235294124881
 20
225.196544833713
 30
0.0
 10
36.24884240501806
 20
225.2197243458031
 30
0.0
 10
36.26059209940795
 20
225.2335016021621
 30
0.0
  0
SPLINE
  5
1A5EA
330
1F
100
AcDbEntity
  8
0
  6
Continuous
 62
     7
370
     0
100
AcDbSpline
210
0.0
220
0.0
230
1.0
 70
     8
 71
     3
 72
     9
 73
     5
 74
     0
 42
0.000000001
 43
0.0000001
 40
0.0
 40
0.0
 40
0.0
 40
0.0
 40
0.4472079775
 40
1.0
 40
1.0
 40
1.0
 40
1.0
 10
36.26059209940795
 20
225.2335016021621
 30
0.0
 10
36.29148013791801
 20
225.269719771773
 30
0.0
 10
36.33424592293805
 20
225.371416345492
 30
0.0
 10
36.34677685561801
 20
225.477771454142
 30
0.0
 10
36.34677685561801
 20
225.5366104934931
 30
0.0
  0
SPLINE
  5
1A5EB
330
1F
100
AcDbEntity
  8
0
  6
Continuous
 62
     7
370
     0
100
AcDbSpline
210
0.0
220
0.0
230
1.0
 70
     8
 71
     3
 72
     9
 73
     5
 74
     0
 42
0.000000001
 43
0.0000001
 40
0.0
 40
0.0
 40
0.0
 40
0.0
 40
0.5527920225
 40
1.0
 40
1.0
 40
1.0
 40
1.0
 10
36.34677685561801
 20
231.136610493493
 30
0.0
 10
36.34677685561801
 20
231.195449532773
 30
0.0
 10
36.33424592293805
 20
231.3018046414232
 30
0.0
 10
36.29148013791801
 20
231.4035012151431
 30
0.0
 10
36.26059209940795
 20
231.4397193848231
 30
0.0
  0
SPLINE
  5
1A5EC
330
1F
100
AcDbEntity
  8
0
  6
Continuous
 62
     7
370
     0
100
AcDbSpline
210
0.0
220
0.0
230
1.0
 70
     8
 71
     3
 72
     9
 73
     5
 74
     0
 42
0.000000001
 43
0.0000001
 40
0.0
 40
0.0
 40
0.0
 40
0.0
 40
0.5405089502
 40
1.0
 40
1.0
 40
1.0
 40
1.0
 10
36.26059209940795
 20
231.4397193848231
 30
0.0
 10
36.24884240501806
 20
231.4534966411821
 30
0.0
 10
36.2235294124881
 20
231.476676153203
 30
0.0
 10
36.18980036048797
 20
231.4866104934931
 30
0.0
 10
36.17440734319789
 20
231.4866104934931
 30
0.0
  0
LINE
  5
1A5ED
330
1F
100
AcDbEntity
  8
0
  6
Continuous
 62
     7
370
     0
100
AcDbLine
 10
24.31662790668825
 20
231.3272904165631
 30
0.0
 11
24.22729207541816
 21
231.2928136765732
 31
0.0
  0
LINE
  5
1A5EE
330
1F
100
AcDbEntity
  8
0
  6
Continuous
 62
     7
370
     0
100
AcDbLine
 10
1.407615549268122
 20
220.708189328723
 30
0.0
 11
1.407615549268122
 21
220.440988907892
 31
0.0
  0
LINE
  5
1A5EF
330
1F
100
AcDbEntity
  8
0
  6
Continuous
 62
     7
370
     0
100
AcDbLine
 10
1.896342727998309
 20
220.8116104934921
 30
0.0
 11
1.550748761168144
 21
220.8116104934921
 31
0.0
  0
CIRCLE
  5
1A5F0
330
1F
100
AcDbEntity
  8
0
  6
Continuous
 62
     7
370
     0
100
AcDbCircle
 10
0.1826155492682133
 20
222.5616104934921
 30
0.0
 40
4.13
  0
CIRCLE
  5
1A5F1
330
1F
100
AcDbEntity
  8
0
  6
Continuous
 62
     7
370
     0
100
AcDbCircle
 10
0.1826155492682133
 20
222.5616104934921
 30
0.0
 40
4.024999999999999
  0
CIRCLE
  5
1A5F2
330
1F
100
AcDbEntity
  8
0
  6
Continuous
 62
     7
370
     0
100
AcDbCircle
 10
0.1826155492682133
 20
222.5616104934921
 30
0.0
 40
2.45917136136
  0
CIRCLE
  5
1A5F3
330
1F
100
AcDbEntity
  8
0
  6
Continuous
 62
     7
370
     0
100
AcDbCircle
 10
0.1826155492682133
 20
222.5616104934921
 30
0.0
 40
2.45
  0
CIRCLE
  5
1A5F4
330
1F
100
AcDbEntity
  8
0
  6
Continuous
 62
     7
370
     0
100
AcDbCircle
 10
0.1826155492682133
 20
222.5616104934921
 30
0.0
 40
2.2225
  0
CIRCLE
  5
1A5F5
330
1F
100
AcDbEntity
  8
0
  6
Continuous
 62
     7
370
     0
100
AcDbCircle
 10
0.1826155492682133
 20
222.5616104934921
 30
0.0
 40
2.0825
  0
CIRCLE
  5
1A5F6
330
1F
100
AcDbEntity
  8
0
  6
Continuous
 62
     7
370
     0
100
AcDbCircle
 10
0.1826155492682133
 20
222.5616104934921
 30
0.0
 40
1.295
  0
LINE
  5
1A5F7
330
1F
100
AcDbEntity
  8
0
  6
Continuous
 62
     7
370
     0
100
AcDbLine
 10
9.073013482187982
 20
234.794110493493
 30
0.0
 11
9.842217616348172
 21
234.794110493493
 31
0.0
  0
CIRCLE
  5
1A5F8
330
1F
100
AcDbEntity
  8
0
  6
Continuous
 62
     7
370
     0
100
AcDbCircle
 10
9.457615549268304
 20
235.3366104934931
 30
0.0
 40
1.33
  0
CIRCLE
  5
1A5F9
330
1F
100
AcDbEntity
  8
0
  6
Continuous
 62
     7
370
     0
100
AcDbCircle
 10
9.457615549268304
 20
235.3366104934931
 30
0.0
 40
1.225
  0
CIRCLE
  5
1A5FA
330
1F
100
AcDbEntity
  8
0
  6
Continuous
 62
     7
370
     0
100
AcDbCircle
 10
9.457615549268304
 20
235.3366104934931
 30
0.0
 40
0.7791713613599999
  0
CIRCLE
  5
1A5FB
330
1F
100
AcDbEntity
  8
0
  6
Continuous
 62
     7
370
     0
100
AcDbCircle
 10
9.457615549268304
 20
235.3366104934931
 30
0.0
 40
0.77
  0
ARC
  5
1A5FC
330
1F
100
AcDbEntity
  8
0
  6
Continuous
 62
     7
370
     0
100
AcDbCircle
 10
9.457615549268304
 20
235.3366104934931
 30
0.0
 40
0.6649999999999999
100
AcDbArc
 50
305.3345017917773
 51
234.6654982081766
  0
CIRCLE
  5
1A5FD
330
1F
100
AcDbEntity
  8
0
  6
Continuous
 62
     7
370
     0
100
AcDbCircle
 10
9.457615549268304
 20
235.3366104934931
 30
0.0
 40
0.5425
  0
LINE
  5
1A5FE
330
1F
100
AcDbEntity
  8
0
  6
Continuous
 62
     7
370
     0
100
AcDbLine
 10
5.389100380351557
 20
234.794110493493
 30
0.0
 11
6.158304514511293
 21
234.794110493493
 31
0.0
  0
LINE
  5
1A5FF
330
1F
100
AcDbEntity
  8
0
  6
Continuous
 62
     7
370
     0
100
AcDbLine
 10
5.008887125461207
 20
235.2491104934921
 30
0.0
 11
5.114970171411279
 21
235.2491104934921
 31
0.0
  0
LINE
  5
1A600
330
1F
100
AcDbEntity
  8
0
  6
Continuous
 62
     7
370
     0
100
AcDbLine
 10
6.432435414071371
 20
235.2491104934921
 30
0.0
 11
6.538517769401189
 21
235.2491104934921
 31
0.0
  0
LINE
  5
1A601
330
1F
100
AcDbEntity
  8
0
  6
Continuous
 62
     7
370
     0
100
AcDbLine
 10
5.008887125461207
 20
235.4241104934931
 30
0.0
 11
5.115178491831195
 21
235.4241104934931
 31
0.0
  0
LINE
  5
1A602
330
1F
100
AcDbEntity
  8
0
  6
Continuous
 62
     7
370
     0
100
AcDbLine
 10
6.432226694581551
 20
235.4241104934931
 30
0.0
 11
6.538517769401189
 21
235.4241104934931
 31
0.0
  0
CIRCLE
  5
1A603
330
1F
100
AcDbEntity
  8
0
  6
Continuous
 62
     7
370
     0
100
AcDbCircle
 10
5.773702447431425
 20
235.3366104934931
 30
0.0
 40
1.33
  0
CIRCLE
  5
1A604
330
1F
100
AcDbEntity
  8
0
  6
Continuous
 62
     7
370
     0
100
AcDbCircle
 10
5.773702447431425
 20
235.3366104934931
 30
0.0
 40
1.225
  0
CIRCLE
  5
1A605
330
1F
100
AcDbEntity
  8
0
  6
Continuous
 62
     7
370
     0
100
AcDbCircle
 10
5.773702447431425
 20
235.3366104934931
 30
0.0
 40
0.7791713613599999
  0
CIRCLE
  5
1A606
330
1F
100
AcDbEntity
  8
0
  6
Continuous
 62
     7
370
     0
100
AcDbCircle
 10
5.773702447431425
 20
235.3366104934931
 30
0.0
 40
0.77
  0
ARC
  5
1A607
330
1F
100
AcDbEntity
  8
0
  6
Continuous
 62
     7
370
     0
100
AcDbCircle
 10
5.773702447431425
 20
235.3366104934931
 30
0.0
 40
0.6649999999999999
100
AcDbArc
 50
305.3345017918234
 51
234.6654982081766
  0
CIRCLE
  5
1A608
330
1F
100
AcDbEntity
  8
0
  6
Continuous
 62
     7
370
     0
100
AcDbCircle
 10
5.773702447431425
 20
235.3366104934931
 30
0.0
 40
0.5425
  0
LWPOLYLINE
  5
1A609
330
1F
100
AcDbEntity
  8
0
 62
     7
370
     0
100
AcDbPolyline
 90
        4
 70
     1
 43
0.0
 10
-51.71735274531502
 20
177.1540743744411
 10
-21.71736633898072
 20
177.1540743744411
 10
-21.71736633898072
 20
172.1540743744411
 10
-51.71735274531502
 20
172.1540743744411
  0
LWPOLYLINE
  5
1A60A
330
1F
100
AcDbEntity
  8
0
 62
     7
370
     0
100
AcDbPolyline
 90
        4
 70
     1
 43
0.0
 10
-21.71736633898072
 20
177.1540743744411
 10
63.28258384386081
 20
177.1540743744411
 10
63.28258384386081
 20
172.1540743744411
 10
-21.71736633898072
 20
172.1540743744411
  0
LWPOLYLINE
  5
1A60B
330
1F
100
AcDbEntity
  8
0
 62
     7
370
     0
100
AcDbPolyline
 90
        4
 70
     1
 43
0.0
 10
-51.71735274531502
 20
182.1540743744411
 10
-21.71736633898072
 20
182.1540743744411
 10
-21.71736633898072
 20
177.1540743744411
 10
-51.71735274531502
 20
177.1540743744411
  0
LWPOLYLINE
  5
1A60C
330
1F
100
AcDbEntity
  8
0
 62
     7
370
     0
100
AcDbPolyline
 90
        4
 70
     1
 43
0.0
 10
-51.71735274531502
 20
187.1540743744411
 10
-21.71736633898072
 20
187.1540743744411
 10
-21.71736633898072
 20
182.1540743744411
 10
-51.71735274531502
 20
182.1540743744411
  0
LWPOLYLINE
  5
1A60D
330
1F
100
AcDbEntity
  8
0
 62
     7
370
     0
100
AcDbPolyline
 90
        4
 70
     1
 43
0.0
 10
-51.71735274531502
 20
192.1540743744411
 10
-21.71736633898072
 20
192.1540743744411
 10
-21.71736633898072
 20
187.1540743744411
 10
-51.71735274531502
 20
187.1540743744411
  0
LWPOLYLINE
  5
1A60E
330
1F
100
AcDbEntity
  8
0
 62
     7
370
     0
100
AcDbPolyline
 90
        4
 70
     1
 43
0.0
 10
-51.71735274531502
 20
197.1540743744411
 10
-21.71736633898072
 20
197.1540743744411
 10
-21.71736633898072
 20
192.1540743744411
 10
-51.71735274531502
 20
192.1540743744411
  0
LWPOLYLINE
  5
1A60F
330
1F
100
AcDbEntity
  8
0
 62
     7
370
     0
100
AcDbPolyline
 90
        4
 70
     1
 43
0.0
 10
-21.71736633898072
 20
182.1540743744411
 10
63.28258384386081
 20
182.1540743744411
 10
63.28258384386081
 20
177.1540743744411
 10
-21.71736633898072
 20
177.1540743744411
  0
LWPOLYLINE
  5
1A610
330
1F
100
AcDbEntity
  8
0
 62
     7
370
     0
100
AcDbPolyline
 90
        4
 70
     1
 43
0.0
 10
-21.71736633898072
 20
187.1540743744411
 10
63.28258384386081
 20
187.1540743744411
 10
63.28258384386081
 20
182.1540743744411
 10
-21.71736633898072
 20
182.1540743744411
  0
LWPOLYLINE
  5
1A611
330
1F
100
AcDbEntity
  8
0
 62
     7
370
     0
100
AcDbPolyline
 90
        4
 70
     1
 43
0.0
 10
-21.71736633898072
 20
192.1540743744411
 10
63.28258384386081
 20
192.1540743744411
 10
63.28258384386081
 20
187.1540743744411
 10
-21.71736633898072
 20
187.1540743744411
  0
LWPOLYLINE
  5
1A612
330
1F
100
AcDbEntity
  8
0
 62
     7
370
     0
100
AcDbPolyline
 90
        4
 70
     1
 43
0.0
 10
-21.71736633898072
 20
197.1540743744411
 10
63.28258384386081
 20
197.1540743744411
 10
63.28258384386081
 20
192.1540743744411
 10
-21.71736633898072
 20
192.1540743744411
  0
TEXT
  5
1A613
330
1F
100
AcDbEntity
  8
0
 62
     7
370
     0
100
AcDbText
 10
-20.71736633898072
 20
193.1540743744411
 30
0.0
 40
3.0
  1
MN3907
 11
-20.71736633898072
 21
194.6540743744411
 31
0.0
100
AcDbText
 73
     2
  0
TEXT
  5
1A614
330
1F
100
AcDbEntity
  8
0
 62
     7
370
     0
100
AcDbText
 10
-20.71736633898072
 20
188.1540743744411
 30
0.0
 40
3.0
  1
±24V
 11
-20.71736633898072
 21
189.6540743744411
 31
0.0
100
AcDbText
 73
     2
  0
TEXT
  5
1A615
330
1F
100
AcDbEntity
  8
0
 62
     7
370
     0
100
AcDbText
 10
-20.71736633898072
 20
183.1540743744411
 30
0.0
 40
3.0
  1
8.7mA(子機なし)　22.7mA(子機接続時)
 11
-20.71736633898072
 21
184.6540743744411
 31
0.0
100
AcDbText
 73
     2
  0
TEXT
  5
1A616
330
1F
100
AcDbEntity
  8
0
 62
     7
370
     0
100
AcDbText
 10
-20.71736633898072
 20
178.1540743744411
 30
0.0
 40
3.0
  1
0％(消灯)、5～100％調光(0.5％単位)
 11
-20.71736633898072
 21
179.6540743744411
 31
0.0
100
AcDbText
 73
     2
  0
TEXT
  5
1A617
330
1F
100
AcDbEntity
  8
0
 62
     7
370
     0
100
AcDbText
 10
-20.71736633898072
 20
173.1540743744411
 30
0.0
 40
3.0
  1
8台
 11
-20.71736633898072
 21
174.6540743744411
 31
0.0
100
AcDbText
 73
     2
  0
TEXT
  5
1A618
330
1F
100
AcDbEntity
  8
0
 62
     7
370
     0
100
AcDbText
 10
-50.71735274531502
 20
173.1540743744411
 30
0.0
 40
3.0
  1
子機接続台数
 11
-50.71735274531502
 21
174.6540743744411
 31
0.0
100
AcDbText
 73
     2
  0
TEXT
  5
1A619
330
1F
100
AcDbEntity
  8
0
 62
     7
370
     0
100
AcDbText
 10
-50.71735274531502
 20
178.1540743744411
 30
0.0
 40
3.0
  1
調光範囲
 11
-50.71735274531502
 21
179.6540743744411
 31
0.0
100
AcDbText
 73
     2
  0
TEXT
  5
1A61A
330
1F
100
AcDbEntity
  8
0
 62
     7
370
     0
100
AcDbText
 10
-50.71735274531502
 20
183.1540743744411
 30
0.0
 40
3.0
  1
入力通信電流
 11
-50.71735274531502
 21
184.6540743744411
 31
0.0
100
AcDbText
 73
     2
  0
TEXT
  5
1A61B
330
1F
100
AcDbEntity
  8
0
 62
     7
370
     0
100
AcDbText
 10
-50.71735274531502
 20
188.1540743744411
 30
0.0
 40
3.0
  1
入力通信電圧
 11
-50.71735274531502
 21
189.6540743744411
 31
0.0
100
AcDbText
 73
     2
  0
TEXT
  5
1A61C
330
1F
100
AcDbEntity
  8
0
 62
     7
370
     0
100
AcDbText
 10
-50.71735274531502
 20
193.1540743744411
 30
0.0
 40
3.0
  1
形名
 11
-50.71735274531502
 21
194.6540743744411
 31
0.0
100
AcDbText
 73
     2
  0
TEXT
  5
1A61D
330
1F
100
AcDbEntity
  8
0
 62
     7
370
     0
100
AcDbText
 10
43.28262790231756
 20
301.6540849812662
 30
0.0
 40
3.0
  1
天井取付
 11
43.28262790231756
 21
303.1540849812662
 31
0.0
100
AcDbText
 73
     2
  0
TEXT
  5
1A61E
330
1F
100
AcDbEntity
  8
0
 62
     7
370
     0
100
AcDbText
 10
43.28262790231756
 20
296.6540849812662
 30
0.0
 40
3.0
  1
埋込穴：Φ75
 11
43.28262790231756
 21
298.1540849812662
 31
0.0
100
AcDbText
 73
     2
  0
LINE
  5
1A61F
330
1F
100
AcDbEntity
  8
0
  6
Continuous
 62
     7
370
     0
100
AcDbLine
 10
-5.146598593736961
 20
301.5092797950362
 30
0.0
 11
-31.93516769475254
 21
301.5092797950362
 31
0.0
1001
ACAD
1000
DSTYLE
1002
{
1070
   340
1005
11
1002
}
  0
LINE
  5
1A620
330
1F
100
AcDbEntity
  8
0
  6
Continuous
 62
     7
370
     0
100
AcDbLine
 10
-9.193922841138281
 20
257.73549493353
 30
0.0
 11
-31.93516769475254
 21
257.73549493353
 31
0.0
1001
ACAD
1000
DSTYLE
1002
{
1070
   340
1005
11
1002
}
  0
LINE
  5
1A621
330
1F
100
AcDbEntity
  8
0
  6
Continuous
 62
     7
370
     0
100
AcDbLine
 10
-31.73516769475273
 20
299.5203729393392
 30
0.0
 11
-31.73516769475273
 21
259.73549493353
 31
0.0
1001
ACAD
1000
DSTYLE
1002
{
1070
   340
1005
11
1002
}
  0
INSERT
  5
1A622
330
1F
100
AcDbEntity
  8
0
 62
     7
370
     0
100
AcDbBlockReference
  2
_OPEN30
 10
-31.73516769475273
 20
301.5092797950362
 30
0.0
 41
2.0
 42
2.0
 43
2.0
 50
90.0
1001
ACAD
1000
DSTYLE
1002
{
1070
   340
1005
11
1002
}
  0
INSERT
  5
1A623
330
1F
100
AcDbEntity
  8
0
 62
     7
370
     0
100
AcDbBlockReference
  2
_OPEN30
 10
-31.73516769475273
 20
257.73549493353
 30
0.0
 41
2.0
 42
2.0
 43
2.0
 50
270.0
1001
ACAD
1000
DSTYLE
1002
{
1070
   340
1005
11
1002
}
  0
MTEXT
  5
1A624
330
1F
100
AcDbEntity
  8
0
 62
     7
370
     0
100
AcDbMText
 10
-34.23516769475273
 20
279.6279339364351
 30
0.0
 40
3.0
 41
0.0
 71
     5
 72
     1
  1
\A1;124.6
 11
0.0
 21
1.0
 31
0.0
 73
     1
 44
1.0
1001
ACAD
1000
DSTYLE
1002
{
1070
   340
1005
11
1002
}
  0
LINE
  5
1A625
330
1F
100
AcDbEntity
  8
0
  6
Continuous
 62
     7
370
     0
100
AcDbLine
 10
-9.976230409555136
 20
255.79037293934
 30
0.0
 11
-9.976230409555136
 21
247.2788566993991
 31
0.0
1001
ACAD
1000
DSTYLE
1002
{
1070
   140
1040
3.0
1002
}
  0
LINE
  5
1A626
330
1F
100
AcDbEntity
  8
0
  6
Continuous
 62
     7
370
     0
100
AcDbLine
 10
21.52376875520495
 20
255.79037293934
 30
0.0
 11
21.52376875520495
 21
247.2788566993991
 31
0.0
1001
ACAD
1000
DSTYLE
1002
{
1070
   140
1040
3.0
1002
}
  0
LINE
  5
1A627
330
1F
100
AcDbEntity
  8
0
  6
Continuous
 62
     7
370
     0
100
AcDbLine
 10
-7.976230409555136
 20
247.4788566993991
 30
0.0
 11
19.52376875520495
 21
247.4788566993991
 31
0.0
1001
ACAD
1000
DSTYLE
1002
{
1070
   140
1040
3.0
1002
}
  0
INSERT
  5
1A628
330
1F
100
AcDbEntity
  8
0
 62
     7
370
     0
100
AcDbBlockReference
  2
_OPEN30
 10
-9.976230409555136
 20
247.4788566993991
 30
0.0
 41
2.0
 42
2.0
 43
2.0
 50
180.0
1001
ACAD
1000
DSTYLE
1002
{
1070
   140
1040
3.0
1002
}
  0
INSERT
  5
1A629
330
1F
100
AcDbEntity
  8
0
 62
     7
370
     0
100
AcDbBlockReference
  2
_OPEN30
 10
21.52376875520495
 20
247.4788566993991
 30
0.0
 41
2.0
 42
2.0
 43
2.0
1001
ACAD
1000
DSTYLE
1002
{
1070
   140
1040
3.0
1002
}
  0
MTEXT
  5
1A62A
330
1F
100
AcDbEntity
  8
0
 62
     7
370
     0
100
AcDbMText
 10
5.773769172824906
 20
249.9788566993991
 30
0.0
 40
3.0
 41
0.0
 71
     5
 72
     1
  1
\A1;Φ90
 73
     1
 44
1.0
1001
ACAD
1000
DSTYLE
1002
{
1070
   140
1040
3.0
1002
}
  0
ENDSEC
  0
SECTION
  2
OBJECTS
  0
DICTIONARY
  5
C
330
0
100
AcDbDictionary
281
     1
  3
ACAD_COLOR
350
6B
  3
ACAD_GROUP
350
D
  3
ACAD_LAYOUT
350
1A
  3
ACAD_MATERIAL
350
43
  3
ACAD_MLEADERSTYLE
350
69
  3
ACAD_MLINESTYLE
350
17
  3
ACAD_PLOTSETTINGS
350
19
  3
ACAD_PLOTSTYLENAME
350
E
  3
ACAD_SCALELIST
350
47
  3
ACAD_VISUALSTYLE
350
2A
  3
ACDBHEADERROUNDTRIPXREC
350
1A62F
  3
AcDbVariableDictionary
350
19F5B
  3
DWGPROPS
350
1A632
  0
DICTIONARY
  5
6B
102
{ACAD_REACTORS
330
C
102
}
330
C
100
AcDbDictionary
281
     1
  0
DICTIONARY
  5
D
102
{ACAD_REACTORS
330
C
102
}
330
C
100
AcDbDictionary
281
     1
  0
DICTIONARY
  5
1A
102
{ACAD_REACTORS
330
C
102
}
330
C
100
AcDbDictionary
281
     1
  3
Model
350
22
  3
レイアウト 1
350
1E
  3
レイアウト 2
350
26
  0
DICTIONARY
  5
43
102
{ACAD_REACTORS
330
C
102
}
330
C
100
AcDbDictionary
281
     1
  3
ByBlock
350
45
  3
ByLayer
350
44
  3
Global
350
46
  0
DICTIONARY
  5
69
102
{ACAD_REACTORS
330
C
102
}
330
C
100
AcDbDictionary
281
     1
  0
DICTIONARY
  5
17
102
{ACAD_REACTORS
330
C
102
}
330
C
100
AcDbDictionary
281
     1
  3
Standard
350
18
  0
DICTIONARY
  5
19
102
{ACAD_REACTORS
330
C
102
}
330
C
100
AcDbDictionary
281
     1
  0
ACDBDICTIONARYWDFLT
  5
E
102
{ACAD_REACTORS
330
C
102
}
330
C
100
AcDbDictionary
281
     1
  3
Normal
350
F
100
AcDbDictionaryWithDefault
340
F
  0
DICTIONARY
  5
47
102
{ACAD_REACTORS
330
C
102
}
330
C
100
AcDbDictionary
281
     1
  3
A0
350
48
  3
A1
350
49
  3
A2
350
4A
  3
A3
350
4B
  3
A4
350
4C
  3
A5
350
4D
  3
A6
350
4E
  3
A7
350
4F
  3
A8
350
50
  3
A9
350
51
  3
B0
350
52
  3
B1
350
53
  3
B2
350
54
  3
B3
350
55
  3
B4
350
56
  3
B5
350
57
  3
B6
350
58
  3
B7
350
59
  3
B8
350
5A
  3
B9
350
5B
  3
C0
350
5C
  3
C1
350
5D
  3
C2
350
5E
  3
C3
350
5F
  3
C4
350
60
  3
C5
350
61
  3
C6
350
62
  3
C7
350
63
  3
C8
350
64
  3
C9
350
65
  3
D0
350
66
  3
D1
350
67
  3
D2
350
68
  0
DICTIONARY
  5
2A
102
{ACAD_REACTORS
330
C
102
}
330
C
100
AcDbDictionary
281
     1
  3
2dWireframe
350
2F
  3
Basic
350
32
  3
Brighten
350
36
  3
ColorChange
350
3A
  3
Conceptual
350
34
  3
Dim
350
35
  3
EdgeColorOff
350
3D
  3
Facepattern
350
39
  3
Flat
350
2B
  3
FlatWithEdges
350
2C
  3
Gouraud
350
2D
  3
GouraudWithEdges
350
2E
  3
Hidden
350
31
  3
JitterOff
350
3B
  3
Linepattern
350
38
  3
OverhangOff
350
3C
  3
Realistic
350
33
  3
Shaded
350
42
  3
Shaded with edges
350
41
  3
Shades of Gray
350
3E
  3
Sketchy
350
3F
  3
Thicken
350
37
  3
Wireframe
350
30
  3
X-Ray
350
40
  0
DICTIONARY
  5
1A62F
102
{ACAD_REACTORS
330
C
102
}
330
C
100
AcDbDictionary
281
     1
  3
COLORDICT
350
1A630
  3
MATERIALDICT
350
1A631
  0
DICTIONARY
  5
19F5B
102
{ACAD_REACTORS
330
C
102
}
330
C
100
AcDbDictionary
281
     1
  3
CANNOSCALE
350
1A633
  3
DIMASSOC
350
19F60
  3
HIDETEXT
350
19F61
  3
MSLTSCALE
350
19F67
  3
PSOLHEIGHT
350
1A62C
  3
PSOLWIDTH
350
1A62B
  0
XRECORD
  5
1A632
102
{ACAD_REACTORS
330
C
102
}
330
C
100
AcDbXrecord
280
     1
  1
DWGPROPS COOKIE
  2

  3

  4

  6

  7

  8
4980607
  9

300
=
301
=
302
=
303
=
304
=
305
=
306
=
307
=
308
=
309
=
 40
0.0
 41
2458393.289533843
 42
2458393.289768415
  1

 90
        0
  0
LAYOUT
  5
22
102
{ACAD_REACTORS
330
1A
102
}
330
1A
100
AcDbPlotSettings
  1

  2
none_device
  4
ISO_A4_(210.00_x_297.00_MM)
  6

 40
0.0
 41
0.0
 42
0.0
 43
0.0
 44
0.0
 45
0.0
 46
0.0
 47
0.0
 48
0.0
 49
0.0
140
0.0
141
0.0
142
1.0
143
1.0
 70
  1712
 72
     1
 73
     1
 74
     0
  7

 75
     0
147
1.0
148
0.0
149
0.0
100
AcDbLayout
  1
Model
 70
     1
 71
     0
 10
0.0
 20
0.0
 11
420.0
 21
297.0
 12
0.0
 22
0.0
 32
0.0
 14
-51.71735274531502
 24
172.1540743744411
 34
0.0
 15
66.28262790231759
 25
314.754083879303
 35
0.0
146
0.0
 13
0.0
 23
0.0
 33
0.0
 16
1.0
 26
0.0
 36
0.0
 17
0.0
 27
1.0
 37
0.0
 76
     0
330
1F
331
29
  0
LAYOUT
  5
1E
102
{ACAD_REACTORS
330
1A
102
}
330
1A
100
AcDbPlotSettings
  1

  2
none_device
  4
ISO_A4_(210.00_x_297.00_MM)
  6

 40
0.0
 41
0.0
 42
0.0
 43
0.0
 44
0.0
 45
0.0
 46
0.0
 47
0.0
 48
0.0
 49
0.0
140
0.0
141
0.0
142
1.0
143
1.0
 70
   688
 72
     1
 73
     1
 74
     5
  7

 75
    16
147
1.0
148
0.0
149
0.0
100
AcDbLayout
  1
レイアウト 1
 70
     1
 71
     1
 10
0.0
 20
0.0
 11
420.0
 21
297.0
 12
0.0
 22
0.0
 32
0.0
 14
1.000000000000000E+20
 24
1.000000000000000E+20
 34
1.000000000000000E+20
 15
-1.000000000000000E+20
 25
-1.000000000000000E+20
 35
-1.000000000000000E+20
146
0.0
 13
0.0
 23
0.0
 33
0.0
 16
1.0
 26
0.0
 36
0.0
 17
0.0
 27
1.0
 37
0.0
 76
     0
330
1B
  0
LAYOUT
  5
26
102
{ACAD_REACTORS
330
1A
102
}
330
1A
100
AcDbPlotSettings
  1

  2
none_device
  4
ISO_A4_(210.00_x_297.00_MM)
  6

 40
0.0
 41
0.0
 42
0.0
 43
0.0
 44
0.0
 45
0.0
 46
0.0
 47
0.0
 48
0.0
 49
0.0
140
0.0
141
0.0
142
1.0
143
1.0
 70
   688
 72
     1
 73
     1
 74
     5
  7

 75
    16
147
1.0
148
0.0
149
0.0
100
AcDbLayout
  1
レイアウト 2
 70
     1
 71
     2
 10
0.0
 20
0.0
 11
0.0
 21
0.0
 12
0.0
 22
0.0
 32
0.0
 14
0.0
 24
0.0
 34
0.0
 15
0.0
 25
0.0
 35
0.0
146
0.0
 13
0.0
 23
0.0
 33
0.0
 16
1.0
 26
0.0
 36
0.0
 17
0.0
 27
1.0
 37
0.0
 76
     0
330
23
  0
MATERIAL
  5
45
102
{ACAD_REACTORS
330
43
102
}
102
{ACAD_XDICTIONARY
360
1A634
102
}
330
43
100
AcDbMaterial
  1
ByBlock
  0
MATERIAL
  5
44
102
{ACAD_REACTORS
330
43
102
}
102
{ACAD_XDICTIONARY
360
1A636
102
}
330
43
100
AcDbMaterial
  1
ByLayer
  0
MATERIAL
  5
46
102
{ACAD_REACTORS
330
43
102
}
102
{ACAD_XDICTIONARY
360
1A638
102
}
330
43
100
AcDbMaterial
  1
Global
1001
ACAD
1070
    -1
1070
     3
1070
     0
1000

1071
        0
  0
MLINESTYLE
  5
18
102
{ACAD_REACTORS
330
17
102
}
330
17
100
AcDbMlineStyle
  2
Standard
 70
     0
  3

 62
   256
 51
90.0
 52
90.0
 71
     2
 49
0.5
 62
   256
  6
BYLAYER
 49
-0.5
 62
   256
  6
BYLAYER
  0
ACDBPLACEHOLDER
  5
F
102
{ACAD_REACTORS
330
E
102
}
330
E
  0
SCALE
  5
48
102
{ACAD_REACTORS
330
47
102
}
330
47
100
AcDbScale
 70
     0
300
1:1
140
1.0
141
1.0
290
     1
  0
SCALE
  5
49
102
{ACAD_REACTORS
330
47
102
}
330
47
100
AcDbScale
 70
     0
300
1:2
140
1.0
141
2.0
290
     0
  0
SCALE
  5
4A
102
{ACAD_REACTORS
330
47
102
}
330
47
100
AcDbScale
 70
     0
300
1:4
140
1.0
141
4.0
290
     0
  0
SCALE
  5
4B
102
{ACAD_REACTORS
330
47
102
}
330
47
100
AcDbScale
 70
     0
300
1:5
140
1.0
141
5.0
290
     0
  0
SCALE
  5
4C
102
{ACAD_REACTORS
330
47
102
}
330
47
100
AcDbScale
 70
     0
300
1:8
140
1.0
141
8.0
290
     0
  0
SCALE
  5
4D
102
{ACAD_REACTORS
330
47
102
}
330
47
100
AcDbScale
 70
     0
300
1:10
140
1.0
141
10.0
290
     0
  0
SCALE
  5
4E
102
{ACAD_REACTORS
330
47
102
}
330
47
100
AcDbScale
 70
     0
300
1:16
140
1.0
141
16.0
290
     0
  0
SCALE
  5
4F
102
{ACAD_REACTORS
330
47
102
}
330
47
100
AcDbScale
 70
     0
300
1:20
140
1.0
141
20.0
290
     0
  0
SCALE
  5
50
102
{ACAD_REACTORS
330
47
102
}
330
47
100
AcDbScale
 70
     0
300
1:30
140
1.0
141
30.0
290
     0
  0
SCALE
  5
51
102
{ACAD_REACTORS
330
47
102
}
330
47
100
AcDbScale
 70
     0
300
1:40
140
1.0
141
40.0
290
     0
  0
SCALE
  5
52
102
{ACAD_REACTORS
330
47
102
}
330
47
100
AcDbScale
 70
     0
300
1:50
140
1.0
141
50.0
290
     0
  0
SCALE
  5
53
102
{ACAD_REACTORS
330
47
102
}
330
47
100
AcDbScale
 70
     0
300
1:100
140
1.0
141
100.0
290
     0
  0
SCALE
  5
54
102
{ACAD_REACTORS
330
47
102
}
330
47
100
AcDbScale
 70
     0
300
2:1
140
2.0
141
1.0
290
     0
  0
SCALE
  5
55
102
{ACAD_REACTORS
330
47
102
}
330
47
100
AcDbScale
 70
     0
300
4:1
140
4.0
141
1.0
290
     0
  0
SCALE
  5
56
102
{ACAD_REACTORS
330
47
102
}
330
47
100
AcDbScale
 70
     0
300
8:1
140
8.0
141
1.0
290
     0
  0
SCALE
  5
57
102
{ACAD_REACTORS
330
47
102
}
330
47
100
AcDbScale
 70
     0
300
10:1
140
10.0
141
1.0
290
     0
  0
SCALE
  5
58
102
{ACAD_REACTORS
330
47
102
}
330
47
100
AcDbScale
 70
     0
300
100:1
140
100.0
141
1.0
290
     0
  0
SCALE
  5
59
102
{ACAD_REACTORS
330
47
102
}
330
47
100
AcDbScale
 70
     0
300
1/128" = 1'-0"
140
0.0078125
141
12.0
290
     0
  0
SCALE
  5
5A
102
{ACAD_REACTORS
330
47
102
}
330
47
100
AcDbScale
 70
     0
300
1/64" = 1'-0"
140
0.015625
141
12.0
290
     0
  0
SCALE
  5
5B
102
{ACAD_REACTORS
330
47
102
}
330
47
100
AcDbScale
 70
     0
300
1/32" = 1'-0"
140
0.03125
141
12.0
290
     0
  0
SCALE
  5
5C
102
{ACAD_REACTORS
330
47
102
}
330
47
100
AcDbScale
 70
     0
300
1/16" = 1'-0"
140
0.0625
141
12.0
290
     0
  0
SCALE
  5
5D
102
{ACAD_REACTORS
330
47
102
}
330
47
100
AcDbScale
 70
     0
300
3/32" = 1'-0"
140
0.09375
141
12.0
290
     0
  0
SCALE
  5
5E
102
{ACAD_REACTORS
330
47
102
}
330
47
100
AcDbScale
 70
     0
300
1/8" = 1'-0"
140
0.125
141
12.0
290
     0
  0
SCALE
  5
5F
102
{ACAD_REACTORS
330
47
102
}
330
47
100
AcDbScale
 70
     0
300
3/16" = 1'-0"
140
0.1875
141
12.0
290
     0
  0
SCALE
  5
60
102
{ACAD_REACTORS
330
47
102
}
330
47
100
AcDbScale
 70
     0
300
1/4" = 1'-0"
140
0.25
141
12.0
290
     0
  0
SCALE
  5
61
102
{ACAD_REACTORS
330
47
102
}
330
47
100
AcDbScale
 70
     0
300
3/8" = 1'-0"
140
0.375
141
12.0
290
     0
  0
SCALE
  5
62
102
{ACAD_REACTORS
330
47
102
}
330
47
100
AcDbScale
 70
     0
300
1/2" = 1'-0"
140
0.5
141
12.0
290
     0
  0
SCALE
  5
63
102
{ACAD_REACTORS
330
47
102
}
330
47
100
AcDbScale
 70
     0
300
3/4" = 1'-0"
140
0.75
141
12.0
290
     0
  0
SCALE
  5
64
102
{ACAD_REACTORS
330
47
102
}
330
47
100
AcDbScale
 70
     0
300
1" = 1'-0"
140
1.0
141
12.0
290
     0
  0
SCALE
  5
65
102
{ACAD_REACTORS
330
47
102
}
330
47
100
AcDbScale
 70
     0
300
1-1/2" = 1'-0"
140
1.5
141
12.0
290
     0
  0
SCALE
  5
66
102
{ACAD_REACTORS
330
47
102
}
330
47
100
AcDbScale
 70
     0
300
3" = 1'-0"
140
3.0
141
12.0
290
     0
  0
SCALE
  5
67
102
{ACAD_REACTORS
330
47
102
}
330
47
100
AcDbScale
 70
     0
300
6" = 1'-0"
140
6.0
141
12.0
290
     0
  0
SCALE
  5
68
102
{ACAD_REACTORS
330
47
102
}
330
47
100
AcDbScale
 70
     0
300
1'-0" = 1'-0"
140
12.0
141
12.0
290
     0
  0
VISUALSTYLE
  5
2F
102
{ACAD_REACTORS
330
2A
102
}
102
{ACAD_XDICTIONARY
360
1A63A
102
}
330
2A
100
AcDbVisualStyle
  2
2dWireframe
 70
     4
 71
     0
 72
     2
 73
     0
 90
        0
 40
0.6
 41
30.0
 62
     5
 63
     7
 74
     1
 91
        4
 64
     7
 65
   257
 75
     1
175
     1
 42
1.0
 92
        0
 66
   257
 43
1.0
 76
     1
 77
     6
 78
     2
 67
     7
 79
     5
170
     0
171
     0
290
     0
174
     0
 93
        1
 44
0.0
173
     0
291
     0
 45
0.0
1001
ACAD
1000
AcDbSavedByObjectVersion
1070
     0
  0
VISUALSTYLE
  5
32
102
{ACAD_REACTORS
330
2A
102
}
102
{ACAD_XDICTIONARY
360
1A63C
102
}
330
2A
100
AcDbVisualStyle
  2
Basic
 70
     7
 71
     1
 72
     0
 73
     1
 90
        0
 40
0.6
 41
30.0
 62
     5
 63
     7
 74
     0
 91
        4
 64
     7
 65
   257
 75
     1
175
     1
 42
1.0
 92
        8
 66
     7
 43
1.0
 76
     1
 77
     6
 78
     2
 67
     7
 79
     5
170
     0
171
     0
290
     0
174
     0
 93
        1
 44
0.0
173
     0
291
     1
 45
0.0
1001
ACAD
1000
AcDbSavedByObjectVersion
1070
     0
  0
VISUALSTYLE
  5
36
102
{ACAD_REACTORS
330
2A
102
}
102
{ACAD_XDICTIONARY
360
1A63E
102
}
330
2A
100
AcDbVisualStyle
  2
Brighten
 70
    12
 71
     2
 72
     2
 73
     0
 90
        0
 40
0.6
 41
30.0
 62
     5
 63
     7
 74
     1
 91
        4
 64
     7
 65
   257
 75
     1
175
     1
 42
1.0
 92
        8
 66
     7
 43
1.0
 76
     1
 77
     6
 78
     2
 67
     7
 79
     5
170
     0
171
     0
290
     0
174
     0
 93
        1
 44
50.0
173
     0
291
     1
 45
0.0
1001
ACAD
1000
AcDbSavedByObjectVersion
1070
     0
  0
VISUALSTYLE
  5
3A
102
{ACAD_REACTORS
330
2A
102
}
102
{ACAD_XDICTIONARY
360
1A640
102
}
330
2A
100
AcDbVisualStyle
  2
ColorChange
 70
    16
 71
     2
 72
     2
 73
     3
 90
        0
 40
0.6
 41
30.0
 62
     5
 63
     8
 74
     1
 91
        4
 64
     7
 65
   257
 75
     1
175
     1
 42
1.0
 92
        8
 66
     8
 43
1.0
 76
     1
 77
     6
 78
     2
 67
     7
 79
     5
170
     0
171
     0
290
     0
174
     0
 93
        1
 44
0.0
173
     0
291
     1
 45
0.0
1001
ACAD
1000
AcDbSavedByObjectVersion
1070
     0
  0
VISUALSTYLE
  5
34
102
{ACAD_REACTORS
330
2A
102
}
102
{ACAD_XDICTIONARY
360
1A642
102
}
330
2A
100
AcDbVisualStyle
  2
Conceptual
 70
     9
 71
     3
 72
     2
 73
     0
 90
        0
 40
0.6
 41
30.0
 62
     5
 63
     7
 74
     2
 91
        2
 64
     7
 65
   257
 75
     1
175
     1
 42
40.0
 92
        8
 66
     7
 43
1.0
 76
     1
 77
     6
 78
     2
 67
     7
 79
     3
170
     0
171
     0
290
     0
174
     0
 93
        1
 44
0.0
173
     0
291
     0
 45
0.0
1001
ACAD
1000
AcDbSavedByObjectVersion
1070
     0
  0
VISUALSTYLE
  5
35
102
{ACAD_REACTORS
330
2A
102
}
102
{ACAD_XDICTIONARY
360
1A644
102
}
330
2A
100
AcDbVisualStyle
  2
Dim
 70
    11
 71
     2
 72
     2
 73
     0
 90
        0
 40
0.6
 41
30.0
 62
     5
 63
     7
 74
     1
 91
        4
 64
     7
 65
   257
 75
     1
175
     1
 42
1.0
 92
        8
 66
     7
 43
1.0
 76
     1
 77
     6
 78
     2
 67
     7
 79
     5
170
     0
171
     0
290
     0
174
     0
 93
        1
 44
-50.0
173
     0
291
     1
 45
0.0
1001
ACAD
1000
AcDbSavedByObjectVersion
1070
     0
  0
VISUALSTYLE
  5
3D
102
{ACAD_REACTORS
330
2A
102
}
102
{ACAD_XDICTIONARY
360
1A646
102
}
330
2A
100
AcDbVisualStyle
  2
EdgeColorOff
 70
    22
 71
     2
 72
     2
 73
     0
 90
        0
 40
0.6
 41
30.0
 62
     5
 63
     7
 74
     1
 91
        4
 64
     7
 65
   257
 75
     1
175
     1
 42
1.0
 92
        8
 66
     7
 43
1.0
 76
     1
 77
     6
 78
     2
 67
     7
 79
     5
170
     0
171
     0
290
     0
174
     0
 93
        1
 44
0.0
173
     0
291
     1
 45
0.0
1001
ACAD
1000
AcDbSavedByObjectVersion
1070
     0
  0
VISUALSTYLE
  5
39
102
{ACAD_REACTORS
330
2A
102
}
102
{ACAD_XDICTIONARY
360
1A648
102
}
330
2A
100
AcDbVisualStyle
  2
Facepattern
 70
    15
 71
     2
 72
     2
 73
     0
 90
        0
 40
0.6
 41
30.0
 62
     5
 63
     7
 74
     1
 91
        4
 64
     7
 65
   257
 75
     1
175
     1
 42
1.0
 92
        8
 66
     7
 43
1.0
 76
     1
 77
     6
 78
     2
 67
     7
 79
     5
170
     0
171
     0
290
     0
174
     0
 93
        1
 44
0.0
173
     0
291
     1
 45
0.0
1001
ACAD
1000
AcDbSavedByObjectVersion
1070
     0
  0
VISUALSTYLE
  5
2B
102
{ACAD_REACTORS
330
2A
102
}
102
{ACAD_XDICTIONARY
360
1A64A
102
}
330
2A
100
AcDbVisualStyle
  2
Flat
 70
     0
 71
     2
 72
     1
 73
     1
 90
        2
 40
0.6
 41
30.0
 62
     5
 63
     7
 74
     0
 91
        4
 64
     7
 65
   257
 75
     1
175
     1
 42
1.0
 92
        8
 66
     7
 43
1.0
 76
     1
 77
     6
 78
     2
 67
     7
 79
     5
170
     0
171
     0
290
     0
174
     0
 93
       13
 44
0.0
173
     0
291
     1
 45
0.0
1001
ACAD
1000
AcDbSavedByObjectVersion
1070
     0
  0
VISUALSTYLE
  5
2C
102
{ACAD_REACTORS
330
2A
102
}
102
{ACAD_XDICTIONARY
360
1A64C
102
}
330
2A
100
AcDbVisualStyle
  2
FlatWithEdges
 70
     1
 71
     2
 72
     1
 73
     1
 90
        2
 40
0.6
 41
30.0
 62
     5
 63
     7
 74
     1
 91
        4
 64
     7
 65
   257
 75
     1
175
     1
 42
1.0
 92
        0
 66
   257
 43
1.0
 76
     1
 77
     6
 78
     2
 67
     7
 79
     5
170
     0
171
     0
290
     0
174
     0
 93
       13
 44
0.0
173
     0
291
     1
 45
0.0
1001
ACAD
1000
AcDbSavedByObjectVersion
1070
     0
  0
VISUALSTYLE
  5
2D
102
{ACAD_REACTORS
330
2A
102
}
102
{ACAD_XDICTIONARY
360
1A64E
102
}
330
2A
100
AcDbVisualStyle
  2
Gouraud
 70
     2
 71
     2
 72
     2
 73
     1
 90
        2
 40
0.6
 41
30.0
 62
     5
 63
     7
 74
     0
 91
        4
 64
     7
 65
   257
 75
     1
175
     1
 42
1.0
 92
        0
 66
     7
 43
1.0
 76
     1
 77
     6
 78
     2
 67
     7
 79
     5
170
     0
171
     0
290
     0
174
     0
 93
       13
 44
0.0
173
     0
291
     1
 45
0.0
1001
ACAD
1000
AcDbSavedByObjectVersion
1070
     0
  0
VISUALSTYLE
  5
2E
102
{ACAD_REACTORS
330
2A
102
}
102
{ACAD_XDICTIONARY
360
1A650
102
}
330
2A
100
AcDbVisualStyle
  2
GouraudWithEdges
 70
     3
 71
     2
 72
     2
 73
     1
 90
        2
 40
0.6
 41
30.0
 62
     5
 63
     7
 74
     1
 91
        4
 64
     7
 65
   257
 75
     1
175
     1
 42
1.0
 92
        0
 66
   257
 43
1.0
 76
     1
 77
     6
 78
     2
 67
     7
 79
     5
170
     0
171
     0
290
     0
174
     0
 93
       13
 44
0.0
173
     0
291
     1
 45
0.0
1001
ACAD
1000
AcDbSavedByObjectVersion
1070
     0
  0
VISUALSTYLE
  5
31
102
{ACAD_REACTORS
330
2A
102
}
102
{ACAD_XDICTIONARY
360
1A652
102
}
330
2A
100
AcDbVisualStyle
  2
Hidden
 70
     6
 71
     1
 72
     2
 73
     2
 90
        0
 40
0.6
 41
30.0
 62
     5
 63
     7
 74
     2
 91
        2
 64
     7
 65
   257
 75
     2
175
     1
 42
40.0
 92
        0
 66
   257
 43
1.0
 76
     1
 77
     6
 78
     2
 67
     7
 79
     3
170
     0
171
     0
290
     0
174
     0
 93
        1
 44
0.0
173
     0
291
     0
 45
0.0
1001
ACAD
1000
AcDbSavedByObjectVersion
1070
     0
  0
VISUALSTYLE
  5
3B
102
{ACAD_REACTORS
330
2A
102
}
102
{ACAD_XDICTIONARY
360
1A654
102
}
330
2A
100
AcDbVisualStyle
  2
JitterOff
 70
    20
 71
     2
 72
     2
 73
     0
 90
        0
 40
0.6
 41
30.0
 62
     5
 63
     7
 74
     1
 91
        4
 64
     7
 65
   257
 75
     1
175
     1
 42
1.0
 92
       10
 66
     7
 43
1.0
 76
     1
 77
     6
 78
     2
 67
     7
 79
     5
170
     0
171
     0
290
     0
174
     0
 93
        1
 44
0.0
173
     0
291
     1
 45
0.0
1001
ACAD
1000
AcDbSavedByObjectVersion
1070
     0
  0
VISUALSTYLE
  5
38
102
{ACAD_REACTORS
330
2A
102
}
102
{ACAD_XDICTIONARY
360
1A656
102
}
330
2A
100
AcDbVisualStyle
  2
Linepattern
 70
    14
 71
     2
 72
     2
 73
     0
 90
        0
 40
0.6
 41
30.0
 62
     5
 63
     7
 74
     1
 91
        4
 64
     7
 65
   257
 75
     7
175
     7
 42
1.0
 92
        8
 66
     7
 43
1.0
 76
     1
 77
     6
 78
     2
 67
     7
 79
     5
170
     0
171
     0
290
     0
174
     0
 93
        1
 44
0.0
173
     0
291
     1
 45
0.0
1001
ACAD
1000
AcDbSavedByObjectVersion
1070
     0
  0
VISUALSTYLE
  5
3C
102
{ACAD_REACTORS
330
2A
102
}
102
{ACAD_XDICTIONARY
360
1A658
102
}
330
2A
100
AcDbVisualStyle
  2
OverhangOff
 70
    21
 71
     2
 72
     2
 73
     0
 90
        0
 40
0.6
 41
30.0
 62
     5
 63
     7
 74
     1
 91
        4
 64
     7
 65
   257
 75
     1
175
     1
 42
1.0
 92
        9
 66
     7
 43
1.0
 76
     1
 77
     6
 78
     2
 67
     7
 79
     5
170
     0
171
     0
290
     0
174
     0
 93
        1
 44
0.0
173
     0
291
     1
 45
0.0
1001
ACAD
1000
AcDbSavedByObjectVersion
1070
     0
  0
VISUALSTYLE
  5
33
102
{ACAD_REACTORS
330
2A
102
}
102
{ACAD_XDICTIONARY
360
1A65A
102
}
330
2A
100
AcDbVisualStyle
  2
Realistic
 70
     8
 71
     2
 72
     3
 73
     0
 90
        2
 40
0.6
 41
30.0
 62
     5
 63
     7
 74
     0
 91
        0
 64
     7
 65
   257
 75
     1
175
     1
 42
1.0
 92
        8
 66
   257
 43
1.0
 76
     1
 77
     6
 78
     2
 67
     7
 79
     3
170
     0
171
     0
290
     0
174
     0
 93
       13
 44
0.0
173
     0
291
     0
 45
0.0
1001
ACAD
1000
AcDbSavedByObjectVersion
1070
     0
  0
VISUALSTYLE
  5
42
102
{ACAD_REACTORS
330
2A
102
}
102
{ACAD_XDICTIONARY
360
1A65C
102
}
330
2A
100
AcDbVisualStyle
  2
Shaded
 70
    27
 71
     2
 72
     2
 73
     1
 90
        2
 40
0.6
 41
30.0
 62
     5
 63
     7
 74
     0
 91
        4
 64
     7
 65
   257
 75
     1
175
     1
 42
1.0
 92
        8
 66
   257
 43
1.0
 76
     1
 77
     6
 78
     2
 67
   251
 79
     3
170
     0
171
     0
290
     0
174
     0
 93
        5
 44
0.0
173
     0
291
     0
 45
0.0
1001
ACAD
1000
AcDbSavedByObjectVersion
1070
     0
  0
VISUALSTYLE
  5
41
102
{ACAD_REACTORS
330
2A
102
}
102
{ACAD_XDICTIONARY
360
1A65E
102
}
330
2A
100
AcDbVisualStyle
  2
Shaded with edges
 70
    26
 71
     2
 72
     2
 73
     1
 90
        2
 40
0.6
 41
30.0
 62
     5
 63
     7
 74
     1
 91
       10
 64
     7
 65
   257
 75
     2
175
     1
 42
1.0
 92
        8
 66
   257
 43
1.0
 76
     1
 77
     6
 78
     2
 67
     7
 79
     3
170
     0
171
     0
290
     0
174
     0
 93
        5
 44
0.0
173
     0
291
     0
 45
0.0
1001
ACAD
1000
AcDbSavedByObjectVersion
1070
     0
  0
VISUALSTYLE
  5
3E
102
{ACAD_REACTORS
330
2A
102
}
102
{ACAD_XDICTIONARY
360
1A660
102
}
330
2A
100
AcDbVisualStyle
  2
Shades of Gray
 70
    23
 71
     2
 72
     2
 73
     3
 90
        0
 40
0.6
 41
30.0
 62
     5
 63
     7
 74
     2
 91
        2
 64
     7
 65
     7
 75
     1
175
     1
 42
40.0
 92
        8
 66
     7
 43
1.0
 76
     1
 77
     6
 78
     2
 67
     7
 79
     3
170
     0
171
     0
290
     0
174
     0
 93
        1
 44
0.0
173
     0
291
     0
 45
0.0
1001
ACAD
1000
AcDbSavedByObjectVersion
1070
     0
  0
VISUALSTYLE
  5
3F
102
{ACAD_REACTORS
330
2A
102
}
102
{ACAD_XDICTIONARY
360
1A662
102
}
330
2A
100
AcDbVisualStyle
  2
Sketchy
 70
    24
 71
     1
 72
     2
 73
     2
 90
        0
 40
0.6
 41
30.0
 62
     5
 63
     7
 74
     2
 91
        2
 64
     7
 65
     7
 75
     1
175
     1
 42
40.0
 92
       11
 66
     7
 43
1.0
 76
     1
 77
     6
 78
     2
 67
     7
 79
     6
170
     0
171
     0
290
     0
174
     0
 93
        1
 44
0.0
173
     0
291
     0
 45
0.0
1001
ACAD
1000
AcDbSavedByObjectVersion
1070
     0
  0
VISUALSTYLE
  5
37
102
{ACAD_REACTORS
330
2A
102
}
102
{ACAD_XDICTIONARY
360
1A664
102
}
330
2A
100
AcDbVisualStyle
  2
Thicken
 70
    13
 71
     2
 72
     2
 73
     0
 90
        0
 40
0.6
 41
30.0
 62
     5
 63
     7
 74
     1
 91
        4
 64
     7
 65
   257
 75
     1
175
     1
 42
1.0
 92
       12
 66
     7
 43
1.0
 76
     1
 77
     6
 78
     2
 67
     7
 79
     5
170
     0
171
     0
290
     0
174
     0
 93
        1
 44
0.0
173
     0
291
     1
 45
0.0
1001
ACAD
1000
AcDbSavedByObjectVersion
1070
     0
  0
VISUALSTYLE
  5
30
102
{ACAD_REACTORS
330
2A
102
}
102
{ACAD_XDICTIONARY
360
1A666
102
}
330
2A
100
AcDbVisualStyle
  2
Wireframe
 70
     5
 71
     0
 72
     2
 73
     0
 90
        0
 40
0.6
 41
30.0
 62
     5
 63
     7
 74
     1
 91
        4
 64
     7
 65
   257
 75
     1
175
     1
 42
1.0
 92
        0
 66
   257
 43
1.0
 76
     1
 77
     6
 78
     2
 67
     7
 79
     5
170
     0
171
     0
290
     0
174
     0
 93
        1
 44
0.0
173
     0
291
     0
 45
0.0
1001
ACAD
1000
AcDbSavedByObjectVersion
1070
     0
  0
VISUALSTYLE
  5
40
102
{ACAD_REACTORS
330
2A
102
}
102
{ACAD_XDICTIONARY
360
1A668
102
}
330
2A
100
AcDbVisualStyle
  2
X-Ray
 70
    25
 71
     2
 72
     2
 73
     1
 90
        1
 40
0.5
 41
30.0
 62
     5
 63
     7
 74
     1
 91
        0
 64
     7
 65
   257
 75
     1
175
     1
 42
1.0
 92
        8
 66
     7
 43
1.0
 76
     1
 77
     6
 78
     2
 67
     7
 79
     3
170
     0
171
     0
290
     0
174
     0
 93
       13
 44
0.0
173
     0
291
     0
 45
0.0
1001
ACAD
1000
AcDbSavedByObjectVersion
1070
     0
  0
XRECORD
  5
1A630
102
{ACAD_REACTORS
330
1A62F
102
}
330
1A62F
100
AcDbXrecord
280
     1
340
6B
  0
XRECORD
  5
1A631
102
{ACAD_REACTORS
330
1A62F
102
}
330
1A62F
100
AcDbXrecord
280
     1
340
43
  0
DICTIONARYVAR
  5
1A633
102
{ACAD_REACTORS
330
19F5B
102
}
330
19F5B
100
DictionaryVariables
280
     0
  1
1:1
  0
DICTIONARYVAR
  5
19F60
102
{ACAD_REACTORS
330
19F5B
102
}
330
19F5B
100
DictionaryVariables
280
     0
  1
2
  0
DICTIONARYVAR
  5
19F61
102
{ACAD_REACTORS
330
19F5B
102
}
330
19F5B
100
DictionaryVariables
280
     0
  1
1
  0
DICTIONARYVAR
  5
19F67
102
{ACAD_REACTORS
330
19F5B
102
}
330
19F5B
100
DictionaryVariables
280
     0
  1
1
  0
DICTIONARYVAR
  5
1A62C
102
{ACAD_REACTORS
330
19F5B
102
}
330
19F5B
100
DictionaryVariables
280
     0
  1
80.000000
  0
DICTIONARYVAR
  5
1A62B
102
{ACAD_REACTORS
330
19F5B
102
}
330
19F5B
100
DictionaryVariables
280
     0
  1
5.000000
  0
DICTIONARY
  5
1A634
330
45
100
AcDbDictionary
280
     1
281
     1
  3
ACAD_XREC_ROUNDTRIP
360
1A635
  0
DICTIONARY
  5
1A636
330
44
100
AcDbDictionary
280
     1
281
     1
  3
ACAD_XREC_ROUNDTRIP
360
1A637
  0
DICTIONARY
  5
1A638
330
46
100
AcDbDictionary
280
     1
281
     1
  3
ACAD_XREC_ROUNDTRIP
360
1A639
  0
DICTIONARY
  5
1A63A
330
2F
100
AcDbDictionary
280
     1
281
     1
  3
ACAD_XREC_ROUNDTRIP
360
1A63B
  0
DICTIONARY
  5
1A63C
330
32
100
AcDbDictionary
280
     1
281
     1
  3
ACAD_XREC_ROUNDTRIP
360
1A63D
  0
DICTIONARY
  5
1A63E
330
36
100
AcDbDictionary
280
     1
281
     1
  3
ACAD_XREC_ROUNDTRIP
360
1A63F
  0
DICTIONARY
  5
1A640
330
3A
100
AcDbDictionary
280
     1
281
     1
  3
ACAD_XREC_ROUNDTRIP
360
1A641
  0
DICTIONARY
  5
1A642
330
34
100
AcDbDictionary
280
     1
281
     1
  3
ACAD_XREC_ROUNDTRIP
360
1A643
  0
DICTIONARY
  5
1A644
330
35
100
AcDbDictionary
280
     1
281
     1
  3
ACAD_XREC_ROUNDTRIP
360
1A645
  0
DICTIONARY
  5
1A646
330
3D
100
AcDbDictionary
280
     1
281
     1
  3
ACAD_XREC_ROUNDTRIP
360
1A647
  0
DICTIONARY
  5
1A648
330
39
100
AcDbDictionary
280
     1
281
     1
  3
ACAD_XREC_ROUNDTRIP
360
1A649
  0
DICTIONARY
  5
1A64A
330
2B
100
AcDbDictionary
280
     1
281
     1
  3
ACAD_XREC_ROUNDTRIP
360
1A64B
  0
DICTIONARY
  5
1A64C
330
2C
100
AcDbDictionary
280
     1
281
     1
  3
ACAD_XREC_ROUNDTRIP
360
1A64D
  0
DICTIONARY
  5
1A64E
330
2D
100
AcDbDictionary
280
     1
281
     1
  3
ACAD_XREC_ROUNDTRIP
360
1A64F
  0
DICTIONARY
  5
1A650
330
2E
100
AcDbDictionary
280
     1
281
     1
  3
ACAD_XREC_ROUNDTRIP
360
1A651
  0
DICTIONARY
  5
1A652
330
31
100
AcDbDictionary
280
     1
281
     1
  3
ACAD_XREC_ROUNDTRIP
360
1A653
  0
DICTIONARY
  5
1A654
330
3B
100
AcDbDictionary
280
     1
281
     1
  3
ACAD_XREC_ROUNDTRIP
360
1A655
  0
DICTIONARY
  5
1A656
330
38
100
AcDbDictionary
280
     1
281
     1
  3
ACAD_XREC_ROUNDTRIP
360
1A657
  0
DICTIONARY
  5
1A658
330
3C
100
AcDbDictionary
280
     1
281
     1
  3
ACAD_XREC_ROUNDTRIP
360
1A659
  0
DICTIONARY
  5
1A65A
330
33
100
AcDbDictionary
280
     1
281
     1
  3
ACAD_XREC_ROUNDTRIP
360
1A65B
  0
DICTIONARY
  5
1A65C
330
42
100
AcDbDictionary
280
     1
281
     1
  3
ACAD_XREC_ROUNDTRIP
360
1A65D
  0
DICTIONARY
  5
1A65E
330
41
100
AcDbDictionary
280
     1
281
     1
  3
ACAD_XREC_ROUNDTRIP
360
1A65F
  0
DICTIONARY
  5
1A660
330
3E
100
AcDbDictionary
280
     1
281
     1
  3
ACAD_XREC_ROUNDTRIP
360
1A661
  0
DICTIONARY
  5
1A662
330
3F
100
AcDbDictionary
280
     1
281
     1
  3
ACAD_XREC_ROUNDTRIP
360
1A663
  0
DICTIONARY
  5
1A664
330
37
100
AcDbDictionary
280
     1
281
     1
  3
ACAD_XREC_ROUNDTRIP
360
1A665
  0
DICTIONARY
  5
1A666
330
30
100
AcDbDictionary
280
     1
281
     1
  3
ACAD_XREC_ROUNDTRIP
360
1A667
  0
DICTIONARY
  5
1A668
330
40
100
AcDbDictionary
280
     1
281
     1
  3
ACAD_XREC_ROUNDTRIP
360
1A669
  0
XRECORD
  5
1A635
102
{ACAD_REACTORS
330
1A634
102
}
330
1A634
100
AcDbXrecord
280
     1
102
MATERIAL
148
0.0
149
0.0
149
0.0
 93
        0
 94
      127
282
     0
 72
     1
 77
     1
171
     1
175
     1
179
     1
273
     0
  0
XRECORD
  5
1A637
102
{ACAD_REACTORS
330
1A636
102
}
330
1A636
100
AcDbXrecord
280
     1
102
MATERIAL
148
0.0
149
0.0
149
0.0
 93
        0
 94
      127
282
     0
 72
     1
 77
     1
171
     1
175
     1
179
     1
273
     0
  0
XRECORD
  5
1A639
102
{ACAD_REACTORS
330
1A638
102
}
330
1A638
100
AcDbXrecord
280
     1
102
MATERIAL
148
0.0
149
0.0
149
0.0
 93
        0
 94
      127
282
     0
 72
     1
 77
     1
171
     1
175
     1
179
     1
273
     0
  0
XRECORD
  5
1A63B
102
{ACAD_REACTORS
330
1A63A
102
}
330
1A63A
100
AcDbXrecord
280
     1
102
RTVSPropertyOp0
 70
     1
102
RTVSPropertyOp1
 70
     1
102
RTVSPropertyOp2
 70
     1
102
RTVSPropertyOp3
 70
     1
102
RTVSPropertyOp4
 70
     1
102
RTVSPropertyOp5
 70
     1
102
RTVSPropertyOp6
 70
     1
102
RTVSPropertyOp7
 70
     1
102
RTVSPropertyOp8
 70
     1
102
RTVSPropertyOp9
 70
     1
102
RTVSPropertyOp10
 70
     1
102
RTVSPropertyOp11
 70
     1
102
RTVSPropertyOp12
 70
     1
102
RTVSPropertyOp13
 70
     1
102
RTVSPropertyOp14
 70
     1
102
RTVSPropertyOp15
 70
     1
102
RTVSPropertyOp16
 70
     1
102
RTVSPropertyOp17
 70
     1
102
RTVSPropertyOp18
 70
     1
102
RTVSPropertyOp19
 70
     1
102
RTVSPropertyOp20
 70
     1
102
RTVSPropertyOp21
 70
     1
102
RTVSPropertyOp22
 70
     1
102
RTVSPropertyOp23
 70
     1
102
RTVSPropertyOp24
 70
     1
102
RTVSPropertyOp25
 70
     1
102
RTVSPropertyOp26
 70
     1
102
RTVSPropertyOp27
 70
     1
102
RTVSPropertyOp28
 70
     1
102
RTVSPropertyOp29
 70
     1
102
RTVSPropertyOp30
 70
     1
102
RTVSPropertyOp31
 70
     1
102
RTVSPropertyOp32
 70
     1
102
RTVSPropertyOp33
 70
     1
102
RTVSPropertyOp34
 70
     1
102
RTVSPropertyOp35
 70
     1
102
RTVSPropertyOp36
 70
     1
102
RTVSPropertyOp37
 70
     1
102
RTVSPropertyOp38
 70
     1
102
RTVSPropertyOp39
 70
     1
102
RTVSPropertyOp40
 70
     1
102
RTVSPropertyOp41
 70
     1
102
RTVSPropertyOp42
 70
     1
102
RTVSPropertyOp43
 70
     1
102
RTVSPropertyOp44
 70
     1
102
RTVSPropertyOp45
 70
     1
102
RTVSPropertyOp46
 70
     1
102
RTVSPropertyOp47
 70
     1
102
RTVSPropertyOp48
 70
     1
102
RTVSPropertyOp49
 70
     1
102
RTVSPropertyOp50
 70
     1
102
RTVSPropertyOp51
 70
     0
102
RTVSPropertyOp52
 70
     0
102
RTVSPropertyOp53
 70
     1
102
RTVSPropertyOp54
 70
     1
102
RTVSPropertyOp55
 70
     1
102
RTVSPropertyOp56
 70
     1
102
RTVSPropertyOp57
 70
     1
102
RTVSPost2010Prop28
280
     1
102
RTVSPost2010PropOp28
 70
     1
102
RTVSPost2010Prop29
280
     1
102
RTVSPost2010PropOp29
 70
     1
102
RTVSPost2010Prop30
280
     0
102
RTVSPost2010PropOp30
 70
     1
102
RTVSPost2010Prop31
280
     0
102
RTVSPost2010PropOp31
 70
     1
102
RTVSPost2010Prop32
280
     0
102
RTVSPost2010PropOp32
 70
     1
102
RTVSPost2010Prop33
280
     0
102
RTVSPost2010PropOp33
 70
     1
102
RTVSPost2010Prop34
280
     0
102
RTVSPost2010PropOp34
 70
     1
102
RTVSPost2010Prop35
280
     0
102
RTVSPost2010PropOp35
 70
     1
102
RTVSPost2010Prop36
280
     0
102
RTVSPost2010PropOp36
 70
     1
102
RTVSPost2010Prop37
 90
       50
102
RTVSPost2010PropOp37
 70
     1
102
RTVSPost2010Prop38
140
0.0
102
RTVSPost2010PropOp38
 70
     1
102
RTVSPost2010Prop39
140
1.0
102
RTVSPost2010PropOp39
 70
     1
102
RTVSPost2010Prop40
 90
        0
102
RTVSPost2010PropOp40
 70
     1
102
RTVSPost2010Prop41ColorIndex
 90
       18
102
RTVSPost2010Prop41ColorRGB
 90
        0
102
RTVSPost2010PropOp41
 70
     1
102
RTVSPost2010Prop42
 90
       50
102
RTVSPost2010PropOp42
 70
     1
102
RTVSPost2010Prop43
 90
        3
102
RTVSPost2010PropOp43
 70
     1
102
RTVSPost2010Prop44ColorIndex
 90
        5
102
RTVSPost2010Prop44ColorRGB
 90
      255
102
RTVSPost2010PropOp44
 70
     1
102
RTVSPost2010Prop45
280
     0
102
RTVSPost2010PropOp45
 70
     1
102
RTVSPost2010Prop46
 90
       50
102
RTVSPost2010PropOp46
 70
     1
102
RTVSPost2010Prop47
 90
       50
102
RTVSPost2010PropOp47
 70
     1
102
RTVSPost2010Prop48
 90
       50
102
RTVSPost2010PropOp48
 70
     1
102
RTVSPost2010Prop49
280
     0
102
RTVSPost2010PropOp49
 70
     1
102
RTVSPost2010Prop50
 90
       50
102
RTVSPost2010PropOp50
 70
     1
102
RTVSPost2010Prop51ColorIndex
 90
      256
102
RTVSPost2010Prop51ColorRGB
 90
-16777216
102
RTVSPost2010PropOp51
 70
     0
102
RTVSPost2010Prop52
140
1.0
102
RTVSPost2010PropOp52
 70
     0
102
RTVSPost2010Prop53
 90
        2
102
RTVSPost2010PropOp53
 70
     1
102
RTVSPost2010Prop54
  1
strokes_ogs.tif
102
RTVSPost2010PropOp54
 70
     1
102
RTVSPost2010Prop55
280
     0
102
RTVSPost2010PropOp55
 70
     1
102
RTVSPost2010Prop56
140
1.0
102
RTVSPost2010PropOp56
 70
     1
102
RTVSPost2010Prop57
140
1.0
102
RTVSPost2010PropOp57
 70
     1
  0
XRECORD
  5
1A63D
102
{ACAD_REACTORS
330
1A63C
102
}
330
1A63C
100
AcDbXrecord
280
     1
102
RTVSPropertyOp0
 70
     1
102
RTVSPropertyOp1
 70
     1
102
RTVSPropertyOp2
 70
     1
102
RTVSPropertyOp3
 70
     1
102
RTVSPropertyOp4
 70
     1
102
RTVSPropertyOp5
 70
     1
102
RTVSPropertyOp6
 70
     1
102
RTVSPropertyOp7
 70
     1
102
RTVSPropertyOp8
 70
     1
102
RTVSPropertyOp9
 70
     1
102
RTVSPropertyOp10
 70
     1
102
RTVSPropertyOp11
 70
     1
102
RTVSPropertyOp12
 70
     1
102
RTVSPropertyOp13
 70
     1
102
RTVSPropertyOp14
 70
     1
102
RTVSPropertyOp15
 70
     1
102
RTVSPropertyOp16
 70
     1
102
RTVSPropertyOp17
 70
     1
102
RTVSPropertyOp18
 70
     1
102
RTVSPropertyOp19
 70
     1
102
RTVSPropertyOp20
 70
     1
102
RTVSPropertyOp21
 70
     1
102
RTVSPropertyOp22
 70
     1
102
RTVSPropertyOp23
 70
     1
102
RTVSPropertyOp24
 70
     1
102
RTVSPropertyOp25
 70
     1
102
RTVSPropertyOp26
 70
     1
102
RTVSPropertyOp27
 70
     1
102
RTVSPropertyOp28
 70
     1
102
RTVSPropertyOp29
 70
     1
102
RTVSPropertyOp30
 70
     1
102
RTVSPropertyOp31
 70
     1
102
RTVSPropertyOp32
 70
     1
102
RTVSPropertyOp33
 70
     1
102
RTVSPropertyOp34
 70
     1
102
RTVSPropertyOp35
 70
     1
102
RTVSPropertyOp36
 70
     1
102
RTVSPropertyOp37
 70
     1
102
RTVSPropertyOp38
 70
     1
102
RTVSPropertyOp39
 70
     1
102
RTVSPropertyOp40
 70
     1
102
RTVSPropertyOp41
 70
     1
102
RTVSPropertyOp42
 70
     1
102
RTVSPropertyOp43
 70
     1
102
RTVSPropertyOp44
 70
     1
102
RTVSPropertyOp45
 70
     1
102
RTVSPropertyOp46
 70
     1
102
RTVSPropertyOp47
 70
     1
102
RTVSPropertyOp48
 70
     1
102
RTVSPropertyOp49
 70
     1
102
RTVSPropertyOp50
 70
     1
102
RTVSPropertyOp51
 70
     0
102
RTVSPropertyOp52
 70
     0
102
RTVSPropertyOp53
 70
     1
102
RTVSPropertyOp54
 70
     1
102
RTVSPropertyOp55
 70
     1
102
RTVSPropertyOp56
 70
     1
102
RTVSPropertyOp57
 70
     1
102
RTVSPost2010Prop28
280
     0
102
RTVSPost2010PropOp28
 70
     1
102
RTVSPost2010Prop29
280
     1
102
RTVSPost2010PropOp29
 70
     1
102
RTVSPost2010Prop30
280
     1
102
RTVSPost2010PropOp30
 70
     1
102
RTVSPost2010Prop31
280
     0
102
RTVSPost2010PropOp31
 70
     1
102
RTVSPost2010Prop32
280
     0
102
RTVSPost2010PropOp32
 70
     1
102
RTVSPost2010Prop33
280
     0
102
RTVSPost2010PropOp33
 70
     1
102
RTVSPost2010Prop34
280
     0
102
RTVSPost2010PropOp34
 70
     1
102
RTVSPost2010Prop35
280
     0
102
RTVSPost2010PropOp35
 70
     1
102
RTVSPost2010Prop36
280
     0
102
RTVSPost2010PropOp36
 70
     1
102
RTVSPost2010Prop37
 90
       50
102
RTVSPost2010PropOp37
 70
     1
102
RTVSPost2010Prop38
140
0.0
102
RTVSPost2010PropOp38
 70
     1
102
RTVSPost2010Prop39
140
1.0
102
RTVSPost2010PropOp39
 70
     1
102
RTVSPost2010Prop40
 90
        0
102
RTVSPost2010PropOp40
 70
     1
102
RTVSPost2010Prop41ColorIndex
 90
       18
102
RTVSPost2010Prop41ColorRGB
 90
        0
102
RTVSPost2010PropOp41
 70
     1
102
RTVSPost2010Prop42
 90
       50
102
RTVSPost2010PropOp42
 70
     1
102
RTVSPost2010Prop43
 90
        3
102
RTVSPost2010PropOp43
 70
     1
102
RTVSPost2010Prop44ColorIndex
 90
        5
102
RTVSPost2010Prop44ColorRGB
 90
      255
102
RTVSPost2010PropOp44
 70
     1
102
RTVSPost2010Prop45
280
     0
102
RTVSPost2010PropOp45
 70
     1
102
RTVSPost2010Prop46
 90
       50
102
RTVSPost2010PropOp46
 70
     1
102
RTVSPost2010Prop47
 90
       50
102
RTVSPost2010PropOp47
 70
     1
102
RTVSPost2010Prop48
 90
       50
102
RTVSPost2010PropOp48
 70
     1
102
RTVSPost2010Prop49
280
     0
102
RTVSPost2010PropOp49
 70
     1
102
RTVSPost2010Prop50
 90
       50
102
RTVSPost2010PropOp50
 70
     1
102
RTVSPost2010Prop51ColorIndex
 90
      256
102
RTVSPost2010Prop51ColorRGB
 90
-16777216
102
RTVSPost2010PropOp51
 70
     0
102
RTVSPost2010Prop52
140
1.0
102
RTVSPost2010PropOp52
 70
     0
102
RTVSPost2010Prop53
 90
        2
102
RTVSPost2010PropOp53
 70
     1
102
RTVSPost2010Prop54
  1
strokes_ogs.tif
102
RTVSPost2010PropOp54
 70
     1
102
RTVSPost2010Prop55
280
     0
102
RTVSPost2010PropOp55
 70
     1
102
RTVSPost2010Prop56
140
1.0
102
RTVSPost2010PropOp56
 70
     1
102
RTVSPost2010Prop57
140
1.0
102
RTVSPost2010PropOp57
 70
     1
  0
XRECORD
  5
1A63F
102
{ACAD_REACTORS
330
1A63E
102
}
330
1A63E
100
AcDbXrecord
280
     1
102
RTVSPropertyOp0
 70
     1
102
RTVSPropertyOp1
 70
     1
102
RTVSPropertyOp2
 70
     1
102
RTVSPropertyOp3
 70
     1
102
RTVSPropertyOp4
 70
     1
102
RTVSPropertyOp5
 70
     1
102
RTVSPropertyOp6
 70
     1
102
RTVSPropertyOp7
 70
     1
102
RTVSPropertyOp8
 70
     1
102
RTVSPropertyOp9
 70
     1
102
RTVSPropertyOp10
 70
     1
102
RTVSPropertyOp11
 70
     1
102
RTVSPropertyOp12
 70
     1
102
RTVSPropertyOp13
 70
     1
102
RTVSPropertyOp14
 70
     1
102
RTVSPropertyOp15
 70
     1
102
RTVSPropertyOp16
 70
     1
102
RTVSPropertyOp17
 70
     1
102
RTVSPropertyOp18
 70
     1
102
RTVSPropertyOp19
 70
     1
102
RTVSPropertyOp20
 70
     1
102
RTVSPropertyOp21
 70
     1
102
RTVSPropertyOp22
 70
     1
102
RTVSPropertyOp23
 70
     1
102
RTVSPropertyOp24
 70
     1
102
RTVSPropertyOp25
 70
     1
102
RTVSPropertyOp26
 70
     1
102
RTVSPropertyOp27
 70
     1
102
RTVSPropertyOp28
 70
     1
102
RTVSPropertyOp29
 70
     1
102
RTVSPropertyOp30
 70
     1
102
RTVSPropertyOp31
 70
     1
102
RTVSPropertyOp32
 70
     1
102
RTVSPropertyOp33
 70
     1
102
RTVSPropertyOp34
 70
     1
102
RTVSPropertyOp35
 70
     1
102
RTVSPropertyOp36
 70
     1
102
RTVSPropertyOp37
 70
     1
102
RTVSPropertyOp38
 70
     1
102
RTVSPropertyOp39
 70
     1
102
RTVSPropertyOp40
 70
     1
102
RTVSPropertyOp41
 70
     1
102
RTVSPropertyOp42
 70
     1
102
RTVSPropertyOp43
 70
     1
102
RTVSPropertyOp44
 70
     1
102
RTVSPropertyOp45
 70
     1
102
RTVSPropertyOp46
 70
     1
102
RTVSPropertyOp47
 70
     1
102
RTVSPropertyOp48
 70
     1
102
RTVSPropertyOp49
 70
     1
102
RTVSPropertyOp50
 70
     1
102
RTVSPropertyOp51
 70
     0
102
RTVSPropertyOp52
 70
     0
102
RTVSPropertyOp53
 70
     1
102
RTVSPropertyOp54
 70
     1
102
RTVSPropertyOp55
 70
     1
102
RTVSPropertyOp56
 70
     1
102
RTVSPropertyOp57
 70
     1
102
RTVSPost2010Prop28
280
     0
102
RTVSPost2010PropOp28
 70
     1
102
RTVSPost2010Prop29
280
     1
102
RTVSPost2010PropOp29
 70
     1
102
RTVSPost2010Prop30
280
     1
102
RTVSPost2010PropOp30
 70
     1
102
RTVSPost2010Prop31
280
     0
102
RTVSPost2010PropOp31
 70
     1
102
RTVSPost2010Prop32
280
     0
102
RTVSPost2010PropOp32
 70
     1
102
RTVSPost2010Prop33
280
     0
102
RTVSPost2010PropOp33
 70
     1
102
RTVSPost2010Prop34
280
     0
102
RTVSPost2010PropOp34
 70
     1
102
RTVSPost2010Prop35
280
     0
102
RTVSPost2010PropOp35
 70
     1
102
RTVSPost2010Prop36
280
     0
102
RTVSPost2010PropOp36
 70
     1
102
RTVSPost2010Prop37
 90
       50
102
RTVSPost2010PropOp37
 70
     1
102
RTVSPost2010Prop38
140
0.0
102
RTVSPost2010PropOp38
 70
     1
102
RTVSPost2010Prop39
140
1.0
102
RTVSPost2010PropOp39
 70
     1
102
RTVSPost2010Prop40
 90
        0
102
RTVSPost2010PropOp40
 70
     1
102
RTVSPost2010Prop41ColorIndex
 90
       18
102
RTVSPost2010Prop41ColorRGB
 90
        0
102
RTVSPost2010PropOp41
 70
     1
102
RTVSPost2010Prop42
 90
       50
102
RTVSPost2010PropOp42
 70
     1
102
RTVSPost2010Prop43
 90
        3
102
RTVSPost2010PropOp43
 70
     1
102
RTVSPost2010Prop44ColorIndex
 90
        5
102
RTVSPost2010Prop44ColorRGB
 90
      255
102
RTVSPost2010PropOp44
 70
     1
102
RTVSPost2010Prop45
280
     0
102
RTVSPost2010PropOp45
 70
     1
102
RTVSPost2010Prop46
 90
       50
102
RTVSPost2010PropOp46
 70
     1
102
RTVSPost2010Prop47
 90
       50
102
RTVSPost2010PropOp47
 70
     1
102
RTVSPost2010Prop48
 90
       50
102
RTVSPost2010PropOp48
 70
     1
102
RTVSPost2010Prop49
280
     0
102
RTVSPost2010PropOp49
 70
     1
102
RTVSPost2010Prop50
 90
       50
102
RTVSPost2010PropOp50
 70
     1
102
RTVSPost2010Prop51ColorIndex
 90
      256
102
RTVSPost2010Prop51ColorRGB
 90
-16777216
102
RTVSPost2010PropOp51
 70
     0
102
RTVSPost2010Prop52
140
1.0
102
RTVSPost2010PropOp52
 70
     0
102
RTVSPost2010Prop53
 90
        2
102
RTVSPost2010PropOp53
 70
     1
102
RTVSPost2010Prop54
  1
strokes_ogs.tif
102
RTVSPost2010PropOp54
 70
     1
102
RTVSPost2010Prop55
280
     0
102
RTVSPost2010PropOp55
 70
     1
102
RTVSPost2010Prop56
140
1.0
102
RTVSPost2010PropOp56
 70
     1
102
RTVSPost2010Prop57
140
1.0
102
RTVSPost2010PropOp57
 70
     1
  0
XRECORD
  5
1A641
102
{ACAD_REACTORS
330
1A640
102
}
330
1A640
100
AcDbXrecord
280
     1
102
RTVSPropertyOp0
 70
     1
102
RTVSPropertyOp1
 70
     1
102
RTVSPropertyOp2
 70
     1
102
RTVSPropertyOp3
 70
     1
102
RTVSPropertyOp4
 70
     1
102
RTVSPropertyOp5
 70
     1
102
RTVSPropertyOp6
 70
     1
102
RTVSPropertyOp7
 70
     1
102
RTVSPropertyOp8
 70
     1
102
RTVSPropertyOp9
 70
     1
102
RTVSPropertyOp10
 70
     1
102
RTVSPropertyOp11
 70
     1
102
RTVSPropertyOp12
 70
     1
102
RTVSPropertyOp13
 70
     1
102
RTVSPropertyOp14
 70
     1
102
RTVSPropertyOp15
 70
     1
102
RTVSPropertyOp16
 70
     1
102
RTVSPropertyOp17
 70
     1
102
RTVSPropertyOp18
 70
     1
102
RTVSPropertyOp19
 70
     1
102
RTVSPropertyOp20
 70
     1
102
RTVSPropertyOp21
 70
     1
102
RTVSPropertyOp22
 70
     1
102
RTVSPropertyOp23
 70
     1
102
RTVSPropertyOp24
 70
     1
102
RTVSPropertyOp25
 70
     1
102
RTVSPropertyOp26
 70
     1
102
RTVSPropertyOp27
 70
     1
102
RTVSPropertyOp28
 70
     1
102
RTVSPropertyOp29
 70
     1
102
RTVSPropertyOp30
 70
     1
102
RTVSPropertyOp31
 70
     1
102
RTVSPropertyOp32
 70
     1
102
RTVSPropertyOp33
 70
     1
102
RTVSPropertyOp34
 70
     1
102
RTVSPropertyOp35
 70
     1
102
RTVSPropertyOp36
 70
     1
102
RTVSPropertyOp37
 70
     1
102
RTVSPropertyOp38
 70
     1
102
RTVSPropertyOp39
 70
     1
102
RTVSPropertyOp40
 70
     1
102
RTVSPropertyOp41
 70
     1
102
RTVSPropertyOp42
 70
     1
102
RTVSPropertyOp43
 70
     1
102
RTVSPropertyOp44
 70
     1
102
RTVSPropertyOp45
 70
     1
102
RTVSPropertyOp46
 70
     1
102
RTVSPropertyOp47
 70
     1
102
RTVSPropertyOp48
 70
     1
102
RTVSPropertyOp49
 70
     1
102
RTVSPropertyOp50
 70
     1
102
RTVSPropertyOp51
 70
     0
102
RTVSPropertyOp52
 70
     0
102
RTVSPropertyOp53
 70
     1
102
RTVSPropertyOp54
 70
     1
102
RTVSPropertyOp55
 70
     1
102
RTVSPropertyOp56
 70
     1
102
RTVSPropertyOp57
 70
     1
102
RTVSPost2010Prop28
280
     0
102
RTVSPost2010PropOp28
 70
     1
102
RTVSPost2010Prop29
280
     1
102
RTVSPost2010PropOp29
 70
     1
102
RTVSPost2010Prop30
280
     1
102
RTVSPost2010PropOp30
 70
     1
102
RTVSPost2010Prop31
280
     0
102
RTVSPost2010PropOp31
 70
     1
102
RTVSPost2010Prop32
280
     0
102
RTVSPost2010PropOp32
 70
     1
102
RTVSPost2010Prop33
280
     0
102
RTVSPost2010PropOp33
 70
     1
102
RTVSPost2010Prop34
280
     0
102
RTVSPost2010PropOp34
 70
     1
102
RTVSPost2010Prop35
280
     0
102
RTVSPost2010PropOp35
 70
     1
102
RTVSPost2010Prop36
280
     0
102
RTVSPost2010PropOp36
 70
     1
102
RTVSPost2010Prop37
 90
       50
102
RTVSPost2010PropOp37
 70
     1
102
RTVSPost2010Prop38
140
0.0
102
RTVSPost2010PropOp38
 70
     1
102
RTVSPost2010Prop39
140
1.0
102
RTVSPost2010PropOp39
 70
     1
102
RTVSPost2010Prop40
 90
        0
102
RTVSPost2010PropOp40
 70
     1
102
RTVSPost2010Prop41ColorIndex
 90
       18
102
RTVSPost2010Prop41ColorRGB
 90
        0
102
RTVSPost2010PropOp41
 70
     1
102
RTVSPost2010Prop42
 90
       50
102
RTVSPost2010PropOp42
 70
     1
102
RTVSPost2010Prop43
 90
        3
102
RTVSPost2010PropOp43
 70
     1
102
RTVSPost2010Prop44ColorIndex
 90
        5
102
RTVSPost2010Prop44ColorRGB
 90
      255
102
RTVSPost2010PropOp44
 70
     1
102
RTVSPost2010Prop45
280
     0
102
RTVSPost2010PropOp45
 70
     1
102
RTVSPost2010Prop46
 90
       50
102
RTVSPost2010PropOp46
 70
     1
102
RTVSPost2010Prop47
 90
       50
102
RTVSPost2010PropOp47
 70
     1
102
RTVSPost2010Prop48
 90
       50
102
RTVSPost2010PropOp48
 70
     1
102
RTVSPost2010Prop49
280
     0
102
RTVSPost2010PropOp49
 70
     1
102
RTVSPost2010Prop50
 90
       50
102
RTVSPost2010PropOp50
 70
     1
102
RTVSPost2010Prop51ColorIndex
 90
      256
102
RTVSPost2010Prop51ColorRGB
 90
-16777216
102
RTVSPost2010PropOp51
 70
     0
102
RTVSPost2010Prop52
140
1.0
102
RTVSPost2010PropOp52
 70
     0
102
RTVSPost2010Prop53
 90
        2
102
RTVSPost2010PropOp53
 70
     1
102
RTVSPost2010Prop54
  1
strokes_ogs.tif
102
RTVSPost2010PropOp54
 70
     1
102
RTVSPost2010Prop55
280
     0
102
RTVSPost2010PropOp55
 70
     1
102
RTVSPost2010Prop56
140
1.0
102
RTVSPost2010PropOp56
 70
     1
102
RTVSPost2010Prop57
140
1.0
102
RTVSPost2010PropOp57
 70
     1
  0
XRECORD
  5
1A643
102
{ACAD_REACTORS
330
1A642
102
}
330
1A642
100
AcDbXrecord
280
     1
102
RTVSPropertyOp0
 70
     1
102
RTVSPropertyOp1
 70
     1
102
RTVSPropertyOp2
 70
     1
102
RTVSPropertyOp3
 70
     1
102
RTVSPropertyOp4
 70
     1
102
RTVSPropertyOp5
 70
     1
102
RTVSPropertyOp6
 70
     1
102
RTVSPropertyOp7
 70
     1
102
RTVSPropertyOp8
 70
     1
102
RTVSPropertyOp9
 70
     1
102
RTVSPropertyOp10
 70
     1
102
RTVSPropertyOp11
 70
     1
102
RTVSPropertyOp12
 70
     1
102
RTVSPropertyOp13
 70
     1
102
RTVSPropertyOp14
 70
     1
102
RTVSPropertyOp15
 70
     1
102
RTVSPropertyOp16
 70
     1
102
RTVSPropertyOp17
 70
     1
102
RTVSPropertyOp18
 70
     1
102
RTVSPropertyOp19
 70
     1
102
RTVSPropertyOp20
 70
     1
102
RTVSPropertyOp21
 70
     1
102
RTVSPropertyOp22
 70
     1
102
RTVSPropertyOp23
 70
     1
102
RTVSPropertyOp24
 70
     1
102
RTVSPropertyOp25
 70
     1
102
RTVSPropertyOp26
 70
     1
102
RTVSPropertyOp27
 70
     1
102
RTVSPropertyOp28
 70
     1
102
RTVSPropertyOp29
 70
     1
102
RTVSPropertyOp30
 70
     1
102
RTVSPropertyOp31
 70
     1
102
RTVSPropertyOp32
 70
     1
102
RTVSPropertyOp33
 70
     1
102
RTVSPropertyOp34
 70
     1
102
RTVSPropertyOp35
 70
     1
102
RTVSPropertyOp36
 70
     1
102
RTVSPropertyOp37
 70
     1
102
RTVSPropertyOp38
 70
     1
102
RTVSPropertyOp39
 70
     1
102
RTVSPropertyOp40
 70
     1
102
RTVSPropertyOp41
 70
     1
102
RTVSPropertyOp42
 70
     1
102
RTVSPropertyOp43
 70
     1
102
RTVSPropertyOp44
 70
     1
102
RTVSPropertyOp45
 70
     1
102
RTVSPropertyOp46
 70
     1
102
RTVSPropertyOp47
 70
     1
102
RTVSPropertyOp48
 70
     1
102
RTVSPropertyOp49
 70
     1
102
RTVSPropertyOp50
 70
     1
102
RTVSPropertyOp51
 70
     0
102
RTVSPropertyOp52
 70
     0
102
RTVSPropertyOp53
 70
     1
102
RTVSPropertyOp54
 70
     1
102
RTVSPropertyOp55
 70
     1
102
RTVSPropertyOp56
 70
     1
102
RTVSPropertyOp57
 70
     1
102
RTVSPost2010Prop28
280
     0
102
RTVSPost2010PropOp28
 70
     1
102
RTVSPost2010Prop29
280
     1
102
RTVSPost2010PropOp29
 70
     1
102
RTVSPost2010Prop30
280
     1
102
RTVSPost2010PropOp30
 70
     1
102
RTVSPost2010Prop31
280
     0
102
RTVSPost2010PropOp31
 70
     1
102
RTVSPost2010Prop32
280
     0
102
RTVSPost2010PropOp32
 70
     1
102
RTVSPost2010Prop33
280
     0
102
RTVSPost2010PropOp33
 70
     1
102
RTVSPost2010Prop34
280
     0
102
RTVSPost2010PropOp34
 70
     1
102
RTVSPost2010Prop35
280
     0
102
RTVSPost2010PropOp35
 70
     1
102
RTVSPost2010Prop36
280
     0
102
RTVSPost2010PropOp36
 70
     1
102
RTVSPost2010Prop37
 90
       50
102
RTVSPost2010PropOp37
 70
     1
102
RTVSPost2010Prop38
140
0.0
102
RTVSPost2010PropOp38
 70
     1
102
RTVSPost2010Prop39
140
1.0
102
RTVSPost2010PropOp39
 70
     1
102
RTVSPost2010Prop40
 90
        0
102
RTVSPost2010PropOp40
 70
     1
102
RTVSPost2010Prop41ColorIndex
 90
       18
102
RTVSPost2010Prop41ColorRGB
 90
        0
102
RTVSPost2010PropOp41
 70
     1
102
RTVSPost2010Prop42
 90
       50
102
RTVSPost2010PropOp42
 70
     1
102
RTVSPost2010Prop43
 90
        3
102
RTVSPost2010PropOp43
 70
     1
102
RTVSPost2010Prop44ColorIndex
 90
        5
102
RTVSPost2010Prop44ColorRGB
 90
      255
102
RTVSPost2010PropOp44
 70
     1
102
RTVSPost2010Prop45
280
     0
102
RTVSPost2010PropOp45
 70
     1
102
RTVSPost2010Prop46
 90
       50
102
RTVSPost2010PropOp46
 70
     1
102
RTVSPost2010Prop47
 90
       50
102
RTVSPost2010PropOp47
 70
     1
102
RTVSPost2010Prop48
 90
       50
102
RTVSPost2010PropOp48
 70
     1
102
RTVSPost2010Prop49
280
     0
102
RTVSPost2010PropOp49
 70
     1
102
RTVSPost2010Prop50
 90
       50
102
RTVSPost2010PropOp50
 70
     1
102
RTVSPost2010Prop51ColorIndex
 90
      256
102
RTVSPost2010Prop51ColorRGB
 90
-16777216
102
RTVSPost2010PropOp51
 70
     0
102
RTVSPost2010Prop52
140
1.0
102
RTVSPost2010PropOp52
 70
     0
102
RTVSPost2010Prop53
 90
        2
102
RTVSPost2010PropOp53
 70
     1
102
RTVSPost2010Prop54
  1
strokes_ogs.tif
102
RTVSPost2010PropOp54
 70
     1
102
RTVSPost2010Prop55
280
     0
102
RTVSPost2010PropOp55
 70
     1
102
RTVSPost2010Prop56
140
1.0
102
RTVSPost2010PropOp56
 70
     1
102
RTVSPost2010Prop57
140
1.0
102
RTVSPost2010PropOp57
 70
     1
  0
XRECORD
  5
1A645
102
{ACAD_REACTORS
330
1A644
102
}
330
1A644
100
AcDbXrecord
280
     1
102
RTVSPropertyOp0
 70
     1
102
RTVSPropertyOp1
 70
     1
102
RTVSPropertyOp2
 70
     1
102
RTVSPropertyOp3
 70
     1
102
RTVSPropertyOp4
 70
     1
102
RTVSPropertyOp5
 70
     1
102
RTVSPropertyOp6
 70
     1
102
RTVSPropertyOp7
 70
     1
102
RTVSPropertyOp8
 70
     1
102
RTVSPropertyOp9
 70
     1
102
RTVSPropertyOp10
 70
     1
102
RTVSPropertyOp11
 70
     1
102
RTVSPropertyOp12
 70
     1
102
RTVSPropertyOp13
 70
     1
102
RTVSPropertyOp14
 70
     1
102
RTVSPropertyOp15
 70
     1
102
RTVSPropertyOp16
 70
     1
102
RTVSPropertyOp17
 70
     1
102
RTVSPropertyOp18
 70
     1
102
RTVSPropertyOp19
 70
     1
102
RTVSPropertyOp20
 70
     1
102
RTVSPropertyOp21
 70
     1
102
RTVSPropertyOp22
 70
     1
102
RTVSPropertyOp23
 70
     1
102
RTVSPropertyOp24
 70
     1
102
RTVSPropertyOp25
 70
     1
102
RTVSPropertyOp26
 70
     1
102
RTVSPropertyOp27
 70
     1
102
RTVSPropertyOp28
 70
     1
102
RTVSPropertyOp29
 70
     1
102
RTVSPropertyOp30
 70
     1
102
RTVSPropertyOp31
 70
     1
102
RTVSPropertyOp32
 70
     1
102
RTVSPropertyOp33
 70
     1
102
RTVSPropertyOp34
 70
     1
102
RTVSPropertyOp35
 70
     1
102
RTVSPropertyOp36
 70
     1
102
RTVSPropertyOp37
 70
     1
102
RTVSPropertyOp38
 70
     1
102
RTVSPropertyOp39
 70
     1
102
RTVSPropertyOp40
 70
     1
102
RTVSPropertyOp41
 70
     1
102
RTVSPropertyOp42
 70
     1
102
RTVSPropertyOp43
 70
     1
102
RTVSPropertyOp44
 70
     1
102
RTVSPropertyOp45
 70
     1
102
RTVSPropertyOp46
 70
     1
102
RTVSPropertyOp47
 70
     1
102
RTVSPropertyOp48
 70
     1
102
RTVSPropertyOp49
 70
     1
102
RTVSPropertyOp50
 70
     1
102
RTVSPropertyOp51
 70
     0
102
RTVSPropertyOp52
 70
     0
102
RTVSPropertyOp53
 70
     1
102
RTVSPropertyOp54
 70
     1
102
RTVSPropertyOp55
 70
     1
102
RTVSPropertyOp56
 70
     1
102
RTVSPropertyOp57
 70
     1
102
RTVSPost2010Prop28
280
     0
102
RTVSPost2010PropOp28
 70
     1
102
RTVSPost2010Prop29
280
     1
102
RTVSPost2010PropOp29
 70
     1
102
RTVSPost2010Prop30
280
     1
102
RTVSPost2010PropOp30
 70
     1
102
RTVSPost2010Prop31
280
     0
102
RTVSPost2010PropOp31
 70
     1
102
RTVSPost2010Prop32
280
     0
102
RTVSPost2010PropOp32
 70
     1
102
RTVSPost2010Prop33
280
     0
102
RTVSPost2010PropOp33
 70
     1
102
RTVSPost2010Prop34
280
     0
102
RTVSPost2010PropOp34
 70
     1
102
RTVSPost2010Prop35
280
     0
102
RTVSPost2010PropOp35
 70
     1
102
RTVSPost2010Prop36
280
     0
102
RTVSPost2010PropOp36
 70
     1
102
RTVSPost2010Prop37
 90
       50
102
RTVSPost2010PropOp37
 70
     1
102
RTVSPost2010Prop38
140
0.0
102
RTVSPost2010PropOp38
 70
     1
102
RTVSPost2010Prop39
140
1.0
102
RTVSPost2010PropOp39
 70
     1
102
RTVSPost2010Prop40
 90
        0
102
RTVSPost2010PropOp40
 70
     1
102
RTVSPost2010Prop41ColorIndex
 90
       18
102
RTVSPost2010Prop41ColorRGB
 90
        0
102
RTVSPost2010PropOp41
 70
     1
102
RTVSPost2010Prop42
 90
       50
102
RTVSPost2010PropOp42
 70
     1
102
RTVSPost2010Prop43
 90
        3
102
RTVSPost2010PropOp43
 70
     1
102
RTVSPost2010Prop44ColorIndex
 90
        5
102
RTVSPost2010Prop44ColorRGB
 90
      255
102
RTVSPost2010PropOp44
 70
     1
102
RTVSPost2010Prop45
280
     0
102
RTVSPost2010PropOp45
 70
     1
102
RTVSPost2010Prop46
 90
       50
102
RTVSPost2010PropOp46
 70
     1
102
RTVSPost2010Prop47
 90
       50
102
RTVSPost2010PropOp47
 70
     1
102
RTVSPost2010Prop48
 90
       50
102
RTVSPost2010PropOp48
 70
     1
102
RTVSPost2010Prop49
280
     0
102
RTVSPost2010PropOp49
 70
     1
102
RTVSPost2010Prop50
 90
       50
102
RTVSPost2010PropOp50
 70
     1
102
RTVSPost2010Prop51ColorIndex
 90
      256
102
RTVSPost2010Prop51ColorRGB
 90
-16777216
102
RTVSPost2010PropOp51
 70
     0
102
RTVSPost2010Prop52
140
1.0
102
RTVSPost2010PropOp52
 70
     0
102
RTVSPost2010Prop53
 90
        2
102
RTVSPost2010PropOp53
 70
     1
102
RTVSPost2010Prop54
  1
strokes_ogs.tif
102
RTVSPost2010PropOp54
 70
     1
102
RTVSPost2010Prop55
280
     0
102
RTVSPost2010PropOp55
 70
     1
102
RTVSPost2010Prop56
140
1.0
102
RTVSPost2010PropOp56
 70
     1
102
RTVSPost2010Prop57
140
1.0
102
RTVSPost2010PropOp57
 70
     1
  0
XRECORD
  5
1A647
102
{ACAD_REACTORS
330
1A646
102
}
330
1A646
100
AcDbXrecord
280
     1
102
RTVSPropertyOp0
 70
     0
102
RTVSPropertyOp1
 70
     0
102
RTVSPropertyOp2
 70
     0
102
RTVSPropertyOp3
 70
     0
102
RTVSPropertyOp4
 70
     0
102
RTVSPropertyOp5
 70
     0
102
RTVSPropertyOp6
 70
     0
102
RTVSPropertyOp7
 70
     0
102
RTVSPropertyOp8
 70
     0
102
RTVSPropertyOp9
 70
     0
102
RTVSPropertyOp10
 70
     0
102
RTVSPropertyOp11
 70
     0
102
RTVSPropertyOp12
 70
     0
102
RTVSPropertyOp13
 70
     0
102
RTVSPropertyOp14
 70
     0
102
RTVSPropertyOp15
 70
     0
102
RTVSPropertyOp16
 70
     0
102
RTVSPropertyOp17
 70
     0
102
RTVSPropertyOp18
 70
     0
102
RTVSPropertyOp19
 70
     0
102
RTVSPropertyOp20
 70
     0
102
RTVSPropertyOp21
 70
     0
102
RTVSPropertyOp22
 70
     0
102
RTVSPropertyOp23
 70
     0
102
RTVSPropertyOp24
 70
     0
102
RTVSPropertyOp25
 70
     0
102
RTVSPropertyOp26
 70
     0
102
RTVSPropertyOp27
 70
     0
102
RTVSPropertyOp28
 70
     1
102
RTVSPropertyOp29
 70
     1
102
RTVSPropertyOp30
 70
     1
102
RTVSPropertyOp31
 70
     1
102
RTVSPropertyOp32
 70
     1
102
RTVSPropertyOp33
 70
     1
102
RTVSPropertyOp34
 70
     1
102
RTVSPropertyOp35
 70
     1
102
RTVSPropertyOp36
 70
     1
102
RTVSPropertyOp37
 70
     1
102
RTVSPropertyOp38
 70
     1
102
RTVSPropertyOp39
 70
     1
102
RTVSPropertyOp40
 70
     1
102
RTVSPropertyOp41
 70
     1
102
RTVSPropertyOp42
 70
     1
102
RTVSPropertyOp43
 70
     1
102
RTVSPropertyOp44
 70
     1
102
RTVSPropertyOp45
 70
     1
102
RTVSPropertyOp46
 70
     1
102
RTVSPropertyOp47
 70
     1
102
RTVSPropertyOp48
 70
     1
102
RTVSPropertyOp49
 70
     1
102
RTVSPropertyOp50
 70
     1
102
RTVSPropertyOp51
 70
     0
102
RTVSPropertyOp52
 70
     0
102
RTVSPropertyOp53
 70
     1
102
RTVSPropertyOp54
 70
     1
102
RTVSPropertyOp55
 70
     1
102
RTVSPropertyOp56
 70
     1
102
RTVSPropertyOp57
 70
     1
102
RTVSPost2010Prop28
280
     0
102
RTVSPost2010PropOp28
 70
     1
102
RTVSPost2010Prop29
280
     1
102
RTVSPost2010PropOp29
 70
     1
102
RTVSPost2010Prop30
280
     1
102
RTVSPost2010PropOp30
 70
     1
102
RTVSPost2010Prop31
280
     0
102
RTVSPost2010PropOp31
 70
     1
102
RTVSPost2010Prop32
280
     0
102
RTVSPost2010PropOp32
 70
     1
102
RTVSPost2010Prop33
280
     0
102
RTVSPost2010PropOp33
 70
     1
102
RTVSPost2010Prop34
280
     0
102
RTVSPost2010PropOp34
 70
     1
102
RTVSPost2010Prop35
280
     0
102
RTVSPost2010PropOp35
 70
     1
102
RTVSPost2010Prop36
280
     0
102
RTVSPost2010PropOp36
 70
     1
102
RTVSPost2010Prop37
 90
       50
102
RTVSPost2010PropOp37
 70
     1
102
RTVSPost2010Prop38
140
0.0
102
RTVSPost2010PropOp38
 70
     1
102
RTVSPost2010Prop39
140
1.0
102
RTVSPost2010PropOp39
 70
     1
102
RTVSPost2010Prop40
 90
        0
102
RTVSPost2010PropOp40
 70
     1
102
RTVSPost2010Prop41ColorIndex
 90
       18
102
RTVSPost2010Prop41ColorRGB
 90
        0
102
RTVSPost2010PropOp41
 70
     1
102
RTVSPost2010Prop42
 90
       50
102
RTVSPost2010PropOp42
 70
     1
102
RTVSPost2010Prop43
 90
        3
102
RTVSPost2010PropOp43
 70
     1
102
RTVSPost2010Prop44ColorIndex
 90
        5
102
RTVSPost2010Prop44ColorRGB
 90
      255
102
RTVSPost2010PropOp44
 70
     1
102
RTVSPost2010Prop45
280
     0
102
RTVSPost2010PropOp45
 70
     1
102
RTVSPost2010Prop46
 90
       50
102
RTVSPost2010PropOp46
 70
     1
102
RTVSPost2010Prop47
 90
       50
102
RTVSPost2010PropOp47
 70
     1
102
RTVSPost2010Prop48
 90
       50
102
RTVSPost2010PropOp48
 70
     1
102
RTVSPost2010Prop49
280
     0
102
RTVSPost2010PropOp49
 70
     1
102
RTVSPost2010Prop50
 90
       50
102
RTVSPost2010PropOp50
 70
     1
102
RTVSPost2010Prop51ColorIndex
 90
      256
102
RTVSPost2010Prop51ColorRGB
 90
-16777216
102
RTVSPost2010PropOp51
 70
     0
102
RTVSPost2010Prop52
140
1.0
102
RTVSPost2010PropOp52
 70
     0
102
RTVSPost2010Prop53
 90
        2
102
RTVSPost2010PropOp53
 70
     1
102
RTVSPost2010Prop54
  1
strokes_ogs.tif
102
RTVSPost2010PropOp54
 70
     1
102
RTVSPost2010Prop55
280
     0
102
RTVSPost2010PropOp55
 70
     1
102
RTVSPost2010Prop56
140
1.0
102
RTVSPost2010PropOp56
 70
     1
102
RTVSPost2010Prop57
140
1.0
102
RTVSPost2010PropOp57
 70
     1
  0
XRECORD
  5
1A649
102
{ACAD_REACTORS
330
1A648
102
}
330
1A648
100
AcDbXrecord
280
     1
102
RTVSPropertyOp0
 70
     1
102
RTVSPropertyOp1
 70
     1
102
RTVSPropertyOp2
 70
     1
102
RTVSPropertyOp3
 70
     1
102
RTVSPropertyOp4
 70
     1
102
RTVSPropertyOp5
 70
     1
102
RTVSPropertyOp6
 70
     1
102
RTVSPropertyOp7
 70
     1
102
RTVSPropertyOp8
 70
     1
102
RTVSPropertyOp9
 70
     1
102
RTVSPropertyOp10
 70
     1
102
RTVSPropertyOp11
 70
     1
102
RTVSPropertyOp12
 70
     1
102
RTVSPropertyOp13
 70
     1
102
RTVSPropertyOp14
 70
     1
102
RTVSPropertyOp15
 70
     1
102
RTVSPropertyOp16
 70
     1
102
RTVSPropertyOp17
 70
     1
102
RTVSPropertyOp18
 70
     1
102
RTVSPropertyOp19
 70
     1
102
RTVSPropertyOp20
 70
     1
102
RTVSPropertyOp21
 70
     1
102
RTVSPropertyOp22
 70
     1
102
RTVSPropertyOp23
 70
     1
102
RTVSPropertyOp24
 70
     1
102
RTVSPropertyOp25
 70
     1
102
RTVSPropertyOp26
 70
     1
102
RTVSPropertyOp27
 70
     1
102
RTVSPropertyOp28
 70
     1
102
RTVSPropertyOp29
 70
     1
102
RTVSPropertyOp30
 70
     1
102
RTVSPropertyOp31
 70
     1
102
RTVSPropertyOp32
 70
     1
102
RTVSPropertyOp33
 70
     1
102
RTVSPropertyOp34
 70
     1
102
RTVSPropertyOp35
 70
     1
102
RTVSPropertyOp36
 70
     1
102
RTVSPropertyOp37
 70
     1
102
RTVSPropertyOp38
 70
     1
102
RTVSPropertyOp39
 70
     1
102
RTVSPropertyOp40
 70
     1
102
RTVSPropertyOp41
 70
     1
102
RTVSPropertyOp42
 70
     1
102
RTVSPropertyOp43
 70
     1
102
RTVSPropertyOp44
 70
     1
102
RTVSPropertyOp45
 70
     1
102
RTVSPropertyOp46
 70
     1
102
RTVSPropertyOp47
 70
     1
102
RTVSPropertyOp48
 70
     1
102
RTVSPropertyOp49
 70
     1
102
RTVSPropertyOp50
 70
     1
102
RTVSPropertyOp51
 70
     0
102
RTVSPropertyOp52
 70
     0
102
RTVSPropertyOp53
 70
     1
102
RTVSPropertyOp54
 70
     1
102
RTVSPropertyOp55
 70
     1
102
RTVSPropertyOp56
 70
     1
102
RTVSPropertyOp57
 70
     1
102
RTVSPost2010Prop28
280
     0
102
RTVSPost2010PropOp28
 70
     1
102
RTVSPost2010Prop29
280
     1
102
RTVSPost2010PropOp29
 70
     1
102
RTVSPost2010Prop30
280
     1
102
RTVSPost2010PropOp30
 70
     1
102
RTVSPost2010Prop31
280
     0
102
RTVSPost2010PropOp31
 70
     1
102
RTVSPost2010Prop32
280
     0
102
RTVSPost2010PropOp32
 70
     1
102
RTVSPost2010Prop33
280
     0
102
RTVSPost2010PropOp33
 70
     1
102
RTVSPost2010Prop34
280
     0
102
RTVSPost2010PropOp34
 70
     1
102
RTVSPost2010Prop35
280
     0
102
RTVSPost2010PropOp35
 70
     1
102
RTVSPost2010Prop36
280
     0
102
RTVSPost2010PropOp36
 70
     1
102
RTVSPost2010Prop37
 90
       50
102
RTVSPost2010PropOp37
 70
     1
102
RTVSPost2010Prop38
140
0.0
102
RTVSPost2010PropOp38
 70
     1
102
RTVSPost2010Prop39
140
1.0
102
RTVSPost2010PropOp39
 70
     1
102
RTVSPost2010Prop40
 90
        0
102
RTVSPost2010PropOp40
 70
     1
102
RTVSPost2010Prop41ColorIndex
 90
       18
102
RTVSPost2010Prop41ColorRGB
 90
        0
102
RTVSPost2010PropOp41
 70
     1
102
RTVSPost2010Prop42
 90
       50
102
RTVSPost2010PropOp42
 70
     1
102
RTVSPost2010Prop43
 90
        3
102
RTVSPost2010PropOp43
 70
     1
102
RTVSPost2010Prop44ColorIndex
 90
        5
102
RTVSPost2010Prop44ColorRGB
 90
      255
102
RTVSPost2010PropOp44
 70
     1
102
RTVSPost2010Prop45
280
     0
102
RTVSPost2010PropOp45
 70
     1
102
RTVSPost2010Prop46
 90
       50
102
RTVSPost2010PropOp46
 70
     1
102
RTVSPost2010Prop47
 90
       50
102
RTVSPost2010PropOp47
 70
     1
102
RTVSPost2010Prop48
 90
       50
102
RTVSPost2010PropOp48
 70
     1
102
RTVSPost2010Prop49
280
     0
102
RTVSPost2010PropOp49
 70
     1
102
RTVSPost2010Prop50
 90
       50
102
RTVSPost2010PropOp50
 70
     1
102
RTVSPost2010Prop51ColorIndex
 90
      256
102
RTVSPost2010Prop51ColorRGB
 90
-16777216
102
RTVSPost2010PropOp51
 70
     0
102
RTVSPost2010Prop52
140
1.0
102
RTVSPost2010PropOp52
 70
     0
102
RTVSPost2010Prop53
 90
        2
102
RTVSPost2010PropOp53
 70
     1
102
RTVSPost2010Prop54
  1
strokes_ogs.tif
102
RTVSPost2010PropOp54
 70
     1
102
RTVSPost2010Prop55
280
     0
102
RTVSPost2010PropOp55
 70
     1
102
RTVSPost2010Prop56
140
1.0
102
RTVSPost2010PropOp56
 70
     1
102
RTVSPost2010Prop57
140
1.0
102
RTVSPost2010PropOp57
 70
     1
  0
XRECORD
  5
1A64B
102
{ACAD_REACTORS
330
1A64A
102
}
330
1A64A
100
AcDbXrecord
280
     1
102
RTVSPropertyOp0
 70
     1
102
RTVSPropertyOp1
 70
     1
102
RTVSPropertyOp2
 70
     1
102
RTVSPropertyOp3
 70
     1
102
RTVSPropertyOp4
 70
     1
102
RTVSPropertyOp5
 70
     1
102
RTVSPropertyOp6
 70
     1
102
RTVSPropertyOp7
 70
     1
102
RTVSPropertyOp8
 70
     1
102
RTVSPropertyOp9
 70
     1
102
RTVSPropertyOp10
 70
     1
102
RTVSPropertyOp11
 70
     1
102
RTVSPropertyOp12
 70
     1
102
RTVSPropertyOp13
 70
     1
102
RTVSPropertyOp14
 70
     1
102
RTVSPropertyOp15
 70
     1
102
RTVSPropertyOp16
 70
     1
102
RTVSPropertyOp17
 70
     1
102
RTVSPropertyOp18
 70
     1
102
RTVSPropertyOp19
 70
     1
102
RTVSPropertyOp20
 70
     1
102
RTVSPropertyOp21
 70
     1
102
RTVSPropertyOp22
 70
     1
102
RTVSPropertyOp23
 70
     1
102
RTVSPropertyOp24
 70
     1
102
RTVSPropertyOp25
 70
     1
102
RTVSPropertyOp26
 70
     1
102
RTVSPropertyOp27
 70
     1
102
RTVSPropertyOp28
 70
     1
102
RTVSPropertyOp29
 70
     1
102
RTVSPropertyOp30
 70
     1
102
RTVSPropertyOp31
 70
     1
102
RTVSPropertyOp32
 70
     1
102
RTVSPropertyOp33
 70
     1
102
RTVSPropertyOp34
 70
     1
102
RTVSPropertyOp35
 70
     1
102
RTVSPropertyOp36
 70
     1
102
RTVSPropertyOp37
 70
     1
102
RTVSPropertyOp38
 70
     1
102
RTVSPropertyOp39
 70
     1
102
RTVSPropertyOp40
 70
     1
102
RTVSPropertyOp41
 70
     1
102
RTVSPropertyOp42
 70
     1
102
RTVSPropertyOp43
 70
     1
102
RTVSPropertyOp44
 70
     1
102
RTVSPropertyOp45
 70
     1
102
RTVSPropertyOp46
 70
     1
102
RTVSPropertyOp47
 70
     1
102
RTVSPropertyOp48
 70
     1
102
RTVSPropertyOp49
 70
     1
102
RTVSPropertyOp50
 70
     1
102
RTVSPropertyOp51
 70
     0
102
RTVSPropertyOp52
 70
     0
102
RTVSPropertyOp53
 70
     1
102
RTVSPropertyOp54
 70
     1
102
RTVSPropertyOp55
 70
     1
102
RTVSPropertyOp56
 70
     1
102
RTVSPropertyOp57
 70
     1
102
RTVSPost2010Prop28
280
     0
102
RTVSPost2010PropOp28
 70
     1
102
RTVSPost2010Prop29
280
     1
102
RTVSPost2010PropOp29
 70
     1
102
RTVSPost2010Prop30
280
     1
102
RTVSPost2010PropOp30
 70
     1
102
RTVSPost2010Prop31
280
     0
102
RTVSPost2010PropOp31
 70
     1
102
RTVSPost2010Prop32
280
     0
102
RTVSPost2010PropOp32
 70
     1
102
RTVSPost2010Prop33
280
     0
102
RTVSPost2010PropOp33
 70
     1
102
RTVSPost2010Prop34
280
     0
102
RTVSPost2010PropOp34
 70
     1
102
RTVSPost2010Prop35
280
     0
102
RTVSPost2010PropOp35
 70
     1
102
RTVSPost2010Prop36
280
     0
102
RTVSPost2010PropOp36
 70
     1
102
RTVSPost2010Prop37
 90
       50
102
RTVSPost2010PropOp37
 70
     1
102
RTVSPost2010Prop38
140
0.0
102
RTVSPost2010PropOp38
 70
     1
102
RTVSPost2010Prop39
140
1.0
102
RTVSPost2010PropOp39
 70
     1
102
RTVSPost2010Prop40
 90
        0
102
RTVSPost2010PropOp40
 70
     1
102
RTVSPost2010Prop41ColorIndex
 90
       18
102
RTVSPost2010Prop41ColorRGB
 90
        0
102
RTVSPost2010PropOp41
 70
     1
102
RTVSPost2010Prop42
 90
       50
102
RTVSPost2010PropOp42
 70
     1
102
RTVSPost2010Prop43
 90
        3
102
RTVSPost2010PropOp43
 70
     1
102
RTVSPost2010Prop44ColorIndex
 90
        5
102
RTVSPost2010Prop44ColorRGB
 90
      255
102
RTVSPost2010PropOp44
 70
     1
102
RTVSPost2010Prop45
280
     0
102
RTVSPost2010PropOp45
 70
     1
102
RTVSPost2010Prop46
 90
       50
102
RTVSPost2010PropOp46
 70
     1
102
RTVSPost2010Prop47
 90
       50
102
RTVSPost2010PropOp47
 70
     1
102
RTVSPost2010Prop48
 90
       50
102
RTVSPost2010PropOp48
 70
     1
102
RTVSPost2010Prop49
280
     0
102
RTVSPost2010PropOp49
 70
     1
102
RTVSPost2010Prop50
 90
       50
102
RTVSPost2010PropOp50
 70
     1
102
RTVSPost2010Prop51ColorIndex
 90
      256
102
RTVSPost2010Prop51ColorRGB
 90
-16777216
102
RTVSPost2010PropOp51
 70
     0
102
RTVSPost2010Prop52
140
1.0
102
RTVSPost2010PropOp52
 70
     0
102
RTVSPost2010Prop53
 90
        2
102
RTVSPost2010PropOp53
 70
     1
102
RTVSPost2010Prop54
  1
strokes_ogs.tif
102
RTVSPost2010PropOp54
 70
     1
102
RTVSPost2010Prop55
280
     0
102
RTVSPost2010PropOp55
 70
     1
102
RTVSPost2010Prop56
140
1.0
102
RTVSPost2010PropOp56
 70
     1
102
RTVSPost2010Prop57
140
1.0
102
RTVSPost2010PropOp57
 70
     1
  0
XRECORD
  5
1A64D
102
{ACAD_REACTORS
330
1A64C
102
}
330
1A64C
100
AcDbXrecord
280
     1
102
RTVSPropertyOp0
 70
     1
102
RTVSPropertyOp1
 70
     1
102
RTVSPropertyOp2
 70
     1
102
RTVSPropertyOp3
 70
     1
102
RTVSPropertyOp4
 70
     1
102
RTVSPropertyOp5
 70
     1
102
RTVSPropertyOp6
 70
     1
102
RTVSPropertyOp7
 70
     1
102
RTVSPropertyOp8
 70
     1
102
RTVSPropertyOp9
 70
     1
102
RTVSPropertyOp10
 70
     1
102
RTVSPropertyOp11
 70
     1
102
RTVSPropertyOp12
 70
     1
102
RTVSPropertyOp13
 70
     1
102
RTVSPropertyOp14
 70
     1
102
RTVSPropertyOp15
 70
     1
102
RTVSPropertyOp16
 70
     1
102
RTVSPropertyOp17
 70
     1
102
RTVSPropertyOp18
 70
     1
102
RTVSPropertyOp19
 70
     1
102
RTVSPropertyOp20
 70
     1
102
RTVSPropertyOp21
 70
     1
102
RTVSPropertyOp22
 70
     1
102
RTVSPropertyOp23
 70
     1
102
RTVSPropertyOp24
 70
     1
102
RTVSPropertyOp25
 70
     1
102
RTVSPropertyOp26
 70
     1
102
RTVSPropertyOp27
 70
     1
102
RTVSPropertyOp28
 70
     1
102
RTVSPropertyOp29
 70
     1
102
RTVSPropertyOp30
 70
     1
102
RTVSPropertyOp31
 70
     1
102
RTVSPropertyOp32
 70
     1
102
RTVSPropertyOp33
 70
     1
102
RTVSPropertyOp34
 70
     1
102
RTVSPropertyOp35
 70
     1
102
RTVSPropertyOp36
 70
     1
102
RTVSPropertyOp37
 70
     1
102
RTVSPropertyOp38
 70
     1
102
RTVSPropertyOp39
 70
     1
102
RTVSPropertyOp40
 70
     1
102
RTVSPropertyOp41
 70
     1
102
RTVSPropertyOp42
 70
     1
102
RTVSPropertyOp43
 70
     1
102
RTVSPropertyOp44
 70
     1
102
RTVSPropertyOp45
 70
     1
102
RTVSPropertyOp46
 70
     1
102
RTVSPropertyOp47
 70
     1
102
RTVSPropertyOp48
 70
     1
102
RTVSPropertyOp49
 70
     1
102
RTVSPropertyOp50
 70
     1
102
RTVSPropertyOp51
 70
     0
102
RTVSPropertyOp52
 70
     0
102
RTVSPropertyOp53
 70
     1
102
RTVSPropertyOp54
 70
     1
102
RTVSPropertyOp55
 70
     1
102
RTVSPropertyOp56
 70
     1
102
RTVSPropertyOp57
 70
     1
102
RTVSPost2010Prop28
280
     0
102
RTVSPost2010PropOp28
 70
     1
102
RTVSPost2010Prop29
280
     1
102
RTVSPost2010PropOp29
 70
     1
102
RTVSPost2010Prop30
280
     1
102
RTVSPost2010PropOp30
 70
     1
102
RTVSPost2010Prop31
280
     0
102
RTVSPost2010PropOp31
 70
     1
102
RTVSPost2010Prop32
280
     0
102
RTVSPost2010PropOp32
 70
     1
102
RTVSPost2010Prop33
280
     0
102
RTVSPost2010PropOp33
 70
     1
102
RTVSPost2010Prop34
280
     0
102
RTVSPost2010PropOp34
 70
     1
102
RTVSPost2010Prop35
280
     0
102
RTVSPost2010PropOp35
 70
     1
102
RTVSPost2010Prop36
280
     0
102
RTVSPost2010PropOp36
 70
     1
102
RTVSPost2010Prop37
 90
       50
102
RTVSPost2010PropOp37
 70
     1
102
RTVSPost2010Prop38
140
0.0
102
RTVSPost2010PropOp38
 70
     1
102
RTVSPost2010Prop39
140
1.0
102
RTVSPost2010PropOp39
 70
     1
102
RTVSPost2010Prop40
 90
        0
102
RTVSPost2010PropOp40
 70
     1
102
RTVSPost2010Prop41ColorIndex
 90
       18
102
RTVSPost2010Prop41ColorRGB
 90
        0
102
RTVSPost2010PropOp41
 70
     1
102
RTVSPost2010Prop42
 90
       50
102
RTVSPost2010PropOp42
 70
     1
102
RTVSPost2010Prop43
 90
        3
102
RTVSPost2010PropOp43
 70
     1
102
RTVSPost2010Prop44ColorIndex
 90
        5
102
RTVSPost2010Prop44ColorRGB
 90
      255
102
RTVSPost2010PropOp44
 70
     1
102
RTVSPost2010Prop45
280
     0
102
RTVSPost2010PropOp45
 70
     1
102
RTVSPost2010Prop46
 90
       50
102
RTVSPost2010PropOp46
 70
     1
102
RTVSPost2010Prop47
 90
       50
102
RTVSPost2010PropOp47
 70
     1
102
RTVSPost2010Prop48
 90
       50
102
RTVSPost2010PropOp48
 70
     1
102
RTVSPost2010Prop49
280
     0
102
RTVSPost2010PropOp49
 70
     1
102
RTVSPost2010Prop50
 90
       50
102
RTVSPost2010PropOp50
 70
     1
102
RTVSPost2010Prop51ColorIndex
 90
      256
102
RTVSPost2010Prop51ColorRGB
 90
-16777216
102
RTVSPost2010PropOp51
 70
     0
102
RTVSPost2010Prop52
140
1.0
102
RTVSPost2010PropOp52
 70
     0
102
RTVSPost2010Prop53
 90
        2
102
RTVSPost2010PropOp53
 70
     1
102
RTVSPost2010Prop54
  1
strokes_ogs.tif
102
RTVSPost2010PropOp54
 70
     1
102
RTVSPost2010Prop55
280
     0
102
RTVSPost2010PropOp55
 70
     1
102
RTVSPost2010Prop56
140
1.0
102
RTVSPost2010PropOp56
 70
     1
102
RTVSPost2010Prop57
140
1.0
102
RTVSPost2010PropOp57
 70
     1
  0
XRECORD
  5
1A64F
102
{ACAD_REACTORS
330
1A64E
102
}
330
1A64E
100
AcDbXrecord
280
     1
102
RTVSPropertyOp0
 70
     1
102
RTVSPropertyOp1
 70
     1
102
RTVSPropertyOp2
 70
     1
102
RTVSPropertyOp3
 70
     1
102
RTVSPropertyOp4
 70
     1
102
RTVSPropertyOp5
 70
     1
102
RTVSPropertyOp6
 70
     1
102
RTVSPropertyOp7
 70
     1
102
RTVSPropertyOp8
 70
     1
102
RTVSPropertyOp9
 70
     1
102
RTVSPropertyOp10
 70
     1
102
RTVSPropertyOp11
 70
     1
102
RTVSPropertyOp12
 70
     1
102
RTVSPropertyOp13
 70
     1
102
RTVSPropertyOp14
 70
     1
102
RTVSPropertyOp15
 70
     1
102
RTVSPropertyOp16
 70
     1
102
RTVSPropertyOp17
 70
     1
102
RTVSPropertyOp18
 70
     1
102
RTVSPropertyOp19
 70
     1
102
RTVSPropertyOp20
 70
     1
102
RTVSPropertyOp21
 70
     1
102
RTVSPropertyOp22
 70
     1
102
RTVSPropertyOp23
 70
     1
102
RTVSPropertyOp24
 70
     1
102
RTVSPropertyOp25
 70
     1
102
RTVSPropertyOp26
 70
     1
102
RTVSPropertyOp27
 70
     1
102
RTVSPropertyOp28
 70
     1
102
RTVSPropertyOp29
 70
     1
102
RTVSPropertyOp30
 70
     1
102
RTVSPropertyOp31
 70
     1
102
RTVSPropertyOp32
 70
     1
102
RTVSPropertyOp33
 70
     1
102
RTVSPropertyOp34
 70
     1
102
RTVSPropertyOp35
 70
     1
102
RTVSPropertyOp36
 70
     1
102
RTVSPropertyOp37
 70
     1
102
RTVSPropertyOp38
 70
     1
102
RTVSPropertyOp39
 70
     1
102
RTVSPropertyOp40
 70
     1
102
RTVSPropertyOp41
 70
     1
102
RTVSPropertyOp42
 70
     1
102
RTVSPropertyOp43
 70
     1
102
RTVSPropertyOp44
 70
     1
102
RTVSPropertyOp45
 70
     1
102
RTVSPropertyOp46
 70
     1
102
RTVSPropertyOp47
 70
     1
102
RTVSPropertyOp48
 70
     1
102
RTVSPropertyOp49
 70
     1
102
RTVSPropertyOp50
 70
     1
102
RTVSPropertyOp51
 70
     0
102
RTVSPropertyOp52
 70
     0
102
RTVSPropertyOp53
 70
     1
102
RTVSPropertyOp54
 70
     1
102
RTVSPropertyOp55
 70
     1
102
RTVSPropertyOp56
 70
     1
102
RTVSPropertyOp57
 70
     1
102
RTVSPost2010Prop28
280
     0
102
RTVSPost2010PropOp28
 70
     1
102
RTVSPost2010Prop29
280
     1
102
RTVSPost2010PropOp29
 70
     1
102
RTVSPost2010Prop30
280
     1
102
RTVSPost2010PropOp30
 70
     1
102
RTVSPost2010Prop31
280
     0
102
RTVSPost2010PropOp31
 70
     1
102
RTVSPost2010Prop32
280
     0
102
RTVSPost2010PropOp32
 70
     1
102
RTVSPost2010Prop33
280
     0
102
RTVSPost2010PropOp33
 70
     1
102
RTVSPost2010Prop34
280
     0
102
RTVSPost2010PropOp34
 70
     1
102
RTVSPost2010Prop35
280
     0
102
RTVSPost2010PropOp35
 70
     1
102
RTVSPost2010Prop36
280
     0
102
RTVSPost2010PropOp36
 70
     1
102
RTVSPost2010Prop37
 90
       50
102
RTVSPost2010PropOp37
 70
     1
102
RTVSPost2010Prop38
140
0.0
102
RTVSPost2010PropOp38
 70
     1
102
RTVSPost2010Prop39
140
1.0
102
RTVSPost2010PropOp39
 70
     1
102
RTVSPost2010Prop40
 90
        0
102
RTVSPost2010PropOp40
 70
     1
102
RTVSPost2010Prop41ColorIndex
 90
       18
102
RTVSPost2010Prop41ColorRGB
 90
        0
102
RTVSPost2010PropOp41
 70
     1
102
RTVSPost2010Prop42
 90
       50
102
RTVSPost2010PropOp42
 70
     1
102
RTVSPost2010Prop43
 90
        3
102
RTVSPost2010PropOp43
 70
     1
102
RTVSPost2010Prop44ColorIndex
 90
        5
102
RTVSPost2010Prop44ColorRGB
 90
      255
102
RTVSPost2010PropOp44
 70
     1
102
RTVSPost2010Prop45
280
     0
102
RTVSPost2010PropOp45
 70
     1
102
RTVSPost2010Prop46
 90
       50
102
RTVSPost2010PropOp46
 70
     1
102
RTVSPost2010Prop47
 90
       50
102
RTVSPost2010PropOp47
 70
     1
102
RTVSPost2010Prop48
 90
       50
102
RTVSPost2010PropOp48
 70
     1
102
RTVSPost2010Prop49
280
     0
102
RTVSPost2010PropOp49
 70
     1
102
RTVSPost2010Prop50
 90
       50
102
RTVSPost2010PropOp50
 70
     1
102
RTVSPost2010Prop51ColorIndex
 90
      256
102
RTVSPost2010Prop51ColorRGB
 90
-16777216
102
RTVSPost2010PropOp51
 70
     0
102
RTVSPost2010Prop52
140
1.0
102
RTVSPost2010PropOp52
 70
     0
102
RTVSPost2010Prop53
 90
        2
102
RTVSPost2010PropOp53
 70
     1
102
RTVSPost2010Prop54
  1
strokes_ogs.tif
102
RTVSPost2010PropOp54
 70
     1
102
RTVSPost2010Prop55
280
     0
102
RTVSPost2010PropOp55
 70
     1
102
RTVSPost2010Prop56
140
1.0
102
RTVSPost2010PropOp56
 70
     1
102
RTVSPost2010Prop57
140
1.0
102
RTVSPost2010PropOp57
 70
     1
  0
XRECORD
  5
1A651
102
{ACAD_REACTORS
330
1A650
102
}
330
1A650
100
AcDbXrecord
280
     1
102
RTVSPropertyOp0
 70
     1
102
RTVSPropertyOp1
 70
     1
102
RTVSPropertyOp2
 70
     1
102
RTVSPropertyOp3
 70
     1
102
RTVSPropertyOp4
 70
     1
102
RTVSPropertyOp5
 70
     1
102
RTVSPropertyOp6
 70
     1
102
RTVSPropertyOp7
 70
     1
102
RTVSPropertyOp8
 70
     1
102
RTVSPropertyOp9
 70
     1
102
RTVSPropertyOp10
 70
     1
102
RTVSPropertyOp11
 70
     1
102
RTVSPropertyOp12
 70
     1
102
RTVSPropertyOp13
 70
     1
102
RTVSPropertyOp14
 70
     1
102
RTVSPropertyOp15
 70
     1
102
RTVSPropertyOp16
 70
     1
102
RTVSPropertyOp17
 70
     1
102
RTVSPropertyOp18
 70
     1
102
RTVSPropertyOp19
 70
     1
102
RTVSPropertyOp20
 70
     1
102
RTVSPropertyOp21
 70
     1
102
RTVSPropertyOp22
 70
     1
102
RTVSPropertyOp23
 70
     1
102
RTVSPropertyOp24
 70
     1
102
RTVSPropertyOp25
 70
     1
102
RTVSPropertyOp26
 70
     1
102
RTVSPropertyOp27
 70
     1
102
RTVSPropertyOp28
 70
     1
102
RTVSPropertyOp29
 70
     1
102
RTVSPropertyOp30
 70
     1
102
RTVSPropertyOp31
 70
     1
102
RTVSPropertyOp32
 70
     1
102
RTVSPropertyOp33
 70
     1
102
RTVSPropertyOp34
 70
     1
102
RTVSPropertyOp35
 70
     1
102
RTVSPropertyOp36
 70
     1
102
RTVSPropertyOp37
 70
     1
102
RTVSPropertyOp38
 70
     1
102
RTVSPropertyOp39
 70
     1
102
RTVSPropertyOp40
 70
     1
102
RTVSPropertyOp41
 70
     1
102
RTVSPropertyOp42
 70
     1
102
RTVSPropertyOp43
 70
     1
102
RTVSPropertyOp44
 70
     1
102
RTVSPropertyOp45
 70
     1
102
RTVSPropertyOp46
 70
     1
102
RTVSPropertyOp47
 70
     1
102
RTVSPropertyOp48
 70
     1
102
RTVSPropertyOp49
 70
     1
102
RTVSPropertyOp50
 70
     1
102
RTVSPropertyOp51
 70
     0
102
RTVSPropertyOp52
 70
     0
102
RTVSPropertyOp53
 70
     1
102
RTVSPropertyOp54
 70
     1
102
RTVSPropertyOp55
 70
     1
102
RTVSPropertyOp56
 70
     1
102
RTVSPropertyOp57
 70
     1
102
RTVSPost2010Prop28
280
     0
102
RTVSPost2010PropOp28
 70
     1
102
RTVSPost2010Prop29
280
     1
102
RTVSPost2010PropOp29
 70
     1
102
RTVSPost2010Prop30
280
     1
102
RTVSPost2010PropOp30
 70
     1
102
RTVSPost2010Prop31
280
     0
102
RTVSPost2010PropOp31
 70
     1
102
RTVSPost2010Prop32
280
     0
102
RTVSPost2010PropOp32
 70
     1
102
RTVSPost2010Prop33
280
     0
102
RTVSPost2010PropOp33
 70
     1
102
RTVSPost2010Prop34
280
     0
102
RTVSPost2010PropOp34
 70
     1
102
RTVSPost2010Prop35
280
     0
102
RTVSPost2010PropOp35
 70
     1
102
RTVSPost2010Prop36
280
     0
102
RTVSPost2010PropOp36
 70
     1
102
RTVSPost2010Prop37
 90
       50
102
RTVSPost2010PropOp37
 70
     1
102
RTVSPost2010Prop38
140
0.0
102
RTVSPost2010PropOp38
 70
     1
102
RTVSPost2010Prop39
140
1.0
102
RTVSPost2010PropOp39
 70
     1
102
RTVSPost2010Prop40
 90
        0
102
RTVSPost2010PropOp40
 70
     1
102
RTVSPost2010Prop41ColorIndex
 90
       18
102
RTVSPost2010Prop41ColorRGB
 90
        0
102
RTVSPost2010PropOp41
 70
     1
102
RTVSPost2010Prop42
 90
       50
102
RTVSPost2010PropOp42
 70
     1
102
RTVSPost2010Prop43
 90
        3
102
RTVSPost2010PropOp43
 70
     1
102
RTVSPost2010Prop44ColorIndex
 90
        5
102
RTVSPost2010Prop44ColorRGB
 90
      255
102
RTVSPost2010PropOp44
 70
     1
102
RTVSPost2010Prop45
280
     0
102
RTVSPost2010PropOp45
 70
     1
102
RTVSPost2010Prop46
 90
       50
102
RTVSPost2010PropOp46
 70
     1
102
RTVSPost2010Prop47
 90
       50
102
RTVSPost2010PropOp47
 70
     1
102
RTVSPost2010Prop48
 90
       50
102
RTVSPost2010PropOp48
 70
     1
102
RTVSPost2010Prop49
280
     0
102
RTVSPost2010PropOp49
 70
     1
102
RTVSPost2010Prop50
 90
       50
102
RTVSPost2010PropOp50
 70
     1
102
RTVSPost2010Prop51ColorIndex
 90
      256
102
RTVSPost2010Prop51ColorRGB
 90
-16777216
102
RTVSPost2010PropOp51
 70
     0
102
RTVSPost2010Prop52
140
1.0
102
RTVSPost2010PropOp52
 70
     0
102
RTVSPost2010Prop53
 90
        2
102
RTVSPost2010PropOp53
 70
     1
102
RTVSPost2010Prop54
  1
strokes_ogs.tif
102
RTVSPost2010PropOp54
 70
     1
102
RTVSPost2010Prop55
280
     0
102
RTVSPost2010PropOp55
 70
     1
102
RTVSPost2010Prop56
140
1.0
102
RTVSPost2010PropOp56
 70
     1
102
RTVSPost2010Prop57
140
1.0
102
RTVSPost2010PropOp57
 70
     1
  0
XRECORD
  5
1A653
102
{ACAD_REACTORS
330
1A652
102
}
330
1A652
100
AcDbXrecord
280
     1
102
RTVSPropertyOp0
 70
     1
102
RTVSPropertyOp1
 70
     1
102
RTVSPropertyOp2
 70
     1
102
RTVSPropertyOp3
 70
     1
102
RTVSPropertyOp4
 70
     1
102
RTVSPropertyOp5
 70
     1
102
RTVSPropertyOp6
 70
     1
102
RTVSPropertyOp7
 70
     1
102
RTVSPropertyOp8
 70
     1
102
RTVSPropertyOp9
 70
     1
102
RTVSPropertyOp10
 70
     1
102
RTVSPropertyOp11
 70
     1
102
RTVSPropertyOp12
 70
     1
102
RTVSPropertyOp13
 70
     1
102
RTVSPropertyOp14
 70
     1
102
RTVSPropertyOp15
 70
     1
102
RTVSPropertyOp16
 70
     1
102
RTVSPropertyOp17
 70
     1
102
RTVSPropertyOp18
 70
     1
102
RTVSPropertyOp19
 70
     1
102
RTVSPropertyOp20
 70
     1
102
RTVSPropertyOp21
 70
     1
102
RTVSPropertyOp22
 70
     1
102
RTVSPropertyOp23
 70
     1
102
RTVSPropertyOp24
 70
     1
102
RTVSPropertyOp25
 70
     1
102
RTVSPropertyOp26
 70
     1
102
RTVSPropertyOp27
 70
     1
102
RTVSPropertyOp28
 70
     1
102
RTVSPropertyOp29
 70
     1
102
RTVSPropertyOp30
 70
     1
102
RTVSPropertyOp31
 70
     1
102
RTVSPropertyOp32
 70
     1
102
RTVSPropertyOp33
 70
     1
102
RTVSPropertyOp34
 70
     1
102
RTVSPropertyOp35
 70
     1
102
RTVSPropertyOp36
 70
     1
102
RTVSPropertyOp37
 70
     1
102
RTVSPropertyOp38
 70
     1
102
RTVSPropertyOp39
 70
     1
102
RTVSPropertyOp40
 70
     1
102
RTVSPropertyOp41
 70
     1
102
RTVSPropertyOp42
 70
     1
102
RTVSPropertyOp43
 70
     1
102
RTVSPropertyOp44
 70
     1
102
RTVSPropertyOp45
 70
     1
102
RTVSPropertyOp46
 70
     1
102
RTVSPropertyOp47
 70
     1
102
RTVSPropertyOp48
 70
     1
102
RTVSPropertyOp49
 70
     1
102
RTVSPropertyOp50
 70
     1
102
RTVSPropertyOp51
 70
     0
102
RTVSPropertyOp52
 70
     0
102
RTVSPropertyOp53
 70
     1
102
RTVSPropertyOp54
 70
     1
102
RTVSPropertyOp55
 70
     1
102
RTVSPropertyOp56
 70
     1
102
RTVSPropertyOp57
 70
     1
102
RTVSPost2010Prop28
280
     0
102
RTVSPost2010PropOp28
 70
     1
102
RTVSPost2010Prop29
280
     1
102
RTVSPost2010PropOp29
 70
     1
102
RTVSPost2010Prop30
280
     1
102
RTVSPost2010PropOp30
 70
     1
102
RTVSPost2010Prop31
280
     0
102
RTVSPost2010PropOp31
 70
     1
102
RTVSPost2010Prop32
280
     0
102
RTVSPost2010PropOp32
 70
     1
102
RTVSPost2010Prop33
280
     0
102
RTVSPost2010PropOp33
 70
     1
102
RTVSPost2010Prop34
280
     0
102
RTVSPost2010PropOp34
 70
     1
102
RTVSPost2010Prop35
280
     0
102
RTVSPost2010PropOp35
 70
     1
102
RTVSPost2010Prop36
280
     0
102
RTVSPost2010PropOp36
 70
     1
102
RTVSPost2010Prop37
 90
       50
102
RTVSPost2010PropOp37
 70
     1
102
RTVSPost2010Prop38
140
0.0
102
RTVSPost2010PropOp38
 70
     1
102
RTVSPost2010Prop39
140
1.0
102
RTVSPost2010PropOp39
 70
     1
102
RTVSPost2010Prop40
 90
        0
102
RTVSPost2010PropOp40
 70
     1
102
RTVSPost2010Prop41ColorIndex
 90
       18
102
RTVSPost2010Prop41ColorRGB
 90
        0
102
RTVSPost2010PropOp41
 70
     1
102
RTVSPost2010Prop42
 90
       50
102
RTVSPost2010PropOp42
 70
     1
102
RTVSPost2010Prop43
 90
        3
102
RTVSPost2010PropOp43
 70
     1
102
RTVSPost2010Prop44ColorIndex
 90
        5
102
RTVSPost2010Prop44ColorRGB
 90
      255
102
RTVSPost2010PropOp44
 70
     1
102
RTVSPost2010Prop45
280
     0
102
RTVSPost2010PropOp45
 70
     1
102
RTVSPost2010Prop46
 90
       50
102
RTVSPost2010PropOp46
 70
     1
102
RTVSPost2010Prop47
 90
       50
102
RTVSPost2010PropOp47
 70
     1
102
RTVSPost2010Prop48
 90
       50
102
RTVSPost2010PropOp48
 70
     1
102
RTVSPost2010Prop49
280
     0
102
RTVSPost2010PropOp49
 70
     1
102
RTVSPost2010Prop50
 90
       50
102
RTVSPost2010PropOp50
 70
     1
102
RTVSPost2010Prop51ColorIndex
 90
      256
102
RTVSPost2010Prop51ColorRGB
 90
-16777216
102
RTVSPost2010PropOp51
 70
     0
102
RTVSPost2010Prop52
140
1.0
102
RTVSPost2010PropOp52
 70
     0
102
RTVSPost2010Prop53
 90
        2
102
RTVSPost2010PropOp53
 70
     1
102
RTVSPost2010Prop54
  1
strokes_ogs.tif
102
RTVSPost2010PropOp54
 70
     1
102
RTVSPost2010Prop55
280
     0
102
RTVSPost2010PropOp55
 70
     1
102
RTVSPost2010Prop56
140
1.0
102
RTVSPost2010PropOp56
 70
     1
102
RTVSPost2010Prop57
140
1.0
102
RTVSPost2010PropOp57
 70
     1
  0
XRECORD
  5
1A655
102
{ACAD_REACTORS
330
1A654
102
}
330
1A654
100
AcDbXrecord
280
     1
102
RTVSPropertyOp0
 70
     0
102
RTVSPropertyOp1
 70
     0
102
RTVSPropertyOp2
 70
     0
102
RTVSPropertyOp3
 70
     0
102
RTVSPropertyOp4
 70
     0
102
RTVSPropertyOp5
 70
     0
102
RTVSPropertyOp6
 70
     0
102
RTVSPropertyOp7
 70
     0
102
RTVSPropertyOp8
 70
     0
102
RTVSPropertyOp9
 70
     0
102
RTVSPropertyOp10
 70
     0
102
RTVSPropertyOp11
 70
     0
102
RTVSPropertyOp12
 70
     0
102
RTVSPropertyOp13
 70
     0
102
RTVSPropertyOp14
 70
     0
102
RTVSPropertyOp15
 70
     0
102
RTVSPropertyOp16
 70
     0
102
RTVSPropertyOp17
 70
     0
102
RTVSPropertyOp18
 70
     0
102
RTVSPropertyOp19
 70
     0
102
RTVSPropertyOp20
 70
     0
102
RTVSPropertyOp21
 70
     0
102
RTVSPropertyOp22
 70
     0
102
RTVSPropertyOp23
 70
     0
102
RTVSPropertyOp24
 70
     0
102
RTVSPropertyOp25
 70
     0
102
RTVSPropertyOp26
 70
     0
102
RTVSPropertyOp27
 70
     0
102
RTVSPropertyOp28
 70
     1
102
RTVSPropertyOp29
 70
     1
102
RTVSPropertyOp30
 70
     1
102
RTVSPropertyOp31
 70
     1
102
RTVSPropertyOp32
 70
     1
102
RTVSPropertyOp33
 70
     1
102
RTVSPropertyOp34
 70
     1
102
RTVSPropertyOp35
 70
     1
102
RTVSPropertyOp36
 70
     1
102
RTVSPropertyOp37
 70
     1
102
RTVSPropertyOp38
 70
     1
102
RTVSPropertyOp39
 70
     1
102
RTVSPropertyOp40
 70
     1
102
RTVSPropertyOp41
 70
     1
102
RTVSPropertyOp42
 70
     1
102
RTVSPropertyOp43
 70
     1
102
RTVSPropertyOp44
 70
     1
102
RTVSPropertyOp45
 70
     1
102
RTVSPropertyOp46
 70
     1
102
RTVSPropertyOp47
 70
     1
102
RTVSPropertyOp48
 70
     1
102
RTVSPropertyOp49
 70
     1
102
RTVSPropertyOp50
 70
     1
102
RTVSPropertyOp51
 70
     0
102
RTVSPropertyOp52
 70
     0
102
RTVSPropertyOp53
 70
     1
102
RTVSPropertyOp54
 70
     1
102
RTVSPropertyOp55
 70
     1
102
RTVSPropertyOp56
 70
     1
102
RTVSPropertyOp57
 70
     1
102
RTVSPost2010Prop28
280
     0
102
RTVSPost2010PropOp28
 70
     1
102
RTVSPost2010Prop29
280
     1
102
RTVSPost2010PropOp29
 70
     1
102
RTVSPost2010Prop30
280
     1
102
RTVSPost2010PropOp30
 70
     1
102
RTVSPost2010Prop31
280
     0
102
RTVSPost2010PropOp31
 70
     1
102
RTVSPost2010Prop32
280
     0
102
RTVSPost2010PropOp32
 70
     1
102
RTVSPost2010Prop33
280
     0
102
RTVSPost2010PropOp33
 70
     1
102
RTVSPost2010Prop34
280
     0
102
RTVSPost2010PropOp34
 70
     1
102
RTVSPost2010Prop35
280
     0
102
RTVSPost2010PropOp35
 70
     1
102
RTVSPost2010Prop36
280
     0
102
RTVSPost2010PropOp36
 70
     1
102
RTVSPost2010Prop37
 90
       50
102
RTVSPost2010PropOp37
 70
     1
102
RTVSPost2010Prop38
140
0.0
102
RTVSPost2010PropOp38
 70
     1
102
RTVSPost2010Prop39
140
1.0
102
RTVSPost2010PropOp39
 70
     1
102
RTVSPost2010Prop40
 90
        0
102
RTVSPost2010PropOp40
 70
     1
102
RTVSPost2010Prop41ColorIndex
 90
       18
102
RTVSPost2010Prop41ColorRGB
 90
        0
102
RTVSPost2010PropOp41
 70
     1
102
RTVSPost2010Prop42
 90
       50
102
RTVSPost2010PropOp42
 70
     1
102
RTVSPost2010Prop43
 90
        3
102
RTVSPost2010PropOp43
 70
     1
102
RTVSPost2010Prop44ColorIndex
 90
        5
102
RTVSPost2010Prop44ColorRGB
 90
      255
102
RTVSPost2010PropOp44
 70
     1
102
RTVSPost2010Prop45
280
     0
102
RTVSPost2010PropOp45
 70
     1
102
RTVSPost2010Prop46
 90
       50
102
RTVSPost2010PropOp46
 70
     1
102
RTVSPost2010Prop47
 90
       50
102
RTVSPost2010PropOp47
 70
     1
102
RTVSPost2010Prop48
 90
       50
102
RTVSPost2010PropOp48
 70
     1
102
RTVSPost2010Prop49
280
     0
102
RTVSPost2010PropOp49
 70
     1
102
RTVSPost2010Prop50
 90
       50
102
RTVSPost2010PropOp50
 70
     1
102
RTVSPost2010Prop51ColorIndex
 90
      256
102
RTVSPost2010Prop51ColorRGB
 90
-16777216
102
RTVSPost2010PropOp51
 70
     0
102
RTVSPost2010Prop52
140
1.0
102
RTVSPost2010PropOp52
 70
     0
102
RTVSPost2010Prop53
 90
        2
102
RTVSPost2010PropOp53
 70
     1
102
RTVSPost2010Prop54
  1
strokes_ogs.tif
102
RTVSPost2010PropOp54
 70
     1
102
RTVSPost2010Prop55
280
     0
102
RTVSPost2010PropOp55
 70
     1
102
RTVSPost2010Prop56
140
1.0
102
RTVSPost2010PropOp56
 70
     1
102
RTVSPost2010Prop57
140
1.0
102
RTVSPost2010PropOp57
 70
     1
  0
XRECORD
  5
1A657
102
{ACAD_REACTORS
330
1A656
102
}
330
1A656
100
AcDbXrecord
280
     1
102
RTVSPropertyOp0
 70
     1
102
RTVSPropertyOp1
 70
     1
102
RTVSPropertyOp2
 70
     1
102
RTVSPropertyOp3
 70
     1
102
RTVSPropertyOp4
 70
     1
102
RTVSPropertyOp5
 70
     1
102
RTVSPropertyOp6
 70
     1
102
RTVSPropertyOp7
 70
     1
102
RTVSPropertyOp8
 70
     1
102
RTVSPropertyOp9
 70
     1
102
RTVSPropertyOp10
 70
     1
102
RTVSPropertyOp11
 70
     1
102
RTVSPropertyOp12
 70
     1
102
RTVSPropertyOp13
 70
     1
102
RTVSPropertyOp14
 70
     1
102
RTVSPropertyOp15
 70
     1
102
RTVSPropertyOp16
 70
     1
102
RTVSPropertyOp17
 70
     1
102
RTVSPropertyOp18
 70
     1
102
RTVSPropertyOp19
 70
     1
102
RTVSPropertyOp20
 70
     1
102
RTVSPropertyOp21
 70
     1
102
RTVSPropertyOp22
 70
     1
102
RTVSPropertyOp23
 70
     1
102
RTVSPropertyOp24
 70
     1
102
RTVSPropertyOp25
 70
     1
102
RTVSPropertyOp26
 70
     1
102
RTVSPropertyOp27
 70
     1
102
RTVSPropertyOp28
 70
     1
102
RTVSPropertyOp29
 70
     1
102
RTVSPropertyOp30
 70
     1
102
RTVSPropertyOp31
 70
     1
102
RTVSPropertyOp32
 70
     1
102
RTVSPropertyOp33
 70
     1
102
RTVSPropertyOp34
 70
     1
102
RTVSPropertyOp35
 70
     1
102
RTVSPropertyOp36
 70
     1
102
RTVSPropertyOp37
 70
     1
102
RTVSPropertyOp38
 70
     1
102
RTVSPropertyOp39
 70
     1
102
RTVSPropertyOp40
 70
     1
102
RTVSPropertyOp41
 70
     1
102
RTVSPropertyOp42
 70
     1
102
RTVSPropertyOp43
 70
     1
102
RTVSPropertyOp44
 70
     1
102
RTVSPropertyOp45
 70
     1
102
RTVSPropertyOp46
 70
     1
102
RTVSPropertyOp47
 70
     1
102
RTVSPropertyOp48
 70
     1
102
RTVSPropertyOp49
 70
     1
102
RTVSPropertyOp50
 70
     1
102
RTVSPropertyOp51
 70
     0
102
RTVSPropertyOp52
 70
     0
102
RTVSPropertyOp53
 70
     1
102
RTVSPropertyOp54
 70
     1
102
RTVSPropertyOp55
 70
     1
102
RTVSPropertyOp56
 70
     1
102
RTVSPropertyOp57
 70
     1
102
RTVSPost2010Prop28
280
     0
102
RTVSPost2010PropOp28
 70
     1
102
RTVSPost2010Prop29
280
     1
102
RTVSPost2010PropOp29
 70
     1
102
RTVSPost2010Prop30
280
     1
102
RTVSPost2010PropOp30
 70
     1
102
RTVSPost2010Prop31
280
     0
102
RTVSPost2010PropOp31
 70
     1
102
RTVSPost2010Prop32
280
     0
102
RTVSPost2010PropOp32
 70
     1
102
RTVSPost2010Prop33
280
     0
102
RTVSPost2010PropOp33
 70
     1
102
RTVSPost2010Prop34
280
     0
102
RTVSPost2010PropOp34
 70
     1
102
RTVSPost2010Prop35
280
     0
102
RTVSPost2010PropOp35
 70
     1
102
RTVSPost2010Prop36
280
     0
102
RTVSPost2010PropOp36
 70
     1
102
RTVSPost2010Prop37
 90
       50
102
RTVSPost2010PropOp37
 70
     1
102
RTVSPost2010Prop38
140
0.0
102
RTVSPost2010PropOp38
 70
     1
102
RTVSPost2010Prop39
140
1.0
102
RTVSPost2010PropOp39
 70
     1
102
RTVSPost2010Prop40
 90
        0
102
RTVSPost2010PropOp40
 70
     1
102
RTVSPost2010Prop41ColorIndex
 90
       18
102
RTVSPost2010Prop41ColorRGB
 90
        0
102
RTVSPost2010PropOp41
 70
     1
102
RTVSPost2010Prop42
 90
       50
102
RTVSPost2010PropOp42
 70
     1
102
RTVSPost2010Prop43
 90
        3
102
RTVSPost2010PropOp43
 70
     1
102
RTVSPost2010Prop44ColorIndex
 90
        5
102
RTVSPost2010Prop44ColorRGB
 90
      255
102
RTVSPost2010PropOp44
 70
     1
102
RTVSPost2010Prop45
280
     0
102
RTVSPost2010PropOp45
 70
     1
102
RTVSPost2010Prop46
 90
       50
102
RTVSPost2010PropOp46
 70
     1
102
RTVSPost2010Prop47
 90
       50
102
RTVSPost2010PropOp47
 70
     1
102
RTVSPost2010Prop48
 90
       50
102
RTVSPost2010PropOp48
 70
     1
102
RTVSPost2010Prop49
280
     0
102
RTVSPost2010PropOp49
 70
     1
102
RTVSPost2010Prop50
 90
       50
102
RTVSPost2010PropOp50
 70
     1
102
RTVSPost2010Prop51ColorIndex
 90
      256
102
RTVSPost2010Prop51ColorRGB
 90
-16777216
102
RTVSPost2010PropOp51
 70
     0
102
RTVSPost2010Prop52
140
1.0
102
RTVSPost2010PropOp52
 70
     0
102
RTVSPost2010Prop53
 90
        2
102
RTVSPost2010PropOp53
 70
     1
102
RTVSPost2010Prop54
  1
strokes_ogs.tif
102
RTVSPost2010PropOp54
 70
     1
102
RTVSPost2010Prop55
280
     0
102
RTVSPost2010PropOp55
 70
     1
102
RTVSPost2010Prop56
140
1.0
102
RTVSPost2010PropOp56
 70
     1
102
RTVSPost2010Prop57
140
1.0
102
RTVSPost2010PropOp57
 70
     1
  0
XRECORD
  5
1A659
102
{ACAD_REACTORS
330
1A658
102
}
330
1A658
100
AcDbXrecord
280
     1
102
RTVSPropertyOp0
 70
     0
102
RTVSPropertyOp1
 70
     0
102
RTVSPropertyOp2
 70
     0
102
RTVSPropertyOp3
 70
     0
102
RTVSPropertyOp4
 70
     0
102
RTVSPropertyOp5
 70
     0
102
RTVSPropertyOp6
 70
     0
102
RTVSPropertyOp7
 70
     0
102
RTVSPropertyOp8
 70
     0
102
RTVSPropertyOp9
 70
     0
102
RTVSPropertyOp10
 70
     0
102
RTVSPropertyOp11
 70
     0
102
RTVSPropertyOp12
 70
     0
102
RTVSPropertyOp13
 70
     0
102
RTVSPropertyOp14
 70
     0
102
RTVSPropertyOp15
 70
     0
102
RTVSPropertyOp16
 70
     0
102
RTVSPropertyOp17
 70
     0
102
RTVSPropertyOp18
 70
     0
102
RTVSPropertyOp19
 70
     0
102
RTVSPropertyOp20
 70
     0
102
RTVSPropertyOp21
 70
     0
102
RTVSPropertyOp22
 70
     0
102
RTVSPropertyOp23
 70
     0
102
RTVSPropertyOp24
 70
     0
102
RTVSPropertyOp25
 70
     0
102
RTVSPropertyOp26
 70
     0
102
RTVSPropertyOp27
 70
     0
102
RTVSPropertyOp28
 70
     1
102
RTVSPropertyOp29
 70
     1
102
RTVSPropertyOp30
 70
     1
102
RTVSPropertyOp31
 70
     1
102
RTVSPropertyOp32
 70
     1
102
RTVSPropertyOp33
 70
     1
102
RTVSPropertyOp34
 70
     1
102
RTVSPropertyOp35
 70
     1
102
RTVSPropertyOp36
 70
     1
102
RTVSPropertyOp37
 70
     1
102
RTVSPropertyOp38
 70
     1
102
RTVSPropertyOp39
 70
     1
102
RTVSPropertyOp40
 70
     1
102
RTVSPropertyOp41
 70
     1
102
RTVSPropertyOp42
 70
     1
102
RTVSPropertyOp43
 70
     1
102
RTVSPropertyOp44
 70
     1
102
RTVSPropertyOp45
 70
     1
102
RTVSPropertyOp46
 70
     1
102
RTVSPropertyOp47
 70
     1
102
RTVSPropertyOp48
 70
     1
102
RTVSPropertyOp49
 70
     1
102
RTVSPropertyOp50
 70
     1
102
RTVSPropertyOp51
 70
     0
102
RTVSPropertyOp52
 70
     0
102
RTVSPropertyOp53
 70
     1
102
RTVSPropertyOp54
 70
     1
102
RTVSPropertyOp55
 70
     1
102
RTVSPropertyOp56
 70
     1
102
RTVSPropertyOp57
 70
     1
102
RTVSPost2010Prop28
280
     0
102
RTVSPost2010PropOp28
 70
     1
102
RTVSPost2010Prop29
280
     1
102
RTVSPost2010PropOp29
 70
     1
102
RTVSPost2010Prop30
280
     1
102
RTVSPost2010PropOp30
 70
     1
102
RTVSPost2010Prop31
280
     0
102
RTVSPost2010PropOp31
 70
     1
102
RTVSPost2010Prop32
280
     0
102
RTVSPost2010PropOp32
 70
     1
102
RTVSPost2010Prop33
280
     0
102
RTVSPost2010PropOp33
 70
     1
102
RTVSPost2010Prop34
280
     0
102
RTVSPost2010PropOp34
 70
     1
102
RTVSPost2010Prop35
280
     0
102
RTVSPost2010PropOp35
 70
     1
102
RTVSPost2010Prop36
280
     0
102
RTVSPost2010PropOp36
 70
     1
102
RTVSPost2010Prop37
 90
       50
102
RTVSPost2010PropOp37
 70
     1
102
RTVSPost2010Prop38
140
0.0
102
RTVSPost2010PropOp38
 70
     1
102
RTVSPost2010Prop39
140
1.0
102
RTVSPost2010PropOp39
 70
     1
102
RTVSPost2010Prop40
 90
        0
102
RTVSPost2010PropOp40
 70
     1
102
RTVSPost2010Prop41ColorIndex
 90
       18
102
RTVSPost2010Prop41ColorRGB
 90
        0
102
RTVSPost2010PropOp41
 70
     1
102
RTVSPost2010Prop42
 90
       50
102
RTVSPost2010PropOp42
 70
     1
102
RTVSPost2010Prop43
 90
        3
102
RTVSPost2010PropOp43
 70
     1
102
RTVSPost2010Prop44ColorIndex
 90
        5
102
RTVSPost2010Prop44ColorRGB
 90
      255
102
RTVSPost2010PropOp44
 70
     1
102
RTVSPost2010Prop45
280
     0
102
RTVSPost2010PropOp45
 70
     1
102
RTVSPost2010Prop46
 90
       50
102
RTVSPost2010PropOp46
 70
     1
102
RTVSPost2010Prop47
 90
       50
102
RTVSPost2010PropOp47
 70
     1
102
RTVSPost2010Prop48
 90
       50
102
RTVSPost2010PropOp48
 70
     1
102
RTVSPost2010Prop49
280
     0
102
RTVSPost2010PropOp49
 70
     1
102
RTVSPost2010Prop50
 90
       50
102
RTVSPost2010PropOp50
 70
     1
102
RTVSPost2010Prop51ColorIndex
 90
      256
102
RTVSPost2010Prop51ColorRGB
 90
-16777216
102
RTVSPost2010PropOp51
 70
     0
102
RTVSPost2010Prop52
140
1.0
102
RTVSPost2010PropOp52
 70
     0
102
RTVSPost2010Prop53
 90
        2
102
RTVSPost2010PropOp53
 70
     1
102
RTVSPost2010Prop54
  1
strokes_ogs.tif
102
RTVSPost2010PropOp54
 70
     1
102
RTVSPost2010Prop55
280
     0
102
RTVSPost2010PropOp55
 70
     1
102
RTVSPost2010Prop56
140
1.0
102
RTVSPost2010PropOp56
 70
     1
102
RTVSPost2010Prop57
140
1.0
102
RTVSPost2010PropOp57
 70
     1
  0
XRECORD
  5
1A65B
102
{ACAD_REACTORS
330
1A65A
102
}
330
1A65A
100
AcDbXrecord
280
     1
102
RTVSPropertyOp0
 70
     1
102
RTVSPropertyOp1
 70
     1
102
RTVSPropertyOp2
 70
     1
102
RTVSPropertyOp3
 70
     1
102
RTVSPropertyOp4
 70
     1
102
RTVSPropertyOp5
 70
     1
102
RTVSPropertyOp6
 70
     1
102
RTVSPropertyOp7
 70
     1
102
RTVSPropertyOp8
 70
     1
102
RTVSPropertyOp9
 70
     1
102
RTVSPropertyOp10
 70
     1
102
RTVSPropertyOp11
 70
     1
102
RTVSPropertyOp12
 70
     1
102
RTVSPropertyOp13
 70
     1
102
RTVSPropertyOp14
 70
     1
102
RTVSPropertyOp15
 70
     1
102
RTVSPropertyOp16
 70
     1
102
RTVSPropertyOp17
 70
     1
102
RTVSPropertyOp18
 70
     1
102
RTVSPropertyOp19
 70
     1
102
RTVSPropertyOp20
 70
     1
102
RTVSPropertyOp21
 70
     1
102
RTVSPropertyOp22
 70
     1
102
RTVSPropertyOp23
 70
     1
102
RTVSPropertyOp24
 70
     1
102
RTVSPropertyOp25
 70
     1
102
RTVSPropertyOp26
 70
     1
102
RTVSPropertyOp27
 70
     1
102
RTVSPropertyOp28
 70
     1
102
RTVSPropertyOp29
 70
     1
102
RTVSPropertyOp30
 70
     1
102
RTVSPropertyOp31
 70
     1
102
RTVSPropertyOp32
 70
     1
102
RTVSPropertyOp33
 70
     1
102
RTVSPropertyOp34
 70
     1
102
RTVSPropertyOp35
 70
     1
102
RTVSPropertyOp36
 70
     1
102
RTVSPropertyOp37
 70
     1
102
RTVSPropertyOp38
 70
     1
102
RTVSPropertyOp39
 70
     1
102
RTVSPropertyOp40
 70
     1
102
RTVSPropertyOp41
 70
     1
102
RTVSPropertyOp42
 70
     1
102
RTVSPropertyOp43
 70
     1
102
RTVSPropertyOp44
 70
     1
102
RTVSPropertyOp45
 70
     1
102
RTVSPropertyOp46
 70
     1
102
RTVSPropertyOp47
 70
     1
102
RTVSPropertyOp48
 70
     1
102
RTVSPropertyOp49
 70
     1
102
RTVSPropertyOp50
 70
     1
102
RTVSPropertyOp51
 70
     0
102
RTVSPropertyOp52
 70
     0
102
RTVSPropertyOp53
 70
     1
102
RTVSPropertyOp54
 70
     1
102
RTVSPropertyOp55
 70
     1
102
RTVSPropertyOp56
 70
     1
102
RTVSPropertyOp57
 70
     1
102
RTVSPost2010Prop28
280
     0
102
RTVSPost2010PropOp28
 70
     1
102
RTVSPost2010Prop29
280
     1
102
RTVSPost2010PropOp29
 70
     1
102
RTVSPost2010Prop30
280
     1
102
RTVSPost2010PropOp30
 70
     1
102
RTVSPost2010Prop31
280
     0
102
RTVSPost2010PropOp31
 70
     1
102
RTVSPost2010Prop32
280
     0
102
RTVSPost2010PropOp32
 70
     1
102
RTVSPost2010Prop33
280
     0
102
RTVSPost2010PropOp33
 70
     1
102
RTVSPost2010Prop34
280
     0
102
RTVSPost2010PropOp34
 70
     1
102
RTVSPost2010Prop35
280
     0
102
RTVSPost2010PropOp35
 70
     1
102
RTVSPost2010Prop36
280
     0
102
RTVSPost2010PropOp36
 70
     1
102
RTVSPost2010Prop37
 90
       50
102
RTVSPost2010PropOp37
 70
     1
102
RTVSPost2010Prop38
140
0.0
102
RTVSPost2010PropOp38
 70
     1
102
RTVSPost2010Prop39
140
1.0
102
RTVSPost2010PropOp39
 70
     1
102
RTVSPost2010Prop40
 90
        0
102
RTVSPost2010PropOp40
 70
     1
102
RTVSPost2010Prop41ColorIndex
 90
       18
102
RTVSPost2010Prop41ColorRGB
 90
        0
102
RTVSPost2010PropOp41
 70
     1
102
RTVSPost2010Prop42
 90
       50
102
RTVSPost2010PropOp42
 70
     1
102
RTVSPost2010Prop43
 90
        3
102
RTVSPost2010PropOp43
 70
     1
102
RTVSPost2010Prop44ColorIndex
 90
        5
102
RTVSPost2010Prop44ColorRGB
 90
      255
102
RTVSPost2010PropOp44
 70
     1
102
RTVSPost2010Prop45
280
     0
102
RTVSPost2010PropOp45
 70
     1
102
RTVSPost2010Prop46
 90
       50
102
RTVSPost2010PropOp46
 70
     1
102
RTVSPost2010Prop47
 90
       50
102
RTVSPost2010PropOp47
 70
     1
102
RTVSPost2010Prop48
 90
       50
102
RTVSPost2010PropOp48
 70
     1
102
RTVSPost2010Prop49
280
     0
102
RTVSPost2010PropOp49
 70
     1
102
RTVSPost2010Prop50
 90
       50
102
RTVSPost2010PropOp50
 70
     1
102
RTVSPost2010Prop51ColorIndex
 90
      256
102
RTVSPost2010Prop51ColorRGB
 90
-16777216
102
RTVSPost2010PropOp51
 70
     0
102
RTVSPost2010Prop52
140
1.0
102
RTVSPost2010PropOp52
 70
     0
102
RTVSPost2010Prop53
 90
        2
102
RTVSPost2010PropOp53
 70
     1
102
RTVSPost2010Prop54
  1
strokes_ogs.tif
102
RTVSPost2010PropOp54
 70
     1
102
RTVSPost2010Prop55
280
     0
102
RTVSPost2010PropOp55
 70
     1
102
RTVSPost2010Prop56
140
1.0
102
RTVSPost2010PropOp56
 70
     1
102
RTVSPost2010Prop57
140
1.0
102
RTVSPost2010PropOp57
 70
     1
  0
XRECORD
  5
1A65D
102
{ACAD_REACTORS
330
1A65C
102
}
330
1A65C
100
AcDbXrecord
280
     1
102
RTVSPropertyOp0
 70
     1
102
RTVSPropertyOp1
 70
     1
102
RTVSPropertyOp2
 70
     1
102
RTVSPropertyOp3
 70
     1
102
RTVSPropertyOp4
 70
     1
102
RTVSPropertyOp5
 70
     1
102
RTVSPropertyOp6
 70
     1
102
RTVSPropertyOp7
 70
     1
102
RTVSPropertyOp8
 70
     1
102
RTVSPropertyOp9
 70
     1
102
RTVSPropertyOp10
 70
     1
102
RTVSPropertyOp11
 70
     1
102
RTVSPropertyOp12
 70
     1
102
RTVSPropertyOp13
 70
     1
102
RTVSPropertyOp14
 70
     1
102
RTVSPropertyOp15
 70
     1
102
RTVSPropertyOp16
 70
     1
102
RTVSPropertyOp17
 70
     1
102
RTVSPropertyOp18
 70
     1
102
RTVSPropertyOp19
 70
     1
102
RTVSPropertyOp20
 70
     1
102
RTVSPropertyOp21
 70
     1
102
RTVSPropertyOp22
 70
     1
102
RTVSPropertyOp23
 70
     1
102
RTVSPropertyOp24
 70
     1
102
RTVSPropertyOp25
 70
     1
102
RTVSPropertyOp26
 70
     1
102
RTVSPropertyOp27
 70
     1
102
RTVSPropertyOp28
 70
     1
102
RTVSPropertyOp29
 70
     1
102
RTVSPropertyOp30
 70
     1
102
RTVSPropertyOp31
 70
     1
102
RTVSPropertyOp32
 70
     1
102
RTVSPropertyOp33
 70
     1
102
RTVSPropertyOp34
 70
     1
102
RTVSPropertyOp35
 70
     1
102
RTVSPropertyOp36
 70
     1
102
RTVSPropertyOp37
 70
     1
102
RTVSPropertyOp38
 70
     1
102
RTVSPropertyOp39
 70
     1
102
RTVSPropertyOp40
 70
     1
102
RTVSPropertyOp41
 70
     1
102
RTVSPropertyOp42
 70
     1
102
RTVSPropertyOp43
 70
     1
102
RTVSPropertyOp44
 70
     1
102
RTVSPropertyOp45
 70
     1
102
RTVSPropertyOp46
 70
     1
102
RTVSPropertyOp47
 70
     1
102
RTVSPropertyOp48
 70
     1
102
RTVSPropertyOp49
 70
     1
102
RTVSPropertyOp50
 70
     1
102
RTVSPropertyOp51
 70
     0
102
RTVSPropertyOp52
 70
     0
102
RTVSPropertyOp53
 70
     1
102
RTVSPropertyOp54
 70
     1
102
RTVSPropertyOp55
 70
     1
102
RTVSPropertyOp56
 70
     1
102
RTVSPropertyOp57
 70
     1
102
RTVSPost2010Prop28
280
     0
102
RTVSPost2010PropOp28
 70
     1
102
RTVSPost2010Prop29
280
     1
102
RTVSPost2010PropOp29
 70
     1
102
RTVSPost2010Prop30
280
     1
102
RTVSPost2010PropOp30
 70
     1
102
RTVSPost2010Prop31
280
     0
102
RTVSPost2010PropOp31
 70
     1
102
RTVSPost2010Prop32
280
     0
102
RTVSPost2010PropOp32
 70
     1
102
RTVSPost2010Prop33
280
     0
102
RTVSPost2010PropOp33
 70
     1
102
RTVSPost2010Prop34
280
     0
102
RTVSPost2010PropOp34
 70
     1
102
RTVSPost2010Prop35
280
     0
102
RTVSPost2010PropOp35
 70
     1
102
RTVSPost2010Prop36
280
     0
102
RTVSPost2010PropOp36
 70
     1
102
RTVSPost2010Prop37
 90
       50
102
RTVSPost2010PropOp37
 70
     1
102
RTVSPost2010Prop38
140
0.0
102
RTVSPost2010PropOp38
 70
     1
102
RTVSPost2010Prop39
140
1.0
102
RTVSPost2010PropOp39
 70
     1
102
RTVSPost2010Prop40
 90
        0
102
RTVSPost2010PropOp40
 70
     1
102
RTVSPost2010Prop41ColorIndex
 90
       18
102
RTVSPost2010Prop41ColorRGB
 90
        0
102
RTVSPost2010PropOp41
 70
     1
102
RTVSPost2010Prop42
 90
       50
102
RTVSPost2010PropOp42
 70
     1
102
RTVSPost2010Prop43
 90
        3
102
RTVSPost2010PropOp43
 70
     1
102
RTVSPost2010Prop44ColorIndex
 90
        5
102
RTVSPost2010Prop44ColorRGB
 90
      255
102
RTVSPost2010PropOp44
 70
     1
102
RTVSPost2010Prop45
280
     0
102
RTVSPost2010PropOp45
 70
     1
102
RTVSPost2010Prop46
 90
       50
102
RTVSPost2010PropOp46
 70
     1
102
RTVSPost2010Prop47
 90
       50
102
RTVSPost2010PropOp47
 70
     1
102
RTVSPost2010Prop48
 90
       50
102
RTVSPost2010PropOp48
 70
     1
102
RTVSPost2010Prop49
280
     0
102
RTVSPost2010PropOp49
 70
     1
102
RTVSPost2010Prop50
 90
       50
102
RTVSPost2010PropOp50
 70
     1
102
RTVSPost2010Prop51ColorIndex
 90
      256
102
RTVSPost2010Prop51ColorRGB
 90
-16777216
102
RTVSPost2010PropOp51
 70
     0
102
RTVSPost2010Prop52
140
1.0
102
RTVSPost2010PropOp52
 70
     0
102
RTVSPost2010Prop53
 90
        2
102
RTVSPost2010PropOp53
 70
     1
102
RTVSPost2010Prop54
  1
strokes_ogs.tif
102
RTVSPost2010PropOp54
 70
     1
102
RTVSPost2010Prop55
280
     0
102
RTVSPost2010PropOp55
 70
     1
102
RTVSPost2010Prop56
140
1.0
102
RTVSPost2010PropOp56
 70
     1
102
RTVSPost2010Prop57
140
1.0
102
RTVSPost2010PropOp57
 70
     1
  0
XRECORD
  5
1A65F
102
{ACAD_REACTORS
330
1A65E
102
}
330
1A65E
100
AcDbXrecord
280
     1
102
RTVSPropertyOp0
 70
     1
102
RTVSPropertyOp1
 70
     1
102
RTVSPropertyOp2
 70
     1
102
RTVSPropertyOp3
 70
     1
102
RTVSPropertyOp4
 70
     1
102
RTVSPropertyOp5
 70
     1
102
RTVSPropertyOp6
 70
     1
102
RTVSPropertyOp7
 70
     1
102
RTVSPropertyOp8
 70
     1
102
RTVSPropertyOp9
 70
     1
102
RTVSPropertyOp10
 70
     1
102
RTVSPropertyOp11
 70
     1
102
RTVSPropertyOp12
 70
     1
102
RTVSPropertyOp13
 70
     1
102
RTVSPropertyOp14
 70
     1
102
RTVSPropertyOp15
 70
     1
102
RTVSPropertyOp16
 70
     1
102
RTVSPropertyOp17
 70
     1
102
RTVSPropertyOp18
 70
     1
102
RTVSPropertyOp19
 70
     1
102
RTVSPropertyOp20
 70
     1
102
RTVSPropertyOp21
 70
     1
102
RTVSPropertyOp22
 70
     1
102
RTVSPropertyOp23
 70
     1
102
RTVSPropertyOp24
 70
     1
102
RTVSPropertyOp25
 70
     1
102
RTVSPropertyOp26
 70
     1
102
RTVSPropertyOp27
 70
     1
102
RTVSPropertyOp28
 70
     1
102
RTVSPropertyOp29
 70
     1
102
RTVSPropertyOp30
 70
     1
102
RTVSPropertyOp31
 70
     1
102
RTVSPropertyOp32
 70
     1
102
RTVSPropertyOp33
 70
     1
102
RTVSPropertyOp34
 70
     1
102
RTVSPropertyOp35
 70
     1
102
RTVSPropertyOp36
 70
     1
102
RTVSPropertyOp37
 70
     1
102
RTVSPropertyOp38
 70
     1
102
RTVSPropertyOp39
 70
     1
102
RTVSPropertyOp40
 70
     1
102
RTVSPropertyOp41
 70
     1
102
RTVSPropertyOp42
 70
     1
102
RTVSPropertyOp43
 70
     1
102
RTVSPropertyOp44
 70
     1
102
RTVSPropertyOp45
 70
     1
102
RTVSPropertyOp46
 70
     1
102
RTVSPropertyOp47
 70
     1
102
RTVSPropertyOp48
 70
     1
102
RTVSPropertyOp49
 70
     1
102
RTVSPropertyOp50
 70
     1
102
RTVSPropertyOp51
 70
     0
102
RTVSPropertyOp52
 70
     0
102
RTVSPropertyOp53
 70
     1
102
RTVSPropertyOp54
 70
     1
102
RTVSPropertyOp55
 70
     1
102
RTVSPropertyOp56
 70
     1
102
RTVSPropertyOp57
 70
     1
102
RTVSPost2010Prop28
280
     0
102
RTVSPost2010PropOp28
 70
     1
102
RTVSPost2010Prop29
280
     1
102
RTVSPost2010PropOp29
 70
     1
102
RTVSPost2010Prop30
280
     1
102
RTVSPost2010PropOp30
 70
     1
102
RTVSPost2010Prop31
280
     0
102
RTVSPost2010PropOp31
 70
     1
102
RTVSPost2010Prop32
280
     0
102
RTVSPost2010PropOp32
 70
     1
102
RTVSPost2010Prop33
280
     0
102
RTVSPost2010PropOp33
 70
     1
102
RTVSPost2010Prop34
280
     0
102
RTVSPost2010PropOp34
 70
     1
102
RTVSPost2010Prop35
280
     0
102
RTVSPost2010PropOp35
 70
     1
102
RTVSPost2010Prop36
280
     0
102
RTVSPost2010PropOp36
 70
     1
102
RTVSPost2010Prop37
 90
       50
102
RTVSPost2010PropOp37
 70
     1
102
RTVSPost2010Prop38
140
0.0
102
RTVSPost2010PropOp38
 70
     1
102
RTVSPost2010Prop39
140
1.0
102
RTVSPost2010PropOp39
 70
     1
102
RTVSPost2010Prop40
 90
        0
102
RTVSPost2010PropOp40
 70
     1
102
RTVSPost2010Prop41ColorIndex
 90
       18
102
RTVSPost2010Prop41ColorRGB
 90
        0
102
RTVSPost2010PropOp41
 70
     1
102
RTVSPost2010Prop42
 90
       50
102
RTVSPost2010PropOp42
 70
     1
102
RTVSPost2010Prop43
 90
        3
102
RTVSPost2010PropOp43
 70
     1
102
RTVSPost2010Prop44ColorIndex
 90
        5
102
RTVSPost2010Prop44ColorRGB
 90
      255
102
RTVSPost2010PropOp44
 70
     1
102
RTVSPost2010Prop45
280
     0
102
RTVSPost2010PropOp45
 70
     1
102
RTVSPost2010Prop46
 90
       50
102
RTVSPost2010PropOp46
 70
     1
102
RTVSPost2010Prop47
 90
       50
102
RTVSPost2010PropOp47
 70
     1
102
RTVSPost2010Prop48
 90
       50
102
RTVSPost2010PropOp48
 70
     1
102
RTVSPost2010Prop49
280
     0
102
RTVSPost2010PropOp49
 70
     1
102
RTVSPost2010Prop50
 90
       50
102
RTVSPost2010PropOp50
 70
     1
102
RTVSPost2010Prop51ColorIndex
 90
      256
102
RTVSPost2010Prop51ColorRGB
 90
-16777216
102
RTVSPost2010PropOp51
 70
     0
102
RTVSPost2010Prop52
140
1.0
102
RTVSPost2010PropOp52
 70
     0
102
RTVSPost2010Prop53
 90
        2
102
RTVSPost2010PropOp53
 70
     1
102
RTVSPost2010Prop54
  1
strokes_ogs.tif
102
RTVSPost2010PropOp54
 70
     1
102
RTVSPost2010Prop55
280
     0
102
RTVSPost2010PropOp55
 70
     1
102
RTVSPost2010Prop56
140
1.0
102
RTVSPost2010PropOp56
 70
     1
102
RTVSPost2010Prop57
140
1.0
102
RTVSPost2010PropOp57
 70
     1
  0
XRECORD
  5
1A661
102
{ACAD_REACTORS
330
1A660
102
}
330
1A660
100
AcDbXrecord
280
     1
102
RTVSPropertyOp0
 70
     1
102
RTVSPropertyOp1
 70
     1
102
RTVSPropertyOp2
 70
     1
102
RTVSPropertyOp3
 70
     1
102
RTVSPropertyOp4
 70
     1
102
RTVSPropertyOp5
 70
     1
102
RTVSPropertyOp6
 70
     1
102
RTVSPropertyOp7
 70
     1
102
RTVSPropertyOp8
 70
     1
102
RTVSPropertyOp9
 70
     1
102
RTVSPropertyOp10
 70
     1
102
RTVSPropertyOp11
 70
     1
102
RTVSPropertyOp12
 70
     1
102
RTVSPropertyOp13
 70
     1
102
RTVSPropertyOp14
 70
     1
102
RTVSPropertyOp15
 70
     1
102
RTVSPropertyOp16
 70
     1
102
RTVSPropertyOp17
 70
     1
102
RTVSPropertyOp18
 70
     1
102
RTVSPropertyOp19
 70
     1
102
RTVSPropertyOp20
 70
     1
102
RTVSPropertyOp21
 70
     1
102
RTVSPropertyOp22
 70
     1
102
RTVSPropertyOp23
 70
     1
102
RTVSPropertyOp24
 70
     1
102
RTVSPropertyOp25
 70
     1
102
RTVSPropertyOp26
 70
     1
102
RTVSPropertyOp27
 70
     1
102
RTVSPropertyOp28
 70
     1
102
RTVSPropertyOp29
 70
     1
102
RTVSPropertyOp30
 70
     1
102
RTVSPropertyOp31
 70
     1
102
RTVSPropertyOp32
 70
     1
102
RTVSPropertyOp33
 70
     1
102
RTVSPropertyOp34
 70
     1
102
RTVSPropertyOp35
 70
     1
102
RTVSPropertyOp36
 70
     1
102
RTVSPropertyOp37
 70
     1
102
RTVSPropertyOp38
 70
     1
102
RTVSPropertyOp39
 70
     1
102
RTVSPropertyOp40
 70
     1
102
RTVSPropertyOp41
 70
     1
102
RTVSPropertyOp42
 70
     1
102
RTVSPropertyOp43
 70
     1
102
RTVSPropertyOp44
 70
     1
102
RTVSPropertyOp45
 70
     1
102
RTVSPropertyOp46
 70
     1
102
RTVSPropertyOp47
 70
     1
102
RTVSPropertyOp48
 70
     1
102
RTVSPropertyOp49
 70
     1
102
RTVSPropertyOp50
 70
     1
102
RTVSPropertyOp51
 70
     0
102
RTVSPropertyOp52
 70
     0
102
RTVSPropertyOp53
 70
     1
102
RTVSPropertyOp54
 70
     1
102
RTVSPropertyOp55
 70
     1
102
RTVSPropertyOp56
 70
     1
102
RTVSPropertyOp57
 70
     1
102
RTVSPost2010Prop28
280
     0
102
RTVSPost2010PropOp28
 70
     1
102
RTVSPost2010Prop29
280
     1
102
RTVSPost2010PropOp29
 70
     1
102
RTVSPost2010Prop30
280
     1
102
RTVSPost2010PropOp30
 70
     1
102
RTVSPost2010Prop31
280
     0
102
RTVSPost2010PropOp31
 70
     1
102
RTVSPost2010Prop32
280
     0
102
RTVSPost2010PropOp32
 70
     1
102
RTVSPost2010Prop33
280
     0
102
RTVSPost2010PropOp33
 70
     1
102
RTVSPost2010Prop34
280
     0
102
RTVSPost2010PropOp34
 70
     1
102
RTVSPost2010Prop35
280
     0
102
RTVSPost2010PropOp35
 70
     1
102
RTVSPost2010Prop36
280
     0
102
RTVSPost2010PropOp36
 70
     1
102
RTVSPost2010Prop37
 90
       50
102
RTVSPost2010PropOp37
 70
     1
102
RTVSPost2010Prop38
140
0.0
102
RTVSPost2010PropOp38
 70
     1
102
RTVSPost2010Prop39
140
1.0
102
RTVSPost2010PropOp39
 70
     1
102
RTVSPost2010Prop40
 90
        0
102
RTVSPost2010PropOp40
 70
     1
102
RTVSPost2010Prop41ColorIndex
 90
       18
102
RTVSPost2010Prop41ColorRGB
 90
        0
102
RTVSPost2010PropOp41
 70
     1
102
RTVSPost2010Prop42
 90
       50
102
RTVSPost2010PropOp42
 70
     1
102
RTVSPost2010Prop43
 90
        3
102
RTVSPost2010PropOp43
 70
     1
102
RTVSPost2010Prop44ColorIndex
 90
        5
102
RTVSPost2010Prop44ColorRGB
 90
      255
102
RTVSPost2010PropOp44
 70
     1
102
RTVSPost2010Prop45
280
     0
102
RTVSPost2010PropOp45
 70
     1
102
RTVSPost2010Prop46
 90
       50
102
RTVSPost2010PropOp46
 70
     1
102
RTVSPost2010Prop47
 90
       50
102
RTVSPost2010PropOp47
 70
     1
102
RTVSPost2010Prop48
 90
       50
102
RTVSPost2010PropOp48
 70
     1
102
RTVSPost2010Prop49
280
     0
102
RTVSPost2010PropOp49
 70
     1
102
RTVSPost2010Prop50
 90
       50
102
RTVSPost2010PropOp50
 70
     1
102
RTVSPost2010Prop51ColorIndex
 90
      256
102
RTVSPost2010Prop51ColorRGB
 90
-16777216
102
RTVSPost2010PropOp51
 70
     0
102
RTVSPost2010Prop52
140
1.0
102
RTVSPost2010PropOp52
 70
     0
102
RTVSPost2010Prop53
 90
        2
102
RTVSPost2010PropOp53
 70
     1
102
RTVSPost2010Prop54
  1
strokes_ogs.tif
102
RTVSPost2010PropOp54
 70
     1
102
RTVSPost2010Prop55
280
     0
102
RTVSPost2010PropOp55
 70
     1
102
RTVSPost2010Prop56
140
1.0
102
RTVSPost2010PropOp56
 70
     1
102
RTVSPost2010Prop57
140
1.0
102
RTVSPost2010PropOp57
 70
     1
  0
XRECORD
  5
1A663
102
{ACAD_REACTORS
330
1A662
102
}
330
1A662
100
AcDbXrecord
280
     1
102
RTVSPropertyOp0
 70
     1
102
RTVSPropertyOp1
 70
     1
102
RTVSPropertyOp2
 70
     1
102
RTVSPropertyOp3
 70
     1
102
RTVSPropertyOp4
 70
     1
102
RTVSPropertyOp5
 70
     1
102
RTVSPropertyOp6
 70
     1
102
RTVSPropertyOp7
 70
     1
102
RTVSPropertyOp8
 70
     1
102
RTVSPropertyOp9
 70
     1
102
RTVSPropertyOp10
 70
     1
102
RTVSPropertyOp11
 70
     1
102
RTVSPropertyOp12
 70
     1
102
RTVSPropertyOp13
 70
     1
102
RTVSPropertyOp14
 70
     1
102
RTVSPropertyOp15
 70
     1
102
RTVSPropertyOp16
 70
     1
102
RTVSPropertyOp17
 70
     1
102
RTVSPropertyOp18
 70
     1
102
RTVSPropertyOp19
 70
     1
102
RTVSPropertyOp20
 70
     1
102
RTVSPropertyOp21
 70
     1
102
RTVSPropertyOp22
 70
     1
102
RTVSPropertyOp23
 70
     1
102
RTVSPropertyOp24
 70
     1
102
RTVSPropertyOp25
 70
     1
102
RTVSPropertyOp26
 70
     1
102
RTVSPropertyOp27
 70
     1
102
RTVSPropertyOp28
 70
     1
102
RTVSPropertyOp29
 70
     1
102
RTVSPropertyOp30
 70
     1
102
RTVSPropertyOp31
 70
     1
102
RTVSPropertyOp32
 70
     1
102
RTVSPropertyOp33
 70
     1
102
RTVSPropertyOp34
 70
     1
102
RTVSPropertyOp35
 70
     1
102
RTVSPropertyOp36
 70
     1
102
RTVSPropertyOp37
 70
     1
102
RTVSPropertyOp38
 70
     1
102
RTVSPropertyOp39
 70
     1
102
RTVSPropertyOp40
 70
     1
102
RTVSPropertyOp41
 70
     1
102
RTVSPropertyOp42
 70
     1
102
RTVSPropertyOp43
 70
     1
102
RTVSPropertyOp44
 70
     1
102
RTVSPropertyOp45
 70
     1
102
RTVSPropertyOp46
 70
     1
102
RTVSPropertyOp47
 70
     1
102
RTVSPropertyOp48
 70
     1
102
RTVSPropertyOp49
 70
     1
102
RTVSPropertyOp50
 70
     1
102
RTVSPropertyOp51
 70
     0
102
RTVSPropertyOp52
 70
     0
102
RTVSPropertyOp53
 70
     1
102
RTVSPropertyOp54
 70
     1
102
RTVSPropertyOp55
 70
     1
102
RTVSPropertyOp56
 70
     1
102
RTVSPropertyOp57
 70
     1
102
RTVSPost2010Prop28
280
     0
102
RTVSPost2010PropOp28
 70
     1
102
RTVSPost2010Prop29
280
     1
102
RTVSPost2010PropOp29
 70
     1
102
RTVSPost2010Prop30
280
     1
102
RTVSPost2010PropOp30
 70
     1
102
RTVSPost2010Prop31
280
     0
102
RTVSPost2010PropOp31
 70
     1
102
RTVSPost2010Prop32
280
     0
102
RTVSPost2010PropOp32
 70
     1
102
RTVSPost2010Prop33
280
     0
102
RTVSPost2010PropOp33
 70
     1
102
RTVSPost2010Prop34
280
     0
102
RTVSPost2010PropOp34
 70
     1
102
RTVSPost2010Prop35
280
     0
102
RTVSPost2010PropOp35
 70
     1
102
RTVSPost2010Prop36
280
     0
102
RTVSPost2010PropOp36
 70
     1
102
RTVSPost2010Prop37
 90
       50
102
RTVSPost2010PropOp37
 70
     1
102
RTVSPost2010Prop38
140
0.0
102
RTVSPost2010PropOp38
 70
     1
102
RTVSPost2010Prop39
140
1.0
102
RTVSPost2010PropOp39
 70
     1
102
RTVSPost2010Prop40
 90
        0
102
RTVSPost2010PropOp40
 70
     1
102
RTVSPost2010Prop41ColorIndex
 90
       18
102
RTVSPost2010Prop41ColorRGB
 90
        0
102
RTVSPost2010PropOp41
 70
     1
102
RTVSPost2010Prop42
 90
       50
102
RTVSPost2010PropOp42
 70
     1
102
RTVSPost2010Prop43
 90
        3
102
RTVSPost2010PropOp43
 70
     1
102
RTVSPost2010Prop44ColorIndex
 90
        5
102
RTVSPost2010Prop44ColorRGB
 90
      255
102
RTVSPost2010PropOp44
 70
     1
102
RTVSPost2010Prop45
280
     0
102
RTVSPost2010PropOp45
 70
     1
102
RTVSPost2010Prop46
 90
       50
102
RTVSPost2010PropOp46
 70
     1
102
RTVSPost2010Prop47
 90
       50
102
RTVSPost2010PropOp47
 70
     1
102
RTVSPost2010Prop48
 90
       50
102
RTVSPost2010PropOp48
 70
     1
102
RTVSPost2010Prop49
280
     0
102
RTVSPost2010PropOp49
 70
     1
102
RTVSPost2010Prop50
 90
       50
102
RTVSPost2010PropOp50
 70
     1
102
RTVSPost2010Prop51ColorIndex
 90
      256
102
RTVSPost2010Prop51ColorRGB
 90
-16777216
102
RTVSPost2010PropOp51
 70
     0
102
RTVSPost2010Prop52
140
1.0
102
RTVSPost2010PropOp52
 70
     0
102
RTVSPost2010Prop53
 90
        2
102
RTVSPost2010PropOp53
 70
     1
102
RTVSPost2010Prop54
  1
strokes_ogs.tif
102
RTVSPost2010PropOp54
 70
     1
102
RTVSPost2010Prop55
280
     0
102
RTVSPost2010PropOp55
 70
     1
102
RTVSPost2010Prop56
140
1.0
102
RTVSPost2010PropOp56
 70
     1
102
RTVSPost2010Prop57
140
1.0
102
RTVSPost2010PropOp57
 70
     1
  0
XRECORD
  5
1A665
102
{ACAD_REACTORS
330
1A664
102
}
330
1A664
100
AcDbXrecord
280
     1
102
RTVSPropertyOp0
 70
     1
102
RTVSPropertyOp1
 70
     1
102
RTVSPropertyOp2
 70
     1
102
RTVSPropertyOp3
 70
     1
102
RTVSPropertyOp4
 70
     1
102
RTVSPropertyOp5
 70
     1
102
RTVSPropertyOp6
 70
     1
102
RTVSPropertyOp7
 70
     1
102
RTVSPropertyOp8
 70
     1
102
RTVSPropertyOp9
 70
     1
102
RTVSPropertyOp10
 70
     1
102
RTVSPropertyOp11
 70
     1
102
RTVSPropertyOp12
 70
     1
102
RTVSPropertyOp13
 70
     1
102
RTVSPropertyOp14
 70
     1
102
RTVSPropertyOp15
 70
     1
102
RTVSPropertyOp16
 70
     1
102
RTVSPropertyOp17
 70
     1
102
RTVSPropertyOp18
 70
     1
102
RTVSPropertyOp19
 70
     1
102
RTVSPropertyOp20
 70
     1
102
RTVSPropertyOp21
 70
     1
102
RTVSPropertyOp22
 70
     1
102
RTVSPropertyOp23
 70
     1
102
RTVSPropertyOp24
 70
     1
102
RTVSPropertyOp25
 70
     1
102
RTVSPropertyOp26
 70
     1
102
RTVSPropertyOp27
 70
     1
102
RTVSPropertyOp28
 70
     1
102
RTVSPropertyOp29
 70
     1
102
RTVSPropertyOp30
 70
     1
102
RTVSPropertyOp31
 70
     1
102
RTVSPropertyOp32
 70
     1
102
RTVSPropertyOp33
 70
     1
102
RTVSPropertyOp34
 70
     1
102
RTVSPropertyOp35
 70
     1
102
RTVSPropertyOp36
 70
     1
102
RTVSPropertyOp37
 70
     1
102
RTVSPropertyOp38
 70
     1
102
RTVSPropertyOp39
 70
     1
102
RTVSPropertyOp40
 70
     1
102
RTVSPropertyOp41
 70
     1
102
RTVSPropertyOp42
 70
     1
102
RTVSPropertyOp43
 70
     1
102
RTVSPropertyOp44
 70
     1
102
RTVSPropertyOp45
 70
     1
102
RTVSPropertyOp46
 70
     1
102
RTVSPropertyOp47
 70
     1
102
RTVSPropertyOp48
 70
     1
102
RTVSPropertyOp49
 70
     1
102
RTVSPropertyOp50
 70
     1
102
RTVSPropertyOp51
 70
     0
102
RTVSPropertyOp52
 70
     0
102
RTVSPropertyOp53
 70
     1
102
RTVSPropertyOp54
 70
     1
102
RTVSPropertyOp55
 70
     1
102
RTVSPropertyOp56
 70
     1
102
RTVSPropertyOp57
 70
     1
102
RTVSPost2010Prop28
280
     0
102
RTVSPost2010PropOp28
 70
     1
102
RTVSPost2010Prop29
280
     1
102
RTVSPost2010PropOp29
 70
     1
102
RTVSPost2010Prop30
280
     1
102
RTVSPost2010PropOp30
 70
     1
102
RTVSPost2010Prop31
280
     0
102
RTVSPost2010PropOp31
 70
     1
102
RTVSPost2010Prop32
280
     0
102
RTVSPost2010PropOp32
 70
     1
102
RTVSPost2010Prop33
280
     0
102
RTVSPost2010PropOp33
 70
     1
102
RTVSPost2010Prop34
280
     0
102
RTVSPost2010PropOp34
 70
     1
102
RTVSPost2010Prop35
280
     0
102
RTVSPost2010PropOp35
 70
     1
102
RTVSPost2010Prop36
280
     0
102
RTVSPost2010PropOp36
 70
     1
102
RTVSPost2010Prop37
 90
       50
102
RTVSPost2010PropOp37
 70
     1
102
RTVSPost2010Prop38
140
0.0
102
RTVSPost2010PropOp38
 70
     1
102
RTVSPost2010Prop39
140
1.0
102
RTVSPost2010PropOp39
 70
     1
102
RTVSPost2010Prop40
 90
        0
102
RTVSPost2010PropOp40
 70
     1
102
RTVSPost2010Prop41ColorIndex
 90
       18
102
RTVSPost2010Prop41ColorRGB
 90
        0
102
RTVSPost2010PropOp41
 70
     1
102
RTVSPost2010Prop42
 90
       50
102
RTVSPost2010PropOp42
 70
     1
102
RTVSPost2010Prop43
 90
        3
102
RTVSPost2010PropOp43
 70
     1
102
RTVSPost2010Prop44ColorIndex
 90
        5
102
RTVSPost2010Prop44ColorRGB
 90
      255
102
RTVSPost2010PropOp44
 70
     1
102
RTVSPost2010Prop45
280
     0
102
RTVSPost2010PropOp45
 70
     1
102
RTVSPost2010Prop46
 90
       50
102
RTVSPost2010PropOp46
 70
     1
102
RTVSPost2010Prop47
 90
       50
102
RTVSPost2010PropOp47
 70
     1
102
RTVSPost2010Prop48
 90
       50
102
RTVSPost2010PropOp48
 70
     1
102
RTVSPost2010Prop49
280
     0
102
RTVSPost2010PropOp49
 70
     1
102
RTVSPost2010Prop50
 90
       50
102
RTVSPost2010PropOp50
 70
     1
102
RTVSPost2010Prop51ColorIndex
 90
      256
102
RTVSPost2010Prop51ColorRGB
 90
-16777216
102
RTVSPost2010PropOp51
 70
     0
102
RTVSPost2010Prop52
140
1.0
102
RTVSPost2010PropOp52
 70
     0
102
RTVSPost2010Prop53
 90
        2
102
RTVSPost2010PropOp53
 70
     1
102
RTVSPost2010Prop54
  1
strokes_ogs.tif
102
RTVSPost2010PropOp54
 70
     1
102
RTVSPost2010Prop55
280
     0
102
RTVSPost2010PropOp55
 70
     1
102
RTVSPost2010Prop56
140
1.0
102
RTVSPost2010PropOp56
 70
     1
102
RTVSPost2010Prop57
140
1.0
102
RTVSPost2010PropOp57
 70
     1
  0
XRECORD
  5
1A667
102
{ACAD_REACTORS
330
1A666
102
}
330
1A666
100
AcDbXrecord
280
     1
102
RTVSPropertyOp0
 70
     1
102
RTVSPropertyOp1
 70
     1
102
RTVSPropertyOp2
 70
     1
102
RTVSPropertyOp3
 70
     1
102
RTVSPropertyOp4
 70
     1
102
RTVSPropertyOp5
 70
     1
102
RTVSPropertyOp6
 70
     1
102
RTVSPropertyOp7
 70
     1
102
RTVSPropertyOp8
 70
     1
102
RTVSPropertyOp9
 70
     1
102
RTVSPropertyOp10
 70
     1
102
RTVSPropertyOp11
 70
     1
102
RTVSPropertyOp12
 70
     1
102
RTVSPropertyOp13
 70
     1
102
RTVSPropertyOp14
 70
     1
102
RTVSPropertyOp15
 70
     1
102
RTVSPropertyOp16
 70
     1
102
RTVSPropertyOp17
 70
     1
102
RTVSPropertyOp18
 70
     1
102
RTVSPropertyOp19
 70
     1
102
RTVSPropertyOp20
 70
     1
102
RTVSPropertyOp21
 70
     1
102
RTVSPropertyOp22
 70
     1
102
RTVSPropertyOp23
 70
     1
102
RTVSPropertyOp24
 70
     1
102
RTVSPropertyOp25
 70
     1
102
RTVSPropertyOp26
 70
     1
102
RTVSPropertyOp27
 70
     1
102
RTVSPropertyOp28
 70
     1
102
RTVSPropertyOp29
 70
     1
102
RTVSPropertyOp30
 70
     1
102
RTVSPropertyOp31
 70
     1
102
RTVSPropertyOp32
 70
     1
102
RTVSPropertyOp33
 70
     1
102
RTVSPropertyOp34
 70
     1
102
RTVSPropertyOp35
 70
     1
102
RTVSPropertyOp36
 70
     1
102
RTVSPropertyOp37
 70
     1
102
RTVSPropertyOp38
 70
     1
102
RTVSPropertyOp39
 70
     1
102
RTVSPropertyOp40
 70
     1
102
RTVSPropertyOp41
 70
     1
102
RTVSPropertyOp42
 70
     1
102
RTVSPropertyOp43
 70
     1
102
RTVSPropertyOp44
 70
     1
102
RTVSPropertyOp45
 70
     1
102
RTVSPropertyOp46
 70
     1
102
RTVSPropertyOp47
 70
     1
102
RTVSPropertyOp48
 70
     1
102
RTVSPropertyOp49
 70
     1
102
RTVSPropertyOp50
 70
     1
102
RTVSPropertyOp51
 70
     0
102
RTVSPropertyOp52
 70
     0
102
RTVSPropertyOp53
 70
     1
102
RTVSPropertyOp54
 70
     1
102
RTVSPropertyOp55
 70
     1
102
RTVSPropertyOp56
 70
     1
102
RTVSPropertyOp57
 70
     1
102
RTVSPost2010Prop28
280
     0
102
RTVSPost2010PropOp28
 70
     1
102
RTVSPost2010Prop29
280
     1
102
RTVSPost2010PropOp29
 70
     1
102
RTVSPost2010Prop30
280
     1
102
RTVSPost2010PropOp30
 70
     1
102
RTVSPost2010Prop31
280
     0
102
RTVSPost2010PropOp31
 70
     1
102
RTVSPost2010Prop32
280
     0
102
RTVSPost2010PropOp32
 70
     1
102
RTVSPost2010Prop33
280
     0
102
RTVSPost2010PropOp33
 70
     1
102
RTVSPost2010Prop34
280
     0
102
RTVSPost2010PropOp34
 70
     1
102
RTVSPost2010Prop35
280
     0
102
RTVSPost2010PropOp35
 70
     1
102
RTVSPost2010Prop36
280
     0
102
RTVSPost2010PropOp36
 70
     1
102
RTVSPost2010Prop37
 90
       50
102
RTVSPost2010PropOp37
 70
     1
102
RTVSPost2010Prop38
140
0.0
102
RTVSPost2010PropOp38
 70
     1
102
RTVSPost2010Prop39
140
1.0
102
RTVSPost2010PropOp39
 70
     1
102
RTVSPost2010Prop40
 90
        0
102
RTVSPost2010PropOp40
 70
     1
102
RTVSPost2010Prop41ColorIndex
 90
       18
102
RTVSPost2010Prop41ColorRGB
 90
        0
102
RTVSPost2010PropOp41
 70
     1
102
RTVSPost2010Prop42
 90
       50
102
RTVSPost2010PropOp42
 70
     1
102
RTVSPost2010Prop43
 90
        3
102
RTVSPost2010PropOp43
 70
     1
102
RTVSPost2010Prop44ColorIndex
 90
        5
102
RTVSPost2010Prop44ColorRGB
 90
      255
102
RTVSPost2010PropOp44
 70
     1
102
RTVSPost2010Prop45
280
     0
102
RTVSPost2010PropOp45
 70
     1
102
RTVSPost2010Prop46
 90
       50
102
RTVSPost2010PropOp46
 70
     1
102
RTVSPost2010Prop47
 90
       50
102
RTVSPost2010PropOp47
 70
     1
102
RTVSPost2010Prop48
 90
       50
102
RTVSPost2010PropOp48
 70
     1
102
RTVSPost2010Prop49
280
     0
102
RTVSPost2010PropOp49
 70
     1
102
RTVSPost2010Prop50
 90
       50
102
RTVSPost2010PropOp50
 70
     1
102
RTVSPost2010Prop51ColorIndex
 90
      256
102
RTVSPost2010Prop51ColorRGB
 90
-16777216
102
RTVSPost2010PropOp51
 70
     0
102
RTVSPost2010Prop52
140
1.0
102
RTVSPost2010PropOp52
 70
     0
102
RTVSPost2010Prop53
 90
        2
102
RTVSPost2010PropOp53
 70
     1
102
RTVSPost2010Prop54
  1
strokes_ogs.tif
102
RTVSPost2010PropOp54
 70
     1
102
RTVSPost2010Prop55
280
     0
102
RTVSPost2010PropOp55
 70
     1
102
RTVSPost2010Prop56
140
1.0
102
RTVSPost2010PropOp56
 70
     1
102
RTVSPost2010Prop57
140
1.0
102
RTVSPost2010PropOp57
 70
     1
  0
XRECORD
  5
1A669
102
{ACAD_REACTORS
330
1A668
102
}
330
1A668
100
AcDbXrecord
280
     1
102
RTVSPropertyOp0
 70
     1
102
RTVSPropertyOp1
 70
     1
102
RTVSPropertyOp2
 70
     1
102
RTVSPropertyOp3
 70
     1
102
RTVSPropertyOp4
 70
     1
102
RTVSPropertyOp5
 70
     1
102
RTVSPropertyOp6
 70
     1
102
RTVSPropertyOp7
 70
     1
102
RTVSPropertyOp8
 70
     1
102
RTVSPropertyOp9
 70
     1
102
RTVSPropertyOp10
 70
     1
102
RTVSPropertyOp11
 70
     1
102
RTVSPropertyOp12
 70
     1
102
RTVSPropertyOp13
 70
     1
102
RTVSPropertyOp14
 70
     1
102
RTVSPropertyOp15
 70
     1
102
RTVSPropertyOp16
 70
     1
102
RTVSPropertyOp17
 70
     1
102
RTVSPropertyOp18
 70
     1
102
RTVSPropertyOp19
 70
     1
102
RTVSPropertyOp20
 70
     1
102
RTVSPropertyOp21
 70
     1
102
RTVSPropertyOp22
 70
     1
102
RTVSPropertyOp23
 70
     1
102
RTVSPropertyOp24
 70
     1
102
RTVSPropertyOp25
 70
     1
102
RTVSPropertyOp26
 70
     1
102
RTVSPropertyOp27
 70
     1
102
RTVSPropertyOp28
 70
     1
102
RTVSPropertyOp29
 70
     1
102
RTVSPropertyOp30
 70
     1
102
RTVSPropertyOp31
 70
     1
102
RTVSPropertyOp32
 70
     1
102
RTVSPropertyOp33
 70
     1
102
RTVSPropertyOp34
 70
     1
102
RTVSPropertyOp35
 70
     1
102
RTVSPropertyOp36
 70
     1
102
RTVSPropertyOp37
 70
     1
102
RTVSPropertyOp38
 70
     1
102
RTVSPropertyOp39
 70
     1
102
RTVSPropertyOp40
 70
     1
102
RTVSPropertyOp41
 70
     1
102
RTVSPropertyOp42
 70
     1
102
RTVSPropertyOp43
 70
     1
102
RTVSPropertyOp44
 70
     1
102
RTVSPropertyOp45
 70
     1
102
RTVSPropertyOp46
 70
     1
102
RTVSPropertyOp47
 70
     1
102
RTVSPropertyOp48
 70
     1
102
RTVSPropertyOp49
 70
     1
102
RTVSPropertyOp50
 70
     1
102
RTVSPropertyOp51
 70
     0
102
RTVSPropertyOp52
 70
     0
102
RTVSPropertyOp53
 70
     1
102
RTVSPropertyOp54
 70
     1
102
RTVSPropertyOp55
 70
     1
102
RTVSPropertyOp56
 70
     1
102
RTVSPropertyOp57
 70
     1
102
RTVSPost2010Prop28
280
     0
102
RTVSPost2010PropOp28
 70
     1
102
RTVSPost2010Prop29
280
     1
102
RTVSPost2010PropOp29
 70
     1
102
RTVSPost2010Prop30
280
     1
102
RTVSPost2010PropOp30
 70
     1
102
RTVSPost2010Prop31
280
     0
102
RTVSPost2010PropOp31
 70
     1
102
RTVSPost2010Prop32
280
     0
102
RTVSPost2010PropOp32
 70
     1
102
RTVSPost2010Prop33
280
     0
102
RTVSPost2010PropOp33
 70
     1
102
RTVSPost2010Prop34
280
     0
102
RTVSPost2010PropOp34
 70
     1
102
RTVSPost2010Prop35
280
     0
102
RTVSPost2010PropOp35
 70
     1
102
RTVSPost2010Prop36
280
     0
102
RTVSPost2010PropOp36
 70
     1
102
RTVSPost2010Prop37
 90
       50
102
RTVSPost2010PropOp37
 70
     1
102
RTVSPost2010Prop38
140
0.0
102
RTVSPost2010PropOp38
 70
     1
102
RTVSPost2010Prop39
140
1.0
102
RTVSPost2010PropOp39
 70
     1
102
RTVSPost2010Prop40
 90
        0
102
RTVSPost2010PropOp40
 70
     1
102
RTVSPost2010Prop41ColorIndex
 90
       18
102
RTVSPost2010Prop41ColorRGB
 90
        0
102
RTVSPost2010PropOp41
 70
     1
102
RTVSPost2010Prop42
 90
       50
102
RTVSPost2010PropOp42
 70
     1
102
RTVSPost2010Prop43
 90
        3
102
RTVSPost2010PropOp43
 70
     1
102
RTVSPost2010Prop44ColorIndex
 90
        5
102
RTVSPost2010Prop44ColorRGB
 90
      255
102
RTVSPost2010PropOp44
 70
     1
102
RTVSPost2010Prop45
280
     0
102
RTVSPost2010PropOp45
 70
     1
102
RTVSPost2010Prop46
 90
       50
102
RTVSPost2010PropOp46
 70
     1
102
RTVSPost2010Prop47
 90
       50
102
RTVSPost2010PropOp47
 70
     1
102
RTVSPost2010Prop48
 90
       50
102
RTVSPost2010PropOp48
 70
     1
102
RTVSPost2010Prop49
280
     0
102
RTVSPost2010PropOp49
 70
     1
102
RTVSPost2010Prop50
 90
       50
102
RTVSPost2010PropOp50
 70
     1
102
RTVSPost2010Prop51ColorIndex
 90
      256
102
RTVSPost2010Prop51ColorRGB
 90
-16777216
102
RTVSPost2010PropOp51
 70
     0
102
RTVSPost2010Prop52
140
1.0
102
RTVSPost2010PropOp52
 70
     0
102
RTVSPost2010Prop53
 90
        2
102
RTVSPost2010PropOp53
 70
     1
102
RTVSPost2010Prop54
  1
strokes_ogs.tif
102
RTVSPost2010PropOp54
 70
     1
102
RTVSPost2010Prop55
280
     0
102
RTVSPost2010PropOp55
 70
     1
102
RTVSPost2010Prop56
140
1.0
102
RTVSPost2010PropOp56
 70
     1
102
RTVSPost2010Prop57
140
1.0
102
RTVSPost2010PropOp57
 70
     1
  0
ENDSEC
  0
EOF
