  0
SECTION
  2
HEADER
  9
$ACADVER
  1
AC1009
  9
$INSBASE
 10
0.0
 20
0.0
 30
0.0
  9
$EXTMIN
 10
2.999999999999996
 20
6.9999999999999991
 30
0.0
  9
$EXTMAX
 10
74.809705282026457
 20
95.500000000000014
 30
0.0
  9
$LIMMIN
 10
0.0
 20
0.0
  9
$LIMMAX
 10
297.0
 20
210.0
  9
$ORTHOMODE
 70
     0
  9
$REGENMODE
 70
     1
  9
$FILLMODE
 70
     1
  9
$QTEXTMODE
 70
     0
  9
$MIRRTEXT
 70
     1
  9
$DRAGMODE
 70
     2
  9
$LTSCALE
 40
1.0
  9
$OSMODE
 70
    37
  9
$ATTMODE
 70
     1
  9
$TEXTSIZE
 40
0.2
  9
$TRACEWID
 40
0.05
  9
$TEXTSTYLE
  7
STANDARD
  9
$CLAYER
  8
0
  9
$CELTYPE
  6
CONTINUOUS
  9
$CECOLOR
 62
   256
  9
$DIMSCALE
 40
1.0
  9
$DIMASZ
 40
0.18
  9
$DIMEXO
 40
0.0625
  9
$DIMDLI
 40
0.38
  9
$DIMRND
 40
0.0
  9
$DIMDLE
 40
0.0
  9
$DIMEXE
 40
0.18
  9
$DIMTP
 40
0.0
  9
$DIMTM
 40
0.0
  9
$DIMTXT
 40
0.18
  9
$DIMCEN
 40
0.09
  9
$DIMTSZ
 40
0.0
  9
$DIMTOL
 70
     0
  9
$DIMLIM
 70
     0
  9
$DIMTIH
 70
     1
  9
$DIMTOH
 70
     1
  9
$DIMSE1
 70
     0
  9
$DIMSE2
 70
     0
  9
$DIMTAD
 70
     0
  9
$DIMZIN
 70
     0
  9
$DIMBLK
  1

  9
$DIMASO
 70
     1
  9
$DIMSHO
 70
     1
  9
$DIMPOST
  1

  9
$DIMAPOST
  1

  9
$DIMALT
 70
     0
  9
$DIMALTD
 70
     2
  9
$DIMALTF
 40
25.399999999999999
  9
$DIMLFAC
 40
1.0
  9
$DIMTOFL
 70
     0
  9
$DIMTVP
 40
0.0
  9
$DIMTIX
 70
     0
  9
$DIMSOXD
 70
     0
  9
$DIMSAH
 70
     0
  9
$DIMBLK1
  1

  9
$DIMBLK2
  1

  9
$DIMSTYLE
  2
STANDARD
  9
$DIMCLRD
 70
     0
  9
$DIMCLRE
 70
     0
  9
$DIMCLRT
 70
     0
  9
$DIMTFAC
 40
1.0
  9
$DIMGAP
 40
0.09
  9
$LUNITS
 70
     2
  9
$LUPREC
 70
     4
  9
$SKETCHINC
 40
0.1
  9
$FILLETRAD
 40
0.0
  9
$AUNITS
 70
     0
  9
$AUPREC
 70
     0
  9
$MENU
  1
.
  9
$ELEVATION
 40
0.0
  9
$PELEVATION
 40
0.0
  9
$THICKNESS
 40
0.0
  9
$LIMCHECK
 70
     0
  9
$BLIPMODE
 70
     0
  9
$CHAMFERA
 40
0.0
  9
$CHAMFERB
 40
0.0
  9
$SKPOLY
 70
     0
  9
$TDCREATE
 40
2452073.7218650011
  9
$TDUPDATE
 40
2457963.4850648381
  9
$TDINDWG
 40
0.031126331
  9
$TDUSRTIMER
 40
0.0311259722
  9
$USRTIMER
 70
     1
  9
$ANGBASE
 50
0.0
  9
$ANGDIR
 70
     0
  9
$PDMODE
 70
     0
  9
$PDSIZE
 40
0.0
  9
$PLINEWID
 40
0.0
  9
$COORDS
 70
     1
  9
$SPLFRAME
 70
     0
  9
$SPLINETYPE
 70
     6
  9
$SPLINESEGS
 70
     8
  9
$ATTDIA
 70
     0
  9
$ATTREQ
 70
     1
  9
$HANDLING
 70
     1
  9
$HANDSEED
  5
1018F
  9
$SURFTAB1
 70
     6
  9
$SURFTAB2
 70
     6
  9
$SURFTYPE
 70
     6
  9
$SURFU
 70
     6
  9
$SURFV
 70
     6
  9
$UCSNAME
  2

  9
$UCSORG
 10
0.0
 20
0.0
 30
0.0
  9
$UCSXDIR
 10
1.0
 20
0.0
 30
0.0
  9
$UCSYDIR
 10
0.0
 20
1.0
 30
0.0
  9
$PUCSNAME
  2

  9
$PUCSORG
 10
0.0
 20
0.0
 30
0.0
  9
$PUCSXDIR
 10
1.0
 20
0.0
 30
0.0
  9
$PUCSYDIR
 10
0.0
 20
1.0
 30
0.0
  9
$USERI1
 70
     0
  9
$USERI2
 70
     0
  9
$USERI3
 70
     0
  9
$USERI4
 70
     0
  9
$USERI5
 70
     0
  9
$USERR1
 40
0.0
  9
$USERR2
 40
0.0
  9
$USERR3
 40
0.0
  9
$USERR4
 40
0.0
  9
$USERR5
 40
0.0
  9
$WORLDVIEW
 70
     1
  9
$SHADEDGE
 70
     3
  9
$SHADEDIF
 70
    70
  9
$TILEMODE
 70
     1
  9
$MAXACTVP
 70
    48
  9
$PLIMCHECK
 70
     0
  9
$PEXTMIN
 10
1.0000000000000000E+020
 20
1.0000000000000000E+020
 30
1.0000000000000000E+020
  9
$PEXTMAX
 10
-1.0000000000000000E+020
 20
-1.0000000000000000E+020
 30
-1.0000000000000000E+020
  9
$PLIMMIN
 10
0.0
 20
0.0
  9
$PLIMMAX
 10
12.0
 20
9.0
  9
$UNITMODE
 70
     0
  9
$VISRETAIN
 70
     1
  9
$PLINEGEN
 70
     0
  9
$PSLTSCALE
 70
     1
  0
ENDSEC
  0
SECTION
  2
TABLES
  0
TABLE
  2
VPORT
 70
     1
  0
VPORT
  2
*ACTIVE
 70
     0
 10
0.0
 20
0.0
 11
1.0
 21
1.0
 12
76.227726648915123
 22
35.615514499694683
 13
0.0
 23
0.0
 14
1.0
 24
1.0
 15
0.0
 25
0.0
 16
0.0
 26
0.0
 36
1.0
 17
0.0
 27
0.0
 37
0.0
 40
173.1988276040409
 41
1.417331812998859
 42
50.0
 43
0.0
 44
0.0
 50
0.0
 51
0.0
 71
     0
 72
   100
 73
     1
 74
     1
 75
     0
 76
     0
 77
     0
 78
     0
  0
ENDTAB
  0
TABLE
  2
LTYPE
 70
     6
  0
LTYPE
  2
CONTINUOUS
 70
     0
  3
実線
 72
    65
 73
     0
 40
0.0
  0
LTYPE
  2
DASHED
 70
     0
  3
破線
 72
    65
 73
     2
 40
3.7999999999999989
 49
3.0
 49
-0.8
  0
LTYPE
  2
DOT
 70
     0
  3
点線
 72
    65
 73
     2
 40
2.0
 49
1.0
 49
-1.0
  0
LTYPE
  2
DASHDOT
 70
     0
  3
一点鎖線
 72
    65
 73
     4
 40
25.600000000000001
 49
20.0
 49
-2.0
 49
1.6000000000000001
 49
-2.0
  0
LTYPE
  2
DIVIDE
 70
     0
  3
二点鎖線
 72
    65
 73
     6
 40
31.199999999999999
 49
20.0
 49
-2.399999999999999
 49
2.0
 49
-2.399999999999999
 49
2.0
 49
-2.399999999999999
  0
ENDTAB
  0
TABLE
  2
LAYER
 70
     1
  0
LAYER
  2
0
 70
     0
 62
     7
  6
CONTINUOUS
  0
ENDTAB
  0
TABLE
  2
STYLE
 70
     6
  0
STYLE
  2
STANDARD
 70
     0
 40
0.0
 41
1.0
 50
0.0
 71
     0
 42
0.2
  3
monotxt
  4
extfont
  0
STYLE
  2
ANNOTATIVE
 70
     0
 40
0.0
 41
1.0
 50
0.0
 71
     0
 42
0.2
  3
txt
  4

  0
STYLE
  2
EXCADSTD
 70
     0
 40
0.0
 41
1.0
 50
0.0
 71
     0
 42
0.2
  3
monotxt
  4
extfont
  0
STYLE
  2
EXCADVERT
 70
     4
 40
0.0
 41
1.0
 50
0.0
 71
     0
 42
0.286885
  3
monotxt
  4
extfont
  0
STYLE
  2
EXCADSTD2
 70
     0
 40
0.0
 41
1.0
 50
0.0
 71
     0
 42
0.2
  3
monotxt
  4

  0
STYLE
  2
EXCADVERT2
 70
     4
 40
0.0
 41
1.0
 50
0.0
 71
     0
 42
0.286885
  3
monotxt
  4

  0
ENDTAB
  0
TABLE
  2
VIEW
 70
     0
  0
ENDTAB
  0
TABLE
  2
UCS
 70
     0
  0
ENDTAB
  0
TABLE
  2
APPID
 70
     4
  0
APPID
  2
ACAD
 70
     0
  0
APPID
  2
ACADANNOTATIVE
 70
     0
  0
APPID
  2
ACAD_MLEADERVER
 70
     0
  0
APPID
  2
ACAD_EXEMPT_FROM_CAD_STANDARDS
 70
     0
  0
ENDTAB
  0
TABLE
  2
DIMSTYLE
 70
     2
  0
DIMSTYLE
  2
STANDARD
 70
     0
  3

  4

  5

  6

  7

 40
1.0
 41
0.18
 42
0.0625
 43
0.38
 44
0.18
 45
0.0
 46
0.0
 47
0.0
 48
0.0
140
0.18
141
0.09
142
0.0
143
25.399999999999999
144
1.0
145
0.0
146
1.0
147
0.09
 71
     0
 72
     0
 73
     1
 74
     1
 75
     0
 76
     0
 77
     0
 78
     0
170
     0
171
     2
172
     0
173
     0
174
     0
175
     0
176
     0
177
     0
178
     0
  0
DIMSTYLE
  2
ANNOTATIVE
 70
     0
  3

  4

  5

  6

  7

 40
1.0
 41
0.18
 42
0.0625
 43
0.38
 44
0.18
 45
0.0
 46
0.0
 47
0.0
 48
0.0
140
0.18
141
0.09
142
0.0
143
25.399999999999999
144
1.0
145
0.0
146
1.0
147
0.09
 71
     0
 72
     0
 73
     1
 74
     1
 75
     0
 76
     0
 77
     0
 78
     0
170
     0
171
     2
172
     0
173
     0
174
     0
175
     0
176
     0
177
     0
178
     0
  0
ENDTAB
  0
ENDSEC
  0
SECTION
  2
BLOCKS
  0
BLOCK
  8
0
  2
$MODEL_SPACE
 70
     0
 10
0.0
 20
0.0
 30
0.0
  3
$MODEL_SPACE
  1

  0
ENDBLK
  5
FB1C
  8
0
  0
BLOCK
 67
     1
  8
0
  2
$PAPER_SPACE
 70
     0
 10
0.0
 20
0.0
 30
0.0
  3
$PAPER_SPACE
  1

  0
ENDBLK
  5
FB18
 67
     1
  8
0
  0
BLOCK
  8
0
  2
_EX_NORM
 70
     0
 10
0.0
 20
0.0
 30
0.0
  3
_EX_NORM
  1

  0
LINE
  5
31
  8
0
  6
BYBLOCK
 62
     0
 10
0.0
 20
0.0
 30
0.0
 11
-1.0
 21
0.0
 31
0.0
  0
LINE
  5
32
  8
0
  6
BYBLOCK
 62
     0
 10
0.0
 20
0.0
 30
0.0
 11
-0.9607689999999999
 21
0.27735
 31
0.0
  0
LINE
  5
33
  8
0
  6
BYBLOCK
 62
     0
 10
0.0
 20
0.0
 30
0.0
 11
-0.9607689999999999
 21
-0.27735
 31
0.0
  0
ENDBLK
  5
34
  8
0
  0
BLOCK
  8
0
  2
_EX_BNORM
 70
     0
 10
0.0
 20
0.0
 30
0.0
  3
_EX_BNORM
  1

  0
LINE
  5
37
  8
0
  6
BYBLOCK
 62
     0
 10
0.0
 20
0.0
 30
0.0
 11
-1.0
 21
0.0
 31
0.0
  0
LINE
  5
38
  8
0
  6
BYBLOCK
 62
     0
 10
0.0
 20
0.0
 30
0.0
 11
-0.9607689999999999
 21
0.27735
 31
0.0
  0
LINE
  5
39
  8
0
  6
BYBLOCK
 62
     0
 10
0.0
 20
0.0
 30
0.0
 11
-0.9607689999999999
 21
-0.27735
 31
0.0
  0
LINE
  5
3A
  8
0
  6
BYBLOCK
 62
     0
 10
0.0
 20
0.0
 30
0.0
 11
-0.9607689999999999
 21
0.138768
 31
0.0
  0
LINE
  5
3B
  8
0
  6
BYBLOCK
 62
     0
 10
0.0
 20
0.0
 30
0.0
 11
-0.9607689999999999
 21
-0.138768
 31
0.0
  0
LINE
  5
3C
  8
0
  6
BYBLOCK
 62
     0
 10
-0.9607689999999999
 20
0.27735
 30
0.0
 11
-0.9607689999999999
 21
-0.27735
 31
0.0
  0
ENDBLK
  5
3D
  8
0
  0
BLOCK
  8
0
  2
_EX_BCIR
 70
     0
 10
0.0
 20
0.0
 30
0.0
  3
_EX_BCIR
  1

  0
LINE
  5
40
  8
0
  6
BYBLOCK
 62
     0
 10
0.0
 20
0.0
 30
0.0
 11
-1.0
 21
0.0
 31
0.0
  0
CIRCLE
  5
41
  8
0
  6
BYBLOCK
 62
     0
 10
0.0
 20
0.0
 30
0.0
 40
0.5
  0
CIRCLE
  5
42
  8
0
  6
BYBLOCK
 62
     0
 10
0.0
 20
0.0
 30
0.0
 40
0.25
  0
ENDBLK
  5
43
  8
0
  0
BLOCK
  8
0
  2
_EX_RCIVIL
 70
     0
 10
0.0
 20
0.0
 30
0.0
  3
_EX_RCIVIL
  1

  0
LINE
  5
46
  8
0
  6
BYBLOCK
 62
     0
 10
0.0
 20
0.0
 30
0.0
 11
-1.0
 21
0.0
 31
0.0
  0
LINE
  5
47
  8
0
  6
BYBLOCK
 62
     0
 10
-1.0
 20
-0.25
 30
0.0
 11
0.0
 21
-0.25
 31
0.0
  0
LINE
  5
48
  8
0
  6
BYBLOCK
 62
     0
 10
-1.0
 20
-0.125
 30
0.0
 11
0.0
 21
-0.125
 31
0.0
  0
ENDBLK
  5
49
  8
0
  0
BLOCK
  8
0
  2
_EX_SLANT
 70
     0
 10
0.0
 20
0.0
 30
0.0
  3
_EX_SLANT
  1

  0
LINE
  5
4C
  8
0
  6
BYBLOCK
 62
     0
 10
0.0
 20
0.0
 30
0.0
 11
-1.0
 21
0.0
 31
0.0
  0
LINE
  5
4D
  8
0
  6
BYBLOCK
 62
     0
 10
0.7071069999999999
 20
0.7071069999999999
 30
0.0
 11
-0.7071069999999999
 21
-0.7071069999999999
 31
0.0
  0
ENDBLK
  5
4E
  8
0
  0
BLOCK
  8
0
  2
_EX_NONE
 70
     0
 10
0.0
 20
0.0
 30
0.0
  3
_EX_NONE
  1

  0
LINE
  5
51
  8
0
  6
BYBLOCK
 62
     0
 10
0.0
 20
0.0
 30
0.0
 11
-1.0
 21
0.0
 31
0.0
  0
ENDBLK
  5
52
  8
0
  0
BLOCK
  8
0
  2
_EX_WCIR
 70
     0
 10
0.0
 20
0.0
 30
0.0
  3
_EX_WCIR
  1

  0
LINE
  5
55
  8
0
  6
BYBLOCK
 62
     0
 10
0.0
 20
0.0
 30
0.0
 11
-1.0
 21
0.0
 31
0.0
  0
ENDBLK
  5
56
  8
0
  0
BLOCK
  8
0
  2
_EX_CIVIL
 70
     0
 10
0.0
 20
0.0
 30
0.0
  3
_EX_CIVIL
  1

  0
LINE
  5
59
  8
0
  6
BYBLOCK
 62
     0
 10
0.0
 20
0.0
 30
0.0
 11
-1.0
 21
0.0
 31
0.0
  0
LINE
  5
5A
  8
0
  6
BYBLOCK
 62
     0
 10
-1.0
 20
0.25
 30
0.0
 11
0.0
 21
0.25
 31
0.0
  0
LINE
  5
5B
  8
0
  6
BYBLOCK
 62
     0
 10
-1.0
 20
0.125
 30
0.0
 11
0.0
 21
0.125
 31
0.0
  0
ENDBLK
  5
5C
  8
0
  0
BLOCK
  8
0
  2
*U10
 70
     1
 10
0.0
 20
0.0
 30
0.0
  3
*U10
  1

  0
SOLID
  5
F00D
  8
0
  6
CONTINUOUS
 62
     7
 10
29.950799160623831
 20
3.640432260628073
 30
0.0
 11
29.940291619393829
 21
3.6194171781680482
 31
0.0
 12
30.18368761542671
 22
3.6194171781680482
 32
0.0
 13
30.18368761542671
 23
3.6194171781680482
 33
0.0
  0
SOLID
  5
F00E
  8
0
  6
CONTINUOUS
 62
     7
 10
-29.950799160623831
 20
3.640432260628073
 30
0.0
 11
-30.24707737235531
 21
3.640432260628073
 31
0.0
 12
-30.18368761542671
 22
3.6194171781680482
 32
0.0
 13
-30.18368761542671
 23
3.6194171781680482
 33
0.0
210
0.0
220
0.0
230
-1.0
  0
SOLID
  5
F00F
  8
0
  6
CONTINUOUS
 62
     7
 10
-29.929611823389539
 20
3.5980575861595101
 30
0.0
 11
-30.162328023418169
 21
3.5980575861595101
 31
0.0
 12
-30.141312940958152
 22
3.5770425036994871
 32
0.0
 13
-30.141312940958152
 23
3.5770425036994871
 33
0.0
210
0.0
220
0.0
230
-1.0
  0
SOLID
  5
F010
  8
0
  6
CONTINUOUS
 62
     7
 10
29.940291619393829
 20
3.6194171781680482
 30
0.0
 11
29.929611823389539
 21
3.5980575861595101
 31
0.0
 12
30.162328023418169
 22
3.5980575861595101
 32
0.0
 13
30.162328023418169
 23
3.5980575861595101
 33
0.0
  0
SOLID
  5
F011
  8
0
  6
CONTINUOUS
 62
     7
 10
-29.940291619393829
 20
3.6194171781680482
 30
0.0
 11
-30.18368761542671
 21
3.6194171781680482
 31
0.0
 12
-30.162328023418169
 22
3.5980575861595101
 32
0.0
 13
-30.162328023418169
 23
3.5980575861595101
 33
0.0
210
0.0
220
0.0
230
-1.0
  0
LINE
  5
F012
  8
0
  6
CONTINUOUS
 62
     7
 10
29.950799160623831
 20
3.640432260628073
 30
0.0
 11
29.940291619393829
 21
3.6194171781680482
 31
0.0
  0
LINE
  5
F013
  8
0
  6
CONTINUOUS
 62
     7
 10
30.24707737235531
 20
3.640432260628073
 30
0.0
 11
30.18368761542671
 21
3.6194171781680482
 31
0.0
  0
LINE
  5
F014
  8
0
  6
CONTINUOUS
 62
     7
 10
30.162328023418169
 20
3.5980575861595101
 30
0.0
 11
30.141312940958152
 21
3.5770425036994871
 31
0.0
  0
LINE
  5
F015
  8
0
  6
CONTINUOUS
 62
     7
 10
30.141312940958152
 20
3.5770425036994871
 30
0.0
 11
29.929611823389539
 21
3.5980575861595101
 31
0.0
  0
LINE
  5
F016
  8
0
  6
CONTINUOUS
 62
     7
 10
29.940291619393829
 20
3.6194171781680482
 30
0.0
 11
29.929611823389539
 21
3.5980575861595101
 31
0.0
  0
LINE
  5
F017
  8
0
  6
CONTINUOUS
 62
     7
 10
30.18368761542671
 20
3.6194171781680482
 30
0.0
 11
30.162328023418169
 21
3.5980575861595101
 31
0.0
  0
ENDBLK
  5
F019
  8
0
  0
BLOCK
  8
0
  2
*U11
 70
     1
 10
0.0
 20
0.0
 30
0.0
  3
*U11
  1

  0
SOLID
  5
F01B
  8
0
  6
CONTINUOUS
 62
     7
 10
30.289452046823889
 20
3.873320715430963
 30
0.0
 11
30.226062289895289
 21
3.8523056329709391
 31
0.0
 12
30.54352783886106
 22
3.8523056329709391
 32
0.0
 13
30.54352783886106
 23
3.8523056329709391
 33
0.0
  0
SOLID
  5
F01C
  8
0
  6
CONTINUOUS
 62
     7
 10
-30.289452046823889
 20
3.873320715430963
 30
0.0
 11
-30.4799658271582
 21
3.873320715430963
 31
0.0
 12
-30.54352783886106
 22
3.8523056329709391
 32
0.0
 13
-30.54352783886106
 23
3.8523056329709391
 33
0.0
210
0.0
220
0.0
230
-1.0
  0
SOLID
  5
F01D
  8
0
  6
CONTINUOUS
 62
     7
 10
30.226062289895289
 20
3.8523056329709391
 30
0.0
 11
30.162500278192429
 21
3.830946040962401
 31
0.0
 12
30.60691759578966
 22
3.830946040962401
 32
0.0
 13
30.60691759578966
 23
3.830946040962401
 33
0.0
  0
SOLID
  5
F01E
  8
0
  6
CONTINUOUS
 62
     7
 10
-30.226062289895289
 20
3.8523056329709391
 30
0.0
 11
-30.54352783886106
 21
3.8523056329709391
 31
0.0
 12
-30.60691759578966
 22
3.830946040962401
 32
0.0
 13
-30.60691759578966
 23
3.830946040962401
 33
0.0
210
0.0
220
0.0
230
-1.0
  0
SOLID
  5
F01F
  8
0
  6
CONTINUOUS
 62
     7
 10
30.162500278192429
 20
3.830946040962401
 30
0.0
 11
30.098938266489569
 21
3.8099309585023762
 31
0.0
 12
30.627932678249682
 22
3.8099309585023762
 32
0.0
 13
30.627932678249682
 23
3.8099309585023762
 33
0.0
  0
SOLID
  5
F020
  8
0
  6
CONTINUOUS
 62
     7
 10
-30.162500278192429
 20
3.830946040962401
 30
0.0
 11
-30.60691759578966
 21
3.830946040962401
 31
0.0
 12
-30.627932678249682
 22
3.8099309585023762
 32
0.0
 13
-30.627932678249682
 23
3.8099309585023762
 33
0.0
210
0.0
220
0.0
230
-1.0
  0
SOLID
  5
F021
  8
0
  6
CONTINUOUS
 62
     7
 10
30.098938266489569
 20
3.8099309585023762
 30
0.0
 11
30.077578674481021
 21
3.7885713664938101
 31
0.0
 12
30.649292270258229
 22
3.7885713664938101
 32
0.0
 13
30.649292270258229
 23
3.7885713664938101
 33
0.0
  0
SOLID
  5
F022
  8
0
  6
CONTINUOUS
 62
     7
 10
-30.098938266489569
 20
3.8099309585023762
 30
0.0
 11
-30.627932678249682
 21
3.8099309585023762
 31
0.0
 12
-30.649292270258229
 22
3.7885713664938101
 32
0.0
 13
-30.649292270258229
 23
3.7885713664938101
 33
0.0
210
0.0
220
0.0
230
-1.0
  0
SOLID
  5
F023
  8
0
  6
CONTINUOUS
 62
     7
 10
30.077578674481021
 20
3.7885713664938101
 30
0.0
 11
30.056563592021
 21
3.7675562840337871
 31
0.0
 12
30.681073276109661
 22
3.7675562840337871
 32
0.0
 13
30.681073276109661
 23
3.7675562840337871
 33
0.0
  0
SOLID
  5
F024
  8
0
  6
CONTINUOUS
 62
     7
 10
-30.077578674481021
 20
3.7885713664938101
 30
0.0
 11
-30.649292270258229
 21
3.7885713664938101
 31
0.0
 12
-30.681073276109661
 22
3.7675562840337871
 32
0.0
 13
-30.681073276109661
 23
3.7675562840337871
 33
0.0
210
0.0
220
0.0
230
-1.0
  0
SOLID
  5
F025
  8
0
  6
CONTINUOUS
 62
     7
 10
30.056563592021
 20
3.7675562840337871
 30
0.0
 11
30.056563592021
 21
3.74654120157376
 31
0.0
 12
30.712854281961089
 22
3.74654120157376
 32
0.0
 13
30.712854281961089
 23
3.74654120157376
 33
0.0
  0
SOLID
  5
F026
  8
0
  6
CONTINUOUS
 62
     7
 10
-30.056563592021
 20
3.7675562840337871
 30
0.0
 11
-30.681073276109661
 21
3.7675562840337871
 31
0.0
 12
-30.712854281961089
 22
3.74654120157376
 32
0.0
 13
-30.712854281961089
 23
3.74654120157376
 33
0.0
210
0.0
220
0.0
230
-1.0
  0
SOLID
  5
F027
  8
0
  6
CONTINUOUS
 62
     7
 10
30.056563592021
 20
3.74654120157376
 30
0.0
 11
30.02461103161798
 21
3.725181609565225
 31
0.0
 12
30.734041619195381
 22
3.725181609565225
 32
0.0
 13
30.734041619195381
 23
3.725181609565225
 33
0.0
  0
SOLID
  5
F028
  8
0
  6
CONTINUOUS
 62
     7
 10
-30.056563592021
 20
3.74654120157376
 30
0.0
 11
-30.712854281961089
 21
3.74654120157376
 31
0.0
 12
-30.734041619195381
 22
3.725181609565225
 32
0.0
 13
-30.734041619195381
 23
3.725181609565225
 33
0.0
210
0.0
220
0.0
230
-1.0
  0
SOLID
  5
F029
  8
0
  6
CONTINUOUS
 62
     7
 10
30.02461103161798
 20
3.725181609565225
 30
0.0
 11
29.993173835092399
 21
3.7041665271051989
 31
0.0
 12
30.75497127449092
 22
3.7041665271051989
 32
0.0
 13
30.75497127449092
 23
3.7041665271051989
 33
0.0
  0
SOLID
  5
F02A
  8
0
  6
CONTINUOUS
 62
     7
 10
-30.02461103161798
 20
3.725181609565225
 30
0.0
 11
-30.734041619195381
 21
3.725181609565225
 31
0.0
 12
-30.75497127449092
 22
3.7041665271051989
 32
0.0
 13
-30.75497127449092
 23
3.7041665271051989
 33
0.0
210
0.0
220
0.0
230
-1.0
  0
SOLID
  5
F02B
  8
0
  6
CONTINUOUS
 62
     7
 10
29.993173835092399
 20
3.7041665271051989
 30
0.0
 11
29.978972592838058
 21
3.6828069350966328
 31
0.0
 12
30.77624403888969
 22
3.6828069350966328
 32
0.0
 13
30.77624403888969
 23
3.6828069350966328
 33
0.0
  0
SOLID
  5
F02C
  8
0
  6
CONTINUOUS
 62
     7
 10
-29.993173835092399
 20
3.7041665271051989
 30
0.0
 11
-30.75497127449092
 21
3.7041665271051989
 31
0.0
 12
-30.77624403888969
 22
3.6828069350966328
 32
0.0
 13
-30.77624403888969
 23
3.6828069350966328
 33
0.0
210
0.0
220
0.0
230
-1.0
  0
SOLID
  5
F02D
  8
0
  6
CONTINUOUS
 62
     7
 10
29.978972592838058
 20
3.6828069350966328
 30
0.0
 11
29.950799160623831
 21
3.640432260628073
 31
0.0
 12
30.818618713358269
 22
3.640432260628073
 32
0.0
 13
30.818618713358269
 23
3.640432260628073
 33
0.0
  0
SOLID
  5
F02E
  8
0
  6
CONTINUOUS
 62
     7
 10
-29.978972592838058
 20
3.6828069350966328
 30
0.0
 11
-30.77624403888969
 21
3.6828069350966328
 31
0.0
 12
-30.818618713358269
 22
3.640432260628073
 32
0.0
 13
-30.818618713358269
 23
3.640432260628073
 33
0.0
210
0.0
220
0.0
230
-1.0
  0
SOLID
  5
F02F
  8
0
  6
CONTINUOUS
 62
     7
 10
30.331826721292469
 20
3.640432260628073
 30
0.0
 11
30.395388732995318
 21
3.6194171781680482
 31
0.0
 12
30.825642776245719
 22
3.6194171781680482
 32
0.0
 13
30.825642776245719
 23
3.6194171781680482
 33
0.0
  0
SOLID
  5
F030
  8
0
  6
CONTINUOUS
 62
     7
 10
-30.331826721292469
 20
3.640432260628073
 30
0.0
 11
-30.818618713358269
 21
3.640432260628073
 31
0.0
 12
-30.825642776245719
 22
3.6194171781680482
 32
0.0
 13
-30.825642776245719
 23
3.6194171781680482
 33
0.0
210
0.0
220
0.0
230
-1.0
  0
SOLID
  5
F031
  8
0
  6
CONTINUOUS
 62
     7
 10
30.395388732995318
 20
3.6194171781680482
 30
0.0
 11
30.437591152689631
 21
3.5980575861595101
 31
0.0
 12
30.83278198770509
 22
3.5980575861595101
 32
0.0
 13
30.83278198770509
 23
3.5980575861595101
 33
0.0
  0
SOLID
  5
F032
  8
0
  6
CONTINUOUS
 62
     7
 10
-30.395388732995318
 20
3.6194171781680482
 30
0.0
 11
-30.825642776245719
 21
3.6194171781680482
 31
0.0
 12
-30.83278198770509
 22
3.5980575861595101
 32
0.0
 13
-30.83278198770509
 23
3.5980575861595101
 33
0.0
210
0.0
220
0.0
230
-1.0
  0
SOLID
  5
F033
  8
0
  6
CONTINUOUS
 62
     7
 10
30.437591152689631
 20
3.5980575861595101
 30
0.0
 11
30.469372158541059
 21
3.5770425036994871
 31
0.0
 12
30.83980605059255
 22
3.5770425036994871
 32
0.0
 13
30.83980605059255
 23
3.5770425036994871
 33
0.0
  0
SOLID
  5
F034
  8
0
  6
CONTINUOUS
 62
     7
 10
-30.437591152689631
 20
3.5980575861595101
 30
0.0
 11
-30.83278198770509
 21
3.5980575861595101
 31
0.0
 12
-30.83980605059255
 22
3.5770425036994871
 32
0.0
 13
-30.83980605059255
 23
3.5770425036994871
 33
0.0
210
0.0
220
0.0
230
-1.0
  0
SOLID
  5
F035
  8
0
  6
CONTINUOUS
 62
     7
 10
30.469372158541059
 20
3.5770425036994871
 30
0.0
 11
30.501153164392491
 21
3.5560274212394631
 31
0.0
 12
30.850313591822559
 22
3.5560274212394631
 32
0.0
 13
30.850313591822559
 23
3.5560274212394631
 33
0.0
  0
SOLID
  5
F036
  8
0
  6
CONTINUOUS
 62
     7
 10
-30.469372158541059
 20
3.5770425036994871
 30
0.0
 11
-30.83980605059255
 21
3.5770425036994871
 31
0.0
 12
-30.850313591822559
 22
3.5560274212394631
 32
0.0
 13
-30.850313591822559
 23
3.5560274212394631
 33
0.0
210
0.0
220
0.0
230
-1.0
  0
SOLID
  5
F037
  8
0
  6
CONTINUOUS
 62
     7
 10
30.501153164392491
 20
3.5560274212394631
 30
0.0
 11
30.51183296039677
 21
3.5346678292308962
 31
0.0
 12
30.860993387826841
 22
3.5346678292308962
 32
0.0
 13
30.860993387826841
 23
3.5346678292308962
 33
0.0
  0
SOLID
  5
F038
  8
0
  6
CONTINUOUS
 62
     7
 10
-30.501153164392491
 20
3.5560274212394631
 30
0.0
 11
-30.850313591822559
 21
3.5560274212394631
 31
0.0
 12
-30.860993387826841
 22
3.5346678292308962
 32
0.0
 13
-30.860993387826841
 23
3.5346678292308962
 33
0.0
210
0.0
220
0.0
230
-1.0
  0
SOLID
  5
F039
  8
0
  6
CONTINUOUS
 62
     7
 10
30.51183296039677
 20
3.5346678292308962
 30
0.0
 11
30.522340501626768
 21
3.5136527467708709
 31
0.0
 12
30.868017450714291
 22
3.5136527467708709
 32
0.0
 13
30.868017450714291
 23
3.5136527467708709
 33
0.0
  0
SOLID
  5
F03A
  8
0
  6
CONTINUOUS
 62
     7
 10
-30.51183296039677
 20
3.5346678292308962
 30
0.0
 11
-30.860993387826841
 21
3.5346678292308962
 31
0.0
 12
-30.868017450714291
 22
3.5136527467708709
 32
0.0
 13
-30.868017450714291
 23
3.5136527467708709
 33
0.0
210
0.0
220
0.0
230
-1.0
  0
SOLID
  5
F03B
  8
0
  6
CONTINUOUS
 62
     7
 10
30.522340501626768
 20
3.5136527467708709
 30
0.0
 11
30.564715176095351
 21
3.4712780723023111
 31
0.0
 12
30.882180725061129
 22
3.4712780723023111
 32
0.0
 13
30.882180725061129
 23
3.4712780723023111
 33
0.0
  0
SOLID
  5
F03C
  8
0
  6
CONTINUOUS
 62
     7
 10
-30.522340501626768
 20
3.5136527467708709
 30
0.0
 11
-30.868017450714291
 21
3.5136527467708709
 31
0.0
 12
-30.882180725061129
 22
3.4712780723023111
 32
0.0
 13
-30.882180725061129
 23
3.4712780723023111
 33
0.0
210
0.0
220
0.0
230
-1.0
  0
SOLID
  5
F03D
  8
0
  6
CONTINUOUS
 62
     7
 10
30.564715176095351
 20
3.4712780723023111
 30
0.0
 11
30.585730258555369
 21
3.4289033978337189
 31
0.0
 12
30.896267441168249
 22
3.4289033978337189
 32
0.0
 13
30.896267441168249
 23
3.4289033978337189
 33
0.0
  0
SOLID
  5
F03E
  8
0
  6
CONTINUOUS
 62
     7
 10
-30.564715176095351
 20
3.4712780723023111
 30
0.0
 11
-30.882180725061129
 21
3.4712780723023111
 31
0.0
 12
-30.896267441168249
 22
3.4289033978337189
 32
0.0
 13
-30.896267441168249
 23
3.4289033978337189
 33
0.0
210
0.0
220
0.0
230
-1.0
  0
SOLID
  5
F03F
  8
0
  6
CONTINUOUS
 62
     7
 10
30.585730258555369
 20
3.4289033978337189
 30
0.0
 11
30.585730258555369
 21
3.407543805825183
 31
0.0
 12
30.90336806229541
 22
3.407543805825183
 32
0.0
 13
30.90336806229541
 23
3.407543805825183
 33
0.0
  0
SOLID
  5
F040
  8
0
  6
CONTINUOUS
 62
     7
 10
-30.585730258555369
 20
3.4289033978337189
 30
0.0
 11
-30.896267441168249
 21
3.4289033978337189
 31
0.0
 12
-30.90336806229541
 22
3.407543805825183
 32
0.0
 13
-30.90336806229541
 23
3.407543805825183
 33
0.0
210
0.0
220
0.0
230
-1.0
  0
SOLID
  5
F041
  8
0
  6
CONTINUOUS
 62
     7
 10
30.585730258555369
 20
3.407543805825183
 30
0.0
 11
30.585730258555369
 21
3.3655136409051352
 31
0.0
 12
30.91741618807032
 22
3.3655136409051352
 32
0.0
 13
30.91741618807032
 23
3.3655136409051352
 33
0.0
  0
SOLID
  5
F042
  8
0
  6
CONTINUOUS
 62
     7
 10
-30.585730258555369
 20
3.407543805825183
 30
0.0
 11
-30.90336806229541
 21
3.407543805825183
 31
0.0
 12
-30.91741618807032
 22
3.3655136409051352
 32
0.0
 13
-30.91741618807032
 23
3.3655136409051352
 33
0.0
210
0.0
220
0.0
230
-1.0
  0
SOLID
  5
F043
  8
0
  6
CONTINUOUS
 62
     7
 10
30.585730258555369
 20
3.3655136409051352
 30
0.0
 11
30.592830879682541
 21
3.344154048896598
 31
0.0
 12
30.924555399529702
 22
3.344154048896598
 32
0.0
 13
30.924555399529702
 23
3.344154048896598
 33
0.0
  0
SOLID
  5
F044
  8
0
  6
CONTINUOUS
 62
     7
 10
-30.585730258555369
 20
3.3655136409051352
 30
0.0
 11
-30.91741618807032
 21
3.3655136409051352
 31
0.0
 12
-30.924555399529702
 22
3.344154048896598
 32
0.0
 13
-30.924555399529702
 23
3.344154048896598
 33
0.0
210
0.0
220
0.0
230
-1.0
  0
SOLID
  5
F045
  8
0
  6
CONTINUOUS
 62
     7
 10
30.592830879682541
 20
3.344154048896598
 30
0.0
 11
30.60691759578966
 21
3.301779374428008
 31
0.0
 12
30.924555399529702
 22
3.301779374428008
 32
0.0
 13
30.924555399529702
 23
3.301779374428008
 33
0.0
  0
SOLID
  5
F046
  8
0
  6
CONTINUOUS
 62
     7
 10
-30.592830879682541
 20
3.344154048896598
 30
0.0
 11
-30.924555399529702
 21
3.344154048896598
 31
0.0
 12
-30.924555399529702
 22
3.301779374428008
 32
0.0
 13
-30.924555399529702
 23
3.301779374428008
 33
0.0
210
0.0
220
0.0
230
-1.0
  0
SOLID
  5
F047
  8
0
  6
CONTINUOUS
 62
     7
 10
30.60691759578966
 20
3.301779374428008
 30
0.0
 11
30.60691759578966
 21
3.217374535039395
 31
0.0
 12
30.924555399529702
 22
3.217374535039395
 32
0.0
 13
30.924555399529702
 23
3.217374535039395
 33
0.0
  0
SOLID
  5
F048
  8
0
  6
CONTINUOUS
 62
     7
 10
-30.60691759578966
 20
3.301779374428008
 30
0.0
 11
-30.924555399529702
 21
3.301779374428008
 31
0.0
 12
-30.924555399529702
 22
3.217374535039395
 32
0.0
 13
-30.924555399529702
 23
3.217374535039395
 33
0.0
210
0.0
220
0.0
230
-1.0
  0
SOLID
  5
F049
  8
0
  6
CONTINUOUS
 62
     7
 10
30.60691759578966
 20
3.217374535039395
 30
0.0
 11
30.628104933023948
 21
3.1326251861022429
 31
0.0
 12
30.924555399529702
 22
3.1326251861022429
 32
0.0
 13
30.924555399529702
 23
3.1326251861022429
 33
0.0
  0
SOLID
  5
F04A
  8
0
  6
CONTINUOUS
 62
     7
 10
-30.60691759578966
 20
3.217374535039395
 30
0.0
 11
-30.924555399529702
 21
3.217374535039395
 31
0.0
 12
-30.924555399529702
 22
3.1326251861022429
 32
0.0
 13
-30.924555399529702
 23
3.1326251861022429
 33
0.0
210
0.0
220
0.0
230
-1.0
  0
SOLID
  5
F04B
  8
0
  6
CONTINUOUS
 62
     7
 10
30.628104933023948
 20
3.1326251861022429
 30
0.0
 11
30.628104933023948
 21
3.0902505116336831
 31
0.0
 12
30.924555399529702
 22
3.0902505116336831
 32
0.0
 13
30.924555399529702
 23
3.0902505116336831
 33
0.0
  0
SOLID
  5
F04C
  8
0
  6
CONTINUOUS
 62
     7
 10
-30.628104933023948
 20
3.1326251861022429
 30
0.0
 11
-30.924555399529702
 21
3.1326251861022429
 31
0.0
 12
-30.924555399529702
 22
3.0902505116336831
 32
0.0
 13
-30.924555399529702
 23
3.0902505116336831
 33
0.0
210
0.0
220
0.0
230
-1.0
  0
SOLID
  5
F04D
  8
0
  6
CONTINUOUS
 62
     7
 10
30.628104933023948
 20
3.0902505116336831
 30
0.0
 11
30.60691759578966
 21
3.005501162696532
 31
0.0
 12
30.924555399529702
 22
3.005501162696532
 32
0.0
 13
30.924555399529702
 23
3.005501162696532
 33
0.0
  0
SOLID
  5
F04E
  8
0
  6
CONTINUOUS
 62
     7
 10
-30.628104933023948
 20
3.0902505116336831
 30
0.0
 11
-30.924555399529702
 21
3.0902505116336831
 31
0.0
 12
-30.924555399529702
 22
3.005501162696532
 32
0.0
 13
-30.924555399529702
 23
3.005501162696532
 33
0.0
210
0.0
220
0.0
230
-1.0
  0
SOLID
  5
F04F
  8
0
  6
CONTINUOUS
 62
     7
 10
30.60691759578966
 20
3.005501162696532
 30
0.0
 11
30.60691759578966
 21
2.9421114057679461
 31
0.0
 12
30.924555399529702
 22
2.9421114057679461
 32
0.0
 13
30.924555399529702
 23
2.9421114057679461
 33
0.0
  0
SOLID
  5
F050
  8
0
  6
CONTINUOUS
 62
     7
 10
-30.60691759578966
 20
3.005501162696532
 30
0.0
 11
-30.924555399529702
 21
3.005501162696532
 31
0.0
 12
-30.924555399529702
 22
2.9421114057679461
 32
0.0
 13
-30.924555399529702
 23
2.9421114057679461
 33
0.0
210
0.0
220
0.0
230
-1.0
  0
SOLID
  5
F051
  8
0
  6
CONTINUOUS
 62
     7
 10
30.60691759578966
 20
2.9421114057679461
 30
0.0
 11
30.599816974662492
 21
2.9207518137593791
 31
0.0
 12
30.924555399529702
 22
2.9207518137593791
 32
0.0
 13
30.924555399529702
 23
2.9207518137593791
 33
0.0
  0
SOLID
  5
F052
  8
0
  6
CONTINUOUS
 62
     7
 10
-30.60691759578966
 20
2.9421114057679461
 30
0.0
 11
-30.924555399529702
 21
2.9421114057679461
 31
0.0
 12
-30.924555399529702
 22
2.9207518137593791
 32
0.0
 13
-30.924555399529702
 23
2.9207518137593791
 33
0.0
210
0.0
220
0.0
230
-1.0
  0
SOLID
  5
F053
  8
0
  6
CONTINUOUS
 62
     7
 10
30.599816974662492
 20
2.9207518137593791
 30
0.0
 11
30.585730258555369
 21
2.878377139290818
 31
0.0
 12
30.913918491448811
 22
2.878377139290818
 32
0.0
 13
30.913918491448811
 23
2.878377139290818
 33
0.0
  0
SOLID
  5
F054
  8
0
  6
CONTINUOUS
 62
     7
 10
-30.599816974662492
 20
2.9207518137593791
 30
0.0
 11
-30.924555399529702
 21
2.9207518137593791
 31
0.0
 12
-30.913918491448811
 22
2.878377139290818
 32
0.0
 13
-30.913918491448811
 23
2.878377139290818
 33
0.0
210
0.0
220
0.0
230
-1.0
  0
SOLID
  5
F055
  8
0
  6
CONTINUOUS
 62
     7
 10
30.585730258555369
 20
2.878377139290818
 30
0.0
 11
30.585730258555369
 21
2.836346974370767
 31
0.0
 12
30.90336806229541
 22
2.836346974370767
 32
0.0
 13
30.90336806229541
 23
2.836346974370767
 33
0.0
  0
SOLID
  5
F056
  8
0
  6
CONTINUOUS
 62
     7
 10
-30.585730258555369
 20
2.878377139290818
 30
0.0
 11
-30.913918491448811
 21
2.878377139290818
 31
0.0
 12
-30.90336806229541
 22
2.836346974370767
 32
0.0
 13
-30.90336806229541
 23
2.836346974370767
 33
0.0
210
0.0
220
0.0
230
-1.0
  0
SOLID
  5
F057
  8
0
  6
CONTINUOUS
 62
     7
 10
30.585730258555369
 20
2.836346974370767
 30
0.0
 11
30.585730258555369
 21
2.8149873823622031
 31
0.0
 12
30.896267441168241
 22
2.8149873823622031
 32
0.0
 13
30.896267441168241
 23
2.8149873823622031
 33
0.0
  0
SOLID
  5
F058
  8
0
  6
CONTINUOUS
 62
     7
 10
-30.585730258555369
 20
2.836346974370767
 30
0.0
 11
-30.90336806229541
 21
2.836346974370767
 31
0.0
 12
-30.896267441168241
 22
2.8149873823622031
 32
0.0
 13
-30.896267441168241
 23
2.8149873823622031
 33
0.0
210
0.0
220
0.0
230
-1.0
  0
SOLID
  5
F059
  8
0
  6
CONTINUOUS
 62
     7
 10
30.585730258555369
 20
2.8149873823622031
 30
0.0
 11
30.57168213278047
 21
2.772612707893642
 31
0.0
 12
30.882180725061129
 22
2.772612707893642
 32
0.0
 13
30.882180725061129
 23
2.772612707893642
 33
0.0
  0
SOLID
  5
F05A
  8
0
  6
CONTINUOUS
 62
     7
 10
-30.585730258555369
 20
2.8149873823622031
 30
0.0
 11
-30.896267441168241
 21
2.8149873823622031
 31
0.0
 12
-30.882180725061129
 22
2.772612707893642
 32
0.0
 13
-30.882180725061129
 23
2.772612707893642
 33
0.0
210
0.0
220
0.0
230
-1.0
  0
SOLID
  5
F05B
  8
0
  6
CONTINUOUS
 62
     7
 10
30.57168213278047
 20
2.772612707893642
 30
0.0
 11
30.564715176095351
 21
2.7515976254336181
 31
0.0
 12
30.87167318383111
 22
2.7515976254336181
 32
0.0
 13
30.87167318383111
 23
2.7515976254336181
 33
0.0
  0
SOLID
  5
F05C
  8
0
  6
CONTINUOUS
 62
     7
 10
-30.57168213278047
 20
2.772612707893642
 30
0.0
 11
-30.882180725061129
 21
2.772612707893642
 31
0.0
 12
-30.87167318383111
 22
2.7515976254336181
 32
0.0
 13
-30.87167318383111
 23
2.7515976254336181
 33
0.0
210
0.0
220
0.0
230
-1.0
  0
SOLID
  5
F05D
  8
0
  6
CONTINUOUS
 62
     7
 10
30.564715176095351
 20
2.7515976254336181
 30
0.0
 11
30.543355584086811
 21
2.7302380334250791
 31
0.0
 12
30.860993387826841
 22
2.7302380334250791
 32
0.0
 13
30.860993387826841
 23
2.7302380334250791
 33
0.0
  0
SOLID
  5
F05E
  8
0
  6
CONTINUOUS
 62
     7
 10
-30.564715176095351
 20
2.7515976254336181
 30
0.0
 11
-30.87167318383111
 21
2.7515976254336181
 31
0.0
 12
-30.860993387826841
 22
2.7302380334250791
 32
0.0
 13
-30.860993387826841
 23
2.7302380334250791
 33
0.0
210
0.0
220
0.0
230
-1.0
  0
SOLID
  5
F05F
  8
0
  6
CONTINUOUS
 62
     7
 10
30.543355584086811
 20
2.7302380334250791
 30
0.0
 11
30.522340501626768
 21
2.7092229509650561
 31
0.0
 12
30.853969324939388
 22
2.7092229509650561
 32
0.0
 13
30.853969324939388
 23
2.7092229509650561
 33
0.0
  0
SOLID
  5
F060
  8
0
  6
CONTINUOUS
 62
     7
 10
-30.543355584086811
 20
2.7302380334250791
 30
0.0
 11
-30.860993387826841
 21
2.7302380334250791
 31
0.0
 12
-30.853969324939388
 22
2.7092229509650561
 32
0.0
 13
-30.853969324939388
 23
2.7092229509650561
 33
0.0
210
0.0
220
0.0
230
-1.0
  0
SOLID
  5
F061
  8
0
  6
CONTINUOUS
 62
     7
 10
30.522340501626768
 20
2.7092229509650561
 30
0.0
 11
30.501153164392491
 21
2.6668482764964661
 31
0.0
 12
30.83980605059255
 22
2.6668482764964661
 32
0.0
 13
30.83980605059255
 23
2.6668482764964661
 33
0.0
  0
SOLID
  5
F062
  8
0
  6
CONTINUOUS
 62
     7
 10
-30.522340501626768
 20
2.7092229509650561
 30
0.0
 11
-30.853969324939388
 21
2.7092229509650561
 31
0.0
 12
-30.83980605059255
 22
2.6668482764964661
 32
0.0
 13
-30.83980605059255
 23
2.6668482764964661
 33
0.0
210
0.0
220
0.0
230
-1.0
  0
SOLID
  5
F063
  8
0
  6
CONTINUOUS
 62
     7
 10
30.4799658271582
 20
2.6668482764964661
 30
0.0
 11
30.437591152689631
 21
2.624473602027904
 31
0.0
 12
30.797431376123981
 22
2.624473602027904
 32
0.0
 13
30.797431376123981
 23
2.624473602027904
 33
0.0
  0
SOLID
  5
F064
  8
0
  6
CONTINUOUS
 62
     7
 10
-30.4799658271582
 20
2.6668482764964661
 30
0.0
 11
-30.83980605059255
 21
2.6668482764964661
 31
0.0
 12
-30.797431376123981
 22
2.624473602027904
 32
0.0
 13
-30.797431376123981
 23
2.624473602027904
 33
0.0
210
0.0
220
0.0
230
-1.0
  0
SOLID
  5
F065
  8
0
  6
CONTINUOUS
 62
     7
 10
30.437591152689631
 20
2.624473602027904
 30
0.0
 11
30.374201395761041
 21
2.6034585195678801
 31
0.0
 12
30.790407313236521
 22
2.6034585195678801
 32
0.0
 13
30.790407313236521
 23
2.6034585195678801
 33
0.0
  0
SOLID
  5
F066
  8
0
  6
CONTINUOUS
 62
     7
 10
-30.437591152689631
 20
2.624473602027904
 30
0.0
 11
-30.797431376123981
 21
2.624473602027904
 31
0.0
 12
-30.790407313236521
 22
2.6034585195678801
 32
0.0
 13
-30.790407313236521
 23
2.6034585195678801
 33
0.0
210
0.0
220
0.0
230
-1.0
  0
SOLID
  5
F067
  8
0
  6
CONTINUOUS
 62
     7
 10
30.31063938405817
 20
2.6034585195678801
 30
0.0
 11
29.823847391992381
 21
2.582098927559314
 31
0.0
 12
30.783268101777139
 22
2.582098927559314
 32
0.0
 13
30.783268101777139
 23
2.582098927559314
 33
0.0
  0
SOLID
  5
F068
  8
0
  6
CONTINUOUS
 62
     7
 10
-30.31063938405817
 20
2.6034585195678801
 30
0.0
 11
-30.790407313236521
 21
2.6034585195678801
 31
0.0
 12
-30.783268101777139
 22
2.582098927559314
 32
0.0
 13
-30.783268101777139
 23
2.582098927559314
 33
0.0
210
0.0
220
0.0
230
-1.0
  0
SOLID
  5
F069
  8
0
  6
CONTINUOUS
 62
     7
 10
29.823847391992381
 20
2.582098927559314
 30
0.0
 11
29.866222066460939
 21
2.5610838450992901
 31
0.0
 12
30.77624403888969
 22
2.5610838450992901
 32
0.0
 13
30.77624403888969
 23
2.5610838450992901
 33
0.0
  0
SOLID
  5
F06A
  8
0
  6
CONTINUOUS
 62
     7
 10
-29.823847391992381
 20
2.582098927559314
 30
0.0
 11
-30.783268101777139
 21
2.582098927559314
 31
0.0
 12
-30.77624403888969
 22
2.5610838450992901
 32
0.0
 13
-30.77624403888969
 23
2.5610838450992901
 33
0.0
210
0.0
220
0.0
230
-1.0
  0
SOLID
  5
F06B
  8
0
  6
CONTINUOUS
 62
     7
 10
29.866222066460939
 20
2.5610838450992901
 30
0.0
 11
29.88723714892097
 21
2.539724253090752
 31
0.0
 12
30.754971274490941
 22
2.539724253090752
 32
0.0
 13
30.754971274490941
 23
2.539724253090752
 33
0.0
  0
SOLID
  5
F06C
  8
0
  6
CONTINUOUS
 62
     7
 10
-29.866222066460939
 20
2.5610838450992901
 30
0.0
 11
-30.77624403888969
 21
2.5610838450992901
 31
0.0
 12
-30.754971274490941
 22
2.539724253090752
 32
0.0
 13
-30.754971274490941
 23
2.539724253090752
 33
0.0
210
0.0
220
0.0
230
-1.0
  0
SOLID
  5
F06D
  8
0
  6
CONTINUOUS
 62
     7
 10
29.88723714892097
 20
2.539724253090752
 30
0.0
 11
29.908424486155251
 21
2.5187091706307281
 31
0.0
 12
30.734041619195381
 22
2.5187091706307281
 32
0.0
 13
30.734041619195381
 23
2.5187091706307281
 33
0.0
  0
SOLID
  5
F06E
  8
0
  6
CONTINUOUS
 62
     7
 10
-29.88723714892097
 20
2.539724253090752
 30
0.0
 11
-30.754971274490941
 21
2.539724253090752
 31
0.0
 12
-30.734041619195381
 22
2.5187091706307281
 32
0.0
 13
-30.734041619195381
 23
2.5187091706307281
 33
0.0
210
0.0
220
0.0
230
-1.0
  0
SOLID
  5
F06F
  8
0
  6
CONTINUOUS
 62
     7
 10
29.908424486155251
 20
2.5187091706307281
 30
0.0
 11
29.929611823389539
 21
2.497694088170701
 31
0.0
 12
30.691839199501061
 22
2.497694088170701
 32
0.0
 13
30.691839199501061
 23
2.497694088170701
 33
0.0
  0
SOLID
  5
F070
  8
0
  6
CONTINUOUS
 62
     7
 10
-29.908424486155251
 20
2.5187091706307281
 30
0.0
 11
-30.712854281961089
 21
2.5187091706307281
 31
0.0
 12
-30.691839199501061
 22
2.497694088170701
 32
0.0
 13
-30.691839199501061
 23
2.497694088170701
 33
0.0
210
0.0
220
0.0
230
-1.0
  0
SOLID
  5
F071
  8
0
  6
CONTINUOUS
 62
     7
 10
29.929611823389539
 20
2.497694088170701
 30
0.0
 11
29.961651211402359
 21
2.4763344961621661
 31
0.0
 12
30.670479607492521
 22
2.4763344961621661
 32
0.0
 13
30.670479607492521
 23
2.4763344961621661
 33
0.0
  0
SOLID
  5
F072
  8
0
  6
CONTINUOUS
 62
     7
 10
-29.929611823389539
 20
2.497694088170701
 30
0.0
 11
-30.691839199501061
 21
2.497694088170701
 31
0.0
 12
-30.670479607492521
 22
2.4763344961621661
 32
0.0
 13
-30.670479607492521
 23
2.4763344961621661
 33
0.0
210
0.0
220
0.0
230
-1.0
  0
SOLID
  5
F073
  8
0
  6
CONTINUOUS
 62
     7
 10
29.961651211402359
 20
2.4763344961621661
 30
0.0
 11
29.993173835092399
 21
2.4553194137021421
 31
0.0
 12
30.649464525032499
 22
2.4553194137021421
 32
0.0
 13
30.649464525032499
 23
2.4553194137021421
 33
0.0
  0
SOLID
  5
F074
  8
0
  6
CONTINUOUS
 62
     7
 10
-29.961651211402359
 20
2.4763344961621661
 30
0.0
 11
-30.670479607492521
 21
2.4763344961621661
 31
0.0
 12
-30.649464525032499
 22
2.4553194137021421
 32
0.0
 13
-30.649464525032499
 23
2.4553194137021421
 33
0.0
210
0.0
220
0.0
230
-1.0
  0
SOLID
  5
F075
  8
0
  6
CONTINUOUS
 62
     7
 10
29.993173835092399
 20
2.4553194137021421
 30
0.0
 11
30.025126395495452
 21
2.4339598216935761
 31
0.0
 12
30.628104933023948
 22
2.4339598216935761
 32
0.0
 13
30.628104933023948
 23
2.4339598216935761
 33
0.0
  0
SOLID
  5
F076
  8
0
  6
CONTINUOUS
 62
     7
 10
-29.993173835092399
 20
2.4553194137021421
 30
0.0
 11
-30.649464525032499
 21
2.4553194137021421
 31
0.0
 12
-30.628104933023948
 22
2.4339598216935761
 32
0.0
 13
-30.628104933023948
 23
2.4339598216935761
 33
0.0
210
0.0
220
0.0
230
-1.0
  0
SOLID
  5
F077
  8
0
  6
CONTINUOUS
 62
     7
 10
30.025126395495452
 20
2.4339598216935761
 30
0.0
 11
30.056563592021
 21
2.4129447392335521
 31
0.0
 12
30.564715176095351
 22
2.4129447392335521
 32
0.0
 13
30.564715176095351
 23
2.4129447392335521
 33
0.0
  0
SOLID
  5
F078
  8
0
  6
CONTINUOUS
 62
     7
 10
-30.025126395495452
 20
2.4339598216935761
 30
0.0
 11
-30.628104933023948
 21
2.4339598216935761
 31
0.0
 12
-30.564715176095351
 22
2.4129447392335521
 32
0.0
 13
-30.564715176095351
 23
2.4129447392335521
 33
0.0
210
0.0
220
0.0
230
-1.0
  0
SOLID
  5
F079
  8
0
  6
CONTINUOUS
 62
     7
 10
30.056563592021
 20
2.4129447392335521
 30
0.0
 11
30.098938266489569
 21
2.391585147225014
 31
0.0
 12
30.522340501626768
 22
2.391585147225014
 32
0.0
 13
30.522340501626768
 23
2.391585147225014
 33
0.0
  0
SOLID
  5
F07A
  8
0
  6
CONTINUOUS
 62
     7
 10
-30.056563592021
 20
2.4129447392335521
 30
0.0
 11
-30.564715176095351
 21
2.4129447392335521
 31
0.0
 12
-30.522340501626768
 22
2.391585147225014
 32
0.0
 13
-30.522340501626768
 23
2.391585147225014
 33
0.0
210
0.0
220
0.0
230
-1.0
  0
SOLID
  5
F07B
  8
0
  6
CONTINUOUS
 62
     7
 10
30.098938266489569
 20
2.391585147225014
 30
0.0
 11
30.162500278192429
 21
2.3705700647649901
 31
0.0
 12
30.458778489923919
 22
2.3705700647649901
 32
0.0
 13
30.458778489923919
 23
2.3705700647649901
 33
0.0
  0
SOLID
  5
F07C
  8
0
  6
CONTINUOUS
 62
     7
 10
-30.098938266489569
 20
2.391585147225014
 30
0.0
 11
-30.522340501626768
 21
2.391585147225014
 31
0.0
 12
-30.458778489923919
 22
2.3705700647649901
 32
0.0
 13
-30.458778489923919
 23
2.3705700647649901
 33
0.0
210
0.0
220
0.0
230
-1.0
  0
LINE
  5
F07D
  8
0
  6
CONTINUOUS
 62
     7
 10
30.289452046823889
 20
3.873320715430963
 30
0.0
 11
30.226062289895289
 21
3.8523056329709391
 31
0.0
  0
LINE
  5
F07E
  8
0
  6
CONTINUOUS
 62
     7
 10
30.4799658271582
 20
3.873320715430963
 30
0.0
 11
30.54352783886106
 21
3.8523056329709391
 31
0.0
  0
LINE
  5
F07F
  8
0
  6
CONTINUOUS
 62
     7
 10
30.226062289895289
 20
3.8523056329709391
 30
0.0
 11
30.162500278192429
 21
3.830946040962401
 31
0.0
  0
LINE
  5
F080
  8
0
  6
CONTINUOUS
 62
     7
 10
30.54352783886106
 20
3.8523056329709391
 30
0.0
 11
30.60691759578966
 21
3.830946040962401
 31
0.0
  0
LINE
  5
F081
  8
0
  6
CONTINUOUS
 62
     7
 10
30.162500278192429
 20
3.830946040962401
 30
0.0
 11
30.098938266489569
 21
3.8099309585023762
 31
0.0
  0
LINE
  5
F082
  8
0
  6
CONTINUOUS
 62
     7
 10
30.60691759578966
 20
3.830946040962401
 30
0.0
 11
30.627932678249682
 21
3.8099309585023762
 31
0.0
  0
LINE
  5
F083
  8
0
  6
CONTINUOUS
 62
     7
 10
30.098938266489569
 20
3.8099309585023762
 30
0.0
 11
30.077578674481021
 21
3.7885713664938101
 31
0.0
  0
LINE
  5
F084
  8
0
  6
CONTINUOUS
 62
     7
 10
30.627932678249682
 20
3.8099309585023762
 30
0.0
 11
30.649292270258229
 21
3.7885713664938101
 31
0.0
  0
LINE
  5
F085
  8
0
  6
CONTINUOUS
 62
     7
 10
30.077578674481021
 20
3.7885713664938101
 30
0.0
 11
30.056563592021
 21
3.7675562840337871
 31
0.0
  0
LINE
  5
F086
  8
0
  6
CONTINUOUS
 62
     7
 10
30.649292270258229
 20
3.7885713664938101
 30
0.0
 11
30.681073276109661
 21
3.7675562840337871
 31
0.0
  0
LINE
  5
F087
  8
0
  6
CONTINUOUS
 62
     7
 10
30.056563592021
 20
3.7675562840337871
 30
0.0
 11
30.056563592021
 21
3.74654120157376
 31
0.0
  0
LINE
  5
F088
  8
0
  6
CONTINUOUS
 62
     7
 10
30.681073276109661
 20
3.7675562840337871
 30
0.0
 11
30.712854281961089
 21
3.74654120157376
 31
0.0
  0
LINE
  5
F089
  8
0
  6
CONTINUOUS
 62
     7
 10
30.056563592021
 20
3.74654120157376
 30
0.0
 11
30.02461103161798
 21
3.725181609565225
 31
0.0
  0
LINE
  5
F08A
  8
0
  6
CONTINUOUS
 62
     7
 10
30.712854281961089
 20
3.74654120157376
 30
0.0
 11
30.734041619195381
 21
3.725181609565225
 31
0.0
  0
LINE
  5
F08B
  8
0
  6
CONTINUOUS
 62
     7
 10
30.02461103161798
 20
3.725181609565225
 30
0.0
 11
29.993173835092399
 21
3.7041665271051989
 31
0.0
  0
LINE
  5
F08C
  8
0
  6
CONTINUOUS
 62
     7
 10
30.734041619195381
 20
3.725181609565225
 30
0.0
 11
30.75497127449092
 21
3.7041665271051989
 31
0.0
  0
LINE
  5
F08D
  8
0
  6
CONTINUOUS
 62
     7
 10
29.993173835092399
 20
3.7041665271051989
 30
0.0
 11
29.978972592838058
 21
3.6828069350966328
 31
0.0
  0
LINE
  5
F08E
  8
0
  6
CONTINUOUS
 62
     7
 10
30.75497127449092
 20
3.7041665271051989
 30
0.0
 11
30.77624403888969
 21
3.6828069350966328
 31
0.0
  0
LINE
  5
F08F
  8
0
  6
CONTINUOUS
 62
     7
 10
29.978972592838058
 20
3.6828069350966328
 30
0.0
 11
29.950799160623831
 21
3.640432260628073
 31
0.0
  0
LINE
  5
F090
  8
0
  6
CONTINUOUS
 62
     7
 10
30.77624403888969
 20
3.6828069350966328
 30
0.0
 11
30.818618713358269
 21
3.640432260628073
 31
0.0
  0
LINE
  5
F091
  8
0
  6
CONTINUOUS
 62
     7
 10
30.331826721292469
 20
3.640432260628073
 30
0.0
 11
30.395388732995318
 21
3.6194171781680482
 31
0.0
  0
LINE
  5
F092
  8
0
  6
CONTINUOUS
 62
     7
 10
30.818618713358269
 20
3.640432260628073
 30
0.0
 11
30.825642776245719
 21
3.6194171781680482
 31
0.0
  0
LINE
  5
F093
  8
0
  6
CONTINUOUS
 62
     7
 10
30.395388732995318
 20
3.6194171781680482
 30
0.0
 11
30.437591152689631
 21
3.5980575861595101
 31
0.0
  0
LINE
  5
F094
  8
0
  6
CONTINUOUS
 62
     7
 10
30.825642776245719
 20
3.6194171781680482
 30
0.0
 11
30.83278198770509
 21
3.5980575861595101
 31
0.0
  0
LINE
  5
F095
  8
0
  6
CONTINUOUS
 62
     7
 10
30.437591152689631
 20
3.5980575861595101
 30
0.0
 11
30.469372158541059
 21
3.5770425036994871
 31
0.0
  0
LINE
  5
F096
  8
0
  6
CONTINUOUS
 62
     7
 10
30.83278198770509
 20
3.5980575861595101
 30
0.0
 11
30.83980605059255
 21
3.5770425036994871
 31
0.0
  0
LINE
  5
F097
  8
0
  6
CONTINUOUS
 62
     7
 10
30.469372158541059
 20
3.5770425036994871
 30
0.0
 11
30.501153164392491
 21
3.5560274212394631
 31
0.0
  0
LINE
  5
F098
  8
0
  6
CONTINUOUS
 62
     7
 10
30.83980605059255
 20
3.5770425036994871
 30
0.0
 11
30.850313591822559
 21
3.5560274212394631
 31
0.0
  0
LINE
  5
F099
  8
0
  6
CONTINUOUS
 62
     7
 10
30.501153164392491
 20
3.5560274212394631
 30
0.0
 11
30.51183296039677
 21
3.5346678292308962
 31
0.0
  0
LINE
  5
F09A
  8
0
  6
CONTINUOUS
 62
     7
 10
30.850313591822559
 20
3.5560274212394631
 30
0.0
 11
30.860993387826841
 21
3.5346678292308962
 31
0.0
  0
LINE
  5
F09B
  8
0
  6
CONTINUOUS
 62
     7
 10
30.51183296039677
 20
3.5346678292308962
 30
0.0
 11
30.522340501626768
 21
3.5136527467708709
 31
0.0
  0
LINE
  5
F09C
  8
0
  6
CONTINUOUS
 62
     7
 10
30.860993387826841
 20
3.5346678292308962
 30
0.0
 11
30.868017450714291
 21
3.5136527467708709
 31
0.0
  0
LINE
  5
F09D
  8
0
  6
CONTINUOUS
 62
     7
 10
30.522340501626768
 20
3.5136527467708709
 30
0.0
 11
30.564715176095351
 21
3.4712780723023111
 31
0.0
  0
LINE
  5
F09E
  8
0
  6
CONTINUOUS
 62
     7
 10
30.868017450714291
 20
3.5136527467708709
 30
0.0
 11
30.882180725061129
 21
3.4712780723023111
 31
0.0
  0
LINE
  5
F09F
  8
0
  6
CONTINUOUS
 62
     7
 10
30.564715176095351
 20
3.4712780723023111
 30
0.0
 11
30.585730258555369
 21
3.4289033978337189
 31
0.0
  0
LINE
  5
F0A0
  8
0
  6
CONTINUOUS
 62
     7
 10
30.882180725061129
 20
3.4712780723023111
 30
0.0
 11
30.896267441168249
 21
3.4289033978337189
 31
0.0
  0
LINE
  5
F0A1
  8
0
  6
CONTINUOUS
 62
     7
 10
30.585730258555369
 20
3.4289033978337189
 30
0.0
 11
30.585730258555369
 21
3.407543805825183
 31
0.0
  0
LINE
  5
F0A2
  8
0
  6
CONTINUOUS
 62
     7
 10
30.896267441168249
 20
3.4289033978337189
 30
0.0
 11
30.90336806229541
 21
3.407543805825183
 31
0.0
  0
LINE
  5
F0A3
  8
0
  6
CONTINUOUS
 62
     7
 10
30.585730258555369
 20
3.407543805825183
 30
0.0
 11
30.585730258555369
 21
3.3655136409051352
 31
0.0
  0
LINE
  5
F0A4
  8
0
  6
CONTINUOUS
 62
     7
 10
30.90336806229541
 20
3.407543805825183
 30
0.0
 11
30.91741618807032
 21
3.3655136409051352
 31
0.0
  0
LINE
  5
F0A5
  8
0
  6
CONTINUOUS
 62
     7
 10
30.585730258555369
 20
3.3655136409051352
 30
0.0
 11
30.592830879682541
 21
3.344154048896598
 31
0.0
  0
LINE
  5
F0A6
  8
0
  6
CONTINUOUS
 62
     7
 10
30.91741618807032
 20
3.3655136409051352
 30
0.0
 11
30.924555399529702
 21
3.344154048896598
 31
0.0
  0
LINE
  5
F0A7
  8
0
  6
CONTINUOUS
 62
     7
 10
30.592830879682541
 20
3.344154048896598
 30
0.0
 11
30.60691759578966
 21
3.301779374428008
 31
0.0
  0
LINE
  5
F0A8
  8
0
  6
CONTINUOUS
 62
     7
 10
30.924555399529702
 20
3.344154048896598
 30
0.0
 11
30.924555399529702
 21
3.301779374428008
 31
0.0
  0
LINE
  5
F0A9
  8
0
  6
CONTINUOUS
 62
     7
 10
30.60691759578966
 20
3.301779374428008
 30
0.0
 11
30.60691759578966
 21
3.217374535039395
 31
0.0
  0
LINE
  5
F0AA
  8
0
  6
CONTINUOUS
 62
     7
 10
30.924555399529702
 20
3.301779374428008
 30
0.0
 11
30.924555399529702
 21
3.217374535039395
 31
0.0
  0
LINE
  5
F0AB
  8
0
  6
CONTINUOUS
 62
     7
 10
30.60691759578966
 20
3.217374535039395
 30
0.0
 11
30.628104933023948
 21
3.1326251861022429
 31
0.0
  0
LINE
  5
F0AC
  8
0
  6
CONTINUOUS
 62
     7
 10
30.924555399529702
 20
3.217374535039395
 30
0.0
 11
30.924555399529702
 21
3.1326251861022429
 31
0.0
  0
LINE
  5
F0AD
  8
0
  6
CONTINUOUS
 62
     7
 10
30.628104933023948
 20
3.1326251861022429
 30
0.0
 11
30.628104933023948
 21
3.0902505116336831
 31
0.0
  0
LINE
  5
F0AE
  8
0
  6
CONTINUOUS
 62
     7
 10
30.924555399529702
 20
3.1326251861022429
 30
0.0
 11
30.924555399529702
 21
3.0902505116336831
 31
0.0
  0
LINE
  5
F0AF
  8
0
  6
CONTINUOUS
 62
     7
 10
30.628104933023948
 20
3.0902505116336831
 30
0.0
 11
30.60691759578966
 21
3.005501162696532
 31
0.0
  0
LINE
  5
F0B0
  8
0
  6
CONTINUOUS
 62
     7
 10
30.924555399529702
 20
3.0902505116336831
 30
0.0
 11
30.924555399529702
 21
3.005501162696532
 31
0.0
  0
LINE
  5
F0B1
  8
0
  6
CONTINUOUS
 62
     7
 10
30.60691759578966
 20
3.005501162696532
 30
0.0
 11
30.60691759578966
 21
2.9421114057679461
 31
0.0
  0
LINE
  5
F0B2
  8
0
  6
CONTINUOUS
 62
     7
 10
30.924555399529702
 20
3.005501162696532
 30
0.0
 11
30.924555399529702
 21
2.9421114057679461
 31
0.0
  0
LINE
  5
F0B3
  8
0
  6
CONTINUOUS
 62
     7
 10
30.60691759578966
 20
2.9421114057679461
 30
0.0
 11
30.599816974662492
 21
2.9207518137593791
 31
0.0
  0
LINE
  5
F0B4
  8
0
  6
CONTINUOUS
 62
     7
 10
30.924555399529702
 20
2.9421114057679461
 30
0.0
 11
30.924555399529702
 21
2.9207518137593791
 31
0.0
  0
LINE
  5
F0B5
  8
0
  6
CONTINUOUS
 62
     7
 10
30.599816974662492
 20
2.9207518137593791
 30
0.0
 11
30.585730258555369
 21
2.878377139290818
 31
0.0
  0
LINE
  5
F0B6
  8
0
  6
CONTINUOUS
 62
     7
 10
30.924555399529702
 20
2.9207518137593791
 30
0.0
 11
30.913918491448811
 21
2.878377139290818
 31
0.0
  0
LINE
  5
F0B7
  8
0
  6
CONTINUOUS
 62
     7
 10
30.585730258555369
 20
2.878377139290818
 30
0.0
 11
30.585730258555369
 21
2.836346974370767
 31
0.0
  0
LINE
  5
F0B8
  8
0
  6
CONTINUOUS
 62
     7
 10
30.913918491448811
 20
2.878377139290818
 30
0.0
 11
30.90336806229541
 21
2.836346974370767
 31
0.0
  0
LINE
  5
F0B9
  8
0
  6
CONTINUOUS
 62
     7
 10
30.585730258555369
 20
2.836346974370767
 30
0.0
 11
30.585730258555369
 21
2.8149873823622031
 31
0.0
  0
LINE
  5
F0BA
  8
0
  6
CONTINUOUS
 62
     7
 10
30.90336806229541
 20
2.836346974370767
 30
0.0
 11
30.896267441168241
 21
2.8149873823622031
 31
0.0
  0
LINE
  5
F0BB
  8
0
  6
CONTINUOUS
 62
     7
 10
30.585730258555369
 20
2.8149873823622031
 30
0.0
 11
30.57168213278047
 21
2.772612707893642
 31
0.0
  0
LINE
  5
F0BC
  8
0
  6
CONTINUOUS
 62
     7
 10
30.896267441168241
 20
2.8149873823622031
 30
0.0
 11
30.882180725061129
 21
2.772612707893642
 31
0.0
  0
LINE
  5
F0BD
  8
0
  6
CONTINUOUS
 62
     7
 10
30.57168213278047
 20
2.772612707893642
 30
0.0
 11
30.564715176095351
 21
2.7515976254336181
 31
0.0
  0
LINE
  5
F0BE
  8
0
  6
CONTINUOUS
 62
     7
 10
30.882180725061129
 20
2.772612707893642
 30
0.0
 11
30.87167318383111
 21
2.7515976254336181
 31
0.0
  0
LINE
  5
F0BF
  8
0
  6
CONTINUOUS
 62
     7
 10
30.564715176095351
 20
2.7515976254336181
 30
0.0
 11
30.543355584086811
 21
2.7302380334250791
 31
0.0
  0
LINE
  5
F0C0
  8
0
  6
CONTINUOUS
 62
     7
 10
30.87167318383111
 20
2.7515976254336181
 30
0.0
 11
30.860993387826841
 21
2.7302380334250791
 31
0.0
  0
LINE
  5
F0C1
  8
0
  6
CONTINUOUS
 62
     7
 10
30.543355584086811
 20
2.7302380334250791
 30
0.0
 11
30.522340501626768
 21
2.7092229509650561
 31
0.0
  0
LINE
  5
F0C2
  8
0
  6
CONTINUOUS
 62
     7
 10
30.860993387826841
 20
2.7302380334250791
 30
0.0
 11
30.853969324939388
 21
2.7092229509650561
 31
0.0
  0
LINE
  5
F0C3
  8
0
  6
CONTINUOUS
 62
     7
 10
30.522340501626768
 20
2.7092229509650561
 30
0.0
 11
30.501153164392491
 21
2.6668482764964661
 31
0.0
  0
LINE
  5
F0C4
  8
0
  6
CONTINUOUS
 62
     7
 10
30.853969324939388
 20
2.7092229509650561
 30
0.0
 11
30.83980605059255
 21
2.6668482764964661
 31
0.0
  0
LINE
  5
F0C5
  8
0
  6
CONTINUOUS
 62
     7
 10
30.4799658271582
 20
2.6668482764964661
 30
0.0
 11
30.437591152689631
 21
2.624473602027904
 31
0.0
  0
LINE
  5
F0C6
  8
0
  6
CONTINUOUS
 62
     7
 10
30.83980605059255
 20
2.6668482764964661
 30
0.0
 11
30.797431376123981
 21
2.624473602027904
 31
0.0
  0
LINE
  5
F0C7
  8
0
  6
CONTINUOUS
 62
     7
 10
30.437591152689631
 20
2.624473602027904
 30
0.0
 11
30.374201395761041
 21
2.6034585195678801
 31
0.0
  0
LINE
  5
F0C8
  8
0
  6
CONTINUOUS
 62
     7
 10
30.797431376123981
 20
2.624473602027904
 30
0.0
 11
30.790407313236521
 21
2.6034585195678801
 31
0.0
  0
LINE
  5
F0C9
  8
0
  6
CONTINUOUS
 62
     7
 10
30.31063938405817
 20
2.6034585195678801
 30
0.0
 11
29.823847391992381
 21
2.582098927559314
 31
0.0
  0
LINE
  5
F0CA
  8
0
  6
CONTINUOUS
 62
     7
 10
30.790407313236521
 20
2.6034585195678801
 30
0.0
 11
30.783268101777139
 21
2.582098927559314
 31
0.0
  0
LINE
  5
F0CB
  8
0
  6
CONTINUOUS
 62
     7
 10
29.823847391992381
 20
2.582098927559314
 30
0.0
 11
29.866222066460939
 21
2.5610838450992901
 31
0.0
  0
LINE
  5
F0CC
  8
0
  6
CONTINUOUS
 62
     7
 10
30.783268101777139
 20
2.582098927559314
 30
0.0
 11
30.77624403888969
 21
2.5610838450992901
 31
0.0
  0
LINE
  5
F0CD
  8
0
  6
CONTINUOUS
 62
     7
 10
29.866222066460939
 20
2.5610838450992901
 30
0.0
 11
29.88723714892097
 21
2.539724253090752
 31
0.0
  0
LINE
  5
F0CE
  8
0
  6
CONTINUOUS
 62
     7
 10
30.77624403888969
 20
2.5610838450992901
 30
0.0
 11
30.754971274490941
 21
2.539724253090752
 31
0.0
  0
LINE
  5
F0CF
  8
0
  6
CONTINUOUS
 62
     7
 10
29.88723714892097
 20
2.539724253090752
 30
0.0
 11
29.908424486155251
 21
2.5187091706307281
 31
0.0
  0
LINE
  5
F0D0
  8
0
  6
CONTINUOUS
 62
     7
 10
30.754971274490941
 20
2.539724253090752
 30
0.0
 11
30.734041619195381
 21
2.5187091706307281
 31
0.0
  0
LINE
  5
F0D1
  8
0
  6
CONTINUOUS
 62
     7
 10
29.908424486155251
 20
2.5187091706307281
 30
0.0
 11
29.929611823389539
 21
2.497694088170701
 31
0.0
  0
LINE
  5
F0D2
  8
0
  6
CONTINUOUS
 62
     7
 10
30.712854281961089
 20
2.5187091706307281
 30
0.0
 11
30.691839199501061
 21
2.497694088170701
 31
0.0
  0
LINE
  5
F0D3
  8
0
  6
CONTINUOUS
 62
     7
 10
29.929611823389539
 20
2.497694088170701
 30
0.0
 11
29.961651211402359
 21
2.4763344961621661
 31
0.0
  0
LINE
  5
F0D4
  8
0
  6
CONTINUOUS
 62
     7
 10
30.691839199501061
 20
2.497694088170701
 30
0.0
 11
30.670479607492521
 21
2.4763344961621661
 31
0.0
  0
LINE
  5
F0D5
  8
0
  6
CONTINUOUS
 62
     7
 10
29.961651211402359
 20
2.4763344961621661
 30
0.0
 11
29.993173835092399
 21
2.4553194137021421
 31
0.0
  0
LINE
  5
F0D6
  8
0
  6
CONTINUOUS
 62
     7
 10
30.670479607492521
 20
2.4763344961621661
 30
0.0
 11
30.649464525032499
 21
2.4553194137021421
 31
0.0
  0
LINE
  5
F0D7
  8
0
  6
CONTINUOUS
 62
     7
 10
29.993173835092399
 20
2.4553194137021421
 30
0.0
 11
30.025126395495452
 21
2.4339598216935761
 31
0.0
  0
LINE
  5
F0D8
  8
0
  6
CONTINUOUS
 62
     7
 10
30.649464525032499
 20
2.4553194137021421
 30
0.0
 11
30.628104933023948
 21
2.4339598216935761
 31
0.0
  0
LINE
  5
F0D9
  8
0
  6
CONTINUOUS
 62
     7
 10
30.025126395495452
 20
2.4339598216935761
 30
0.0
 11
30.056563592021
 21
2.4129447392335521
 31
0.0
  0
LINE
  5
F0DA
  8
0
  6
CONTINUOUS
 62
     7
 10
30.628104933023948
 20
2.4339598216935761
 30
0.0
 11
30.564715176095351
 21
2.4129447392335521
 31
0.0
  0
LINE
  5
F0DB
  8
0
  6
CONTINUOUS
 62
     7
 10
30.056563592021
 20
2.4129447392335521
 30
0.0
 11
30.098938266489569
 21
2.391585147225014
 31
0.0
  0
LINE
  5
F0DC
  8
0
  6
CONTINUOUS
 62
     7
 10
30.564715176095351
 20
2.4129447392335521
 30
0.0
 11
30.522340501626768
 21
2.391585147225014
 31
0.0
  0
LINE
  5
F0DD
  8
0
  6
CONTINUOUS
 62
     7
 10
30.098938266489569
 20
2.391585147225014
 30
0.0
 11
30.162500278192429
 21
2.3705700647649901
 31
0.0
  0
LINE
  5
F0DE
  8
0
  6
CONTINUOUS
 62
     7
 10
30.522340501626768
 20
2.391585147225014
 30
0.0
 11
30.458778489923919
 21
2.3705700647649901
 31
0.0
  0
ENDBLK
  5
F0E0
  8
0
  0
BLOCK
  8
0
  2
*U12
 70
     1
 10
0.0
 20
0.0
 30
0.0
  3
*U12
  1

  0
SOLID
  5
F0E2
  8
0
  6
CONTINUOUS
 62
     7
 10
29.866222066460939
 20
4.4238469739738919
 30
0.0
 11
29.85554227045666
 21
4.4024873819653294
 31
0.0
 12
30.331826721292469
 22
4.4024873819653294
 32
0.0
 13
30.331826721292469
 23
4.4024873819653294
 33
0.0
  0
SOLID
  5
F0E3
  8
0
  6
CONTINUOUS
 62
     7
 10
29.85554227045666
 20
4.4024873819653294
 30
0.0
 11
29.845034729226661
 21
4.3814722995053019
 31
0.0
 12
30.204874952661001
 22
4.3814722995053019
 32
0.0
 13
30.204874952661001
 23
4.3814722995053019
 33
0.0
  0
SOLID
  5
F0E4
  8
0
  6
CONTINUOUS
 62
     7
 10
-29.85554227045666
 20
4.4024873819653294
 30
0.0
 11
-30.268264709589602
 21
4.4024873819653294
 31
0.0
 12
-30.204874952661001
 22
4.3814722995053019
 32
0.0
 13
-30.204874952661001
 23
4.3814722995053019
 33
0.0
210
0.0
220
0.0
230
-1.0
  0
SOLID
  5
F0E5
  8
0
  6
CONTINUOUS
 62
     7
 10
29.845034729226661
 20
4.3814722995053019
 30
0.0
 11
29.816861297012409
 21
4.339097625036743
 31
0.0
 12
30.141312940958152
 22
4.339097625036743
 32
0.0
 13
30.141312940958152
 23
4.339097625036743
 33
0.0
  0
SOLID
  5
F0E6
  8
0
  6
CONTINUOUS
 62
     7
 10
-29.845034729226661
 20
4.3814722995053019
 30
0.0
 11
-30.204874952661001
 21
4.3814722995053019
 31
0.0
 12
-30.141312940958152
 22
4.339097625036743
 32
0.0
 13
-30.141312940958152
 23
4.339097625036743
 33
0.0
210
0.0
220
0.0
230
-1.0
  0
SOLID
  5
F0E7
  8
0
  6
CONTINUOUS
 62
     7
 10
29.816861297012409
 20
4.339097625036743
 30
0.0
 11
29.802660054758078
 21
4.3177380330282062
 31
0.0
 12
30.141312940958152
 22
4.3177380330282062
 32
0.0
 13
30.141312940958152
 23
4.3177380330282062
 33
0.0
  0
SOLID
  5
F0E8
  8
0
  6
CONTINUOUS
 62
     7
 10
-29.816861297012409
 20
4.339097625036743
 30
0.0
 11
-30.141312940958152
 21
4.339097625036743
 31
0.0
 12
-30.141312940958152
 22
4.3177380330282062
 32
0.0
 13
-30.141312940958152
 23
4.3177380330282062
 33
0.0
210
0.0
220
0.0
230
-1.0
  0
SOLID
  5
F0E9
  8
0
  6
CONTINUOUS
 62
     7
 10
29.802660054758078
 20
4.3177380330282062
 30
0.0
 11
29.781472717523801
 21
4.275707868108154
 31
0.0
 12
30.098938266489569
 22
4.275707868108154
 32
0.0
 13
30.098938266489569
 23
4.275707868108154
 33
0.0
  0
SOLID
  5
F0EA
  8
0
  6
CONTINUOUS
 62
     7
 10
-29.802660054758078
 20
4.3177380330282062
 30
0.0
 11
-30.141312940958152
 21
4.3177380330282062
 31
0.0
 12
-30.098938266489569
 22
4.275707868108154
 32
0.0
 13
-30.098938266489569
 23
4.275707868108154
 33
0.0
210
0.0
220
0.0
230
-1.0
  0
SOLID
  5
F0EB
  8
0
  6
CONTINUOUS
 62
     7
 10
29.781472717523801
 20
4.275707868108154
 30
0.0
 11
29.76028538028952
 21
4.233333193639564
 31
0.0
 12
30.077750929255281
 22
4.233333193639564
 32
0.0
 13
30.077750929255281
 23
4.233333193639564
 33
0.0
  0
SOLID
  5
F0EC
  8
0
  6
CONTINUOUS
 62
     7
 10
-29.781472717523801
 20
4.275707868108154
 30
0.0
 11
-30.098938266489569
 21
4.275707868108154
 31
0.0
 12
-30.077750929255281
 22
4.233333193639564
 32
0.0
 13
-30.077750929255281
 23
4.233333193639564
 33
0.0
210
0.0
220
0.0
230
-1.0
  0
SOLID
  5
F0ED
  8
0
  6
CONTINUOUS
 62
     7
 10
29.76028538028952
 20
4.233333193639564
 30
0.0
 11
29.746198664182391
 21
4.190958519171005
 31
0.0
 12
30.035548509560979
 22
4.190958519171005
 32
0.0
 13
30.035548509560979
 23
4.190958519171005
 33
0.0
  0
SOLID
  5
F0EE
  8
0
  6
CONTINUOUS
 62
     7
 10
-29.76028538028952
 20
4.233333193639564
 30
0.0
 11
-30.077750929255281
 21
4.233333193639564
 31
0.0
 12
-30.035548509560979
 22
4.190958519171005
 32
0.0
 13
-30.035548509560979
 23
4.190958519171005
 33
0.0
210
0.0
220
0.0
230
-1.0
  0
SOLID
  5
F0EF
  8
0
  6
CONTINUOUS
 62
     7
 10
29.746198664182391
 20
4.190958519171005
 30
0.0
 11
29.739098043055218
 21
4.1695989271624381
 31
0.0
 12
30.0248687135567
 22
4.1695989271624381
 32
0.0
 13
30.0248687135567
 23
4.1695989271624381
 33
0.0
  0
SOLID
  5
F0F0
  8
0
  6
CONTINUOUS
 62
     7
 10
-29.746198664182391
 20
4.190958519171005
 30
0.0
 11
-30.035548509560979
 21
4.190958519171005
 31
0.0
 12
-30.0248687135567
 22
4.1695989271624381
 32
0.0
 13
-30.0248687135567
 23
4.1695989271624381
 33
0.0
210
0.0
220
0.0
230
-1.0
  0
SOLID
  5
F0F1
  8
0
  6
CONTINUOUS
 62
     7
 10
29.739098043055218
 20
4.1695989271624381
 30
0.0
 11
29.732073980167769
 21
4.148583844702415
 31
0.0
 12
30.014361172326701
 22
4.148583844702415
 32
0.0
 13
30.014361172326701
 23
4.148583844702415
 33
0.0
  0
SOLID
  5
F0F2
  8
0
  6
CONTINUOUS
 62
     7
 10
-29.739098043055218
 20
4.1695989271624381
 30
0.0
 11
-30.0248687135567
 21
4.1695989271624381
 31
0.0
 12
-30.014361172326701
 22
4.148583844702415
 32
0.0
 13
-30.014361172326701
 23
4.148583844702415
 33
0.0
210
0.0
220
0.0
230
-1.0
  0
SOLID
  5
F0F3
  8
0
  6
CONTINUOUS
 62
     7
 10
29.732073980167769
 20
4.148583844702415
 30
0.0
 11
29.717910705820941
 21
4.1062091702338508
 31
0.0
 12
30.000197897979859
 22
4.1062091702338508
 32
0.0
 13
30.000197897979859
 23
4.1062091702338508
 33
0.0
  0
SOLID
  5
F0F4
  8
0
  6
CONTINUOUS
 62
     7
 10
-29.732073980167769
 20
4.148583844702415
 30
0.0
 11
-30.014361172326701
 21
4.148583844702415
 31
0.0
 12
-30.000197897979859
 22
4.1062091702338508
 32
0.0
 13
-30.000197897979859
 23
4.1062091702338508
 33
0.0
210
0.0
220
0.0
230
-1.0
  0
SOLID
  5
F0F5
  8
0
  6
CONTINUOUS
 62
     7
 10
29.717910705820941
 20
4.1062091702338508
 30
0.0
 11
29.710943749135819
 21
4.0851940877738251
 31
0.0
 12
29.993173835092399
 22
4.0851940877738251
 32
0.0
 13
29.993173835092399
 23
4.0851940877738251
 33
0.0
  0
SOLID
  5
F0F6
  8
0
  6
CONTINUOUS
 62
     7
 10
-29.717910705820941
 20
4.1062091702338508
 30
0.0
 11
-30.000197897979859
 21
4.1062091702338508
 31
0.0
 12
-29.993173835092399
 22
4.0851940877738251
 32
0.0
 13
-29.993173835092399
 23
4.0851940877738251
 33
0.0
210
0.0
220
0.0
230
-1.0
  0
SOLID
  5
F0F7
  8
0
  6
CONTINUOUS
 62
     7
 10
29.710943749135819
 20
4.0851940877738251
 30
0.0
 11
29.69689562336092
 21
4.0428194133052671
 31
0.0
 12
29.97908711898528
 22
4.0428194133052671
 32
0.0
 13
29.97908711898528
 23
4.0428194133052671
 33
0.0
  0
SOLID
  5
F0F8
  8
0
  6
CONTINUOUS
 62
     7
 10
-29.710943749135819
 20
4.0851940877738251
 30
0.0
 11
-29.993173835092399
 21
4.0851940877738251
 31
0.0
 12
-29.97908711898528
 22
4.0428194133052671
 32
0.0
 13
-29.97908711898528
 23
4.0428194133052671
 33
0.0
210
0.0
220
0.0
230
-1.0
  0
SOLID
  5
F0F9
  8
0
  6
CONTINUOUS
 62
     7
 10
29.69689562336092
 20
4.0428194133052671
 30
0.0
 11
29.689795002233751
 21
4.021459821296701
 31
0.0
 12
29.971986497858111
 22
4.021459821296701
 32
0.0
 13
29.971986497858111
 23
4.021459821296701
 33
0.0
  0
SOLID
  5
F0FA
  8
0
  6
CONTINUOUS
 62
     7
 10
-29.69689562336092
 20
4.0428194133052671
 30
0.0
 11
-29.97908711898528
 21
4.0428194133052671
 31
0.0
 12
-29.971986497858111
 22
4.021459821296701
 32
0.0
 13
-29.971986497858111
 23
4.021459821296701
 33
0.0
210
0.0
220
0.0
230
-1.0
  0
SOLID
  5
F0FB
  8
0
  6
CONTINUOUS
 62
     7
 10
29.689795002233751
 20
4.021459821296701
 30
0.0
 11
29.675708286126628
 21
3.9790851468281381
 31
0.0
 12
29.971986497858111
 22
3.9790851468281381
 32
0.0
 13
29.971986497858111
 23
3.9790851468281381
 33
0.0
  0
SOLID
  5
F0FC
  8
0
  6
CONTINUOUS
 62
     7
 10
-29.689795002233751
 20
4.021459821296701
 30
0.0
 11
-29.971986497858111
 21
4.021459821296701
 31
0.0
 12
-29.971986497858111
 22
3.9790851468281381
 32
0.0
 13
-29.971986497858111
 23
3.9790851468281381
 33
0.0
210
0.0
220
0.0
230
-1.0
  0
SOLID
  5
F0FD
  8
0
  6
CONTINUOUS
 62
     7
 10
29.675708286126628
 20
3.9790851468281381
 30
0.0
 11
29.675708286126628
 21
3.958070064368115
 31
0.0
 12
29.971986497858111
 22
3.958070064368115
 32
0.0
 13
29.971986497858111
 23
3.958070064368115
 33
0.0
  0
SOLID
  5
F0FE
  8
0
  6
CONTINUOUS
 62
     7
 10
-29.675708286126628
 20
3.9790851468281381
 30
0.0
 11
-29.971986497858111
 21
3.9790851468281381
 31
0.0
 12
-29.971986497858111
 22
3.958070064368115
 32
0.0
 13
-29.971986497858111
 23
3.958070064368115
 33
0.0
210
0.0
220
0.0
230
-1.0
  0
SOLID
  5
F0FF
  8
0
  6
CONTINUOUS
 62
     7
 10
29.675708286126628
 20
3.958070064368115
 30
0.0
 11
29.675708286126628
 21
3.915695389899525
 31
0.0
 12
29.95782322351128
 22
3.915695389899525
 32
0.0
 13
29.95782322351128
 23
3.915695389899525
 33
0.0
  0
SOLID
  5
F100
  8
0
  6
CONTINUOUS
 62
     7
 10
-29.675708286126628
 20
3.958070064368115
 30
0.0
 11
-29.971986497858111
 21
3.958070064368115
 31
0.0
 12
-29.95782322351128
 22
3.915695389899525
 32
0.0
 13
-29.95782322351128
 23
3.915695389899525
 33
0.0
210
0.0
220
0.0
230
-1.0
  0
SOLID
  5
F101
  8
0
  6
CONTINUOUS
 62
     7
 10
29.675708286126628
 20
3.915695389899525
 30
0.0
 11
29.668684223239179
 21
3.8946803074395002
 31
0.0
 12
29.950799160623831
 22
3.8946803074395002
 32
0.0
 13
29.950799160623831
 23
3.8946803074395002
 33
0.0
  0
SOLID
  5
F102
  8
0
  6
CONTINUOUS
 62
     7
 10
-29.675708286126628
 20
3.915695389899525
 30
0.0
 11
-29.95782322351128
 21
3.915695389899525
 31
0.0
 12
-29.950799160623831
 22
3.8946803074395002
 32
0.0
 13
-29.950799160623831
 23
3.8946803074395002
 33
0.0
210
0.0
220
0.0
230
-1.0
  0
SOLID
  5
F103
  8
0
  6
CONTINUOUS
 62
     7
 10
29.668684223239179
 20
3.8946803074395002
 30
0.0
 11
29.65452094889234
 21
3.8523056329709391
 31
0.0
 12
29.936712444516711
 22
3.8523056329709391
 32
0.0
 13
29.936712444516711
 23
3.8523056329709391
 33
0.0
  0
SOLID
  5
F104
  8
0
  6
CONTINUOUS
 62
     7
 10
-29.668684223239179
 20
3.8946803074395002
 30
0.0
 11
-29.950799160623831
 21
3.8946803074395002
 31
0.0
 12
-29.936712444516711
 22
3.8523056329709391
 32
0.0
 13
-29.936712444516711
 23
3.8523056329709391
 33
0.0
210
0.0
220
0.0
230
-1.0
  0
SOLID
  5
F105
  8
0
  6
CONTINUOUS
 62
     7
 10
29.65452094889234
 20
3.8523056329709391
 30
0.0
 11
29.64918105089021
 21
3.830946040962401
 31
0.0
 12
29.929611823389539
 22
3.830946040962401
 32
0.0
 13
29.929611823389539
 23
3.830946040962401
 33
0.0
  0
SOLID
  5
F106
  8
0
  6
CONTINUOUS
 62
     7
 10
-29.65452094889234
 20
3.8523056329709391
 30
0.0
 11
-29.936712444516711
 21
3.8523056329709391
 31
0.0
 12
-29.929611823389539
 22
3.830946040962401
 32
0.0
 13
-29.929611823389539
 23
3.830946040962401
 33
0.0
210
0.0
220
0.0
230
-1.0
  0
SOLID
  5
F107
  8
0
  6
CONTINUOUS
 62
     7
 10
29.64918105089021
 20
3.830946040962401
 30
0.0
 11
29.633333611658049
 21
3.7675562840337871
 31
0.0
 12
29.929611823389539
 22
3.7675562840337871
 32
0.0
 13
29.929611823389539
 23
3.7675562840337871
 33
0.0
  0
SOLID
  5
F108
  8
0
  6
CONTINUOUS
 62
     7
 10
-29.64918105089021
 20
3.830946040962401
 30
0.0
 11
-29.929611823389539
 21
3.830946040962401
 31
0.0
 12
-29.929611823389539
 22
3.7675562840337871
 32
0.0
 13
-29.929611823389539
 23
3.7675562840337871
 33
0.0
210
0.0
220
0.0
230
-1.0
  0
SOLID
  5
F109
  8
0
  6
CONTINUOUS
 62
     7
 10
29.633333611658049
 20
3.7675562840337871
 30
0.0
 11
29.633333611658049
 21
3.5980575861595101
 31
0.0
 12
29.929611823389539
 22
3.5980575861595101
 32
0.0
 13
29.929611823389539
 23
3.5980575861595101
 33
0.0
  0
SOLID
  5
F10A
  8
0
  6
CONTINUOUS
 62
     7
 10
-29.633333611658049
 20
3.7675562840337871
 30
0.0
 11
-29.929611823389539
 21
3.7675562840337871
 31
0.0
 12
-29.929611823389539
 22
3.5980575861595101
 32
0.0
 13
-29.929611823389539
 23
3.5980575861595101
 33
0.0
210
0.0
220
0.0
230
-1.0
  0
SOLID
  5
F10B
  8
0
  6
CONTINUOUS
 62
     7
 10
29.633333611658049
 20
3.5980575861595101
 30
0.0
 11
29.633333611658049
 21
3.5770425036994871
 31
0.0
 12
30.141312940958152
 22
3.5770425036994871
 32
0.0
 13
30.141312940958152
 23
3.5770425036994871
 33
0.0
  0
SOLID
  5
F10C
  8
0
  6
CONTINUOUS
 62
     7
 10
-29.633333611658049
 20
3.5980575861595101
 30
0.0
 11
-29.929611823389539
 21
3.5980575861595101
 31
0.0
 12
-30.141312940958152
 22
3.5770425036994871
 32
0.0
 13
-30.141312940958152
 23
3.5770425036994871
 33
0.0
210
0.0
220
0.0
230
-1.0
  0
SOLID
  5
F10D
  8
0
  6
CONTINUOUS
 62
     7
 10
29.633333611658049
 20
3.5770425036994871
 30
0.0
 11
29.633333611658049
 21
3.5560274212394631
 31
0.0
 12
30.098938266489569
 22
3.5560274212394631
 32
0.0
 13
30.098938266489569
 23
3.5560274212394631
 33
0.0
  0
SOLID
  5
F10E
  8
0
  6
CONTINUOUS
 62
     7
 10
-29.633333611658049
 20
3.5770425036994871
 30
0.0
 11
-30.141312940958152
 21
3.5770425036994871
 31
0.0
 12
-30.098938266489569
 22
3.5560274212394631
 32
0.0
 13
-30.098938266489569
 23
3.5560274212394631
 33
0.0
210
0.0
220
0.0
230
-1.0
  0
SOLID
  5
F10F
  8
0
  6
CONTINUOUS
 62
     7
 10
29.633333611658049
 20
3.5560274212394631
 30
0.0
 11
29.633333611658049
 21
3.5136527467708709
 31
0.0
 12
30.056563592021
 22
3.5136527467708709
 32
0.0
 13
30.056563592021
 23
3.5136527467708709
 33
0.0
  0
SOLID
  5
F110
  8
0
  6
CONTINUOUS
 62
     7
 10
-29.633333611658049
 20
3.5560274212394631
 30
0.0
 11
-30.098938266489569
 21
3.5560274212394631
 31
0.0
 12
-30.056563592021
 22
3.5136527467708709
 32
0.0
 13
-30.056563592021
 23
3.5136527467708709
 33
0.0
210
0.0
220
0.0
230
-1.0
  0
SOLID
  5
F111
  8
0
  6
CONTINUOUS
 62
     7
 10
29.633333611658049
 20
3.5136527467708709
 30
0.0
 11
29.633333611658049
 21
3.449918480293745
 31
0.0
 12
30.014361172326701
 22
3.449918480293745
 32
0.0
 13
30.014361172326701
 23
3.449918480293745
 33
0.0
  0
SOLID
  5
F112
  8
0
  6
CONTINUOUS
 62
     7
 10
-29.633333611658049
 20
3.5136527467708709
 30
0.0
 11
-30.056563592021
 21
3.5136527467708709
 31
0.0
 12
-30.014361172326701
 22
3.449918480293745
 32
0.0
 13
-30.014361172326701
 23
3.449918480293745
 33
0.0
210
0.0
220
0.0
230
-1.0
  0
SOLID
  5
F113
  8
0
  6
CONTINUOUS
 62
     7
 10
29.633333611658049
 20
3.449918480293745
 30
0.0
 11
29.633333611658049
 21
3.407543805825183
 31
0.0
 12
29.993173835092399
 22
3.407543805825183
 32
0.0
 13
29.993173835092399
 23
3.407543805825183
 33
0.0
  0
SOLID
  5
F114
  8
0
  6
CONTINUOUS
 62
     7
 10
-29.633333611658049
 20
3.449918480293745
 30
0.0
 11
-30.014361172326701
 21
3.449918480293745
 31
0.0
 12
-29.993173835092399
 22
3.407543805825183
 32
0.0
 13
-29.993173835092399
 23
3.407543805825183
 33
0.0
210
0.0
220
0.0
230
-1.0
  0
SOLID
  5
F115
  8
0
  6
CONTINUOUS
 62
     7
 10
29.633333611658049
 20
3.407543805825183
 30
0.0
 11
29.633333611658049
 21
3.344154048896598
 31
0.0
 12
29.971986497858111
 22
3.344154048896598
 32
0.0
 13
29.971986497858111
 23
3.344154048896598
 33
0.0
  0
SOLID
  5
F116
  8
0
  6
CONTINUOUS
 62
     7
 10
-29.633333611658049
 20
3.407543805825183
 30
0.0
 11
-29.993173835092399
 21
3.407543805825183
 31
0.0
 12
-29.971986497858111
 22
3.344154048896598
 32
0.0
 13
-29.971986497858111
 23
3.344154048896598
 33
0.0
210
0.0
220
0.0
230
-1.0
  0
SOLID
  5
F117
  8
0
  6
CONTINUOUS
 62
     7
 10
29.633333611658049
 20
3.344154048896598
 30
0.0
 11
29.633333611658049
 21
3.2807642919679831
 31
0.0
 12
29.950799160623831
 22
3.2807642919679831
 32
0.0
 13
29.950799160623831
 23
3.2807642919679831
 33
0.0
  0
SOLID
  5
F118
  8
0
  6
CONTINUOUS
 62
     7
 10
-29.633333611658049
 20
3.344154048896598
 30
0.0
 11
-29.971986497858111
 21
3.344154048896598
 31
0.0
 12
-29.950799160623831
 22
3.2807642919679831
 32
0.0
 13
-29.950799160623831
 23
3.2807642919679831
 33
0.0
210
0.0
220
0.0
230
-1.0
  0
SOLID
  5
F119
  8
0
  6
CONTINUOUS
 62
     7
 10
29.633333611658049
 20
3.2807642919679831
 30
0.0
 11
29.633333611658049
 21
3.1536402685622682
 31
0.0
 12
29.950799160623831
 22
3.1536402685622682
 32
0.0
 13
29.950799160623831
 23
3.1536402685622682
 33
0.0
  0
SOLID
  5
F11A
  8
0
  6
CONTINUOUS
 62
     7
 10
-29.633333611658049
 20
3.2807642919679831
 30
0.0
 11
-29.950799160623831
 21
3.2807642919679831
 31
0.0
 12
-29.950799160623831
 22
3.1536402685622682
 32
0.0
 13
-29.950799160623831
 23
3.1536402685622682
 33
0.0
210
0.0
220
0.0
230
-1.0
  0
SOLID
  5
F11B
  8
0
  6
CONTINUOUS
 62
     7
 10
29.633333611658049
 20
3.1536402685622682
 30
0.0
 11
29.65452094889234
 21
3.0902505116336831
 31
0.0
 12
29.950799160623831
 22
3.0902505116336831
 32
0.0
 13
29.950799160623831
 23
3.0902505116336831
 33
0.0
  0
SOLID
  5
F11C
  8
0
  6
CONTINUOUS
 62
     7
 10
-29.633333611658049
 20
3.1536402685622682
 30
0.0
 11
-29.950799160623831
 21
3.1536402685622682
 31
0.0
 12
-29.950799160623831
 22
3.0902505116336831
 32
0.0
 13
-29.950799160623831
 23
3.0902505116336831
 33
0.0
210
0.0
220
0.0
230
-1.0
  0
SOLID
  5
F11D
  8
0
  6
CONTINUOUS
 62
     7
 10
29.65452094889234
 20
3.0902505116336831
 30
0.0
 11
29.65452094889234
 21
3.005501162696532
 31
0.0
 12
29.971986497858111
 22
3.005501162696532
 32
0.0
 13
29.971986497858111
 23
3.005501162696532
 33
0.0
  0
SOLID
  5
F11E
  8
0
  6
CONTINUOUS
 62
     7
 10
-29.65452094889234
 20
3.0902505116336831
 30
0.0
 11
-29.950799160623831
 21
3.0902505116336831
 31
0.0
 12
-29.971986497858111
 22
3.005501162696532
 32
0.0
 13
-29.971986497858111
 23
3.005501162696532
 33
0.0
210
0.0
220
0.0
230
-1.0
  0
SOLID
  5
F11F
  8
0
  6
CONTINUOUS
 62
     7
 10
29.65452094889234
 20
3.005501162696532
 30
0.0
 11
29.675708286126628
 21
2.9421114057679461
 31
0.0
 12
29.971986497858111
 22
2.9421114057679461
 32
0.0
 13
29.971986497858111
 23
2.9421114057679461
 33
0.0
  0
SOLID
  5
F120
  8
0
  6
CONTINUOUS
 62
     7
 10
-29.65452094889234
 20
3.005501162696532
 30
0.0
 11
-29.971986497858111
 21
3.005501162696532
 31
0.0
 12
-29.971986497858111
 22
2.9421114057679461
 32
0.0
 13
-29.971986497858111
 23
2.9421114057679461
 33
0.0
210
0.0
220
0.0
230
-1.0
  0
SOLID
  5
F121
  8
0
  6
CONTINUOUS
 62
     7
 10
29.675708286126628
 20
2.9421114057679461
 30
0.0
 11
29.69689562336092
 21
2.878377139290818
 31
0.0
 12
29.993173835092399
 22
2.878377139290818
 32
0.0
 13
29.993173835092399
 23
2.878377139290818
 33
0.0
  0
SOLID
  5
F122
  8
0
  6
CONTINUOUS
 62
     7
 10
-29.675708286126628
 20
2.9421114057679461
 30
0.0
 11
-29.971986497858111
 21
2.9421114057679461
 31
0.0
 12
-29.993173835092399
 22
2.878377139290818
 32
0.0
 13
-29.993173835092399
 23
2.878377139290818
 33
0.0
210
0.0
220
0.0
230
-1.0
  0
SOLID
  5
F123
  8
0
  6
CONTINUOUS
 62
     7
 10
29.69689562336092
 20
2.878377139290818
 30
0.0
 11
29.69689562336092
 21
2.836346974370767
 31
0.0
 12
30.007221960867302
 22
2.836346974370767
 32
0.0
 13
30.007221960867302
 23
2.836346974370767
 33
0.0
  0
SOLID
  5
F124
  8
0
  6
CONTINUOUS
 62
     7
 10
-29.69689562336092
 20
2.878377139290818
 30
0.0
 11
-29.993173835092399
 21
2.878377139290818
 31
0.0
 12
-30.007221960867302
 22
2.836346974370767
 32
0.0
 13
-30.007221960867302
 23
2.836346974370767
 33
0.0
210
0.0
220
0.0
230
-1.0
  0
SOLID
  5
F125
  8
0
  6
CONTINUOUS
 62
     7
 10
29.69689562336092
 20
2.836346974370767
 30
0.0
 11
29.70393851586104
 21
2.8149873823622031
 31
0.0
 12
30.014361172326701
 22
2.8149873823622031
 32
0.0
 13
30.014361172326701
 23
2.8149873823622031
 33
0.0
  0
SOLID
  5
F126
  8
0
  6
CONTINUOUS
 62
     7
 10
-29.69689562336092
 20
2.836346974370767
 30
0.0
 11
-30.007221960867302
 21
2.836346974370767
 31
0.0
 12
-30.014361172326701
 22
2.8149873823622031
 32
0.0
 13
-30.014361172326701
 23
2.8149873823622031
 33
0.0
210
0.0
220
0.0
230
-1.0
  0
SOLID
  5
F127
  8
0
  6
CONTINUOUS
 62
     7
 10
29.70393851586104
 20
2.8149873823622031
 30
0.0
 11
29.717910705820941
 21
2.772612707893642
 31
0.0
 12
30.035548509560979
 22
2.772612707893642
 32
0.0
 13
30.035548509560979
 23
2.772612707893642
 33
0.0
  0
SOLID
  5
F128
  8
0
  6
CONTINUOUS
 62
     7
 10
-29.70393851586104
 20
2.8149873823622031
 30
0.0
 11
-30.014361172326701
 21
2.8149873823622031
 31
0.0
 12
-30.035548509560979
 22
2.772612707893642
 32
0.0
 13
-30.035548509560979
 23
2.772612707893642
 33
0.0
210
0.0
220
0.0
230
-1.0
  0
SOLID
  5
F129
  8
0
  6
CONTINUOUS
 62
     7
 10
29.717910705820941
 20
2.772612707893642
 30
0.0
 11
29.739098043055218
 21
2.7302380334250791
 31
0.0
 12
30.077750929255281
 22
2.7302380334250791
 32
0.0
 13
30.077750929255281
 23
2.7302380334250791
 33
0.0
  0
SOLID
  5
F12A
  8
0
  6
CONTINUOUS
 62
     7
 10
-29.717910705820941
 20
2.772612707893642
 30
0.0
 11
-30.035548509560979
 21
2.772612707893642
 31
0.0
 12
-30.077750929255281
 22
2.7302380334250791
 32
0.0
 13
-30.077750929255281
 23
2.7302380334250791
 33
0.0
210
0.0
220
0.0
230
-1.0
  0
SOLID
  5
F12B
  8
0
  6
CONTINUOUS
 62
     7
 10
29.739098043055218
 20
2.7302380334250791
 30
0.0
 11
29.76719429460503
 21
2.688207868505029
 31
0.0
 12
30.098938266489569
 22
2.688207868505029
 32
0.0
 13
30.098938266489569
 23
2.688207868505029
 33
0.0
  0
SOLID
  5
F12C
  8
0
  6
CONTINUOUS
 62
     7
 10
-29.739098043055218
 20
2.7302380334250791
 30
0.0
 11
-30.077750929255281
 21
2.7302380334250791
 31
0.0
 12
-30.098938266489569
 22
2.688207868505029
 32
0.0
 13
-30.098938266489569
 23
2.688207868505029
 33
0.0
210
0.0
220
0.0
230
-1.0
  0
SOLID
  5
F12D
  8
0
  6
CONTINUOUS
 62
     7
 10
29.76719429460503
 20
2.688207868505029
 30
0.0
 11
29.781472717523801
 21
2.6668482764964661
 31
0.0
 12
30.130977654502409
 22
2.6668482764964661
 32
0.0
 13
30.130977654502409
 23
2.6668482764964661
 33
0.0
  0
SOLID
  5
F12E
  8
0
  6
CONTINUOUS
 62
     7
 10
-29.76719429460503
 20
2.688207868505029
 30
0.0
 11
-30.098938266489569
 21
2.688207868505029
 31
0.0
 12
-30.130977654502409
 22
2.6668482764964661
 32
0.0
 13
-30.130977654502409
 23
2.6668482764964661
 33
0.0
210
0.0
220
0.0
230
-1.0
  0
SOLID
  5
F12F
  8
0
  6
CONTINUOUS
 62
     7
 10
29.781472717523801
 20
2.6668482764964661
 30
0.0
 11
29.791980258753821
 21
2.645833194036439
 31
0.0
 12
30.162500278192429
 22
2.645833194036439
 32
0.0
 13
30.162500278192429
 23
2.645833194036439
 33
0.0
  0
SOLID
  5
F130
  8
0
  6
CONTINUOUS
 62
     7
 10
-29.781472717523801
 20
2.6668482764964661
 30
0.0
 11
-30.130977654502409
 21
2.6668482764964661
 31
0.0
 12
-30.162500278192429
 22
2.645833194036439
 32
0.0
 13
-30.162500278192429
 23
2.645833194036439
 33
0.0
210
0.0
220
0.0
230
-1.0
  0
SOLID
  5
F131
  8
0
  6
CONTINUOUS
 62
     7
 10
29.791980258753821
 20
2.645833194036439
 30
0.0
 11
29.802660054758078
 21
2.624473602027904
 31
0.0
 12
30.194539666205241
 22
2.624473602027904
 32
0.0
 13
30.194539666205241
 23
2.624473602027904
 33
0.0
  0
SOLID
  5
F132
  8
0
  6
CONTINUOUS
 62
     7
 10
-29.791980258753821
 20
2.645833194036439
 30
0.0
 11
-30.162500278192429
 21
2.645833194036439
 31
0.0
 12
-30.194539666205241
 22
2.624473602027904
 32
0.0
 13
-30.194539666205241
 23
2.624473602027904
 33
0.0
210
0.0
220
0.0
230
-1.0
  0
SOLID
  5
F133
  8
0
  6
CONTINUOUS
 62
     7
 10
-29.813167595988109
 20
2.6034585195678801
 30
0.0
 11
-30.31063938405817
 21
2.6034585195678801
 31
0.0
 12
-29.823847391992381
 22
2.582098927559314
 32
0.0
 13
-29.823847391992381
 23
2.582098927559314
 33
0.0
210
0.0
220
0.0
230
-1.0
  0
SOLID
  5
F134
  8
0
  6
CONTINUOUS
 62
     7
 10
29.802660054758078
 20
2.624473602027904
 30
0.0
 11
29.813167595988109
 21
2.6034585195678801
 31
0.0
 12
30.226062289895289
 22
2.6034585195678801
 32
0.0
 13
30.226062289895289
 23
2.6034585195678801
 33
0.0
  0
SOLID
  5
F135
  8
0
  6
CONTINUOUS
 62
     7
 10
-29.802660054758078
 20
2.624473602027904
 30
0.0
 11
-30.194539666205241
 21
2.624473602027904
 31
0.0
 12
-30.226062289895289
 22
2.6034585195678801
 32
0.0
 13
-30.226062289895289
 23
2.6034585195678801
 33
0.0
210
0.0
220
0.0
230
-1.0
  0
LINE
  5
F136
  8
0
  6
CONTINUOUS
 62
     7
 10
29.866222066460939
 20
4.4238469739738919
 30
0.0
 11
29.85554227045666
 21
4.4024873819653294
 31
0.0
  0
LINE
  5
F137
  8
0
  6
CONTINUOUS
 62
     7
 10
30.331826721292469
 20
4.4024873819653294
 30
0.0
 11
29.866222066460939
 21
4.4238469739738919
 31
0.0
  0
LINE
  5
F138
  8
0
  6
CONTINUOUS
 62
     7
 10
29.85554227045666
 20
4.4024873819653294
 30
0.0
 11
29.845034729226661
 21
4.3814722995053019
 31
0.0
  0
LINE
  5
F139
  8
0
  6
CONTINUOUS
 62
     7
 10
30.268264709589602
 20
4.4024873819653294
 30
0.0
 11
30.204874952661001
 21
4.3814722995053019
 31
0.0
  0
LINE
  5
F13A
  8
0
  6
CONTINUOUS
 62
     7
 10
29.845034729226661
 20
4.3814722995053019
 30
0.0
 11
29.816861297012409
 21
4.339097625036743
 31
0.0
  0
LINE
  5
F13B
  8
0
  6
CONTINUOUS
 62
     7
 10
30.204874952661001
 20
4.3814722995053019
 30
0.0
 11
30.141312940958152
 21
4.339097625036743
 31
0.0
  0
LINE
  5
F13C
  8
0
  6
CONTINUOUS
 62
     7
 10
29.816861297012409
 20
4.339097625036743
 30
0.0
 11
29.802660054758078
 21
4.3177380330282062
 31
0.0
  0
LINE
  5
F13D
  8
0
  6
CONTINUOUS
 62
     7
 10
30.141312940958152
 20
4.339097625036743
 30
0.0
 11
30.141312940958152
 21
4.3177380330282062
 31
0.0
  0
LINE
  5
F13E
  8
0
  6
CONTINUOUS
 62
     7
 10
29.802660054758078
 20
4.3177380330282062
 30
0.0
 11
29.781472717523801
 21
4.275707868108154
 31
0.0
  0
LINE
  5
F13F
  8
0
  6
CONTINUOUS
 62
     7
 10
30.141312940958152
 20
4.3177380330282062
 30
0.0
 11
30.098938266489569
 21
4.275707868108154
 31
0.0
  0
LINE
  5
F140
  8
0
  6
CONTINUOUS
 62
     7
 10
29.781472717523801
 20
4.275707868108154
 30
0.0
 11
29.76028538028952
 21
4.233333193639564
 31
0.0
  0
LINE
  5
F141
  8
0
  6
CONTINUOUS
 62
     7
 10
30.098938266489569
 20
4.275707868108154
 30
0.0
 11
30.077750929255281
 21
4.233333193639564
 31
0.0
  0
LINE
  5
F142
  8
0
  6
CONTINUOUS
 62
     7
 10
29.76028538028952
 20
4.233333193639564
 30
0.0
 11
29.746198664182391
 21
4.190958519171005
 31
0.0
  0
LINE
  5
F143
  8
0
  6
CONTINUOUS
 62
     7
 10
30.077750929255281
 20
4.233333193639564
 30
0.0
 11
30.035548509560979
 21
4.190958519171005
 31
0.0
  0
LINE
  5
F144
  8
0
  6
CONTINUOUS
 62
     7
 10
29.746198664182391
 20
4.190958519171005
 30
0.0
 11
29.739098043055218
 21
4.1695989271624381
 31
0.0
  0
LINE
  5
F145
  8
0
  6
CONTINUOUS
 62
     7
 10
30.035548509560979
 20
4.190958519171005
 30
0.0
 11
30.0248687135567
 21
4.1695989271624381
 31
0.0
  0
LINE
  5
F146
  8
0
  6
CONTINUOUS
 62
     7
 10
29.739098043055218
 20
4.1695989271624381
 30
0.0
 11
29.732073980167769
 21
4.148583844702415
 31
0.0
  0
LINE
  5
F147
  8
0
  6
CONTINUOUS
 62
     7
 10
30.0248687135567
 20
4.1695989271624381
 30
0.0
 11
30.014361172326701
 21
4.148583844702415
 31
0.0
  0
LINE
  5
F148
  8
0
  6
CONTINUOUS
 62
     7
 10
29.732073980167769
 20
4.148583844702415
 30
0.0
 11
29.717910705820941
 21
4.1062091702338508
 31
0.0
  0
LINE
  5
F149
  8
0
  6
CONTINUOUS
 62
     7
 10
30.014361172326701
 20
4.148583844702415
 30
0.0
 11
30.000197897979859
 21
4.1062091702338508
 31
0.0
  0
LINE
  5
F14A
  8
0
  6
CONTINUOUS
 62
     7
 10
29.717910705820941
 20
4.1062091702338508
 30
0.0
 11
29.710943749135819
 21
4.0851940877738251
 31
0.0
  0
LINE
  5
F14B
  8
0
  6
CONTINUOUS
 62
     7
 10
30.000197897979859
 20
4.1062091702338508
 30
0.0
 11
29.993173835092399
 21
4.0851940877738251
 31
0.0
  0
LINE
  5
F14C
  8
0
  6
CONTINUOUS
 62
     7
 10
29.710943749135819
 20
4.0851940877738251
 30
0.0
 11
29.69689562336092
 21
4.0428194133052671
 31
0.0
  0
LINE
  5
F14D
  8
0
  6
CONTINUOUS
 62
     7
 10
29.993173835092399
 20
4.0851940877738251
 30
0.0
 11
29.97908711898528
 21
4.0428194133052671
 31
0.0
  0
LINE
  5
F14E
  8
0
  6
CONTINUOUS
 62
     7
 10
29.69689562336092
 20
4.0428194133052671
 30
0.0
 11
29.689795002233751
 21
4.021459821296701
 31
0.0
  0
LINE
  5
F14F
  8
0
  6
CONTINUOUS
 62
     7
 10
29.97908711898528
 20
4.0428194133052671
 30
0.0
 11
29.971986497858111
 21
4.021459821296701
 31
0.0
  0
LINE
  5
F150
  8
0
  6
CONTINUOUS
 62
     7
 10
29.689795002233751
 20
4.021459821296701
 30
0.0
 11
29.675708286126628
 21
3.9790851468281381
 31
0.0
  0
LINE
  5
F151
  8
0
  6
CONTINUOUS
 62
     7
 10
29.971986497858111
 20
4.021459821296701
 30
0.0
 11
29.971986497858111
 21
3.9790851468281381
 31
0.0
  0
LINE
  5
F152
  8
0
  6
CONTINUOUS
 62
     7
 10
29.675708286126628
 20
3.9790851468281381
 30
0.0
 11
29.675708286126628
 21
3.958070064368115
 31
0.0
  0
LINE
  5
F153
  8
0
  6
CONTINUOUS
 62
     7
 10
29.971986497858111
 20
3.9790851468281381
 30
0.0
 11
29.971986497858111
 21
3.958070064368115
 31
0.0
  0
LINE
  5
F154
  8
0
  6
CONTINUOUS
 62
     7
 10
29.675708286126628
 20
3.958070064368115
 30
0.0
 11
29.675708286126628
 21
3.915695389899525
 31
0.0
  0
LINE
  5
F155
  8
0
  6
CONTINUOUS
 62
     7
 10
29.971986497858111
 20
3.958070064368115
 30
0.0
 11
29.95782322351128
 21
3.915695389899525
 31
0.0
  0
LINE
  5
F156
  8
0
  6
CONTINUOUS
 62
     7
 10
29.675708286126628
 20
3.915695389899525
 30
0.0
 11
29.668684223239179
 21
3.8946803074395002
 31
0.0
  0
LINE
  5
F157
  8
0
  6
CONTINUOUS
 62
     7
 10
29.95782322351128
 20
3.915695389899525
 30
0.0
 11
29.950799160623831
 21
3.8946803074395002
 31
0.0
  0
LINE
  5
F158
  8
0
  6
CONTINUOUS
 62
     7
 10
29.668684223239179
 20
3.8946803074395002
 30
0.0
 11
29.65452094889234
 21
3.8523056329709391
 31
0.0
  0
LINE
  5
F159
  8
0
  6
CONTINUOUS
 62
     7
 10
29.950799160623831
 20
3.8946803074395002
 30
0.0
 11
29.936712444516711
 21
3.8523056329709391
 31
0.0
  0
LINE
  5
F15A
  8
0
  6
CONTINUOUS
 62
     7
 10
29.65452094889234
 20
3.8523056329709391
 30
0.0
 11
29.64918105089021
 21
3.830946040962401
 31
0.0
  0
LINE
  5
F15B
  8
0
  6
CONTINUOUS
 62
     7
 10
29.936712444516711
 20
3.8523056329709391
 30
0.0
 11
29.929611823389539
 21
3.830946040962401
 31
0.0
  0
LINE
  5
F15C
  8
0
  6
CONTINUOUS
 62
     7
 10
29.64918105089021
 20
3.830946040962401
 30
0.0
 11
29.633333611658049
 21
3.7675562840337871
 31
0.0
  0
LINE
  5
F15D
  8
0
  6
CONTINUOUS
 62
     7
 10
29.929611823389539
 20
3.830946040962401
 30
0.0
 11
29.929611823389539
 21
3.7675562840337871
 31
0.0
  0
LINE
  5
F15E
  8
0
  6
CONTINUOUS
 62
     7
 10
29.633333611658049
 20
3.7675562840337871
 30
0.0
 11
29.633333611658049
 21
3.5980575861595101
 31
0.0
  0
LINE
  5
F15F
  8
0
  6
CONTINUOUS
 62
     7
 10
29.929611823389539
 20
3.7675562840337871
 30
0.0
 11
29.929611823389539
 21
3.5980575861595101
 31
0.0
  0
LINE
  5
F160
  8
0
  6
CONTINUOUS
 62
     7
 10
29.633333611658049
 20
3.5980575861595101
 30
0.0
 11
29.633333611658049
 21
3.5770425036994871
 31
0.0
  0
LINE
  5
F161
  8
0
  6
CONTINUOUS
 62
     7
 10
29.929611823389539
 20
3.5980575861595101
 30
0.0
 11
30.141312940958152
 21
3.5770425036994871
 31
0.0
  0
LINE
  5
F162
  8
0
  6
CONTINUOUS
 62
     7
 10
29.633333611658049
 20
3.5770425036994871
 30
0.0
 11
29.633333611658049
 21
3.5560274212394631
 31
0.0
  0
LINE
  5
F163
  8
0
  6
CONTINUOUS
 62
     7
 10
30.141312940958152
 20
3.5770425036994871
 30
0.0
 11
30.098938266489569
 21
3.5560274212394631
 31
0.0
  0
LINE
  5
F164
  8
0
  6
CONTINUOUS
 62
     7
 10
29.633333611658049
 20
3.5560274212394631
 30
0.0
 11
29.633333611658049
 21
3.5136527467708709
 31
0.0
  0
LINE
  5
F165
  8
0
  6
CONTINUOUS
 62
     7
 10
30.098938266489569
 20
3.5560274212394631
 30
0.0
 11
30.056563592021
 21
3.5136527467708709
 31
0.0
  0
LINE
  5
F166
  8
0
  6
CONTINUOUS
 62
     7
 10
29.633333611658049
 20
3.5136527467708709
 30
0.0
 11
29.633333611658049
 21
3.449918480293745
 31
0.0
  0
LINE
  5
F167
  8
0
  6
CONTINUOUS
 62
     7
 10
30.056563592021
 20
3.5136527467708709
 30
0.0
 11
30.014361172326701
 21
3.449918480293745
 31
0.0
  0
LINE
  5
F168
  8
0
  6
CONTINUOUS
 62
     7
 10
29.633333611658049
 20
3.449918480293745
 30
0.0
 11
29.633333611658049
 21
3.407543805825183
 31
0.0
  0
LINE
  5
F169
  8
0
  6
CONTINUOUS
 62
     7
 10
30.014361172326701
 20
3.449918480293745
 30
0.0
 11
29.993173835092399
 21
3.407543805825183
 31
0.0
  0
LINE
  5
F16A
  8
0
  6
CONTINUOUS
 62
     7
 10
29.633333611658049
 20
3.407543805825183
 30
0.0
 11
29.633333611658049
 21
3.344154048896598
 31
0.0
  0
LINE
  5
F16B
  8
0
  6
CONTINUOUS
 62
     7
 10
29.993173835092399
 20
3.407543805825183
 30
0.0
 11
29.971986497858111
 21
3.344154048896598
 31
0.0
  0
LINE
  5
F16C
  8
0
  6
CONTINUOUS
 62
     7
 10
29.633333611658049
 20
3.344154048896598
 30
0.0
 11
29.633333611658049
 21
3.2807642919679831
 31
0.0
  0
LINE
  5
F16D
  8
0
  6
CONTINUOUS
 62
     7
 10
29.971986497858111
 20
3.344154048896598
 30
0.0
 11
29.950799160623831
 21
3.2807642919679831
 31
0.0
  0
LINE
  5
F16E
  8
0
  6
CONTINUOUS
 62
     7
 10
29.633333611658049
 20
3.2807642919679831
 30
0.0
 11
29.633333611658049
 21
3.1536402685622682
 31
0.0
  0
LINE
  5
F16F
  8
0
  6
CONTINUOUS
 62
     7
 10
29.950799160623831
 20
3.2807642919679831
 30
0.0
 11
29.950799160623831
 21
3.1536402685622682
 31
0.0
  0
LINE
  5
F170
  8
0
  6
CONTINUOUS
 62
     7
 10
29.633333611658049
 20
3.1536402685622682
 30
0.0
 11
29.65452094889234
 21
3.0902505116336831
 31
0.0
  0
LINE
  5
F171
  8
0
  6
CONTINUOUS
 62
     7
 10
29.950799160623831
 20
3.1536402685622682
 30
0.0
 11
29.950799160623831
 21
3.0902505116336831
 31
0.0
  0
LINE
  5
F172
  8
0
  6
CONTINUOUS
 62
     7
 10
29.65452094889234
 20
3.0902505116336831
 30
0.0
 11
29.65452094889234
 21
3.005501162696532
 31
0.0
  0
LINE
  5
F173
  8
0
  6
CONTINUOUS
 62
     7
 10
29.950799160623831
 20
3.0902505116336831
 30
0.0
 11
29.971986497858111
 21
3.005501162696532
 31
0.0
  0
LINE
  5
F174
  8
0
  6
CONTINUOUS
 62
     7
 10
29.65452094889234
 20
3.005501162696532
 30
0.0
 11
29.675708286126628
 21
2.9421114057679461
 31
0.0
  0
LINE
  5
F175
  8
0
  6
CONTINUOUS
 62
     7
 10
29.971986497858111
 20
3.005501162696532
 30
0.0
 11
29.971986497858111
 21
2.9421114057679461
 31
0.0
  0
LINE
  5
F176
  8
0
  6
CONTINUOUS
 62
     7
 10
29.675708286126628
 20
2.9421114057679461
 30
0.0
 11
29.69689562336092
 21
2.878377139290818
 31
0.0
  0
LINE
  5
F177
  8
0
  6
CONTINUOUS
 62
     7
 10
29.971986497858111
 20
2.9421114057679461
 30
0.0
 11
29.993173835092399
 21
2.878377139290818
 31
0.0
  0
LINE
  5
F178
  8
0
  6
CONTINUOUS
 62
     7
 10
29.69689562336092
 20
2.878377139290818
 30
0.0
 11
29.69689562336092
 21
2.836346974370767
 31
0.0
  0
LINE
  5
F179
  8
0
  6
CONTINUOUS
 62
     7
 10
29.993173835092399
 20
2.878377139290818
 30
0.0
 11
30.007221960867302
 21
2.836346974370767
 31
0.0
  0
LINE
  5
F17A
  8
0
  6
CONTINUOUS
 62
     7
 10
29.69689562336092
 20
2.836346974370767
 30
0.0
 11
29.70393851586104
 21
2.8149873823622031
 31
0.0
  0
LINE
  5
F17B
  8
0
  6
CONTINUOUS
 62
     7
 10
30.007221960867302
 20
2.836346974370767
 30
0.0
 11
30.014361172326701
 21
2.8149873823622031
 31
0.0
  0
LINE
  5
F17C
  8
0
  6
CONTINUOUS
 62
     7
 10
29.70393851586104
 20
2.8149873823622031
 30
0.0
 11
29.717910705820941
 21
2.772612707893642
 31
0.0
  0
LINE
  5
F17D
  8
0
  6
CONTINUOUS
 62
     7
 10
30.014361172326701
 20
2.8149873823622031
 30
0.0
 11
30.035548509560979
 21
2.772612707893642
 31
0.0
  0
LINE
  5
F17E
  8
0
  6
CONTINUOUS
 62
     7
 10
29.717910705820941
 20
2.772612707893642
 30
0.0
 11
29.739098043055218
 21
2.7302380334250791
 31
0.0
  0
LINE
  5
F17F
  8
0
  6
CONTINUOUS
 62
     7
 10
30.035548509560979
 20
2.772612707893642
 30
0.0
 11
30.077750929255281
 21
2.7302380334250791
 31
0.0
  0
LINE
  5
F180
  8
0
  6
CONTINUOUS
 62
     7
 10
29.739098043055218
 20
2.7302380334250791
 30
0.0
 11
29.76719429460503
 21
2.688207868505029
 31
0.0
  0
LINE
  5
F181
  8
0
  6
CONTINUOUS
 62
     7
 10
30.077750929255281
 20
2.7302380334250791
 30
0.0
 11
30.098938266489569
 21
2.688207868505029
 31
0.0
  0
LINE
  5
F182
  8
0
  6
CONTINUOUS
 62
     7
 10
29.76719429460503
 20
2.688207868505029
 30
0.0
 11
29.781472717523801
 21
2.6668482764964661
 31
0.0
  0
LINE
  5
F183
  8
0
  6
CONTINUOUS
 62
     7
 10
30.098938266489569
 20
2.688207868505029
 30
0.0
 11
30.130977654502409
 21
2.6668482764964661
 31
0.0
  0
LINE
  5
F184
  8
0
  6
CONTINUOUS
 62
     7
 10
29.781472717523801
 20
2.6668482764964661
 30
0.0
 11
29.791980258753821
 21
2.645833194036439
 31
0.0
  0
LINE
  5
F185
  8
0
  6
CONTINUOUS
 62
     7
 10
30.130977654502409
 20
2.6668482764964661
 30
0.0
 11
30.162500278192429
 21
2.645833194036439
 31
0.0
  0
LINE
  5
F186
  8
0
  6
CONTINUOUS
 62
     7
 10
29.791980258753821
 20
2.645833194036439
 30
0.0
 11
29.802660054758078
 21
2.624473602027904
 31
0.0
  0
LINE
  5
F187
  8
0
  6
CONTINUOUS
 62
     7
 10
30.162500278192429
 20
2.645833194036439
 30
0.0
 11
30.194539666205241
 21
2.624473602027904
 31
0.0
  0
LINE
  5
F188
  8
0
  6
CONTINUOUS
 62
     7
 10
30.31063938405817
 20
2.6034585195678801
 30
0.0
 11
29.823847391992381
 21
2.582098927559314
 31
0.0
  0
LINE
  5
F189
  8
0
  6
CONTINUOUS
 62
     7
 10
29.823847391992381
 20
2.582098927559314
 30
0.0
 11
29.813167595988109
 21
2.6034585195678801
 31
0.0
  0
LINE
  5
F18A
  8
0
  6
CONTINUOUS
 62
     7
 10
29.802660054758078
 20
2.624473602027904
 30
0.0
 11
29.813167595988109
 21
2.6034585195678801
 31
0.0
  0
LINE
  5
F18B
  8
0
  6
CONTINUOUS
 62
     7
 10
30.194539666205241
 20
2.624473602027904
 30
0.0
 11
30.226062289895289
 21
2.6034585195678801
 31
0.0
  0
ENDBLK
  5
F18D
  8
0
  0
BLOCK
  8
0
  2
*U13
 70
     1
 10
0.0
 20
0.0
 30
0.0
  3
*U13
  1

  0
SOLID
  5
F18F
  8
0
  6
CONTINUOUS
 62
     7
 10
30.289452046823889
 20
4.6563909192282411
 30
0.0
 11
30.226062289895289
 21
4.6353758367682172
 31
0.0
 12
30.395388732995318
 22
4.6353758367682172
 32
0.0
 13
30.395388732995318
 23
4.6353758367682172
 33
0.0
  0
SOLID
  5
F190
  8
0
  6
CONTINUOUS
 62
     7
 10
-30.289452046823889
 20
4.6563909192282411
 30
0.0
 11
-30.331826721292469
 21
4.6563909192282411
 31
0.0
 12
-30.395388732995318
 22
4.6353758367682172
 32
0.0
 13
-30.395388732995318
 23
4.6353758367682172
 33
0.0
210
0.0
220
0.0
230
-1.0
  0
SOLID
  5
F191
  8
0
  6
CONTINUOUS
 62
     7
 10
30.226062289895289
 20
4.6353758367682172
 30
0.0
 11
30.162500278192429
 21
4.6143607543081924
 31
0.0
 12
30.522340501626768
 22
4.6143607543081924
 32
0.0
 13
30.522340501626768
 23
4.6143607543081924
 33
0.0
  0
SOLID
  5
F192
  8
0
  6
CONTINUOUS
 62
     7
 10
-30.226062289895289
 20
4.6353758367682172
 30
0.0
 11
-30.458778489923919
 21
4.6353758367682172
 31
0.0
 12
-30.522340501626768
 22
4.6143607543081924
 32
0.0
 13
-30.522340501626768
 23
4.6143607543081924
 33
0.0
210
0.0
220
0.0
230
-1.0
  0
SOLID
  5
F193
  8
0
  6
CONTINUOUS
 62
     7
 10
30.162500278192429
 20
4.6143607543081924
 30
0.0
 11
30.098938266489569
 21
4.5930011622996574
 31
0.0
 12
30.585730258555369
 22
4.5930011622996574
 32
0.0
 13
30.585730258555369
 23
4.5930011622996574
 33
0.0
  0
SOLID
  5
F194
  8
0
  6
CONTINUOUS
 62
     7
 10
-30.162500278192429
 20
4.6143607543081924
 30
0.0
 11
-30.522340501626768
 21
4.6143607543081924
 31
0.0
 12
-30.585730258555369
 22
4.5930011622996574
 32
0.0
 13
-30.585730258555369
 23
4.5930011622996574
 33
0.0
210
0.0
220
0.0
230
-1.0
  0
SOLID
  5
F195
  8
0
  6
CONTINUOUS
 62
     7
 10
30.098938266489569
 20
4.5930011622996574
 30
0.0
 11
30.035548509560979
 21
4.5719860798396299
 31
0.0
 12
30.649292270258229
 22
4.5719860798396299
 32
0.0
 13
30.649292270258229
 23
4.5719860798396299
 33
0.0
  0
SOLID
  5
F196
  8
0
  6
CONTINUOUS
 62
     7
 10
-30.098938266489569
 20
4.5930011622996574
 30
0.0
 11
-30.585730258555369
 21
4.5930011622996574
 31
0.0
 12
-30.649292270258229
 22
4.5719860798396299
 32
0.0
 13
-30.649292270258229
 23
4.5719860798396299
 33
0.0
210
0.0
220
0.0
230
-1.0
  0
SOLID
  5
F197
  8
0
  6
CONTINUOUS
 62
     7
 10
30.035548509560979
 20
4.5719860798396299
 30
0.0
 11
29.993173835092399
 21
4.5296114053710701
 31
0.0
 12
30.691666944726808
 22
4.5296114053710701
 32
0.0
 13
30.691666944726808
 23
4.5296114053710701
 33
0.0
  0
SOLID
  5
F198
  8
0
  6
CONTINUOUS
 62
     7
 10
-30.035548509560979
 20
4.5719860798396299
 30
0.0
 11
-30.649292270258229
 21
4.5719860798396299
 31
0.0
 12
-30.691666944726808
 22
4.5296114053710701
 32
0.0
 13
-30.691666944726808
 23
4.5296114053710701
 33
0.0
210
0.0
220
0.0
230
-1.0
  0
SOLID
  5
F199
  8
0
  6
CONTINUOUS
 62
     7
 10
29.993173835092399
 20
4.5296114053710701
 30
0.0
 11
29.929611823389539
 21
4.4872367309024801
 31
0.0
 12
30.734041619195381
 22
4.4872367309024801
 32
0.0
 13
30.734041619195381
 23
4.4872367309024801
 33
0.0
  0
SOLID
  5
F19A
  8
0
  6
CONTINUOUS
 62
     7
 10
-29.993173835092399
 20
4.5296114053710701
 30
0.0
 11
-30.691666944726808
 21
4.5296114053710701
 31
0.0
 12
-30.734041619195381
 22
4.4872367309024801
 32
0.0
 13
-30.734041619195381
 23
4.4872367309024801
 33
0.0
210
0.0
220
0.0
230
-1.0
  0
SOLID
  5
F19B
  8
0
  6
CONTINUOUS
 62
     7
 10
29.929611823389539
 20
4.4872367309024801
 30
0.0
 11
29.908424486155251
 21
4.4658771388939442
 31
0.0
 12
30.755314383594129
 22
4.4658771388939442
 32
0.0
 13
30.755314383594129
 23
4.4658771388939442
 33
0.0
  0
SOLID
  5
F19C
  8
0
  6
CONTINUOUS
 62
     7
 10
-29.929611823389539
 20
4.4872367309024801
 30
0.0
 11
-30.734041619195381
 21
4.4872367309024801
 31
0.0
 12
-30.755314383594129
 22
4.4658771388939442
 32
0.0
 13
-30.755314383594129
 23
4.4658771388939442
 33
0.0
210
0.0
220
0.0
230
-1.0
  0
SOLID
  5
F19D
  8
0
  6
CONTINUOUS
 62
     7
 10
29.908424486155251
 20
4.4658771388939442
 30
0.0
 11
29.887323276308091
 21
4.4448620564339203
 31
0.0
 12
30.77624403888969
 22
4.4448620564339203
 32
0.0
 13
30.77624403888969
 23
4.4448620564339203
 33
0.0
  0
SOLID
  5
F19E
  8
0
  6
CONTINUOUS
 62
     7
 10
-29.908424486155251
 20
4.4658771388939442
 30
0.0
 11
-30.755314383594129
 21
4.4658771388939442
 31
0.0
 12
-30.77624403888969
 22
4.4448620564339203
 32
0.0
 13
-30.77624403888969
 23
4.4448620564339203
 33
0.0
210
0.0
220
0.0
230
-1.0
  0
SOLID
  5
F19F
  8
0
  6
CONTINUOUS
 62
     7
 10
29.887323276308091
 20
4.4448620564339203
 30
0.0
 11
29.866222066460939
 21
4.4238469739738919
 31
0.0
 12
30.790292164664589
 22
4.4238469739738919
 32
0.0
 13
30.790292164664589
 23
4.4238469739738919
 33
0.0
  0
SOLID
  5
F1A0
  8
0
  6
CONTINUOUS
 62
     7
 10
-29.887323276308091
 20
4.4448620564339203
 30
0.0
 11
-30.77624403888969
 21
4.4448620564339203
 31
0.0
 12
-30.790292164664589
 22
4.4238469739738919
 32
0.0
 13
-30.790292164664589
 23
4.4238469739738919
 33
0.0
210
0.0
220
0.0
230
-1.0
  0
SOLID
  5
F1A1
  8
0
  6
CONTINUOUS
 62
     7
 10
29.866222066460939
 20
4.4238469739738919
 30
0.0
 11
30.331826721292469
 21
4.4024873819653294
 31
0.0
 12
30.80457058758336
 22
4.4024873819653294
 32
0.0
 13
30.80457058758336
 23
4.4024873819653294
 33
0.0
  0
SOLID
  5
F1A2
  8
0
  6
CONTINUOUS
 62
     7
 10
-29.866222066460939
 20
4.4238469739738919
 30
0.0
 11
-30.790292164664589
 21
4.4238469739738919
 31
0.0
 12
-30.80457058758336
 22
4.4024873819653294
 32
0.0
 13
-30.80457058758336
 23
4.4024873819653294
 33
0.0
210
0.0
220
0.0
230
-1.0
  0
SOLID
  5
F1A3
  8
0
  6
CONTINUOUS
 62
     7
 10
30.35301405852675
 20
4.4024873819653294
 30
0.0
 11
30.41640381545534
 21
4.3814722995053019
 31
0.0
 12
30.818618713358269
 22
4.3814722995053019
 32
0.0
 13
30.818618713358269
 23
4.3814722995053019
 33
0.0
  0
SOLID
  5
F1A4
  8
0
  6
CONTINUOUS
 62
     7
 10
-30.35301405852675
 20
4.4024873819653294
 30
0.0
 11
-30.80457058758336
 21
4.4024873819653294
 31
0.0
 12
-30.818618713358269
 22
4.3814722995053019
 32
0.0
 13
-30.818618713358269
 23
4.3814722995053019
 33
0.0
210
0.0
220
0.0
230
-1.0
  0
SOLID
  5
F1A5
  8
0
  6
CONTINUOUS
 62
     7
 10
30.41640381545534
 20
4.3814722995053019
 30
0.0
 11
30.4799658271582
 21
4.360112707496766
 31
0.0
 12
30.82929850936253
 22
4.360112707496766
 32
0.0
 13
30.82929850936253
 23
4.360112707496766
 33
0.0
  0
SOLID
  5
F1A6
  8
0
  6
CONTINUOUS
 62
     7
 10
-30.41640381545534
 20
4.3814722995053019
 30
0.0
 11
-30.818618713358269
 21
4.3814722995053019
 31
0.0
 12
-30.82929850936253
 22
4.360112707496766
 32
0.0
 13
-30.82929850936253
 23
4.360112707496766
 33
0.0
210
0.0
220
0.0
230
-1.0
  0
SOLID
  5
F1A7
  8
0
  6
CONTINUOUS
 62
     7
 10
30.4799658271582
 20
4.360112707496766
 30
0.0
 11
30.500980909618232
 21
4.339097625036743
 31
0.0
 12
30.83980605059255
 22
4.339097625036743
 32
0.0
 13
30.83980605059255
 23
4.339097625036743
 33
0.0
  0
SOLID
  5
F1A8
  8
0
  6
CONTINUOUS
 62
     7
 10
-30.4799658271582
 20
4.360112707496766
 30
0.0
 11
-30.82929850936253
 21
4.360112707496766
 31
0.0
 12
-30.83980605059255
 22
4.339097625036743
 32
0.0
 13
-30.83980605059255
 23
4.339097625036743
 33
0.0
210
0.0
220
0.0
230
-1.0
  0
SOLID
  5
F1A9
  8
0
  6
CONTINUOUS
 62
     7
 10
30.500980909618232
 20
4.339097625036743
 30
0.0
 11
30.522340501626768
 21
4.3177380330282062
 31
0.0
 12
30.846945262051928
 22
4.3177380330282062
 32
0.0
 13
30.846945262051928
 23
4.3177380330282062
 33
0.0
  0
SOLID
  5
F1AA
  8
0
  6
CONTINUOUS
 62
     7
 10
-30.500980909618232
 20
4.339097625036743
 30
0.0
 11
-30.83980605059255
 21
4.339097625036743
 31
0.0
 12
-30.846945262051928
 22
4.3177380330282062
 32
0.0
 13
-30.846945262051928
 23
4.3177380330282062
 33
0.0
210
0.0
220
0.0
230
-1.0
  0
SOLID
  5
F1AB
  8
0
  6
CONTINUOUS
 62
     7
 10
30.54352783886106
 20
4.3177380330282062
 30
0.0
 11
30.564715176095351
 21
4.275707868108154
 31
0.0
 12
30.860993387826841
 22
4.275707868108154
 32
0.0
 13
30.860993387826841
 23
4.275707868108154
 33
0.0
  0
SOLID
  5
F1AC
  8
0
  6
CONTINUOUS
 62
     7
 10
-30.54352783886106
 20
4.3177380330282062
 30
0.0
 11
-30.846945262051928
 21
4.3177380330282062
 31
0.0
 12
-30.860993387826841
 22
4.275707868108154
 32
0.0
 13
-30.860993387826841
 23
4.275707868108154
 33
0.0
210
0.0
220
0.0
230
-1.0
  0
SOLID
  5
F1AD
  8
0
  6
CONTINUOUS
 62
     7
 10
30.564715176095351
 20
4.275707868108154
 30
0.0
 11
30.585730258555369
 21
4.2119736016310281
 31
0.0
 12
30.882180725061129
 22
4.2119736016310281
 32
0.0
 13
30.882180725061129
 23
4.2119736016310281
 33
0.0
  0
SOLID
  5
F1AE
  8
0
  6
CONTINUOUS
 62
     7
 10
-30.564715176095351
 20
4.275707868108154
 30
0.0
 11
-30.860993387826841
 21
4.275707868108154
 31
0.0
 12
-30.882180725061129
 22
4.2119736016310281
 32
0.0
 13
-30.882180725061129
 23
4.2119736016310281
 33
0.0
210
0.0
220
0.0
230
-1.0
  0
SOLID
  5
F1AF
  8
0
  6
CONTINUOUS
 62
     7
 10
30.585730258555369
 20
4.2119736016310281
 30
0.0
 11
30.60691759578966
 21
4.148583844702415
 31
0.0
 12
30.90336806229541
 22
4.148583844702415
 32
0.0
 13
30.90336806229541
 23
4.148583844702415
 33
0.0
  0
SOLID
  5
F1B0
  8
0
  6
CONTINUOUS
 62
     7
 10
-30.585730258555369
 20
4.2119736016310281
 30
0.0
 11
-30.882180725061129
 21
4.2119736016310281
 31
0.0
 12
-30.90336806229541
 22
4.148583844702415
 32
0.0
 13
-30.90336806229541
 23
4.148583844702415
 33
0.0
210
0.0
220
0.0
230
-1.0
  0
SOLID
  5
F1B1
  8
0
  6
CONTINUOUS
 62
     7
 10
30.60691759578966
 20
4.148583844702415
 30
0.0
 11
30.60691759578966
 21
4.0638344957652892
 31
0.0
 12
30.90336806229541
 22
4.0638344957652892
 32
0.0
 13
30.90336806229541
 23
4.0638344957652892
 33
0.0
  0
SOLID
  5
F1B2
  8
0
  6
CONTINUOUS
 62
     7
 10
-30.60691759578966
 20
4.148583844702415
 30
0.0
 11
-30.90336806229541
 21
4.148583844702415
 31
0.0
 12
-30.90336806229541
 22
4.0638344957652892
 32
0.0
 13
-30.90336806229541
 23
4.0638344957652892
 33
0.0
210
0.0
220
0.0
230
-1.0
  0
LINE
  5
F1B3
  8
0
  6
CONTINUOUS
 62
     7
 10
30.289452046823889
 20
4.6563909192282411
 30
0.0
 11
30.226062289895289
 21
4.6353758367682172
 31
0.0
  0
LINE
  5
F1B4
  8
0
  6
CONTINUOUS
 62
     7
 10
30.331826721292469
 20
4.6563909192282411
 30
0.0
 11
30.395388732995318
 21
4.6353758367682172
 31
0.0
  0
LINE
  5
F1B5
  8
0
  6
CONTINUOUS
 62
     7
 10
30.226062289895289
 20
4.6353758367682172
 30
0.0
 11
30.162500278192429
 21
4.6143607543081924
 31
0.0
  0
LINE
  5
F1B6
  8
0
  6
CONTINUOUS
 62
     7
 10
30.458778489923919
 20
4.6353758367682172
 30
0.0
 11
30.522340501626768
 21
4.6143607543081924
 31
0.0
  0
LINE
  5
F1B7
  8
0
  6
CONTINUOUS
 62
     7
 10
30.162500278192429
 20
4.6143607543081924
 30
0.0
 11
30.098938266489569
 21
4.5930011622996574
 31
0.0
  0
LINE
  5
F1B8
  8
0
  6
CONTINUOUS
 62
     7
 10
30.522340501626768
 20
4.6143607543081924
 30
0.0
 11
30.585730258555369
 21
4.5930011622996574
 31
0.0
  0
LINE
  5
F1B9
  8
0
  6
CONTINUOUS
 62
     7
 10
30.098938266489569
 20
4.5930011622996574
 30
0.0
 11
30.035548509560979
 21
4.5719860798396299
 31
0.0
  0
LINE
  5
F1BA
  8
0
  6
CONTINUOUS
 62
     7
 10
30.585730258555369
 20
4.5930011622996574
 30
0.0
 11
30.649292270258229
 21
4.5719860798396299
 31
0.0
  0
LINE
  5
F1BB
  8
0
  6
CONTINUOUS
 62
     7
 10
30.035548509560979
 20
4.5719860798396299
 30
0.0
 11
29.993173835092399
 21
4.5296114053710701
 31
0.0
  0
LINE
  5
F1BC
  8
0
  6
CONTINUOUS
 62
     7
 10
30.649292270258229
 20
4.5719860798396299
 30
0.0
 11
30.691666944726808
 21
4.5296114053710701
 31
0.0
  0
LINE
  5
F1BD
  8
0
  6
CONTINUOUS
 62
     7
 10
29.993173835092399
 20
4.5296114053710701
 30
0.0
 11
29.929611823389539
 21
4.4872367309024801
 31
0.0
  0
LINE
  5
F1BE
  8
0
  6
CONTINUOUS
 62
     7
 10
30.691666944726808
 20
4.5296114053710701
 30
0.0
 11
30.734041619195381
 21
4.4872367309024801
 31
0.0
  0
LINE
  5
F1BF
  8
0
  6
CONTINUOUS
 62
     7
 10
29.929611823389539
 20
4.4872367309024801
 30
0.0
 11
29.908424486155251
 21
4.4658771388939442
 31
0.0
  0
LINE
  5
F1C0
  8
0
  6
CONTINUOUS
 62
     7
 10
30.734041619195381
 20
4.4872367309024801
 30
0.0
 11
30.755314383594129
 21
4.4658771388939442
 31
0.0
  0
LINE
  5
F1C1
  8
0
  6
CONTINUOUS
 62
     7
 10
29.908424486155251
 20
4.4658771388939442
 30
0.0
 11
29.887323276308091
 21
4.4448620564339203
 31
0.0
  0
LINE
  5
F1C2
  8
0
  6
CONTINUOUS
 62
     7
 10
30.755314383594129
 20
4.4658771388939442
 30
0.0
 11
30.77624403888969
 21
4.4448620564339203
 31
0.0
  0
LINE
  5
F1C3
  8
0
  6
CONTINUOUS
 62
     7
 10
29.887323276308091
 20
4.4448620564339203
 30
0.0
 11
29.866222066460939
 21
4.4238469739738919
 31
0.0
  0
LINE
  5
F1C4
  8
0
  6
CONTINUOUS
 62
     7
 10
30.77624403888969
 20
4.4448620564339203
 30
0.0
 11
30.790292164664589
 21
4.4238469739738919
 31
0.0
  0
LINE
  5
F1C5
  8
0
  6
CONTINUOUS
 62
     7
 10
29.866222066460939
 20
4.4238469739738919
 30
0.0
 11
30.331826721292469
 21
4.4024873819653294
 31
0.0
  0
LINE
  5
F1C6
  8
0
  6
CONTINUOUS
 62
     7
 10
30.790292164664589
 20
4.4238469739738919
 30
0.0
 11
30.80457058758336
 21
4.4024873819653294
 31
0.0
  0
LINE
  5
F1C7
  8
0
  6
CONTINUOUS
 62
     7
 10
30.35301405852675
 20
4.4024873819653294
 30
0.0
 11
30.41640381545534
 21
4.3814722995053019
 31
0.0
  0
LINE
  5
F1C8
  8
0
  6
CONTINUOUS
 62
     7
 10
30.80457058758336
 20
4.4024873819653294
 30
0.0
 11
30.818618713358269
 21
4.3814722995053019
 31
0.0
  0
LINE
  5
F1C9
  8
0
  6
CONTINUOUS
 62
     7
 10
30.41640381545534
 20
4.3814722995053019
 30
0.0
 11
30.4799658271582
 21
4.360112707496766
 31
0.0
  0
LINE
  5
F1CA
  8
0
  6
CONTINUOUS
 62
     7
 10
30.818618713358269
 20
4.3814722995053019
 30
0.0
 11
30.82929850936253
 21
4.360112707496766
 31
0.0
  0
LINE
  5
F1CB
  8
0
  6
CONTINUOUS
 62
     7
 10
30.4799658271582
 20
4.360112707496766
 30
0.0
 11
30.500980909618232
 21
4.339097625036743
 31
0.0
  0
LINE
  5
F1CC
  8
0
  6
CONTINUOUS
 62
     7
 10
30.82929850936253
 20
4.360112707496766
 30
0.0
 11
30.83980605059255
 21
4.339097625036743
 31
0.0
  0
LINE
  5
F1CD
  8
0
  6
CONTINUOUS
 62
     7
 10
30.500980909618232
 20
4.339097625036743
 30
0.0
 11
30.522340501626768
 21
4.3177380330282062
 31
0.0
  0
LINE
  5
F1CE
  8
0
  6
CONTINUOUS
 62
     7
 10
30.83980605059255
 20
4.339097625036743
 30
0.0
 11
30.846945262051928
 21
4.3177380330282062
 31
0.0
  0
LINE
  5
F1CF
  8
0
  6
CONTINUOUS
 62
     7
 10
30.54352783886106
 20
4.3177380330282062
 30
0.0
 11
30.564715176095351
 21
4.275707868108154
 31
0.0
  0
LINE
  5
F1D0
  8
0
  6
CONTINUOUS
 62
     7
 10
30.846945262051928
 20
4.3177380330282062
 30
0.0
 11
30.860993387826841
 21
4.275707868108154
 31
0.0
  0
LINE
  5
F1D1
  8
0
  6
CONTINUOUS
 62
     7
 10
30.564715176095351
 20
4.275707868108154
 30
0.0
 11
30.585730258555369
 21
4.2119736016310281
 31
0.0
  0
LINE
  5
F1D2
  8
0
  6
CONTINUOUS
 62
     7
 10
30.860993387826841
 20
4.275707868108154
 30
0.0
 11
30.882180725061129
 21
4.2119736016310281
 31
0.0
  0
LINE
  5
F1D3
  8
0
  6
CONTINUOUS
 62
     7
 10
30.585730258555369
 20
4.2119736016310281
 30
0.0
 11
30.60691759578966
 21
4.148583844702415
 31
0.0
  0
LINE
  5
F1D4
  8
0
  6
CONTINUOUS
 62
     7
 10
30.882180725061129
 20
4.2119736016310281
 30
0.0
 11
30.90336806229541
 21
4.148583844702415
 31
0.0
  0
LINE
  5
F1D5
  8
0
  6
CONTINUOUS
 62
     7
 10
30.60691759578966
 20
4.148583844702415
 30
0.0
 11
30.60691759578966
 21
4.0638344957652892
 31
0.0
  0
LINE
  5
F1D6
  8
0
  6
CONTINUOUS
 62
     7
 10
30.90336806229541
 20
4.148583844702415
 30
0.0
 11
30.90336806229541
 21
4.0638344957652892
 31
0.0
  0
ENDBLK
  5
F1D8
  8
0
  0
BLOCK
  8
0
  2
*U14
 70
     1
 10
0.0
 20
0.0
 30
0.0
  3
*U14
  1

  0
SOLID
  5
F1DA
  8
0
  6
CONTINUOUS
 62
     7
 10
6.2230485155140949
 20
2.9207518137593791
 30
0.0
 11
6.2230485155140949
 21
2.688207868505029
 31
0.0
 12
7.4718956289171601
 22
2.688207868505029
 32
0.0
 13
7.4718956289171601
 23
2.688207868505029
 33
0.0
  0
SOLID
  5
F1DB
  8
0
  6
CONTINUOUS
 62
     7
 10
-6.2230485155140949
 20
2.9207518137593791
 30
0.0
 11
-7.4718956289171601
 21
2.9207518137593791
 31
0.0
 12
-7.4718956289171601
 22
2.688207868505029
 32
0.0
 13
-7.4718956289171601
 23
2.688207868505029
 33
0.0
210
0.0
220
0.0
230
-1.0
  0
SOLID
  5
F1DC
  8
0
  6
CONTINUOUS
 62
     7
 10
7.196632499645701
 20
2.688207868505029
 30
0.0
 11
7.1831116331211851
 21
2.645833194036439
 31
0.0
 12
7.4718956289171601
 22
2.645833194036439
 32
0.0
 13
7.4718956289171601
 23
2.645833194036439
 33
0.0
  0
SOLID
  5
F1DD
  8
0
  6
CONTINUOUS
 62
     7
 10
-7.196632499645701
 20
2.688207868505029
 30
0.0
 11
-7.4718956289171601
 21
2.688207868505029
 31
0.0
 12
-7.4718956289171601
 22
2.645833194036439
 32
0.0
 13
-7.4718956289171601
 23
2.645833194036439
 33
0.0
210
0.0
220
0.0
230
-1.0
  0
SOLID
  5
F1DE
  8
0
  6
CONTINUOUS
 62
     7
 10
7.1831116331211851
 20
2.645833194036439
 30
0.0
 11
6.5617014017141564
 21
0.6983207162247143
 31
0.0
 12
6.8579796134456412
 22
0.6983207162247143
 32
0.0
 13
6.8579796134456412
 23
0.6983207162247143
 33
0.0
  0
SOLID
  5
F1DF
  8
0
  6
CONTINUOUS
 62
     7
 10
-7.1831116331211851
 20
2.645833194036439
 30
0.0
 11
-7.4718956289171601
 21
2.645833194036439
 31
0.0
 12
-6.8579796134456412
 22
0.6983207162247143
 32
0.0
 13
-6.8579796134456412
 23
0.6983207162247143
 33
0.0
210
0.0
220
0.0
230
-1.0
  0
LINE
  5
F1E0
  8
0
  6
CONTINUOUS
 62
     7
 10
6.2230485155140949
 20
2.9207518137593791
 30
0.0
 11
6.2230485155140949
 21
2.688207868505029
 31
0.0
  0
LINE
  5
F1E1
  8
0
  6
CONTINUOUS
 62
     7
 10
7.4718956289171601
 20
2.9207518137593791
 30
0.0
 11
7.4718956289171601
 21
2.688207868505029
 31
0.0
  0
LINE
  5
F1E2
  8
0
  6
CONTINUOUS
 62
     7
 10
7.196632499645701
 20
2.688207868505029
 30
0.0
 11
7.1831116331211851
 21
2.645833194036439
 31
0.0
  0
LINE
  5
F1E3
  8
0
  6
CONTINUOUS
 62
     7
 10
7.4718956289171601
 20
2.688207868505029
 30
0.0
 11
7.4718956289171601
 21
2.645833194036439
 31
0.0
  0
LINE
  5
F1E4
  8
0
  6
CONTINUOUS
 62
     7
 10
7.1831116331211851
 20
2.645833194036439
 30
0.0
 11
6.5617014017141564
 21
0.6983207162247143
 31
0.0
  0
LINE
  5
F1E5
  8
0
  6
CONTINUOUS
 62
     7
 10
7.4718956289171601
 20
2.645833194036439
 30
0.0
 11
6.8579796134456412
 21
0.6983207162247143
 31
0.0
  0
ENDBLK
  5
F1E7
  8
0
  0
BLOCK
  8
0
  2
*U15
 70
     1
 10
0.0
 20
0.0
 30
0.0
  3
*U15
  1

  0
SOLID
  5
F1E9
  8
0
  6
CONTINUOUS
 62
     7
 10
30.33199861627952
 20
2.053104445220157
 30
0.0
 11
30.317873724790012
 21
2.0319171079858882
 31
0.0
 12
30.691666584939611
 22
2.0319171079858882
 32
0.0
 13
30.691666584939611
 23
2.0319171079858882
 33
0.0
  0
SOLID
  5
F1EA
  8
0
  6
CONTINUOUS
 62
     7
 10
30.317873724790012
 20
2.0319171079858882
 30
0.0
 11
30.303748833300489
 21
2.0107297707515941
 31
0.0
 12
30.56488707108241
 22
2.0107297707515941
 32
0.0
 13
30.56488707108241
 23
2.0107297707515941
 33
0.0
  0
SOLID
  5
F1EB
  8
0
  6
CONTINUOUS
 62
     7
 10
-30.317873724790012
 20
2.0319171079858882
 30
0.0
 11
-30.607261745550971
 21
2.0319171079858882
 31
0.0
 12
-30.56488707108241
 22
2.0107297707515941
 32
0.0
 13
-30.56488707108241
 23
2.0107297707515941
 33
0.0
210
0.0
220
0.0
230
-1.0
  0
SOLID
  5
F1EC
  8
0
  6
CONTINUOUS
 62
     7
 10
30.303748833300489
 20
2.0107297707515941
 30
0.0
 11
30.289623941810969
 21
1.9895424335173
 31
0.0
 12
30.50115280460528
 22
1.9895424335173
 32
0.0
 13
30.50115280460528
 23
1.9895424335173
 33
0.0
  0
SOLID
  5
F1ED
  8
0
  6
CONTINUOUS
 62
     7
 10
-30.303748833300489
 20
2.0107297707515941
 30
0.0
 11
-30.56488707108241
 21
2.0107297707515941
 31
0.0
 12
-30.50115280460528
 22
1.9895424335173
 32
0.0
 13
-30.50115280460528
 23
1.9895424335173
 33
0.0
210
0.0
220
0.0
230
-1.0
  0
LINE
  5
F1EE
  8
0
  6
CONTINUOUS
 62
     7
 10
30.33199861627952
 20
2.053104445220157
 30
0.0
 11
30.317873724790012
 21
2.0319171079858882
 31
0.0
  0
LINE
  5
F1EF
  8
0
  6
CONTINUOUS
 62
     7
 10
30.691666584939611
 20
2.0319171079858882
 30
0.0
 11
30.33199861627952
 21
2.053104445220157
 31
0.0
  0
LINE
  5
F1F0
  8
0
  6
CONTINUOUS
 62
     7
 10
30.317873724790012
 20
2.0319171079858882
 30
0.0
 11
30.303748833300489
 21
2.0107297707515941
 31
0.0
  0
LINE
  5
F1F1
  8
0
  6
CONTINUOUS
 62
     7
 10
30.607261745550971
 20
2.0319171079858882
 30
0.0
 11
30.56488707108241
 21
2.0107297707515941
 31
0.0
  0
LINE
  5
F1F2
  8
0
  6
CONTINUOUS
 62
     7
 10
30.303748833300489
 20
2.0107297707515941
 30
0.0
 11
30.289623941810969
 21
1.9895424335173
 31
0.0
  0
LINE
  5
F1F3
  8
0
  6
CONTINUOUS
 62
     7
 10
30.56488707108241
 20
2.0107297707515941
 30
0.0
 11
30.50115280460528
 21
1.9895424335173
 31
0.0
  0
ENDBLK
  5
F1F5
  8
0
  0
BLOCK
  8
0
  2
*U16
 70
     1
 10
0.0
 20
0.0
 30
0.0
  3
*U16
  1

  0
SOLID
  5
F1F7
  8
0
  6
CONTINUOUS
 62
     7
 10
30.713026176948151
 20
2.2859929000230461
 30
0.0
 11
30.649636420019561
 21
2.2648055627887791
 31
0.0
 12
30.77641593387677
 22
2.2648055627887791
 32
0.0
 13
30.77641593387677
 23
2.2648055627887791
 33
0.0
  0
SOLID
  5
F1F8
  8
0
  6
CONTINUOUS
 62
     7
 10
30.585902153542431
 20
2.2648055627887791
 30
0.0
 11
30.522512396613848
 21
2.2436182255544841
 31
0.0
 12
30.90353995728249
 22
2.2436182255544841
 32
0.0
 13
30.90353995728249
 23
2.2436182255544841
 33
0.0
  0
SOLID
  5
F1F9
  8
0
  6
CONTINUOUS
 62
     7
 10
-30.585902153542431
 20
2.2648055627887791
 30
0.0
 11
-30.840150200353861
 21
2.2648055627887791
 31
0.0
 12
-30.90353995728249
 22
2.2436182255544841
 32
0.0
 13
-30.90353995728249
 23
2.2436182255544841
 33
0.0
210
0.0
220
0.0
230
-1.0
  0
SOLID
  5
F1FA
  8
0
  6
CONTINUOUS
 62
     7
 10
30.522512396613848
 20
2.2436182255544841
 30
0.0
 11
30.501325059379539
 21
2.2224308883201882
 31
0.0
 12
30.966929714211059
 22
2.2224308883201882
 32
0.0
 13
30.966929714211059
 23
2.2224308883201882
 33
0.0
  0
SOLID
  5
F1FB
  8
0
  6
CONTINUOUS
 62
     7
 10
-30.522512396613848
 20
2.2436182255544841
 30
0.0
 11
-30.90353995728249
 21
2.2436182255544841
 31
0.0
 12
-30.966929714211059
 22
2.2224308883201882
 32
0.0
 13
-30.966929714211059
 23
2.2224308883201882
 33
0.0
210
0.0
220
0.0
230
-1.0
  0
SOLID
  5
F1FC
  8
0
  6
CONTINUOUS
 62
     7
 10
30.501325059379539
 20
2.2224308883201882
 30
0.0
 11
30.480137722145251
 21
2.201243551085923
 31
0.0
 12
30.998624592675348
 22
2.201243551085923
 32
0.0
 13
30.998624592675348
 23
2.201243551085923
 33
0.0
  0
SOLID
  5
F1FD
  8
0
  6
CONTINUOUS
 62
     7
 10
-30.501325059379539
 20
2.2224308883201882
 30
0.0
 11
-30.966929714211059
 21
2.2224308883201882
 31
0.0
 12
-30.998624592675348
 22
2.201243551085923
 32
0.0
 13
-30.998624592675348
 23
2.201243551085923
 33
0.0
210
0.0
220
0.0
230
-1.0
  0
SOLID
  5
F1FE
  8
0
  6
CONTINUOUS
 62
     7
 10
30.480137722145251
 20
2.201243551085923
 30
0.0
 11
30.448442843680962
 21
2.180056213851628
 31
0.0
 12
31.030319471139681
 22
2.180056213851628
 32
0.0
 13
31.030319471139681
 23
2.180056213851628
 33
0.0
  0
SOLID
  5
F1FF
  8
0
  6
CONTINUOUS
 62
     7
 10
-30.480137722145251
 20
2.201243551085923
 30
0.0
 11
-30.998624592675348
 21
2.201243551085923
 31
0.0
 12
-31.030319471139681
 22
2.180056213851628
 32
0.0
 13
-31.030319471139681
 23
2.180056213851628
 33
0.0
210
0.0
220
0.0
230
-1.0
  0
SOLID
  5
F200
  8
0
  6
CONTINUOUS
 62
     7
 10
30.448442843680962
 20
2.180056213851628
 30
0.0
 11
30.416747965216668
 21
2.1588688766173321
 31
0.0
 12
31.072694145608239
 22
2.1588688766173321
 32
0.0
 13
31.072694145608239
 23
2.1588688766173321
 33
0.0
  0
SOLID
  5
F201
  8
0
  6
CONTINUOUS
 62
     7
 10
-30.448442843680962
 20
2.180056213851628
 30
0.0
 11
-31.030319471139681
 21
2.180056213851628
 31
0.0
 12
-31.072694145608239
 22
2.1588688766173321
 32
0.0
 13
-31.072694145608239
 23
2.1588688766173321
 33
0.0
210
0.0
220
0.0
230
-1.0
  0
SOLID
  5
F202
  8
0
  6
CONTINUOUS
 62
     7
 10
30.416747965216668
 20
2.1588688766173321
 30
0.0
 11
30.38853656509491
 21
2.1166664569230109
 31
0.0
 12
31.094053737616768
 22
2.1166664569230109
 32
0.0
 13
31.094053737616768
 23
2.1166664569230109
 33
0.0
  0
SOLID
  5
F203
  8
0
  6
CONTINUOUS
 62
     7
 10
-30.416747965216668
 20
2.1588688766173321
 30
0.0
 11
-31.072694145608239
 21
2.1588688766173321
 31
0.0
 12
-31.094053737616768
 22
2.1166664569230109
 32
0.0
 13
-31.094053737616768
 23
2.1166664569230109
 33
0.0
210
0.0
220
0.0
230
-1.0
  0
SOLID
  5
F204
  8
0
  6
CONTINUOUS
 62
     7
 10
30.38853656509491
 20
2.1166664569230109
 30
0.0
 11
30.374373290748078
 21
2.095479119688747
 31
0.0
 12
31.11524107485106
 22
2.095479119688747
 32
0.0
 13
31.11524107485106
 23
2.095479119688747
 33
0.0
  0
SOLID
  5
F205
  8
0
  6
CONTINUOUS
 62
     7
 10
-30.38853656509491
 20
2.1166664569230109
 30
0.0
 11
-31.094053737616768
 21
2.1166664569230109
 31
0.0
 12
-31.11524107485106
 22
2.095479119688747
 32
0.0
 13
-31.11524107485106
 23
2.095479119688747
 33
0.0
210
0.0
220
0.0
230
-1.0
  0
SOLID
  5
F206
  8
0
  6
CONTINUOUS
 62
     7
 10
30.374373290748078
 20
2.095479119688747
 30
0.0
 11
30.353185953513801
 21
2.074291782454452
 31
0.0
 12
31.136428412085369
 22
2.074291782454452
 32
0.0
 13
31.136428412085369
 23
2.074291782454452
 33
0.0
  0
SOLID
  5
F207
  8
0
  6
CONTINUOUS
 62
     7
 10
-30.374373290748078
 20
2.095479119688747
 30
0.0
 11
-31.11524107485106
 21
2.095479119688747
 31
0.0
 12
-31.136428412085369
 22
2.074291782454452
 32
0.0
 13
-31.136428412085369
 23
2.074291782454452
 33
0.0
210
0.0
220
0.0
230
-1.0
  0
SOLID
  5
F208
  8
0
  6
CONTINUOUS
 62
     7
 10
30.353185953513801
 20
2.074291782454452
 30
0.0
 11
30.33199861627952
 21
2.053104445220157
 31
0.0
 12
31.15761574931966
 22
2.053104445220157
 32
0.0
 13
31.15761574931966
 23
2.053104445220157
 33
0.0
  0
SOLID
  5
F209
  8
0
  6
CONTINUOUS
 62
     7
 10
-30.353185953513801
 20
2.074291782454452
 30
0.0
 11
-31.136428412085369
 21
2.074291782454452
 31
0.0
 12
-31.15761574931966
 22
2.053104445220157
 32
0.0
 13
-31.15761574931966
 23
2.053104445220157
 33
0.0
210
0.0
220
0.0
230
-1.0
  0
SOLID
  5
F20A
  8
0
  6
CONTINUOUS
 62
     7
 10
30.33199861627952
 20
2.053104445220157
 30
0.0
 11
30.691666584939611
 21
2.0319171079858882
 31
0.0
 12
31.178803086553931
 22
2.0319171079858882
 32
0.0
 13
31.178803086553931
 23
2.0319171079858882
 33
0.0
  0
SOLID
  5
F20B
  8
0
  6
CONTINUOUS
 62
     7
 10
-30.33199861627952
 20
2.053104445220157
 30
0.0
 11
-31.15761574931966
 21
2.053104445220157
 31
0.0
 12
-31.178803086553931
 22
2.0319171079858882
 32
0.0
 13
-31.178803086553931
 23
2.0319171079858882
 33
0.0
210
0.0
220
0.0
230
-1.0
  0
SOLID
  5
F20C
  8
0
  6
CONTINUOUS
 62
     7
 10
30.755400851416741
 20
2.0319171079858882
 30
0.0
 11
30.818790608345331
 21
1.9895424335173
 31
0.0
 12
31.199818169013952
 22
1.9895424335173
 32
0.0
 13
31.199818169013952
 23
1.9895424335173
 33
0.0
  0
SOLID
  5
F20D
  8
0
  6
CONTINUOUS
 62
     7
 10
-30.755400851416741
 20
2.0319171079858882
 30
0.0
 11
-31.178803086553931
 21
2.0319171079858882
 31
0.0
 12
-31.199818169013952
 22
1.9895424335173
 32
0.0
 13
-31.199818169013952
 23
1.9895424335173
 33
0.0
210
0.0
220
0.0
230
-1.0
  0
SOLID
  5
F20E
  8
0
  6
CONTINUOUS
 62
     7
 10
30.818790608345331
 20
1.9895424335173
 30
0.0
 11
30.861165282813889
 21
1.947340013823009
 31
0.0
 12
31.2280295691357
 22
1.947340013823009
 32
0.0
 13
31.2280295691357
 23
1.947340013823009
 33
0.0
  0
SOLID
  5
F20F
  8
0
  6
CONTINUOUS
 62
     7
 10
-30.818790608345331
 20
1.9895424335173
 30
0.0
 11
-31.199818169013952
 21
1.9895424335173
 31
0.0
 12
-31.2280295691357
 22
1.947340013823009
 32
0.0
 13
-31.2280295691357
 23
1.947340013823009
 33
0.0
210
0.0
220
0.0
230
-1.0
  0
SOLID
  5
F210
  8
0
  6
CONTINUOUS
 62
     7
 10
30.861165282813889
 20
1.947340013823009
 30
0.0
 11
30.90353995728249
 21
1.926152676588714
 31
0.0
 12
31.242192843482549
 22
1.926152676588714
 32
0.0
 13
31.242192843482549
 23
1.926152676588714
 33
0.0
  0
SOLID
  5
F211
  8
0
  6
CONTINUOUS
 62
     7
 10
-30.861165282813889
 20
1.947340013823009
 30
0.0
 11
-31.2280295691357
 21
1.947340013823009
 31
0.0
 12
-31.242192843482549
 22
1.926152676588714
 32
0.0
 13
-31.242192843482549
 23
1.926152676588714
 33
0.0
210
0.0
220
0.0
230
-1.0
  0
SOLID
  5
F212
  8
0
  6
CONTINUOUS
 62
     7
 10
30.90353995728249
 20
1.926152676588714
 30
0.0
 11
30.924555039742501
 21
1.883778002120124
 31
0.0
 12
31.2562028984559
 22
1.883778002120124
 32
0.0
 13
31.2562028984559
 23
1.883778002120124
 33
0.0
  0
SOLID
  5
F213
  8
0
  6
CONTINUOUS
 62
     7
 10
-30.90353995728249
 20
1.926152676588714
 30
0.0
 11
-31.242192843482549
 21
1.926152676588714
 31
0.0
 12
-31.2562028984559
 22
1.883778002120124
 32
0.0
 13
-31.2562028984559
 23
1.883778002120124
 33
0.0
210
0.0
220
0.0
230
-1.0
  0
SOLID
  5
F214
  8
0
  6
CONTINUOUS
 62
     7
 10
30.924555039742501
 20
1.883778002120124
 30
0.0
 11
30.931674903745339
 21
1.862590664885855
 31
0.0
 12
31.26320792594257
 22
1.862590664885855
 32
0.0
 13
31.26320792594257
 23
1.862590664885855
 33
0.0
  0
SOLID
  5
F215
  8
0
  6
CONTINUOUS
 62
     7
 10
-30.924555039742501
 20
1.883778002120124
 30
0.0
 11
-31.2562028984559
 21
1.883778002120124
 31
0.0
 12
-31.26320792594257
 22
1.862590664885855
 32
0.0
 13
-31.26320792594257
 23
1.862590664885855
 33
0.0
210
0.0
220
0.0
230
-1.0
  0
SOLID
  5
F216
  8
0
  6
CONTINUOUS
 62
     7
 10
30.931674903745339
 20
1.862590664885855
 30
0.0
 11
30.945914631751041
 21
1.820215990417265
 31
0.0
 12
31.26320792594257
 22
1.820215990417265
 32
0.0
 13
31.26320792594257
 23
1.820215990417265
 33
0.0
  0
SOLID
  5
F217
  8
0
  6
CONTINUOUS
 62
     7
 10
-30.931674903745339
 20
1.862590664885855
 30
0.0
 11
-31.26320792594257
 21
1.862590664885855
 31
0.0
 12
-31.26320792594257
 22
1.820215990417265
 32
0.0
 13
-31.26320792594257
 23
1.820215990417265
 33
0.0
210
0.0
220
0.0
230
-1.0
  0
SOLID
  5
F218
  8
0
  6
CONTINUOUS
 62
     7
 10
30.945914631751041
 20
1.820215990417265
 30
0.0
 11
30.95288158843616
 21
1.7992009079572411
 31
0.0
 12
31.26320792594257
 22
1.7992009079572411
 32
0.0
 13
31.26320792594257
 23
1.7992009079572411
 33
0.0
  0
SOLID
  5
F219
  8
0
  6
CONTINUOUS
 62
     7
 10
-30.945914631751041
 20
1.820215990417265
 30
0.0
 11
-31.26320792594257
 21
1.820215990417265
 31
0.0
 12
-31.26320792594257
 22
1.7992009079572411
 32
0.0
 13
-31.26320792594257
 23
1.7992009079572411
 33
0.0
210
0.0
220
0.0
230
-1.0
  0
SOLID
  5
F21A
  8
0
  6
CONTINUOUS
 62
     7
 10
30.95288158843616
 20
1.7992009079572411
 30
0.0
 11
30.966929714211059
 21
1.7568262334886811
 31
0.0
 12
31.277447653948261
 22
1.7568262334886811
 32
0.0
 13
31.277447653948261
 23
1.7568262334886811
 33
0.0
  0
SOLID
  5
F21B
  8
0
  6
CONTINUOUS
 62
     7
 10
-30.95288158843616
 20
1.7992009079572411
 30
0.0
 11
-31.26320792594257
 21
1.7992009079572411
 31
0.0
 12
-31.277447653948261
 22
1.7568262334886811
 32
0.0
 13
-31.277447653948261
 23
1.7568262334886811
 33
0.0
210
0.0
220
0.0
230
-1.0
  0
SOLID
  5
F21C
  8
0
  6
CONTINUOUS
 62
     7
 10
30.966929714211059
 20
1.7568262334886811
 30
0.0
 11
30.966929714211059
 21
1.7356388962543861
 31
0.0
 12
31.2845675179511
 22
1.7356388962543861
 32
0.0
 13
31.2845675179511
 23
1.7356388962543861
 33
0.0
  0
SOLID
  5
F21D
  8
0
  6
CONTINUOUS
 62
     7
 10
-30.966929714211059
 20
1.7568262334886811
 30
0.0
 11
-31.277447653948261
 21
1.7568262334886811
 31
0.0
 12
-31.2845675179511
 22
1.7356388962543861
 32
0.0
 13
-31.2845675179511
 23
1.7356388962543861
 33
0.0
210
0.0
220
0.0
230
-1.0
  0
SOLID
  5
F21E
  8
0
  6
CONTINUOUS
 62
     7
 10
30.966929714211059
 20
1.7356388962543861
 30
0.0
 11
30.966929714211059
 21
1.693264221785824
 31
0.0
 12
31.298577572924451
 22
1.693264221785824
 32
0.0
 13
31.298577572924451
 23
1.693264221785824
 33
0.0
  0
SOLID
  5
F21F
  8
0
  6
CONTINUOUS
 62
     7
 10
-30.966929714211059
 20
1.7356388962543861
 30
0.0
 11
-31.2845675179511
 21
1.7356388962543861
 31
0.0
 12
-31.298577572924451
 22
1.693264221785824
 32
0.0
 13
-31.298577572924451
 23
1.693264221785824
 33
0.0
210
0.0
220
0.0
230
-1.0
  0
SOLID
  5
F220
  8
0
  6
CONTINUOUS
 62
     7
 10
30.966929714211059
 20
1.693264221785824
 30
0.0
 11
30.972280487769211
 21
1.672076884551529
 31
0.0
 12
31.305582600411132
 22
1.672076884551529
 32
0.0
 13
31.305582600411132
 23
1.672076884551529
 33
0.0
  0
SOLID
  5
F221
  8
0
  6
CONTINUOUS
 62
     7
 10
-30.966929714211059
 20
1.693264221785824
 30
0.0
 11
-31.298577572924451
 21
1.693264221785824
 31
0.0
 12
-31.305582600411132
 22
1.672076884551529
 32
0.0
 13
-31.305582600411132
 23
1.672076884551529
 33
0.0
210
0.0
220
0.0
230
-1.0
  0
SOLID
  5
F222
  8
0
  6
CONTINUOUS
 62
     7
 10
30.972280487769211
 20
1.672076884551529
 30
0.0
 11
30.988289306219631
 21
1.6086871276229431
 31
0.0
 12
31.305582600411132
 22
1.6086871276229431
 32
0.0
 13
31.305582600411132
 23
1.6086871276229431
 33
0.0
  0
SOLID
  5
F223
  8
0
  6
CONTINUOUS
 62
     7
 10
-30.972280487769211
 20
1.672076884551529
 30
0.0
 11
-31.305582600411132
 21
1.672076884551529
 31
0.0
 12
-31.305582600411132
 22
1.6086871276229431
 32
0.0
 13
-31.305582600411132
 23
1.6086871276229431
 33
0.0
210
0.0
220
0.0
230
-1.0
  0
SOLID
  5
F224
  8
0
  6
CONTINUOUS
 62
     7
 10
30.988289306219631
 20
1.6086871276229431
 30
0.0
 11
30.988289306219631
 21
1.460375766982934
 31
0.0
 12
31.305582600411132
 22
1.460375766982934
 32
0.0
 13
31.305582600411132
 23
1.460375766982934
 33
0.0
  0
SOLID
  5
F225
  8
0
  6
CONTINUOUS
 62
     7
 10
-30.988289306219631
 20
1.6086871276229431
 30
0.0
 11
-31.305582600411132
 21
1.6086871276229431
 31
0.0
 12
-31.305582600411132
 22
1.460375766982934
 32
0.0
 13
-31.305582600411132
 23
1.460375766982934
 33
0.0
210
0.0
220
0.0
230
-1.0
  0
SOLID
  5
F226
  8
0
  6
CONTINUOUS
 62
     7
 10
30.988289306219631
 20
1.460375766982934
 30
0.0
 11
30.988289306219631
 21
1.4181733472886151
 31
0.0
 12
31.295096459468748
 22
1.4181733472886151
 32
0.0
 13
31.295096459468748
 23
1.4181733472886151
 33
0.0
  0
SOLID
  5
F227
  8
0
  6
CONTINUOUS
 62
     7
 10
-30.988289306219631
 20
1.460375766982934
 30
0.0
 11
-31.305582600411132
 21
1.460375766982934
 31
0.0
 12
-31.295096459468748
 22
1.4181733472886151
 32
0.0
 13
-31.295096459468748
 23
1.4181733472886151
 33
0.0
210
0.0
220
0.0
230
-1.0
  0
SOLID
  5
F228
  8
0
  6
CONTINUOUS
 62
     7
 10
30.988289306219631
 20
1.4181733472886151
 30
0.0
 11
30.977609510215348
 21
1.3757986728200531
 31
0.0
 12
31.2845675179511
 22
1.3757986728200531
 32
0.0
 13
31.2845675179511
 23
1.3757986728200531
 33
0.0
  0
SOLID
  5
F229
  8
0
  6
CONTINUOUS
 62
     7
 10
-30.988289306219631
 20
1.4181733472886151
 30
0.0
 11
-31.295096459468748
 21
1.4181733472886151
 31
0.0
 12
-31.2845675179511
 22
1.3757986728200531
 32
0.0
 13
-31.2845675179511
 23
1.3757986728200531
 33
0.0
210
0.0
220
0.0
230
-1.0
  0
SOLID
  5
F22A
  8
0
  6
CONTINUOUS
 62
     7
 10
30.977609510215348
 20
1.3757986728200531
 30
0.0
 11
30.966929714211059
 21
1.3334239983514631
 31
0.0
 12
31.2845675179511
 22
1.3334239983514631
 32
0.0
 13
31.2845675179511
 23
1.3334239983514631
 33
0.0
  0
SOLID
  5
F22B
  8
0
  6
CONTINUOUS
 62
     7
 10
-30.977609510215348
 20
1.3757986728200531
 30
0.0
 11
-31.2845675179511
 21
1.3757986728200531
 31
0.0
 12
-31.2845675179511
 22
1.3334239983514631
 32
0.0
 13
-31.2845675179511
 23
1.3334239983514631
 33
0.0
210
0.0
220
0.0
230
-1.0
  0
SOLID
  5
F22C
  8
0
  6
CONTINUOUS
 62
     7
 10
30.966929714211059
 20
1.3334239983514631
 30
0.0
 11
30.966929714211059
 21
1.3122366611171961
 31
0.0
 12
31.2845675179511
 22
1.3122366611171961
 32
0.0
 13
31.2845675179511
 23
1.3122366611171961
 33
0.0
  0
SOLID
  5
F22D
  8
0
  6
CONTINUOUS
 62
     7
 10
-30.966929714211059
 20
1.3334239983514631
 30
0.0
 11
-31.2845675179511
 21
1.3334239983514631
 31
0.0
 12
-31.2845675179511
 22
1.3122366611171961
 32
0.0
 13
-31.2845675179511
 23
1.3122366611171961
 33
0.0
210
0.0
220
0.0
230
-1.0
  0
SOLID
  5
F22E
  8
0
  6
CONTINUOUS
 62
     7
 10
30.966929714211059
 20
1.3122366611171961
 30
0.0
 11
30.966929714211059
 21
1.270034241422876
 31
0.0
 12
31.270347137401941
 22
1.270034241422876
 32
0.0
 13
31.270347137401941
 23
1.270034241422876
 33
0.0
  0
SOLID
  5
F22F
  8
0
  6
CONTINUOUS
 62
     7
 10
-30.966929714211059
 20
1.3122366611171961
 30
0.0
 11
-31.2845675179511
 21
1.3122366611171961
 31
0.0
 12
-31.270347137401941
 22
1.270034241422876
 32
0.0
 13
-31.270347137401941
 23
1.270034241422876
 33
0.0
210
0.0
220
0.0
230
-1.0
  0
SOLID
  5
F230
  8
0
  6
CONTINUOUS
 62
     7
 10
30.966929714211059
 20
1.270034241422876
 30
0.0
 11
30.959924686724381
 21
1.248846904188581
 31
0.0
 12
31.26320792594257
 22
1.248846904188581
 32
0.0
 13
31.26320792594257
 23
1.248846904188581
 33
0.0
  0
SOLID
  5
F231
  8
0
  6
CONTINUOUS
 62
     7
 10
-30.966929714211059
 20
1.270034241422876
 30
0.0
 11
-31.270347137401941
 21
1.270034241422876
 31
0.0
 12
-31.26320792594257
 22
1.248846904188581
 32
0.0
 13
-31.26320792594257
 23
1.248846904188581
 33
0.0
210
0.0
220
0.0
230
-1.0
  0
SOLID
  5
F232
  8
0
  6
CONTINUOUS
 62
     7
 10
30.959924686724381
 20
1.248846904188581
 30
0.0
 11
30.945914631751041
 21
1.2064722297200201
 31
0.0
 12
31.249197870969219
 22
1.2064722297200201
 32
0.0
 13
31.249197870969219
 23
1.2064722297200201
 33
0.0
  0
SOLID
  5
F233
  8
0
  6
CONTINUOUS
 62
     7
 10
-30.959924686724381
 20
1.248846904188581
 30
0.0
 11
-31.26320792594257
 21
1.248846904188581
 31
0.0
 12
-31.249197870969219
 22
1.2064722297200201
 32
0.0
 13
-31.249197870969219
 23
1.2064722297200201
 33
0.0
210
0.0
220
0.0
230
-1.0
  0
SOLID
  5
F234
  8
0
  6
CONTINUOUS
 62
     7
 10
30.945914631751041
 20
1.2064722297200201
 30
0.0
 11
30.938794767748199
 21
1.1852848924857251
 31
0.0
 12
31.242192843482549
 22
1.1852848924857251
 32
0.0
 13
31.242192843482549
 23
1.1852848924857251
 33
0.0
  0
SOLID
  5
F235
  8
0
  6
CONTINUOUS
 62
     7
 10
-30.945914631751041
 20
1.2064722297200201
 30
0.0
 11
-31.249197870969219
 21
1.2064722297200201
 31
0.0
 12
-31.242192843482549
 22
1.1852848924857251
 32
0.0
 13
-31.242192843482549
 23
1.1852848924857251
 33
0.0
210
0.0
220
0.0
230
-1.0
  0
SOLID
  5
F236
  8
0
  6
CONTINUOUS
 62
     7
 10
30.938794767748199
 20
1.1852848924857251
 30
0.0
 11
30.924555039742501
 21
1.1429102180171631
 31
0.0
 12
31.22795311547684
 22
1.1429102180171631
 32
0.0
 13
31.22795311547684
 23
1.1429102180171631
 33
0.0
  0
SOLID
  5
F237
  8
0
  6
CONTINUOUS
 62
     7
 10
-30.938794767748199
 20
1.1852848924857251
 30
0.0
 11
-31.242192843482549
 21
1.1852848924857251
 31
0.0
 12
-31.22795311547684
 22
1.1429102180171631
 32
0.0
 13
-31.22795311547684
 23
1.1429102180171631
 33
0.0
210
0.0
220
0.0
230
-1.0
  0
SOLID
  5
F238
  8
0
  6
CONTINUOUS
 62
     7
 10
30.924555039742501
 20
1.1429102180171631
 30
0.0
 11
30.914047498512488
 21
1.1217228807828681
 31
0.0
 12
31.22083325147398
 22
1.1217228807828681
 32
0.0
 13
31.22083325147398
 23
1.1217228807828681
 33
0.0
  0
SOLID
  5
F239
  8
0
  6
CONTINUOUS
 62
     7
 10
-30.924555039742501
 20
1.1429102180171631
 30
0.0
 11
-31.22795311547684
 21
1.1429102180171631
 31
0.0
 12
-31.22083325147398
 22
1.1217228807828681
 32
0.0
 13
-31.22083325147398
 23
1.1217228807828681
 33
0.0
210
0.0
220
0.0
230
-1.0
  0
SOLID
  5
F23A
  8
0
  6
CONTINUOUS
 62
     7
 10
30.914047498512488
 20
1.1217228807828681
 30
0.0
 11
30.90353995728249
 21
1.1005355435485731
 31
0.0
 12
31.21380918858652
 22
1.1005355435485731
 32
0.0
 13
31.21380918858652
 23
1.1005355435485731
 33
0.0
  0
SOLID
  5
F23B
  8
0
  6
CONTINUOUS
 62
     7
 10
-30.914047498512488
 20
1.1217228807828681
 30
0.0
 11
-31.22083325147398
 21
1.1217228807828681
 31
0.0
 12
-31.21380918858652
 22
1.1005355435485731
 32
0.0
 13
-31.21380918858652
 23
1.1005355435485731
 33
0.0
210
0.0
220
0.0
230
-1.0
  0
SOLID
  5
F23C
  8
0
  6
CONTINUOUS
 62
     7
 10
30.90353995728249
 20
1.1005355435485731
 30
0.0
 11
30.861165282813889
 21
1.0795204610885749
 31
0.0
 12
31.206842231901408
 22
1.0795204610885749
 32
0.0
 13
31.206842231901408
 23
1.0795204610885749
 33
0.0
  0
SOLID
  5
F23D
  8
0
  6
CONTINUOUS
 62
     7
 10
-30.90353995728249
 20
1.1005355435485731
 30
0.0
 11
-31.21380918858652
 21
1.1005355435485731
 31
0.0
 12
-31.206842231901408
 22
1.0795204610885749
 32
0.0
 13
-31.206842231901408
 23
1.0795204610885749
 33
0.0
210
0.0
220
0.0
230
-1.0
  0
SOLID
  5
F23E
  8
0
  6
CONTINUOUS
 62
     7
 10
30.861165282813889
 20
1.0795204610885749
 30
0.0
 11
30.861165282813889
 21
1.0583331238542799
 31
0.0
 12
31.199818169013952
 22
1.0583331238542799
 32
0.0
 13
31.199818169013952
 23
1.0583331238542799
 33
0.0
  0
SOLID
  5
F23F
  8
0
  6
CONTINUOUS
 62
     7
 10
-30.861165282813889
 20
1.0795204610885749
 30
0.0
 11
-31.206842231901408
 21
1.0795204610885749
 31
0.0
 12
-31.199818169013952
 22
1.0583331238542799
 32
0.0
 13
-31.199818169013952
 23
1.0583331238542799
 33
0.0
210
0.0
220
0.0
230
-1.0
  0
SOLID
  5
F240
  8
0
  6
CONTINUOUS
 62
     7
 10
30.861165282813889
 20
1.0583331238542799
 30
0.0
 11
30.797775525885299
 21
1.015958449385691
 31
0.0
 12
31.178803086553931
 22
1.015958449385691
 32
0.0
 13
31.178803086553931
 23
1.015958449385691
 33
0.0
  0
SOLID
  5
F241
  8
0
  6
CONTINUOUS
 62
     7
 10
-30.861165282813889
 20
1.0583331238542799
 30
0.0
 11
-31.199818169013952
 21
1.0583331238542799
 31
0.0
 12
-31.178803086553931
 22
1.015958449385691
 32
0.0
 13
-31.178803086553931
 23
1.015958449385691
 33
0.0
210
0.0
220
0.0
230
-1.0
  0
SOLID
  5
F242
  8
0
  6
CONTINUOUS
 62
     7
 10
30.797775525885299
 20
1.015958449385691
 30
0.0
 11
30.734041259408169
 21
0.9947711121514259
 31
0.0
 12
31.15761574931966
 22
0.9947711121514259
 32
0.0
 13
31.15761574931966
 23
0.9947711121514259
 33
0.0
  0
SOLID
  5
F243
  8
0
  6
CONTINUOUS
 62
     7
 10
-30.797775525885299
 20
1.015958449385691
 30
0.0
 11
-31.178803086553931
 21
1.015958449385691
 31
0.0
 12
-31.15761574931966
 22
0.9947711121514259
 32
0.0
 13
-31.15761574931966
 23
0.9947711121514259
 33
0.0
210
0.0
220
0.0
230
-1.0
  0
SOLID
  5
F244
  8
0
  6
CONTINUOUS
 62
     7
 10
30.183859510413772
 20
0.9947711121514259
 30
0.0
 11
30.20504684764806
 21
0.9735837749171308
 31
0.0
 12
31.136428412085369
 22
0.9735837749171308
 32
0.0
 13
31.136428412085369
 23
0.9735837749171308
 33
0.0
  0
SOLID
  5
F245
  8
0
  6
CONTINUOUS
 62
     7
 10
-30.183859510413772
 20
0.9947711121514259
 30
0.0
 11
-31.15761574931966
 21
0.9947711121514259
 31
0.0
 12
-31.136428412085369
 22
0.9735837749171308
 32
0.0
 13
-31.136428412085369
 23
0.9735837749171308
 33
0.0
210
0.0
220
0.0
230
-1.0
  0
SOLID
  5
F246
  8
0
  6
CONTINUOUS
 62
     7
 10
30.20504684764806
 20
0.9735837749171308
 30
0.0
 11
30.226234184882351
 21
0.9523964376828359
 31
0.0
 12
31.122303520595828
 22
0.9523964376828359
 32
0.0
 13
31.122303520595828
 23
0.9523964376828359
 33
0.0
  0
SOLID
  5
F247
  8
0
  6
CONTINUOUS
 62
     7
 10
-30.20504684764806
 20
0.9735837749171308
 30
0.0
 11
-31.136428412085369
 21
0.9735837749171308
 31
0.0
 12
-31.122303520595828
 22
0.9523964376828359
 32
0.0
 13
-31.122303520595828
 23
0.9523964376828359
 33
0.0
210
0.0
220
0.0
230
-1.0
  0
SOLID
  5
F248
  8
0
  6
CONTINUOUS
 62
     7
 10
30.226234184882351
 20
0.9523964376828359
 30
0.0
 11
30.247249267342369
 21
0.9312091004485694
 31
0.0
 12
31.108178629106309
 22
0.9312091004485694
 32
0.0
 13
31.108178629106309
 23
0.9312091004485694
 33
0.0
  0
SOLID
  5
F249
  8
0
  6
CONTINUOUS
 62
     7
 10
-30.226234184882351
 20
0.9523964376828359
 30
0.0
 11
-31.122303520595828
 21
0.9523964376828359
 31
0.0
 12
-31.108178629106309
 22
0.9312091004485694
 32
0.0
 13
-31.108178629106309
 23
0.9312091004485694
 33
0.0
210
0.0
220
0.0
230
-1.0
  0
SOLID
  5
F24A
  8
0
  6
CONTINUOUS
 62
     7
 10
30.247249267342369
 20
0.9312091004485694
 30
0.0
 11
30.279246470512529
 21
0.9100217632142744
 31
0.0
 12
31.094053737616768
 22
0.9100217632142744
 32
0.0
 13
31.094053737616768
 23
0.9100217632142744
 33
0.0
  0
SOLID
  5
F24B
  8
0
  6
CONTINUOUS
 62
     7
 10
-30.247249267342369
 20
0.9312091004485694
 30
0.0
 11
-31.108178629106309
 21
0.9312091004485694
 31
0.0
 12
-31.094053737616768
 22
0.9100217632142744
 32
0.0
 13
-31.094053737616768
 23
0.9100217632142744
 33
0.0
210
0.0
220
0.0
230
-1.0
  0
SOLID
  5
F24C
  8
0
  6
CONTINUOUS
 62
     7
 10
30.279246470512529
 20
0.9100217632142744
 30
0.0
 11
30.310983533819488
 21
0.8890066807542496
 31
0.0
 12
31.072952879309991
 22
0.8890066807542496
 32
0.0
 13
31.072952879309991
 23
0.8890066807542496
 33
0.0
  0
SOLID
  5
F24D
  8
0
  6
CONTINUOUS
 62
     7
 10
-30.279246470512529
 20
0.9100217632142744
 30
0.0
 11
-31.094053737616768
 21
0.9100217632142744
 31
0.0
 12
-31.072952879309991
 22
0.8890066807542496
 32
0.0
 13
-31.072952879309991
 23
0.8890066807542496
 33
0.0
210
0.0
220
0.0
230
-1.0
  0
SOLID
  5
F24E
  8
0
  6
CONTINUOUS
 62
     7
 10
30.310983533819488
 20
0.8890066807542496
 30
0.0
 11
30.331998616279542
 21
0.8678193435199546
 31
0.0
 12
31.051679063148221
 22
0.8678193435199546
 32
0.0
 13
31.051679063148221
 23
0.8678193435199546
 33
0.0
  0
SOLID
  5
F24F
  8
0
  6
CONTINUOUS
 62
     7
 10
-30.310983533819488
 20
0.8890066807542496
 30
0.0
 11
-31.072952879309991
 21
0.8890066807542496
 31
0.0
 12
-31.051679063148221
 22
0.8678193435199546
 32
0.0
 13
-31.051679063148221
 23
0.8678193435199546
 33
0.0
210
0.0
220
0.0
230
-1.0
  0
SOLID
  5
F250
  8
0
  6
CONTINUOUS
 62
     7
 10
30.331998616279542
 20
0.8678193435199546
 30
0.0
 11
30.353013698739549
 21
0.846632006285688
 31
0.0
 12
30.988289306219631
 22
0.846632006285688
 32
0.0
 13
30.988289306219631
 23
0.846632006285688
 33
0.0
  0
SOLID
  5
F251
  8
0
  6
CONTINUOUS
 62
     7
 10
-30.331998616279542
 20
0.8678193435199546
 30
0.0
 11
-31.051679063148221
 21
0.8678193435199546
 31
0.0
 12
-30.988289306219631
 22
0.846632006285688
 32
0.0
 13
-30.988289306219631
 23
0.846632006285688
 33
0.0
210
0.0
220
0.0
230
-1.0
  0
SOLID
  5
F252
  8
0
  6
CONTINUOUS
 62
     7
 10
30.353013698739549
 20
0.846632006285688
 30
0.0
 11
30.416747965216668
 21
0.8042573318170978
 31
0.0
 12
30.945914631751041
 22
0.8042573318170978
 32
0.0
 13
30.945914631751041
 23
0.8042573318170978
 33
0.0
  0
SOLID
  5
F253
  8
0
  6
CONTINUOUS
 62
     7
 10
-30.353013698739549
 20
0.846632006285688
 30
0.0
 11
-30.988289306219631
 21
0.846632006285688
 31
0.0
 12
-30.945914631751041
 22
0.8042573318170978
 32
0.0
 13
-30.945914631751041
 23
0.8042573318170978
 33
0.0
210
0.0
220
0.0
230
-1.0
  0
SOLID
  5
F254
  8
0
  6
CONTINUOUS
 62
     7
 10
30.416747965216668
 20
0.8042573318170978
 30
0.0
 11
30.480137722145251
 21
0.7830699945828031
 31
0.0
 12
30.882180365273911
 22
0.7830699945828031
 32
0.0
 13
30.882180365273911
 23
0.7830699945828031
 33
0.0
  0
SOLID
  5
F255
  8
0
  6
CONTINUOUS
 62
     7
 10
-30.416747965216668
 20
0.8042573318170978
 30
0.0
 11
-30.945914631751041
 21
0.8042573318170978
 31
0.0
 12
-30.882180365273911
 22
0.7830699945828031
 32
0.0
 13
-30.882180365273911
 23
0.7830699945828031
 33
0.0
210
0.0
220
0.0
230
-1.0
  0
SOLID
  5
F256
  8
0
  6
CONTINUOUS
 62
     7
 10
30.480137722145251
 20
0.7830699945828031
 30
0.0
 11
30.54352747907387
 21
0.7618826573485366
 31
0.0
 12
30.818790608345331
 22
0.7618826573485366
 32
0.0
 13
30.818790608345331
 23
0.7618826573485366
 33
0.0
  0
SOLID
  5
F257
  8
0
  6
CONTINUOUS
 62
     7
 10
-30.480137722145251
 20
0.7830699945828031
 30
0.0
 11
-30.882180365273911
 21
0.7830699945828031
 31
0.0
 12
-30.818790608345331
 22
0.7618826573485366
 32
0.0
 13
-30.818790608345331
 23
0.7618826573485366
 33
0.0
210
0.0
220
0.0
230
-1.0
  0
LINE
  5
F258
  8
0
  6
CONTINUOUS
 62
     7
 10
30.713026176948151
 20
2.2859929000230461
 30
0.0
 11
30.649636420019561
 21
2.2648055627887791
 31
0.0
  0
LINE
  5
F259
  8
0
  6
CONTINUOUS
 62
     7
 10
30.77641593387677
 20
2.2648055627887791
 30
0.0
 11
30.713026176948151
 21
2.2859929000230461
 31
0.0
  0
LINE
  5
F25A
  8
0
  6
CONTINUOUS
 62
     7
 10
30.585902153542431
 20
2.2648055627887791
 30
0.0
 11
30.522512396613848
 21
2.2436182255544841
 31
0.0
  0
LINE
  5
F25B
  8
0
  6
CONTINUOUS
 62
     7
 10
30.840150200353861
 20
2.2648055627887791
 30
0.0
 11
30.90353995728249
 21
2.2436182255544841
 31
0.0
  0
LINE
  5
F25C
  8
0
  6
CONTINUOUS
 62
     7
 10
30.522512396613848
 20
2.2436182255544841
 30
0.0
 11
30.501325059379539
 21
2.2224308883201882
 31
0.0
  0
LINE
  5
F25D
  8
0
  6
CONTINUOUS
 62
     7
 10
30.90353995728249
 20
2.2436182255544841
 30
0.0
 11
30.966929714211059
 21
2.2224308883201882
 31
0.0
  0
LINE
  5
F25E
  8
0
  6
CONTINUOUS
 62
     7
 10
30.501325059379539
 20
2.2224308883201882
 30
0.0
 11
30.480137722145251
 21
2.201243551085923
 31
0.0
  0
LINE
  5
F25F
  8
0
  6
CONTINUOUS
 62
     7
 10
30.966929714211059
 20
2.2224308883201882
 30
0.0
 11
30.998624592675348
 21
2.201243551085923
 31
0.0
  0
LINE
  5
F260
  8
0
  6
CONTINUOUS
 62
     7
 10
30.480137722145251
 20
2.201243551085923
 30
0.0
 11
30.448442843680962
 21
2.180056213851628
 31
0.0
  0
LINE
  5
F261
  8
0
  6
CONTINUOUS
 62
     7
 10
30.998624592675348
 20
2.201243551085923
 30
0.0
 11
31.030319471139681
 21
2.180056213851628
 31
0.0
  0
LINE
  5
F262
  8
0
  6
CONTINUOUS
 62
     7
 10
30.448442843680962
 20
2.180056213851628
 30
0.0
 11
30.416747965216668
 21
2.1588688766173321
 31
0.0
  0
LINE
  5
F263
  8
0
  6
CONTINUOUS
 62
     7
 10
31.030319471139681
 20
2.180056213851628
 30
0.0
 11
31.072694145608239
 21
2.1588688766173321
 31
0.0
  0
LINE
  5
F264
  8
0
  6
CONTINUOUS
 62
     7
 10
30.416747965216668
 20
2.1588688766173321
 30
0.0
 11
30.38853656509491
 21
2.1166664569230109
 31
0.0
  0
LINE
  5
F265
  8
0
  6
CONTINUOUS
 62
     7
 10
31.072694145608239
 20
2.1588688766173321
 30
0.0
 11
31.094053737616768
 21
2.1166664569230109
 31
0.0
  0
LINE
  5
F266
  8
0
  6
CONTINUOUS
 62
     7
 10
30.38853656509491
 20
2.1166664569230109
 30
0.0
 11
30.374373290748078
 21
2.095479119688747
 31
0.0
  0
LINE
  5
F267
  8
0
  6
CONTINUOUS
 62
     7
 10
31.094053737616768
 20
2.1166664569230109
 30
0.0
 11
31.11524107485106
 21
2.095479119688747
 31
0.0
  0
LINE
  5
F268
  8
0
  6
CONTINUOUS
 62
     7
 10
30.374373290748078
 20
2.095479119688747
 30
0.0
 11
30.353185953513801
 21
2.074291782454452
 31
0.0
  0
LINE
  5
F269
  8
0
  6
CONTINUOUS
 62
     7
 10
31.11524107485106
 20
2.095479119688747
 30
0.0
 11
31.136428412085369
 21
2.074291782454452
 31
0.0
  0
LINE
  5
F26A
  8
0
  6
CONTINUOUS
 62
     7
 10
30.353185953513801
 20
2.074291782454452
 30
0.0
 11
30.33199861627952
 21
2.053104445220157
 31
0.0
  0
LINE
  5
F26B
  8
0
  6
CONTINUOUS
 62
     7
 10
31.136428412085369
 20
2.074291782454452
 30
0.0
 11
31.15761574931966
 21
2.053104445220157
 31
0.0
  0
LINE
  5
F26C
  8
0
  6
CONTINUOUS
 62
     7
 10
30.33199861627952
 20
2.053104445220157
 30
0.0
 11
30.691666584939611
 21
2.0319171079858882
 31
0.0
  0
LINE
  5
F26D
  8
0
  6
CONTINUOUS
 62
     7
 10
31.15761574931966
 20
2.053104445220157
 30
0.0
 11
31.178803086553931
 21
2.0319171079858882
 31
0.0
  0
LINE
  5
F26E
  8
0
  6
CONTINUOUS
 62
     7
 10
30.755400851416741
 20
2.0319171079858882
 30
0.0
 11
30.818790608345331
 21
1.9895424335173
 31
0.0
  0
LINE
  5
F26F
  8
0
  6
CONTINUOUS
 62
     7
 10
31.178803086553931
 20
2.0319171079858882
 30
0.0
 11
31.199818169013952
 21
1.9895424335173
 31
0.0
  0
LINE
  5
F270
  8
0
  6
CONTINUOUS
 62
     7
 10
30.818790608345331
 20
1.9895424335173
 30
0.0
 11
30.861165282813889
 21
1.947340013823009
 31
0.0
  0
LINE
  5
F271
  8
0
  6
CONTINUOUS
 62
     7
 10
31.199818169013952
 20
1.9895424335173
 30
0.0
 11
31.2280295691357
 21
1.947340013823009
 31
0.0
  0
LINE
  5
F272
  8
0
  6
CONTINUOUS
 62
     7
 10
30.861165282813889
 20
1.947340013823009
 30
0.0
 11
30.90353995728249
 21
1.926152676588714
 31
0.0
  0
LINE
  5
F273
  8
0
  6
CONTINUOUS
 62
     7
 10
31.2280295691357
 20
1.947340013823009
 30
0.0
 11
31.242192843482549
 21
1.926152676588714
 31
0.0
  0
LINE
  5
F274
  8
0
  6
CONTINUOUS
 62
     7
 10
30.90353995728249
 20
1.926152676588714
 30
0.0
 11
30.924555039742501
 21
1.883778002120124
 31
0.0
  0
LINE
  5
F275
  8
0
  6
CONTINUOUS
 62
     7
 10
31.242192843482549
 20
1.926152676588714
 30
0.0
 11
31.2562028984559
 21
1.883778002120124
 31
0.0
  0
LINE
  5
F276
  8
0
  6
CONTINUOUS
 62
     7
 10
30.924555039742501
 20
1.883778002120124
 30
0.0
 11
30.931674903745339
 21
1.862590664885855
 31
0.0
  0
LINE
  5
F277
  8
0
  6
CONTINUOUS
 62
     7
 10
31.2562028984559
 20
1.883778002120124
 30
0.0
 11
31.26320792594257
 21
1.862590664885855
 31
0.0
  0
LINE
  5
F278
  8
0
  6
CONTINUOUS
 62
     7
 10
30.931674903745339
 20
1.862590664885855
 30
0.0
 11
30.945914631751041
 21
1.820215990417265
 31
0.0
  0
LINE
  5
F279
  8
0
  6
CONTINUOUS
 62
     7
 10
31.26320792594257
 20
1.862590664885855
 30
0.0
 11
31.26320792594257
 21
1.820215990417265
 31
0.0
  0
LINE
  5
F27A
  8
0
  6
CONTINUOUS
 62
     7
 10
30.945914631751041
 20
1.820215990417265
 30
0.0
 11
30.95288158843616
 21
1.7992009079572411
 31
0.0
  0
LINE
  5
F27B
  8
0
  6
CONTINUOUS
 62
     7
 10
31.26320792594257
 20
1.820215990417265
 30
0.0
 11
31.26320792594257
 21
1.7992009079572411
 31
0.0
  0
LINE
  5
F27C
  8
0
  6
CONTINUOUS
 62
     7
 10
30.95288158843616
 20
1.7992009079572411
 30
0.0
 11
30.966929714211059
 21
1.7568262334886811
 31
0.0
  0
LINE
  5
F27D
  8
0
  6
CONTINUOUS
 62
     7
 10
31.26320792594257
 20
1.7992009079572411
 30
0.0
 11
31.277447653948261
 21
1.7568262334886811
 31
0.0
  0
LINE
  5
F27E
  8
0
  6
CONTINUOUS
 62
     7
 10
30.966929714211059
 20
1.7568262334886811
 30
0.0
 11
30.966929714211059
 21
1.7356388962543861
 31
0.0
  0
LINE
  5
F27F
  8
0
  6
CONTINUOUS
 62
     7
 10
31.277447653948261
 20
1.7568262334886811
 30
0.0
 11
31.2845675179511
 21
1.7356388962543861
 31
0.0
  0
LINE
  5
F280
  8
0
  6
CONTINUOUS
 62
     7
 10
30.966929714211059
 20
1.7356388962543861
 30
0.0
 11
30.966929714211059
 21
1.693264221785824
 31
0.0
  0
LINE
  5
F281
  8
0
  6
CONTINUOUS
 62
     7
 10
31.2845675179511
 20
1.7356388962543861
 30
0.0
 11
31.298577572924451
 21
1.693264221785824
 31
0.0
  0
LINE
  5
F282
  8
0
  6
CONTINUOUS
 62
     7
 10
30.966929714211059
 20
1.693264221785824
 30
0.0
 11
30.972280487769211
 21
1.672076884551529
 31
0.0
  0
LINE
  5
F283
  8
0
  6
CONTINUOUS
 62
     7
 10
31.298577572924451
 20
1.693264221785824
 30
0.0
 11
31.305582600411132
 21
1.672076884551529
 31
0.0
  0
LINE
  5
F284
  8
0
  6
CONTINUOUS
 62
     7
 10
30.972280487769211
 20
1.672076884551529
 30
0.0
 11
30.988289306219631
 21
1.6086871276229431
 31
0.0
  0
LINE
  5
F285
  8
0
  6
CONTINUOUS
 62
     7
 10
31.305582600411132
 20
1.672076884551529
 30
0.0
 11
31.305582600411132
 21
1.6086871276229431
 31
0.0
  0
LINE
  5
F286
  8
0
  6
CONTINUOUS
 62
     7
 10
30.988289306219631
 20
1.6086871276229431
 30
0.0
 11
30.988289306219631
 21
1.460375766982934
 31
0.0
  0
LINE
  5
F287
  8
0
  6
CONTINUOUS
 62
     7
 10
31.305582600411132
 20
1.6086871276229431
 30
0.0
 11
31.305582600411132
 21
1.460375766982934
 31
0.0
  0
LINE
  5
F288
  8
0
  6
CONTINUOUS
 62
     7
 10
30.988289306219631
 20
1.460375766982934
 30
0.0
 11
30.988289306219631
 21
1.4181733472886151
 31
0.0
  0
LINE
  5
F289
  8
0
  6
CONTINUOUS
 62
     7
 10
31.305582600411132
 20
1.460375766982934
 30
0.0
 11
31.295096459468748
 21
1.4181733472886151
 31
0.0
  0
LINE
  5
F28A
  8
0
  6
CONTINUOUS
 62
     7
 10
30.988289306219631
 20
1.4181733472886151
 30
0.0
 11
30.977609510215348
 21
1.3757986728200531
 31
0.0
  0
LINE
  5
F28B
  8
0
  6
CONTINUOUS
 62
     7
 10
31.295096459468748
 20
1.4181733472886151
 30
0.0
 11
31.2845675179511
 21
1.3757986728200531
 31
0.0
  0
LINE
  5
F28C
  8
0
  6
CONTINUOUS
 62
     7
 10
30.977609510215348
 20
1.3757986728200531
 30
0.0
 11
30.966929714211059
 21
1.3334239983514631
 31
0.0
  0
LINE
  5
F28D
  8
0
  6
CONTINUOUS
 62
     7
 10
31.2845675179511
 20
1.3757986728200531
 30
0.0
 11
31.2845675179511
 21
1.3334239983514631
 31
0.0
  0
LINE
  5
F28E
  8
0
  6
CONTINUOUS
 62
     7
 10
30.966929714211059
 20
1.3334239983514631
 30
0.0
 11
30.966929714211059
 21
1.3122366611171961
 31
0.0
  0
LINE
  5
F28F
  8
0
  6
CONTINUOUS
 62
     7
 10
31.2845675179511
 20
1.3334239983514631
 30
0.0
 11
31.2845675179511
 21
1.3122366611171961
 31
0.0
  0
LINE
  5
F290
  8
0
  6
CONTINUOUS
 62
     7
 10
30.966929714211059
 20
1.3122366611171961
 30
0.0
 11
30.966929714211059
 21
1.270034241422876
 31
0.0
  0
LINE
  5
F291
  8
0
  6
CONTINUOUS
 62
     7
 10
31.2845675179511
 20
1.3122366611171961
 30
0.0
 11
31.270347137401941
 21
1.270034241422876
 31
0.0
  0
LINE
  5
F292
  8
0
  6
CONTINUOUS
 62
     7
 10
30.966929714211059
 20
1.270034241422876
 30
0.0
 11
30.959924686724381
 21
1.248846904188581
 31
0.0
  0
LINE
  5
F293
  8
0
  6
CONTINUOUS
 62
     7
 10
31.270347137401941
 20
1.270034241422876
 30
0.0
 11
31.26320792594257
 21
1.248846904188581
 31
0.0
  0
LINE
  5
F294
  8
0
  6
CONTINUOUS
 62
     7
 10
30.959924686724381
 20
1.248846904188581
 30
0.0
 11
30.945914631751041
 21
1.2064722297200201
 31
0.0
  0
LINE
  5
F295
  8
0
  6
CONTINUOUS
 62
     7
 10
31.26320792594257
 20
1.248846904188581
 30
0.0
 11
31.249197870969219
 21
1.2064722297200201
 31
0.0
  0
LINE
  5
F296
  8
0
  6
CONTINUOUS
 62
     7
 10
30.945914631751041
 20
1.2064722297200201
 30
0.0
 11
30.938794767748199
 21
1.1852848924857251
 31
0.0
  0
LINE
  5
F297
  8
0
  6
CONTINUOUS
 62
     7
 10
31.249197870969219
 20
1.2064722297200201
 30
0.0
 11
31.242192843482549
 21
1.1852848924857251
 31
0.0
  0
LINE
  5
F298
  8
0
  6
CONTINUOUS
 62
     7
 10
30.938794767748199
 20
1.1852848924857251
 30
0.0
 11
30.924555039742501
 21
1.1429102180171631
 31
0.0
  0
LINE
  5
F299
  8
0
  6
CONTINUOUS
 62
     7
 10
31.242192843482549
 20
1.1852848924857251
 30
0.0
 11
31.22795311547684
 21
1.1429102180171631
 31
0.0
  0
LINE
  5
F29A
  8
0
  6
CONTINUOUS
 62
     7
 10
30.924555039742501
 20
1.1429102180171631
 30
0.0
 11
30.914047498512488
 21
1.1217228807828681
 31
0.0
  0
LINE
  5
F29B
  8
0
  6
CONTINUOUS
 62
     7
 10
31.22795311547684
 20
1.1429102180171631
 30
0.0
 11
31.22083325147398
 21
1.1217228807828681
 31
0.0
  0
LINE
  5
F29C
  8
0
  6
CONTINUOUS
 62
     7
 10
30.914047498512488
 20
1.1217228807828681
 30
0.0
 11
30.90353995728249
 21
1.1005355435485731
 31
0.0
  0
LINE
  5
F29D
  8
0
  6
CONTINUOUS
 62
     7
 10
31.22083325147398
 20
1.1217228807828681
 30
0.0
 11
31.21380918858652
 21
1.1005355435485731
 31
0.0
  0
LINE
  5
F29E
  8
0
  6
CONTINUOUS
 62
     7
 10
30.90353995728249
 20
1.1005355435485731
 30
0.0
 11
30.861165282813889
 21
1.0795204610885749
 31
0.0
  0
LINE
  5
F29F
  8
0
  6
CONTINUOUS
 62
     7
 10
31.21380918858652
 20
1.1005355435485731
 30
0.0
 11
31.206842231901408
 21
1.0795204610885749
 31
0.0
  0
LINE
  5
F2A0
  8
0
  6
CONTINUOUS
 62
     7
 10
30.861165282813889
 20
1.0795204610885749
 30
0.0
 11
30.861165282813889
 21
1.0583331238542799
 31
0.0
  0
LINE
  5
F2A1
  8
0
  6
CONTINUOUS
 62
     7
 10
31.206842231901408
 20
1.0795204610885749
 30
0.0
 11
31.199818169013952
 21
1.0583331238542799
 31
0.0
  0
LINE
  5
F2A2
  8
0
  6
CONTINUOUS
 62
     7
 10
30.861165282813889
 20
1.0583331238542799
 30
0.0
 11
30.797775525885299
 21
1.015958449385691
 31
0.0
  0
LINE
  5
F2A3
  8
0
  6
CONTINUOUS
 62
     7
 10
31.199818169013952
 20
1.0583331238542799
 30
0.0
 11
31.178803086553931
 21
1.015958449385691
 31
0.0
  0
LINE
  5
F2A4
  8
0
  6
CONTINUOUS
 62
     7
 10
30.797775525885299
 20
1.015958449385691
 30
0.0
 11
30.734041259408169
 21
0.9947711121514259
 31
0.0
  0
LINE
  5
F2A5
  8
0
  6
CONTINUOUS
 62
     7
 10
31.178803086553931
 20
1.015958449385691
 30
0.0
 11
31.15761574931966
 21
0.9947711121514259
 31
0.0
  0
LINE
  5
F2A6
  8
0
  6
CONTINUOUS
 62
     7
 10
30.183859510413772
 20
0.9947711121514259
 30
0.0
 11
30.20504684764806
 21
0.9735837749171308
 31
0.0
  0
LINE
  5
F2A7
  8
0
  6
CONTINUOUS
 62
     7
 10
31.15761574931966
 20
0.9947711121514259
 30
0.0
 11
31.136428412085369
 21
0.9735837749171308
 31
0.0
  0
LINE
  5
F2A8
  8
0
  6
CONTINUOUS
 62
     7
 10
30.20504684764806
 20
0.9735837749171308
 30
0.0
 11
30.226234184882351
 21
0.9523964376828359
 31
0.0
  0
LINE
  5
F2A9
  8
0
  6
CONTINUOUS
 62
     7
 10
31.136428412085369
 20
0.9735837749171308
 30
0.0
 11
31.122303520595828
 21
0.9523964376828359
 31
0.0
  0
LINE
  5
F2AA
  8
0
  6
CONTINUOUS
 62
     7
 10
30.226234184882351
 20
0.9523964376828359
 30
0.0
 11
30.247249267342369
 21
0.9312091004485694
 31
0.0
  0
LINE
  5
F2AB
  8
0
  6
CONTINUOUS
 62
     7
 10
31.122303520595828
 20
0.9523964376828359
 30
0.0
 11
31.108178629106309
 21
0.9312091004485694
 31
0.0
  0
LINE
  5
F2AC
  8
0
  6
CONTINUOUS
 62
     7
 10
30.247249267342369
 20
0.9312091004485694
 30
0.0
 11
30.279246470512529
 21
0.9100217632142744
 31
0.0
  0
LINE
  5
F2AD
  8
0
  6
CONTINUOUS
 62
     7
 10
31.108178629106309
 20
0.9312091004485694
 30
0.0
 11
31.094053737616768
 21
0.9100217632142744
 31
0.0
  0
LINE
  5
F2AE
  8
0
  6
CONTINUOUS
 62
     7
 10
30.279246470512529
 20
0.9100217632142744
 30
0.0
 11
30.310983533819488
 21
0.8890066807542496
 31
0.0
  0
LINE
  5
F2AF
  8
0
  6
CONTINUOUS
 62
     7
 10
31.094053737616768
 20
0.9100217632142744
 30
0.0
 11
31.072952879309991
 21
0.8890066807542496
 31
0.0
  0
LINE
  5
F2B0
  8
0
  6
CONTINUOUS
 62
     7
 10
30.310983533819488
 20
0.8890066807542496
 30
0.0
 11
30.331998616279542
 21
0.8678193435199546
 31
0.0
  0
LINE
  5
F2B1
  8
0
  6
CONTINUOUS
 62
     7
 10
31.072952879309991
 20
0.8890066807542496
 30
0.0
 11
31.051679063148221
 21
0.8678193435199546
 31
0.0
  0
LINE
  5
F2B2
  8
0
  6
CONTINUOUS
 62
     7
 10
30.331998616279542
 20
0.8678193435199546
 30
0.0
 11
30.353013698739549
 21
0.846632006285688
 31
0.0
  0
LINE
  5
F2B3
  8
0
  6
CONTINUOUS
 62
     7
 10
31.051679063148221
 20
0.8678193435199546
 30
0.0
 11
30.988289306219631
 21
0.846632006285688
 31
0.0
  0
LINE
  5
F2B4
  8
0
  6
CONTINUOUS
 62
     7
 10
30.353013698739549
 20
0.846632006285688
 30
0.0
 11
30.416747965216668
 21
0.8042573318170978
 31
0.0
  0
LINE
  5
F2B5
  8
0
  6
CONTINUOUS
 62
     7
 10
30.988289306219631
 20
0.846632006285688
 30
0.0
 11
30.945914631751041
 21
0.8042573318170978
 31
0.0
  0
LINE
  5
F2B6
  8
0
  6
CONTINUOUS
 62
     7
 10
30.416747965216668
 20
0.8042573318170978
 30
0.0
 11
30.480137722145251
 21
0.7830699945828031
 31
0.0
  0
LINE
  5
F2B7
  8
0
  6
CONTINUOUS
 62
     7
 10
30.945914631751041
 20
0.8042573318170978
 30
0.0
 11
30.882180365273911
 21
0.7830699945828031
 31
0.0
  0
LINE
  5
F2B8
  8
0
  6
CONTINUOUS
 62
     7
 10
30.480137722145251
 20
0.7830699945828031
 30
0.0
 11
30.54352747907387
 21
0.7618826573485366
 31
0.0
  0
LINE
  5
F2B9
  8
0
  6
CONTINUOUS
 62
     7
 10
30.882180365273911
 20
0.7830699945828031
 30
0.0
 11
30.818790608345331
 21
0.7618826573485366
 31
0.0
  0
ENDBLK
  5
F2BB
  8
0
  0
BLOCK
  8
0
  2
*U17
 70
     1
 10
0.0
 20
0.0
 30
0.0
  3
*U17
  1

  0
SOLID
  5
F2BD
  8
0
  6
CONTINUOUS
 62
     7
 10
30.226234184882351
 20
2.81515956655744
 30
0.0
 11
30.215554388878079
 21
2.793972229323145
 31
0.0
 12
30.628276828011
 22
2.793972229323145
 32
0.0
 13
30.628276828011
 23
2.793972229323145
 33
0.0
  0
SOLID
  5
F2BE
  8
0
  6
CONTINUOUS
 62
     7
 10
-30.226234184882351
 20
2.81515956655744
 30
0.0
 11
-30.691666584939611
 21
2.81515956655744
 31
0.0
 12
-30.628276828011
 22
2.793972229323145
 32
0.0
 13
-30.628276828011
 23
2.793972229323145
 33
0.0
210
0.0
220
0.0
230
-1.0
  0
SOLID
  5
F2BF
  8
0
  6
CONTINUOUS
 62
     7
 10
30.215554388878079
 20
2.793972229323145
 30
0.0
 11
30.204874592873811
 21
2.77278489208885
 31
0.0
 12
30.56488707108241
 22
2.77278489208885
 32
0.0
 13
30.56488707108241
 23
2.77278489208885
 33
0.0
  0
SOLID
  5
F2C0
  8
0
  6
CONTINUOUS
 62
     7
 10
-30.215554388878079
 20
2.793972229323145
 30
0.0
 11
-30.628276828011
 21
2.793972229323145
 31
0.0
 12
-30.56488707108241
 22
2.77278489208885
 32
0.0
 13
-30.56488707108241
 23
2.77278489208885
 33
0.0
210
0.0
220
0.0
230
-1.0
  0
SOLID
  5
F2C1
  8
0
  6
CONTINUOUS
 62
     7
 10
30.204874592873811
 20
2.77278489208885
 30
0.0
 11
30.162499918405221
 21
2.730410217620288
 31
0.0
 12
30.522512396613848
 22
2.730410217620288
 32
0.0
 13
30.522512396613848
 23
2.730410217620288
 33
0.0
  0
SOLID
  5
F2C2
  8
0
  6
CONTINUOUS
 62
     7
 10
-30.204874592873811
 20
2.77278489208885
 30
0.0
 11
-30.56488707108241
 21
2.77278489208885
 31
0.0
 12
-30.522512396613848
 22
2.730410217620288
 32
0.0
 13
-30.522512396613848
 23
2.730410217620288
 33
0.0
210
0.0
220
0.0
230
-1.0
  0
SOLID
  5
F2C3
  8
0
  6
CONTINUOUS
 62
     7
 10
30.162499918405221
 20
2.730410217620288
 30
0.0
 11
30.141484835945221
 21
2.688035543151698
 31
0.0
 12
30.45912263968523
 22
2.688035543151698
 32
0.0
 13
30.45912263968523
 23
2.688035543151698
 33
0.0
  0
SOLID
  5
F2C4
  8
0
  6
CONTINUOUS
 62
     7
 10
-30.162499918405221
 20
2.730410217620288
 30
0.0
 11
-30.50115280460528
 21
2.730410217620288
 31
0.0
 12
-30.45912263968523
 22
2.688035543151698
 32
0.0
 13
-30.45912263968523
 23
2.688035543151698
 33
0.0
210
0.0
220
0.0
230
-1.0
  0
SOLID
  5
F2C5
  8
0
  6
CONTINUOUS
 62
     7
 10
30.141484835945221
 20
2.688035543151698
 30
0.0
 11
30.127493816372649
 21
2.6458331234574071
 31
0.0
 12
30.4377630476767
 22
2.6458331234574071
 32
0.0
 13
30.4377630476767
 23
2.6458331234574071
 33
0.0
  0
SOLID
  5
F2C6
  8
0
  6
CONTINUOUS
 62
     7
 10
-30.141484835945221
 20
2.688035543151698
 30
0.0
 11
-30.45912263968523
 21
2.688035543151698
 31
0.0
 12
-30.4377630476767
 22
2.6458331234574071
 32
0.0
 13
-30.4377630476767
 23
2.6458331234574071
 33
0.0
210
0.0
220
0.0
230
-1.0
  0
SOLID
  5
F2C7
  8
0
  6
CONTINUOUS
 62
     7
 10
30.127493816372649
 20
2.6458331234574071
 30
0.0
 11
30.1204697534852
 21
2.6246457862231121
 31
0.0
 12
30.427255506446681
 22
2.6246457862231121
 32
0.0
 13
30.427255506446681
 23
2.6246457862231121
 33
0.0
  0
SOLID
  5
F2C8
  8
0
  6
CONTINUOUS
 62
     7
 10
-30.127493816372649
 20
2.6458331234574071
 30
0.0
 11
-30.4377630476767
 21
2.6458331234574071
 31
0.0
 12
-30.427255506446681
 22
2.6246457862231121
 32
0.0
 13
-30.427255506446681
 23
2.6246457862231121
 33
0.0
210
0.0
220
0.0
230
-1.0
  0
SOLID
  5
F2C9
  8
0
  6
CONTINUOUS
 62
     7
 10
30.1204697534852
 20
2.6246457862231121
 30
0.0
 11
30.11334988948234
 21
2.6034584489888162
 31
0.0
 12
30.416747965216668
 22
2.6034584489888162
 32
0.0
 13
30.416747965216668
 23
2.6034584489888162
 33
0.0
  0
SOLID
  5
F2CA
  8
0
  6
CONTINUOUS
 62
     7
 10
-30.1204697534852
 20
2.6246457862231121
 30
0.0
 11
-30.427255506446681
 21
2.6246457862231121
 31
0.0
 12
-30.416747965216668
 22
2.6034584489888162
 32
0.0
 13
-30.416747965216668
 23
2.6034584489888162
 33
0.0
210
0.0
220
0.0
230
-1.0
  0
SOLID
  5
F2CB
  8
0
  6
CONTINUOUS
 62
     7
 10
30.11334988948234
 20
2.6034584489888162
 30
0.0
 11
30.099110161476631
 21
2.561083774520255
 31
0.0
 12
30.388498182237608
 22
2.561083774520255
 32
0.0
 13
30.388498182237608
 23
2.561083774520255
 33
0.0
  0
SOLID
  5
F2CC
  8
0
  6
CONTINUOUS
 62
     7
 10
-30.11334988948234
 20
2.6034584489888162
 30
0.0
 11
-30.416747965216668
 21
2.6034584489888162
 31
0.0
 12
-30.388498182237608
 22
2.561083774520255
 32
0.0
 13
-30.388498182237608
 23
2.561083774520255
 33
0.0
210
0.0
220
0.0
230
-1.0
  0
SOLID
  5
F2CD
  8
0
  6
CONTINUOUS
 62
     7
 10
30.099110161476631
 20
2.561083774520255
 30
0.0
 11
30.088602620246611
 21
2.53989643728596
 31
0.0
 12
30.374373290748078
 22
2.53989643728596
 32
0.0
 13
30.374373290748078
 23
2.53989643728596
 33
0.0
  0
SOLID
  5
F2CE
  8
0
  6
CONTINUOUS
 62
     7
 10
-30.099110161476631
 20
2.561083774520255
 30
0.0
 11
-30.388498182237608
 21
2.561083774520255
 31
0.0
 12
-30.374373290748078
 22
2.53989643728596
 32
0.0
 13
-30.374373290748078
 23
2.53989643728596
 33
0.0
210
0.0
220
0.0
230
-1.0
  0
SOLID
  5
F2CF
  8
0
  6
CONTINUOUS
 62
     7
 10
30.088602620246611
 20
2.53989643728596
 30
0.0
 11
30.07809507901661
 21
2.518709100051693
 31
0.0
 12
30.363693494743821
 22
2.518709100051693
 32
0.0
 13
30.363693494743821
 23
2.518709100051693
 33
0.0
  0
SOLID
  5
F2D0
  8
0
  6
CONTINUOUS
 62
     7
 10
-30.088602620246611
 20
2.53989643728596
 30
0.0
 11
-30.374373290748078
 21
2.53989643728596
 31
0.0
 12
-30.363693494743821
 22
2.518709100051693
 32
0.0
 13
-30.363693494743821
 23
2.518709100051693
 33
0.0
210
0.0
220
0.0
230
-1.0
  0
SOLID
  5
F2D1
  8
0
  6
CONTINUOUS
 62
     7
 10
30.07809507901661
 20
2.518709100051693
 30
0.0
 11
30.070955867557231
 21
2.497521762817398
 31
0.0
 12
30.353013698739549
 22
2.497521762817398
 32
0.0
 13
30.353013698739549
 23
2.497521762817398
 33
0.0
  0
SOLID
  5
F2D2
  8
0
  6
CONTINUOUS
 62
     7
 10
-30.07809507901661
 20
2.518709100051693
 30
0.0
 11
-30.363693494743821
 21
2.518709100051693
 31
0.0
 12
-30.353013698739549
 22
2.497521762817398
 32
0.0
 13
-30.353013698739549
 23
2.497521762817398
 33
0.0
210
0.0
220
0.0
230
-1.0
  0
SOLID
  5
F2D3
  8
0
  6
CONTINUOUS
 62
     7
 10
30.070955867557231
 20
2.497521762817398
 30
0.0
 11
30.056735487008069
 21
2.4553193431230791
 31
0.0
 12
30.33902267916697
 22
2.4553193431230791
 32
0.0
 13
30.33902267916697
 23
2.4553193431230791
 33
0.0
  0
SOLID
  5
F2D4
  8
0
  6
CONTINUOUS
 62
     7
 10
-30.070955867557231
 20
2.497521762817398
 30
0.0
 11
-30.353013698739549
 21
2.497521762817398
 31
0.0
 12
-30.33902267916697
 22
2.4553193431230791
 32
0.0
 13
-30.33902267916697
 23
2.4553193431230791
 33
0.0
210
0.0
220
0.0
230
-1.0
  0
SOLID
  5
F2D5
  8
0
  6
CONTINUOUS
 62
     7
 10
30.056735487008069
 20
2.4553193431230791
 30
0.0
 11
30.049730459521399
 21
2.4341320058888121
 31
0.0
 12
30.33199861627952
 22
2.4341320058888121
 32
0.0
 13
30.33199861627952
 23
2.4341320058888121
 33
0.0
  0
SOLID
  5
F2D6
  8
0
  6
CONTINUOUS
 62
     7
 10
-30.056735487008069
 20
2.4553193431230791
 30
0.0
 11
-30.33902267916697
 21
2.4553193431230791
 31
0.0
 12
-30.33199861627952
 22
2.4341320058888121
 32
0.0
 13
-30.33199861627952
 23
2.4341320058888121
 33
0.0
210
0.0
220
0.0
230
-1.0
  0
SOLID
  5
F2D7
  8
0
  6
CONTINUOUS
 62
     7
 10
30.049730459521399
 20
2.4341320058888121
 30
0.0
 11
30.035720404548041
 21
2.3917573314202221
 31
0.0
 12
30.33199861627952
 22
2.3917573314202221
 32
0.0
 13
30.33199861627952
 23
2.3917573314202221
 33
0.0
  0
SOLID
  5
F2D8
  8
0
  6
CONTINUOUS
 62
     7
 10
-30.049730459521399
 20
2.4341320058888121
 30
0.0
 11
-30.33199861627952
 21
2.4341320058888121
 31
0.0
 12
-30.33199861627952
 22
2.3917573314202221
 32
0.0
 13
-30.33199861627952
 23
2.3917573314202221
 33
0.0
210
0.0
220
0.0
230
-1.0
  0
SOLID
  5
F2D9
  8
0
  6
CONTINUOUS
 62
     7
 10
30.035720404548041
 20
2.3917573314202221
 30
0.0
 11
30.035720404548041
 21
2.3705699941859271
 31
0.0
 12
30.33199861627952
 22
2.3705699941859271
 32
0.0
 13
30.33199861627952
 23
2.3705699941859271
 33
0.0
  0
SOLID
  5
F2DA
  8
0
  6
CONTINUOUS
 62
     7
 10
-30.035720404548041
 20
2.3917573314202221
 30
0.0
 11
-30.33199861627952
 21
2.3917573314202221
 31
0.0
 12
-30.33199861627952
 22
2.3705699941859271
 32
0.0
 13
-30.33199861627952
 23
2.3705699941859271
 33
0.0
210
0.0
220
0.0
230
-1.0
  0
SOLID
  5
F2DB
  8
0
  6
CONTINUOUS
 62
     7
 10
30.035720404548041
 20
2.3705699941859271
 30
0.0
 11
30.035720404548041
 21
2.3283675744916361
 31
0.0
 12
30.318007596706948
 22
2.3283675744916361
 32
0.0
 13
30.318007596706948
 23
2.3283675744916361
 33
0.0
  0
SOLID
  5
F2DC
  8
0
  6
CONTINUOUS
 62
     7
 10
-30.035720404548041
 20
2.3705699941859271
 30
0.0
 11
-30.33199861627952
 21
2.3705699941859271
 31
0.0
 12
-30.318007596706948
 22
2.3283675744916361
 32
0.0
 13
-30.318007596706948
 23
2.3283675744916361
 33
0.0
210
0.0
220
0.0
230
-1.0
  0
SOLID
  5
F2DD
  8
0
  6
CONTINUOUS
 62
     7
 10
30.035720404548041
 20
2.3283675744916361
 30
0.0
 11
30.0303805065459
 21
2.3071802372573389
 31
0.0
 12
30.310983533819488
 22
2.3071802372573389
 32
0.0
 13
30.310983533819488
 23
2.3071802372573389
 33
0.0
  0
SOLID
  5
F2DE
  8
0
  6
CONTINUOUS
 62
     7
 10
-30.035720404548041
 20
2.3283675744916361
 30
0.0
 11
-30.318007596706948
 21
2.3283675744916361
 31
0.0
 12
-30.310983533819488
 22
2.3071802372573389
 32
0.0
 13
-30.310983533819488
 23
2.3071802372573389
 33
0.0
210
0.0
220
0.0
230
-1.0
  0
SOLID
  5
F2DF
  8
0
  6
CONTINUOUS
 62
     7
 10
30.0303805065459
 20
2.3071802372573389
 30
0.0
 11
30.014360812539479
 21
2.2436182255544841
 31
0.0
 12
30.310983533819488
 22
2.2436182255544841
 32
0.0
 13
30.310983533819488
 23
2.2436182255544841
 33
0.0
  0
SOLID
  5
F2E0
  8
0
  6
CONTINUOUS
 62
     7
 10
-30.0303805065459
 20
2.3071802372573389
 30
0.0
 11
-30.310983533819488
 21
2.3071802372573389
 31
0.0
 12
-30.310983533819488
 22
2.2436182255544841
 32
0.0
 13
-30.310983533819488
 23
2.2436182255544841
 33
0.0
210
0.0
220
0.0
230
-1.0
  0
SOLID
  5
F2E1
  8
0
  6
CONTINUOUS
 62
     7
 10
30.014360812539479
 20
2.2436182255544841
 30
0.0
 11
30.014360812539479
 21
2.2224308883201882
 31
0.0
 12
30.310983533819488
 22
2.2224308883201882
 32
0.0
 13
30.310983533819488
 23
2.2224308883201882
 33
0.0
  0
SOLID
  5
F2E2
  8
0
  6
CONTINUOUS
 62
     7
 10
-30.014360812539479
 20
2.2436182255544841
 30
0.0
 11
-30.310983533819488
 21
2.2436182255544841
 31
0.0
 12
-30.310983533819488
 22
2.2224308883201882
 32
0.0
 13
-30.310983533819488
 23
2.2224308883201882
 33
0.0
210
0.0
220
0.0
230
-1.0
  0
SOLID
  5
F2E3
  8
0
  6
CONTINUOUS
 62
     7
 10
30.014360812539479
 20
2.2224308883201882
 30
0.0
 11
30.014360812539479
 21
2.180056213851628
 31
0.0
 12
30.296743805813811
 22
2.180056213851628
 32
0.0
 13
30.296743805813811
 23
2.180056213851628
 33
0.0
  0
SOLID
  5
F2E4
  8
0
  6
CONTINUOUS
 62
     7
 10
-30.014360812539479
 20
2.2224308883201882
 30
0.0
 11
-30.310983533819488
 21
2.2224308883201882
 31
0.0
 12
-30.296743805813811
 22
2.180056213851628
 32
0.0
 13
-30.296743805813811
 23
2.180056213851628
 33
0.0
210
0.0
220
0.0
230
-1.0
  0
SOLID
  5
F2E5
  8
0
  6
CONTINUOUS
 62
     7
 10
30.014360812539479
 20
2.180056213851628
 30
0.0
 11
30.009096341780651
 21
2.1588688766173321
 31
0.0
 12
30.289623941810969
 22
2.1588688766173321
 32
0.0
 13
30.289623941810969
 23
2.1588688766173321
 33
0.0
  0
SOLID
  5
F2E6
  8
0
  6
CONTINUOUS
 62
     7
 10
-30.014360812539479
 20
2.180056213851628
 30
0.0
 11
-30.296743805813811
 21
2.180056213851628
 31
0.0
 12
-30.289623941810969
 22
2.1588688766173321
 32
0.0
 13
-30.289623941810969
 23
2.1588688766173321
 33
0.0
210
0.0
220
0.0
230
-1.0
  0
SOLID
  5
F2E7
  8
0
  6
CONTINUOUS
 62
     7
 10
30.009096341780651
 20
2.1588688766173321
 30
0.0
 11
29.993345730079461
 21
2.095479119688747
 31
0.0
 12
30.289623941810969
 22
2.095479119688747
 32
0.0
 13
30.289623941810969
 23
2.095479119688747
 33
0.0
  0
SOLID
  5
F2E8
  8
0
  6
CONTINUOUS
 62
     7
 10
-30.009096341780651
 20
2.1588688766173321
 30
0.0
 11
-30.289623941810969
 21
2.1588688766173321
 31
0.0
 12
-30.289623941810969
 22
2.095479119688747
 32
0.0
 13
-30.289623941810969
 23
2.095479119688747
 33
0.0
210
0.0
220
0.0
230
-1.0
  0
SOLID
  5
F2E9
  8
0
  6
CONTINUOUS
 62
     7
 10
29.993345730079461
 20
2.095479119688747
 30
0.0
 11
29.993345730079461
 21
1.9895424335173
 31
0.0
 12
30.289623941810969
 22
1.9895424335173
 32
0.0
 13
30.289623941810969
 23
1.9895424335173
 33
0.0
  0
SOLID
  5
F2EA
  8
0
  6
CONTINUOUS
 62
     7
 10
-29.993345730079461
 20
2.095479119688747
 30
0.0
 11
-30.289623941810969
 21
2.095479119688747
 31
0.0
 12
-30.289623941810969
 22
1.9895424335173
 32
0.0
 13
-30.289623941810969
 23
1.9895424335173
 33
0.0
210
0.0
220
0.0
230
-1.0
  0
SOLID
  5
F2EB
  8
0
  6
CONTINUOUS
 62
     7
 10
29.993345730079461
 20
1.9895424335173
 30
0.0
 11
29.993345730079461
 21
1.947340013823009
 31
0.0
 12
30.45912263968523
 22
1.947340013823009
 32
0.0
 13
30.45912263968523
 23
1.947340013823009
 33
0.0
  0
SOLID
  5
F2EC
  8
0
  6
CONTINUOUS
 62
     7
 10
-29.993345730079461
 20
1.9895424335173
 30
0.0
 11
-30.50115280460528
 21
1.9895424335173
 31
0.0
 12
-30.45912263968523
 22
1.947340013823009
 32
0.0
 13
-30.45912263968523
 23
1.947340013823009
 33
0.0
210
0.0
220
0.0
230
-1.0
  0
SOLID
  5
F2ED
  8
0
  6
CONTINUOUS
 62
     7
 10
29.993345730079461
 20
1.947340013823009
 30
0.0
 11
29.993345730079461
 21
1.904965339354417
 31
0.0
 12
30.416747965216668
 22
1.904965339354417
 32
0.0
 13
30.416747965216668
 23
1.904965339354417
 33
0.0
  0
SOLID
  5
F2EE
  8
0
  6
CONTINUOUS
 62
     7
 10
-29.993345730079461
 20
1.947340013823009
 30
0.0
 11
-30.45912263968523
 21
1.947340013823009
 31
0.0
 12
-30.416747965216668
 22
1.904965339354417
 32
0.0
 13
-30.416747965216668
 23
1.904965339354417
 33
0.0
210
0.0
220
0.0
230
-1.0
  0
SOLID
  5
F2EF
  8
0
  6
CONTINUOUS
 62
     7
 10
29.993345730079461
 20
1.904965339354417
 30
0.0
 11
29.993345730079461
 21
1.862590664885855
 31
0.0
 12
30.39538837320811
 22
1.862590664885855
 32
0.0
 13
30.39538837320811
 23
1.862590664885855
 33
0.0
  0
SOLID
  5
F2F0
  8
0
  6
CONTINUOUS
 62
     7
 10
-29.993345730079461
 20
1.904965339354417
 30
0.0
 11
-30.416747965216668
 21
1.904965339354417
 31
0.0
 12
-30.39538837320811
 22
1.862590664885855
 32
0.0
 13
-30.39538837320811
 23
1.862590664885855
 33
0.0
210
0.0
220
0.0
230
-1.0
  0
SOLID
  5
F2F1
  8
0
  6
CONTINUOUS
 62
     7
 10
29.993345730079461
 20
1.862590664885855
 30
0.0
 11
29.993345730079461
 21
1.7992009079572411
 31
0.0
 12
30.353013698739549
 22
1.7992009079572411
 32
0.0
 13
30.353013698739549
 23
1.7992009079572411
 33
0.0
  0
SOLID
  5
F2F2
  8
0
  6
CONTINUOUS
 62
     7
 10
-29.993345730079461
 20
1.862590664885855
 30
0.0
 11
-30.39538837320811
 21
1.862590664885855
 31
0.0
 12
-30.353013698739549
 22
1.7992009079572411
 32
0.0
 13
-30.353013698739549
 23
1.7992009079572411
 33
0.0
210
0.0
220
0.0
230
-1.0
  0
SOLID
  5
F2F3
  8
0
  6
CONTINUOUS
 62
     7
 10
29.993345730079461
 20
1.7992009079572411
 30
0.0
 11
29.993345730079461
 21
1.7356388962543861
 31
0.0
 12
30.33199861627952
 22
1.7356388962543861
 32
0.0
 13
30.33199861627952
 23
1.7356388962543861
 33
0.0
  0
SOLID
  5
F2F4
  8
0
  6
CONTINUOUS
 62
     7
 10
-29.993345730079461
 20
1.7992009079572411
 30
0.0
 11
-30.353013698739549
 21
1.7992009079572411
 31
0.0
 12
-30.33199861627952
 22
1.7356388962543861
 32
0.0
 13
-30.33199861627952
 23
1.7356388962543861
 33
0.0
210
0.0
220
0.0
230
-1.0
  0
SOLID
  5
F2F5
  8
0
  6
CONTINUOUS
 62
     7
 10
29.993345730079461
 20
1.7356388962543861
 30
0.0
 11
29.993345730079461
 21
1.672076884551529
 31
0.0
 12
30.33199861627952
 22
1.672076884551529
 32
0.0
 13
30.33199861627952
 23
1.672076884551529
 33
0.0
  0
SOLID
  5
F2F6
  8
0
  6
CONTINUOUS
 62
     7
 10
-29.993345730079461
 20
1.7356388962543861
 30
0.0
 11
-30.33199861627952
 21
1.7356388962543861
 31
0.0
 12
-30.33199861627952
 22
1.672076884551529
 32
0.0
 13
-30.33199861627952
 23
1.672076884551529
 33
0.0
210
0.0
220
0.0
230
-1.0
  0
SOLID
  5
F2F7
  8
0
  6
CONTINUOUS
 62
     7
 10
29.993345730079461
 20
1.672076884551529
 30
0.0
 11
29.993345730079461
 21
1.6086871276229431
 31
0.0
 12
30.310983533819488
 22
1.6086871276229431
 32
0.0
 13
30.310983533819488
 23
1.6086871276229431
 33
0.0
  0
SOLID
  5
F2F8
  8
0
  6
CONTINUOUS
 62
     7
 10
-29.993345730079461
 20
1.672076884551529
 30
0.0
 11
-30.33199861627952
 21
1.672076884551529
 31
0.0
 12
-30.310983533819488
 22
1.6086871276229431
 32
0.0
 13
-30.310983533819488
 23
1.6086871276229431
 33
0.0
210
0.0
220
0.0
230
-1.0
  0
SOLID
  5
F2F9
  8
0
  6
CONTINUOUS
 62
     7
 10
29.993345730079461
 20
1.6086871276229431
 30
0.0
 11
29.993345730079461
 21
1.5451251159200861
 31
0.0
 12
30.310983533819488
 22
1.5451251159200861
 32
0.0
 13
30.310983533819488
 23
1.5451251159200861
 33
0.0
  0
SOLID
  5
F2FA
  8
0
  6
CONTINUOUS
 62
     7
 10
-29.993345730079461
 20
1.6086871276229431
 30
0.0
 11
-30.310983533819488
 21
1.6086871276229431
 31
0.0
 12
-30.310983533819488
 22
1.5451251159200861
 32
0.0
 13
-30.310983533819488
 23
1.5451251159200861
 33
0.0
210
0.0
220
0.0
230
-1.0
  0
SOLID
  5
F2FB
  8
0
  6
CONTINUOUS
 62
     7
 10
29.993345730079461
 20
1.5451251159200861
 30
0.0
 11
30.014360812539479
 21
1.481563104217227
 31
0.0
 12
30.310983533819488
 22
1.481563104217227
 32
0.0
 13
30.310983533819488
 23
1.481563104217227
 33
0.0
  0
SOLID
  5
F2FC
  8
0
  6
CONTINUOUS
 62
     7
 10
-29.993345730079461
 20
1.5451251159200861
 30
0.0
 11
-30.310983533819488
 21
1.5451251159200861
 31
0.0
 12
-30.310983533819488
 22
1.481563104217227
 32
0.0
 13
-30.310983533819488
 23
1.481563104217227
 33
0.0
210
0.0
220
0.0
230
-1.0
  0
SOLID
  5
F2FD
  8
0
  6
CONTINUOUS
 62
     7
 10
30.014360812539479
 20
1.481563104217227
 30
0.0
 11
30.014360812539479
 21
1.4181733472886151
 31
0.0
 12
30.3267341455207
 22
1.4181733472886151
 32
0.0
 13
30.3267341455207
 23
1.4181733472886151
 33
0.0
  0
SOLID
  5
F2FE
  8
0
  6
CONTINUOUS
 62
     7
 10
-30.014360812539479
 20
1.481563104217227
 30
0.0
 11
-30.310983533819488
 21
1.481563104217227
 31
0.0
 12
-30.3267341455207
 22
1.4181733472886151
 32
0.0
 13
-30.3267341455207
 23
1.4181733472886151
 33
0.0
210
0.0
220
0.0
230
-1.0
  0
SOLID
  5
F2FF
  8
0
  6
CONTINUOUS
 62
     7
 10
30.014360812539479
 20
1.4181733472886151
 30
0.0
 11
30.01970071054162
 21
1.3969860100543481
 31
0.0
 12
30.33199861627952
 22
1.3969860100543481
 32
0.0
 13
30.33199861627952
 23
1.3969860100543481
 33
0.0
  0
SOLID
  5
F300
  8
0
  6
CONTINUOUS
 62
     7
 10
-30.014360812539479
 20
1.4181733472886151
 30
0.0
 11
-30.3267341455207
 21
1.4181733472886151
 31
0.0
 12
-30.33199861627952
 22
1.3969860100543481
 32
0.0
 13
-30.33199861627952
 23
1.3969860100543481
 33
0.0
210
0.0
220
0.0
230
-1.0
  0
SOLID
  5
F301
  8
0
  6
CONTINUOUS
 62
     7
 10
30.01970071054162
 20
1.3969860100543481
 30
0.0
 11
30.035720404548041
 21
1.3334239983514631
 31
0.0
 12
30.33199861627952
 22
1.3334239983514631
 32
0.0
 13
30.33199861627952
 23
1.3334239983514631
 33
0.0
  0
SOLID
  5
F302
  8
0
  6
CONTINUOUS
 62
     7
 10
-30.01970071054162
 20
1.3969860100543481
 30
0.0
 11
-30.33199861627952
 21
1.3969860100543481
 31
0.0
 12
-30.33199861627952
 22
1.3334239983514631
 32
0.0
 13
-30.33199861627952
 23
1.3334239983514631
 33
0.0
210
0.0
220
0.0
230
-1.0
  0
SOLID
  5
F303
  8
0
  6
CONTINUOUS
 62
     7
 10
30.035720404548041
 20
1.3334239983514631
 30
0.0
 11
30.056735487008069
 21
1.270034241422876
 31
0.0
 12
30.353013698739549
 22
1.270034241422876
 32
0.0
 13
30.353013698739549
 23
1.270034241422876
 33
0.0
  0
SOLID
  5
F304
  8
0
  6
CONTINUOUS
 62
     7
 10
-30.035720404548041
 20
1.3334239983514631
 30
0.0
 11
-30.33199861627952
 21
1.3334239983514631
 31
0.0
 12
-30.353013698739549
 22
1.270034241422876
 32
0.0
 13
-30.353013698739549
 23
1.270034241422876
 33
0.0
210
0.0
220
0.0
230
-1.0
  0
SOLID
  5
F305
  8
0
  6
CONTINUOUS
 62
     7
 10
30.056735487008069
 20
1.270034241422876
 30
0.0
 11
30.07809507901661
 21
1.2276595669543151
 31
0.0
 12
30.367253426745229
 22
1.2276595669543151
 32
0.0
 13
30.367253426745229
 23
1.2276595669543151
 33
0.0
  0
SOLID
  5
F306
  8
0
  6
CONTINUOUS
 62
     7
 10
-30.056735487008069
 20
1.270034241422876
 30
0.0
 11
-30.353013698739549
 21
1.270034241422876
 31
0.0
 12
-30.367253426745229
 22
1.2276595669543151
 32
0.0
 13
-30.367253426745229
 23
1.2276595669543151
 33
0.0
210
0.0
220
0.0
230
-1.0
  0
SOLID
  5
F307
  8
0
  6
CONTINUOUS
 62
     7
 10
30.07809507901661
 20
1.2276595669543151
 30
0.0
 11
30.08510010650328
 21
1.2064722297200201
 31
0.0
 12
30.374373290748078
 22
1.2064722297200201
 32
0.0
 13
30.374373290748078
 23
1.2064722297200201
 33
0.0
  0
SOLID
  5
F308
  8
0
  6
CONTINUOUS
 62
     7
 10
-30.07809507901661
 20
1.2276595669543151
 30
0.0
 11
-30.367253426745229
 21
1.2276595669543151
 31
0.0
 12
-30.374373290748078
 22
1.2064722297200201
 32
0.0
 13
-30.374373290748078
 23
1.2064722297200201
 33
0.0
210
0.0
220
0.0
230
-1.0
  0
SOLID
  5
F309
  8
0
  6
CONTINUOUS
 62
     7
 10
30.08510010650328
 20
1.2064722297200201
 30
0.0
 11
30.099110161476631
 21
1.1640975552514581
 31
0.0
 12
30.416747965216668
 22
1.1640975552514581
 32
0.0
 13
30.416747965216668
 23
1.1640975552514581
 33
0.0
  0
SOLID
  5
F30A
  8
0
  6
CONTINUOUS
 62
     7
 10
-30.08510010650328
 20
1.2064722297200201
 30
0.0
 11
-30.374373290748078
 21
1.2064722297200201
 31
0.0
 12
-30.416747965216668
 22
1.1640975552514581
 32
0.0
 13
-30.416747965216668
 23
1.1640975552514581
 33
0.0
210
0.0
220
0.0
230
-1.0
  0
SOLID
  5
F30B
  8
0
  6
CONTINUOUS
 62
     7
 10
30.099110161476631
 20
1.1640975552514581
 30
0.0
 11
30.1204697534852
 21
1.1217228807828681
 31
0.0
 12
30.4377630476767
 22
1.1217228807828681
 32
0.0
 13
30.4377630476767
 23
1.1217228807828681
 33
0.0
  0
SOLID
  5
F30C
  8
0
  6
CONTINUOUS
 62
     7
 10
-30.099110161476631
 20
1.1640975552514581
 30
0.0
 11
-30.416747965216668
 21
1.1640975552514581
 31
0.0
 12
-30.4377630476767
 22
1.1217228807828681
 32
0.0
 13
-30.4377630476767
 23
1.1217228807828681
 33
0.0
210
0.0
220
0.0
230
-1.0
  0
SOLID
  5
F30D
  8
0
  6
CONTINUOUS
 62
     7
 10
30.1204697534852
 20
1.1217228807828681
 30
0.0
 11
30.134460773057761
 21
1.0795204610885749
 31
0.0
 12
30.480137722145251
 22
1.0795204610885749
 32
0.0
 13
30.480137722145251
 23
1.0795204610885749
 33
0.0
  0
SOLID
  5
F30E
  8
0
  6
CONTINUOUS
 62
     7
 10
-30.1204697534852
 20
1.1217228807828681
 30
0.0
 11
-30.4377630476767
 21
1.1217228807828681
 31
0.0
 12
-30.480137722145251
 22
1.0795204610885749
 32
0.0
 13
-30.480137722145251
 23
1.0795204610885749
 33
0.0
210
0.0
220
0.0
230
-1.0
  0
SOLID
  5
F30F
  8
0
  6
CONTINUOUS
 62
     7
 10
30.134460773057761
 20
1.0795204610885749
 30
0.0
 11
30.141484835945221
 21
1.0583331238542799
 31
0.0
 12
30.50132505937956
 22
1.0583331238542799
 32
0.0
 13
30.50132505937956
 23
1.0583331238542799
 33
0.0
  0
SOLID
  5
F310
  8
0
  6
CONTINUOUS
 62
     7
 10
-30.134460773057761
 20
1.0795204610885749
 30
0.0
 11
-30.480137722145251
 21
1.0795204610885749
 31
0.0
 12
-30.50132505937956
 22
1.0583331238542799
 32
0.0
 13
-30.50132505937956
 23
1.0583331238542799
 33
0.0
210
0.0
220
0.0
230
-1.0
  0
SOLID
  5
F311
  8
0
  6
CONTINUOUS
 62
     7
 10
30.141484835945221
 20
1.0583331238542799
 30
0.0
 11
30.151992377175219
 21
1.037145786619986
 31
0.0
 12
30.522512396613848
 22
1.037145786619986
 32
0.0
 13
30.522512396613848
 23
1.037145786619986
 33
0.0
  0
SOLID
  5
F312
  8
0
  6
CONTINUOUS
 62
     7
 10
-30.141484835945221
 20
1.0583331238542799
 30
0.0
 11
-30.50132505937956
 21
1.0583331238542799
 31
0.0
 12
-30.522512396613848
 22
1.037145786619986
 32
0.0
 13
-30.522512396613848
 23
1.037145786619986
 33
0.0
210
0.0
220
0.0
230
-1.0
  0
SOLID
  5
F313
  8
0
  6
CONTINUOUS
 62
     7
 10
30.151992377175219
 20
1.037145786619986
 30
0.0
 11
30.162499918405221
 21
1.015958449385691
 31
0.0
 12
30.585902153542431
 22
1.015958449385691
 32
0.0
 13
30.585902153542431
 23
1.015958449385691
 33
0.0
  0
SOLID
  5
F314
  8
0
  6
CONTINUOUS
 62
     7
 10
-30.151992377175219
 20
1.037145786619986
 30
0.0
 11
-30.522512396613848
 21
1.037145786619986
 31
0.0
 12
-30.585902153542431
 22
1.015958449385691
 32
0.0
 13
-30.585902153542431
 23
1.015958449385691
 33
0.0
210
0.0
220
0.0
230
-1.0
  0
SOLID
  5
F315
  8
0
  6
CONTINUOUS
 62
     7
 10
30.162499918405221
 20
1.015958449385691
 30
0.0
 11
30.183859510413772
 21
0.9947711121514259
 31
0.0
 12
30.649636420019561
 22
0.9947711121514259
 32
0.0
 13
30.649636420019561
 23
0.9947711121514259
 33
0.0
  0
SOLID
  5
F316
  8
0
  6
CONTINUOUS
 62
     7
 10
-30.162499918405221
 20
1.015958449385691
 30
0.0
 11
-30.585902153542431
 21
1.015958449385691
 31
0.0
 12
-30.649636420019561
 22
0.9947711121514259
 32
0.0
 13
-30.649636420019561
 23
0.9947711121514259
 33
0.0
210
0.0
220
0.0
230
-1.0
  0
LINE
  5
F317
  8
0
  6
CONTINUOUS
 62
     7
 10
30.226234184882351
 20
2.81515956655744
 30
0.0
 11
30.215554388878079
 21
2.793972229323145
 31
0.0
  0
LINE
  5
F318
  8
0
  6
CONTINUOUS
 62
     7
 10
30.691666584939611
 20
2.81515956655744
 30
0.0
 11
30.628276828011
 21
2.793972229323145
 31
0.0
  0
LINE
  5
F319
  8
0
  6
CONTINUOUS
 62
     7
 10
30.215554388878079
 20
2.793972229323145
 30
0.0
 11
30.204874592873811
 21
2.77278489208885
 31
0.0
  0
LINE
  5
F31A
  8
0
  6
CONTINUOUS
 62
     7
 10
30.628276828011
 20
2.793972229323145
 30
0.0
 11
30.56488707108241
 21
2.77278489208885
 31
0.0
  0
LINE
  5
F31B
  8
0
  6
CONTINUOUS
 62
     7
 10
30.204874592873811
 20
2.77278489208885
 30
0.0
 11
30.162499918405221
 21
2.730410217620288
 31
0.0
  0
LINE
  5
F31C
  8
0
  6
CONTINUOUS
 62
     7
 10
30.56488707108241
 20
2.77278489208885
 30
0.0
 11
30.522512396613848
 21
2.730410217620288
 31
0.0
  0
LINE
  5
F31D
  8
0
  6
CONTINUOUS
 62
     7
 10
30.162499918405221
 20
2.730410217620288
 30
0.0
 11
30.141484835945221
 21
2.688035543151698
 31
0.0
  0
LINE
  5
F31E
  8
0
  6
CONTINUOUS
 62
     7
 10
30.50115280460528
 20
2.730410217620288
 30
0.0
 11
30.45912263968523
 21
2.688035543151698
 31
0.0
  0
LINE
  5
F31F
  8
0
  6
CONTINUOUS
 62
     7
 10
30.141484835945221
 20
2.688035543151698
 30
0.0
 11
30.127493816372649
 21
2.6458331234574071
 31
0.0
  0
LINE
  5
F320
  8
0
  6
CONTINUOUS
 62
     7
 10
30.45912263968523
 20
2.688035543151698
 30
0.0
 11
30.4377630476767
 21
2.6458331234574071
 31
0.0
  0
LINE
  5
F321
  8
0
  6
CONTINUOUS
 62
     7
 10
30.127493816372649
 20
2.6458331234574071
 30
0.0
 11
30.1204697534852
 21
2.6246457862231121
 31
0.0
  0
LINE
  5
F322
  8
0
  6
CONTINUOUS
 62
     7
 10
30.4377630476767
 20
2.6458331234574071
 30
0.0
 11
30.427255506446681
 21
2.6246457862231121
 31
0.0
  0
LINE
  5
F323
  8
0
  6
CONTINUOUS
 62
     7
 10
30.1204697534852
 20
2.6246457862231121
 30
0.0
 11
30.11334988948234
 21
2.6034584489888162
 31
0.0
  0
LINE
  5
F324
  8
0
  6
CONTINUOUS
 62
     7
 10
30.427255506446681
 20
2.6246457862231121
 30
0.0
 11
30.416747965216668
 21
2.6034584489888162
 31
0.0
  0
LINE
  5
F325
  8
0
  6
CONTINUOUS
 62
     7
 10
30.11334988948234
 20
2.6034584489888162
 30
0.0
 11
30.099110161476631
 21
2.561083774520255
 31
0.0
  0
LINE
  5
F326
  8
0
  6
CONTINUOUS
 62
     7
 10
30.416747965216668
 20
2.6034584489888162
 30
0.0
 11
30.388498182237608
 21
2.561083774520255
 31
0.0
  0
LINE
  5
F327
  8
0
  6
CONTINUOUS
 62
     7
 10
30.099110161476631
 20
2.561083774520255
 30
0.0
 11
30.088602620246611
 21
2.53989643728596
 31
0.0
  0
LINE
  5
F328
  8
0
  6
CONTINUOUS
 62
     7
 10
30.388498182237608
 20
2.561083774520255
 30
0.0
 11
30.374373290748078
 21
2.53989643728596
 31
0.0
  0
LINE
  5
F329
  8
0
  6
CONTINUOUS
 62
     7
 10
30.088602620246611
 20
2.53989643728596
 30
0.0
 11
30.07809507901661
 21
2.518709100051693
 31
0.0
  0
LINE
  5
F32A
  8
0
  6
CONTINUOUS
 62
     7
 10
30.374373290748078
 20
2.53989643728596
 30
0.0
 11
30.363693494743821
 21
2.518709100051693
 31
0.0
  0
LINE
  5
F32B
  8
0
  6
CONTINUOUS
 62
     7
 10
30.07809507901661
 20
2.518709100051693
 30
0.0
 11
30.070955867557231
 21
2.497521762817398
 31
0.0
  0
LINE
  5
F32C
  8
0
  6
CONTINUOUS
 62
     7
 10
30.363693494743821
 20
2.518709100051693
 30
0.0
 11
30.353013698739549
 21
2.497521762817398
 31
0.0
  0
LINE
  5
F32D
  8
0
  6
CONTINUOUS
 62
     7
 10
30.070955867557231
 20
2.497521762817398
 30
0.0
 11
30.056735487008069
 21
2.4553193431230791
 31
0.0
  0
LINE
  5
F32E
  8
0
  6
CONTINUOUS
 62
     7
 10
30.353013698739549
 20
2.497521762817398
 30
0.0
 11
30.33902267916697
 21
2.4553193431230791
 31
0.0
  0
LINE
  5
F32F
  8
0
  6
CONTINUOUS
 62
     7
 10
30.056735487008069
 20
2.4553193431230791
 30
0.0
 11
30.049730459521399
 21
2.4341320058888121
 31
0.0
  0
LINE
  5
F330
  8
0
  6
CONTINUOUS
 62
     7
 10
30.33902267916697
 20
2.4553193431230791
 30
0.0
 11
30.33199861627952
 21
2.4341320058888121
 31
0.0
  0
LINE
  5
F331
  8
0
  6
CONTINUOUS
 62
     7
 10
30.049730459521399
 20
2.4341320058888121
 30
0.0
 11
30.035720404548041
 21
2.3917573314202221
 31
0.0
  0
LINE
  5
F332
  8
0
  6
CONTINUOUS
 62
     7
 10
30.33199861627952
 20
2.4341320058888121
 30
0.0
 11
30.33199861627952
 21
2.3917573314202221
 31
0.0
  0
LINE
  5
F333
  8
0
  6
CONTINUOUS
 62
     7
 10
30.035720404548041
 20
2.3917573314202221
 30
0.0
 11
30.035720404548041
 21
2.3705699941859271
 31
0.0
  0
LINE
  5
F334
  8
0
  6
CONTINUOUS
 62
     7
 10
30.33199861627952
 20
2.3917573314202221
 30
0.0
 11
30.33199861627952
 21
2.3705699941859271
 31
0.0
  0
LINE
  5
F335
  8
0
  6
CONTINUOUS
 62
     7
 10
30.035720404548041
 20
2.3705699941859271
 30
0.0
 11
30.035720404548041
 21
2.3283675744916361
 31
0.0
  0
LINE
  5
F336
  8
0
  6
CONTINUOUS
 62
     7
 10
30.33199861627952
 20
2.3705699941859271
 30
0.0
 11
30.318007596706948
 21
2.3283675744916361
 31
0.0
  0
LINE
  5
F337
  8
0
  6
CONTINUOUS
 62
     7
 10
30.035720404548041
 20
2.3283675744916361
 30
0.0
 11
30.0303805065459
 21
2.3071802372573389
 31
0.0
  0
LINE
  5
F338
  8
0
  6
CONTINUOUS
 62
     7
 10
30.318007596706948
 20
2.3283675744916361
 30
0.0
 11
30.310983533819488
 21
2.3071802372573389
 31
0.0
  0
LINE
  5
F339
  8
0
  6
CONTINUOUS
 62
     7
 10
30.0303805065459
 20
2.3071802372573389
 30
0.0
 11
30.014360812539479
 21
2.2436182255544841
 31
0.0
  0
LINE
  5
F33A
  8
0
  6
CONTINUOUS
 62
     7
 10
30.310983533819488
 20
2.3071802372573389
 30
0.0
 11
30.310983533819488
 21
2.2436182255544841
 31
0.0
  0
LINE
  5
F33B
  8
0
  6
CONTINUOUS
 62
     7
 10
30.014360812539479
 20
2.2436182255544841
 30
0.0
 11
30.014360812539479
 21
2.2224308883201882
 31
0.0
  0
LINE
  5
F33C
  8
0
  6
CONTINUOUS
 62
     7
 10
30.310983533819488
 20
2.2436182255544841
 30
0.0
 11
30.310983533819488
 21
2.2224308883201882
 31
0.0
  0
LINE
  5
F33D
  8
0
  6
CONTINUOUS
 62
     7
 10
30.014360812539479
 20
2.2224308883201882
 30
0.0
 11
30.014360812539479
 21
2.180056213851628
 31
0.0
  0
LINE
  5
F33E
  8
0
  6
CONTINUOUS
 62
     7
 10
30.310983533819488
 20
2.2224308883201882
 30
0.0
 11
30.296743805813811
 21
2.180056213851628
 31
0.0
  0
LINE
  5
F33F
  8
0
  6
CONTINUOUS
 62
     7
 10
30.014360812539479
 20
2.180056213851628
 30
0.0
 11
30.009096341780651
 21
2.1588688766173321
 31
0.0
  0
LINE
  5
F340
  8
0
  6
CONTINUOUS
 62
     7
 10
30.296743805813811
 20
2.180056213851628
 30
0.0
 11
30.289623941810969
 21
2.1588688766173321
 31
0.0
  0
LINE
  5
F341
  8
0
  6
CONTINUOUS
 62
     7
 10
30.009096341780651
 20
2.1588688766173321
 30
0.0
 11
29.993345730079461
 21
2.095479119688747
 31
0.0
  0
LINE
  5
F342
  8
0
  6
CONTINUOUS
 62
     7
 10
30.289623941810969
 20
2.1588688766173321
 30
0.0
 11
30.289623941810969
 21
2.095479119688747
 31
0.0
  0
LINE
  5
F343
  8
0
  6
CONTINUOUS
 62
     7
 10
29.993345730079461
 20
2.095479119688747
 30
0.0
 11
29.993345730079461
 21
1.9895424335173
 31
0.0
  0
LINE
  5
F344
  8
0
  6
CONTINUOUS
 62
     7
 10
30.289623941810969
 20
2.095479119688747
 30
0.0
 11
30.289623941810969
 21
1.9895424335173
 31
0.0
  0
LINE
  5
F345
  8
0
  6
CONTINUOUS
 62
     7
 10
29.993345730079461
 20
1.9895424335173
 30
0.0
 11
29.993345730079461
 21
1.947340013823009
 31
0.0
  0
LINE
  5
F346
  8
0
  6
CONTINUOUS
 62
     7
 10
30.50115280460528
 20
1.9895424335173
 30
0.0
 11
30.45912263968523
 21
1.947340013823009
 31
0.0
  0
LINE
  5
F347
  8
0
  6
CONTINUOUS
 62
     7
 10
29.993345730079461
 20
1.947340013823009
 30
0.0
 11
29.993345730079461
 21
1.904965339354417
 31
0.0
  0
LINE
  5
F348
  8
0
  6
CONTINUOUS
 62
     7
 10
30.45912263968523
 20
1.947340013823009
 30
0.0
 11
30.416747965216668
 21
1.904965339354417
 31
0.0
  0
LINE
  5
F349
  8
0
  6
CONTINUOUS
 62
     7
 10
29.993345730079461
 20
1.904965339354417
 30
0.0
 11
29.993345730079461
 21
1.862590664885855
 31
0.0
  0
LINE
  5
F34A
  8
0
  6
CONTINUOUS
 62
     7
 10
30.416747965216668
 20
1.904965339354417
 30
0.0
 11
30.39538837320811
 21
1.862590664885855
 31
0.0
  0
LINE
  5
F34B
  8
0
  6
CONTINUOUS
 62
     7
 10
29.993345730079461
 20
1.862590664885855
 30
0.0
 11
29.993345730079461
 21
1.7992009079572411
 31
0.0
  0
LINE
  5
F34C
  8
0
  6
CONTINUOUS
 62
     7
 10
30.39538837320811
 20
1.862590664885855
 30
0.0
 11
30.353013698739549
 21
1.7992009079572411
 31
0.0
  0
LINE
  5
F34D
  8
0
  6
CONTINUOUS
 62
     7
 10
29.993345730079461
 20
1.7992009079572411
 30
0.0
 11
29.993345730079461
 21
1.7356388962543861
 31
0.0
  0
LINE
  5
F34E
  8
0
  6
CONTINUOUS
 62
     7
 10
30.353013698739549
 20
1.7992009079572411
 30
0.0
 11
30.33199861627952
 21
1.7356388962543861
 31
0.0
  0
LINE
  5
F34F
  8
0
  6
CONTINUOUS
 62
     7
 10
29.993345730079461
 20
1.7356388962543861
 30
0.0
 11
29.993345730079461
 21
1.672076884551529
 31
0.0
  0
LINE
  5
F350
  8
0
  6
CONTINUOUS
 62
     7
 10
30.33199861627952
 20
1.7356388962543861
 30
0.0
 11
30.33199861627952
 21
1.672076884551529
 31
0.0
  0
LINE
  5
F351
  8
0
  6
CONTINUOUS
 62
     7
 10
29.993345730079461
 20
1.672076884551529
 30
0.0
 11
29.993345730079461
 21
1.6086871276229431
 31
0.0
  0
LINE
  5
F352
  8
0
  6
CONTINUOUS
 62
     7
 10
30.33199861627952
 20
1.672076884551529
 30
0.0
 11
30.310983533819488
 21
1.6086871276229431
 31
0.0
  0
LINE
  5
F353
  8
0
  6
CONTINUOUS
 62
     7
 10
29.993345730079461
 20
1.6086871276229431
 30
0.0
 11
29.993345730079461
 21
1.5451251159200861
 31
0.0
  0
LINE
  5
F354
  8
0
  6
CONTINUOUS
 62
     7
 10
30.310983533819488
 20
1.6086871276229431
 30
0.0
 11
30.310983533819488
 21
1.5451251159200861
 31
0.0
  0
LINE
  5
F355
  8
0
  6
CONTINUOUS
 62
     7
 10
29.993345730079461
 20
1.5451251159200861
 30
0.0
 11
30.014360812539479
 21
1.481563104217227
 31
0.0
  0
LINE
  5
F356
  8
0
  6
CONTINUOUS
 62
     7
 10
30.310983533819488
 20
1.5451251159200861
 30
0.0
 11
30.310983533819488
 21
1.481563104217227
 31
0.0
  0
LINE
  5
F357
  8
0
  6
CONTINUOUS
 62
     7
 10
30.014360812539479
 20
1.481563104217227
 30
0.0
 11
30.014360812539479
 21
1.4181733472886151
 31
0.0
  0
LINE
  5
F358
  8
0
  6
CONTINUOUS
 62
     7
 10
30.310983533819488
 20
1.481563104217227
 30
0.0
 11
30.3267341455207
 21
1.4181733472886151
 31
0.0
  0
LINE
  5
F359
  8
0
  6
CONTINUOUS
 62
     7
 10
30.014360812539479
 20
1.4181733472886151
 30
0.0
 11
30.01970071054162
 21
1.3969860100543481
 31
0.0
  0
LINE
  5
F35A
  8
0
  6
CONTINUOUS
 62
     7
 10
30.3267341455207
 20
1.4181733472886151
 30
0.0
 11
30.33199861627952
 21
1.3969860100543481
 31
0.0
  0
LINE
  5
F35B
  8
0
  6
CONTINUOUS
 62
     7
 10
30.01970071054162
 20
1.3969860100543481
 30
0.0
 11
30.035720404548041
 21
1.3334239983514631
 31
0.0
  0
LINE
  5
F35C
  8
0
  6
CONTINUOUS
 62
     7
 10
30.33199861627952
 20
1.3969860100543481
 30
0.0
 11
30.33199861627952
 21
1.3334239983514631
 31
0.0
  0
LINE
  5
F35D
  8
0
  6
CONTINUOUS
 62
     7
 10
30.035720404548041
 20
1.3334239983514631
 30
0.0
 11
30.056735487008069
 21
1.270034241422876
 31
0.0
  0
LINE
  5
F35E
  8
0
  6
CONTINUOUS
 62
     7
 10
30.33199861627952
 20
1.3334239983514631
 30
0.0
 11
30.353013698739549
 21
1.270034241422876
 31
0.0
  0
LINE
  5
F35F
  8
0
  6
CONTINUOUS
 62
     7
 10
30.056735487008069
 20
1.270034241422876
 30
0.0
 11
30.07809507901661
 21
1.2276595669543151
 31
0.0
  0
LINE
  5
F360
  8
0
  6
CONTINUOUS
 62
     7
 10
30.353013698739549
 20
1.270034241422876
 30
0.0
 11
30.367253426745229
 21
1.2276595669543151
 31
0.0
  0
LINE
  5
F361
  8
0
  6
CONTINUOUS
 62
     7
 10
30.07809507901661
 20
1.2276595669543151
 30
0.0
 11
30.08510010650328
 21
1.2064722297200201
 31
0.0
  0
LINE
  5
F362
  8
0
  6
CONTINUOUS
 62
     7
 10
30.367253426745229
 20
1.2276595669543151
 30
0.0
 11
30.374373290748078
 21
1.2064722297200201
 31
0.0
  0
LINE
  5
F363
  8
0
  6
CONTINUOUS
 62
     7
 10
30.08510010650328
 20
1.2064722297200201
 30
0.0
 11
30.099110161476631
 21
1.1640975552514581
 31
0.0
  0
LINE
  5
F364
  8
0
  6
CONTINUOUS
 62
     7
 10
30.374373290748078
 20
1.2064722297200201
 30
0.0
 11
30.416747965216668
 21
1.1640975552514581
 31
0.0
  0
LINE
  5
F365
  8
0
  6
CONTINUOUS
 62
     7
 10
30.099110161476631
 20
1.1640975552514581
 30
0.0
 11
30.1204697534852
 21
1.1217228807828681
 31
0.0
  0
LINE
  5
F366
  8
0
  6
CONTINUOUS
 62
     7
 10
30.416747965216668
 20
1.1640975552514581
 30
0.0
 11
30.4377630476767
 21
1.1217228807828681
 31
0.0
  0
LINE
  5
F367
  8
0
  6
CONTINUOUS
 62
     7
 10
30.1204697534852
 20
1.1217228807828681
 30
0.0
 11
30.134460773057761
 21
1.0795204610885749
 31
0.0
  0
LINE
  5
F368
  8
0
  6
CONTINUOUS
 62
     7
 10
30.4377630476767
 20
1.1217228807828681
 30
0.0
 11
30.480137722145251
 21
1.0795204610885749
 31
0.0
  0
LINE
  5
F369
  8
0
  6
CONTINUOUS
 62
     7
 10
30.134460773057761
 20
1.0795204610885749
 30
0.0
 11
30.141484835945221
 21
1.0583331238542799
 31
0.0
  0
LINE
  5
F36A
  8
0
  6
CONTINUOUS
 62
     7
 10
30.480137722145251
 20
1.0795204610885749
 30
0.0
 11
30.50132505937956
 21
1.0583331238542799
 31
0.0
  0
LINE
  5
F36B
  8
0
  6
CONTINUOUS
 62
     7
 10
30.141484835945221
 20
1.0583331238542799
 30
0.0
 11
30.151992377175219
 21
1.037145786619986
 31
0.0
  0
LINE
  5
F36C
  8
0
  6
CONTINUOUS
 62
     7
 10
30.50132505937956
 20
1.0583331238542799
 30
0.0
 11
30.522512396613848
 21
1.037145786619986
 31
0.0
  0
LINE
  5
F36D
  8
0
  6
CONTINUOUS
 62
     7
 10
30.151992377175219
 20
1.037145786619986
 30
0.0
 11
30.162499918405221
 21
1.015958449385691
 31
0.0
  0
LINE
  5
F36E
  8
0
  6
CONTINUOUS
 62
     7
 10
30.522512396613848
 20
1.037145786619986
 30
0.0
 11
30.585902153542431
 21
1.015958449385691
 31
0.0
  0
LINE
  5
F36F
  8
0
  6
CONTINUOUS
 62
     7
 10
30.162499918405221
 20
1.015958449385691
 30
0.0
 11
30.183859510413772
 21
0.9947711121514259
 31
0.0
  0
LINE
  5
F370
  8
0
  6
CONTINUOUS
 62
     7
 10
30.585902153542431
 20
1.015958449385691
 30
0.0
 11
30.649636420019561
 21
0.9947711121514259
 31
0.0
  0
ENDBLK
  5
F372
  8
0
  0
BLOCK
  8
0
  2
*U18
 70
     1
 10
0.0
 20
0.0
 30
0.0
  3
*U18
  1

  0
SOLID
  5
F374
  8
0
  6
CONTINUOUS
 62
     7
 10
30.585902153542431
 20
3.0478757665860581
 30
0.0
 11
30.522512396613848
 21
3.0266884293517631
 31
0.0
 12
30.90353995728249
 22
3.0266884293517631
 32
0.0
 13
30.90353995728249
 23
3.0266884293517631
 33
0.0
  0
SOLID
  5
F375
  8
0
  6
CONTINUOUS
 62
     7
 10
-30.585902153542431
 20
3.0478757665860581
 30
0.0
 11
-30.840150200353861
 21
3.0478757665860581
 31
0.0
 12
-30.90353995728249
 22
3.0266884293517631
 32
0.0
 13
-30.90353995728249
 23
3.0266884293517631
 33
0.0
210
0.0
220
0.0
230
-1.0
  0
SOLID
  5
F376
  8
0
  6
CONTINUOUS
 62
     7
 10
30.522512396613848
 20
3.0266884293517631
 30
0.0
 11
30.45912263968523
 21
3.00567334689174
 31
0.0
 12
30.966929714211059
 22
3.00567334689174
 32
0.0
 13
30.966929714211059
 23
3.00567334689174
 33
0.0
  0
SOLID
  5
F377
  8
0
  6
CONTINUOUS
 62
     7
 10
-30.522512396613848
 20
3.0266884293517631
 30
0.0
 11
-30.90353995728249
 21
3.0266884293517631
 31
0.0
 12
-30.966929714211059
 22
3.00567334689174
 32
0.0
 13
-30.966929714211059
 23
3.00567334689174
 33
0.0
210
0.0
220
0.0
230
-1.0
  0
SOLID
  5
F378
  8
0
  6
CONTINUOUS
 62
     7
 10
30.45912263968523
 20
3.00567334689174
 30
0.0
 11
30.39538837320811
 21
2.984486009657473
 31
0.0
 12
30.988117051445339
 22
2.984486009657473
 32
0.0
 13
30.988117051445339
 23
2.984486009657473
 33
0.0
  0
SOLID
  5
F379
  8
0
  6
CONTINUOUS
 62
     7
 10
-30.45912263968523
 20
3.00567334689174
 30
0.0
 11
-30.966929714211059
 21
3.00567334689174
 31
0.0
 12
-30.988117051445339
 22
2.984486009657473
 32
0.0
 13
-30.988117051445339
 23
2.984486009657473
 33
0.0
210
0.0
220
0.0
230
-1.0
  0
SOLID
  5
F37A
  8
0
  6
CONTINUOUS
 62
     7
 10
30.39538837320811
 20
2.984486009657473
 30
0.0
 11
30.374201035973829
 21
2.963298672423178
 31
0.0
 12
31.009304388679649
 22
2.963298672423178
 32
0.0
 13
31.009304388679649
 23
2.963298672423178
 33
0.0
  0
SOLID
  5
F37B
  8
0
  6
CONTINUOUS
 62
     7
 10
-30.39538837320811
 20
2.984486009657473
 30
0.0
 11
-30.988117051445339
 21
2.984486009657473
 31
0.0
 12
-31.009304388679649
 22
2.963298672423178
 32
0.0
 13
-31.009304388679649
 23
2.963298672423178
 33
0.0
210
0.0
220
0.0
230
-1.0
  0
SOLID
  5
F37C
  8
0
  6
CONTINUOUS
 62
     7
 10
30.374201035973829
 20
2.963298672423178
 30
0.0
 11
30.353013698739549
 21
2.942111335188883
 31
0.0
 12
31.072694145608239
 22
2.942111335188883
 32
0.0
 13
31.072694145608239
 23
2.942111335188883
 33
0.0
  0
SOLID
  5
F37D
  8
0
  6
CONTINUOUS
 62
     7
 10
-30.374201035973829
 20
2.963298672423178
 30
0.0
 11
-31.009304388679649
 21
2.963298672423178
 31
0.0
 12
-31.072694145608239
 22
2.942111335188883
 32
0.0
 13
-31.072694145608239
 23
2.942111335188883
 33
0.0
210
0.0
220
0.0
230
-1.0
  0
SOLID
  5
F37E
  8
0
  6
CONTINUOUS
 62
     7
 10
30.353013698739549
 20
2.942111335188883
 30
0.0
 11
30.310983533819488
 21
2.899736660720321
 31
0.0
 12
31.094053737616768
 22
2.899736660720321
 32
0.0
 13
31.094053737616768
 23
2.899736660720321
 33
0.0
  0
SOLID
  5
F37F
  8
0
  6
CONTINUOUS
 62
     7
 10
-30.353013698739549
 20
2.942111335188883
 30
0.0
 11
-31.072694145608239
 21
2.942111335188883
 31
0.0
 12
-31.094053737616768
 22
2.899736660720321
 32
0.0
 13
-31.094053737616768
 23
2.899736660720321
 33
0.0
210
0.0
220
0.0
230
-1.0
  0
SOLID
  5
F380
  8
0
  6
CONTINUOUS
 62
     7
 10
30.310983533819488
 20
2.899736660720321
 30
0.0
 11
30.26860885935093
 21
2.8575342410260021
 31
0.0
 12
31.15744349454539
 22
2.8575342410260021
 32
0.0
 13
31.15744349454539
 23
2.8575342410260021
 33
0.0
  0
SOLID
  5
F381
  8
0
  6
CONTINUOUS
 62
     7
 10
-30.310983533819488
 20
2.899736660720321
 30
0.0
 11
-31.094053737616768
 21
2.899736660720321
 31
0.0
 12
-31.15744349454539
 22
2.8575342410260021
 32
0.0
 13
-31.15744349454539
 23
2.8575342410260021
 33
0.0
210
0.0
220
0.0
230
-1.0
  0
SOLID
  5
F382
  8
0
  6
CONTINUOUS
 62
     7
 10
30.26860885935093
 20
2.8575342410260021
 30
0.0
 11
30.226234184882351
 21
2.81515956655744
 31
0.0
 12
31.171683222551081
 22
2.81515956655744
 32
0.0
 13
31.171683222551081
 23
2.81515956655744
 33
0.0
  0
SOLID
  5
F383
  8
0
  6
CONTINUOUS
 62
     7
 10
-30.26860885935093
 20
2.8575342410260021
 30
0.0
 11
-31.15744349454539
 21
2.8575342410260021
 31
0.0
 12
-31.171683222551081
 22
2.81515956655744
 32
0.0
 13
-31.171683222551081
 23
2.81515956655744
 33
0.0
210
0.0
220
0.0
230
-1.0
  0
SOLID
  5
F384
  8
0
  6
CONTINUOUS
 62
     7
 10
30.691666584939611
 20
2.81515956655744
 30
0.0
 11
30.713026176948151
 21
2.793972229323145
 31
0.0
 12
31.178803086553931
 22
2.793972229323145
 32
0.0
 13
31.178803086553931
 23
2.793972229323145
 33
0.0
  0
SOLID
  5
F385
  8
0
  6
CONTINUOUS
 62
     7
 10
-30.691666584939611
 20
2.81515956655744
 30
0.0
 11
-31.171683222551081
 21
2.81515956655744
 31
0.0
 12
-31.178803086553931
 22
2.793972229323145
 32
0.0
 13
-31.178803086553931
 23
2.793972229323145
 33
0.0
210
0.0
220
0.0
230
-1.0
  0
SOLID
  5
F386
  8
0
  6
CONTINUOUS
 62
     7
 10
30.77641593387677
 20
2.793972229323145
 30
0.0
 11
30.840150200353861
 21
2.77278489208885
 31
0.0
 12
31.192813141527282
 22
2.77278489208885
 32
0.0
 13
31.192813141527282
 23
2.77278489208885
 33
0.0
  0
SOLID
  5
F387
  8
0
  6
CONTINUOUS
 62
     7
 10
-30.77641593387677
 20
2.793972229323145
 30
0.0
 11
-31.178803086553931
 21
2.793972229323145
 31
0.0
 12
-31.192813141527282
 22
2.77278489208885
 32
0.0
 13
-31.192813141527282
 23
2.77278489208885
 33
0.0
210
0.0
220
0.0
230
-1.0
  0
SOLID
  5
F388
  8
0
  6
CONTINUOUS
 62
     7
 10
30.840150200353861
 20
2.77278489208885
 30
0.0
 11
30.90353995728249
 21
2.730410217620288
 31
0.0
 12
31.22083325147398
 22
2.730410217620288
 32
0.0
 13
31.22083325147398
 23
2.730410217620288
 33
0.0
  0
SOLID
  5
F389
  8
0
  6
CONTINUOUS
 62
     7
 10
-30.840150200353861
 20
2.77278489208885
 30
0.0
 11
-31.192813141527282
 21
2.77278489208885
 31
0.0
 12
-31.22083325147398
 22
2.730410217620288
 32
0.0
 13
-31.22083325147398
 23
2.730410217620288
 33
0.0
210
0.0
220
0.0
230
-1.0
  0
SOLID
  5
F38A
  8
0
  6
CONTINUOUS
 62
     7
 10
30.90353995728249
 20
2.730410217620288
 30
0.0
 11
30.90353995728249
 21
2.709222880385993
 31
0.0
 12
31.231513047478259
 22
2.709222880385993
 32
0.0
 13
31.231513047478259
 23
2.709222880385993
 33
0.0
  0
SOLID
  5
F38B
  8
0
  6
CONTINUOUS
 62
     7
 10
-30.90353995728249
 20
2.730410217620288
 30
0.0
 11
-31.22083325147398
 21
2.730410217620288
 31
0.0
 12
-31.231513047478259
 22
2.709222880385993
 32
0.0
 13
-31.231513047478259
 23
2.709222880385993
 33
0.0
210
0.0
220
0.0
230
-1.0
  0
SOLID
  5
F38C
  8
0
  6
CONTINUOUS
 62
     7
 10
30.90353995728249
 20
2.709222880385993
 30
0.0
 11
30.91409038643588
 21
2.688035543151698
 31
0.0
 12
31.242192843482549
 22
2.688035543151698
 32
0.0
 13
31.242192843482549
 23
2.688035543151698
 33
0.0
  0
SOLID
  5
F38D
  8
0
  6
CONTINUOUS
 62
     7
 10
-30.90353995728249
 20
2.709222880385993
 30
0.0
 11
-31.231513047478259
 21
2.709222880385993
 31
0.0
 12
-31.242192843482549
 22
2.688035543151698
 32
0.0
 13
-31.242192843482549
 23
2.688035543151698
 33
0.0
210
0.0
220
0.0
230
-1.0
  0
SOLID
  5
F38E
  8
0
  6
CONTINUOUS
 62
     7
 10
30.91409038643588
 20
2.688035543151698
 30
0.0
 11
30.924555039742501
 21
2.6670204606917021
 31
0.0
 12
31.24915980016765
 22
2.6670204606917021
 32
0.0
 13
31.24915980016765
 23
2.6670204606917021
 33
0.0
  0
SOLID
  5
F38F
  8
0
  6
CONTINUOUS
 62
     7
 10
-30.91409038643588
 20
2.688035543151698
 30
0.0
 11
-31.242192843482549
 21
2.688035543151698
 31
0.0
 12
-31.24915980016765
 22
2.6670204606917021
 32
0.0
 13
-31.24915980016765
 23
2.6670204606917021
 33
0.0
210
0.0
220
0.0
230
-1.0
  0
SOLID
  5
F390
  8
0
  6
CONTINUOUS
 62
     7
 10
30.924555039742501
 20
2.6670204606917021
 30
0.0
 11
30.938794767748199
 21
2.6246457862231121
 31
0.0
 12
31.26320792594257
 22
2.6246457862231121
 32
0.0
 13
31.26320792594257
 23
2.6246457862231121
 33
0.0
  0
SOLID
  5
F391
  8
0
  6
CONTINUOUS
 62
     7
 10
-30.924555039742501
 20
2.6670204606917021
 30
0.0
 11
-31.24915980016765
 21
2.6670204606917021
 31
0.0
 12
-31.26320792594257
 22
2.6246457862231121
 32
0.0
 13
-31.26320792594257
 23
2.6246457862231121
 33
0.0
210
0.0
220
0.0
230
-1.0
  0
SOLID
  5
F392
  8
0
  6
CONTINUOUS
 62
     7
 10
30.938794767748199
 20
2.6246457862231121
 30
0.0
 11
30.945914631751041
 21
2.6034584489888162
 31
0.0
 12
31.26320792594257
 22
2.6034584489888162
 32
0.0
 13
31.26320792594257
 23
2.6034584489888162
 33
0.0
  0
SOLID
  5
F393
  8
0
  6
CONTINUOUS
 62
     7
 10
-30.938794767748199
 20
2.6246457862231121
 30
0.0
 11
-31.26320792594257
 21
2.6246457862231121
 31
0.0
 12
-31.26320792594257
 22
2.6034584489888162
 32
0.0
 13
-31.26320792594257
 23
2.6034584489888162
 33
0.0
210
0.0
220
0.0
230
-1.0
  0
SOLID
  5
F394
  8
0
  6
CONTINUOUS
 62
     7
 10
30.945914631751041
 20
2.6034584489888162
 30
0.0
 11
30.959924686724381
 21
2.561083774520255
 31
0.0
 12
31.26320792594257
 22
2.561083774520255
 32
0.0
 13
31.26320792594257
 23
2.561083774520255
 33
0.0
  0
SOLID
  5
F395
  8
0
  6
CONTINUOUS
 62
     7
 10
-30.945914631751041
 20
2.6034584489888162
 30
0.0
 11
-31.26320792594257
 21
2.6034584489888162
 31
0.0
 12
-31.26320792594257
 22
2.561083774520255
 32
0.0
 13
-31.26320792594257
 23
2.561083774520255
 33
0.0
210
0.0
220
0.0
230
-1.0
  0
SOLID
  5
F396
  8
0
  6
CONTINUOUS
 62
     7
 10
30.959924686724381
 20
2.561083774520255
 30
0.0
 11
30.966929714211059
 21
2.53989643728596
 31
0.0
 12
31.268558699500719
 22
2.53989643728596
 32
0.0
 13
31.268558699500719
 23
2.53989643728596
 33
0.0
  0
SOLID
  5
F397
  8
0
  6
CONTINUOUS
 62
     7
 10
-30.959924686724381
 20
2.561083774520255
 30
0.0
 11
-31.26320792594257
 21
2.561083774520255
 31
0.0
 12
-31.268558699500719
 22
2.53989643728596
 32
0.0
 13
-31.268558699500719
 23
2.53989643728596
 33
0.0
210
0.0
220
0.0
230
-1.0
  0
SOLID
  5
F398
  8
0
  6
CONTINUOUS
 62
     7
 10
30.966929714211059
 20
2.53989643728596
 30
0.0
 11
30.966929714211059
 21
2.4765066803573741
 31
0.0
 12
31.2845675179511
 22
2.4765066803573741
 32
0.0
 13
31.2845675179511
 23
2.4765066803573741
 33
0.0
  0
SOLID
  5
F399
  8
0
  6
CONTINUOUS
 62
     7
 10
-30.966929714211059
 20
2.53989643728596
 30
0.0
 11
-31.268558699500719
 21
2.53989643728596
 31
0.0
 12
-31.2845675179511
 22
2.4765066803573741
 32
0.0
 13
-31.2845675179511
 23
2.4765066803573741
 33
0.0
210
0.0
220
0.0
230
-1.0
  0
SOLID
  5
F39A
  8
0
  6
CONTINUOUS
 62
     7
 10
30.966929714211059
 20
2.4765066803573741
 30
0.0
 11
30.966929714211059
 21
2.4553193431230791
 31
0.0
 12
31.2845675179511
 22
2.4553193431230791
 32
0.0
 13
31.2845675179511
 23
2.4553193431230791
 33
0.0
  0
SOLID
  5
F39B
  8
0
  6
CONTINUOUS
 62
     7
 10
-30.966929714211059
 20
2.4765066803573741
 30
0.0
 11
-31.2845675179511
 21
2.4765066803573741
 31
0.0
 12
-31.2845675179511
 22
2.4553193431230791
 32
0.0
 13
-31.2845675179511
 23
2.4553193431230791
 33
0.0
210
0.0
220
0.0
230
-1.0
  0
LINE
  5
F39C
  8
0
  6
CONTINUOUS
 62
     7
 10
30.585902153542431
 20
3.0478757665860581
 30
0.0
 11
30.522512396613848
 21
3.0266884293517631
 31
0.0
  0
LINE
  5
F39D
  8
0
  6
CONTINUOUS
 62
     7
 10
30.840150200353861
 20
3.0478757665860581
 30
0.0
 11
30.90353995728249
 21
3.0266884293517631
 31
0.0
  0
LINE
  5
F39E
  8
0
  6
CONTINUOUS
 62
     7
 10
30.522512396613848
 20
3.0266884293517631
 30
0.0
 11
30.45912263968523
 21
3.00567334689174
 31
0.0
  0
LINE
  5
F39F
  8
0
  6
CONTINUOUS
 62
     7
 10
30.90353995728249
 20
3.0266884293517631
 30
0.0
 11
30.966929714211059
 21
3.00567334689174
 31
0.0
  0
LINE
  5
F3A0
  8
0
  6
CONTINUOUS
 62
     7
 10
30.45912263968523
 20
3.00567334689174
 30
0.0
 11
30.39538837320811
 21
2.984486009657473
 31
0.0
  0
LINE
  5
F3A1
  8
0
  6
CONTINUOUS
 62
     7
 10
30.966929714211059
 20
3.00567334689174
 30
0.0
 11
30.988117051445339
 21
2.984486009657473
 31
0.0
  0
LINE
  5
F3A2
  8
0
  6
CONTINUOUS
 62
     7
 10
30.39538837320811
 20
2.984486009657473
 30
0.0
 11
30.374201035973829
 21
2.963298672423178
 31
0.0
  0
LINE
  5
F3A3
  8
0
  6
CONTINUOUS
 62
     7
 10
30.988117051445339
 20
2.984486009657473
 30
0.0
 11
31.009304388679649
 21
2.963298672423178
 31
0.0
  0
LINE
  5
F3A4
  8
0
  6
CONTINUOUS
 62
     7
 10
30.374201035973829
 20
2.963298672423178
 30
0.0
 11
30.353013698739549
 21
2.942111335188883
 31
0.0
  0
LINE
  5
F3A5
  8
0
  6
CONTINUOUS
 62
     7
 10
31.009304388679649
 20
2.963298672423178
 30
0.0
 11
31.072694145608239
 21
2.942111335188883
 31
0.0
  0
LINE
  5
F3A6
  8
0
  6
CONTINUOUS
 62
     7
 10
30.353013698739549
 20
2.942111335188883
 30
0.0
 11
30.310983533819488
 21
2.899736660720321
 31
0.0
  0
LINE
  5
F3A7
  8
0
  6
CONTINUOUS
 62
     7
 10
31.072694145608239
 20
2.942111335188883
 30
0.0
 11
31.094053737616768
 21
2.899736660720321
 31
0.0
  0
LINE
  5
F3A8
  8
0
  6
CONTINUOUS
 62
     7
 10
30.310983533819488
 20
2.899736660720321
 30
0.0
 11
30.26860885935093
 21
2.8575342410260021
 31
0.0
  0
LINE
  5
F3A9
  8
0
  6
CONTINUOUS
 62
     7
 10
31.094053737616768
 20
2.899736660720321
 30
0.0
 11
31.15744349454539
 21
2.8575342410260021
 31
0.0
  0
LINE
  5
F3AA
  8
0
  6
CONTINUOUS
 62
     7
 10
30.26860885935093
 20
2.8575342410260021
 30
0.0
 11
30.226234184882351
 21
2.81515956655744
 31
0.0
  0
LINE
  5
F3AB
  8
0
  6
CONTINUOUS
 62
     7
 10
31.15744349454539
 20
2.8575342410260021
 30
0.0
 11
31.171683222551081
 21
2.81515956655744
 31
0.0
  0
LINE
  5
F3AC
  8
0
  6
CONTINUOUS
 62
     7
 10
30.691666584939611
 20
2.81515956655744
 30
0.0
 11
30.713026176948151
 21
2.793972229323145
 31
0.0
  0
LINE
  5
F3AD
  8
0
  6
CONTINUOUS
 62
     7
 10
31.171683222551081
 20
2.81515956655744
 30
0.0
 11
31.178803086553931
 21
2.793972229323145
 31
0.0
  0
LINE
  5
F3AE
  8
0
  6
CONTINUOUS
 62
     7
 10
30.77641593387677
 20
2.793972229323145
 30
0.0
 11
30.840150200353861
 21
2.77278489208885
 31
0.0
  0
LINE
  5
F3AF
  8
0
  6
CONTINUOUS
 62
     7
 10
31.178803086553931
 20
2.793972229323145
 30
0.0
 11
31.192813141527282
 21
2.77278489208885
 31
0.0
  0
LINE
  5
F3B0
  8
0
  6
CONTINUOUS
 62
     7
 10
30.840150200353861
 20
2.77278489208885
 30
0.0
 11
30.90353995728249
 21
2.730410217620288
 31
0.0
  0
LINE
  5
F3B1
  8
0
  6
CONTINUOUS
 62
     7
 10
31.192813141527282
 20
2.77278489208885
 30
0.0
 11
31.22083325147398
 21
2.730410217620288
 31
0.0
  0
LINE
  5
F3B2
  8
0
  6
CONTINUOUS
 62
     7
 10
30.90353995728249
 20
2.730410217620288
 30
0.0
 11
30.90353995728249
 21
2.709222880385993
 31
0.0
  0
LINE
  5
F3B3
  8
0
  6
CONTINUOUS
 62
     7
 10
31.22083325147398
 20
2.730410217620288
 30
0.0
 11
31.231513047478259
 21
2.709222880385993
 31
0.0
  0
LINE
  5
F3B4
  8
0
  6
CONTINUOUS
 62
     7
 10
30.90353995728249
 20
2.709222880385993
 30
0.0
 11
30.91409038643588
 21
2.688035543151698
 31
0.0
  0
LINE
  5
F3B5
  8
0
  6
CONTINUOUS
 62
     7
 10
31.231513047478259
 20
2.709222880385993
 30
0.0
 11
31.242192843482549
 21
2.688035543151698
 31
0.0
  0
LINE
  5
F3B6
  8
0
  6
CONTINUOUS
 62
     7
 10
30.91409038643588
 20
2.688035543151698
 30
0.0
 11
30.924555039742501
 21
2.6670204606917021
 31
0.0
  0
LINE
  5
F3B7
  8
0
  6
CONTINUOUS
 62
     7
 10
31.242192843482549
 20
2.688035543151698
 30
0.0
 11
31.24915980016765
 21
2.6670204606917021
 31
0.0
  0
LINE
  5
F3B8
  8
0
  6
CONTINUOUS
 62
     7
 10
30.924555039742501
 20
2.6670204606917021
 30
0.0
 11
30.938794767748199
 21
2.6246457862231121
 31
0.0
  0
LINE
  5
F3B9
  8
0
  6
CONTINUOUS
 62
     7
 10
31.24915980016765
 20
2.6670204606917021
 30
0.0
 11
31.26320792594257
 21
2.6246457862231121
 31
0.0
  0
LINE
  5
F3BA
  8
0
  6
CONTINUOUS
 62
     7
 10
30.938794767748199
 20
2.6246457862231121
 30
0.0
 11
30.945914631751041
 21
2.6034584489888162
 31
0.0
  0
LINE
  5
F3BB
  8
0
  6
CONTINUOUS
 62
     7
 10
31.26320792594257
 20
2.6246457862231121
 30
0.0
 11
31.26320792594257
 21
2.6034584489888162
 31
0.0
  0
LINE
  5
F3BC
  8
0
  6
CONTINUOUS
 62
     7
 10
30.945914631751041
 20
2.6034584489888162
 30
0.0
 11
30.959924686724381
 21
2.561083774520255
 31
0.0
  0
LINE
  5
F3BD
  8
0
  6
CONTINUOUS
 62
     7
 10
31.26320792594257
 20
2.6034584489888162
 30
0.0
 11
31.26320792594257
 21
2.561083774520255
 31
0.0
  0
LINE
  5
F3BE
  8
0
  6
CONTINUOUS
 62
     7
 10
30.959924686724381
 20
2.561083774520255
 30
0.0
 11
30.966929714211059
 21
2.53989643728596
 31
0.0
  0
LINE
  5
F3BF
  8
0
  6
CONTINUOUS
 62
     7
 10
31.26320792594257
 20
2.561083774520255
 30
0.0
 11
31.268558699500719
 21
2.53989643728596
 31
0.0
  0
LINE
  5
F3C0
  8
0
  6
CONTINUOUS
 62
     7
 10
30.966929714211059
 20
2.53989643728596
 30
0.0
 11
30.966929714211059
 21
2.4765066803573741
 31
0.0
  0
LINE
  5
F3C1
  8
0
  6
CONTINUOUS
 62
     7
 10
31.268558699500719
 20
2.53989643728596
 30
0.0
 11
31.2845675179511
 21
2.4765066803573741
 31
0.0
  0
LINE
  5
F3C2
  8
0
  6
CONTINUOUS
 62
     7
 10
30.966929714211059
 20
2.4765066803573741
 30
0.0
 11
30.966929714211059
 21
2.4553193431230791
 31
0.0
  0
LINE
  5
F3C3
  8
0
  6
CONTINUOUS
 62
     7
 10
31.2845675179511
 20
2.4765066803573741
 30
0.0
 11
31.2845675179511
 21
2.4553193431230791
 31
0.0
  0
ENDBLK
  5
F3C5
  8
0
  0
ENDSEC
  0
SECTION
  2
ENTITIES
  0
LINE
  5
5D
  8
0
  6
CONTINUOUS
 62
     7
 10
60.416108952683153
 20
49.144268396042747
 30
0.0
 11
73.30509937797585
 21
56.585730964348627
 31
0.0
  0
LINE
  5
5E
  8
0
  6
CONTINUOUS
 62
     7
 10
40.404045453155469
 20
37.590298584505149
 30
0.0
 11
31.270291494046969
 21
32.316923096948138
 31
0.0
  0
TEXT
  5
AA
  8
0
  6
CONTINUOUS
 62
     7
 10
3.0
 20
91.0
 30
0.0
 40
4.5
  1
調光ｺﾝﾄﾛｰﾗ
 41
1.551724137931034
  7
EXCADSTD
 72
     5
 11
43.5
 21
91.0
 31
0.0
  0
TEXT
  5
C8
  8
0
  6
CONTINUOUS
 62
     7
 10
3.0
 20
7.0
 30
0.0
 40
4.5
  1
三菱 MS1801A
 41
0.9747126896551726
  7
EXCADSTD
 72
     5
 11
45.400002000000001
 21
7.0
 31
0.0
  0
POLYLINE
  5
F84D
  8
0
 62
     7
 66
     1
 10
0.0
 20
0.0
 30
0.0
  0
VERTEX
  5
FF70
  8
0
 62
     7
 10
53.134542527028543
 20
48.541701726828251
 30
0.0
  0
VERTEX
  5
FF71
  8
0
 62
     7
 10
51.2721239077025
 20
48.880010103479769
 30
0.0
  0
VERTEX
  5
FF72
  8
0
 62
     7
 10
49.409705288376458
 20
48.96475945241697
 30
0.0
  0
VERTEX
  5
FF73
  8
0
 62
     7
 10
47.546597649953348
 20
48.880010103479769
 30
0.0
  0
VERTEX
  5
FF74
  8
0
 62
     7
 10
45.684179030627263
 20
48.541701726828251
 30
0.0
  0
VERTEX
  5
FF75
  8
0
 62
     7
 10
43.99057009007845
 20
48.033894652302472
 30
0.0
  0
VERTEX
  5
FF76
  8
0
 62
     7
 10
42.551209196341048
 20
47.356588879902347
 30
0.0
  0
VERTEX
  5
FF77
  8
0
 62
     7
 10
41.366096349415102
 20
46.509784409627841
 30
0.0
  0
VERTEX
  5
FF78
  8
0
 62
     7
 10
40.43454253020353
 20
45.493481241479223
 30
0.0
  0
VERTEX
  5
FF79
  8
0
 62
     7
 10
39.841986106740592
 20
44.477867092427559
 30
0.0
  0
VERTEX
  5
FF7A
  8
0
 62
     7
 10
39.672487408866289
 20
43.376814575341662
 30
0.0
  0
VERTEX
  5
FF7B
  8
0
 62
     7
 10
39.841986106740592
 20
42.276451077352931
 30
0.0
  0
VERTEX
  5
FF7C
  8
0
 62
     7
 10
40.43454253020353
 20
41.260147909204179
 30
0.0
  0
VERTEX
  5
FF7D
  8
0
 62
     7
 10
45.684179030627263
 20
38.21261644295214
 30
0.0
  0
VERTEX
  5
FF7E
  8
0
 62
     7
 10
47.546597649953348
 20
37.873619047203647
 30
0.0
  0
VERTEX
  5
FF7F
  8
0
 62
     7
 10
49.409705288376458
 20
37.788869698266467
 30
0.0
  0
VERTEX
  5
FF80
  8
0
 62
     7
 10
51.356873256639687
 20
37.873619047203647
 30
0.0
  0
VERTEX
  5
FF81
  8
0
 62
     7
 10
53.134542527028543
 20
38.21261644295214
 30
0.0
  0
VERTEX
  5
FF82
  8
0
 62
     7
 10
54.828151467577399
 20
38.720423517478032
 30
0.0
  0
VERTEX
  5
FF83
  8
0
 62
     7
 10
56.267512361314743
 20
39.397729289878157
 30
0.0
  0
VERTEX
  5
FF84
  8
0
 62
     7
 10
57.53737455717782
 20
40.244533760152521
 30
0.0
  0
VERTEX
  5
FF85
  8
0
 62
     7
 10
58.384179027452262
 20
41.175398560267013
 30
0.0
  0
VERTEX
  5
FF86
  8
0
 62
     7
 10
58.976735450915271
 20
42.276451077352931
 30
0.0
  0
VERTEX
  5
FF87
  8
0
 62
     7
 10
59.146234148789517
 20
43.376814575341662
 30
0.0
  0
VERTEX
  5
FF88
  8
0
 62
     7
 10
58.976735450915271
 20
44.477867092427559
 30
0.0
  0
VERTEX
  5
FF89
  8
0
 62
     7
 10
58.384179027452262
 20
45.493481241479223
 30
0.0
  0
VERTEX
  5
FF8A
  8
0
 62
     7
 10
53.134542527028543
 20
48.541701726828251
 30
0.0
  0
SEQEND
  5
FF8B
  8
0
 62
     7
  0
POLYLINE
  5
F86A
  8
0
 62
     7
 66
     1
 10
0.0
 20
0.0
 30
0.0
  0
VERTEX
  5
FF8C
  8
0
 62
     7
 10
62.871760406538712
 20
44.731426120141919
 30
0.0
  0
VERTEX
  5
FF8D
  8
0
 62
     7
 10
62.871760406538712
 20
43.376814575341662
 30
0.0
  0
SEQEND
  5
FF8E
  8
0
 62
     7
  0
POLYLINE
  5
F86E
  8
0
 62
     7
 66
     1
 10
0.0
 20
0.0
 30
0.0
  0
VERTEX
  5
FF8F
  8
0
 62
     7
 10
35.94765017021416
 20
44.731426120141919
 30
0.0
  0
VERTEX
  5
FF90
  8
0
 62
     7
 10
35.94765017021416
 20
43.376814575341662
 30
0.0
  0
SEQEND
  5
FF91
  8
0
 62
     7
  0
POLYLINE
  5
F872
  8
0
 62
     7
 66
     1
 10
0.0
 20
0.0
 30
0.0
  0
VERTEX
  5
FF92
  8
0
 62
     7
 10
62.702261708664409
 20
44.816175469079091
 30
0.0
  0
VERTEX
  5
FF93
  8
0
 62
     7
 10
62.024955936264277
 20
46.170787013879348
 30
0.0
  0
VERTEX
  5
FF94
  8
0
 62
     7
 10
60.92390341917848
 20
47.441338228839413
 30
0.0
  0
VERTEX
  5
FF95
  8
0
 62
     7
 10
59.399793176503927
 20
48.626451075765431
 30
0.0
  0
VERTEX
  5
FF96
  8
0
 62
     7
 10
57.53737455717782
 20
49.558004894976982
 30
0.0
  0
VERTEX
  5
FF97
  8
0
 62
     7
 10
55.420707891040372
 20
50.319370997217213
 30
0.0
  0
VERTEX
  5
FF98
  8
0
 62
     7
 10
53.134542527028543
 20
50.827867090840073
 30
0.0
  0
VERTEX
  5
FF99
  8
0
 62
     7
 10
50.679567484239563
 20
51.081426118554411
 30
0.0
  0
VERTEX
  5
FF9A
  8
0
 62
     7
 10
48.139154073416307
 20
51.081426118554411
 30
0.0
  0
VERTEX
  5
FF9B
  8
0
 62
     7
 10
45.768928379564379
 20
50.827867090840073
 30
0.0
  0
VERTEX
  5
FF9C
  8
0
 62
     7
 10
43.398013666615491
 20
50.319370997217213
 30
0.0
  0
VERTEX
  5
FF9D
  8
0
 62
     7
 10
41.281347000477957
 20
49.558004894976982
 30
0.0
  0
VERTEX
  5
FF9E
  8
0
 62
     7
 10
39.418928381151893
 20
48.626451075765431
 30
0.0
  0
VERTEX
  5
FF9F
  8
0
 62
     7
 10
37.979567487414563
 20
47.441338228839413
 30
0.0
  0
VERTEX
  5
FFA0
  8
0
 62
     7
 10
36.878514970328702
 20
46.170787013879348
 30
0.0
  0
VERTEX
  5
FFA1
  8
0
 62
     7
 10
36.201209197928563
 20
44.816175469079091
 30
0.0
  0
SEQEND
  5
FFA2
  8
0
 62
     7
  0
POLYLINE
  5
F884
  8
0
 62
     7
 66
     1
 10
0.0
 20
0.0
 30
0.0
  0
VERTEX
  5
FFA3
  8
0
 62
     7
 10
52.203677726914073
 20
56.754120344566779
 30
0.0
  0
VERTEX
  5
FFA4
  8
0
 62
     7
 10
52.203677726914073
 20
52.351288314417488
 30
0.0
  0
SEQEND
  5
FFA5
  8
0
 62
     7
  0
POLYLINE
  5
F888
  8
0
 62
     7
 66
     1
 10
0.0
 20
0.0
 30
0.0
  0
VERTEX
  5
FFA6
  8
0
 62
     7
 10
54.828151467577399
 20
56.500561316852433
 30
0.0
  0
VERTEX
  5
FFA7
  8
0
 62
     7
 10
54.828151467577399
 20
51.84348123989173
 30
0.0
  0
SEQEND
  5
FFA8
  8
0
 62
     7
  0
POLYLINE
  5
F88C
  8
0
 62
     7
 66
     1
 10
0.0
 20
0.0
 30
0.0
  0
VERTEX
  5
FFA9
  8
0
 62
     7
 10
54.828151467577399
 20
56.246313270041007
 30
0.0
  0
VERTEX
  5
FFAA
  8
0
 62
     7
 10
57.029567482652041
 20
54.97645107417793
 30
0.0
  0
SEQEND
  5
FFAB
  8
0
 62
     7
  0
POLYLINE
  5
F890
  8
0
 62
     7
 66
     1
 10
0.0
 20
0.0
 30
0.0
  0
VERTEX
  5
FFAC
  8
0
 62
     7
 10
53.981346997302978
 20
56.500561316852433
 30
0.0
  0
VERTEX
  5
FFAD
  8
0
 62
     7
 10
53.981346997302978
 20
52.351288314417488
 30
0.0
  0
SEQEND
  5
FFAE
  8
0
 62
     7
  0
POLYLINE
  5
F894
  8
0
 62
     7
 66
     1
 10
0.0
 20
0.0
 30
0.0
  0
VERTEX
  5
FFAF
  8
0
 62
     7
 10
54.828151467577399
 20
56.500561316852433
 30
0.0
  0
VERTEX
  5
FFB0
  8
0
 62
     7
 10
54.489154071828793
 20
56.754120344566779
 30
0.0
  0
VERTEX
  5
FFB1
  8
0
 62
     7
 10
54.320344393051521
 20
56.838869693503959
 30
0.0
  0
VERTEX
  5
FFB2
  8
0
 62
     7
 10
54.150845695177281
 20
56.838869693503959
 30
0.0
  0
VERTEX
  5
FFB3
  8
0
 62
     7
 10
53.896597648365862
 20
56.923619042441153
 30
0.0
  0
VERTEX
  5
FFB4
  8
0
 62
     7
 10
53.304041224902853
 20
56.923619042441153
 30
0.0
  0
VERTEX
  5
FFB5
  8
0
 62
     7
 10
52.203677726914073
 20
56.754120344566779
 30
0.0
  0
SEQEND
  5
FFB6
  8
0
 62
     7
  0
POLYLINE
  5
F89D
  8
0
 62
     7
 66
     1
 10
0.0
 20
0.0
 30
0.0
  0
VERTEX
  5
FFB7
  8
0
 62
     7
 10
34.846597653128363
 20
43.123255547627309
 30
0.0
  0
VERTEX
  5
FFB8
  8
0
 62
     7
 10
30.274955944201789
 20
44.900924818016271
 30
0.0
  0
SEQEND
  5
FFB9
  8
0
 62
     7
  0
POLYLINE
  5
F8A1
  8
0
 62
     7
 66
     1
 10
0.0
 20
0.0
 30
0.0
  0
VERTEX
  5
FFBA
  8
0
 62
     7
 10
34.931347002065479
 20
43.292065226404588
 30
0.0
  0
VERTEX
  5
FFBB
  8
0
 62
     7
 10
29.258652776053061
 20
45.493481241479223
 30
0.0
  0
SEQEND
  5
FFBC
  8
0
 62
     7
  0
POLYLINE
  5
F8A5
  8
0
 62
     7
 66
     1
 10
0.0
 20
0.0
 30
0.0
  0
VERTEX
  5
FFBD
  8
0
 62
     7
 10
28.3270989568415
 20
41.599145304952799
 30
0.0
  0
VERTEX
  5
FFBE
  8
0
 62
     7
 10
24.093765624566569
 20
44.054120347741787
 30
0.0
  0
SEQEND
  5
FFBF
  8
0
 62
     7
  0
POLYLINE
  5
F8A9
  8
0
 62
     7
 66
     1
 10
0.0
 20
0.0
 30
0.0
  0
VERTEX
  5
FFC0
  8
0
 62
     7
 10
35.862900821277051
 20
42.614759454004449
 30
0.0
  0
VERTEX
  5
FFC1
  8
0
 62
     7
 10
35.185595048876898
 20
42.953756849753049
 30
0.0
  0
SEQEND
  5
FFC2
  8
0
 62
     7
  0
POLYLINE
  5
F8AD
  8
0
 62
     7
 66
     1
 10
0.0
 20
0.0
 30
0.0
  0
VERTEX
  5
FFC3
  8
0
 62
     7
 10
25.19481814165238
 20
45.155172864827691
 30
0.0
  0
VERTEX
  5
FFC4
  8
0
 62
     7
 10
28.750845701527279
 20
43.038506198690122
 30
0.0
  0
SEQEND
  5
FFC5
  8
0
 62
     7
  0
POLYLINE
  5
F8B1
  8
0
 62
     7
 66
     1
 10
0.0
 20
0.0
 30
0.0
  0
VERTEX
  5
FFC6
  8
0
 62
     7
 10
24.009705294726469
 20
44.054120347741787
 30
0.0
  0
VERTEX
  5
FFC7
  8
0
 62
     7
 10
24.093765624566569
 20
44.054120347741787
 30
0.0
  0
VERTEX
  5
FFC8
  8
0
 62
     7
 10
24.687011067126551
 20
45.070423515890518
 30
0.0
  0
SEQEND
  5
FFC9
  8
0
 62
     7
  0
POLYLINE
  5
F8B6
  8
0
 62
     7
 66
     1
 10
0.0
 20
0.0
 30
0.0
  0
VERTEX
  5
FFCA
  8
0
 62
     7
 10
30.274955944201789
 20
44.900924818016271
 30
0.0
  0
VERTEX
  5
FFCB
  8
0
 62
     7
 10
28.666096352590099
 20
45.493481241479223
 30
0.0
  0
VERTEX
  5
FFCC
  8
0
 62
     7
 10
26.88842708220125
 20
45.578230590416297
 30
0.0
  0
VERTEX
  5
FFCD
  8
0
 62
     7
 10
24.85582074590377
 20
45.324671562701951
 30
0.0
  0
SEQEND
  5
FFCE
  8
0
 62
     7
  0
POLYLINE
  5
F8BC
  8
0
 62
     7
 66
     1
 10
0.0
 20
0.0
 30
0.0
  0
VERTEX
  5
FFCF
  8
0
 62
     7
 10
29.258652776053061
 20
45.493481241479223
 30
0.0
  0
VERTEX
  5
FFD0
  8
0
 62
     7
 10
27.141986109915589
 20
45.747729288290643
 30
0.0
  0
VERTEX
  5
FFD1
  8
0
 62
     7
 10
24.94057009484095
 20
45.40873189254205
 30
0.0
  0
SEQEND
  5
FFD2
  8
0
 62
     7
  0
POLYLINE
  5
F8C1
  8
0
 62
     7
 66
     1
 10
0.0
 20
0.0
 30
0.0
  0
VERTEX
  5
FFD3
  8
0
 62
     7
 10
24.602261718189428
 20
45.155172864827691
 30
0.0
  0
VERTEX
  5
FFD4
  8
0
 62
     7
 10
24.009705294726469
 20
44.054120347741787
 30
0.0
  0
SEQEND
  5
FFD5
  8
0
 62
     7
  0
POLYLINE
  5
F8C5
  8
0
 62
     7
 66
     1
 10
0.0
 20
0.0
 30
0.0
  0
VERTEX
  5
FFD6
  8
0
 62
     7
 10
24.85582074590377
 20
45.324671562701951
 30
0.0
  0
VERTEX
  5
FFD7
  8
0
 62
     7
 10
24.85582074590377
 20
45.239233194667797
 30
0.0
  0
VERTEX
  5
FFD8
  8
0
 62
     7
 10
24.771760416063671
 20
45.239233194667797
 30
0.0
  0
VERTEX
  5
FFD9
  8
0
 62
     7
 10
24.687011067126551
 20
45.155172864827691
 30
0.0
  0
VERTEX
  5
FFDA
  8
0
 62
     7
 10
24.687011067126551
 20
45.070423515890518
 30
0.0
  0
SEQEND
  5
FFDB
  8
0
 62
     7
  0
POLYLINE
  5
F8CC
  8
0
 62
     7
 66
     1
 10
0.0
 20
0.0
 30
0.0
  0
VERTEX
  5
FFDC
  8
0
 62
     7
 10
24.94057009484095
 20
45.40873189254205
 30
0.0
  0
VERTEX
  5
FFDD
  8
0
 62
     7
 10
24.771760416063671
 20
45.40873189254205
 30
0.0
  0
VERTEX
  5
FFDE
  8
0
 62
     7
 10
24.687011067126551
 20
45.32398254360487
 30
0.0
  0
VERTEX
  5
FFDF
  8
0
 62
     7
 10
24.687011067126551
 20
45.239233194667797
 30
0.0
  0
VERTEX
  5
FFE0
  8
0
 62
     7
 10
24.602261718189428
 20
45.155172864827691
 30
0.0
  0
SEQEND
  5
FFE1
  8
0
 62
     7
  0
POLYLINE
  5
F8D3
  8
0
 62
     7
 66
     1
 10
0.0
 20
0.0
 30
0.0
  0
VERTEX
  5
FFE2
  8
0
 62
     7
 10
28.920344399401529
 20
42.614759454004449
 30
0.0
  0
VERTEX
  5
FFE3
  8
0
 62
     7
 10
28.3270989568415
 20
41.599145304952799
 30
0.0
  0
SEQEND
  5
FFE4
  8
0
 62
     7
  0
POLYLINE
  5
F8D7
  8
0
 62
     7
 66
     1
 10
0.0
 20
0.0
 30
0.0
  0
VERTEX
  5
FFE5
  8
0
 62
     7
 10
35.94765017021416
 20
43.546313273216008
 30
0.0
  0
VERTEX
  5
FFE6
  8
0
 62
     7
 10
34.846597653128363
 20
43.122566528530221
 30
0.0
  0
SEQEND
  5
FFE7
  8
0
 62
     7
  0
POLYLINE
  5
F8DB
  8
0
 62
     7
 66
     1
 10
0.0
 20
0.0
 30
0.0
  0
VERTEX
  5
FFE8
  8
0
 62
     7
 10
35.94765017021416
 20
43.631062622153181
 30
0.0
  0
VERTEX
  5
FFE9
  8
0
 62
     7
 10
34.931347002065479
 20
43.292065226404588
 30
0.0
  0
SEQEND
  5
FFEA
  8
0
 62
     7
  0
POLYLINE
  5
F8DF
  8
0
 62
     7
 66
     1
 10
0.0
 20
0.0
 30
0.0
  0
VERTEX
  5
FFEB
  8
0
 62
     7
 10
29.089154078178812
 20
42.869007500815883
 30
0.0
  0
VERTEX
  5
FFEC
  8
0
 62
     7
 10
29.005093748338709
 20
42.784258151878703
 30
0.0
  0
VERTEX
  5
FFED
  8
0
 62
     7
 10
28.920344399401529
 20
42.699508802941622
 30
0.0
  0
VERTEX
  5
FFEE
  8
0
 62
     7
 10
28.920344399401529
 20
42.614759454004449
 30
0.0
  0
SEQEND
  5
FFEF
  8
0
 62
     7
  0
POLYLINE
  5
F8E5
  8
0
 62
     7
 66
     1
 10
0.0
 20
0.0
 30
0.0
  0
VERTEX
  5
FFF0
  8
0
 62
     7
 10
34.50828927647683
 20
42.530010105067277
 30
0.0
  0
VERTEX
  5
FFF1
  8
0
 62
     7
 10
32.89942968486514
 20
43.038506198690122
 30
0.0
  0
VERTEX
  5
FFF2
  8
0
 62
     7
 10
31.037011065539051
 20
43.208004896564482
 30
0.0
  0
VERTEX
  5
FFF3
  8
0
 62
     7
 10
29.089154078178812
 20
42.869007500815883
 30
0.0
  0
SEQEND
  5
FFF4
  8
0
 62
     7
  0
POLYLINE
  5
F8EB
  8
0
 62
     7
 66
     1
 10
0.0
 20
0.0
 30
0.0
  0
VERTEX
  5
FFF5
  8
0
 62
     7
 10
59.908289270126822
 20
50.065811969502747
 30
0.0
  0
VERTEX
  5
FFF6
  8
0
 62
     7
 10
59.908289270126822
 20
49.642065224817102
 30
0.0
  0
SEQEND
  5
FFF7
  8
0
 62
     7
  0
POLYLINE
  5
F8EF
  8
0
 62
     7
 66
     1
 10
0.0
 20
0.0
 30
0.0
  0
VERTEX
  5
FFF8
  8
0
 62
     7
 10
63.9721239045275
 20
55.061200423114997
 30
0.0
  0
VERTEX
  5
FFF9
  8
0
 62
     7
 10
59.738790572252462
 20
57.516175465904091
 30
0.0
  0
SEQEND
  5
FFFA
  8
0
 62
     7
  0
POLYLINE
  5
F8F3
  8
0
 62
     7
 66
     1
 10
0.0
 20
0.0
 30
0.0
  0
VERTEX
  5
FFFB
  8
0
 62
     7
 10
70.491622600814296
 20
70.808731886192049
 30
0.0
  0
VERTEX
  5
FFFC
  8
0
 62
     7
 10
74.724955933089291
 20
68.353756843402948
 30
0.0
  0
SEQEND
  5
FFFD
  8
0
 62
     7
  0
POLYLINE
  5
F8F7
  8
0
 62
     7
 66
     1
 10
0.0
 20
0.0
 30
0.0
  0
VERTEX
  5
FFFE
  8
0
 62
     7
 10
74.809705282026457
 20
68.438506192340242
 30
0.0
  0
VERTEX
  5
FFFF
  8
0
 62
     7
 10
70.576371949751433
 20
70.893481235129116
 30
0.0
  0
SEQEND
  5
10000
  8
0
 62
     7
  0
POLYLINE
  5
F8FB
  8
0
 62
     7
 66
     1
 10
0.0
 20
0.0
 30
0.0
  0
VERTEX
  5
10001
  8
0
 62
     7
 10
69.9831265071914
 20
71.401288309655129
 30
0.0
  0
VERTEX
  5
10002
  8
0
 62
     7
 10
74.216459839466424
 20
68.946313266866028
 30
0.0
  0
SEQEND
  5
10003
  8
0
 62
     7
  0
POLYLINE
  5
F8FF
  8
0
 62
     7
 66
     1
 10
0.0
 20
0.0
 30
0.0
  0
VERTEX
  5
10004
  8
0
 62
     7
 10
36.201209197928563
 20
41.853393351764211
 30
0.0
  0
VERTEX
  5
10005
  8
0
 62
     7
 10
34.50828927647683
 20
42.530010105067277
 30
0.0
  0
SEQEND
  5
10006
  8
0
 62
     7
  0
POLYLINE
  5
F903
  8
0
 62
     7
 66
     1
 10
0.0
 20
0.0
 30
0.0
  0
VERTEX
  5
10007
  8
0
 62
     7
 10
70.576371949751433
 20
70.893481235129116
 30
0.0
  0
VERTEX
  5
10008
  8
0
 62
     7
 10
70.491622600814296
 20
70.808731886192049
 30
0.0
  0
VERTEX
  5
10009
  8
0
 62
     7
 10
69.9831265071914
 20
71.23247863087785
 30
0.0
  0
SEQEND
  5
1000A
  8
0
 62
     7
  0
POLYLINE
  5
F908
  8
0
 62
     7
 66
     1
 10
0.0
 20
0.0
 30
0.0
  0
VERTEX
  5
1000B
  8
0
 62
     7
 10
70.576371949751433
 20
70.893481235129116
 30
0.0
  0
VERTEX
  5
1000C
  8
0
 62
     7
 10
69.9831265071914
 20
71.401288309655129
 30
0.0
  0
VERTEX
  5
1000D
  8
0
 62
     7
 10
69.81431682841415
 20
71.401288309655129
 30
0.0
  0
VERTEX
  5
1000E
  8
0
 62
     7
 10
69.729567479477069
 20
71.317227979814916
 30
0.0
  0
SEQEND
  5
1000F
  8
0
 62
     7
  0
POLYLINE
  5
F90E
  8
0
 62
     7
 66
     1
 10
0.0
 20
0.0
 30
0.0
  0
VERTEX
  5
10010
  8
0
 62
     7
 10
69.9831265071914
 20
71.23247863087785
 30
0.0
  0
VERTEX
  5
10011
  8
0
 62
     7
 10
69.729567479477069
 20
71.23247863087785
 30
0.0
  0
SEQEND
  5
10012
  8
0
 62
     7
  0
POLYLINE
  5
F912
  8
0
 62
     7
 66
     1
 10
0.0
 20
0.0
 30
0.0
  0
VERTEX
  5
10013
  8
0
 62
     7
 10
69.729567479477069
 20
71.317227979814916
 30
0.0
  0
VERTEX
  5
10014
  8
0
 62
     7
 10
67.443402115465233
 20
69.03106261580308
 30
0.0
  0
VERTEX
  5
10015
  8
0
 62
     7
 10
65.326735449327714
 20
66.40589985604278
 30
0.0
  0
SEQEND
  5
10016
  8
0
 62
     7
  0
POLYLINE
  5
F917
  8
0
 62
     7
 66
     1
 10
0.0
 20
0.0
 30
0.0
  0
VERTEX
  5
10017
  8
0
 62
     7
 10
69.729567479477069
 20
71.23247863087785
 30
0.0
  0
VERTEX
  5
10018
  8
0
 62
     7
 10
67.782399511213839
 20
69.20056131367744
 30
0.0
  0
VERTEX
  5
10019
  8
0
 62
     7
 10
65.919291872790723
 20
66.999145298602684
 30
0.0
  0
VERTEX
  5
1001A
  8
0
 62
     7
 10
64.310432281179033
 20
64.54348123671673
 30
0.0
  0
SEQEND
  5
1001B
  8
0
 62
     7
  0
POLYLINE
  5
F91D
  8
0
 62
     7
 66
     1
 10
0.0
 20
0.0
 30
0.0
  0
VERTEX
  5
1001C
  8
0
 62
     7
 10
59.654041223315339
 20
57.600924814841278
 30
0.0
  0
VERTEX
  5
1001D
  8
0
 62
     7
 10
65.326735449327714
 20
66.406588875139846
 30
0.0
  0
SEQEND
  5
1001E
  8
0
 62
     7
  0
POLYLINE
  5
F921
  8
0
 62
     7
 66
     1
 10
0.0
 20
0.0
 30
0.0
  0
VERTEX
  5
1001F
  8
0
 62
     7
 10
64.310432281179033
 20
64.54348123671673
 30
0.0
  0
VERTEX
  5
10020
  8
0
 62
     7
 10
59.738790572252462
 20
57.516175465904091
 30
0.0
  0
VERTEX
  5
10021
  8
0
 62
     7
 10
58.722487404103838
 20
56.669370995629713
 30
0.0
  0
VERTEX
  5
10022
  8
0
 62
     7
 10
57.70687325505218
 20
55.569007497640889
 30
0.0
  0
VERTEX
  5
10023
  8
0
 62
     7
 10
56.775319435840643
 20
54.383894650714979
 30
0.0
  0
VERTEX
  5
10024
  8
0
 62
     7
 10
55.92851496556618
 20
53.113343435754807
 30
0.0
  0
VERTEX
  5
10025
  8
0
 62
     7
 10
55.251209193166062
 20
51.673982542017363
 30
0.0
  0
SEQEND
  5
10026
  8
0
 62
     7
  0
POLYLINE
  5
F92A
  8
0
 62
     7
 66
     1
 10
0.0
 20
0.0
 30
0.0
  0
VERTEX
  5
10027
  8
0
 62
     7
 10
59.654041223315339
 20
57.600924814841278
 30
0.0
  0
VERTEX
  5
10028
  8
0
 62
     7
 10
58.638427074263753
 20
56.669370995629713
 30
0.0
  0
VERTEX
  5
10029
  8
0
 62
     7
 10
57.622123906115007
 20
55.653756846578062
 30
0.0
  0
VERTEX
  5
1002A
  8
0
 62
     7
 10
56.690570086903442
 20
54.383894650714979
 30
0.0
  0
VERTEX
  5
1002B
  8
0
 62
     7
 10
55.843765616629071
 20
53.113343435754807
 30
0.0
  0
VERTEX
  5
1002C
  8
0
 62
     7
 10
55.166459844228932
 20
51.75873189095455
 30
0.0
  0
SEQEND
  5
1002D
  8
0
 62
     7
  0
POLYLINE
  5
F932
  8
0
 62
     7
 66
     1
 10
0.0
 20
0.0
 30
0.0
  0
VERTEX
  5
1002E
  8
0
 62
     7
 10
74.724955933089291
 20
68.353756843402948
 30
0.0
  0
VERTEX
  5
1002F
  8
0
 62
     7
 10
74.809705282026457
 20
68.438506192340242
 30
0.0
  0
VERTEX
  5
10030
  8
0
 62
     7
 10
74.216459839466424
 20
68.946313266866028
 30
0.0
  0
SEQEND
  5
10031
  8
0
 62
     7
  0
POLYLINE
  5
F937
  8
0
 62
     7
 66
     1
 10
0.0
 20
0.0
 30
0.0
  0
VERTEX
  5
10032
  8
0
 62
     7
 10
73.962900811752036
 20
68.776814568991654
 30
0.0
  0
VERTEX
  5
10033
  8
0
 62
     7
 10
74.047650160689173
 20
68.776814568991654
 30
0.0
  0
SEQEND
  5
10034
  8
0
 62
     7
  0
POLYLINE
  5
F93B
  8
0
 62
     7
 66
     1
 10
0.0
 20
0.0
 30
0.0
  0
VERTEX
  5
10035
  8
0
 62
     7
 10
73.878151462814884
 20
68.861563917928933
 30
0.0
  0
VERTEX
  5
10036
  8
0
 62
     7
 10
71.676735447740199
 20
66.575398553917125
 30
0.0
  0
VERTEX
  5
10037
  8
0
 62
     7
 10
69.560068781602752
 20
63.950924813253771
 30
0.0
  0
SEQEND
  5
10038
  8
0
 62
     7
  0
POLYLINE
  5
F940
  8
0
 62
     7
 66
     1
 10
0.0
 20
0.0
 30
0.0
  0
VERTEX
  5
10039
  8
0
 62
     7
 10
73.962900811752036
 20
68.776814568991654
 30
0.0
  0
VERTEX
  5
1003A
  8
0
 62
     7
 10
72.015732843488806
 20
66.829646600728552
 30
0.0
  0
VERTEX
  5
1003B
  8
0
 62
     7
 10
70.152625205065704
 20
64.54348123671673
 30
0.0
  0
VERTEX
  5
1003C
  8
0
 62
     7
 10
68.543765613454013
 20
62.088506193927621
 30
0.0
  0
VERTEX
  5
1003D
  8
0
 62
     7
 10
63.9721239045275
 20
55.061200423114997
 30
0.0
  0
VERTEX
  5
1003E
  8
0
 62
     7
 10
62.955820736378818
 20
54.299145301777799
 30
0.0
  0
VERTEX
  5
1003F
  8
0
 62
     7
 10
62.024955936264277
 20
53.28284213362906
 30
0.0
  0
VERTEX
  5
10040
  8
0
 62
     7
 10
61.178151465989899
 20
52.182478635640337
 30
0.0
  0
VERTEX
  5
10041
  8
0
 62
     7
 10
60.416096344652608
 20
50.996676769617252
 30
0.0
  0
VERTEX
  5
10042
  8
0
 62
     7
 10
59.738790572252462
 20
49.726814573754147
 30
0.0
  0
SEQEND
  5
10043
  8
0
 62
     7
  0
POLYLINE
  5
F94C
  8
0
 62
     7
 66
     1
 10
0.0
 20
0.0
 30
0.0
  0
VERTEX
  5
10044
  8
0
 62
     7
 10
41.450845698352282
 20
59.209784406452847
 30
0.0
  0
VERTEX
  5
10045
  8
0
 62
     7
 10
41.450845698352282
 20
60.141338225664398
 30
0.0
  0
SEQEND
  5
10046
  8
0
 62
     7
  0
POLYLINE
  5
F950
  8
0
 62
     7
 66
     1
 10
0.0
 20
0.0
 30
0.0
  0
VERTEX
  5
10047
  8
0
 62
     7
 10
42.21290081968953
 20
60.564395951253111
 30
0.0
  0
VERTEX
  5
10048
  8
0
 62
     7
 10
42.21290081968953
 20
59.71759148097874
 30
0.0
  0
SEQEND
  5
10049
  8
0
 62
     7
  0
POLYLINE
  5
F954
  8
0
 62
     7
 66
     1
 10
0.0
 20
0.0
 30
0.0
  0
VERTEX
  5
1004A
  8
0
 62
     7
 10
43.059705289963972
 20
61.072203025778997
 30
0.0
  0
VERTEX
  5
1004B
  8
0
 62
     7
 10
43.059705289963972
 20
60.141338225664398
 30
0.0
  0
SEQEND
  5
1004C
  8
0
 62
     7
  0
POLYLINE
  5
F958
  8
0
 62
     7
 66
     1
 10
0.0
 20
0.0
 30
0.0
  0
VERTEX
  5
1004D
  8
0
 62
     7
 10
43.821760411301177
 20
61.495949770464676
 30
0.0
  0
VERTEX
  5
1004E
  8
0
 62
     7
 10
43.821760411301177
 20
60.564395951253111
 30
0.0
  0
SEQEND
  5
1004F
  8
0
 62
     7
  0
POLYLINE
  5
F95C
  8
0
 62
     7
 66
     1
 10
0.0
 20
0.0
 30
0.0
  0
VERTEX
  5
10050
  8
0
 62
     7
 10
44.583126513541401
 20
61.072203025778997
 30
0.0
  0
VERTEX
  5
10051
  8
0
 62
     7
 10
44.583126513541401
 20
61.919007496053382
 30
0.0
  0
SEQEND
  5
10052
  8
0
 62
     7
  0
POLYLINE
  5
F960
  8
0
 62
     7
 66
     1
 10
0.0
 20
0.0
 30
0.0
  0
VERTEX
  5
10053
  8
0
 62
     7
 10
45.345181634878713
 20
62.426814570579161
 30
0.0
  0
VERTEX
  5
10054
  8
0
 62
     7
 10
45.345181634878713
 20
61.495949770464676
 30
0.0
  0
SEQEND
  5
10055
  8
0
 62
     7
  0
POLYLINE
  5
F964
  8
0
 62
     7
 66
     1
 10
0.0
 20
0.0
 30
0.0
  0
VERTEX
  5
10056
  8
0
 62
     7
 10
46.107236756215897
 20
62.85056131526494
 30
0.0
  0
VERTEX
  5
10057
  8
0
 62
     7
 10
46.107236756215897
 20
61.919007496053382
 30
0.0
  0
SEQEND
  5
10058
  8
0
 62
     7
  0
POLYLINE
  5
F968
  8
0
 62
     7
 66
     1
 10
0.0
 20
0.0
 30
0.0
  0
VERTEX
  5
10059
  8
0
 62
     7
 10
46.869291877553209
 20
63.273619040853639
 30
0.0
  0
VERTEX
  5
1005A
  8
0
 62
     7
 10
46.869291877553209
 20
62.426814570579161
 30
0.0
  0
SEQEND
  5
1005B
  8
0
 62
     7
  0
POLYLINE
  5
F96C
  8
0
 62
     7
 66
     1
 10
0.0
 20
0.0
 30
0.0
  0
VERTEX
  5
1005C
  8
0
 62
     7
 10
43.99057009007845
 20
67.337453675254309
 30
0.0
  0
VERTEX
  5
1005D
  8
0
 62
     7
 10
50.594818135302361
 20
71.147729281940542
 30
0.0
  0
SEQEND
  5
1005E
  8
0
 62
     7
  0
POLYLINE
  5
F974
  8
0
 62
     7
 66
     1
 10
0.0
 20
0.0
 30
0.0
  0
VERTEX
  5
1005F
  8
0
 62
     7
 10
52.796234150377011
 20
72.587090175678085
 30
0.0
  0
VERTEX
  5
10060
  8
0
 62
     7
 10
52.796234150377011
 20
64.797729283528156
 30
0.0
  0
SEQEND
  5
10061
  8
0
 62
     7
  0
POLYLINE
  5
F978
  8
0
 62
     7
 66
     1
 10
0.0
 20
0.0
 30
0.0
  0
VERTEX
  5
10062
  8
0
 62
     7
 10
47.123539924364643
 20
63.443117738727892
 30
0.0
  0
VERTEX
  5
10063
  8
0
 62
     7
 10
40.688790577014963
 20
59.71759148097874
 30
0.0
  0
VERTEX
  5
10064
  8
0
 62
     7
 10
41.620344396226528
 20
60.225398555504512
 30
0.0
  0
SEQEND
  5
10065
  8
0
 62
     7
  0
POLYLINE
  5
F97D
  8
0
 62
     7
 66
     1
 10
0.0
 20
0.0
 30
0.0
  0
VERTEX
  5
10066
  8
0
 62
     7
 10
47.123539924364643
 20
62.51156391951632
 30
0.0
  0
VERTEX
  5
10067
  8
0
 62
     7
 10
47.123539924364643
 20
63.443117738727892
 30
0.0
  0
SEQEND
  5
10068
  8
0
 62
     7
  0
POLYLINE
  5
F981
  8
0
 62
     7
 66
     1
 10
0.0
 20
0.0
 30
0.0
  0
VERTEX
  5
10069
  8
0
 62
     7
 10
40.688790577014963
 20
58.786726680864263
 30
0.0
  0
VERTEX
  5
1006A
  8
0
 62
     7
 10
40.688790577014963
 20
59.71759148097874
 30
0.0
  0
SEQEND
  5
1006B
  8
0
 62
     7
  0
POLYLINE
  5
F985
  8
0
 62
     7
 66
     1
 10
0.0
 20
0.0
 30
0.0
  0
VERTEX
  5
1006C
  8
0
 62
     7
 10
48.22390342235348
 20
63.950924813253771
 30
0.0
  0
VERTEX
  5
1006D
  8
0
 62
     7
 10
48.055093743576222
 20
63.950924813253771
 30
0.0
  0
VERTEX
  5
1006E
  8
0
 62
     7
 10
47.123539924364643
 20
63.443117738727892
 30
0.0
  0
SEQEND
  5
1006F
  8
0
 62
     7
  0
POLYLINE
  5
F98A
  8
0
 62
     7
 66
     1
 10
0.0
 20
0.0
 30
0.0
  0
VERTEX
  5
10070
  8
0
 62
     7
 10
41.705093745163687
 20
60.394897253378872
 30
0.0
  0
VERTEX
  5
10071
  8
0
 62
     7
 10
48.22390342235348
 20
64.120423511128024
 30
0.0
  0
VERTEX
  5
10072
  8
0
 62
     7
 10
48.22390342235348
 20
62.76581196632776
 30
0.0
  0
SEQEND
  5
10073
  8
0
 62
     7
  0
POLYLINE
  5
F98F
  8
0
 62
     7
 66
     1
 10
0.0
 20
0.0
 30
0.0
  0
VERTEX
  5
10074
  8
0
 62
     7
 10
50.510068786365252
 20
65.729283102739714
 30
0.0
  0
VERTEX
  5
10075
  8
0
 62
     7
 10
50.510068786365252
 20
63.019370994042212
 30
0.0
  0
SEQEND
  5
10076
  8
0
 62
     7
  0
POLYLINE
  5
F993
  8
0
 62
     7
 66
     1
 10
0.0
 20
0.0
 30
0.0
  0
VERTEX
  5
10077
  8
0
 62
     7
 10
39.757236757803398
 20
59.71759148097874
 30
0.0
  0
VERTEX
  5
10078
  8
0
 62
     7
 10
39.757236757803398
 20
58.278230587241289
 30
0.0
  0
SEQEND
  5
10079
  8
0
 62
     7
  0
POLYLINE
  5
F997
  8
0
 62
     7
 66
     1
 10
0.0
 20
0.0
 30
0.0
  0
VERTEX
  5
1007A
  8
0
 62
     7
 10
42.043402121815227
 20
66.490649204979832
 30
0.0
  0
VERTEX
  5
1007B
  8
0
 62
     7
 10
42.043402121815227
 20
61.15695237471607
 30
0.0
  0
SEQEND
  5
1007C
  8
0
 62
     7
  0
POLYLINE
  5
F99B
  8
0
 62
     7
 66
     1
 10
0.0
 20
0.0
 30
0.0
  0
VERTEX
  5
1007D
  8
0
 62
     7
 10
41.705093745163687
 20
60.310147904441692
 30
0.0
  0
VERTEX
  5
1007E
  8
0
 62
     7
 10
41.705093745163687
 20
60.394897253378872
 30
0.0
  0
SEQEND
  5
1007F
  8
0
 62
     7
  0
POLYLINE
  5
F99F
  8
0
 62
     7
 66
     1
 10
0.0
 20
0.0
 30
0.0
  0
VERTEX
  5
10080
  8
0
 62
     7
 10
39.926735455677772
 20
59.971839527790181
 30
0.0
  0
VERTEX
  5
10081
  8
0
 62
     7
 10
39.841986106740592
 20
59.971839527790181
 30
0.0
  0
VERTEX
  5
10082
  8
0
 62
     7
 10
39.757236757803398
 20
59.887090178852979
 30
0.0
  0
VERTEX
  5
10083
  8
0
 62
     7
 10
39.757236757803398
 20
59.71759148097874
 30
0.0
  0
SEQEND
  5
10084
  8
0
 62
     7
  0
POLYLINE
  5
F9A5
  8
0
 62
     7
 66
     1
 10
0.0
 20
0.0
 30
0.0
  0
VERTEX
  5
10085
  8
0
 62
     7
 10
52.796234150377011
 20
64.797729283528156
 30
0.0
  0
VERTEX
  5
10086
  8
0
 62
     7
 10
50.933126511953901
 20
65.8133434325797
 30
0.0
  0
VERTEX
  5
10087
  8
0
 62
     7
 10
50.849066182113802
 20
65.898092781516993
 30
0.0
  0
VERTEX
  5
10088
  8
0
 62
     7
 10
50.594818135302361
 20
65.898092781516993
 30
0.0
  0
VERTEX
  5
10089
  8
0
 62
     7
 10
50.510068786365252
 20
65.98284213045406
 30
0.0
  0
VERTEX
  5
1008A
  8
0
 62
     7
 10
50.425319437428129
 20
65.98284213045406
 30
0.0
  0
VERTEX
  5
1008B
  8
0
 62
     7
 10
50.340570088490963
 20
65.898092781516993
 30
0.0
  0
VERTEX
  5
1008C
  8
0
 62
     7
 10
50.17176040971367
 20
65.898092781516993
 30
0.0
  0
VERTEX
  5
1008D
  8
0
 62
     7
 10
50.087011060776547
 20
65.8133434325797
 30
0.0
  0
VERTEX
  5
1008E
  8
0
 62
     7
 10
39.926735455677772
 20
59.971839527790181
 30
0.0
  0
SEQEND
  5
1008F
  8
0
 62
     7
  0
POLYLINE
  5
F9B1
  8
0
 62
     7
 66
     1
 10
0.0
 20
0.0
 30
0.0
  0
VERTEX
  5
10090
  8
0
 62
     7
 10
58.299429678515139
 20
58.532478634052822
 30
0.0
  0
VERTEX
  5
10091
  8
0
 62
     7
 10
58.299429678515139
 20
69.623619039266146
 30
0.0
  0
VERTEX
  5
10092
  8
0
 62
     7
 10
59.823539921189649
 20
65.390285706991108
 30
0.0
  0
SEQEND
  5
10093
  8
0
 62
     7
  0
POLYLINE
  5
F9B6
  8
0
 62
     7
 66
     1
 10
0.0
 20
0.0
 30
0.0
  0
VERTEX
  5
10094
  8
0
 62
     7
 10
59.908289270126822
 20
57.939922210589771
 30
0.0
  0
VERTEX
  5
10095
  8
0
 62
     7
 10
59.908289270126822
 20
64.712979934590976
 30
0.0
  0
VERTEX
  5
10096
  8
0
 62
     7
 10
59.823539921189649
 20
65.390285706991108
 30
0.0
  0
SEQEND
  5
10097
  8
0
 62
     7
  0
POLYLINE
  5
F9BB
  8
0
 62
     7
 66
     1
 10
0.0
 20
0.0
 30
0.0
  0
VERTEX
  5
10098
  8
0
 62
     7
 10
39.079930985403337
 20
57.85517286165269
 30
0.0
  0
VERTEX
  5
10099
  8
0
 62
     7
 10
39.334179032214777
 20
56.246313270041007
 30
0.0
  0
VERTEX
  5
1009A
  8
0
 62
     7
 10
39.757236757803398
 20
55.569007497640889
 30
0.0
  0
VERTEX
  5
1009B
  8
0
 62
     7
 10
40.180983502489177
 20
55.399508799766643
 30
0.0
  0
VERTEX
  5
1009C
  8
0
 62
     7
 10
40.60404122807784
 20
55.484258148703702
 30
0.0
  0
VERTEX
  5
1009D
  8
0
 62
     7
 10
41.95865277287804
 20
56.331062618978173
 30
0.0
  0
VERTEX
  5
1009E
  8
0
 62
     7
 10
43.22851496874118
 20
57.516175465904091
 30
0.0
  0
VERTEX
  5
1009F
  8
0
 62
     7
 10
45.429930983815822
 20
59.971839527790181
 30
0.0
  0
VERTEX
  5
100A0
  8
0
 62
     7
 10
47.377098952079038
 20
62.681062617390687
 30
0.0
  0
SEQEND
  5
100A1
  8
0
 62
     7
  0
POLYLINE
  5
F9C6
  8
0
 62
     7
 66
     1
 10
0.0
 20
0.0
 30
0.0
  0
VERTEX
  5
100A2
  8
0
 62
     7
 10
39.079930985403337
 20
57.85517286165269
 30
0.0
  0
VERTEX
  5
100A3
  8
0
 62
     7
 10
38.910432287529041
 20
56.838869693503959
 30
0.0
  0
SEQEND
  5
100A4
  8
0
 62
     7
  0
POLYLINE
  5
F9CA
  8
0
 62
     7
 66
     1
 10
0.0
 20
0.0
 30
0.0
  0
VERTEX
  5
100A5
  8
0
 62
     7
 10
47.716096347827609
 20
62.76581196632776
 30
0.0
  0
VERTEX
  5
100A6
  8
0
 62
     7
 10
47.546597649953348
 20
62.76581196632776
 30
0.0
  0
VERTEX
  5
100A7
  8
0
 62
     7
 10
47.461848301016182
 20
62.681062617390687
 30
0.0
  0
VERTEX
  5
100A8
  8
0
 62
     7
 10
47.377098952079038
 20
62.681062617390687
 30
0.0
  0
VERTEX
  5
100A9
  8
0
 62
     7
 10
39.079930985403337
 20
57.85517286165269
 30
0.0
  0
SEQEND
  5
100AA
  8
0
 62
     7
  0
POLYLINE
  5
F9D1
  8
0
 62
     7
 66
     1
 10
0.0
 20
0.0
 30
0.0
  0
VERTEX
  5
100AB
  8
0
 62
     7
 10
38.910432287529041
 20
56.838869693503959
 30
0.0
  0
VERTEX
  5
100AC
  8
0
 62
     7
 10
38.910432287529041
 20
49.642065224817102
 30
0.0
  0
SEQEND
  5
100AD
  8
0
 62
     7
  0
POLYLINE
  5
F9D5
  8
0
 62
     7
 66
     1
 10
0.0
 20
0.0
 30
0.0
  0
VERTEX
  5
100AE
  8
0
 62
     7
 10
50.933126511953901
 20
62.51156391951632
 30
0.0
  0
VERTEX
  5
100AF
  8
0
 62
     7
 10
50.933126511953901
 20
52.436037663354682
 30
0.0
  0
SEQEND
  5
100B0
  8
0
 62
     7
  0
POLYLINE
  5
F9D9
  8
0
 62
     7
 66
     1
 10
0.0
 20
0.0
 30
0.0
  0
VERTEX
  5
100B1
  8
0
 62
     7
 10
58.299429678515139
 20
58.532478634052822
 30
0.0
  0
VERTEX
  5
100B2
  8
0
 62
     7
 10
51.187374558765327
 20
62.596313268453507
 30
0.0
  0
VERTEX
  5
100B3
  8
0
 62
     7
 10
51.017875860891067
 20
62.681062617390687
 30
0.0
  0
VERTEX
  5
100B4
  8
0
 62
     7
 10
50.849066182113802
 20
62.76581196632776
 30
0.0
  0
VERTEX
  5
100B5
  8
0
 62
     7
 10
50.679567484239563
 20
62.76581196632776
 30
0.0
  0
VERTEX
  5
100B6
  8
0
 62
     7
 10
50.425319437428129
 20
62.85056131526494
 30
0.0
  0
VERTEX
  5
100B7
  8
0
 62
     7
 10
49.070707892627851
 20
62.85056131526494
 30
0.0
  0
VERTEX
  5
100B8
  8
0
 62
     7
 10
47.716096347827609
 20
62.76581196632776
 30
0.0
  0
SEQEND
  5
100B9
  8
0
 62
     7
  0
POLYLINE
  5
F9E3
  8
0
 62
     7
 66
     1
 10
0.0
 20
0.0
 30
0.0
  0
VERTEX
  5
100BA
  8
0
 62
     7
 10
46.784542528616029
 20
45.662979939353463
 30
0.0
  0
VERTEX
  5
100BB
  8
0
 62
     7
 10
46.784542528616029
 20
45.747729288290643
 30
0.0
  0
VERTEX
  5
100BC
  8
0
 62
     7
 10
46.69979317967892
 20
45.917227986164903
 30
0.0
  0
VERTEX
  5
100BD
  8
0
 62
     7
 10
46.530983500901698
 20
46.001288316005002
 30
0.0
  0
VERTEX
  5
100BE
  8
0
 62
     7
 10
46.446234151964511
 20
46.170787013879348
 30
0.0
  0
VERTEX
  5
100BF
  8
0
 62
     7
 10
46.276735454090257
 20
46.255536362816422
 30
0.0
  0
VERTEX
  5
100C0
  8
0
 62
     7
 10
46.022487407278838
 20
46.255536362816422
 30
0.0
  0
VERTEX
  5
100C1
  8
0
 62
     7
 10
45.768928379564379
 20
46.340285711753609
 30
0.0
  0
VERTEX
  5
100C2
  8
0
 62
     7
 10
45.091622607164247
 20
46.340285711753609
 30
0.0
  0
VERTEX
  5
100C3
  8
0
 62
     7
 10
44.837374560352814
 20
46.255536362816422
 30
0.0
  0
VERTEX
  5
100C4
  8
0
 62
     7
 10
44.667875862478581
 20
46.170787013879348
 30
0.0
  0
VERTEX
  5
100C5
  8
0
 62
     7
 10
44.499066183701288
 20
46.086037664942168
 30
0.0
  0
VERTEX
  5
100C6
  8
0
 62
     7
 10
44.329567485827049
 20
46.001288316005002
 30
0.0
  0
VERTEX
  5
100C7
  8
0
 62
     7
 10
44.244818136889869
 20
45.832478637227837
 30
0.0
  0
VERTEX
  5
100C8
  8
0
 62
     7
 10
44.244818136889869
 20
45.40873189254205
 30
0.0
  0
VERTEX
  5
100C9
  8
0
 62
     7
 10
44.329567485827049
 20
45.32398254360487
 30
0.0
  0
VERTEX
  5
100CA
  8
0
 62
     7
 10
44.499066183701288
 20
45.155172864827691
 30
0.0
  0
VERTEX
  5
100CB
  8
0
 62
     7
 10
44.667875862478581
 20
45.070423515890518
 30
0.0
  0
VERTEX
  5
100CC
  8
0
 62
     7
 10
44.837374560352814
 20
44.985674166953331
 30
0.0
  0
VERTEX
  5
100CD
  8
0
 62
     7
 10
45.091622607164247
 20
44.900924818016271
 30
0.0
  0
VERTEX
  5
100CE
  8
0
 62
     7
 10
45.768928379564379
 20
44.900924818016271
 30
0.0
  0
VERTEX
  5
100CF
  8
0
 62
     7
 10
46.022487407278838
 20
44.985674166953331
 30
0.0
  0
VERTEX
  5
100D0
  8
0
 62
     7
 10
46.276735454090257
 20
44.985674166953331
 30
0.0
  0
VERTEX
  5
100D1
  8
0
 62
     7
 10
46.446234151964511
 20
45.155172864827691
 30
0.0
  0
VERTEX
  5
100D2
  8
0
 62
     7
 10
46.530983500901698
 20
45.239233194667797
 30
0.0
  0
VERTEX
  5
100D3
  8
0
 62
     7
 10
46.69979317967892
 20
45.32398254360487
 30
0.0
  0
VERTEX
  5
100D4
  8
0
 62
     7
 10
46.784542528616029
 20
45.493481241479223
 30
0.0
  0
VERTEX
  5
100D5
  8
0
 62
     7
 10
46.784542528616029
 20
45.662979939353463
 30
0.0
  0
SEQEND
  5
100D6
  8
0
 62
     7
  0
POLYLINE
  5
FA01
  8
0
 62
     7
 66
     1
 10
0.0
 20
0.0
 30
0.0
  0
VERTEX
  5
100D7
  8
0
 62
     7
 10
62.871760406538712
 20
44.731426120141919
 30
0.0
  0
VERTEX
  5
100D8
  8
0
 62
     7
 10
62.702261708664409
 20
46.170787013879348
 30
0.0
  0
VERTEX
  5
100D9
  8
0
 62
     7
 10
61.940206587327111
 20
47.525398558679498
 30
0.0
  0
VERTEX
  5
100DA
  8
0
 62
     7
 10
60.8391540702413
 20
48.795949773639677
 30
0.0
  0
VERTEX
  5
100DB
  8
0
 62
     7
 10
59.399793176503927
 20
49.981062620565702
 30
0.0
  0
VERTEX
  5
100DC
  8
0
 62
     7
 10
57.53737455717782
 20
50.912616439777139
 30
0.0
  0
VERTEX
  5
100DD
  8
0
 62
     7
 10
55.420707891040372
 20
51.674671561114451
 30
0.0
  0
VERTEX
  5
100DE
  8
0
 62
     7
 10
53.134542527028543
 20
52.182478635640337
 30
0.0
  0
VERTEX
  5
100DF
  8
0
 62
     7
 10
50.679567484239563
 20
52.436037663354682
 30
0.0
  0
VERTEX
  5
100E0
  8
0
 62
     7
 10
48.139154073416307
 20
52.436037663354682
 30
0.0
  0
VERTEX
  5
100E1
  8
0
 62
     7
 10
45.768928379564379
 20
52.182478635640337
 30
0.0
  0
VERTEX
  5
100E2
  8
0
 62
     7
 10
43.398013666615491
 20
51.674671561114451
 30
0.0
  0
VERTEX
  5
100E3
  8
0
 62
     7
 10
41.281347000477957
 20
50.912616439777139
 30
0.0
  0
VERTEX
  5
100E4
  8
0
 62
     7
 10
39.418928381151893
 20
49.981062620565702
 30
0.0
  0
VERTEX
  5
100E5
  8
0
 62
     7
 10
37.979567487414563
 20
48.795949773639677
 30
0.0
  0
VERTEX
  5
100E6
  8
0
 62
     7
 10
36.878514970328702
 20
47.525398558679498
 30
0.0
  0
VERTEX
  5
100E7
  8
0
 62
     7
 10
36.201209197928563
 20
46.170787013879348
 30
0.0
  0
VERTEX
  5
100E8
  8
0
 62
     7
 10
35.94765017021416
 20
44.731426120141919
 30
0.0
  0
SEQEND
  5
100E9
  8
0
 62
     7
  0
POLYLINE
  5
FA1D
  8
0
 62
     7
 66
     1
 10
0.0
 20
0.0
 30
0.0
  0
VERTEX
  5
100EA
  8
0
 62
     7
 10
42.21290081968953
 20
66.744897251791244
 30
0.0
  0
VERTEX
  5
100EB
  8
0
 62
     7
 10
42.1281514707524
 20
66.660147902854192
 30
0.0
  0
VERTEX
  5
100EC
  8
0
 62
     7
 10
42.043402121815227
 20
66.660147902854192
 30
0.0
  0
VERTEX
  5
100ED
  8
0
 62
     7
 10
42.043402121815227
 20
66.490649204979832
 30
0.0
  0
SEQEND
  5
100EE
  8
0
 62
     7
  0
POLYLINE
  5
FA23
  8
0
 62
     7
 66
     1
 10
0.0
 20
0.0
 30
0.0
  0
VERTEX
  5
100EF
  8
0
 62
     7
 10
42.21290081968953
 20
66.744897251791244
 30
0.0
  0
VERTEX
  5
100F0
  8
0
 62
     7
 10
42.720707894215359
 20
66.999145298602684
 30
0.0
  0
VERTEX
  5
100F1
  8
0
 62
     7
 10
43.99057009007845
 20
67.76120041994011
 30
0.0
  0
SEQEND
  5
100F2
  8
0
 62
     7
  0
POLYLINE
  5
FA28
  8
0
 62
     7
 66
     1
 10
0.0
 20
0.0
 30
0.0
  0
VERTEX
  5
100F3
  8
0
 62
     7
 10
50.594818135302361
 20
71.486726677689262
 30
0.0
  0
VERTEX
  5
100F4
  8
0
 62
     7
 10
51.77993098222835
 20
72.248092779929365
 30
0.0
  0
VERTEX
  5
100F5
  8
0
 62
     7
 10
52.372487405691352
 20
72.587090175678085
 30
0.0
  0
SEQEND
  5
100F6
  8
0
 62
     7
  0
POLYLINE
  5
FA2D
  8
0
 62
     7
 66
     1
 10
0.0
 20
0.0
 30
0.0
  0
VERTEX
  5
100F7
  8
0
 62
     7
 10
53.219291875965709
 20
72.587090175678085
 30
0.0
  0
VERTEX
  5
100F8
  8
0
 62
     7
 10
53.134542527028543
 20
72.587090175678085
 30
0.0
  0
VERTEX
  5
100F9
  8
0
 62
     7
 10
53.04979317809142
 20
72.67183952461518
 30
0.0
  0
VERTEX
  5
100FA
  8
0
 62
     7
 10
52.541986103565598
 20
72.67183952461518
 30
0.0
  0
VERTEX
  5
100FB
  8
0
 62
     7
 10
52.457236754628411
 20
72.587090175678085
 30
0.0
  0
VERTEX
  5
100FC
  8
0
 62
     7
 10
52.372487405691352
 20
72.587090175678085
 30
0.0
  0
SEQEND
  5
100FD
  8
0
 62
     7
  0
POLYLINE
  5
FA35
  8
0
 62
     7
 66
     1
 10
0.0
 20
0.0
 30
0.0
  0
VERTEX
  5
100FE
  8
0
 62
     7
 10
53.219291875965709
 20
72.587090175678085
 30
0.0
  0
VERTEX
  5
100FF
  8
0
 62
     7
 10
58.299429678515139
 20
69.623619039266146
 30
0.0
  0
SEQEND
  5
10100
  8
0
 62
     7
  0
POLYLINE
  5
FA39
  8
0
 62
     7
 66
     1
 10
0.0
 20
0.0
 30
0.0
  0
VERTEX
  5
10101
  8
0
 62
     7
 10
35.94765017021416
 20
43.376814575341662
 30
0.0
  0
VERTEX
  5
10102
  8
0
 62
     7
 10
36.201209197928563
 20
41.93745368160431
 30
0.0
  0
VERTEX
  5
10103
  8
0
 62
     7
 10
36.878514970328702
 20
40.582842136804061
 30
0.0
  0
VERTEX
  5
10104
  8
0
 62
     7
 10
37.979567487414563
 20
39.228230592003797
 30
0.0
  0
VERTEX
  5
10105
  8
0
 62
     7
 10
39.418928381151893
 20
38.127867094015073
 30
0.0
  0
VERTEX
  5
10106
  8
0
 62
     7
 10
41.281347000477957
 20
37.111563925866342
 30
0.0
  0
VERTEX
  5
10107
  8
0
 62
     7
 10
43.398013666615491
 20
36.43425815346621
 30
0.0
  0
VERTEX
  5
10108
  8
0
 62
     7
 10
45.768928379564379
 20
35.841701730003251
 30
0.0
  0
VERTEX
  5
10109
  8
0
 62
     7
 10
48.139154073416307
 20
35.587453683191832
 30
0.0
  0
VERTEX
  5
1010A
  8
0
 62
     7
 10
50.679567484239563
 20
35.587453683191832
 30
0.0
  0
VERTEX
  5
1010B
  8
0
 62
     7
 10
53.134542527028543
 20
35.841701730003251
 30
0.0
  0
VERTEX
  5
1010C
  8
0
 62
     7
 10
55.420707891040372
 20
36.43425815346621
 30
0.0
  0
VERTEX
  5
1010D
  8
0
 62
     7
 10
57.53737455717782
 20
37.111563925866342
 30
0.0
  0
VERTEX
  5
1010E
  8
0
 62
     7
 10
59.399793176503927
 20
38.127867094015073
 30
0.0
  0
VERTEX
  5
1010F
  8
0
 62
     7
 10
60.8391540702413
 20
39.228230592003797
 30
0.0
  0
VERTEX
  5
10110
  8
0
 62
     7
 10
61.940206587327111
 20
40.582842136804061
 30
0.0
  0
VERTEX
  5
10111
  8
0
 62
     7
 10
62.702261708664409
 20
41.93745368160431
 30
0.0
  0
VERTEX
  5
10112
  8
0
 62
     7
 10
62.871760406538712
 20
43.376814575341662
 30
0.0
  0
SEQEND
  5
10113
  8
0
 62
     7
  0
POLYLINE
  5
FD19
  8
0
 62
     7
 66
     1
 10
0.0
 20
0.0
 30
0.0
  0
VERTEX
  5
10120
  8
0
 62
     7
 10
43.99057009007845
 20
67.76120041994011
 30
0.0
  0
VERTEX
  5
10121
  8
0
 62
     7
 10
43.99057009007845
 20
62.30828263306946
 30
0.0
  0
SEQEND
  5
10122
  8
0
 62
     7
  0
POLYLINE
  5
FD1A
  8
0
 62
     7
 66
     1
 10
0.0
 20
0.0
 30
0.0
  0
VERTEX
  5
10123
  8
0
 62
     7
 10
50.594818135302361
 20
71.486726677689262
 30
0.0
  0
VERTEX
  5
10124
  8
0
 62
     7
 10
50.594818135302361
 20
65.898092781516993
 30
0.0
  0
SEQEND
  5
10125
  8
0
 62
     7
  0
CIRCLE
  5
FD1B
  8
0
  6
CONTINUOUS
 10
47.348586393266082
 20
68.432419565156351
 30
0.0
 40
0.2375509517193912
  0
CIRCLE
  5
FD1E
  8
0
  6
CONTINUOUS
 10
45.084932933385787
 20
67.147319236447856
 30
0.0
 40
0.2375509517193912
  0
CIRCLE
  5
FD1F
  8
0
  6
CONTINUOUS
 10
49.668132133721933
 20
69.77339406260387
 30
0.0
 40
0.2375509517193912
  0
POLYLINE
  5
FD20
  8
0
 62
     7
 66
     1
 10
0.0
 20
0.0
 30
0.0
  0
VERTEX
  5
10126
  8
0
 62
     7
 10
45.746255314120049
 20
69.604023783545443
 30
0.0
  0
VERTEX
  5
10127
  8
0
 62
     7
 10
45.746255314120049
 20
68.350384221832286
 30
0.0
  0
SEQEND
  5
10128
  8
0
 62
     7
  0
POLYLINE
  5
FD21
  8
0
 62
     7
 66
     1
 10
0.0
 20
0.0
 30
0.0
  0
VERTEX
  5
10129
  8
0
 62
     7
 10
46.091121709630443
 20
69.802992084763218
 30
0.0
  0
VERTEX
  5
1012A
  8
0
 62
     7
 10
46.091121709630443
 20
68.549352523050061
 30
0.0
  0
SEQEND
  5
1012B
  8
0
 62
     7
  0
POLYLINE
  5
FD22
  8
0
 62
     7
 66
     1
 10
0.0
 20
0.0
 30
0.0
  0
VERTEX
  5
1012C
  8
0
 62
     7
 10
45.746255314120049
 20
69.604023783545443
 30
0.0
  0
VERTEX
  5
1012D
  8
0
 62
     7
 10
46.091121709630443
 20
69.802992084763218
 30
0.0
  0
SEQEND
  5
1012E
  8
0
 62
     7
  0
LINE
  5
FD23
  8
0
  6
CONTINUOUS
 10
46.091121709630443
 20
69.802992084763218
 30
0.0
 11
47.370798886973461
 21
69.287653492346536
 31
0.0
  0
POLYLINE
  5
FD24
  8
0
 62
     7
 66
     1
 10
0.0
 20
0.0
 30
0.0
  0
VERTEX
  5
1012F
  8
0
 62
     7
 10
48.003564581286582
 20
70.889004485727327
 30
0.0
  0
VERTEX
  5
10130
  8
0
 62
     7
 10
48.003564581286582
 20
69.635364924014155
 30
0.0
  0
SEQEND
  5
10131
  8
0
 62
     7
  0
POLYLINE
  5
FD25
  8
0
 62
     7
 66
     1
 10
0.0
 20
0.0
 30
0.0
  0
VERTEX
  5
10132
  8
0
 62
     7
 10
48.348430976796983
 20
71.087972786945102
 30
0.0
  0
VERTEX
  5
10133
  8
0
 62
     7
 10
48.348430976796983
 20
69.834333225231944
 30
0.0
  0
SEQEND
  5
10134
  8
0
 62
     7
  0
POLYLINE
  5
FD26
  8
0
 62
     7
 66
     1
 10
0.0
 20
0.0
 30
0.0
  0
VERTEX
  5
10135
  8
0
 62
     7
 10
48.003564581286582
 20
70.889004485727327
 30
0.0
  0
VERTEX
  5
10136
  8
0
 62
     7
 10
48.348430976796983
 20
71.087972786945102
 30
0.0
  0
SEQEND
  5
10137
  8
0
 62
     7
  0
LINE
  5
FD27
  8
0
  6
CONTINUOUS
 10
48.348430976796983
 20
71.087972786945102
 30
0.0
 11
49.628108154139987
 21
70.572634194528419
 31
0.0
  0
POLYLINE
  5
FD28
  8
0
 62
     7
 66
     1
 10
0.0
 20
0.0
 30
0.0
  0
VERTEX
  5
10138
  8
0
 62
     7
 10
44.111793087520468
 20
43.980701875890169
 30
0.0
  0
VERTEX
  5
10139
  8
0
 62
     7
 10
44.111793087520468
 20
44.065451224827349
 30
0.0
  0
VERTEX
  5
1013A
  8
0
 62
     7
 10
44.027043738583373
 20
44.234949922701603
 30
0.0
  0
VERTEX
  5
1013B
  8
0
 62
     7
 10
43.858234059806129
 20
44.319010252541709
 30
0.0
  0
VERTEX
  5
1013C
  8
0
 62
     7
 10
43.773484710868949
 20
44.488508950416069
 30
0.0
  0
VERTEX
  5
1013D
  8
0
 62
     7
 10
43.603986012994703
 20
44.573258299353128
 30
0.0
  0
VERTEX
  5
1013E
  8
0
 62
     7
 10
43.349737966183277
 20
44.573258299353128
 30
0.0
  0
VERTEX
  5
1013F
  8
0
 62
     7
 10
43.096178938468817
 20
44.658007648290322
 30
0.0
  0
VERTEX
  5
10140
  8
0
 62
     7
 10
42.418873166068678
 20
44.658007648290322
 30
0.0
  0
VERTEX
  5
10141
  8
0
 62
     7
 10
42.164625119257252
 20
44.573258299353128
 30
0.0
  0
VERTEX
  5
10142
  8
0
 62
     7
 10
41.995126421383013
 20
44.488508950416069
 30
0.0
  0
VERTEX
  5
10143
  8
0
 62
     7
 10
41.826316742605727
 20
44.403759601478882
 30
0.0
  0
VERTEX
  5
10144
  8
0
 62
     7
 10
41.65681804473148
 20
44.319010252541709
 30
0.0
  0
VERTEX
  5
10145
  8
0
 62
     7
 10
41.572068695794307
 20
44.15020057376455
 30
0.0
  0
VERTEX
  5
10146
  8
0
 62
     7
 10
41.572068695794307
 20
43.726453829078757
 30
0.0
  0
VERTEX
  5
10147
  8
0
 62
     7
 10
41.65681804473148
 20
43.641704480141577
 30
0.0
  0
VERTEX
  5
10148
  8
0
 62
     7
 10
41.826316742605727
 20
43.472894801364411
 30
0.0
  0
VERTEX
  5
10149
  8
0
 62
     7
 10
41.995126421383013
 20
43.388145452427239
 30
0.0
  0
VERTEX
  5
1014A
  8
0
 62
     7
 10
42.164625119257252
 20
43.303396103490051
 30
0.0
  0
VERTEX
  5
1014B
  8
0
 62
     7
 10
42.418873166068678
 20
43.218646754552978
 30
0.0
  0
VERTEX
  5
1014C
  8
0
 62
     7
 10
43.096178938468817
 20
43.218646754552978
 30
0.0
  0
VERTEX
  5
1014D
  8
0
 62
     7
 10
43.349737966183277
 20
43.303396103490051
 30
0.0
  0
VERTEX
  5
1014E
  8
0
 62
     7
 10
43.603986012994703
 20
43.303396103490051
 30
0.0
  0
VERTEX
  5
1014F
  8
0
 62
     7
 10
43.773484710868949
 20
43.472894801364411
 30
0.0
  0
VERTEX
  5
10150
  8
0
 62
     7
 10
43.858234059806129
 20
43.556955131204496
 30
0.0
  0
VERTEX
  5
10151
  8
0
 62
     7
 10
44.027043738583373
 20
43.641704480141577
 30
0.0
  0
VERTEX
  5
10152
  8
0
 62
     7
 10
44.111793087520468
 20
43.811203178015937
 30
0.0
  0
VERTEX
  5
10153
  8
0
 62
     7
 10
44.111793087520468
 20
43.980701875890169
 30
0.0
  0
SEQEND
  5
10154
  8
0
 62
     7
  0
POLYLINE
  5
FD29
  8
0
 62
     7
 66
     1
 10
0.0
 20
0.0
 30
0.0
  0
VERTEX
  5
10155
  8
0
 62
     7
 10
49.853255300312632
 20
47.246300113375568
 30
0.0
  0
VERTEX
  5
10156
  8
0
 62
     7
 10
49.853255300312632
 20
47.331049462312741
 30
0.0
  0
VERTEX
  5
10157
  8
0
 62
     7
 10
49.768505951375523
 20
47.500548160187002
 30
0.0
  0
VERTEX
  5
10158
  8
0
 62
     7
 10
49.599696272598287
 20
47.584608490027108
 30
0.0
  0
VERTEX
  5
10159
  8
0
 62
     7
 10
49.514946923661107
 20
47.754107187901461
 30
0.0
  0
VERTEX
  5
1015A
  8
0
 62
     7
 10
49.345448225786861
 20
47.83885653683852
 30
0.0
  0
VERTEX
  5
1015B
  8
0
 62
     7
 10
49.091200178975441
 20
47.83885653683852
 30
0.0
  0
VERTEX
  5
1015C
  8
0
 62
     7
 10
48.837641151260982
 20
47.923605885775707
 30
0.0
  0
VERTEX
  5
1015D
  8
0
 62
     7
 10
48.16033537886085
 20
47.923605885775707
 30
0.0
  0
VERTEX
  5
1015E
  8
0
 62
     7
 10
47.906087332049403
 20
47.83885653683852
 30
0.0
  0
VERTEX
  5
1015F
  8
0
 62
     7
 10
47.736588634175178
 20
47.754107187901461
 30
0.0
  0
VERTEX
  5
10160
  8
0
 62
     7
 10
47.567778955397891
 20
47.669357838964267
 30
0.0
  0
VERTEX
  5
10161
  8
0
 62
     7
 10
47.398280257523638
 20
47.584608490027108
 30
0.0
  0
VERTEX
  5
10162
  8
0
 62
     7
 10
47.313530908586458
 20
47.415798811249942
 30
0.0
  0
VERTEX
  5
10163
  8
0
 62
     7
 10
47.313530908586458
 20
46.992052066564149
 30
0.0
  0
VERTEX
  5
10164
  8
0
 62
     7
 10
47.398280257523638
 20
46.907302717626969
 30
0.0
  0
VERTEX
  5
10165
  8
0
 62
     7
 10
47.567778955397891
 20
46.738493038849803
 30
0.0
  0
VERTEX
  5
10166
  8
0
 62
     7
 10
47.736588634175178
 20
46.653743689912631
 30
0.0
  0
VERTEX
  5
10167
  8
0
 62
     7
 10
47.906087332049403
 20
46.568994340975443
 30
0.0
  0
VERTEX
  5
10168
  8
0
 62
     7
 10
48.16033537886085
 20
46.48424499203837
 30
0.0
  0
VERTEX
  5
10169
  8
0
 62
     7
 10
48.837641151260982
 20
46.48424499203837
 30
0.0
  0
VERTEX
  5
1016A
  8
0
 62
     7
 10
49.091200178975441
 20
46.568994340975443
 30
0.0
  0
VERTEX
  5
1016B
  8
0
 62
     7
 10
49.345448225786861
 20
46.568994340975443
 30
0.0
  0
VERTEX
  5
1016C
  8
0
 62
     7
 10
49.514946923661107
 20
46.738493038849803
 30
0.0
  0
VERTEX
  5
1016D
  8
0
 62
     7
 10
49.599696272598287
 20
46.822553368689903
 30
0.0
  0
VERTEX
  5
1016E
  8
0
 62
     7
 10
49.768505951375523
 20
46.907302717626969
 30
0.0
  0
VERTEX
  5
1016F
  8
0
 62
     7
 10
49.853255300312632
 20
47.076801415501329
 30
0.0
  0
VERTEX
  5
10170
  8
0
 62
     7
 10
49.853255300312632
 20
47.246300113375568
 30
0.0
  0
SEQEND
  5
10171
  8
0
 62
     7
  0
POLYLINE
  5
FD2B
  8
0
 62
     7
 66
     1
 10
0.0
 20
0.0
 30
0.0
  0
VERTEX
  5
10172
  8
0
 62
     7
 10
52.025820590968578
 20
43.427797775962993
 30
0.0
  0
VERTEX
  5
10173
  8
0
 62
     7
 10
52.025820590968578
 20
43.631196213412217
 30
0.0
  0
VERTEX
  5
10174
  8
0
 62
     7
 10
51.822422153519518
 20
44.037993088310422
 30
0.0
  0
VERTEX
  5
10175
  8
0
 62
     7
 10
51.417278924454173
 20
44.239737879926679
 30
0.0
  0
VERTEX
  5
10176
  8
0
 62
     7
 10
51.213880487004921
 20
44.646534754825133
 30
0.0
  0
VERTEX
  5
10177
  8
0
 62
     7
 10
50.807083612106723
 20
44.849933192274086
 30
0.0
  0
VERTEX
  5
10178
  8
0
 62
     7
 10
50.196888299759323
 20
44.849933192274086
 30
0.0
  0
VERTEX
  5
10179
  8
0
 62
     7
 10
49.588346633244591
 20
45.053331629723338
 30
0.0
  0
VERTEX
  5
1017A
  8
0
 62
     7
 10
47.962812779484281
 20
45.053331629723338
 30
0.0
  0
VERTEX
  5
1017B
  8
0
 62
     7
 10
47.352617467136838
 20
44.849933192274086
 30
0.0
  0
VERTEX
  5
1017C
  8
0
 62
     7
 10
46.945820592238682
 20
44.646534754825133
 30
0.0
  0
VERTEX
  5
1017D
  8
0
 62
     7
 10
46.540677363173188
 20
44.443136317375888
 30
0.0
  0
VERTEX
  5
1017E
  8
0
 62
     7
 10
46.133880488274997
 20
44.239737879926679
 30
0.0
  0
VERTEX
  5
1017F
  8
0
 62
     7
 10
45.930482050825773
 20
43.834594650861511
 30
0.0
  0
VERTEX
  5
10180
  8
0
 62
     7
 10
45.930482050825773
 20
42.8176024636156
 30
0.0
  0
VERTEX
  5
10181
  8
0
 62
     7
 10
46.133880488274997
 20
42.614204026166369
 30
0.0
  0
VERTEX
  5
10182
  8
0
 62
     7
 10
46.540677363173188
 20
42.209060797101152
 30
0.0
  0
VERTEX
  5
10183
  8
0
 62
     7
 10
46.945820592238682
 20
42.005662359651943
 30
0.0
  0
VERTEX
  5
10184
  8
0
 62
     7
 10
47.352617467136838
 20
41.802263922202677
 30
0.0
  0
VERTEX
  5
10185
  8
0
 62
     7
 10
47.962812779484281
 20
41.598865484753723
 30
0.0
  0
VERTEX
  5
10186
  8
0
 62
     7
 10
49.588346633244591
 20
41.598865484753723
 30
0.0
  0
VERTEX
  5
10187
  8
0
 62
     7
 10
50.196888299759323
 20
41.802263922202677
 30
0.0
  0
VERTEX
  5
10188
  8
0
 62
     7
 10
50.807083612106723
 20
41.802263922202677
 30
0.0
  0
VERTEX
  5
10189
  8
0
 62
     7
 10
51.213880487004921
 20
42.209060797101152
 30
0.0
  0
VERTEX
  5
1018A
  8
0
 62
     7
 10
51.417278924454173
 20
42.410805588717388
 30
0.0
  0
VERTEX
  5
1018B
  8
0
 62
     7
 10
51.822422153519518
 20
42.614204026166369
 30
0.0
  0
VERTEX
  5
1018C
  8
0
 62
     7
 10
52.025820590968578
 20
43.021000901064809
 30
0.0
  0
VERTEX
  5
1018D
  8
0
 62
     7
 10
52.025820590968578
 20
43.427797775962993
 30
0.0
  0
SEQEND
  5
1018E
  8
0
 62
     7
  0
ENDSEC
  0
EOF
